  0
SECTION
  2
HEADER
  9
$ACADVER
  1
AC1015
  9
$DWGCODEPAGE
  3
ANSI_932
  9
$LTSCALE
 40
20.0
  9
$FILLMODE
 70
     1
  9
$CLAYER
  8
0
  9
$PDMODE
 70
     0
  9
$SPLFRAME
 70
     0
  9
$SPLINETYPE
 70
     6
  9
$SPLINESEGS
 70
     8
  9
$DIMASZ
 40
2.000000
  9
$DIMEXE
 40
1.500000
  9
$DIMEXO
 40
0.800000
  9
$DIMTAD
 70
     1
  9
$DIMTIH
 70
     0
  9
$DIMTOH
 70
     0
  9
$DIMTVP
 40
0.500000
  9
$DIMTXT
 40
3.100000
  9
$EXTMIN
 10
0.000000
 20
0.000000
 30
0.000000
  9
$EXTMAX
 10
297.000000
 20
420.000000
 30
0.000000
  9
$MEASUREMENT
 70
  1
  9
$LIMMIN
 10
0.000000
 20
0.000000
  9
$LIMMAX
 10
297.000000
 20
420.000000
  9
$HANDSEED
  5
1E4
  9
$LWDISPLAY
290
     0
  9
$DIMBLK
  1
_OPEN
  9
$DIMDEC
 70
     2
  9
$DIMADEC
 70
     2
  9
$DIMAUNIT
 70
     0
  9
$DIMZIN
 70
     8
  9
$DIMAZIN
 70
     2
  9
$DIMTOFL
 70
     1
  0
ENDSEC
  0
SECTION
  2
CLASSES
  0
ENDSEC
  0
SECTION
  2
TABLES
  0
TABLE
  2
VPORT
  5
1AA
100
AcDbSymbolTable
 70
     1
  0
VPORT
  5
1AB
100
AcDbSymbolTableRecord
100
AcDbViewportTableRecord
  2
*ACTIVE
 70
     0
 12
134.434729
 22
123.178412
 40
210.356823
 41
1.183082
  0
ENDTAB
  0
TABLE
  2
LTYPE
  5
1AC
100
AcDbSymbolTable
 70
     2
  0
LTYPE
  5
1AD
100
AcDbSymbolTableRecord
100
AcDbLinetypeTableRecord
  2
BYBLOCK
 70
     0
  3

 72
    65
 73
     0
 40
0.0
  0
LTYPE
  5
1AE
100
AcDbSymbolTableRecord
100
AcDbLinetypeTableRecord
  2
BYLAYER
 70
     0
  3

 72
    65
 73
     0
 40
0.0
  0
LTYPE
  5
1AF
100
AcDbSymbolTableRecord
100
AcDbLinetypeTableRecord
  2
CONTINUOUS
 70
     0
  3
Solid line (NEC CAE2D for Win R16.0 : 2021.03.08)
 72
    65
 73
     0
 40
0.0
  0
LTYPE
  5
1B0
100
AcDbSymbolTableRecord
100
AcDbLinetypeTableRecord
  2
CENTER
 70
     0
  3
____ _ ____ _ ____ _ ____ _ ____ _ ____
 72
    65
 73
     4
 40
2.0
 49
1.25
 74
     0
 49
-0.25
 74
     0
 49
0.25
 74
     0
 49
-0.25
 74
     0
  0
ENDTAB
  0
TABLE
  2
LAYER
  5
1B1
100
AcDbSymbolTable
 70
    20
  0
LAYER
  5
1B2
100
AcDbSymbolTableRecord
100
AcDbLayerTableRecord
  2
0
 70
     0
 62
     7
  6
CONTINUOUS
370
    -3
390

  0
LAYER
  5
1B3
100
AcDbSymbolTableRecord
100
AcDbLayerTableRecord
  2
DXF0
 70
     0
 62
     7
  6
CONTINUOUS
370
    -3
390

  0
LAYER
  5
1B4
100
AcDbSymbolTableRecord
100
AcDbLayerTableRecord
  2
DXF0
 70
     0
 62
     7
  6
CONTINUOUS
370
    -3
390

  0
LAYER
  5
1B5
100
AcDbSymbolTableRecord
100
AcDbLayerTableRecord
  2
A0
 70
     0
 62
     9
  6
CONTINUOUS
370
    -3
390

  0
LAYER
  5
1B6
100
AcDbSymbolTableRecord
100
AcDbLayerTableRecord
  2
A2
 70
     0
 62
     9
  6
CONTINUOUS
370
    -3
390

  0
LAYER
  5
1B7
100
AcDbSymbolTableRecord
100
AcDbLayerTableRecord
  2
A5
 70
     0
 62
     8
  6
CONTINUOUS
370
    -3
390

  0
LAYER
  5
1B8
100
AcDbSymbolTableRecord
100
AcDbLayerTableRecord
  2
A8
 70
     0
 62
    10
  6
CONTINUOUS
370
    -3
390

  0
LAYER
  5
1B9
100
AcDbSymbolTableRecord
100
AcDbLayerTableRecord
  2
A10
 70
     0
 62
     6
  6
CONTINUOUS
370
    -3
390

  0
LAYER
  5
1BA
100
AcDbSymbolTableRecord
100
AcDbLayerTableRecord
  2
A11
 70
     0
 62
    10
  6
CONTINUOUS
370
    -3
390

  0
LAYER
  5
1BB
100
AcDbSymbolTableRecord
100
AcDbLayerTableRecord
  2
A12
 70
     0
 62
     5
  6
CONTINUOUS
370
    -3
390

  0
LAYER
  5
1BC
100
AcDbSymbolTableRecord
100
AcDbLayerTableRecord
  2
A18
 70
     0
 62
     7
  6
CONTINUOUS
370
    -3
390

  0
LAYER
  5
1BD
100
AcDbSymbolTableRecord
100
AcDbLayerTableRecord
  2
A20
 70
     0
 62
     1
  6
CONTINUOUS
370
    -3
390

  0
LAYER
  5
1BE
100
AcDbSymbolTableRecord
100
AcDbLayerTableRecord
  2
A27
 70
     0
 62
   242
  6
CONTINUOUS
370
    -3
390

  0
LAYER
  5
1BF
100
AcDbSymbolTableRecord
100
AcDbLayerTableRecord
  2
A30
 70
     0
 62
     1
  6
CONTINUOUS
370
    -3
390

  0
LAYER
  5
1C0
100
AcDbSymbolTableRecord
100
AcDbLayerTableRecord
  2
A40
 70
     0
 62
     9
  6
CONTINUOUS
370
    -3
390

  0
LAYER
  5
1C1
100
AcDbSymbolTableRecord
100
AcDbLayerTableRecord
  2
A46
 70
     0
 62
    14
  6
CONTINUOUS
370
    -3
390

  0
LAYER
  5
1C2
100
AcDbSymbolTableRecord
100
AcDbLayerTableRecord
  2
A50
 70
     0
 62
    12
  6
CONTINUOUS
370
    -3
390

  0
LAYER
  5
1C3
100
AcDbSymbolTableRecord
100
AcDbLayerTableRecord
  2
A1023
 70
     0
 62
     8
  6
CONTINUOUS
370
    -3
390

  0
LAYER
  5
1C4
100
AcDbSymbolTableRecord
100
AcDbLayerTableRecord
  2
DXF1023
 70
     0
 62
     8
  6
CONTINUOUS
370
    -3
390

  0
LAYER
  5
1C5
100
AcDbSymbolTableRecord
100
AcDbLayerTableRecord
  2
DXF1023
 70
     0
 62
    16
  6
CONTINUOUS
370
    -3
390

  0
ENDTAB
  0
TABLE
  2
STYLE
  5
1C6
100
AcDbSymbolTable
 70
     4
  0
STYLE
  5
1C7
100
AcDbSymbolTableRecord
100
AcDbTextStyleTableRecord
  2
STANDARD
 70
    64
 40
0.0
 41
1.0
 50
0.0
 71
     0
 42
3.000000000000000
  3
TXT
  4

  0
STYLE
  5
1C8
100
AcDbSymbolTableRecord
100
AcDbTextStyleTableRecord
  2
ANKTATE
 70
    68
 40
0.0
 41
1.0
 50
0.0
 71
     0
 42
3.000000000000000
  3
TXT
  4

  0
STYLE
  5
1C9
100
AcDbSymbolTableRecord
100
AcDbTextStyleTableRecord
  2
KNJYOKO
 70
    64
 40
0.0
 41
1.0
 50
0.0
 71
     0
 42
3.000000000000000
  3
TXT
  4
BIGFONT
  0
STYLE
  5
1CA
100
AcDbSymbolTableRecord
100
AcDbTextStyleTableRecord
  2
KNJTATE
 70
    68
 40
0.0
 41
1.0
 50
0.0
 71
     0
 42
3.000000000000000
  3
TXT
  4
BIGFONT
  0
ENDTAB
  0
TABLE
  2
VIEW
  5
1CB
100
AcDbSymbolTable
 70
     0
  0
ENDTAB
  0
TABLE
  2
UCS
  5
1CC
100
AcDbSymbolTable
 70
     0
  0
ENDTAB
  0
TABLE
  2
APPID
  5
1CD
100
AcDbSymbolTable
 70
     1
  0
APPID
  5
1CE
100
AcDbSymbolTableRecord
100
AcDbRegAppTableRecord
  2
ACAD
 70
     0
  0
ENDTAB
  0
TABLE
  2
DIMSTYLE
  5
1CF
100
AcDbSymbolTable
 70
     2
100
AcDbDimStyleTable
  0
DIMSTYLE
105
1D0
100
AcDbSymbolTableRecord
100
AcDbDimStyleTableRecord
  2
STANDARD
 70
     0
 41
2.000000
 44
1.500000
 42
0.800000
145
0.661290
140
3.100000
144
1.000000
146
0.645161
340
1C7
  0
DIMSTYLE
105
1D1
100
AcDbSymbolTableRecord
100
AcDbDimStyleTableRecord
  2
DXF001
 70
     0
 41
2.000000
 44
1.500000
 42
0.800000
145
0.661290
140
3.100000
144
1.000000
146
0.645161
 77
     1
 73
     0
 74
     0
271
     2
179
     2
275
     0
 78
     8
 79
     2
172
     1
340
1C7
  0
ENDTAB
  0
TABLE
  2
BLOCK_RECORD
  5
1D2
100
AcDbSymbolTable
 70
    12
  0
BLOCK_RECORD
  5
1D3
100
AcDbSymbolTableRecord
100
AcDbBlockTableRecord
  2
*MODEL_SPACE
  0
BLOCK_RECORD
  5
1D4
100
AcDbSymbolTableRecord
100
AcDbBlockTableRecord
  2
*PAPER_SPACE
  0
BLOCK_RECORD
  5
1D5
100
AcDbSymbolTableRecord
100
AcDbBlockTableRecord
  2
*PAPER_SPACE0
  0
BLOCK_RECORD
  5
1
100
AcDbSymbolTableRecord
100
AcDbBlockTableRecord
  2
_NONE
  0
BLOCK_RECORD
  5
4
100
AcDbSymbolTableRecord
100
AcDbBlockTableRecord
  2
_CLOSED
  0
BLOCK_RECORD
  5
B
100
AcDbSymbolTableRecord
100
AcDbBlockTableRecord
  2
_DOT
  0
BLOCK_RECORD
  5
13
100
AcDbSymbolTableRecord
100
AcDbBlockTableRecord
  2
_OPEN
  0
BLOCK_RECORD
  5
19
100
AcDbSymbolTableRecord
100
AcDbBlockTableRecord
  2
_ORIGIN
  0
BLOCK_RECORD
  5
1E
100
AcDbSymbolTableRecord
100
AcDbBlockTableRecord
  2
_OPEN30
  0
BLOCK_RECORD
  5
24
100
AcDbSymbolTableRecord
100
AcDbBlockTableRecord
  2
_BOXFILLED
  0
BLOCK_RECORD
  5
29
100
AcDbSymbolTableRecord
100
AcDbBlockTableRecord
  2
_BOXBLANK
  0
BLOCK_RECORD
  5
31
100
AcDbSymbolTableRecord
100
AcDbBlockTableRecord
  2
_OBLIQUE
  0
BLOCK_RECORD
  5
35
100
AcDbSymbolTableRecord
100
AcDbBlockTableRecord
  2
_OPEN90
  0
BLOCK_RECORD
  5
3B
100
AcDbSymbolTableRecord
100
AcDbBlockTableRecord
  2
_CLOSEDBLANK
  0
BLOCK_RECORD
  5
41
100
AcDbSymbolTableRecord
100
AcDbBlockTableRecord
  2
_DOTBLANK
  0
ENDTAB
  0
ENDSEC
  0
SECTION
  2
BLOCKS
  0
BLOCK
  5
1D6
100
AcDbEntity
  8
0
100
AcDbBlockBegin
  2
*MODEL_SPACE
 70
     0
 10
0.0
 20
0.0
 30
0.0
  3
*MODEL_SPACE
  1

  0
ENDBLK
  5
1D7
100
AcDbEntity
  8
0
100
AcDbBlockEnd
  0
BLOCK
  5
1D8
100
AcDbEntity
  8
0
100
AcDbBlockBegin
  2
*PAPER_SPACE
 70
     0
 10
0.0
 20
0.0
 30
0.0
  3
*PAPER_SPACE
  1

  0
ENDBLK
  5
1D9
100
AcDbEntity
  8
0
100
AcDbBlockEnd
  0
BLOCK
  5
1DA
100
AcDbEntity
  8
0
100
AcDbBlockBegin
  2
*PAPER_SPACE0
 70
     0
 10
0.0
 20
0.0
 30
0.0
  3
*PAPER_SPACE0
  1

  0
ENDBLK
  5
1DB
100
AcDbEntity
  8
0
100
AcDbBlockEnd
  0
BLOCK
  5
2
330
1
100
AcDbEntity
  8
0
100
AcDbBlockBegin
  2
_NONE
 70
     0
 10
0.0
 20
0.0
 30
0.0
  3
_NONE
  1

  0
ENDBLK
  5
3
330
1
100
AcDbEntity
  8
0
100
AcDbBlockEnd
  0
BLOCK
  5
5
330
4
100
AcDbEntity
  8
0
100
AcDbBlockBegin
  2
_CLOSED
 70
     0
 10
0.0
 20
0.0
 30
0.0
  3
_CLOSED
  1

  0
LINE
  5
6
330
4
100
AcDbEntity
  8
0
  6
BYBLOCK
 62
     0
370
    -2
100
AcDbLine
 10
-1.0
 20
0.166667
 30
0.0
 11
0.0
 21
0.0
 31
0.0
  0
LINE
  5
7
330
4
100
AcDbEntity
  8
0
  6
BYBLOCK
 62
     0
370
    -2
100
AcDbLine
 10
0.0
 20
0.0
 30
0.0
 11
-1.0
 21
-0.166667
 31
0.0
  0
LINE
  5
8
330
4
100
AcDbEntity
  8
0
  6
BYBLOCK
 62
     0
370
    -2
100
AcDbLine
 10
-1.0
 20
0.166667
 30
0.0
 11
-1.0
 21
-0.166667
 31
0.0
  0
LINE
  5
9
330
4
100
AcDbEntity
  8
0
  6
BYBLOCK
 62
     0
370
    -2
100
AcDbLine
 10
0.0
 20
0.0
 30
0.0
 11
-1.0
 21
0.0
 31
0.0
  0
ENDBLK
  5
A
330
4
100
AcDbEntity
  8
0
100
AcDbBlockEnd
  0
BLOCK
  5
C
330
B
100
AcDbEntity
  8
0
100
AcDbBlockBegin
  2
_DOT
 70
     0
 10
0.0
 20
0.0
 30
0.0
  3
_DOT
  1

  0
POLYLINE
  5
D
330
B
100
AcDbEntity
  8
0
  6
BYBLOCK
 62
     0
370
    -2
100
AcDb2dPolyline
 66
     1
 10
0.0
 20
0.0
 30
0.0
 70
     1
 40
0.5
 41
0.5
  0
VERTEX
  5
E
330
B
100
AcDbEntity
  8
0
  6
BYBLOCK
 62
     0
370
    -2
100
AcDbVertex
100
AcDb2dVertex
 10
-0.25
 20
0.0
 30
0.0
 42
1.0
  0
VERTEX
  5
F
330
B
100
AcDbEntity
  8
0
  6
BYBLOCK
 62
     0
370
    -2
100
AcDbVertex
100
AcDb2dVertex
 10
0.25
 20
0.0
 30
0.0
 42
1.0
  0
SEQEND
  5
10
330
B
100
AcDbEntity
  8
0
  6
BYBLOCK
 62
     0
370
    -2
  0
LINE
  5
11
330
B
100
AcDbEntity
  8
0
  6
BYBLOCK
 62
     0
370
    -2
100
AcDbLine
 10
-0.5
 20
0.0
 30
0.0
 11
-1.0
 21
0.0
 31
0.0
  0
ENDBLK
  5
12
330
B
100
AcDbEntity
  8
0
100
AcDbBlockEnd
  0
BLOCK
  5
14
330
13
100
AcDbEntity
  8
0
100
AcDbBlockBegin
  2
_OPEN
 70
     0
 10
0.0
 20
0.0
 30
0.0
  3
_OPEN
  1

  0
LINE
  5
15
330
13
100
AcDbEntity
  8
0
  6
BYBLOCK
 62
     0
370
    -2
100
AcDbLine
 10
-1.0
 20
0.166667
 30
0.0
 11
0.0
 21
0.0
 31
0.0
  0
LINE
  5
16
330
13
100
AcDbEntity
  8
0
  6
BYBLOCK
 62
     0
370
    -2
100
AcDbLine
 10
0.0
 20
0.0
 30
0.0
 11
-1.0
 21
-0.166667
 31
0.0
  0
LINE
  5
17
330
13
100
AcDbEntity
  8
0
  6
BYBLOCK
 62
     0
370
    -2
100
AcDbLine
 10
0.0
 20
0.0
 30
0.0
 11
-1.0
 21
0.0
 31
0.0
  0
ENDBLK
  5
18
330
13
100
AcDbEntity
  8
0
100
AcDbBlockEnd
  0
BLOCK
  5
1A
330
19
100
AcDbEntity
  8
0
100
AcDbBlockBegin
  2
_ORIGIN
 70
     0
 10
0.0
 20
0.0
 30
0.0
  3
_ORIGIN
  1

  0
CIRCLE
  5
1B
330
19
100
AcDbEntity
  8
0
  6
BYBLOCK
 62
     0
370
    -2
100
AcDbCircle
 10
0.0
 20
0.0
 30
0.0
 40
0.5
  0
LINE
  5
1C
330
19
100
AcDbEntity
  8
0
  6
BYBLOCK
 62
     0
370
    -2
100
AcDbLine
 10
0.0
 20
0.0
 30
0.0
 11
-1.0
 21
0.0
 31
0.0
  0
ENDBLK
  5
1D
330
19
100
AcDbEntity
  8
0
100
AcDbBlockEnd
  0
BLOCK
  5
1F
330
1E
100
AcDbEntity
  8
0
100
AcDbBlockBegin
  2
_OPEN30
 70
     0
 10
0.0
 20
0.0
 30
0.0
  3
_OPEN30
  1

  0
LINE
  5
20
330
1E
100
AcDbEntity
  8
0
  6
BYBLOCK
 62
     0
370
    -2
100
AcDbLine
 10
-1.0
 20
0.267949
 30
0.0
 11
0.0
 21
0.0
 31
0.0
  0
LINE
  5
21
330
1E
100
AcDbEntity
  8
0
  6
BYBLOCK
 62
     0
370
    -2
100
AcDbLine
 10
0.0
 20
0.0
 30
0.0
 11
-1.0
 21
-0.267949
 31
0.0
  0
LINE
  5
22
330
1E
100
AcDbEntity
  8
0
  6
BYBLOCK
 62
     0
370
    -2
100
AcDbLine
 10
0.0
 20
0.0
 30
0.0
 11
-1.0
 21
0.0
 31
0.0
  0
ENDBLK
  5
23
330
1E
100
AcDbEntity
  8
0
100
AcDbBlockEnd
  0
BLOCK
  5
25
330
24
100
AcDbEntity
  8
0
100
AcDbBlockBegin
  2
_BOXFILLED
 70
     0
 10
0.0
 20
0.0
 30
0.0
  3
_BOXFILLED
  1

  0
SOLID
  5
26
330
24
100
AcDbEntity
  8
0
  6
BYBLOCK
 62
     0
370
    -2
100
AcDbTrace
 10
-0.5
 20
0.5
 30
0.0
 11
0.5
 21
0.5
 31
0.0
 12
-0.5
 22
-0.5
 32
0.0
 13
0.5
 23
-0.5
 33
0.0
  0
LINE
  5
27
330
24
100
AcDbEntity
  8
0
  6
BYBLOCK
 62
     0
370
    -2
100
AcDbLine
 10
-0.5
 20
0.0
 30
0.0
 11
-1.0
 21
0.0
 31
0.0
  0
ENDBLK
  5
28
330
24
100
AcDbEntity
  8
0
100
AcDbBlockEnd
  0
BLOCK
  5
2A
330
29
100
AcDbEntity
  8
0
100
AcDbBlockBegin
  2
_BOXBLANK
 70
     0
 10
0.0
 20
0.0
 30
0.0
  3
_BOXBLANK
  1

  0
LINE
  5
2B
330
29
100
AcDbEntity
  8
0
  6
BYBLOCK
 62
     0
370
    -2
100
AcDbLine
 10
-0.5
 20
-0.5
 30
0.0
 11
0.5
 21
-0.5
 31
0.0
  0
LINE
  5
2C
330
29
100
AcDbEntity
  8
0
  6
BYBLOCK
 62
     0
370
    -2
100
AcDbLine
 10
0.5
 20
-0.5
 30
0.0
 11
0.5
 21
0.5
 31
0.0
  0
LINE
  5
2D
330
29
100
AcDbEntity
  8
0
  6
BYBLOCK
 62
     0
370
    -2
100
AcDbLine
 10
0.5
 20
0.5
 30
0.0
 11
-0.5
 21
0.5
 31
0.0
  0
LINE
  5
2E
330
29
100
AcDbEntity
  8
0
  6
BYBLOCK
 62
     0
370
    -2
100
AcDbLine
 10
-0.5
 20
0.5
 30
0.0
 11
-0.5
 21
-0.5
 31
0.0
  0
LINE
  5
2F
330
29
100
AcDbEntity
  8
0
  6
BYBLOCK
 62
     0
370
    -2
100
AcDbLine
 10
-0.5
 20
0.0
 30
0.0
 11
-1.0
 21
0.0
 31
0.0
  0
ENDBLK
  5
30
330
29
100
AcDbEntity
  8
0
100
AcDbBlockEnd
  0
BLOCK
  5
32
330
31
100
AcDbEntity
  8
0
100
AcDbBlockBegin
  2
_OBLIQUE
 70
     0
 10
0.0
 20
0.0
 30
0.0
  3
_OBLIQUE
  1

  0
LINE
  5
33
330
31
100
AcDbEntity
  8
0
  6
BYBLOCK
 62
     0
370
    -2
100
AcDbLine
 10
-0.5
 20
-0.5
 30
0.0
 11
0.5
 21
0.5
 31
0.0
  0
ENDBLK
  5
34
330
31
100
AcDbEntity
  8
0
100
AcDbBlockEnd
  0
BLOCK
  5
36
330
35
100
AcDbEntity
  8
0
100
AcDbBlockBegin
  2
_OPEN90
 70
     0
 10
0.0
 20
0.0
 30
0.0
  3
_OPEN90
  1

  0
LINE
  5
37
330
35
100
AcDbEntity
  8
0
  6
BYBLOCK
 62
     0
370
    -2
100
AcDbLine
 10
-0.5
 20
0.5
 30
0.0
 11
0.0
 21
0.0
 31
0.0
  0
LINE
  5
38
330
35
100
AcDbEntity
  8
0
  6
BYBLOCK
 62
     0
370
    -2
100
AcDbLine
 10
0.0
 20
0.0
 30
0.0
 11
-0.5
 21
-0.5
 31
0.0
  0
LINE
  5
39
330
35
100
AcDbEntity
  8
0
  6
BYBLOCK
 62
     0
370
    -2
100
AcDbLine
 10
0.0
 20
0.0
 30
0.0
 11
-1.0
 21
0.0
 31
0.0
  0
ENDBLK
  5
3A
330
35
100
AcDbEntity
  8
0
100
AcDbBlockEnd
  0
BLOCK
  5
3C
330
3B
100
AcDbEntity
  8
0
100
AcDbBlockBegin
  2
_CLOSEDBLANK
 70
     0
 10
0.0
 20
0.0
 30
0.0
  3
_CLOSEDBLANK
  1

  0
LINE
  5
3D
330
3B
100
AcDbEntity
  8
0
  6
BYBLOCK
 62
     0
370
    -2
100
AcDbLine
 10
-1.0
 20
0.1666666666666666
 30
0.0
 11
0.0
 21
0.0
 31
0.0
  0
LINE
  5
3E
330
3B
100
AcDbEntity
  8
0
  6
BYBLOCK
 62
     0
370
    -2
100
AcDbLine
 10
0.0
 20
0.0
 30
0.0
 11
-1.0
 21
-0.1666666666666666
 31
0.0
  0
LINE
  5
3F
330
3B
100
AcDbEntity
  8
0
  6
BYBLOCK
 62
     0
370
    -2
100
AcDbLine
 10
-1.0
 20
0.1666666666666666
 30
0.0
 11
-1.0
 21
-0.1666666666666666
 31
0.0
  0
ENDBLK
  5
40
330
3B
100
AcDbEntity
  8
0
100
AcDbBlockEnd
  0
BLOCK
  5
42
330
41
100
AcDbEntity
  8
0
100
AcDbBlockBegin
  2
_DOTBLANK
 70
     0
 10
0.0
 20
0.0
 30
0.0
  3
_DOTBLANK
  1

  0
CIRCLE
  5
43
330
41
100
AcDbEntity
  8
0
  6
BYBLOCK
 62
     0
370
    -2
100
AcDbCircle
 10
0.0
 20
0.0
 30
0.0
 40
0.5
  0
LINE
  5
44
330
41
100
AcDbEntity
  8
0
  6
BYBLOCK
 62
     0
370
    -2
100
AcDbLine
 10
-0.5
 20
0.0
 30
0.0
 11
-1.0
 21
0.0
 31
0.0
  0
ENDBLK
  5
45
330
41
100
AcDbEntity
  8
0
100
AcDbBlockEnd
  0
ENDSEC
  0
SECTION
  2
ENTITIES
  0
MTEXT
  5
46
100
AcDbEntity
  8
A8
  6
CONTINUOUS
 62
7
100
AcDbMText
 10
9.999997526638502
 20
18.00000076076889
 30
0.000000000000000
 40
3.000000000000000
 41
0.000000000000000
 44
0.6739999771118164
 71
     7
 72
     1
  1
{\H0.93x;{TYPE No.LD-0043}}
 11
1.000000000000000
 21
0.000000000000000
 31
0.000000000000000
  7
STANDARD
  0
CIRCLE
  5
47
100
AcDbEntity
  8
A18
  6
CONTINUOUS
 62
7
100
AcDbCircle
 10
148.6999999999998
 20
97.60733388493659
 30
0.000000000000000
 40
3.500000000000000
  0
CIRCLE
  5
48
100
AcDbEntity
  8
A18
  6
CONTINUOUS
 62
7
100
AcDbCircle
 10
131.1999999999999
 20
121.6073338617870
 30
0.000000000000000
 40
3.500000000000000
  0
LINE
  5
49
100
AcDbEntity
  8
A18
  6
CONTINUOUS
 62
7
100
AcDbLine
 10
107.1999999999999
 20
138.1073338033040
 30
0.000000000000000
 11
163.1999999999999
 21
138.1073338033040
 31
0.000000000000000
  0
LINE
  5
4A
100
AcDbEntity
  8
A18
  6
CONTINUOUS
 62
7
100
AcDbLine
 10
168.1999999999999
 20
133.1073338033046
 30
0.000000000000000
 11
168.1999999999999
 21
116.7116518712185
 31
0.000000000000000
  0
CIRCLE
  5
4B
100
AcDbEntity
  8
A10
  6
CONTINUOUS
 62
7
100
AcDbCircle
 10
148.6999999999998
 20
97.60733388493659
 30
0.000000000000000
 40
3.000000000000000
  0
LINE
  5
4C
100
AcDbEntity
  8
A10
  6
CONTINUOUS
 62
7
100
AcDbLine
 10
148.0080377333219
 20
98.29929615161453
 30
0.000000000000000
 11
148.1720095537301
 21
98.66758289013532
 31
0.000000000000000
  0
LINE
  5
4D
100
AcDbEntity
  8
A10
  6
CONTINUOUS
 62
7
100
AcDbLine
 10
148.0080377333219
 20
98.29929615161439
 30
0.000000000000000
 11
147.6397509948004
 21
98.13532433120599
 31
0.000000000000000
  0
LINE
  5
4E
100
AcDbEntity
  8
A10
  6
CONTINUOUS
 62
7
100
AcDbLine
 10
148.1720095537304
 20
98.66758289013538
 30
0.000000000000000
 11
148.1836012235129
 21
99.33166920721106
 31
0.000000000000000
  0
LINE
  5
4F
100
AcDbEntity
  8
A10
  6
CONTINUOUS
 62
7
100
AcDbLine
 10
147.6397509948003
 20
98.13532433120595
 30
0.000000000000000
 11
146.9756646777252
 21
98.12373266142345
 31
0.000000000000000
  0
LINE
  5
50
100
AcDbEntity
  8
A10
  6
CONTINUOUS
 62
7
100
AcDbLine
 10
149.2279904462694
 20
98.66758289013534
 30
0.000000000000000
 11
149.2163987764868
 21
99.33166920721092
 31
0.000000000000000
  0
LINE
  5
51
100
AcDbEntity
  8
A10
  6
CONTINUOUS
 62
7
100
AcDbLine
 10
149.3919622666776
 20
98.29929615161453
 30
0.000000000000000
 11
149.2279904462694
 21
98.66758289013544
 31
0.000000000000000
  0
LINE
  5
52
100
AcDbEntity
  8
A10
  6
CONTINUOUS
 62
7
100
AcDbLine
 10
149.3919622666773
 20
98.29929615161440
 30
0.000000000000000
 11
149.7602490051988
 21
98.13532433120581
 31
0.000000000000000
  0
LINE
  5
53
100
AcDbEntity
  8
A10
  6
CONTINUOUS
 62
7
100
AcDbLine
 10
149.7602490051989
 20
98.13532433120584
 30
0.000000000000000
 11
150.4243353222738
 21
98.12373266142353
 31
0.000000000000000
  0
LINE
  5
54
100
AcDbEntity
  8
A10
  6
CONTINUOUS
 62
7
100
AcDbLine
 10
149.7602490051984
 20
97.07934343866710
 30
0.000000000000000
 11
150.4243353222741
 21
97.09093510844959
 31
0.000000000000000
  0
LINE
  5
55
100
AcDbEntity
  8
A10
  6
CONTINUOUS
 62
7
100
AcDbLine
 10
149.3919622666776
 20
96.91537161825886
 30
0.000000000000000
 11
149.7602490051984
 21
97.07934343866697
 31
0.000000000000000
  0
LINE
  5
56
100
AcDbEntity
  8
A10
  6
CONTINUOUS
 62
7
100
AcDbLine
 10
149.3919622666774
 20
96.91537161825877
 30
0.000000000000000
 11
149.2279904462690
 21
96.54708487973741
 31
0.000000000000000
  0
LINE
  5
57
100
AcDbEntity
  8
A10
  6
CONTINUOUS
 62
7
100
AcDbLine
 10
149.2279904462689
 20
96.54708487973737
 30
0.000000000000000
 11
149.2163987764863
 21
95.88299856266228
 31
0.000000000000000
  0
LINE
  5
58
100
AcDbEntity
  8
A10
  6
CONTINUOUS
 62
7
100
AcDbLine
 10
148.1720095537300
 20
96.54708487973804
 30
0.000000000000000
 11
148.1836012235125
 21
95.88299856266242
 31
0.000000000000000
  0
LINE
  5
59
100
AcDbEntity
  8
A10
  6
CONTINUOUS
 62
7
100
AcDbLine
 10
148.0080377333218
 20
96.91537161825877
 30
0.000000000000000
 11
148.1720095537299
 21
96.54708487973788
 31
0.000000000000000
  0
LINE
  5
5A
100
AcDbEntity
  8
A10
  6
CONTINUOUS
 62
7
100
AcDbLine
 10
148.0080377333220
 20
96.91537161825892
 30
0.000000000000000
 11
147.6397509948006
 21
97.07934343866734
 31
0.000000000000000
  0
LINE
  5
5B
100
AcDbEntity
  8
A10
  6
CONTINUOUS
 62
7
100
AcDbLine
 10
147.6397509948006
 20
97.07934343866739
 30
0.000000000000000
 11
146.9756646777255
 21
97.09093510844968
 31
0.000000000000000
  0
ARC
  5
5C
100
AcDbEntity
  8
A10
  6
CONTINUOUS
 62
7
100
AcDbCircle
 10
148.6999999999998
 20
97.60733388493659
 30
0.000000000000000
 40
1.800000000000000
100
AcDbArc
 50
343.3282509640041
 51
376.6717490359751
  0
ARC
  5
5D
100
AcDbEntity
  8
A10
  6
CONTINUOUS
 62
7
100
AcDbCircle
 10
148.6999999999998
 20
97.60733388493659
 30
0.000000000000000
 40
1.800000000000000
100
AcDbArc
 50
253.3282509640079
 51
286.6717490359734
  0
ARC
  5
5E
100
AcDbEntity
  8
A10
  6
CONTINUOUS
 62
7
100
AcDbCircle
 10
148.6999999999998
 20
97.60733388493659
 30
0.000000000000000
 40
1.800000000000000
100
AcDbArc
 50
73.32825096401452
 51
106.6717490359855
  0
ARC
  5
5F
100
AcDbEntity
  8
A10
  6
CONTINUOUS
 62
7
100
AcDbCircle
 10
148.6999999999998
 20
97.60733388493659
 30
0.000000000000000
 40
1.800000000000000
100
AcDbArc
 50
163.3282509640185
 51
196.6717490359765
  0
CIRCLE
  5
60
100
AcDbEntity
  8
A10
  6
CONTINUOUS
 62
7
100
AcDbCircle
 10
131.1999999999999
 20
121.6073338617870
 30
0.000000000000000
 40
3.000000000000000
  0
LINE
  5
61
100
AcDbEntity
  8
A10
  6
CONTINUOUS
 62
7
100
AcDbLine
 10
130.5080377333223
 20
122.2992961284648
 30
0.000000000000000
 11
130.6720095537307
 21
122.6675828669857
 31
0.000000000000000
  0
LINE
  5
62
100
AcDbEntity
  8
A10
  6
CONTINUOUS
 62
7
100
AcDbLine
 10
130.5080377333223
 20
122.2992961284648
 30
0.000000000000000
 11
130.1397509948008
 21
122.1353243080564
 31
0.000000000000000
  0
LINE
  5
63
100
AcDbEntity
  8
A10
  6
CONTINUOUS
 62
7
100
AcDbLine
 10
130.6720095537304
 20
122.6675828669857
 30
0.000000000000000
 11
130.6836012235130
 21
123.3316691840615
 31
0.000000000000000
  0
LINE
  5
64
100
AcDbEntity
  8
A10
  6
CONTINUOUS
 62
7
100
AcDbLine
 10
130.1397509948005
 20
122.1353243080564
 30
0.000000000000000
 11
129.4756646777254
 21
122.1237326382740
 31
0.000000000000000
  0
LINE
  5
65
100
AcDbEntity
  8
A10
  6
CONTINUOUS
 62
7
100
AcDbLine
 10
131.7279904462698
 20
122.6675828669858
 30
0.000000000000000
 11
131.7163987764872
 21
123.3316691840613
 31
0.000000000000000
  0
LINE
  5
66
100
AcDbEntity
  8
A10
  6
CONTINUOUS
 62
7
100
AcDbLine
 10
131.8919622666779
 20
122.2992961284648
 30
0.000000000000000
 11
131.7279904462696
 21
122.6675828669858
 31
0.000000000000000
  0
LINE
  5
67
100
AcDbEntity
  8
A10
  6
CONTINUOUS
 62
7
100
AcDbLine
 10
131.8919622666778
 20
122.2992961284649
 30
0.000000000000000
 11
132.2602490051992
 21
122.1353243080564
 31
0.000000000000000
  0
LINE
  5
68
100
AcDbEntity
  8
A10
  6
CONTINUOUS
 62
7
100
AcDbLine
 10
132.2602490051992
 20
122.1353243080563
 30
0.000000000000000
 11
132.9243353222742
 21
122.1237326382740
 31
0.000000000000000
  0
LINE
  5
69
100
AcDbEntity
  8
A10
  6
CONTINUOUS
 62
7
100
AcDbLine
 10
132.2602490051987
 20
121.0793434155175
 30
0.000000000000000
 11
132.9243353222743
 21
121.0909350853000
 31
0.000000000000000
  0
LINE
  5
6A
100
AcDbEntity
  8
A10
  6
CONTINUOUS
 62
7
100
AcDbLine
 10
131.8919622666778
 20
120.9153715951091
 30
0.000000000000000
 11
132.2602490051988
 21
121.0793434155174
 31
0.000000000000000
  0
LINE
  5
6B
100
AcDbEntity
  8
A10
  6
CONTINUOUS
 62
7
100
AcDbLine
 10
131.8919622666778
 20
120.9153715951091
 30
0.000000000000000
 11
131.7279904462694
 21
120.5470848565876
 31
0.000000000000000
  0
LINE
  5
6C
100
AcDbEntity
  8
A10
  6
CONTINUOUS
 62
7
100
AcDbLine
 10
131.7279904462692
 20
120.5470848565878
 30
0.000000000000000
 11
131.7163987764866
 21
119.8829985395127
 31
0.000000000000000
  0
LINE
  5
6D
100
AcDbEntity
  8
A10
  6
CONTINUOUS
 62
7
100
AcDbLine
 10
130.6720095537303
 20
120.5470848565884
 30
0.000000000000000
 11
130.6836012235128
 21
119.8829985395128
 31
0.000000000000000
  0
LINE
  5
6E
100
AcDbEntity
  8
A10
  6
CONTINUOUS
 62
7
100
AcDbLine
 10
130.5080377333221
 20
120.9153715951092
 30
0.000000000000000
 11
130.6720095537303
 21
120.5470848565883
 31
0.000000000000000
  0
LINE
  5
6F
100
AcDbEntity
  8
A10
  6
CONTINUOUS
 62
7
100
AcDbLine
 10
130.5080377333226
 20
120.9153715951092
 30
0.000000000000000
 11
130.1397509948011
 21
121.0793434155177
 31
0.000000000000000
  0
LINE
  5
70
100
AcDbEntity
  8
A10
  6
CONTINUOUS
 62
7
100
AcDbLine
 10
130.1397509948011
 20
121.0793434155178
 30
0.000000000000000
 11
129.4756646777259
 21
121.0909350853001
 31
0.000000000000000
  0
ARC
  5
71
100
AcDbEntity
  8
A10
  6
CONTINUOUS
 62
7
100
AcDbCircle
 10
131.1999999999999
 20
121.6073338617870
 30
0.000000000000000
 40
1.800000000000000
100
AcDbArc
 50
343.3282509640041
 51
376.6717490359751
  0
ARC
  5
72
100
AcDbEntity
  8
A10
  6
CONTINUOUS
 62
7
100
AcDbCircle
 10
131.1999999999999
 20
121.6073338617870
 30
0.000000000000000
 40
1.800000000000000
100
AcDbArc
 50
253.3282509640079
 51
286.6717490359734
  0
ARC
  5
73
100
AcDbEntity
  8
A10
  6
CONTINUOUS
 62
7
100
AcDbCircle
 10
131.1999999999999
 20
121.6073338617870
 30
0.000000000000000
 40
1.800000000000000
100
AcDbArc
 50
73.32825096401452
 51
106.6717490359855
  0
ARC
  5
74
100
AcDbEntity
  8
A10
  6
CONTINUOUS
 62
7
100
AcDbCircle
 10
131.1999999999999
 20
121.6073338617870
 30
0.000000000000000
 40
1.800000000000000
100
AcDbArc
 50
163.3282509640185
 51
196.6717490359765
  0
CIRCLE
  5
75
100
AcDbEntity
  8
A10
  6
CONTINUOUS
 62
7
100
AcDbCircle
 10
161.1999999999998
 20
131.1073338849368
 30
0.000000000000000
 40
2.250000000000000
  0
CIRCLE
  5
76
100
AcDbEntity
  8
A10
  6
CONTINUOUS
 62
7
100
AcDbCircle
 10
161.1999999999998
 20
88.60733388493662
 30
0.000000000000000
 40
2.250000000000000
  0
CIRCLE
  5
77
100
AcDbEntity
  8
A10
  6
CONTINUOUS
 62
7
100
AcDbCircle
 10
133.1999999999999
 20
108.1073344392671
 30
0.000000000000000
 40
2.250000000000000
  0
LINE
  5
78
100
AcDbEntity
  8
A10
  6
CENTER
 62
1
100
AcDbLine
 10
166.2319832216332
 20
131.1073338849368
 30
0.000000000000000
 11
156.1872307689231
 21
131.1073338849368
 31
0.000000000000000
  0
LINE
  5
79
100
AcDbEntity
  8
A10
  6
CENTER
 62
1
100
AcDbLine
 10
166.2760636788788
 20
88.60733388493662
 30
0.000000000000000
 11
156.0886016246961
 21
88.60733388493662
 31
0.000000000000000
  0
LINE
  5
7A
100
AcDbEntity
  8
A10
  6
CENTER
 62
1
100
AcDbLine
 10
161.1999999999998
 20
83.51407385306760
 30
0.000000000000000
 11
161.1999999999998
 21
136.0707006365591
 31
0.000000000000000
  0
CIRCLE
  5
7B
100
AcDbEntity
  8
A10
  6
CONTINUOUS
 62
7
100
AcDbCircle
 10
161.1999999999998
 20
131.1073338849368
 30
0.000000000000000
 40
1.621000000000000
  0
CIRCLE
  5
7C
100
AcDbEntity
  8
A10
  6
CONTINUOUS
 62
1
100
AcDbCircle
 10
161.1999999999998
 20
131.1073338849368
 30
0.000000000000000
 40
2.000000000000000
  0
CIRCLE
  5
7D
100
AcDbEntity
  8
A10
  6
CONTINUOUS
 62
7
100
AcDbCircle
 10
161.1999999999998
 20
88.60733388493665
 30
0.000000000000000
 40
1.621000000000000
  0
CIRCLE
  5
7E
100
AcDbEntity
  8
A10
  6
CONTINUOUS
 62
1
100
AcDbCircle
 10
161.1999999999998
 20
88.60733388493665
 30
0.000000000000000
 40
2.000000000000000
  0
CIRCLE
  5
7F
100
AcDbEntity
  8
A10
  6
CONTINUOUS
 62
7
100
AcDbCircle
 10
133.1999999999999
 20
108.1073344392671
 30
0.000000000000000
 40
1.621000000000000
  0
CIRCLE
  5
80
100
AcDbEntity
  8
A10
  6
CONTINUOUS
 62
1
100
AcDbCircle
 10
133.1999999999999
 20
108.1073344392671
 30
0.000000000000000
 40
2.000000000000000
  0
ARC
  5
81
100
AcDbEntity
  8
A46
  6
CONTINUOUS
 62
7
100
AcDbCircle
 10
99.63804828780623
 20
131.3573338849367
 30
0.000000000000000
 40
1.500000000000000
100
AcDbArc
 50
37.66988696432971
 51
90.00000000000000
  0
ARC
  5
82
100
AcDbEntity
  8
A46
  6
CONTINUOUS
 62
7
100
AcDbCircle
 10
103.2000000000001
 20
134.1073338849367
 30
0.000000000000000
 40
3.000000000000000
100
AcDbArc
 50
217.6698869643295
 51
250.5287793654846
  0
LINE
  5
83
100
AcDbEntity
  8
A10
  6
CONTINUOUS
 62
7
100
AcDbLine
 10
89.94999999990804
 20
132.8573338849367
 30
0.000000000000000
 11
99.63804828780623
 21
132.8573338849367
 31
0.000000000000000
  0
CIRCLE
  5
84
100
AcDbEntity
  8
A10
  6
CONTINUOUS
 62
7
100
AcDbCircle
 10
94.20000000000006
 20
127.6073338849367
 30
0.000000000000000
 40
1.750000000000000
  0
LINE
  5
85
100
AcDbEntity
  8
A10
  6
CONTINUOUS
 62
7
100
AcDbLine
 10
89.94999999990804
 20
122.3573338849367
 30
0.000000000000000
 11
101.5357864376259
 21
122.3573338849367
 31
0.000000000000000
  0
ARC
  5
86
100
AcDbEntity
  8
A10
  6
CONTINUOUS
 62
7
100
AcDbCircle
 10
101.5357864376259
 20
123.3573338849367
 30
0.000000000000000
 40
1.000000000000000
100
AcDbArc
 50
270.0000000000000
 51
311.6220202969910
  0
LINE
  5
87
100
AcDbEntity
  8
A10
  6
CONTINUOUS
 62
7
100
AcDbLine
 10
102.1999999999988
 20
133.1073338033040
 30
0.000000000000000
 11
102.1999999999988
 21
71.10733339297897
 31
0.000000000000000
  0
LINE
  5
88
100
AcDbEntity
  8
A10
  6
CENTER
 62
1
100
AcDbLine
 10
133.1999999999999
 20
102.9641120747674
 30
0.000000000000000
 11
133.1999999999999
 21
113.1954852367602
 31
0.000000000000000
  0
ARC
  5
89
100
AcDbEntity
  8
A5
  6
CONTINUOUS
 62
7
100
AcDbCircle
 10
243.0194602968442
 20
137.1073338033040
 30
0.000000000000000
 40
1.000000000000000
100
AcDbArc
 50
90.00000000000000
 51
180.0000000000000
  0
LINE
  5
8A
100
AcDbEntity
  8
A5
  6
CONTINUOUS
 62
7
100
AcDbLine
 10
243.0194602968442
 20
138.1073338033040
 30
0.000000000000000
 11
252.7694602968442
 21
138.1073338033040
 31
0.000000000000000
  0
LINE
  5
8B
100
AcDbEntity
  8
A5
  6
CONTINUOUS
 62
7
100
AcDbLine
 10
253.2694602968442
 20
87.93576299836644
 30
0.000000000000000
 11
253.2694602968442
 21
96.60733440338419
 31
0.000000000000000
  0
LINE
  5
8C
100
AcDbEntity
  8
A5
  6
CONTINUOUS
 62
7
100
AcDbLine
 10
253.2694602968442
 20
119.6073344033840
 30
0.000000000000000
 11
253.2694602968442
 21
137.6073338033040
 31
0.000000000000000
  0
ARC
  5
8D
100
AcDbEntity
  8
A10
  6
CONTINUOUS
 62
7
100
AcDbCircle
 10
253.5194602968442
 20
135.6073358736209
 30
0.000000000000000
 40
1.000000000000000
100
AcDbArc
 50
0.000000000000000
 51
90.00000000000000
  0
LINE
  5
8E
100
AcDbEntity
  8
A10
  6
CENTER
 62
1
100
AcDbLine
 10
168.6999999999914
 20
79.10733587362063
 30
0.000000000000000
 11
162.1999999999999
 21
79.10733587362063
 31
0.000000000000000
  0
ARC
  5
8F
100
AcDbEntity
  8
A10
  6
CONTINUOUS
 62
7
100
AcDbCircle
 10
151.4000030909102
 20
108.1073344209911
 30
0.000000000000000
 40
5.250000000000000
100
AcDbArc
 50
100.9704270372286
 51
259.0295729627565
  0
LINE
  5
90
100
AcDbEntity
  8
A10
  6
CONTINUOUS
 62
7
100
AcDbLine
 10
175.5440459745757
 20
98.10733442098839
 30
0.000000000000000
 11
176.4000030908761
 21
98.10733442098829
 31
0.000000000000000
  0
ARC
  5
91
100
AcDbEntity
  8
A10
  6
CONTINUOUS
 62
7
100
AcDbCircle
 10
175.5440459745759
 20
99.60733442098831
 30
0.000000000000000
 40
1.500000000000000
100
AcDbArc
 50
259.0295729627566
 51
270.0000000000001
  0
LINE
  5
92
100
AcDbEntity
  8
A10
  6
CENTER
 62
1
100
AcDbLine
 10
151.4000030909102
 20
101.6073344209912
 30
0.000000000000000
 11
151.4000030909102
 21
114.6073344209912
 31
0.000000000000000
  0
LINE
  5
93
100
AcDbEntity
  8
A10
  6
CONTINUOUS
 62
7
100
AcDbLine
 10
176.4000030908761
 20
129.1073344210896
 30
0.000000000000000
 11
177.9000030908761
 21
129.1073344210896
 31
0.000000000000000
  0
ARC
  5
94
100
AcDbEntity
  8
A10
  6
CONTINUOUS
 62
7
100
AcDbCircle
 10
175.5440459745797
 20
116.6073344209879
 30
0.000000000000000
 40
1.500000000000000
100
AcDbArc
 50
90.00000000000000
 51
100.9704270372284
  0
LINE
  5
95
100
AcDbEntity
  8
A10
  6
CONTINUOUS
 62
7
100
AcDbLine
 10
150.4009159767418
 20
113.2613934949933
 30
0.000000000000000
 11
168.1999999999999
 21
116.7116518712185
 31
0.000000000000000
  0
LINE
  5
96
100
AcDbEntity
  8
A10
  6
CONTINUOUS
 62
7
100
AcDbLine
 10
168.2000000000000
 20
116.7116518712185
 30
0.000000000000000
 11
175.2585925133885
 21
118.0799227278455
 31
0.000000000000000
  0
LINE
  5
97
100
AcDbEntity
  8
A10
  6
CONTINUOUS
 62
7
100
AcDbLine
 10
150.4009159767406
 20
102.9532753469894
 30
0.000000000000000
 11
168.2000000000049
 21
99.50301697075801
 31
0.000000000000000
  0
LINE
  5
98
100
AcDbEntity
  8
A10
  6
CONTINUOUS
 62
7
100
AcDbLine
 10
168.2000000000050
 20
99.50301697075803
 30
0.000000000000000
 11
175.2585925133847
 21
98.13474611413082
 31
0.000000000000000
  0
ARC
  5
99
100
AcDbEntity
  8
A10
  6
CONTINUOUS
 62
7
100
AcDbCircle
 10
175.5440459745795
 20
116.6073344209879
 30
0.000000000000000
 40
1.500000000000000
100
AcDbArc
 50
90.00000000000006
 51
100.9704270372287
  0
LINE
  5
9A
100
AcDbEntity
  8
A10
  6
CONTINUOUS
 62
7
100
AcDbLine
 10
176.4000030908761
 20
129.1073344210896
 30
0.000000000000000
 11
177.9000030908761
 21
129.1073344210896
 31
0.000000000000000
  0
LINE
  5
9B
100
AcDbEntity
  8
A10
  6
CONTINUOUS
 62
7
100
AcDbLine
 10
175.5440459745757
 20
98.10733442098838
 30
0.000000000000000
 11
177.9000030908760
 21
98.10733442098808
 31
0.000000000000000
  0
ARC
  5
9C
100
AcDbEntity
  8
A10
  6
CONTINUOUS
 62
7
100
AcDbCircle
 10
175.5440459745759
 20
99.60733442098839
 30
0.000000000000000
 40
1.500000000000000
100
AcDbArc
 50
259.0295729627566
 51
270.0000000000001
  0
LINE
  5
9D
100
AcDbEntity
  8
A10
  6
CENTER
 62
1
100
AcDbLine
 10
151.4000030909102
 20
101.6073344209912
 30
0.000000000000000
 11
151.4000030909102
 21
114.6073344209912
 31
0.000000000000000
  0
LINE
  5
9E
100
AcDbEntity
  8
A10
  6
CENTER
 62
1
100
AcDbLine
 10
170.8991321998292
 20
93.10733442085220
 30
0.000000000000000
 11
179.4000030908760
 21
93.10733442085277
 31
0.000000000000000
  0
LINE
  5
9F
100
AcDbEntity
  8
A10
  6
CONTINUOUS
 62
7
100
AcDbLine
 10
176.4000030908761
 20
87.10733442081666
 30
0.000000000000000
 11
177.9000030908760
 21
87.10733442081668
 31
0.000000000000000
  0
LINE
  5
A0
100
AcDbEntity
  8
A10
  6
CONTINUOUS
 62
7
100
AcDbLine
 10
177.9000030908759
 20
87.10733442081658
 30
0.000000000000000
 11
177.9000030908759
 21
129.1073344210895
 31
0.000000000000000
  0
LINE
  5
A1
100
AcDbEntity
  8
A10
  6
CENTER
 62
1
100
AcDbLine
 10
170.8991321998278
 20
123.1073344211298
 30
0.000000000000000
 11
179.4000030908761
 21
123.1073344211302
 31
0.000000000000000
  0
LINE
  5
A2
100
AcDbEntity
  8
A10
  6
CONTINUOUS
 62
7
100
AcDbLine
 10
175.5440459745795
 20
118.1073344209879
 30
0.000000000000000
 11
177.9000030908760
 21
118.1073344209878
 31
0.000000000000000
  0
SPLINE
  5
A3
100
AcDbEntity
  8
A10
  6
CONTINUOUS
 62
1
100
AcDbSpline
210
0.000000000000000
220
0.000000000000000
230
1.000000000000000
 70
     8
 71
     3
 72
    10
 73
     6
 74
     0
 42
1.000000000000000e-07
 43
1.000000000000000e-07
 12
0.6509606879565979
 22
-0.6135474698480863
 32
0.000000000000000
 13
0.8843075209598226
 23
-0.8542097984544768
 33
0.000000000000000
 40
0.000000000000000
 40
0.000000000000000
 40
0.000000000000000
 40
0.000000000000000
 40
2.245875211375907
 40
4.195666412897195
 40
5.904046178660288
 40
5.904046178660288
 40
5.904046178660288
 40
5.904046178660288
 10
88.39855413336491
 20
61.88030895459114
 30
0.000000000000000
 10
88.88587962425223
 20
61.42099193674640
 30
0.000000000000000
 10
89.65848199164853
 20
60.42497799044560
 30
0.000000000000000
 10
87.27455110315796
 20
59.03370638218562
 30
0.000000000000000
 10
88.35286713626650
 20
57.99209122062690
 30
0.000000000000000
 10
88.85644482810645
 20
57.50565297549484
 30
0.000000000000000
  0
LINE
  5
A4
100
AcDbEntity
  8
A10
  6
CONTINUOUS
 62
7
100
AcDbLine
 10
78.94999999999717
 20
58.24999994077864
 30
0.000000000000000
 11
80.15710678117991
 21
59.45710672196427
 31
0.000000000000000
  0
LINE
  5
A5
100
AcDbEntity
  8
A10
  6
CONTINUOUS
 62
7
100
AcDbLine
 10
79.65710678118469
 20
57.54289315959290
 30
0.000000000000000
 11
80.86421356236748
 21
58.74999994077859
 31
0.000000000000000
  0
LINE
  5
A6
100
AcDbEntity
  8
A10
  6
CONTINUOUS
 62
7
100
AcDbLine
 10
89.07409954288977
 20
54.75000005922158
 30
0.000000000000000
 11
76.60355298719088
 21
54.75000005922158
 31
0.000000000000000
  0
LINE
  5
A7
100
AcDbEntity
  8
A10
  6
CONTINUOUS
 62
7
100
AcDbLine
 10
88.58583140987021
 20
55.75000005922158
 30
0.000000000000000
 11
76.60355298719088
 21
55.75000005922158
 31
0.000000000000000
  0
LINE
  5
A8
100
AcDbEntity
  8
A10
  6
CONTINUOUS
 62
7
100
AcDbLine
 10
87.93463443669809
 20
58.74999994077866
 30
0.000000000000000
 11
80.86421356236750
 21
58.74999994077866
 31
0.000000000000000
  0
LINE
  5
A9
100
AcDbEntity
  8
A10
  6
CONTINUOUS
 62
7
100
AcDbLine
 10
88.50235729499475
 20
59.74999994077860
 30
0.000000000000000
 11
68.19999999999999
 21
59.74999994077860
 31
0.000000000000000
  0
LINE
  5
AA
100
AcDbEntity
  8
A10
  6
CONTINUOUS
 62
7
100
AcDbLine
 10
89.12580922997627
 20
60.74999994077931
 30
0.000000000000000
 11
68.19999999999999
 21
60.74999994077931
 31
0.000000000000000
  0
ARC
  5
AB
100
AcDbEntity
  8
A10
  6
CONTINUOUS
 62
7
100
AcDbCircle
 10
80.86421356236733
 20
58.74999994077866
 30
0.000000000000000
 40
1.000000000000000
100
AcDbArc
 50
90.00000000000000
 51
135.0000000000697
  0
LINE
  5
AC
100
AcDbEntity
  8
A10
  6
CONTINUOUS
 62
7
100
AcDbLine
 10
50.00000000000002
 20
62.99999999999999
 30
0.000000000000000
 11
50.00000000000001
 21
50.00000000000000
 31
0.000000000000000
  0
LINE
  5
AD
100
AcDbEntity
  8
A10
  6
CONTINUOUS
 62
7
100
AcDbLine
 10
68.19999999999999
 20
61.74999999999996
 30
0.000000000000000
 11
68.19999999999999
 21
51.25000000000001
 31
0.000000000000000
  0
LINE
  5
AE
100
AcDbEntity
  8
A10
  6
CONTINUOUS
 62
7
100
AcDbLine
 10
50.00000000000000
 20
62.99999999999996
 30
0.000000000000000
 11
57.00000000000000
 21
62.99999999999996
 31
0.000000000000000
  0
LINE
  5
AF
100
AcDbEntity
  8
A10
  6
CONTINUOUS
 62
7
100
AcDbLine
 10
56.99999999999999
 20
50.00000000000001
 30
0.000000000000000
 11
49.99999999999999
 21
50.00000000000003
 31
0.000000000000000
  0
LINE
  5
B0
100
AcDbEntity
  8
A10
  6
CENTER
 62
1
100
AcDbLine
 10
48.50000000000000
 20
56.50000000000001
 30
0.000000000000000
 11
93.19999999999999
 21
56.50000000000001
 31
0.000000000000000
  0
LINE
  5
B1
100
AcDbEntity
  8
A10
  6
CONTINUOUS
 62
7
100
AcDbLine
 10
58.00000000000000
 20
51.25000000000001
 30
0.000000000000000
 11
68.19999999999996
 21
51.25000000000001
 31
0.000000000000000
  0
LINE
  5
B2
100
AcDbEntity
  8
A10
  6
CONTINUOUS
 62
7
100
AcDbLine
 10
58.00000000000000
 20
61.74999999999996
 30
0.000000000000000
 11
68.19999999999999
 21
61.74999999999996
 31
0.000000000000000
  0
LINE
  5
B3
100
AcDbEntity
  8
A10
  6
CONTINUOUS
 62
7
100
AcDbLine
 10
58.00000000000000
 20
62.00000000000002
 30
0.000000000000000
 11
58.00000000000000
 21
51.00000000000005
 31
0.000000000000000
  0
ARC
  5
B4
100
AcDbEntity
  8
A10
  6
CONTINUOUS
 62
7
100
AcDbCircle
 10
57.00000000000000
 20
62.00000000000001
 30
0.000000000000000
 40
1.000000000000000
100
AcDbArc
 50
0.000000000000000
 51
90.00000000000000
  0
ARC
  5
B5
100
AcDbEntity
  8
A10
  6
CONTINUOUS
 62
7
100
AcDbCircle
 10
57.00000000000000
 20
51.00000000000001
 30
0.000000000000000
 40
1.000000000000000
100
AcDbArc
 50
270.0000000000000
 51
360.0000000000000
  0
LINE
  5
B6
100
AcDbEntity
  8
A10
  6
CONTINUOUS
 62
7
100
AcDbLine
 10
68.19999999999999
 20
57.24999994077860
 30
0.000000000000000
 11
78.94999999999729
 21
57.24999994077860
 31
0.000000000000000
  0
LINE
  5
B7
100
AcDbEntity
  8
A10
  6
CONTINUOUS
 62
7
100
AcDbLine
 10
68.19999999999999
 20
58.24999994077860
 30
0.000000000000000
 11
78.94999999999712
 21
58.24999994077860
 31
0.000000000000000
  0
LINE
  5
B8
100
AcDbEntity
  8
A10
  6
CONTINUOUS
 62
7
100
AcDbLine
 10
68.20000000000002
 20
55.75000005922148
 30
0.000000000000000
 11
76.60355298719091
 21
55.75000005922147
 31
0.000000000000000
  0
LINE
  5
B9
100
AcDbEntity
  8
A10
  6
CONTINUOUS
 62
7
100
AcDbLine
 10
68.19999999999999
 20
54.75000005922148
 30
0.000000000000000
 11
76.60355298719091
 21
54.75000005922147
 31
0.000000000000000
  0
LINE
  5
BA
100
AcDbEntity
  8
A10
  6
CONTINUOUS
 62
7
100
AcDbLine
 10
68.19999999999999
 20
53.25000005922147
 30
0.000000000000000
 11
88.38848355286584
 21
53.25000005922142
 31
0.000000000000000
  0
LINE
  5
BB
100
AcDbEntity
  8
A10
  6
CONTINUOUS
 62
7
100
AcDbLine
 10
68.20000000000000
 20
52.25000005922153
 30
0.000000000000000
 11
88.67598543817314
 21
52.25000005922147
 31
0.000000000000000
  0
ARC
  5
BC
100
AcDbEntity
  8
A10
  6
CONTINUOUS
 62
7
100
AcDbCircle
 10
78.94999999999729
 20
58.24999994077863
 30
0.000000000000000
 40
1.000000000000000
100
AcDbArc
 50
270.0000000000000
 51
315.0000000000697
  0
SPLINE
  5
BD
100
AcDbEntity
  8
A10
  6
CONTINUOUS
 62
1
100
AcDbSpline
210
0.000000000000000
220
0.000000000000000
230
1.000000000000000
 70
     8
 71
     3
 72
    10
 73
     6
 74
     0
 42
1.000000000000000e-07
 43
1.000000000000000e-07
 12
0.7173701699591390
 22
-0.9013376570408695
 32
0.000000000000000
 13
0.7455078311443799
 23
-0.8684901232821716
 33
0.000000000000000
 40
0.000000000000000
 40
0.000000000000000
 40
0.000000000000000
 40
0.000000000000000
 40
1.594587759572605
 40
3.293891112936349
 40
4.584254382000691
 40
4.584254382000691
 40
4.584254382000691
 40
4.584254382000691
 10
88.38288617131509
 20
56.00838731701945
 30
0.000000000000000
 10
88.76418940201488
 20
55.52929998529971
 30
0.000000000000000
 10
89.55183581118627
 20
54.53966395253924
 30
0.000000000000000
 10
87.90367362293256
 20
53.13725971942335
 30
0.000000000000000
 10
88.64661358277631
 20
52.27176107492842
 30
0.000000000000000
 10
88.96727222347917
 20
51.89820515671894
 30
0.000000000000000
  0
LINE
  5
BE
100
AcDbEntity
  8
A10
  6
CONTINUOUS
 62
7
100
AcDbLine
 10
67.19999999999999
 20
61.74999999999996
 30
0.000000000000000
 11
67.19999999999999
 21
51.25000000000001
 31
0.000000000000000
  0
ARC
  5
BF
100
AcDbEntity
  8
A11
  6
CONTINUOUS
 62
7
100
AcDbCircle
 10
248.2694602968440
 20
79.10733587362063
 30
0.000000000000000
 40
5.000000000000000
100
AcDbArc
 50
270.0000000000000
 51
450.0000000000000
  0
LINE
  5
C0
100
AcDbEntity
  8
A11
  6
CONTINUOUS
 62
7
100
AcDbLine
 10
248.2694602968440
 20
66.60733392211193
 30
0.000000000000000
 11
248.2694602968440
 21
74.10733587362063
 31
0.000000000000000
  0
ARC
  5
C1
100
AcDbEntity
  8
A11
  6
CONTINUOUS
 62
7
100
AcDbCircle
 10
253.5194602968440
 20
67.10733392211193
 30
0.000000000000000
 40
1.000000000000000
100
AcDbArc
 50
270.0000000000000
 51
360.0000000000000
  0
LINE
  5
C2
100
AcDbEntity
  8
A10
  6
CONTINUOUS
 62
7
100
AcDbLine
 10
248.2694602968440
 20
84.10733587362064
 30
0.000000000000000
 11
249.4410331720979
 21
84.10733587362053
 31
0.000000000000000
  0
ARC
  5
C3
100
AcDbEntity
  8
A11
  6
CONTINUOUS
 62
7
100
AcDbCircle
 10
248.2694602968429
 20
79.10733587362063
 30
0.000000000000000
 40
5.000000000000000
100
AcDbArc
 50
90.00000000000000
 51
270.0000000000000
  0
ARC
  5
C4
100
AcDbEntity
  8
A11
  6
CONTINUOUS
 62
7
100
AcDbCircle
 10
243.0194602968429
 20
67.10733392211193
 30
0.000000000000000
 40
1.000000000000000
100
AcDbArc
 50
180.0000000000000
 51
270.0000000000000
  0
LINE
  5
C5
100
AcDbEntity
  8
A10
  6
CONTINUOUS
 62
7
100
AcDbLine
 10
254.8194602968491
 20
127.1073358736209
 30
0.000000000000000
 11
254.8194602968491
 21
135.1073358736209
 31
0.000000000000000
  0
LINE
  5
C6
100
AcDbEntity
  8
A10
  6
CONTINUOUS
 62
7
100
AcDbLine
 10
254.5194602968440
 20
127.1073358736209
 30
0.000000000000000
 11
254.8194602968491
 21
127.1073358736209
 31
0.000000000000000
  0
LINE
  5
C7
100
AcDbEntity
  8
A10
  6
CONTINUOUS
 62
7
100
AcDbLine
 10
254.5194602968490
 20
135.1073358736209
 30
0.000000000000000
 11
254.8194602968491
 21
135.1073358736209
 31
0.000000000000000
  0
LINE
  5
C8
100
AcDbEntity
  8
A10
  6
CONTINUOUS
 62
7
100
AcDbLine
 10
254.8194602968491
 20
84.60733587362074
 30
0.000000000000000
 11
254.8194602968491
 21
92.60733587362068
 31
0.000000000000000
  0
LINE
  5
C9
100
AcDbEntity
  8
A10
  6
CONTINUOUS
 62
7
100
AcDbLine
 10
254.5194602968490
 20
92.60733587362068
 30
0.000000000000000
 11
254.8194602968491
 21
92.60733587362068
 31
0.000000000000000
  0
LINE
  5
CA
100
AcDbEntity
  8
A10
  6
CONTINUOUS
 62
7
100
AcDbLine
 10
254.5194602968440
 20
84.60733587362074
 30
0.000000000000000
 11
254.8194602968491
 21
84.60733587362074
 31
0.000000000000000
  0
LINE
  5
CB
100
AcDbEntity
  8
A18
  6
CONTINUOUS
 62
7
100
AcDbLine
 10
168.1999999999946
 20
71.10733339297151
 30
0.000000000000000
 11
168.2000000000049
 21
99.50301697075800
 31
0.000000000000000
  0
CIRCLE
  5
CC
100
AcDbEntity
  8
A18
  6
CONTINUOUS
 62
7
100
AcDbCircle
 10
163.2000000000010
 20
71.10733391142594
 30
0.000000000000000
 40
3.500000000000000
  0
CIRCLE
  5
CD
100
AcDbEntity
  8
A10
  6
CONTINUOUS
 62
7
100
AcDbCircle
 10
163.2000000000010
 20
71.10733391142594
 30
0.000000000000000
 40
3.000000000000000
  0
LINE
  5
CE
100
AcDbEntity
  8
A10
  6
CONTINUOUS
 62
7
100
AcDbLine
 10
162.5080377333233
 20
71.79929617810369
 30
0.000000000000000
 11
162.6720095537316
 21
72.16758291662467
 31
0.000000000000000
  0
LINE
  5
CF
100
AcDbEntity
  8
A10
  6
CONTINUOUS
 62
7
100
AcDbLine
 10
162.5080377333231
 20
71.79929617810370
 30
0.000000000000000
 11
162.1397509948017
 21
71.63532435769528
 31
0.000000000000000
  0
LINE
  5
D0
100
AcDbEntity
  8
A10
  6
CONTINUOUS
 62
7
100
AcDbLine
 10
162.6720095537314
 20
72.16758291662465
 30
0.000000000000000
 11
162.6836012235140
 21
72.83166923370038
 31
0.000000000000000
  0
LINE
  5
D1
100
AcDbEntity
  8
A10
  6
CONTINUOUS
 62
7
100
AcDbLine
 10
162.1397509948015
 20
71.63532435769534
 30
0.000000000000000
 11
161.4756646777265
 21
71.62373268791289
 31
0.000000000000000
  0
LINE
  5
D2
100
AcDbEntity
  8
A10
  6
CONTINUOUS
 62
7
100
AcDbLine
 10
163.7279904462708
 20
72.16758291662467
 30
0.000000000000000
 11
163.7163987764882
 21
72.83166923370028
 31
0.000000000000000
  0
LINE
  5
D3
100
AcDbEntity
  8
A10
  6
CONTINUOUS
 62
7
100
AcDbLine
 10
163.8919622666788
 20
71.79929617810367
 30
0.000000000000000
 11
163.7279904462705
 21
72.16758291662470
 31
0.000000000000000
  0
LINE
  5
D4
100
AcDbEntity
  8
A10
  6
CONTINUOUS
 62
7
100
AcDbLine
 10
163.8919622666787
 20
71.79929617810376
 30
0.000000000000000
 11
164.2602490052001
 21
71.63532435769527
 31
0.000000000000000
  0
LINE
  5
D5
100
AcDbEntity
  8
A10
  6
CONTINUOUS
 62
7
100
AcDbLine
 10
164.2602490052003
 20
71.63532435769527
 30
0.000000000000000
 11
164.9243353222753
 21
71.62373268791292
 31
0.000000000000000
  0
LINE
  5
D6
100
AcDbEntity
  8
A10
  6
CONTINUOUS
 62
7
100
AcDbLine
 10
164.2602490051999
 20
70.57934346515640
 30
0.000000000000000
 11
164.9243353222755
 21
70.59093513493887
 31
0.000000000000000
  0
LINE
  5
D7
100
AcDbEntity
  8
A10
  6
CONTINUOUS
 62
7
100
AcDbLine
 10
163.8919622666788
 20
70.41537164474803
 30
0.000000000000000
 11
164.2602490051998
 21
70.57934346515627
 31
0.000000000000000
  0
LINE
  5
D8
100
AcDbEntity
  8
A10
  6
CONTINUOUS
 62
7
100
AcDbLine
 10
163.8919622666788
 20
70.41537164474795
 30
0.000000000000000
 11
163.7279904462704
 21
70.04708490622647
 31
0.000000000000000
  0
LINE
  5
D9
100
AcDbEntity
  8
A10
  6
CONTINUOUS
 62
7
100
AcDbLine
 10
163.7279904462702
 20
70.04708490622671
 30
0.000000000000000
 11
163.7163987764877
 21
69.38299858915167
 31
0.000000000000000
  0
LINE
  5
DA
100
AcDbEntity
  8
A10
  6
CONTINUOUS
 62
7
100
AcDbLine
 10
162.6720095537314
 20
70.04708490622728
 30
0.000000000000000
 11
162.6836012235140
 21
69.38299858915171
 31
0.000000000000000
  0
LINE
  5
DB
100
AcDbEntity
  8
A10
  6
CONTINUOUS
 62
7
100
AcDbLine
 10
162.5080377333231
 20
70.41537164474815
 30
0.000000000000000
 11
162.6720095537313
 21
70.04708490622723
 31
0.000000000000000
  0
LINE
  5
DC
100
AcDbEntity
  8
A10
  6
CONTINUOUS
 62
7
100
AcDbLine
 10
162.5080377333235
 20
70.41537164474811
 30
0.000000000000000
 11
162.1397509948021
 21
70.57934346515657
 31
0.000000000000000
  0
LINE
  5
DD
100
AcDbEntity
  8
A10
  6
CONTINUOUS
 62
7
100
AcDbLine
 10
162.1397509948020
 20
70.57934346515670
 30
0.000000000000000
 11
161.4756646777269
 21
70.59093513493902
 31
0.000000000000000
  0
ARC
  5
DE
100
AcDbEntity
  8
A10
  6
CONTINUOUS
 62
7
100
AcDbCircle
 10
163.2000000000010
 20
71.10733391142594
 30
0.000000000000000
 40
1.800000000000000
100
AcDbArc
 50
343.3282509640041
 51
376.6717490359751
  0
ARC
  5
DF
100
AcDbEntity
  8
A10
  6
CONTINUOUS
 62
7
100
AcDbCircle
 10
163.2000000000010
 20
71.10733391142594
 30
0.000000000000000
 40
1.800000000000000
100
AcDbArc
 50
253.3282509640079
 51
286.6717490359734
  0
ARC
  5
E0
100
AcDbEntity
  8
A10
  6
CONTINUOUS
 62
7
100
AcDbCircle
 10
163.2000000000010
 20
71.10733391142594
 30
0.000000000000000
 40
1.800000000000000
100
AcDbArc
 50
73.32825096401452
 51
106.6717490359855
  0
ARC
  5
E1
100
AcDbEntity
  8
A10
  6
CONTINUOUS
 62
7
100
AcDbCircle
 10
163.2000000000010
 20
71.10733391142594
 30
0.000000000000000
 40
1.800000000000000
100
AcDbArc
 50
163.3282509640185
 51
196.6717490359765
  0
CIRCLE
  5
E2
100
AcDbEntity
  8
A18
  6
CONTINUOUS
 62
7
100
AcDbCircle
 10
107.2000000000000
 20
71.10733391142594
 30
0.000000000000000
 40
3.500000000000000
  0
CIRCLE
  5
E3
100
AcDbEntity
  8
A10
  6
CONTINUOUS
 62
7
100
AcDbCircle
 10
107.2000000000000
 20
71.10733391142594
 30
0.000000000000000
 40
3.000000000000000
  0
LINE
  5
E4
100
AcDbEntity
  8
A10
  6
CONTINUOUS
 62
7
100
AcDbLine
 10
106.5080377333223
 20
71.79929617810367
 30
0.000000000000000
 11
106.6720095537307
 21
72.16758291662467
 31
0.000000000000000
  0
LINE
  5
E5
100
AcDbEntity
  8
A10
  6
CONTINUOUS
 62
7
100
AcDbLine
 10
106.5080377333223
 20
71.79929617810373
 30
0.000000000000000
 11
106.1397509948008
 21
71.63532435769531
 31
0.000000000000000
  0
LINE
  5
E6
100
AcDbEntity
  8
A10
  6
CONTINUOUS
 62
7
100
AcDbLine
 10
106.6720095537304
 20
72.16758291662467
 30
0.000000000000000
 11
106.6836012235130
 21
72.83166923370042
 31
0.000000000000000
  0
LINE
  5
E7
100
AcDbEntity
  8
A10
  6
CONTINUOUS
 62
7
100
AcDbLine
 10
106.1397509948005
 20
71.63532435769534
 30
0.000000000000000
 11
105.4756646777254
 21
71.62373268791289
 31
0.000000000000000
  0
LINE
  5
E8
100
AcDbEntity
  8
A10
  6
CONTINUOUS
 62
7
100
AcDbLine
 10
107.7279904462698
 20
72.16758291662468
 30
0.000000000000000
 11
107.7163987764872
 21
72.83166923370025
 31
0.000000000000000
  0
LINE
  5
E9
100
AcDbEntity
  8
A10
  6
CONTINUOUS
 62
7
100
AcDbLine
 10
107.8919622666778
 20
71.79929617810366
 30
0.000000000000000
 11
107.7279904462695
 21
72.16758291662465
 31
0.000000000000000
  0
LINE
  5
EA
100
AcDbEntity
  8
A10
  6
CONTINUOUS
 62
7
100
AcDbLine
 10
107.8919622666777
 20
71.79929617810373
 30
0.000000000000000
 11
108.2602490051991
 21
71.63532435769523
 31
0.000000000000000
  0
LINE
  5
EB
100
AcDbEntity
  8
A10
  6
CONTINUOUS
 62
7
100
AcDbLine
 10
108.2602490051993
 20
71.63532435769521
 30
0.000000000000000
 11
108.9243353222742
 21
71.62373268791286
 31
0.000000000000000
  0
LINE
  5
EC
100
AcDbEntity
  8
A10
  6
CONTINUOUS
 62
7
100
AcDbLine
 10
108.2602490051987
 20
70.57934346515637
 30
0.000000000000000
 11
108.9243353222743
 21
70.59093513493885
 31
0.000000000000000
  0
LINE
  5
ED
100
AcDbEntity
  8
A10
  6
CONTINUOUS
 62
7
100
AcDbLine
 10
107.8919622666779
 20
70.41537164474805
 30
0.000000000000000
 11
108.2602490051988
 21
70.57934346515627
 31
0.000000000000000
  0
LINE
  5
EE
100
AcDbEntity
  8
A10
  6
CONTINUOUS
 62
7
100
AcDbLine
 10
107.8919622666778
 20
70.41537164474795
 30
0.000000000000000
 11
107.7279904462694
 21
70.04708490622653
 31
0.000000000000000
  0
LINE
  5
EF
100
AcDbEntity
  8
A10
  6
CONTINUOUS
 62
7
100
AcDbLine
 10
107.7279904462692
 20
70.04708490622669
 30
0.000000000000000
 11
107.7163987764866
 21
69.38299858915164
 31
0.000000000000000
  0
LINE
  5
F0
100
AcDbEntity
  8
A10
  6
CONTINUOUS
 62
7
100
AcDbLine
 10
106.6720095537304
 20
70.04708490622723
 30
0.000000000000000
 11
106.6836012235129
 21
69.38299858915168
 31
0.000000000000000
  0
LINE
  5
F1
100
AcDbEntity
  8
A10
  6
CONTINUOUS
 62
7
100
AcDbLine
 10
106.5080377333222
 20
70.41537164474815
 30
0.000000000000000
 11
106.6720095537304
 21
70.04708490622724
 31
0.000000000000000
  0
LINE
  5
F2
100
AcDbEntity
  8
A10
  6
CONTINUOUS
 62
7
100
AcDbLine
 10
106.5080377333226
 20
70.41537164474815
 30
0.000000000000000
 11
106.1397509948011
 21
70.57934346515660
 31
0.000000000000000
  0
LINE
  5
F3
100
AcDbEntity
  8
A10
  6
CONTINUOUS
 62
7
100
AcDbLine
 10
106.1397509948011
 20
70.57934346515668
 30
0.000000000000000
 11
105.4756646777259
 21
70.59093513493900
 31
0.000000000000000
  0
ARC
  5
F4
100
AcDbEntity
  8
A10
  6
CONTINUOUS
 62
7
100
AcDbCircle
 10
107.2000000000000
 20
71.10733391142594
 30
0.000000000000000
 40
1.800000000000000
100
AcDbArc
 50
343.3282509640041
 51
376.6717490359751
  0
ARC
  5
F5
100
AcDbEntity
  8
A10
  6
CONTINUOUS
 62
7
100
AcDbCircle
 10
107.2000000000000
 20
71.10733391142594
 30
0.000000000000000
 40
1.800000000000000
100
AcDbArc
 50
253.3282509640079
 51
286.6717490359734
  0
ARC
  5
F6
100
AcDbEntity
  8
A10
  6
CONTINUOUS
 62
7
100
AcDbCircle
 10
107.2000000000000
 20
71.10733391142594
 30
0.000000000000000
 40
1.800000000000000
100
AcDbArc
 50
73.32825096401452
 51
106.6717490359855
  0
ARC
  5
F7
100
AcDbEntity
  8
A10
  6
CONTINUOUS
 62
7
100
AcDbCircle
 10
107.2000000000000
 20
71.10733391142594
 30
0.000000000000000
 40
1.800000000000000
100
AcDbArc
 50
163.3282509640185
 51
196.6717490359765
  0
LINE
  5
F8
100
AcDbEntity
  8
A10
  6
CENTER
 62
1
100
AcDbLine
 10
128.1032741084107
 20
108.1073344014489
 30
0.000000000000000
 11
179.4000030908760
 21
108.1073344209913
 31
0.000000000000000
  0
LINE
  5
F9
100
AcDbEntity
  8
A10
  6
CONTINUOUS
 62
7
100
AcDbLine
 10
253.5194602968442
 20
136.6073358736209
 30
0.000000000000000
 11
253.2694602968440
 21
136.6073358736213
 31
0.000000000000000
  0
LINE
  5
FA
100
AcDbEntity
  8
A11
  6
CENTER
 62
1
100
AcDbLine
 10
254.5194602968442
 20
79.10733587362063
 30
0.000000000000000
 11
241.7694602968429
 21
79.10733587362063
 31
0.000000000000000
  0
LINE
  5
FB
100
AcDbEntity
  8
A10
  6
CONTINUOUS
 62
7
100
AcDbLine
 10
117.7000000000038
 20
65.83938521096439
 30
0.000000000000000
 11
117.7000000000038
 21
72.60733440338788
 31
0.000000000000000
  0
LINE
  5
FC
100
AcDbEntity
  8
A10
  6
CONTINUOUS
 62
7
100
AcDbLine
 10
116.7000000000038
 20
65.83938521096439
 30
0.000000000000000
 11
116.7000000000038
 21
72.60733440338788
 31
0.000000000000000
  0
LINE
  5
FD
100
AcDbEntity
  8
A10
  6
CONTINUOUS
 62
7
100
AcDbLine
 10
115.7000000000038
 20
67.10733440339021
 30
0.000000000000000
 11
115.7000000000038
 21
72.60733440338788
 31
0.000000000000000
  0
LINE
  5
FE
100
AcDbEntity
  8
A10
  6
CONTINUOUS
 62
7
100
AcDbLine
 10
115.7000000000039
 20
67.10733440339024
 30
0.000000000000000
 11
109.1428399590544
 21
55.75000005922157
 31
0.000000000000000
  0
LINE
  5
FF
100
AcDbEntity
  8
A10
  6
CONTINUOUS
 62
7
100
AcDbLine
 10
116.5660254037860
 20
66.60733440338636
 30
0.000000000000000
 11
110.0088653628366
 21
55.25000005921768
 31
0.000000000000000
  0
LINE
  5
100
100
AcDbEntity
  8
A10
  6
CONTINUOUS
 62
7
100
AcDbLine
 10
116.7000000000038
 20
65.83938521096439
 30
0.000000000000000
 11
109.4315150936389
 21
53.25000005922158
 31
0.000000000000000
  0
ARC
  5
101
100
AcDbEntity
  8
A10
  6
CONTINUOUS
 62
7
100
AcDbCircle
 10
115.7000000000038
 20
67.10733440339021
 30
0.000000000000000
 40
1.000000000000000
100
AcDbArc
 50
329.9999999997464
 51
360.0000000000000
  0
LINE
  5
102
100
AcDbEntity
  8
A10
  6
CONTINUOUS
 62
7
100
AcDbLine
 10
117.5660254037861
 20
65.33938521096056
 30
0.000000000000000
 11
110.2975404974083
 21
52.75000005919555
 31
0.000000000000000
  0
ARC
  5
103
100
AcDbEntity
  8
A10
  6
CONTINUOUS
 62
7
100
AcDbCircle
 10
116.7000000000038
 20
65.83938521096439
 30
0.000000000000000
 40
1.000000000000000
100
AcDbArc
 50
329.9999999997464
 51
360.0000000000000
  0
LINE
  5
104
100
AcDbEntity
  8
A10
  6
CONTINUOUS
 62
7
100
AcDbLine
 10
113.7000000000038
 20
66.98601405983038
 30
0.000000000000000
 11
113.7000000000038
 21
72.60733440338788
 31
0.000000000000000
  0
LINE
  5
105
100
AcDbEntity
  8
A10
  6
CONTINUOUS
 62
7
100
AcDbLine
 10
114.7000000000038
 20
66.98601405983041
 30
0.000000000000000
 11
114.7000000000038
 21
72.60733440338788
 31
0.000000000000000
  0
LINE
  5
106
100
AcDbEntity
  8
A10
  6
CONTINUOUS
 62
7
100
AcDbLine
 10
112.7000000000038
 20
68.10733440339015
 30
0.000000000000000
 11
112.7000000000038
 21
72.43020954047302
 31
0.000000000000000
  0
LINE
  5
107
100
AcDbEntity
  8
A10
  6
CONTINUOUS
 62
7
100
AcDbLine
 10
112.7000000000038
 20
68.10733440339017
 30
0.000000000000000
 11
105.3426655374041
 21
60.74999994077936
 31
0.000000000000000
  0
LINE
  5
108
100
AcDbEntity
  8
A10
  6
CONTINUOUS
 62
7
100
AcDbLine
 10
113.4071067811909
 20
67.40022762220418
 30
0.000000000000000
 11
106.0497723185904
 21
60.04289315959264
 31
0.000000000000000
  0
LINE
  5
109
100
AcDbEntity
  8
A10
  6
CONTINUOUS
 62
7
100
AcDbLine
 10
113.7000000000039
 20
66.98601405983051
 30
0.000000000000000
 11
106.4639858809629
 21
59.74999994077865
 31
0.000000000000000
  0
LINE
  5
10A
100
AcDbEntity
  8
A10
  6
CONTINUOUS
 62
7
100
AcDbLine
 10
114.4071067811909
 20
66.27890727864443
 30
0.000000000000000
 11
107.1710926621500
 21
59.04289315959264
 31
0.000000000000000
  0
ARC
  5
10B
100
AcDbEntity
  8
A10
  6
CONTINUOUS
 62
7
100
AcDbCircle
 10
112.7000000000038
 20
68.10733440339015
 30
0.000000000000000
 40
1.000000000000000
100
AcDbArc
 50
315.0000000000426
 51
360.0000000000000
  0
ARC
  5
10C
100
AcDbEntity
  8
A10
  6
CONTINUOUS
 62
7
100
AcDbCircle
 10
113.7000000000038
 20
66.98601405983041
 30
0.000000000000000
 40
1.000000000000000
100
AcDbArc
 50
315.0000000000432
 51
360.0000000000000
  0
LINE
  5
10D
100
AcDbEntity
  8
A10
  6
CONTINUOUS
 62
7
100
AcDbLine
 10
106.4639858809630
 20
58.74999994077863
 30
0.000000000000000
 11
88.93463443669776
 21
58.74999994077863
 31
0.000000000000000
  0
LINE
  5
10E
100
AcDbEntity
  8
A10
  6
CONTINUOUS
 62
7
100
AcDbLine
 10
106.4639858809629
 20
59.74999994077857
 30
0.000000000000000
 11
89.50235729499444
 21
59.74999994077857
 31
0.000000000000000
  0
ARC
  5
10F
100
AcDbEntity
  8
A10
  6
CONTINUOUS
 62
7
100
AcDbCircle
 10
106.4639858809630
 20
59.74999994077863
 30
0.000000000000000
 40
1.000000000000000
100
AcDbArc
 50
270.0000000000000
 51
315.0000000000426
  0
LINE
  5
110
100
AcDbEntity
  8
A10
  6
CONTINUOUS
 62
7
100
AcDbLine
 10
105.3426655374041
 20
60.74999994077931
 30
0.000000000000000
 11
90.12580922997631
 21
60.74999994077931
 31
0.000000000000000
  0
ARC
  5
111
100
AcDbEntity
  8
A10
  6
CONTINUOUS
 62
7
100
AcDbCircle
 10
105.3426655374033
 20
60.74999994077860
 30
0.000000000000000
 40
1.000000000000000
100
AcDbArc
 50
270.0000000000000
 51
315.0000000000438
  0
LINE
  5
112
100
AcDbEntity
  8
A10
  6
CONTINUOUS
 62
7
100
AcDbLine
 10
89.38848355286582
 20
53.25000005922158
 30
0.000000000000000
 11
109.4315150936389
 21
53.25000005922158
 31
0.000000000000000
  0
LINE
  5
113
100
AcDbEntity
  8
A10
  6
CONTINUOUS
 62
7
100
AcDbLine
 10
89.67598543817175
 20
52.25000005921817
 30
0.000000000000000
 11
109.4315150936252
 21
52.25000005919941
 31
0.000000000000000
  0
LINE
  5
114
100
AcDbEntity
  8
A10
  6
CONTINUOUS
 62
7
100
AcDbLine
 10
90.07409954288977
 20
54.75000005922158
 30
0.000000000000000
 11
109.1428399590544
 21
54.75000005922158
 31
0.000000000000000
  0
LINE
  5
115
100
AcDbEntity
  8
A10
  6
CONTINUOUS
 62
7
100
AcDbLine
 10
89.58583140987020
 20
55.75000005922158
 30
0.000000000000000
 11
109.1428399590544
 21
55.75000005922158
 31
0.000000000000000
  0
ARC
  5
116
100
AcDbEntity
  8
A10
  6
CONTINUOUS
 62
7
100
AcDbCircle
 10
109.1428399590544
 20
55.75000005922158
 30
0.000000000000000
 40
1.000000000000000
100
AcDbArc
 50
270.0000000000000
 51
329.9999999997459
  0
ARC
  5
117
100
AcDbEntity
  8
A10
  6
CONTINUOUS
 62
7
100
AcDbCircle
 10
109.4315150936261
 20
53.25000005919942
 30
0.000000000000000
 40
1.000000000000000
100
AcDbArc
 50
270.0000000000000
 51
329.9999999997459
  0
SPLINE
  5
118
100
AcDbEntity
  8
A10
  6
CONTINUOUS
 62
1
100
AcDbSpline
210
0.000000000000000
220
0.000000000000000
230
1.000000000000000
 70
     8
 71
     3
 72
    10
 73
     6
 74
     0
 42
1.000000000000000e-07
 43
1.000000000000000e-07
 12
0.6509606879566121
 22
-0.6135474698480863
 32
0.000000000000000
 13
0.8843075209598226
 23
-0.8542097984544768
 33
0.000000000000000
 40
0.000000000000000
 40
0.000000000000000
 40
0.000000000000000
 40
0.000000000000000
 40
2.245875211375907
 40
4.195666412897195
 40
5.904046178660288
 40
5.904046178660288
 40
5.904046178660288
 40
5.904046178660288
 10
89.39855413336491
 20
61.88030895459114
 30
0.000000000000000
 10
89.88587962425223
 20
61.42099193674640
 30
0.000000000000000
 10
90.65848199164853
 20
60.42497799044560
 30
0.000000000000000
 10
88.27455110315796
 20
59.03370638218562
 30
0.000000000000000
 10
89.35286713626650
 20
57.99209122062690
 30
0.000000000000000
 10
89.85644482810645
 20
57.50565297549484
 30
0.000000000000000
  0
SPLINE
  5
119
100
AcDbEntity
  8
A10
  6
CONTINUOUS
 62
1
100
AcDbSpline
210
0.000000000000000
220
0.000000000000000
230
1.000000000000000
 70
     8
 71
     3
 72
    10
 73
     6
 74
     0
 42
1.000000000000000e-07
 43
1.000000000000000e-07
 12
0.7173701699591106
 22
-0.9013376570408695
 32
0.000000000000000
 13
0.7455078311443799
 23
-0.8684901232821716
 33
0.000000000000000
 40
0.000000000000000
 40
0.000000000000000
 40
0.000000000000000
 40
0.000000000000000
 40
1.594587759572605
 40
3.293891112936349
 40
4.584254382000691
 40
4.584254382000691
 40
4.584254382000691
 40
4.584254382000691
 10
89.38288617131509
 20
56.00838731701945
 30
0.000000000000000
 10
89.76418940201488
 20
55.52929998529971
 30
0.000000000000000
 10
90.55183581118627
 20
54.53966395253924
 30
0.000000000000000
 10
88.90367362293256
 20
53.13725971942335
 30
0.000000000000000
 10
89.64661358277631
 20
52.27176107492842
 30
0.000000000000000
 10
89.96727222347917
 20
51.89820515671894
 30
0.000000000000000
  0
LINE
  5
11A
100
AcDbEntity
  8
A10
  6
CONTINUOUS
 62
7
100
AcDbLine
 10
250.8552467344711
 20
84.69312231124736
 30
0.000000000000000
 11
252.6836738592172
 21
86.52154943599335
 31
0.000000000000000
  0
ARC
  5
11B
100
AcDbEntity
  8
A10
  6
CONTINUOUS
 62
7
100
AcDbCircle
 10
251.2694602968442
 20
87.93576299836644
 30
0.000000000000000
 40
2.000000000000000
100
AcDbArc
 50
314.9999999999978
 51
360.0000000000000
  0
ARC
  5
11C
100
AcDbEntity
  8
A10
  6
CONTINUOUS
 62
7
100
AcDbCircle
 10
249.4410331720981
 20
86.10733587362051
 30
0.000000000000000
 40
2.000000000000000
100
AcDbArc
 50
270.0000000000000
 51
314.9999999999971
  0
ARC
  5
11D
100
AcDbEntity
  8
A10
  6
CONTINUOUS
 62
7
100
AcDbCircle
 10
107.2000000000000
 20
71.10733391142594
 30
0.000000000000000
 40
5.000000000000004
100
AcDbArc
 50
180.0000000000000
 51
360.0000043365153
  0
ARC
  5
11E
100
AcDbEntity
  8
A27
  6
CONTINUOUS
 62
7
100
AcDbCircle
 10
113.1999999999999
 20
71.60733440338794
 30
0.000000000000000
 40
1.000000000000000
100
AcDbArc
 50
90.00000000000000
 51
180.0000000000000
  0
LINE
  5
11F
100
AcDbEntity
  8
A10
  6
CONTINUOUS
 62
7
100
AcDbLine
 10
112.1999999999999
 20
71.10733391142594
 30
0.000000000000000
 11
112.1999999999999
 21
71.60733440338794
 31
0.000000000000000
  0
LINE
  5
120
100
AcDbEntity
  8
A27
  6
CONTINUOUS
 62
7
100
AcDbLine
 10
157.2000000000009
 20
72.60733440338791
 30
0.000000000000000
 11
113.1999999999998
 21
72.60733440338790
 31
0.000000000000000
  0
ARC
  5
121
100
AcDbEntity
  8
A27
  6
CONTINUOUS
 62
7
100
AcDbCircle
 10
157.2000000000010
 20
71.60733440338794
 30
0.000000000000000
 40
1.000000000000000
100
AcDbArc
 50
0.000000000000000
 51
90.00000000000000
  0
LINE
  5
122
100
AcDbEntity
  8
A10
  6
CONTINUOUS
 62
7
100
AcDbLine
 10
158.2000000000010
 20
71.10733391142594
 30
0.000000000000000
 11
158.2000000000010
 21
71.60733440338794
 31
0.000000000000000
  0
ARC
  5
123
100
AcDbEntity
  8
A10
  6
CONTINUOUS
 62
7
100
AcDbCircle
 10
163.2000000000010
 20
71.10733391142594
 30
0.000000000000000
 40
5.000000000000000
100
AcDbArc
 50
180.0000000000000
 51
360.0000000000000
  0
ARC
  5
124
100
AcDbEntity
  8
A10
  6
CONTINUOUS
 62
7
100
AcDbCircle
 10
163.1999999999999
 20
133.1073338033040
 30
0.000000000000000
 40
5.000000000000000
100
AcDbArc
 50
0.000000000000000
 51
90.00000000000000
  0
ARC
  5
125
100
AcDbEntity
  8
A10
  6
CONTINUOUS
 62
7
100
AcDbCircle
 10
107.1999999999999
 20
133.1073338033040
 30
0.000000000000000
 40
5.000000000000000
100
AcDbArc
 50
90.00000000000000
 51
180.0000000000000
  0
ARC
  5
126
100
AcDbEntity
  8
A11
  6
CONTINUOUS
 62
7
100
AcDbCircle
 10
247.7694602968440
 20
73.63011029856887
 30
0.000000000000000
 40
0.5000000000000000
100
AcDbArc
 50
0.000000000000000
 51
84.78409142955708
  0
ARC
  5
127
100
AcDbEntity
  8
A11
  6
CONTINUOUS
 62
7
100
AcDbCircle
 10
247.7694602968440
 20
73.63011029856898
 30
0.000000000000000
 40
0.5000000000000000
100
AcDbArc
 50
0.000000000000000
 51
84.78409142954735
  0
ARC
  5
128
100
AcDbEntity
  8
A11
  6
CONTINUOUS
 62
7
100
AcDbCircle
 10
247.7694602968440
 20
66.60733392211193
 30
0.000000000000000
 40
0.5000000000000000
100
AcDbArc
 50
270.0000000000000
 51
360.0000000000000
  0
ARC
  5
129
100
AcDbEntity
  8
A11
  6
CONTINUOUS
 62
7
100
AcDbCircle
 10
248.7694602968440
 20
66.60733392211193
 30
0.000000000000000
 40
0.5000000000000000
100
AcDbArc
 50
180.0000000000000
 51
270.0000000000000
  0
LINE
  5
12A
100
AcDbEntity
  8
A11
  6
CONTINUOUS
 62
7
100
AcDbLine
 10
243.0194602968429
 20
66.10733392211193
 30
0.000000000000000
 11
247.7694602968440
 21
66.10733392211193
 31
0.000000000000000
  0
LINE
  5
12B
100
AcDbEntity
  8
A11
  6
CONTINUOUS
 62
7
100
AcDbLine
 10
248.7694602968440
 20
66.10733392211193
 30
0.000000000000000
 11
253.5194602968440
 21
66.10733392211193
 31
0.000000000000000
  0
ARC
  5
12C
100
AcDbEntity
  8
A5
  6
CONTINUOUS
 62
7
100
AcDbCircle
 10
252.7694602968442
 20
137.6073338033040
 30
0.000000000000000
 40
0.5000000000000000
100
AcDbArc
 50
0.000000000000000
 51
90.00000000000000
  0
LINE
  5
12D
100
AcDbEntity
  8
A10
  6
CENTER
 62
1
100
AcDbLine
 10
97.45000000000006
 20
127.6073338849367
 30
0.000000000000000
 11
90.95000000000006
 21
127.6073338849367
 31
0.000000000000000
  0
LINE
  5
12E
100
AcDbEntity
  8
A10
  6
CENTER
 62
1
100
AcDbLine
 10
94.20000000000006
 20
130.8573338849367
 30
0.000000000000000
 11
94.20000000000006
 21
124.3573338849367
 31
0.000000000000000
  0
LINE
  5
12F
100
AcDbEntity
  8
A11
  6
CENTER
 62
1
100
AcDbLine
 10
257.1999999999999
 20
88.60733388493662
 30
0.000000000000000
 11
237.1999999999999
 21
88.60733388493662
 31
0.000000000000000
  0
LINE
  5
130
100
AcDbEntity
  8
A11
  6
CENTER
 62
1
100
AcDbLine
 10
257.1999999999999
 20
108.1073344033906
 30
0.000000000000000
 11
237.1999999999999
 21
108.1073344033906
 31
0.000000000000000
  0
LINE
  5
131
100
AcDbEntity
  8
A11
  6
CENTER
 62
1
100
AcDbLine
 10
257.1999999999999
 20
131.1073338849368
 30
0.000000000000000
 11
237.1999999999999
 21
131.1073338849368
 31
0.000000000000000
  0
LINE
  5
132
100
AcDbEntity
  8
A18
  6
CENTER
 62
1
100
AcDbLine
 10
168.2000000000010
 20
71.10733391142594
 30
0.000000000000000
 11
158.2000000000010
 21
71.10733391142594
 31
0.000000000000000
  0
LINE
  5
133
100
AcDbEntity
  8
A18
  6
CENTER
 62
1
100
AcDbLine
 10
163.2000000000010
 20
76.10733391142594
 30
0.000000000000000
 11
163.2000000000010
 21
66.10733391142594
 31
0.000000000000000
  0
LINE
  5
134
100
AcDbEntity
  8
A18
  6
CENTER
 62
1
100
AcDbLine
 10
112.1999999999999
 20
71.10733391142594
 30
0.000000000000000
 11
102.2000000000000
 21
71.10733391142594
 31
0.000000000000000
  0
LINE
  5
135
100
AcDbEntity
  8
A18
  6
CENTER
 62
1
100
AcDbLine
 10
107.2000000000000
 20
76.10733391142594
 30
0.000000000000000
 11
107.2000000000000
 21
66.10733391142594
 31
0.000000000000000
  0
LINE
  5
136
100
AcDbEntity
  8
A18
  6
CENTER
 62
1
100
AcDbLine
 10
153.6999999999998
 20
97.60733388493659
 30
0.000000000000000
 11
143.6999999999998
 21
97.60733388493659
 31
0.000000000000000
  0
LINE
  5
137
100
AcDbEntity
  8
A18
  6
CENTER
 62
1
100
AcDbLine
 10
148.6999999999998
 20
102.6073338849366
 30
0.000000000000000
 11
148.6999999999998
 21
92.60733388493662
 31
0.000000000000000
  0
LINE
  5
138
100
AcDbEntity
  8
A18
  6
CENTER
 62
1
100
AcDbLine
 10
136.1999999999999
 20
121.6073338617870
 30
0.000000000000000
 11
126.1999999999999
 21
121.6073338617870
 31
0.000000000000000
  0
LINE
  5
139
100
AcDbEntity
  8
A18
  6
CENTER
 62
1
100
AcDbLine
 10
131.1999999999999
 20
126.6073338617871
 30
0.000000000000000
 11
131.1999999999999
 21
116.6073338617870
 31
0.000000000000000
  0
LINE
  5
13A
100
AcDbEntity
  8
A10
  6
CONTINUOUS
 62
7
100
AcDbLine
 10
103.2000000001799
 20
208.8625471109749
 30
0.000000000000000
 11
167.2000000000247
 21
208.8625471109749
 31
0.000000000000000
  0
LINE
  5
13B
100
AcDbEntity
  8
A10
  6
CONTINUOUS
 62
7
100
AcDbLine
 10
102.6999999999757
 20
220.1125471109749
 30
0.000000000000000
 11
167.8999999999782
 21
220.1125471109749
 31
0.000000000000000
  0
LINE
  5
13C
100
AcDbEntity
  8
A10
  6
CONTINUOUS
 62
7
100
AcDbLine
 10
103.1999999999754
 20
221.3625471109749
 30
0.000000000000000
 11
165.6999999996808
 21
221.3625471109749
 31
0.000000000000000
  0
LINE
  5
13D
100
AcDbEntity
  8
A10
  6
CONTINUOUS
 62
7
100
AcDbLine
 10
168.2000000000267
 20
209.8625471109798
 30
0.000000000000000
 11
168.1999999999783
 21
219.8125471109763
 31
0.000000000000000
  0
ARC
  5
13E
100
AcDbEntity
  8
A10
  6
CONTINUOUS
 62
7
100
AcDbCircle
 10
165.6999999996808
 20
220.3625471109749
 30
0.000000000000000
 40
1.000000000000000
100
AcDbArc
 50
0.000000000000000
 51
90.00000000000000
  0
ARC
  5
13F
100
AcDbEntity
  8
A10
  6
CONTINUOUS
 62
7
100
AcDbCircle
 10
167.8999999999782
 20
219.8125471109749
 30
0.000000000000000
 40
0.3000000000000000
100
AcDbArc
 50
0.000000000000000
 51
90.00000000000000
  0
ARC
  5
140
100
AcDbEntity
  8
A10
  6
CONTINUOUS
 62
7
100
AcDbCircle
 10
167.2000000000247
 20
209.8625471109749
 30
0.000000000000000
 40
1.000000000000000
100
AcDbArc
 50
270.0000000000000
 51
360.0000000000000
  0
ARC
  5
141
100
AcDbEntity
  8
A10
  6
CONTINUOUS
 62
7
100
AcDbCircle
 10
104.6999999999959
 20
220.3625471109749
 30
0.000000000000000
 40
1.000000000000000
100
AcDbArc
 50
90.00000000000000
 51
180.0000000000000
  0
LINE
  5
142
100
AcDbEntity
  8
A10
  6
CONTINUOUS
 62
7
100
AcDbLine
 10
102.2000000000257
 20
209.8625471109756
 30
0.000000000000000
 11
102.1999999999758
 21
219.6125471109724
 31
0.000000000000000
  0
ARC
  5
143
100
AcDbEntity
  8
A8
  6
CONTINUOUS
 62
7
100
AcDbCircle
 10
103.2000000000236
 20
209.8625471109807
 30
0.000000000000000
 40
1.000000000000000
100
AcDbArc
 50
180.0000000002938
 51
270.0000000002938
  0
LINE
  5
144
100
AcDbEntity
  8
A10
  6
CONTINUOUS
 62
7
100
AcDbLine
 10
102.1999999999911
 20
216.6125471109782
 30
0.000000000000000
 11
88.95000000030682
 21
216.6125471109782
 31
0.000000000000000
  0
LINE
  5
145
100
AcDbEntity
  8
A10
  6
CONTINUOUS
 62
7
100
AcDbLine
 10
102.1999999999834
 20
218.1125471109782
 30
0.000000000000000
 11
88.95000000030682
 21
218.1125471109782
 31
0.000000000000000
  0
LINE
  5
146
100
AcDbEntity
  8
A10
  6
CONTINUOUS
 62
7
100
AcDbLine
 10
88.95000000030682
 20
216.6125471109782
 30
0.000000000000000
 11
88.95000000030682
 21
218.1125471109781
 31
0.000000000000000
  0
LINE
  5
147
100
AcDbEntity
  8
A10
  6
CONTINUOUS
 62
7
100
AcDbLine
 10
146.1500030905192
 20
224.1125471110139
 30
0.000000000000000
 11
176.4000030908735
 21
224.1125471110098
 31
0.000000000000000
  0
LINE
  5
148
100
AcDbEntity
  8
A10
  6
CONTINUOUS
 62
7
100
AcDbLine
 10
146.1500030905767
 20
206.1125471110288
 30
0.000000000000000
 11
176.4000030909743
 21
206.1125471110247
 31
0.000000000000000
  0
LINE
  5
149
100
AcDbEntity
  8
A10
  6
CONTINUOUS
 62
7
100
AcDbLine
 10
177.9000030908736
 20
222.6125471110099
 30
0.000000000000000
 11
177.9000030909749
 21
207.6125471110247
 31
0.000000000000000
  0
LINE
  5
14A
100
AcDbEntity
  8
A10
  6
CONTINUOUS
 62
7
100
AcDbLine
 10
176.4000030907654
 20
222.6125471109183
 30
0.000000000000000
 11
176.4000030907328
 21
207.6125471110247
 31
0.000000000000000
  0
ARC
  5
14B
100
AcDbEntity
  8
A10
  6
CONTINUOUS
 62
7
100
AcDbCircle
 10
176.4000030908732
 20
222.6125471110098
 30
0.000000000000000
 40
1.500000000000000
100
AcDbArc
 50
0.000000000000000
 51
90.00000000000000
  0
ARC
  5
14C
100
AcDbEntity
  8
A10
  6
CONTINUOUS
 62
7
100
AcDbCircle
 10
176.4000030909745
 20
207.6125471110247
 30
0.000000000000000
 40
1.500000000000000
100
AcDbArc
 50
270.0000000000000
 51
360.0000000000000
  0
LINE
  5
14D
100
AcDbEntity
  8
A10
  6
CONTINUOUS
 62
7
100
AcDbLine
 10
146.1500030905192
 20
224.1125471110106
 30
0.000000000000000
 11
146.1500030905254
 21
222.6125471109192
 31
0.000000000000000
  0
LINE
  5
14E
100
AcDbEntity
  8
A10
  6
CONTINUOUS
 62
7
100
AcDbLine
 10
146.1500030905721
 20
207.6125471110279
 30
0.000000000000000
 11
146.1500030905767
 21
206.1125471110427
 31
0.000000000000000
  0
LINE
  5
14F
100
AcDbEntity
  8
A10
  6
CENTER
 62
1
100
AcDbLine
 10
151.4000030908427
 20
204.6125471110278
 30
0.000000000000000
 11
151.4000030908427
 21
228.3568239836484
 31
0.000000000000000
  0
LINE
  5
150
100
AcDbEntity
  8
A10
  6
CONTINUOUS
 62
7
100
AcDbLine
 10
147.2000030908192
 20
225.7125471110137
 30
0.000000000000000
 11
155.6000030908194
 21
225.7125471110126
 31
0.000000000000000
  0
ARC
  5
151
100
AcDbEntity
  8
A10
  6
CONTINUOUS
 62
7
100
AcDbCircle
 10
147.2000030908191
 20
224.9125471110137
 30
0.000000000000000
 40
0.8000000000001299
100
AcDbArc
 50
90.00000000000000
 51
270.0000000000000
  0
ARC
  5
152
100
AcDbEntity
  8
A10
  6
CONTINUOUS
 62
7
100
AcDbCircle
 10
155.6000030908193
 20
224.9125471110125
 30
0.000000000000000
 40
0.8000000000001001
100
AcDbArc
 50
270.0000000000000
 51
450.0000000000000
  0
LINE
  5
153
100
AcDbEntity
  8
A10
  6
CONTINUOUS
 62
7
100
AcDbLine
 10
146.1500030905256
 20
222.6125471109224
 30
0.000000000000000
 11
176.4000030907566
 21
222.6125471109183
 31
0.000000000000000
  0
LINE
  5
154
100
AcDbEntity
  8
A10
  6
CONTINUOUS
 62
7
100
AcDbLine
 10
146.1500030905721
 20
207.6125471110287
 30
0.000000000000000
 11
176.4000030907550
 21
207.6125471110246
 31
0.000000000000000
  0
LINE
  5
155
100
AcDbEntity
  8
A10
  6
CENTER
 62
1
100
AcDbLine
 10
101.7000000001808
 20
215.1125471109749
 30
0.000000000000000
 11
179.4340523741466
 21
215.1125471109734
 31
0.000000000000000
  0
LINE
  5
156
100
AcDbEntity
  8
A10
  6
CONTINUOUS
 62
7
100
AcDbLine
 10
148.9000030908260
 20
221.3625471109749
 30
0.000000000000000
 11
148.9000030908260
 21
222.6125471109221
 31
0.000000000000000
  0
LINE
  5
157
100
AcDbEntity
  8
A10
  6
CONTINUOUS
 62
7
100
AcDbLine
 10
153.9000030908260
 20
221.3625471109749
 30
0.000000000000000
 11
153.9000030908260
 21
222.6125471109214
 31
0.000000000000000
  0
LINE
  5
158
100
AcDbEntity
  8
A10
  6
CONTINUOUS
 62
7
100
AcDbLine
 10
148.9000030908260
 20
207.6125471110284
 30
0.000000000000000
 11
148.9000030908260
 21
208.8625471109749
 31
0.000000000000000
  0
LINE
  5
159
100
AcDbEntity
  8
A10
  6
CONTINUOUS
 62
7
100
AcDbLine
 10
153.9000030908260
 20
207.6125471110277
 30
0.000000000000000
 11
153.9000030908260
 21
208.8625471109749
 31
0.000000000000000
  0
LINE
  5
15A
100
AcDbEntity
  8
A10
  6
CONTINUOUS
 62
7
100
AcDbLine
 10
166.6999999996810
 20
220.3625471109749
 30
0.000000000000000
 11
166.6999999996812
 21
220.1125471109746
 31
0.000000000000000
  0
ARC
  5
15B
100
AcDbEntity
  8
A10
  6
CONTINUOUS
 62
7
100
AcDbCircle
 10
102.6999999999757
 20
219.6125471109749
 30
0.000000000000000
 40
0.5000000000000000
100
AcDbArc
 50
90.00000000000000
 51
180.0000000000000
  0
LINE
  5
15C
100
AcDbEntity
  8
A10
  6
CONTINUOUS
 62
7
100
AcDbLine
 10
103.6999999999959
 20
220.3625471109749
 30
0.000000000000000
 11
103.6999999999962
 21
220.1125471109746
 31
0.000000000000000
  0
ARC
  5
15D
100
AcDbEntity
  8
A10
  6
CONTINUOUS
 62
7
100
AcDbCircle
 10
103.1999999999754
 20
220.3625471109749
 30
0.000000000000000
 40
1.000000000000000
100
AcDbArc
 50
90.00000000000000
 51
180.0000000000000
  0
LINE
  5
15E
100
AcDbEntity
  8
A10
  6
CONTINUOUS
 62
7
100
AcDbLine
 10
102.1999999999754
 20
220.3625471109749
 30
0.000000000000000
 11
102.1999999999764
 21
219.6125471109743
 31
0.000000000000000
  0
LINE
  5
15F
100
AcDbEntity
  8
A10
  6
CENTER
 62
1
100
AcDbLine
 10
161.2000000000276
 20
204.6125471110276
 30
0.000000000000000
 11
161.2000000000276
 21
227.3762811495689
 31
0.000000000000000
  0
LINE
  5
160
100
AcDbEntity
  8
A10
  6
CENTER
 62
1
100
AcDbLine
 10
133.2000000000378
 20
204.6125471110314
 30
0.000000000000000
 11
133.2000000000378
 21
225.5975133836491
 31
0.000000000000000
  0
LINE
  5
161
100
AcDbEntity
  8
A10
  6
CONTINUOUS
 62
7
100
AcDbLine
 10
137.1999980113537
 20
221.3625471109748
 30
0.000000000000000
 11
137.1999980113537
 21
221.6625471109797
 31
0.000000000000000
  0
LINE
  5
162
100
AcDbEntity
  8
A10
  6
CONTINUOUS
 62
7
100
AcDbLine
 10
129.1999980113537
 20
221.3625471109798
 30
0.000000000000000
 11
129.1999980113537
 21
221.6625471109797
 31
0.000000000000000
  0
LINE
  5
163
100
AcDbEntity
  8
A10
  6
CONTINUOUS
 62
7
100
AcDbLine
 10
137.1999980113537
 20
221.6625471109798
 30
0.000000000000000
 11
129.1999980113537
 21
221.6625471109798
 31
0.000000000000000
  0
LINE
  5
164
100
AcDbEntity
  8
A10
  6
CONTINUOUS
 62
7
100
AcDbLine
 10
165.1999980113434
 20
221.6625471109798
 30
0.000000000000000
 11
157.1999980113434
 21
221.6625471109798
 31
0.000000000000000
  0
LINE
  5
165
100
AcDbEntity
  8
A10
  6
CONTINUOUS
 62
7
100
AcDbLine
 10
157.1999980113434
 20
221.3625471109798
 30
0.000000000000000
 11
157.1999980113434
 21
221.6625471109797
 31
0.000000000000000
  0
LINE
  5
166
100
AcDbEntity
  8
A10
  6
CONTINUOUS
 62
7
100
AcDbLine
 10
165.1999980113434
 20
221.3625471109748
 30
0.000000000000000
 11
165.1999980113434
 21
221.6625471109797
 31
0.000000000000000
  0
LINE
  5
167
100
AcDbEntity
  8
A10
  6
CONTINUOUS
 62
7
100
AcDbLine
 10
241.7194602968390
 20
127.1073358736211
 30
0.000000000000000
 11
241.7194602968392
 21
135.1073358736211
 31
0.000000000000000
  0
LINE
  5
168
100
AcDbEntity
  8
A10
  6
CONTINUOUS
 62
7
100
AcDbLine
 10
242.0194602968440
 20
127.1073358736211
 30
0.000000000000000
 11
241.7194602968390
 21
127.1073358736211
 31
0.000000000000000
  0
LINE
  5
169
100
AcDbEntity
  8
A10
  6
CONTINUOUS
 62
7
100
AcDbLine
 10
242.0194602968392
 20
135.1073358736211
 30
0.000000000000000
 11
241.7194602968393
 21
135.1073358736211
 31
0.000000000000000
  0
LINE
  5
16A
100
AcDbEntity
  8
A10
  6
CONTINUOUS
 62
7
100
AcDbLine
 10
241.7194602968377
 20
84.60733587362093
 30
0.000000000000000
 11
241.7194602968379
 21
92.60733587362087
 31
0.000000000000000
  0
LINE
  5
16B
100
AcDbEntity
  8
A10
  6
CONTINUOUS
 62
7
100
AcDbLine
 10
242.0194602968379
 20
92.60733587362088
 30
0.000000000000000
 11
241.7194602968380
 21
92.60733587362088
 31
0.000000000000000
  0
LINE
  5
16C
100
AcDbEntity
  8
A10
  6
CONTINUOUS
 62
7
100
AcDbLine
 10
242.0194602968427
 20
84.60733587362094
 30
0.000000000000000
 11
241.7194602968377
 21
84.60733587362094
 31
0.000000000000000
  0
CIRCLE
  5
16D
100
AcDbEntity
  8
A10
  6
CONTINUOUS
 62
7
100
AcDbCircle
 10
161.1999999999998
 20
131.1073338849368
 30
0.000000000000000
 40
4.000000000000000
  0
CIRCLE
  5
16E
100
AcDbEntity
  8
A10
  6
CONTINUOUS
 62
7
100
AcDbCircle
 10
161.1999999999998
 20
88.60733388493662
 30
0.000000000000000
 40
4.000000000000000
  0
CIRCLE
  5
16F
100
AcDbEntity
  8
A10
  6
CONTINUOUS
 62
7
100
AcDbCircle
 10
133.1999999999999
 20
108.1073344033906
 30
0.000000000000000
 40
4.000000000000000
  0
SPLINE
  5
170
100
AcDbEntity
  8
A10
  6
CONTINUOUS
 62
1
100
AcDbSpline
210
0.000000000000000
220
0.000000000000000
230
1.000000000000000
 70
     8
 71
     3
 72
    14
 73
    10
 74
     0
 42
1.000000000000000e-07
 43
1.000000000000000e-07
 12
1.456559044584139
 22
0.000000000000000
 32
0.000000000000000
 13
-0.9334246792727043
 23
0.000000000000000
 33
0.000000000000000
 40
0.000000000000000
 40
0.000000000000000
 40
0.000000000000000
 40
0.000000000000000
 40
4.216483728554776
 40
5.132923427233068
 40
5.839643913037368
 40
6.434520382279993
 40
6.749149427137315
 40
6.993788929613908
 40
14.58517393107267
 40
14.58517393107267
 40
14.58517393107267
 40
14.58517393107267
 10
133.1999999999999
 20
88.60733440339055
 30
0.000000000000000
 10
135.2471858370560
 20
88.60733440339055
 30
0.000000000000000
 10
136.6746611399655
 20
90.24078706620168
 30
0.000000000000000
 10
137.3850728506459
 20
90.81973172905083
 30
0.000000000000000
 10
137.8677500055258
 20
91.33594545340583
 30
0.000000000000000
 10
138.1230159599587
 20
90.79862124385801
 30
0.000000000000000
 10
137.9814787025605
 20
90.51762544204581
 30
0.000000000000000
 10
137.8710759463004
 20
90.29931438510613
 30
0.000000000000000
 10
135.5619953700740
 20
85.60733582491133
 30
0.000000000000000
 10
133.1999999999999
 20
85.60733582491133
 30
0.000000000000000
  0
SPLINE
  5
171
100
AcDbEntity
  8
A10
  6
CONTINUOUS
 62
1
100
AcDbSpline
210
0.000000000000000
220
0.000000000000000
230
1.000000000000000
 70
     8
 71
     3
 72
    14
 73
    10
 74
     0
 42
1.000000000000000e-07
 43
1.000000000000000e-07
 12
-1.456559044583912
 22
0.000000000000000
 32
0.000000000000000
 13
0.9334246792727399
 23
0.000000000000000
 33
0.000000000000000
 40
0.000000000000000
 40
0.000000000000000
 40
0.000000000000000
 40
0.000000000000000
 40
4.216483728554776
 40
5.132923427233068
 40
5.839643913037368
 40
6.434520382279993
 40
6.749149427137315
 40
6.993788929613908
 40
14.58517393107267
 40
14.58517393107267
 40
14.58517393107267
 40
14.58517393107267
 10
133.1999999999999
 20
88.60733440339067
 30
0.000000000000000
 10
131.1528141629441
 20
88.60733440339067
 30
0.000000000000000
 10
129.7253388600344
 20
86.97388174057949
 30
0.000000000000000
 10
129.0149271493540
 20
86.39493707773033
 30
0.000000000000000
 10
128.5322499944740
 20
85.87872335337539
 30
0.000000000000000
 10
128.2769840400413
 20
86.41604756292310
 30
0.000000000000000
 10
128.4185212974394
 20
86.69704336473535
 30
0.000000000000000
 10
128.5289240536997
 20
86.91535442167503
 30
0.000000000000000
 10
130.8380046299257
 20
91.60733298186989
 30
0.000000000000000
 10
133.1999999999999
 20
91.60733298186989
 30
0.000000000000000
  0
SPLINE
  5
172
100
AcDbEntity
  8
A10
  6
CONTINUOUS
 62
1
100
AcDbSpline
210
0.000000000000000
220
0.000000000000000
230
1.000000000000000
 70
     8
 71
     3
 72
    14
 73
    10
 74
     0
 42
1.000000000000000e-07
 43
1.000000000000000e-07
 12
-0.2845285746715547
 22
0.2260908134917159
 32
0.000000000000000
 13
0.6005371901415657
 23
-0.9119237481485669
 33
0.000000000000000
 40
0.000000000000000
 40
0.000000000000000
 40
0.000000000000000
 40
0.000000000000000
 40
4.216483728554776
 40
5.132923427233068
 40
5.839643913037368
 40
6.434520382279993
 40
6.749149427137315
 40
6.993788929613908
 40
10.05084709853061
 40
10.05084709853061
 40
10.05084709853061
 40
10.05084709853061
 10
130.2916931478330
 20
89.67761400823582
 30
0.000000000000000
 10
129.8917897793625
 20
89.99538342032366
 30
0.000000000000000
 10
129.4026103958364
 20
90.50379219278949
 30
0.000000000000000
 10
129.0149271493540
 20
90.81973172905083
 30
0.000000000000000
 10
128.5322499944740
 20
91.33594545340583
 30
0.000000000000000
 10
128.2769840400413
 20
90.79862124385801
 30
0.000000000000000
 10
128.4185212974394
 20
90.51762544204581
 30
0.000000000000000
 10
128.4675053984838
 20
90.42076399370461
 30
0.000000000000000
 10
128.9033257855202
 20
89.53660278094162
 30
0.000000000000000
 10
129.5152848264737
 20
88.60733479970605
 30
0.000000000000000
  0
SPLINE
  5
173
100
AcDbEntity
  8
A10
  6
CONTINUOUS
 62
1
100
AcDbSpline
210
0.000000000000000
220
0.000000000000000
230
1.000000000000000
 70
     8
 71
     3
 72
     8
 73
     4
 74
     0
 42
1.000000000000000e-07
 43
1.000000000000000e-07
 12
0.1708214841251312
 22
-0.2117043438920341
 32
0.000000000000000
 13
0.2162384259157228
 23
0.000000000000000
 33
0.000000000000000
 40
0.000000000000000
 40
0.000000000000000
 40
0.000000000000000
 40
0.000000000000000
 40
14.58517393107267
 40
14.58517393107267
 40
14.58517393107267
 40
14.58517393107267
 10
130.2916931155936
 20
87.53705483211468
 30
0.000000000000000
 10
131.1221801346366
 20
86.50780660623838
 30
0.000000000000000
 10
132.1487083158125
 20
85.60733582491133
 30
0.000000000000000
 10
133.1999999999999
 20
85.60733582491133
 30
0.000000000000000
  0
SPLINE
  5
174
100
AcDbEntity
  8
A10
  6
CONTINUOUS
 62
1
100
AcDbSpline
210
0.000000000000000
220
0.000000000000000
230
1.000000000000000
 70
     8
 71
     3
 72
    14
 73
    10
 74
     0
 42
1.000000000000000e-07
 43
1.000000000000000e-07
 12
0.2845285746717252
 22
-0.2260908134917514
 32
0.000000000000000
 13
-0.6005371901414662
 23
0.9119237481486095
 33
0.000000000000000
 40
0.000000000000000
 40
0.000000000000000
 40
0.000000000000000
 40
0.000000000000000
 40
4.216483728554776
 40
5.132923427233068
 40
5.839643913037368
 40
6.434520382279993
 40
6.749149427137315
 40
6.993788929613908
 40
10.05084709853062
 40
10.05084709853062
 40
10.05084709853062
 40
10.05084709853062
 10
136.1083068521667
 20
87.53705479854540
 30
0.000000000000000
 10
136.5082102206374
 20
87.21928538645750
 30
0.000000000000000
 10
136.9973896041635
 20
86.71087661399162
 30
0.000000000000000
 10
137.3850728506459
 20
86.39493707773033
 30
0.000000000000000
 10
137.8677500055258
 20
85.87872335337539
 30
0.000000000000000
 10
138.1230159599587
 20
86.41604756292310
 30
0.000000000000000
 10
137.9814787025605
 20
86.69704336473535
 30
0.000000000000000
 10
137.9324946015163
 20
86.79390481307649
 30
0.000000000000000
 10
137.4966742144796
 20
87.67806602583954
 30
0.000000000000000
 10
136.8847151735262
 20
88.60733400707517
 30
0.000000000000000
  0
SPLINE
  5
175
100
AcDbEntity
  8
A10
  6
CONTINUOUS
 62
1
100
AcDbSpline
210
0.000000000000000
220
0.000000000000000
230
1.000000000000000
 70
     8
 71
     3
 72
     8
 73
     4
 74
     0
 42
1.000000000000000e-07
 43
1.000000000000000e-07
 12
-0.1708214841251277
 22
0.2117043438920412
 32
0.000000000000000
 13
-0.2162384259157228
 23
0.000000000000000
 33
0.000000000000000
 40
0.000000000000000
 40
0.000000000000000
 40
0.000000000000000
 40
0.000000000000000
 40
14.58517393107267
 40
14.58517393107267
 40
14.58517393107267
 40
14.58517393107267
 10
136.1083068844063
 20
89.67761397466649
 30
0.000000000000000
 10
135.2778198653633
 20
90.70686220054284
 30
0.000000000000000
 10
134.2512916841873
 20
91.60733298186989
 30
0.000000000000000
 10
133.1999999999999
 20
91.60733298186989
 30
0.000000000000000
  0
LINE
  5
176
100
AcDbEntity
  8
A10
  6
CONTINUOUS
 62
7
100
AcDbLine
 10
165.1999980113432
 20
208.5625471109676
 30
0.000000000000000
 11
157.1999980113432
 21
208.5625471109679
 31
0.000000000000000
  0
LINE
  5
177
100
AcDbEntity
  8
A10
  6
CONTINUOUS
 62
7
100
AcDbLine
 10
157.1999980113432
 20
208.8625471109679
 30
0.000000000000000
 11
157.1999980113432
 21
208.5625471109680
 31
0.000000000000000
  0
LINE
  5
178
100
AcDbEntity
  8
A10
  6
CONTINUOUS
 62
7
100
AcDbLine
 10
165.1999980113432
 20
208.8625471109726
 30
0.000000000000000
 11
165.1999980113432
 21
208.5625471109677
 31
0.000000000000000
  0
LINE
  5
179
100
AcDbEntity
  8
A10
  6
CONTINUOUS
 62
7
100
AcDbLine
 10
137.1999980113534
 20
208.5625471109686
 30
0.000000000000000
 11
129.1999980113534
 21
208.5625471109689
 31
0.000000000000000
  0
LINE
  5
17A
100
AcDbEntity
  8
A10
  6
CONTINUOUS
 62
7
100
AcDbLine
 10
137.1999980113536
 20
208.8625471109737
 30
0.000000000000000
 11
137.1999980113534
 21
208.5625471109687
 31
0.000000000000000
  0
LINE
  5
17B
100
AcDbEntity
  8
A10
  6
CONTINUOUS
 62
7
100
AcDbLine
 10
129.1999980113534
 20
208.8625471109690
 30
0.000000000000000
 11
129.1999980113534
 21
208.5625471109691
 31
0.000000000000000
  0
CIRCLE
  5
17C
100
AcDbEntity
  8
A10
  6
CONTINUOUS
 62
7
100
AcDbCircle
 10
151.4000030909102
 20
108.1073344103242
 30
0.000000000000000
 40
3.250000000000000
  0
CIRCLE
  5
17D
100
AcDbEntity
  8
A10
  6
CONTINUOUS
 62
7
100
AcDbCircle
 10
151.4000030909102
 20
108.1073344103242
 30
0.000000000000000
 40
2.750000000000000
  0
LINE
  5
17E
100
AcDbEntity
  8
A10
  6
CONTINUOUS
 62
7
100
AcDbLine
 10
176.4000030908761
 20
87.10733442081667
 30
0.000000000000000
 11
176.4000030908761
 21
98.10733442098831
 31
0.000000000000000
  0
LINE
  5
17F
100
AcDbEntity
  8
A10
  6
CONTINUOUS
 62
7
100
AcDbLine
 10
176.4000030908761
 20
118.1073344209879
 30
0.000000000000000
 11
176.4000030908761
 21
129.1073344210896
 31
0.000000000000000
  0
LINE
  5
180
100
AcDbEntity
  8
A10
  6
CONTINUOUS
 62
7
100
AcDbLine
 10
257.2694602968438
 20
118.1073344033813
 30
0.000000000000000
 11
257.2694602968433
 21
98.10733440338170
 31
0.000000000000000
  0
LINE
  5
181
100
AcDbEntity
  8
A10
  6
CONTINUOUS
 62
7
100
AcDbLine
 10
239.2694602968438
 20
118.1073344033997
 30
0.000000000000000
 11
239.2694602968433
 21
98.10733440340000
 31
0.000000000000000
  0
LINE
  5
182
100
AcDbEntity
  8
A10
  6
CENTER
 62
1
100
AcDbLine
 10
248.2694602968429
 20
86.60733440335746
 30
0.000000000000000
 11
248.2694602968441
 21
129.6073344033575
 31
0.000000000000000
  0
LINE
  5
183
100
AcDbEntity
  8
A12
  6
CENTER
 62
1
100
AcDbLine
 10
244.7694602968442
 20
123.1073344035296
 30
0.000000000000000
 11
251.7694602968442
 21
123.1073344035294
 31
0.000000000000000
  0
LINE
  5
184
100
AcDbEntity
  8
A12
  6
CENTER
 62
1
100
AcDbLine
 10
244.7694602968432
 20
93.10733440325204
 30
0.000000000000000
 11
251.7694602968432
 21
93.10733440325185
 31
0.000000000000000
  0
LINE
  5
185
100
AcDbEntity
  8
A10
  6
CONTINUOUS
 62
7
100
AcDbLine
 10
246.2694602968420
 20
129.1073344035280
 30
0.000000000000000
 11
250.2694602968420
 21
129.1073344035308
 31
0.000000000000000
  0
ARC
  5
186
100
AcDbEntity
  8
A10
  6
CONTINUOUS
 62
7
100
AcDbCircle
 10
250.2694602968442
 20
126.1073344035310
 30
0.000000000000000
 40
3.000000000000000
100
AcDbArc
 50
359.9999999999985
 51
449.9999999999985
  0
ARC
  5
187
100
AcDbEntity
  8
A10
  6
CONTINUOUS
 62
7
100
AcDbCircle
 10
246.2694602968442
 20
126.1073344035281
 30
0.000000000000000
 40
3.000000000000000
100
AcDbArc
 50
89.99999999999847
 51
179.9999999999985
  0
ARC
  5
188
100
AcDbEntity
  8
A10
  6
CONTINUOUS
 62
7
100
AcDbCircle
 10
250.2694602968432
 20
90.10733440325242
 30
0.000000000000000
 40
3.000000000000000
100
AcDbArc
 50
269.9999999999985
 51
359.9999999999985
  0
LINE
  5
189
100
AcDbEntity
  8
A10
  6
CONTINUOUS
 62
7
100
AcDbLine
 10
246.2694602968409
 20
87.10733440325524
 30
0.000000000000000
 11
250.2694602968409
 21
87.10733440325222
 31
0.000000000000000
  0
ARC
  5
18A
100
AcDbEntity
  8
A10
  6
CONTINUOUS
 62
7
100
AcDbCircle
 10
246.2694602968432
 20
90.10733440325527
 30
0.000000000000000
 40
3.000000000000000
100
AcDbArc
 50
179.9999999999985
 51
269.9999999999985
  0
LINE
  5
18B
100
AcDbEntity
  8
A10
  6
CONTINUOUS
 62
7
100
AcDbLine
 10
257.2694602968440
 20
118.1073344033815
 30
0.000000000000000
 11
254.7694602968425
 21
118.1073344033840
 31
0.000000000000000
  0
LINE
  5
18C
100
AcDbEntity
  8
A10
  6
CONTINUOUS
 62
7
100
AcDbLine
 10
241.7694602968424
 20
118.1073344033970
 30
0.000000000000000
 11
239.2694602960280
 21
118.1073344033996
 31
0.000000000000000
  0
LINE
  5
18D
100
AcDbEntity
  8
A10
  6
CONTINUOUS
 62
7
100
AcDbLine
 10
243.2694602968430
 20
90.10733440325538
 30
0.000000000000000
 11
243.2694602968432
 21
96.60733440339740
 31
0.000000000000000
  0
LINE
  5
18E
100
AcDbEntity
  8
A10
  6
CONTINUOUS
 62
7
100
AcDbLine
 10
243.2694602968438
 20
119.6073344033970
 30
0.000000000000000
 11
243.2694602968440
 21
126.1073344035283
 31
0.000000000000000
  0
LINE
  5
18F
100
AcDbEntity
  8
A10
  6
CONTINUOUS
 62
7
100
AcDbLine
 10
257.2694602968435
 20
98.10733440338180
 30
0.000000000000000
 11
254.7694602968447
 21
98.10733440338430
 31
0.000000000000000
  0
LINE
  5
190
100
AcDbEntity
  8
A10
  6
CONTINUOUS
 62
7
100
AcDbLine
 10
241.7694602968448
 20
98.10733440339720
 30
0.000000000000000
 11
239.2694602960076
 21
98.10733440339980
 31
0.000000000000000
  0
LINE
  5
191
100
AcDbEntity
  8
A10
  6
CONTINUOUS
 62
7
100
AcDbLine
 10
253.2694602968430
 20
90.10733440325225
 30
0.000000000000000
 11
253.2694602968432
 21
96.60733440338419
 31
0.000000000000000
  0
ARC
  5
192
100
AcDbEntity
  8
A10
  6
CONTINUOUS
 62
7
100
AcDbCircle
 10
241.7694602968433
 20
96.60733440339740
 30
0.000000000000000
 40
1.500000000000000
100
AcDbArc
 50
359.9999999999985
 51
449.9999999999985
  0
ARC
  5
193
100
AcDbEntity
  8
A10
  6
CONTINUOUS
 62
7
100
AcDbCircle
 10
254.7694602968432
 20
96.60733440338419
 30
0.000000000000000
 40
1.500000000000000
100
AcDbArc
 50
89.99999999999847
 51
179.9999999999985
  0
ARC
  5
194
100
AcDbEntity
  8
A10
  6
CONTINUOUS
 62
7
100
AcDbCircle
 10
254.7694602968442
 20
119.6073344033840
 30
0.000000000000000
 40
1.500000000000000
100
AcDbArc
 50
179.9999999999985
 51
269.9999999999985
  0
ARC
  5
195
100
AcDbEntity
  8
A10
  6
CONTINUOUS
 62
7
100
AcDbCircle
 10
241.7694602968440
 20
119.6073344033971
 30
0.000000000000000
 40
1.500000000000000
100
AcDbArc
 50
269.9999999999985
 51
359.9999999999985
  0
ARC
  5
196
100
AcDbEntity
  8
A10
  6
CONTINUOUS
 62
7
100
AcDbCircle
 10
258.0694602968836
 20
103.9073344033836
 30
0.000000000000000
 40
0.8000000000001299
100
AcDbArc
 50
179.9999999999983
 51
359.9999999999983
  0
LINE
  5
197
100
AcDbEntity
  8
A10
  6
CONTINUOUS
 62
7
100
AcDbLine
 10
258.8694602968836
 20
103.9073344033836
 30
0.000000000000000
 11
258.8694602968828
 21
112.3073344033837
 31
0.000000000000000
  0
ARC
  5
198
100
AcDbEntity
  8
A10
  6
CONTINUOUS
 62
7
100
AcDbCircle
 10
258.0694602968827
 20
112.3073344033837
 30
0.000000000000000
 40
0.8000000000001001
100
AcDbArc
 50
359.9999999999983
 51
539.9999999999983
  0
LINE
  5
199
100
AcDbEntity
  8
A10
  6
CONTINUOUS
 62
7
100
AcDbLine
 10
246.1694602968432
 20
92.20733440325199
 30
0.000000000000000
 11
246.1694602968432
 21
94.00733440324899
 31
0.000000000000000
  0
LINE
  5
19A
100
AcDbEntity
  8
A10
  6
CONTINUOUS
 62
7
100
AcDbLine
 10
250.3694602968432
 20
92.20733440325189
 30
0.000000000000000
 11
250.3694602968433
 21
94.00733440324889
 31
0.000000000000000
  0
ARC
  5
19B
100
AcDbEntity
  8
A10
  6
CONTINUOUS
 62
7
100
AcDbCircle
 10
248.2694602968432
 20
92.20733440325193
 30
0.000000000000000
 40
2.099999999999994
100
AcDbArc
 50
179.9999999999983
 51
359.9999999999983
  0
ARC
  5
19C
100
AcDbEntity
  8
A10
  6
CONTINUOUS
 62
7
100
AcDbCircle
 10
248.2694602968432
 20
94.00733440324893
 30
0.000000000000000
 40
2.099999999999994
100
AcDbArc
 50
359.9999999999983
 51
539.9999999999983
  0
ARC
  5
19D
100
AcDbEntity
  8
A10
  6
CONTINUOUS
 62
7
100
AcDbCircle
 10
248.2694602968440
 20
124.0073344035266
 30
0.000000000000000
 40
2.099999999999994
100
AcDbArc
 50
359.9999999999983
 51
539.9999999999983
  0
LINE
  5
19E
100
AcDbEntity
  8
A10
  6
CONTINUOUS
 62
7
100
AcDbLine
 10
250.3694602968440
 20
122.2073344035293
 30
0.000000000000000
 11
250.3694602968440
 21
124.0073344035265
 31
0.000000000000000
  0
LINE
  5
19F
100
AcDbEntity
  8
A10
  6
CONTINUOUS
 62
7
100
AcDbLine
 10
246.1694602968440
 20
122.2073344035294
 30
0.000000000000000
 11
246.1694602968441
 21
124.0073344035266
 31
0.000000000000000
  0
ARC
  5
1A0
100
AcDbEntity
  8
A10
  6
CONTINUOUS
 62
7
100
AcDbCircle
 10
248.2694602968439
 20
122.2073344035293
 30
0.000000000000000
 40
2.099999999999994
100
AcDbArc
 50
179.9999999999983
 51
359.9999999999983
  0
LINE
  5
1A1
100
AcDbEntity
  8
A5
  6
CONTINUOUS
 62
7
100
AcDbLine
 10
242.0194602968442
 20
67.10733392211193
 30
0.000000000000000
 11
242.0194602968442
 21
98.08635434917221
 31
0.000000000000000
  0
LINE
  5
1A2
100
AcDbEntity
  8
A5
  6
CONTINUOUS
 62
7
100
AcDbLine
 10
242.0194602968442
 20
118.1283144576222
 30
0.000000000000000
 11
242.0194602968442
 21
137.1073338033040
 31
0.000000000000000
  0
LINE
  5
1A3
100
AcDbEntity
  8
A10
  6
CONTINUOUS
 62
7
100
AcDbLine
 10
254.5194602968442
 20
67.10733392211193
 30
0.000000000000000
 11
254.5194602968442
 21
98.08635434915919
 31
0.000000000000000
  0
LINE
  5
1A4
100
AcDbEntity
  8
A10
  6
CONTINUOUS
 62
7
100
AcDbLine
 10
254.5194602968442
 20
118.1283144576089
 30
0.000000000000000
 11
254.5194602968442
 21
135.6073358736209
 31
0.000000000000000
  0
LINE
  5
1A5
100
AcDbEntity
  8
A11
  6
CENTER
 62
1
100
AcDbLine
 10
248.2694602968429
 20
62.35733388493669
 30
0.000000000000000
 11
248.2694602968429
 21
64.39500924587091
 31
0.000000000000000
  0
LINE
  5
1A6
100
AcDbEntity
  8
A11
  6
CENTER
 62
1
100
AcDbLine
 10
248.2694602968431
 20
76.00758723734181
 30
0.000000000000000
 11
248.2694602968434
 21
93.10733587362937
 31
0.000000000000000
  0
ARC
  5
1A7
100
AcDbEntity
  8
A10
  6
CONTINUOUS
 62
7
100
AcDbCircle
 10
89.94999999990804
 20
123.3573338849367
 30
0.000000000000000
 40
1.000000000000000
100
AcDbArc
 50
180.0000000000000
 51
270.0000000000000
  0
LINE
  5
1A8
100
AcDbEntity
  8
A10
  6
CONTINUOUS
 62
7
100
AcDbLine
 10
88.94999999990804
 20
131.8573338849365
 30
0.000000000000000
 11
88.94999999990804
 21
123.3573338849367
 31
0.000000000000000
  0
ARC
  5
1A9
100
AcDbEntity
  8
A10
  6
CONTINUOUS
 62
7
100
AcDbCircle
 10
89.94999999990804
 20
131.8573338849365
 30
0.000000000000000
 40
1.000000000000000
100
AcDbArc
 50
90.00000000000000
 51
180.0000000000000
  0
ENDSEC
  0
SECTION
  2
OBJECTS
  0
DICTIONARY
  5
1DC
100
AcDbDictionary
  3
ACAD_GROUP
350
1DD
  3
ACAD_LAYOUT
350
1DE
  3
ACAD_MLINESTYLE
350
1DF
  0
DICTIONARY
  5
1DD
102
{ACAD_REACTORS
330
1DC
102
}
330
1DC
100
AcDbDictionary
  0
DICTIONARY
  5
1DE
102
{ACAD_REACTORS
330
1DC
102
}
330
1DC
100
AcDbDictionary
  3
Model
350
1E0
  3
ﾚｲｱｳﾄ1
350
1E1
  3
ﾚｲｱｳﾄ2
350
1E2
  0
DICTIONARY
  5
1DF
102
{ACAD_REACTORS
330
1DC
102
}
330
1DC
100
AcDbDictionary
  3
STANDARD
350
1E3
  0
LAYOUT
  5
1E0
102
{ACAD_REACTORS
330
1DE
102
}
330
1DE
100
AcDbPlotSettings
 70
11952
  4
A3
 44
297.000000
 45
420.000000
 73
  1
 72
  1
100
AcDbLayout
  1
Model
 71
0
330
1D3
  0
LAYOUT
  5
1E1
102
{ACAD_REACTORS
330
1DE
102
}
330
1DE
100
AcDbPlotSettings
100
AcDbLayout
  1
ﾚｲｱｳﾄ1
 71
1
330
1D4
  0
LAYOUT
  5
1E2
102
{ACAD_REACTORS
330
1DE
102
}
330
1DE
100
AcDbPlotSettings
100
AcDbLayout
  1
ﾚｲｱｳﾄ2
 71
2
330
1D5
  0
MLINESTYLE
  5
1E3
102
{ACAD_REACTORS
330
1DF
102
}
330
1DF
100
AcDbMlineStyle
  2
STANDARD
 70
     0
  3

 62
   256
 51
90.00
 52
90.00
 71
     2
 49
0.50
 62
   256
  6
BYLAYER
 49
-0.50
 62
   256
  6
BYLAYER
  0
ENDSEC
  0
EOF
