  0
SECTION
  2
HEADER
  9
$ACADVER
  1
AC1015
  9
$DWGCODEPAGE
  3
ANSI_932
  9
$LTSCALE
 40
20.0
  9
$FILLMODE
 70
     1
  9
$CLAYER
  8
0
  9
$PDMODE
 70
     0
  9
$SPLFRAME
 70
     0
  9
$SPLINETYPE
 70
     6
  9
$SPLINESEGS
 70
     8
  9
$DIMASZ
 40
2.000000
  9
$DIMEXE
 40
1.500000
  9
$DIMEXO
 40
0.800000
  9
$DIMTAD
 70
     1
  9
$DIMTIH
 70
     0
  9
$DIMTOH
 70
     0
  9
$DIMTVP
 40
0.500000
  9
$DIMTXT
 40
3.100000
  9
$EXTMIN
 10
0.000000
 20
0.000000
 30
0.000000
  9
$EXTMAX
 10
297.000000
 20
420.000000
 30
0.000000
  9
$MEASUREMENT
 70
  1
  9
$LIMMIN
 10
0.000000
 20
0.000000
  9
$LIMMAX
 10
297.000000
 20
420.000000
  9
$HANDSEED
  5
125
  9
$LWDISPLAY
290
     0
  9
$DIMBLK
  1
_OPEN
  9
$DIMDEC
 70
     2
  9
$DIMADEC
 70
     2
  9
$DIMAUNIT
 70
     0
  9
$DIMZIN
 70
     8
  9
$DIMAZIN
 70
     2
  9
$DIMTOFL
 70
     1
  0
ENDSEC
  0
SECTION
  2
CLASSES
  0
ENDSEC
  0
SECTION
  2
TABLES
  0
TABLE
  2
VPORT
  5
F0
100
AcDbSymbolTable
 70
     1
  0
VPORT
  5
F1
100
AcDbSymbolTableRecord
100
AcDbViewportTableRecord
  2
*ACTIVE
 70
     0
 12
210.000000
 22
147.556071
 40
293.470525
 41
1.892078
  0
ENDTAB
  0
TABLE
  2
LTYPE
  5
F2
100
AcDbSymbolTable
 70
     4
  0
LTYPE
  5
F3
100
AcDbSymbolTableRecord
100
AcDbLinetypeTableRecord
  2
BYBLOCK
 70
     0
  3

 72
    65
 73
     0
 40
0.0
  0
LTYPE
  5
F4
100
AcDbSymbolTableRecord
100
AcDbLinetypeTableRecord
  2
BYLAYER
 70
     0
  3

 72
    65
 73
     0
 40
0.0
  0
LTYPE
  5
F5
100
AcDbSymbolTableRecord
100
AcDbLinetypeTableRecord
  2
CONTINUOUS
 70
     0
  3
Solid line (NEC CAE2D for Win R15.2 : 2020.06.04)
 72
    65
 73
     0
 40
0.0
  0
LTYPE
  5
F6
100
AcDbSymbolTableRecord
100
AcDbLinetypeTableRecord
  2
DASHED
 70
     0
  3
__ __ __ __ __ __ __ __ __ __ __ __ __ _
 72
    65
 73
     2
 40
0.75
 49
0.5
 74
     0
 49
-0.25
 74
     0
  0
LTYPE
  5
F7
100
AcDbSymbolTableRecord
100
AcDbLinetypeTableRecord
  2
CENTER
 70
     0
  3
____ _ ____ _ ____ _ ____ _ ____ _ ____
 72
    65
 73
     4
 40
2.0
 49
1.25
 74
     0
 49
-0.25
 74
     0
 49
0.25
 74
     0
 49
-0.25
 74
     0
  0
LTYPE
  5
F8
100
AcDbSymbolTableRecord
100
AcDbLinetypeTableRecord
  2
PHANTOM
 70
     0
  3
______  __  __  ______  __  __  ______ 
 72
    65
 73
     6
 40
2.5
 49
1.25
 74
     0
 49
-0.25
 74
     0
 49
0.25
 74
     0
 49
-0.25
 74
     0
 49
0.25
 74
     0
 49
-0.25
 74
     0
  0
ENDTAB
  0
TABLE
  2
LAYER
  5
F9
100
AcDbSymbolTable
 70
    13
  0
LAYER
  5
FA
100
AcDbSymbolTableRecord
100
AcDbLayerTableRecord
  2
0
 70
     0
 62
     7
  6
CONTINUOUS
370
    -3
390

  0
LAYER
  5
FB
100
AcDbSymbolTableRecord
100
AcDbLayerTableRecord
  2
A0
 70
     0
 62
     9
  6
CONTINUOUS
370
    -3
390

  0
LAYER
  5
FC
100
AcDbSymbolTableRecord
100
AcDbLayerTableRecord
  2
A4
 70
     0
 62
     9
  6
CONTINUOUS
370
    -3
390

  0
LAYER
  5
FD
100
AcDbSymbolTableRecord
100
AcDbLayerTableRecord
  2
A5
 70
     0
 62
     8
  6
CONTINUOUS
370
    -3
390

  0
LAYER
  5
FE
100
AcDbSymbolTableRecord
100
AcDbLayerTableRecord
  2
A6
 70
     0
 62
    12
  6
CONTINUOUS
370
    -3
390

  0
LAYER
  5
FF
100
AcDbSymbolTableRecord
100
AcDbLayerTableRecord
  2
A8
 70
     0
 62
    10
  6
CONTINUOUS
370
    -3
390

  0
LAYER
  5
100
100
AcDbSymbolTableRecord
100
AcDbLayerTableRecord
  2
A9
 70
     0
 62
     9
  6
CONTINUOUS
370
    -3
390

  0
LAYER
  5
101
100
AcDbSymbolTableRecord
100
AcDbLayerTableRecord
  2
A10
 70
     0
 62
     6
  6
CONTINUOUS
370
    -3
390

  0
LAYER
  5
102
100
AcDbSymbolTableRecord
100
AcDbLayerTableRecord
  2
A20
 70
     0
 62
     1
  6
CONTINUOUS
370
    -3
390

  0
LAYER
  5
103
100
AcDbSymbolTableRecord
100
AcDbLayerTableRecord
  2
A30
 70
     0
 62
     1
  6
CONTINUOUS
370
    -3
390

  0
LAYER
  5
104
100
AcDbSymbolTableRecord
100
AcDbLayerTableRecord
  2
A40
 70
     0
 62
     9
  6
CONTINUOUS
370
    -3
390

  0
LAYER
  5
105
100
AcDbSymbolTableRecord
100
AcDbLayerTableRecord
  2
A50
 70
     0
 62
    12
  6
CONTINUOUS
370
    -3
390

  0
LAYER
  5
106
100
AcDbSymbolTableRecord
100
AcDbLayerTableRecord
  2
A1023
 70
     0
 62
    16
  6
CONTINUOUS
370
    -3
390

  0
ENDTAB
  0
TABLE
  2
STYLE
  5
107
100
AcDbSymbolTable
 70
     4
  0
STYLE
  5
108
100
AcDbSymbolTableRecord
100
AcDbTextStyleTableRecord
  2
STANDARD
 70
    64
 40
0.0
 41
1.0
 50
0.0
 71
     0
 42
3.000000000000000
  3
TXT
  4

  0
STYLE
  5
109
100
AcDbSymbolTableRecord
100
AcDbTextStyleTableRecord
  2
ANKTATE
 70
    68
 40
0.0
 41
1.0
 50
0.0
 71
     0
 42
3.000000000000000
  3
TXT
  4

  0
STYLE
  5
10A
100
AcDbSymbolTableRecord
100
AcDbTextStyleTableRecord
  2
KNJYOKO
 70
    64
 40
0.0
 41
1.0
 50
0.0
 71
     0
 42
3.000000000000000
  3
TXT
  4
BIGFONT
  0
STYLE
  5
10B
100
AcDbSymbolTableRecord
100
AcDbTextStyleTableRecord
  2
KNJTATE
 70
    68
 40
0.0
 41
1.0
 50
0.0
 71
     0
 42
3.000000000000000
  3
TXT
  4
BIGFONT
  0
ENDTAB
  0
TABLE
  2
VIEW
  5
10C
100
AcDbSymbolTable
 70
     0
  0
ENDTAB
  0
TABLE
  2
UCS
  5
10D
100
AcDbSymbolTable
 70
     0
  0
ENDTAB
  0
TABLE
  2
APPID
  5
10E
100
AcDbSymbolTable
 70
     1
  0
APPID
  5
10F
100
AcDbSymbolTableRecord
100
AcDbRegAppTableRecord
  2
ACAD
 70
     0
  0
ENDTAB
  0
TABLE
  2
DIMSTYLE
  5
110
100
AcDbSymbolTable
 70
     2
100
AcDbDimStyleTable
  0
DIMSTYLE
105
111
100
AcDbSymbolTableRecord
100
AcDbDimStyleTableRecord
  2
STANDARD
 70
     0
 41
2.000000
 44
1.500000
 42
0.800000
145
0.661290
140
3.100000
144
1.000000
146
0.645161
340
108
  0
DIMSTYLE
105
112
100
AcDbSymbolTableRecord
100
AcDbDimStyleTableRecord
  2
A001
 70
     0
 41
2.000000
 44
1.500000
 42
0.800000
145
0.661290
140
3.100000
144
1.000000
146
0.645161
 77
     1
 73
     0
 74
     0
271
     2
179
     2
275
     0
 78
     8
 79
     2
172
     1
340
108
  0
ENDTAB
  0
TABLE
  2
BLOCK_RECORD
  5
113
100
AcDbSymbolTable
 70
    12
  0
BLOCK_RECORD
  5
114
100
AcDbSymbolTableRecord
100
AcDbBlockTableRecord
  2
*MODEL_SPACE
  0
BLOCK_RECORD
  5
115
100
AcDbSymbolTableRecord
100
AcDbBlockTableRecord
  2
*PAPER_SPACE
  0
BLOCK_RECORD
  5
116
100
AcDbSymbolTableRecord
100
AcDbBlockTableRecord
  2
*PAPER_SPACE0
  0
BLOCK_RECORD
  5
1
100
AcDbSymbolTableRecord
100
AcDbBlockTableRecord
  2
_NONE
  0
BLOCK_RECORD
  5
4
100
AcDbSymbolTableRecord
100
AcDbBlockTableRecord
  2
_CLOSED
  0
BLOCK_RECORD
  5
B
100
AcDbSymbolTableRecord
100
AcDbBlockTableRecord
  2
_DOT
  0
BLOCK_RECORD
  5
13
100
AcDbSymbolTableRecord
100
AcDbBlockTableRecord
  2
_OPEN
  0
BLOCK_RECORD
  5
19
100
AcDbSymbolTableRecord
100
AcDbBlockTableRecord
  2
_ORIGIN
  0
BLOCK_RECORD
  5
1E
100
AcDbSymbolTableRecord
100
AcDbBlockTableRecord
  2
_OPEN30
  0
BLOCK_RECORD
  5
24
100
AcDbSymbolTableRecord
100
AcDbBlockTableRecord
  2
_BOXFILLED
  0
BLOCK_RECORD
  5
29
100
AcDbSymbolTableRecord
100
AcDbBlockTableRecord
  2
_BOXBLANK
  0
BLOCK_RECORD
  5
31
100
AcDbSymbolTableRecord
100
AcDbBlockTableRecord
  2
_OBLIQUE
  0
BLOCK_RECORD
  5
35
100
AcDbSymbolTableRecord
100
AcDbBlockTableRecord
  2
_OPEN90
  0
BLOCK_RECORD
  5
3B
100
AcDbSymbolTableRecord
100
AcDbBlockTableRecord
  2
_CLOSEDBLANK
  0
BLOCK_RECORD
  5
41
100
AcDbSymbolTableRecord
100
AcDbBlockTableRecord
  2
_DOTBLANK
  0
ENDTAB
  0
ENDSEC
  0
SECTION
  2
BLOCKS
  0
BLOCK
  5
117
100
AcDbEntity
  8
0
100
AcDbBlockBegin
  2
*MODEL_SPACE
 70
     0
 10
0.0
 20
0.0
 30
0.0
  3
*MODEL_SPACE
  1

  0
ENDBLK
  5
118
100
AcDbEntity
  8
0
100
AcDbBlockEnd
  0
BLOCK
  5
119
100
AcDbEntity
  8
0
100
AcDbBlockBegin
  2
*PAPER_SPACE
 70
     0
 10
0.0
 20
0.0
 30
0.0
  3
*PAPER_SPACE
  1

  0
ENDBLK
  5
11A
100
AcDbEntity
  8
0
100
AcDbBlockEnd
  0
BLOCK
  5
11B
100
AcDbEntity
  8
0
100
AcDbBlockBegin
  2
*PAPER_SPACE0
 70
     0
 10
0.0
 20
0.0
 30
0.0
  3
*PAPER_SPACE0
  1

  0
ENDBLK
  5
11C
100
AcDbEntity
  8
0
100
AcDbBlockEnd
  0
BLOCK
  5
2
330
1
100
AcDbEntity
  8
0
100
AcDbBlockBegin
  2
_NONE
 70
     0
 10
0.0
 20
0.0
 30
0.0
  3
_NONE
  1

  0
ENDBLK
  5
3
330
1
100
AcDbEntity
  8
0
100
AcDbBlockEnd
  0
BLOCK
  5
5
330
4
100
AcDbEntity
  8
0
100
AcDbBlockBegin
  2
_CLOSED
 70
     0
 10
0.0
 20
0.0
 30
0.0
  3
_CLOSED
  1

  0
LINE
  5
6
330
4
100
AcDbEntity
  8
0
  6
BYBLOCK
 62
     0
370
    -2
100
AcDbLine
 10
-1.0
 20
0.166667
 30
0.0
 11
0.0
 21
0.0
 31
0.0
  0
LINE
  5
7
330
4
100
AcDbEntity
  8
0
  6
BYBLOCK
 62
     0
370
    -2
100
AcDbLine
 10
0.0
 20
0.0
 30
0.0
 11
-1.0
 21
-0.166667
 31
0.0
  0
LINE
  5
8
330
4
100
AcDbEntity
  8
0
  6
BYBLOCK
 62
     0
370
    -2
100
AcDbLine
 10
-1.0
 20
0.166667
 30
0.0
 11
-1.0
 21
-0.166667
 31
0.0
  0
LINE
  5
9
330
4
100
AcDbEntity
  8
0
  6
BYBLOCK
 62
     0
370
    -2
100
AcDbLine
 10
0.0
 20
0.0
 30
0.0
 11
-1.0
 21
0.0
 31
0.0
  0
ENDBLK
  5
A
330
4
100
AcDbEntity
  8
0
100
AcDbBlockEnd
  0
BLOCK
  5
C
330
B
100
AcDbEntity
  8
0
100
AcDbBlockBegin
  2
_DOT
 70
     0
 10
0.0
 20
0.0
 30
0.0
  3
_DOT
  1

  0
POLYLINE
  5
D
330
B
100
AcDbEntity
  8
0
  6
BYBLOCK
 62
     0
370
    -2
100
AcDb2dPolyline
 66
     1
 10
0.0
 20
0.0
 30
0.0
 70
     1
 40
0.5
 41
0.5
  0
VERTEX
  5
E
330
B
100
AcDbEntity
  8
0
  6
BYBLOCK
 62
     0
370
    -2
100
AcDbVertex
100
AcDb2dVertex
 10
-0.25
 20
0.0
 30
0.0
 42
1.0
  0
VERTEX
  5
F
330
B
100
AcDbEntity
  8
0
  6
BYBLOCK
 62
     0
370
    -2
100
AcDbVertex
100
AcDb2dVertex
 10
0.25
 20
0.0
 30
0.0
 42
1.0
  0
SEQEND
  5
10
330
B
100
AcDbEntity
  8
0
  6
BYBLOCK
 62
     0
370
    -2
  0
LINE
  5
11
330
B
100
AcDbEntity
  8
0
  6
BYBLOCK
 62
     0
370
    -2
100
AcDbLine
 10
-0.5
 20
0.0
 30
0.0
 11
-1.0
 21
0.0
 31
0.0
  0
ENDBLK
  5
12
330
B
100
AcDbEntity
  8
0
100
AcDbBlockEnd
  0
BLOCK
  5
14
330
13
100
AcDbEntity
  8
0
100
AcDbBlockBegin
  2
_OPEN
 70
     0
 10
0.0
 20
0.0
 30
0.0
  3
_OPEN
  1

  0
LINE
  5
15
330
13
100
AcDbEntity
  8
0
  6
BYBLOCK
 62
     0
370
    -2
100
AcDbLine
 10
-1.0
 20
0.166667
 30
0.0
 11
0.0
 21
0.0
 31
0.0
  0
LINE
  5
16
330
13
100
AcDbEntity
  8
0
  6
BYBLOCK
 62
     0
370
    -2
100
AcDbLine
 10
0.0
 20
0.0
 30
0.0
 11
-1.0
 21
-0.166667
 31
0.0
  0
LINE
  5
17
330
13
100
AcDbEntity
  8
0
  6
BYBLOCK
 62
     0
370
    -2
100
AcDbLine
 10
0.0
 20
0.0
 30
0.0
 11
-1.0
 21
0.0
 31
0.0
  0
ENDBLK
  5
18
330
13
100
AcDbEntity
  8
0
100
AcDbBlockEnd
  0
BLOCK
  5
1A
330
19
100
AcDbEntity
  8
0
100
AcDbBlockBegin
  2
_ORIGIN
 70
     0
 10
0.0
 20
0.0
 30
0.0
  3
_ORIGIN
  1

  0
CIRCLE
  5
1B
330
19
100
AcDbEntity
  8
0
  6
BYBLOCK
 62
     0
370
    -2
100
AcDbCircle
 10
0.0
 20
0.0
 30
0.0
 40
0.5
  0
LINE
  5
1C
330
19
100
AcDbEntity
  8
0
  6
BYBLOCK
 62
     0
370
    -2
100
AcDbLine
 10
0.0
 20
0.0
 30
0.0
 11
-1.0
 21
0.0
 31
0.0
  0
ENDBLK
  5
1D
330
19
100
AcDbEntity
  8
0
100
AcDbBlockEnd
  0
BLOCK
  5
1F
330
1E
100
AcDbEntity
  8
0
100
AcDbBlockBegin
  2
_OPEN30
 70
     0
 10
0.0
 20
0.0
 30
0.0
  3
_OPEN30
  1

  0
LINE
  5
20
330
1E
100
AcDbEntity
  8
0
  6
BYBLOCK
 62
     0
370
    -2
100
AcDbLine
 10
-1.0
 20
0.267949
 30
0.0
 11
0.0
 21
0.0
 31
0.0
  0
LINE
  5
21
330
1E
100
AcDbEntity
  8
0
  6
BYBLOCK
 62
     0
370
    -2
100
AcDbLine
 10
0.0
 20
0.0
 30
0.0
 11
-1.0
 21
-0.267949
 31
0.0
  0
LINE
  5
22
330
1E
100
AcDbEntity
  8
0
  6
BYBLOCK
 62
     0
370
    -2
100
AcDbLine
 10
0.0
 20
0.0
 30
0.0
 11
-1.0
 21
0.0
 31
0.0
  0
ENDBLK
  5
23
330
1E
100
AcDbEntity
  8
0
100
AcDbBlockEnd
  0
BLOCK
  5
25
330
24
100
AcDbEntity
  8
0
100
AcDbBlockBegin
  2
_BOXFILLED
 70
     0
 10
0.0
 20
0.0
 30
0.0
  3
_BOXFILLED
  1

  0
SOLID
  5
26
330
24
100
AcDbEntity
  8
0
  6
BYBLOCK
 62
     0
370
    -2
100
AcDbTrace
 10
-0.5
 20
0.5
 30
0.0
 11
0.5
 21
0.5
 31
0.0
 12
-0.5
 22
-0.5
 32
0.0
 13
0.5
 23
-0.5
 33
0.0
  0
LINE
  5
27
330
24
100
AcDbEntity
  8
0
  6
BYBLOCK
 62
     0
370
    -2
100
AcDbLine
 10
-0.5
 20
0.0
 30
0.0
 11
-1.0
 21
0.0
 31
0.0
  0
ENDBLK
  5
28
330
24
100
AcDbEntity
  8
0
100
AcDbBlockEnd
  0
BLOCK
  5
2A
330
29
100
AcDbEntity
  8
0
100
AcDbBlockBegin
  2
_BOXBLANK
 70
     0
 10
0.0
 20
0.0
 30
0.0
  3
_BOXBLANK
  1

  0
LINE
  5
2B
330
29
100
AcDbEntity
  8
0
  6
BYBLOCK
 62
     0
370
    -2
100
AcDbLine
 10
-0.5
 20
-0.5
 30
0.0
 11
0.5
 21
-0.5
 31
0.0
  0
LINE
  5
2C
330
29
100
AcDbEntity
  8
0
  6
BYBLOCK
 62
     0
370
    -2
100
AcDbLine
 10
0.5
 20
-0.5
 30
0.0
 11
0.5
 21
0.5
 31
0.0
  0
LINE
  5
2D
330
29
100
AcDbEntity
  8
0
  6
BYBLOCK
 62
     0
370
    -2
100
AcDbLine
 10
0.5
 20
0.5
 30
0.0
 11
-0.5
 21
0.5
 31
0.0
  0
LINE
  5
2E
330
29
100
AcDbEntity
  8
0
  6
BYBLOCK
 62
     0
370
    -2
100
AcDbLine
 10
-0.5
 20
0.5
 30
0.0
 11
-0.5
 21
-0.5
 31
0.0
  0
LINE
  5
2F
330
29
100
AcDbEntity
  8
0
  6
BYBLOCK
 62
     0
370
    -2
100
AcDbLine
 10
-0.5
 20
0.0
 30
0.0
 11
-1.0
 21
0.0
 31
0.0
  0
ENDBLK
  5
30
330
29
100
AcDbEntity
  8
0
100
AcDbBlockEnd
  0
BLOCK
  5
32
330
31
100
AcDbEntity
  8
0
100
AcDbBlockBegin
  2
_OBLIQUE
 70
     0
 10
0.0
 20
0.0
 30
0.0
  3
_OBLIQUE
  1

  0
LINE
  5
33
330
31
100
AcDbEntity
  8
0
  6
BYBLOCK
 62
     0
370
    -2
100
AcDbLine
 10
-0.5
 20
-0.5
 30
0.0
 11
0.5
 21
0.5
 31
0.0
  0
ENDBLK
  5
34
330
31
100
AcDbEntity
  8
0
100
AcDbBlockEnd
  0
BLOCK
  5
36
330
35
100
AcDbEntity
  8
0
100
AcDbBlockBegin
  2
_OPEN90
 70
     0
 10
0.0
 20
0.0
 30
0.0
  3
_OPEN90
  1

  0
LINE
  5
37
330
35
100
AcDbEntity
  8
0
  6
BYBLOCK
 62
     0
370
    -2
100
AcDbLine
 10
-0.5
 20
0.5
 30
0.0
 11
0.0
 21
0.0
 31
0.0
  0
LINE
  5
38
330
35
100
AcDbEntity
  8
0
  6
BYBLOCK
 62
     0
370
    -2
100
AcDbLine
 10
0.0
 20
0.0
 30
0.0
 11
-0.5
 21
-0.5
 31
0.0
  0
LINE
  5
39
330
35
100
AcDbEntity
  8
0
  6
BYBLOCK
 62
     0
370
    -2
100
AcDbLine
 10
0.0
 20
0.0
 30
0.0
 11
-1.0
 21
0.0
 31
0.0
  0
ENDBLK
  5
3A
330
35
100
AcDbEntity
  8
0
100
AcDbBlockEnd
  0
BLOCK
  5
3C
330
3B
100
AcDbEntity
  8
0
100
AcDbBlockBegin
  2
_CLOSEDBLANK
 70
     0
 10
0.0
 20
0.0
 30
0.0
  3
_CLOSEDBLANK
  1

  0
LINE
  5
3D
330
3B
100
AcDbEntity
  8
0
  6
BYBLOCK
 62
     0
370
    -2
100
AcDbLine
 10
-1.0
 20
0.1666666666666666
 30
0.0
 11
0.0
 21
0.0
 31
0.0
  0
LINE
  5
3E
330
3B
100
AcDbEntity
  8
0
  6
BYBLOCK
 62
     0
370
    -2
100
AcDbLine
 10
0.0
 20
0.0
 30
0.0
 11
-1.0
 21
-0.1666666666666666
 31
0.0
  0
LINE
  5
3F
330
3B
100
AcDbEntity
  8
0
  6
BYBLOCK
 62
     0
370
    -2
100
AcDbLine
 10
-1.0
 20
0.1666666666666666
 30
0.0
 11
-1.0
 21
-0.1666666666666666
 31
0.0
  0
ENDBLK
  5
40
330
3B
100
AcDbEntity
  8
0
100
AcDbBlockEnd
  0
BLOCK
  5
42
330
41
100
AcDbEntity
  8
0
100
AcDbBlockBegin
  2
_DOTBLANK
 70
     0
 10
0.0
 20
0.0
 30
0.0
  3
_DOTBLANK
  1

  0
CIRCLE
  5
43
330
41
100
AcDbEntity
  8
0
  6
BYBLOCK
 62
     0
370
    -2
100
AcDbCircle
 10
0.0
 20
0.0
 30
0.0
 40
0.5
  0
LINE
  5
44
330
41
100
AcDbEntity
  8
0
  6
BYBLOCK
 62
     0
370
    -2
100
AcDbLine
 10
-0.5
 20
0.0
 30
0.0
 11
-1.0
 21
0.0
 31
0.0
  0
ENDBLK
  5
45
330
41
100
AcDbEntity
  8
0
100
AcDbBlockEnd
  0
ENDSEC
  0
SECTION
  2
ENTITIES
  0
MTEXT
  5
46
100
AcDbEntity
  8
A8
  6
CONTINUOUS
 62
7
100
AcDbMText
 10
9.999997526638502
 20
18.00000076076889
 30
0.0000000000000000
 40
3.000000000000000
 41
0.0000000000000000
 44
0.6739999771118164
 71
     7
 72
     1
  1
{\H0.93x;{TYPE No.LD-0045\P}
 11
1.000000000000000
 21
0.0000000000000000
 31
0.0000000000000000
  7
STANDARD
  0
POINT
  5
47
100
AcDbEntity
  8
A0
  6
CONTINUOUS
 62
5
100
AcDbPoint
 10
9.999997526638502
 20
18.00000076076889
 30
0.0000000000000000
  0
POINT
  5
48
100
AcDbEntity
  8
A10
  6
CONTINUOUS
 62
5
100
AcDbPoint
 10
50.00000000000000
 20
50.00000000000000
 30
0.0000000000000000
  0
POINT
  5
49
100
AcDbEntity
  8
A10
  6
CONTINUOUS
 62
5
100
AcDbPoint
 10
50.00000000000000
 20
50.00000000000000
 30
0.0000000000000000
  0
LINE
  5
4A
100
AcDbEntity
  8
A10
  6
CONTINUOUS
 62
7
100
AcDbLine
 10
189.1338878839300
 20
58.89999999981927
 30
0.0000000000000000
 11
189.1338878839034
 21
71.09999999981932
 31
0.0000000000000000
  0
LINE
  5
4B
100
AcDbEntity
  8
A10
  6
CONTINUOUS
 62
7
100
AcDbLine
 10
183.1338878839949
 20
60.89999999981591
 30
0.0000000000000000
 11
178.1338878839308
 21
60.89999999981542
 31
0.0000000000000000
  0
LINE
  5
4C
100
AcDbEntity
  8
A10
  6
CONTINUOUS
 62
7
100
AcDbLine
 10
174.1338878839688
 20
60.89999999981787
 30
0.0000000000000000
 11
169.1338878839433
 21
60.89999999981737
 31
0.0000000000000000
  0
LINE
  5
4D
100
AcDbEntity
  8
A10
  6
CONTINUOUS
 62
7
100
AcDbLine
 10
183.1338878839941
 20
69.09999999981596
 30
0.0000000000000000
 11
178.1338878839302
 21
69.09999999981547
 31
0.0000000000000000
  0
LINE
  5
4E
100
AcDbEntity
  8
A10
  6
CONTINUOUS
 62
7
100
AcDbLine
 10
174.1338878839680
 20
69.09999999981791
 30
0.0000000000000000
 11
169.1338878839423
 21
69.09999999981743
 31
0.0000000000000000
  0
LINE
  5
4F
100
AcDbEntity
  8
A10
  6
CONTINUOUS
 62
7
100
AcDbLine
 10
174.1338878839719
 20
60.89999999981784
 30
0.0000000000000000
 11
174.1338878839655
 21
58.89999999981784
 31
0.0000000000000000
  0
LINE
  5
50
100
AcDbEntity
  8
A10
  6
CONTINUOUS
 62
7
100
AcDbLine
 10
169.1338878839432
 20
60.89999999981739
 30
0.0000000000000000
 11
169.1338878839366
 21
58.89999999981728
 31
0.0000000000000000
  0
LINE
  5
51
100
AcDbEntity
  8
A10
  6
CONTINUOUS
 62
7
100
AcDbLine
 10
169.1338878839353
 20
71.09999999981738
 30
0.0000000000000000
 11
169.1338878839423
 21
69.09999999981733
 31
0.0000000000000000
  0
LINE
  5
52
100
AcDbEntity
  8
A10
  6
CONTINUOUS
 62
7
100
AcDbLine
 10
174.1338878839646
 20
71.09999999981781
 30
0.0000000000000000
 11
174.1338878839714
 21
69.09999999981781
 31
0.0000000000000000
  0
LINE
  5
53
100
AcDbEntity
  8
A10
  6
CONTINUOUS
 62
7
100
AcDbLine
 10
178.1338878839314
 20
71.09999999981818
 30
0.0000000000000000
 11
178.1338878839292
 21
69.09999999981545
 31
0.0000000000000000
  0
LINE
  5
54
100
AcDbEntity
  8
A10
  6
CONTINUOUS
 62
7
100
AcDbLine
 10
183.1338878839875
 20
71.09999999981882
 30
0.0000000000000000
 11
183.1338878839942
 21
69.09999999981598
 31
0.0000000000000000
  0
LINE
  5
55
100
AcDbEntity
  8
A10
  6
CONTINUOUS
 62
7
100
AcDbLine
 10
183.1338878839951
 20
60.89999999981578
 30
0.0000000000000000
 11
183.1338878839887
 21
58.89999999981862
 31
0.0000000000000000
  0
LINE
  5
56
100
AcDbEntity
  8
A10
  6
CONTINUOUS
 62
7
100
AcDbLine
 10
178.1338878839298
 20
60.89999999981531
 30
0.0000000000000000
 11
178.1338878839324
 21
58.89999999981809
 31
0.0000000000000000
  0
LINE
  5
57
100
AcDbEntity
  8
A10
  6
CENTER
 62
1
100
AcDbLine
 10
193.1338878839143
 20
69.51025717386193
 30
0.0000000000000000
 11
193.1338878839154
 21
58.49999999985476
 31
0.0000000000000000
  0
LINE
  5
58
100
AcDbEntity
  8
A10
  6
CONTINUOUS
 62
7
100
AcDbLine
 10
163.1338878839258
 20
71.09999999981692
 30
0.0000000000000000
 11
163.1338878839463
 21
58.89999999981676
 31
0.0000000000000000
  0
LINE
  5
59
100
AcDbEntity
  8
A10
  6
CONTINUOUS
 62
7
100
AcDbLine
 10
195.3338878839382
 20
52.09999999984171
 30
0.0000000000000000
 11
129.1338878840182
 21
52.09999999983517
 31
0.0000000000000000
  0
LINE
  5
5A
100
AcDbEntity
  8
A10
  6
CONTINUOUS
 62
7
100
AcDbLine
 10
198.5338878839379
 20
55.29999999984872
 30
0.0000000000000000
 11
198.5338878838955
 21
74.69999999982687
 31
0.0000000000000000
  0
LINE
  5
5B
100
AcDbEntity
  8
A10
  6
CONTINUOUS
 62
7
100
AcDbLine
 10
195.3338878838952
 20
77.89999999981987
 30
0.0000000000000000
 11
115.6338878839923
 21
77.89999999981200
 31
0.0000000000000000
  0
ARC
  5
5C
100
AcDbEntity
  8
A10
  6
CONTINUOUS
 62
7
100
AcDbCircle
 10
148.1338878839442
 20
64.99999999981183
 30
0.0000000000000000
 40
1.250000000000000
100
AcDbArc
 50
90.00000000000564
 51
270.0000000000056
  0
ARC
  5
5D
100
AcDbEntity
  8
A10
  6
CONTINUOUS
 62
7
100
AcDbCircle
 10
152.1338878839442
 20
64.99999999981218
 30
0.0000000000000000
 40
1.250000000000000
100
AcDbArc
 50
270.0000000000056
 51
450.0000000000056
  0
LINE
  5
5E
100
AcDbEntity
  8
A10
  6
CONTINUOUS
 62
7
100
AcDbLine
 10
152.1338878839444
 20
63.74999999981220
 30
0.0000000000000000
 11
148.1338878839444
 21
63.74999999981181
 31
0.0000000000000000
  0
LINE
  5
5F
100
AcDbEntity
  8
A10
  6
CONTINUOUS
 62
7
100
AcDbLine
 10
152.1338878839441
 20
66.24999999981220
 30
0.0000000000000000
 11
148.1338878839441
 21
66.24999999981181
 31
0.0000000000000000
  0
ARC
  5
60
100
AcDbEntity
  8
A10
  6
CONTINUOUS
 62
7
100
AcDbCircle
 10
125.1338878840052
 20
62.99999999978137
 30
0.0000000000000000
 40
4.000000000000000
100
AcDbArc
 50
0.0000000000000000
 51
90.00000000000000
  0
LINE
  5
61
100
AcDbEntity
  8
A10
  6
DASHED
 62
4
100
AcDbLine
 10
122.9602397063337
 20
64.88431059625536
 30
0.0000000000000000
 11
120.9535163982857
 21
64.53047113423747
 31
0.0000000000000000
  0
ARC
  5
62
100
AcDbEntity
  8
A10
  6
DASHED
 62
4
100
AcDbCircle
 10
123.1338878839972
 20
63.89950284324259
 30
0.0000000000000000
 40
1.000000000000000
100
AcDbArc
 50
0.0000000000000000
 51
99.99999999979192
  0
LINE
  5
63
100
AcDbEntity
  8
A10
  6
DASHED
 62
4
100
AcDbLine
 10
118.2947882528180
 20
57.99999999980757
 30
0.0000000000000000
 11
116.1338878839831
 21
57.99999999980021
 31
0.0000000000000000
  0
ARC
  5
64
100
AcDbEntity
  8
A10
  6
DASHED
 62
4
100
AcDbCircle
 10
116.1338878839832
 20
58.49999999981343
 30
0.0000000000000000
 40
0.5000000000000000
100
AcDbArc
 50
180.0000000000000
 51
270.0000000000000
  0
LINE
  5
65
100
AcDbEntity
  8
A10
  6
DASHED
 62
4
100
AcDbLine
 10
119.2795960058270
 20
58.82635182214051
 30
0.0000000000000000
 11
120.1423568229369
 21
63.71931155889243
 31
0.0000000000000000
  0
ARC
  5
66
100
AcDbEntity
  8
A10
  6
DASHED
 62
4
100
AcDbCircle
 10
121.1271645759490
 20
63.54566338122548
 30
0.0000000000000000
 40
1.000000000000000
100
AcDbArc
 50
99.99999999979192
 51
169.9999999999966
  0
ARC
  5
67
100
AcDbEntity
  8
A10
  6
DASHED
 62
4
100
AcDbCircle
 10
118.2947882528147
 20
58.99999999980751
 30
0.0000000000000000
 40
1.000000000000000
100
AcDbArc
 50
270.0000000000000
 51
349.9999999999966
  0
LINE
  5
68
100
AcDbEntity
  8
A10
  6
CENTER
 62
1
100
AcDbLine
 10
135.1338878839936
 20
70.09999999981368
 30
0.0000000000000000
 11
135.1338878839936
 21
59.89999999981363
 31
0.0000000000000000
  0
LINE
  5
69
100
AcDbEntity
  8
A10
  6
CONTINUOUS
 62
7
100
AcDbLine
 10
107.6338878839721
 20
49.99999999994635
 30
0.0000000000000000
 11
107.6338878840449
 21
79.99999999986863
 31
0.0000000000000000
  0
ARC
  5
6A
100
AcDbEntity
  8
A10
  6
CONTINUOUS
 62
7
100
AcDbCircle
 10
121.6338878839986
 20
60.99999999991859
 30
0.0000000000000000
 40
4.000000000002530
100
AcDbArc
 50
297.4477605193159
 51
450.0000000000000
  0
LINE
  5
6B
100
AcDbEntity
  8
A10
  6
CENTER
 62
1
100
AcDbLine
 10
105.4887626379974
 20
60.99999999991847
 30
0.0000000000000000
 11
127.9693714833936
 21
60.99999999991847
 31
0.0000000000000000
  0
LINE
  5
6C
100
AcDbEntity
  8
A10
  6
CENTER
 62
1
100
AcDbLine
 10
121.6338878839986
 20
64.49999999991847
 30
0.0000000000000000
 11
121.6338878839986
 21
57.49999999991847
 31
0.0000000000000000
  0
LINE
  5
6D
100
AcDbEntity
  8
A10
  6
DASHED
 62
4
100
AcDbLine
 10
115.6338878839974
 20
58.49999999981343
 30
0.0000000000000000
 11
115.6338878839957
 21
64.99999999993273
 31
0.0000000000000000
  0
LINE
  5
6E
100
AcDbEntity
  8
A10
  6
CONTINUOUS
 62
7
100
AcDbLine
 10
115.6338878839957
 20
64.99999999993270
 30
0.0000000000000000
 11
115.6338878839923
 21
77.89999999981200
 31
0.0000000000000000
  0
LINE
  5
6F
100
AcDbEntity
  8
A10
  6
CONTINUOUS
 62
7
100
AcDbLine
 10
189.1338878839302
 20
58.89999999981935
 30
0.0000000000000000
 11
183.1338878839887
 21
58.89999999981875
 31
0.0000000000000000
  0
LINE
  5
70
100
AcDbEntity
  8
A10
  6
CONTINUOUS
 62
7
100
AcDbLine
 10
169.1338878839366
 20
58.89999999981739
 30
0.0000000000000000
 11
163.1338878839464
 21
58.89999999981679
 31
0.0000000000000000
  0
LINE
  5
71
100
AcDbEntity
  8
A10
  6
CONTINUOUS
 62
7
100
AcDbLine
 10
178.1338878839324
 20
58.89999999981826
 30
0.0000000000000000
 11
174.1338878839655
 21
58.89999999981786
 31
0.0000000000000000
  0
LINE
  5
72
100
AcDbEntity
  8
A10
  6
CONTINUOUS
 62
7
100
AcDbLine
 10
169.1338878839353
 20
71.09999999981743
 30
0.0000000000000000
 11
163.1338878839259
 21
71.09999999981683
 31
0.0000000000000000
  0
LINE
  5
73
100
AcDbEntity
  8
A10
  6
CONTINUOUS
 62
7
100
AcDbLine
 10
178.1338878839313
 20
71.09999999981829
 30
0.0000000000000000
 11
174.1338878839646
 21
71.09999999981790
 31
0.0000000000000000
  0
LINE
  5
74
100
AcDbEntity
  8
A10
  6
CONTINUOUS
 62
7
100
AcDbLine
 10
189.1338878839035
 20
71.09999999981939
 30
0.0000000000000000
 11
183.1338878839874
 21
71.09999999981879
 31
0.0000000000000000
  0
LINE
  5
75
100
AcDbEntity
  8
A10
  6
CONTINUOUS
 62
7
100
AcDbLine
 10
129.1338878840003
 20
62.99999999978794
 30
0.0000000000000000
 11
129.1338878840182
 21
52.09999999983520
 31
0.0000000000000000
  0
LINE
  5
76
100
AcDbEntity
  8
A10
  6
CONTINUOUS
 62
7
100
AcDbLine
 10
126.0275350862423
 20
54.05122981593597
 30
0.0000000000000000
 11
129.1338878840048
 21
60.23698721863346
 31
0.0000000000000000
  0
ARC
  5
77
100
AcDbEntity
  8
A10
  6
CONTINUOUS
 62
7
100
AcDbCircle
 10
125.1338878839972
 20
54.49999999979356
 30
0.0000000000000000
 40
1.000000000000000
100
AcDbArc
 50
180.0000000000000
 51
333.3351924356751
  0
LINE
  5
78
100
AcDbEntity
  8
A10
  6
CONTINUOUS
 62
7
100
AcDbLine
 10
125.1338878840052
 20
66.99999999978135
 30
0.0000000000000000
 11
115.6338878839952
 21
66.99999999977982
 31
0.0000000000000000
  0
LINE
  5
79
100
AcDbEntity
  8
A10
  6
CONTINUOUS
 62
7
100
AcDbLine
 10
124.1338878839972
 20
54.49999999979356
 30
0.0000000000000000
 11
124.1338878839972
 21
57.87750100071504
 31
0.0000000000000000
  0
LINE
  5
7A
100
AcDbEntity
  8
A10
  6
DASHED
 62
4
100
AcDbLine
 10
124.1338878839972
 20
57.87750100071504
 30
0.0000000000000000
 11
124.1338878839972
 21
63.89950284324250
 31
0.0000000000000000
  0
ARC
  5
7B
100
AcDbEntity
  8
A10
  6
CONTINUOUS
 62
7
100
AcDbCircle
 10
195.3338878838955
 20
74.69999999981987
 30
0.0000000000000000
 40
3.200000000000000
100
AcDbArc
 50
0.0000000000000000
 51
90.00000000000000
  0
ARC
  5
7C
100
AcDbEntity
  8
A10
  6
CONTINUOUS
 62
7
100
AcDbCircle
 10
195.3338878839378
 20
55.29999999984172
 30
0.0000000000000000
 40
3.200000000000000
100
AcDbArc
 50
270.0000000000000
 51
360.0000000000000
  0
LINE
  5
7D
100
AcDbEntity
  8
A10
  6
CENTER
 62
1
100
AcDbLine
 10
111.6148267434283
 20
54.99999999977489
 30
0.0000000000000000
 11
106.1627104864581
 21
54.99999999977489
 31
0.0000000000000000
  0
LINE
  5
7E
100
AcDbEntity
  8
A10
  6
CONTINUOUS
 62
7
100
AcDbLine
 10
109.1338878839460
 20
49.99999999994638
 30
0.0000000000000000
 11
107.6338878839722
 21
49.99999999994638
 31
0.0000000000000000
  0
LINE
  5
7F
100
AcDbEntity
  8
A10
  6
CENTER
 62
1
100
AcDbLine
 10
111.6148267434283
 20
74.99999999977415
 30
0.0000000000000000
 11
106.1627104864581
 21
74.99999999977415
 31
0.0000000000000000
  0
LINE
  5
80
100
AcDbEntity
  8
A10
  6
CONTINUOUS
 62
7
100
AcDbLine
 10
109.1338878838068
 20
79.99999999986863
 30
0.0000000000000000
 11
109.1338878838792
 21
64.99999999994529
 31
0.0000000000000000
  0
LINE
  5
81
100
AcDbEntity
  8
A10
  6
CONTINUOUS
 62
7
100
AcDbLine
 10
109.1338878838141
 20
79.99999999986865
 30
0.0000000000000000
 11
107.6338878840468
 21
79.99999999986865
 31
0.0000000000000000
  0
LINE
  5
82
100
AcDbEntity
  8
A10
  6
CONTINUOUS
 62
7
100
AcDbLine
 10
121.6338878839986
 20
64.99999999992110
 30
0.0000000000000000
 11
107.6338878840220
 21
64.99999999994819
 31
0.0000000000000000
  0
CIRCLE
  5
83
100
AcDbEntity
  8
A10
  6
CONTINUOUS
 62
7
100
AcDbCircle
 10
193.1338878839148
 20
64.99999999981650
 30
0.0000000000000000
 40
2.100000000000000
  0
CIRCLE
  5
84
100
AcDbEntity
  8
A10
  6
CONTINUOUS
 62
7
100
AcDbCircle
 10
135.1338878839936
 20
64.99999999981360
 30
0.0000000000000000
 40
2.100000000000000
  0
SPLINE
  5
85
100
AcDbEntity
  8
A10
  6
CONTINUOUS
 62
7
100
AcDbSpline
210
0.0000000000000000
220
0.0000000000000000
230
1.000000000000000
 70
     8
 71
     3
 72
    14
 73
    10
 74
     0
 42
1.000000000000000e-07
 43
1.000000000000000e-07
 12
1.456559044584054
 22
0.0000000000000000
 32
0.0000000000000000
 13
-0.9334246792726901
 23
0.0000000000000000
 33
0.0000000000000000
 40
0.0000000000000000
 40
0.0000000000000000
 40
0.0000000000000000
 40
0.0000000000000000
 40
2.108241864277388
 40
2.566461713616534
 40
2.919821956518684
 40
3.217260191139996
 40
3.374574713568657
 40
3.496894464806954
 40
7.292586965536334
 40
7.292586965536334
 40
7.292586965536334
 40
7.292586965536334
 10
141.6338878839956
 20
64.99999999981394
 30
0.0000000000000000
 10
142.6574808025236
 20
64.99999999981394
 30
0.0000000000000000
 10
143.3712184539784
 20
65.81672633121950
 30
0.0000000000000000
 10
143.7264243093186
 20
66.10619866264408
 30
0.0000000000000000
 10
143.9677628867586
 20
66.36430552482157
 30
0.0000000000000000
 10
144.0953958639749
 20
66.09564342004767
 30
0.0000000000000000
 10
144.0246272352759
 20
65.95514551914157
 30
0.0000000000000000
 10
143.9694258571458
 20
65.84598999067173
 30
0.0000000000000000
 10
142.8148855690326
 20
63.50000071057433
 30
0.0000000000000000
 10
141.6338878839956
 20
63.50000071057433
 30
0.0000000000000000
  0
SPLINE
  5
86
100
AcDbEntity
  8
A10
  6
CONTINUOUS
 62
7
100
AcDbSpline
210
0.0000000000000000
220
0.0000000000000000
230
1.000000000000000
 70
     8
 71
     3
 72
    14
 73
    10
 74
     0
 42
1.000000000000000e-07
 43
1.000000000000000e-07
 12
-1.456559044583969
 22
0.0000000000000000
 32
0.0000000000000000
 13
0.9334246792727328
 23
0.0000000000000000
 33
0.0000000000000000
 40
0.0000000000000000
 40
0.0000000000000000
 40
0.0000000000000000
 40
0.0000000000000000
 40
2.108241864277388
 40
2.566461713616534
 40
2.919821956518684
 40
3.217260191139996
 40
3.374574713568657
 40
3.496894464806954
 40
7.292586965536334
 40
7.292586965536334
 40
7.292586965536334
 40
7.292586965536334
 10
141.6338878839956
 20
64.99999999981399
 30
0.0000000000000000
 10
140.6102949654677
 20
64.99999999981399
 30
0.0000000000000000
 10
139.8965573140129
 20
64.18327366840840
 30
0.0000000000000000
 10
139.5413514586726
 20
63.89380133698383
 30
0.0000000000000000
 10
139.3000128812326
 20
63.63569447480636
 30
0.0000000000000000
 10
139.1723799040163
 20
63.90435657958021
 30
0.0000000000000000
 10
139.2431485327153
 20
64.04485448048634
 30
0.0000000000000000
 10
139.2983499108454
 20
64.15401000895618
 30
0.0000000000000000
 10
140.4528901989585
 20
66.49999928905360
 30
0.0000000000000000
 10
141.6338878839956
 20
66.49999928905360
 30
0.0000000000000000
  0
SPLINE
  5
87
100
AcDbEntity
  8
A10
  6
CONTINUOUS
 62
7
100
AcDbSpline
210
0.0000000000000000
220
0.0000000000000000
230
1.000000000000000
 70
     8
 71
     3
 72
    14
 73
    10
 74
     0
 42
1.000000000000000e-07
 43
1.000000000000000e-07
 12
-0.2845285746715547
 22
0.2260908134917230
 32
0.0000000000000000
 13
0.6005371901415515
 23
-0.9119237481485811
 33
0.0000000000000000
 40
0.0000000000000000
 40
0.0000000000000000
 40
0.0000000000000000
 40
0.0000000000000000
 40
2.108241864277388
 40
2.566461713616534
 40
2.919821956518684
 40
3.217260191139996
 40
3.374574713568657
 40
3.496894464806954
 40
5.025423549265306
 40
5.025423549265306
 40
5.025423549265306
 40
5.025423549265306
 10
140.1797344579122
 20
65.53513980223657
 30
0.0000000000000000
 10
139.9797827736769
 20
65.69402450828049
 30
0.0000000000000000
 10
139.7351930819138
 20
65.94822889451341
 30
0.0000000000000000
 10
139.5413514586726
 20
66.10619866264408
 30
0.0000000000000000
 10
139.3000128812326
 20
66.36430552482157
 30
0.0000000000000000
 10
139.1723799040163
 20
66.09564342004767
 30
0.0000000000000000
 10
139.2431485327153
 20
65.95514551914157
 30
0.0000000000000000
 10
139.2676405832374
 20
65.90671479497097
 30
0.0000000000000000
 10
139.4855507767557
 20
65.46463418858947
 30
0.0000000000000000
 10
139.7915302972324
 20
65.00000019797169
 30
0.0000000000000000
  0
SPLINE
  5
88
100
AcDbEntity
  8
A10
  6
CONTINUOUS
 62
7
100
AcDbSpline
210
0.0000000000000000
220
0.0000000000000000
230
1.000000000000000
 70
     8
 71
     3
 72
     8
 73
     4
 74
     0
 42
1.000000000000000e-07
 43
1.000000000000000e-07
 12
0.1708214841251419
 22
-0.2117043438920376
 32
0.0000000000000000
 13
0.2162384259157264
 23
0.0000000000000000
 33
0.0000000000000000
 40
0.0000000000000000
 40
0.0000000000000000
 40
0.0000000000000000
 40
0.0000000000000000
 40
7.292586965536334
 40
7.292586965536334
 40
7.292586965536334
 40
7.292586965536334
 10
140.1797344417924
 20
64.46486021417600
 30
0.0000000000000000
 10
140.5949779513140
 20
63.95023610123785
 30
0.0000000000000000
 10
141.1082420419019
 20
63.50000071057433
 30
0.0000000000000000
 10
141.6338878839956
 20
63.50000071057433
 30
0.0000000000000000
  0
SPLINE
  5
89
100
AcDbEntity
  8
A10
  6
CONTINUOUS
 62
7
100
AcDbSpline
210
0.0000000000000000
220
0.0000000000000000
230
1.000000000000000
 70
     8
 71
     3
 72
    14
 73
    10
 74
     0
 42
1.000000000000000e-07
 43
1.000000000000000e-07
 12
0.2845285746717252
 22
-0.2260908134917514
 32
0.0000000000000000
 13
-0.6005371901414946
 23
0.9119237481486095
 33
0.0000000000000000
 40
0.0000000000000000
 40
0.0000000000000000
 40
0.0000000000000000
 40
0.0000000000000000
 40
2.108241864277388
 40
2.566461713616534
 40
2.919821956518684
 40
3.217260191139996
 40
3.374574713568657
 40
3.496894464806954
 40
5.025423549265308
 40
5.025423549265308
 40
5.025423549265308
 40
5.025423549265308
 10
143.0880413100790
 20
64.46486019739136
 30
0.0000000000000000
 10
143.2879929943144
 20
64.30597549134741
 30
0.0000000000000000
 10
143.5325826860774
 20
64.05177110511447
 30
0.0000000000000000
 10
143.7264243093186
 20
63.89380133698383
 30
0.0000000000000000
 10
143.9677628867586
 20
63.63569447480636
 30
0.0000000000000000
 10
144.0953958639749
 20
63.90435657958021
 30
0.0000000000000000
 10
144.0246272352759
 20
64.04485448048634
 30
0.0000000000000000
 10
144.0001351847538
 20
64.09328520465691
 30
0.0000000000000000
 10
143.7822249912355
 20
64.53536581103843
 30
0.0000000000000000
 10
143.4762454707587
 20
64.99999980165624
 30
0.0000000000000000
  0
SPLINE
  5
8A
100
AcDbEntity
  8
A10
  6
CONTINUOUS
 62
7
100
AcDbSpline
210
0.0000000000000000
220
0.0000000000000000
230
1.000000000000000
 70
     8
 71
     3
 72
     8
 73
     4
 74
     0
 42
1.000000000000000e-07
 43
1.000000000000000e-07
 12
-0.1708214841251205
 22
0.2117043438920412
 32
0.0000000000000000
 13
-0.2162384259157193
 23
0.0000000000000000
 33
0.0000000000000000
 40
0.0000000000000000
 40
0.0000000000000000
 40
0.0000000000000000
 40
0.0000000000000000
 40
7.292586965536334
 40
7.292586965536334
 40
7.292586965536334
 40
7.292586965536334
 10
143.0880413261988
 20
65.53513978545190
 30
0.0000000000000000
 10
142.6727978166773
 20
66.04976389839008
 30
0.0000000000000000
 10
142.1595337260893
 20
66.49999928905360
 30
0.0000000000000000
 10
141.6338878839956
 20
66.49999928905360
 30
0.0000000000000000
  0
CIRCLE
  5
8B
100
AcDbEntity
  8
A10
  6
CONTINUOUS
 62
7
100
AcDbCircle
 10
121.6338878839986
 20
60.99999999991847
 30
0.0000000000000000
 40
2.000000000000000
  0
LINE
  5
8C
100
AcDbEntity
  8
A10
  6
CENTER
 62
1
100
AcDbLine
 10
106.9020590823251
 20
64.99999999981222
 30
0.0000000000000000
 11
105.4887626379972
 21
64.99999999981216
 31
0.0000000000000000
  0
LINE
  5
8D
100
AcDbEntity
  8
A10
  6
CENTER
 62
1
100
AcDbLine
 10
198.7465248233154
 20
64.99999999981675
 30
0.0000000000000000
 11
126.1568720981101
 21
64.99999999981317
 31
0.0000000000000000
  0
LINE
  5
8E
100
AcDbEntity
  8
A10
  6
CONTINUOUS
 62
7
100
AcDbLine
 10
203.6347271079220
 20
70.03242291573547
 30
0.0000000000000000
 11
209.4863161900269
 21
70.03242291573547
 31
0.0000000000000000
  0
SPLINE
  5
8F
100
AcDbEntity
  8
A10
  6
CONTINUOUS
 62
1
100
AcDbSpline
210
0.0000000000000000
220
0.0000000000000000
230
1.000000000000000
 70
     8
 71
     3
 72
    10
 73
     6
 74
     0
 42
1.000000000000000e-07
 43
1.000000000000000e-07
 12
-1.158103953106774
 22
-0.7664313943258207
 32
0.0000000000000000
 13
-0.6625891231728929
 23
-1.060720341866613
 33
0.0000000000000000
 40
0.0000000000000000
 40
0.0000000000000000
 40
0.0000000000000000
 40
0.0000000000000000
 40
0.4283033225587553
 40
0.9454690759825146
 40
1.367538727956564
 40
1.367538727956564
 40
1.367538727956564
 40
1.367538727956564
 10
203.6347271079220
 20
70.03242291573547
 30
0.0000000000000000
 10
203.4693871842607
 20
69.92300121150110
 30
0.0000000000000000
 10
203.1044033594488
 20
69.68145548410199
 30
0.0000000000000000
 10
203.9353890827005
 20
69.51374423768219
 30
0.0000000000000000
 10
203.7279466947952
 20
69.18165553757994
 30
0.0000000000000000
 10
203.6347271079220
 20
69.03242291573547
 30
0.0000000000000000
  0
SPLINE
  5
90
100
AcDbEntity
  8
A10
  6
CONTINUOUS
 62
1
100
AcDbSpline
210
0.0000000000000000
220
0.0000000000000000
230
1.000000000000000
 70
     8
 71
     3
 72
    10
 73
     6
 74
     0
 42
1.000000000000000e-07
 43
1.000000000000000e-07
 12
-1.158103953106774
 22
-0.7664313943258207
 32
0.0000000000000000
 13
-0.6625891231731202
 23
-1.060720341866613
 33
0.0000000000000000
 40
0.0000000000000000
 40
0.0000000000000000
 40
0.0000000000000000
 40
0.0000000000000000
 40
0.4283033225587553
 40
0.9454690759825146
 40
1.367538727956564
 40
1.367538727956564
 40
1.367538727956564
 40
1.367538727956564
 10
203.0328237908542
 20
70.03242291573547
 30
0.0000000000000000
 10
202.8674838671928
 20
69.92300121150110
 30
0.0000000000000000
 10
202.5025000423810
 20
69.68145548410199
 30
0.0000000000000000
 10
203.3334857656326
 20
69.51374423768219
 30
0.0000000000000000
 10
203.1260433777273
 20
69.18165553757994
 30
0.0000000000000000
 10
203.0328237908542
 20
69.03242291573547
 30
0.0000000000000000
  0
LINE
  5
91
100
AcDbEntity
  8
A10
  6
CONTINUOUS
 62
7
100
AcDbLine
 10
203.6347271079220
 20
69.03242291573547
 30
0.0000000000000000
 11
209.0970614249533
 21
69.03242291573547
 31
0.0000000000000000
  0
LINE
  5
92
100
AcDbEntity
  8
A10
  6
CONTINUOUS
 62
7
100
AcDbLine
 10
214.5464534683822
 20
64.03242291575744
 30
0.0000000000000000
 11
209.0970614249351
 21
59.03242291576426
 31
0.0000000000000000
  0
LINE
  5
93
100
AcDbEntity
  8
A10
  6
CONTINUOUS
 62
7
100
AcDbLine
 10
214.9357082334556
 20
63.03242291575737
 30
0.0000000000000000
 11
209.4863161900087
 21
58.03242291576433
 31
0.0000000000000000
  0
LINE
  5
94
100
AcDbEntity
  8
A10
  6
CONTINUOUS
 62
7
100
AcDbLine
 10
214.9357082334556
 20
63.03242291575741
 30
0.0000000000000000
 11
221.9828327790644
 21
63.03242291575741
 31
0.0000000000000000
  0
LINE
  5
95
100
AcDbEntity
  8
A10
  6
CONTINUOUS
 62
7
100
AcDbLine
 10
214.5464534683820
 20
64.03242291575741
 30
0.0000000000000000
 11
221.9828327790644
 21
64.03242291575741
 31
0.0000000000000000
  0
LINE
  5
96
100
AcDbEntity
  8
A10
  6
CONTINUOUS
 62
7
100
AcDbLine
 10
214.9357082334556
 20
65.03242291575741
 30
0.0000000000000000
 11
221.9828327790644
 21
65.03242291575741
 31
0.0000000000000000
  0
LINE
  5
97
100
AcDbEntity
  8
A10
  6
CONTINUOUS
 62
7
100
AcDbLine
 10
221.9828327790644
 20
61.53242291575744
 30
0.0000000000000000
 11
221.9828327790644
 21
66.53242291575741
 31
0.0000000000000000
  0
LINE
  5
98
100
AcDbEntity
  8
A10
  6
CONTINUOUS
 62
7
100
AcDbLine
 10
221.9828327790644
 20
66.53242291575741
 30
0.0000000000000000
 11
224.9828327790644
 21
66.53242291575741
 31
0.0000000000000000
  0
LINE
  5
99
100
AcDbEntity
  8
A10
  6
CONTINUOUS
 62
7
100
AcDbLine
 10
224.9828327790644
 20
61.53242291575744
 30
0.0000000000000000
 11
224.9828327790644
 21
66.53242291575741
 31
0.0000000000000000
  0
LINE
  5
9A
100
AcDbEntity
  8
A10
  6
CONTINUOUS
 62
7
100
AcDbLine
 10
221.9828327790644
 20
61.53242291575741
 30
0.0000000000000000
 11
224.9828327790644
 21
61.53242291575741
 31
0.0000000000000000
  0
LINE
  5
9B
100
AcDbEntity
  8
A10
  6
CONTINUOUS
 62
7
100
AcDbLine
 10
203.6347271078990
 20
59.03242291576429
 30
0.0000000000000000
 11
209.0970614249352
 21
59.03242291576429
 31
0.0000000000000000
  0
SPLINE
  5
9C
100
AcDbEntity
  8
A10
  6
CONTINUOUS
 62
1
100
AcDbSpline
210
0.0000000000000000
220
0.0000000000000000
230
1.000000000000000
 70
     8
 71
     3
 72
    10
 73
     6
 74
     0
 42
1.000000000000000e-07
 43
1.000000000000000e-07
 12
-1.158103953106774
 22
-0.7664313943258207
 32
0.0000000000000000
 13
-0.6625891231731202
 23
-1.060720341866613
 33
0.0000000000000000
 40
0.0000000000000000
 40
0.0000000000000000
 40
0.0000000000000000
 40
0.0000000000000000
 40
0.4283033225587553
 40
0.9454690759825146
 40
1.367538727956564
 40
1.367538727956564
 40
1.367538727956564
 40
1.367538727956564
 10
203.6347271078990
 20
59.03242291576429
 30
0.0000000000000000
 10
203.4693871842377
 20
58.92300121152992
 30
0.0000000000000000
 10
203.1044033594259
 20
58.68145548413081
 30
0.0000000000000000
 10
203.9353890826775
 20
58.51374423771101
 30
0.0000000000000000
 10
203.7279466947722
 20
58.18165553760876
 30
0.0000000000000000
 10
203.6347271078990
 20
58.03242291576429
 30
0.0000000000000000
  0
SPLINE
  5
9D
100
AcDbEntity
  8
A10
  6
CONTINUOUS
 62
1
100
AcDbSpline
210
0.0000000000000000
220
0.0000000000000000
230
1.000000000000000
 70
     8
 71
     3
 72
    10
 73
     6
 74
     0
 42
1.000000000000000e-07
 43
1.000000000000000e-07
 12
-1.158103953106774
 22
-0.7664313943258207
 32
0.0000000000000000
 13
-0.6625891231731202
 23
-1.060720341866613
 33
0.0000000000000000
 40
0.0000000000000000
 40
0.0000000000000000
 40
0.0000000000000000
 40
0.0000000000000000
 40
0.4283033225587553
 40
0.9454690759825146
 40
1.367538727956564
 40
1.367538727956564
 40
1.367538727956564
 40
1.367538727956564
 10
203.0328237908312
 20
59.03242291576429
 30
0.0000000000000000
 10
202.8674838671699
 20
58.92300121152992
 30
0.0000000000000000
 10
202.5025000423581
 20
58.68145548413081
 30
0.0000000000000000
 10
203.3334857656097
 20
58.51374423771101
 30
0.0000000000000000
 10
203.1260433777044
 20
58.18165553760876
 30
0.0000000000000000
 10
203.0328237908312
 20
58.03242291576429
 30
0.0000000000000000
  0
LINE
  5
9E
100
AcDbEntity
  8
A10
  6
CONTINUOUS
 62
7
100
AcDbLine
 10
203.6347271078990
 20
58.03242291576429
 30
0.0000000000000000
 11
209.4863161900087
 21
58.03242291576429
 31
0.0000000000000000
  0
LINE
  5
9F
100
AcDbEntity
  8
A10
  6
CONTINUOUS
 62
7
100
AcDbLine
 10
214.5464534683821
 20
64.03242291575891
 30
0.0000000000000000
 11
209.0970614249352
 21
69.03242291575197
 31
0.0000000000000000
  0
LINE
  5
A0
100
AcDbEntity
  8
A10
  6
CONTINUOUS
 62
7
100
AcDbLine
 10
214.9357082334556
 20
65.03242291575907
 30
0.0000000000000000
 11
209.4863161900087
 21
70.03242291575208
 31
0.0000000000000000
  0
LINE
  5
A1
100
AcDbEntity
  8
A10
  6
CONTINUOUS
 62
7
100
AcDbLine
 10
198.5338878839318
 20
58.03242291576520
 30
0.0000000000000000
 11
203.0328237908312
 21
58.03242291576520
 31
0.0000000000000000
  0
LINE
  5
A2
100
AcDbEntity
  8
A10
  6
CONTINUOUS
 62
7
100
AcDbLine
 10
198.5338878839318
 20
59.03242291576520
 30
0.0000000000000000
 11
203.0328237908312
 21
59.03242291576520
 31
0.0000000000000000
  0
LINE
  5
A3
100
AcDbEntity
  8
A10
  6
CONTINUOUS
 62
7
100
AcDbLine
 10
203.0328237908542
 20
69.03242291573547
 30
0.0000000000000000
 11
198.5338878839100
 21
69.03242291573547
 31
0.0000000000000000
  0
LINE
  5
A4
100
AcDbEntity
  8
A10
  6
CONTINUOUS
 62
7
100
AcDbLine
 10
203.0328237908542
 20
70.03242291573547
 30
0.0000000000000000
 11
198.5338878839078
 21
70.03242291573547
 31
0.0000000000000000
  0
LINE
  5
A5
100
AcDbEntity
  8
A10
  6
CONTINUOUS
 62
7
100
AcDbLine
 10
198.5338878839840
 20
142.7703398267216
 30
0.0000000000000000
 11
198.5338878839832
 21
151.2703398267197
 31
0.0000000000000000
  0
LINE
  5
A6
100
AcDbEntity
  8
A10
  6
CONTINUOUS
 62
7
100
AcDbLine
 10
197.5338878839825
 20
141.7703398267214
 30
0.0000000000000000
 11
116.6338878840421
 21
141.7703398268524
 31
0.0000000000000000
  0
LINE
  5
A7
100
AcDbEntity
  8
A10
  6
CONTINUOUS
 62
7
100
AcDbLine
 10
115.6338878840436
 20
142.7703398268507
 30
0.0000000000000000
 11
115.6338878840274
 21
151.7703398268542
 31
0.0000000000000000
  0
LINE
  5
A8
100
AcDbEntity
  8
A10
  6
CONTINUOUS
 62
7
100
AcDbLine
 10
198.5338878839832
 20
151.2703398267197
 30
0.0000000000000000
 11
115.6338878840283
 21
151.2703398268540
 31
0.0000000000000000
  0
ARC
  5
A9
100
AcDbEntity
  8
A10
  6
CONTINUOUS
 62
7
100
AcDbCircle
 10
197.5338878839840
 20
142.7703398267215
 30
0.0000000000000000
 40
1.000000000000000
100
AcDbArc
 50
270.0000000000056
 51
360.0000000000056
  0
LINE
  5
AA
100
AcDbEntity
  8
A10
  6
CENTER
 62
1
100
AcDbLine
 10
135.1338878840333
 20
153.6142317678123
 30
0.0000000000000000
 11
135.1338878840346
 21
140.2703398268164
 31
0.0000000000000000
  0
LINE
  5
AB
100
AcDbEntity
  8
A10
  6
CENTER
 62
1
100
AcDbLine
 10
193.1338878839927
 20
140.5241909861210
 30
0.0000000000000000
 11
193.1338878839914
 21
153.3789717499413
 31
0.0000000000000000
  0
LINE
  5
AC
100
AcDbEntity
  8
A10
  6
CENTER
 62
1
100
AcDbLine
 10
201.2490838354803
 20
146.7703398267359
 30
0.0000000000000000
 11
104.7985051962172
 21
146.7703398267264
 31
0.0000000000000000
  0
ARC
  5
AD
100
AcDbEntity
  8
A10
  6
CONTINUOUS
 62
7
100
AcDbCircle
 10
148.1338878840214
 20
146.7703398266858
 30
0.0000000000000000
 40
1.250000000000000
100
AcDbArc
 50
90.00000000000560
 51
270.0000000000056
  0
LINE
  5
AE
100
AcDbEntity
  8
A10
  6
CONTINUOUS
 62
7
100
AcDbLine
 10
152.1338878840216
 20
145.5203398266862
 30
0.0000000000000000
 11
148.1338878840216
 21
145.5203398266858
 31
0.0000000000000000
  0
ARC
  5
AF
100
AcDbEntity
  8
A10
  6
CONTINUOUS
 62
7
100
AcDbCircle
 10
152.1338878840214
 20
146.7703398266861
 30
0.0000000000000000
 40
1.250000000000000
100
AcDbArc
 50
270.0000000000056
 51
450.0000000000056
  0
LINE
  5
B0
100
AcDbEntity
  8
A10
  6
CONTINUOUS
 62
7
100
AcDbLine
 10
152.1338878840214
 20
148.0203398266862
 30
0.0000000000000000
 11
148.1338878840214
 21
148.0203398266858
 31
0.0000000000000000
  0
LINE
  5
B1
100
AcDbEntity
  8
A10
  6
CONTINUOUS
 62
7
100
AcDbLine
 10
197.1338878839831
 20
151.7703398267220
 30
0.0000000000000000
 11
115.6338878840618
 21
151.7703398268541
 31
0.0000000000000000
  0
LINE
  5
B2
100
AcDbEntity
  8
A10
  6
CENTER
 62
1
100
AcDbLine
 10
152.1338878840218
 20
144.0203398266862
 30
0.0000000000000000
 11
152.1338878840212
 21
149.5203398266862
 31
0.0000000000000000
  0
LINE
  5
B3
100
AcDbEntity
  8
A10
  6
CENTER
 62
1
100
AcDbLine
 10
148.1338878840218
 20
144.0203398266858
 30
0.0000000000000000
 11
148.1338878840212
 21
149.5203398266858
 31
0.0000000000000000
  0
CIRCLE
  5
B4
100
AcDbEntity
  8
A10
  6
CONTINUOUS
 62
7
100
AcDbCircle
 10
148.1338878840214
 20
146.7703398267305
 30
0.0000000000000000
 40
1.000000000000000
  0
LINE
  5
B5
100
AcDbEntity
  8
A10
  6
CONTINUOUS
 62
7
100
AcDbLine
 10
221.2828327777830
 20
149.2703398267197
 30
0.0000000000000000
 11
198.5338878839830
 21
149.2703398267197
 31
0.0000000000000000
  0
LINE
  5
B6
100
AcDbEntity
  8
A10
  6
CONTINUOUS
 62
7
100
AcDbLine
 10
221.2828327777830
 20
150.2703398267197
 30
0.0000000000000000
 11
198.5338878839830
 21
150.2703398267197
 31
0.0000000000000000
  0
LINE
  5
B7
100
AcDbEntity
  8
A10
  6
CONTINUOUS
 62
7
100
AcDbLine
 10
221.2828327777830
 20
148.7703398267197
 30
0.0000000000000000
 11
221.2828327777830
 21
150.7703398267197
 31
0.0000000000000000
  0
LINE
  5
B8
100
AcDbEntity
  8
A10
  6
CONTINUOUS
 62
7
100
AcDbLine
 10
224.2828327777830
 20
148.7703398267197
 30
0.0000000000000000
 11
224.2828327777830
 21
150.7703398267197
 31
0.0000000000000000
  0
LINE
  5
B9
100
AcDbEntity
  8
A10
  6
CONTINUOUS
 62
7
100
AcDbLine
 10
221.2828327777830
 20
148.7703398267197
 30
0.0000000000000000
 11
224.2828327777830
 21
148.7703398267197
 31
0.0000000000000000
  0
LINE
  5
BA
100
AcDbEntity
  8
A10
  6
CONTINUOUS
 62
7
100
AcDbLine
 10
221.2828327777830
 20
150.7703398267197
 30
0.0000000000000000
 11
224.2828327777830
 21
150.7703398267197
 31
0.0000000000000000
  0
LINE
  5
BB
100
AcDbEntity
  8
A10
  6
CONTINUOUS
 62
7
100
AcDbLine
 10
197.1338878839832
 20
151.2703398267219
 30
0.0000000000000000
 11
197.1338878839831
 21
151.7703398267197
 31
0.0000000000000000
  0
LINE
  5
BC
100
AcDbEntity
  8
A10
  6
CONTINUOUS
 62
7
100
AcDbLine
 10
187.3838878841178
 20
145.9703398266638
 30
0.0000000000000000
 11
187.3838878841322
 21
141.7703398267005
 31
0.0000000000000000
  0
LINE
  5
BD
100
AcDbEntity
  8
A10
  6
CONTINUOUS
 62
7
100
AcDbLine
 10
182.8838878841178
 20
145.9703398266483
 30
0.0000000000000000
 11
187.3838878841178
 21
145.9703398266638
 31
0.0000000000000000
  0
LINE
  5
BE
100
AcDbEntity
  8
A10
  6
CONTINUOUS
 62
7
100
AcDbLine
 10
182.8838878841178
 20
145.9703398266483
 30
0.0000000000000000
 11
182.8838878841322
 21
141.7703398266928
 31
0.0000000000000000
  0
LINE
  5
BF
100
AcDbEntity
  8
A10
  6
CONTINUOUS
 62
7
100
AcDbLine
 10
187.3838878841271
 20
142.7703398267006
 30
0.0000000000000000
 11
182.8838878841271
 21
142.7703398266928
 31
0.0000000000000000
  0
LINE
  5
C0
100
AcDbEntity
  8
A10
  6
CONTINUOUS
 62
7
100
AcDbLine
 10
127.3838878841092
 20
145.9703398265081
 30
0.0000000000000000
 11
127.3838878841237
 21
141.7703398266307
 31
0.0000000000000000
  0
LINE
  5
C1
100
AcDbEntity
  8
A10
  6
CONTINUOUS
 62
7
100
AcDbLine
 10
122.8838878841092
 20
145.9703398264926
 30
0.0000000000000000
 11
127.3838878841092
 21
145.9703398265081
 31
0.0000000000000000
  0
LINE
  5
C2
100
AcDbEntity
  8
A10
  6
CONTINUOUS
 62
7
100
AcDbLine
 10
122.8838878841092
 20
145.9703398264926
 30
0.0000000000000000
 11
122.8838878841237
 21
141.7703398266230
 31
0.0000000000000000
  0
LINE
  5
C3
100
AcDbEntity
  8
A10
  6
CONTINUOUS
 62
7
100
AcDbLine
 10
127.3838878841202
 20
142.7703398265114
 30
0.0000000000000000
 11
122.8838878840428
 21
142.7703398264919
 31
0.0000000000000000
  0
LINE
  5
C4
100
AcDbEntity
  8
A10
  6
CONTINUOUS
 62
7
100
AcDbLine
 10
123.1338878840341
 20
145.7703398264929
 30
0.0000000000000000
 11
123.1338878840344
 21
142.7703398264929
 31
0.0000000000000000
  0
LINE
  5
C5
100
AcDbEntity
  8
A10
  6
CONTINUOUS
 62
7
100
AcDbLine
 10
127.1338878840341
 20
145.7703398265103
 30
0.0000000000000000
 11
127.1338878840344
 21
142.7703398265103
 31
0.0000000000000000
  0
LINE
  5
C6
100
AcDbEntity
  8
A10
  6
CONTINUOUS
 62
7
100
AcDbLine
 10
127.1338878840341
 20
145.7703398265103
 30
0.0000000000000000
 11
123.1338878840341
 21
145.7703398264929
 31
0.0000000000000000
  0
LINE
  5
C7
100
AcDbEntity
  8
A10
  6
CONTINUOUS
 62
7
100
AcDbLine
 10
187.1338878840426
 20
145.7703398264989
 30
0.0000000000000000
 11
183.1338878840426
 21
145.7703398264816
 31
0.0000000000000000
  0
LINE
  5
C8
100
AcDbEntity
  8
A10
  6
CONTINUOUS
 62
7
100
AcDbLine
 10
187.1338878840427
 20
145.7703398264990
 30
0.0000000000000000
 11
187.1338878840429
 21
142.7703398264990
 31
0.0000000000000000
  0
LINE
  5
C9
100
AcDbEntity
  8
A10
  6
CONTINUOUS
 62
7
100
AcDbLine
 10
183.1338878840427
 20
145.7703398264816
 30
0.0000000000000000
 11
183.1338878840429
 21
142.7703398264816
 31
0.0000000000000000
  0
ARC
  5
CA
100
AcDbEntity
  8
A10
  6
CONTINUOUS
 62
7
100
AcDbCircle
 10
116.6338878840437
 20
142.7703398268525
 30
0.0000000000000000
 40
1.000000000000000
100
AcDbArc
 50
180.0000000000000
 51
270.0000000000000
  0
LINE
  5
CB
100
AcDbEntity
  8
A10
  6
CONTINUOUS
 62
7
100
AcDbLine
 10
107.6338878840265
 20
151.7703398267263
 30
0.0000000000000000
 11
107.6338878840265
 21
141.7703398267294
 31
0.0000000000000000
  0
LINE
  5
CC
100
AcDbEntity
  8
A10
  6
CONTINUOUS
 62
7
100
AcDbLine
 10
125.6338878840634
 20
141.7703398267294
 30
0.0000000000000000
 11
125.6338878840634
 21
140.2703398267294
 31
0.0000000000000000
  0
LINE
  5
CD
100
AcDbEntity
  8
A10
  6
CONTINUOUS
 62
7
100
AcDbLine
 10
125.6338878840635
 20
140.2703398267294
 30
0.0000000000000000
 11
109.1338878840265
 21
140.2703398267294
 31
0.0000000000000000
  0
LINE
  5
CE
100
AcDbEntity
  8
A10
  6
PHANTOM
 62
1
100
AcDbLine
 10
121.6338878840607
 20
154.4459095579418
 30
0.0000000000000000
 11
121.6338878840607
 21
139.1796185113450
 31
0.0000000000000000
  0
LINE
  5
CF
100
AcDbEntity
  8
A10
  6
PHANTOM
 62
1
100
AcDbLine
 10
123.6338878840607
 20
151.7703398267261
 30
0.0000000000000000
 11
123.6338878840607
 21
141.7703398267294
 31
0.0000000000000000
  0
LINE
  5
D0
100
AcDbEntity
  8
A10
  6
PHANTOM
 62
1
100
AcDbLine
 10
119.6338878840607
 20
151.7703398267263
 30
0.0000000000000000
 11
119.6338878840607
 21
141.7703398267294
 31
0.0000000000000000
  0
LINE
  5
D1
100
AcDbEntity
  8
A10
  6
CONTINUOUS
 62
7
100
AcDbLine
 10
125.6338878840637
 20
153.2703398267263
 30
0.0000000000000000
 11
109.1338878840265
 21
153.2703398267263
 31
0.0000000000000000
  0
LINE
  5
D2
100
AcDbEntity
  8
A10
  6
CONTINUOUS
 62
7
100
AcDbLine
 10
125.6338878840636
 20
151.7703398267262
 30
0.0000000000000000
 11
125.6338878840636
 21
153.2703398267262
 31
0.0000000000000000
  0
LINE
  5
D3
100
AcDbEntity
  8
A10
  6
CONTINUOUS
 62
7
100
AcDbLine
 10
116.6338878840421
 20
141.7703398267294
 30
0.0000000000000000
 11
107.6338878840266
 21
141.7703398267294
 31
0.0000000000000000
  0
LINE
  5
D4
100
AcDbEntity
  8
A10
  6
CONTINUOUS
 62
7
100
AcDbLine
 10
115.6338878840274
 20
151.7703398267262
 30
0.0000000000000000
 11
107.6338878840265
 21
151.7703398267262
 31
0.0000000000000000
  0
ARC
  5
D5
100
AcDbEntity
  8
A10
  6
CONTINUOUS
 62
7
100
AcDbCircle
 10
109.1338878840265
 20
151.7703398267263
 30
0.0000000000000000
 40
1.500000000000000
100
AcDbArc
 50
90.00000000000000
 51
180.0000000000000
  0
ARC
  5
D6
100
AcDbEntity
  8
A10
  6
CONTINUOUS
 62
7
100
AcDbCircle
 10
109.1338878840265
 20
141.7703398267294
 30
0.0000000000000000
 40
1.500000000000000
100
AcDbArc
 50
180.0000000000000
 51
270.0000000000000
  0
LINE
  5
D7
100
AcDbEntity
  8
A10
  6
CONTINUOUS
 62
7
100
AcDbLine
 10
109.1338878840265
 20
151.7703398267263
 30
0.0000000000000000
 11
109.1338878840265
 21
141.7703398267294
 31
0.0000000000000000
  0
LINE
  5
D8
100
AcDbEntity
  8
A10
  6
CONTINUOUS
 62
7
100
AcDbLine
 10
51.50000000003849
 20
79.00000000000487
 30
0.0000000000000000
 11
51.49999999997096
 21
64.99999999986785
 31
0.0000000000000000
  0
LINE
  5
D9
100
AcDbEntity
  8
A10
  6
CONTINUOUS
 62
7
100
AcDbLine
 10
61.50000000005770
 20
78.99999999999517
 30
0.0000000000000000
 11
61.49999999999019
 21
64.99999999986790
 31
0.0000000000000000
  0
LINE
  5
DA
100
AcDbEntity
  8
A10
  6
CENTER
 62
1
100
AcDbLine
 10
52.74999999997084
 20
55.00000000015621
 30
0.0000000000000000
 11
60.24999999997095
 21
55.00000000015621
 31
0.0000000000000000
  0
LINE
  5
DB
100
AcDbEntity
  8
A10
  6
CENTER
 62
1
100
AcDbLine
 10
52.74999999997084
 20
75.00000000015538
 30
0.0000000000000000
 11
60.24999999997095
 21
75.00000000015538
 31
0.0000000000000000
  0
LINE
  5
DC
100
AcDbEntity
  8
A10
  6
CONTINUOUS
 62
7
100
AcDbLine
 10
60.50000000005770
 20
79.99999999999997
 30
0.0000000000000000
 11
52.50000000003848
 21
79.99999999999997
 31
0.0000000000000000
  0
ARC
  5
DD
100
AcDbEntity
  8
A10
  6
CONTINUOUS
 62
7
100
AcDbCircle
 10
60.50000000005770
 20
78.99999999999997
 30
0.0000000000000000
 40
1.000000000000000
100
AcDbArc
 50
0.0000000000000000
 51
90.00000000000000
  0
ARC
  5
DE
100
AcDbEntity
  8
A10
  6
CONTINUOUS
 62
7
100
AcDbCircle
 10
52.50000000003848
 20
78.99999999999997
 30
0.0000000000000000
 40
1.000000000000000
100
AcDbArc
 50
90.00000000000000
 51
180.0000000000000
  0
LINE
  5
DF
100
AcDbEntity
  8
A10
  6
CONTINUOUS
 62
7
100
AcDbLine
 10
63.00000000001427
 20
65.00000000001964
 30
0.0000000000000000
 11
61.50000000000597
 21
65.00000000001964
 31
0.0000000000000000
  0
LINE
  5
E0
100
AcDbEntity
  8
A10
  6
CENTER
 62
1
100
AcDbLine
 10
56.49999999997095
 20
48.67324768378091
 30
0.0000000000000000
 11
56.49999999997095
 21
81.05593172931773
 31
0.0000000000000000
  0
LINE
  5
E1
100
AcDbEntity
  8
A10
  6
CONTINUOUS
 62
7
100
AcDbLine
 10
63.00000000001430
 20
65.00000000001955
 30
0.0000000000000000
 11
62.99999999994196
 21
49.99999999999997
 31
0.0000000000000000
  0
LINE
  5
E2
100
AcDbEntity
  8
A10
  6
CONTINUOUS
 62
7
100
AcDbLine
 10
49.99999999992762
 20
65.00000000001980
 30
0.0000000000000000
 11
49.99999999999996
 21
50.00000000000009
 31
0.0000000000000000
  0
LINE
  5
E3
100
AcDbEntity
  8
A10
  6
CONTINUOUS
 62
7
100
AcDbLine
 10
49.99999999992764
 20
65.00000000001964
 30
0.0000000000000000
 11
51.49999999993594
 21
65.00000000001964
 31
0.0000000000000000
  0
LINE
  5
E4
100
AcDbEntity
  8
A10
  6
CENTER
 62
1
100
AcDbLine
 10
66.44564174505371
 20
61.00000000000020
 30
0.0000000000000000
 11
48.78853912119092
 21
61.00000000000020
 31
0.0000000000000000
  0
LINE
  5
E5
100
AcDbEntity
  8
A10
  6
CONTINUOUS
 62
7
100
AcDbLine
 10
62.99999999994196
 20
50.00000000000000
 30
0.0000000000000000
 11
50.00000000000000
 21
50.00000000000000
 31
0.0000000000000000
  0
ARC
  5
E6
100
AcDbEntity
  8
A10
  6
CONTINUOUS
 62
7
100
AcDbCircle
 10
56.49999999997095
 20
76.00000000015538
 30
0.0000000000000000
 40
2.100000000000000
100
AcDbArc
 50
0.0000000000000000
 51
180.0000000000000
  0
ARC
  5
E7
100
AcDbEntity
  8
A10
  6
CONTINUOUS
 62
7
100
AcDbCircle
 10
56.49999999997095
 20
74.00000000015538
 30
0.0000000000000000
 40
2.100000000000000
100
AcDbArc
 50
180.0000000000000
 51
360.0000000000000
  0
LINE
  5
E8
100
AcDbEntity
  8
A10
  6
CONTINUOUS
 62
7
100
AcDbLine
 10
58.59999999997098
 20
76.00000000015538
 30
0.0000000000000000
 11
58.59999999997098
 21
74.00000000015538
 31
0.0000000000000000
  0
LINE
  5
E9
100
AcDbEntity
  8
A10
  6
CONTINUOUS
 62
7
100
AcDbLine
 10
54.39999999997093
 20
76.00000000015538
 30
0.0000000000000000
 11
54.39999999997093
 21
74.00000000015538
 31
0.0000000000000000
  0
ARC
  5
EA
100
AcDbEntity
  8
A10
  6
CONTINUOUS
 62
7
100
AcDbCircle
 10
56.49999999997095
 20
55.99999999958024
 30
0.0000000000000000
 40
2.100000000000000
100
AcDbArc
 50
0.0000000000000000
 51
180.0000000000000
  0
LINE
  5
EB
100
AcDbEntity
  8
A10
  6
CONTINUOUS
 62
7
100
AcDbLine
 10
54.39999999997093
 20
53.99999999958027
 30
0.0000000000000000
 11
54.39999999997093
 21
55.99999999958024
 31
0.0000000000000000
  0
ARC
  5
EC
100
AcDbEntity
  8
A10
  6
CONTINUOUS
 62
7
100
AcDbCircle
 10
56.49999999997095
 20
53.99999999958027
 30
0.0000000000000000
 40
2.100000000000000
100
AcDbArc
 50
180.0000000000000
 51
360.0000000000000
  0
LINE
  5
ED
100
AcDbEntity
  8
A10
  6
CONTINUOUS
 62
7
100
AcDbLine
 10
58.59999999997098
 20
53.99999999958027
 30
0.0000000000000000
 11
58.59999999997098
 21
55.99999999958024
 31
0.0000000000000000
  0
POINT
  5
EE
100
AcDbEntity
  8
A10
  6
CONTINUOUS
 62
5
100
AcDbPoint
 10
51.50000000003848
 20
79.99999999999997
 30
0.0000000000000000
  0
LINE
  5
EF
100
AcDbEntity
  8
A10
  6
CONTINUOUS
 62
7
100
AcDbLine
 10
123.4776466378595
 20
57.45027414323874
 30
0.0000000000000000
 11
109.1338878839460
 21
49.99999999994635
 31
0.0000000000000000
  0
ENDSEC
  0
SECTION
  2
OBJECTS
  0
DICTIONARY
  5
11D
100
AcDbDictionary
  3
ACAD_GROUP
350
11E
  3
ACAD_LAYOUT
350
11F
  3
ACAD_MLINESTYLE
350
120
  0
DICTIONARY
  5
11E
102
{ACAD_REACTORS
330
11D
102
}
330
11D
100
AcDbDictionary
  0
DICTIONARY
  5
11F
102
{ACAD_REACTORS
330
11D
102
}
330
11D
100
AcDbDictionary
  3
Model
350
121
  3
ﾚｲｱｳﾄ1
350
122
  3
ﾚｲｱｳﾄ2
350
123
  0
DICTIONARY
  5
120
102
{ACAD_REACTORS
330
11D
102
}
330
11D
100
AcDbDictionary
  3
STANDARD
350
124
  0
LAYOUT
  5
121
102
{ACAD_REACTORS
330
11F
102
}
330
11F
100
AcDbPlotSettings
 70
11952
  4
A3
 44
297.000000
 45
420.000000
 73
  1
 72
  1
100
AcDbLayout
  1
Model
 71
0
330
114
  0
LAYOUT
  5
122
102
{ACAD_REACTORS
330
11F
102
}
330
11F
100
AcDbPlotSettings
100
AcDbLayout
  1
ﾚｲｱｳﾄ1
 71
1
330
115
  0
LAYOUT
  5
123
102
{ACAD_REACTORS
330
11F
102
}
330
11F
100
AcDbPlotSettings
100
AcDbLayout
  1
ﾚｲｱｳﾄ2
 71
2
330
116
  0
MLINESTYLE
  5
124
102
{ACAD_REACTORS
330
120
102
}
330
120
100
AcDbMlineStyle
  2
STANDARD
 70
     0
  3

 62
   256
 51
90.00
 52
90.00
 71
     2
 49
0.50
 62
   256
  6
BYLAYER
 49
-0.50
 62
   256
  6
BYLAYER
  0
ENDSEC
  0
EOF
