  0
SECTION
  2
HEADER
  9
$ACADVER
  1
AC1015
  9
$ACADMAINTVER
 70
    20
  9
$DWGCODEPAGE
  3
ANSI_932
  9
$INSBASE
 10
0.0
 20
0.0
 30
0.0
  9
$EXTMIN
 10
9.9999975266385
 20
10.0
 30
0.0
  9
$EXTMAX
 10
529.6624305570234
 20
180.0332374245906
 30
0.0
  9
$LIMMIN
 10
0.0000015376081137
 20
-0.0000001931532552
  9
$LIMMAX
 10
565.0000015376081
 20
389.5075755644223
  9
$ORTHOMODE
 70
     1
  9
$REGENMODE
 70
     1
  9
$FILLMODE
 70
     1
  9
$QTEXTMODE
 70
     0
  9
$MIRRTEXT
 70
     1
  9
$LTSCALE
 40
1.0
  9
$ATTMODE
 70
     1
  9
$TEXTSIZE
 40
2.5
  9
$TRACEWID
 40
1.0
  9
$TEXTSTYLE
  7
STANDARD
  9
$CLAYER
  8
0
  9
$CELTYPE
  6
BYLAYER
  9
$CECOLOR
 62
   256
  9
$CELTSCALE
 40
1.0
  9
$DISPSILH
 70
     0
  9
$DIMSCALE
 40
1.0
  9
$DIMASZ
 40
3.0
  9
$DIMEXO
 40
1.0
  9
$DIMDLI
 40
10.0
  9
$DIMRND
 40
0.0
  9
$DIMDLE
 40
0.0
  9
$DIMEXE
 40
1.0
  9
$DIMTP
 40
0.0
  9
$DIMTM
 40
0.0
  9
$DIMTXT
 40
3.2
  9
$DIMCEN
 40
0.0
  9
$DIMTSZ
 40
0.0
  9
$DIMTOL
 70
     0
  9
$DIMLIM
 70
     0
  9
$DIMTIH
 70
     0
  9
$DIMTOH
 70
     0
  9
$DIMSE1
 70
     0
  9
$DIMSE2
 70
     0
  9
$DIMTAD
 70
     3
  9
$DIMZIN
 70
     8
  9
$DIMBLK
  1

  9
$DIMASO
 70
     1
  9
$DIMSHO
 70
     1
  9
$DIMPOST
  1

  9
$DIMAPOST
  1

  9
$DIMALT
 70
     0
  9
$DIMALTD
 70
     2
  9
$DIMALTF
 40
25.4
  9
$DIMLFAC
 40
1.0
  9
$DIMTOFL
 70
     1
  9
$DIMTVP
 40
0.0
  9
$DIMTIX
 70
     0
  9
$DIMSOXD
 70
     0
  9
$DIMSAH
 70
     1
  9
$DIMBLK1
  1
OPEN
  9
$DIMBLK2
  1
OPEN
  9
$DIMSTYLE
  2
STANDARD
  9
$DIMCLRD
 70
     0
  9
$DIMCLRE
 70
     0
  9
$DIMCLRT
 70
     0
  9
$DIMTFAC
 40
1.0
  9
$DIMGAP
 40
1.0
  9
$DIMJUST
 70
     0
  9
$DIMSD1
 70
     0
  9
$DIMSD2
 70
     0
  9
$DIMTOLJ
 70
     1
  9
$DIMTZIN
 70
     0
  9
$DIMALTZ
 70
     0
  9
$DIMALTTZ
 70
     0
  9
$DIMUPT
 70
     0
  9
$DIMDEC
 70
     4
  9
$DIMTDEC
 70
     4
  9
$DIMALTU
 70
     2
  9
$DIMALTTD
 70
     2
  9
$DIMTXSTY
  7
STANDARD
  9
$DIMAUNIT
 70
     0
  9
$DIMADEC
 70
     0
  9
$DIMALTRND
 40
0.0
  9
$DIMAZIN
 70
     0
  9
$DIMDSEP
 70
    46
  9
$DIMATFIT
 70
     3
  9
$DIMFRAC
 70
     0
  9
$DIMLDRBLK
  1
OPEN
  9
$DIMLUNIT
 70
     2
  9
$DIMLWD
 70
    -2
  9
$DIMLWE
 70
    -2
  9
$DIMTMOVE
 70
     0
  9
$LUNITS
 70
     2
  9
$LUPREC
 70
     4
  9
$SKETCHINC
 40
1.0
  9
$FILLETRAD
 40
0.0
  9
$AUNITS
 70
     0
  9
$AUPREC
 70
     0
  9
$MENU
  1
.
  9
$ELEVATION
 40
0.0
  9
$PELEVATION
 40
0.0
  9
$THICKNESS
 40
0.0
  9
$LIMCHECK
 70
     0
  9
$CHAMFERA
 40
10.0
  9
$CHAMFERB
 40
10.0
  9
$CHAMFERC
 40
20.0
  9
$CHAMFERD
 40
0.0
  9
$SKPOLY
 70
     0
  9
$TDCREATE
 40
2455079.464147882
  9
$TDUCREATE
 40
2455079.089147882
  9
$TDUPDATE
 40
2457192.672062581
  9
$TDUUPDATE
 40
2457192.297062581
  9
$TDINDWG
 40
0.1374186574
  9
$TDUSRTIMER
 40
0.1374186227
  9
$USRTIMER
 70
     1
  9
$ANGBASE
 50
0.0
  9
$ANGDIR
 70
     0
  9
$PDMODE
 70
     0
  9
$PDSIZE
 40
0.0
  9
$PLINEWID
 40
0.0
  9
$SPLFRAME
 70
     0
  9
$SPLINETYPE
 70
     6
  9
$SPLINESEGS
 70
     8
  9
$HANDSEED
  5
136D
  9
$SURFTAB1
 70
     6
  9
$SURFTAB2
 70
     6
  9
$SURFTYPE
 70
     6
  9
$SURFU
 70
     6
  9
$SURFV
 70
     6
  9
$UCSBASE
  2

  9
$UCSNAME
  2

  9
$UCSORG
 10
0.0
 20
0.0
 30
0.0
  9
$UCSXDIR
 10
1.0
 20
0.0
 30
0.0
  9
$UCSYDIR
 10
0.0
 20
1.0
 30
0.0
  9
$UCSORTHOREF
  2

  9
$UCSORTHOVIEW
 70
     0
  9
$UCSORGTOP
 10
0.0
 20
0.0
 30
0.0
  9
$UCSORGBOTTOM
 10
0.0
 20
0.0
 30
0.0
  9
$UCSORGLEFT
 10
0.0
 20
0.0
 30
0.0
  9
$UCSORGRIGHT
 10
0.0
 20
0.0
 30
0.0
  9
$UCSORGFRONT
 10
0.0
 20
0.0
 30
0.0
  9
$UCSORGBACK
 10
0.0
 20
0.0
 30
0.0
  9
$PUCSBASE
  2

  9
$PUCSNAME
  2

  9
$PUCSORG
 10
0.0
 20
0.0
 30
0.0
  9
$PUCSXDIR
 10
1.0
 20
0.0
 30
0.0
  9
$PUCSYDIR
 10
0.0
 20
1.0
 30
0.0
  9
$PUCSORTHOREF
  2

  9
$PUCSORTHOVIEW
 70
     0
  9
$PUCSORGTOP
 10
0.0
 20
0.0
 30
0.0
  9
$PUCSORGBOTTOM
 10
0.0
 20
0.0
 30
0.0
  9
$PUCSORGLEFT
 10
0.0
 20
0.0
 30
0.0
  9
$PUCSORGRIGHT
 10
0.0
 20
0.0
 30
0.0
  9
$PUCSORGFRONT
 10
0.0
 20
0.0
 30
0.0
  9
$PUCSORGBACK
 10
0.0
 20
0.0
 30
0.0
  9
$USERI1
 70
     0
  9
$USERI2
 70
     0
  9
$USERI3
 70
     0
  9
$USERI4
 70
     0
  9
$USERI5
 70
     0
  9
$USERR1
 40
0.0
  9
$USERR2
 40
0.0
  9
$USERR3
 40
0.0
  9
$USERR4
 40
0.0
  9
$USERR5
 40
0.0
  9
$WORLDVIEW
 70
     1
  9
$SHADEDGE
 70
     3
  9
$SHADEDIF
 70
    70
  9
$TILEMODE
 70
     1
  9
$MAXACTVP
 70
    48
  9
$PINSBASE
 10
0.0
 20
0.0
 30
0.0
  9
$PLIMCHECK
 70
     0
  9
$PEXTMIN
 10
1.000000000000000E+20
 20
1.000000000000000E+20
 30
1.000000000000000E+20
  9
$PEXTMAX
 10
-1.000000000000000E+20
 20
-1.000000000000000E+20
 30
-1.000000000000000E+20
  9
$PLIMMIN
 10
0.0
 20
0.0
  9
$PLIMMAX
 10
420.0
 20
297.0
  9
$UNITMODE
 70
     0
  9
$VISRETAIN
 70
     1
  9
$PLINEGEN
 70
     0
  9
$PSLTSCALE
 70
     1
  9
$TREEDEPTH
 70
  3020
  9
$CMLSTYLE
  2
STANDARD
  9
$CMLJUST
 70
     0
  9
$CMLSCALE
 40
20.0
  9
$PROXYGRAPHICS
 70
     1
  9
$MEASUREMENT
 70
     0
  9
$CELWEIGHT
370
    -1
  9
$ENDCAPS
280
     0
  9
$JOINSTYLE
280
     0
  9
$LWDISPLAY
290
     0
  9
$INSUNITS
 70
     0
  9
$HYPERLINKBASE
  1

  9
$STYLESHEET
  1

  9
$XEDIT
290
     1
  9
$CEPSNTYPE
380
     0
  9
$PSTYLEMODE
290
     1
  9
$FINGERPRINTGUID
  2
{A5D04895-7E8E-45BF-97F2-CE870E724B28}
  9
$VERSIONGUID
  2
{1884725E-E98F-437D-A9F4-87AB253B3B0F}
  9
$EXTNAMES
290
     1
  9
$PSVPSCALE
 40
0.0
  9
$OLESTARTUP
290
     0
  0
ENDSEC
  0
SECTION
  2
CLASSES
  0
CLASS
  1
ACDBDICTIONARYWDFLT
  2
AcDbDictionaryWithDefault
  3
ObjectDBX Classes
 90
        0
280
     0
281
     0
  0
CLASS
  1
ACDBPLACEHOLDER
  2
AcDbPlaceHolder
  3
ObjectDBX Classes
 90
        0
280
     0
281
     0
  0
CLASS
  1
LAYOUT
  2
AcDbLayout
  3
ObjectDBX Classes
 90
        0
280
     0
281
     0
  0
CLASS
  1
MATERIAL
  2
AcDbMaterial
  3
ObjectDBX Classes
 90
     1153
280
     0
281
     0
  0
CLASS
  1
VISUALSTYLE
  2
AcDbVisualStyle
  3
ObjectDBX Classes
 90
     4095
280
     0
281
     0
  0
CLASS
  1
TABLESTYLE
  2
AcDbTableStyle
  3
ObjectDBX Classes
 90
     4095
280
     0
281
     0
  0
CLASS
  1
SCALE
  2
AcDbScale
  3
ObjectDBX Classes
 90
     1153
280
     0
281
     0
  0
CLASS
  1
MLEADERSTYLE
  2
AcDbMLeaderStyle
  3
ACDB_MLEADERSTYLE_CLASS
 90
     4095
280
     0
281
     0
  0
CLASS
  1
ACDBSECTIONVIEWSTYLE
  2
AcDbSectionViewStyle
  3
ObjectDBX Classes
 90
     1025
280
     0
281
     0
  0
CLASS
  1
ACDBDETAILVIEWSTYLE
  2
AcDbDetailViewStyle
  3
ObjectDBX Classes
 90
     1025
280
     0
281
     0
  0
CLASS
  1
DICTIONARYVAR
  2
AcDbDictionaryVar
  3
ObjectDBX Classes
 90
        0
280
     0
281
     0
  0
CLASS
  1
CELLSTYLEMAP
  2
AcDbCellStyleMap
  3
ObjectDBX Classes
 90
     1152
280
     0
281
     0
  0
ENDSEC
  0
SECTION
  2
TABLES
  0
TABLE
  2
VPORT
  5
8
330
0
100
AcDbSymbolTable
 70
     1
  0
VPORT
  5
12B7
330
8
100
AcDbSymbolTableRecord
100
AcDbViewportTableRecord
  2
*ACTIVE
 70
     0
 10
0.0
 20
0.0
 11
1.0
 21
1.0
 12
410.3400620092947
 22
95.00844408322768
 13
0.0
 23
0.0
 14
10.0
 24
10.0
 15
10.0
 25
10.0
 16
0.0
 26
0.0
 36
1.0
 17
0.0
 27
0.0
 37
0.0
 40
341.8656760215128
 41
1.899603698811096
 42
50.0
 43
0.0
 44
0.0
 50
0.0
 51
0.0
 71
     0
 72
   100
 73
     1
 74
     0
 75
     0
 76
     0
 77
     0
 78
     0
281
     0
 65
     1
110
0.0
120
0.0
130
0.0
111
1.0
121
0.0
131
0.0
112
0.0
122
1.0
132
0.0
 79
     0
146
0.0
1001
ACAD_NAV_VCDISPLAY
1070
     3
  0
ENDTAB
  0
TABLE
  2
LTYPE
  5
5
330
0
100
AcDbSymbolTable
 70
     4
  0
LTYPE
  5
12
330
5
100
AcDbSymbolTableRecord
100
AcDbLinetypeTableRecord
  2
BYBLOCK
 70
     0
  3

 72
    65
 73
     0
 40
0.0
  0
LTYPE
  5
13
330
5
100
AcDbSymbolTableRecord
100
AcDbLinetypeTableRecord
  2
BYLAYER
 70
     0
  3

 72
    65
 73
     0
 40
0.0
  0
LTYPE
  5
14
330
5
100
AcDbSymbolTableRecord
100
AcDbLinetypeTableRecord
  2
CONTINUOUS
 70
     0
  3
Solid line
 72
    65
 73
     0
 40
0.0
  0
LTYPE
  5
4B
330
5
100
AcDbSymbolTableRecord
100
AcDbLinetypeTableRecord
  2
DASHED
 70
     0
  3
Dashed __ __ __ __ __ __ __ __ __ __ __ __ __ _
 72
    65
 73
     2
 40
19.04999999999999
 49
12.7
 74
     0
 49
-6.349999999999998
 74
     0
  0
LTYPE
  5
4C
330
5
100
AcDbSymbolTableRecord
100
AcDbLinetypeTableRecord
  2
CENTER
 70
     0
  3
Center ____ _ ____ _ ____ _ ____ _ ____ _ ____
 72
    65
 73
     4
 40
50.8
 49
31.75
 74
     0
 49
-6.349999999999998
 74
     0
 49
6.349999999999998
 74
     0
 49
-6.349999999999998
 74
     0
  0
LTYPE
  5
4D
330
5
100
AcDbSymbolTableRecord
100
AcDbLinetypeTableRecord
  2
PHANTOM
 70
     0
  3
Phantom ______  __  __  ______  __  __  ______
 72
    65
 73
     6
 40
63.5
 49
31.75
 74
     0
 49
-6.349999999999998
 74
     0
 49
6.349999999999998
 74
     0
 49
-6.349999999999998
 74
     0
 49
6.349999999999998
 74
     0
 49
-6.349999999999998
 74
     0
  0
ENDTAB
  0
TABLE
  2
LAYER
  5
2
330
0
100
AcDbSymbolTable
 70
     8
  0
LAYER
  5
E
102
{ACAD_XDICTIONARY
360
1311
102
}
330
2
100
AcDbSymbolTableRecord
100
AcDbLayerTableRecord
  2
0
 70
     0
 62
     7
  6
CONTINUOUS
370
    -3
390
12C0
  0
LAYER
  5
4E
102
{ACAD_XDICTIONARY
360
1313
102
}
330
2
100
AcDbSymbolTableRecord
100
AcDbLayerTableRecord
  2
4
 70
     0
 62
     1
  6
CENTER
370
    -3
390
12C0
  0
LAYER
  5
4F
102
{ACAD_XDICTIONARY
360
1315
102
}
330
2
100
AcDbSymbolTableRecord
100
AcDbLayerTableRecord
  2
5
 70
     0
 62
     6
  6
PHANTOM
370
    -3
390
12C0
  0
LAYER
  5
50
102
{ACAD_XDICTIONARY
360
1317
102
}
330
2
100
AcDbSymbolTableRecord
100
AcDbLayerTableRecord
  2
1
 70
     0
 62
     7
  6
CONTINUOUS
370
    -3
390
12C0
  0
LAYER
  5
51
102
{ACAD_XDICTIONARY
360
1319
102
}
330
2
100
AcDbSymbolTableRecord
100
AcDbLayerTableRecord
  2
2
 70
     0
 62
     4
  6
CONTINUOUS
370
    -3
390
12C0
  0
LAYER
  5
52
102
{ACAD_XDICTIONARY
360
131B
102
}
330
2
100
AcDbSymbolTableRecord
100
AcDbLayerTableRecord
  2
3
 70
     0
 62
     2
  6
DASHED
370
    -3
390
12C0
  0
LAYER
  5
53
102
{ACAD_XDICTIONARY
360
131D
102
}
330
2
100
AcDbSymbolTableRecord
100
AcDbLayerTableRecord
  2
6
 70
     0
 62
     5
  6
CONTINUOUS
370
    -3
390
12C0
  0
LAYER
  5
54
102
{ACAD_XDICTIONARY
360
131F
102
}
330
2
100
AcDbSymbolTableRecord
100
AcDbLayerTableRecord
  2
7
 70
     0
 62
     3
  6
CONTINUOUS
370
    -3
390
12C0
  0
ENDTAB
  0
TABLE
  2
STYLE
  5
3
330
0
100
AcDbSymbolTable
 70
     1
  0
STYLE
  5
F
330
3
100
AcDbSymbolTableRecord
100
AcDbTextStyleTableRecord
  2
STANDARD
 70
     0
 40
0.0
 41
1.0
 50
0.0
 71
     0
 42
2.5
  3
simplex.shx
  4

  0
ENDTAB
  0
TABLE
  2
VIEW
  5
6
330
0
100
AcDbSymbolTable
 70
     0
  0
ENDTAB
  0
TABLE
  2
UCS
  5
7
330
0
100
AcDbSymbolTable
 70
     0
  0
ENDTAB
  0
TABLE
  2
APPID
  5
9
330
0
100
AcDbSymbolTable
 70
     5
  0
APPID
  5
10
330
9
100
AcDbSymbolTableRecord
100
AcDbRegAppTableRecord
  2
ACAD
 70
     0
  0
APPID
  5
3E
330
9
100
AcDbSymbolTableRecord
100
AcDbRegAppTableRecord
  2
CONTENTTABDATA
 70
     0
  0
APPID
  5
3F
330
9
100
AcDbSymbolTableRecord
100
AcDbRegAppTableRecord
  2
CONTENTCURRENTTAB
 70
     0
  0
APPID
  5
132B
330
9
100
AcDbSymbolTableRecord
100
AcDbRegAppTableRecord
  2
ACAD_NAV_VCDISPLAY
 70
     0
  0
APPID
  5
1364
330
9
100
AcDbSymbolTableRecord
100
AcDbRegAppTableRecord
  2
ACAD_MLEADERVER
 70
     0
  0
ENDTAB
  0
TABLE
  2
DIMSTYLE
  5
A
330
0
100
AcDbSymbolTable
 70
     1
100
AcDbDimStyleTable
 71
     0
  0
DIMSTYLE
105
1D
330
A
100
AcDbSymbolTableRecord
100
AcDbDimStyleTableRecord
  2
STANDARD
 70
     0
 41
3.0
 42
1.0
 43
10.0
 44
1.0
 73
     0
 74
     0
 77
     3
 78
     8
140
3.2
141
0.0
147
1.0
172
     1
173
     1
340
F
341
2E
343
2E
344
2E
  0
ENDTAB
  0
TABLE
  2
BLOCK_RECORD
  5
1
330
0
100
AcDbSymbolTable
 70
     1
  0
BLOCK_RECORD
  5
18
102
{ACAD_XDICTIONARY
360
12BA
102
}
330
1
100
AcDbSymbolTableRecord
100
AcDbBlockTableRecord
  2
*MODEL_SPACE
340
130E
  0
BLOCK_RECORD
  5
15
102
{ACAD_XDICTIONARY
360
12B8
102
}
330
1
100
AcDbSymbolTableRecord
100
AcDbBlockTableRecord
  2
*PAPER_SPACE
340
130F
  0
BLOCK_RECORD
  5
2E
330
1
100
AcDbSymbolTableRecord
100
AcDbBlockTableRecord
  2
_OPEN
340
0
  0
ENDTAB
  0
ENDSEC
  0
SECTION
  2
BLOCKS
  0
BLOCK
  5
19
330
18
100
AcDbEntity
  8
0
100
AcDbBlockBegin
  2
*MODEL_SPACE
 70
     0
 10
0.0
 20
0.0
 30
0.0
  3
*MODEL_SPACE
  1

  0
ENDBLK
  5
1A
330
18
100
AcDbEntity
  8
0
100
AcDbBlockEnd
  0
BLOCK
  5
16
330
15
100
AcDbEntity
 67
     1
  8
0
100
AcDbBlockBegin
  2
*PAPER_SPACE
 70
     0
 10
0.0
 20
0.0
 30
0.0
  3
*PAPER_SPACE
  1

  0
ENDBLK
  5
17
330
15
100
AcDbEntity
 67
     1
  8
0
100
AcDbBlockEnd
  0
BLOCK
  5
2F
330
2E
100
AcDbEntity
  8
0
100
AcDbBlockBegin
  2
_OPEN
 70
     0
 10
0.0
 20
0.0
 30
0.0
  3
_OPEN
  1

  0
LINE
  5
30
330
2E
100
AcDbEntity
  8
0
  6
ByBlock
 62
     0
100
AcDbLine
 10
-1.0
 20
0.1666666666666666
 30
0.0
 11
0.0
 21
0.0
 31
0.0
  0
LINE
  5
31
330
2E
100
AcDbEntity
  8
0
  6
ByBlock
 62
     0
100
AcDbLine
 10
0.0
 20
0.0
 30
0.0
 11
-1.0
 21
-0.1666666666666666
 31
0.0
  0
LINE
  5
32
330
2E
100
AcDbEntity
  8
0
  6
ByBlock
 62
     0
100
AcDbLine
 10
0.0
 20
0.0
 30
0.0
 11
-1.0
 21
0.0
 31
0.0
  0
ENDBLK
  5
33
330
2E
100
AcDbEntity
  8
0
100
AcDbBlockEnd
  0
ENDSEC
  0
SECTION
  2
ENTITIES
  0
TEXT
  5
63
330
18
100
AcDbEntity
  8
4
  6
CENTER
 48
0.25
100
AcDbText
 10
23.97950852663849
 20
10.0
 30
0.0
 40
1.399999999999999
  1
4
100
AcDbText
  0
TEXT
  5
64
330
18
100
AcDbEntity
  8
7
  6
Continuous
 48
0.25
100
AcDbText
 10
9.999997526638502
 20
26.0000007607689
 30
0.0
 40
3.0
  1
CODE No.6532
100
AcDbText
  0
TEXT
  5
65
330
18
100
AcDbEntity
  8
7
  6
Continuous
 48
0.25
100
AcDbText
 10
9.999997526638502
 20
18.00000076076889
 30
0.0
 40
3.0
  1
TYPE No.TO-501
100
AcDbText
  0
TEXT
  5
66
330
18
100
AcDbEntity
  8
1
  6
Continuous
 48
0.25
100
AcDbText
 10
9.999997526638502
 20
10.00000076076889
 30
0.0
 40
1.399999999999999
  1
LAYER
100
AcDbText
  0
TEXT
  5
67
330
18
100
AcDbEntity
  8
2
  6
Continuous
 48
0.25
100
AcDbText
 10
19.9795085266385
 20
10.0
 30
0.0
 40
1.399999999999999
  1
2
100
AcDbText
  0
TEXT
  5
68
330
18
100
AcDbEntity
  8
3
  6
DASHED
 48
0.25
100
AcDbText
 10
21.9795085266385
 20
10.0
 30
0.0
 40
1.399999999999999
  1
3
100
AcDbText
  0
TEXT
  5
69
330
18
100
AcDbEntity
  8
1
  6
Continuous
 48
0.25
100
AcDbText
 10
17.9795085266385
 20
10.0
 30
0.0
 40
1.399999999999999
  1
1
100
AcDbText
  0
TEXT
  5
6A
330
18
100
AcDbEntity
  8
5
  6
PHANTOM
 48
0.25
100
AcDbText
 10
25.9795085266385
 20
10.0
 30
0.0
 40
1.399999999999999
  1
5
100
AcDbText
  0
TEXT
  5
6B
330
18
100
AcDbEntity
  8
6
  6
Continuous
 48
0.25
100
AcDbText
 10
27.9795085266385
 20
10.0
 30
0.0
 40
1.399999999999999
  1
6
100
AcDbText
  0
TEXT
  5
6C
330
18
100
AcDbEntity
  8
7
  6
Continuous
 48
0.25
100
AcDbText
 10
29.9795085266385
 20
10.0
 30
0.0
 40
1.399999999999999
  1
7
100
AcDbText
  0
LINE
  5
409
330
18
100
AcDbEntity
  8
1
  6
Continuous
100
AcDbLine
 10
109.281347120654
 20
67.32681964122297
 30
0.0
 11
145.2813471206541
 21
67.32681964122297
 31
0.0
  0
LINE
  5
40A
330
18
100
AcDbEntity
  8
1
  6
Continuous
100
AcDbLine
 10
113.2813471206541
 20
86.326819641223
 30
0.0
 11
145.2813471206541
 21
86.326819641223
 31
0.0
  0
LINE
  5
40B
330
18
100
AcDbEntity
  8
1
  6
Continuous
100
AcDbLine
 10
113.2813471206541
 20
88.826819641223
 30
0.0
 11
145.2813471206541
 21
88.826819641223
 31
0.0
  0
LINE
  5
40C
330
18
100
AcDbEntity
  8
1
  6
Continuous
100
AcDbLine
 10
113.2813471206541
 20
137.6043936421407
 30
0.0
 11
145.2813471206541
 21
137.6043936421407
 31
0.0
  0
LINE
  5
40D
330
18
100
AcDbEntity
  8
1
  6
Continuous
100
AcDbLine
 10
113.2813471206541
 20
157.1043936421407
 30
0.0
 11
145.2813471206541
 21
157.1043936421407
 31
0.0
  0
LINE
  5
40E
330
18
100
AcDbEntity
  8
1
  6
Continuous
100
AcDbLine
 10
109.2813471206541
 20
147.3543936421408
 30
0.0
 11
148.7239322253441
 21
147.3543936421408
 31
0.0
  0
LINE
  5
40F
330
18
100
AcDbEntity
  8
1
  6
Continuous
100
AcDbLine
 10
109.8387620159639
 20
149.8543936421407
 30
0.0
 11
148.7239322253441
 21
149.8543936421407
 31
0.0
  0
LINE
  5
410
330
18
100
AcDbEntity
  8
1
  6
Continuous
100
AcDbLine
 10
109.8387620159639
 20
152.3543936421408
 30
0.0
 11
148.7239322253441
 21
152.3543936421408
 31
0.0
  0
LINE
  5
411
330
18
100
AcDbEntity
  8
1
  6
Continuous
100
AcDbLine
 10
109.8387620159639
 20
144.8543936421407
 30
0.0
 11
148.7239322253441
 21
144.8543936421407
 31
0.0
  0
LINE
  5
412
330
18
100
AcDbEntity
  8
1
  6
Continuous
100
AcDbLine
 10
109.8387620159639
 20
142.3543936421407
 30
0.0
 11
148.7239322253441
 21
142.3543936421407
 31
0.0
  0
LINE
  5
43B
330
18
100
AcDbEntity
  8
1
  6
Continuous
100
AcDbLine
 10
59.21646498021051
 20
72.32681964122344
 30
0.0
 11
93.99501659903114
 21
72.32681964122344
 31
0.0
  0
LINE
  5
43C
330
18
100
AcDbEntity
  8
1
  6
Continuous
100
AcDbLine
 10
59.21646498021051
 20
74.8268196412232
 30
0.0
 11
93.99278168740783
 21
74.8268196412232
 31
0.0
  0
LINE
  5
43D
330
18
100
AcDbEntity
  8
1
  6
Continuous
100
AcDbLine
 10
56.58473699656543
 20
64.93773234469745
 30
0.0
 11
63.97382429309288
 21
72.3268196412232
 31
0.0
  0
LINE
  5
43E
330
18
100
AcDbEntity
  8
1
  6
Continuous
100
AcDbLine
 10
54.8169700435991
 20
66.70549929766366
 30
0.0
 11
60.43829038715739
 21
72.3268196412232
 31
0.0
  0
ARC
  5
440
330
18
100
AcDbEntity
  8
1
  6
Continuous
100
AcDbCircle
 10
52.69564970003933
 20
68.82681964122344
 30
0.0
 40
3.0
100
AcDbArc
 50
270.0
 51
314.9999999999994
  0
ARC
  5
441
330
18
100
AcDbEntity
  8
1
  6
Continuous
100
AcDbCircle
 10
52.69564970003933
 20
68.82681964122344
 30
0.0
 40
5.5
100
AcDbArc
 50
270.0
 51
314.9999999999994
  0
LINE
  5
445
330
18
100
AcDbEntity
  8
1
  6
Continuous
100
AcDbLine
 10
44.45605734012502
 20
63.32681964122343
 30
0.0
 11
52.69564970003933
 21
63.32681964122343
 31
0.0
  0
LINE
  5
446
330
18
100
AcDbEntity
  8
1
  6
Continuous
100
AcDbLine
 10
44.45605734012502
 20
65.82681964122343
 30
0.0
 11
52.69564970003933
 21
65.82681964122343
 31
0.0
  0
ARC
  5
448
330
18
100
AcDbEntity
  8
1
  6
Continuous
100
AcDbCircle
 10
52.69564970003933
 20
72.32681964122344
 30
0.0
 40
3.0
100
AcDbArc
 50
45.00000000000057
 51
90.0
  0
ARC
  5
449
330
18
100
AcDbEntity
  8
1
  6
Continuous
100
AcDbCircle
 10
52.69564970003933
 20
72.32681964122344
 30
0.0
 40
5.5
100
AcDbArc
 50
45.00000000000057
 51
90.0
  0
LINE
  5
44C
330
18
100
AcDbEntity
  8
1
  6
Continuous
100
AcDbLine
 10
44.45605734012502
 20
75.32681964122343
 30
0.0
 11
52.69564970003933
 21
75.32681964122343
 31
0.0
  0
LINE
  5
451
330
18
100
AcDbEntity
  8
1
  6
Continuous
100
AcDbLine
 10
44.45605734012502
 20
77.82681964122343
 30
0.0
 11
52.69564970003933
 21
77.82681964122343
 31
0.0
  0
ARC
  5
452
330
18
100
AcDbEntity
  8
1
  6
Continuous
100
AcDbCircle
 10
59.21646498021051
 20
77.82681964122319
 30
0.0
 40
3.0
100
AcDbArc
 50
225.0000000000006
 51
270.0
  0
ARC
  5
453
330
18
100
AcDbEntity
  8
1
  6
Continuous
100
AcDbCircle
 10
59.21646498021051
 20
77.82681964122319
 30
0.0
 40
5.5
100
AcDbArc
 50
225.0000000000006
 51
270.0
  0
LINE
  5
454
330
18
100
AcDbEntity
  8
1
  6
Continuous
100
AcDbLine
 10
54.81697004359904
 20
74.44813998478299
 30
0.0
 11
55.32737768368452
 21
73.93773234469745
 31
0.0
  0
LINE
  5
455
330
18
100
AcDbEntity
  8
1
  6
Continuous
100
AcDbLine
 10
56.58473699656531
 20
76.21590693774918
 30
0.0
 11
57.09514463665107
 21
75.70549929766366
 31
0.0
  0
LINE
  5
456
330
18
100
AcDbEntity
  8
1
  6
Continuous
100
AcDbLine
 10
113.2813471206541
 20
86.326819641223
 30
0.0
 11
113.2813471206541
 21
67.32681964122297
 31
0.0
  0
ARC
  5
457
330
18
100
AcDbEntity
  8
1
  6
Continuous
100
AcDbCircle
 10
113.6103159204628
 20
83.82681964122298
 30
0.0
 40
2.521551203376128
100
AcDbArc
 50
97.49634045148305
 51
262.5036595485169
  0
ARC
  5
458
330
18
100
AcDbEntity
  8
1
  6
Continuous
100
AcDbCircle
 10
113.6043807465491
 20
83.82161429806888
 30
0.0
 40
5.015618730585238
100
AcDbArc
 50
93.6927214941374
 51
266.3072785058626
  0
LINE
  5
459
330
18
100
AcDbEntity
  8
1
  6
Continuous
100
AcDbLine
 10
109.281347120654
 20
71.32681964122298
 30
0.0
 11
113.2813471206541
 21
71.32681964122298
 31
0.0
  0
LINE
  5
45A
330
18
100
AcDbEntity
  8
1
  6
Continuous
100
AcDbLine
 10
95.19283725290362
 20
72.32681964122298
 30
0.0
 11
113.2813471206541
 21
72.32681964122298
 31
0.0
  0
LINE
  5
45B
330
18
100
AcDbEntity
  8
1
  6
Continuous
100
AcDbLine
 10
95.19507216442621
 20
74.82681964122298
 30
0.0
 11
113.2813471206541
 21
74.82681964122298
 31
0.0
  0
LINE
  5
45C
330
18
100
AcDbEntity
  8
1
  6
Continuous
100
AcDbLine
 10
109.281347120654
 20
71.32681964122298
 30
0.0
 11
109.281347120654
 21
67.32681964122297
 31
0.0
  0
LINE
  5
45F
330
18
100
AcDbEntity
  8
1
  6
Continuous
100
AcDbLine
 10
113.2813471206541
 20
68.82681964122297
 30
0.0
 11
120.2813471206541
 21
68.82681964122297
 31
0.0
  0
LINE
  5
460
330
18
100
AcDbEntity
  8
1
  6
Continuous
100
AcDbLine
 10
120.2813471206541
 20
68.82681964122297
 30
0.0
 11
120.2813471206541
 21
67.32681964122297
 31
0.0
  0
ARC
  5
47A
330
18
100
AcDbEntity
  8
1
  6
Continuous
100
AcDbCircle
 10
60.63067854258361
 20
153.6043936421408
 30
0.0
 40
3.0
100
AcDbArc
 50
225.0000000000098
 51
270.0
  0
LINE
  5
47B
330
18
100
AcDbEntity
  8
1
  6
Continuous
100
AcDbLine
 10
54.8169700435991
 20
151.6399275480736
 30
0.0
 11
56.74159124605785
 21
149.715306345615
 31
0.0
  0
ARC
  5
47D
330
18
100
AcDbEntity
  8
1
  6
Continuous
100
AcDbCircle
 10
109.8387620159639
 20
151.1043936421407
 30
0.0
 40
1.25
100
AcDbArc
 50
90.0
 51
270.0
  0
LINE
  5
47F
330
18
100
AcDbEntity
  8
1
  6
Continuous
100
AcDbLine
 10
60.63067854258361
 20
148.1043936421407
 30
0.0
 11
93.99506592293642
 21
148.1043936421407
 31
0.0
  0
LINE
  5
480
330
18
100
AcDbEntity
  8
1
  6
Continuous
100
AcDbLine
 10
60.63067854258361
 20
150.6043936421407
 30
0.0
 11
93.99730083451698
 21
150.6043936421407
 31
0.0
  0
LINE
  5
481
330
18
100
AcDbEntity
  8
1
  6
Continuous
100
AcDbLine
 10
60.63067854258349
 20
146.6043936421407
 30
0.0
 11
93.9973008345262
 21
146.6043936421407
 31
0.0
  0
LINE
  5
482
330
18
100
AcDbEntity
  8
1
  6
Continuous
100
AcDbLine
 10
60.63067854258361
 20
144.1043936421408
 30
0.0
 11
93.99506592293631
 21
144.1043936421408
 31
0.0
  0
ARC
  5
483
330
18
100
AcDbEntity
  8
1
  6
Continuous
100
AcDbCircle
 10
52.69564970003943
 20
145.1901800797679
 30
0.0
 40
3.0
100
AcDbArc
 50
270.0
 51
314.9999999999902
  0
ARC
  5
484
330
18
100
AcDbEntity
  8
1
  6
Continuous
100
AcDbCircle
 10
52.69564970003943
 20
145.1901800797679
 30
0.0
 40
5.5
100
AcDbArc
 50
270.0
 51
314.9999999999902
  0
LINE
  5
488
330
18
100
AcDbEntity
  8
1
  6
Continuous
100
AcDbLine
 10
44.45605734012502
 20
139.6901800797679
 30
0.0
 11
52.69564970003943
 21
139.6901800797679
 31
0.0
  0
LINE
  5
489
330
18
100
AcDbEntity
  8
1
  6
Continuous
100
AcDbLine
 10
44.45605734012502
 20
142.1901800797679
 30
0.0
 11
52.69564970003943
 21
142.1901800797679
 31
0.0
  0
LINE
  5
48A
330
18
100
AcDbEntity
  8
1
  6
Continuous
100
AcDbLine
 10
56.58473699656411
 20
141.3010927832412
 30
0.0
 11
58.50935819902399
 21
143.2257139857003
 31
0.0
  0
ARC
  5
48B
330
18
100
AcDbEntity
  8
1
  6
Continuous
100
AcDbCircle
 10
60.63067854258361
 20
153.6043936421408
 30
0.0
 40
5.5
100
AcDbArc
 50
225.0000000000006
 51
270.0
  0
ARC
  5
48C
330
18
100
AcDbEntity
  8
1
  6
Continuous
100
AcDbCircle
 10
60.63067854258361
 20
141.1043936421408
 30
0.0
 40
3.0
100
AcDbArc
 50
90.0
 51
134.9999999999901
  0
ARC
  5
48D
330
18
100
AcDbEntity
  8
1
  6
Continuous
100
AcDbCircle
 10
60.63067854258361
 20
141.1043936421408
 30
0.0
 40
5.5
100
AcDbArc
 50
90.0
 51
134.9999999999901
  0
LINE
  5
48E
330
18
100
AcDbEntity
  8
1
  6
Continuous
100
AcDbLine
 10
54.81697004359972
 20
143.0688597362085
 30
0.0
 11
56.74159124605761
 21
144.993480938667
 31
0.0
  0
LINE
  5
491
330
18
100
AcDbEntity
  8
1
  6
Continuous
100
AcDbLine
 10
95.19283101128944
 20
148.1043936421407
 30
0.0
 11
108.693118092225
 21
148.1043936421407
 31
0.0
  0
LINE
  5
492
330
18
100
AcDbEntity
  8
1
  6
Continuous
100
AcDbLine
 10
95.19506592293646
 20
150.6043936421407
 30
0.0
 11
108.693118092225
 21
150.6043936421407
 31
0.0
  0
LINE
  5
493
330
18
100
AcDbEntity
  8
1
  6
Continuous
100
AcDbLine
 10
95.19283101130254
 20
144.1043936421408
 30
0.0
 11
108.693118092225
 21
144.1043936421408
 31
0.0
  0
LINE
  5
494
330
18
100
AcDbEntity
  8
1
  6
Continuous
100
AcDbLine
 10
95.19506592293621
 20
146.6043936421407
 30
0.0
 11
108.693118092225
 21
146.6043936421407
 31
0.0
  0
ARC
  5
499
330
18
100
AcDbEntity
  8
1
  6
Continuous
100
AcDbCircle
 10
109.8387620159639
 20
143.6043936421407
 30
0.0
 40
1.25
100
AcDbArc
 50
90.0
 51
270.0
  0
ARC
  5
49B
330
18
100
AcDbEntity
  8
1
  6
Continuous
100
AcDbCircle
 10
109.8387620159639
 20
146.1043936421407
 30
0.0
 40
1.25
100
AcDbArc
 50
90.0
 51
270.0
  0
ARC
  5
49C
330
18
100
AcDbEntity
  8
1
  6
Continuous
100
AcDbCircle
 10
109.8387620159639
 20
148.6043936421407
 30
0.0
 40
1.25
100
AcDbArc
 50
90.0
 51
270.0
  0
LINE
  5
49D
330
18
100
AcDbEntity
  8
1
  6
Continuous
100
AcDbLine
 10
113.2813471206541
 20
142.3543936421407
 30
0.0
 11
113.2813471206541
 21
137.6043936421407
 31
0.0
  0
ARC
  5
49E
330
18
100
AcDbEntity
  8
1
  6
Continuous
100
AcDbCircle
 10
52.69564970003943
 20
149.5186072045139
 30
0.0
 40
3.0
100
AcDbArc
 50
45.00000000000978
 51
90.0
  0
ARC
  5
49F
330
18
100
AcDbEntity
  8
1
  6
Continuous
100
AcDbCircle
 10
52.69564970003943
 20
149.5186072045139
 30
0.0
 40
5.5
100
AcDbArc
 50
45.00000000000978
 51
90.0
  0
LINE
  5
4A0
330
18
100
AcDbEntity
  8
1
  6
Continuous
100
AcDbLine
 10
44.45605734012501
 20
152.5186072045138
 30
0.0
 11
52.69564970003943
 21
152.5186072045139
 31
0.0
  0
LINE
  5
4A1
330
18
100
AcDbEntity
  8
1
  6
Continuous
100
AcDbLine
 10
44.45605734012501
 20
155.0186072045138
 30
0.0
 11
52.69564970003943
 21
155.0186072045138
 31
0.0
  0
LINE
  5
4A2
330
18
100
AcDbEntity
  8
1
  6
Continuous
100
AcDbLine
 10
56.58473699656433
 20
153.4076945010403
 30
0.0
 11
58.50935819902423
 21
151.4830732985814
 31
0.0
  0
LINE
  5
4A3
330
18
100
AcDbEntity
  8
1
  6
Continuous
100
AcDbLine
 10
113.2813471206541
 20
157.1043936421407
 30
0.0
 11
113.2813471206541
 21
152.3543936421408
 31
0.0
  0
LINE
  5
4A9
330
18
100
AcDbEntity
  8
1
  6
Continuous
100
AcDbLine
 10
181.1066083485876
 20
75.32681964122343
 30
0.0
 11
172.8670159886733
 21
75.32681964122343
 31
0.0
  0
LINE
  5
4AA
330
18
100
AcDbEntity
  8
1
  6
Continuous
100
AcDbLine
 10
181.1066083485876
 20
77.82681964122343
 30
0.0
 11
172.8670159886733
 21
77.82681964122343
 31
0.0
  0
LINE
  5
4AB
330
18
100
AcDbEntity
  8
1
  6
Continuous
100
AcDbLine
 10
181.1066083485876
 20
63.32681964122343
 30
0.0
 11
172.8670159886733
 21
63.32681964122343
 31
0.0
  0
LINE
  5
4AC
330
18
100
AcDbEntity
  8
1
  6
Continuous
100
AcDbLine
 10
181.1066083485876
 20
65.82681964122343
 30
0.0
 11
172.8670159886733
 21
65.82681964122343
 31
0.0
  0
LINE
  5
4AD
330
18
100
AcDbEntity
  8
1
  6
Continuous
100
AcDbLine
 10
145.2813471206541
 20
86.326819641223
 30
0.0
 11
145.2813471206541
 21
67.32681964122297
 31
0.0
  0
ARC
  5
4AE
330
18
100
AcDbEntity
  8
1
  6
Continuous
100
AcDbCircle
 10
144.9523783208451
 20
83.82681964122298
 30
0.0
 40
2.521551203376128
100
AcDbArc
 50
277.496340451483
 51
82.503659548517
  0
ARC
  5
4AF
330
18
100
AcDbEntity
  8
1
  6
Continuous
100
AcDbCircle
 10
144.9583134947588
 20
83.82161429806888
 30
0.0
 40
5.015618730585238
100
AcDbArc
 50
273.6927214941374
 51
86.30727850586259
  0
LINE
  5
4B0
330
18
100
AcDbEntity
  8
1
  6
Continuous
100
AcDbLine
 10
166.3462007085021
 20
72.32681964122344
 30
0.0
 11
145.2813471206541
 21
72.32681964122344
 31
0.0
  0
LINE
  5
4B1
330
18
100
AcDbEntity
  8
1
  6
Continuous
100
AcDbLine
 10
166.3462007085021
 20
74.8268196412232
 30
0.0
 11
145.2813471206541
 21
74.8268196412232
 31
0.0
  0
LINE
  5
4B2
330
18
100
AcDbEntity
  8
1
  6
Continuous
100
AcDbLine
 10
138.2813471206541
 20
68.82681964122297
 30
0.0
 11
145.2813471206541
 21
68.82681964122297
 31
0.0
  0
LINE
  5
4B3
330
18
100
AcDbEntity
  8
1
  6
Continuous
100
AcDbLine
 10
138.2813471206541
 20
68.82681964122297
 30
0.0
 11
138.2813471206541
 21
67.32681964122297
 31
0.0
  0
LINE
  5
4B4
330
18
100
AcDbEntity
  8
1
  6
Continuous
100
AcDbLine
 10
168.9779286921472
 20
64.93773234469722
 30
0.0
 11
161.5888413956196
 21
72.3268196412232
 31
0.0
  0
LINE
  5
4B5
330
18
100
AcDbEntity
  8
1
  6
Continuous
100
AcDbLine
 10
170.7456956451135
 20
66.70549929766366
 30
0.0
 11
165.1243753015553
 21
72.3268196412232
 31
0.0
  0
ARC
  5
4B6
330
18
100
AcDbEntity
  8
1
  6
Continuous
100
AcDbCircle
 10
172.8670159886733
 20
68.82681964122344
 30
0.0
 40
5.5
100
AcDbArc
 50
225.0000000000006
 51
270.0
  0
ARC
  5
4B7
330
18
100
AcDbEntity
  8
1
  6
Continuous
100
AcDbCircle
 10
172.8670159886733
 20
68.82681964122344
 30
0.0
 40
3.0
100
AcDbArc
 50
225.0000000000006
 51
270.0
  0
ARC
  5
4B8
330
18
100
AcDbEntity
  8
1
  6
Continuous
100
AcDbCircle
 10
172.8670159886733
 20
72.32681964122344
 30
0.0
 40
5.5
100
AcDbArc
 50
90.0
 51
134.9999999999994
  0
ARC
  5
4B9
330
18
100
AcDbEntity
  8
1
  6
Continuous
100
AcDbCircle
 10
166.3462007085021
 20
77.82681964122319
 30
0.0
 40
5.5
100
AcDbArc
 50
270.0
 51
314.9999999999994
  0
LINE
  5
4BA
330
18
100
AcDbEntity
  8
1
  6
Continuous
100
AcDbLine
 10
168.9779286921471
 20
76.21590693774918
 30
0.0
 11
168.4675210520616
 21
75.70549929766366
 31
0.0
  0
ARC
  5
4BB
330
18
100
AcDbEntity
  8
1
  6
Continuous
100
AcDbCircle
 10
166.3462007085021
 20
77.82681964122319
 30
0.0
 40
3.0
100
AcDbArc
 50
270.0
 51
314.9999999999994
  0
ARC
  5
4BC
330
18
100
AcDbEntity
  8
1
  6
Continuous
100
AcDbCircle
 10
172.8670159886733
 20
72.32681964122344
 30
0.0
 40
3.0
100
AcDbArc
 50
90.0
 51
134.9999999999994
  0
LINE
  5
4BD
330
18
100
AcDbEntity
  8
1
  6
Continuous
100
AcDbLine
 10
170.7456956451135
 20
74.44813998478299
 30
0.0
 11
170.2352880050281
 21
73.93773234469724
 31
0.0
  0
LINE
  5
4F1
330
18
100
AcDbEntity
  8
1
  6
Continuous
100
AcDbLine
 10
269.4560858927204
 20
75.3265661203252
 30
0.0
 11
275.1956782526348
 21
75.3265661203252
 31
0.0
  0
LINE
  5
4F2
330
18
100
AcDbEntity
  8
1
  6
Continuous
100
AcDbLine
 10
269.4560858927204
 20
77.8265661203252
 30
0.0
 11
275.1956782526348
 21
77.8265661203252
 31
0.0
  0
LINE
  5
4F3
330
18
100
AcDbEntity
  8
1
  6
Continuous
100
AcDbLine
 10
269.4560858927204
 20
63.32656612032496
 30
0.0
 11
275.1956782526348
 21
63.32656612032496
 31
0.0
  0
LINE
  5
4F4
330
18
100
AcDbEntity
  8
1
  6
Continuous
100
AcDbLine
 10
269.4560858927204
 20
65.82656612032518
 30
0.0
 11
275.1956782526348
 21
65.82656612032518
 31
0.0
  0
LINE
  5
51C
330
18
100
AcDbEntity
  8
1
  6
Continuous
100
AcDbLine
 10
269.4560858927204
 20
60.402344530891
 30
0.0
 11
269.4560858927204
 21
67.56735215679987
 31
0.0
  0
LINE
  5
520
330
18
100
AcDbEntity
  8
1
  6
Continuous
100
AcDbLine
 10
269.4560858927204
 20
79.75419705879858
 30
0.0
 11
269.4560858927204
 21
72.40209100999269
 31
0.0
  0
LINE
  5
528
330
18
100
AcDbEntity
  8
1
  6
Continuous
100
AcDbLine
 10
281.7164935328059
 20
72.3265661203252
 30
0.0
 11
299.2538204394079
 21
72.32656612032518
 31
0.0
  0
LINE
  5
529
330
18
100
AcDbEntity
  8
1
  6
Continuous
100
AcDbLine
 10
281.7164935328059
 20
74.8265661203252
 30
0.0
 11
299.2538204394079
 21
74.8265661203252
 31
0.0
  0
LINE
  5
52A
330
18
100
AcDbEntity
  8
1
  6
Continuous
100
AcDbLine
 10
279.0847655491607
 20
64.93747882379921
 30
0.0
 11
286.4738528456883
 21
72.3265661203252
 31
0.0
  0
LINE
  5
52B
330
18
100
AcDbEntity
  8
1
  6
Continuous
100
AcDbLine
 10
277.3169985961944
 20
66.70524577676542
 30
0.0
 11
282.9383189397528
 21
72.3265661203252
 31
0.0
  0
ARC
  5
52C
330
18
100
AcDbEntity
  8
1
  6
Continuous
100
AcDbCircle
 10
275.1956782526348
 20
68.82656612032518
 30
0.0
 40
5.5
100
AcDbArc
 50
270.0
 51
315.0
  0
ARC
  5
52D
330
18
100
AcDbEntity
  8
1
  6
Continuous
100
AcDbCircle
 10
275.1956782526348
 20
68.82656612032518
 30
0.0
 40
3.0
100
AcDbArc
 50
270.0
 51
315.0
  0
ARC
  5
52E
330
18
100
AcDbEntity
  8
1
  6
Continuous
100
AcDbCircle
 10
275.1956782526348
 20
72.3265661203252
 30
0.0
 40
5.5
100
AcDbArc
 50
45.0
 51
90.0
  0
LINE
  5
52F
330
18
100
AcDbEntity
  8
1
  6
Continuous
100
AcDbLine
 10
279.0847655491607
 20
76.21565341685095
 30
0.0
 11
279.5951731892464
 21
75.70524577676542
 31
0.0
  0
ARC
  5
530
330
18
100
AcDbEntity
  8
1
  6
Continuous
100
AcDbCircle
 10
281.7164935328059
 20
77.8265661203252
 30
0.0
 40
5.5
100
AcDbArc
 50
225.0
 51
270.0
  0
ARC
  5
531
330
18
100
AcDbEntity
  8
1
  6
Continuous
100
AcDbCircle
 10
275.1956782526348
 20
72.3265661203252
 30
0.0
 40
3.0
100
AcDbArc
 50
45.0
 51
90.0
  0
LINE
  5
532
330
18
100
AcDbEntity
  8
1
  6
Continuous
100
AcDbLine
 10
277.3169985961944
 20
74.44788646388473
 30
0.0
 11
277.8274062362802
 21
73.93747882379919
 31
0.0
  0
ARC
  5
533
330
18
100
AcDbEntity
  8
1
  6
Continuous
100
AcDbCircle
 10
281.7164935328059
 20
77.8265661203252
 30
0.0
 40
3.0
100
AcDbArc
 50
225.0
 51
270.0
  0
LINE
  5
536
330
18
100
AcDbEntity
  8
1
  6
Continuous
100
AcDbLine
 10
305.7656766554312
 20
77.65774554010704
 30
0.0
 11
305.7656766554312
 21
69.49538670054312
 31
0.0
  0
LINE
  5
53C
330
18
100
AcDbEntity
  8
1
  6
Continuous
100
AcDbLine
 10
305.7656766554312
 20
72.3265661203252
 30
0.0
 11
300.4515855277825
 21
72.3265661203252
 31
0.0
  0
LINE
  5
53D
330
18
100
AcDbEntity
  8
1
  6
Continuous
100
AcDbLine
 10
305.7656766554312
 20
74.8265661203252
 30
0.0
 11
300.451585527783
 21
74.82656612032518
 31
0.0
  0
LINE
  5
540
330
18
100
AcDbEntity
  8
1
  6
Continuous
100
AcDbLine
 10
420.7766539417858
 20
80.336954392651
 30
0.0
 11
408.7579623530011
 21
80.336954392651
 31
0.0
  0
LINE
  5
541
330
18
100
AcDbEntity
  8
1
  6
Continuous
100
AcDbLine
 10
427.2566481006641
 20
76.59853522728259
 30
0.0
 11
396.7953252488988
 21
76.59853522728258
 31
0.0
  0
LINE
  5
542
330
18
100
AcDbEntity
  8
1
  6
Continuous
100
AcDbLine
 10
428.2566481006642
 20
74.10642479763557
 30
0.0
 11
395.7953252488989
 21
74.10642479763557
 31
0.0
  0
LINE
  5
544
330
18
100
AcDbEntity
  8
1
  6
Continuous
100
AcDbLine
 10
407.7579623530009
 20
62.08142155256791
 30
0.0
 11
413.7395344259497
 21
62.08142155256791
 31
0.0
  0
LINE
  5
547
330
18
100
AcDbEntity
  8
1
  6
Continuous
100
AcDbLine
 10
426.7519143584526
 20
67.8758952026201
 30
0.0
 11
394.7984810770403
 21
67.8758952026201
 31
0.0
  0
LINE
  5
548
330
18
100
AcDbEntity
  8
1
  6
Continuous
100
AcDbLine
 10
396.7953252488988
 20
69.05933075557959
 30
0.0
 11
428.7519143584525
 21
69.0593307555796
 31
0.0
  0
LINE
  5
549
330
18
100
AcDbEntity
  8
1
  6
Continuous
100
AcDbLine
 10
428.7519143584526
 20
62.82880116056412
 30
0.0
 11
341.7802762483795
 21
62.82880116056412
 31
0.0
  0
LINE
  5
54A
330
18
100
AcDbEntity
  8
4
  6
CENTER
 48
0.3
100
AcDbLine
 10
334.2658417825177
 20
51.39143096326368
 30
0.0
 11
334.2658417825177
 21
55.38827513512251
 31
0.0
  0
LINE
  5
54B
330
18
100
AcDbEntity
  8
1
  6
Continuous
100
AcDbLine
 10
330.2658417825179
 20
53.89143096326368
 30
0.0
 11
330.2658417825179
 21
52.8914309632637
 31
0.0
  0
LINE
  5
54F
330
18
100
AcDbEntity
  8
1
  6
Continuous
100
AcDbLine
 10
340.7802762483794
 20
52.8914309632637
 30
0.0
 11
330.2658417825182
 21
52.8914309632637
 31
0.0
  0
LINE
  5
551
330
18
100
AcDbEntity
  8
1
  6
Continuous
100
AcDbLine
 10
340.2813471206541
 20
82.8914309632637
 30
0.0
 11
395.7953252488989
 21
82.8914309632637
 31
0.0
  0
LINE
  5
552
330
18
100
AcDbEntity
  8
1
  6
Continuous
100
AcDbLine
 10
351.7984810770403
 20
63.32773028828978
 30
0.0
 11
392.7984810770404
 21
63.32773028828981
 31
0.0
  0
LINE
  5
556
330
18
100
AcDbEntity
  8
1
  6
Continuous
100
AcDbLine
 10
341.2781912925127
 20
81.8914309632637
 30
0.0
 11
341.2781912925127
 21
82.8914309632637
 31
0.0
  0
LINE
  5
557
330
18
100
AcDbEntity
  8
1
  6
Continuous
100
AcDbLine
 10
340.2813471206541
 20
82.8914309632637
 30
0.0
 11
340.2813471206541
 21
77.65723849831032
 31
0.0
  0
LINE
  5
558
330
18
100
AcDbEntity
  8
1
  6
Continuous
100
AcDbLine
 10
340.7802762483794
 20
82.39143096326371
 30
0.0
 11
340.7802762483794
 21
77.65723849831032
 31
0.0
  0
LINE
  5
55A
330
18
100
AcDbEntity
  8
1
  6
Continuous
100
AcDbLine
 10
341.7802762483795
 20
75.8914309632637
 30
0.0
 11
341.7802762483795
 21
53.8914309632637
 31
0.0
  0
LINE
  5
55F
330
18
100
AcDbEntity
  8
1
  6
Continuous
100
AcDbLine
 10
342.7771204202383
 20
55.85089195755244
 30
0.0
 11
342.7771204202383
 21
59.83826864498769
 31
0.0
  0
LINE
  5
560
330
18
100
AcDbEntity
  8
1
  6
Continuous
100
AcDbLine
 10
339.471094329896
 20
54.85404778569364
 30
0.0
 11
339.471094329896
 21
60.8351128168465
 31
0.0
  0
LINE
  5
563
330
18
100
AcDbEntity
  8
1
  6
Continuous
100
AcDbLine
 10
340.7802762483794
 20
54.85404778569364
 30
0.0
 11
339.471094329896
 21
54.85404778569364
 31
0.0
  0
LINE
  5
56A
330
18
100
AcDbEntity
  8
1
  6
Continuous
100
AcDbLine
 10
341.7802762483795
 20
55.85089195755244
 30
0.0
 11
342.7771204202383
 21
55.85089195755244
 31
0.0
  0
LINE
  5
56D
330
18
100
AcDbEntity
  8
1
  6
Continuous
100
AcDbLine
 10
339.471094329896
 20
60.8351128168465
 30
0.0
 11
340.2813471206541
 21
60.8351128168465
 31
0.0
  0
LINE
  5
574
330
18
100
AcDbEntity
  8
1
  6
Continuous
100
AcDbLine
 10
342.7771204202383
 20
59.83826864498769
 30
0.0
 11
341.7802762483795
 21
59.83826864498769
 31
0.0
  0
LINE
  5
57F
330
18
100
AcDbEntity
  8
1
  6
Continuous
100
AcDbLine
 10
354.7771204202387
 20
63.32773028828978
 30
0.0
 11
354.7771204202387
 21
62.82880116056412
 31
0.0
  0
LINE
  5
581
330
18
100
AcDbEntity
  8
1
  6
Continuous
100
AcDbLine
 10
378.3287048244442
 20
77.84433692120773
 30
0.0
 11
373.2821178241847
 21
77.84433692120773
 31
0.0
  0
LINE
  5
590
330
18
100
AcDbEntity
  8
1
  6
Continuous
100
AcDbLine
 10
387.3008094129699
 20
73.85696023377248
 30
0.0
 11
382.3160815118797
 21
73.85696023377248
 31
0.0
  0
LINE
  5
59F
330
18
100
AcDbEntity
  8
1
  6
Continuous
100
AcDbLine
 10
394.7984810770403
 20
65.32773028828981
 30
0.0
 11
394.7984810770403
 21
82.8914309632637
 31
0.0
  0
LINE
  5
5A0
330
18
100
AcDbEntity
  8
1
  6
Continuous
100
AcDbLine
 10
395.7953252488989
 20
82.89143096326368
 30
0.0
 11
395.7953252488989
 21
67.8758952026201
 31
0.0
  0
LINE
  5
5AF
330
18
100
AcDbEntity
  8
1
  6
Continuous
100
AcDbLine
 10
407.7579623530009
 20
62.82880116056412
 30
0.0
 11
407.7579623530009
 21
62.08142155256791
 31
0.0
  0
LINE
  5
5B2
330
18
100
AcDbEntity
  8
1
  6
Continuous
100
AcDbLine
 10
406.7579623530011
 20
80.336954392651
 30
0.0
 11
396.7953252488988
 21
80.336954392651
 31
0.0
  0
LINE
  5
5B6
330
18
100
AcDbEntity
  8
1
  6
Continuous
100
AcDbLine
 10
395.2953252488989
 20
77.84433692120773
 30
0.0
 11
395.7953252488989
 21
77.84433692120773
 31
0.0
  0
LINE
  5
5C3
330
18
100
AcDbEntity
  8
4
  6
CENTER
 48
0.3
100
AcDbLine
 10
436.2658417825177
 20
51.39143096326368
 30
0.0
 11
436.2658417825177
 21
55.38827513512251
 31
0.0
  0
LINE
  5
5C5
330
18
100
AcDbEntity
  8
1
  6
Continuous
100
AcDbLine
 10
440.2658417825178
 20
52.8914309632637
 30
0.0
 11
440.265841782518
 21
53.8914309632637
 31
0.0
  0
LINE
  5
5C8
330
18
100
AcDbEntity
  8
1
  6
Continuous
100
AcDbLine
 10
440.2658417825182
 20
52.8914309632637
 30
0.0
 11
429.7519143584525
 21
52.8914309632637
 31
0.0
  0
LINE
  5
5CB
330
18
100
AcDbEntity
  8
1
  6
Continuous
100
AcDbLine
 10
429.7519143584525
 20
71.61380732619204
 30
0.0
 11
429.7519143584525
 21
64.88801147338849
 31
0.0
  0
LINE
  5
5D0
330
18
100
AcDbEntity
  8
1
  6
Continuous
100
AcDbLine
 10
413.7395344259497
 20
62.08142155256791
 30
0.0
 11
413.7395344259497
 21
62.82880116056412
 31
0.0
  0
LINE
  5
5D4
330
18
100
AcDbEntity
  8
1
  6
Continuous
100
AcDbLine
 10
429.7519143584525
 20
62.8880114733885
 30
0.0
 11
429.7519143584525
 21
53.89143096326368
 31
0.0
  0
LINE
  5
5E5
330
18
100
AcDbEntity
  8
1
  6
Continuous
100
AcDbLine
 10
421.7766539417858
 20
79.336954392651
 30
0.0
 11
421.7766539417856
 21
76.59853522728258
 31
0.0
  0
LINE
  5
5EC
330
18
100
AcDbEntity
  8
1
  6
Continuous
100
AcDbLine
 10
428.2566481006642
 20
75.5985352272826
 30
0.0
 11
428.2566481006642
 21
71.61380732619204
 31
0.0
  0
LINE
  5
5ED
330
18
100
AcDbEntity
  8
1
  6
Continuous
100
AcDbLine
 10
428.2566481006641
 20
71.61380732619204
 30
0.0
 11
429.7519143584522
 21
71.61380732619204
 31
0.0
  0
LINE
  5
5F3
330
18
100
AcDbEntity
  8
1
  6
Continuous
100
AcDbLine
 10
314.6108703214931
 20
143.2732142223584
 30
0.0
 11
340.281347120654
 21
143.2732142223584
 31
0.0
  0
LINE
  5
5F4
330
18
100
AcDbEntity
  8
1
  6
Continuous
100
AcDbLine
 10
340.281347120654
 20
151.4350660201256
 30
0.0
 11
314.6108703214918
 21
151.4350660201256
 31
0.0
  0
LINE
  5
5F5
330
18
100
AcDbEntity
  8
1
  6
Continuous
100
AcDbLine
 10
340.281347120654
 20
144.8308466211122
 30
0.0
 11
315.2756506336717
 21
144.830846621112
 31
0.0
  0
LINE
  5
5F6
330
18
100
AcDbEntity
  8
1
  6
Continuous
100
AcDbLine
 10
340.2813471206538
 20
147.3541401212421
 30
0.0
 11
314.6108703214931
 21
147.3541401212419
 31
0.0
  0
LINE
  5
5F7
330
18
100
AcDbEntity
  8
1
  6
Continuous
100
AcDbLine
 10
340.2813471206538
 20
149.877433621372
 30
0.0
 11
313.9460900093117
 21
149.8774336213717
 31
0.0
  0
ARC
  5
5F8
330
18
100
AcDbEntity
  8
1
  6
Continuous
100
AcDbCircle
 10
161.4476287245905
 20
153.6043936421408
 30
0.0
 40
3.0
100
AcDbArc
 50
270.0
 51
314.9999999999902
  0
LINE
  5
5F9
330
18
100
AcDbEntity
  8
1
  6
Continuous
100
AcDbLine
 10
167.261337223575
 20
151.6399275480734
 30
0.0
 11
165.3367160211165
 21
149.7153063456148
 31
0.0
  0
ARC
  5
5FA
330
18
100
AcDbEntity
  8
1
  6
Continuous
100
AcDbCircle
 10
148.7239322253441
 20
151.1043936421407
 30
0.0
 40
1.25
100
AcDbArc
 50
270.0
 51
90.0
  0
LINE
  5
5FC
330
18
100
AcDbEntity
  8
1
  6
Continuous
100
AcDbLine
 10
181.1066083485876
 20
139.6901800797676
 30
0.0
 11
169.3826575671346
 21
139.6901800797676
 31
0.0
  0
LINE
  5
5FD
330
18
100
AcDbEntity
  8
1
  6
Continuous
100
AcDbLine
 10
181.1066083485876
 20
142.1901800797676
 30
0.0
 11
169.3826575671346
 21
142.1901800797676
 31
0.0
  0
LINE
  5
5FE
330
18
100
AcDbEntity
  8
1
  6
Continuous
100
AcDbLine
 10
161.4476287245905
 20
148.1043936421407
 30
0.0
 11
149.8695761490831
 21
148.1043936421407
 31
0.0
  0
LINE
  5
5FF
330
18
100
AcDbEntity
  8
1
  6
Continuous
100
AcDbLine
 10
161.4476287245905
 20
150.6043936421407
 30
0.0
 11
149.8695761490831
 21
150.6043936421407
 31
0.0
  0
LINE
  5
600
330
18
100
AcDbEntity
  8
1
  6
Continuous
100
AcDbLine
 10
161.4476287245905
 20
146.6043936421407
 30
0.0
 11
149.8695761490831
 21
146.6043936421407
 31
0.0
  0
LINE
  5
601
330
18
100
AcDbEntity
  8
1
  6
Continuous
100
AcDbLine
 10
161.4476287245905
 20
144.1043936421408
 30
0.0
 11
149.8695761490831
 21
144.1043936421408
 31
0.0
  0
LINE
  5
602
330
18
100
AcDbEntity
  8
1
  6
Continuous
100
AcDbLine
 10
145.2813471206541
 20
142.3543936421407
 30
0.0
 11
145.2813471206541
 21
137.6043936421407
 31
0.0
  0
ARC
  5
603
330
18
100
AcDbEntity
  8
1
  6
Continuous
100
AcDbCircle
 10
148.7239322253441
 20
143.6043936421407
 30
0.0
 40
1.25
100
AcDbArc
 50
270.0
 51
90.0
  0
ARC
  5
604
330
18
100
AcDbEntity
  8
1
  6
Continuous
100
AcDbCircle
 10
148.7239322253441
 20
146.1043936421407
 30
0.0
 40
1.25
100
AcDbArc
 50
270.0
 51
90.0
  0
ARC
  5
605
330
18
100
AcDbEntity
  8
1
  6
Continuous
100
AcDbCircle
 10
148.7239322253441
 20
148.6043936421407
 30
0.0
 40
1.25
100
AcDbArc
 50
270.0
 51
90.0
  0
ARC
  5
606
330
18
100
AcDbEntity
  8
1
  6
Continuous
100
AcDbCircle
 10
169.3826575671346
 20
145.1901800797679
 30
0.0
 40
3.0
100
AcDbArc
 50
225.0000000000098
 51
270.0
  0
ARC
  5
607
330
18
100
AcDbEntity
  8
1
  6
Continuous
100
AcDbCircle
 10
169.3826575671346
 20
145.1901800797679
 30
0.0
 40
5.5
100
AcDbArc
 50
225.0000000000098
 51
270.0
  0
LINE
  5
608
330
18
100
AcDbEntity
  8
1
  6
Continuous
100
AcDbLine
 10
165.49357027061
 20
141.3010927832412
 30
0.0
 11
163.56894906815
 21
143.2257139857003
 31
0.0
  0
ARC
  5
609
330
18
100
AcDbEntity
  8
1
  6
Continuous
100
AcDbCircle
 10
161.4476287245905
 20
153.6043936421408
 30
0.0
 40
5.5
100
AcDbArc
 50
270.0
 51
314.9999999999994
  0
ARC
  5
60A
330
18
100
AcDbEntity
  8
1
  6
Continuous
100
AcDbCircle
 10
161.4476287245905
 20
141.1043936421408
 30
0.0
 40
3.0
100
AcDbArc
 50
45.00000000000978
 51
90.0
  0
ARC
  5
60B
330
18
100
AcDbEntity
  8
1
  6
Continuous
100
AcDbCircle
 10
161.4476287245905
 20
141.1043936421408
 30
0.0
 40
5.5
100
AcDbArc
 50
45.00000000000978
 51
90.0
  0
LINE
  5
60C
330
18
100
AcDbEntity
  8
1
  6
Continuous
100
AcDbLine
 10
167.2613372235741
 20
143.0688597362083
 30
0.0
 11
165.3367160211163
 21
144.993480938667
 31
0.0
  0
LINE
  5
619
330
18
100
AcDbEntity
  8
1
  6
Continuous
100
AcDbLine
 10
181.1066083485876
 20
152.5186072045139
 30
0.0
 11
169.3826575671345
 21
152.5186072045135
 31
0.0
  0
LINE
  5
61A
330
18
100
AcDbEntity
  8
1
  6
Continuous
100
AcDbLine
 10
181.1066083485876
 20
155.0186072045138
 30
0.0
 11
169.3826575671346
 21
155.0186072045138
 31
0.0
  0
LINE
  5
61B
330
18
100
AcDbEntity
  8
1
  6
Continuous
100
AcDbLine
 10
145.2813471206541
 20
157.1043936421407
 30
0.0
 11
145.2813471206541
 21
152.3543936421408
 31
0.0
  0
ARC
  5
61C
330
18
100
AcDbEntity
  8
1
  6
Continuous
100
AcDbCircle
 10
169.3826575671346
 20
149.5186072045139
 30
0.0
 40
3.0
100
AcDbArc
 50
90.0
 51
134.9999999999901
  0
ARC
  5
61D
330
18
100
AcDbEntity
  8
1
  6
Continuous
100
AcDbCircle
 10
169.3826575671346
 20
149.5186072045139
 30
0.0
 40
5.5
100
AcDbArc
 50
90.0
 51
134.9999999999901
  0
LINE
  5
61E
330
18
100
AcDbEntity
  8
1
  6
Continuous
100
AcDbLine
 10
165.4935702706098
 20
153.4076945010403
 30
0.0
 11
163.56894906815
 21
151.4830732985814
 31
0.0
  0
LINE
  5
624
330
18
100
AcDbEntity
  8
1
  6
Continuous
100
AcDbLine
 10
181.1066083485877
 20
138.447816129222
 30
0.0
 11
181.1066083485877
 21
143.4325440303125
 31
0.0
  0
ARC
  5
632
330
18
100
AcDbEntity
  8
1
  6
Continuous
100
AcDbCircle
 10
283.1307070951778
 20
153.603886600344
 30
0.0
 40
3.0
100
AcDbArc
 50
225.0000000000091
 51
270.0
  0
LINE
  5
633
330
18
100
AcDbEntity
  8
1
  6
Continuous
100
AcDbLine
 10
277.316998596193
 20
151.6394205062766
 30
0.0
 11
279.2416197986518
 21
149.714799303818
 31
0.0
  0
LINE
  5
634
330
18
100
AcDbEntity
  8
1
  6
Continuous
100
AcDbLine
 10
305.7656766554297
 20
143.2732142223584
 30
0.0
 11
305.7656766554297
 21
151.4350660201258
 31
0.0
  0
LINE
  5
63A
330
18
100
AcDbEntity
  8
1
  6
Continuous
100
AcDbLine
 10
269.4560858927191
 20
138.1988586071555
 30
0.0
 11
269.4560858927191
 21
143.6815015523785
 31
0.0
  0
LINE
  5
63B
330
18
100
AcDbEntity
  8
1
  6
Continuous
100
AcDbLine
 10
269.4560858927191
 20
139.6896730379709
 30
0.0
 11
275.1956782526335
 21
139.6896730379709
 31
0.0
  0
LINE
  5
63C
330
18
100
AcDbEntity
  8
1
  6
Continuous
100
AcDbLine
 10
269.4560858927191
 20
142.1896730379709
 30
0.0
 11
275.1956782526335
 21
142.1896730379709
 31
0.0
  0
LINE
  5
64A
330
18
100
AcDbEntity
  8
1
  6
Continuous
100
AcDbLine
 10
269.4560858927191
 20
151.2762432539681
 30
0.0
 11
269.4560858927191
 21
156.2609711550584
 31
0.0
  0
LINE
  5
64F
330
18
100
AcDbEntity
  8
1
  6
Continuous
100
AcDbLine
 10
283.1307070951778
 20
148.103886600344
 30
0.0
 11
299.2515855278187
 21
148.103886600344
 31
0.0
  0
LINE
  5
650
330
18
100
AcDbEntity
  8
1
  6
Continuous
100
AcDbLine
 10
283.1307070951778
 20
150.603886600344
 30
0.0
 11
299.2515855278187
 21
150.603886600344
 31
0.0
  0
LINE
  5
651
330
18
100
AcDbEntity
  8
1
  6
Continuous
100
AcDbLine
 10
283.1307070951778
 20
146.603886600344
 30
0.0
 11
299.2515855278559
 21
146.603886600344
 31
0.0
  0
LINE
  5
652
330
18
100
AcDbEntity
  8
1
  6
Continuous
100
AcDbLine
 10
283.1307070951778
 20
144.103886600344
 30
0.0
 11
299.2493506162035
 21
144.103886600344
 31
0.0
  0
ARC
  5
653
330
18
100
AcDbEntity
  8
1
  6
Continuous
100
AcDbCircle
 10
275.1956782526335
 20
145.1896730379709
 30
0.0
 40
3.0
100
AcDbArc
 50
270.0
 51
314.9999999999902
  0
LINE
  5
654
330
18
100
AcDbEntity
  8
1
  6
Continuous
100
AcDbLine
 10
279.0847655491579
 20
141.3005857414442
 30
0.0
 11
281.0093867516179
 21
143.2252069439031
 31
0.0
  0
ARC
  5
655
330
18
100
AcDbEntity
  8
1
  6
Continuous
100
AcDbCircle
 10
275.1956782526335
 20
145.1896730379709
 30
0.0
 40
5.5
100
AcDbArc
 50
270.0
 51
314.9999999999902
  0
ARC
  5
656
330
18
100
AcDbEntity
  8
1
  6
Continuous
100
AcDbCircle
 10
283.1307070951778
 20
153.603886600344
 30
0.0
 40
5.5
100
AcDbArc
 50
225.0
 51
270.0
  0
ARC
  5
657
330
18
100
AcDbEntity
  8
1
  6
Continuous
100
AcDbCircle
 10
283.1307070951778
 20
141.103886600344
 30
0.0
 40
5.5
100
AcDbArc
 50
90.0
 51
134.9999999999901
  0
LINE
  5
658
330
18
100
AcDbEntity
  8
1
  6
Continuous
100
AcDbLine
 10
277.316998596194
 20
143.0683526944116
 30
0.0
 11
279.2416197986519
 21
144.9929738968702
 31
0.0
  0
ARC
  5
659
330
18
100
AcDbEntity
  8
1
  6
Continuous
100
AcDbCircle
 10
283.1307070951778
 20
141.103886600344
 30
0.0
 40
3.0
100
AcDbArc
 50
90.0
 51
134.9999999999901
  0
LINE
  5
65A
330
18
100
AcDbEntity
  8
1
  6
Continuous
100
AcDbLine
 10
314.275650633671
 20
144.8308466211122
 30
0.0
 11
305.7656766554297
 21
144.8308466211122
 31
0.0
  0
LINE
  5
65B
330
18
100
AcDbEntity
  8
1
  6
Continuous
100
AcDbLine
 10
313.6108703214919
 20
147.3541401212421
 30
0.0
 11
305.7656766554297
 21
147.3541401212421
 31
0.0
  0
LINE
  5
65C
330
18
100
AcDbEntity
  8
1
  6
Continuous
100
AcDbLine
 10
312.9460900093118
 20
149.877433621372
 30
0.0
 11
305.7656766554295
 21
149.8774336213717
 31
0.0
  0
LINE
  5
65D
330
18
100
AcDbEntity
  8
1
  6
Continuous
100
AcDbLine
 10
313.6108703214905
 20
143.2732142223584
 30
0.0
 11
305.7656766554295
 21
143.2732142223584
 31
0.0
  0
LINE
  5
65E
330
18
100
AcDbEntity
  8
1
  6
Continuous
100
AcDbLine
 10
300.4471157046201
 20
148.103886600344
 30
0.0
 11
305.7656766554297
 21
148.103886600344
 31
0.0
  0
LINE
  5
65F
330
18
100
AcDbEntity
  8
1
  6
Continuous
100
AcDbLine
 10
300.4493506162032
 20
150.6038866003438
 30
0.0
 11
305.7656766554295
 21
150.6038866003438
 31
0.0
  0
LINE
  5
660
330
18
100
AcDbEntity
  8
1
  6
Continuous
100
AcDbLine
 10
300.4493506162036
 20
146.603886600344
 30
0.0
 11
305.7656766554297
 21
146.603886600344
 31
0.0
  0
LINE
  5
661
330
18
100
AcDbEntity
  8
1
  6
Continuous
100
AcDbLine
 10
300.4471157046145
 20
144.1038866003438
 30
0.0
 11
305.7656766554295
 21
144.1038866003438
 31
0.0
  0
LINE
  5
666
330
18
100
AcDbEntity
  8
1
  6
Continuous
100
AcDbLine
 10
269.4560858927191
 20
152.5181001627171
 30
0.0
 11
275.1956782526335
 21
152.5181001627171
 31
0.0
  0
LINE
  5
667
330
18
100
AcDbEntity
  8
1
  6
Continuous
100
AcDbLine
 10
269.4560858927191
 20
155.0181001627171
 30
0.0
 11
275.1956782526335
 21
155.0181001627171
 31
0.0
  0
LINE
  5
66D
330
18
100
AcDbEntity
  8
1
  6
Continuous
100
AcDbLine
 10
279.0847655491584
 20
153.4071874592435
 30
0.0
 11
281.0093867516183
 21
151.4825662567844
 31
0.0
  0
ARC
  5
66E
330
18
100
AcDbEntity
  8
1
  6
Continuous
100
AcDbCircle
 10
275.1956782526335
 20
149.5181001627171
 30
0.0
 40
5.5
100
AcDbArc
 50
45.00000000000921
 51
90.0
  0
ARC
  5
66F
330
18
100
AcDbEntity
  8
1
  6
Continuous
100
AcDbCircle
 10
275.1956782526335
 20
149.5181001627171
 30
0.0
 40
3.0
100
AcDbArc
 50
45.00000000000921
 51
90.0
  0
LINE
  5
670
330
18
100
AcDbEntity
  8
1
  6
Continuous
100
AcDbLine
 10
305.7656766554297
 20
151.4350660201258
 30
0.0
 11
313.6108703214918
 21
151.4350660201258
 31
0.0
  0
LINE
  5
672
330
18
100
AcDbEntity
  8
1
  6
Continuous
100
AcDbLine
 10
395.7953252488989
 20
179.5348153386614
 30
0.0
 11
428.7519143584525
 21
179.5348153386614
 31
0.0
  0
LINE
  5
673
330
18
100
AcDbEntity
  8
1
  6
Continuous
100
AcDbLine
 10
420.7766539417856
 20
176.0458607371556
 30
0.0
 11
408.7579623530008
 21
176.0458607371556
 31
0.0
  0
LINE
  5
674
330
18
100
AcDbEntity
  8
1
  6
Continuous
100
AcDbLine
 10
396.7953252488988
 20
178.0395490808734
 30
0.0
 11
427.7519143584525
 21
178.0395490808727
 31
0.0
  0
LINE
  5
678
330
18
100
AcDbEntity
  8
1
  6
Continuous
100
AcDbLine
 10
428.7519143584525
 20
140.5316392288482
 30
0.0
 11
395.795325248899
 21
140.5316392288484
 31
0.0
  0
LINE
  5
67B
330
18
100
AcDbEntity
  8
4
  6
CENTER
 48
0.3
100
AcDbLine
 10
328.7658417825179
 20
160.0332272837549
 30
0.0
 11
441.7658417825178
 21
160.0332272837551
 31
0.0
  0
LINE
  5
67F
330
18
100
AcDbEntity
  8
1
  6
Continuous
100
AcDbLine
 10
395.7953252488989
 20
180.0332374245906
 30
0.0
 11
395.7953252488989
 21
140.0332171429188
 31
0.0
  0
LINE
  5
680
330
18
100
AcDbEntity
  8
1
  6
Continuous
100
AcDbLine
 10
393.2408486782863
 20
177.4163947130125
 30
0.0
 11
393.2408486782863
 21
142.4011023324308
 31
0.0
  0
LINE
  5
682
330
18
100
AcDbEntity
  8
1
  6
Continuous
100
AcDbLine
 10
340.2813471206541
 20
140.0332171429188
 30
0.0
 11
340.2813471206541
 21
180.0332374245906
 31
0.0
  0
LINE
  5
683
330
18
100
AcDbEntity
  8
1
  6
Continuous
100
AcDbLine
 10
342.2750354643716
 20
142.4011023324308
 30
0.0
 11
342.2750354643716
 21
177.4163947130125
 31
0.0
  0
LINE
  5
684
330
18
100
AcDbEntity
  8
1
  6
Continuous
100
AcDbLine
 10
407.7579623530009
 20
164.083223633054
 30
0.0
 11
407.7579623530011
 21
177.0395490808732
 31
0.0
  0
LINE
  5
685
330
18
100
AcDbEntity
  8
1
  6
Continuous
100
AcDbLine
 10
395.7953252488989
 20
140.0332171429188
 30
0.0
 11
340.2813471206541
 21
140.0332171429188
 31
0.0
  0
LINE
  5
686
330
18
100
AcDbEntity
  8
1
  6
Continuous
100
AcDbLine
 10
393.2408486782863
 20
142.4011023324308
 30
0.0
 11
342.2750354643716
 21
142.4011023324308
 31
0.0
  0
LINE
  5
689
330
18
100
AcDbEntity
  8
1
  6
Continuous
100
AcDbLine
 10
340.2813471206541
 20
142.5332272837547
 30
0.0
 11
333.2658417825182
 21
142.5332272837547
 31
0.0
  0
LINE
  5
68C
330
18
100
AcDbEntity
  8
4
  6
CENTER
 48
0.3
100
AcDbLine
 10
334.2658417825179
 20
163.5332272837548
 30
0.0
 11
334.2658417825179
 21
156.5332272837548
 31
0.0
  0
ARC
  5
68D
330
18
100
AcDbEntity
  8
1
  6
Continuous
100
AcDbCircle
 10
333.2658417825182
 20
160.0332272837547
 30
0.0
 40
2.0
100
AcDbArc
 50
90.0
 51
270.0
  0
ARC
  5
68E
330
18
100
AcDbEntity
  8
1
  6
Continuous
100
AcDbCircle
 10
335.2658417825182
 20
160.0332272837547
 30
0.0
 40
2.0
100
AcDbArc
 50
270.0
 51
90.0
  0
LINE
  5
68F
330
18
100
AcDbEntity
  8
1
  6
Continuous
100
AcDbLine
 10
330.2658417825182
 20
151.4350660201256
 30
0.0
 11
330.2658417825182
 21
174.533227283755
 31
0.0
  0
LINE
  5
692
330
18
100
AcDbEntity
  8
1
  6
Continuous
100
AcDbLine
 10
339.471094329896
 20
169.0050783513821
 30
0.0
 11
339.471094329896
 21
163.0235062784328
 31
0.0
  0
LINE
  5
694
330
18
100
AcDbEntity
  8
1
  6
Continuous
100
AcDbLine
 10
340.2813471206541
 20
169.0050783513821
 30
0.0
 11
339.471094329896
 21
169.0050783513821
 31
0.0
  0
LINE
  5
69D
330
18
100
AcDbEntity
  8
1
  6
Continuous
100
AcDbLine
 10
333.2658417825182
 20
158.0332272837547
 30
0.0
 11
335.2658417825182
 21
158.0332272837547
 31
0.0
  0
LINE
  5
69F
330
18
100
AcDbEntity
  8
1
  6
Continuous
100
AcDbLine
 10
339.471094329896
 20
163.0235062784328
 30
0.0
 11
340.2813471206541
 21
163.0235062784328
 31
0.0
  0
LINE
  5
6A5
330
18
100
AcDbEntity
  8
1
  6
Continuous
100
AcDbLine
 10
333.2658417825182
 20
162.0332272837547
 30
0.0
 11
335.2658417825182
 21
162.0332272837547
 31
0.0
  0
LINE
  5
6A6
330
18
100
AcDbEntity
  8
1
  6
Continuous
100
AcDbLine
 10
407.7579623530009
 20
156.0461041172182
 30
0.0
 11
407.7579623530009
 21
143.0269054866369
 31
0.0
  0
LINE
  5
6B0
330
18
100
AcDbEntity
  8
1
  6
Continuous
100
AcDbLine
 10
406.2626960952123
 20
164.083223633054
 30
0.0
 11
406.2626960952123
 21
156.0461041172182
 31
0.0
  0
LINE
  5
6C2
330
18
100
AcDbEntity
  8
1
  6
Continuous
100
AcDbLine
 10
406.2626960952123
 20
156.0461041172179
 30
0.0
 11
407.7579623530007
 21
156.0461041172179
 31
0.0
  0
LINE
  5
6C4
330
18
100
AcDbEntity
  8
1
  6
Continuous
100
AcDbLine
 10
396.7926764625541
 20
176.0458607371556
 30
0.0
 11
406.7579623530011
 21
176.0458607371553
 31
0.0
  0
LINE
  5
6C9
330
18
100
AcDbEntity
  8
1
  6
Continuous
100
AcDbLine
 10
406.2626960952123
 20
164.0832236330538
 30
0.0
 11
407.7579623530007
 21
164.0832236330538
 31
0.0
  0
LINE
  5
6D0
330
18
100
AcDbEntity
  8
1
  6
Continuous
100
AcDbLine
 10
340.2813471206541
 20
180.0332374245906
 30
0.0
 11
395.7953252488989
 21
180.0332374245906
 31
0.0
  0
LINE
  5
6D1
330
18
100
AcDbEntity
  8
1
  6
Continuous
100
AcDbLine
 10
342.2750354643716
 20
177.4163947130125
 30
0.0
 11
393.2408486782863
 21
177.4163947130125
 31
0.0
  0
LINE
  5
6D3
330
18
100
AcDbEntity
  8
1
  6
Continuous
100
AcDbLine
 10
340.2813471206541
 20
177.5332272837547
 30
0.0
 11
333.2563742980943
 21
177.5332272837547
 31
0.0
  0
LINE
  5
6E2
330
18
100
AcDbEntity
  8
1
  6
Continuous
100
AcDbLine
 10
428.2566481006642
 20
163.0863794611951
 30
0.0
 11
428.2566481006641
 21
177.0395490808727
 31
0.0
  0
LINE
  5
6E5
330
18
100
AcDbEntity
  8
1
  6
Continuous
100
AcDbLine
 10
428.2566481006641
 20
157.0429482890767
 30
0.0
 11
428.2566481006639
 21
143.0269054866375
 31
0.0
  0
LINE
  5
6E6
330
18
100
AcDbEntity
  8
1
  6
Continuous
100
AcDbLine
 10
429.7519143584525
 20
178.0395490808732
 30
0.0
 11
429.7519143584525
 21
142.0269054866375
 31
0.0
  0
LINE
  5
6E7
330
18
100
AcDbEntity
  8
1
  6
Continuous
100
AcDbLine
 10
429.7519143584525
 20
142.5332272837547
 30
0.0
 11
437.2658417825181
 21
142.5332272837547
 31
0.0
  0
LINE
  5
6F0
330
18
100
AcDbEntity
  8
1
  6
Continuous
100
AcDbLine
 10
428.7519143584525
 20
142.0274125284329
 30
0.0
 11
428.7519143584525
 21
140.5316392288482
 31
0.0
  0
LINE
  5
6F4
330
18
100
AcDbEntity
  8
1
  6
Continuous
100
AcDbLine
 10
435.2658417825181
 20
158.0332272837547
 30
0.0
 11
437.2658417825181
 21
158.0332272837547
 31
0.0
  0
LINE
  5
6F5
330
18
100
AcDbEntity
  8
1
  6
Continuous
100
AcDbLine
 10
435.2658417825181
 20
162.0332272837547
 30
0.0
 11
437.2658417825181
 21
162.0332272837547
 31
0.0
  0
CIRCLE
  5
6F7
330
18
100
AcDbEntity
  8
1
  6
Continuous
100
AcDbCircle
 10
424.2692714132293
 20
160.0332272837551
 30
0.0
 40
3.0
  0
LINE
  5
6F8
330
18
100
AcDbEntity
  8
1
  6
Continuous
100
AcDbLine
 10
428.2566481006642
 20
163.086379461195
 30
0.0
 11
429.7519143584524
 21
160.0334808046529
 31
0.0
  0
LINE
  5
6FB
330
18
100
AcDbEntity
  8
1
  6
Continuous
100
AcDbLine
 10
414.7987447387746
 20
150.5645320442688
 30
0.0
 11
414.7987447387746
 21
169.564795706003
 31
0.0
  0
LINE
  5
6FC
330
18
100
AcDbEntity
  8
1
  6
Continuous
100
AcDbLine
 10
419.5963742169674
 20
169.564795706003
 30
0.0
 11
419.5963742169674
 21
150.5645320442688
 31
0.0
  0
ARC
  5
6FD
330
18
100
AcDbEntity
  8
1
  6
Continuous
100
AcDbCircle
 10
435.2658417825181
 20
160.0332272837547
 30
0.0
 40
2.0
100
AcDbArc
 50
90.0
 51
270.0
  0
LINE
  5
700
330
18
100
AcDbEntity
  8
1
  6
Continuous
100
AcDbLine
 10
415.2971668247038
 20
150.5629541301982
 30
0.0
 11
415.2971668247038
 21
169.5658665782773
 31
0.0
  0
LINE
  5
701
330
18
100
AcDbEntity
  8
1
  6
Continuous
100
AcDbLine
 10
419.0979521310381
 20
169.5658665782773
 30
0.0
 11
419.0979521310381
 21
150.5629541301982
 31
0.0
  0
LINE
  5
703
330
18
100
AcDbEntity
  8
1
  6
Continuous
100
AcDbLine
 10
421.7766539417856
 20
158.3638387307054
 30
0.0
 11
421.7766539417856
 21
145.0205938303546
 31
0.0
  0
LINE
  5
704
330
18
100
AcDbEntity
  8
1
  6
Continuous
100
AcDbLine
 10
417.7892772543506
 20
158.9742704918287
 30
0.0
 11
417.7892772543506
 21
150.5629541301982
 31
0.0
  0
LINE
  5
705
330
18
100
AcDbEntity
  8
1
  6
Continuous
100
AcDbLine
 10
416.5434755604256
 20
158.9742704918287
 30
0.0
 11
416.5434755604256
 21
150.5629541301982
 31
0.0
  0
LINE
  5
706
330
18
100
AcDbEntity
  8
1
  6
Continuous
100
AcDbLine
 10
419.0963742169674
 20
150.0645320442688
 30
0.0
 11
415.2987447387746
 21
150.0645320442688
 31
0.0
  0
LINE
  5
707
330
18
100
AcDbEntity
  8
1
  6
Continuous
100
AcDbLine
 10
419.0979521310381
 20
150.5629541301982
 30
0.0
 11
415.2971668247038
 21
150.5629541301982
 31
0.0
  0
LINE
  5
714
330
18
100
AcDbEntity
  8
1
  6
Continuous
100
AcDbLine
 10
418.2738659913515
 20
159.4726925777579
 30
0.0
 11
419.0979521310381
 21
159.4726925777579
 31
0.0
  0
LINE
  5
715
330
18
100
AcDbEntity
  8
1
  6
Continuous
100
AcDbLine
 10
416.0588868234247
 20
159.4726925777579
 30
0.0
 11
415.2971668247038
 21
159.4726925777579
 31
0.0
  0
LINE
  5
72F
330
18
100
AcDbEntity
  8
1
  6
Continuous
100
AcDbLine
 10
429.7519143584522
 20
160.0334808046534
 30
0.0
 11
428.2566481006639
 21
157.042948289077
 31
0.0
  0
LINE
  5
731
330
18
100
AcDbEntity
  8
1
  6
Continuous
100
AcDbLine
 10
421.7766539417858
 20
161.702615836805
 30
0.0
 11
421.7766539417856
 21
175.0458607371556
 31
0.0
  0
LINE
  5
732
330
18
100
AcDbEntity
  8
1
  6
Continuous
100
AcDbLine
 10
417.7892772543506
 20
169.5658665782773
 30
0.0
 11
417.7892772543506
 21
161.1550572584433
 31
0.0
  0
LINE
  5
733
330
18
100
AcDbEntity
  8
1
  6
Continuous
100
AcDbLine
 10
416.5434755604256
 20
169.5658665782773
 30
0.0
 11
416.5434755604256
 21
161.1550572584433
 31
0.0
  0
LINE
  5
735
330
18
100
AcDbEntity
  8
1
  6
Continuous
100
AcDbLine
 10
418.2738659913516
 20
160.6566351725139
 30
0.0
 11
419.0979521310381
 21
160.6566351725139
 31
0.0
  0
LINE
  5
736
330
18
100
AcDbEntity
  8
1
  6
Continuous
100
AcDbLine
 10
416.0588868234246
 20
160.6566351725139
 30
0.0
 11
415.2971668247038
 21
160.6566351725139
 31
0.0
  0
LINE
  5
743
330
18
100
AcDbEntity
  8
1
  6
Continuous
100
AcDbLine
 10
415.2987447387746
 20
170.0647957060029
 30
0.0
 11
419.0963742169675
 21
170.064795706003
 31
0.0
  0
LINE
  5
744
330
18
100
AcDbEntity
  8
1
  6
Continuous
100
AcDbLine
 10
415.2971668247038
 20
169.5658665782773
 30
0.0
 11
419.0979521310381
 21
169.5658665782773
 31
0.0
  0
LINE
  5
755
330
18
100
AcDbEntity
  8
1
  6
Continuous
100
AcDbLine
 10
440.2658417825182
 20
174.5332272837547
 30
0.0
 11
440.2658417825182
 21
145.5332272837547
 31
0.0
  0
ARC
  5
756
330
18
100
AcDbEntity
  8
1
  6
Continuous
100
AcDbCircle
 10
437.2658417825181
 20
160.0332272837547
 30
0.0
 40
2.0
100
AcDbArc
 50
270.0
 51
90.0
  0
LINE
  5
757
330
18
100
AcDbEntity
  8
4
  6
CENTER
 48
0.3
100
AcDbLine
 10
436.2658417825177
 20
163.5332272837548
 30
0.0
 11
436.2658417825177
 21
156.5332272837548
 31
0.0
  0
LINE
  5
75C
330
18
100
AcDbEntity
  8
1
  6
Continuous
100
AcDbLine
 10
429.7519143584525
 20
177.5332272837547
 30
0.0
 11
437.2658417825181
 21
177.5332272837547
 31
0.0
  0
LINE
  5
765
330
18
100
AcDbEntity
  8
1
  6
Continuous
100
AcDbLine
 10
428.7550701865938
 20
178.0395490808732
 30
0.0
 11
429.7519143584525
 21
178.0395490808732
 31
0.0
  0
ARC
  5
B41
330
18
100
AcDbEntity
  8
1
  6
Continuous
 48
0.25
100
AcDbCircle
 10
338.711094329896
 20
59.52458030127013
 30
0.0
 40
1.0
100
AcDbArc
 50
95.00009999999985
 51
163.743
  0
LINE
  5
B42
330
18
100
AcDbEntity
  8
1
  6
Continuous
 48
0.25
100
AcDbLine
 10
338.6038839949549
 20
55.17034393898907
 30
0.0
 11
339.471094329896
 21
55.09466756542099
 31
0.0
  0
ARC
  5
B43
330
18
100
AcDbEntity
  8
1
  6
Continuous
 48
0.25
100
AcDbCircle
 10
338.711094329896
 20
56.16458030127011
 30
0.0
 40
1.0
100
AcDbArc
 50
196.2569999999999
 51
265.0000000000002
  0
ARC
  5
B44
330
18
100
AcDbEntity
  8
1
  6
Continuous
 48
0.25
100
AcDbCircle
 10
344.4710943298958
 20
57.84458030127008
 30
0.0
 40
7.0
100
AcDbArc
 50
163.743
 51
196.2569999999999
  0
LINE
  5
B45
330
18
100
AcDbEntity
  8
1
  6
Continuous
 48
0.25
100
AcDbLine
 10
338.624094329896
 20
60.52058030127011
 30
0.0
 11
339.471094329896
 21
60.59449303711911
 31
0.0
  0
ARC
  5
B46
330
18
100
AcDbEntity
  8
1
  6
Continuous
100
AcDbCircle
 10
351.7984810770403
 20
65.32773028828981
 30
0.0
 40
2.0
100
AcDbArc
 50
180.0
 51
270.0
  0
ARC
  5
B49
330
18
100
AcDbEntity
  8
1
  6
Continuous
100
AcDbCircle
 10
375.8054113243143
 20
77.81315385072478
 30
0.0
 40
1.028500070433296
100
AcDbArc
 50
1.737415702419266
 51
178.2625842975807
  0
ARC
  5
B4A
330
18
100
AcDbEntity
  8
1
  6
Continuous
100
AcDbCircle
 10
375.8054113243145
 20
77.81182479320229
 30
0.0
 40
2.523502947544232
100
AcDbArc
 50
0.7382037172128934
 51
72.02966289320119
  0
ARC
  5
B4D
330
18
100
AcDbEntity
  8
1
  6
Continuous
100
AcDbCircle
 10
375.8054113243145
 20
77.81182479320229
 30
0.0
 40
2.523502947544232
100
AcDbArc
 50
108.0127439402239
 51
179.2617962827871
  0
ARC
  5
B4E
330
18
100
AcDbEntity
  8
1
  6
Continuous
100
AcDbCircle
 10
384.7775159128401
 20
73.88947236177795
 30
0.0
 40
2.523502947544232
100
AcDbArc
 50
180.7382037172128
 51
252.0296628932012
  0
ARC
  5
B50
330
18
100
AcDbEntity
  8
1
  6
Continuous
100
AcDbCircle
 10
384.7775159128401
 20
73.88947236177795
 30
0.0
 40
2.523502947544232
100
AcDbArc
 50
288.012743940224
 51
359.261796282787
  0
ARC
  5
B51
330
18
100
AcDbEntity
  8
1
  6
Continuous
100
AcDbCircle
 10
384.7775159128403
 20
73.88814330425545
 30
0.0
 40
1.028500070433296
100
AcDbArc
 50
181.7374157024192
 51
358.2625842975807
  0
ARC
  5
B52
330
18
100
AcDbEntity
  8
1
  6
Continuous
100
AcDbCircle
 10
392.7984810770404
 20
65.32773028828981
 30
0.0
 40
2.0
100
AcDbArc
 50
270.0
 51
0.0
  0
ARC
  5
B54
330
18
100
AcDbEntity
  8
1
  6
Continuous
100
AcDbCircle
 10
333.2658417825182
 20
174.533227283755
 30
0.0
 40
3.0
100
AcDbArc
 50
90.00000000000005
 51
180.0
  0
ARC
  5
B55
330
18
100
AcDbEntity
  8
1
  6
Continuous
100
AcDbCircle
 10
333.2658417825182
 20
145.5332272837547
 30
0.0
 40
3.0
100
AcDbArc
 50
228.8803317662505
 51
270.0
  0
ARC
  5
B56
330
18
100
AcDbEntity
  8
1
  6
Continuous
100
AcDbCircle
 10
437.2658417825181
 20
145.5332272837547
 30
0.0
 40
3.0
100
AcDbArc
 50
270.0
 51
0.0
  0
ARC
  5
B57
330
18
100
AcDbEntity
  8
1
  6
Continuous
100
AcDbCircle
 10
437.2658417825181
 20
174.5332272837547
 30
0.0
 40
3.0
100
AcDbArc
 50
0.0
 51
90.0
  0
ARC
  5
B59
330
18
100
AcDbEntity
  8
1
  6
Continuous
100
AcDbCircle
 10
408.7579623530008
 20
175.0458607371556
 30
0.0
 40
1.0
100
AcDbArc
 50
90.0
 51
180.0
  0
ARC
  5
B5A
330
18
100
AcDbEntity
  8
1
  6
Continuous
100
AcDbCircle
 10
406.7579623530011
 20
175.0458607371554
 30
0.0
 40
1.0
100
AcDbArc
 50
359.9999999999997
 51
89.9999999999987
  0
ARC
  5
B5B
330
18
100
AcDbEntity
  8
1
  6
Continuous
100
AcDbCircle
 10
408.7579623530011
 20
177.0395490808732
 30
0.0
 40
1.0
100
AcDbArc
 50
90.0
 51
179.9999999999994
  0
ARC
  5
B5C
330
18
100
AcDbEntity
  8
1
  6
Continuous
100
AcDbCircle
 10
406.7579623530011
 20
177.0395490808732
 30
0.0
 40
1.0
100
AcDbArc
 50
359.9999999999992
 51
89.99999999999992
  0
ARC
  5
B5D
330
18
100
AcDbEntity
  8
1
  6
Continuous
100
AcDbCircle
 10
427.2566481006641
 20
177.0395490808727
 30
0.0
 40
1.0
100
AcDbArc
 50
0.0
 51
89.99999999999859
  0
ARC
  5
B5E
330
18
100
AcDbEntity
  8
1
  6
Continuous
100
AcDbCircle
 10
396.7953252488988
 20
177.0395490808732
 30
0.0
 40
1.0
100
AcDbArc
 50
90.0
 51
179.9999999999994
  0
ARC
  5
B5F
330
18
100
AcDbEntity
  8
1
  6
Continuous
100
AcDbCircle
 10
420.7766539417856
 20
175.0458607371556
 30
0.0
 40
1.0
100
AcDbArc
 50
0.0
 51
90.0
  0
ARC
  5
B60
330
18
100
AcDbEntity
  8
1
  6
Continuous
100
AcDbCircle
 10
396.7953252488988
 20
175.0458607371556
 30
0.0
 40
1.0
100
AcDbArc
 50
90.0
 51
180.0
  0
ARC
  5
B61
330
18
100
AcDbEntity
  8
1
  6
Continuous
100
AcDbCircle
 10
396.7953252488988
 20
145.0205938303546
 30
0.0
 40
1.0
100
AcDbArc
 50
180.0
 51
270.0
  0
ARC
  5
B62
330
18
100
AcDbEntity
  8
1
  6
Continuous
100
AcDbCircle
 10
396.7953252488988
 20
143.0269054866369
 30
0.0
 40
1.0
100
AcDbArc
 50
180.0000000000006
 51
270.0
  0
LINE
  5
B63
330
18
100
AcDbEntity
  8
1
  6
Continuous
100
AcDbLine
 10
396.7926764625541
 20
144.0205938303546
 30
0.0
 11
406.7579623530011
 21
144.0205938303548
 31
0.0
  0
LINE
  5
B64
330
18
100
AcDbEntity
  8
1
  6
Continuous
100
AcDbLine
 10
396.7953252488988
 20
142.0269054866368
 30
0.0
 11
429.7519143584525
 21
142.0269054866375
 31
0.0
  0
ARC
  5
B65
330
18
100
AcDbEntity
  8
1
  6
Continuous
100
AcDbCircle
 10
406.7579623530011
 20
143.026905486637
 30
0.0
 40
1.0
100
AcDbArc
 50
270.0000000000001
 51
0.0000000000007774
  0
ARC
  5
B66
330
18
100
AcDbEntity
  8
1
  6
Continuous
100
AcDbCircle
 10
408.7579623530011
 20
143.0269054866369
 30
0.0
 40
1.0
100
AcDbArc
 50
180.0000000000006
 51
270.0
  0
ARC
  5
B67
330
18
100
AcDbEntity
  8
1
  6
Continuous
100
AcDbCircle
 10
406.7579623530011
 20
145.0205938303548
 30
0.0
 40
1.0
100
AcDbArc
 50
270.0000000000013
 51
0.0000000000003194
  0
ARC
  5
B68
330
18
100
AcDbEntity
  8
1
  6
Continuous
100
AcDbCircle
 10
408.7579623530008
 20
145.0205938303546
 30
0.0
 40
1.0
100
AcDbArc
 50
180.0
 51
270.0
  0
LINE
  5
B69
330
18
100
AcDbEntity
  8
1
  6
Continuous
100
AcDbLine
 10
420.7766539417856
 20
144.0205938303546
 30
0.0
 11
408.7579623530008
 21
144.0205938303546
 31
0.0
  0
ARC
  5
B6A
330
18
100
AcDbEntity
  8
1
  6
Continuous
100
AcDbCircle
 10
420.7766539417856
 20
145.0205938303546
 30
0.0
 40
1.0
100
AcDbArc
 50
270.0
 51
0.0
  0
ARC
  5
B6B
330
18
100
AcDbEntity
  8
1
  6
Continuous
100
AcDbCircle
 10
427.2566481006641
 20
143.0269054866375
 30
0.0
 40
1.0
100
AcDbArc
 50
270.0000000000014
 51
0.0
  0
ARC
  5
B6C
330
18
100
AcDbEntity
  8
1
  6
Continuous
100
AcDbCircle
 10
427.7519143584525
 20
144.0269054866375
 30
0.0
 40
2.0
100
AcDbArc
 50
270.0000000000014
 51
0.0
  0
ARC
  5
B6D
330
18
100
AcDbEntity
  8
1
  6
Continuous
100
AcDbCircle
 10
427.7519143584525
 20
176.0395490808727
 30
0.0
 40
2.0
100
AcDbArc
 50
0.0
 51
89.99999999999859
  0
CIRCLE
  5
B6E
330
18
100
AcDbEntity
  8
1
  6
Continuous
100
AcDbCircle
 10
417.1663764073882
 20
160.064663875136
 30
0.0
 40
1.255771952030624
  0
ARC
  5
B6F
330
18
100
AcDbEntity
  8
1
  6
Continuous
100
AcDbCircle
 10
419.0963742169674
 20
150.5645320442688
 30
0.0
 40
0.5
100
AcDbArc
 50
270.0
 51
0.0
  0
ARC
  5
B70
330
18
100
AcDbEntity
  8
1
  6
Continuous
100
AcDbCircle
 10
415.2987447387746
 20
150.5645320442688
 30
0.0
 40
0.5
100
AcDbArc
 50
180.0
 51
269.9999999999996
  0
ARC
  5
B71
330
18
100
AcDbEntity
  8
1
  6
Continuous
100
AcDbCircle
 10
415.2987447387746
 20
169.564795706003
 30
0.0
 40
0.5
100
AcDbArc
 50
90.0
 51
180.0
  0
ARC
  5
B72
330
18
100
AcDbEntity
  8
1
  6
Continuous
100
AcDbCircle
 10
419.0963742169675
 20
169.564795706003
 30
0.0
 40
0.5
100
AcDbArc
 50
359.9999999999996
 51
90.0
  0
LINE
  5
B73
330
18
100
AcDbEntity
  8
1
  6
Continuous
 48
0.25
100
AcDbLine
 10
424.7069705107838
 20
161.0818666402548
 30
0.0
 11
425.2104305389886
 21
161.5683561057112
 31
0.0
  0
LINE
  5
B74
330
18
100
AcDbEntity
  8
1
  6
Continuous
 48
0.25
100
AcDbLine
 10
424.7062634040025
 20
158.9852950340367
 30
0.0
 11
425.2097234322075
 21
158.4988055685804
 31
0.0
  0
LINE
  5
B75
330
18
100
AcDbEntity
  8
1
  6
Continuous
 48
0.25
100
AcDbLine
 10
424.2692714132293
 20
160.9227676144878
 30
0.0
 11
424.7069705107838
 21
161.0818666402548
 31
0.0
  0
LINE
  5
B76
330
18
100
AcDbEntity
  8
1
  6
Continuous
 48
0.25
100
AcDbLine
 10
423.8329865292372
 20
161.0818666402548
 30
0.0
 11
423.3288193942513
 21
161.56764899893
 31
0.0
  0
LINE
  5
B77
330
18
100
AcDbEntity
  8
1
  6
Continuous
 48
0.25
100
AcDbLine
 10
424.2692714132293
 20
160.9227676144878
 30
0.0
 11
423.8329865292372
 21
161.0818666402548
 31
0.0
  0
ARC
  5
B78
330
18
100
AcDbEntity
  8
1
  6
Continuous
 48
0.25
100
AcDbCircle
 10
424.2692714132293
 20
160.0332272837551
 30
0.0
 40
1.8
100
AcDbArc
 50
121.506599999999
 51
148.4930000000004
  0
LINE
  5
B79
330
18
100
AcDbEntity
  8
1
  6
Continuous
 48
0.25
100
AcDbLine
 10
423.3804381892778
 20
160.0339343905364
 30
0.0
 11
423.2213391635109
 21
160.4702192745285
 31
0.0
  0
LINE
  5
B7A
330
18
100
AcDbEntity
  8
1
  6
Continuous
 48
0.25
100
AcDbLine
 10
423.3804381892778
 20
160.0339343905364
 30
0.0
 11
423.2213391635109
 21
159.5962352929819
 31
0.0
  0
LINE
  5
B7B
330
18
100
AcDbEntity
  8
1
  6
Continuous
 48
0.25
100
AcDbLine
 10
423.832279422456
 20
158.9852950340367
 30
0.0
 11
423.3288193942511
 21
158.4988055685804
 31
0.0
  0
LINE
  5
B7C
330
18
100
AcDbEntity
  8
1
  6
Continuous
 48
0.25
100
AcDbLine
 10
424.2699785200106
 20
159.1443940598038
 30
0.0
 11
423.832279422456
 21
158.9852950340367
 31
0.0
  0
LINE
  5
B7D
330
18
100
AcDbEntity
  8
1
  6
Continuous
 48
0.25
100
AcDbLine
 10
424.2699785200106
 20
159.1443940598038
 30
0.0
 11
424.7062634040025
 21
158.9852950340367
 31
0.0
  0
LINE
  5
B7E
330
18
100
AcDbEntity
  8
1
  6
Continuous
 48
0.25
100
AcDbLine
 10
423.2213391635109
 20
159.5962352929819
 30
0.0
 11
422.7348496980544
 21
159.092775264777
 31
0.0
  0
ARC
  5
B7F
330
18
100
AcDbEntity
  8
1
  6
Continuous
 48
0.25
100
AcDbCircle
 10
424.2692714132293
 20
160.0332272837551
 30
0.0
 40
1.8
100
AcDbArc
 50
211.5069999999995
 51
238.4930000000002
  0
LINE
  5
B80
330
18
100
AcDbEntity
  8
1
  6
Continuous
 48
0.25
100
AcDbLine
 10
423.2213391635109
 20
160.4702192745285
 30
0.0
 11
422.7355568048356
 21
160.9743864095144
 31
0.0
  0
ARC
  5
B81
330
18
100
AcDbEntity
  8
1
  6
Continuous
 48
0.25
100
AcDbCircle
 10
424.2692714132293
 20
160.0332272837551
 30
0.0
 40
1.8
100
AcDbArc
 50
31.50699999999953
 51
58.49340000000086
  0
LINE
  5
B82
330
18
100
AcDbEntity
  8
1
  6
Continuous
 48
0.25
100
AcDbLine
 10
425.158811743962
 20
160.0332272837552
 30
0.0
 11
425.317910769729
 21
160.4709263813097
 31
0.0
  0
LINE
  5
B83
330
18
100
AcDbEntity
  8
1
  6
Continuous
 48
0.25
100
AcDbLine
 10
425.317910769729
 20
159.5969423997631
 30
0.0
 11
425.8036931284043
 21
159.0927752647771
 31
0.0
  0
LINE
  5
B84
330
18
100
AcDbEntity
  8
1
  6
Continuous
 48
0.25
100
AcDbLine
 10
425.158811743962
 20
160.0332272837552
 30
0.0
 11
425.317910769729
 21
159.5969423997631
 31
0.0
  0
ARC
  5
B85
330
18
100
AcDbEntity
  8
1
  6
Continuous
 48
0.25
100
AcDbCircle
 10
424.2692714132293
 20
160.0332272837551
 30
0.0
 40
1.8
100
AcDbArc
 50
301.5069999999997
 51
328.4930000000004
  0
LINE
  5
B86
330
18
100
AcDbEntity
  8
1
  6
Continuous
 48
0.25
100
AcDbLine
 10
425.317910769729
 20
160.4709263813097
 30
0.0
 11
425.8044002351853
 21
160.9743864095145
 31
0.0
  0
CIRCLE
  5
B87
330
18
100
AcDbEntity
  8
1
  6
Continuous
 48
0.25
100
AcDbCircle
 10
424.2692714132293
 20
160.0332272837551
 30
0.0
 40
2.75
  0
LINE
  5
B88
330
18
100
AcDbEntity
  8
1
  6
Continuous
 48
0.25
100
AcDbLine
 10
338.624094329896
 20
163.3382923149074
 30
0.0
 11
339.471094329896
 21
163.2643795790584
 31
0.0
  0
ARC
  5
B89
330
18
100
AcDbEntity
  8
1
  6
Continuous
 48
0.25
100
AcDbCircle
 10
344.4710943298958
 20
166.0142923149074
 30
0.0
 40
7.0
100
AcDbArc
 50
163.7430000000001
 51
196.2569999999999
  0
ARC
  5
B8A
330
18
100
AcDbEntity
  8
1
  6
Continuous
 48
0.25
100
AcDbCircle
 10
338.711094329896
 20
167.6942923149074
 30
0.0
 40
1.0
100
AcDbArc
 50
94.99999999999978
 51
163.7430000000001
  0
LINE
  5
B8B
330
18
100
AcDbEntity
  8
1
  6
Continuous
 48
0.25
100
AcDbLine
 10
338.6038839949549
 20
168.6885286771884
 30
0.0
 11
339.471094329896
 21
168.7642050507565
 31
0.0
  0
ARC
  5
B8C
330
18
100
AcDbEntity
  8
1
  6
Continuous
 48
0.25
100
AcDbCircle
 10
338.711094329896
 20
164.3342923149074
 30
0.0
 40
1.0
100
AcDbArc
 50
196.2569999999999
 51
264.9999000000001
  0
LINE
  5
B8D
330
18
100
AcDbEntity
  8
1
  6
Continuous
 48
0.25
100
AcDbLine
 10
413.4229847517564
 20
61.2144647385249
 30
0.0
 11
413.4986611253244
 21
62.08167507346605
 31
0.0
  0
LINE
  5
B8E
330
18
100
AcDbEntity
  8
1
  6
Continuous
 48
0.25
100
AcDbLine
 10
408.0727483894753
 20
61.234675073466
 30
0.0
 11
407.9988356536262
 21
62.08167507346598
 31
0.0
  0
ARC
  5
B8F
330
18
100
AcDbEntity
  8
1
  6
Continuous
 48
0.25
100
AcDbCircle
 10
409.0687483894753
 20
61.32167507346602
 30
0.0
 40
1.0
100
AcDbArc
 50
185.0000999999998
 51
253.743
  0
ARC
  5
B90
330
18
100
AcDbEntity
  8
1
  6
Continuous
 48
0.25
100
AcDbCircle
 10
412.4287483894753
 20
61.32167507346602
 30
0.0
 40
1.0
100
AcDbArc
 50
286.2569999999998
 51
355.0000000000002
  0
ARC
  5
B91
330
18
100
AcDbEntity
  8
1
  6
Continuous
 48
0.25
100
AcDbCircle
 10
410.7487483894754
 20
67.081675073466
 30
0.0
 40
7.0
100
AcDbArc
 50
253.743
 51
286.2569999999998
  0
ARC
  5
B94
330
18
100
AcDbEntity
  8
1
  6
Continuous
100
AcDbCircle
 10
428.7519143584525
 20
62.8880114733885
 30
0.0
 40
1.0
100
AcDbArc
 50
0.0
 51
89.81918406650201
  0
ARC
  5
B95
330
18
100
AcDbEntity
  8
1
  6
Continuous
100
AcDbCircle
 10
428.7519143584525
 20
64.88801147338849
 30
0.0
 40
1.0
100
AcDbArc
 50
270.1808159334979
 51
0.0
  0
ARC
  5
B96
330
18
100
AcDbEntity
  8
1
  6
Continuous
100
AcDbCircle
 10
428.7519143584525
 20
70.05933075557961
 30
0.0
 40
1.0
100
AcDbArc
 50
270.0
 51
0.0
  0
ARC
  5
B97
330
18
100
AcDbEntity
  8
1
  6
Continuous
100
AcDbCircle
 10
427.2566481006641
 20
75.5985352272826
 30
0.0
 40
1.0
100
AcDbArc
 50
0.0
 51
90.0
  0
ARC
  5
B98
330
18
100
AcDbEntity
  8
1
  6
Continuous
100
AcDbCircle
 10
420.7766539417858
 20
79.336954392651
 30
0.0
 40
1.0
100
AcDbArc
 50
0.0
 51
90.0
  0
ARC
  5
B99
330
18
100
AcDbEntity
  8
1
  6
Continuous
100
AcDbCircle
 10
396.7953252488988
 20
75.59853522728258
 30
0.0
 40
1.0
100
AcDbArc
 50
90.00000000000005
 51
180.0000000000002
  0
ARC
  5
B9A
330
18
100
AcDbEntity
  8
1
  6
Continuous
100
AcDbCircle
 10
396.7953252488988
 20
79.336954392651
 30
0.0
 40
1.0
100
AcDbArc
 50
90.0
 51
180.0000000000004
  0
ARC
  5
B9C
330
18
100
AcDbEntity
  8
1
  6
Continuous
100
AcDbCircle
 10
408.7579623530011
 20
79.336954392651
 30
0.0
 40
1.0
100
AcDbArc
 50
90.0
 51
180.0
  0
ARC
  5
B9D
330
18
100
AcDbEntity
  8
1
  6
Continuous
100
AcDbCircle
 10
406.7579623530011
 20
79.336954392651
 30
0.0
 40
1.0
100
AcDbArc
 50
359.9999999999993
 51
90.0
  0
ARC
  5
BA0
330
18
100
AcDbEntity
  8
1
  6
Continuous
 48
0.25
100
AcDbCircle
 10
422.5892714132292
 20
76.35537939914138
 30
0.0
 40
1.0
100
AcDbArc
 50
106.2569999999999
 51
144.3524594934626
  0
ARC
  5
BA2
330
18
100
AcDbEntity
  8
1
  6
Continuous
 48
0.25
100
AcDbCircle
 10
425.9492714132292
 20
76.35537939914138
 30
0.0
 40
1.0
100
AcDbArc
 50
14.07287505851383
 51
73.74300000000005
  0
ARC
  5
BA3
330
18
100
AcDbEntity
  8
1
  6
Continuous
 48
0.25
100
AcDbCircle
 10
424.2692714132293
 20
70.5953793991414
 30
0.0
 40
7.0
100
AcDbArc
 50
73.74300000000005
 51
106.2569999999999
  0
ARC
  5
BA7
330
18
100
AcDbEntity
  8
1
  6
Continuous
100
AcDbCircle
 10
316.2346174301159
 20
149.394603070684
 30
0.0
 40
3.323783677987778
100
AcDbArc
 50
142.1281356893355
 51
217.8718643106654
  0
ARC
  5
BA9
330
18
100
AcDbEntity
  8
1
  6
Continuous
100
AcDbCircle
 10
317.2346174301158
 20
149.3946030706838
 30
0.0
 40
3.323783677987761
100
AcDbArc
 50
142.1281356893359
 51
217.8718643106623
  0
ARC
  5
BAB
330
18
100
AcDbEntity
  8
1
  6
Continuous
100
AcDbCircle
 10
310.9871232128679
 20
145.3136771718005
 30
0.0
 40
3.323783677987778
100
AcDbArc
 50
322.1281356893163
 51
37.87186431066446
  0
ARC
  5
BAC
330
18
100
AcDbEntity
  8
1
  6
Continuous
100
AcDbCircle
 10
311.9871232128677
 20
145.3136771718003
 30
0.0
 40
3.323783677987761
100
AcDbArc
 50
322.1281356893212
 51
37.87186431066407
  0
ARC
  5
BB0
330
18
100
AcDbEntity
  8
1
  6
Continuous
100
AcDbCircle
 10
299.7526271944853
 20
148.728886600344
 30
0.0
 40
0.8010416666666609
100
AcDbArc
 50
128.7179883513886
 51
231.2820116486113
  0
ARC
  5
BB1
330
18
100
AcDbEntity
  8
1
  6
Continuous
100
AcDbCircle
 10
298.750543861152
 20
148.728886600344
 30
0.0
 40
0.8010416666666609
100
AcDbArc
 50
308.7179883513886
 51
51.28201164861139
  0
ARC
  5
BB2
330
18
100
AcDbEntity
  8
1
  6
Continuous
100
AcDbCircle
 10
298.750543861152
 20
149.978886600344
 30
0.0
 40
0.8010416666666609
100
AcDbArc
 50
308.7179883513886
 51
51.2820116486114
  0
ARC
  5
BB3
330
18
100
AcDbEntity
  8
1
  6
Continuous
100
AcDbCircle
 10
300.9503922828698
 20
148.7288866003438
 30
0.0
 40
0.8010416666666609
100
AcDbArc
 50
128.7179883513885
 51
231.2820116486113
  0
ARC
  5
BB4
330
18
100
AcDbEntity
  8
1
  6
Continuous
100
AcDbCircle
 10
300.9503922828698
 20
149.9788866003437
 30
0.0
 40
0.8010416666666609
100
AcDbArc
 50
128.7179883513885
 51
231.2820116486113
  0
ARC
  5
BB5
330
18
100
AcDbEntity
  8
1
  6
Continuous
100
AcDbCircle
 10
299.9483089495365
 20
149.9788866003437
 30
0.0
 40
0.8010416666666609
100
AcDbArc
 50
308.7179883513886
 51
51.28201164861142
  0
ARC
  5
BB6
330
18
100
AcDbEntity
  8
1
  6
Continuous
100
AcDbCircle
 10
300.9503922828642
 20
144.7288866003435
 30
0.0
 40
0.8010416666666609
100
AcDbArc
 50
128.7179883513885
 51
231.2820116486113
  0
ARC
  5
BB7
330
18
100
AcDbEntity
  8
1
  6
Continuous
100
AcDbCircle
 10
300.9503922828642
 20
145.9788866003435
 30
0.0
 40
0.8010416666666609
100
AcDbArc
 50
128.7179883513885
 51
231.2820116486113
  0
ARC
  5
BB8
330
18
100
AcDbEntity
  8
1
  6
Continuous
100
AcDbCircle
 10
299.948308949531
 20
145.9788866003435
 30
0.0
 40
0.8010416666666609
100
AcDbArc
 50
308.7179883513886
 51
51.28201164861142
  0
ARC
  5
BB9
330
18
100
AcDbEntity
  8
1
  6
Continuous
100
AcDbCircle
 10
298.7505438611465
 20
145.9788866003437
 30
0.0
 40
0.8010416666666609
100
AcDbArc
 50
308.7179883513886
 51
51.2820116486114
  0
ARC
  5
BBA
330
18
100
AcDbEntity
  8
1
  6
Continuous
100
AcDbCircle
 10
298.7505438611465
 20
144.7288866003438
 30
0.0
 40
0.8010416666666609
100
AcDbArc
 50
308.7179883513886
 51
51.28201164861139
  0
ARC
  5
BBB
330
18
100
AcDbEntity
  8
1
  6
Continuous
100
AcDbCircle
 10
299.7526271944798
 20
144.7288866003438
 30
0.0
 40
0.8010416666666609
100
AcDbArc
 50
128.7179883513886
 51
231.2820116486113
  0
LINE
  5
BBC
330
18
100
AcDbEntity
  8
1
  6
Continuous
100
AcDbLine
 10
341.7802762483795
 20
71.05301909929673
 30
0.0
 11
315.2756506336724
 21
71.05301909929697
 31
0.0
  0
LINE
  5
BBD
330
18
100
AcDbEntity
  8
1
  6
Continuous
100
AcDbLine
 10
341.7802762483795
 20
73.5763125994266
 30
0.0
 11
314.6108703214934
 21
73.57631259942682
 31
0.0
  0
LINE
  5
BBE
330
18
100
AcDbEntity
  8
1
  6
Continuous
100
AcDbLine
 10
341.7911399753632
 20
76.09960609955644
 30
0.0
 11
313.9479374483856
 21
76.0996060995567
 31
0.0
  0
LINE
  5
BBF
330
18
100
AcDbEntity
  8
1
  6
Continuous
100
AcDbLine
 10
341.7802762483795
 20
69.49538670054313
 30
0.0
 11
314.610870321492
 21
69.49538670054312
 31
0.0
  0
LINE
  5
BC0
330
18
100
AcDbEntity
  8
1
  6
Continuous
100
AcDbLine
 10
314.6108703214934
 20
77.65723849831032
 30
0.0
 11
342.8411682944294
 21
77.65723849831035
 31
0.0
  0
ARC
  5
BC1
330
18
100
AcDbEntity
  8
1
  6
Continuous
100
AcDbCircle
 10
316.2346174301175
 20
75.61677554886873
 30
0.0
 40
3.323783677987778
100
AcDbArc
 50
142.1281356893355
 51
217.8718643106654
  0
LINE
  5
BC2
330
18
100
AcDbEntity
  8
1
  6
Continuous
100
AcDbLine
 10
305.7656766554314
 20
77.65723849831056
 30
0.0
 11
313.6108703214935
 21
77.65723849831056
 31
0.0
  0
LINE
  5
BC3
330
18
100
AcDbEntity
  8
1
  6
Continuous
100
AcDbLine
 10
313.6108703214921
 20
69.49538670054312
 30
0.0
 11
305.7656766554312
 21
69.49538670054312
 31
0.0
  0
LINE
  5
BC4
330
18
100
AcDbEntity
  8
1
  6
Continuous
100
AcDbLine
 10
313.6108703214935
 20
73.57631259942687
 30
0.0
 11
305.7656766554314
 21
73.57631259942684
 31
0.0
  0
LINE
  5
BC5
330
18
100
AcDbEntity
  8
1
  6
Continuous
100
AcDbLine
 10
314.2756506336727
 20
71.05301909929697
 30
0.0
 11
305.7656766554314
 21
71.05301909929697
 31
0.0
  0
LINE
  5
BC6
330
18
100
AcDbEntity
  8
1
  6
Continuous
100
AcDbLine
 10
312.9460900093135
 20
76.09960609955675
 30
0.0
 11
305.7656766554312
 21
76.09960609955646
 31
0.0
  0
ARC
  5
BC7
330
18
100
AcDbEntity
  8
1
  6
Continuous
100
AcDbCircle
 10
311.9871232128693
 20
71.53584964998502
 30
0.0
 40
3.323783677987761
100
AcDbArc
 50
322.1281356893212
 51
37.87186431066407
  0
ARC
  5
BC8
330
18
100
AcDbEntity
  8
1
  6
Continuous
100
AcDbCircle
 10
310.9871232128696
 20
71.53584964998519
 30
0.0
 40
3.323783677987778
100
AcDbArc
 50
322.1281356893163
 51
37.87186431066446
  0
ARC
  5
BC9
330
18
100
AcDbEntity
  8
1
  6
Continuous
100
AcDbCircle
 10
317.2346174301175
 20
75.61677554886853
 30
0.0
 40
3.323783677987761
100
AcDbArc
 50
142.1281356893359
 51
217.8718643106623
  0
ARC
  5
BCA
330
18
100
AcDbEntity
  8
1
  6
Continuous
100
AcDbCircle
 10
299.7548621060698
 20
72.9515661203252
 30
0.0
 40
0.8010416666666609
100
AcDbArc
 50
128.7179883513886
 51
231.2820116486113
  0
ARC
  5
BCB
330
18
100
AcDbEntity
  8
1
  6
Continuous
100
AcDbCircle
 10
298.7527787727365
 20
72.9515661203252
 30
0.0
 40
0.8010416666666609
100
AcDbArc
 50
308.7179883516546
 51
51.28201164861139
  0
ARC
  5
BCC
330
18
100
AcDbEntity
  8
1
  6
Continuous
100
AcDbCircle
 10
298.7527787727365
 20
74.2015661203252
 30
0.0
 40
0.8010416666666609
100
AcDbArc
 50
308.7179883513886
 51
51.28201164834536
  0
ARC
  5
BCD
330
18
100
AcDbEntity
  8
1
  6
Continuous
100
AcDbCircle
 10
299.950543861121
 20
74.20156612032497
 30
0.0
 40
0.8010416666666609
100
AcDbArc
 50
308.7179883513886
 51
51.28201164861142
  0
ARC
  5
BCE
330
18
100
AcDbEntity
  8
1
  6
Continuous
100
AcDbCircle
 10
300.9526271944543
 20
74.20156612032497
 30
0.0
 40
0.8010416666666609
100
AcDbArc
 50
128.717988351633
 51
231.2820116486113
  0
ARC
  5
BCF
330
18
100
AcDbEntity
  8
1
  6
Continuous
100
AcDbCircle
 10
300.9526271944543
 20
72.95156612032497
 30
0.0
 40
0.8010416666666609
100
AcDbArc
 50
128.7179883513885
 51
231.28201164832
  0
ARC
  5
BDA
330
18
100
AcDbEntity
  8
1
  6
Continuous
100
AcDbCircle
 10
396.7953252488988
 20
70.05933075557959
 30
0.0
 40
1.0
100
AcDbArc
 50
180.0
 51
270.0
  0
LINE
  5
C3E
330
18
100
AcDbEntity
  8
1
  6
Continuous
100
AcDbLine
 10
195.3118913184723
 20
142.4356998584538
 30
0.0
 11
183.1002966923051
 21
142.8717558034174
 31
0.0
  0
LINE
  5
C3F
330
18
100
AcDbEntity
  8
1
  6
Continuous
100
AcDbLine
 10
183.1002966923051
 20
139.008604356117
 30
0.0
 11
195.3118913184727
 21
139.4446603010808
 31
0.0
  0
LINE
  5
C4F
330
18
100
AcDbEntity
  8
1
  6
Continuous
100
AcDbLine
 10
194.3150471466153
 20
142.471295523119
 30
0.0
 11
194.3150471466153
 21
139.4090646364155
 31
0.0
  0
LINE
  5
C50
330
18
100
AcDbEntity
  8
1
  6
Continuous
100
AcDbLine
 10
195.3118913184727
 20
139.4446603010809
 30
0.0
 11
195.3118913184727
 21
142.4356998584535
 31
0.0
  0
LINE
  5
C51
330
18
100
AcDbEntity
  8
1
  6
Continuous
100
AcDbLine
 10
196.3716086730951
 20
141.906379655408
 30
0.0
 11
195.3118913184723
 21
142.4356998584538
 31
0.0
  0
LINE
  5
C52
330
18
100
AcDbEntity
  8
1
  6
Continuous
100
AcDbLine
 10
200.047661697498
 20
142.4356998584535
 30
0.0
 11
200.047661697498
 21
139.4446603010809
 31
0.0
  0
LINE
  5
C53
330
18
100
AcDbEntity
  8
1
  6
Continuous
100
AcDbLine
 10
195.3118913184729
 20
142.4356998584535
 30
0.0
 11
200.0476616974979
 21
142.4356998584535
 31
0.0
  0
LINE
  5
C54
330
18
100
AcDbEntity
  8
1
  6
Continuous
100
AcDbLine
 10
196.3716086730951
 20
141.906379655408
 30
0.0
 11
196.3716086730951
 21
139.9745189783918
 31
0.0
  0
LINE
  5
C55
330
18
100
AcDbEntity
  8
1
  6
Continuous
100
AcDbLine
 10
196.3716086730951
 20
139.9745189783918
 30
0.0
 11
195.3118913184727
 21
139.4446603010808
 31
0.0
  0
LINE
  5
C56
330
18
100
AcDbEntity
  8
1
  6
Continuous
100
AcDbLine
 10
200.0476616974979
 20
139.4446603010809
 30
0.0
 11
195.3118913184727
 21
139.4446603010808
 31
0.0
  0
LINE
  5
C60
330
18
100
AcDbEntity
  8
1
  6
Continuous
100
AcDbLine
 10
181.1066083485876
 20
72.40259805178934
 30
0.0
 11
181.1066083485876
 21
79.56760567769811
 31
0.0
  0
LINE
  5
C63
330
18
100
AcDbEntity
  8
1
  6
Continuous
100
AcDbLine
 10
182.8005274816591
 20
142.8717558034173
 30
0.0
 11
182.8005274816591
 21
139.008604356117
 31
0.0
  0
LINE
  5
C65
330
18
100
AcDbEntity
  8
1
  6
Continuous
100
AcDbLine
 10
181.6673965754835
 20
143.4325440303125
 30
0.0
 11
181.6673965754836
 21
138.447816129222
 31
0.0
  0
LINE
  5
C66
330
18
100
AcDbEntity
  8
1
  6
Continuous
100
AcDbLine
 10
190.3895295583495
 20
143.4325440303123
 30
0.0
 11
181.1066083485877
 21
143.4325440303125
 31
0.0
  0
LINE
  5
C67
330
18
100
AcDbEntity
  8
1
  6
Continuous
100
AcDbLine
 10
190.3895295583495
 20
143.4325440303123
 30
0.0
 11
190.3895295583495
 21
142.6207509919058
 31
0.0
  0
LINE
  5
C68
330
18
100
AcDbEntity
  8
1
  6
Continuous
100
AcDbLine
 10
183.1002966923051
 20
142.8717558034174
 30
0.0
 11
182.8005274816591
 21
142.8717558034173
 31
0.0
  0
LINE
  5
C69
330
18
100
AcDbEntity
  8
1
  6
Continuous
100
AcDbLine
 10
183.2135415291246
 20
143.4325440303124
 30
0.0
 11
183.2135415291246
 21
142.8717558034174
 31
0.0
  0
LINE
  5
C6A
330
18
100
AcDbEntity
  8
1
  6
Continuous
100
AcDbLine
 10
181.1066083485877
 20
138.4478161292221
 30
0.0
 11
190.3895295583495
 21
138.4478161292219
 31
0.0
  0
LINE
  5
C6B
330
18
100
AcDbEntity
  8
1
  6
Continuous
100
AcDbLine
 10
190.3895295583495
 20
139.2596091676285
 30
0.0
 11
190.3895295583495
 21
138.4478161292219
 31
0.0
  0
LINE
  5
C6C
330
18
100
AcDbEntity
  8
1
  6
Continuous
100
AcDbLine
 10
183.2135415291246
 20
139.008604356117
 30
0.0
 11
183.2135415291246
 21
138.4478161292221
 31
0.0
  0
LINE
  5
C6D
330
18
100
AcDbEntity
  8
1
  6
Continuous
100
AcDbLine
 10
183.1002966923051
 20
139.008604356117
 30
0.0
 11
182.8005274816591
 21
139.008604356117
 31
0.0
  0
LINE
  5
C6E
330
18
100
AcDbEntity
  8
1
  6
Continuous
100
AcDbLine
 10
195.998425910893
 20
67.75445057969682
 30
0.0
 11
198.2405647348804
 21
70.1223357692089
 31
0.0
  0
LINE
  5
C6F
330
18
100
AcDbEntity
  8
1
  6
Continuous
100
AcDbLine
 10
181.1066083485876
 20
61.39918870274982
 30
0.0
 11
205.2813471206539
 21
61.39918870274982
 31
0.0
  0
LINE
  5
C70
330
18
100
AcDbEntity
  8
1
  6
Continuous
100
AcDbLine
 10
205.2813471206539
 20
67.75445057969682
 30
0.0
 11
181.1066083485876
 21
67.75445057969682
 31
0.0
  0
LINE
  5
C71
330
18
100
AcDbEntity
  8
1
  6
Continuous
100
AcDbLine
 10
199.1136907084008
 20
151.7128062407286
 30
0.0
 11
195.9984259108923
 21
151.7128062407286
 31
0.0
  0
LINE
  5
C72
330
18
100
AcDbEntity
  8
1
  6
Continuous
100
AcDbLine
 10
195.9984259108923
 20
155.8249152100951
 30
0.0
 11
199.1136907084008
 21
155.8249152100951
 31
0.0
  0
LINE
  5
C73
330
18
100
AcDbEntity
  8
1
  6
Continuous
100
AcDbLine
 10
181.1066083485877
 20
156.5099286771249
 30
0.0
 11
205.2813471206539
 21
156.5099286771251
 31
0.0
  0
LINE
  5
C74
330
18
100
AcDbEntity
  8
1
  6
Continuous
100
AcDbLine
 10
205.281347120654
 20
151.0272857319018
 30
0.0
 11
181.1066083485877
 21
151.0272857319016
 31
0.0
  0
LINE
  5
C75
330
18
100
AcDbEntity
  8
1
  6
Continuous
100
AcDbLine
 10
181.1066083485874
 20
60.40234453089093
 30
0.0
 11
182.1034525204463
 21
60.40234453089093
 31
0.0
  0
LINE
  5
C76
330
18
100
AcDbEntity
  8
1
  6
Continuous
100
AcDbLine
 10
181.1066083485876
 20
60.40234453089103
 30
0.0
 11
181.1066083485876
 21
67.75445057969682
 31
0.0
  0
LINE
  5
C77
330
18
100
AcDbEntity
  8
1
  6
Continuous
100
AcDbLine
 10
182.1034525204463
 20
60.40234453089093
 30
0.0
 11
182.1034525204463
 21
61.39918870274971
 31
0.0
  0
LINE
  5
C78
330
18
100
AcDbEntity
  8
1
  6
Continuous
100
AcDbLine
 10
181.1066083485877
 20
151.0272857319016
 30
0.0
 11
181.1066083485877
 21
156.5099286771248
 31
0.0
  0
LINE
  5
C79
330
18
100
AcDbEntity
  8
1
  6
Continuous
100
AcDbLine
 10
195.9984259108927
 20
156.509928677125
 30
0.0
 11
195.9984259108927
 21
155.824915210095
 31
0.0
  0
LINE
  5
C7A
330
18
100
AcDbEntity
  8
1
  6
Continuous
100
AcDbLine
 10
195.9984259108927
 20
151.7128062407285
 30
0.0
 11
195.9984259108927
 21
151.027285731902
 31
0.0
  0
LINE
  5
C7B
330
18
100
AcDbEntity
  8
1
  6
Continuous
100
AcDbLine
 10
202.6650114508721
 20
67.75445057969682
 30
0.0
 11
202.6650114508721
 21
70.12233576920886
 31
0.0
  0
LINE
  5
C7C
330
18
100
AcDbEntity
  8
1
  6
Continuous
100
AcDbLine
 10
205.2813471206539
 20
61.39918870274982
 30
0.0
 11
205.2813471206539
 21
67.75445057969682
 31
0.0
  0
LINE
  5
C7D
330
18
100
AcDbEntity
  8
1
  6
Continuous
100
AcDbLine
 10
198.2405647348803
 20
70.12233576920886
 30
0.0
 11
202.6650114508721
 21
70.12233576920886
 31
0.0
  0
LINE
  5
C7E
330
18
100
AcDbEntity
  8
1
  6
Continuous
100
AcDbLine
 10
205.2813471206541
 20
156.509928677125
 30
0.0
 11
205.2813471206541
 21
151.0272857319018
 31
0.0
  0
LINE
  5
C7F
330
18
100
AcDbEntity
  8
1
  6
Continuous
100
AcDbLine
 10
202.6650114508722
 20
156.509928677125
 30
0.0
 11
202.6650114508722
 21
151.0272857319018
 31
0.0
  0
LINE
  5
C80
330
18
100
AcDbEntity
  8
1
  6
Continuous
100
AcDbLine
 10
199.1136907084011
 20
155.8249152100951
 30
0.0
 11
199.1136907084011
 21
151.7128062407286
 31
0.0
  0
LINE
  5
C81
330
18
100
AcDbEntity
  8
1
  6
Continuous
100
AcDbLine
 10
198.2405647348801
 20
156.509928677125
 30
0.0
 11
198.2405647348801
 21
155.824915210095
 31
0.0
  0
LINE
  5
C82
330
18
100
AcDbEntity
  8
1
  6
Continuous
100
AcDbLine
 10
198.2405647348801
 20
151.7128062407285
 30
0.0
 11
198.2405647348801
 21
151.027285731902
 31
0.0
  0
LINE
  5
C9B
330
18
100
AcDbEntity
  8
1
  6
Continuous
100
AcDbLine
 10
267.3491527121822
 20
156.2609711550584
 30
0.0
 11
267.3491527121822
 21
155.7001829281633
 31
0.0
  0
LINE
  5
C9C
330
18
100
AcDbEntity
  8
1
  6
Continuous
100
AcDbLine
 10
260.1731646829573
 20
156.2609711550583
 30
0.0
 11
260.1731646829573
 21
155.4491781166518
 31
0.0
  0
LINE
  5
C9D
330
18
100
AcDbEntity
  8
1
  6
Continuous
100
AcDbLine
 10
268.8952976658233
 20
156.2609711550584
 30
0.0
 11
268.8952976658232
 21
151.276243253968
 31
0.0
  0
ARC
  5
C9F
330
18
100
AcDbEntity
  8
1
  6
Continuous
100
AcDbCircle
 10
267.1800603857126
 20
69.82182872741238
 30
0.0
 40
0.3
100
AcDbArc
 50
31.18521100796259
 51
90.0
  0
LINE
  5
CA0
330
18
100
AcDbEntity
  8
1
  6
Continuous
100
AcDbLine
 10
260.1731646829592
 20
70.12182872741239
 30
0.0
 11
260.1731646829592
 21
68.43946404672701
 31
0.0
  0
LINE
  5
CA1
330
18
100
AcDbEntity
  8
1
  6
Continuous
100
AcDbLine
 10
256.2476470946933
 20
69.439464046727
 30
0.0
 11
256.2476470946933
 21
70.12182872741229
 31
0.0
  0
LINE
  5
CA2
330
18
100
AcDbEntity
  8
1
  6
Continuous
100
AcDbLine
 10
255.2508029228346
 20
70.12182872741239
 30
0.0
 11
254.3158178501452
 21
69.12498455555362
 31
0.0
  0
LINE
  5
CA3
330
18
100
AcDbEntity
  8
1
  6
Continuous
100
AcDbLine
 10
262.3534444077775
 20
66.6328741259069
 30
0.0
 11
251.3252853345687
 21
66.6328741259069
 31
0.0
  0
LINE
  5
CA4
330
18
100
AcDbEntity
  8
1
  6
Continuous
100
AcDbLine
 10
262.3534444077776
 20
66.1968181809431
 30
0.0
 11
251.0750325438107
 21
66.1968181809431
 31
0.0
  0
LINE
  5
CA5
330
18
100
AcDbEntity
  8
1
  6
Continuous
100
AcDbLine
 10
262.3534444077776
 20
61.959976929645
 30
0.0
 11
251.0750325438107
 21
61.959976929645
 31
0.0
  0
LINE
  5
CA6
330
18
100
AcDbEntity
  8
1
  6
Continuous
100
AcDbLine
 10
254.5034233148388
 20
68.43946404672701
 30
0.0
 11
266.0294974321804
 21
68.43946404672701
 31
0.0
  0
ARC
  5
CA7
330
18
100
AcDbEntity
  8
1
  6
Continuous
100
AcDbCircle
 10
251.0750325438107
 20
65.63681818094309
 30
0.0
 40
0.5600000000000001
100
AcDbArc
 50
90.0
 51
180.0
  0
ARC
  5
CA8
330
18
100
AcDbEntity
  8
1
  6
Continuous
100
AcDbCircle
 10
251.0750325438107
 20
62.51997692964501
 30
0.0
 40
0.5600000000000001
100
AcDbArc
 50
180.0
 51
270.0
  0
LINE
  5
CA9
330
18
100
AcDbEntity
  8
1
  6
Continuous
100
AcDbLine
 10
250.5150325438108
 20
65.63681818094309
 30
0.0
 11
250.5150325438108
 21
62.51997692964501
 31
0.0
  0
LINE
  5
CAA
330
18
100
AcDbEntity
  8
1
  6
Continuous
100
AcDbLine
 10
251.3252853345687
 20
66.1968181809431
 30
0.0
 11
251.3252853345687
 21
66.6328741259069
 31
0.0
  0
LINE
  5
CAB
330
18
100
AcDbEntity
  8
1
  6
Continuous
100
AcDbLine
 10
254.1910855682136
 20
68.75129475155569
 30
0.0
 11
254.1910855682136
 21
68.93788613265638
 31
0.0
  0
LINE
  5
CAC
330
18
100
AcDbEntity
  8
1
  6
Continuous
100
AcDbLine
 10
254.3158178501452
 20
69.12498455555368
 30
0.0
 11
254.1910855682136
 21
68.9378861326565
 31
0.0
  0
LINE
  5
CAD
330
18
100
AcDbEntity
  8
1
  6
Continuous
100
AcDbLine
 10
254.3158178501451
 20
68.50183018769278
 30
0.0
 11
254.1910855682136
 21
68.75129475155578
 31
0.0
  0
LINE
  5
CAE
330
18
100
AcDbEntity
  8
1
  6
Continuous
100
AcDbLine
 10
254.5034233148388
 20
68.43946404672701
 30
0.0
 11
254.3158178501451
 21
68.50183018769278
 31
0.0
  0
LINE
  5
CAF
330
18
100
AcDbEntity
  8
1
  6
Continuous
100
AcDbLine
 10
256.2476470946933
 20
69.439464046727
 30
0.0
 11
260.1731646829592
 21
69.439464046727
 31
0.0
  0
LINE
  5
CB0
330
18
100
AcDbEntity
  8
1
  6
Continuous
100
AcDbLine
 10
269.4560858927204
 20
60.40234453089098
 30
0.0
 11
268.4592417208617
 21
60.40234453089098
 31
0.0
  0
LINE
  5
CB1
330
18
100
AcDbEntity
  8
1
  6
Continuous
100
AcDbLine
 10
269.4560858927204
 20
67.56735215679987
 30
0.0
 11
262.3534444077775
 21
67.56735215679987
 31
0.0
  0
LINE
  5
CB2
330
18
100
AcDbEntity
  8
1
  6
Continuous
100
AcDbLine
 10
262.3534444077775
 20
61.58578008385057
 30
0.0
 11
269.4560858927204
 21
61.58578008385057
 31
0.0
  0
LINE
  5
CB3
330
18
100
AcDbEntity
  8
1
  6
Continuous
100
AcDbLine
 10
268.4592417208617
 20
60.40234453089098
 30
0.0
 11
268.4592417208617
 21
61.58578008385049
 31
0.0
  0
ARC
  5
CB4
330
18
100
AcDbEntity
  8
1
  6
Continuous
100
AcDbCircle
 10
266.0294974321805
 20
68.00340810176343
 30
0.0
 40
0.4360559449635845
100
AcDbArc
 50
270.0
 51
90.0
  0
LINE
  5
CB5
330
18
100
AcDbEntity
  8
1
  6
Continuous
100
AcDbLine
 10
262.3534444077775
 20
67.56735215679987
 30
0.0
 11
262.3534444077775
 21
61.58578008385057
 31
0.0
  0
ARC
  5
CB6
330
18
100
AcDbEntity
  8
1
  6
Continuous
100
AcDbCircle
 10
262.8534444077775
 20
68.00340810176345
 30
0.0
 40
0.4360559449635845
100
AcDbArc
 50
270.0
 51
90.0
  0
LINE
  5
CB7
330
18
100
AcDbEntity
  8
1
  6
Continuous
100
AcDbLine
 10
267.4367097686238
 20
69.97717058993266
 30
0.0
 11
268.8952976658252
 21
67.56735215679981
 31
0.0
  0
LINE
  5
CB9
330
18
100
AcDbEntity
  8
1
  6
Continuous
100
AcDbLine
 10
260.1731646829573
 20
156.2609711550583
 30
0.0
 11
269.4560858927191
 21
156.2609711550584
 31
0.0
  0
LINE
  5
CBA
330
18
100
AcDbEntity
  8
1
  6
Continuous
100
AcDbLine
 10
267.1800603857126
 20
70.12182872741239
 30
0.0
 11
260.1731646829592
 21
70.12182872741239
 31
0.0
  0
LINE
  5
CBB
330
18
100
AcDbEntity
  8
1
  6
Continuous
100
AcDbLine
 10
256.2476470946933
 20
70.12182872741229
 30
0.0
 11
255.2508029228345
 21
70.12182872741229
 31
0.0
  0
LINE
  5
CBC
330
18
100
AcDbEntity
  8
1
  6
Continuous
100
AcDbLine
 10
269.4560858927191
 20
151.276243253968
 30
0.0
 11
260.1731646829573
 21
151.2762432539679
 31
0.0
  0
LINE
  5
CBD
330
18
100
AcDbEntity
  8
1
  6
Continuous
100
AcDbLine
 10
267.4623975490015
 20
151.837031480863
 30
0.0
 11
255.2508029228341
 21
152.2730874258266
 31
0.0
  0
LINE
  5
CBE
330
18
100
AcDbEntity
  8
1
  6
Continuous
100
AcDbLine
 10
255.2508029228345
 20
155.2641269831998
 30
0.0
 11
267.4623975490015
 21
155.7001829281634
 31
0.0
  0
LINE
  5
CBF
330
18
100
AcDbEntity
  8
1
  6
Continuous
100
AcDbLine
 10
250.5150325438089
 20
152.2730874258269
 30
0.0
 11
255.2508029228341
 21
152.2730874258266
 31
0.0
  0
LINE
  5
CC0
330
18
100
AcDbEntity
  8
1
  6
Continuous
100
AcDbLine
 10
255.2508029228339
 20
155.2641269831995
 30
0.0
 11
250.5150325438089
 21
155.2641269831995
 31
0.0
  0
LINE
  5
CC1
330
18
100
AcDbEntity
  8
1
  6
Continuous
100
AcDbLine
 10
250.5150325438088
 20
155.2641269831995
 30
0.0
 11
250.5150325438088
 21
152.2730874258269
 31
0.0
  0
LINE
  5
CC2
330
18
100
AcDbEntity
  8
1
  6
Continuous
100
AcDbLine
 10
260.1731646829573
 20
152.0880362923745
 30
0.0
 11
260.1731646829573
 21
151.2762432539679
 31
0.0
  0
LINE
  5
CC3
330
18
100
AcDbEntity
  8
1
  6
Continuous
100
AcDbLine
 10
254.1910855682117
 20
152.8029461031378
 30
0.0
 11
255.2508029228341
 21
152.2730874258266
 31
0.0
  0
LINE
  5
CC4
330
18
100
AcDbEntity
  8
1
  6
Continuous
100
AcDbLine
 10
254.1910855682117
 20
154.734806780154
 30
0.0
 11
254.1910855682117
 21
152.8029461031378
 31
0.0
  0
LINE
  5
CC5
330
18
100
AcDbEntity
  8
1
  6
Continuous
100
AcDbLine
 10
254.1910855682117
 20
154.734806780154
 30
0.0
 11
255.2508029228345
 21
155.2641269831998
 31
0.0
  0
LINE
  5
CC6
330
18
100
AcDbEntity
  8
1
  6
Continuous
100
AcDbLine
 10
255.2508029228341
 20
152.2730874258269
 30
0.0
 11
255.2508029228341
 21
155.2641269831995
 31
0.0
  0
LINE
  5
CC7
330
18
100
AcDbEntity
  8
1
  6
Continuous
100
AcDbLine
 10
256.2476470946914
 20
155.299722647865
 30
0.0
 11
256.2476470946914
 21
152.2374917611615
 31
0.0
  0
LINE
  5
CC8
330
18
100
AcDbEntity
  8
1
  6
Continuous
100
AcDbLine
 10
267.4623975490015
 20
151.837031480863
 30
0.0
 11
267.7621667596477
 21
151.837031480863
 31
0.0
  0
LINE
  5
CC9
330
18
100
AcDbEntity
  8
1
  6
Continuous
100
AcDbLine
 10
267.3491527121822
 20
151.837031480863
 30
0.0
 11
267.3491527121821
 21
151.276243253968
 31
0.0
  0
LINE
  5
CCA
330
18
100
AcDbEntity
  8
1
  6
Continuous
100
AcDbLine
 10
267.4623975490015
 20
155.7001829281634
 30
0.0
 11
267.7621667596477
 21
155.7001829281633
 31
0.0
  0
LINE
  5
CCB
330
18
100
AcDbEntity
  8
1
  6
Continuous
100
AcDbLine
 10
267.7621667596477
 20
155.7001829281633
 30
0.0
 11
267.7621667596477
 21
151.837031480863
 31
0.0
  0
LINE
  5
CCD
330
18
100
AcDbEntity
  8
1
  6
Continuous
100
AcDbLine
 10
254.5642683304141
 20
143.6815015523788
 30
0.0
 11
254.5642683304141
 21
142.9964880853488
 31
0.0
  0
LINE
  5
CCE
330
18
100
AcDbEntity
  8
1
  6
Continuous
100
AcDbLine
 10
245.2813471206527
 20
143.6815015523788
 30
0.0
 11
245.2813471206527
 21
138.1988586071556
 31
0.0
  0
LINE
  5
CCF
330
18
100
AcDbEntity
  8
1
  6
Continuous
100
AcDbLine
 10
247.8976827904346
 20
143.6815015523788
 30
0.0
 11
247.8976827904346
 21
138.1988586071556
 31
0.0
  0
LINE
  5
CD0
330
18
100
AcDbEntity
  8
1
  6
Continuous
100
AcDbLine
 10
252.3221295064266
 20
143.6815015523788
 30
0.0
 11
252.3221295064266
 21
142.9964880853488
 31
0.0
  0
LINE
  5
CD1
330
18
100
AcDbEntity
  8
1
  6
Continuous
100
AcDbLine
 10
254.564268330415
 20
79.75419705879858
 30
0.0
 11
252.3221295064276
 21
82.12208224831067
 31
0.0
  0
LINE
  5
CD2
330
18
100
AcDbEntity
  8
1
  6
Continuous
100
AcDbLine
 10
247.8976827904359
 20
79.75419705879858
 30
0.0
 11
247.8976827904359
 21
82.12208224831062
 31
0.0
  0
LINE
  5
CD3
330
18
100
AcDbEntity
  8
1
  6
Continuous
100
AcDbLine
 10
269.4560858927204
 20
73.39893518185158
 30
0.0
 11
245.2813471206541
 21
73.39893518185158
 31
0.0
  0
LINE
  5
CD4
330
18
100
AcDbEntity
  8
1
  6
Continuous
100
AcDbLine
 10
245.2813471206541
 20
79.75419705879858
 30
0.0
 11
269.4560858927204
 21
79.75419705879858
 31
0.0
  0
LINE
  5
CD5
330
18
100
AcDbEntity
  8
1
  6
Continuous
100
AcDbLine
 10
269.4560858927204
 20
72.40209100999269
 30
0.0
 11
268.4592417208617
 21
72.40209100999269
 31
0.0
  0
LINE
  5
CD7
330
18
100
AcDbEntity
  8
1
  6
Continuous
100
AcDbLine
 10
268.4592417208617
 20
72.40209100999269
 30
0.0
 11
268.4592417208617
 21
73.39893518185147
 31
0.0
  0
LINE
  5
CD8
330
18
100
AcDbEntity
  8
1
  6
Continuous
100
AcDbLine
 10
245.2813471206541
 20
73.39893518185158
 30
0.0
 11
245.2813471206541
 21
79.75419705879858
 31
0.0
  0
LINE
  5
CD9
330
18
100
AcDbEntity
  8
1
  6
Continuous
100
AcDbLine
 10
269.4560858927191
 20
143.6815015523787
 30
0.0
 11
245.2813471206529
 21
143.6815015523789
 31
0.0
  0
LINE
  5
CDA
330
18
100
AcDbEntity
  8
1
  6
Continuous
100
AcDbLine
 10
252.3221295064276
 20
82.12208224831062
 30
0.0
 11
247.8976827904359
 21
82.12208224831062
 31
0.0
  0
LINE
  5
CDB
330
18
100
AcDbEntity
  8
1
  6
Continuous
100
AcDbLine
 10
251.449003532906
 20
138.8843791159824
 30
0.0
 11
254.5642683304145
 21
138.8843791159825
 31
0.0
  0
LINE
  5
CDC
330
18
100
AcDbEntity
  8
1
  6
Continuous
100
AcDbLine
 10
254.5642683304145
 20
142.9964880853489
 30
0.0
 11
251.449003532906
 21
142.9964880853489
 31
0.0
  0
LINE
  5
CDD
330
18
100
AcDbEntity
  8
1
  6
Continuous
100
AcDbLine
 10
245.2813471206528
 20
138.1988586071556
 30
0.0
 11
269.4560858927191
 21
138.1988586071554
 31
0.0
  0
LINE
  5
CDE
330
18
100
AcDbEntity
  8
1
  6
Continuous
100
AcDbLine
 10
254.5642683304141
 20
138.8843791159823
 30
0.0
 11
254.5642683304141
 21
138.1988586071558
 31
0.0
  0
LINE
  5
CDF
330
18
100
AcDbEntity
  8
1
  6
Continuous
100
AcDbLine
 10
251.4490035329057
 20
142.9964880853489
 30
0.0
 11
251.4490035329057
 21
138.8843791159824
 31
0.0
  0
LINE
  5
CE0
330
18
100
AcDbEntity
  8
1
  6
Continuous
100
AcDbLine
 10
252.3221295064266
 20
138.8843791159823
 30
0.0
 11
252.3221295064266
 21
138.1988586071558
 31
0.0
  0
LINE
  5
CE1
330
18
100
AcDbEntity
  8
1
  6
Continuous
100
AcDbLine
 10
20.28131856805868
 20
79.75445057969681
 30
0.0
 11
44.45605734012502
 21
79.75445057969681
 31
0.0
  0
LINE
  5
CE2
330
18
100
AcDbEntity
  8
1
  6
Continuous
100
AcDbLine
 10
44.45605734012502
 20
73.39918870274981
 30
0.0
 11
20.28131856805868
 21
73.39918870274981
 31
0.0
  0
LINE
  5
CE3
330
18
100
AcDbEntity
  8
1
  6
Continuous
100
AcDbLine
 10
27.32210095383227
 20
82.12233576920885
 30
0.0
 11
22.89765423784052
 21
82.12233576920885
 31
0.0
  0
LINE
  5
CE4
330
18
100
AcDbEntity
  8
1
  6
Continuous
100
AcDbLine
 10
20.28131856805868
 20
73.39918870274981
 30
0.0
 11
20.28131856805868
 21
79.75445057969681
 31
0.0
  0
LINE
  5
CE5
330
18
100
AcDbEntity
  8
1
  6
Continuous
100
AcDbLine
 10
22.89765423784052
 20
79.75445057969681
 30
0.0
 11
22.89765423784052
 21
82.12233576920885
 31
0.0
  0
LINE
  5
CE6
330
18
100
AcDbEntity
  8
1
  6
Continuous
100
AcDbLine
 10
29.56423977781963
 20
79.75445057969681
 30
0.0
 11
27.32210095383214
 21
82.12233576920892
 31
0.0
  0
LINE
  5
CE7
330
18
100
AcDbEntity
  8
1
  6
Continuous
100
AcDbLine
 10
44.45605734012502
 20
79.75445057969681
 30
0.0
 11
44.45605734012502
 21
72.40234453089094
 31
0.0
  0
LINE
  5
CE8
330
18
100
AcDbEntity
  8
1
  6
Continuous
100
AcDbLine
 10
43.45921316826632
 20
72.40234453089094
 30
0.0
 11
43.45921316826632
 21
73.3991887027497
 31
0.0
  0
LINE
  5
CE9
330
18
100
AcDbEntity
  8
1
  6
Continuous
100
AcDbLine
 10
44.45605734012514
 20
72.40234453089094
 30
0.0
 11
43.45921316826632
 21
72.40234453089094
 31
0.0
  0
LINE
  5
CEA
330
18
100
AcDbEntity
  8
1
  6
Continuous
100
AcDbLine
 10
37.35341585518208
 20
66.63312764680537
 30
0.0
 11
26.32525678197325
 21
66.63312764680537
 31
0.0
  0
LINE
  5
CEB
330
18
100
AcDbEntity
  8
1
  6
Continuous
100
AcDbLine
 10
37.35341585518219
 20
66.19707170184156
 30
0.0
 11
26.07500399121531
 21
66.19707170184156
 31
0.0
  0
LINE
  5
CEC
330
18
100
AcDbEntity
  8
1
  6
Continuous
100
AcDbLine
 10
37.35341585518219
 20
61.96023045054346
 30
0.0
 11
26.07500399121531
 21
61.96023045054346
 31
0.0
  0
LINE
  5
CED
330
18
100
AcDbEntity
  8
1
  6
Continuous
100
AcDbLine
 10
29.50339476224334
 20
68.43971756762548
 30
0.0
 11
41.02946887958487
 21
68.43971756762548
 31
0.0
  0
LINE
  5
CEE
330
18
100
AcDbEntity
  8
1
  6
Continuous
100
AcDbLine
 10
31.24761854209791
 20
69.43971756762547
 30
0.0
 11
35.17313613036376
 21
69.43971756762547
 31
0.0
  0
ARC
  5
CEF
330
18
100
AcDbEntity
  8
1
  6
Continuous
100
AcDbCircle
 10
26.07500399121531
 20
65.63707170184156
 30
0.0
 40
0.5600000000000001
100
AcDbArc
 50
90.0
 51
180.0
  0
ARC
  5
CF0
330
18
100
AcDbEntity
  8
1
  6
Continuous
100
AcDbCircle
 10
26.07500399121531
 20
62.52023045054347
 30
0.0
 40
0.5600000000000001
100
AcDbArc
 50
180.0
 51
270.0
  0
LINE
  5
CF1
330
18
100
AcDbEntity
  8
1
  6
Continuous
100
AcDbLine
 10
25.51500399121536
 20
65.63707170184156
 30
0.0
 11
25.51500399121536
 21
62.52023045054347
 31
0.0
  0
LINE
  5
CF2
330
18
100
AcDbEntity
  8
1
  6
Continuous
100
AcDbLine
 10
26.32525678197325
 20
66.19707170184156
 30
0.0
 11
26.32525678197325
 21
66.63312764680537
 31
0.0
  0
LINE
  5
CF3
330
18
100
AcDbEntity
  8
1
  6
Continuous
100
AcDbLine
 10
31.24761854209791
 20
70.12208224831076
 30
0.0
 11
30.25077437023909
 21
70.12208224831076
 31
0.0
  0
LINE
  5
CF4
330
18
100
AcDbEntity
  8
1
  6
Continuous
100
AcDbLine
 10
29.19105701561815
 20
68.75154827245416
 30
0.0
 11
29.19105701561815
 21
68.93813965355485
 31
0.0
  0
LINE
  5
CF5
330
18
100
AcDbEntity
  8
1
  6
Continuous
100
AcDbLine
 10
29.3157892975498
 20
69.12523807645214
 30
0.0
 11
29.19105701561815
 21
68.93813965355497
 31
0.0
  0
LINE
  5
CF6
330
18
100
AcDbEntity
  8
1
  6
Continuous
100
AcDbLine
 10
29.31578929754968
 20
68.50208370859125
 30
0.0
 11
29.19105701561815
 21
68.75154827245424
 31
0.0
  0
LINE
  5
CF7
330
18
100
AcDbEntity
  8
1
  6
Continuous
100
AcDbLine
 10
29.50339476224334
 20
68.43971756762548
 30
0.0
 11
29.31578929754968
 21
68.50208370859125
 31
0.0
  0
LINE
  5
CF8
330
18
100
AcDbEntity
  8
1
  6
Continuous
100
AcDbLine
 10
31.24761854209791
 20
69.43971756762547
 30
0.0
 11
31.24761854209791
 21
70.12208224831076
 31
0.0
  0
LINE
  5
CF9
330
18
100
AcDbEntity
  8
1
  6
Continuous
100
AcDbLine
 10
30.25077437023921
 20
70.12208224831084
 30
0.0
 11
29.3157892975498
 21
69.12523807645209
 31
0.0
  0
LINE
  5
CFA
330
18
100
AcDbEntity
  8
1
  6
Continuous
100
AcDbLine
 10
44.456057340125
 20
60.40259805178947
 30
0.0
 11
44.45605734012504
 21
67.56760567769834
 31
0.0
  0
LINE
  5
CFB
330
18
100
AcDbEntity
  8
1
  6
Continuous
100
AcDbLine
 10
37.35341585518208
 20
67.56760567769834
 30
0.0
 11
37.35341585518208
 21
61.58603360474905
 31
0.0
  0
LINE
  5
CFC
330
18
100
AcDbEntity
  8
1
  6
Continuous
100
AcDbLine
 10
37.35341585518208
 20
61.58603360474905
 30
0.0
 11
44.45605734012504
 21
61.58603360474905
 31
0.0
  0
LINE
  5
CFD
330
18
100
AcDbEntity
  8
1
  6
Continuous
100
AcDbLine
 10
44.45605734012494
 20
60.40259805178945
 30
0.0
 11
43.45921316826625
 21
60.40259805178945
 31
0.0
  0
LINE
  5
CFE
330
18
100
AcDbEntity
  8
1
  6
Continuous
100
AcDbLine
 10
43.45921316826625
 20
60.40259805178945
 30
0.0
 11
43.45921316826625
 21
61.58603360474896
 31
0.0
  0
LINE
  5
CFF
330
18
100
AcDbEntity
  8
1
  6
Continuous
100
AcDbLine
 10
42.18003183311717
 20
70.12208224831084
 30
0.0
 11
35.17313613036376
 21
70.12208224831084
 31
0.0
  0
LINE
  5
D00
330
18
100
AcDbEntity
  8
1
  6
Continuous
100
AcDbLine
 10
44.45605734012504
 20
67.56760567769834
 30
0.0
 11
37.35341585518208
 21
67.56760567769834
 31
0.0
  0
ARC
  5
D01
330
18
100
AcDbEntity
  8
1
  6
Continuous
100
AcDbCircle
 10
41.02946887958509
 20
68.0036616226619
 30
0.0
 40
0.4360559449635845
100
AcDbArc
 50
270.0
 51
90.0
  0
ARC
  5
D02
330
18
100
AcDbEntity
  8
1
  6
Continuous
100
AcDbCircle
 10
37.85341585518207
 20
68.00366162266192
 30
0.0
 40
0.4360559449635845
100
AcDbArc
 50
270.0
 51
90.0
  0
LINE
  5
D03
330
18
100
AcDbEntity
  8
1
  6
Continuous
100
AcDbLine
 10
35.17313613036376
 20
70.12208224831084
 30
0.0
 11
35.17313613036376
 21
68.43971756762548
 31
0.0
  0
LINE
  5
D04
330
18
100
AcDbEntity
  8
1
  6
Continuous
100
AcDbLine
 10
42.4366812160284
 20
69.97742411083113
 30
0.0
 11
43.89526911322977
 21
67.56760567769828
 31
0.0
  0
ARC
  5
D05
330
18
100
AcDbEntity
  8
1
  6
Continuous
100
AcDbCircle
 10
42.18003183311717
 20
69.82208224831085
 30
0.0
 40
0.3
100
AcDbArc
 50
31.18521100796259
 51
90.0
  0
LINE
  5
D06
330
18
100
AcDbEntity
  8
1
  6
Continuous
100
AcDbLine
 10
20.28131856805879
 20
138.1988586071563
 30
0.0
 11
44.45605734012502
 21
138.1988586071561
 31
0.0
  0
LINE
  5
D07
330
18
100
AcDbEntity
  8
1
  6
Continuous
100
AcDbLine
 10
44.45605734012502
 20
143.6815015523795
 30
0.0
 11
20.2813185680589
 21
143.6815015523796
 31
0.0
  0
LINE
  5
D08
330
18
100
AcDbEntity
  8
1
  6
Continuous
100
AcDbLine
 10
29.56423977782009
 20
138.8843791159831
 30
0.0
 11
29.56423977782009
 21
138.1988586071565
 31
0.0
  0
LINE
  5
D09
330
18
100
AcDbEntity
  8
1
  6
Continuous
100
AcDbLine
 10
27.32210095383261
 20
138.8843791159831
 30
0.0
 11
27.32210095383261
 21
138.1988586071565
 31
0.0
  0
LINE
  5
D0A
330
18
100
AcDbEntity
  8
1
  6
Continuous
100
AcDbLine
 10
22.89765423784052
 20
143.6815015523795
 30
0.0
 11
22.89765423784052
 21
138.1988586071563
 31
0.0
  0
LINE
  5
D0B
330
18
100
AcDbEntity
  8
1
  6
Continuous
100
AcDbLine
 10
20.28131856805868
 20
143.6815015523795
 30
0.0
 11
20.28131856805868
 21
138.1988586071563
 31
0.0
  0
LINE
  5
D0C
330
18
100
AcDbEntity
  8
1
  6
Continuous
100
AcDbLine
 10
29.56423977782043
 20
142.9964880853497
 30
0.0
 11
26.4489749803119
 21
142.9964880853496
 31
0.0
  0
LINE
  5
D0D
330
18
100
AcDbEntity
  8
1
  6
Continuous
100
AcDbLine
 10
26.4489749803119
 20
138.8843791159831
 30
0.0
 11
29.56423977782043
 21
138.8843791159832
 31
0.0
  0
LINE
  5
D0E
330
18
100
AcDbEntity
  8
1
  6
Continuous
100
AcDbLine
 10
26.44897498031167
 20
142.9964880853496
 30
0.0
 11
26.44897498031167
 21
138.8843791159831
 31
0.0
  0
LINE
  5
D0F
330
18
100
AcDbEntity
  8
1
  6
Continuous
100
AcDbLine
 10
27.32210095383261
 20
143.6815015523796
 30
0.0
 11
27.32210095383261
 21
142.9964880853495
 31
0.0
  0
LINE
  5
D10
330
18
100
AcDbEntity
  8
1
  6
Continuous
100
AcDbLine
 10
29.56423977782009
 20
143.6815015523796
 30
0.0
 11
29.56423977782009
 21
142.9964880853495
 31
0.0
  0
LINE
  5
D11
330
18
100
AcDbEntity
  8
1
  6
Continuous
100
AcDbLine
 10
44.45605734012502
 20
138.1988586071563
 30
0.0
 11
44.45605734012502
 21
143.6815015523793
 31
0.0
  0
LINE
  5
D12
330
18
100
AcDbEntity
  8
1
  6
Continuous
100
AcDbLine
 10
42.76213820705367
 20
155.7001829281638
 30
0.0
 11
42.76213820705367
 21
151.8370314808635
 31
0.0
  0
LINE
  5
D13
330
18
100
AcDbEntity
  8
1
  6
Continuous
100
AcDbLine
 10
29.19105701561766
 20
154.7348067801545
 30
0.0
 11
29.19105701561766
 21
152.8029461031383
 31
0.0
  0
LINE
  5
D14
330
18
100
AcDbEntity
  8
1
  6
Continuous
100
AcDbLine
 10
30.25077437024008
 20
152.2730874258274
 30
0.0
 11
30.25077437024008
 21
155.2641269831999
 31
0.0
  0
LINE
  5
D15
330
18
100
AcDbEntity
  8
1
  6
Continuous
100
AcDbLine
 10
31.24761854209741
 20
155.2997226478655
 30
0.0
 11
31.24761854209741
 21
152.237491761162
 31
0.0
  0
LINE
  5
D16
330
18
100
AcDbEntity
  8
1
  6
Continuous
100
AcDbLine
 10
25.51500399121475
 20
155.2641269831999
 30
0.0
 11
25.51500399121475
 21
152.2730874258274
 31
0.0
  0
LINE
  5
D17
330
18
100
AcDbEntity
  8
1
  6
Continuous
100
AcDbLine
 10
43.89526911322927
 20
156.260971155059
 30
0.0
 11
43.89526911322916
 21
151.2762432539685
 31
0.0
  0
LINE
  5
D18
330
18
100
AcDbEntity
  8
1
  6
Continuous
100
AcDbLine
 10
44.45605734012501
 20
151.2762432539686
 30
0.0
 11
44.45605734012501
 21
156.2609711550589
 31
0.0
  0
LINE
  5
D19
330
18
100
AcDbEntity
  8
1
  6
Continuous
100
AcDbLine
 10
30.25077437024042
 20
155.2641269832003
 30
0.0
 11
42.4623689964075
 21
155.7001829281639
 31
0.0
  0
LINE
  5
D1A
330
18
100
AcDbEntity
  8
1
  6
Continuous
100
AcDbLine
 10
30.25077437023985
 20
155.2641269831999
 30
0.0
 11
25.51500399121486
 21
155.2641269831999
 31
0.0
  0
LINE
  5
D1B
330
18
100
AcDbEntity
  8
1
  6
Continuous
100
AcDbLine
 10
29.19105701561766
 20
154.7348067801545
 30
0.0
 11
30.25077437024042
 21
155.2641269832003
 31
0.0
  0
LINE
  5
D1C
330
18
100
AcDbEntity
  8
1
  6
Continuous
100
AcDbLine
 10
35.17313613036326
 20
156.2609711550588
 30
0.0
 11
44.45605734012501
 21
156.2609711550591
 31
0.0
  0
LINE
  5
D1D
330
18
100
AcDbEntity
  8
1
  6
Continuous
100
AcDbLine
 10
35.17313613036326
 20
156.2609711550588
 30
0.0
 11
35.17313613036326
 21
155.4491781166523
 31
0.0
  0
LINE
  5
D1E
330
18
100
AcDbEntity
  8
1
  6
Continuous
100
AcDbLine
 10
42.4623689964075
 20
155.7001829281639
 30
0.0
 11
42.76213820705367
 21
155.7001829281638
 31
0.0
  0
LINE
  5
D1F
330
18
100
AcDbEntity
  8
1
  6
Continuous
100
AcDbLine
 10
42.34912415958818
 20
156.2609711550589
 30
0.0
 11
42.34912415958818
 21
155.7001829281638
 31
0.0
  0
LINE
  5
D20
330
18
100
AcDbEntity
  8
1
  6
Continuous
100
AcDbLine
 10
42.4623689964075
 20
151.8370314808635
 30
0.0
 11
30.25077437024008
 21
152.2730874258273
 31
0.0
  0
LINE
  5
D21
330
18
100
AcDbEntity
  8
1
  6
Continuous
100
AcDbLine
 10
25.51500399121486
 20
152.2730874258274
 30
0.0
 11
30.25077437024008
 21
152.2730874258273
 31
0.0
  0
LINE
  5
D22
330
18
100
AcDbEntity
  8
1
  6
Continuous
100
AcDbLine
 10
29.19105701561766
 20
152.8029461031383
 30
0.0
 11
30.25077437024008
 21
152.2730874258273
 31
0.0
  0
LINE
  5
D23
330
18
100
AcDbEntity
  8
1
  6
Continuous
100
AcDbLine
 10
44.45605734012501
 20
151.2762432539686
 30
0.0
 11
35.17313613036326
 21
151.2762432539684
 31
0.0
  0
LINE
  5
D24
330
18
100
AcDbEntity
  8
1
  6
Continuous
100
AcDbLine
 10
35.17313613036326
 20
152.088036292375
 30
0.0
 11
35.17313613036326
 21
151.2762432539684
 31
0.0
  0
LINE
  5
D25
330
18
100
AcDbEntity
  8
1
  6
Continuous
100
AcDbLine
 10
42.4623689964075
 20
151.8370314808635
 30
0.0
 11
42.76213820705367
 21
151.8370314808635
 31
0.0
  0
LINE
  5
D26
330
18
100
AcDbEntity
  8
1
  6
Continuous
100
AcDbLine
 10
42.34912415958811
 20
151.8370314808635
 30
0.0
 11
42.34912415958807
 21
151.2762432539686
 31
0.0
  0
ARC
  5
D27
330
18
100
AcDbEntity
  8
1
  6
Continuous
100
AcDbCircle
 10
94.49834250121256
 20
144.7293936421405
 30
0.0
 40
0.8010416666666609
100
AcDbArc
 50
128.7179883513886
 51
231.2820116486113
  0
ARC
  5
D28
330
18
100
AcDbEntity
  8
1
  6
Continuous
100
AcDbCircle
 10
93.49625916787926
 20
144.7293936421405
 30
0.0
 40
0.8010416666666609
100
AcDbArc
 50
308.7179883513886
 51
51.28201164861139
  0
ARC
  5
D29
330
18
100
AcDbEntity
  8
1
  6
Continuous
100
AcDbCircle
 10
93.49625916787926
 20
145.9793936421405
 30
0.0
 40
0.8010416666666609
100
AcDbArc
 50
308.7179883513886
 51
51.2820116486114
  0
ARC
  5
D2A
330
18
100
AcDbEntity
  8
1
  6
Continuous
100
AcDbCircle
 10
94.69402425626372
 20
145.9793936421403
 30
0.0
 40
0.8010416666666609
100
AcDbArc
 50
308.7179883513886
 51
51.28201164861142
  0
ARC
  5
D2B
330
18
100
AcDbEntity
  8
1
  6
Continuous
100
AcDbCircle
 10
95.69610758959704
 20
145.9793936421403
 30
0.0
 40
0.8010416666666609
100
AcDbArc
 50
128.7179883513885
 51
231.2820116486113
  0
ARC
  5
D2C
330
18
100
AcDbEntity
  8
1
  6
Continuous
100
AcDbCircle
 10
95.69610758959704
 20
144.7293936421403
 30
0.0
 40
0.8010416666666609
100
AcDbArc
 50
128.7179883513885
 51
231.2820116486113
  0
ARC
  5
D2D
330
18
100
AcDbEntity
  8
1
  6
Continuous
100
AcDbCircle
 10
95.69610758960259
 20
148.7293936421405
 30
0.0
 40
0.8010416666666609
100
AcDbArc
 50
128.7179883513885
 51
231.2820116486113
  0
ARC
  5
D2E
330
18
100
AcDbEntity
  8
1
  6
Continuous
100
AcDbCircle
 10
95.69610758960259
 20
149.9793936421405
 30
0.0
 40
0.8010416666666609
100
AcDbArc
 50
128.7179883513885
 51
231.2820116486113
  0
ARC
  5
D2F
330
18
100
AcDbEntity
  8
1
  6
Continuous
100
AcDbCircle
 10
94.69402425626929
 20
149.9793936421405
 30
0.0
 40
0.8010416666666609
100
AcDbArc
 50
308.7179883513886
 51
51.28201164861142
  0
ARC
  5
D30
330
18
100
AcDbEntity
  8
1
  6
Continuous
100
AcDbCircle
 10
93.49625916788481
 20
149.9793936421407
 30
0.0
 40
0.8010416666666609
100
AcDbArc
 50
308.7179883513886
 51
51.2820116486114
  0
ARC
  5
D31
330
18
100
AcDbEntity
  8
1
  6
Continuous
100
AcDbCircle
 10
93.49625916788481
 20
148.7293936421407
 30
0.0
 40
0.8010416666666609
100
AcDbArc
 50
308.7179883513886
 51
51.28201164861139
  0
ARC
  5
D32
330
18
100
AcDbEntity
  8
1
  6
Continuous
100
AcDbCircle
 10
94.49834250121813
 20
148.7293936421407
 30
0.0
 40
0.8010416666666609
100
AcDbArc
 50
128.7179883513886
 51
231.2820116486113
  0
ARC
  5
D33
330
18
100
AcDbEntity
  8
1
  6
Continuous
100
AcDbCircle
 10
93.49397493235972
 20
72.95181964122345
 30
0.0
 40
0.8010416666666609
100
AcDbArc
 50
308.7179883516546
 51
51.28201164861139
  0
ARC
  5
D34
330
18
100
AcDbEntity
  8
1
  6
Continuous
100
AcDbCircle
 10
95.6938233540775
 20
72.95181964122322
 30
0.0
 40
0.8010416666666609
100
AcDbArc
 50
128.7179883513885
 51
231.28201164832
  0
ARC
  5
D35
330
18
100
AcDbEntity
  8
1
  6
Continuous
100
AcDbCircle
 10
93.49397493235972
 20
74.20181964122345
 30
0.0
 40
0.8010416666666609
100
AcDbArc
 50
308.7179883513886
 51
51.28201164834536
  0
ARC
  5
D36
330
18
100
AcDbEntity
  8
1
  6
Continuous
100
AcDbCircle
 10
95.6938233540775
 20
74.20181964122322
 30
0.0
 40
0.8010416666666609
100
AcDbArc
 50
128.717988351633
 51
231.2820116486113
  0
ARC
  5
D37
330
18
100
AcDbEntity
  8
1
  6
Continuous
100
AcDbCircle
 10
94.69174002074421
 20
74.20181964122322
 30
0.0
 40
0.8010416666666609
100
AcDbArc
 50
308.7179883513886
 51
51.28201164861142
  0
ARC
  5
D38
330
18
100
AcDbEntity
  8
1
  6
Continuous
100
AcDbCircle
 10
94.496058265693
 20
72.95181964122345
 30
0.0
 40
0.8010416666666609
100
AcDbArc
 50
128.7179883513886
 51
231.2820116486113
  0
LINE
  5
D8B
330
18
100
AcDbEntity
  8
4
  6
CENTER
 48
0.3
100
AcDbLine
 10
509.6624204161877
 20
87.89143096326375
 30
0.0
 11
509.6624204161878
 21
47.89143096326403
 31
0.0
  0
LINE
  5
D8C
330
18
100
AcDbEntity
  8
1
  6
Continuous
100
AcDbLine
 10
527.1624204161875
 20
63.88800649375053
 30
0.0
 11
527.1624204161875
 21
52.89143096326437
 31
0.0
  0
LINE
  5
D8D
330
18
100
AcDbEntity
  8
1
  6
Continuous
100
AcDbLine
 10
492.1624204161875
 20
63.8880064937506
 30
0.0
 11
492.1624204161875
 21
52.8914309632637
 31
0.0
  0
LINE
  5
D8F
330
18
100
AcDbEntity
  8
1
  6
Continuous
100
AcDbLine
 10
527.1624204161875
 20
52.89143096326437
 30
0.0
 11
492.1624204161875
 21
52.8914309632637
 31
0.0
  0
LINE
  5
D90
330
18
100
AcDbEntity
  8
1
  6
Continuous
100
AcDbLine
 10
528.1640084710942
 20
77.84433692120789
 30
0.0
 11
528.1640084710942
 21
63.8880064937506
 31
0.0
  0
LINE
  5
D92
330
18
100
AcDbEntity
  8
1
  6
Continuous
100
AcDbLine
 10
490.1608323612815
 20
63.8880064937506
 30
0.0
 11
490.1608323612815
 21
67.87589520262024
 31
0.0
  0
LINE
  5
D93
330
18
100
AcDbEntity
  8
1
  6
Continuous
100
AcDbLine
 10
491.1608323612813
 20
63.88800649375053
 30
0.0
 11
491.1608323612813
 21
77.84433692120797
 31
0.0
  0
LINE
  5
D94
330
18
100
AcDbEntity
  8
1
  6
Continuous
100
AcDbLine
 10
491.1608323612813
 20
67.87589520262024
 30
0.0
 11
490.1608323612815
 21
67.87589520262024
 31
0.0
  0
LINE
  5
D95
330
18
100
AcDbEntity
  8
1
  6
Continuous
100
AcDbLine
 10
491.1608323612813
 20
63.88800649375053
 30
0.0
 11
528.1640084710942
 21
63.8880064937506
 31
0.0
  0
LINE
  5
D96
330
18
100
AcDbEntity
  8
1
  6
Continuous
100
AcDbLine
 10
528.1640084710942
 20
67.87589520262018
 30
0.0
 11
529.1640084710941
 21
67.8758952026202
 31
0.0
  0
LINE
  5
D98
330
18
100
AcDbEntity
  8
1
  6
Continuous
100
AcDbLine
 10
491.1608323612813
 20
62.88800649375058
 30
0.0
 11
492.1624204161875
 21
62.88800649375058
 31
0.0
  0
ARC
  5
D99
330
18
100
AcDbEntity
  8
1
  6
Continuous
100
AcDbCircle
 10
491.1608323612813
 20
63.88800649375061
 30
0.0
 40
1.0
100
AcDbArc
 50
180.0000000000002
 51
270.0
  0
LINE
  5
D9A
330
18
100
AcDbEntity
  8
1
  6
Continuous
100
AcDbLine
 10
528.1640084710941
 20
62.88800649375058
 30
0.0
 11
527.1624204161879
 21
62.88800649375058
 31
0.0
  0
ARC
  5
D9B
330
18
100
AcDbEntity
  8
1
  6
Continuous
100
AcDbCircle
 10
528.1640084710941
 20
63.88800649375061
 30
0.0
 40
1.0
100
AcDbArc
 50
270.0
 51
359.9999999999997
  0
LINE
  5
D9C
330
18
100
AcDbEntity
  8
1
  6
Continuous
100
AcDbLine
 10
529.1640084710941
 20
63.32773028828984
 30
0.0
 11
529.1640084710941
 21
78.523252605967
 31
0.0
  0
LINE
  5
D9D
330
18
100
AcDbEntity
  8
1
  6
Continuous
100
AcDbLine
 10
407.7579623530011
 20
79.336954392651
 30
0.0
 11
407.7579623530011
 21
76.59853522728259
 31
0.0
  0
LINE
  5
DA4
330
18
100
AcDbEntity
  8
1
  6
Continuous
100
AcDbLine
 10
529.6624305570234
 20
82.89143096326382
 30
0.0
 11
529.6624305570234
 21
63.3277302882899
 31
0.0
  0
LINE
  5
DA5
330
18
100
AcDbEntity
  8
1
  6
Continuous
100
AcDbLine
 10
489.6624102753516
 20
63.32773028828984
 30
0.0
 11
489.6624102753516
 21
82.89143096326387
 31
0.0
  0
LINE
  5
DA6
330
18
100
AcDbEntity
  8
1
  6
Continuous
100
AcDbLine
 10
489.6624102753516
 20
82.89143096326387
 30
0.0
 11
529.6624305570234
 21
82.89143096326382
 31
0.0
  0
LINE
  5
DA7
330
18
100
AcDbEntity
  8
1
  6
Continuous
100
AcDbLine
 10
491.6624102753516
 20
77.84433692120784
 30
0.0
 11
493.6497869627873
 21
77.84433692120784
 31
0.0
  0
ARC
  5
DA8
330
18
100
AcDbEntity
  8
1
  6
Continuous
100
AcDbCircle
 10
527.6624305570233
 20
79.84433692120784
 30
0.0
 40
2.0
100
AcDbArc
 50
270.0
 51
0.0
  0
ARC
  5
DA9
330
18
100
AcDbEntity
  8
1
  6
Continuous
100
AcDbCircle
 10
491.6624102753516
 20
79.84433692120787
 30
0.0
 40
2.0
100
AcDbArc
 50
180.0
 51
270.0
  0
LINE
  5
DAA
330
18
100
AcDbEntity
  8
1
  6
Continuous
100
AcDbLine
 10
529.1640084710941
 20
63.32773028828984
 30
0.0
 11
529.6624305570234
 21
63.32773028828984
 31
0.0
  0
LINE
  5
DAB
330
18
100
AcDbEntity
  8
1
  6
Continuous
100
AcDbLine
 10
394.7984810770404
 20
82.39143096326371
 30
0.0
 11
395.2953252488989
 21
82.39143096326371
 31
0.0
  0
LINE
  5
DAC
330
18
100
AcDbEntity
  8
1
  6
Continuous
100
AcDbLine
 10
340.7802762483794
 20
82.39143096326371
 30
0.0
 11
341.2781912925126
 21
82.39143096326371
 31
0.0
  0
LINE
  5
DAD
330
18
100
AcDbEntity
  8
1
  6
Continuous
100
AcDbLine
 10
395.2953252488989
 20
82.39143096326371
 30
0.0
 11
395.2953252488989
 21
77.84433692120773
 31
0.0
  0
LINE
  5
DB0
330
18
100
AcDbEntity
  8
1
  6
Continuous
100
AcDbLine
 10
490.1608323612815
 20
63.3277302882899
 30
0.0
 11
490.1608323612813
 21
78.52325260596711
 31
0.0
  0
LINE
  5
DB1
330
18
100
AcDbEntity
  8
1
  6
Continuous
100
AcDbLine
 10
490.1608323612813
 20
63.3277302882899
 30
0.0
 11
489.6624102753521
 21
63.3277302882899
 31
0.0
  0
LINE
  5
DB2
330
18
100
AcDbEntity
  8
1
  6
Continuous
100
AcDbLine
 10
525.6750538695885
 20
76.59853522728264
 30
0.0
 11
525.6750538695885
 21
79.336954392651
 31
0.0
  0
LINE
  5
DB3
330
18
100
AcDbEntity
  8
1
  6
Continuous
100
AcDbLine
 10
493.6497869627873
 20
76.59853522728258
 30
0.0
 11
493.6497869627873
 21
79.33695439265114
 31
0.0
  0
LINE
  5
DB4
330
18
100
AcDbEntity
  8
1
  6
Continuous
100
AcDbLine
 10
524.6750538695883
 20
80.336954392651
 30
0.0
 11
494.6497869627874
 21
80.33695439265114
 31
0.0
  0
ARC
  5
DB5
330
18
100
AcDbEntity
  8
1
  6
Continuous
100
AcDbCircle
 10
524.6750538695883
 20
79.33695439265108
 30
0.0
 40
1.0
100
AcDbArc
 50
0.0000000000001018
 51
89.99999999999998
  0
ARC
  5
DB6
330
18
100
AcDbEntity
  8
1
  6
Continuous
100
AcDbCircle
 10
494.6497869627874
 20
79.33695439265115
 30
0.0
 40
1.0
100
AcDbArc
 50
89.99999999999984
 51
179.9999999999998
  0
LINE
  5
DB7
330
18
100
AcDbEntity
  8
1
  6
Continuous
100
AcDbLine
 10
526.6687422133061
 20
76.59853522728275
 30
0.0
 11
492.6560986190696
 21
76.59853522728268
 31
0.0
  0
LINE
  5
DB8
330
18
100
AcDbEntity
  8
1
  6
Continuous
100
AcDbLine
 10
527.6687422133061
 20
75.59853522728275
 30
0.0
 11
527.6687422133059
 21
69.55933075557971
 31
0.0
  0
LINE
  5
DB9
330
18
100
AcDbEntity
  8
1
  6
Continuous
100
AcDbLine
 10
491.6560986190696
 20
75.59853522728268
 30
0.0
 11
491.6560986190699
 21
69.55933075557975
 31
0.0
  0
ARC
  5
DBA
330
18
100
AcDbEntity
  8
1
  6
Continuous
100
AcDbCircle
 10
526.6687422133061
 20
75.59853522728281
 30
0.0
 40
1.0
100
AcDbArc
 50
359.9999999999984
 51
89.99999999999998
  0
ARC
  5
DBB
330
18
100
AcDbEntity
  8
1
  6
Continuous
100
AcDbCircle
 10
492.6560986190696
 20
75.59853522728271
 30
0.0
 40
1.0
100
AcDbArc
 50
90.00000000000019
 51
180.0000000000013
  0
LINE
  5
DBC
330
18
100
AcDbEntity
  8
1
  6
Continuous
100
AcDbLine
 10
525.6750538695885
 20
77.84433692120784
 30
0.0
 11
527.6624305570233
 21
77.8443369212078
 31
0.0
  0
LINE
  5
DBD
330
18
100
AcDbEntity
  8
1
  6
Continuous
100
AcDbLine
 10
526.6624204161878
 20
69.05933075557971
 30
0.0
 11
527.1687422133059
 21
69.05933075557971
 31
0.0
  0
LINE
  5
DBE
330
18
100
AcDbEntity
  8
1
  6
Continuous
100
AcDbLine
 10
526.1624204161878
 20
68.55933075557969
 30
0.0
 11
526.1624204161878
 21
64.88800649375054
 31
0.0
  0
ARC
  5
DC0
330
18
100
AcDbEntity
  8
1
  6
Continuous
100
AcDbCircle
 10
525.1624204161878
 20
64.88800649375061
 30
0.0
 40
1.0
100
AcDbArc
 50
270.0
 51
0.0000000000000891
  0
ARC
  5
DC2
330
18
100
AcDbEntity
  8
1
  6
Continuous
100
AcDbCircle
 10
526.6624204161878
 20
68.55933075557977
 30
0.0
 40
0.5
100
AcDbArc
 50
89.99999999999998
 51
180.0000000000005
  0
ARC
  5
DC3
330
18
100
AcDbEntity
  8
1
  6
Continuous
100
AcDbCircle
 10
527.1687422133059
 20
69.55933075557978
 30
0.0
 40
0.5
100
AcDbArc
 50
269.9999999999997
 51
359.9999999999987
  0
LINE
  5
DC4
330
18
100
AcDbEntity
  8
1
  6
Continuous
100
AcDbLine
 10
492.6624204161878
 20
69.05933075557975
 30
0.0
 11
492.1560986190696
 21
69.05933075557975
 31
0.0
  0
ARC
  5
DC5
330
18
100
AcDbEntity
  8
1
  6
Continuous
100
AcDbCircle
 10
492.1560986190696
 20
69.55933075557978
 30
0.0
 40
0.5
100
AcDbArc
 50
180.0000000000012
 51
270.0000000000002
  0
ARC
  5
DC6
330
18
100
AcDbEntity
  8
1
  6
Continuous
100
AcDbCircle
 10
492.6624204161878
 20
68.55933075557977
 30
0.0
 40
0.5
100
AcDbArc
 50
359.9999999999994
 51
89.99999999999998
  0
LINE
  5
DC7
330
18
100
AcDbEntity
  8
1
  6
Continuous
100
AcDbLine
 10
493.1624204161878
 20
68.55933075557977
 30
0.0
 11
493.1624204161876
 21
64.88800649375059
 31
0.0
  0
ARC
  5
DC8
330
18
100
AcDbEntity
  8
1
  6
Continuous
100
AcDbCircle
 10
494.1624204161876
 20
64.88800649375061
 30
0.0
 40
1.0
100
AcDbArc
 50
179.9999999999998
 51
270.0
  0
LINE
  5
DC9
330
18
100
AcDbEntity
  8
1
  6
Continuous
100
AcDbLine
 10
491.6560986190699
 20
71.61380732619209
 30
0.0
 11
494.1624204161876
 21
71.61380732619216
 31
0.0
  0
LINE
  5
DCA
330
18
100
AcDbEntity
  8
1
  6
Continuous
100
AcDbLine
 10
512.7155725936278
 20
76.59853522728258
 30
0.0
 11
512.7155725936278
 21
71.61380732619256
 31
0.0
  0
LINE
  5
DCB
330
18
100
AcDbEntity
  8
1
  6
Continuous
100
AcDbLine
 10
509.6624204161877
 20
76.59853522728251
 30
0.0
 11
509.6624204161877
 21
71.6138073261925
 31
0.0
  0
LINE
  5
DCC
330
18
100
AcDbEntity
  8
1
  6
Continuous
100
AcDbLine
 10
506.6092682387476
 20
76.59853522728258
 30
0.0
 11
506.6092682387476
 21
71.61380732619256
 31
0.0
  0
ARC
  5
DCF
330
18
100
AcDbEntity
  8
1
  6
Continuous
 48
0.25
100
AcDbCircle
 10
509.6624204161877
 20
70.5953793991414
 30
0.0
 40
7.0
100
AcDbArc
 50
73.74300000000005
 51
106.2569999999999
  0
ARC
  5
DD0
330
18
100
AcDbEntity
  8
1
  6
Continuous
 48
0.25
100
AcDbCircle
 10
507.9824204161878
 20
76.35537939914138
 30
0.0
 40
1.0
100
AcDbArc
 50
106.2569999999999
 51
165.9271249414834
  0
ARC
  5
DD1
330
18
100
AcDbEntity
  8
1
  6
Continuous
 48
0.25
100
AcDbCircle
 10
511.3424204161877
 20
76.35537939914138
 30
0.0
 40
1.0
100
AcDbArc
 50
14.07287505851382
 51
73.74300000000005
  0
LINE
  5
DD2
330
18
100
AcDbEntity
  8
1
  6
Continuous
100
AcDbLine
 10
511.3318089692379
 20
80.336954392651
 30
0.0
 11
511.3318089692379
 21
77.39340424897419
 31
0.0
  0
LINE
  5
DD3
330
18
100
AcDbEntity
  8
1
  6
Continuous
100
AcDbLine
 10
507.9930318631376
 20
80.336954392651
 30
0.0
 11
507.9930318631376
 21
77.39340424897419
 31
0.0
  0
CIRCLE
  5
DD8
330
18
100
AcDbEntity
  8
1
  6
Continuous
100
AcDbCircle
 10
515.9624204161878
 20
71.61380732619256
 30
0.0
 40
2.299999999999998
  0
CIRCLE
  5
DDA
330
18
100
AcDbEntity
  8
1
  6
Continuous
100
AcDbCircle
 10
522.8624204161879
 20
71.61380732619256
 30
0.0
 40
2.299999999999998
  0
LINE
  5
DDB
330
18
100
AcDbEntity
  8
1
  6
Continuous
100
AcDbLine
 10
525.1624204161878
 20
71.61380732619284
 30
0.0
 11
527.6687422133061
 21
71.61380732619296
 31
0.0
  0
LINE
  5
DDC
330
18
100
AcDbEntity
  8
1
  6
Continuous
100
AcDbLine
 10
518.2624204161876
 20
71.61380732619267
 30
0.0
 11
520.5624204161879
 21
71.61380732619273
 31
0.0
  0
CIRCLE
  5
DDD
330
18
100
AcDbEntity
  8
1
  6
Continuous
100
AcDbCircle
 10
503.3624204161878
 20
71.61380732619256
 30
0.0
 40
2.299999999999998
  0
CIRCLE
  5
DDE
330
18
100
AcDbEntity
  8
1
  6
Continuous
100
AcDbCircle
 10
496.4624204161877
 20
71.61380732619256
 30
0.0
 40
2.299999999999998
  0
LINE
  5
DDF
330
18
100
AcDbEntity
  8
1
  6
Continuous
100
AcDbLine
 10
498.7624204161877
 20
71.61380732619226
 30
0.0
 11
501.0624204161876
 21
71.61380732619239
 31
0.0
  0
LINE
  5
DE0
330
18
100
AcDbEntity
  8
1
  6
Continuous
100
AcDbLine
 10
505.6624204161876
 20
71.61380732619244
 30
0.0
 11
513.6624204161878
 21
71.61380732619256
 31
0.0
  0
LINE
  5
DE1
330
18
100
AcDbEntity
  8
1
  6
Continuous
100
AcDbLine
 10
429.7519143584525
 20
175.533227283755
 30
0.0
 11
428.2566481006639
 21
175.533227283755
 31
0.0
  0
LINE
  5
DE2
330
18
100
AcDbEntity
  8
1
  6
Continuous
100
AcDbLine
 10
429.7519143584525
 20
170.9332272837549
 30
0.0
 11
428.2566481006641
 21
170.9332272837549
 31
0.0
  0
LINE
  5
DE3
330
18
100
AcDbEntity
  8
1
  6
Continuous
100
AcDbLine
 10
429.7519143584525
 20
168.633227283755
 30
0.0
 11
428.2566481006642
 21
168.633227283755
 31
0.0
  0
LINE
  5
DE4
330
18
100
AcDbEntity
  8
1
  6
Continuous
100
AcDbLine
 10
429.7519143584525
 20
164.0332272837549
 30
0.0
 11
428.2566481006642
 21
164.0332272837549
 31
0.0
  0
LINE
  5
DE5
330
18
100
AcDbEntity
  8
1
  6
Continuous
100
AcDbLine
 10
429.7519143584525
 20
144.5337343255533
 30
0.0
 11
428.2566481006639
 21
144.5337343255533
 31
0.0
  0
LINE
  5
DE6
330
18
100
AcDbEntity
  8
1
  6
Continuous
100
AcDbLine
 10
429.7519143584525
 20
149.1337343255533
 30
0.0
 11
428.2566481006641
 21
149.1337343255533
 31
0.0
  0
LINE
  5
DE7
330
18
100
AcDbEntity
  8
1
  6
Continuous
100
AcDbLine
 10
429.7519143584525
 20
151.4337343255533
 30
0.0
 11
428.2566481006642
 21
151.4337343255533
 31
0.0
  0
LINE
  5
DE8
330
18
100
AcDbEntity
  8
1
  6
Continuous
100
AcDbLine
 10
429.7519143584525
 20
156.0337343255533
 30
0.0
 11
428.2566481006642
 21
156.0337343255533
 31
0.0
  0
LINE
  5
DE9
330
18
100
AcDbEntity
  8
1
  6
Continuous
100
AcDbLine
 10
528.1640084710942
 20
77.84433692120789
 30
0.0
 11
529.1640084710941
 21
77.8443369212078
 31
0.0
  0
LINE
  5
DEA
330
18
100
AcDbEntity
  8
1
  6
Continuous
100
AcDbLine
 10
491.1608323612813
 20
77.84433692120797
 30
0.0
 11
490.1608323612813
 21
77.84433692120784
 31
0.0
  0
LINE
  5
DEC
330
18
100
AcDbEntity
  8
1
  6
Continuous
100
AcDbLine
 10
389.7775159128403
 20
63.32773028828981
 30
0.0
 11
389.7775159128403
 21
62.82880116056412
 31
0.0
  0
LINE
  5
DEE
330
18
100
AcDbEntity
  8
1
  6
Continuous
100
AcDbLine
 10
379.7775159128403
 20
63.32773028828979
 30
0.0
 11
379.7775159128403
 21
62.82880116056412
 31
0.0
  0
LINE
  5
DEF
330
18
100
AcDbEntity
  8
1
  6
Continuous
100
AcDbLine
 10
344.7771204202386
 20
65.8914309632637
 30
0.0
 11
344.7771204202386
 21
62.82880116056412
 31
0.0
  0
LINE
  5
DF0
330
18
100
AcDbEntity
  8
1
  6
Continuous
100
AcDbLine
 10
349.7984810770403
 20
65.32773028828981
 30
0.0
 11
349.7984810770403
 21
77.8914309632637
 31
0.0
  0
LINE
  5
DF1
330
18
100
AcDbEntity
  8
1
  6
Continuous
100
AcDbLine
 10
343.2781912925127
 20
79.8914309632637
 30
0.0
 11
347.7984810770403
 21
79.8914309632637
 31
0.0
  0
ARC
  5
DF2
330
18
100
AcDbEntity
  8
1
  6
Continuous
100
AcDbCircle
 10
347.7984810770403
 20
77.8914309632637
 30
0.0
 40
2.0
100
AcDbArc
 50
0.0
 51
90.0
  0
ARC
  5
DF3
330
18
100
AcDbEntity
  8
1
  6
Continuous
100
AcDbCircle
 10
343.2781912925127
 20
81.8914309632637
 30
0.0
 40
2.0
100
AcDbArc
 50
179.9999999999998
 51
270.0
  0
LINE
  5
DF4
330
18
100
AcDbEntity
  8
1
  6
Continuous
100
AcDbLine
 10
340.281347120654
 20
79.89143096326369
 30
0.0
 11
340.7802762483794
 21
79.8914309632637
 31
0.0
  0
LINE
  5
DF5
330
18
100
AcDbEntity
  8
1
  6
Continuous
100
AcDbLine
 10
340.2813471206541
 20
69.49538670054312
 30
0.0
 11
340.2813471206541
 21
54.85404778569364
 31
0.0
  0
LINE
  5
DF6
330
18
100
AcDbEntity
  8
1
  6
Continuous
100
AcDbLine
 10
340.7802762483794
 20
69.49538670054312
 30
0.0
 11
340.7802762483794
 21
53.89143096326371
 31
0.0
  0
ARC
  5
DF7
330
18
100
AcDbEntity
  8
1
  6
Continuous
100
AcDbCircle
 10
341.7771204202385
 20
62.82880116056412
 30
0.0
 40
0.9968441718591479
100
AcDbArc
 50
89.81861163411259
 51
180.0
  0
LINE
  5
DF8
330
18
100
AcDbEntity
  8
1
  6
Continuous
100
AcDbLine
 10
344.7771204202386
 20
63.82880116056412
 30
0.0
 11
350.4779733014633
 21
63.82880116056412
 31
0.0
  0
LINE
  5
DF9
330
18
100
AcDbEntity
  8
1
  6
Continuous
100
AcDbLine
 10
343.7802762483795
 20
77.8914309632637
 30
0.0
 11
349.7984810770404
 21
77.8914309632637
 31
0.0
  0
LINE
  5
DFB
330
18
100
AcDbEntity
  8
1
  6
Continuous
100
AcDbLine
 10
346.7771204202386
 20
65.8914309632637
 30
0.0
 11
349.7984810770404
 21
65.8914309632637
 31
0.0
  0
ARC
  5
DFD
330
18
100
AcDbEntity
  8
1
  6
Continuous
100
AcDbCircle
 10
345.7771204202385
 20
65.8914309632637
 30
0.0
 40
1.0
100
AcDbArc
 50
0.0000000000004071
 51
180.0
  0
LINE
  5
EE4
330
18
100
AcDbEntity
  8
1
  6
Continuous
100
AcDbLine
 10
181.1066083485876
 20
79.56760567769811
 30
0.0
 11
188.2092498335305
 21
79.56760567769811
 31
0.0
  0
LINE
  5
EE5
330
18
100
AcDbEntity
  8
1
  6
Continuous
100
AcDbLine
 10
188.2092498335305
 20
73.5860336047488
 30
0.0
 11
181.1066083485876
 21
73.5860336047488
 31
0.0
  0
LINE
  5
EE6
330
18
100
AcDbEntity
  8
1
  6
Continuous
100
AcDbLine
 10
196.0592709264693
 20
80.43971756762525
 30
0.0
 11
184.5331968091277
 21
80.43971756762525
 31
0.0
  0
LINE
  5
EE7
330
18
100
AcDbEntity
  8
1
  6
Continuous
100
AcDbLine
 10
183.3826338555955
 20
82.12208224831062
 30
0.0
 11
190.3895295583488
 21
82.12208224831062
 31
0.0
  0
LINE
  5
EE8
330
18
100
AcDbEntity
  8
1
  6
Continuous
100
AcDbLine
 10
188.2092498335303
 20
73.96023045054324
 30
0.0
 11
199.4876616974973
 21
73.96023045054324
 31
0.0
  0
LINE
  5
EE9
330
18
100
AcDbEntity
  8
1
  6
Continuous
100
AcDbLine
 10
188.2092498335303
 20
78.19707170184134
 30
0.0
 11
199.4876616974973
 21
78.19707170184134
 31
0.0
  0
LINE
  5
EEA
330
18
100
AcDbEntity
  8
1
  6
Continuous
100
AcDbLine
 10
188.2092498335305
 20
78.63312764680514
 30
0.0
 11
199.2374089067394
 21
78.63312764680514
 31
0.0
  0
LINE
  5
EEB
330
18
100
AcDbEntity
  8
1
  6
Continuous
100
AcDbLine
 10
194.3150471466147
 20
81.43971756762523
 30
0.0
 11
190.3895295583488
 21
81.43971756762523
 31
0.0
  0
LINE
  5
EEC
330
18
100
AcDbEntity
  8
1
  6
Continuous
100
AcDbLine
 10
199.2374089067394
 20
78.19707170184134
 30
0.0
 11
199.2374089067394
 21
78.63312764680514
 31
0.0
  0
LINE
  5
EED
330
18
100
AcDbEntity
  8
1
  6
Continuous
100
AcDbLine
 10
200.0476616974972
 20
77.63707170184132
 30
0.0
 11
200.0476616974972
 21
74.52023045054324
 31
0.0
  0
ARC
  5
EEE
330
18
100
AcDbEntity
  8
1
  6
Continuous
100
AcDbCircle
 10
199.4876616974973
 20
74.52023045054324
 30
0.0
 40
0.5600000000000001
100
AcDbArc
 50
270.0
 51
0.000000000000007
  0
ARC
  5
EEF
330
18
100
AcDbEntity
  8
1
  6
Continuous
100
AcDbCircle
 10
199.4876616974973
 20
77.63707170184132
 30
0.0
 40
0.5600000000000001
100
AcDbArc
 50
0.000000000000007
 51
90.0
  0
LINE
  5
EF0
330
18
100
AcDbEntity
  8
1
  6
Continuous
100
AcDbLine
 10
195.3118913184734
 20
82.12208224831062
 30
0.0
 11
196.2468763911628
 21
81.12523807645187
 31
0.0
  0
LINE
  5
EF1
330
18
100
AcDbEntity
  8
1
  6
Continuous
100
AcDbLine
 10
194.3150471466147
 20
81.43971756762523
 30
0.0
 11
194.3150471466147
 21
82.12208224831053
 31
0.0
  0
LINE
  5
EF2
330
18
100
AcDbEntity
  8
1
  6
Continuous
100
AcDbLine
 10
196.0592709264693
 20
80.43971756762525
 30
0.0
 11
196.2468763911629
 21
80.50208370859101
 31
0.0
  0
LINE
  5
EF3
330
18
100
AcDbEntity
  8
1
  6
Continuous
100
AcDbLine
 10
196.2468763911629
 20
80.50208370859101
 30
0.0
 11
196.3716086730944
 21
80.75154827245402
 31
0.0
  0
LINE
  5
EF4
330
18
100
AcDbEntity
  8
1
  6
Continuous
100
AcDbLine
 10
196.2468763911628
 20
81.12523807645192
 30
0.0
 11
196.3716086730944
 21
80.93813965355472
 31
0.0
  0
LINE
  5
EF5
330
18
100
AcDbEntity
  8
1
  6
Continuous
100
AcDbLine
 10
196.3716086730944
 20
80.75154827245393
 30
0.0
 11
196.3716086730944
 21
80.93813965355462
 31
0.0
  0
LINE
  5
EF6
330
18
100
AcDbEntity
  8
1
  6
Continuous
100
AcDbLine
 10
194.3150471466147
 20
82.12208224831053
 30
0.0
 11
195.3118913184735
 21
82.12208224831053
 31
0.0
  0
LINE
  5
EF7
330
18
100
AcDbEntity
  8
1
  6
Continuous
100
AcDbLine
 10
188.2092498335305
 20
79.56760567769811
 30
0.0
 11
188.2092498335305
 21
73.5860336047488
 31
0.0
  0
LINE
  5
EF8
330
18
100
AcDbEntity
  8
1
  6
Continuous
100
AcDbLine
 10
190.3895295583488
 20
82.12208224831062
 30
0.0
 11
190.3895295583488
 21
80.43971756762525
 31
0.0
  0
ARC
  5
EF9
330
18
100
AcDbEntity
  8
1
  6
Continuous
100
AcDbCircle
 10
187.7092498335305
 20
80.00366162266168
 30
0.0
 40
0.4360559449635845
100
AcDbArc
 50
90.0
 51
270.0
  0
LINE
  5
EFA
330
18
100
AcDbEntity
  8
1
  6
Continuous
100
AcDbLine
 10
183.1259844726842
 20
81.97742411083089
 30
0.0
 11
181.6673965754828
 21
79.56760567769805
 31
0.0
  0
ARC
  5
EFB
330
18
100
AcDbEntity
  8
1
  6
Continuous
100
AcDbCircle
 10
183.3826338555955
 20
81.82208224831063
 30
0.0
 40
0.3
100
AcDbArc
 50
90.0
 51
148.8147889920373
  0
ARC
  5
EFC
330
18
100
AcDbEntity
  8
1
  6
Continuous
100
AcDbCircle
 10
184.5331968091275
 20
80.00366162266166
 30
0.0
 40
0.4360559449635845
100
AcDbArc
 50
90.0
 51
270.0
  0
LINE
  5
EFE
330
18
100
AcDbEntity
  8
1
  6
Continuous
100
AcDbLine
 10
182.1034525204464
 20
72.40259805178921
 30
0.0
 11
182.1034525204464
 21
73.58603360474873
 31
0.0
  0
LINE
  5
EFF
330
18
100
AcDbEntity
  8
1
  6
Continuous
100
AcDbLine
 10
181.1066083485877
 20
72.40259805178921
 30
0.0
 11
182.1034525204464
 21
72.40259805178921
 31
0.0
  0
LINE
  5
113A
330
18
100
AcDbEntity
  8
1
  6
Continuous
100
AcDbLine
 10
440.265841782518
 20
53.8914309632637
 30
0.0
 11
429.7519143584525
 21
53.89143096326368
 31
0.0
  0
LINE
  5
113C
330
18
100
AcDbEntity
  8
1
  6
Continuous
100
AcDbLine
 10
428.7519143584526
 20
65.8758952026201
 30
0.0
 11
428.7519143584525
 21
53.8914309632637
 31
0.0
  0
ARC
  5
113D
330
18
100
AcDbEntity
  8
1
  6
Continuous
100
AcDbCircle
 10
426.7519143584526
 20
65.8758952026201
 30
0.0
 40
2.0
100
AcDbArc
 50
0.0
 51
90.0
  0
ARC
  5
113E
330
18
100
AcDbEntity
  8
1
  6
Continuous
100
AcDbCircle
 10
429.7519143584525
 20
53.89143096326368
 30
0.0
 40
1.0
100
AcDbArc
 50
179.9999999999997
 51
270.0
  0
LINE
  5
115F
330
18
100
AcDbEntity
  8
1
  6
Continuous
100
AcDbLine
 10
428.7519143584525
 20
178.0390420390773
 30
0.0
 11
428.7519143584525
 21
179.5348153386614
 31
0.0
  0
LINE
  5
11DB
330
18
100
AcDbEntity
  8
1
  6
Continuous
100
AcDbLine
 10
527.1624204161875
 20
53.89143096326439
 30
0.0
 11
492.1624204161875
 21
53.8914309632637
 31
0.0
  0
LINE
  5
11E7
330
18
100
AcDbEntity
  8
1
  6
Continuous
100
AcDbLine
 10
340.7802762483794
 20
53.89143096326371
 30
0.0
 11
330.2658417825179
 21
53.89143096326368
 31
0.0
  0
ARC
  5
1207
330
18
100
AcDbEntity
  8
1
  6
Continuous
100
AcDbCircle
 10
340.7802762483794
 20
53.8914309632637
 30
0.0
 40
1.0
100
AcDbArc
 50
270.0
 51
359.9999999999998
  0
ARC
  5
1208
330
18
100
AcDbEntity
  8
1
  6
Continuous
100
AcDbCircle
 10
343.7802762483795
 20
75.8914309632637
 30
0.0
 40
2.0
100
AcDbArc
 50
90.0
 51
179.9999999999998
  0
LINE
  5
1260
330
18
100
AcDbEntity
  8
1
  6
Continuous
100
AcDbLine
 10
428.7519143584525
 20
141.5316392288481
 30
0.0
 11
395.795325248899
 21
141.5316392288484
 31
0.0
  0
LINE
  5
1293
330
18
100
AcDbEntity
  8
1
  6
Continuous
100
AcDbLine
 10
395.7953252488989
 20
178.5348153386614
 30
0.0
 11
428.7519143584525
 21
178.5348153386614
 31
0.0
  0
ENDSEC
  0
SECTION
  2
OBJECTS
  0
DICTIONARY
  5
C
330
0
100
AcDbDictionary
281
     1
  3
ACAD_CIP_PREVIOUS_PRODUCT_INFO
350
1310
  3
ACAD_COLOR
350
12F3
  3
ACAD_DETAILVIEWSTYLE
350
130C
  3
ACAD_GROUP
350
D
  3
ACAD_LAYOUT
350
94
  3
ACAD_MATERIAL
350
12C1
  3
ACAD_MLEADERSTYLE
350
1308
  3
ACAD_MLINESTYLE
350
1B
  3
ACAD_PLOTSETTINGS
350
95
  3
ACAD_PLOTSTYLENAME
350
12BF
  3
ACAD_SCALELIST
350
12F6
  3
ACAD_SECTIONVIEWSTYLE
350
130A
  3
ACAD_TABLESTYLE
350
12F4
  3
ACAD_VISUALSTYLE
350
12DA
  3
ACDB_RECOMPOSE_DATA
350
132E
  3
AcDbVariableDictionary
350
1321
  3
CONTENTDICTIONARY
350
3D
  3
DWGPROPS
350
132F
  0
DICTIONARY
  5
1311
330
E
100
AcDbDictionary
280
     1
281
     1
  3
ADSK_XREC_LAYER_RECONCILED
360
1312
  0
DICTIONARY
  5
1313
330
4E
100
AcDbDictionary
280
     1
281
     1
  3
ADSK_XREC_LAYER_RECONCILED
360
1314
  0
DICTIONARY
  5
1315
330
4F
100
AcDbDictionary
280
     1
281
     1
  3
ADSK_XREC_LAYER_RECONCILED
360
1316
  0
DICTIONARY
  5
1317
330
50
100
AcDbDictionary
280
     1
281
     1
  3
ADSK_XREC_LAYER_RECONCILED
360
1318
  0
DICTIONARY
  5
1319
330
51
100
AcDbDictionary
280
     1
281
     1
  3
ADSK_XREC_LAYER_RECONCILED
360
131A
  0
DICTIONARY
  5
131B
330
52
100
AcDbDictionary
280
     1
281
     1
  3
ADSK_XREC_LAYER_RECONCILED
360
131C
  0
DICTIONARY
  5
131D
330
53
100
AcDbDictionary
280
     1
281
     1
  3
ADSK_XREC_LAYER_RECONCILED
360
131E
  0
DICTIONARY
  5
131F
330
54
100
AcDbDictionary
280
     1
281
     1
  3
ADSK_XREC_LAYER_RECONCILED
360
1320
  0
DICTIONARY
  5
12BA
330
18
100
AcDbDictionary
281
     1
  3
ACAD_LAYOUTSELFREF
350
12BB
  0
DICTIONARY
  5
12B8
330
15
100
AcDbDictionary
281
     1
  3
ACAD_LAYOUTSELFREF
350
12B9
  0
XRECORD
  5
1310
102
{ACAD_REACTORS
330
C
102
}
330
C
100
AcDbXrecord
280
     1
300
ACDLT
300
2014
300
ACDLT_F_S
  0
DICTIONARY
  5
12F3
102
{ACAD_REACTORS
330
C
102
}
330
C
100
AcDbDictionary
281
     1
  0
DICTIONARY
  5
130C
102
{ACAD_REACTORS
330
C
102
}
330
C
100
AcDbDictionary
281
     1
  3
Imperial24
350
130D
  0
DICTIONARY
  5
D
102
{ACAD_REACTORS
330
C
102
}
330
C
100
AcDbDictionary
281
     1
  0
DICTIONARY
  5
94
102
{ACAD_REACTORS
330
C
102
}
330
C
100
AcDbDictionary
281
     1
  3
Model
350
130E
  3
レイアウト1
350
130F
  0
DICTIONARY
  5
12C1
102
{ACAD_REACTORS
330
C
102
}
330
C
100
AcDbDictionary
281
     1
  3
ByBlock
350
12CA
  3
ByLayer
350
12C2
  3
Global
350
12D2
  0
DICTIONARY
  5
1308
102
{ACAD_REACTORS
330
C
102
}
330
C
100
AcDbDictionary
281
     1
  3
Standard
350
1309
  0
DICTIONARY
  5
1B
102
{ACAD_REACTORS
330
C
102
}
330
C
100
AcDbDictionary
281
     1
  3
STANDARD
350
1C
  0
DICTIONARY
  5
95
102
{ACAD_REACTORS
330
C
102
}
330
C
100
AcDbDictionary
281
     1
  0
ACDBDICTIONARYWDFLT
  5
12BF
102
{ACAD_REACTORS
330
C
102
}
330
C
100
AcDbDictionary
281
     1
  3
Normal
350
12C0
100
AcDbDictionaryWithDefault
340
12C0
  0
DICTIONARY
  5
12F6
102
{ACAD_REACTORS
330
C
102
}
330
C
100
AcDbDictionary
281
     1
  3
A0
350
12F7
  3
A1
350
12F8
  3
A2
350
12F9
  3
A3
350
12FA
  3
A4
350
12FB
  3
A5
350
12FC
  3
A6
350
12FD
  3
A7
350
12FE
  3
A8
350
12FF
  3
A9
350
1300
  3
B0
350
1301
  3
B1
350
1302
  3
B2
350
1303
  3
B3
350
1304
  3
B4
350
1305
  3
B5
350
1306
  3
B6
350
1307
  0
DICTIONARY
  5
130A
102
{ACAD_REACTORS
330
C
102
}
330
C
100
AcDbDictionary
281
     1
  3
Imperial24
350
130B
  0
DICTIONARY
  5
12F4
102
{ACAD_REACTORS
330
C
102
}
330
C
100
AcDbDictionary
281
     1
  3
Standard
350
12F5
  0
DICTIONARY
  5
12DA
102
{ACAD_REACTORS
330
C
102
}
330
C
100
AcDbDictionary
281
     1
  3
2dWireframe
350
12E0
  3
Basic
350
12DF
  3
Brighten
350
12E6
  3
ColorChange
350
12EA
  3
Conceptual
350
12E3
  3
Dim
350
12E5
  3
EdgeColorOff
350
12F2
  3
Facepattern
350
12E9
  3
Flat
350
12DB
  3
FlatWithEdges
350
12DC
  3
Gouraud
350
12DD
  3
GouraudWithEdges
350
12DE
  3
Hidden
350
12E2
  3
JitterOff
350
12F0
  3
Linepattern
350
12E8
  3
OverhangOff
350
12F1
  3
Realistic
350
12E4
  3
Shaded
350
12EF
  3
Shaded with edges
350
12EE
  3
Shades of Gray
350
12EB
  3
Sketchy
350
12EC
  3
Thicken
350
12E7
  3
Wireframe
350
12E1
  3
X-Ray
350
12ED
  0
XRECORD
  5
132E
102
{ACAD_REACTORS
330
C
102
}
330
C
100
AcDbXrecord
280
     1
 90
        1
330
12F5
  0
DICTIONARY
  5
1321
102
{ACAD_REACTORS
330
C
102
}
330
C
100
AcDbDictionary
281
     1
  3
CANNOSCALE
350
1326
  3
CMLEADERSTYLE
350
1323
  3
CTABLESTYLE
350
1322
  3
CVIEWDETAILSTYLE
350
1324
  3
CVIEWSECTIONSTYLE
350
1325
  3
DIMASSOC
350
1329
  3
INDEXCTL
350
1328
  3
SORTENTS
350
1327
  3
XCLIPFRAME
350
132A
  0
DICTIONARY
  5
3D
102
{ACAD_REACTORS
330
C
102
}
330
C
100
AcDbDictionary
281
     1
  0
XRECORD
  5
132F
102
{ACAD_REACTORS
330
C
102
}
330
C
100
AcDbXrecord
280
     1
  1
DWGPROPS COOKIE
  2

  3

  4

  6

  7

  8
Yoshitsune
  9

300
=
301
=
302
=
303
=
304
=
305
=
306
=
307
=
308
=
309
=
 40
0.1374179861111111
 41
2455079.464147882
 42
2457192.672062581
  1

 90
        0
  0
XRECORD
  5
1312
102
{ACAD_REACTORS
330
1311
102
}
330
1311
100
AcDbXrecord
280
     1
290
     1
  0
XRECORD
  5
1314
102
{ACAD_REACTORS
330
1313
102
}
330
1313
100
AcDbXrecord
280
     1
290
     1
  0
XRECORD
  5
1316
102
{ACAD_REACTORS
330
1315
102
}
330
1315
100
AcDbXrecord
280
     1
290
     1
  0
XRECORD
  5
1318
102
{ACAD_REACTORS
330
1317
102
}
330
1317
100
AcDbXrecord
280
     1
290
     1
  0
XRECORD
  5
131A
102
{ACAD_REACTORS
330
1319
102
}
330
1319
100
AcDbXrecord
280
     1
290
     1
  0
XRECORD
  5
131C
102
{ACAD_REACTORS
330
131B
102
}
330
131B
100
AcDbXrecord
280
     1
290
     1
  0
XRECORD
  5
131E
102
{ACAD_REACTORS
330
131D
102
}
330
131D
100
AcDbXrecord
280
     1
290
     1
  0
XRECORD
  5
1320
102
{ACAD_REACTORS
330
131F
102
}
330
131F
100
AcDbXrecord
280
     1
290
     1
  0
XRECORD
  5
12BB
102
{ACAD_REACTORS
330
12BA
102
}
330
12BA
100
AcDbXrecord
280
     1
340
18
  0
XRECORD
  5
12B9
102
{ACAD_REACTORS
330
12B8
102
}
330
12B8
100
AcDbXrecord
280
     1
340
15
  0
ACDBDETAILVIEWSTYLE
  5
130D
102
{ACAD_XDICTIONARY
360
1367
102
}
102
{ACAD_REACTORS
330
130C
102
}
330
130C
100
AcDbModelDocViewStyle
 70
     0
  3
Imperial24
290
     0
100
AcDbDetailViewStyle
 70
     0
 71
     0
 90
        3
 71
     1
340
F
 40
0.24
340
0
 40
0.24
300

 40
0.36
280
     3
 71
     2
340
14
 90
       25
 71
     3
340
F
 40
0.24
 90
        1
 40
0.75
 90
        1
300
%<\AcVar ViewType \f "%tc1">% %<\AcVar ViewDetailId>%\PSCALE %<\AcVar ViewScale \f "%sn">%
 71
     4
340
14
 90
       25
340
14
 90
       25
280
     0
  0
LAYOUT
  5
130E
102
{ACAD_XDICTIONARY
360
1369
102
}
102
{ACAD_REACTORS
330
94
102
}
330
94
100
AcDbPlotSettings
  1

  2
Canon LBP9100C
  4

  6

 40
0.0
 41
0.0
 42
0.0
 43
0.0
 44
0.0
 45
0.0
 46
0.0
 47
0.0
 48
0.0
 49
0.0
140
0.0
141
0.0
142
1.0
143
1.0
 70
  1712
 72
     0
 73
     0
 74
     0
  7

 75
     0
147
1.0
148
0.0
149
0.0
100
AcDbLayout
  1
Model
 70
     1
 71
     0
 10
0.0
 20
0.0
 11
12.0
 21
9.0
 12
0.0
 22
0.0
 32
0.0
 14
0.0
 24
0.0
 34
0.0
 15
0.0
 25
0.0
 35
0.0
146
0.0
 13
0.0
 23
0.0
 33
0.0
 16
1.0
 26
0.0
 36
0.0
 17
0.0
 27
1.0
 37
0.0
 76
     0
330
18
331
12B7
  0
LAYOUT
  5
130F
102
{ACAD_XDICTIONARY
360
136B
102
}
102
{ACAD_REACTORS
330
94
102
}
330
94
100
AcDbPlotSettings
  1

  2
Canon LBP9100C
  4

  6

 40
0.0
 41
0.0
 42
0.0
 43
0.0
 44
0.0
 45
0.0
 46
0.0
 47
0.0
 48
0.0
 49
0.0
140
0.0
141
0.0
142
1.0
143
1.0
 70
   688
 72
     0
 73
     0
 74
     5
  7

 75
    16
147
1.0
148
0.0
149
0.0
100
AcDbLayout
  1
レイアウト1
 70
     1
 71
     1
 10
0.0
 20
0.0
 11
420.0
 21
297.0
 12
0.0
 22
0.0
 32
0.0
 14
1.000000000000000E+20
 24
1.000000000000000E+20
 34
1.000000000000000E+20
 15
-1.000000000000000E+20
 25
-1.000000000000000E+20
 35
-1.000000000000000E+20
146
0.0
 13
0.0
 23
0.0
 33
0.0
 16
1.0
 26
0.0
 36
0.0
 17
0.0
 27
1.0
 37
0.0
 76
     0
330
15
  0
MATERIAL
  5
12CA
102
{ACAD_XDICTIONARY
360
12CB
102
}
102
{ACAD_REACTORS
330
12C1
102
}
330
12C1
100
AcDbMaterial
  1
ByBlock
 72
     0
 43
0.0208333333333333
 43
0.0
 43
0.0
 43
0.0
 43
0.0
 43
0.0208333333333333
 43
0.0
 43
0.0
 43
0.0
 43
0.0
 43
1.0
 43
0.0
 43
0.0
 43
0.0
 43
0.0
 43
1.0
 77
     0
 47
0.0208333333333333
 47
0.0
 47
0.0
 47
0.0
 47
0.0
 47
0.0208333333333333
 47
0.0
 47
0.0
 47
0.0
 47
0.0
 47
1.0
 47
0.0
 47
0.0
 47
0.0
 47
0.0
 47
1.0
171
     0
 49
0.0208333333333333
 49
0.0
 49
0.0
 49
0.0
 49
0.0
 49
0.0208333333333333
 49
0.0
 49
0.0
 49
0.0
 49
0.0
 49
1.0
 49
0.0
 49
0.0
 49
0.0
 49
0.0
 49
1.0
175
     0
142
0.0208333333333333
142
0.0
142
0.0
142
0.0
142
0.0
142
0.0208333333333333
142
0.0
142
0.0
142
0.0
142
0.0
142
1.0
142
0.0
142
0.0
142
0.0
142
0.0
142
1.0
179
     0
144
0.0208333333333333
144
0.0
144
0.0
144
0.0
144
0.0
144
0.0208333333333333
144
0.0
144
0.0
144
0.0
144
0.0
144
1.0
144
0.0
144
0.0
144
0.0
144
0.0
144
1.0
147
0.0208333333333333
147
0.0
147
0.0
147
0.0
147
0.0
147
0.0208333333333333
147
0.0
147
0.0
147
0.0
147
0.0
147
1.0
147
0.0
147
0.0
147
0.0
147
0.0
147
1.0
  0
MATERIAL
  5
12C2
102
{ACAD_XDICTIONARY
360
12C3
102
}
102
{ACAD_REACTORS
330
12C1
102
}
330
12C1
100
AcDbMaterial
  1
ByLayer
 72
     0
 43
0.0208333333333333
 43
0.0
 43
0.0
 43
0.0
 43
0.0
 43
0.0208333333333333
 43
0.0
 43
0.0
 43
0.0
 43
0.0
 43
1.0
 43
0.0
 43
0.0
 43
0.0
 43
0.0
 43
1.0
 77
     0
 47
0.0208333333333333
 47
0.0
 47
0.0
 47
0.0
 47
0.0
 47
0.0208333333333333
 47
0.0
 47
0.0
 47
0.0
 47
0.0
 47
1.0
 47
0.0
 47
0.0
 47
0.0
 47
0.0
 47
1.0
171
     0
 49
0.0208333333333333
 49
0.0
 49
0.0
 49
0.0
 49
0.0
 49
0.0208333333333333
 49
0.0
 49
0.0
 49
0.0
 49
0.0
 49
1.0
 49
0.0
 49
0.0
 49
0.0
 49
0.0
 49
1.0
175
     0
142
0.0208333333333333
142
0.0
142
0.0
142
0.0
142
0.0
142
0.0208333333333333
142
0.0
142
0.0
142
0.0
142
0.0
142
1.0
142
0.0
142
0.0
142
0.0
142
0.0
142
1.0
179
     0
144
0.0208333333333333
144
0.0
144
0.0
144
0.0
144
0.0
144
0.0208333333333333
144
0.0
144
0.0
144
0.0
144
0.0
144
1.0
144
0.0
144
0.0
144
0.0
144
0.0
144
1.0
147
0.0208333333333333
147
0.0
147
0.0
147
0.0
147
0.0
147
0.0208333333333333
147
0.0
147
0.0
147
0.0
147
0.0
147
1.0
147
0.0
147
0.0
147
0.0
147
0.0
147
1.0
  0
MATERIAL
  5
12D2
102
{ACAD_XDICTIONARY
360
12D3
102
}
102
{ACAD_REACTORS
330
12C1
102
}
330
12C1
100
AcDbMaterial
  1
Global
 72
     0
 43
0.0208333333333333
 43
0.0
 43
0.0
 43
0.0
 43
0.0
 43
0.0208333333333333
 43
0.0
 43
0.0
 43
0.0
 43
0.0
 43
1.0
 43
0.0
 43
0.0
 43
0.0
 43
0.0
 43
1.0
 77
     0
 47
0.0208333333333333
 47
0.0
 47
0.0
 47
0.0
 47
0.0
 47
0.0208333333333333
 47
0.0
 47
0.0
 47
0.0
 47
0.0
 47
1.0
 47
0.0
 47
0.0
 47
0.0
 47
0.0
 47
1.0
171
     0
 49
0.0208333333333333
 49
0.0
 49
0.0
 49
0.0
 49
0.0
 49
0.0208333333333333
 49
0.0
 49
0.0
 49
0.0
 49
0.0
 49
1.0
 49
0.0
 49
0.0
 49
0.0
 49
0.0
 49
1.0
175
     0
142
0.0208333333333333
142
0.0
142
0.0
142
0.0
142
0.0
142
0.0208333333333333
142
0.0
142
0.0
142
0.0
142
0.0
142
1.0
142
0.0
142
0.0
142
0.0
142
0.0
142
1.0
179
     0
144
0.0208333333333333
144
0.0
144
0.0
144
0.0
144
0.0
144
0.0208333333333333
144
0.0
144
0.0
144
0.0
144
0.0
144
1.0
144
0.0
144
0.0
144
0.0
144
0.0
144
1.0
147
0.0208333333333333
147
0.0
147
0.0
147
0.0
147
0.0
147
0.0208333333333333
147
0.0
147
0.0
147
0.0
147
0.0
147
1.0
147
0.0
147
0.0
147
0.0
147
0.0
147
1.0
  0
MLEADERSTYLE
  5
1309
102
{ACAD_REACTORS
330
1308
102
}
330
1308
100
AcDbMLeaderStyle
170
     2
171
     1
172
     0
 90
        2
 40
0.0
 41
0.0
173
     1
 91
-1056964608
340
12
 92
       -2
290
     1
 42
0.09
291
     1
 43
0.36
  3
Standard
 44
0.18
300

342
F
174
     1
178
     6
175
     1
176
     0
 93
-1056964608
 45
0.18
292
     0
297
     0
 46
0.18
 94
-1056964608
 47
1.0
 49
1.0
140
1.0
293
     1
141
0.0
294
     1
177
     0
142
1.0
295
     0
296
     0
143
0.125
1001
ACAD_MLEADERVER
1070
     2
  0
MLINESTYLE
  5
1C
102
{ACAD_REACTORS
330
1B
102
}
330
1B
100
AcDbMlineStyle
  2
STANDARD
 70
     0
  3

 62
   256
 51
90.0
 52
90.0
 71
     2
 49
0.5
 62
   256
  6
BYLAYER
 49
-0.5
 62
   256
  6
BYLAYER
  0
ACDBPLACEHOLDER
  5
12C0
102
{ACAD_REACTORS
330
12BF
102
}
330
12BF
  0
SCALE
  5
12F7
102
{ACAD_REACTORS
330
12F6
102
}
330
12F6
100
AcDbScale
 70
     0
300
1:1
140
1.0
141
1.0
290
     1
  0
SCALE
  5
12F8
102
{ACAD_REACTORS
330
12F6
102
}
330
12F6
100
AcDbScale
 70
     0
300
1/128" = 1'-0"
140
0.0078125
141
12.0
290
     0
  0
SCALE
  5
12F9
102
{ACAD_REACTORS
330
12F6
102
}
330
12F6
100
AcDbScale
 70
     0
300
1/64" = 1'-0"
140
0.015625
141
12.0
290
     0
  0
SCALE
  5
12FA
102
{ACAD_REACTORS
330
12F6
102
}
330
12F6
100
AcDbScale
 70
     0
300
1/32" = 1'-0"
140
0.03125
141
12.0
290
     0
  0
SCALE
  5
12FB
102
{ACAD_REACTORS
330
12F6
102
}
330
12F6
100
AcDbScale
 70
     0
300
1/16" = 1'-0"
140
0.0625
141
12.0
290
     0
  0
SCALE
  5
12FC
102
{ACAD_REACTORS
330
12F6
102
}
330
12F6
100
AcDbScale
 70
     0
300
3/32" = 1'-0"
140
0.09375
141
12.0
290
     0
  0
SCALE
  5
12FD
102
{ACAD_REACTORS
330
12F6
102
}
330
12F6
100
AcDbScale
 70
     0
300
1/8" = 1'-0"
140
0.125
141
12.0
290
     0
  0
SCALE
  5
12FE
102
{ACAD_REACTORS
330
12F6
102
}
330
12F6
100
AcDbScale
 70
     0
300
3/16" = 1'-0"
140
0.1875
141
12.0
290
     0
  0
SCALE
  5
12FF
102
{ACAD_REACTORS
330
12F6
102
}
330
12F6
100
AcDbScale
 70
     0
300
1/4" = 1'-0"
140
0.25
141
12.0
290
     0
  0
SCALE
  5
1300
102
{ACAD_REACTORS
330
12F6
102
}
330
12F6
100
AcDbScale
 70
     0
300
3/8" = 1'-0"
140
0.375
141
12.0
290
     0
  0
SCALE
  5
1301
102
{ACAD_REACTORS
330
12F6
102
}
330
12F6
100
AcDbScale
 70
     0
300
1/2" = 1'-0"
140
0.5
141
12.0
290
     0
  0
SCALE
  5
1302
102
{ACAD_REACTORS
330
12F6
102
}
330
12F6
100
AcDbScale
 70
     0
300
3/4" = 1'-0"
140
0.75
141
12.0
290
     0
  0
SCALE
  5
1303
102
{ACAD_REACTORS
330
12F6
102
}
330
12F6
100
AcDbScale
 70
     0
300
1" = 1'-0"
140
1.0
141
12.0
290
     0
  0
SCALE
  5
1304
102
{ACAD_REACTORS
330
12F6
102
}
330
12F6
100
AcDbScale
 70
     0
300
1-1/2" = 1'-0"
140
1.5
141
12.0
290
     0
  0
SCALE
  5
1305
102
{ACAD_REACTORS
330
12F6
102
}
330
12F6
100
AcDbScale
 70
     0
300
3" = 1'-0"
140
3.0
141
12.0
290
     0
  0
SCALE
  5
1306
102
{ACAD_REACTORS
330
12F6
102
}
330
12F6
100
AcDbScale
 70
     0
300
6" = 1'-0"
140
6.0
141
12.0
290
     0
  0
SCALE
  5
1307
102
{ACAD_REACTORS
330
12F6
102
}
330
12F6
100
AcDbScale
 70
     0
300
1'-0" = 1'-0"
140
12.0
141
12.0
290
     0
  0
ACDBSECTIONVIEWSTYLE
  5
130B
102
{ACAD_XDICTIONARY
360
1365
102
}
102
{ACAD_REACTORS
330
130A
102
}
330
130A
100
AcDbModelDocViewStyle
 70
     0
  3
Imperial24
290
     0
100
AcDbSectionViewStyle
 70
     0
 71
     0
 90
       78
 71
     1
340
F
 40
0.24
340
0
340
0
 40
0.24
300
I, O, Q, S, X, Z
 40
0.48
 90
        3
 40
0.18
 90
        1
 71
     2
340
14
 90
       25
340
14
 90
       50
 40
0.24
 40
0.0
 40
0.24
 71
     3
340
F
 40
0.24
 90
        1
 40
0.75
 90
        1
300
%<\AcVar ViewType \f "%tc1">% %<\AcVar ViewSectionStartId>%-%<\AcVar ViewSectionEndId>%\PSCALE %<\AcVar ViewScale \f "%sn">%
 71
     4
300
ANSI31
 40
1.0
 90
        0
290
     0
290
     0
 90
        6
 40
0.0
 40
1.570796326794896
 40
0.2617993877991494
 40
1.308996938995747
 40
-0.2617993877991494
 40
1.832595714594046
  0
TABLESTYLE
  5
12F5
102
{ACAD_XDICTIONARY
360
132C
102
}
102
{ACAD_REACTORS
330
12F4
102
}
330
12F4
100
AcDbTableStyle
  3
Standard
 70
     0
 71
     0
 40
0.06
 41
0.06
280
     0
281
     0
  7
STANDARD
140
0.18
170
     2
 62
     0
 63
     7
283
     0
274
    -2
284
     1
 64
     0
275
    -2
285
     1
 65
     0
276
    -2
286
     1
 66
     0
277
    -2
287
     1
 67
     0
278
    -2
288
     1
 68
     0
279
    -2
289
     1
 69
     0
  7
STANDARD
140
0.25
170
     5
 62
     0
 63
     7
283
     0
274
    -2
284
     1
 64
     0
275
    -2
285
     1
 65
     0
276
    -2
286
     1
 66
     0
277
    -2
287
     1
 67
     0
278
    -2
288
     1
 68
     0
279
    -2
289
     1
 69
     0
  7
STANDARD
140
0.18
170
     5
 62
     0
 63
     7
283
     0
274
    -2
284
     1
 64
     0
275
    -2
285
     1
 65
     0
276
    -2
286
     1
 66
     0
277
    -2
287
     1
 67
     0
278
    -2
288
     1
 68
     0
279
    -2
289
     1
 69
     0
  0
VISUALSTYLE
  5
12E0
102
{ACAD_XDICTIONARY
360
133D
102
}
102
{ACAD_REACTORS
330
12DA
102
}
330
12DA
100
AcDbVisualStyle
  2
2dWireframe
 70
     4
 71
     0
 72
     2
 73
     0
 90
        0
 40
-0.6
 41
-30.0
 62
     5
 63
     7
 74
     1
 91
        4
 64
     7
 65
   257
 75
     1
175
     1
 42
1.0
 92
        0
 66
   257
 43
1.0
 76
     1
 77
     6
 78
     2
 67
     7
 79
     5
170
     0
171
     0
290
     0
174
     0
 93
        1
 44
0.0
173
     0
291
     0
 45
0.0
1001
ACAD
1000
AcDbSavedByObjectVersion
1070
     0
  0
VISUALSTYLE
  5
12DF
102
{ACAD_XDICTIONARY
360
133B
102
}
102
{ACAD_REACTORS
330
12DA
102
}
330
12DA
100
AcDbVisualStyle
  2
Basic
 70
     7
 71
     1
 72
     0
 73
     1
 90
        0
 40
-0.6
 41
-30.0
 62
     5
 63
     7
 74
     0
 91
        4
 64
     7
 65
   257
 75
     1
175
     1
 42
1.0
 92
        8
 66
     7
 43
1.0
 76
     1
 77
     6
 78
     2
 67
     7
 79
     5
170
     0
171
     0
290
     0
174
     0
 93
        1
 44
0.0
173
     0
291
     1
 45
0.0
1001
ACAD
1000
AcDbSavedByObjectVersion
1070
     0
  0
VISUALSTYLE
  5
12E6
102
{ACAD_XDICTIONARY
360
1349
102
}
102
{ACAD_REACTORS
330
12DA
102
}
330
12DA
100
AcDbVisualStyle
  2
Brighten
 70
    12
 71
     2
 72
     2
 73
     0
 90
        0
 40
-0.6
 41
-30.0
 62
     5
 63
     7
 74
     1
 91
        4
 64
     7
 65
   257
 75
     1
175
     1
 42
1.0
 92
        8
 66
     7
 43
1.0
 76
     1
 77
     6
 78
     2
 67
     7
 79
     5
170
     0
171
     0
290
     0
174
     0
 93
        1
 44
50.0
173
     0
291
     1
 45
0.0
1001
ACAD
1000
AcDbSavedByObjectVersion
1070
     0
  0
VISUALSTYLE
  5
12EA
102
{ACAD_XDICTIONARY
360
1351
102
}
102
{ACAD_REACTORS
330
12DA
102
}
330
12DA
100
AcDbVisualStyle
  2
ColorChange
 70
    16
 71
     2
 72
     2
 73
     3
 90
        0
 40
-0.6
 41
-30.0
 62
     5
 63
     8
 74
     1
 91
        4
 64
     7
 65
   257
 75
     1
175
     1
 42
1.0
 92
        8
 66
     8
 43
1.0
 76
     1
 77
     6
 78
     2
 67
     7
 79
     5
170
     0
171
     0
290
     0
174
     0
 93
        1
 44
0.0
173
     0
291
     1
 45
0.0
1001
ACAD
1000
AcDbSavedByObjectVersion
1070
     0
  0
VISUALSTYLE
  5
12E3
102
{ACAD_XDICTIONARY
360
1343
102
}
102
{ACAD_REACTORS
330
12DA
102
}
330
12DA
100
AcDbVisualStyle
  2
Conceptual
 70
     9
 71
     3
 72
     2
 73
     0
 90
        0
 40
-0.6
 41
-30.0
 62
     5
 63
     7
 74
     2
 91
        2
 64
     7
 65
   257
 75
     1
175
     1
 42
179.0
 92
        8
 66
     7
 43
1.0
 76
     1
 77
     6
 78
     2
 67
     7
 79
     3
170
     0
171
     0
290
     0
174
     0
 93
        1
 44
0.0
173
     0
291
     0
 45
0.0
1001
ACAD
1000
AcDbSavedByObjectVersion
1070
     0
  0
VISUALSTYLE
  5
12E5
102
{ACAD_XDICTIONARY
360
1347
102
}
102
{ACAD_REACTORS
330
12DA
102
}
330
12DA
100
AcDbVisualStyle
  2
Dim
 70
    11
 71
     2
 72
     2
 73
     0
 90
        0
 40
-0.6
 41
-30.0
 62
     5
 63
     7
 74
     1
 91
        4
 64
     7
 65
   257
 75
     1
175
     1
 42
1.0
 92
        8
 66
     7
 43
1.0
 76
     1
 77
     6
 78
     2
 67
     7
 79
     5
170
     0
171
     0
290
     0
174
     0
 93
        1
 44
-50.0
173
     0
291
     1
 45
0.0
1001
ACAD
1000
AcDbSavedByObjectVersion
1070
     0
  0
VISUALSTYLE
  5
12F2
102
{ACAD_XDICTIONARY
360
1361
102
}
102
{ACAD_REACTORS
330
12DA
102
}
330
12DA
100
AcDbVisualStyle
  2
EdgeColorOff
 70
    22
 71
     2
 72
     2
 73
     0
 90
        0
 40
-0.6
 41
-30.0
 62
     5
 63
     7
 74
     1
 91
        4
 64
     7
 65
   257
 75
     1
175
     1
 42
1.0
 92
        8
 66
     7
 43
1.0
 76
     1
 77
     6
 78
     2
 67
     7
 79
     5
170
     0
171
     0
290
     0
174
     0
 93
        1
 44
0.0
173
     0
291
     1
 45
0.0
1001
ACAD
1000
AcDbSavedByObjectVersion
1070
     0
  0
VISUALSTYLE
  5
12E9
102
{ACAD_XDICTIONARY
360
134F
102
}
102
{ACAD_REACTORS
330
12DA
102
}
330
12DA
100
AcDbVisualStyle
  2
Facepattern
 70
    15
 71
     2
 72
     2
 73
     0
 90
        0
 40
-0.6
 41
-30.0
 62
     5
 63
     7
 74
     1
 91
        4
 64
     7
 65
   257
 75
     1
175
     1
 42
1.0
 92
        8
 66
     7
 43
1.0
 76
     1
 77
     6
 78
     2
 67
     7
 79
     5
170
     0
171
     0
290
     0
174
     0
 93
        1
 44
0.0
173
     0
291
     1
 45
0.0
1001
ACAD
1000
AcDbSavedByObjectVersion
1070
     0
  0
VISUALSTYLE
  5
12DB
102
{ACAD_XDICTIONARY
360
1333
102
}
102
{ACAD_REACTORS
330
12DA
102
}
330
12DA
100
AcDbVisualStyle
  2
Flat
 70
     0
 71
     2
 72
     1
 73
     1
 90
        2
 40
-0.6
 41
30.0
 62
     5
 63
     7
 74
     0
 91
        0
 64
     7
 65
   257
 75
     1
175
     1
 42
1.0
 92
        8
 66
     7
 43
1.0
 76
     1
 77
     6
 78
     2
 67
     7
 79
     5
170
     0
171
     0
290
     0
174
     0
 93
       13
 44
0.0
173
     0
291
     1
 45
0.0
1001
ACAD
1000
AcDbSavedByObjectVersion
1070
     0
  0
VISUALSTYLE
  5
12DC
102
{ACAD_XDICTIONARY
360
1335
102
}
102
{ACAD_REACTORS
330
12DA
102
}
330
12DA
100
AcDbVisualStyle
  2
FlatWithEdges
 70
     1
 71
     2
 72
     1
 73
     1
 90
        2
 40
-0.6
 41
30.0
 62
     5
 63
     7
 74
     1
 91
        0
 64
     7
 65
   257
 75
     1
175
     1
 42
1.0
 92
        0
 66
   257
 43
1.0
 76
     1
 77
     6
 78
     2
 67
     7
 79
     5
170
     0
171
     0
290
     0
174
     0
 93
       13
 44
0.0
173
     0
291
     1
 45
0.0
1001
ACAD
1000
AcDbSavedByObjectVersion
1070
     0
  0
VISUALSTYLE
  5
12DD
102
{ACAD_XDICTIONARY
360
1337
102
}
102
{ACAD_REACTORS
330
12DA
102
}
330
12DA
100
AcDbVisualStyle
  2
Gouraud
 70
     2
 71
     2
 72
     2
 73
     1
 90
        2
 40
-0.6
 41
30.0
 62
     5
 63
     7
 74
     0
 91
        0
 64
     7
 65
   257
 75
     1
175
     1
 42
1.0
 92
        0
 66
     7
 43
1.0
 76
     1
 77
     6
 78
     2
 67
     7
 79
     5
170
     0
171
     0
290
     0
174
     0
 93
       13
 44
0.0
173
     0
291
     1
 45
0.0
1001
ACAD
1000
AcDbSavedByObjectVersion
1070
     0
  0
VISUALSTYLE
  5
12DE
102
{ACAD_XDICTIONARY
360
1339
102
}
102
{ACAD_REACTORS
330
12DA
102
}
330
12DA
100
AcDbVisualStyle
  2
GouraudWithEdges
 70
     3
 71
     2
 72
     2
 73
     1
 90
        2
 40
-0.6
 41
30.0
 62
     5
 63
     7
 74
     1
 91
        0
 64
     7
 65
   257
 75
     1
175
     1
 42
1.0
 92
        0
 66
   257
 43
1.0
 76
     1
 77
     6
 78
     2
 67
     7
 79
     5
170
     0
171
     0
290
     0
174
     0
 93
       13
 44
0.0
173
     0
291
     1
 45
0.0
1001
ACAD
1000
AcDbSavedByObjectVersion
1070
     0
  0
VISUALSTYLE
  5
12E2
102
{ACAD_XDICTIONARY
360
1341
102
}
102
{ACAD_REACTORS
330
12DA
102
}
330
12DA
100
AcDbVisualStyle
  2
Hidden
 70
     6
 71
     1
 72
     2
 73
     2
 90
        0
 40
-0.6
 41
-30.0
 62
     5
 63
     7
 74
     2
 91
        2
 64
     7
 65
   257
 75
     2
175
     1
 42
40.0
 92
        0
 66
   257
 43
1.0
 76
     1
 77
     6
 78
     2
 67
     7
 79
     3
170
     0
171
     0
290
     0
174
     0
 93
        1
 44
0.0
173
     0
291
     0
 45
0.0
1001
ACAD
1000
AcDbSavedByObjectVersion
1070
     0
  0
VISUALSTYLE
  5
12F0
102
{ACAD_XDICTIONARY
360
135D
102
}
102
{ACAD_REACTORS
330
12DA
102
}
330
12DA
100
AcDbVisualStyle
  2
JitterOff
 70
    20
 71
     2
 72
     2
 73
     0
 90
        0
 40
-0.6
 41
-30.0
 62
     5
 63
     7
 74
     1
 91
        4
 64
     7
 65
   257
 75
     1
175
     1
 42
1.0
 92
       10
 66
     7
 43
1.0
 76
     1
 77
     6
 78
     2
 67
     7
 79
     5
170
     0
171
     0
290
     0
174
     0
 93
        1
 44
0.0
173
     0
291
     1
 45
0.0
1001
ACAD
1000
AcDbSavedByObjectVersion
1070
     0
  0
VISUALSTYLE
  5
12E8
102
{ACAD_XDICTIONARY
360
134D
102
}
102
{ACAD_REACTORS
330
12DA
102
}
330
12DA
100
AcDbVisualStyle
  2
Linepattern
 70
    14
 71
     2
 72
     2
 73
     0
 90
        0
 40
-0.6
 41
-30.0
 62
     5
 63
     7
 74
     1
 91
        4
 64
     7
 65
   257
 75
     7
175
     7
 42
1.0
 92
        8
 66
     7
 43
1.0
 76
     1
 77
     6
 78
     2
 67
     7
 79
     5
170
     0
171
     0
290
     0
174
     0
 93
        1
 44
0.0
173
     0
291
     1
 45
0.0
1001
ACAD
1000
AcDbSavedByObjectVersion
1070
     0
  0
VISUALSTYLE
  5
12F1
102
{ACAD_XDICTIONARY
360
135F
102
}
102
{ACAD_REACTORS
330
12DA
102
}
330
12DA
100
AcDbVisualStyle
  2
OverhangOff
 70
    21
 71
     2
 72
     2
 73
     0
 90
        0
 40
-0.6
 41
-30.0
 62
     5
 63
     7
 74
     1
 91
        4
 64
     7
 65
   257
 75
     1
175
     1
 42
1.0
 92
        9
 66
     7
 43
1.0
 76
     1
 77
     6
 78
     2
 67
     7
 79
     5
170
     0
171
     0
290
     0
174
     0
 93
        1
 44
0.0
173
     0
291
     1
 45
0.0
1001
ACAD
1000
AcDbSavedByObjectVersion
1070
     0
  0
VISUALSTYLE
  5
12E4
102
{ACAD_XDICTIONARY
360
1345
102
}
102
{ACAD_REACTORS
330
12DA
102
}
330
12DA
100
AcDbVisualStyle
  2
Realistic
 70
     8
 71
     2
 72
     3
 73
     0
 90
        2
 40
-0.6
 41
30.0
 62
     5
 63
     7
 74
     0
 91
        0
 64
     7
 65
   257
 75
     1
175
     1
 42
1.0
 92
        8
 66
   257
 43
1.0
 76
     1
 77
     6
 78
     2
 67
     7
 79
     3
170
     0
171
     0
290
     0
174
     0
 93
       13
 44
0.0
173
     0
291
     0
 45
0.0
1001
ACAD
1000
AcDbSavedByObjectVersion
1070
     0
  0
VISUALSTYLE
  5
12EF
102
{ACAD_XDICTIONARY
360
135B
102
}
102
{ACAD_REACTORS
330
12DA
102
}
330
12DA
100
AcDbVisualStyle
  2
Shaded
 70
    27
 71
     2
 72
     2
 73
     1
 90
        2
 40
-0.6
 41
30.0
 62
     5
 63
     7
 74
     0
 91
        4
 64
     7
 65
   257
 75
     1
175
     1
 42
1.0
 92
        8
 66
   257
 43
1.0
 76
     1
 77
     6
 78
     2
 67
     8
 79
     3
170
     0
171
     0
290
     0
174
     0
 93
        5
 44
0.0
173
     0
291
     0
 45
0.0
1001
ACAD
1000
AcDbSavedByObjectVersion
1070
     0
  0
VISUALSTYLE
  5
12EE
102
{ACAD_XDICTIONARY
360
1359
102
}
102
{ACAD_REACTORS
330
12DA
102
}
330
12DA
100
AcDbVisualStyle
  2
Shaded with edges
 70
    26
 71
     2
 72
     2
 73
     1
 90
        2
 40
-0.6
 41
30.0
 62
     5
 63
     7
 74
     1
 91
       10
 64
     7
 65
   257
 75
     2
175
     1
 42
1.0
 92
        8
 66
   257
 43
1.0
 76
     1
 77
     6
 78
     2
 67
     7
 79
     3
170
     0
171
     0
290
     0
174
     0
 93
        5
 44
0.0
173
     0
291
     0
 45
0.0
1001
ACAD
1000
AcDbSavedByObjectVersion
1070
     0
  0
VISUALSTYLE
  5
12EB
102
{ACAD_XDICTIONARY
360
1353
102
}
102
{ACAD_REACTORS
330
12DA
102
}
330
12DA
100
AcDbVisualStyle
  2
Shades of Gray
 70
    23
 71
     2
 72
     2
 73
     3
 90
        0
 40
-0.6
 41
-30.0
 62
     5
 63
     7
 74
     2
 91
        2
 64
     7
 65
     7
 75
     1
175
     1
 42
40.0
 92
        8
 66
     7
 43
1.0
 76
     1
 77
     6
 78
     2
 67
     7
 79
     3
170
     0
171
     0
290
     0
174
     0
 93
        1
 44
0.0
173
     0
291
     0
 45
0.0
1001
ACAD
1000
AcDbSavedByObjectVersion
1070
     0
  0
VISUALSTYLE
  5
12EC
102
{ACAD_XDICTIONARY
360
1355
102
}
102
{ACAD_REACTORS
330
12DA
102
}
330
12DA
100
AcDbVisualStyle
  2
Sketchy
 70
    24
 71
     1
 72
     2
 73
     2
 90
        0
 40
-0.6
 41
-30.0
 62
     5
 63
     7
 74
     2
 91
        2
 64
     7
 65
     7
 75
     1
175
     1
 42
40.0
 92
       11
 66
     7
 43
1.0
 76
     1
 77
     6
 78
     2
 67
     7
 79
     6
170
     0
171
     0
290
     0
174
     0
 93
        1
 44
0.0
173
     0
291
     0
 45
0.0
1001
ACAD
1000
AcDbSavedByObjectVersion
1070
     0
  0
VISUALSTYLE
  5
12E7
102
{ACAD_XDICTIONARY
360
134B
102
}
102
{ACAD_REACTORS
330
12DA
102
}
330
12DA
100
AcDbVisualStyle
  2
Thicken
 70
    13
 71
     2
 72
     2
 73
     0
 90
        0
 40
-0.6
 41
-30.0
 62
     5
 63
     7
 74
     1
 91
        4
 64
     7
 65
   257
 75
     1
175
     1
 42
1.0
 92
       12
 66
     7
 43
1.0
 76
     1
 77
     6
 78
     2
 67
     7
 79
     5
170
     0
171
     0
290
     0
174
     0
 93
        1
 44
0.0
173
     0
291
     1
 45
0.0
1001
ACAD
1000
AcDbSavedByObjectVersion
1070
     0
  0
VISUALSTYLE
  5
12E1
102
{ACAD_XDICTIONARY
360
133F
102
}
102
{ACAD_REACTORS
330
12DA
102
}
330
12DA
100
AcDbVisualStyle
  2
Wireframe
 70
     5
 71
     0
 72
     2
 73
     0
 90
        0
 40
-0.6
 41
-30.0
 62
     5
 63
     7
 74
     1
 91
        4
 64
     7
 65
   257
 75
     1
175
     1
 42
1.0
 92
        0
 66
   257
 43
1.0
 76
     1
 77
     6
 78
     2
 67
     7
 79
     3
170
     0
171
     0
290
     0
174
     0
 93
        1
 44
0.0
173
     0
291
     0
 45
0.0
1001
ACAD
1000
AcDbSavedByObjectVersion
1070
     0
  0
VISUALSTYLE
  5
12ED
102
{ACAD_XDICTIONARY
360
1357
102
}
102
{ACAD_REACTORS
330
12DA
102
}
330
12DA
100
AcDbVisualStyle
  2
X-Ray
 70
    25
 71
     2
 72
     2
 73
     1
 90
        1
 40
0.5
 41
-30.0
 62
     5
 63
     7
 74
     1
 91
        0
 64
     7
 65
   257
 75
     1
175
     1
 42
1.0
 92
        8
 66
     7
 43
1.0
 76
     1
 77
     6
 78
     2
 67
     7
 79
     3
170
     0
171
     0
290
     0
174
     0
 93
       13
 44
0.0
173
     0
291
     0
 45
0.0
1001
ACAD
1000
AcDbSavedByObjectVersion
1070
     0
  0
DICTIONARYVAR
  5
1326
102
{ACAD_REACTORS
330
1321
102
}
330
1321
100
DictionaryVariables
280
     0
  1
1:1
  0
DICTIONARYVAR
  5
1323
102
{ACAD_REACTORS
330
1321
102
}
330
1321
100
DictionaryVariables
280
     0
  1
STANDARD
  0
DICTIONARYVAR
  5
1322
102
{ACAD_REACTORS
330
1321
102
}
330
1321
100
DictionaryVariables
280
     0
  1
STANDARD
  0
DICTIONARYVAR
  5
1324
102
{ACAD_REACTORS
330
1321
102
}
330
1321
100
DictionaryVariables
280
     0
  1
Imperial24
  0
DICTIONARYVAR
  5
1325
102
{ACAD_REACTORS
330
1321
102
}
330
1321
100
DictionaryVariables
280
     0
  1
Imperial24
  0
DICTIONARYVAR
  5
1329
102
{ACAD_REACTORS
330
1321
102
}
330
1321
100
DictionaryVariables
280
     0
  1
1
  0
DICTIONARYVAR
  5
1328
102
{ACAD_REACTORS
330
1321
102
}
330
1321
100
DictionaryVariables
280
     0
  1
0
  0
DICTIONARYVAR
  5
1327
102
{ACAD_REACTORS
330
1321
102
}
330
1321
100
DictionaryVariables
280
     0
  1
127
  0
DICTIONARYVAR
  5
132A
102
{ACAD_REACTORS
330
1321
102
}
330
1321
100
DictionaryVariables
280
     0
  1
2
  0
DICTIONARY
  5
1367
330
130D
100
AcDbDictionary
280
     1
281
     1
  3
ACAD_XREC_ROUNDTRIP
360
1368
  0
DICTIONARY
  5
1369
330
130E
100
AcDbDictionary
280
     1
281
     1
  3
ACAD_XREC_ROUNDTRIP
360
136A
  0
DICTIONARY
  5
136B
330
130F
100
AcDbDictionary
280
     1
281
     1
  3
ACAD_XREC_ROUNDTRIP
360
136C
  0
DICTIONARY
  5
12CB
330
12CA
100
AcDbDictionary
280
     1
281
     1
  3
ACAD_XREC_ROUNDTRIP
360
1331
  3
BUMPTILE
360
12CD
  3
DIFFUSETILE
360
12CC
  3
OPACITYTILE
360
12D0
  3
REFLECTIONTILE
360
12CF
  3
REFRACTIONTILE
360
12D1
  3
SPECULARTILE
360
12CE
  0
DICTIONARY
  5
12C3
330
12C2
100
AcDbDictionary
280
     1
281
     1
  3
ACAD_XREC_ROUNDTRIP
360
1330
  3
BUMPTILE
360
12C5
  3
DIFFUSETILE
360
12C4
  3
OPACITYTILE
360
12C8
  3
REFLECTIONTILE
360
12C7
  3
REFRACTIONTILE
360
12C9
  3
SPECULARTILE
360
12C6
  0
DICTIONARY
  5
12D3
330
12D2
100
AcDbDictionary
280
     1
281
     1
  3
ACAD_XREC_ROUNDTRIP
360
1332
  3
BUMPTILE
360
12D5
  3
DIFFUSETILE
360
12D4
  3
OPACITYTILE
360
12D8
  3
REFLECTIONTILE
360
12D7
  3
REFRACTIONTILE
360
12D9
  3
SPECULARTILE
360
12D6
  0
DICTIONARY
  5
1365
330
130B
100
AcDbDictionary
280
     1
281
     1
  3
ACAD_XREC_ROUNDTRIP
360
1366
  0
DICTIONARY
  5
132C
330
12F5
100
AcDbDictionary
280
     1
281
     1
  3
ACAD_ROUNDTRIP_2008_TABLESTYLE_CELLSTYLEMAP
360
132D
  3
ACAD_XREC_ROUNDTRIP
360
1363
  0
DICTIONARY
  5
133D
330
12E0
100
AcDbDictionary
280
     1
281
     1
  3
ACAD_XREC_ROUNDTRIP
360
133E
  0
DICTIONARY
  5
133B
330
12DF
100
AcDbDictionary
280
     1
281
     1
  3
ACAD_XREC_ROUNDTRIP
360
133C
  0
DICTIONARY
  5
1349
330
12E6
100
AcDbDictionary
280
     1
281
     1
  3
ACAD_XREC_ROUNDTRIP
360
134A
  0
DICTIONARY
  5
1351
330
12EA
100
AcDbDictionary
280
     1
281
     1
  3
ACAD_XREC_ROUNDTRIP
360
1352
  0
DICTIONARY
  5
1343
330
12E3
100
AcDbDictionary
280
     1
281
     1
  3
ACAD_XREC_ROUNDTRIP
360
1344
  0
DICTIONARY
  5
1347
330
12E5
100
AcDbDictionary
280
     1
281
     1
  3
ACAD_XREC_ROUNDTRIP
360
1348
  0
DICTIONARY
  5
1361
330
12F2
100
AcDbDictionary
280
     1
281
     1
  3
ACAD_XREC_ROUNDTRIP
360
1362
  0
DICTIONARY
  5
134F
330
12E9
100
AcDbDictionary
280
     1
281
     1
  3
ACAD_XREC_ROUNDTRIP
360
1350
  0
DICTIONARY
  5
1333
330
12DB
100
AcDbDictionary
280
     1
281
     1
  3
ACAD_XREC_ROUNDTRIP
360
1334
  0
DICTIONARY
  5
1335
330
12DC
100
AcDbDictionary
280
     1
281
     1
  3
ACAD_XREC_ROUNDTRIP
360
1336
  0
DICTIONARY
  5
1337
330
12DD
100
AcDbDictionary
280
     1
281
     1
  3
ACAD_XREC_ROUNDTRIP
360
1338
  0
DICTIONARY
  5
1339
330
12DE
100
AcDbDictionary
280
     1
281
     1
  3
ACAD_XREC_ROUNDTRIP
360
133A
  0
DICTIONARY
  5
1341
330
12E2
100
AcDbDictionary
280
     1
281
     1
  3
ACAD_XREC_ROUNDTRIP
360
1342
  0
DICTIONARY
  5
135D
330
12F0
100
AcDbDictionary
280
     1
281
     1
  3
ACAD_XREC_ROUNDTRIP
360
135E
  0
DICTIONARY
  5
134D
330
12E8
100
AcDbDictionary
280
     1
281
     1
  3
ACAD_XREC_ROUNDTRIP
360
134E
  0
DICTIONARY
  5
135F
330
12F1
100
AcDbDictionary
280
     1
281
     1
  3
ACAD_XREC_ROUNDTRIP
360
1360
  0
DICTIONARY
  5
1345
330
12E4
100
AcDbDictionary
280
     1
281
     1
  3
ACAD_XREC_ROUNDTRIP
360
1346
  0
DICTIONARY
  5
135B
330
12EF
100
AcDbDictionary
280
     1
281
     1
  3
ACAD_XREC_ROUNDTRIP
360
135C
  0
DICTIONARY
  5
1359
330
12EE
100
AcDbDictionary
280
     1
281
     1
  3
ACAD_XREC_ROUNDTRIP
360
135A
  0
DICTIONARY
  5
1353
330
12EB
100
AcDbDictionary
280
     1
281
     1
  3
ACAD_XREC_ROUNDTRIP
360
1354
  0
DICTIONARY
  5
1355
330
12EC
100
AcDbDictionary
280
     1
281
     1
  3
ACAD_XREC_ROUNDTRIP
360
1356
  0
DICTIONARY
  5
134B
330
12E7
100
AcDbDictionary
280
     1
281
     1
  3
ACAD_XREC_ROUNDTRIP
360
134C
  0
DICTIONARY
  5
133F
330
12E1
100
AcDbDictionary
280
     1
281
     1
  3
ACAD_XREC_ROUNDTRIP
360
1340
  0
DICTIONARY
  5
1357
330
12ED
100
AcDbDictionary
280
     1
281
     1
  3
ACAD_XREC_ROUNDTRIP
360
1358
  0
XRECORD
  5
1368
102
{ACAD_REACTORS
330
1367
102
}
330
1367
100
AcDbXrecord
280
     1
102
DISPLAYNAME
  1
Imperial24
102
FLAGS
 90
        0
  0
XRECORD
  5
136A
102
{ACAD_REACTORS
330
1369
102
}
330
1369
100
AcDbXrecord
280
     1
102
SHADEPLOT
 70
     0
102
SHADEPLOTRESLEVEL
 70
     2
102
SHADEPLOTCUSTOMDPI
 70
   300
  0
XRECORD
  5
136C
102
{ACAD_REACTORS
330
136B
102
}
330
136B
100
AcDbXrecord
280
     1
102
SHADEPLOT
 70
     0
102
SHADEPLOTRESLEVEL
 70
     2
102
SHADEPLOTCUSTOMDPI
 70
   300
  0
XRECORD
  5
1331
102
{ACAD_REACTORS
330
12CB
102
}
330
12CB
100
AcDbXrecord
280
     1
102
MATERIAL
148
0.0
149
0.0
149
0.0
 93
        0
 94
      127
282
     0
 72
     0
 77
     0
171
     0
175
     0
179
     0
273
     0
  0
XRECORD
  5
12CD
102
{ACAD_REACTORS
330
12CB
102
}
330
12CB
100
AcDbXrecord
280
     1
270
     1
271
     1
  0
XRECORD
  5
12CC
102
{ACAD_REACTORS
330
12CB
102
}
330
12CB
100
AcDbXrecord
280
     1
270
     1
271
     1
  0
XRECORD
  5
12D0
102
{ACAD_REACTORS
330
12CB
102
}
330
12CB
100
AcDbXrecord
280
     1
270
     1
271
     1
  0
XRECORD
  5
12CF
102
{ACAD_REACTORS
330
12CB
102
}
330
12CB
100
AcDbXrecord
280
     1
270
     1
271
     1
  0
XRECORD
  5
12D1
102
{ACAD_REACTORS
330
12CB
102
}
330
12CB
100
AcDbXrecord
280
     1
270
     1
271
     1
  0
XRECORD
  5
12CE
102
{ACAD_REACTORS
330
12CB
102
}
330
12CB
100
AcDbXrecord
280
     1
270
     1
271
     1
  0
XRECORD
  5
1330
102
{ACAD_REACTORS
330
12C3
102
}
330
12C3
100
AcDbXrecord
280
     1
102
MATERIAL
148
0.0
149
0.0
149
0.0
 93
        0
 94
      127
282
     0
 72
     0
 77
     0
171
     0
175
     0
179
     0
273
     0
  0
XRECORD
  5
12C5
102
{ACAD_REACTORS
330
12C3
102
}
330
12C3
100
AcDbXrecord
280
     1
270
     1
271
     1
  0
XRECORD
  5
12C4
102
{ACAD_REACTORS
330
12C3
102
}
330
12C3
100
AcDbXrecord
280
     1
270
     1
271
     1
  0
XRECORD
  5
12C8
102
{ACAD_REACTORS
330
12C3
102
}
330
12C3
100
AcDbXrecord
280
     1
270
     1
271
     1
  0
XRECORD
  5
12C7
102
{ACAD_REACTORS
330
12C3
102
}
330
12C3
100
AcDbXrecord
280
     1
270
     1
271
     1
  0
XRECORD
  5
12C9
102
{ACAD_REACTORS
330
12C3
102
}
330
12C3
100
AcDbXrecord
280
     1
270
     1
271
     1
  0
XRECORD
  5
12C6
102
{ACAD_REACTORS
330
12C3
102
}
330
12C3
100
AcDbXrecord
280
     1
270
     1
271
     1
  0
XRECORD
  5
1332
102
{ACAD_REACTORS
330
12D3
102
}
330
12D3
100
AcDbXrecord
280
     1
102
MATERIAL
148
0.0
149
0.0
149
0.0
 93
        0
 94
      127
282
     0
 72
     0
 77
     0
171
     0
175
     0
179
     0
273
     0
  0
XRECORD
  5
12D5
102
{ACAD_REACTORS
330
12D3
102
}
330
12D3
100
AcDbXrecord
280
     1
270
     1
271
     1
  0
XRECORD
  5
12D4
102
{ACAD_REACTORS
330
12D3
102
}
330
12D3
100
AcDbXrecord
280
     1
270
     1
271
     1
  0
XRECORD
  5
12D8
102
{ACAD_REACTORS
330
12D3
102
}
330
12D3
100
AcDbXrecord
280
     1
270
     1
271
     1
  0
XRECORD
  5
12D7
102
{ACAD_REACTORS
330
12D3
102
}
330
12D3
100
AcDbXrecord
280
     1
270
     1
271
     1
  0
XRECORD
  5
12D9
102
{ACAD_REACTORS
330
12D3
102
}
330
12D3
100
AcDbXrecord
280
     1
270
     1
271
     1
  0
XRECORD
  5
12D6
102
{ACAD_REACTORS
330
12D3
102
}
330
12D3
100
AcDbXrecord
280
     1
270
     1
271
     1
  0
XRECORD
  5
1366
102
{ACAD_REACTORS
330
1365
102
}
330
1365
100
AcDbXrecord
280
     1
102
DISPLAYNAME
  1
Imperial24
102
FLAGS
 90
        0
  0
CELLSTYLEMAP
  5
132D
102
{ACAD_REACTORS
330
132C
102
}
330
132C
100
AcDbCellStyleMap
 90
        3
300
CELLSTYLE
  1
TABLEFORMAT_BEGIN
 90
        5
170
     1
 91
        0
 92
    32768
 62
   257
 93
        1
300
CONTENTFORMAT
  1
CONTENTFORMAT_BEGIN
 90
        0
 91
        0
 92
      512
 93
        0
300

 40
0.0
140
1.0
 94
        5
 62
     0
340
F
144
0.25
309
CONTENTFORMAT_END
171
     0
 94
        0
309
TABLEFORMAT_END
  1
CELLSTYLE_BEGIN
 90
        1
 91
        1
300
_TITLE
309
CELLSTYLE_END
300
CELLSTYLE
  1
TABLEFORMAT_BEGIN
 90
        5
170
     1
 91
        0
 92
        0
 62
   257
 93
        1
300
CONTENTFORMAT
  1
CONTENTFORMAT_BEGIN
 90
        0
 91
        0
 92
      512
 93
        0
300

 40
0.0
140
1.0
 94
        5
 62
     0
340
F
144
0.18
309
CONTENTFORMAT_END
171
     0
 94
        0
309
TABLEFORMAT_END
  1
CELLSTYLE_BEGIN
 90
        2
 91
        1
300
_HEADER
309
CELLSTYLE_END
300
CELLSTYLE
  1
TABLEFORMAT_BEGIN
 90
        5
170
     1
 91
        0
 92
        0
 62
   257
 93
        1
300
CONTENTFORMAT
  1
CONTENTFORMAT_BEGIN
 90
        0
 91
        0
 92
      512
 93
        0
300

 40
0.0
140
1.0
 94
        2
 62
     0
340
F
144
0.18
309
CONTENTFORMAT_END
171
     0
 94
        0
309
TABLEFORMAT_END
  1
CELLSTYLE_BEGIN
 90
        3
 91
        2
300
_DATA
309
CELLSTYLE_END
  0
XRECORD
  5
1363
102
{ACAD_REACTORS
330
132C
102
}
330
132C
100
AcDbXrecord
280
     1
102
ACAD_ROUNDTRIP_PRE2007_TABLESTYLE
 90
      512
 91
        0
  1

 92
      512
 93
        0
  2

 94
      512
 95
        0
  3

  0
XRECORD
  5
133E
102
{ACAD_REACTORS
330
133D
102
}
330
133D
100
AcDbXrecord
280
     1
102
RTVSPost2010Prop28
280
     1
102
RTVSPost2010PropOp28
 70
     1
102
RTVSPost2010Prop29
280
     1
102
RTVSPost2010PropOp29
 70
     1
102
RTVSPost2010Prop30
280
     0
102
RTVSPost2010PropOp30
 70
     1
102
RTVSPost2010Prop31
280
     0
102
RTVSPost2010PropOp31
 70
     1
102
RTVSPost2010Prop32
280
     0
102
RTVSPost2010PropOp32
 70
     1
102
RTVSPost2010Prop33
280
     0
102
RTVSPost2010PropOp33
 70
     1
102
RTVSPost2010Prop34
280
     0
102
RTVSPost2010PropOp34
 70
     1
102
RTVSPost2010Prop35
280
     0
102
RTVSPost2010PropOp35
 70
     1
102
RTVSPost2010Prop36
280
     0
102
RTVSPost2010PropOp36
 70
     1
102
RTVSPost2010Prop37
 90
       50
102
RTVSPost2010PropOp37
 70
     1
102
RTVSPost2010Prop38
140
0.0
102
RTVSPost2010PropOp38
 70
     1
102
RTVSPost2010Prop39
140
1.0
102
RTVSPost2010PropOp39
 70
     1
102
RTVSPost2010Prop40
 90
        0
102
RTVSPost2010PropOp40
 70
     1
102
RTVSPost2010Prop41ColorIndex
 90
       18
102
RTVSPost2010Prop41ColorRGB
 90
        0
102
RTVSPost2010PropOp41
 70
     1
102
RTVSPost2010Prop42
 90
       50
102
RTVSPost2010PropOp42
 70
     1
102
RTVSPost2010Prop43
 90
        3
102
RTVSPost2010PropOp43
 70
     1
102
RTVSPost2010Prop44ColorIndex
 90
        5
102
RTVSPost2010Prop44ColorRGB
 90
      255
102
RTVSPost2010PropOp44
 70
     1
102
RTVSPost2010Prop45
280
     0
102
RTVSPost2010PropOp45
 70
     1
102
RTVSPost2010Prop46
 90
       50
102
RTVSPost2010PropOp46
 70
     1
102
RTVSPost2010Prop47
 90
       50
102
RTVSPost2010PropOp47
 70
     1
102
RTVSPost2010Prop48
 90
       50
102
RTVSPost2010PropOp48
 70
     1
102
RTVSPost2010Prop49
280
     0
102
RTVSPost2010PropOp49
 70
     1
102
RTVSPost2010Prop50
 90
       50
102
RTVSPost2010PropOp50
 70
     1
102
RTVSPost2010Prop51ColorIndex
 90
      256
102
RTVSPost2010Prop51ColorRGB
 90
-16777216
102
RTVSPost2010PropOp51
 70
     0
102
RTVSPost2010Prop52
140
1.0
102
RTVSPost2010PropOp52
 70
     0
102
RTVSPost2010Prop53
 90
        2
102
RTVSPost2010PropOp53
 70
     1
102
RTVSPost2010Prop54
  1
strokes_ogs.tif
102
RTVSPost2010PropOp54
 70
     1
102
RTVSPost2010Prop55
280
     0
102
RTVSPost2010PropOp55
 70
     1
102
RTVSPost2010Prop56
140
1.0
102
RTVSPost2010PropOp56
 70
     1
102
RTVSPost2010Prop57
140
1.0
102
RTVSPost2010PropOp57
 70
     1
102
RTVSPropertyOp0
 70
     1
102
RTVSPropertyOp1
 70
     1
102
RTVSPropertyOp2
 70
     1
102
RTVSPropertyOp3
 70
     1
102
RTVSPropertyOp4
 70
     1
102
RTVSPropertyOp5
 70
     1
102
RTVSPropertyOp6
 70
     1
102
RTVSPropertyOp7
 70
     1
102
RTVSPropertyOp8
 70
     1
102
RTVSPropertyOp9
 70
     1
102
RTVSPropertyOp10
 70
     1
102
RTVSPropertyOp11
 70
     1
102
RTVSPropertyOp12
 70
     1
102
RTVSPropertyOp13
 70
     1
102
RTVSPropertyOp14
 70
     1
102
RTVSPropertyOp15
 70
     1
102
RTVSPropertyOp16
 70
     1
102
RTVSPropertyOp17
 70
     1
102
RTVSPropertyOp18
 70
     1
102
RTVSPropertyOp19
 70
     1
102
RTVSPropertyOp20
 70
     1
102
RTVSPropertyOp21
 70
     1
102
RTVSPropertyOp22
 70
     1
102
RTVSPropertyOp23
 70
     1
102
RTVSPropertyOp24
 70
     1
102
RTVSPropertyOp25
 70
     1
102
RTVSPropertyOp26
 70
     1
102
RTVSPropertyOp27
 70
     1
102
RTVSPropertyOp28
 70
     1
102
RTVSPropertyOp29
 70
     1
102
RTVSPropertyOp30
 70
     1
102
RTVSPropertyOp31
 70
     1
102
RTVSPropertyOp32
 70
     1
102
RTVSPropertyOp33
 70
     1
102
RTVSPropertyOp34
 70
     1
102
RTVSPropertyOp35
 70
     1
102
RTVSPropertyOp36
 70
     1
102
RTVSPropertyOp37
 70
     1
102
RTVSPropertyOp38
 70
     1
102
RTVSPropertyOp39
 70
     1
102
RTVSPropertyOp40
 70
     1
102
RTVSPropertyOp41
 70
     1
102
RTVSPropertyOp42
 70
     1
102
RTVSPropertyOp43
 70
     1
102
RTVSPropertyOp44
 70
     1
102
RTVSPropertyOp45
 70
     1
102
RTVSPropertyOp46
 70
     1
102
RTVSPropertyOp47
 70
     1
102
RTVSPropertyOp48
 70
     1
102
RTVSPropertyOp49
 70
     1
102
RTVSPropertyOp50
 70
     1
102
RTVSPropertyOp51
 70
     0
102
RTVSPropertyOp52
 70
     0
102
RTVSPropertyOp53
 70
     1
102
RTVSPropertyOp54
 70
     1
102
RTVSPropertyOp55
 70
     1
102
RTVSPropertyOp56
 70
     1
102
RTVSPropertyOp57
 70
     1
102
RTVSPropertyOp58
 70
     1
102
RTVSPropertyOp59
 70
     1
102
RTVSPropertyOp60
 70
     1
102
RTVSPropertyOp61
 70
     1
102
RTVSPropertyOp62
 70
     1
  0
XRECORD
  5
133C
102
{ACAD_REACTORS
330
133B
102
}
330
133B
100
AcDbXrecord
280
     1
102
RTVSPost2010Prop28
280
     0
102
RTVSPost2010PropOp28
 70
     1
102
RTVSPost2010Prop29
280
     1
102
RTVSPost2010PropOp29
 70
     1
102
RTVSPost2010Prop30
280
     1
102
RTVSPost2010PropOp30
 70
     1
102
RTVSPost2010Prop31
280
     0
102
RTVSPost2010PropOp31
 70
     1
102
RTVSPost2010Prop32
280
     0
102
RTVSPost2010PropOp32
 70
     1
102
RTVSPost2010Prop33
280
     0
102
RTVSPost2010PropOp33
 70
     1
102
RTVSPost2010Prop34
280
     0
102
RTVSPost2010PropOp34
 70
     1
102
RTVSPost2010Prop35
280
     0
102
RTVSPost2010PropOp35
 70
     1
102
RTVSPost2010Prop36
280
     0
102
RTVSPost2010PropOp36
 70
     1
102
RTVSPost2010Prop37
 90
       50
102
RTVSPost2010PropOp37
 70
     1
102
RTVSPost2010Prop38
140
0.0
102
RTVSPost2010PropOp38
 70
     1
102
RTVSPost2010Prop39
140
1.0
102
RTVSPost2010PropOp39
 70
     1
102
RTVSPost2010Prop40
 90
        0
102
RTVSPost2010PropOp40
 70
     1
102
RTVSPost2010Prop41ColorIndex
 90
       18
102
RTVSPost2010Prop41ColorRGB
 90
        0
102
RTVSPost2010PropOp41
 70
     1
102
RTVSPost2010Prop42
 90
       50
102
RTVSPost2010PropOp42
 70
     1
102
RTVSPost2010Prop43
 90
        3
102
RTVSPost2010PropOp43
 70
     1
102
RTVSPost2010Prop44ColorIndex
 90
        5
102
RTVSPost2010Prop44ColorRGB
 90
      255
102
RTVSPost2010PropOp44
 70
     1
102
RTVSPost2010Prop45
280
     0
102
RTVSPost2010PropOp45
 70
     1
102
RTVSPost2010Prop46
 90
       50
102
RTVSPost2010PropOp46
 70
     1
102
RTVSPost2010Prop47
 90
       50
102
RTVSPost2010PropOp47
 70
     1
102
RTVSPost2010Prop48
 90
       50
102
RTVSPost2010PropOp48
 70
     1
102
RTVSPost2010Prop49
280
     0
102
RTVSPost2010PropOp49
 70
     1
102
RTVSPost2010Prop50
 90
       50
102
RTVSPost2010PropOp50
 70
     1
102
RTVSPost2010Prop51ColorIndex
 90
      256
102
RTVSPost2010Prop51ColorRGB
 90
-16777216
102
RTVSPost2010PropOp51
 70
     0
102
RTVSPost2010Prop52
140
1.0
102
RTVSPost2010PropOp52
 70
     0
102
RTVSPost2010Prop53
 90
        2
102
RTVSPost2010PropOp53
 70
     1
102
RTVSPost2010Prop54
  1
strokes_ogs.tif
102
RTVSPost2010PropOp54
 70
     1
102
RTVSPost2010Prop55
280
     0
102
RTVSPost2010PropOp55
 70
     1
102
RTVSPost2010Prop56
140
1.0
102
RTVSPost2010PropOp56
 70
     1
102
RTVSPost2010Prop57
140
1.0
102
RTVSPost2010PropOp57
 70
     1
102
RTVSPropertyOp0
 70
     1
102
RTVSPropertyOp1
 70
     1
102
RTVSPropertyOp2
 70
     1
102
RTVSPropertyOp3
 70
     1
102
RTVSPropertyOp4
 70
     1
102
RTVSPropertyOp5
 70
     1
102
RTVSPropertyOp6
 70
     1
102
RTVSPropertyOp7
 70
     1
102
RTVSPropertyOp8
 70
     1
102
RTVSPropertyOp9
 70
     1
102
RTVSPropertyOp10
 70
     1
102
RTVSPropertyOp11
 70
     1
102
RTVSPropertyOp12
 70
     1
102
RTVSPropertyOp13
 70
     1
102
RTVSPropertyOp14
 70
     1
102
RTVSPropertyOp15
 70
     1
102
RTVSPropertyOp16
 70
     1
102
RTVSPropertyOp17
 70
     1
102
RTVSPropertyOp18
 70
     1
102
RTVSPropertyOp19
 70
     1
102
RTVSPropertyOp20
 70
     1
102
RTVSPropertyOp21
 70
     1
102
RTVSPropertyOp22
 70
     1
102
RTVSPropertyOp23
 70
     1
102
RTVSPropertyOp24
 70
     1
102
RTVSPropertyOp25
 70
     1
102
RTVSPropertyOp26
 70
     1
102
RTVSPropertyOp27
 70
     1
102
RTVSPropertyOp28
 70
     1
102
RTVSPropertyOp29
 70
     1
102
RTVSPropertyOp30
 70
     1
102
RTVSPropertyOp31
 70
     1
102
RTVSPropertyOp32
 70
     1
102
RTVSPropertyOp33
 70
     1
102
RTVSPropertyOp34
 70
     1
102
RTVSPropertyOp35
 70
     1
102
RTVSPropertyOp36
 70
     1
102
RTVSPropertyOp37
 70
     1
102
RTVSPropertyOp38
 70
     1
102
RTVSPropertyOp39
 70
     1
102
RTVSPropertyOp40
 70
     1
102
RTVSPropertyOp41
 70
     1
102
RTVSPropertyOp42
 70
     1
102
RTVSPropertyOp43
 70
     1
102
RTVSPropertyOp44
 70
     1
102
RTVSPropertyOp45
 70
     1
102
RTVSPropertyOp46
 70
     1
102
RTVSPropertyOp47
 70
     1
102
RTVSPropertyOp48
 70
     1
102
RTVSPropertyOp49
 70
     1
102
RTVSPropertyOp50
 70
     1
102
RTVSPropertyOp51
 70
     0
102
RTVSPropertyOp52
 70
     0
102
RTVSPropertyOp53
 70
     1
102
RTVSPropertyOp54
 70
     1
102
RTVSPropertyOp55
 70
     1
102
RTVSPropertyOp56
 70
     1
102
RTVSPropertyOp57
 70
     1
102
RTVSPropertyOp58
 70
     1
102
RTVSPropertyOp59
 70
     1
102
RTVSPropertyOp60
 70
     1
102
RTVSPropertyOp61
 70
     1
102
RTVSPropertyOp62
 70
     1
  0
XRECORD
  5
134A
102
{ACAD_REACTORS
330
1349
102
}
330
1349
100
AcDbXrecord
280
     1
102
RTVSPost2010Prop28
280
     0
102
RTVSPost2010PropOp28
 70
     1
102
RTVSPost2010Prop29
280
     1
102
RTVSPost2010PropOp29
 70
     1
102
RTVSPost2010Prop30
280
     1
102
RTVSPost2010PropOp30
 70
     1
102
RTVSPost2010Prop31
280
     0
102
RTVSPost2010PropOp31
 70
     1
102
RTVSPost2010Prop32
280
     0
102
RTVSPost2010PropOp32
 70
     1
102
RTVSPost2010Prop33
280
     0
102
RTVSPost2010PropOp33
 70
     1
102
RTVSPost2010Prop34
280
     0
102
RTVSPost2010PropOp34
 70
     1
102
RTVSPost2010Prop35
280
     0
102
RTVSPost2010PropOp35
 70
     1
102
RTVSPost2010Prop36
280
     0
102
RTVSPost2010PropOp36
 70
     1
102
RTVSPost2010Prop37
 90
       50
102
RTVSPost2010PropOp37
 70
     1
102
RTVSPost2010Prop38
140
0.0
102
RTVSPost2010PropOp38
 70
     1
102
RTVSPost2010Prop39
140
1.0
102
RTVSPost2010PropOp39
 70
     1
102
RTVSPost2010Prop40
 90
        0
102
RTVSPost2010PropOp40
 70
     1
102
RTVSPost2010Prop41ColorIndex
 90
       18
102
RTVSPost2010Prop41ColorRGB
 90
        0
102
RTVSPost2010PropOp41
 70
     1
102
RTVSPost2010Prop42
 90
       50
102
RTVSPost2010PropOp42
 70
     1
102
RTVSPost2010Prop43
 90
        3
102
RTVSPost2010PropOp43
 70
     1
102
RTVSPost2010Prop44ColorIndex
 90
        5
102
RTVSPost2010Prop44ColorRGB
 90
      255
102
RTVSPost2010PropOp44
 70
     1
102
RTVSPost2010Prop45
280
     0
102
RTVSPost2010PropOp45
 70
     1
102
RTVSPost2010Prop46
 90
       50
102
RTVSPost2010PropOp46
 70
     1
102
RTVSPost2010Prop47
 90
       50
102
RTVSPost2010PropOp47
 70
     1
102
RTVSPost2010Prop48
 90
       50
102
RTVSPost2010PropOp48
 70
     1
102
RTVSPost2010Prop49
280
     0
102
RTVSPost2010PropOp49
 70
     1
102
RTVSPost2010Prop50
 90
       50
102
RTVSPost2010PropOp50
 70
     1
102
RTVSPost2010Prop51ColorIndex
 90
      256
102
RTVSPost2010Prop51ColorRGB
 90
-16777216
102
RTVSPost2010PropOp51
 70
     0
102
RTVSPost2010Prop52
140
1.0
102
RTVSPost2010PropOp52
 70
     0
102
RTVSPost2010Prop53
 90
        2
102
RTVSPost2010PropOp53
 70
     1
102
RTVSPost2010Prop54
  1
strokes_ogs.tif
102
RTVSPost2010PropOp54
 70
     1
102
RTVSPost2010Prop55
280
     0
102
RTVSPost2010PropOp55
 70
     1
102
RTVSPost2010Prop56
140
1.0
102
RTVSPost2010PropOp56
 70
     1
102
RTVSPost2010Prop57
140
1.0
102
RTVSPost2010PropOp57
 70
     1
102
RTVSPropertyOp0
 70
     1
102
RTVSPropertyOp1
 70
     1
102
RTVSPropertyOp2
 70
     1
102
RTVSPropertyOp3
 70
     1
102
RTVSPropertyOp4
 70
     1
102
RTVSPropertyOp5
 70
     1
102
RTVSPropertyOp6
 70
     1
102
RTVSPropertyOp7
 70
     1
102
RTVSPropertyOp8
 70
     1
102
RTVSPropertyOp9
 70
     1
102
RTVSPropertyOp10
 70
     1
102
RTVSPropertyOp11
 70
     1
102
RTVSPropertyOp12
 70
     1
102
RTVSPropertyOp13
 70
     1
102
RTVSPropertyOp14
 70
     1
102
RTVSPropertyOp15
 70
     1
102
RTVSPropertyOp16
 70
     1
102
RTVSPropertyOp17
 70
     1
102
RTVSPropertyOp18
 70
     1
102
RTVSPropertyOp19
 70
     1
102
RTVSPropertyOp20
 70
     1
102
RTVSPropertyOp21
 70
     1
102
RTVSPropertyOp22
 70
     1
102
RTVSPropertyOp23
 70
     1
102
RTVSPropertyOp24
 70
     1
102
RTVSPropertyOp25
 70
     1
102
RTVSPropertyOp26
 70
     1
102
RTVSPropertyOp27
 70
     1
102
RTVSPropertyOp28
 70
     1
102
RTVSPropertyOp29
 70
     1
102
RTVSPropertyOp30
 70
     1
102
RTVSPropertyOp31
 70
     1
102
RTVSPropertyOp32
 70
     1
102
RTVSPropertyOp33
 70
     1
102
RTVSPropertyOp34
 70
     1
102
RTVSPropertyOp35
 70
     1
102
RTVSPropertyOp36
 70
     1
102
RTVSPropertyOp37
 70
     1
102
RTVSPropertyOp38
 70
     1
102
RTVSPropertyOp39
 70
     1
102
RTVSPropertyOp40
 70
     1
102
RTVSPropertyOp41
 70
     1
102
RTVSPropertyOp42
 70
     1
102
RTVSPropertyOp43
 70
     1
102
RTVSPropertyOp44
 70
     1
102
RTVSPropertyOp45
 70
     1
102
RTVSPropertyOp46
 70
     1
102
RTVSPropertyOp47
 70
     1
102
RTVSPropertyOp48
 70
     1
102
RTVSPropertyOp49
 70
     1
102
RTVSPropertyOp50
 70
     1
102
RTVSPropertyOp51
 70
     0
102
RTVSPropertyOp52
 70
     0
102
RTVSPropertyOp53
 70
     1
102
RTVSPropertyOp54
 70
     1
102
RTVSPropertyOp55
 70
     1
102
RTVSPropertyOp56
 70
     1
102
RTVSPropertyOp57
 70
     1
102
RTVSPropertyOp58
 70
     1
102
RTVSPropertyOp59
 70
     1
102
RTVSPropertyOp60
 70
     1
102
RTVSPropertyOp61
 70
     1
102
RTVSPropertyOp62
 70
     1
  0
XRECORD
  5
1352
102
{ACAD_REACTORS
330
1351
102
}
330
1351
100
AcDbXrecord
280
     1
102
RTVSPost2010Prop28
280
     0
102
RTVSPost2010PropOp28
 70
     1
102
RTVSPost2010Prop29
280
     1
102
RTVSPost2010PropOp29
 70
     1
102
RTVSPost2010Prop30
280
     1
102
RTVSPost2010PropOp30
 70
     1
102
RTVSPost2010Prop31
280
     0
102
RTVSPost2010PropOp31
 70
     1
102
RTVSPost2010Prop32
280
     0
102
RTVSPost2010PropOp32
 70
     1
102
RTVSPost2010Prop33
280
     0
102
RTVSPost2010PropOp33
 70
     1
102
RTVSPost2010Prop34
280
     0
102
RTVSPost2010PropOp34
 70
     1
102
RTVSPost2010Prop35
280
     0
102
RTVSPost2010PropOp35
 70
     1
102
RTVSPost2010Prop36
280
     0
102
RTVSPost2010PropOp36
 70
     1
102
RTVSPost2010Prop37
 90
       50
102
RTVSPost2010PropOp37
 70
     1
102
RTVSPost2010Prop38
140
0.0
102
RTVSPost2010PropOp38
 70
     1
102
RTVSPost2010Prop39
140
1.0
102
RTVSPost2010PropOp39
 70
     1
102
RTVSPost2010Prop40
 90
        0
102
RTVSPost2010PropOp40
 70
     1
102
RTVSPost2010Prop41ColorIndex
 90
       18
102
RTVSPost2010Prop41ColorRGB
 90
        0
102
RTVSPost2010PropOp41
 70
     1
102
RTVSPost2010Prop42
 90
       50
102
RTVSPost2010PropOp42
 70
     1
102
RTVSPost2010Prop43
 90
        3
102
RTVSPost2010PropOp43
 70
     1
102
RTVSPost2010Prop44ColorIndex
 90
        5
102
RTVSPost2010Prop44ColorRGB
 90
      255
102
RTVSPost2010PropOp44
 70
     1
102
RTVSPost2010Prop45
280
     0
102
RTVSPost2010PropOp45
 70
     1
102
RTVSPost2010Prop46
 90
       50
102
RTVSPost2010PropOp46
 70
     1
102
RTVSPost2010Prop47
 90
       50
102
RTVSPost2010PropOp47
 70
     1
102
RTVSPost2010Prop48
 90
       50
102
RTVSPost2010PropOp48
 70
     1
102
RTVSPost2010Prop49
280
     0
102
RTVSPost2010PropOp49
 70
     1
102
RTVSPost2010Prop50
 90
       50
102
RTVSPost2010PropOp50
 70
     1
102
RTVSPost2010Prop51ColorIndex
 90
      256
102
RTVSPost2010Prop51ColorRGB
 90
-16777216
102
RTVSPost2010PropOp51
 70
     0
102
RTVSPost2010Prop52
140
1.0
102
RTVSPost2010PropOp52
 70
     0
102
RTVSPost2010Prop53
 90
        2
102
RTVSPost2010PropOp53
 70
     1
102
RTVSPost2010Prop54
  1
strokes_ogs.tif
102
RTVSPost2010PropOp54
 70
     1
102
RTVSPost2010Prop55
280
     0
102
RTVSPost2010PropOp55
 70
     1
102
RTVSPost2010Prop56
140
1.0
102
RTVSPost2010PropOp56
 70
     1
102
RTVSPost2010Prop57
140
1.0
102
RTVSPost2010PropOp57
 70
     1
102
RTVSPropertyOp0
 70
     1
102
RTVSPropertyOp1
 70
     1
102
RTVSPropertyOp2
 70
     1
102
RTVSPropertyOp3
 70
     1
102
RTVSPropertyOp4
 70
     1
102
RTVSPropertyOp5
 70
     1
102
RTVSPropertyOp6
 70
     1
102
RTVSPropertyOp7
 70
     1
102
RTVSPropertyOp8
 70
     1
102
RTVSPropertyOp9
 70
     1
102
RTVSPropertyOp10
 70
     1
102
RTVSPropertyOp11
 70
     1
102
RTVSPropertyOp12
 70
     1
102
RTVSPropertyOp13
 70
     1
102
RTVSPropertyOp14
 70
     1
102
RTVSPropertyOp15
 70
     1
102
RTVSPropertyOp16
 70
     1
102
RTVSPropertyOp17
 70
     1
102
RTVSPropertyOp18
 70
     1
102
RTVSPropertyOp19
 70
     1
102
RTVSPropertyOp20
 70
     1
102
RTVSPropertyOp21
 70
     1
102
RTVSPropertyOp22
 70
     1
102
RTVSPropertyOp23
 70
     1
102
RTVSPropertyOp24
 70
     1
102
RTVSPropertyOp25
 70
     1
102
RTVSPropertyOp26
 70
     1
102
RTVSPropertyOp27
 70
     1
102
RTVSPropertyOp28
 70
     1
102
RTVSPropertyOp29
 70
     1
102
RTVSPropertyOp30
 70
     1
102
RTVSPropertyOp31
 70
     1
102
RTVSPropertyOp32
 70
     1
102
RTVSPropertyOp33
 70
     1
102
RTVSPropertyOp34
 70
     1
102
RTVSPropertyOp35
 70
     1
102
RTVSPropertyOp36
 70
     1
102
RTVSPropertyOp37
 70
     1
102
RTVSPropertyOp38
 70
     1
102
RTVSPropertyOp39
 70
     1
102
RTVSPropertyOp40
 70
     1
102
RTVSPropertyOp41
 70
     1
102
RTVSPropertyOp42
 70
     1
102
RTVSPropertyOp43
 70
     1
102
RTVSPropertyOp44
 70
     1
102
RTVSPropertyOp45
 70
     1
102
RTVSPropertyOp46
 70
     1
102
RTVSPropertyOp47
 70
     1
102
RTVSPropertyOp48
 70
     1
102
RTVSPropertyOp49
 70
     1
102
RTVSPropertyOp50
 70
     1
102
RTVSPropertyOp51
 70
     0
102
RTVSPropertyOp52
 70
     0
102
RTVSPropertyOp53
 70
     1
102
RTVSPropertyOp54
 70
     1
102
RTVSPropertyOp55
 70
     1
102
RTVSPropertyOp56
 70
     1
102
RTVSPropertyOp57
 70
     1
102
RTVSPropertyOp58
 70
     1
102
RTVSPropertyOp59
 70
     1
102
RTVSPropertyOp60
 70
     1
102
RTVSPropertyOp61
 70
     1
102
RTVSPropertyOp62
 70
     1
  0
XRECORD
  5
1344
102
{ACAD_REACTORS
330
1343
102
}
330
1343
100
AcDbXrecord
280
     1
102
RTVSPost2010Prop28
280
     0
102
RTVSPost2010PropOp28
 70
     1
102
RTVSPost2010Prop29
280
     1
102
RTVSPost2010PropOp29
 70
     1
102
RTVSPost2010Prop30
280
     1
102
RTVSPost2010PropOp30
 70
     1
102
RTVSPost2010Prop31
280
     0
102
RTVSPost2010PropOp31
 70
     1
102
RTVSPost2010Prop32
280
     0
102
RTVSPost2010PropOp32
 70
     1
102
RTVSPost2010Prop33
280
     0
102
RTVSPost2010PropOp33
 70
     1
102
RTVSPost2010Prop34
280
     0
102
RTVSPost2010PropOp34
 70
     1
102
RTVSPost2010Prop35
280
     0
102
RTVSPost2010PropOp35
 70
     1
102
RTVSPost2010Prop36
280
     0
102
RTVSPost2010PropOp36
 70
     1
102
RTVSPost2010Prop37
 90
       50
102
RTVSPost2010PropOp37
 70
     1
102
RTVSPost2010Prop38
140
0.0
102
RTVSPost2010PropOp38
 70
     1
102
RTVSPost2010Prop39
140
1.0
102
RTVSPost2010PropOp39
 70
     1
102
RTVSPost2010Prop40
 90
        0
102
RTVSPost2010PropOp40
 70
     1
102
RTVSPost2010Prop41ColorIndex
 90
       18
102
RTVSPost2010Prop41ColorRGB
 90
        0
102
RTVSPost2010PropOp41
 70
     1
102
RTVSPost2010Prop42
 90
       50
102
RTVSPost2010PropOp42
 70
     1
102
RTVSPost2010Prop43
 90
        3
102
RTVSPost2010PropOp43
 70
     1
102
RTVSPost2010Prop44ColorIndex
 90
        5
102
RTVSPost2010Prop44ColorRGB
 90
      255
102
RTVSPost2010PropOp44
 70
     1
102
RTVSPost2010Prop45
280
     0
102
RTVSPost2010PropOp45
 70
     1
102
RTVSPost2010Prop46
 90
       50
102
RTVSPost2010PropOp46
 70
     1
102
RTVSPost2010Prop47
 90
       50
102
RTVSPost2010PropOp47
 70
     1
102
RTVSPost2010Prop48
 90
       50
102
RTVSPost2010PropOp48
 70
     1
102
RTVSPost2010Prop49
280
     0
102
RTVSPost2010PropOp49
 70
     1
102
RTVSPost2010Prop50
 90
       50
102
RTVSPost2010PropOp50
 70
     1
102
RTVSPost2010Prop51ColorIndex
 90
      256
102
RTVSPost2010Prop51ColorRGB
 90
-16777216
102
RTVSPost2010PropOp51
 70
     0
102
RTVSPost2010Prop52
140
1.0
102
RTVSPost2010PropOp52
 70
     0
102
RTVSPost2010Prop53
 90
        2
102
RTVSPost2010PropOp53
 70
     1
102
RTVSPost2010Prop54
  1
strokes_ogs.tif
102
RTVSPost2010PropOp54
 70
     1
102
RTVSPost2010Prop55
280
     0
102
RTVSPost2010PropOp55
 70
     1
102
RTVSPost2010Prop56
140
1.0
102
RTVSPost2010PropOp56
 70
     1
102
RTVSPost2010Prop57
140
1.0
102
RTVSPost2010PropOp57
 70
     1
102
RTVSPropertyOp0
 70
     1
102
RTVSPropertyOp1
 70
     1
102
RTVSPropertyOp2
 70
     1
102
RTVSPropertyOp3
 70
     1
102
RTVSPropertyOp4
 70
     1
102
RTVSPropertyOp5
 70
     1
102
RTVSPropertyOp6
 70
     1
102
RTVSPropertyOp7
 70
     1
102
RTVSPropertyOp8
 70
     1
102
RTVSPropertyOp9
 70
     1
102
RTVSPropertyOp10
 70
     1
102
RTVSPropertyOp11
 70
     1
102
RTVSPropertyOp12
 70
     1
102
RTVSPropertyOp13
 70
     1
102
RTVSPropertyOp14
 70
     1
102
RTVSPropertyOp15
 70
     1
102
RTVSPropertyOp16
 70
     1
102
RTVSPropertyOp17
 70
     1
102
RTVSPropertyOp18
 70
     1
102
RTVSPropertyOp19
 70
     1
102
RTVSPropertyOp20
 70
     1
102
RTVSPropertyOp21
 70
     1
102
RTVSPropertyOp22
 70
     1
102
RTVSPropertyOp23
 70
     1
102
RTVSPropertyOp24
 70
     1
102
RTVSPropertyOp25
 70
     1
102
RTVSPropertyOp26
 70
     1
102
RTVSPropertyOp27
 70
     1
102
RTVSPropertyOp28
 70
     1
102
RTVSPropertyOp29
 70
     1
102
RTVSPropertyOp30
 70
     1
102
RTVSPropertyOp31
 70
     1
102
RTVSPropertyOp32
 70
     1
102
RTVSPropertyOp33
 70
     1
102
RTVSPropertyOp34
 70
     1
102
RTVSPropertyOp35
 70
     1
102
RTVSPropertyOp36
 70
     1
102
RTVSPropertyOp37
 70
     1
102
RTVSPropertyOp38
 70
     1
102
RTVSPropertyOp39
 70
     1
102
RTVSPropertyOp40
 70
     1
102
RTVSPropertyOp41
 70
     1
102
RTVSPropertyOp42
 70
     1
102
RTVSPropertyOp43
 70
     1
102
RTVSPropertyOp44
 70
     1
102
RTVSPropertyOp45
 70
     1
102
RTVSPropertyOp46
 70
     1
102
RTVSPropertyOp47
 70
     1
102
RTVSPropertyOp48
 70
     1
102
RTVSPropertyOp49
 70
     1
102
RTVSPropertyOp50
 70
     1
102
RTVSPropertyOp51
 70
     0
102
RTVSPropertyOp52
 70
     0
102
RTVSPropertyOp53
 70
     1
102
RTVSPropertyOp54
 70
     1
102
RTVSPropertyOp55
 70
     1
102
RTVSPropertyOp56
 70
     1
102
RTVSPropertyOp57
 70
     1
102
RTVSPropertyOp58
 70
     1
102
RTVSPropertyOp59
 70
     1
102
RTVSPropertyOp60
 70
     1
102
RTVSPropertyOp61
 70
     1
102
RTVSPropertyOp62
 70
     1
  0
XRECORD
  5
1348
102
{ACAD_REACTORS
330
1347
102
}
330
1347
100
AcDbXrecord
280
     1
102
RTVSPost2010Prop28
280
     0
102
RTVSPost2010PropOp28
 70
     1
102
RTVSPost2010Prop29
280
     1
102
RTVSPost2010PropOp29
 70
     1
102
RTVSPost2010Prop30
280
     1
102
RTVSPost2010PropOp30
 70
     1
102
RTVSPost2010Prop31
280
     0
102
RTVSPost2010PropOp31
 70
     1
102
RTVSPost2010Prop32
280
     0
102
RTVSPost2010PropOp32
 70
     1
102
RTVSPost2010Prop33
280
     0
102
RTVSPost2010PropOp33
 70
     1
102
RTVSPost2010Prop34
280
     0
102
RTVSPost2010PropOp34
 70
     1
102
RTVSPost2010Prop35
280
     0
102
RTVSPost2010PropOp35
 70
     1
102
RTVSPost2010Prop36
280
     0
102
RTVSPost2010PropOp36
 70
     1
102
RTVSPost2010Prop37
 90
       50
102
RTVSPost2010PropOp37
 70
     1
102
RTVSPost2010Prop38
140
0.0
102
RTVSPost2010PropOp38
 70
     1
102
RTVSPost2010Prop39
140
1.0
102
RTVSPost2010PropOp39
 70
     1
102
RTVSPost2010Prop40
 90
        0
102
RTVSPost2010PropOp40
 70
     1
102
RTVSPost2010Prop41ColorIndex
 90
       18
102
RTVSPost2010Prop41ColorRGB
 90
        0
102
RTVSPost2010PropOp41
 70
     1
102
RTVSPost2010Prop42
 90
       50
102
RTVSPost2010PropOp42
 70
     1
102
RTVSPost2010Prop43
 90
        3
102
RTVSPost2010PropOp43
 70
     1
102
RTVSPost2010Prop44ColorIndex
 90
        5
102
RTVSPost2010Prop44ColorRGB
 90
      255
102
RTVSPost2010PropOp44
 70
     1
102
RTVSPost2010Prop45
280
     0
102
RTVSPost2010PropOp45
 70
     1
102
RTVSPost2010Prop46
 90
       50
102
RTVSPost2010PropOp46
 70
     1
102
RTVSPost2010Prop47
 90
       50
102
RTVSPost2010PropOp47
 70
     1
102
RTVSPost2010Prop48
 90
       50
102
RTVSPost2010PropOp48
 70
     1
102
RTVSPost2010Prop49
280
     0
102
RTVSPost2010PropOp49
 70
     1
102
RTVSPost2010Prop50
 90
       50
102
RTVSPost2010PropOp50
 70
     1
102
RTVSPost2010Prop51ColorIndex
 90
      256
102
RTVSPost2010Prop51ColorRGB
 90
-16777216
102
RTVSPost2010PropOp51
 70
     0
102
RTVSPost2010Prop52
140
1.0
102
RTVSPost2010PropOp52
 70
     0
102
RTVSPost2010Prop53
 90
        2
102
RTVSPost2010PropOp53
 70
     1
102
RTVSPost2010Prop54
  1
strokes_ogs.tif
102
RTVSPost2010PropOp54
 70
     1
102
RTVSPost2010Prop55
280
     0
102
RTVSPost2010PropOp55
 70
     1
102
RTVSPost2010Prop56
140
1.0
102
RTVSPost2010PropOp56
 70
     1
102
RTVSPost2010Prop57
140
1.0
102
RTVSPost2010PropOp57
 70
     1
102
RTVSPropertyOp0
 70
     1
102
RTVSPropertyOp1
 70
     1
102
RTVSPropertyOp2
 70
     1
102
RTVSPropertyOp3
 70
     1
102
RTVSPropertyOp4
 70
     1
102
RTVSPropertyOp5
 70
     1
102
RTVSPropertyOp6
 70
     1
102
RTVSPropertyOp7
 70
     1
102
RTVSPropertyOp8
 70
     1
102
RTVSPropertyOp9
 70
     1
102
RTVSPropertyOp10
 70
     1
102
RTVSPropertyOp11
 70
     1
102
RTVSPropertyOp12
 70
     1
102
RTVSPropertyOp13
 70
     1
102
RTVSPropertyOp14
 70
     1
102
RTVSPropertyOp15
 70
     1
102
RTVSPropertyOp16
 70
     1
102
RTVSPropertyOp17
 70
     1
102
RTVSPropertyOp18
 70
     1
102
RTVSPropertyOp19
 70
     1
102
RTVSPropertyOp20
 70
     1
102
RTVSPropertyOp21
 70
     1
102
RTVSPropertyOp22
 70
     1
102
RTVSPropertyOp23
 70
     1
102
RTVSPropertyOp24
 70
     1
102
RTVSPropertyOp25
 70
     1
102
RTVSPropertyOp26
 70
     1
102
RTVSPropertyOp27
 70
     1
102
RTVSPropertyOp28
 70
     1
102
RTVSPropertyOp29
 70
     1
102
RTVSPropertyOp30
 70
     1
102
RTVSPropertyOp31
 70
     1
102
RTVSPropertyOp32
 70
     1
102
RTVSPropertyOp33
 70
     1
102
RTVSPropertyOp34
 70
     1
102
RTVSPropertyOp35
 70
     1
102
RTVSPropertyOp36
 70
     1
102
RTVSPropertyOp37
 70
     1
102
RTVSPropertyOp38
 70
     1
102
RTVSPropertyOp39
 70
     1
102
RTVSPropertyOp40
 70
     1
102
RTVSPropertyOp41
 70
     1
102
RTVSPropertyOp42
 70
     1
102
RTVSPropertyOp43
 70
     1
102
RTVSPropertyOp44
 70
     1
102
RTVSPropertyOp45
 70
     1
102
RTVSPropertyOp46
 70
     1
102
RTVSPropertyOp47
 70
     1
102
RTVSPropertyOp48
 70
     1
102
RTVSPropertyOp49
 70
     1
102
RTVSPropertyOp50
 70
     1
102
RTVSPropertyOp51
 70
     0
102
RTVSPropertyOp52
 70
     0
102
RTVSPropertyOp53
 70
     1
102
RTVSPropertyOp54
 70
     1
102
RTVSPropertyOp55
 70
     1
102
RTVSPropertyOp56
 70
     1
102
RTVSPropertyOp57
 70
     1
102
RTVSPropertyOp58
 70
     1
102
RTVSPropertyOp59
 70
     1
102
RTVSPropertyOp60
 70
     1
102
RTVSPropertyOp61
 70
     1
102
RTVSPropertyOp62
 70
     1
  0
XRECORD
  5
1362
102
{ACAD_REACTORS
330
1361
102
}
330
1361
100
AcDbXrecord
280
     1
102
RTVSPost2010Prop28
280
     0
102
RTVSPost2010PropOp28
 70
     1
102
RTVSPost2010Prop29
280
     1
102
RTVSPost2010PropOp29
 70
     1
102
RTVSPost2010Prop30
280
     1
102
RTVSPost2010PropOp30
 70
     1
102
RTVSPost2010Prop31
280
     0
102
RTVSPost2010PropOp31
 70
     1
102
RTVSPost2010Prop32
280
     0
102
RTVSPost2010PropOp32
 70
     1
102
RTVSPost2010Prop33
280
     0
102
RTVSPost2010PropOp33
 70
     1
102
RTVSPost2010Prop34
280
     0
102
RTVSPost2010PropOp34
 70
     1
102
RTVSPost2010Prop35
280
     0
102
RTVSPost2010PropOp35
 70
     1
102
RTVSPost2010Prop36
280
     0
102
RTVSPost2010PropOp36
 70
     1
102
RTVSPost2010Prop37
 90
       50
102
RTVSPost2010PropOp37
 70
     0
102
RTVSPost2010Prop38
140
0.0
102
RTVSPost2010PropOp38
 70
     0
102
RTVSPost2010Prop39
140
1.0
102
RTVSPost2010PropOp39
 70
     0
102
RTVSPost2010Prop40
 90
        0
102
RTVSPost2010PropOp40
 70
     0
102
RTVSPost2010Prop41ColorIndex
 90
       18
102
RTVSPost2010Prop41ColorRGB
 90
        0
102
RTVSPost2010PropOp41
 70
     0
102
RTVSPost2010Prop42
 90
       50
102
RTVSPost2010PropOp42
 70
     0
102
RTVSPost2010Prop43
 90
        3
102
RTVSPost2010PropOp43
 70
     0
102
RTVSPost2010Prop44ColorIndex
 90
        5
102
RTVSPost2010Prop44ColorRGB
 90
      255
102
RTVSPost2010PropOp44
 70
     0
102
RTVSPost2010Prop45
280
     0
102
RTVSPost2010PropOp45
 70
     1
102
RTVSPost2010Prop46
 90
       50
102
RTVSPost2010PropOp46
 70
     0
102
RTVSPost2010Prop47
 90
       50
102
RTVSPost2010PropOp47
 70
     0
102
RTVSPost2010Prop48
 90
       50
102
RTVSPost2010PropOp48
 70
     0
102
RTVSPost2010Prop49
280
     0
102
RTVSPost2010PropOp49
 70
     1
102
RTVSPost2010Prop50
 90
       50
102
RTVSPost2010PropOp50
 70
     0
102
RTVSPost2010Prop51ColorIndex
 90
      256
102
RTVSPost2010Prop51ColorRGB
 90
-16777216
102
RTVSPost2010PropOp51
 70
     0
102
RTVSPost2010Prop52
140
1.0
102
RTVSPost2010PropOp52
 70
     0
102
RTVSPost2010Prop53
 90
        2
102
RTVSPost2010PropOp53
 70
     0
102
RTVSPost2010Prop54
  1
strokes_ogs.tif
102
RTVSPost2010PropOp54
 70
     0
102
RTVSPost2010Prop55
280
     0
102
RTVSPost2010PropOp55
 70
     1
102
RTVSPost2010Prop56
140
1.0
102
RTVSPost2010PropOp56
 70
     0
102
RTVSPost2010Prop57
140
1.0
102
RTVSPost2010PropOp57
 70
     0
102
RTVSPropertyOp0
 70
     0
102
RTVSPropertyOp1
 70
     0
102
RTVSPropertyOp2
 70
     0
102
RTVSPropertyOp3
 70
     0
102
RTVSPropertyOp4
 70
     0
102
RTVSPropertyOp5
 70
     0
102
RTVSPropertyOp6
 70
     0
102
RTVSPropertyOp7
 70
     0
102
RTVSPropertyOp8
 70
     0
102
RTVSPropertyOp9
 70
     0
102
RTVSPropertyOp10
 70
     0
102
RTVSPropertyOp11
 70
     0
102
RTVSPropertyOp12
 70
     0
102
RTVSPropertyOp13
 70
     0
102
RTVSPropertyOp14
 70
     2
102
RTVSPropertyOp15
 70
     0
102
RTVSPropertyOp16
 70
     0
102
RTVSPropertyOp17
 70
     0
102
RTVSPropertyOp18
 70
     0
102
RTVSPropertyOp19
 70
     0
102
RTVSPropertyOp20
 70
     0
102
RTVSPropertyOp21
 70
     0
102
RTVSPropertyOp22
 70
     0
102
RTVSPropertyOp23
 70
     0
102
RTVSPropertyOp24
 70
     0
102
RTVSPropertyOp25
 70
     0
102
RTVSPropertyOp26
 70
     0
102
RTVSPropertyOp27
 70
     0
102
RTVSPropertyOp28
 70
     1
102
RTVSPropertyOp29
 70
     1
102
RTVSPropertyOp30
 70
     1
102
RTVSPropertyOp31
 70
     1
102
RTVSPropertyOp32
 70
     1
102
RTVSPropertyOp33
 70
     1
102
RTVSPropertyOp34
 70
     1
102
RTVSPropertyOp35
 70
     1
102
RTVSPropertyOp36
 70
     1
102
RTVSPropertyOp37
 70
     0
102
RTVSPropertyOp38
 70
     0
102
RTVSPropertyOp39
 70
     0
102
RTVSPropertyOp40
 70
     0
102
RTVSPropertyOp41
 70
     0
102
RTVSPropertyOp42
 70
     0
102
RTVSPropertyOp43
 70
     0
102
RTVSPropertyOp44
 70
     0
102
RTVSPropertyOp45
 70
     1
102
RTVSPropertyOp46
 70
     0
102
RTVSPropertyOp47
 70
     0
102
RTVSPropertyOp48
 70
     0
102
RTVSPropertyOp49
 70
     1
102
RTVSPropertyOp50
 70
     0
102
RTVSPropertyOp51
 70
     0
102
RTVSPropertyOp52
 70
     0
102
RTVSPropertyOp53
 70
     0
102
RTVSPropertyOp54
 70
     0
102
RTVSPropertyOp55
 70
     1
102
RTVSPropertyOp56
 70
     0
102
RTVSPropertyOp57
 70
     0
102
RTVSPropertyOp58
 70
     0
102
RTVSPropertyOp59
 70
     0
102
RTVSPropertyOp60
 70
     0
102
RTVSPropertyOp61
 70
     0
102
RTVSPropertyOp62
 70
     0
  0
XRECORD
  5
1350
102
{ACAD_REACTORS
330
134F
102
}
330
134F
100
AcDbXrecord
280
     1
102
RTVSPost2010Prop28
280
     0
102
RTVSPost2010PropOp28
 70
     1
102
RTVSPost2010Prop29
280
     1
102
RTVSPost2010PropOp29
 70
     1
102
RTVSPost2010Prop30
280
     1
102
RTVSPost2010PropOp30
 70
     1
102
RTVSPost2010Prop31
280
     0
102
RTVSPost2010PropOp31
 70
     1
102
RTVSPost2010Prop32
280
     0
102
RTVSPost2010PropOp32
 70
     1
102
RTVSPost2010Prop33
280
     0
102
RTVSPost2010PropOp33
 70
     1
102
RTVSPost2010Prop34
280
     0
102
RTVSPost2010PropOp34
 70
     1
102
RTVSPost2010Prop35
280
     0
102
RTVSPost2010PropOp35
 70
     1
102
RTVSPost2010Prop36
280
     0
102
RTVSPost2010PropOp36
 70
     1
102
RTVSPost2010Prop37
 90
       50
102
RTVSPost2010PropOp37
 70
     1
102
RTVSPost2010Prop38
140
0.0
102
RTVSPost2010PropOp38
 70
     1
102
RTVSPost2010Prop39
140
1.0
102
RTVSPost2010PropOp39
 70
     1
102
RTVSPost2010Prop40
 90
        0
102
RTVSPost2010PropOp40
 70
     1
102
RTVSPost2010Prop41ColorIndex
 90
       18
102
RTVSPost2010Prop41ColorRGB
 90
        0
102
RTVSPost2010PropOp41
 70
     1
102
RTVSPost2010Prop42
 90
       50
102
RTVSPost2010PropOp42
 70
     1
102
RTVSPost2010Prop43
 90
        3
102
RTVSPost2010PropOp43
 70
     1
102
RTVSPost2010Prop44ColorIndex
 90
        5
102
RTVSPost2010Prop44ColorRGB
 90
      255
102
RTVSPost2010PropOp44
 70
     1
102
RTVSPost2010Prop45
280
     0
102
RTVSPost2010PropOp45
 70
     1
102
RTVSPost2010Prop46
 90
       50
102
RTVSPost2010PropOp46
 70
     1
102
RTVSPost2010Prop47
 90
       50
102
RTVSPost2010PropOp47
 70
     1
102
RTVSPost2010Prop48
 90
       50
102
RTVSPost2010PropOp48
 70
     1
102
RTVSPost2010Prop49
280
     0
102
RTVSPost2010PropOp49
 70
     1
102
RTVSPost2010Prop50
 90
       50
102
RTVSPost2010PropOp50
 70
     1
102
RTVSPost2010Prop51ColorIndex
 90
      256
102
RTVSPost2010Prop51ColorRGB
 90
-16777216
102
RTVSPost2010PropOp51
 70
     0
102
RTVSPost2010Prop52
140
1.0
102
RTVSPost2010PropOp52
 70
     0
102
RTVSPost2010Prop53
 90
        2
102
RTVSPost2010PropOp53
 70
     1
102
RTVSPost2010Prop54
  1
strokes_ogs.tif
102
RTVSPost2010PropOp54
 70
     1
102
RTVSPost2010Prop55
280
     0
102
RTVSPost2010PropOp55
 70
     1
102
RTVSPost2010Prop56
140
1.0
102
RTVSPost2010PropOp56
 70
     1
102
RTVSPost2010Prop57
140
1.0
102
RTVSPost2010PropOp57
 70
     1
102
RTVSPropertyOp0
 70
     1
102
RTVSPropertyOp1
 70
     1
102
RTVSPropertyOp2
 70
     1
102
RTVSPropertyOp3
 70
     1
102
RTVSPropertyOp4
 70
     1
102
RTVSPropertyOp5
 70
     1
102
RTVSPropertyOp6
 70
     1
102
RTVSPropertyOp7
 70
     1
102
RTVSPropertyOp8
 70
     1
102
RTVSPropertyOp9
 70
     1
102
RTVSPropertyOp10
 70
     1
102
RTVSPropertyOp11
 70
     1
102
RTVSPropertyOp12
 70
     1
102
RTVSPropertyOp13
 70
     1
102
RTVSPropertyOp14
 70
     1
102
RTVSPropertyOp15
 70
     1
102
RTVSPropertyOp16
 70
     1
102
RTVSPropertyOp17
 70
     1
102
RTVSPropertyOp18
 70
     1
102
RTVSPropertyOp19
 70
     1
102
RTVSPropertyOp20
 70
     1
102
RTVSPropertyOp21
 70
     1
102
RTVSPropertyOp22
 70
     1
102
RTVSPropertyOp23
 70
     1
102
RTVSPropertyOp24
 70
     1
102
RTVSPropertyOp25
 70
     1
102
RTVSPropertyOp26
 70
     1
102
RTVSPropertyOp27
 70
     1
102
RTVSPropertyOp28
 70
     1
102
RTVSPropertyOp29
 70
     1
102
RTVSPropertyOp30
 70
     1
102
RTVSPropertyOp31
 70
     1
102
RTVSPropertyOp32
 70
     1
102
RTVSPropertyOp33
 70
     1
102
RTVSPropertyOp34
 70
     1
102
RTVSPropertyOp35
 70
     1
102
RTVSPropertyOp36
 70
     1
102
RTVSPropertyOp37
 70
     1
102
RTVSPropertyOp38
 70
     1
102
RTVSPropertyOp39
 70
     1
102
RTVSPropertyOp40
 70
     1
102
RTVSPropertyOp41
 70
     1
102
RTVSPropertyOp42
 70
     1
102
RTVSPropertyOp43
 70
     1
102
RTVSPropertyOp44
 70
     1
102
RTVSPropertyOp45
 70
     1
102
RTVSPropertyOp46
 70
     1
102
RTVSPropertyOp47
 70
     1
102
RTVSPropertyOp48
 70
     1
102
RTVSPropertyOp49
 70
     1
102
RTVSPropertyOp50
 70
     1
102
RTVSPropertyOp51
 70
     0
102
RTVSPropertyOp52
 70
     0
102
RTVSPropertyOp53
 70
     1
102
RTVSPropertyOp54
 70
     1
102
RTVSPropertyOp55
 70
     1
102
RTVSPropertyOp56
 70
     1
102
RTVSPropertyOp57
 70
     1
102
RTVSPropertyOp58
 70
     1
102
RTVSPropertyOp59
 70
     1
102
RTVSPropertyOp60
 70
     1
102
RTVSPropertyOp61
 70
     1
102
RTVSPropertyOp62
 70
     1
  0
XRECORD
  5
1334
102
{ACAD_REACTORS
330
1333
102
}
330
1333
100
AcDbXrecord
280
     1
102
RTVSPost2010Prop28
280
     0
102
RTVSPost2010PropOp28
 70
     1
102
RTVSPost2010Prop29
280
     1
102
RTVSPost2010PropOp29
 70
     1
102
RTVSPost2010Prop30
280
     1
102
RTVSPost2010PropOp30
 70
     1
102
RTVSPost2010Prop31
280
     0
102
RTVSPost2010PropOp31
 70
     1
102
RTVSPost2010Prop32
280
     0
102
RTVSPost2010PropOp32
 70
     1
102
RTVSPost2010Prop33
280
     0
102
RTVSPost2010PropOp33
 70
     1
102
RTVSPost2010Prop34
280
     0
102
RTVSPost2010PropOp34
 70
     1
102
RTVSPost2010Prop35
280
     0
102
RTVSPost2010PropOp35
 70
     1
102
RTVSPost2010Prop36
280
     0
102
RTVSPost2010PropOp36
 70
     1
102
RTVSPost2010Prop37
 90
       50
102
RTVSPost2010PropOp37
 70
     1
102
RTVSPost2010Prop38
140
0.0
102
RTVSPost2010PropOp38
 70
     1
102
RTVSPost2010Prop39
140
1.0
102
RTVSPost2010PropOp39
 70
     1
102
RTVSPost2010Prop40
 90
        0
102
RTVSPost2010PropOp40
 70
     1
102
RTVSPost2010Prop41ColorIndex
 90
       18
102
RTVSPost2010Prop41ColorRGB
 90
        0
102
RTVSPost2010PropOp41
 70
     1
102
RTVSPost2010Prop42
 90
       50
102
RTVSPost2010PropOp42
 70
     1
102
RTVSPost2010Prop43
 90
        3
102
RTVSPost2010PropOp43
 70
     1
102
RTVSPost2010Prop44ColorIndex
 90
        5
102
RTVSPost2010Prop44ColorRGB
 90
      255
102
RTVSPost2010PropOp44
 70
     1
102
RTVSPost2010Prop45
280
     0
102
RTVSPost2010PropOp45
 70
     1
102
RTVSPost2010Prop46
 90
       50
102
RTVSPost2010PropOp46
 70
     1
102
RTVSPost2010Prop47
 90
       50
102
RTVSPost2010PropOp47
 70
     1
102
RTVSPost2010Prop48
 90
       50
102
RTVSPost2010PropOp48
 70
     1
102
RTVSPost2010Prop49
280
     0
102
RTVSPost2010PropOp49
 70
     1
102
RTVSPost2010Prop50
 90
       50
102
RTVSPost2010PropOp50
 70
     1
102
RTVSPost2010Prop51ColorIndex
 90
      256
102
RTVSPost2010Prop51ColorRGB
 90
-16777216
102
RTVSPost2010PropOp51
 70
     0
102
RTVSPost2010Prop52
140
1.0
102
RTVSPost2010PropOp52
 70
     0
102
RTVSPost2010Prop53
 90
        2
102
RTVSPost2010PropOp53
 70
     1
102
RTVSPost2010Prop54
  1
strokes_ogs.tif
102
RTVSPost2010PropOp54
 70
     1
102
RTVSPost2010Prop55
280
     0
102
RTVSPost2010PropOp55
 70
     1
102
RTVSPost2010Prop56
140
1.0
102
RTVSPost2010PropOp56
 70
     1
102
RTVSPost2010Prop57
140
1.0
102
RTVSPost2010PropOp57
 70
     1
102
RTVSPropertyOp0
 70
     1
102
RTVSPropertyOp1
 70
     1
102
RTVSPropertyOp2
 70
     1
102
RTVSPropertyOp3
 70
     1
102
RTVSPropertyOp4
 70
     1
102
RTVSPropertyOp5
 70
     1
102
RTVSPropertyOp6
 70
     1
102
RTVSPropertyOp7
 70
     1
102
RTVSPropertyOp8
 70
     1
102
RTVSPropertyOp9
 70
     1
102
RTVSPropertyOp10
 70
     1
102
RTVSPropertyOp11
 70
     1
102
RTVSPropertyOp12
 70
     1
102
RTVSPropertyOp13
 70
     1
102
RTVSPropertyOp14
 70
     1
102
RTVSPropertyOp15
 70
     1
102
RTVSPropertyOp16
 70
     1
102
RTVSPropertyOp17
 70
     1
102
RTVSPropertyOp18
 70
     1
102
RTVSPropertyOp19
 70
     1
102
RTVSPropertyOp20
 70
     1
102
RTVSPropertyOp21
 70
     1
102
RTVSPropertyOp22
 70
     1
102
RTVSPropertyOp23
 70
     1
102
RTVSPropertyOp24
 70
     1
102
RTVSPropertyOp25
 70
     1
102
RTVSPropertyOp26
 70
     1
102
RTVSPropertyOp27
 70
     1
102
RTVSPropertyOp28
 70
     1
102
RTVSPropertyOp29
 70
     1
102
RTVSPropertyOp30
 70
     1
102
RTVSPropertyOp31
 70
     1
102
RTVSPropertyOp32
 70
     1
102
RTVSPropertyOp33
 70
     1
102
RTVSPropertyOp34
 70
     1
102
RTVSPropertyOp35
 70
     1
102
RTVSPropertyOp36
 70
     1
102
RTVSPropertyOp37
 70
     1
102
RTVSPropertyOp38
 70
     1
102
RTVSPropertyOp39
 70
     1
102
RTVSPropertyOp40
 70
     1
102
RTVSPropertyOp41
 70
     1
102
RTVSPropertyOp42
 70
     1
102
RTVSPropertyOp43
 70
     1
102
RTVSPropertyOp44
 70
     1
102
RTVSPropertyOp45
 70
     1
102
RTVSPropertyOp46
 70
     1
102
RTVSPropertyOp47
 70
     1
102
RTVSPropertyOp48
 70
     1
102
RTVSPropertyOp49
 70
     1
102
RTVSPropertyOp50
 70
     1
102
RTVSPropertyOp51
 70
     0
102
RTVSPropertyOp52
 70
     0
102
RTVSPropertyOp53
 70
     1
102
RTVSPropertyOp54
 70
     1
102
RTVSPropertyOp55
 70
     1
102
RTVSPropertyOp56
 70
     1
102
RTVSPropertyOp57
 70
     1
102
RTVSPropertyOp58
 70
     1
102
RTVSPropertyOp59
 70
     1
102
RTVSPropertyOp60
 70
     1
102
RTVSPropertyOp61
 70
     1
102
RTVSPropertyOp62
 70
     1
  0
XRECORD
  5
1336
102
{ACAD_REACTORS
330
1335
102
}
330
1335
100
AcDbXrecord
280
     1
102
RTVSPost2010Prop28
280
     0
102
RTVSPost2010PropOp28
 70
     1
102
RTVSPost2010Prop29
280
     1
102
RTVSPost2010PropOp29
 70
     1
102
RTVSPost2010Prop30
280
     1
102
RTVSPost2010PropOp30
 70
     1
102
RTVSPost2010Prop31
280
     0
102
RTVSPost2010PropOp31
 70
     1
102
RTVSPost2010Prop32
280
     0
102
RTVSPost2010PropOp32
 70
     1
102
RTVSPost2010Prop33
280
     0
102
RTVSPost2010PropOp33
 70
     1
102
RTVSPost2010Prop34
280
     0
102
RTVSPost2010PropOp34
 70
     1
102
RTVSPost2010Prop35
280
     0
102
RTVSPost2010PropOp35
 70
     1
102
RTVSPost2010Prop36
280
     0
102
RTVSPost2010PropOp36
 70
     1
102
RTVSPost2010Prop37
 90
       50
102
RTVSPost2010PropOp37
 70
     1
102
RTVSPost2010Prop38
140
0.0
102
RTVSPost2010PropOp38
 70
     1
102
RTVSPost2010Prop39
140
1.0
102
RTVSPost2010PropOp39
 70
     1
102
RTVSPost2010Prop40
 90
        0
102
RTVSPost2010PropOp40
 70
     1
102
RTVSPost2010Prop41ColorIndex
 90
       18
102
RTVSPost2010Prop41ColorRGB
 90
        0
102
RTVSPost2010PropOp41
 70
     1
102
RTVSPost2010Prop42
 90
       50
102
RTVSPost2010PropOp42
 70
     1
102
RTVSPost2010Prop43
 90
        3
102
RTVSPost2010PropOp43
 70
     1
102
RTVSPost2010Prop44ColorIndex
 90
        5
102
RTVSPost2010Prop44ColorRGB
 90
      255
102
RTVSPost2010PropOp44
 70
     1
102
RTVSPost2010Prop45
280
     0
102
RTVSPost2010PropOp45
 70
     1
102
RTVSPost2010Prop46
 90
       50
102
RTVSPost2010PropOp46
 70
     1
102
RTVSPost2010Prop47
 90
       50
102
RTVSPost2010PropOp47
 70
     1
102
RTVSPost2010Prop48
 90
       50
102
RTVSPost2010PropOp48
 70
     1
102
RTVSPost2010Prop49
280
     0
102
RTVSPost2010PropOp49
 70
     1
102
RTVSPost2010Prop50
 90
       50
102
RTVSPost2010PropOp50
 70
     1
102
RTVSPost2010Prop51ColorIndex
 90
      256
102
RTVSPost2010Prop51ColorRGB
 90
-16777216
102
RTVSPost2010PropOp51
 70
     0
102
RTVSPost2010Prop52
140
1.0
102
RTVSPost2010PropOp52
 70
     0
102
RTVSPost2010Prop53
 90
        2
102
RTVSPost2010PropOp53
 70
     1
102
RTVSPost2010Prop54
  1
strokes_ogs.tif
102
RTVSPost2010PropOp54
 70
     1
102
RTVSPost2010Prop55
280
     0
102
RTVSPost2010PropOp55
 70
     1
102
RTVSPost2010Prop56
140
1.0
102
RTVSPost2010PropOp56
 70
     1
102
RTVSPost2010Prop57
140
1.0
102
RTVSPost2010PropOp57
 70
     1
102
RTVSPropertyOp0
 70
     1
102
RTVSPropertyOp1
 70
     1
102
RTVSPropertyOp2
 70
     1
102
RTVSPropertyOp3
 70
     1
102
RTVSPropertyOp4
 70
     1
102
RTVSPropertyOp5
 70
     1
102
RTVSPropertyOp6
 70
     1
102
RTVSPropertyOp7
 70
     1
102
RTVSPropertyOp8
 70
     1
102
RTVSPropertyOp9
 70
     1
102
RTVSPropertyOp10
 70
     1
102
RTVSPropertyOp11
 70
     1
102
RTVSPropertyOp12
 70
     1
102
RTVSPropertyOp13
 70
     1
102
RTVSPropertyOp14
 70
     1
102
RTVSPropertyOp15
 70
     1
102
RTVSPropertyOp16
 70
     1
102
RTVSPropertyOp17
 70
     1
102
RTVSPropertyOp18
 70
     1
102
RTVSPropertyOp19
 70
     1
102
RTVSPropertyOp20
 70
     1
102
RTVSPropertyOp21
 70
     1
102
RTVSPropertyOp22
 70
     1
102
RTVSPropertyOp23
 70
     1
102
RTVSPropertyOp24
 70
     1
102
RTVSPropertyOp25
 70
     1
102
RTVSPropertyOp26
 70
     1
102
RTVSPropertyOp27
 70
     1
102
RTVSPropertyOp28
 70
     1
102
RTVSPropertyOp29
 70
     1
102
RTVSPropertyOp30
 70
     1
102
RTVSPropertyOp31
 70
     1
102
RTVSPropertyOp32
 70
     1
102
RTVSPropertyOp33
 70
     1
102
RTVSPropertyOp34
 70
     1
102
RTVSPropertyOp35
 70
     1
102
RTVSPropertyOp36
 70
     1
102
RTVSPropertyOp37
 70
     1
102
RTVSPropertyOp38
 70
     1
102
RTVSPropertyOp39
 70
     1
102
RTVSPropertyOp40
 70
     1
102
RTVSPropertyOp41
 70
     1
102
RTVSPropertyOp42
 70
     1
102
RTVSPropertyOp43
 70
     1
102
RTVSPropertyOp44
 70
     1
102
RTVSPropertyOp45
 70
     1
102
RTVSPropertyOp46
 70
     1
102
RTVSPropertyOp47
 70
     1
102
RTVSPropertyOp48
 70
     1
102
RTVSPropertyOp49
 70
     1
102
RTVSPropertyOp50
 70
     1
102
RTVSPropertyOp51
 70
     0
102
RTVSPropertyOp52
 70
     0
102
RTVSPropertyOp53
 70
     1
102
RTVSPropertyOp54
 70
     1
102
RTVSPropertyOp55
 70
     1
102
RTVSPropertyOp56
 70
     1
102
RTVSPropertyOp57
 70
     1
102
RTVSPropertyOp58
 70
     1
102
RTVSPropertyOp59
 70
     1
102
RTVSPropertyOp60
 70
     1
102
RTVSPropertyOp61
 70
     1
102
RTVSPropertyOp62
 70
     1
  0
XRECORD
  5
1338
102
{ACAD_REACTORS
330
1337
102
}
330
1337
100
AcDbXrecord
280
     1
102
RTVSPost2010Prop28
280
     0
102
RTVSPost2010PropOp28
 70
     1
102
RTVSPost2010Prop29
280
     1
102
RTVSPost2010PropOp29
 70
     1
102
RTVSPost2010Prop30
280
     1
102
RTVSPost2010PropOp30
 70
     1
102
RTVSPost2010Prop31
280
     0
102
RTVSPost2010PropOp31
 70
     1
102
RTVSPost2010Prop32
280
     0
102
RTVSPost2010PropOp32
 70
     1
102
RTVSPost2010Prop33
280
     0
102
RTVSPost2010PropOp33
 70
     1
102
RTVSPost2010Prop34
280
     0
102
RTVSPost2010PropOp34
 70
     1
102
RTVSPost2010Prop35
280
     0
102
RTVSPost2010PropOp35
 70
     1
102
RTVSPost2010Prop36
280
     0
102
RTVSPost2010PropOp36
 70
     1
102
RTVSPost2010Prop37
 90
       50
102
RTVSPost2010PropOp37
 70
     1
102
RTVSPost2010Prop38
140
0.0
102
RTVSPost2010PropOp38
 70
     1
102
RTVSPost2010Prop39
140
1.0
102
RTVSPost2010PropOp39
 70
     1
102
RTVSPost2010Prop40
 90
        0
102
RTVSPost2010PropOp40
 70
     1
102
RTVSPost2010Prop41ColorIndex
 90
       18
102
RTVSPost2010Prop41ColorRGB
 90
        0
102
RTVSPost2010PropOp41
 70
     1
102
RTVSPost2010Prop42
 90
       50
102
RTVSPost2010PropOp42
 70
     1
102
RTVSPost2010Prop43
 90
        3
102
RTVSPost2010PropOp43
 70
     1
102
RTVSPost2010Prop44ColorIndex
 90
        5
102
RTVSPost2010Prop44ColorRGB
 90
      255
102
RTVSPost2010PropOp44
 70
     1
102
RTVSPost2010Prop45
280
     0
102
RTVSPost2010PropOp45
 70
     1
102
RTVSPost2010Prop46
 90
       50
102
RTVSPost2010PropOp46
 70
     1
102
RTVSPost2010Prop47
 90
       50
102
RTVSPost2010PropOp47
 70
     1
102
RTVSPost2010Prop48
 90
       50
102
RTVSPost2010PropOp48
 70
     1
102
RTVSPost2010Prop49
280
     0
102
RTVSPost2010PropOp49
 70
     1
102
RTVSPost2010Prop50
 90
       50
102
RTVSPost2010PropOp50
 70
     1
102
RTVSPost2010Prop51ColorIndex
 90
      256
102
RTVSPost2010Prop51ColorRGB
 90
-16777216
102
RTVSPost2010PropOp51
 70
     0
102
RTVSPost2010Prop52
140
1.0
102
RTVSPost2010PropOp52
 70
     0
102
RTVSPost2010Prop53
 90
        2
102
RTVSPost2010PropOp53
 70
     1
102
RTVSPost2010Prop54
  1
strokes_ogs.tif
102
RTVSPost2010PropOp54
 70
     1
102
RTVSPost2010Prop55
280
     0
102
RTVSPost2010PropOp55
 70
     1
102
RTVSPost2010Prop56
140
1.0
102
RTVSPost2010PropOp56
 70
     1
102
RTVSPost2010Prop57
140
1.0
102
RTVSPost2010PropOp57
 70
     1
102
RTVSPropertyOp0
 70
     1
102
RTVSPropertyOp1
 70
     1
102
RTVSPropertyOp2
 70
     1
102
RTVSPropertyOp3
 70
     1
102
RTVSPropertyOp4
 70
     1
102
RTVSPropertyOp5
 70
     1
102
RTVSPropertyOp6
 70
     1
102
RTVSPropertyOp7
 70
     1
102
RTVSPropertyOp8
 70
     1
102
RTVSPropertyOp9
 70
     1
102
RTVSPropertyOp10
 70
     1
102
RTVSPropertyOp11
 70
     1
102
RTVSPropertyOp12
 70
     1
102
RTVSPropertyOp13
 70
     1
102
RTVSPropertyOp14
 70
     1
102
RTVSPropertyOp15
 70
     1
102
RTVSPropertyOp16
 70
     1
102
RTVSPropertyOp17
 70
     1
102
RTVSPropertyOp18
 70
     1
102
RTVSPropertyOp19
 70
     1
102
RTVSPropertyOp20
 70
     1
102
RTVSPropertyOp21
 70
     1
102
RTVSPropertyOp22
 70
     1
102
RTVSPropertyOp23
 70
     1
102
RTVSPropertyOp24
 70
     1
102
RTVSPropertyOp25
 70
     1
102
RTVSPropertyOp26
 70
     1
102
RTVSPropertyOp27
 70
     1
102
RTVSPropertyOp28
 70
     1
102
RTVSPropertyOp29
 70
     1
102
RTVSPropertyOp30
 70
     1
102
RTVSPropertyOp31
 70
     1
102
RTVSPropertyOp32
 70
     1
102
RTVSPropertyOp33
 70
     1
102
RTVSPropertyOp34
 70
     1
102
RTVSPropertyOp35
 70
     1
102
RTVSPropertyOp36
 70
     1
102
RTVSPropertyOp37
 70
     1
102
RTVSPropertyOp38
 70
     1
102
RTVSPropertyOp39
 70
     1
102
RTVSPropertyOp40
 70
     1
102
RTVSPropertyOp41
 70
     1
102
RTVSPropertyOp42
 70
     1
102
RTVSPropertyOp43
 70
     1
102
RTVSPropertyOp44
 70
     1
102
RTVSPropertyOp45
 70
     1
102
RTVSPropertyOp46
 70
     1
102
RTVSPropertyOp47
 70
     1
102
RTVSPropertyOp48
 70
     1
102
RTVSPropertyOp49
 70
     1
102
RTVSPropertyOp50
 70
     1
102
RTVSPropertyOp51
 70
     0
102
RTVSPropertyOp52
 70
     0
102
RTVSPropertyOp53
 70
     1
102
RTVSPropertyOp54
 70
     1
102
RTVSPropertyOp55
 70
     1
102
RTVSPropertyOp56
 70
     1
102
RTVSPropertyOp57
 70
     1
102
RTVSPropertyOp58
 70
     1
102
RTVSPropertyOp59
 70
     1
102
RTVSPropertyOp60
 70
     1
102
RTVSPropertyOp61
 70
     1
102
RTVSPropertyOp62
 70
     1
  0
XRECORD
  5
133A
102
{ACAD_REACTORS
330
1339
102
}
330
1339
100
AcDbXrecord
280
     1
102
RTVSPost2010Prop28
280
     0
102
RTVSPost2010PropOp28
 70
     1
102
RTVSPost2010Prop29
280
     1
102
RTVSPost2010PropOp29
 70
     1
102
RTVSPost2010Prop30
280
     1
102
RTVSPost2010PropOp30
 70
     1
102
RTVSPost2010Prop31
280
     0
102
RTVSPost2010PropOp31
 70
     1
102
RTVSPost2010Prop32
280
     0
102
RTVSPost2010PropOp32
 70
     1
102
RTVSPost2010Prop33
280
     0
102
RTVSPost2010PropOp33
 70
     1
102
RTVSPost2010Prop34
280
     0
102
RTVSPost2010PropOp34
 70
     1
102
RTVSPost2010Prop35
280
     0
102
RTVSPost2010PropOp35
 70
     1
102
RTVSPost2010Prop36
280
     0
102
RTVSPost2010PropOp36
 70
     1
102
RTVSPost2010Prop37
 90
       50
102
RTVSPost2010PropOp37
 70
     1
102
RTVSPost2010Prop38
140
0.0
102
RTVSPost2010PropOp38
 70
     1
102
RTVSPost2010Prop39
140
1.0
102
RTVSPost2010PropOp39
 70
     1
102
RTVSPost2010Prop40
 90
        0
102
RTVSPost2010PropOp40
 70
     1
102
RTVSPost2010Prop41ColorIndex
 90
       18
102
RTVSPost2010Prop41ColorRGB
 90
        0
102
RTVSPost2010PropOp41
 70
     1
102
RTVSPost2010Prop42
 90
       50
102
RTVSPost2010PropOp42
 70
     1
102
RTVSPost2010Prop43
 90
        3
102
RTVSPost2010PropOp43
 70
     1
102
RTVSPost2010Prop44ColorIndex
 90
        5
102
RTVSPost2010Prop44ColorRGB
 90
      255
102
RTVSPost2010PropOp44
 70
     1
102
RTVSPost2010Prop45
280
     0
102
RTVSPost2010PropOp45
 70
     1
102
RTVSPost2010Prop46
 90
       50
102
RTVSPost2010PropOp46
 70
     1
102
RTVSPost2010Prop47
 90
       50
102
RTVSPost2010PropOp47
 70
     1
102
RTVSPost2010Prop48
 90
       50
102
RTVSPost2010PropOp48
 70
     1
102
RTVSPost2010Prop49
280
     0
102
RTVSPost2010PropOp49
 70
     1
102
RTVSPost2010Prop50
 90
       50
102
RTVSPost2010PropOp50
 70
     1
102
RTVSPost2010Prop51ColorIndex
 90
      256
102
RTVSPost2010Prop51ColorRGB
 90
-16777216
102
RTVSPost2010PropOp51
 70
     0
102
RTVSPost2010Prop52
140
1.0
102
RTVSPost2010PropOp52
 70
     0
102
RTVSPost2010Prop53
 90
        2
102
RTVSPost2010PropOp53
 70
     1
102
RTVSPost2010Prop54
  1
strokes_ogs.tif
102
RTVSPost2010PropOp54
 70
     1
102
RTVSPost2010Prop55
280
     0
102
RTVSPost2010PropOp55
 70
     1
102
RTVSPost2010Prop56
140
1.0
102
RTVSPost2010PropOp56
 70
     1
102
RTVSPost2010Prop57
140
1.0
102
RTVSPost2010PropOp57
 70
     1
102
RTVSPropertyOp0
 70
     1
102
RTVSPropertyOp1
 70
     1
102
RTVSPropertyOp2
 70
     1
102
RTVSPropertyOp3
 70
     1
102
RTVSPropertyOp4
 70
     1
102
RTVSPropertyOp5
 70
     1
102
RTVSPropertyOp6
 70
     1
102
RTVSPropertyOp7
 70
     1
102
RTVSPropertyOp8
 70
     1
102
RTVSPropertyOp9
 70
     1
102
RTVSPropertyOp10
 70
     1
102
RTVSPropertyOp11
 70
     1
102
RTVSPropertyOp12
 70
     1
102
RTVSPropertyOp13
 70
     1
102
RTVSPropertyOp14
 70
     1
102
RTVSPropertyOp15
 70
     1
102
RTVSPropertyOp16
 70
     1
102
RTVSPropertyOp17
 70
     1
102
RTVSPropertyOp18
 70
     1
102
RTVSPropertyOp19
 70
     1
102
RTVSPropertyOp20
 70
     1
102
RTVSPropertyOp21
 70
     1
102
RTVSPropertyOp22
 70
     1
102
RTVSPropertyOp23
 70
     1
102
RTVSPropertyOp24
 70
     1
102
RTVSPropertyOp25
 70
     1
102
RTVSPropertyOp26
 70
     1
102
RTVSPropertyOp27
 70
     1
102
RTVSPropertyOp28
 70
     1
102
RTVSPropertyOp29
 70
     1
102
RTVSPropertyOp30
 70
     1
102
RTVSPropertyOp31
 70
     1
102
RTVSPropertyOp32
 70
     1
102
RTVSPropertyOp33
 70
     1
102
RTVSPropertyOp34
 70
     1
102
RTVSPropertyOp35
 70
     1
102
RTVSPropertyOp36
 70
     1
102
RTVSPropertyOp37
 70
     1
102
RTVSPropertyOp38
 70
     1
102
RTVSPropertyOp39
 70
     1
102
RTVSPropertyOp40
 70
     1
102
RTVSPropertyOp41
 70
     1
102
RTVSPropertyOp42
 70
     1
102
RTVSPropertyOp43
 70
     1
102
RTVSPropertyOp44
 70
     1
102
RTVSPropertyOp45
 70
     1
102
RTVSPropertyOp46
 70
     1
102
RTVSPropertyOp47
 70
     1
102
RTVSPropertyOp48
 70
     1
102
RTVSPropertyOp49
 70
     1
102
RTVSPropertyOp50
 70
     1
102
RTVSPropertyOp51
 70
     0
102
RTVSPropertyOp52
 70
     0
102
RTVSPropertyOp53
 70
     1
102
RTVSPropertyOp54
 70
     1
102
RTVSPropertyOp55
 70
     1
102
RTVSPropertyOp56
 70
     1
102
RTVSPropertyOp57
 70
     1
102
RTVSPropertyOp58
 70
     1
102
RTVSPropertyOp59
 70
     1
102
RTVSPropertyOp60
 70
     1
102
RTVSPropertyOp61
 70
     1
102
RTVSPropertyOp62
 70
     1
  0
XRECORD
  5
1342
102
{ACAD_REACTORS
330
1341
102
}
330
1341
100
AcDbXrecord
280
     1
102
RTVSPost2010Prop28
280
     0
102
RTVSPost2010PropOp28
 70
     1
102
RTVSPost2010Prop29
280
     1
102
RTVSPost2010PropOp29
 70
     1
102
RTVSPost2010Prop30
280
     1
102
RTVSPost2010PropOp30
 70
     1
102
RTVSPost2010Prop31
280
     0
102
RTVSPost2010PropOp31
 70
     1
102
RTVSPost2010Prop32
280
     0
102
RTVSPost2010PropOp32
 70
     1
102
RTVSPost2010Prop33
280
     0
102
RTVSPost2010PropOp33
 70
     1
102
RTVSPost2010Prop34
280
     0
102
RTVSPost2010PropOp34
 70
     1
102
RTVSPost2010Prop35
280
     0
102
RTVSPost2010PropOp35
 70
     1
102
RTVSPost2010Prop36
280
     0
102
RTVSPost2010PropOp36
 70
     1
102
RTVSPost2010Prop37
 90
       50
102
RTVSPost2010PropOp37
 70
     1
102
RTVSPost2010Prop38
140
0.0
102
RTVSPost2010PropOp38
 70
     1
102
RTVSPost2010Prop39
140
1.0
102
RTVSPost2010PropOp39
 70
     1
102
RTVSPost2010Prop40
 90
        0
102
RTVSPost2010PropOp40
 70
     1
102
RTVSPost2010Prop41ColorIndex
 90
       18
102
RTVSPost2010Prop41ColorRGB
 90
        0
102
RTVSPost2010PropOp41
 70
     1
102
RTVSPost2010Prop42
 90
       50
102
RTVSPost2010PropOp42
 70
     1
102
RTVSPost2010Prop43
 90
        3
102
RTVSPost2010PropOp43
 70
     1
102
RTVSPost2010Prop44ColorIndex
 90
        5
102
RTVSPost2010Prop44ColorRGB
 90
      255
102
RTVSPost2010PropOp44
 70
     1
102
RTVSPost2010Prop45
280
     0
102
RTVSPost2010PropOp45
 70
     1
102
RTVSPost2010Prop46
 90
       50
102
RTVSPost2010PropOp46
 70
     1
102
RTVSPost2010Prop47
 90
       50
102
RTVSPost2010PropOp47
 70
     1
102
RTVSPost2010Prop48
 90
       50
102
RTVSPost2010PropOp48
 70
     1
102
RTVSPost2010Prop49
280
     0
102
RTVSPost2010PropOp49
 70
     1
102
RTVSPost2010Prop50
 90
       50
102
RTVSPost2010PropOp50
 70
     1
102
RTVSPost2010Prop51ColorIndex
 90
      256
102
RTVSPost2010Prop51ColorRGB
 90
-16777216
102
RTVSPost2010PropOp51
 70
     0
102
RTVSPost2010Prop52
140
1.0
102
RTVSPost2010PropOp52
 70
     0
102
RTVSPost2010Prop53
 90
        2
102
RTVSPost2010PropOp53
 70
     1
102
RTVSPost2010Prop54
  1
strokes_ogs.tif
102
RTVSPost2010PropOp54
 70
     1
102
RTVSPost2010Prop55
280
     0
102
RTVSPost2010PropOp55
 70
     1
102
RTVSPost2010Prop56
140
1.0
102
RTVSPost2010PropOp56
 70
     1
102
RTVSPost2010Prop57
140
1.0
102
RTVSPost2010PropOp57
 70
     1
102
RTVSPropertyOp0
 70
     1
102
RTVSPropertyOp1
 70
     1
102
RTVSPropertyOp2
 70
     1
102
RTVSPropertyOp3
 70
     1
102
RTVSPropertyOp4
 70
     1
102
RTVSPropertyOp5
 70
     1
102
RTVSPropertyOp6
 70
     1
102
RTVSPropertyOp7
 70
     1
102
RTVSPropertyOp8
 70
     1
102
RTVSPropertyOp9
 70
     1
102
RTVSPropertyOp10
 70
     1
102
RTVSPropertyOp11
 70
     1
102
RTVSPropertyOp12
 70
     1
102
RTVSPropertyOp13
 70
     1
102
RTVSPropertyOp14
 70
     1
102
RTVSPropertyOp15
 70
     1
102
RTVSPropertyOp16
 70
     1
102
RTVSPropertyOp17
 70
     1
102
RTVSPropertyOp18
 70
     1
102
RTVSPropertyOp19
 70
     1
102
RTVSPropertyOp20
 70
     1
102
RTVSPropertyOp21
 70
     1
102
RTVSPropertyOp22
 70
     1
102
RTVSPropertyOp23
 70
     1
102
RTVSPropertyOp24
 70
     1
102
RTVSPropertyOp25
 70
     1
102
RTVSPropertyOp26
 70
     1
102
RTVSPropertyOp27
 70
     1
102
RTVSPropertyOp28
 70
     1
102
RTVSPropertyOp29
 70
     1
102
RTVSPropertyOp30
 70
     1
102
RTVSPropertyOp31
 70
     1
102
RTVSPropertyOp32
 70
     1
102
RTVSPropertyOp33
 70
     1
102
RTVSPropertyOp34
 70
     1
102
RTVSPropertyOp35
 70
     1
102
RTVSPropertyOp36
 70
     1
102
RTVSPropertyOp37
 70
     1
102
RTVSPropertyOp38
 70
     1
102
RTVSPropertyOp39
 70
     1
102
RTVSPropertyOp40
 70
     1
102
RTVSPropertyOp41
 70
     1
102
RTVSPropertyOp42
 70
     1
102
RTVSPropertyOp43
 70
     1
102
RTVSPropertyOp44
 70
     1
102
RTVSPropertyOp45
 70
     1
102
RTVSPropertyOp46
 70
     1
102
RTVSPropertyOp47
 70
     1
102
RTVSPropertyOp48
 70
     1
102
RTVSPropertyOp49
 70
     1
102
RTVSPropertyOp50
 70
     1
102
RTVSPropertyOp51
 70
     0
102
RTVSPropertyOp52
 70
     0
102
RTVSPropertyOp53
 70
     1
102
RTVSPropertyOp54
 70
     1
102
RTVSPropertyOp55
 70
     1
102
RTVSPropertyOp56
 70
     1
102
RTVSPropertyOp57
 70
     1
102
RTVSPropertyOp58
 70
     1
102
RTVSPropertyOp59
 70
     1
102
RTVSPropertyOp60
 70
     1
102
RTVSPropertyOp61
 70
     1
102
RTVSPropertyOp62
 70
     1
  0
XRECORD
  5
135E
102
{ACAD_REACTORS
330
135D
102
}
330
135D
100
AcDbXrecord
280
     1
102
RTVSPost2010Prop28
280
     0
102
RTVSPost2010PropOp28
 70
     1
102
RTVSPost2010Prop29
280
     1
102
RTVSPost2010PropOp29
 70
     1
102
RTVSPost2010Prop30
280
     1
102
RTVSPost2010PropOp30
 70
     1
102
RTVSPost2010Prop31
280
     0
102
RTVSPost2010PropOp31
 70
     1
102
RTVSPost2010Prop32
280
     0
102
RTVSPost2010PropOp32
 70
     1
102
RTVSPost2010Prop33
280
     0
102
RTVSPost2010PropOp33
 70
     1
102
RTVSPost2010Prop34
280
     0
102
RTVSPost2010PropOp34
 70
     1
102
RTVSPost2010Prop35
280
     0
102
RTVSPost2010PropOp35
 70
     1
102
RTVSPost2010Prop36
280
     0
102
RTVSPost2010PropOp36
 70
     1
102
RTVSPost2010Prop37
 90
       50
102
RTVSPost2010PropOp37
 70
     0
102
RTVSPost2010Prop38
140
0.0
102
RTVSPost2010PropOp38
 70
     0
102
RTVSPost2010Prop39
140
1.0
102
RTVSPost2010PropOp39
 70
     0
102
RTVSPost2010Prop40
 90
        0
102
RTVSPost2010PropOp40
 70
     0
102
RTVSPost2010Prop41ColorIndex
 90
       18
102
RTVSPost2010Prop41ColorRGB
 90
        0
102
RTVSPost2010PropOp41
 70
     0
102
RTVSPost2010Prop42
 90
       50
102
RTVSPost2010PropOp42
 70
     0
102
RTVSPost2010Prop43
 90
        3
102
RTVSPost2010PropOp43
 70
     0
102
RTVSPost2010Prop44ColorIndex
 90
        5
102
RTVSPost2010Prop44ColorRGB
 90
      255
102
RTVSPost2010PropOp44
 70
     0
102
RTVSPost2010Prop45
280
     0
102
RTVSPost2010PropOp45
 70
     1
102
RTVSPost2010Prop46
 90
       50
102
RTVSPost2010PropOp46
 70
     0
102
RTVSPost2010Prop47
 90
       50
102
RTVSPost2010PropOp47
 70
     0
102
RTVSPost2010Prop48
 90
       50
102
RTVSPost2010PropOp48
 70
     0
102
RTVSPost2010Prop49
280
     0
102
RTVSPost2010PropOp49
 70
     1
102
RTVSPost2010Prop50
 90
       50
102
RTVSPost2010PropOp50
 70
     0
102
RTVSPost2010Prop51ColorIndex
 90
      256
102
RTVSPost2010Prop51ColorRGB
 90
-16777216
102
RTVSPost2010PropOp51
 70
     0
102
RTVSPost2010Prop52
140
1.0
102
RTVSPost2010PropOp52
 70
     0
102
RTVSPost2010Prop53
 90
        2
102
RTVSPost2010PropOp53
 70
     0
102
RTVSPost2010Prop54
  1
strokes_ogs.tif
102
RTVSPost2010PropOp54
 70
     0
102
RTVSPost2010Prop55
280
     0
102
RTVSPost2010PropOp55
 70
     1
102
RTVSPost2010Prop56
140
1.0
102
RTVSPost2010PropOp56
 70
     0
102
RTVSPost2010Prop57
140
1.0
102
RTVSPost2010PropOp57
 70
     0
102
RTVSPropertyOp0
 70
     0
102
RTVSPropertyOp1
 70
     0
102
RTVSPropertyOp2
 70
     0
102
RTVSPropertyOp3
 70
     0
102
RTVSPropertyOp4
 70
     0
102
RTVSPropertyOp5
 70
     0
102
RTVSPropertyOp6
 70
     0
102
RTVSPropertyOp7
 70
     0
102
RTVSPropertyOp8
 70
     0
102
RTVSPropertyOp9
 70
     0
102
RTVSPropertyOp10
 70
     0
102
RTVSPropertyOp11
 70
     0
102
RTVSPropertyOp12
 70
     0
102
RTVSPropertyOp13
 70
     0
102
RTVSPropertyOp14
 70
     2
102
RTVSPropertyOp15
 70
     0
102
RTVSPropertyOp16
 70
     0
102
RTVSPropertyOp17
 70
     0
102
RTVSPropertyOp18
 70
     0
102
RTVSPropertyOp19
 70
     0
102
RTVSPropertyOp20
 70
     0
102
RTVSPropertyOp21
 70
     0
102
RTVSPropertyOp22
 70
     0
102
RTVSPropertyOp23
 70
     0
102
RTVSPropertyOp24
 70
     0
102
RTVSPropertyOp25
 70
     0
102
RTVSPropertyOp26
 70
     0
102
RTVSPropertyOp27
 70
     0
102
RTVSPropertyOp28
 70
     1
102
RTVSPropertyOp29
 70
     1
102
RTVSPropertyOp30
 70
     1
102
RTVSPropertyOp31
 70
     1
102
RTVSPropertyOp32
 70
     1
102
RTVSPropertyOp33
 70
     1
102
RTVSPropertyOp34
 70
     1
102
RTVSPropertyOp35
 70
     1
102
RTVSPropertyOp36
 70
     1
102
RTVSPropertyOp37
 70
     0
102
RTVSPropertyOp38
 70
     0
102
RTVSPropertyOp39
 70
     0
102
RTVSPropertyOp40
 70
     0
102
RTVSPropertyOp41
 70
     0
102
RTVSPropertyOp42
 70
     0
102
RTVSPropertyOp43
 70
     0
102
RTVSPropertyOp44
 70
     0
102
RTVSPropertyOp45
 70
     1
102
RTVSPropertyOp46
 70
     0
102
RTVSPropertyOp47
 70
     0
102
RTVSPropertyOp48
 70
     0
102
RTVSPropertyOp49
 70
     1
102
RTVSPropertyOp50
 70
     0
102
RTVSPropertyOp51
 70
     0
102
RTVSPropertyOp52
 70
     0
102
RTVSPropertyOp53
 70
     0
102
RTVSPropertyOp54
 70
     0
102
RTVSPropertyOp55
 70
     1
102
RTVSPropertyOp56
 70
     0
102
RTVSPropertyOp57
 70
     0
102
RTVSPropertyOp58
 70
     0
102
RTVSPropertyOp59
 70
     0
102
RTVSPropertyOp60
 70
     0
102
RTVSPropertyOp61
 70
     0
102
RTVSPropertyOp62
 70
     0
  0
XRECORD
  5
134E
102
{ACAD_REACTORS
330
134D
102
}
330
134D
100
AcDbXrecord
280
     1
102
RTVSPost2010Prop28
280
     0
102
RTVSPost2010PropOp28
 70
     1
102
RTVSPost2010Prop29
280
     1
102
RTVSPost2010PropOp29
 70
     1
102
RTVSPost2010Prop30
280
     1
102
RTVSPost2010PropOp30
 70
     1
102
RTVSPost2010Prop31
280
     0
102
RTVSPost2010PropOp31
 70
     1
102
RTVSPost2010Prop32
280
     0
102
RTVSPost2010PropOp32
 70
     1
102
RTVSPost2010Prop33
280
     0
102
RTVSPost2010PropOp33
 70
     1
102
RTVSPost2010Prop34
280
     0
102
RTVSPost2010PropOp34
 70
     1
102
RTVSPost2010Prop35
280
     0
102
RTVSPost2010PropOp35
 70
     1
102
RTVSPost2010Prop36
280
     0
102
RTVSPost2010PropOp36
 70
     1
102
RTVSPost2010Prop37
 90
       50
102
RTVSPost2010PropOp37
 70
     1
102
RTVSPost2010Prop38
140
0.0
102
RTVSPost2010PropOp38
 70
     1
102
RTVSPost2010Prop39
140
1.0
102
RTVSPost2010PropOp39
 70
     1
102
RTVSPost2010Prop40
 90
        0
102
RTVSPost2010PropOp40
 70
     1
102
RTVSPost2010Prop41ColorIndex
 90
       18
102
RTVSPost2010Prop41ColorRGB
 90
        0
102
RTVSPost2010PropOp41
 70
     1
102
RTVSPost2010Prop42
 90
       50
102
RTVSPost2010PropOp42
 70
     1
102
RTVSPost2010Prop43
 90
        3
102
RTVSPost2010PropOp43
 70
     1
102
RTVSPost2010Prop44ColorIndex
 90
        5
102
RTVSPost2010Prop44ColorRGB
 90
      255
102
RTVSPost2010PropOp44
 70
     1
102
RTVSPost2010Prop45
280
     0
102
RTVSPost2010PropOp45
 70
     1
102
RTVSPost2010Prop46
 90
       50
102
RTVSPost2010PropOp46
 70
     1
102
RTVSPost2010Prop47
 90
       50
102
RTVSPost2010PropOp47
 70
     1
102
RTVSPost2010Prop48
 90
       50
102
RTVSPost2010PropOp48
 70
     1
102
RTVSPost2010Prop49
280
     0
102
RTVSPost2010PropOp49
 70
     1
102
RTVSPost2010Prop50
 90
       50
102
RTVSPost2010PropOp50
 70
     1
102
RTVSPost2010Prop51ColorIndex
 90
      256
102
RTVSPost2010Prop51ColorRGB
 90
-16777216
102
RTVSPost2010PropOp51
 70
     0
102
RTVSPost2010Prop52
140
1.0
102
RTVSPost2010PropOp52
 70
     0
102
RTVSPost2010Prop53
 90
        2
102
RTVSPost2010PropOp53
 70
     1
102
RTVSPost2010Prop54
  1
strokes_ogs.tif
102
RTVSPost2010PropOp54
 70
     1
102
RTVSPost2010Prop55
280
     0
102
RTVSPost2010PropOp55
 70
     1
102
RTVSPost2010Prop56
140
1.0
102
RTVSPost2010PropOp56
 70
     1
102
RTVSPost2010Prop57
140
1.0
102
RTVSPost2010PropOp57
 70
     1
102
RTVSPropertyOp0
 70
     1
102
RTVSPropertyOp1
 70
     1
102
RTVSPropertyOp2
 70
     1
102
RTVSPropertyOp3
 70
     1
102
RTVSPropertyOp4
 70
     1
102
RTVSPropertyOp5
 70
     1
102
RTVSPropertyOp6
 70
     1
102
RTVSPropertyOp7
 70
     1
102
RTVSPropertyOp8
 70
     1
102
RTVSPropertyOp9
 70
     1
102
RTVSPropertyOp10
 70
     1
102
RTVSPropertyOp11
 70
     1
102
RTVSPropertyOp12
 70
     1
102
RTVSPropertyOp13
 70
     1
102
RTVSPropertyOp14
 70
     1
102
RTVSPropertyOp15
 70
     1
102
RTVSPropertyOp16
 70
     1
102
RTVSPropertyOp17
 70
     1
102
RTVSPropertyOp18
 70
     1
102
RTVSPropertyOp19
 70
     1
102
RTVSPropertyOp20
 70
     1
102
RTVSPropertyOp21
 70
     1
102
RTVSPropertyOp22
 70
     1
102
RTVSPropertyOp23
 70
     1
102
RTVSPropertyOp24
 70
     1
102
RTVSPropertyOp25
 70
     1
102
RTVSPropertyOp26
 70
     1
102
RTVSPropertyOp27
 70
     1
102
RTVSPropertyOp28
 70
     1
102
RTVSPropertyOp29
 70
     1
102
RTVSPropertyOp30
 70
     1
102
RTVSPropertyOp31
 70
     1
102
RTVSPropertyOp32
 70
     1
102
RTVSPropertyOp33
 70
     1
102
RTVSPropertyOp34
 70
     1
102
RTVSPropertyOp35
 70
     1
102
RTVSPropertyOp36
 70
     1
102
RTVSPropertyOp37
 70
     1
102
RTVSPropertyOp38
 70
     1
102
RTVSPropertyOp39
 70
     1
102
RTVSPropertyOp40
 70
     1
102
RTVSPropertyOp41
 70
     1
102
RTVSPropertyOp42
 70
     1
102
RTVSPropertyOp43
 70
     1
102
RTVSPropertyOp44
 70
     1
102
RTVSPropertyOp45
 70
     1
102
RTVSPropertyOp46
 70
     1
102
RTVSPropertyOp47
 70
     1
102
RTVSPropertyOp48
 70
     1
102
RTVSPropertyOp49
 70
     1
102
RTVSPropertyOp50
 70
     1
102
RTVSPropertyOp51
 70
     0
102
RTVSPropertyOp52
 70
     0
102
RTVSPropertyOp53
 70
     1
102
RTVSPropertyOp54
 70
     1
102
RTVSPropertyOp55
 70
     1
102
RTVSPropertyOp56
 70
     1
102
RTVSPropertyOp57
 70
     1
102
RTVSPropertyOp58
 70
     1
102
RTVSPropertyOp59
 70
     1
102
RTVSPropertyOp60
 70
     1
102
RTVSPropertyOp61
 70
     1
102
RTVSPropertyOp62
 70
     1
  0
XRECORD
  5
1360
102
{ACAD_REACTORS
330
135F
102
}
330
135F
100
AcDbXrecord
280
     1
102
RTVSPost2010Prop28
280
     0
102
RTVSPost2010PropOp28
 70
     1
102
RTVSPost2010Prop29
280
     1
102
RTVSPost2010PropOp29
 70
     1
102
RTVSPost2010Prop30
280
     1
102
RTVSPost2010PropOp30
 70
     1
102
RTVSPost2010Prop31
280
     0
102
RTVSPost2010PropOp31
 70
     1
102
RTVSPost2010Prop32
280
     0
102
RTVSPost2010PropOp32
 70
     1
102
RTVSPost2010Prop33
280
     0
102
RTVSPost2010PropOp33
 70
     1
102
RTVSPost2010Prop34
280
     0
102
RTVSPost2010PropOp34
 70
     1
102
RTVSPost2010Prop35
280
     0
102
RTVSPost2010PropOp35
 70
     1
102
RTVSPost2010Prop36
280
     0
102
RTVSPost2010PropOp36
 70
     1
102
RTVSPost2010Prop37
 90
       50
102
RTVSPost2010PropOp37
 70
     0
102
RTVSPost2010Prop38
140
0.0
102
RTVSPost2010PropOp38
 70
     0
102
RTVSPost2010Prop39
140
1.0
102
RTVSPost2010PropOp39
 70
     0
102
RTVSPost2010Prop40
 90
        0
102
RTVSPost2010PropOp40
 70
     0
102
RTVSPost2010Prop41ColorIndex
 90
       18
102
RTVSPost2010Prop41ColorRGB
 90
        0
102
RTVSPost2010PropOp41
 70
     0
102
RTVSPost2010Prop42
 90
       50
102
RTVSPost2010PropOp42
 70
     0
102
RTVSPost2010Prop43
 90
        3
102
RTVSPost2010PropOp43
 70
     0
102
RTVSPost2010Prop44ColorIndex
 90
        5
102
RTVSPost2010Prop44ColorRGB
 90
      255
102
RTVSPost2010PropOp44
 70
     0
102
RTVSPost2010Prop45
280
     0
102
RTVSPost2010PropOp45
 70
     1
102
RTVSPost2010Prop46
 90
       50
102
RTVSPost2010PropOp46
 70
     0
102
RTVSPost2010Prop47
 90
       50
102
RTVSPost2010PropOp47
 70
     0
102
RTVSPost2010Prop48
 90
       50
102
RTVSPost2010PropOp48
 70
     0
102
RTVSPost2010Prop49
280
     0
102
RTVSPost2010PropOp49
 70
     1
102
RTVSPost2010Prop50
 90
       50
102
RTVSPost2010PropOp50
 70
     0
102
RTVSPost2010Prop51ColorIndex
 90
      256
102
RTVSPost2010Prop51ColorRGB
 90
-16777216
102
RTVSPost2010PropOp51
 70
     0
102
RTVSPost2010Prop52
140
1.0
102
RTVSPost2010PropOp52
 70
     0
102
RTVSPost2010Prop53
 90
        2
102
RTVSPost2010PropOp53
 70
     0
102
RTVSPost2010Prop54
  1
strokes_ogs.tif
102
RTVSPost2010PropOp54
 70
     0
102
RTVSPost2010Prop55
280
     0
102
RTVSPost2010PropOp55
 70
     1
102
RTVSPost2010Prop56
140
1.0
102
RTVSPost2010PropOp56
 70
     0
102
RTVSPost2010Prop57
140
1.0
102
RTVSPost2010PropOp57
 70
     0
102
RTVSPropertyOp0
 70
     0
102
RTVSPropertyOp1
 70
     0
102
RTVSPropertyOp2
 70
     0
102
RTVSPropertyOp3
 70
     0
102
RTVSPropertyOp4
 70
     0
102
RTVSPropertyOp5
 70
     0
102
RTVSPropertyOp6
 70
     0
102
RTVSPropertyOp7
 70
     0
102
RTVSPropertyOp8
 70
     0
102
RTVSPropertyOp9
 70
     0
102
RTVSPropertyOp10
 70
     0
102
RTVSPropertyOp11
 70
     0
102
RTVSPropertyOp12
 70
     0
102
RTVSPropertyOp13
 70
     0
102
RTVSPropertyOp14
 70
     2
102
RTVSPropertyOp15
 70
     0
102
RTVSPropertyOp16
 70
     0
102
RTVSPropertyOp17
 70
     0
102
RTVSPropertyOp18
 70
     0
102
RTVSPropertyOp19
 70
     0
102
RTVSPropertyOp20
 70
     0
102
RTVSPropertyOp21
 70
     0
102
RTVSPropertyOp22
 70
     0
102
RTVSPropertyOp23
 70
     0
102
RTVSPropertyOp24
 70
     0
102
RTVSPropertyOp25
 70
     0
102
RTVSPropertyOp26
 70
     0
102
RTVSPropertyOp27
 70
     0
102
RTVSPropertyOp28
 70
     1
102
RTVSPropertyOp29
 70
     1
102
RTVSPropertyOp30
 70
     1
102
RTVSPropertyOp31
 70
     1
102
RTVSPropertyOp32
 70
     1
102
RTVSPropertyOp33
 70
     1
102
RTVSPropertyOp34
 70
     1
102
RTVSPropertyOp35
 70
     1
102
RTVSPropertyOp36
 70
     1
102
RTVSPropertyOp37
 70
     0
102
RTVSPropertyOp38
 70
     0
102
RTVSPropertyOp39
 70
     0
102
RTVSPropertyOp40
 70
     0
102
RTVSPropertyOp41
 70
     0
102
RTVSPropertyOp42
 70
     0
102
RTVSPropertyOp43
 70
     0
102
RTVSPropertyOp44
 70
     0
102
RTVSPropertyOp45
 70
     1
102
RTVSPropertyOp46
 70
     0
102
RTVSPropertyOp47
 70
     0
102
RTVSPropertyOp48
 70
     0
102
RTVSPropertyOp49
 70
     1
102
RTVSPropertyOp50
 70
     0
102
RTVSPropertyOp51
 70
     0
102
RTVSPropertyOp52
 70
     0
102
RTVSPropertyOp53
 70
     0
102
RTVSPropertyOp54
 70
     0
102
RTVSPropertyOp55
 70
     1
102
RTVSPropertyOp56
 70
     0
102
RTVSPropertyOp57
 70
     0
102
RTVSPropertyOp58
 70
     0
102
RTVSPropertyOp59
 70
     0
102
RTVSPropertyOp60
 70
     0
102
RTVSPropertyOp61
 70
     0
102
RTVSPropertyOp62
 70
     0
  0
XRECORD
  5
1346
102
{ACAD_REACTORS
330
1345
102
}
330
1345
100
AcDbXrecord
280
     1
102
RTVSPost2010Prop28
280
     0
102
RTVSPost2010PropOp28
 70
     1
102
RTVSPost2010Prop29
280
     1
102
RTVSPost2010PropOp29
 70
     1
102
RTVSPost2010Prop30
280
     1
102
RTVSPost2010PropOp30
 70
     1
102
RTVSPost2010Prop31
280
     0
102
RTVSPost2010PropOp31
 70
     1
102
RTVSPost2010Prop32
280
     0
102
RTVSPost2010PropOp32
 70
     1
102
RTVSPost2010Prop33
280
     0
102
RTVSPost2010PropOp33
 70
     1
102
RTVSPost2010Prop34
280
     0
102
RTVSPost2010PropOp34
 70
     1
102
RTVSPost2010Prop35
280
     0
102
RTVSPost2010PropOp35
 70
     1
102
RTVSPost2010Prop36
280
     0
102
RTVSPost2010PropOp36
 70
     1
102
RTVSPost2010Prop37
 90
       50
102
RTVSPost2010PropOp37
 70
     1
102
RTVSPost2010Prop38
140
0.0
102
RTVSPost2010PropOp38
 70
     1
102
RTVSPost2010Prop39
140
1.0
102
RTVSPost2010PropOp39
 70
     1
102
RTVSPost2010Prop40
 90
        0
102
RTVSPost2010PropOp40
 70
     1
102
RTVSPost2010Prop41ColorIndex
 90
       18
102
RTVSPost2010Prop41ColorRGB
 90
        0
102
RTVSPost2010PropOp41
 70
     1
102
RTVSPost2010Prop42
 90
       50
102
RTVSPost2010PropOp42
 70
     1
102
RTVSPost2010Prop43
 90
        3
102
RTVSPost2010PropOp43
 70
     1
102
RTVSPost2010Prop44ColorIndex
 90
        5
102
RTVSPost2010Prop44ColorRGB
 90
      255
102
RTVSPost2010PropOp44
 70
     1
102
RTVSPost2010Prop45
280
     0
102
RTVSPost2010PropOp45
 70
     1
102
RTVSPost2010Prop46
 90
       50
102
RTVSPost2010PropOp46
 70
     1
102
RTVSPost2010Prop47
 90
       50
102
RTVSPost2010PropOp47
 70
     1
102
RTVSPost2010Prop48
 90
       50
102
RTVSPost2010PropOp48
 70
     1
102
RTVSPost2010Prop49
280
     0
102
RTVSPost2010PropOp49
 70
     1
102
RTVSPost2010Prop50
 90
       50
102
RTVSPost2010PropOp50
 70
     1
102
RTVSPost2010Prop51ColorIndex
 90
      256
102
RTVSPost2010Prop51ColorRGB
 90
-16777216
102
RTVSPost2010PropOp51
 70
     0
102
RTVSPost2010Prop52
140
1.0
102
RTVSPost2010PropOp52
 70
     0
102
RTVSPost2010Prop53
 90
        2
102
RTVSPost2010PropOp53
 70
     1
102
RTVSPost2010Prop54
  1
strokes_ogs.tif
102
RTVSPost2010PropOp54
 70
     1
102
RTVSPost2010Prop55
280
     0
102
RTVSPost2010PropOp55
 70
     1
102
RTVSPost2010Prop56
140
1.0
102
RTVSPost2010PropOp56
 70
     1
102
RTVSPost2010Prop57
140
1.0
102
RTVSPost2010PropOp57
 70
     1
102
RTVSPropertyOp0
 70
     1
102
RTVSPropertyOp1
 70
     1
102
RTVSPropertyOp2
 70
     1
102
RTVSPropertyOp3
 70
     1
102
RTVSPropertyOp4
 70
     1
102
RTVSPropertyOp5
 70
     1
102
RTVSPropertyOp6
 70
     1
102
RTVSPropertyOp7
 70
     1
102
RTVSPropertyOp8
 70
     1
102
RTVSPropertyOp9
 70
     1
102
RTVSPropertyOp10
 70
     1
102
RTVSPropertyOp11
 70
     1
102
RTVSPropertyOp12
 70
     1
102
RTVSPropertyOp13
 70
     1
102
RTVSPropertyOp14
 70
     1
102
RTVSPropertyOp15
 70
     1
102
RTVSPropertyOp16
 70
     1
102
RTVSPropertyOp17
 70
     1
102
RTVSPropertyOp18
 70
     1
102
RTVSPropertyOp19
 70
     1
102
RTVSPropertyOp20
 70
     1
102
RTVSPropertyOp21
 70
     1
102
RTVSPropertyOp22
 70
     1
102
RTVSPropertyOp23
 70
     1
102
RTVSPropertyOp24
 70
     1
102
RTVSPropertyOp25
 70
     1
102
RTVSPropertyOp26
 70
     1
102
RTVSPropertyOp27
 70
     1
102
RTVSPropertyOp28
 70
     1
102
RTVSPropertyOp29
 70
     1
102
RTVSPropertyOp30
 70
     1
102
RTVSPropertyOp31
 70
     1
102
RTVSPropertyOp32
 70
     1
102
RTVSPropertyOp33
 70
     1
102
RTVSPropertyOp34
 70
     1
102
RTVSPropertyOp35
 70
     1
102
RTVSPropertyOp36
 70
     1
102
RTVSPropertyOp37
 70
     1
102
RTVSPropertyOp38
 70
     1
102
RTVSPropertyOp39
 70
     1
102
RTVSPropertyOp40
 70
     1
102
RTVSPropertyOp41
 70
     1
102
RTVSPropertyOp42
 70
     1
102
RTVSPropertyOp43
 70
     1
102
RTVSPropertyOp44
 70
     1
102
RTVSPropertyOp45
 70
     1
102
RTVSPropertyOp46
 70
     1
102
RTVSPropertyOp47
 70
     1
102
RTVSPropertyOp48
 70
     1
102
RTVSPropertyOp49
 70
     1
102
RTVSPropertyOp50
 70
     1
102
RTVSPropertyOp51
 70
     0
102
RTVSPropertyOp52
 70
     0
102
RTVSPropertyOp53
 70
     1
102
RTVSPropertyOp54
 70
     1
102
RTVSPropertyOp55
 70
     1
102
RTVSPropertyOp56
 70
     1
102
RTVSPropertyOp57
 70
     1
102
RTVSPropertyOp58
 70
     1
102
RTVSPropertyOp59
 70
     1
102
RTVSPropertyOp60
 70
     1
102
RTVSPropertyOp61
 70
     1
102
RTVSPropertyOp62
 70
     1
  0
XRECORD
  5
135C
102
{ACAD_REACTORS
330
135B
102
}
330
135B
100
AcDbXrecord
280
     1
102
RTVSPost2010Prop28
280
     0
102
RTVSPost2010PropOp28
 70
     1
102
RTVSPost2010Prop29
280
     1
102
RTVSPost2010PropOp29
 70
     1
102
RTVSPost2010Prop30
280
     1
102
RTVSPost2010PropOp30
 70
     1
102
RTVSPost2010Prop31
280
     0
102
RTVSPost2010PropOp31
 70
     1
102
RTVSPost2010Prop32
280
     0
102
RTVSPost2010PropOp32
 70
     1
102
RTVSPost2010Prop33
280
     0
102
RTVSPost2010PropOp33
 70
     1
102
RTVSPost2010Prop34
280
     0
102
RTVSPost2010PropOp34
 70
     1
102
RTVSPost2010Prop35
280
     0
102
RTVSPost2010PropOp35
 70
     1
102
RTVSPost2010Prop36
280
     0
102
RTVSPost2010PropOp36
 70
     1
102
RTVSPost2010Prop37
 90
       50
102
RTVSPost2010PropOp37
 70
     1
102
RTVSPost2010Prop38
140
0.0
102
RTVSPost2010PropOp38
 70
     1
102
RTVSPost2010Prop39
140
1.0
102
RTVSPost2010PropOp39
 70
     1
102
RTVSPost2010Prop40
 90
        0
102
RTVSPost2010PropOp40
 70
     1
102
RTVSPost2010Prop41ColorIndex
 90
       18
102
RTVSPost2010Prop41ColorRGB
 90
        0
102
RTVSPost2010PropOp41
 70
     1
102
RTVSPost2010Prop42
 90
       50
102
RTVSPost2010PropOp42
 70
     1
102
RTVSPost2010Prop43
 90
        3
102
RTVSPost2010PropOp43
 70
     1
102
RTVSPost2010Prop44ColorIndex
 90
        5
102
RTVSPost2010Prop44ColorRGB
 90
      255
102
RTVSPost2010PropOp44
 70
     1
102
RTVSPost2010Prop45
280
     0
102
RTVSPost2010PropOp45
 70
     1
102
RTVSPost2010Prop46
 90
       50
102
RTVSPost2010PropOp46
 70
     1
102
RTVSPost2010Prop47
 90
       50
102
RTVSPost2010PropOp47
 70
     1
102
RTVSPost2010Prop48
 90
       50
102
RTVSPost2010PropOp48
 70
     1
102
RTVSPost2010Prop49
280
     0
102
RTVSPost2010PropOp49
 70
     1
102
RTVSPost2010Prop50
 90
       50
102
RTVSPost2010PropOp50
 70
     1
102
RTVSPost2010Prop51ColorIndex
 90
      256
102
RTVSPost2010Prop51ColorRGB
 90
-16777216
102
RTVSPost2010PropOp51
 70
     0
102
RTVSPost2010Prop52
140
1.0
102
RTVSPost2010PropOp52
 70
     0
102
RTVSPost2010Prop53
 90
        2
102
RTVSPost2010PropOp53
 70
     1
102
RTVSPost2010Prop54
  1
strokes_ogs.tif
102
RTVSPost2010PropOp54
 70
     1
102
RTVSPost2010Prop55
280
     0
102
RTVSPost2010PropOp55
 70
     1
102
RTVSPost2010Prop56
140
1.0
102
RTVSPost2010PropOp56
 70
     1
102
RTVSPost2010Prop57
140
1.0
102
RTVSPost2010PropOp57
 70
     1
102
RTVSPropertyOp0
 70
     1
102
RTVSPropertyOp1
 70
     1
102
RTVSPropertyOp2
 70
     1
102
RTVSPropertyOp3
 70
     1
102
RTVSPropertyOp4
 70
     1
102
RTVSPropertyOp5
 70
     1
102
RTVSPropertyOp6
 70
     1
102
RTVSPropertyOp7
 70
     1
102
RTVSPropertyOp8
 70
     1
102
RTVSPropertyOp9
 70
     1
102
RTVSPropertyOp10
 70
     1
102
RTVSPropertyOp11
 70
     1
102
RTVSPropertyOp12
 70
     1
102
RTVSPropertyOp13
 70
     1
102
RTVSPropertyOp14
 70
     1
102
RTVSPropertyOp15
 70
     1
102
RTVSPropertyOp16
 70
     1
102
RTVSPropertyOp17
 70
     1
102
RTVSPropertyOp18
 70
     1
102
RTVSPropertyOp19
 70
     1
102
RTVSPropertyOp20
 70
     1
102
RTVSPropertyOp21
 70
     1
102
RTVSPropertyOp22
 70
     1
102
RTVSPropertyOp23
 70
     1
102
RTVSPropertyOp24
 70
     1
102
RTVSPropertyOp25
 70
     1
102
RTVSPropertyOp26
 70
     1
102
RTVSPropertyOp27
 70
     1
102
RTVSPropertyOp28
 70
     1
102
RTVSPropertyOp29
 70
     1
102
RTVSPropertyOp30
 70
     1
102
RTVSPropertyOp31
 70
     1
102
RTVSPropertyOp32
 70
     1
102
RTVSPropertyOp33
 70
     1
102
RTVSPropertyOp34
 70
     1
102
RTVSPropertyOp35
 70
     1
102
RTVSPropertyOp36
 70
     1
102
RTVSPropertyOp37
 70
     1
102
RTVSPropertyOp38
 70
     1
102
RTVSPropertyOp39
 70
     1
102
RTVSPropertyOp40
 70
     1
102
RTVSPropertyOp41
 70
     1
102
RTVSPropertyOp42
 70
     1
102
RTVSPropertyOp43
 70
     1
102
RTVSPropertyOp44
 70
     1
102
RTVSPropertyOp45
 70
     1
102
RTVSPropertyOp46
 70
     1
102
RTVSPropertyOp47
 70
     1
102
RTVSPropertyOp48
 70
     1
102
RTVSPropertyOp49
 70
     1
102
RTVSPropertyOp50
 70
     1
102
RTVSPropertyOp51
 70
     0
102
RTVSPropertyOp52
 70
     0
102
RTVSPropertyOp53
 70
     1
102
RTVSPropertyOp54
 70
     1
102
RTVSPropertyOp55
 70
     1
102
RTVSPropertyOp56
 70
     1
102
RTVSPropertyOp57
 70
     1
102
RTVSPropertyOp58
 70
     1
102
RTVSPropertyOp59
 70
     1
102
RTVSPropertyOp60
 70
     1
102
RTVSPropertyOp61
 70
     1
102
RTVSPropertyOp62
 70
     1
  0
XRECORD
  5
135A
102
{ACAD_REACTORS
330
1359
102
}
330
1359
100
AcDbXrecord
280
     1
102
RTVSPost2010Prop28
280
     0
102
RTVSPost2010PropOp28
 70
     1
102
RTVSPost2010Prop29
280
     1
102
RTVSPost2010PropOp29
 70
     1
102
RTVSPost2010Prop30
280
     1
102
RTVSPost2010PropOp30
 70
     1
102
RTVSPost2010Prop31
280
     0
102
RTVSPost2010PropOp31
 70
     1
102
RTVSPost2010Prop32
280
     0
102
RTVSPost2010PropOp32
 70
     1
102
RTVSPost2010Prop33
280
     0
102
RTVSPost2010PropOp33
 70
     1
102
RTVSPost2010Prop34
280
     0
102
RTVSPost2010PropOp34
 70
     1
102
RTVSPost2010Prop35
280
     0
102
RTVSPost2010PropOp35
 70
     1
102
RTVSPost2010Prop36
280
     0
102
RTVSPost2010PropOp36
 70
     1
102
RTVSPost2010Prop37
 90
       50
102
RTVSPost2010PropOp37
 70
     1
102
RTVSPost2010Prop38
140
0.0
102
RTVSPost2010PropOp38
 70
     1
102
RTVSPost2010Prop39
140
1.0
102
RTVSPost2010PropOp39
 70
     1
102
RTVSPost2010Prop40
 90
        0
102
RTVSPost2010PropOp40
 70
     1
102
RTVSPost2010Prop41ColorIndex
 90
       18
102
RTVSPost2010Prop41ColorRGB
 90
        0
102
RTVSPost2010PropOp41
 70
     1
102
RTVSPost2010Prop42
 90
       50
102
RTVSPost2010PropOp42
 70
     1
102
RTVSPost2010Prop43
 90
        3
102
RTVSPost2010PropOp43
 70
     1
102
RTVSPost2010Prop44ColorIndex
 90
        5
102
RTVSPost2010Prop44ColorRGB
 90
      255
102
RTVSPost2010PropOp44
 70
     1
102
RTVSPost2010Prop45
280
     0
102
RTVSPost2010PropOp45
 70
     1
102
RTVSPost2010Prop46
 90
       50
102
RTVSPost2010PropOp46
 70
     1
102
RTVSPost2010Prop47
 90
       50
102
RTVSPost2010PropOp47
 70
     1
102
RTVSPost2010Prop48
 90
       50
102
RTVSPost2010PropOp48
 70
     1
102
RTVSPost2010Prop49
280
     0
102
RTVSPost2010PropOp49
 70
     1
102
RTVSPost2010Prop50
 90
       50
102
RTVSPost2010PropOp50
 70
     1
102
RTVSPost2010Prop51ColorIndex
 90
      256
102
RTVSPost2010Prop51ColorRGB
 90
-16777216
102
RTVSPost2010PropOp51
 70
     0
102
RTVSPost2010Prop52
140
1.0
102
RTVSPost2010PropOp52
 70
     0
102
RTVSPost2010Prop53
 90
        2
102
RTVSPost2010PropOp53
 70
     1
102
RTVSPost2010Prop54
  1
strokes_ogs.tif
102
RTVSPost2010PropOp54
 70
     1
102
RTVSPost2010Prop55
280
     0
102
RTVSPost2010PropOp55
 70
     1
102
RTVSPost2010Prop56
140
1.0
102
RTVSPost2010PropOp56
 70
     1
102
RTVSPost2010Prop57
140
1.0
102
RTVSPost2010PropOp57
 70
     1
102
RTVSPropertyOp0
 70
     1
102
RTVSPropertyOp1
 70
     1
102
RTVSPropertyOp2
 70
     1
102
RTVSPropertyOp3
 70
     1
102
RTVSPropertyOp4
 70
     1
102
RTVSPropertyOp5
 70
     1
102
RTVSPropertyOp6
 70
     1
102
RTVSPropertyOp7
 70
     1
102
RTVSPropertyOp8
 70
     1
102
RTVSPropertyOp9
 70
     1
102
RTVSPropertyOp10
 70
     1
102
RTVSPropertyOp11
 70
     1
102
RTVSPropertyOp12
 70
     1
102
RTVSPropertyOp13
 70
     1
102
RTVSPropertyOp14
 70
     1
102
RTVSPropertyOp15
 70
     1
102
RTVSPropertyOp16
 70
     1
102
RTVSPropertyOp17
 70
     1
102
RTVSPropertyOp18
 70
     1
102
RTVSPropertyOp19
 70
     1
102
RTVSPropertyOp20
 70
     1
102
RTVSPropertyOp21
 70
     1
102
RTVSPropertyOp22
 70
     1
102
RTVSPropertyOp23
 70
     1
102
RTVSPropertyOp24
 70
     1
102
RTVSPropertyOp25
 70
     1
102
RTVSPropertyOp26
 70
     1
102
RTVSPropertyOp27
 70
     1
102
RTVSPropertyOp28
 70
     1
102
RTVSPropertyOp29
 70
     1
102
RTVSPropertyOp30
 70
     1
102
RTVSPropertyOp31
 70
     1
102
RTVSPropertyOp32
 70
     1
102
RTVSPropertyOp33
 70
     1
102
RTVSPropertyOp34
 70
     1
102
RTVSPropertyOp35
 70
     1
102
RTVSPropertyOp36
 70
     1
102
RTVSPropertyOp37
 70
     1
102
RTVSPropertyOp38
 70
     1
102
RTVSPropertyOp39
 70
     1
102
RTVSPropertyOp40
 70
     1
102
RTVSPropertyOp41
 70
     1
102
RTVSPropertyOp42
 70
     1
102
RTVSPropertyOp43
 70
     1
102
RTVSPropertyOp44
 70
     1
102
RTVSPropertyOp45
 70
     1
102
RTVSPropertyOp46
 70
     1
102
RTVSPropertyOp47
 70
     1
102
RTVSPropertyOp48
 70
     1
102
RTVSPropertyOp49
 70
     1
102
RTVSPropertyOp50
 70
     1
102
RTVSPropertyOp51
 70
     0
102
RTVSPropertyOp52
 70
     0
102
RTVSPropertyOp53
 70
     1
102
RTVSPropertyOp54
 70
     1
102
RTVSPropertyOp55
 70
     1
102
RTVSPropertyOp56
 70
     1
102
RTVSPropertyOp57
 70
     1
102
RTVSPropertyOp58
 70
     1
102
RTVSPropertyOp59
 70
     1
102
RTVSPropertyOp60
 70
     1
102
RTVSPropertyOp61
 70
     1
102
RTVSPropertyOp62
 70
     1
  0
XRECORD
  5
1354
102
{ACAD_REACTORS
330
1353
102
}
330
1353
100
AcDbXrecord
280
     1
102
RTVSPost2010Prop28
280
     0
102
RTVSPost2010PropOp28
 70
     1
102
RTVSPost2010Prop29
280
     1
102
RTVSPost2010PropOp29
 70
     1
102
RTVSPost2010Prop30
280
     1
102
RTVSPost2010PropOp30
 70
     1
102
RTVSPost2010Prop31
280
     0
102
RTVSPost2010PropOp31
 70
     1
102
RTVSPost2010Prop32
280
     0
102
RTVSPost2010PropOp32
 70
     1
102
RTVSPost2010Prop33
280
     0
102
RTVSPost2010PropOp33
 70
     1
102
RTVSPost2010Prop34
280
     0
102
RTVSPost2010PropOp34
 70
     1
102
RTVSPost2010Prop35
280
     0
102
RTVSPost2010PropOp35
 70
     1
102
RTVSPost2010Prop36
280
     0
102
RTVSPost2010PropOp36
 70
     1
102
RTVSPost2010Prop37
 90
       50
102
RTVSPost2010PropOp37
 70
     1
102
RTVSPost2010Prop38
140
0.0
102
RTVSPost2010PropOp38
 70
     1
102
RTVSPost2010Prop39
140
1.0
102
RTVSPost2010PropOp39
 70
     1
102
RTVSPost2010Prop40
 90
        0
102
RTVSPost2010PropOp40
 70
     1
102
RTVSPost2010Prop41ColorIndex
 90
       18
102
RTVSPost2010Prop41ColorRGB
 90
        0
102
RTVSPost2010PropOp41
 70
     1
102
RTVSPost2010Prop42
 90
       50
102
RTVSPost2010PropOp42
 70
     1
102
RTVSPost2010Prop43
 90
        3
102
RTVSPost2010PropOp43
 70
     1
102
RTVSPost2010Prop44ColorIndex
 90
        5
102
RTVSPost2010Prop44ColorRGB
 90
      255
102
RTVSPost2010PropOp44
 70
     1
102
RTVSPost2010Prop45
280
     0
102
RTVSPost2010PropOp45
 70
     1
102
RTVSPost2010Prop46
 90
       50
102
RTVSPost2010PropOp46
 70
     1
102
RTVSPost2010Prop47
 90
       50
102
RTVSPost2010PropOp47
 70
     1
102
RTVSPost2010Prop48
 90
       50
102
RTVSPost2010PropOp48
 70
     1
102
RTVSPost2010Prop49
280
     0
102
RTVSPost2010PropOp49
 70
     1
102
RTVSPost2010Prop50
 90
       50
102
RTVSPost2010PropOp50
 70
     1
102
RTVSPost2010Prop51ColorIndex
 90
      256
102
RTVSPost2010Prop51ColorRGB
 90
-16777216
102
RTVSPost2010PropOp51
 70
     0
102
RTVSPost2010Prop52
140
1.0
102
RTVSPost2010PropOp52
 70
     0
102
RTVSPost2010Prop53
 90
        2
102
RTVSPost2010PropOp53
 70
     1
102
RTVSPost2010Prop54
  1
strokes_ogs.tif
102
RTVSPost2010PropOp54
 70
     1
102
RTVSPost2010Prop55
280
     0
102
RTVSPost2010PropOp55
 70
     1
102
RTVSPost2010Prop56
140
1.0
102
RTVSPost2010PropOp56
 70
     1
102
RTVSPost2010Prop57
140
1.0
102
RTVSPost2010PropOp57
 70
     1
102
RTVSPropertyOp0
 70
     1
102
RTVSPropertyOp1
 70
     1
102
RTVSPropertyOp2
 70
     1
102
RTVSPropertyOp3
 70
     1
102
RTVSPropertyOp4
 70
     1
102
RTVSPropertyOp5
 70
     1
102
RTVSPropertyOp6
 70
     1
102
RTVSPropertyOp7
 70
     1
102
RTVSPropertyOp8
 70
     1
102
RTVSPropertyOp9
 70
     1
102
RTVSPropertyOp10
 70
     1
102
RTVSPropertyOp11
 70
     1
102
RTVSPropertyOp12
 70
     1
102
RTVSPropertyOp13
 70
     1
102
RTVSPropertyOp14
 70
     1
102
RTVSPropertyOp15
 70
     1
102
RTVSPropertyOp16
 70
     1
102
RTVSPropertyOp17
 70
     1
102
RTVSPropertyOp18
 70
     1
102
RTVSPropertyOp19
 70
     1
102
RTVSPropertyOp20
 70
     1
102
RTVSPropertyOp21
 70
     1
102
RTVSPropertyOp22
 70
     1
102
RTVSPropertyOp23
 70
     1
102
RTVSPropertyOp24
 70
     1
102
RTVSPropertyOp25
 70
     1
102
RTVSPropertyOp26
 70
     1
102
RTVSPropertyOp27
 70
     1
102
RTVSPropertyOp28
 70
     1
102
RTVSPropertyOp29
 70
     1
102
RTVSPropertyOp30
 70
     1
102
RTVSPropertyOp31
 70
     1
102
RTVSPropertyOp32
 70
     1
102
RTVSPropertyOp33
 70
     1
102
RTVSPropertyOp34
 70
     1
102
RTVSPropertyOp35
 70
     1
102
RTVSPropertyOp36
 70
     1
102
RTVSPropertyOp37
 70
     1
102
RTVSPropertyOp38
 70
     1
102
RTVSPropertyOp39
 70
     1
102
RTVSPropertyOp40
 70
     1
102
RTVSPropertyOp41
 70
     1
102
RTVSPropertyOp42
 70
     1
102
RTVSPropertyOp43
 70
     1
102
RTVSPropertyOp44
 70
     1
102
RTVSPropertyOp45
 70
     1
102
RTVSPropertyOp46
 70
     1
102
RTVSPropertyOp47
 70
     1
102
RTVSPropertyOp48
 70
     1
102
RTVSPropertyOp49
 70
     1
102
RTVSPropertyOp50
 70
     1
102
RTVSPropertyOp51
 70
     0
102
RTVSPropertyOp52
 70
     0
102
RTVSPropertyOp53
 70
     1
102
RTVSPropertyOp54
 70
     1
102
RTVSPropertyOp55
 70
     1
102
RTVSPropertyOp56
 70
     1
102
RTVSPropertyOp57
 70
     1
102
RTVSPropertyOp58
 70
     1
102
RTVSPropertyOp59
 70
     1
102
RTVSPropertyOp60
 70
     1
102
RTVSPropertyOp61
 70
     1
102
RTVSPropertyOp62
 70
     1
  0
XRECORD
  5
1356
102
{ACAD_REACTORS
330
1355
102
}
330
1355
100
AcDbXrecord
280
     1
102
RTVSPost2010Prop28
280
     0
102
RTVSPost2010PropOp28
 70
     1
102
RTVSPost2010Prop29
280
     1
102
RTVSPost2010PropOp29
 70
     1
102
RTVSPost2010Prop30
280
     1
102
RTVSPost2010PropOp30
 70
     1
102
RTVSPost2010Prop31
280
     0
102
RTVSPost2010PropOp31
 70
     1
102
RTVSPost2010Prop32
280
     0
102
RTVSPost2010PropOp32
 70
     1
102
RTVSPost2010Prop33
280
     0
102
RTVSPost2010PropOp33
 70
     1
102
RTVSPost2010Prop34
280
     0
102
RTVSPost2010PropOp34
 70
     1
102
RTVSPost2010Prop35
280
     0
102
RTVSPost2010PropOp35
 70
     1
102
RTVSPost2010Prop36
280
     0
102
RTVSPost2010PropOp36
 70
     1
102
RTVSPost2010Prop37
 90
       50
102
RTVSPost2010PropOp37
 70
     1
102
RTVSPost2010Prop38
140
0.0
102
RTVSPost2010PropOp38
 70
     1
102
RTVSPost2010Prop39
140
1.0
102
RTVSPost2010PropOp39
 70
     1
102
RTVSPost2010Prop40
 90
        0
102
RTVSPost2010PropOp40
 70
     1
102
RTVSPost2010Prop41ColorIndex
 90
       18
102
RTVSPost2010Prop41ColorRGB
 90
        0
102
RTVSPost2010PropOp41
 70
     1
102
RTVSPost2010Prop42
 90
       50
102
RTVSPost2010PropOp42
 70
     1
102
RTVSPost2010Prop43
 90
        3
102
RTVSPost2010PropOp43
 70
     1
102
RTVSPost2010Prop44ColorIndex
 90
        5
102
RTVSPost2010Prop44ColorRGB
 90
      255
102
RTVSPost2010PropOp44
 70
     1
102
RTVSPost2010Prop45
280
     0
102
RTVSPost2010PropOp45
 70
     1
102
RTVSPost2010Prop46
 90
       50
102
RTVSPost2010PropOp46
 70
     1
102
RTVSPost2010Prop47
 90
       50
102
RTVSPost2010PropOp47
 70
     1
102
RTVSPost2010Prop48
 90
       50
102
RTVSPost2010PropOp48
 70
     1
102
RTVSPost2010Prop49
280
     0
102
RTVSPost2010PropOp49
 70
     1
102
RTVSPost2010Prop50
 90
       50
102
RTVSPost2010PropOp50
 70
     1
102
RTVSPost2010Prop51ColorIndex
 90
      256
102
RTVSPost2010Prop51ColorRGB
 90
-16777216
102
RTVSPost2010PropOp51
 70
     0
102
RTVSPost2010Prop52
140
1.0
102
RTVSPost2010PropOp52
 70
     0
102
RTVSPost2010Prop53
 90
        2
102
RTVSPost2010PropOp53
 70
     1
102
RTVSPost2010Prop54
  1
strokes_ogs.tif
102
RTVSPost2010PropOp54
 70
     1
102
RTVSPost2010Prop55
280
     0
102
RTVSPost2010PropOp55
 70
     1
102
RTVSPost2010Prop56
140
1.0
102
RTVSPost2010PropOp56
 70
     1
102
RTVSPost2010Prop57
140
1.0
102
RTVSPost2010PropOp57
 70
     1
102
RTVSPropertyOp0
 70
     1
102
RTVSPropertyOp1
 70
     1
102
RTVSPropertyOp2
 70
     1
102
RTVSPropertyOp3
 70
     1
102
RTVSPropertyOp4
 70
     1
102
RTVSPropertyOp5
 70
     1
102
RTVSPropertyOp6
 70
     1
102
RTVSPropertyOp7
 70
     1
102
RTVSPropertyOp8
 70
     1
102
RTVSPropertyOp9
 70
     1
102
RTVSPropertyOp10
 70
     1
102
RTVSPropertyOp11
 70
     1
102
RTVSPropertyOp12
 70
     1
102
RTVSPropertyOp13
 70
     1
102
RTVSPropertyOp14
 70
     1
102
RTVSPropertyOp15
 70
     1
102
RTVSPropertyOp16
 70
     1
102
RTVSPropertyOp17
 70
     1
102
RTVSPropertyOp18
 70
     1
102
RTVSPropertyOp19
 70
     1
102
RTVSPropertyOp20
 70
     1
102
RTVSPropertyOp21
 70
     1
102
RTVSPropertyOp22
 70
     1
102
RTVSPropertyOp23
 70
     1
102
RTVSPropertyOp24
 70
     1
102
RTVSPropertyOp25
 70
     1
102
RTVSPropertyOp26
 70
     1
102
RTVSPropertyOp27
 70
     1
102
RTVSPropertyOp28
 70
     1
102
RTVSPropertyOp29
 70
     1
102
RTVSPropertyOp30
 70
     1
102
RTVSPropertyOp31
 70
     1
102
RTVSPropertyOp32
 70
     1
102
RTVSPropertyOp33
 70
     1
102
RTVSPropertyOp34
 70
     1
102
RTVSPropertyOp35
 70
     1
102
RTVSPropertyOp36
 70
     1
102
RTVSPropertyOp37
 70
     1
102
RTVSPropertyOp38
 70
     1
102
RTVSPropertyOp39
 70
     1
102
RTVSPropertyOp40
 70
     1
102
RTVSPropertyOp41
 70
     1
102
RTVSPropertyOp42
 70
     1
102
RTVSPropertyOp43
 70
     1
102
RTVSPropertyOp44
 70
     1
102
RTVSPropertyOp45
 70
     1
102
RTVSPropertyOp46
 70
     1
102
RTVSPropertyOp47
 70
     1
102
RTVSPropertyOp48
 70
     1
102
RTVSPropertyOp49
 70
     1
102
RTVSPropertyOp50
 70
     1
102
RTVSPropertyOp51
 70
     0
102
RTVSPropertyOp52
 70
     0
102
RTVSPropertyOp53
 70
     1
102
RTVSPropertyOp54
 70
     1
102
RTVSPropertyOp55
 70
     1
102
RTVSPropertyOp56
 70
     1
102
RTVSPropertyOp57
 70
     1
102
RTVSPropertyOp58
 70
     1
102
RTVSPropertyOp59
 70
     1
102
RTVSPropertyOp60
 70
     1
102
RTVSPropertyOp61
 70
     1
102
RTVSPropertyOp62
 70
     1
  0
XRECORD
  5
134C
102
{ACAD_REACTORS
330
134B
102
}
330
134B
100
AcDbXrecord
280
     1
102
RTVSPost2010Prop28
280
     0
102
RTVSPost2010PropOp28
 70
     1
102
RTVSPost2010Prop29
280
     1
102
RTVSPost2010PropOp29
 70
     1
102
RTVSPost2010Prop30
280
     1
102
RTVSPost2010PropOp30
 70
     1
102
RTVSPost2010Prop31
280
     0
102
RTVSPost2010PropOp31
 70
     1
102
RTVSPost2010Prop32
280
     0
102
RTVSPost2010PropOp32
 70
     1
102
RTVSPost2010Prop33
280
     0
102
RTVSPost2010PropOp33
 70
     1
102
RTVSPost2010Prop34
280
     0
102
RTVSPost2010PropOp34
 70
     1
102
RTVSPost2010Prop35
280
     0
102
RTVSPost2010PropOp35
 70
     1
102
RTVSPost2010Prop36
280
     0
102
RTVSPost2010PropOp36
 70
     1
102
RTVSPost2010Prop37
 90
       50
102
RTVSPost2010PropOp37
 70
     1
102
RTVSPost2010Prop38
140
0.0
102
RTVSPost2010PropOp38
 70
     1
102
RTVSPost2010Prop39
140
1.0
102
RTVSPost2010PropOp39
 70
     1
102
RTVSPost2010Prop40
 90
        0
102
RTVSPost2010PropOp40
 70
     1
102
RTVSPost2010Prop41ColorIndex
 90
       18
102
RTVSPost2010Prop41ColorRGB
 90
        0
102
RTVSPost2010PropOp41
 70
     1
102
RTVSPost2010Prop42
 90
       50
102
RTVSPost2010PropOp42
 70
     1
102
RTVSPost2010Prop43
 90
        3
102
RTVSPost2010PropOp43
 70
     1
102
RTVSPost2010Prop44ColorIndex
 90
        5
102
RTVSPost2010Prop44ColorRGB
 90
      255
102
RTVSPost2010PropOp44
 70
     1
102
RTVSPost2010Prop45
280
     0
102
RTVSPost2010PropOp45
 70
     1
102
RTVSPost2010Prop46
 90
       50
102
RTVSPost2010PropOp46
 70
     1
102
RTVSPost2010Prop47
 90
       50
102
RTVSPost2010PropOp47
 70
     1
102
RTVSPost2010Prop48
 90
       50
102
RTVSPost2010PropOp48
 70
     1
102
RTVSPost2010Prop49
280
     0
102
RTVSPost2010PropOp49
 70
     1
102
RTVSPost2010Prop50
 90
       50
102
RTVSPost2010PropOp50
 70
     1
102
RTVSPost2010Prop51ColorIndex
 90
      256
102
RTVSPost2010Prop51ColorRGB
 90
-16777216
102
RTVSPost2010PropOp51
 70
     0
102
RTVSPost2010Prop52
140
1.0
102
RTVSPost2010PropOp52
 70
     0
102
RTVSPost2010Prop53
 90
        2
102
RTVSPost2010PropOp53
 70
     1
102
RTVSPost2010Prop54
  1
strokes_ogs.tif
102
RTVSPost2010PropOp54
 70
     1
102
RTVSPost2010Prop55
280
     0
102
RTVSPost2010PropOp55
 70
     1
102
RTVSPost2010Prop56
140
1.0
102
RTVSPost2010PropOp56
 70
     1
102
RTVSPost2010Prop57
140
1.0
102
RTVSPost2010PropOp57
 70
     1
102
RTVSPropertyOp0
 70
     1
102
RTVSPropertyOp1
 70
     1
102
RTVSPropertyOp2
 70
     1
102
RTVSPropertyOp3
 70
     1
102
RTVSPropertyOp4
 70
     1
102
RTVSPropertyOp5
 70
     1
102
RTVSPropertyOp6
 70
     1
102
RTVSPropertyOp7
 70
     1
102
RTVSPropertyOp8
 70
     1
102
RTVSPropertyOp9
 70
     1
102
RTVSPropertyOp10
 70
     1
102
RTVSPropertyOp11
 70
     1
102
RTVSPropertyOp12
 70
     1
102
RTVSPropertyOp13
 70
     1
102
RTVSPropertyOp14
 70
     1
102
RTVSPropertyOp15
 70
     1
102
RTVSPropertyOp16
 70
     1
102
RTVSPropertyOp17
 70
     1
102
RTVSPropertyOp18
 70
     1
102
RTVSPropertyOp19
 70
     1
102
RTVSPropertyOp20
 70
     1
102
RTVSPropertyOp21
 70
     1
102
RTVSPropertyOp22
 70
     1
102
RTVSPropertyOp23
 70
     1
102
RTVSPropertyOp24
 70
     1
102
RTVSPropertyOp25
 70
     1
102
RTVSPropertyOp26
 70
     1
102
RTVSPropertyOp27
 70
     1
102
RTVSPropertyOp28
 70
     1
102
RTVSPropertyOp29
 70
     1
102
RTVSPropertyOp30
 70
     1
102
RTVSPropertyOp31
 70
     1
102
RTVSPropertyOp32
 70
     1
102
RTVSPropertyOp33
 70
     1
102
RTVSPropertyOp34
 70
     1
102
RTVSPropertyOp35
 70
     1
102
RTVSPropertyOp36
 70
     1
102
RTVSPropertyOp37
 70
     1
102
RTVSPropertyOp38
 70
     1
102
RTVSPropertyOp39
 70
     1
102
RTVSPropertyOp40
 70
     1
102
RTVSPropertyOp41
 70
     1
102
RTVSPropertyOp42
 70
     1
102
RTVSPropertyOp43
 70
     1
102
RTVSPropertyOp44
 70
     1
102
RTVSPropertyOp45
 70
     1
102
RTVSPropertyOp46
 70
     1
102
RTVSPropertyOp47
 70
     1
102
RTVSPropertyOp48
 70
     1
102
RTVSPropertyOp49
 70
     1
102
RTVSPropertyOp50
 70
     1
102
RTVSPropertyOp51
 70
     0
102
RTVSPropertyOp52
 70
     0
102
RTVSPropertyOp53
 70
     1
102
RTVSPropertyOp54
 70
     1
102
RTVSPropertyOp55
 70
     1
102
RTVSPropertyOp56
 70
     1
102
RTVSPropertyOp57
 70
     1
102
RTVSPropertyOp58
 70
     1
102
RTVSPropertyOp59
 70
     1
102
RTVSPropertyOp60
 70
     1
102
RTVSPropertyOp61
 70
     1
102
RTVSPropertyOp62
 70
     1
  0
XRECORD
  5
1340
102
{ACAD_REACTORS
330
133F
102
}
330
133F
100
AcDbXrecord
280
     1
102
RTVSPost2010Prop28
280
     0
102
RTVSPost2010PropOp28
 70
     1
102
RTVSPost2010Prop29
280
     1
102
RTVSPost2010PropOp29
 70
     1
102
RTVSPost2010Prop30
280
     1
102
RTVSPost2010PropOp30
 70
     1
102
RTVSPost2010Prop31
280
     0
102
RTVSPost2010PropOp31
 70
     1
102
RTVSPost2010Prop32
280
     0
102
RTVSPost2010PropOp32
 70
     1
102
RTVSPost2010Prop33
280
     0
102
RTVSPost2010PropOp33
 70
     1
102
RTVSPost2010Prop34
280
     0
102
RTVSPost2010PropOp34
 70
     1
102
RTVSPost2010Prop35
280
     0
102
RTVSPost2010PropOp35
 70
     1
102
RTVSPost2010Prop36
280
     0
102
RTVSPost2010PropOp36
 70
     1
102
RTVSPost2010Prop37
 90
       50
102
RTVSPost2010PropOp37
 70
     1
102
RTVSPost2010Prop38
140
0.0
102
RTVSPost2010PropOp38
 70
     1
102
RTVSPost2010Prop39
140
1.0
102
RTVSPost2010PropOp39
 70
     1
102
RTVSPost2010Prop40
 90
        0
102
RTVSPost2010PropOp40
 70
     1
102
RTVSPost2010Prop41ColorIndex
 90
       18
102
RTVSPost2010Prop41ColorRGB
 90
        0
102
RTVSPost2010PropOp41
 70
     1
102
RTVSPost2010Prop42
 90
       50
102
RTVSPost2010PropOp42
 70
     1
102
RTVSPost2010Prop43
 90
        3
102
RTVSPost2010PropOp43
 70
     1
102
RTVSPost2010Prop44ColorIndex
 90
        5
102
RTVSPost2010Prop44ColorRGB
 90
      255
102
RTVSPost2010PropOp44
 70
     1
102
RTVSPost2010Prop45
280
     0
102
RTVSPost2010PropOp45
 70
     1
102
RTVSPost2010Prop46
 90
       50
102
RTVSPost2010PropOp46
 70
     1
102
RTVSPost2010Prop47
 90
       50
102
RTVSPost2010PropOp47
 70
     1
102
RTVSPost2010Prop48
 90
       50
102
RTVSPost2010PropOp48
 70
     1
102
RTVSPost2010Prop49
280
     0
102
RTVSPost2010PropOp49
 70
     1
102
RTVSPost2010Prop50
 90
       50
102
RTVSPost2010PropOp50
 70
     1
102
RTVSPost2010Prop51ColorIndex
 90
      256
102
RTVSPost2010Prop51ColorRGB
 90
-16777216
102
RTVSPost2010PropOp51
 70
     0
102
RTVSPost2010Prop52
140
1.0
102
RTVSPost2010PropOp52
 70
     0
102
RTVSPost2010Prop53
 90
        2
102
RTVSPost2010PropOp53
 70
     1
102
RTVSPost2010Prop54
  1
strokes_ogs.tif
102
RTVSPost2010PropOp54
 70
     1
102
RTVSPost2010Prop55
280
     0
102
RTVSPost2010PropOp55
 70
     1
102
RTVSPost2010Prop56
140
1.0
102
RTVSPost2010PropOp56
 70
     1
102
RTVSPost2010Prop57
140
1.0
102
RTVSPost2010PropOp57
 70
     1
102
RTVSPropertyOp0
 70
     1
102
RTVSPropertyOp1
 70
     1
102
RTVSPropertyOp2
 70
     1
102
RTVSPropertyOp3
 70
     1
102
RTVSPropertyOp4
 70
     1
102
RTVSPropertyOp5
 70
     1
102
RTVSPropertyOp6
 70
     1
102
RTVSPropertyOp7
 70
     1
102
RTVSPropertyOp8
 70
     1
102
RTVSPropertyOp9
 70
     1
102
RTVSPropertyOp10
 70
     1
102
RTVSPropertyOp11
 70
     1
102
RTVSPropertyOp12
 70
     1
102
RTVSPropertyOp13
 70
     1
102
RTVSPropertyOp14
 70
     1
102
RTVSPropertyOp15
 70
     1
102
RTVSPropertyOp16
 70
     1
102
RTVSPropertyOp17
 70
     1
102
RTVSPropertyOp18
 70
     1
102
RTVSPropertyOp19
 70
     1
102
RTVSPropertyOp20
 70
     1
102
RTVSPropertyOp21
 70
     1
102
RTVSPropertyOp22
 70
     1
102
RTVSPropertyOp23
 70
     1
102
RTVSPropertyOp24
 70
     1
102
RTVSPropertyOp25
 70
     1
102
RTVSPropertyOp26
 70
     1
102
RTVSPropertyOp27
 70
     1
102
RTVSPropertyOp28
 70
     1
102
RTVSPropertyOp29
 70
     1
102
RTVSPropertyOp30
 70
     1
102
RTVSPropertyOp31
 70
     1
102
RTVSPropertyOp32
 70
     1
102
RTVSPropertyOp33
 70
     1
102
RTVSPropertyOp34
 70
     1
102
RTVSPropertyOp35
 70
     1
102
RTVSPropertyOp36
 70
     1
102
RTVSPropertyOp37
 70
     1
102
RTVSPropertyOp38
 70
     1
102
RTVSPropertyOp39
 70
     1
102
RTVSPropertyOp40
 70
     1
102
RTVSPropertyOp41
 70
     1
102
RTVSPropertyOp42
 70
     1
102
RTVSPropertyOp43
 70
     1
102
RTVSPropertyOp44
 70
     1
102
RTVSPropertyOp45
 70
     1
102
RTVSPropertyOp46
 70
     1
102
RTVSPropertyOp47
 70
     1
102
RTVSPropertyOp48
 70
     1
102
RTVSPropertyOp49
 70
     1
102
RTVSPropertyOp50
 70
     1
102
RTVSPropertyOp51
 70
     0
102
RTVSPropertyOp52
 70
     0
102
RTVSPropertyOp53
 70
     1
102
RTVSPropertyOp54
 70
     1
102
RTVSPropertyOp55
 70
     1
102
RTVSPropertyOp56
 70
     1
102
RTVSPropertyOp57
 70
     1
102
RTVSPropertyOp58
 70
     1
102
RTVSPropertyOp59
 70
     1
102
RTVSPropertyOp60
 70
     1
102
RTVSPropertyOp61
 70
     1
102
RTVSPropertyOp62
 70
     1
  0
XRECORD
  5
1358
102
{ACAD_REACTORS
330
1357
102
}
330
1357
100
AcDbXrecord
280
     1
102
RTVSPost2010Prop28
280
     0
102
RTVSPost2010PropOp28
 70
     1
102
RTVSPost2010Prop29
280
     1
102
RTVSPost2010PropOp29
 70
     1
102
RTVSPost2010Prop30
280
     1
102
RTVSPost2010PropOp30
 70
     1
102
RTVSPost2010Prop31
280
     0
102
RTVSPost2010PropOp31
 70
     1
102
RTVSPost2010Prop32
280
     0
102
RTVSPost2010PropOp32
 70
     1
102
RTVSPost2010Prop33
280
     0
102
RTVSPost2010PropOp33
 70
     1
102
RTVSPost2010Prop34
280
     0
102
RTVSPost2010PropOp34
 70
     1
102
RTVSPost2010Prop35
280
     0
102
RTVSPost2010PropOp35
 70
     1
102
RTVSPost2010Prop36
280
     0
102
RTVSPost2010PropOp36
 70
     1
102
RTVSPost2010Prop37
 90
       50
102
RTVSPost2010PropOp37
 70
     1
102
RTVSPost2010Prop38
140
0.0
102
RTVSPost2010PropOp38
 70
     1
102
RTVSPost2010Prop39
140
1.0
102
RTVSPost2010PropOp39
 70
     1
102
RTVSPost2010Prop40
 90
        0
102
RTVSPost2010PropOp40
 70
     1
102
RTVSPost2010Prop41ColorIndex
 90
       18
102
RTVSPost2010Prop41ColorRGB
 90
        0
102
RTVSPost2010PropOp41
 70
     1
102
RTVSPost2010Prop42
 90
       50
102
RTVSPost2010PropOp42
 70
     1
102
RTVSPost2010Prop43
 90
        3
102
RTVSPost2010PropOp43
 70
     1
102
RTVSPost2010Prop44ColorIndex
 90
        5
102
RTVSPost2010Prop44ColorRGB
 90
      255
102
RTVSPost2010PropOp44
 70
     1
102
RTVSPost2010Prop45
280
     0
102
RTVSPost2010PropOp45
 70
     1
102
RTVSPost2010Prop46
 90
       50
102
RTVSPost2010PropOp46
 70
     1
102
RTVSPost2010Prop47
 90
       50
102
RTVSPost2010PropOp47
 70
     1
102
RTVSPost2010Prop48
 90
       50
102
RTVSPost2010PropOp48
 70
     1
102
RTVSPost2010Prop49
280
     0
102
RTVSPost2010PropOp49
 70
     1
102
RTVSPost2010Prop50
 90
       50
102
RTVSPost2010PropOp50
 70
     1
102
RTVSPost2010Prop51ColorIndex
 90
      256
102
RTVSPost2010Prop51ColorRGB
 90
-16777216
102
RTVSPost2010PropOp51
 70
     0
102
RTVSPost2010Prop52
140
1.0
102
RTVSPost2010PropOp52
 70
     0
102
RTVSPost2010Prop53
 90
        2
102
RTVSPost2010PropOp53
 70
     1
102
RTVSPost2010Prop54
  1
strokes_ogs.tif
102
RTVSPost2010PropOp54
 70
     1
102
RTVSPost2010Prop55
280
     0
102
RTVSPost2010PropOp55
 70
     1
102
RTVSPost2010Prop56
140
1.0
102
RTVSPost2010PropOp56
 70
     1
102
RTVSPost2010Prop57
140
1.0
102
RTVSPost2010PropOp57
 70
     1
102
RTVSPropertyOp0
 70
     1
102
RTVSPropertyOp1
 70
     1
102
RTVSPropertyOp2
 70
     1
102
RTVSPropertyOp3
 70
     1
102
RTVSPropertyOp4
 70
     1
102
RTVSPropertyOp5
 70
     1
102
RTVSPropertyOp6
 70
     1
102
RTVSPropertyOp7
 70
     1
102
RTVSPropertyOp8
 70
     1
102
RTVSPropertyOp9
 70
     1
102
RTVSPropertyOp10
 70
     1
102
RTVSPropertyOp11
 70
     1
102
RTVSPropertyOp12
 70
     1
102
RTVSPropertyOp13
 70
     1
102
RTVSPropertyOp14
 70
     1
102
RTVSPropertyOp15
 70
     1
102
RTVSPropertyOp16
 70
     1
102
RTVSPropertyOp17
 70
     1
102
RTVSPropertyOp18
 70
     1
102
RTVSPropertyOp19
 70
     1
102
RTVSPropertyOp20
 70
     1
102
RTVSPropertyOp21
 70
     1
102
RTVSPropertyOp22
 70
     1
102
RTVSPropertyOp23
 70
     1
102
RTVSPropertyOp24
 70
     1
102
RTVSPropertyOp25
 70
     1
102
RTVSPropertyOp26
 70
     1
102
RTVSPropertyOp27
 70
     1
102
RTVSPropertyOp28
 70
     1
102
RTVSPropertyOp29
 70
     1
102
RTVSPropertyOp30
 70
     1
102
RTVSPropertyOp31
 70
     1
102
RTVSPropertyOp32
 70
     1
102
RTVSPropertyOp33
 70
     1
102
RTVSPropertyOp34
 70
     1
102
RTVSPropertyOp35
 70
     1
102
RTVSPropertyOp36
 70
     1
102
RTVSPropertyOp37
 70
     1
102
RTVSPropertyOp38
 70
     1
102
RTVSPropertyOp39
 70
     1
102
RTVSPropertyOp40
 70
     1
102
RTVSPropertyOp41
 70
     1
102
RTVSPropertyOp42
 70
     1
102
RTVSPropertyOp43
 70
     1
102
RTVSPropertyOp44
 70
     1
102
RTVSPropertyOp45
 70
     1
102
RTVSPropertyOp46
 70
     1
102
RTVSPropertyOp47
 70
     1
102
RTVSPropertyOp48
 70
     1
102
RTVSPropertyOp49
 70
     1
102
RTVSPropertyOp50
 70
     1
102
RTVSPropertyOp51
 70
     0
102
RTVSPropertyOp52
 70
     0
102
RTVSPropertyOp53
 70
     1
102
RTVSPropertyOp54
 70
     1
102
RTVSPropertyOp55
 70
     1
102
RTVSPropertyOp56
 70
     1
102
RTVSPropertyOp57
 70
     1
102
RTVSPropertyOp58
 70
     1
102
RTVSPropertyOp59
 70
     1
102
RTVSPropertyOp60
 70
     1
102
RTVSPropertyOp61
 70
     1
102
RTVSPropertyOp62
 70
     1
  0
ENDSEC
  0
EOF
