  0
SECTION
  2
HEADER
  9
$ACADVER
  1
AC1015
  9
$ACADMAINTVER
 70
    20
  9
$DWGCODEPAGE
  3
ANSI_932
  9
$INSBASE
 10
0.0
 20
0.0
 30
0.0
  9
$EXTMIN
 10
10.0
 20
9.999999999999998
 30
0.0
  9
$EXTMAX
 10
459.2669401924144
 20
349.8280199999999
 30
0.0
  9
$LIMMIN
 10
0.0
 20
0.0
  9
$LIMMAX
 10
554.3999999999998
 20
382.2
  9
$ORTHOMODE
 70
     1
  9
$REGENMODE
 70
     1
  9
$FILLMODE
 70
     1
  9
$QTEXTMODE
 70
     0
  9
$MIRRTEXT
 70
     1
  9
$LTSCALE
 40
20.0
  9
$ATTMODE
 70
     1
  9
$TEXTSIZE
 40
5.0
  9
$TRACEWID
 40
1.0
  9
$TEXTSTYLE
  7
STANDARD
  9
$CLAYER
  8
0
  9
$CELTYPE
  6
BYLAYER
  9
$CECOLOR
 62
   256
  9
$CELTSCALE
 40
1.0
  9
$DISPSILH
 70
     0
  9
$DIMSCALE
 40
1.0
  9
$DIMASZ
 40
2.5
  9
$DIMEXO
 40
1.0
  9
$DIMDLI
 40
10.0
  9
$DIMRND
 40
0.0
  9
$DIMDLE
 40
0.0
  9
$DIMEXE
 40
1.0
  9
$DIMTP
 40
0.0
  9
$DIMTM
 40
0.0
  9
$DIMTXT
 40
3.2
  9
$DIMCEN
 40
0.0
  9
$DIMTSZ
 40
0.0
  9
$DIMTOL
 70
     0
  9
$DIMLIM
 70
     0
  9
$DIMTIH
 70
     0
  9
$DIMTOH
 70
     0
  9
$DIMSE1
 70
     0
  9
$DIMSE2
 70
     0
  9
$DIMTAD
 70
     3
  9
$DIMZIN
 70
     8
  9
$DIMBLK
  1

  9
$DIMASO
 70
     1
  9
$DIMSHO
 70
     1
  9
$DIMPOST
  1

  9
$DIMAPOST
  1

  9
$DIMALT
 70
     0
  9
$DIMALTD
 70
     2
  9
$DIMALTF
 40
25.4
  9
$DIMLFAC
 40
1.0
  9
$DIMTOFL
 70
     1
  9
$DIMTVP
 40
0.0
  9
$DIMTIX
 70
     0
  9
$DIMSOXD
 70
     0
  9
$DIMSAH
 70
     1
  9
$DIMBLK1
  1
OPEN
  9
$DIMBLK2
  1
OPEN
  9
$DIMSTYLE
  2
STANDARD
  9
$DIMCLRD
 70
     0
  9
$DIMCLRE
 70
     0
  9
$DIMCLRT
 70
     0
  9
$DIMTFAC
 40
1.0
  9
$DIMGAP
 40
1.0
  9
$DIMJUST
 70
     0
  9
$DIMSD1
 70
     0
  9
$DIMSD2
 70
     0
  9
$DIMTOLJ
 70
     1
  9
$DIMTZIN
 70
     0
  9
$DIMALTZ
 70
     0
  9
$DIMALTTZ
 70
     0
  9
$DIMUPT
 70
     0
  9
$DIMDEC
 70
     4
  9
$DIMTDEC
 70
     4
  9
$DIMALTU
 70
     2
  9
$DIMALTTD
 70
     2
  9
$DIMTXSTY
  7
STANDARD
  9
$DIMAUNIT
 70
     0
  9
$DIMADEC
 70
     0
  9
$DIMALTRND
 40
0.0
  9
$DIMAZIN
 70
     0
  9
$DIMDSEP
 70
    46
  9
$DIMATFIT
 70
     3
  9
$DIMFRAC
 70
     0
  9
$DIMLDRBLK
  1
OPEN
  9
$DIMLUNIT
 70
     2
  9
$DIMLWD
 70
    -2
  9
$DIMLWE
 70
    -2
  9
$DIMTMOVE
 70
     0
  9
$LUNITS
 70
     2
  9
$LUPREC
 70
     4
  9
$SKETCHINC
 40
1.0
  9
$FILLETRAD
 40
1.0
  9
$AUNITS
 70
     0
  9
$AUPREC
 70
     2
  9
$MENU
  1
.
  9
$ELEVATION
 40
0.0
  9
$PELEVATION
 40
0.0
  9
$THICKNESS
 40
0.0
  9
$LIMCHECK
 70
     0
  9
$CHAMFERA
 40
10.0
  9
$CHAMFERB
 40
10.0
  9
$CHAMFERC
 40
0.0
  9
$CHAMFERD
 40
0.0
  9
$SKPOLY
 70
     0
  9
$TDCREATE
 40
2451345.357210764
  9
$TDUCREATE
 40
2451344.982210764
  9
$TDUPDATE
 40
2457618.719888137
  9
$TDUUPDATE
 40
2457618.344888137
  9
$TDINDWG
 40
0.0000946528
  9
$TDUSRTIMER
 40
0.0000943634
  9
$USRTIMER
 70
     1
  9
$ANGBASE
 50
0.0
  9
$ANGDIR
 70
     0
  9
$PDMODE
 70
     0
  9
$PDSIZE
 40
0.0
  9
$PLINEWID
 40
0.0
  9
$SPLFRAME
 70
     0
  9
$SPLINETYPE
 70
     6
  9
$SPLINESEGS
 70
     8
  9
$HANDSEED
  5
A619
  9
$SURFTAB1
 70
     6
  9
$SURFTAB2
 70
     6
  9
$SURFTYPE
 70
     6
  9
$SURFU
 70
     6
  9
$SURFV
 70
     6
  9
$UCSBASE
  2

  9
$UCSNAME
  2

  9
$UCSORG
 10
0.0
 20
0.0
 30
0.0
  9
$UCSXDIR
 10
1.0
 20
0.0
 30
0.0
  9
$UCSYDIR
 10
0.0
 20
1.0
 30
0.0
  9
$UCSORTHOREF
  2

  9
$UCSORTHOVIEW
 70
     0
  9
$UCSORGTOP
 10
0.0
 20
0.0
 30
0.0
  9
$UCSORGBOTTOM
 10
0.0
 20
0.0
 30
0.0
  9
$UCSORGLEFT
 10
0.0
 20
0.0
 30
0.0
  9
$UCSORGRIGHT
 10
0.0
 20
0.0
 30
0.0
  9
$UCSORGFRONT
 10
0.0
 20
0.0
 30
0.0
  9
$UCSORGBACK
 10
0.0
 20
0.0
 30
0.0
  9
$PUCSBASE
  2

  9
$PUCSNAME
  2

  9
$PUCSORG
 10
0.0
 20
0.0
 30
0.0
  9
$PUCSXDIR
 10
1.0
 20
0.0
 30
0.0
  9
$PUCSYDIR
 10
0.0
 20
1.0
 30
0.0
  9
$PUCSORTHOREF
  2

  9
$PUCSORTHOVIEW
 70
     0
  9
$PUCSORGTOP
 10
0.0
 20
0.0
 30
0.0
  9
$PUCSORGBOTTOM
 10
0.0
 20
0.0
 30
0.0
  9
$PUCSORGLEFT
 10
0.0
 20
0.0
 30
0.0
  9
$PUCSORGRIGHT
 10
0.0
 20
0.0
 30
0.0
  9
$PUCSORGFRONT
 10
0.0
 20
0.0
 30
0.0
  9
$PUCSORGBACK
 10
0.0
 20
0.0
 30
0.0
  9
$USERI1
 70
     0
  9
$USERI2
 70
     0
  9
$USERI3
 70
     0
  9
$USERI4
 70
     0
  9
$USERI5
 70
     0
  9
$USERR1
 40
0.0
  9
$USERR2
 40
0.0
  9
$USERR3
 40
0.0
  9
$USERR4
 40
0.0
  9
$USERR5
 40
0.0
  9
$WORLDVIEW
 70
     1
  9
$SHADEDGE
 70
     3
  9
$SHADEDIF
 70
    70
  9
$TILEMODE
 70
     1
  9
$MAXACTVP
 70
    16
  9
$PINSBASE
 10
0.0
 20
0.0
 30
0.0
  9
$PLIMCHECK
 70
     0
  9
$PEXTMIN
 10
1.000000000000000E+20
 20
1.000000000000000E+20
 30
1.000000000000000E+20
  9
$PEXTMAX
 10
-1.000000000000000E+20
 20
-1.000000000000000E+20
 30
-1.000000000000000E+20
  9
$PLIMMIN
 10
0.0
 20
0.0
  9
$PLIMMAX
 10
420.0
 20
297.0
  9
$UNITMODE
 70
     0
  9
$VISRETAIN
 70
     0
  9
$PLINEGEN
 70
     0
  9
$PSLTSCALE
 70
     0
  9
$TREEDEPTH
 70
  3020
  9
$CMLSTYLE
  2
STANDARD
  9
$CMLJUST
 70
     0
  9
$CMLSCALE
 40
1.0
  9
$PROXYGRAPHICS
 70
     1
  9
$MEASUREMENT
 70
     0
  9
$CELWEIGHT
370
    -1
  9
$ENDCAPS
280
     0
  9
$JOINSTYLE
280
     0
  9
$LWDISPLAY
290
     0
  9
$INSUNITS
 70
     0
  9
$HYPERLINKBASE
  1

  9
$STYLESHEET
  1

  9
$XEDIT
290
     1
  9
$CEPSNTYPE
380
     0
  9
$PSTYLEMODE
290
     1
  9
$FINGERPRINTGUID
  2
{7F185A8A-FB31-40A1-BBA4-8F86A77AA94E}
  9
$VERSIONGUID
  2
{1A32B352-2117-4AFE-9917-317DED085BEC}
  9
$EXTNAMES
290
     1
  9
$PSVPSCALE
 40
0.0
  9
$OLESTARTUP
290
     0
  0
ENDSEC
  0
SECTION
  2
CLASSES
  0
CLASS
  1
ACDBDICTIONARYWDFLT
  2
AcDbDictionaryWithDefault
  3
ObjectDBX Classes
 90
        0
280
     0
281
     0
  0
CLASS
  1
ACDBPLACEHOLDER
  2
AcDbPlaceHolder
  3
ObjectDBX Classes
 90
        0
280
     0
281
     0
  0
CLASS
  1
LAYOUT
  2
AcDbLayout
  3
ObjectDBX Classes
 90
        0
280
     0
281
     0
  0
CLASS
  1
DICTIONARYVAR
  2
AcDbDictionaryVar
  3
ObjectDBX Classes
 90
        0
280
     0
281
     0
  0
CLASS
  1
MATERIAL
  2
AcDbMaterial
  3
ObjectDBX Classes
 90
     1153
280
     0
281
     0
  0
CLASS
  1
VISUALSTYLE
  2
AcDbVisualStyle
  3
ObjectDBX Classes
 90
     4095
280
     0
281
     0
  0
CLASS
  1
TABLESTYLE
  2
AcDbTableStyle
  3
ObjectDBX Classes
 90
     4095
280
     0
281
     0
  0
CLASS
  1
SCALE
  2
AcDbScale
  3
ObjectDBX Classes
 90
     1153
280
     0
281
     0
  0
CLASS
  1
MLEADERSTYLE
  2
AcDbMLeaderStyle
  3
ACDB_MLEADERSTYLE_CLASS
 90
     4095
280
     0
281
     0
  0
CLASS
  1
ACDBSECTIONVIEWSTYLE
  2
AcDbSectionViewStyle
  3
ObjectDBX Classes
 90
     1025
280
     0
281
     0
  0
CLASS
  1
ACDBDETAILVIEWSTYLE
  2
AcDbDetailViewStyle
  3
ObjectDBX Classes
 90
     1025
280
     0
281
     0
  0
CLASS
  1
CELLSTYLEMAP
  2
AcDbCellStyleMap
  3
ObjectDBX Classes
 90
     1152
280
     0
281
     0
  0
ENDSEC
  0
SECTION
  2
TABLES
  0
TABLE
  2
VPORT
  5
A236
330
0
100
AcDbSymbolTable
 70
     1
  0
VPORT
  5
A562
330
A236
100
AcDbSymbolTableRecord
100
AcDbViewportTableRecord
  2
*ACTIVE
 70
     0
 10
0.0
 20
0.0
 11
1.0
 21
1.0
 12
374.9442822932769
 22
179.9173150248094
 13
0.0
 23
0.0
 14
10.0
 24
10.0
 15
10.0
 25
10.0
 16
0.0
 26
0.0
 36
1.0
 17
0.0
 27
0.0
 37
0.0
 40
343.6098058212685
 41
2.567642956764295
 42
50.0
 43
0.0
 44
0.0
 50
0.0
 51
0.0
 71
     0
 72
   100
 73
     1
 74
     0
 75
     0
 76
     0
 77
     0
 78
     0
281
     0
 65
     1
110
0.0
120
0.0
130
0.0
111
1.0
121
0.0
131
0.0
112
0.0
122
1.0
132
0.0
 79
     0
146
0.0
1001
ACAD_NAV_VCDISPLAY
1070
     3
  0
ENDTAB
  0
TABLE
  2
LTYPE
  5
A233
330
0
100
AcDbSymbolTable
 70
     4
  0
LTYPE
  5
A241
330
A233
100
AcDbSymbolTableRecord
100
AcDbLinetypeTableRecord
  2
BYBLOCK
 70
     0
  3

 72
    65
 73
     0
 40
0.0
  0
LTYPE
  5
A242
330
A233
100
AcDbSymbolTableRecord
100
AcDbLinetypeTableRecord
  2
BYLAYER
 70
     0
  3

 72
    65
 73
     0
 40
0.0
  0
LTYPE
  5
A243
330
A233
100
AcDbSymbolTableRecord
100
AcDbLinetypeTableRecord
  2
CONTINUOUS
 70
     0
  3
Solid line
 72
    65
 73
     0
 40
0.0
  0
LTYPE
  5
A251
330
A233
100
AcDbSymbolTableRecord
100
AcDbLinetypeTableRecord
  2
DASHED
 70
     0
  3
__ __ __ __ __ __ __ __ __ __ __ __ __ __ __ __
 72
    65
 73
     2
 40
0.75
 49
0.5
 74
     0
 49
-0.25
 74
     0
  0
LTYPE
  5
A252
330
A233
100
AcDbSymbolTableRecord
100
AcDbLinetypeTableRecord
  2
CENTER
 70
     0
  3
____ _ ____ _ ____ _ ____ _ ____ _ ____ _ ____ 
 72
    65
 73
     4
 40
2.0
 49
1.25
 74
     0
 49
-0.25
 74
     0
 49
0.25
 74
     0
 49
-0.25
 74
     0
  0
LTYPE
  5
A253
330
A233
100
AcDbSymbolTableRecord
100
AcDbLinetypeTableRecord
  2
PHANTOM
 70
     0
  3
______  __  __  ______  __  __  ______  __  __ 
 72
    65
 73
     6
 40
2.5
 49
1.25
 74
     0
 49
-0.25
 74
     0
 49
0.25
 74
     0
 49
-0.25
 74
     0
 49
0.25
 74
     0
 49
-0.25
 74
     0
  0
ENDTAB
  0
TABLE
  2
LAYER
  5
A230
330
0
100
AcDbSymbolTable
 70
     8
  0
LAYER
  5
A23E
102
{ACAD_XDICTIONARY
360
A5BD
102
}
330
A230
100
AcDbSymbolTableRecord
100
AcDbLayerTableRecord
  2
0
 70
     0
 62
     7
  6
CONTINUOUS
370
    -3
390
A56B
  0
LAYER
  5
A254
102
{ACAD_XDICTIONARY
360
A5BF
102
}
330
A230
100
AcDbSymbolTableRecord
100
AcDbLayerTableRecord
  2
4
 70
     0
 62
     1
  6
CENTER
370
    -3
390
A56B
  0
LAYER
  5
A255
102
{ACAD_XDICTIONARY
360
A5C1
102
}
330
A230
100
AcDbSymbolTableRecord
100
AcDbLayerTableRecord
  2
5
 70
     0
 62
     6
  6
PHANTOM
370
    -3
390
A56B
  0
LAYER
  5
A256
102
{ACAD_XDICTIONARY
360
A5C3
102
}
330
A230
100
AcDbSymbolTableRecord
100
AcDbLayerTableRecord
  2
1
 70
     0
 62
     7
  6
CONTINUOUS
370
    -3
390
A56B
  0
LAYER
  5
A257
102
{ACAD_XDICTIONARY
360
A5C5
102
}
330
A230
100
AcDbSymbolTableRecord
100
AcDbLayerTableRecord
  2
2
 70
     0
 62
     4
  6
CONTINUOUS
370
    -3
390
A56B
  0
LAYER
  5
A258
102
{ACAD_XDICTIONARY
360
A5C7
102
}
330
A230
100
AcDbSymbolTableRecord
100
AcDbLayerTableRecord
  2
3
 70
     0
 62
     2
  6
DASHED
370
    -3
390
A56B
  0
LAYER
  5
A259
102
{ACAD_XDICTIONARY
360
A5C9
102
}
330
A230
100
AcDbSymbolTableRecord
100
AcDbLayerTableRecord
  2
6
 70
     0
 62
     5
  6
CONTINUOUS
370
    -3
390
A56B
  0
LAYER
  5
A25A
102
{ACAD_XDICTIONARY
360
A5CB
102
}
330
A230
100
AcDbSymbolTableRecord
100
AcDbLayerTableRecord
  2
7
 70
     0
 62
     3
  6
CONTINUOUS
370
    -3
390
A56B
  0
ENDTAB
  0
TABLE
  2
STYLE
  5
A231
330
0
100
AcDbSymbolTable
 70
     1
  0
STYLE
  5
A23F
330
A231
100
AcDbSymbolTableRecord
100
AcDbTextStyleTableRecord
  2
STANDARD
 70
     0
 40
0.0
 41
1.0
 50
0.0
 71
     0
 42
5.0
  3
txt
  4

  0
ENDTAB
  0
TABLE
  2
VIEW
  5
A234
330
0
100
AcDbSymbolTable
 70
     0
  0
ENDTAB
  0
TABLE
  2
UCS
  5
A235
330
0
100
AcDbSymbolTable
 70
     0
  0
ENDTAB
  0
TABLE
  2
APPID
  5
A237
330
0
100
AcDbSymbolTable
 70
     3
  0
APPID
  5
A240
330
A237
100
AcDbSymbolTableRecord
100
AcDbRegAppTableRecord
  2
ACAD
 70
     0
  0
APPID
  5
A5D7
330
A237
100
AcDbSymbolTableRecord
100
AcDbRegAppTableRecord
  2
ACAD_NAV_VCDISPLAY
 70
     0
  0
APPID
  5
A610
330
A237
100
AcDbSymbolTableRecord
100
AcDbRegAppTableRecord
  2
ACAD_MLEADERVER
 70
     0
  0
ENDTAB
  0
TABLE
  2
DIMSTYLE
  5
A238
330
0
100
AcDbSymbolTable
 70
     1
100
AcDbDimStyleTable
 71
     0
  0
DIMSTYLE
105
A25C
330
A238
100
AcDbSymbolTableRecord
100
AcDbDimStyleTableRecord
  2
STANDARD
 70
     0
 41
2.5
 42
1.0
 43
10.0
 44
1.0
 73
     0
 74
     0
 77
     3
 78
     8
140
3.2
141
0.0
147
1.0
172
     1
173
     1
284
     8
285
     8
286
     8
340
A23F
  0
ENDTAB
  0
TABLE
  2
BLOCK_RECORD
  5
A22F
330
0
100
AcDbSymbolTable
 70
     1
  0
BLOCK_RECORD
  5
A24C
102
{ACAD_XDICTIONARY
360
A565
102
}
330
A22F
100
AcDbSymbolTableRecord
100
AcDbBlockTableRecord
  2
*MODEL_SPACE
340
A5B9
  0
BLOCK_RECORD
  5
A248
102
{ACAD_XDICTIONARY
360
A563
102
}
330
A22F
100
AcDbSymbolTableRecord
100
AcDbBlockTableRecord
  2
*PAPER_SPACE
340
A5BA
  0
BLOCK_RECORD
  5
A264
330
A22F
100
AcDbSymbolTableRecord
100
AcDbBlockTableRecord
  2
_OPEN
340
0
  0
ENDTAB
  0
ENDSEC
  0
SECTION
  2
BLOCKS
  0
BLOCK
  5
A24D
330
A24C
100
AcDbEntity
  8
0
100
AcDbBlockBegin
  2
*MODEL_SPACE
 70
     0
 10
0.0
 20
0.0
 30
0.0
  3
*MODEL_SPACE
  1

  0
ENDBLK
  5
A24E
330
A24C
100
AcDbEntity
  8
0
100
AcDbBlockEnd
  0
BLOCK
  5
A249
330
A248
100
AcDbEntity
 67
     1
  8
0
100
AcDbBlockBegin
  2
*PAPER_SPACE
 70
     0
 10
0.0
 20
0.0
 30
0.0
  3
*PAPER_SPACE
  1

  0
ENDBLK
  5
A24A
330
A248
100
AcDbEntity
 67
     1
  8
0
100
AcDbBlockEnd
  0
BLOCK
  5
A265
330
A264
100
AcDbEntity
  8
0
100
AcDbBlockBegin
  2
_OPEN
 70
     0
 10
0.0
 20
0.0
 30
0.0
  3
_OPEN
  1

  0
LINE
  5
A266
330
A264
100
AcDbEntity
  8
0
  6
ByBlock
 62
     0
100
AcDbLine
 10
-1.0
 20
0.166667
 30
0.0
 11
0.0
 21
0.0
 31
0.0
  0
LINE
  5
A267
330
A264
100
AcDbEntity
  8
0
  6
ByBlock
 62
     0
100
AcDbLine
 10
0.0
 20
0.0
 30
0.0
 11
-1.0
 21
-0.166667
 31
0.0
  0
LINE
  5
A268
330
A264
100
AcDbEntity
  8
0
  6
ByBlock
 62
     0
100
AcDbLine
 10
0.0
 20
0.0
 30
0.0
 11
-1.0
 21
0.0
 31
0.0
  0
ENDBLK
  5
A269
330
A264
100
AcDbEntity
  8
0
100
AcDbBlockEnd
  0
ENDSEC
  0
SECTION
  2
ENTITIES
  0
TEXT
  5
A26A
330
A24C
100
AcDbEntity
  8
7
  6
Continuous
100
AcDbText
 10
10.0
 20
18.0
 30
0.0
 40
3.0
  1
TYPE No.102G-N-L
100
AcDbText
  0
TEXT
  5
A26B
330
A24C
100
AcDbEntity
  8
7
  6
Continuous
100
AcDbText
 10
10.0
 20
26.0
 30
0.0
 40
3.0
  1
CODE No.19105
100
AcDbText
  0
TEXT
  5
A26C
330
A24C
100
AcDbEntity
  8
1
  6
Continuous
100
AcDbText
 10
10.0
 20
10.0
 30
0.0
 40
1.399999999999999
  1
LAYER
100
AcDbText
  0
TEXT
  5
A26D
330
A24C
100
AcDbEntity
  8
1
  6
Continuous
100
AcDbText
 10
17.97951099999998
 20
10.04873699999998
 30
0.0
 40
1.399999999999999
  1
1
100
AcDbText
  0
TEXT
  5
A26E
330
A24C
100
AcDbEntity
  8
7
  6
Continuous
100
AcDbText
 10
29.97951099999999
 20
10.04873699999998
 30
0.0
 40
1.399999999999999
  1
7
100
AcDbText
  0
TEXT
  5
A26F
330
A24C
100
AcDbEntity
  8
4
  6
CENTER
100
AcDbText
 10
23.97951099999999
 20
10.04873699999998
 30
0.0
 40
1.399999999999999
  1
4
100
AcDbText
  0
TEXT
  5
A270
330
A24C
100
AcDbEntity
  8
3
  6
DASHED
100
AcDbText
 10
21.979511
 20
10.04873699999998
 30
0.0
 40
1.399999999999999
  1
3
100
AcDbText
  0
TEXT
  5
A271
330
A24C
100
AcDbEntity
  8
2
  6
Continuous
100
AcDbText
 10
19.97951099999999
 20
10.04873699999998
 30
0.0
 40
1.399999999999999
  1
2
100
AcDbText
  0
TEXT
  5
A272
330
A24C
100
AcDbEntity
  8
6
  6
Continuous
100
AcDbText
 10
27.979511
 20
10.04873699999998
 30
0.0
 40
1.399999999999999
  1
6
100
AcDbText
  0
TEXT
  5
A273
330
A24C
100
AcDbEntity
  8
5
  6
PHANTOM
100
AcDbText
 10
25.97951099999999
 20
10.04873699999998
 30
0.0
 40
1.399999999999999
  1
5
100
AcDbText
  0
LINE
  5
A274
330
A24C
100
AcDbEntity
  8
1
  6
Continuous
100
AcDbLine
 10
82.927081
 20
222.1432319999999
 30
0.0
 11
25.0
 21
222.1432319999999
 31
0.0
  0
LINE
  5
A275
330
A24C
100
AcDbEntity
  8
1
  6
Continuous
100
AcDbLine
 10
82.927081
 20
219.8432319999998
 30
0.0
 11
25.0
 21
219.8432319999998
 31
0.0
  0
ARC
  5
A276
330
A24C
100
AcDbEntity
  8
1
  6
Continuous
100
AcDbCircle
 10
155.7520189999999
 20
314.322924
 30
0.0
 40
14.55
100
AcDbArc
 50
90.0
 51
270.0
  0
CIRCLE
  5
A277
330
A24C
100
AcDbEntity
  8
1
  6
Continuous
100
AcDbCircle
 10
186.9115629999998
 20
314.322924
 30
0.0
 40
8.199999999999997
  0
CIRCLE
  5
A278
330
A24C
100
AcDbEntity
  8
1
  6
Continuous
100
AcDbCircle
 10
186.9115629999998
 20
314.322924
 30
0.0
 40
8.849999999999997
  0
CIRCLE
  5
A279
330
A24C
100
AcDbEntity
  8
1
  6
Continuous
100
AcDbCircle
 10
186.9115629999998
 20
314.322924
 30
0.0
 40
17.25
  0
CIRCLE
  5
A27A
330
A24C
100
AcDbEntity
  8
1
  6
Continuous
100
AcDbCircle
 10
186.9115629999998
 20
314.322924
 30
0.0
 40
18.8
  0
LINE
  5
A27B
330
A24C
100
AcDbEntity
  8
4
  6
CENTER
100
AcDbLine
 10
186.9115629999998
 20
278.830019
 30
0.0
 11
186.9115629999998
 21
349.8280199999999
 31
0.0
  0
ARC
  5
A27C
330
A24C
100
AcDbEntity
  8
1
  6
Continuous
100
AcDbCircle
 10
167.911563
 20
182.143232
 30
0.0
 40
17.8564
100
AcDbArc
 50
173.721711
 51
56.925601
  0
ARC
  5
A27D
330
A24C
100
AcDbEntity
  8
1
  6
Continuous
100
AcDbCircle
 10
167.911563
 20
182.143232
 30
0.0
 40
20.0
100
AcDbArc
 50
177.063269
 51
53.030748
  0
ARC
  5
A27E
330
A24C
100
AcDbEntity
  8
1
  6
Continuous
100
AcDbCircle
 10
153.357281
 20
185.2860739999999
 30
0.0
 40
1.832025999999999
100
AcDbArc
 50
244.856673
 51
267.2818799999999
  0
ARC
  5
A27F
330
A24C
100
AcDbEntity
  8
1
  6
Continuous
100
AcDbCircle
 10
170.3453539999999
 20
173.698451
 30
0.0
 40
34.935574
100
AcDbArc
 50
112.4674759999999
 51
126.4802439999998
  0
LINE
  5
A280
330
A24C
100
AcDbEntity
  8
4
  6
CENTER
100
AcDbLine
 10
192.911563
 20
182.143232
 30
0.0
 11
142.911563
 21
182.143232
 31
0.0
  0
LINE
  5
A281
330
A24C
100
AcDbEntity
  8
1
  6
Continuous
100
AcDbLine
 10
174.1553879999999
 20
209.660223
 30
0.0
 11
174.1553879999999
 21
196.811651
 31
0.0
  0
ARC
  5
A282
330
A24C
100
AcDbEntity
  8
1
  6
Continuous
100
AcDbCircle
 10
216.2890079999999
 20
88.13106399999998
 30
0.0
 40
116.2502409999998
100
AcDbArc
 50
102.7799699999999
 51
105.316701
  0
LINE
  5
A283
330
A24C
100
AcDbEntity
  8
4
  6
CENTER
100
AcDbLine
 10
167.911563
 20
157.143232
 30
0.0
 11
167.911563
 21
207.1432319999999
 31
0.0
  0
ARC
  5
A284
330
A24C
100
AcDbEntity
  8
1
  6
Continuous
100
AcDbCircle
 10
194.0997
 20
169.1487219999999
 30
0.0
 40
32.248894
100
AcDbArc
 50
105.316701
 51
116.6053529999999
  0
ARC
  5
A285
330
A24C
100
AcDbEntity
  8
1
  6
Continuous
100
AcDbCircle
 10
167.911563
 20
182.143232
 30
0.0
 40
8.6606
100
AcDbArc
 50
199.017596
 51
327.843439
  0
ARC
  5
A286
330
A24C
100
AcDbEntity
  8
1
  6
Continuous
100
AcDbCircle
 10
167.911563
 20
182.143232
 30
0.0
 40
9.141799999999998
100
AcDbArc
 50
195.1269409999999
 51
333.5752549999999
  0
LINE
  5
A287
330
A24C
100
AcDbEntity
  8
1
  6
Continuous
100
AcDbLine
 10
178.553302
 20
179.629545
 30
0.0
 11
171.648005
 21
175.2569419999999
 31
0.0
  0
ARC
  5
A288
330
A24C
100
AcDbEntity
  8
1
  6
Continuous
100
AcDbCircle
 10
167.502915
 20
181.8029479999999
 30
0.0
 40
7.748028999999998
100
AcDbArc
 50
201.924026
 51
302.342989
  0
LINE
  5
A289
330
A24C
100
AcDbEntity
  8
1
  6
Continuous
100
AcDbLine
 10
179.2543369999999
 20
185.973979
 30
0.0
 11
175.766123
 21
189.4565669999998
 31
0.0
  0
ARC
  5
A28A
330
A24C
100
AcDbEntity
  8
1
  6
Continuous
100
AcDbCircle
 10
176.367084
 20
183.082062
 30
0.0
 40
4.086491999999998
100
AcDbArc
 50
302.342989
 51
45.046248
  0
ARC
  5
A28B
330
A24C
100
AcDbEntity
  8
1
  6
Continuous
100
AcDbCircle
 10
176.2686149999999
 20
197.830026
 30
0.0
 40
1.548205999999999
100
AcDbArc
 50
259.2090259999998
 51
331.7492869999999
  0
ARC
  5
A28C
330
A24C
100
AcDbEntity
  8
1
  6
Continuous
100
AcDbCircle
 10
178.073861
 20
192.5902589999998
 30
0.0
 40
4.268488999999997
100
AcDbArc
 50
119.3952909999999
 51
149.028186
  0
ARC
  5
A28D
330
A24C
100
AcDbEntity
  8
1
  6
Continuous
100
AcDbCircle
 10
175.9050919999999
 20
193.8919349999999
 30
0.0
 40
1.739077999999999
100
AcDbArc
 50
149.028186
 51
172.5151429999999
  0
ARC
  5
A28E
330
A24C
100
AcDbEntity
  8
1
  6
Continuous
100
AcDbCircle
 10
179.696952
 20
193.393747
 30
0.0
 40
5.563524
100
AcDbArc
 50
172.5151429999999
 51
225.0462479999999
  0
ARC
  5
A28F
330
A24C
100
AcDbEntity
  8
1
  6
Continuous
100
AcDbCircle
 10
170.1427779999999
 20
216.978427
 30
0.0
 40
21.245169
100
AcDbArc
 50
290.642339
 51
296.6053529999999
  0
ARC
  5
A290
330
A24C
100
AcDbEntity
  8
1
  6
Continuous
100
AcDbCircle
 10
96.14498799999999
 20
87.20064
 30
0.0
 40
111.930463
100
AcDbArc
 50
55.019019
 51
59.311841
  0
LINE
  5
A291
330
A24C
100
AcDbEntity
  8
1
  6
Continuous
100
AcDbLine
 10
154.411563
 20
222.1432319999999
 30
0.0
 11
212.620752
 21
222.1432319999999
 31
0.0
  0
LINE
  5
A292
330
A24C
100
AcDbEntity
  8
1
  6
Continuous
100
AcDbLine
 10
154.411563
 20
219.8432319999998
 30
0.0
 11
212.620752
 21
219.8432319999998
 31
0.0
  0
LINE
  5
A293
330
A24C
100
AcDbEntity
  8
1
  6
Continuous
100
AcDbLine
 10
183.6098279999999
 20
213.5552099999999
 30
0.0
 11
185.4973489999999
 21
215.4427319999999
 31
0.0
  0
LINE
  5
A294
330
A24C
100
AcDbEntity
  8
1
  6
Continuous
100
AcDbLine
 10
185.940761
 20
213.585107
 30
0.0
 11
184.0831359999999
 21
215.4427319999999
 31
0.0
  0
LINE
  5
A295
330
A24C
100
AcDbEntity
  8
1
  6
Continuous
100
AcDbLine
 10
168.7099629999998
 20
217.0063789999999
 30
0.0
 11
205.1131629999999
 21
217.0063789999999
 31
0.0
  0
LINE
  5
A296
330
A24C
100
AcDbEntity
  8
1
  6
Continuous
100
AcDbLine
 10
207.7808249999999
 20
219.4765289999998
 30
0.0
 11
166.042301
 21
219.4765289999998
 31
0.0
  0
LINE
  5
A297
330
A24C
100
AcDbEntity
  8
1
  6
Continuous
100
AcDbLine
 10
203.532614
 20
217.537343
 30
0.0
 11
170.290512
 21
217.537343
 31
0.0
  0
LINE
  5
A298
330
A24C
100
AcDbEntity
  8
1
  6
Continuous
100
AcDbLine
 10
204.587389
 20
217.7744569999999
 30
0.0
 11
169.235737
 21
217.7744569999999
 31
0.0
  0
LINE
  5
A299
330
A24C
100
AcDbEntity
  8
1
  6
Continuous
100
AcDbLine
 10
205.411563
 20
215.4427319999999
 30
0.0
 11
168.4115629999998
 21
215.4427319999999
 31
0.0
  0
LINE
  5
A29A
330
A24C
100
AcDbEntity
  8
1
  6
Continuous
100
AcDbLine
 10
205.411563
 20
213.8348419999999
 30
0.0
 11
170.486917
 21
213.3868939999999
 31
0.0
  0
LINE
  5
A29B
330
A24C
100
AcDbEntity
  8
4
  6
CENTER
100
AcDbLine
 10
186.9115629999998
 20
227.1432319999999
 30
0.0
 11
186.9115629999998
 21
195.852606
 31
0.0
  0
LINE
  5
A29C
330
A24C
100
AcDbEntity
  8
1
  6
Continuous
100
AcDbLine
 10
199.3682969999999
 20
213.7573299999999
 30
0.0
 11
201.0536989999999
 21
215.4427319999999
 31
0.0
  0
LINE
  5
A29D
330
A24C
100
AcDbEntity
  8
1
  6
Continuous
100
AcDbLine
 10
201.3001079999999
 20
213.782108
 30
0.0
 11
199.639485
 21
215.4427319999999
 31
0.0
  0
ARC
  5
A29E
330
A24C
100
AcDbEntity
  8
1
  6
Continuous
100
AcDbCircle
 10
224.153562
 20
71.13047399999998
 30
0.0
 40
135.119607
100
AcDbArc
 50
98.364884
 51
101.107772
  0
LINE
  5
A29F
330
A24C
100
AcDbEntity
  8
1
  6
Continuous
100
AcDbLine
 10
205.09865
 20
213.8308289999999
 30
0.0
 11
205.411563
 21
214.1437419999999
 31
0.0
  0
LINE
  5
A2A0
330
A24C
100
AcDbEntity
  8
1
  6
Continuous
100
AcDbLine
 10
203.666062
 20
213.812454
 30
0.0
 11
205.2963389999999
 21
215.4427319999999
 31
0.0
  0
LINE
  5
A2A1
330
A24C
100
AcDbEntity
  8
1
  6
Continuous
100
AcDbLine
 10
202.233474
 20
213.7940799999999
 30
0.0
 11
203.882126
 21
215.4427319999999
 31
0.0
  0
LINE
  5
A2A2
330
A24C
100
AcDbEntity
  8
1
  6
Continuous
100
AcDbLine
 10
200.8008859999999
 20
213.7757049999999
 30
0.0
 11
202.467912
 21
215.4427319999999
 31
0.0
  0
LINE
  5
A2A3
330
A24C
100
AcDbEntity
  8
1
  6
Continuous
100
AcDbLine
 10
205.411563
 20
215.3275079999999
 30
0.0
 11
205.2963389999999
 21
215.4427319999999
 31
0.0
  0
LINE
  5
A2A4
330
A24C
100
AcDbEntity
  8
1
  6
Continuous
100
AcDbLine
 10
205.411563
 20
213.913294
 30
0.0
 11
203.882126
 21
215.4427319999999
 31
0.0
  0
LINE
  5
A2A5
330
A24C
100
AcDbEntity
  8
1
  6
Continuous
100
AcDbLine
 10
204.0927169999999
 20
213.817927
 30
0.0
 11
202.467912
 21
215.4427319999999
 31
0.0
  0
LINE
  5
A2A6
330
A24C
100
AcDbEntity
  8
1
  6
Continuous
100
AcDbLine
 10
202.6964129999998
 20
213.800017
 30
0.0
 11
201.0536989999999
 21
215.4427319999999
 31
0.0
  0
ARC
  5
A2A7
330
A24C
100
AcDbEntity
  8
1
  6
Continuous
100
AcDbCircle
 10
318.150979
 20
96.485271
 30
0.0
 40
165.252597
100
AcDbArc
 50
131.9042349999998
 51
132.171579
  0
LINE
  5
A2A8
330
A24C
100
AcDbEntity
  8
1
  6
Continuous
100
AcDbLine
 10
207.7808249999999
 20
219.4765289999998
 30
0.0
 11
207.771694
 21
219.8432319999998
 31
0.0
  0
ARC
  5
A2A9
330
A24C
100
AcDbEntity
  8
1
  6
Continuous
100
AcDbCircle
 10
203.590515
 20
222.9538729999999
 30
0.0
 40
5.388568
100
AcDbArc
 50
293.6985089999998
 51
312.171579
  0
ARC
  5
A2AA
330
A24C
100
AcDbEntity
  8
1
  6
Continuous
100
AcDbCircle
 10
204.587389
 20
220.682771
 30
0.0
 40
2.908313999999998
100
AcDbArc
 50
270.0
 51
293.6985089999998
  0
ARC
  5
A2AB
330
A24C
100
AcDbEntity
  8
1
  6
Continuous
100
AcDbCircle
 10
203.5286059999999
 20
217.788394
 30
0.0
 40
0.251083
100
AcDbArc
 50
223.500695
 51
270.9147219999999
  0
ARC
  5
A2AC
330
A24C
100
AcDbEntity
  8
1
  6
Continuous
100
AcDbCircle
 10
200.614775
 20
215.023205
 30
0.0
 40
3.765966
100
AcDbArc
 50
43.500695
 51
46.933087
  0
ARC
  5
A2AD
330
A24C
100
AcDbEntity
  8
1
  6
Continuous
100
AcDbCircle
 10
204.8049989999999
 20
216.8673879999999
 30
0.0
 40
0.338058
100
AcDbArc
 50
343.385468
 51
56.940309
  0
ARC
  5
A2AE
330
A24C
100
AcDbEntity
  8
1
  6
Continuous
100
AcDbCircle
 10
202.265431
 20
212.9657009999998
 30
0.0
 40
4.993438999999998
100
AcDbArc
 50
56.940309
 51
60.900618
  0
ARC
  5
A2AF
330
A24C
100
AcDbEntity
  8
1
  6
Continuous
100
AcDbCircle
 10
203.87062
 20
215.8497279999999
 30
0.0
 40
1.692795999999999
100
AcDbArc
 50
60.900618
 51
90.914722
  0
ARC
  5
A2B0
330
A24C
100
AcDbEntity
  8
1
  6
Continuous
100
AcDbCircle
 10
204.3472969999998
 20
216.1624069999998
 30
0.0
 40
0.719675
100
AcDbArc
 50
270.0
 51
293.1342879999999
  0
ARC
  5
A2B1
330
A24C
100
AcDbEntity
  8
1
  6
Continuous
100
AcDbCircle
 10
204.2419879999999
 20
216.2234799999999
 30
0.0
 40
0.69345
100
AcDbArc
 50
318.343544
 51
343.385468
  0
LINE
  5
A2B2
330
A24C
100
AcDbEntity
  8
1
  6
Continuous
100
AcDbLine
 10
204.6300479999999
 20
215.500603
 30
0.0
 11
204.760095
 21
215.76257
 31
0.0
  0
LINE
  5
A2B3
330
A24C
100
AcDbEntity
  8
1
  6
Continuous
100
AcDbLine
 10
204.906487
 20
216.0252009999999
 30
0.0
 11
205.1289429999999
 21
216.770727
 31
0.0
  0
LINE
  5
A2B4
330
A24C
100
AcDbEntity
  8
1
  6
Continuous
100
AcDbLine
 10
203.8435949999999
 20
217.5423079999999
 30
0.0
 11
203.532614
 21
217.537343
 31
0.0
  0
LINE
  5
A2B5
330
A24C
100
AcDbEntity
  8
1
  6
Continuous
100
AcDbLine
 10
205.411563
 20
213.8348419999999
 30
0.0
 11
205.411563
 21
215.4427319999999
 31
0.0
  0
ARC
  5
A2B6
330
A24C
100
AcDbEntity
  8
1
  6
Continuous
100
AcDbCircle
 10
200.352303
 20
232.9987159999999
 30
0.0
 40
28.489157
100
AcDbArc
 50
278.3648839999999
 51
279.5145
  0
ARC
  5
A2B7
330
A24C
100
AcDbEntity
  8
1
  6
Continuous
100
AcDbCircle
 10
205.0133709999998
 20
202.9295999999999
 30
0.0
 40
1.972447999999999
100
AcDbArc
 50
83.743575
 51
88.60236899999998
  0
ARC
  5
A2B8
330
A24C
100
AcDbEntity
  8
1
  6
Continuous
100
AcDbCircle
 10
202.2155999999998
 20
210.390677
 30
0.0
 40
3.792719
100
AcDbArc
 50
14.044343
 51
51.47966499999999
  0
ARC
  5
A2B9
330
A24C
100
AcDbEntity
  8
1
  6
Continuous
100
AcDbCircle
 10
216.392898
 20
208.7942159999998
 30
0.0
 40
10.365093
100
AcDbArc
 50
176.010578
 51
183.7384929999998
  0
ARC
  5
A2BA
330
A24C
100
AcDbEntity
  8
1
  6
Continuous
100
AcDbCircle
 10
200.3158369999999
 20
209.9154509999999
 30
0.0
 40
5.751019999999998
100
AcDbArc
 50
356.0105779999998
 51
14.044343
  0
ARC
  5
A2BB
330
A24C
100
AcDbEntity
  8
1
  6
Continuous
100
AcDbCircle
 10
203.2942439999999
 20
211.745731
 30
0.0
 40
2.060770999999999
100
AcDbArc
 50
51.47966499999999
 51
87.195417
  0
ARC
  5
A2BC
330
A24C
100
AcDbEntity
  8
1
  6
Continuous
100
AcDbCircle
 10
203.2682369999998
 20
211.2148599999999
 30
0.0
 40
2.592278999999999
100
AcDbArc
 50
87.195417
 51
90.73484399999999
  0
ARC
  5
A2BD
330
A24C
100
AcDbEntity
  8
1
  6
Continuous
100
AcDbCircle
 10
229.858969
 20
209.6741129999998
 30
0.0
 40
23.85988
100
AcDbArc
 50
183.7384929999998
 51
187.686261
  0
ARC
  5
A2BE
330
A24C
100
AcDbEntity
  8
1
  6
Continuous
100
AcDbCircle
 10
199.86463
 20
205.626042
 30
0.0
 40
6.406392999999998
100
AcDbArc
 50
357.9790939999999
 51
7.686260999999998
  0
ARC
  5
A2BF
330
A24C
100
AcDbEntity
  8
1
  6
Continuous
100
AcDbCircle
 10
205.3833389999998
 20
205.4313089999999
 30
0.0
 40
0.8842489999999999
100
AcDbArc
 50
332.853887
 51
357.9790939999999
  0
LINE
  5
A2C0
330
A24C
100
AcDbEntity
  8
1
  6
Continuous
100
AcDbLine
 10
206.170184
 20
205.0278599999999
 30
0.0
 11
205.228325
 21
204.8903
 31
0.0
  0
LINE
  5
A2C1
330
A24C
100
AcDbEntity
  8
1
  6
Continuous
100
AcDbLine
 10
197.935709
 20
213.7389559999999
 30
0.0
 11
199.639485
 21
215.4427319999999
 31
0.0
  0
LINE
  5
A2C2
330
A24C
100
AcDbEntity
  8
1
  6
Continuous
100
AcDbLine
 10
196.503121
 20
213.720581
 30
0.0
 11
198.225271
 21
215.4427319999999
 31
0.0
  0
LINE
  5
A2C3
330
A24C
100
AcDbEntity
  8
1
  6
Continuous
100
AcDbLine
 10
195.070533
 20
213.7022069999999
 30
0.0
 11
196.811058
 21
215.4427319999999
 31
0.0
  0
LINE
  5
A2C4
330
A24C
100
AcDbEntity
  8
1
  6
Continuous
100
AcDbLine
 10
193.637945
 20
213.6838319999998
 30
0.0
 11
195.3968439999999
 21
215.4427319999999
 31
0.0
  0
LINE
  5
A2C5
330
A24C
100
AcDbEntity
  8
1
  6
Continuous
100
AcDbLine
 10
192.2053569999999
 20
213.665458
 30
0.0
 11
193.9826309999999
 21
215.4427319999999
 31
0.0
  0
LINE
  5
A2C6
330
A24C
100
AcDbEntity
  8
1
  6
Continuous
100
AcDbLine
 10
190.7727689999999
 20
213.6470829999999
 30
0.0
 11
192.5684169999999
 21
215.4427319999999
 31
0.0
  0
LINE
  5
A2C7
330
A24C
100
AcDbEntity
  8
1
  6
Continuous
100
AcDbLine
 10
189.34018
 20
213.6287079999999
 30
0.0
 11
191.154204
 21
215.4427319999999
 31
0.0
  0
LINE
  5
A2C8
330
A24C
100
AcDbEntity
  8
1
  6
Continuous
100
AcDbLine
 10
187.907592
 20
213.610334
 30
0.0
 11
189.7399899999999
 21
215.4427319999999
 31
0.0
  0
LINE
  5
A2C9
330
A24C
100
AcDbEntity
  8
1
  6
Continuous
100
AcDbLine
 10
186.475004
 20
213.5919589999998
 30
0.0
 11
188.3257769999999
 21
215.4427319999999
 31
0.0
  0
LINE
  5
A2CA
330
A24C
100
AcDbEntity
  8
1
  6
Continuous
100
AcDbLine
 10
185.042416
 20
213.573585
 30
0.0
 11
186.9115629999998
 21
215.4427319999999
 31
0.0
  0
LINE
  5
A2CB
330
A24C
100
AcDbEntity
  8
1
  6
Continuous
100
AcDbLine
 10
199.903804
 20
213.764199
 30
0.0
 11
198.225271
 21
215.4427319999999
 31
0.0
  0
LINE
  5
A2CC
330
A24C
100
AcDbEntity
  8
1
  6
Continuous
100
AcDbLine
 10
198.5074999999999
 20
213.74629
 30
0.0
 11
196.811058
 21
215.4427319999999
 31
0.0
  0
LINE
  5
A2CD
330
A24C
100
AcDbEntity
  8
1
  6
Continuous
100
AcDbLine
 10
197.111195
 20
213.728381
 30
0.0
 11
195.3968439999999
 21
215.4427319999999
 31
0.0
  0
LINE
  5
A2CE
330
A24C
100
AcDbEntity
  8
1
  6
Continuous
100
AcDbLine
 10
195.7148909999999
 20
213.710471
 30
0.0
 11
193.9826309999999
 21
215.4427319999999
 31
0.0
  0
LINE
  5
A2CF
330
A24C
100
AcDbEntity
  8
1
  6
Continuous
100
AcDbLine
 10
194.318587
 20
213.6925619999999
 30
0.0
 11
192.5684169999999
 21
215.4427319999999
 31
0.0
  0
LINE
  5
A2D0
330
A24C
100
AcDbEntity
  8
1
  6
Continuous
100
AcDbLine
 10
192.9222819999999
 20
213.6746529999999
 30
0.0
 11
191.154204
 21
215.4427319999999
 31
0.0
  0
LINE
  5
A2D1
330
A24C
100
AcDbEntity
  8
1
  6
Continuous
100
AcDbLine
 10
191.525978
 20
213.6567439999998
 30
0.0
 11
189.7399899999999
 21
215.4427319999999
 31
0.0
  0
LINE
  5
A2D2
330
A24C
100
AcDbEntity
  8
1
  6
Continuous
100
AcDbLine
 10
190.129674
 20
213.638835
 30
0.0
 11
188.3257769999999
 21
215.4427319999999
 31
0.0
  0
LINE
  5
A2D3
330
A24C
100
AcDbEntity
  8
1
  6
Continuous
100
AcDbLine
 10
187.337065
 20
213.603016
 30
0.0
 11
185.4973489999999
 21
215.4427319999999
 31
0.0
  0
LINE
  5
A2D4
330
A24C
100
AcDbEntity
  8
1
  6
Continuous
100
AcDbLine
 10
188.7333689999999
 20
213.6209249999998
 30
0.0
 11
186.9115629999998
 21
215.4427319999999
 31
0.0
  0
ARC
  5
A2D5
330
A24C
100
AcDbEntity
  8
1
  6
Continuous
100
AcDbCircle
 10
206.3846199999999
 20
161.6345409999999
 30
0.0
 40
42.887718
100
AcDbArc
 50
101.107772
 51
111.6330879999999
  0
LINE
  5
A2D6
330
A24C
100
AcDbEntity
  8
1
  6
Continuous
100
AcDbLine
 10
168.4115629999998
 20
213.913294
 30
0.0
 11
169.9409999999998
 21
215.4427319999999
 31
0.0
  0
LINE
  5
A2D7
330
A24C
100
AcDbEntity
  8
1
  6
Continuous
100
AcDbLine
 10
168.4115629999998
 20
214.1437419999999
 30
0.0
 11
169.1125729999999
 21
213.4427319999999
 31
0.0
  0
LINE
  5
A2D8
330
A24C
100
AcDbEntity
  8
1
  6
Continuous
100
AcDbLine
 10
170.526787
 20
213.4427319999999
 30
0.0
 11
168.526787
 21
215.4427319999999
 31
0.0
  0
LINE
  5
A2D9
330
A24C
100
AcDbEntity
  8
1
  6
Continuous
100
AcDbLine
 10
167.927413
 20
209.290572
 30
0.0
 11
173.7555389999999
 21
207.870785
 31
0.0
  0
LINE
  5
A2DA
330
A24C
100
AcDbEntity
  8
1
  6
Continuous
100
AcDbLine
 10
174.8403689999999
 20
213.4427319999999
 30
0.0
 11
168.4115629999998
 21
213.4427319999999
 31
0.0
  0
ARC
  5
A2DB
330
A24C
100
AcDbEntity
  8
1
  6
Continuous
100
AcDbCircle
 10
169.235737
 20
220.682771
 30
0.0
 40
2.908313999999998
100
AcDbArc
 50
246.301491
 51
270.0
  0
ARC
  5
A2DC
330
A24C
100
AcDbEntity
  8
1
  6
Continuous
100
AcDbCircle
 10
169.018127
 20
216.8673879999999
 30
0.0
 40
0.338058
100
AcDbArc
 50
123.0596909999998
 51
196.614532
  0
LINE
  5
A2DD
330
A24C
100
AcDbEntity
  8
1
  6
Continuous
100
AcDbLine
 10
168.916639
 20
216.0252009999999
 30
0.0
 11
168.694183
 21
216.770727
 31
0.0
  0
ARC
  5
A2DE
330
A24C
100
AcDbEntity
  8
1
  6
Continuous
100
AcDbCircle
 10
170.3284189999999
 20
210.8218529999998
 30
0.0
 40
2.327591999999999
100
AcDbArc
 50
126.9097499999998
 51
147.021149
  0
LINE
  5
A2DF
330
A24C
100
AcDbEntity
  8
1
  6
Continuous
100
AcDbLine
 10
169.3552139999999
 20
213.4427319999999
 30
0.0
 11
171.355214
 21
215.4427319999999
 31
0.0
  0
LINE
  5
A2E0
330
A24C
100
AcDbEntity
  8
1
  6
Continuous
100
AcDbLine
 10
170.769427
 20
213.4427319999999
 30
0.0
 11
172.769427
 21
215.4427319999999
 31
0.0
  0
LINE
  5
A2E1
330
A24C
100
AcDbEntity
  8
1
  6
Continuous
100
AcDbLine
 10
172.1836409999999
 20
213.4427319999999
 30
0.0
 11
174.1836409999999
 21
215.4427319999999
 31
0.0
  0
LINE
  5
A2E2
330
A24C
100
AcDbEntity
  8
1
  6
Continuous
100
AcDbLine
 10
173.597855
 20
213.4427319999999
 30
0.0
 11
175.597855
 21
215.4427319999999
 31
0.0
  0
LINE
  5
A2E3
330
A24C
100
AcDbEntity
  8
1
  6
Continuous
100
AcDbLine
 10
175.014299
 20
213.444962
 30
0.0
 11
177.0120679999999
 21
215.4427319999999
 31
0.0
  0
LINE
  5
A2E4
330
A24C
100
AcDbEntity
  8
1
  6
Continuous
100
AcDbLine
 10
176.4468869999998
 20
213.463337
 30
0.0
 11
178.4262819999999
 21
215.4427319999999
 31
0.0
  0
LINE
  5
A2E5
330
A24C
100
AcDbEntity
  8
1
  6
Continuous
100
AcDbLine
 10
177.879475
 20
213.481712
 30
0.0
 11
179.840495
 21
215.4427319999999
 31
0.0
  0
LINE
  5
A2E6
330
A24C
100
AcDbEntity
  8
1
  6
Continuous
100
AcDbLine
 10
179.3120629999999
 20
213.5000859999999
 30
0.0
 11
181.2547089999999
 21
215.4427319999999
 31
0.0
  0
LINE
  5
A2E7
330
A24C
100
AcDbEntity
  8
1
  6
Continuous
100
AcDbLine
 10
180.744652
 20
213.5184609999999
 30
0.0
 11
182.668922
 21
215.4427319999999
 31
0.0
  0
LINE
  5
A2E8
330
A24C
100
AcDbEntity
  8
1
  6
Continuous
100
AcDbLine
 10
182.17724
 20
213.5368349999999
 30
0.0
 11
184.0831359999999
 21
215.4427319999999
 31
0.0
  0
LINE
  5
A2E9
330
A24C
100
AcDbEntity
  8
1
  6
Continuous
100
AcDbLine
 10
171.9409999999998
 20
213.4427319999999
 30
0.0
 11
169.9409999999998
 21
215.4427319999999
 31
0.0
  0
LINE
  5
A2EA
330
A24C
100
AcDbEntity
  8
1
  6
Continuous
100
AcDbLine
 10
173.355214
 20
213.4427319999999
 30
0.0
 11
171.355214
 21
215.4427319999999
 31
0.0
  0
LINE
  5
A2EB
330
A24C
100
AcDbEntity
  8
1
  6
Continuous
100
AcDbLine
 10
174.769427
 20
213.4427319999999
 30
0.0
 11
172.769427
 21
215.4427319999999
 31
0.0
  0
LINE
  5
A2EC
330
A24C
100
AcDbEntity
  8
1
  6
Continuous
100
AcDbLine
 10
176.1666299999999
 20
213.4597419999999
 30
0.0
 11
174.1836409999999
 21
215.4427319999999
 31
0.0
  0
LINE
  5
A2ED
330
A24C
100
AcDbEntity
  8
1
  6
Continuous
100
AcDbLine
 10
177.562934
 20
213.4776519999999
 30
0.0
 11
175.597855
 21
215.4427319999999
 31
0.0
  0
LINE
  5
A2EE
330
A24C
100
AcDbEntity
  8
1
  6
Continuous
100
AcDbLine
 10
178.9592389999999
 20
213.495561
 30
0.0
 11
177.0120679999999
 21
215.4427319999999
 31
0.0
  0
LINE
  5
A2EF
330
A24C
100
AcDbEntity
  8
1
  6
Continuous
100
AcDbLine
 10
180.3555429999999
 20
213.51347
 30
0.0
 11
178.4262819999999
 21
215.4427319999999
 31
0.0
  0
LINE
  5
A2F0
330
A24C
100
AcDbEntity
  8
1
  6
Continuous
100
AcDbLine
 10
181.751848
 20
213.531379
 30
0.0
 11
179.840495
 21
215.4427319999999
 31
0.0
  0
LINE
  5
A2F1
330
A24C
100
AcDbEntity
  8
1
  6
Continuous
100
AcDbLine
 10
183.148152
 20
213.549288
 30
0.0
 11
181.2547089999999
 21
215.4427319999999
 31
0.0
  0
LINE
  5
A2F2
330
A24C
100
AcDbEntity
  8
1
  6
Continuous
100
AcDbLine
 10
184.5444559999999
 20
213.567198
 30
0.0
 11
182.668922
 21
215.4427319999999
 31
0.0
  0
ARC
  5
A2F3
330
A24C
100
AcDbEntity
  8
1
  6
Continuous
100
AcDbCircle
 10
170.29452
 20
217.788394
 30
0.0
 40
0.251083
100
AcDbArc
 50
269.0852779999999
 51
316.499305
  0
ARC
  5
A2F4
330
A24C
100
AcDbEntity
  8
1
  6
Continuous
100
AcDbCircle
 10
173.208351
 20
215.023205
 30
0.0
 40
3.765966
100
AcDbArc
 50
133.066912
 51
136.499305
  0
ARC
  5
A2F5
330
A24C
100
AcDbEntity
  8
1
  6
Continuous
100
AcDbCircle
 10
171.5576949999999
 20
212.9657009999998
 30
0.0
 40
4.993438999999998
100
AcDbArc
 50
119.0993819999999
 51
123.0596909999998
  0
ARC
  5
A2F6
330
A24C
100
AcDbEntity
  8
1
  6
Continuous
100
AcDbCircle
 10
169.952506
 20
215.8497279999999
 30
0.0
 40
1.692795999999999
100
AcDbArc
 50
89.08527799999998
 51
119.0993819999999
  0
ARC
  5
A2F7
330
A24C
100
AcDbEntity
  8
1
  6
Continuous
100
AcDbCircle
 10
169.475829
 20
216.1624069999998
 30
0.0
 40
0.719675
100
AcDbArc
 50
246.865712
 51
270.0
  0
ARC
  5
A2F8
330
A24C
100
AcDbEntity
  8
1
  6
Continuous
100
AcDbCircle
 10
169.5811379999998
 20
216.2234799999999
 30
0.0
 40
0.69345
100
AcDbArc
 50
196.614532
 51
221.656456
  0
LINE
  5
A2F9
330
A24C
100
AcDbEntity
  8
1
  6
Continuous
100
AcDbLine
 10
169.193078
 20
215.500603
 30
0.0
 11
169.0630309999999
 21
215.76257
 31
0.0
  0
LINE
  5
A2FA
330
A24C
100
AcDbEntity
  8
1
  6
Continuous
100
AcDbLine
 10
169.979531
 20
217.5423079999999
 30
0.0
 11
170.290512
 21
217.537343
 31
0.0
  0
ARC
  5
A2FB
330
A24C
100
AcDbEntity
  8
1
  6
Continuous
100
AcDbCircle
 10
172.5405709999998
 20
207.876588
 30
0.0
 40
6.011096
100
AcDbArc
 50
117.6732689999999
 51
126.9097499999998
  0
ARC
  5
A2FC
330
A24C
100
AcDbEntity
  8
1
  6
Continuous
100
AcDbCircle
 10
170.507877
 20
211.752691
 30
0.0
 40
1.634336999999999
100
AcDbArc
 50
90.73484399999999
 51
117.6732689999999
  0
LINE
  5
A2FD
330
A24C
100
AcDbEntity
  8
1
  6
Continuous
100
AcDbLine
 10
168.4115629999998
 20
215.3275079999999
 30
0.0
 11
168.526787
 21
215.4427319999999
 31
0.0
  0
LINE
  5
A2FE
330
A24C
100
AcDbEntity
  8
1
  6
Continuous
100
AcDbLine
 10
168.4115629999998
 20
213.4427319999999
 30
0.0
 11
168.4115629999998
 21
215.4427319999999
 31
0.0
  0
ARC
  5
A2FF
330
A24C
100
AcDbEntity
  8
1
  6
Continuous
100
AcDbCircle
 10
55.672147
 20
96.485271
 30
0.0
 40
165.252597
100
AcDbArc
 50
47.82842099999999
 51
48.095765
  0
LINE
  5
A300
330
A24C
100
AcDbEntity
  8
1
  6
Continuous
100
AcDbLine
 10
166.042301
 20
219.4765289999998
 30
0.0
 11
166.051432
 21
219.8432319999998
 31
0.0
  0
ARC
  5
A301
330
A24C
100
AcDbEntity
  8
1
  6
Continuous
100
AcDbCircle
 10
170.232611
 20
222.9538729999999
 30
0.0
 40
5.388568
100
AcDbArc
 50
227.8284209999998
 51
246.301491
  0
ARC
  5
A302
330
A24C
100
AcDbEntity
  8
1
  6
Continuous
100
AcDbCircle
 10
172.975412
 20
209.1042639999999
 30
0.0
 40
5.483012999999997
100
AcDbArc
 50
147.021149
 51
172.49492
  0
ARC
  5
A303
330
A24C
100
AcDbEntity
  8
1
  6
Continuous
100
AcDbCircle
 10
166.389194
 20
210.083316
 30
0.0
 40
1.222437999999999
100
AcDbArc
 50
287.453171
 51
305.696418
  0
ARC
  5
A304
330
A24C
100
AcDbEntity
  8
1
  6
Continuous
100
AcDbCircle
 10
166.477573
 20
209.9603069999998
 30
0.0
 40
1.070972
100
AcDbArc
 50
305.696418
 51
352.49492
  0
ARC
  5
A305
330
A24C
100
AcDbEntity
  8
1
  6
Continuous
100
AcDbCircle
 10
166.975899
 20
208.2172079999998
 30
0.0
 40
0.7337270000000001
100
AcDbArc
 50
107.453171
 51
129.6452929999998
  0
ARC
  5
A306
330
A24C
100
AcDbEntity
  8
1
  6
Continuous
100
AcDbCircle
 10
161.2855439999998
 20
224.613425
 30
0.0
 40
16.67032299999998
100
AcDbArc
 50
281.202822
 51
288.256048
  0
ARC
  5
A307
330
A24C
100
AcDbEntity
  8
1
  6
Continuous
100
AcDbCircle
 10
172.3109479999999
 20
168.945458
 30
0.0
 40
40.078968
100
AcDbArc
 50
101.202822
 51
112.4674759999999
  0
LINE
  5
A308
330
A24C
100
AcDbEntity
  8
1
  6
Continuous
100
AcDbLine
 10
163.934271
 20
299.7729239999999
 30
0.0
 11
155.7520189999999
 21
299.7729239999999
 31
0.0
  0
LINE
  5
A309
330
A24C
100
AcDbEntity
  8
1
  6
Continuous
100
AcDbLine
 10
39.41354
 20
204.122037
 30
0.0
 11
39.41354
 21
174.0549179999999
 31
0.0
  0
LINE
  5
A30A
330
A24C
100
AcDbEntity
  8
1
  6
Continuous
100
AcDbLine
 10
68.51354
 20
204.122037
 30
0.0
 11
68.51354
 21
174.0549179999999
 31
0.0
  0
ARC
  5
A30B
330
A24C
100
AcDbEntity
  8
1
  6
Continuous
100
AcDbCircle
 10
162.143132
 20
184.7911139999999
 30
0.0
 40
21.13979099999999
100
AcDbArc
 50
126.4802439999998
 51
140.6042949999998
  0
LINE
  5
A30C
330
A24C
100
AcDbEntity
  8
4
  6
CENTER
100
AcDbLine
 10
53.96354
 20
227.1432319999999
 30
0.0
 11
53.96354
 21
157.143232
 31
0.0
  0
ARC
  5
A30D
330
A24C
100
AcDbEntity
  8
1
  6
Continuous
100
AcDbCircle
 10
162.513401
 20
154.1017399999998
 30
0.0
 40
32.5
100
AcDbArc
 50
116.6794789999998
 51
130.975392
  0
ARC
  5
A30E
330
A24C
100
AcDbEntity
  8
1
  6
Continuous
100
AcDbCircle
 10
143.3810409999999
 20
170.026073
 30
0.0
 40
8.705842
100
AcDbArc
 50
91.125406
 51
98.080229
  0
ARC
  5
A30F
330
A24C
100
AcDbEntity
  8
1
  6
Continuous
100
AcDbCircle
 10
154.06215
 20
178.593368
 30
0.0
 40
12.86021199999999
100
AcDbArc
 50
170.1300939999998
 51
179.796886
  0
LINE
  5
A310
330
A24C
100
AcDbEntity
  8
1
  6
Continuous
100
AcDbLine
 10
142.157352
 20
178.645485
 30
0.0
 11
141.2020189999998
 21
178.638957
 31
0.0
  0
ARC
  5
A311
330
A24C
100
AcDbEntity
  8
1
  6
Continuous
100
AcDbCircle
 10
150.321761
 20
172.495902
 30
0.0
 40
11.60116099999999
100
AcDbArc
 50
88.61766600000001
 51
98.34478500000001
  0
ARC
  5
A312
330
A24C
100
AcDbEntity
  8
1
  6
Continuous
100
AcDbCircle
 10
150.482605
 20
179.1613599999998
 30
0.0
 40
4.933761999999998
100
AcDbArc
 50
64.856673
 51
88.61766600000001
  0
ARC
  5
A313
330
A24C
100
AcDbEntity
  8
1
  6
Continuous
100
AcDbCircle
 10
141.4886439999999
 20
187.2275109999999
 30
0.0
 40
7.620334999999998
100
AcDbArc
 50
312.9243139999999
 51
327.57513
  0
ARC
  5
A314
330
A24C
100
AcDbEntity
  8
1
  6
Continuous
100
AcDbCircle
 10
151.1294399999998
 20
181.103404
 30
0.0
 40
3.801118999999999
100
AcDbArc
 50
130.951923
 51
147.5751299999998
  0
ARC
  5
A315
330
A24C
100
AcDbEntity
  8
1
  6
Continuous
100
AcDbCircle
 10
112.634706
 20
218.2516339999998
 30
0.0
 40
49.988318
100
AcDbArc
 50
308.5586249999999
 51
312.9243139999999
  0
ARC
  5
A316
330
A24C
100
AcDbEntity
  8
1
  6
Continuous
100
AcDbCircle
 10
156.085691
 20
163.740838
 30
0.0
 40
19.721187
100
AcDbArc
 50
128.558625
 51
129.4726599999999
  0
ARC
  5
A317
330
A24C
100
AcDbEntity
  8
1
  6
Continuous
100
AcDbCircle
 10
141.9976669999998
 20
180.847602
 30
0.0
 40
2.439900999999998
100
AcDbArc
 50
299.7950589999998
 51
309.47266
  0
ARC
  5
A318
330
A24C
100
AcDbEntity
  8
1
  6
Continuous
100
AcDbCircle
 10
114.002307
 20
185.56325
 30
0.0
 40
27.801444
100
AcDbArc
 50
350.130094
 51
1.162595999999998
  0
ARC
  5
A319
330
A24C
100
AcDbEntity
  8
1
  6
Continuous
100
AcDbCircle
 10
159.999084
 20
186.4967039999999
 30
0.0
 40
18.204804
100
AcDbArc
 50
164.511908
 51
181.162596
  0
ARC
  5
A31A
330
A24C
100
AcDbEntity
  8
1
  6
Continuous
100
AcDbCircle
 10
166.6957619999998
 20
184.64105
 30
0.0
 40
25.153829
100
AcDbArc
 50
157.042649
 51
164.511908
  0
ARC
  5
A31B
330
A24C
100
AcDbEntity
  8
1
  6
Continuous
100
AcDbCircle
 10
157.6712399999999
 20
188.463807
 30
0.0
 40
15.35304
100
AcDbArc
 50
140.6042949999998
 51
157.042649
  0
ARC
  5
A31C
330
A24C
100
AcDbEntity
  8
1
  6
Continuous
100
AcDbCircle
 10
53.96354
 20
178.143232
 30
0.0
 40
16.0
100
AcDbArc
 50
241.061472
 51
298.9385279999999
  0
ARC
  5
A31D
330
A24C
100
AcDbEntity
  8
1
  6
Continuous
100
AcDbCircle
 10
53.96354
 20
196.087208
 30
0.0
 40
17.44825099999999
100
AcDbArc
 50
223.0095509999999
 51
316.990449
  0
LINE
  5
A31E
330
A24C
100
AcDbEntity
  8
4
  6
CENTER
100
AcDbLine
 10
35.541616
 20
182.143232
 30
0.0
 11
71.29713999999998
 21
182.143232
 31
0.0
  0
LINE
  5
A31F
330
A24C
100
AcDbEntity
  8
1
  6
Continuous
100
AcDbLine
 10
38.48022499999999
 20
186.393232
 30
0.0
 11
38.48022499999999
 21
177.893232
 31
0.0
  0
ARC
  5
A320
330
A24C
100
AcDbEntity
  8
1
  6
Continuous
100
AcDbCircle
 10
46.41353999999998
 20
182.143232
 30
0.0
 40
9.0
100
AcDbArc
 50
151.821357
 51
208.178643
  0
LINE
  5
A321
330
A24C
100
AcDbEntity
  8
1
  6
Continuous
100
AcDbLine
 10
61.96354
 20
164.578572
 30
0.0
 11
61.96354
 21
180.5810329999999
 31
0.0
  0
LINE
  5
A322
330
A24C
100
AcDbEntity
  8
1
  6
Continuous
100
AcDbLine
 10
65.96354000000001
 20
183.4206589999998
 30
0.0
 11
65.96354000000001
 21
177.059563
 31
0.0
  0
LINE
  5
A323
330
A24C
100
AcDbEntity
  8
1
  6
Continuous
100
AcDbLine
 10
66.51354000000001
 20
183.479621
 30
0.0
 11
66.51354000000001
 21
174.0549179999999
 31
0.0
  0
ARC
  5
A324
330
A24C
100
AcDbEntity
  8
1
  6
Continuous
100
AcDbCircle
 10
61.46354
 20
164.578572
 30
0.0
 40
0.5
100
AcDbArc
 50
298.9385279999999
 51
0.0
  0
LINE
  5
A325
330
A24C
100
AcDbEntity
  8
1
  6
Continuous
100
AcDbLine
 10
38.48022499999999
 20
177.893232
 30
0.0
 11
39.41354
 21
177.893232
 31
0.0
  0
ARC
  5
A326
330
A24C
100
AcDbEntity
  8
1
  6
Continuous
100
AcDbCircle
 10
64.96354000000001
 20
177.059563
 30
0.0
 40
1.0
100
AcDbArc
 50
275.0
 51
0.0
  0
LINE
  5
A327
330
A24C
100
AcDbEntity
  8
1
  6
Continuous
100
AcDbLine
 10
65.05069499999999
 20
176.0633679999999
 30
0.0
 11
61.96354
 21
175.793277
 31
0.0
  0
LINE
  5
A328
330
A24C
100
AcDbEntity
  8
1
  6
Continuous
100
AcDbLine
 10
68.51354
 20
174.0549179999999
 30
0.0
 11
66.51354000000001
 21
174.0549179999999
 31
0.0
  0
LINE
  5
A329
330
A24C
100
AcDbEntity
  8
1
  6
Continuous
100
AcDbLine
 10
65.96354000000001
 20
179.143232
 30
0.0
 11
66.51354000000001
 21
179.143232
 31
0.0
  0
LINE
  5
A32A
330
A24C
100
AcDbEntity
  8
1
  6
Continuous
100
AcDbLine
 10
38.48022499999999
 20
186.393232
 30
0.0
 11
39.41354
 21
186.393232
 31
0.0
  0
ARC
  5
A32B
330
A24C
100
AcDbEntity
  8
1
  6
Continuous
100
AcDbCircle
 10
65.478909
 20
183.479621
 30
0.0
 40
1.034630999999997
100
AcDbArc
 50
0.0
 51
22.870131
  0
ARC
  5
A32C
330
A24C
100
AcDbEntity
  8
1
  6
Continuous
100
AcDbCircle
 10
67.47894000000001
 20
183.479681
 30
0.0
 40
1.034599999999998
100
AcDbArc
 50
0.0
 51
136.990449
  0
LINE
  5
A32D
330
A24C
100
AcDbEntity
  8
1
  6
Continuous
100
AcDbLine
 10
68.51354
 20
178.910013
 30
0.0
 11
66.51354000000001
 21
178.910013
 31
0.0
  0
LINE
  5
A32E
330
A24C
100
AcDbEntity
  8
1
  6
Continuous
100
AcDbLine
 10
68.862109
 20
186.0432319999999
 30
0.0
 11
68.862109
 21
178.243232
 31
0.0
  0
ARC
  5
A32F
330
A24C
100
AcDbEntity
  8
1
  6
Continuous
100
AcDbCircle
 10
57.51354
 20
182.143232
 30
0.0
 40
12.0
100
AcDbArc
 50
341.034425
 51
18.965575
  0
LINE
  5
A330
330
A24C
100
AcDbEntity
  8
1
  6
Continuous
100
AcDbLine
 10
41.96354
 20
183.4206589999998
 30
0.0
 11
41.96354
 21
177.059563
 31
0.0
  0
LINE
  5
A331
330
A24C
100
AcDbEntity
  8
1
  6
Continuous
100
AcDbLine
 10
45.96354
 20
164.578572
 30
0.0
 11
45.96354
 21
180.5810329999999
 31
0.0
  0
LINE
  5
A332
330
A24C
100
AcDbEntity
  8
1
  6
Continuous
100
AcDbLine
 10
41.41353999999998
 20
183.479621
 30
0.0
 11
41.41353999999998
 21
174.0549179999999
 31
0.0
  0
LINE
  5
A333
330
A24C
100
AcDbEntity
  8
1
  6
Continuous
100
AcDbLine
 10
41.41353999999998
 20
174.0549179999999
 30
0.0
 11
39.41354
 21
174.0549179999999
 31
0.0
  0
ARC
  5
A334
330
A24C
100
AcDbEntity
  8
1
  6
Continuous
100
AcDbCircle
 10
46.46354
 20
164.578572
 30
0.0
 40
0.5
100
AcDbArc
 50
180.0
 51
241.061472
  0
ARC
  5
A335
330
A24C
100
AcDbEntity
  8
1
  6
Continuous
100
AcDbCircle
 10
42.96354
 20
177.059563
 30
0.0
 40
1.0
100
AcDbArc
 50
180.0
 51
265.0
  0
LINE
  5
A336
330
A24C
100
AcDbEntity
  8
1
  6
Continuous
100
AcDbLine
 10
42.876384
 20
176.0633679999999
 30
0.0
 11
45.96354
 21
175.793277
 31
0.0
  0
LINE
  5
A337
330
A24C
100
AcDbEntity
  8
1
  6
Continuous
100
AcDbLine
 10
68.51354
 20
178.243232
 30
0.0
 11
68.862109
 21
178.243232
 31
0.0
  0
ARC
  5
A338
330
A24C
100
AcDbEntity
  8
1
  6
Continuous
100
AcDbCircle
 10
40.44814
 20
183.479681
 30
0.0
 40
1.034599999999998
100
AcDbArc
 50
43.009551
 51
180.0
  0
LINE
  5
A339
330
A24C
100
AcDbEntity
  8
1
  6
Continuous
100
AcDbLine
 10
41.41353999999998
 20
178.910013
 30
0.0
 11
39.41354
 21
178.910013
 31
0.0
  0
LINE
  5
A33A
330
A24C
100
AcDbEntity
  8
1
  6
Continuous
100
AcDbLine
 10
41.96354
 20
179.143232
 30
0.0
 11
41.41353999999998
 21
179.143232
 31
0.0
  0
ARC
  5
A33B
330
A24C
100
AcDbEntity
  8
1
  6
Continuous
100
AcDbCircle
 10
42.44817
 20
183.479621
 30
0.0
 40
1.034630999999997
100
AcDbArc
 50
157.1298689999998
 51
180.0
  0
LINE
  5
A33C
330
A24C
100
AcDbEntity
  8
1
  6
Continuous
100
AcDbLine
 10
68.51354
 20
186.0432319999999
 30
0.0
 11
68.862109
 21
186.0432319999999
 31
0.0
  0
LINE
  5
A33D
330
A24C
100
AcDbEntity
  8
1
  6
Continuous
100
AcDbLine
 10
56.504927
 20
213.8068779999999
 30
0.0
 11
58.20618
 21
215.4427319999999
 31
0.0
  0
LINE
  5
A33E
330
A24C
100
AcDbEntity
  8
1
  6
Continuous
100
AcDbLine
 10
58.49321999999999
 20
213.8068779999999
 30
0.0
 11
56.79196700000001
 21
215.4427319999999
 31
0.0
  0
LINE
  5
A33F
330
A24C
100
AcDbEntity
  8
1
  6
Continuous
100
AcDbLine
 10
57.07900699999999
 20
213.8068779999999
 30
0.0
 11
55.37775299999999
 21
215.4427319999999
 31
0.0
  0
ARC
  5
A340
330
A24C
100
AcDbEntity
  8
1
  6
Continuous
100
AcDbCircle
 10
53.96354
 20
340.3705799999999
 30
0.0
 40
129.8679699999999
100
AcDbArc
 50
264.63571
 51
275.36429
  0
LINE
  5
A341
330
A24C
100
AcDbEntity
  8
1
  6
Continuous
100
AcDbLine
 10
35.76194
 20
217.0063789999999
 30
0.0
 11
72.16513899999998
 21
217.0063789999999
 31
0.0
  0
LINE
  5
A342
330
A24C
100
AcDbEntity
  8
1
  6
Continuous
100
AcDbLine
 10
74.832801
 20
219.4765289999998
 30
0.0
 11
33.094278
 21
219.4765289999998
 31
0.0
  0
LINE
  5
A343
330
A24C
100
AcDbEntity
  8
1
  6
Continuous
100
AcDbLine
 10
70.584591
 20
217.537343
 30
0.0
 11
37.342488
 21
217.537343
 31
0.0
  0
LINE
  5
A344
330
A24C
100
AcDbEntity
  8
1
  6
Continuous
100
AcDbLine
 10
71.63936600000003
 20
217.7744569999999
 30
0.0
 11
36.287714
 21
217.7744569999999
 31
0.0
  0
LINE
  5
A345
330
A24C
100
AcDbEntity
  8
1
  6
Continuous
100
AcDbLine
 10
72.46354000000002
 20
215.4427319999999
 30
0.0
 11
35.46354
 21
215.4427319999999
 31
0.0
  0
ARC
  5
A346
330
A24C
100
AcDbEntity
  8
1
  6
Continuous
100
AcDbCircle
 10
53.96354
 20
168.988902
 30
0.0
 40
40.152868
100
AcDbArc
 50
69.594165
 51
110.405835
  0
LINE
  5
A347
330
A24C
100
AcDbEntity
  8
1
  6
Continuous
100
AcDbLine
 10
72.46354000000002
 20
213.806925
 30
0.0
 11
35.46354
 21
213.806925
 31
0.0
  0
ARC
  5
A348
330
A24C
100
AcDbEntity
  8
1
  6
Continuous
100
AcDbCircle
 10
70.642492
 20
222.9538729999999
 30
0.0
 40
5.388568
100
AcDbArc
 50
293.6985089999998
 51
312.171579
  0
ARC
  5
A349
330
A24C
100
AcDbEntity
  8
1
  6
Continuous
100
AcDbCircle
 10
64.749503
 20
209.5048379999998
 30
0.0
 40
8.333002
100
AcDbArc
 50
356.1726520000001
 51
13.71617999999999
  0
ARC
  5
A34A
330
A24C
100
AcDbEntity
  8
1
  6
Continuous
100
AcDbCircle
 10
185.202956
 20
96.485271
 30
0.0
 40
165.252597
100
AcDbArc
 50
131.9042349999998
 51
132.171579
  0
LINE
  5
A34B
330
A24C
100
AcDbEntity
  8
1
  6
Continuous
100
AcDbLine
 10
74.832801
 20
219.4765289999998
 30
0.0
 11
74.82367099999997
 21
219.8432319999998
 31
0.0
  0
ARC
  5
A34C
330
A24C
100
AcDbEntity
  8
1
  6
Continuous
100
AcDbCircle
 10
46.83205499999998
 20
204.4007919999998
 30
0.0
 40
26.481485
100
AcDbArc
 50
0.0
 51
6.255016
  0
ARC
  5
A34D
330
A24C
100
AcDbEntity
  8
1
  6
Continuous
100
AcDbCircle
 10
95.547169
 20
210.2414669999999
 30
0.0
 40
22.58547899999999
100
AcDbArc
 50
185.949101
 51
187.51898
  0
ARC
  5
A34E
330
A24C
100
AcDbEntity
  8
1
  6
Continuous
100
AcDbCircle
 10
79.200686
 20
208.5380629999999
 30
0.0
 40
6.150483
100
AcDbArc
 50
176.172652
 51
185.949101
  0
LINE
  5
A34F
330
A24C
100
AcDbEntity
  8
1
  6
Continuous
100
AcDbLine
 10
72.06127600000002
 20
213.8068779999999
 30
0.0
 11
72.46354000000002
 21
214.2091419999999
 31
0.0
  0
LINE
  5
A350
330
A24C
100
AcDbEntity
  8
1
  6
Continuous
100
AcDbLine
 10
70.64706200000002
 20
213.8068779999999
 30
0.0
 11
72.34831599999998
 21
215.4427319999999
 31
0.0
  0
LINE
  5
A351
330
A24C
100
AcDbEntity
  8
1
  6
Continuous
100
AcDbLine
 10
69.232849
 20
213.8068779999999
 30
0.0
 11
70.934102
 21
215.4427319999999
 31
0.0
  0
LINE
  5
A352
330
A24C
100
AcDbEntity
  8
1
  6
Continuous
100
AcDbLine
 10
67.818635
 20
213.8068779999999
 30
0.0
 11
69.519889
 21
215.4427319999999
 31
0.0
  0
LINE
  5
A353
330
A24C
100
AcDbEntity
  8
1
  6
Continuous
100
AcDbLine
 10
66.40442199999999
 20
213.8068779999999
 30
0.0
 11
68.10567500000001
 21
215.4427319999999
 31
0.0
  0
LINE
  5
A354
330
A24C
100
AcDbEntity
  8
1
  6
Continuous
100
AcDbLine
 10
64.990208
 20
213.8068779999999
 30
0.0
 11
66.691462
 21
215.4427319999999
 31
0.0
  0
LINE
  5
A355
330
A24C
100
AcDbEntity
  8
1
  6
Continuous
100
AcDbLine
 10
63.57599499999999
 20
213.8068779999999
 30
0.0
 11
65.277248
 21
215.4427319999999
 31
0.0
  0
LINE
  5
A356
330
A24C
100
AcDbEntity
  8
1
  6
Continuous
100
AcDbLine
 10
62.161781
 20
213.8068779999999
 30
0.0
 11
63.863035
 21
215.4427319999999
 31
0.0
  0
LINE
  5
A357
330
A24C
100
AcDbEntity
  8
1
  6
Continuous
100
AcDbLine
 10
60.747567
 20
213.8068779999999
 30
0.0
 11
62.44882099999998
 21
215.4427319999999
 31
0.0
  0
LINE
  5
A358
330
A24C
100
AcDbEntity
  8
1
  6
Continuous
100
AcDbLine
 10
59.333354
 20
213.8068779999999
 30
0.0
 11
61.03460699999999
 21
215.4427319999999
 31
0.0
  0
LINE
  5
A359
330
A24C
100
AcDbEntity
  8
1
  6
Continuous
100
AcDbLine
 10
57.91914000000002
 20
213.8068779999999
 30
0.0
 11
59.620394
 21
215.4427319999999
 31
0.0
  0
LINE
  5
A35A
330
A24C
100
AcDbEntity
  8
1
  6
Continuous
100
AcDbLine
 10
72.46354000000002
 20
215.3275079999999
 30
0.0
 11
72.34831599999998
 21
215.4427319999999
 31
0.0
  0
LINE
  5
A35B
330
A24C
100
AcDbEntity
  8
1
  6
Continuous
100
AcDbLine
 10
72.46354000000002
 20
213.978694
 30
0.0
 11
70.934102
 21
215.4427319999999
 31
0.0
  0
LINE
  5
A35C
330
A24C
100
AcDbEntity
  8
1
  6
Continuous
100
AcDbLine
 10
71.221142
 20
213.8068779999999
 30
0.0
 11
69.519889
 21
215.4427319999999
 31
0.0
  0
LINE
  5
A35D
330
A24C
100
AcDbEntity
  8
1
  6
Continuous
100
AcDbLine
 10
69.806929
 20
213.8068779999999
 30
0.0
 11
68.10567500000001
 21
215.4427319999999
 31
0.0
  0
LINE
  5
A35E
330
A24C
100
AcDbEntity
  8
1
  6
Continuous
100
AcDbLine
 10
68.39271499999999
 20
213.8068779999999
 30
0.0
 11
66.691462
 21
215.4427319999999
 31
0.0
  0
LINE
  5
A35F
330
A24C
100
AcDbEntity
  8
1
  6
Continuous
100
AcDbLine
 10
66.97850200000001
 20
213.8068779999999
 30
0.0
 11
65.277248
 21
215.4427319999999
 31
0.0
  0
LINE
  5
A360
330
A24C
100
AcDbEntity
  8
1
  6
Continuous
100
AcDbLine
 10
65.564288
 20
213.8068779999999
 30
0.0
 11
63.863035
 21
215.4427319999999
 31
0.0
  0
LINE
  5
A361
330
A24C
100
AcDbEntity
  8
1
  6
Continuous
100
AcDbLine
 10
64.150074
 20
213.8068779999999
 30
0.0
 11
62.44882099999998
 21
215.4427319999999
 31
0.0
  0
LINE
  5
A362
330
A24C
100
AcDbEntity
  8
1
  6
Continuous
100
AcDbLine
 10
62.735861
 20
213.8068779999999
 30
0.0
 11
61.03460699999999
 21
215.4427319999999
 31
0.0
  0
LINE
  5
A363
330
A24C
100
AcDbEntity
  8
1
  6
Continuous
100
AcDbLine
 10
61.321647
 20
213.8068779999999
 30
0.0
 11
59.620394
 21
215.4427319999999
 31
0.0
  0
LINE
  5
A364
330
A24C
100
AcDbEntity
  8
1
  6
Continuous
100
AcDbLine
 10
59.90743399999999
 20
213.8068779999999
 30
0.0
 11
58.20618
 21
215.4427319999999
 31
0.0
  0
ARC
  5
A365
330
A24C
100
AcDbEntity
  8
1
  6
Continuous
100
AcDbCircle
 10
66.26354
 20
209.378821
 30
0.0
 40
1.7
100
AcDbArc
 50
0.0
 51
95.36429
  0
LINE
  5
A366
330
A24C
100
AcDbEntity
  8
1
  6
Continuous
100
AcDbLine
 10
67.96354
 20
206.6220369999999
 30
0.0
 11
67.96354
 21
209.378821
 31
0.0
  0
ARC
  5
A367
330
A24C
100
AcDbEntity
  8
1
  6
Continuous
100
AcDbCircle
 10
71.63936600000003
 20
220.682771
 30
0.0
 40
2.908313999999998
100
AcDbArc
 50
270.0
 51
293.6985089999998
  0
ARC
  5
A368
330
A24C
100
AcDbEntity
  8
1
  6
Continuous
100
AcDbCircle
 10
70.58058299999998
 20
217.788394
 30
0.0
 40
0.251083
100
AcDbArc
 50
223.500695
 51
270.9147219999999
  0
ARC
  5
A369
330
A24C
100
AcDbEntity
  8
1
  6
Continuous
100
AcDbCircle
 10
67.666751
 20
215.023205
 30
0.0
 40
3.765966
100
AcDbArc
 50
43.500695
 51
46.933087
  0
ARC
  5
A36A
330
A24C
100
AcDbEntity
  8
1
  6
Continuous
100
AcDbCircle
 10
71.85697600000001
 20
216.8673879999999
 30
0.0
 40
0.338058
100
AcDbArc
 50
343.385468
 51
56.940309
  0
ARC
  5
A36B
330
A24C
100
AcDbEntity
  8
1
  6
Continuous
100
AcDbCircle
 10
69.317408
 20
212.9657009999998
 30
0.0
 40
4.993438999999998
100
AcDbArc
 50
56.940309
 51
60.900618
  0
ARC
  5
A36C
330
A24C
100
AcDbEntity
  8
1
  6
Continuous
100
AcDbCircle
 10
70.922596
 20
215.8497279999999
 30
0.0
 40
1.692795999999999
100
AcDbArc
 50
60.900618
 51
90.914722
  0
ARC
  5
A36D
330
A24C
100
AcDbEntity
  8
1
  6
Continuous
100
AcDbCircle
 10
71.39927400000002
 20
216.1624069999998
 30
0.0
 40
0.719675
100
AcDbArc
 50
270.0
 51
293.1342879999999
  0
ARC
  5
A36E
330
A24C
100
AcDbEntity
  8
1
  6
Continuous
100
AcDbCircle
 10
71.293964
 20
216.2234799999999
 30
0.0
 40
0.69345
100
AcDbArc
 50
318.343544
 51
343.385468
  0
LINE
  5
A36F
330
A24C
100
AcDbEntity
  8
1
  6
Continuous
100
AcDbLine
 10
71.68202499999998
 20
215.500603
 30
0.0
 11
71.812071
 21
215.76257
 31
0.0
  0
LINE
  5
A370
330
A24C
100
AcDbEntity
  8
1
  6
Continuous
100
AcDbLine
 10
71.95846299999998
 20
216.0252009999999
 30
0.0
 11
72.18092
 21
216.770727
 31
0.0
  0
LINE
  5
A371
330
A24C
100
AcDbEntity
  8
1
  6
Continuous
100
AcDbLine
 10
70.895572
 20
217.5423079999999
 30
0.0
 11
70.584591
 21
217.537343
 31
0.0
  0
LINE
  5
A372
330
A24C
100
AcDbEntity
  8
1
  6
Continuous
100
AcDbLine
 10
72.46354000000002
 20
213.806925
 30
0.0
 11
72.46354000000002
 21
215.4427319999999
 31
0.0
  0
ARC
  5
A373
330
A24C
100
AcDbEntity
  8
1
  6
Continuous
100
AcDbCircle
 10
62.55672099999999
 20
204.122037
 30
0.0
 40
5.956818
100
AcDbArc
 50
0.0
 51
24.814837
  0
ARC
  5
A374
330
A24C
100
AcDbEntity
  8
1
  6
Continuous
100
AcDbCircle
 10
69.42327
 20
210.5555269999999
 30
0.0
 40
3.544468999999998
100
AcDbArc
 50
15.130477
 51
37.44740999999999
  0
ARC
  5
A375
330
A24C
100
AcDbEntity
  8
1
  6
Continuous
100
AcDbCircle
 10
69.14365100000001
 20
210.341375
 30
0.0
 40
3.896673999999998
100
AcDbArc
 50
37.44740999999999
 51
49.48196099999999
  0
ARC
  5
A376
330
A24C
100
AcDbEntity
  8
1
  6
Continuous
100
AcDbCircle
 10
70.311695
 20
211.7081069999999
 30
0.0
 40
2.098818999999997
100
AcDbArc
 50
49.48196099999999
 51
90.0
  0
LINE
  5
A377
330
A24C
100
AcDbEntity
  8
1
  6
Continuous
100
AcDbLine
 10
39.53436399999999
 20
213.8068779999999
 30
0.0
 11
41.235618
 21
215.4427319999999
 31
0.0
  0
LINE
  5
A378
330
A24C
100
AcDbEntity
  8
1
  6
Continuous
100
AcDbLine
 10
40.94857799999998
 20
213.8068779999999
 30
0.0
 11
42.649831
 21
215.4427319999999
 31
0.0
  0
LINE
  5
A379
330
A24C
100
AcDbEntity
  8
1
  6
Continuous
100
AcDbLine
 10
41.522657
 20
213.8068779999999
 30
0.0
 11
39.821404
 21
215.4427319999999
 31
0.0
  0
ARC
  5
A37A
330
A24C
100
AcDbEntity
  8
1
  6
Continuous
100
AcDbCircle
 10
41.66354000000001
 20
209.378821
 30
0.0
 40
1.7
100
AcDbArc
 50
84.63570999999998
 51
180.0
  0
LINE
  5
A37B
330
A24C
100
AcDbEntity
  8
1
  6
Continuous
100
AcDbLine
 10
55.090713
 20
213.8068779999999
 30
0.0
 11
56.79196700000001
 21
215.4427319999999
 31
0.0
  0
LINE
  5
A37C
330
A24C
100
AcDbEntity
  8
1
  6
Continuous
100
AcDbLine
 10
53.6765
 20
213.8068779999999
 30
0.0
 11
55.37775299999999
 21
215.4427319999999
 31
0.0
  0
LINE
  5
A37D
330
A24C
100
AcDbEntity
  8
1
  6
Continuous
100
AcDbLine
 10
42.36279099999999
 20
213.8068779999999
 30
0.0
 11
44.06404499999999
 21
215.4427319999999
 31
0.0
  0
LINE
  5
A37E
330
A24C
100
AcDbEntity
  8
1
  6
Continuous
100
AcDbLine
 10
43.77700499999998
 20
213.8068779999999
 30
0.0
 11
45.478258
 21
215.4427319999999
 31
0.0
  0
LINE
  5
A37F
330
A24C
100
AcDbEntity
  8
1
  6
Continuous
100
AcDbLine
 10
45.19121799999999
 20
213.8068779999999
 30
0.0
 11
46.89247199999999
 21
215.4427319999999
 31
0.0
  0
LINE
  5
A380
330
A24C
100
AcDbEntity
  8
1
  6
Continuous
100
AcDbLine
 10
46.605432
 20
213.8068779999999
 30
0.0
 11
48.30668499999998
 21
215.4427319999999
 31
0.0
  0
LINE
  5
A381
330
A24C
100
AcDbEntity
  8
1
  6
Continuous
100
AcDbLine
 10
48.019645
 20
213.8068779999999
 30
0.0
 11
49.720899
 21
215.4427319999999
 31
0.0
  0
LINE
  5
A382
330
A24C
100
AcDbEntity
  8
1
  6
Continuous
100
AcDbLine
 10
49.43385899999999
 20
213.8068779999999
 30
0.0
 11
51.135112
 21
215.4427319999999
 31
0.0
  0
LINE
  5
A383
330
A24C
100
AcDbEntity
  8
1
  6
Continuous
100
AcDbLine
 10
50.848073
 20
213.8068779999999
 30
0.0
 11
52.549326
 21
215.4427319999999
 31
0.0
  0
LINE
  5
A384
330
A24C
100
AcDbEntity
  8
1
  6
Continuous
100
AcDbLine
 10
52.26228599999998
 20
213.8068779999999
 30
0.0
 11
53.96354
 21
215.4427319999999
 31
0.0
  0
LINE
  5
A385
330
A24C
100
AcDbEntity
  8
1
  6
Continuous
100
AcDbLine
 10
42.93687099999998
 20
213.8068779999999
 30
0.0
 11
41.235618
 21
215.4427319999999
 31
0.0
  0
LINE
  5
A386
330
A24C
100
AcDbEntity
  8
1
  6
Continuous
100
AcDbLine
 10
44.351085
 20
213.8068779999999
 30
0.0
 11
42.649831
 21
215.4427319999999
 31
0.0
  0
LINE
  5
A387
330
A24C
100
AcDbEntity
  8
1
  6
Continuous
100
AcDbLine
 10
45.765298
 20
213.8068779999999
 30
0.0
 11
44.06404499999999
 21
215.4427319999999
 31
0.0
  0
LINE
  5
A388
330
A24C
100
AcDbEntity
  8
1
  6
Continuous
100
AcDbLine
 10
47.179512
 20
213.8068779999999
 30
0.0
 11
45.478258
 21
215.4427319999999
 31
0.0
  0
LINE
  5
A389
330
A24C
100
AcDbEntity
  8
1
  6
Continuous
100
AcDbLine
 10
48.593725
 20
213.8068779999999
 30
0.0
 11
46.89247199999999
 21
215.4427319999999
 31
0.0
  0
LINE
  5
A38A
330
A24C
100
AcDbEntity
  8
1
  6
Continuous
100
AcDbLine
 10
50.007939
 20
213.8068779999999
 30
0.0
 11
48.30668499999998
 21
215.4427319999999
 31
0.0
  0
LINE
  5
A38B
330
A24C
100
AcDbEntity
  8
1
  6
Continuous
100
AcDbLine
 10
51.42215199999998
 20
213.8068779999999
 30
0.0
 11
49.720899
 21
215.4427319999999
 31
0.0
  0
LINE
  5
A38C
330
A24C
100
AcDbEntity
  8
1
  6
Continuous
100
AcDbLine
 10
52.83636600000001
 20
213.8068779999999
 30
0.0
 11
51.135112
 21
215.4427319999999
 31
0.0
  0
LINE
  5
A38D
330
A24C
100
AcDbEntity
  8
1
  6
Continuous
100
AcDbLine
 10
54.250579
 20
213.8068779999999
 30
0.0
 11
52.549326
 21
215.4427319999999
 31
0.0
  0
LINE
  5
A38E
330
A24C
100
AcDbEntity
  8
1
  6
Continuous
100
AcDbLine
 10
55.66479300000001
 20
213.8068779999999
 30
0.0
 11
53.96354
 21
215.4427319999999
 31
0.0
  0
LINE
  5
A38F
330
A24C
100
AcDbEntity
  8
1
  6
Continuous
100
AcDbLine
 10
35.46354
 20
215.3275079999999
 30
0.0
 11
35.578763
 21
215.4427319999999
 31
0.0
  0
LINE
  5
A390
330
A24C
100
AcDbEntity
  8
1
  6
Continuous
100
AcDbLine
 10
35.46354
 20
213.978694
 30
0.0
 11
36.99297700000001
 21
215.4427319999999
 31
0.0
  0
LINE
  5
A391
330
A24C
100
AcDbEntity
  8
1
  6
Continuous
100
AcDbLine
 10
36.70593699999999
 20
213.8068779999999
 30
0.0
 11
38.40718999999999
 21
215.4427319999999
 31
0.0
  0
LINE
  5
A392
330
A24C
100
AcDbEntity
  8
1
  6
Continuous
100
AcDbLine
 10
38.12015
 20
213.8068779999999
 30
0.0
 11
39.821404
 21
215.4427319999999
 31
0.0
  0
LINE
  5
A393
330
A24C
100
AcDbEntity
  8
1
  6
Continuous
100
AcDbLine
 10
35.46354
 20
214.2091419999999
 30
0.0
 11
35.865803
 21
213.8068779999999
 31
0.0
  0
LINE
  5
A394
330
A24C
100
AcDbEntity
  8
1
  6
Continuous
100
AcDbLine
 10
37.280017
 20
213.8068779999999
 30
0.0
 11
35.578763
 21
215.4427319999999
 31
0.0
  0
LINE
  5
A395
330
A24C
100
AcDbEntity
  8
1
  6
Continuous
100
AcDbLine
 10
38.69422999999999
 20
213.8068779999999
 30
0.0
 11
36.99297700000001
 21
215.4427319999999
 31
0.0
  0
LINE
  5
A396
330
A24C
100
AcDbEntity
  8
1
  6
Continuous
100
AcDbLine
 10
40.10844399999998
 20
213.8068779999999
 30
0.0
 11
38.40718999999999
 21
215.4427319999999
 31
0.0
  0
LINE
  5
A397
330
A24C
100
AcDbEntity
  8
1
  6
Continuous
100
AcDbLine
 10
39.96354
 20
206.6220369999999
 30
0.0
 11
39.96354
 21
209.378821
 31
0.0
  0
LINE
  5
A398
330
A24C
100
AcDbEntity
  8
1
  6
Continuous
100
AcDbLine
 10
35.46354
 20
213.806925
 30
0.0
 11
35.46354
 21
215.4427319999999
 31
0.0
  0
ARC
  5
A399
330
A24C
100
AcDbEntity
  8
1
  6
Continuous
100
AcDbCircle
 10
-77.27587699999998
 20
96.485271
 30
0.0
 40
165.252597
100
AcDbArc
 50
47.82842099999999
 51
48.095765
  0
LINE
  5
A39A
330
A24C
100
AcDbEntity
  8
1
  6
Continuous
100
AcDbLine
 10
33.094278
 20
219.4765289999998
 30
0.0
 11
33.103408
 21
219.8432319999998
 31
0.0
  0
ARC
  5
A39B
330
A24C
100
AcDbEntity
  8
1
  6
Continuous
100
AcDbCircle
 10
37.284587
 20
222.9538729999999
 30
0.0
 40
5.388568
100
AcDbArc
 50
227.8284209999998
 51
246.301491
  0
ARC
  5
A39C
330
A24C
100
AcDbEntity
  8
1
  6
Continuous
100
AcDbCircle
 10
36.287714
 20
220.682771
 30
0.0
 40
2.908313999999998
100
AcDbArc
 50
246.301491
 51
270.0
  0
ARC
  5
A39D
330
A24C
100
AcDbEntity
  8
1
  6
Continuous
100
AcDbCircle
 10
37.346497
 20
217.788394
 30
0.0
 40
0.251083
100
AcDbArc
 50
269.0852779999999
 51
316.499305
  0
ARC
  5
A39E
330
A24C
100
AcDbEntity
  8
1
  6
Continuous
100
AcDbCircle
 10
40.260328
 20
215.023205
 30
0.0
 40
3.765966
100
AcDbArc
 50
133.066912
 51
136.499305
  0
ARC
  5
A39F
330
A24C
100
AcDbEntity
  8
1
  6
Continuous
100
AcDbCircle
 10
36.07010300000001
 20
216.8673879999999
 30
0.0
 40
0.338058
100
AcDbArc
 50
123.0596909999998
 51
196.614532
  0
ARC
  5
A3A0
330
A24C
100
AcDbEntity
  8
1
  6
Continuous
100
AcDbCircle
 10
38.60967199999999
 20
212.9657009999998
 30
0.0
 40
4.993438999999998
100
AcDbArc
 50
119.0993819999999
 51
123.0596909999998
  0
ARC
  5
A3A1
330
A24C
100
AcDbEntity
  8
1
  6
Continuous
100
AcDbCircle
 10
37.004483
 20
215.8497279999999
 30
0.0
 40
1.692795999999999
100
AcDbArc
 50
89.08527799999998
 51
119.0993819999999
  0
ARC
  5
A3A2
330
A24C
100
AcDbEntity
  8
1
  6
Continuous
100
AcDbCircle
 10
36.52780599999999
 20
216.1624069999998
 30
0.0
 40
0.719675
100
AcDbArc
 50
246.865712
 51
270.0
  0
ARC
  5
A3A3
330
A24C
100
AcDbEntity
  8
1
  6
Continuous
100
AcDbCircle
 10
36.63311499999999
 20
216.2234799999999
 30
0.0
 40
0.69345
100
AcDbArc
 50
196.614532
 51
221.656456
  0
LINE
  5
A3A4
330
A24C
100
AcDbEntity
  8
1
  6
Continuous
100
AcDbLine
 10
36.24505399999998
 20
215.500603
 30
0.0
 11
36.115008
 21
215.76257
 31
0.0
  0
LINE
  5
A3A5
330
A24C
100
AcDbEntity
  8
1
  6
Continuous
100
AcDbLine
 10
35.96861599999999
 20
216.0252009999999
 30
0.0
 11
35.74615899999999
 21
216.770727
 31
0.0
  0
LINE
  5
A3A6
330
A24C
100
AcDbEntity
  8
1
  6
Continuous
100
AcDbLine
 10
37.031507
 20
217.5423079999999
 30
0.0
 11
37.342488
 21
217.537343
 31
0.0
  0
ARC
  5
A3A7
330
A24C
100
AcDbEntity
  8
1
  6
Continuous
100
AcDbCircle
 10
45.370358
 20
204.122037
 30
0.0
 40
5.956818
100
AcDbArc
 50
155.1851629999999
 51
180.0
  0
ARC
  5
A3A8
330
A24C
100
AcDbEntity
  8
1
  6
Continuous
100
AcDbCircle
 10
61.095024
 20
204.4007919999998
 30
0.0
 40
26.481485
100
AcDbArc
 50
173.744984
 51
180.0
  0
ARC
  5
A3A9
330
A24C
100
AcDbEntity
  8
1
  6
Continuous
100
AcDbCircle
 10
12.37991
 20
210.2414669999999
 30
0.0
 40
22.58547899999999
100
AcDbArc
 50
352.48102
 51
354.050899
  0
ARC
  5
A3AA
330
A24C
100
AcDbEntity
  8
1
  6
Continuous
100
AcDbCircle
 10
28.72639299999999
 20
208.5380629999999
 30
0.0
 40
6.150483
100
AcDbArc
 50
354.050899
 51
3.827348
  0
ARC
  5
A3AB
330
A24C
100
AcDbEntity
  8
1
  6
Continuous
100
AcDbCircle
 10
38.50380899999999
 20
210.5555269999999
 30
0.0
 40
3.544468999999998
100
AcDbArc
 50
142.5525899999998
 51
164.8695229999999
  0
ARC
  5
A3AC
330
A24C
100
AcDbEntity
  8
1
  6
Continuous
100
AcDbCircle
 10
43.177576
 20
209.5048379999998
 30
0.0
 40
8.333002
100
AcDbArc
 50
166.2838199999999
 51
183.827348
  0
ARC
  5
A3AD
330
A24C
100
AcDbEntity
  8
1
  6
Continuous
100
AcDbCircle
 10
38.783428
 20
210.341375
 30
0.0
 40
3.896673999999998
100
AcDbArc
 50
130.5180389999998
 51
142.5525899999998
  0
ARC
  5
A3AE
330
A24C
100
AcDbEntity
  8
1
  6
Continuous
100
AcDbCircle
 10
37.61538400000001
 20
211.7081069999999
 30
0.0
 40
2.098818999999997
100
AcDbArc
 50
90.0
 51
130.5180389999998
  0
LINE
  5
A3AF
330
A24C
100
AcDbEntity
  8
4
  6
CENTER
100
AcDbLine
 10
217.9960009999998
 20
314.322924
 30
0.0
 11
136.202019
 21
314.322924
 31
0.0
  0
LINE
  5
A3B0
330
A24C
100
AcDbEntity
  8
1
  6
Continuous
100
AcDbLine
 10
163.934271
 20
328.872924
 30
0.0
 11
155.7520189999999
 21
328.872924
 31
0.0
  0
LINE
  5
A3B1
330
A24C
100
AcDbEntity
  8
4
  6
CENTER
100
AcDbLine
 10
160.411563
 20
224.806225
 30
0.0
 11
160.411563
 21
217.8618769999999
 31
0.0
  0
LINE
  5
A3B2
330
A24C
100
AcDbEntity
  8
4
  6
CENTER
100
AcDbLine
 10
200.1615629999998
 20
224.806225
 30
0.0
 11
200.1615629999998
 21
218.727031
 31
0.0
  0
LINE
  5
A3B3
330
A24C
100
AcDbEntity
  8
4
  6
CENTER
100
AcDbLine
 10
76.91354
 20
225.1432319999999
 30
0.0
 11
76.91354
 21
215.914091
 31
0.0
  0
LINE
  5
A3B4
330
A24C
100
AcDbEntity
  8
4
  6
CENTER
100
AcDbLine
 10
31.01354000000001
 20
225.1432319999999
 30
0.0
 11
31.01354000000001
 21
216.476688
 31
0.0
  0
LINE
  5
A3B5
330
A24C
100
AcDbEntity
  8
4
  6
CENTER
100
AcDbLine
 10
167.911563
 20
289.6604679999999
 30
0.0
 11
167.911563
 21
339.6604679999999
 31
0.0
  0
ARC
  5
A3B6
330
A24C
100
AcDbEntity
  8
1
  6
Continuous
100
AcDbCircle
 10
167.911563
 20
306.7729239999999
 30
0.0
 40
9.0
100
AcDbArc
 50
241.8213569999999
 51
256.423689
  0
LINE
  5
A3B7
330
A24C
100
AcDbEntity
  8
1
  6
Continuous
100
AcDbLine
 10
163.661563
 20
298.839609
 30
0.0
 11
163.661563
 21
299.7729239999999
 31
0.0
  0
LINE
  5
A3B8
330
A24C
100
AcDbEntity
  8
1
  6
Continuous
100
AcDbLine
 10
164.9057459999999
 20
298.839609
 30
0.0
 11
163.661563
 21
298.839609
 31
0.0
  0
CIRCLE
  5
A3B9
330
A24C
100
AcDbEntity
  8
1
  6
Continuous
100
AcDbCircle
 10
167.911563
 20
182.143232
 30
0.0
 40
3.9
  0
CIRCLE
  5
A3BA
330
A24C
100
AcDbEntity
  8
4
  6
CENTER
100
AcDbCircle
 10
186.9115629999998
 20
314.322924
 30
0.0
 40
26.5
  0
CIRCLE
  5
A3BB
330
A24C
100
AcDbEntity
  8
1
  6
Continuous
100
AcDbCircle
 10
160.411563
 20
314.322924
 30
0.0
 40
2.75
  0
CIRCLE
  5
A3BC
330
A24C
100
AcDbEntity
  8
1
  6
Continuous
100
AcDbCircle
 10
200.1615629999998
 20
291.3732509999999
 30
0.0
 40
2.75
  0
CIRCLE
  5
A3BD
330
A24C
100
AcDbEntity
  8
1
  6
Continuous
100
AcDbCircle
 10
200.1615629999998
 20
337.272598
 30
0.0
 40
2.75
  0
LINE
  5
A3BE
330
A24C
100
AcDbEntity
  8
4
  6
CENTER
100
AcDbLine
 10
197.286563
 20
332.292952
 30
0.0
 11
203.0365629999999
 21
342.252244
 31
0.0
  0
LINE
  5
A3BF
330
A24C
100
AcDbEntity
  8
4
  6
CENTER
100
AcDbLine
 10
197.286563
 20
296.352897
 30
0.0
 11
203.0365629999999
 21
286.3936049999999
 31
0.0
  0
ARC
  5
A3C0
330
A24C
100
AcDbEntity
  8
1
  6
Continuous
100
AcDbCircle
 10
160.411563
 20
314.322924
 30
0.0
 40
6.0
100
AcDbArc
 50
151.4385279999999
 51
208.561472
  0
ARC
  5
A3C1
330
A24C
100
AcDbEntity
  8
1
  6
Continuous
100
AcDbCircle
 10
200.1615629999998
 20
337.272598
 30
0.0
 40
6.0
100
AcDbArc
 50
31.43852800000001
 51
88.56147199999998
  0
ARC
  5
A3C2
330
A24C
100
AcDbEntity
  8
1
  6
Continuous
100
AcDbCircle
 10
200.1615629999998
 20
291.3732509999999
 30
0.0
 40
6.0
100
AcDbArc
 50
271.438528
 51
328.5614719999998
  0
ARC
  5
A3C3
330
A24C
100
AcDbEntity
  8
1
  6
Continuous
100
AcDbCircle
 10
199.0569689999999
 20
293.2864649999999
 30
0.0
 40
50.0
100
AcDbArc
 50
88.56147199999998
 51
151.4385279999999
  0
ARC
  5
A3C4
330
A24C
100
AcDbEntity
  8
1
  6
Continuous
100
AcDbCircle
 10
162.620752
 20
314.322924
 30
0.0
 40
50.0
100
AcDbArc
 50
328.5614719999998
 51
31.43852800000001
  0
ARC
  5
A3C5
330
A24C
100
AcDbEntity
  8
1
  6
Continuous
100
AcDbCircle
 10
199.0569689999999
 20
335.3593839999998
 30
0.0
 40
50.0
100
AcDbArc
 50
208.561472
 51
271.438528
  0
LINE
  5
A3C6
330
A24C
100
AcDbEntity
  8
1
  6
Continuous
100
AcDbLine
 10
154.411563
 20
222.1432319999999
 30
0.0
 11
154.411563
 21
219.8432319999998
 31
0.0
  0
LINE
  5
A3C7
330
A24C
100
AcDbEntity
  8
1
  6
Continuous
100
AcDbLine
 10
212.620752
 20
222.1432319999999
 30
0.0
 11
212.620752
 21
219.8432319999998
 31
0.0
  0
LINE
  5
A3C8
330
A24C
100
AcDbEntity
  8
1
  6
Continuous
100
AcDbLine
 10
82.927081
 20
222.1432319999999
 30
0.0
 11
82.927081
 21
219.8432319999998
 31
0.0
  0
LINE
  5
A3C9
330
A24C
100
AcDbEntity
  8
1
  6
Continuous
100
AcDbLine
 10
25.0
 20
222.1432319999999
 30
0.0
 11
25.0
 21
219.8432319999998
 31
0.0
  0
CIRCLE
  5
A3CA
330
A24C
100
AcDbEntity
  8
4
  6
CENTER
100
AcDbCircle
 10
186.9115629999998
 20
69.96354000000001
 30
0.0
 40
26.5
  0
ARC
  5
A3CB
330
A24C
100
AcDbEntity
  8
1
  6
Continuous
100
AcDbCircle
 10
199.0569689999999
 20
91.0
 30
0.0
 40
50.0
100
AcDbArc
 50
228.305295
 51
271.438528
  0
ARC
  5
A3CC
330
A24C
100
AcDbEntity
  8
1
  6
Continuous
100
AcDbCircle
 10
199.0569689999999
 20
48.927081
 30
0.0
 40
50.0
100
AcDbArc
 50
88.56147199999998
 51
133.828312
  0
LINE
  5
A3CD
330
A24C
100
AcDbEntity
  8
4
  6
CENTER
100
AcDbLine
 10
217.9960009999998
 20
69.96354000000001
 30
0.0
 11
136.202019
 21
69.96354000000001
 31
0.0
  0
LINE
  5
A3CE
330
A24C
100
AcDbEntity
  8
4
  6
CENTER
100
AcDbLine
 10
167.911563
 20
94.625997
 30
0.0
 11
167.911563
 21
44.625997
 31
0.0
  0
ARC
  5
A3CF
330
A24C
100
AcDbEntity
  8
1
  6
Continuous
100
AcDbCircle
 10
155.7520189999999
 20
69.96354000000001
 30
0.0
 40
14.55
100
AcDbArc
 50
90.0
 51
270.0
  0
LINE
  5
A3D0
330
A24C
100
AcDbEntity
  8
1
  6
Continuous
100
AcDbLine
 10
180.453576
 20
84.51354
 30
0.0
 11
155.7520189999999
 21
84.51354
 31
0.0
  0
ARC
  5
A3D1
330
A24C
100
AcDbEntity
  8
1
  6
Continuous
100
AcDbCircle
 10
162.620752
 20
69.96354000000001
 30
0.0
 40
50.0
100
AcDbArc
 50
328.5614719999998
 51
31.43852800000001
  0
LINE
  5
A3D2
330
A24C
100
AcDbEntity
  8
4
  6
CENTER
100
AcDbLine
 10
186.9115629999998
 20
105.4564449999999
 30
0.0
 11
186.9115629999998
 21
34.458444
 31
0.0
  0
ARC
  5
A3D3
330
A24C
100
AcDbEntity
  8
1
  6
Continuous
100
AcDbCircle
 10
200.1615629999998
 20
92.91321399999999
 30
0.0
 40
6.0
100
AcDbArc
 50
31.43852800000001
 51
88.56147199999998
  0
LINE
  5
A3D4
330
A24C
100
AcDbEntity
  8
4
  6
CENTER
100
AcDbLine
 10
197.286563
 20
87.93356799999997
 30
0.0
 11
203.0365629999999
 21
97.89286000000002
 31
0.0
  0
CIRCLE
  5
A3D5
330
A24C
100
AcDbEntity
  8
1
  6
Continuous
100
AcDbCircle
 10
200.1615629999998
 20
92.91321399999999
 30
0.0
 40
2.75
  0
ARC
  5
A3D6
330
A24C
100
AcDbEntity
  8
1
  6
Continuous
100
AcDbCircle
 10
200.1615629999998
 20
47.01386699999999
 30
0.0
 40
6.0
100
AcDbArc
 50
271.438528
 51
328.5614719999998
  0
LINE
  5
A3D7
330
A24C
100
AcDbEntity
  8
4
  6
CENTER
100
AcDbLine
 10
197.286563
 20
51.993513
 30
0.0
 11
203.0365629999999
 21
42.034221
 31
0.0
  0
CIRCLE
  5
A3D8
330
A24C
100
AcDbEntity
  8
1
  6
Continuous
100
AcDbCircle
 10
200.1615629999998
 20
47.01386699999999
 30
0.0
 40
2.75
  0
LINE
  5
A3D9
330
A24C
100
AcDbEntity
  8
4
  6
CENTER
100
AcDbLine
 10
323.18448
 20
225.1432319999999
 30
0.0
 11
323.18448
 21
216.476688
 31
0.0
  0
LINE
  5
A3DA
330
A24C
100
AcDbEntity
  8
4
  6
CENTER
100
AcDbLine
 10
277.2844799999999
 20
225.1432319999999
 30
0.0
 11
277.2844799999999
 21
215.914091
 31
0.0
  0
ARC
  5
A3DB
330
A24C
100
AcDbEntity
  8
1
  6
Continuous
100
AcDbCircle
 10
316.9134329999999
 20
222.9538729999999
 30
0.0
 40
5.388568
100
AcDbArc
 50
293.6985089999998
 51
312.171579
  0
ARC
  5
A3DC
330
A24C
100
AcDbEntity
  8
1
  6
Continuous
100
AcDbCircle
 10
283.5555279999999
 20
222.9538729999999
 30
0.0
 40
5.388568
100
AcDbArc
 50
227.8284209999998
 51
246.301491
  0
LINE
  5
A3DD
330
A24C
100
AcDbEntity
  8
4
  6
CENTER
100
AcDbLine
 10
300.2344799999999
 20
227.1432319999999
 30
0.0
 11
300.2344799999999
 21
157.143232
 31
0.0
  0
LINE
  5
A3DE
330
A24C
100
AcDbEntity
  8
1
  6
Continuous
100
AcDbLine
 10
308.432722
 20
213.8068779999999
 30
0.0
 11
310.133975
 21
215.4427319999999
 31
0.0
  0
LINE
  5
A3DF
330
A24C
100
AcDbEntity
  8
1
  6
Continuous
100
AcDbLine
 10
309.0068019999999
 20
213.8068779999999
 30
0.0
 11
307.3055479999998
 21
215.4427319999999
 31
0.0
  0
LINE
  5
A3E0
330
A24C
100
AcDbEntity
  8
1
  6
Continuous
100
AcDbLine
 10
310.421015
 20
213.8068779999999
 30
0.0
 11
308.7197619999999
 21
215.4427319999999
 31
0.0
  0
LINE
  5
A3E1
330
A24C
100
AcDbEntity
  8
1
  6
Continuous
100
AcDbLine
 10
281.7344799999998
 20
213.806925
 30
0.0
 11
318.7344799999999
 21
213.806925
 31
0.0
  0
LINE
  5
A3E2
330
A24C
100
AcDbEntity
  8
1
  6
Continuous
100
AcDbLine
 10
281.7344799999998
 20
215.4427319999999
 30
0.0
 11
318.7344799999999
 21
215.4427319999999
 31
0.0
  0
LINE
  5
A3E3
330
A24C
100
AcDbEntity
  8
1
  6
Continuous
100
AcDbLine
 10
282.5586539999998
 20
217.7744569999999
 30
0.0
 11
317.910306
 21
217.7744569999999
 31
0.0
  0
LINE
  5
A3E4
330
A24C
100
AcDbEntity
  8
1
  6
Continuous
100
AcDbLine
 10
283.613429
 20
217.537343
 30
0.0
 11
316.8555319999999
 21
217.537343
 31
0.0
  0
LINE
  5
A3E5
330
A24C
100
AcDbEntity
  8
1
  6
Continuous
100
AcDbLine
 10
318.43608
 20
217.0063789999999
 30
0.0
 11
282.0328809999999
 21
217.0063789999999
 31
0.0
  0
LINE
  5
A3E6
330
A24C
100
AcDbEntity
  8
1
  6
Continuous
100
AcDbLine
 10
311.321636
 20
176.0633679999999
 30
0.0
 11
308.2344799999999
 21
175.793277
 31
0.0
  0
LINE
  5
A3E7
330
A24C
100
AcDbEntity
  8
4
  6
CENTER
100
AcDbLine
 10
318.656404
 20
182.143232
 30
0.0
 11
282.90088
 21
182.143232
 31
0.0
  0
LINE
  5
A3E8
330
A24C
100
AcDbEntity
  8
1
  6
Continuous
100
AcDbLine
 10
312.7844799999999
 20
203.5217569999999
 30
0.0
 11
312.7844799999999
 21
174.0549179999999
 31
0.0
  0
LINE
  5
A3E9
330
A24C
100
AcDbEntity
  8
1
  6
Continuous
100
AcDbLine
 10
314.7844799999999
 20
195.2995789999999
 30
0.0
 11
314.7844799999999
 21
174.0549179999999
 31
0.0
  0
LINE
  5
A3EA
330
A24C
100
AcDbEntity
  8
1
  6
Continuous
100
AcDbLine
 10
312.7844799999999
 20
174.0549179999999
 30
0.0
 11
314.7844799999999
 21
174.0549179999999
 31
0.0
  0
LINE
  5
A3EB
330
A24C
100
AcDbEntity
  8
1
  6
Continuous
100
AcDbLine
 10
312.2344799999999
 20
179.143232
 30
0.0
 11
312.7844799999999
 21
179.143232
 31
0.0
  0
ARC
  5
A3EC
330
A24C
100
AcDbEntity
  8
1
  6
Continuous
100
AcDbCircle
 10
311.2344799999998
 20
177.059563
 30
0.0
 40
1.0
100
AcDbArc
 50
275.0
 51
0.0
  0
LINE
  5
A3ED
330
A24C
100
AcDbEntity
  8
1
  6
Continuous
100
AcDbLine
 10
312.2344799999999
 20
187.226901
 30
0.0
 11
312.2344799999999
 21
177.059563
 31
0.0
  0
LINE
  5
A3EE
330
A24C
100
AcDbEntity
  8
1
  6
Continuous
100
AcDbLine
 10
315.717795
 20
186.393232
 30
0.0
 11
314.7844799999999
 21
186.393232
 31
0.0
  0
LINE
  5
A3EF
330
A24C
100
AcDbEntity
  8
1
  6
Continuous
100
AcDbLine
 10
315.717795
 20
177.893232
 30
0.0
 11
314.7844799999999
 21
177.893232
 31
0.0
  0
ARC
  5
A3F0
330
A24C
100
AcDbEntity
  8
1
  6
Continuous
100
AcDbCircle
 10
307.7844799999998
 20
182.143232
 30
0.0
 40
9.0
100
AcDbArc
 50
331.8213569999999
 51
28.178643
  0
LINE
  5
A3F1
330
A24C
100
AcDbEntity
  8
1
  6
Continuous
100
AcDbLine
 10
315.717795
 20
186.393232
 30
0.0
 11
315.717795
 21
177.893232
 31
0.0
  0
ARC
  5
A3F2
330
A24C
100
AcDbEntity
  8
1
  6
Continuous
100
AcDbCircle
 10
316.582636
 20
211.7081069999999
 30
0.0
 40
2.098818999999997
100
AcDbArc
 50
49.48196099999999
 51
90.0
  0
ARC
  5
A3F3
330
A24C
100
AcDbEntity
  8
1
  6
Continuous
100
AcDbCircle
 10
315.4145919999999
 20
210.341375
 30
0.0
 40
3.896673999999998
100
AcDbArc
 50
37.44740999999999
 51
49.48196099999999
  0
ARC
  5
A3F4
330
A24C
100
AcDbEntity
  8
1
  6
Continuous
100
AcDbCircle
 10
311.0204439999999
 20
209.5048379999998
 30
0.0
 40
8.333002
100
AcDbArc
 50
356.1726520000001
 51
13.71617999999999
  0
ARC
  5
A3F5
330
A24C
100
AcDbEntity
  8
1
  6
Continuous
100
AcDbCircle
 10
315.694211
 20
210.5555269999999
 30
0.0
 40
3.544468999999998
100
AcDbArc
 50
15.130477
 51
37.44740999999999
  0
ARC
  5
A3F6
330
A24C
100
AcDbEntity
  8
1
  6
Continuous
100
AcDbCircle
 10
325.471627
 20
208.5380629999999
 30
0.0
 40
6.150483
100
AcDbArc
 50
176.172652
 51
185.949101
  0
ARC
  5
A3F7
330
A24C
100
AcDbEntity
  8
1
  6
Continuous
100
AcDbCircle
 10
341.8181099999998
 20
210.2414669999999
 30
0.0
 40
22.58547899999999
100
AcDbArc
 50
185.949101
 51
187.51898
  0
ARC
  5
A3F8
330
A24C
100
AcDbEntity
  8
1
  6
Continuous
100
AcDbCircle
 10
293.102996
 20
204.4007919999998
 30
0.0
 40
26.481485
100
AcDbArc
 50
0.0
 51
6.255016
  0
LINE
  5
A3F9
330
A24C
100
AcDbEntity
  8
1
  6
Continuous
100
AcDbLine
 10
317.166513
 20
217.5423079999999
 30
0.0
 11
316.8555319999999
 21
217.537343
 31
0.0
  0
LINE
  5
A3FA
330
A24C
100
AcDbEntity
  8
1
  6
Continuous
100
AcDbLine
 10
318.2294039999998
 20
216.0252009999999
 30
0.0
 11
318.451861
 21
216.770727
 31
0.0
  0
LINE
  5
A3FB
330
A24C
100
AcDbEntity
  8
1
  6
Continuous
100
AcDbLine
 10
317.952966
 20
215.500603
 30
0.0
 11
318.0830119999999
 21
215.76257
 31
0.0
  0
ARC
  5
A3FC
330
A24C
100
AcDbEntity
  8
1
  6
Continuous
100
AcDbCircle
 10
317.5649049999999
 20
216.2234799999999
 30
0.0
 40
0.69345
100
AcDbArc
 50
318.343544
 51
343.385468
  0
ARC
  5
A3FD
330
A24C
100
AcDbEntity
  8
1
  6
Continuous
100
AcDbCircle
 10
317.6702139999998
 20
216.1624069999998
 30
0.0
 40
0.719675
100
AcDbArc
 50
270.0
 51
293.1342879999999
  0
ARC
  5
A3FE
330
A24C
100
AcDbEntity
  8
1
  6
Continuous
100
AcDbCircle
 10
317.1935369999999
 20
215.8497279999999
 30
0.0
 40
1.692795999999999
100
AcDbArc
 50
60.900618
 51
90.914722
  0
ARC
  5
A3FF
330
A24C
100
AcDbEntity
  8
1
  6
Continuous
100
AcDbCircle
 10
315.5883479999999
 20
212.9657009999998
 30
0.0
 40
4.993438999999998
100
AcDbArc
 50
56.940309
 51
60.900618
  0
ARC
  5
A400
330
A24C
100
AcDbEntity
  8
1
  6
Continuous
100
AcDbCircle
 10
318.1279169999999
 20
216.8673879999999
 30
0.0
 40
0.338058
100
AcDbArc
 50
343.385468
 51
56.940309
  0
ARC
  5
A401
330
A24C
100
AcDbEntity
  8
1
  6
Continuous
100
AcDbCircle
 10
313.9376919999999
 20
215.023205
 30
0.0
 40
3.765966
100
AcDbArc
 50
43.500695
 51
46.93308799999999
  0
ARC
  5
A402
330
A24C
100
AcDbEntity
  8
1
  6
Continuous
100
AcDbCircle
 10
316.851523
 20
217.788394
 30
0.0
 40
0.251083
100
AcDbArc
 50
223.500695
 51
270.9147219999999
  0
ARC
  5
A403
330
A24C
100
AcDbEntity
  8
1
  6
Continuous
100
AcDbCircle
 10
317.910306
 20
220.682771
 30
0.0
 40
2.908313999999998
100
AcDbArc
 50
270.0
 51
293.6985089999998
  0
LINE
  5
A404
330
A24C
100
AcDbEntity
  8
1
  6
Continuous
100
AcDbLine
 10
318.7344799999999
 20
213.806925
 30
0.0
 11
318.7344799999999
 21
215.4427319999999
 31
0.0
  0
LINE
  5
A405
330
A24C
100
AcDbEntity
  8
1
  6
Continuous
100
AcDbLine
 10
314.0895759999999
 20
213.8068779999999
 30
0.0
 11
315.7908299999999
 21
215.4427319999999
 31
0.0
  0
LINE
  5
A406
330
A24C
100
AcDbEntity
  8
1
  6
Continuous
100
AcDbLine
 10
315.5037899999999
 20
213.8068779999999
 30
0.0
 11
317.205043
 21
215.4427319999999
 31
0.0
  0
LINE
  5
A407
330
A24C
100
AcDbEntity
  8
1
  6
Continuous
100
AcDbLine
 10
316.918003
 20
213.8068779999999
 30
0.0
 11
318.619257
 21
215.4427319999999
 31
0.0
  0
LINE
  5
A408
330
A24C
100
AcDbEntity
  8
1
  6
Continuous
100
AcDbLine
 10
318.7344799999999
 20
214.2091419999999
 30
0.0
 11
318.332217
 21
213.8068779999999
 31
0.0
  0
LINE
  5
A409
330
A24C
100
AcDbEntity
  8
1
  6
Continuous
100
AcDbLine
 10
316.07787
 20
213.8068779999999
 30
0.0
 11
314.376616
 21
215.4427319999999
 31
0.0
  0
LINE
  5
A40A
330
A24C
100
AcDbEntity
  8
1
  6
Continuous
100
AcDbLine
 10
317.492083
 20
213.8068779999999
 30
0.0
 11
315.7908299999999
 21
215.4427319999999
 31
0.0
  0
LINE
  5
A40B
330
A24C
100
AcDbEntity
  8
1
  6
Continuous
100
AcDbLine
 10
318.7344799999999
 20
213.978694
 30
0.0
 11
317.205043
 21
215.4427319999999
 31
0.0
  0
LINE
  5
A40C
330
A24C
100
AcDbEntity
  8
1
  6
Continuous
100
AcDbLine
 10
318.7344799999999
 20
215.3275079999999
 30
0.0
 11
318.619257
 21
215.4427319999999
 31
0.0
  0
LINE
  5
A40D
330
A24C
100
AcDbEntity
  8
1
  6
Continuous
100
AcDbLine
 10
309.8469349999998
 20
213.8068779999999
 30
0.0
 11
311.5481889999998
 21
215.4427319999999
 31
0.0
  0
LINE
  5
A40E
330
A24C
100
AcDbEntity
  8
1
  6
Continuous
100
AcDbLine
 10
311.2611489999999
 20
213.8068779999999
 30
0.0
 11
312.962402
 21
215.4427319999999
 31
0.0
  0
LINE
  5
A40F
330
A24C
100
AcDbEntity
  8
1
  6
Continuous
100
AcDbLine
 10
311.835229
 20
213.8068779999999
 30
0.0
 11
310.133975
 21
215.4427319999999
 31
0.0
  0
LINE
  5
A410
330
A24C
100
AcDbEntity
  8
1
  6
Continuous
100
AcDbLine
 10
312.675363
 20
213.8068779999999
 30
0.0
 11
314.376616
 21
215.4427319999999
 31
0.0
  0
LINE
  5
A411
330
A24C
100
AcDbEntity
  8
1
  6
Continuous
100
AcDbLine
 10
313.249442
 20
213.8068779999999
 30
0.0
 11
311.5481889999998
 21
215.4427319999999
 31
0.0
  0
LINE
  5
A412
330
A24C
100
AcDbEntity
  8
1
  6
Continuous
100
AcDbLine
 10
314.663656
 20
213.8068779999999
 30
0.0
 11
312.962402
 21
215.4427319999999
 31
0.0
  0
LINE
  5
A413
330
A24C
100
AcDbEntity
  8
1
  6
Continuous
100
AcDbLine
 10
319.5844799999999
 20
204.4007919999998
 30
0.0
 11
319.5844799999999
 21
200.6081029999998
 31
0.0
  0
LINE
  5
A414
330
A24C
100
AcDbEntity
  8
1
  6
Continuous
100
AcDbLine
 10
308.2344799999999
 20
164.578572
 30
0.0
 11
308.2344799999999
 21
199.7078919999999
 31
0.0
  0
LINE
  5
A415
330
A24C
100
AcDbEntity
  8
1
  6
Continuous
100
AcDbLine
 10
287.68448
 20
203.5217569999999
 30
0.0
 11
287.68448
 21
174.0549179999999
 31
0.0
  0
LINE
  5
A416
330
A24C
100
AcDbEntity
  8
1
  6
Continuous
100
AcDbLine
 10
292.2344799999999
 20
164.578572
 30
0.0
 11
292.2344799999999
 21
199.7078919999999
 31
0.0
  0
LINE
  5
A417
330
A24C
100
AcDbEntity
  8
1
  6
Continuous
100
AcDbLine
 10
285.68448
 20
195.2995789999999
 30
0.0
 11
285.68448
 21
174.0549179999999
 31
0.0
  0
ARC
  5
A418
330
A24C
100
AcDbEntity
  8
1
  6
Continuous
100
AcDbCircle
 10
300.2344799999999
 20
178.143232
 30
0.0
 40
16.0
100
AcDbArc
 50
241.061472
 51
298.9385279999999
  0
ARC
  5
A419
330
A24C
100
AcDbEntity
  8
1
  6
Continuous
100
AcDbCircle
 10
307.7344799999999
 20
164.578572
 30
0.0
 40
0.5
100
AcDbArc
 50
298.9385279999999
 51
0.0
  0
LINE
  5
A41A
330
A24C
100
AcDbEntity
  8
1
  6
Continuous
100
AcDbLine
 10
285.68448
 20
174.0549179999999
 30
0.0
 11
287.68448
 21
174.0549179999999
 31
0.0
  0
ARC
  5
A41B
330
A24C
100
AcDbEntity
  8
1
  6
Continuous
100
AcDbCircle
 10
292.7344799999999
 20
164.578572
 30
0.0
 40
0.5
100
AcDbArc
 50
180.0
 51
241.061472
  0
LINE
  5
A41C
330
A24C
100
AcDbEntity
  8
1
  6
Continuous
100
AcDbLine
 10
285.68448
 20
186.0432319999999
 30
0.0
 11
285.3359109999999
 21
186.0432319999999
 31
0.0
  0
LINE
  5
A41D
330
A24C
100
AcDbEntity
  8
1
  6
Continuous
100
AcDbLine
 10
285.68448
 20
178.243232
 30
0.0
 11
285.3359109999999
 21
178.243232
 31
0.0
  0
ARC
  5
A41E
330
A24C
100
AcDbEntity
  8
1
  6
Continuous
100
AcDbCircle
 10
296.68448
 20
182.143232
 30
0.0
 40
12.0
100
AcDbArc
 50
161.0344249999999
 51
198.965575
  0
LINE
  5
A41F
330
A24C
100
AcDbEntity
  8
1
  6
Continuous
100
AcDbLine
 10
285.3359109999999
 20
186.0432319999999
 30
0.0
 11
285.3359109999999
 21
178.243232
 31
0.0
  0
LINE
  5
A420
330
A24C
100
AcDbEntity
  8
1
  6
Continuous
100
AcDbLine
 10
288.2344799999998
 20
179.143232
 30
0.0
 11
287.68448
 21
179.143232
 31
0.0
  0
LINE
  5
A421
330
A24C
100
AcDbEntity
  8
1
  6
Continuous
100
AcDbLine
 10
289.147325
 20
176.0633679999999
 30
0.0
 11
292.2344799999999
 21
175.793277
 31
0.0
  0
ARC
  5
A422
330
A24C
100
AcDbEntity
  8
1
  6
Continuous
100
AcDbCircle
 10
289.2344799999999
 20
177.059563
 30
0.0
 40
1.0
100
AcDbArc
 50
180.0
 51
265.0
  0
LINE
  5
A423
330
A24C
100
AcDbEntity
  8
1
  6
Continuous
100
AcDbLine
 10
288.2344799999998
 20
187.226901
 30
0.0
 11
288.2344799999998
 21
177.059563
 31
0.0
  0
LINE
  5
A424
330
A24C
100
AcDbEntity
  8
1
  6
Continuous
100
AcDbLine
 10
292.876373
 20
213.8068779999999
 30
0.0
 11
294.5776259999998
 21
215.4427319999999
 31
0.0
  0
LINE
  5
A425
330
A24C
100
AcDbEntity
  8
1
  6
Continuous
100
AcDbLine
 10
291.4621589999999
 20
213.8068779999999
 30
0.0
 11
293.1634129999998
 21
215.4427319999999
 31
0.0
  0
LINE
  5
A426
330
A24C
100
AcDbEntity
  8
1
  6
Continuous
100
AcDbLine
 10
293.4504529999999
 20
213.8068779999999
 30
0.0
 11
291.7491989999998
 21
215.4427319999999
 31
0.0
  0
LINE
  5
A427
330
A24C
100
AcDbEntity
  8
1
  6
Continuous
100
AcDbLine
 10
298.533227
 20
213.8068779999999
 30
0.0
 11
300.2344799999999
 21
215.4427319999999
 31
0.0
  0
LINE
  5
A428
330
A24C
100
AcDbEntity
  8
1
  6
Continuous
100
AcDbLine
 10
299.947441
 20
213.8068779999999
 30
0.0
 11
301.648694
 21
215.4427319999999
 31
0.0
  0
LINE
  5
A429
330
A24C
100
AcDbEntity
  8
1
  6
Continuous
100
AcDbLine
 10
301.361654
 20
213.8068779999999
 30
0.0
 11
303.062908
 21
215.4427319999999
 31
0.0
  0
LINE
  5
A42A
330
A24C
100
AcDbEntity
  8
1
  6
Continuous
100
AcDbLine
 10
302.775868
 20
213.8068779999999
 30
0.0
 11
304.477121
 21
215.4427319999999
 31
0.0
  0
LINE
  5
A42B
330
A24C
100
AcDbEntity
  8
1
  6
Continuous
100
AcDbLine
 10
304.190081
 20
213.8068779999999
 30
0.0
 11
305.891335
 21
215.4427319999999
 31
0.0
  0
LINE
  5
A42C
330
A24C
100
AcDbEntity
  8
1
  6
Continuous
100
AcDbLine
 10
305.6042949999999
 20
213.8068779999999
 30
0.0
 11
307.3055479999998
 21
215.4427319999999
 31
0.0
  0
LINE
  5
A42D
330
A24C
100
AcDbEntity
  8
1
  6
Continuous
100
AcDbLine
 10
307.0185079999999
 20
213.8068779999999
 30
0.0
 11
308.7197619999999
 21
215.4427319999999
 31
0.0
  0
LINE
  5
A42E
330
A24C
100
AcDbEntity
  8
1
  6
Continuous
100
AcDbLine
 10
301.9357339999999
 20
213.8068779999999
 30
0.0
 11
300.2344799999999
 21
215.4427319999999
 31
0.0
  0
LINE
  5
A42F
330
A24C
100
AcDbEntity
  8
1
  6
Continuous
100
AcDbLine
 10
303.3499469999999
 20
213.8068779999999
 30
0.0
 11
301.648694
 21
215.4427319999999
 31
0.0
  0
LINE
  5
A430
330
A24C
100
AcDbEntity
  8
1
  6
Continuous
100
AcDbLine
 10
304.7641609999999
 20
213.8068779999999
 30
0.0
 11
303.062908
 21
215.4427319999999
 31
0.0
  0
LINE
  5
A431
330
A24C
100
AcDbEntity
  8
1
  6
Continuous
100
AcDbLine
 10
306.178375
 20
213.8068779999999
 30
0.0
 11
304.477121
 21
215.4427319999999
 31
0.0
  0
LINE
  5
A432
330
A24C
100
AcDbEntity
  8
1
  6
Continuous
100
AcDbLine
 10
307.5925879999999
 20
213.8068779999999
 30
0.0
 11
305.891335
 21
215.4427319999999
 31
0.0
  0
LINE
  5
A433
330
A24C
100
AcDbEntity
  8
1
  6
Continuous
100
AcDbLine
 10
300.52152
 20
213.8068779999999
 30
0.0
 11
298.820267
 21
215.4427319999999
 31
0.0
  0
LINE
  5
A434
330
A24C
100
AcDbEntity
  8
1
  6
Continuous
100
AcDbLine
 10
299.107307
 20
213.8068779999999
 30
0.0
 11
297.406053
 21
215.4427319999999
 31
0.0
  0
LINE
  5
A435
330
A24C
100
AcDbEntity
  8
1
  6
Continuous
100
AcDbLine
 10
294.2905859999999
 20
213.8068779999999
 30
0.0
 11
295.9918399999999
 21
215.4427319999999
 31
0.0
  0
LINE
  5
A436
330
A24C
100
AcDbEntity
  8
1
  6
Continuous
100
AcDbLine
 10
296.2788799999998
 20
213.8068779999999
 30
0.0
 11
294.5776259999998
 21
215.4427319999999
 31
0.0
  0
LINE
  5
A437
330
A24C
100
AcDbEntity
  8
1
  6
Continuous
100
AcDbLine
 10
294.8646659999998
 20
213.8068779999999
 30
0.0
 11
293.1634129999998
 21
215.4427319999999
 31
0.0
  0
LINE
  5
A438
330
A24C
100
AcDbEntity
  8
1
  6
Continuous
100
AcDbLine
 10
297.119013
 20
213.8068779999999
 30
0.0
 11
298.820267
 21
215.4427319999999
 31
0.0
  0
LINE
  5
A439
330
A24C
100
AcDbEntity
  8
1
  6
Continuous
100
AcDbLine
 10
295.7047999999998
 20
213.8068779999999
 30
0.0
 11
297.406053
 21
215.4427319999999
 31
0.0
  0
LINE
  5
A43A
330
A24C
100
AcDbEntity
  8
1
  6
Continuous
100
AcDbLine
 10
297.6930929999999
 20
213.8068779999999
 30
0.0
 11
295.9918399999999
 21
215.4427319999999
 31
0.0
  0
ARC
  5
A43B
330
A24C
100
AcDbEntity
  8
1
  6
Continuous
100
AcDbCircle
 10
283.886325
 20
211.7081069999999
 30
0.0
 40
2.098818999999997
100
AcDbArc
 50
90.0
 51
130.5180389999998
  0
ARC
  5
A43C
330
A24C
100
AcDbEntity
  8
1
  6
Continuous
100
AcDbCircle
 10
285.054369
 20
210.341375
 30
0.0
 40
3.896673999999998
100
AcDbArc
 50
130.5180389999998
 51
142.5525899999998
  0
ARC
  5
A43D
330
A24C
100
AcDbEntity
  8
1
  6
Continuous
100
AcDbCircle
 10
284.77475
 20
210.5555269999999
 30
0.0
 40
3.544468999999998
100
AcDbArc
 50
142.5525899999998
 51
164.8695229999999
  0
LINE
  5
A43E
330
A24C
100
AcDbEntity
  8
1
  6
Continuous
100
AcDbLine
 10
281.7344799999998
 20
213.806925
 30
0.0
 11
281.7344799999998
 21
215.4427319999999
 31
0.0
  0
LINE
  5
A43F
330
A24C
100
AcDbEntity
  8
1
  6
Continuous
100
AcDbLine
 10
283.3024479999999
 20
217.5423079999999
 30
0.0
 11
283.613429
 21
217.537343
 31
0.0
  0
LINE
  5
A440
330
A24C
100
AcDbEntity
  8
1
  6
Continuous
100
AcDbLine
 10
282.2395569999999
 20
216.0252009999999
 30
0.0
 11
282.0171000000001
 21
216.770727
 31
0.0
  0
LINE
  5
A441
330
A24C
100
AcDbEntity
  8
1
  6
Continuous
100
AcDbLine
 10
282.5159949999999
 20
215.500603
 30
0.0
 11
282.3859489999999
 21
215.76257
 31
0.0
  0
ARC
  5
A442
330
A24C
100
AcDbEntity
  8
1
  6
Continuous
100
AcDbCircle
 10
282.9040560000001
 20
216.2234799999999
 30
0.0
 40
0.69345
100
AcDbArc
 50
196.614532
 51
221.656456
  0
ARC
  5
A443
330
A24C
100
AcDbEntity
  8
1
  6
Continuous
100
AcDbCircle
 10
282.798746
 20
216.1624069999998
 30
0.0
 40
0.719675
100
AcDbArc
 50
246.865712
 51
270.0
  0
ARC
  5
A444
330
A24C
100
AcDbEntity
  8
1
  6
Continuous
100
AcDbCircle
 10
283.2754239999999
 20
215.8497279999999
 30
0.0
 40
1.692795999999999
100
AcDbArc
 50
89.08527799999998
 51
119.0993819999999
  0
ARC
  5
A445
330
A24C
100
AcDbEntity
  8
1
  6
Continuous
100
AcDbCircle
 10
284.8806119999998
 20
212.9657009999998
 30
0.0
 40
4.993438999999998
100
AcDbArc
 50
119.0993819999999
 51
123.0596909999998
  0
ARC
  5
A446
330
A24C
100
AcDbEntity
  8
1
  6
Continuous
100
AcDbCircle
 10
282.3410439999999
 20
216.8673879999999
 30
0.0
 40
0.338058
100
AcDbArc
 50
123.0596909999998
 51
196.614532
  0
ARC
  5
A447
330
A24C
100
AcDbEntity
  8
1
  6
Continuous
100
AcDbCircle
 10
286.531269
 20
215.023205
 30
0.0
 40
3.765966
100
AcDbArc
 50
133.0669129999998
 51
136.499305
  0
ARC
  5
A448
330
A24C
100
AcDbEntity
  8
1
  6
Continuous
100
AcDbCircle
 10
283.617437
 20
217.788394
 30
0.0
 40
0.251083
100
AcDbArc
 50
269.0852779999999
 51
316.499305
  0
ARC
  5
A449
330
A24C
100
AcDbEntity
  8
1
  6
Continuous
100
AcDbCircle
 10
282.5586539999998
 20
220.682771
 30
0.0
 40
2.908313999999998
100
AcDbArc
 50
246.301491
 51
270.0
  0
LINE
  5
A44A
330
A24C
100
AcDbEntity
  8
1
  6
Continuous
100
AcDbLine
 10
290.047946
 20
213.8068779999999
 30
0.0
 11
291.7491989999998
 21
215.4427319999999
 31
0.0
  0
LINE
  5
A44B
330
A24C
100
AcDbEntity
  8
1
  6
Continuous
100
AcDbLine
 10
288.6337319999999
 20
213.8068779999999
 30
0.0
 11
290.334985
 21
215.4427319999999
 31
0.0
  0
LINE
  5
A44C
330
A24C
100
AcDbEntity
  8
1
  6
Continuous
100
AcDbLine
 10
287.2195179999998
 20
213.8068779999999
 30
0.0
 11
288.9207719999999
 21
215.4427319999999
 31
0.0
  0
LINE
  5
A44D
330
A24C
100
AcDbEntity
  8
1
  6
Continuous
100
AcDbLine
 10
285.8053049999999
 20
213.8068779999999
 30
0.0
 11
287.5065579999999
 21
215.4427319999999
 31
0.0
  0
LINE
  5
A44E
330
A24C
100
AcDbEntity
  8
1
  6
Continuous
100
AcDbLine
 10
284.391091
 20
213.8068779999999
 30
0.0
 11
286.0923450000001
 21
215.4427319999999
 31
0.0
  0
LINE
  5
A44F
330
A24C
100
AcDbEntity
  8
1
  6
Continuous
100
AcDbLine
 10
282.976878
 20
213.8068779999999
 30
0.0
 11
284.678131
 21
215.4427319999999
 31
0.0
  0
LINE
  5
A450
330
A24C
100
AcDbEntity
  8
1
  6
Continuous
100
AcDbLine
 10
281.7344799999998
 20
213.978694
 30
0.0
 11
283.263918
 21
215.4427319999999
 31
0.0
  0
LINE
  5
A451
330
A24C
100
AcDbEntity
  8
1
  6
Continuous
100
AcDbLine
 10
281.7344799999998
 20
215.3275079999999
 30
0.0
 11
281.849704
 21
215.4427319999999
 31
0.0
  0
LINE
  5
A452
330
A24C
100
AcDbEntity
  8
1
  6
Continuous
100
AcDbLine
 10
292.036239
 20
213.8068779999999
 30
0.0
 11
290.334985
 21
215.4427319999999
 31
0.0
  0
LINE
  5
A453
330
A24C
100
AcDbEntity
  8
1
  6
Continuous
100
AcDbLine
 10
290.622025
 20
213.8068779999999
 30
0.0
 11
288.9207719999999
 21
215.4427319999999
 31
0.0
  0
LINE
  5
A454
330
A24C
100
AcDbEntity
  8
1
  6
Continuous
100
AcDbLine
 10
289.2078119999998
 20
213.8068779999999
 30
0.0
 11
287.5065579999999
 21
215.4427319999999
 31
0.0
  0
LINE
  5
A455
330
A24C
100
AcDbEntity
  8
1
  6
Continuous
100
AcDbLine
 10
287.7935979999999
 20
213.8068779999999
 30
0.0
 11
286.0923450000001
 21
215.4427319999999
 31
0.0
  0
LINE
  5
A456
330
A24C
100
AcDbEntity
  8
1
  6
Continuous
100
AcDbLine
 10
286.379385
 20
213.8068779999999
 30
0.0
 11
284.678131
 21
215.4427319999999
 31
0.0
  0
LINE
  5
A457
330
A24C
100
AcDbEntity
  8
1
  6
Continuous
100
AcDbLine
 10
284.9651709999998
 20
213.8068779999999
 30
0.0
 11
283.263918
 21
215.4427319999999
 31
0.0
  0
LINE
  5
A458
330
A24C
100
AcDbEntity
  8
1
  6
Continuous
100
AcDbLine
 10
283.5509579999999
 20
213.8068779999999
 30
0.0
 11
281.849704
 21
215.4427319999999
 31
0.0
  0
LINE
  5
A459
330
A24C
100
AcDbEntity
  8
1
  6
Continuous
100
AcDbLine
 10
282.136744
 20
213.8068779999999
 30
0.0
 11
281.7344799999998
 21
214.2091419999999
 31
0.0
  0
ARC
  5
A45A
330
A24C
100
AcDbEntity
  8
1
  6
Continuous
100
AcDbCircle
 10
274.9973339999999
 20
208.5380629999999
 30
0.0
 40
6.150483
100
AcDbArc
 50
354.050899
 51
3.827348
  0
ARC
  5
A45B
330
A24C
100
AcDbEntity
  8
1
  6
Continuous
100
AcDbCircle
 10
258.6508509999998
 20
210.2414669999999
 30
0.0
 40
22.58547899999999
100
AcDbArc
 50
352.48102
 51
354.050899
  0
ARC
  5
A45C
330
A24C
100
AcDbEntity
  8
1
  6
Continuous
100
AcDbCircle
 10
307.365965
 20
204.4007919999998
 30
0.0
 40
26.481485
100
AcDbArc
 50
173.744984
 51
180.0
  0
ARC
  5
A45D
330
A24C
100
AcDbEntity
  8
1
  6
Continuous
100
AcDbCircle
 10
289.4485169999999
 20
209.5048379999998
 30
0.0
 40
8.333002
100
AcDbArc
 50
166.2838199999999
 51
183.827348
  0
LINE
  5
A45E
330
A24C
100
AcDbEntity
  8
1
  6
Continuous
100
AcDbLine
 10
280.88448
 20
204.4007919999998
 30
0.0
 11
280.88448
 21
200.6081029999998
 31
0.0
  0
LINE
  5
A45F
330
A24C
100
AcDbEntity
  8
1
  6
Continuous
100
AcDbLine
 10
271.270939
 20
219.8432319999998
 30
0.0
 11
329.1980199999999
 21
219.8432319999998
 31
0.0
  0
LINE
  5
A460
330
A24C
100
AcDbEntity
  8
1
  6
Continuous
100
AcDbLine
 10
271.270939
 20
222.1432319999999
 30
0.0
 11
329.1980199999999
 21
222.1432319999999
 31
0.0
  0
LINE
  5
A461
330
A24C
100
AcDbEntity
  8
1
  6
Continuous
100
AcDbLine
 10
279.3652189999999
 20
219.4765289999998
 30
0.0
 11
321.103742
 21
219.4765289999998
 31
0.0
  0
LINE
  5
A462
330
A24C
100
AcDbEntity
  8
1
  6
Continuous
100
AcDbLine
 10
329.1980199999999
 20
222.1432319999999
 30
0.0
 11
329.1980199999999
 21
219.8432319999998
 31
0.0
  0
LINE
  5
A463
330
A24C
100
AcDbEntity
  8
1
  6
Continuous
100
AcDbLine
 10
321.103742
 20
219.4765289999998
 30
0.0
 11
321.094612
 21
219.8432319999998
 31
0.0
  0
ARC
  5
A464
330
A24C
100
AcDbEntity
  8
1
  6
Continuous
100
AcDbCircle
 10
431.4738969999998
 20
96.485271
 30
0.0
 40
165.252597
100
AcDbArc
 50
131.9042349999998
 51
132.171579
  0
LINE
  5
A465
330
A24C
100
AcDbEntity
  8
1
  6
Continuous
100
AcDbLine
 10
279.3652189999999
 20
219.4765289999998
 30
0.0
 11
279.374349
 21
219.8432319999998
 31
0.0
  0
ARC
  5
A466
330
A24C
100
AcDbEntity
  8
1
  6
Continuous
100
AcDbCircle
 10
168.9950639999999
 20
96.485271
 30
0.0
 40
165.252597
100
AcDbArc
 50
47.82842099999999
 51
48.095765
  0
LINE
  5
A467
330
A24C
100
AcDbEntity
  8
1
  6
Continuous
100
AcDbLine
 10
271.270939
 20
222.1432319999999
 30
0.0
 11
271.270939
 21
219.8432319999998
 31
0.0
  0
LINE
  5
A468
330
A24C
100
AcDbEntity
  8
1
  6
Continuous
100
AcDbLine
 10
446.0573959999998
 20
222.1432319999999
 30
0.0
 11
387.848207
 21
222.1432319999999
 31
0.0
  0
LINE
  5
A469
330
A24C
100
AcDbEntity
  8
1
  6
Continuous
100
AcDbLine
 10
446.0573959999998
 20
219.8432319999998
 30
0.0
 11
387.848207
 21
219.8432319999998
 31
0.0
  0
LINE
  5
A46A
330
A24C
100
AcDbEntity
  8
1
  6
Continuous
100
AcDbLine
 10
425.6995319999998
 20
213.4427319999999
 30
0.0
 11
427.699532
 21
215.4427319999999
 31
0.0
  0
LINE
  5
A46B
330
A24C
100
AcDbEntity
  8
1
  6
Continuous
100
AcDbLine
 10
427.113745
 20
213.4427319999999
 30
0.0
 11
429.1137449999998
 21
215.4427319999999
 31
0.0
  0
LINE
  5
A46C
330
A24C
100
AcDbEntity
  8
1
  6
Continuous
100
AcDbLine
 10
428.285318
 20
213.4427319999999
 30
0.0
 11
426.2853179999998
 21
215.4427319999999
 31
0.0
  0
LINE
  5
A46D
330
A24C
100
AcDbEntity
  8
1
  6
Continuous
100
AcDbLine
 10
425.6285899999999
 20
213.4427319999999
 30
0.0
 11
432.0573959999999
 21
213.4427319999999
 31
0.0
  0
LINE
  5
A46E
330
A24C
100
AcDbEntity
  8
1
  6
Continuous
100
AcDbLine
 10
432.541546
 20
209.290572
 30
0.0
 11
426.71342
 21
207.870785
 31
0.0
  0
LINE
  5
A46F
330
A24C
100
AcDbEntity
  8
1
  6
Continuous
100
AcDbLine
 10
395.0573959999999
 20
213.8348419999999
 30
0.0
 11
429.9820419999998
 21
213.3868939999999
 31
0.0
  0
LINE
  5
A470
330
A24C
100
AcDbEntity
  8
1
  6
Continuous
100
AcDbLine
 10
395.0573959999999
 20
215.4427319999999
 30
0.0
 11
432.0573959999999
 21
215.4427319999999
 31
0.0
  0
LINE
  5
A471
330
A24C
100
AcDbEntity
  8
1
  6
Continuous
100
AcDbLine
 10
395.88157
 20
217.7744569999999
 30
0.0
 11
431.233222
 21
217.7744569999999
 31
0.0
  0
LINE
  5
A472
330
A24C
100
AcDbEntity
  8
1
  6
Continuous
100
AcDbLine
 10
396.936345
 20
217.537343
 30
0.0
 11
430.1784469999998
 21
217.537343
 31
0.0
  0
LINE
  5
A473
330
A24C
100
AcDbEntity
  8
1
  6
Continuous
100
AcDbLine
 10
392.6881339999998
 20
219.4765289999998
 30
0.0
 11
434.426658
 21
219.4765289999998
 31
0.0
  0
LINE
  5
A474
330
A24C
100
AcDbEntity
  8
1
  6
Continuous
100
AcDbLine
 10
431.758996
 20
217.0063789999999
 30
0.0
 11
395.3557959999998
 21
217.0063789999999
 31
0.0
  0
LINE
  5
A475
330
A24C
100
AcDbEntity
  8
1
  6
Continuous
100
AcDbLine
 10
421.9156569999998
 20
179.629545
 30
0.0
 11
428.8209539999998
 21
175.2569419999999
 31
0.0
  0
ARC
  5
A476
330
A24C
100
AcDbEntity
  8
1
  6
Continuous
100
AcDbCircle
 10
432.5573959999998
 20
182.143232
 30
0.0
 40
9.141799999999998
100
AcDbArc
 50
206.4247449999998
 51
344.873059
  0
ARC
  5
A477
330
A24C
100
AcDbEntity
  8
1
  6
Continuous
100
AcDbCircle
 10
432.5573959999998
 20
182.143232
 30
0.0
 40
8.6606
100
AcDbArc
 50
212.156561
 51
340.9824039999999
  0
LINE
  5
A478
330
A24C
100
AcDbEntity
  8
4
  6
CENTER
100
AcDbLine
 10
407.5573959999998
 20
182.143232
 30
0.0
 11
457.5573959999998
 21
182.143232
 31
0.0
  0
ARC
  5
A479
330
A24C
100
AcDbEntity
  8
1
  6
Continuous
100
AcDbCircle
 10
432.5573959999998
 20
182.143232
 30
0.0
 40
20.0
100
AcDbArc
 50
126.969252
 51
2.936730999999998
  0
ARC
  5
A47A
330
A24C
100
AcDbEntity
  8
1
  6
Continuous
100
AcDbCircle
 10
432.5573959999998
 20
182.143232
 30
0.0
 40
17.8564
100
AcDbArc
 50
123.074399
 51
6.278289
  0
LINE
  5
A47B
330
A24C
100
AcDbEntity
  8
4
  6
CENTER
100
AcDbLine
 10
440.057396
 20
224.806225
 30
0.0
 11
440.057396
 21
217.8618769999999
 31
0.0
  0
ARC
  5
A47C
330
A24C
100
AcDbEntity
  8
1
  6
Continuous
100
AcDbCircle
 10
430.236348
 20
222.9538729999999
 30
0.0
 40
5.388568
100
AcDbArc
 50
293.6985089999998
 51
312.171579
  0
ARC
  5
A47D
330
A24C
100
AcDbEntity
  8
1
  6
Continuous
100
AcDbCircle
 10
432.966044
 20
181.8029479999999
 30
0.0
 40
7.748028999999998
100
AcDbArc
 50
237.6570109999999
 51
338.0759739999998
  0
LINE
  5
A47E
330
A24C
100
AcDbEntity
  8
4
  6
CENTER
100
AcDbLine
 10
432.5573959999998
 20
157.143232
 30
0.0
 11
432.5573959999998
 21
207.1432319999999
 31
0.0
  0
ARC
  5
A47F
330
A24C
100
AcDbEntity
  8
1
  6
Continuous
100
AcDbCircle
 10
442.797719
 20
188.463807
 30
0.0
 40
15.35304
100
AcDbArc
 50
22.957351
 51
39.395705
  0
ARC
  5
A480
330
A24C
100
AcDbEntity
  8
1
  6
Continuous
100
AcDbCircle
 10
504.3239709999999
 20
87.20064
 30
0.0
 40
111.930463
100
AcDbArc
 50
120.688159
 51
124.980981
  0
ARC
  5
A481
330
A24C
100
AcDbEntity
  8
1
  6
Continuous
100
AcDbCircle
 10
433.773197
 20
184.64105
 30
0.0
 40
25.153829
100
AcDbArc
 50
15.488092
 51
22.957351
  0
ARC
  5
A482
330
A24C
100
AcDbEntity
  8
1
  6
Continuous
100
AcDbCircle
 10
440.469875
 20
186.4967039999999
 30
0.0
 40
18.204804
100
AcDbArc
 50
358.837404
 51
15.488092
  0
ARC
  5
A483
330
A24C
100
AcDbEntity
  8
1
  6
Continuous
100
AcDbCircle
 10
486.4666519999998
 20
185.56325
 30
0.0
 40
27.801444
100
AcDbArc
 50
178.8374039999999
 51
189.8699059999999
  0
ARC
  5
A484
330
A24C
100
AcDbEntity
  8
1
  6
Continuous
100
AcDbCircle
 10
458.471292
 20
180.847602
 30
0.0
 40
2.439900999999998
100
AcDbArc
 50
230.5273399999999
 51
240.204941
  0
ARC
  5
A485
330
A24C
100
AcDbEntity
  8
1
  6
Continuous
100
AcDbCircle
 10
444.3832679999998
 20
163.740838
 30
0.0
 40
19.721187
100
AcDbArc
 50
50.52734
 51
51.44137500000001
  0
ARC
  5
A486
330
A24C
100
AcDbEntity
  8
1
  6
Continuous
100
AcDbCircle
 10
487.834253
 20
218.2516339999998
 30
0.0
 40
49.988318
100
AcDbArc
 50
227.0756859999999
 51
231.4413749999999
  0
ARC
  5
A487
330
A24C
100
AcDbEntity
  8
1
  6
Continuous
100
AcDbCircle
 10
449.339519
 20
181.103404
 30
0.0
 40
3.801118999999999
100
AcDbArc
 50
32.42487
 51
49.04807699999999
  0
ARC
  5
A488
330
A24C
100
AcDbEntity
  8
1
  6
Continuous
100
AcDbCircle
 10
458.980315
 20
187.2275109999999
 30
0.0
 40
7.620334999999998
100
AcDbArc
 50
212.42487
 51
227.0756859999999
  0
ARC
  5
A489
330
A24C
100
AcDbEntity
  8
1
  6
Continuous
100
AcDbCircle
 10
449.9863539999998
 20
179.1613599999998
 30
0.0
 40
4.933761999999998
100
AcDbArc
 50
91.382334
 51
115.143327
  0
ARC
  5
A48A
330
A24C
100
AcDbEntity
  8
1
  6
Continuous
100
AcDbCircle
 10
450.147198
 20
172.495902
 30
0.0
 40
11.60116099999999
100
AcDbArc
 50
81.655215
 51
91.382334
  0
LINE
  5
A48B
330
A24C
100
AcDbEntity
  8
1
  6
Continuous
100
AcDbLine
 10
458.3116069999999
 20
178.645485
 30
0.0
 11
459.26694
 21
178.638957
 31
0.0
  0
ARC
  5
A48C
330
A24C
100
AcDbEntity
  8
1
  6
Continuous
100
AcDbCircle
 10
446.406809
 20
178.593368
 30
0.0
 40
12.86021199999999
100
AcDbArc
 50
0.2031140000000001
 51
9.869906
  0
ARC
  5
A48D
330
A24C
100
AcDbEntity
  8
1
  6
Continuous
100
AcDbCircle
 10
457.0879179999998
 20
170.026073
 30
0.0
 40
8.705842
100
AcDbArc
 50
81.91977099999999
 51
88.87459399999999
  0
ARC
  5
A48E
330
A24C
100
AcDbEntity
  8
1
  6
Continuous
100
AcDbCircle
 10
437.9555579999998
 20
154.1017399999998
 30
0.0
 40
32.5
100
AcDbArc
 50
49.024608
 51
63.32052100000001
  0
ARC
  5
A48F
330
A24C
100
AcDbEntity
  8
1
  6
Continuous
100
AcDbCircle
 10
447.111678
 20
185.2860739999999
 30
0.0
 40
1.832025999999999
100
AcDbArc
 50
272.7181199999999
 51
295.1433269999998
  0
ARC
  5
A490
330
A24C
100
AcDbEntity
  8
1
  6
Continuous
100
AcDbCircle
 10
428.158011
 20
168.945458
 30
0.0
 40
40.078968
100
AcDbArc
 50
67.532524
 51
78.797178
  0
ARC
  5
A491
330
A24C
100
AcDbEntity
  8
1
  6
Continuous
100
AcDbCircle
 10
438.3258269999998
 20
184.7911139999999
 30
0.0
 40
21.13979099999999
100
AcDbArc
 50
39.395705
 51
53.51975600000001
  0
ARC
  5
A492
330
A24C
100
AcDbEntity
  8
1
  6
Continuous
100
AcDbCircle
 10
430.1236049999998
 20
173.698451
 30
0.0
 40
34.935574
100
AcDbArc
 50
53.51975600000001
 51
67.532524
  0
ARC
  5
A493
330
A24C
100
AcDbEntity
  8
1
  6
Continuous
100
AcDbCircle
 10
439.183415
 20
224.613425
 30
0.0
 40
16.67032299999998
100
AcDbArc
 50
251.7439519999999
 51
258.7971779999999
  0
ARC
  5
A494
330
A24C
100
AcDbEntity
  8
1
  6
Continuous
100
AcDbCircle
 10
433.4930599999998
 20
208.2172079999998
 30
0.0
 40
0.7337270000000001
100
AcDbArc
 50
50.354707
 51
72.54682900000002
  0
ARC
  5
A495
330
A24C
100
AcDbEntity
  8
1
  6
Continuous
100
AcDbCircle
 10
433.991386
 20
209.9603069999998
 30
0.0
 40
1.070972
100
AcDbArc
 50
187.5050799999999
 51
234.303582
  0
ARC
  5
A496
330
A24C
100
AcDbEntity
  8
1
  6
Continuous
100
AcDbCircle
 10
434.0797649999998
 20
210.083316
 30
0.0
 40
1.222437999999999
100
AcDbArc
 50
234.303582
 51
252.546829
  0
ARC
  5
A497
330
A24C
100
AcDbEntity
  8
1
  6
Continuous
100
AcDbCircle
 10
427.4935469999999
 20
209.1042639999999
 30
0.0
 40
5.483012999999997
100
AcDbArc
 50
7.50508
 51
32.978851
  0
LINE
  5
A498
330
A24C
100
AcDbEntity
  8
1
  6
Continuous
100
AcDbLine
 10
432.0573959999999
 20
213.4427319999999
 30
0.0
 11
432.0573959999999
 21
215.4427319999999
 31
0.0
  0
LINE
  5
A499
330
A24C
100
AcDbEntity
  8
1
  6
Continuous
100
AcDbLine
 10
432.0573959999999
 20
215.3275079999999
 30
0.0
 11
431.942172
 21
215.4427319999999
 31
0.0
  0
ARC
  5
A49A
330
A24C
100
AcDbEntity
  8
1
  6
Continuous
100
AcDbCircle
 10
429.9610819999998
 20
211.752691
 30
0.0
 40
1.634336999999999
100
AcDbArc
 50
62.326731
 51
89.265156
  0
ARC
  5
A49B
330
A24C
100
AcDbEntity
  8
1
  6
Continuous
100
AcDbCircle
 10
427.928388
 20
207.876588
 30
0.0
 40
6.011096
100
AcDbArc
 50
53.09025
 51
62.326731
  0
LINE
  5
A49C
330
A24C
100
AcDbEntity
  8
1
  6
Continuous
100
AcDbLine
 10
430.489428
 20
217.5423079999999
 30
0.0
 11
430.1784469999998
 21
217.537343
 31
0.0
  0
LINE
  5
A49D
330
A24C
100
AcDbEntity
  8
1
  6
Continuous
100
AcDbLine
 10
431.275881
 20
215.500603
 30
0.0
 11
431.405928
 21
215.76257
 31
0.0
  0
ARC
  5
A49E
330
A24C
100
AcDbEntity
  8
1
  6
Continuous
100
AcDbCircle
 10
430.8878209999998
 20
216.2234799999999
 30
0.0
 40
0.69345
100
AcDbArc
 50
318.343544
 51
343.385468
  0
ARC
  5
A49F
330
A24C
100
AcDbEntity
  8
1
  6
Continuous
100
AcDbCircle
 10
430.99313
 20
216.1624069999998
 30
0.0
 40
0.719675
100
AcDbArc
 50
270.0
 51
293.1342879999999
  0
ARC
  5
A4A0
330
A24C
100
AcDbEntity
  8
1
  6
Continuous
100
AcDbCircle
 10
430.5164529999998
 20
215.8497279999999
 30
0.0
 40
1.692795999999999
100
AcDbArc
 50
60.900618
 51
90.914722
  0
ARC
  5
A4A1
330
A24C
100
AcDbEntity
  8
1
  6
Continuous
100
AcDbCircle
 10
428.9112639999998
 20
212.9657009999998
 30
0.0
 40
4.993438999999998
100
AcDbArc
 50
56.940309
 51
60.900618
  0
ARC
  5
A4A2
330
A24C
100
AcDbEntity
  8
1
  6
Continuous
100
AcDbCircle
 10
427.260608
 20
215.023205
 30
0.0
 40
3.765966
100
AcDbArc
 50
43.500695
 51
46.93308799999999
  0
ARC
  5
A4A3
330
A24C
100
AcDbEntity
  8
1
  6
Continuous
100
AcDbCircle
 10
430.1744389999998
 20
217.788394
 30
0.0
 40
0.251083
100
AcDbArc
 50
223.500695
 51
270.9147219999999
  0
LINE
  5
A4A4
330
A24C
100
AcDbEntity
  8
1
  6
Continuous
100
AcDbLine
 10
428.527959
 20
213.4427319999999
 30
0.0
 11
430.527959
 21
215.4427319999999
 31
0.0
  0
LINE
  5
A4A5
330
A24C
100
AcDbEntity
  8
1
  6
Continuous
100
AcDbLine
 10
429.6995319999998
 20
213.4427319999999
 30
0.0
 11
427.699532
 21
215.4427319999999
 31
0.0
  0
LINE
  5
A4A6
330
A24C
100
AcDbEntity
  8
1
  6
Continuous
100
AcDbLine
 10
431.113745
 20
213.4427319999999
 30
0.0
 11
429.1137449999998
 21
215.4427319999999
 31
0.0
  0
ARC
  5
A4A7
330
A24C
100
AcDbEntity
  8
1
  6
Continuous
100
AcDbCircle
 10
430.14054
 20
210.8218529999998
 30
0.0
 40
2.327591999999999
100
AcDbArc
 50
32.978851
 51
53.09025
  0
LINE
  5
A4A8
330
A24C
100
AcDbEntity
  8
1
  6
Continuous
100
AcDbLine
 10
431.55232
 20
216.0252009999999
 30
0.0
 11
431.7747759999998
 21
216.770727
 31
0.0
  0
ARC
  5
A4A9
330
A24C
100
AcDbEntity
  8
1
  6
Continuous
100
AcDbCircle
 10
431.4508319999998
 20
216.8673879999999
 30
0.0
 40
0.338058
100
AcDbArc
 50
343.385468
 51
56.940309
  0
ARC
  5
A4AA
330
A24C
100
AcDbEntity
  8
1
  6
Continuous
100
AcDbCircle
 10
431.233222
 20
220.682771
 30
0.0
 40
2.908313999999998
100
AcDbArc
 50
270.0
 51
293.6985089999998
  0
LINE
  5
A4AB
330
A24C
100
AcDbEntity
  8
1
  6
Continuous
100
AcDbLine
 10
429.9421719999998
 20
213.4427319999999
 30
0.0
 11
431.942172
 21
215.4427319999999
 31
0.0
  0
LINE
  5
A4AC
330
A24C
100
AcDbEntity
  8
1
  6
Continuous
100
AcDbLine
 10
432.0573959999999
 20
214.1437419999999
 30
0.0
 11
431.356386
 21
213.4427319999999
 31
0.0
  0
LINE
  5
A4AD
330
A24C
100
AcDbEntity
  8
1
  6
Continuous
100
AcDbLine
 10
432.0573959999999
 20
213.913294
 30
0.0
 11
430.527959
 21
215.4427319999999
 31
0.0
  0
LINE
  5
A4AE
330
A24C
100
AcDbEntity
  8
1
  6
Continuous
100
AcDbLine
 10
446.0573959999998
 20
222.1432319999999
 30
0.0
 11
446.0573959999998
 21
219.8432319999998
 31
0.0
  0
LINE
  5
A4AF
330
A24C
100
AcDbEntity
  8
1
  6
Continuous
100
AcDbLine
 10
434.426658
 20
219.4765289999998
 30
0.0
 11
434.417527
 21
219.8432319999998
 31
0.0
  0
ARC
  5
A4B0
330
A24C
100
AcDbEntity
  8
1
  6
Continuous
100
AcDbCircle
 10
544.796812
 20
96.485271
 30
0.0
 40
165.252597
100
AcDbArc
 50
131.9042349999998
 51
132.171579
  0
ARC
  5
A4B1
330
A24C
100
AcDbEntity
  8
1
  6
Continuous
100
AcDbCircle
 10
396.878444
 20
222.9538729999999
 30
0.0
 40
5.388568
100
AcDbArc
 50
227.8284209999998
 51
246.301491
  0
LINE
  5
A4B2
330
A24C
100
AcDbEntity
  8
4
  6
CENTER
100
AcDbLine
 10
413.557396
 20
227.1432319999999
 30
0.0
 11
413.557396
 21
195.852606
 31
0.0
  0
ARC
  5
A4B3
330
A24C
100
AcDbEntity
  8
1
  6
Continuous
100
AcDbCircle
 10
398.253359
 20
210.390677
 30
0.0
 40
3.792719
100
AcDbArc
 50
128.5203349999999
 51
165.955657
  0
ARC
  5
A4B4
330
A24C
100
AcDbEntity
  8
1
  6
Continuous
100
AcDbCircle
 10
400.1166559999998
 20
232.9987159999999
 30
0.0
 40
28.489157
100
AcDbArc
 50
260.4855
 51
261.6351159999999
  0
ARC
  5
A4B5
330
A24C
100
AcDbEntity
  8
1
  6
Continuous
100
AcDbCircle
 10
396.226971
 20
216.2234799999999
 30
0.0
 40
0.69345
100
AcDbArc
 50
196.614532
 51
221.656456
  0
ARC
  5
A4B6
330
A24C
100
AcDbEntity
  8
1
  6
Continuous
100
AcDbCircle
 10
398.203528
 20
212.9657009999998
 30
0.0
 40
4.993438999999998
100
AcDbArc
 50
119.0993819999999
 51
123.0596909999998
  0
ARC
  5
A4B7
330
A24C
100
AcDbEntity
  8
1
  6
Continuous
100
AcDbCircle
 10
395.88157
 20
220.682771
 30
0.0
 40
2.908313999999998
100
AcDbArc
 50
246.301491
 51
270.0
  0
LINE
  5
A4B8
330
A24C
100
AcDbEntity
  8
1
  6
Continuous
100
AcDbLine
 10
395.0573959999999
 20
213.913294
 30
0.0
 11
396.586833
 21
215.4427319999999
 31
0.0
  0
LINE
  5
A4B9
330
A24C
100
AcDbEntity
  8
1
  6
Continuous
100
AcDbLine
 10
396.8028969999999
 20
213.812454
 30
0.0
 11
395.1726199999998
 21
215.4427319999999
 31
0.0
  0
ARC
  5
A4BA
330
A24C
100
AcDbEntity
  8
1
  6
Continuous
100
AcDbCircle
 10
424.2003439999998
 20
197.830026
 30
0.0
 40
1.548205999999999
100
AcDbArc
 50
208.2507129999999
 51
280.7909739999999
  0
ARC
  5
A4BB
330
A24C
100
AcDbEntity
  8
1
  6
Continuous
100
AcDbCircle
 10
420.7720069999998
 20
193.393747
 30
0.0
 40
5.563524
100
AcDbArc
 50
314.9537519999999
 51
7.484856999999999
  0
ARC
  5
A4BC
330
A24C
100
AcDbEntity
  8
1
  6
Continuous
100
AcDbCircle
 10
424.5638669999998
 20
193.8919349999999
 30
0.0
 40
1.739077999999999
100
AcDbArc
 50
7.484856999999999
 51
30.97181400000001
  0
ARC
  5
A4BD
330
A24C
100
AcDbEntity
  8
1
  6
Continuous
100
AcDbCircle
 10
422.395098
 20
192.5902589999998
 30
0.0
 40
4.268488999999997
100
AcDbArc
 50
30.97181400000001
 51
60.604709
  0
ARC
  5
A4BE
330
A24C
100
AcDbEntity
  8
1
  6
Continuous
100
AcDbCircle
 10
424.101875
 20
183.082062
 30
0.0
 40
4.086491999999998
100
AcDbArc
 50
134.953752
 51
237.6570109999999
  0
LINE
  5
A4BF
330
A24C
100
AcDbEntity
  8
1
  6
Continuous
100
AcDbLine
 10
421.2146219999998
 20
185.973979
 30
0.0
 11
424.7028359999998
 21
189.4565669999998
 31
0.0
  0
LINE
  5
A4C0
330
A24C
100
AcDbEntity
  8
1
  6
Continuous
100
AcDbLine
 10
410.339285
 20
213.638835
 30
0.0
 11
412.1431819999998
 21
215.4427319999999
 31
0.0
  0
LINE
  5
A4C1
330
A24C
100
AcDbEntity
  8
1
  6
Continuous
100
AcDbLine
 10
412.5613669999998
 20
213.610334
 30
0.0
 11
410.7289689999998
 21
215.4427319999999
 31
0.0
  0
ARC
  5
A4C2
330
A24C
100
AcDbEntity
  8
1
  6
Continuous
100
AcDbCircle
 10
384.1799509999999
 20
88.13106399999998
 30
0.0
 40
116.2502409999998
100
AcDbArc
 50
74.683299
 51
77.22002999999998
  0
LINE
  5
A4C3
330
A24C
100
AcDbEntity
  8
1
  6
Continuous
100
AcDbLine
 10
415.9245029999998
 20
213.567198
 30
0.0
 11
417.8000369999998
 21
215.4427319999999
 31
0.0
  0
LINE
  5
A4C4
330
A24C
100
AcDbEntity
  8
1
  6
Continuous
100
AcDbLine
 10
417.320807
 20
213.549288
 30
0.0
 11
419.21425
 21
215.4427319999999
 31
0.0
  0
LINE
  5
A4C5
330
A24C
100
AcDbEntity
  8
1
  6
Continuous
100
AcDbLine
 10
418.7171109999998
 20
213.531379
 30
0.0
 11
420.6284639999998
 21
215.4427319999999
 31
0.0
  0
LINE
  5
A4C6
330
A24C
100
AcDbEntity
  8
1
  6
Continuous
100
AcDbLine
 10
420.1134159999998
 20
213.51347
 30
0.0
 11
422.0426769999998
 21
215.4427319999999
 31
0.0
  0
LINE
  5
A4C7
330
A24C
100
AcDbEntity
  8
1
  6
Continuous
100
AcDbLine
 10
421.50972
 20
213.495561
 30
0.0
 11
423.456891
 21
215.4427319999999
 31
0.0
  0
LINE
  5
A4C8
330
A24C
100
AcDbEntity
  8
1
  6
Continuous
100
AcDbLine
 10
422.9060249999998
 20
213.4776519999999
 30
0.0
 11
424.8711039999998
 21
215.4427319999999
 31
0.0
  0
LINE
  5
A4C9
330
A24C
100
AcDbEntity
  8
1
  6
Continuous
100
AcDbLine
 10
424.302329
 20
213.4597419999999
 30
0.0
 11
426.2853179999998
 21
215.4427319999999
 31
0.0
  0
LINE
  5
A4CA
330
A24C
100
AcDbEntity
  8
1
  6
Continuous
100
AcDbLine
 10
418.291719
 20
213.5368349999999
 30
0.0
 11
416.385823
 21
215.4427319999999
 31
0.0
  0
LINE
  5
A4CB
330
A24C
100
AcDbEntity
  8
1
  6
Continuous
100
AcDbLine
 10
419.7243069999998
 20
213.5184609999999
 30
0.0
 11
417.8000369999998
 21
215.4427319999999
 31
0.0
  0
LINE
  5
A4CC
330
A24C
100
AcDbEntity
  8
1
  6
Continuous
100
AcDbLine
 10
421.156896
 20
213.5000859999999
 30
0.0
 11
419.21425
 21
215.4427319999999
 31
0.0
  0
LINE
  5
A4CD
330
A24C
100
AcDbEntity
  8
1
  6
Continuous
100
AcDbLine
 10
422.5894839999998
 20
213.481712
 30
0.0
 11
420.6284639999998
 21
215.4427319999999
 31
0.0
  0
LINE
  5
A4CE
330
A24C
100
AcDbEntity
  8
1
  6
Continuous
100
AcDbLine
 10
424.0220719999999
 20
213.463337
 30
0.0
 11
422.0426769999998
 21
215.4427319999999
 31
0.0
  0
LINE
  5
A4CF
330
A24C
100
AcDbEntity
  8
1
  6
Continuous
100
AcDbLine
 10
425.45466
 20
213.444962
 30
0.0
 11
423.456891
 21
215.4427319999999
 31
0.0
  0
LINE
  5
A4D0
330
A24C
100
AcDbEntity
  8
1
  6
Continuous
100
AcDbLine
 10
426.871104
 20
213.4427319999999
 30
0.0
 11
424.8711039999998
 21
215.4427319999999
 31
0.0
  0
LINE
  5
A4D1
330
A24C
100
AcDbEntity
  8
1
  6
Continuous
100
AcDbLine
 10
411.7355899999997
 20
213.6209249999998
 30
0.0
 11
413.557396
 21
215.4427319999999
 31
0.0
  0
LINE
  5
A4D2
330
A24C
100
AcDbEntity
  8
1
  6
Continuous
100
AcDbLine
 10
413.1318939999998
 20
213.603016
 30
0.0
 11
414.97161
 21
215.4427319999999
 31
0.0
  0
LINE
  5
A4D3
330
A24C
100
AcDbEntity
  8
1
  6
Continuous
100
AcDbLine
 10
415.4265429999998
 20
213.573585
 30
0.0
 11
413.557396
 21
215.4427319999999
 31
0.0
  0
LINE
  5
A4D4
330
A24C
100
AcDbEntity
  8
1
  6
Continuous
100
AcDbLine
 10
413.9939549999998
 20
213.5919589999998
 30
0.0
 11
412.1431819999998
 21
215.4427319999999
 31
0.0
  0
LINE
  5
A4D5
330
A24C
100
AcDbEntity
  8
1
  6
Continuous
100
AcDbLine
 10
414.528198
 20
213.585107
 30
0.0
 11
416.385823
 21
215.4427319999999
 31
0.0
  0
LINE
  5
A4D6
330
A24C
100
AcDbEntity
  8
1
  6
Continuous
100
AcDbLine
 10
416.859131
 20
213.5552099999999
 30
0.0
 11
414.97161
 21
215.4427319999999
 31
0.0
  0
ARC
  5
A4D7
330
A24C
100
AcDbEntity
  8
1
  6
Continuous
100
AcDbCircle
 10
430.3261809999998
 20
216.978427
 30
0.0
 40
21.245169
100
AcDbArc
 50
243.3946469999999
 51
249.357661
  0
ARC
  5
A4D8
330
A24C
100
AcDbEntity
  8
1
  6
Continuous
100
AcDbCircle
 10
406.369259
 20
169.1487219999999
 30
0.0
 40
32.248894
100
AcDbArc
 50
63.394647
 51
74.683299
  0
LINE
  5
A4D9
330
A24C
100
AcDbEntity
  8
1
  6
Continuous
100
AcDbLine
 10
426.313571
 20
209.660223
 30
0.0
 11
426.313571
 21
196.811651
 31
0.0
  0
ARC
  5
A4DA
330
A24C
100
AcDbEntity
  8
1
  6
Continuous
100
AcDbCircle
 10
394.0843389999998
 20
161.6345409999999
 30
0.0
 40
42.887718
100
AcDbArc
 50
68.366912
 51
78.892228
  0
LINE
  5
A4DB
330
A24C
100
AcDbEntity
  8
1
  6
Continuous
100
AcDbLine
 10
408.9429809999998
 20
213.6567439999998
 30
0.0
 11
410.7289689999998
 21
215.4427319999999
 31
0.0
  0
LINE
  5
A4DC
330
A24C
100
AcDbEntity
  8
1
  6
Continuous
100
AcDbLine
 10
407.546677
 20
213.6746529999999
 30
0.0
 11
409.314755
 21
215.4427319999999
 31
0.0
  0
LINE
  5
A4DD
330
A24C
100
AcDbEntity
  8
1
  6
Continuous
100
AcDbLine
 10
406.150372
 20
213.6925619999999
 30
0.0
 11
407.9005419999998
 21
215.4427319999999
 31
0.0
  0
LINE
  5
A4DE
330
A24C
100
AcDbEntity
  8
1
  6
Continuous
100
AcDbLine
 10
404.754068
 20
213.710471
 30
0.0
 11
406.4863279999998
 21
215.4427319999999
 31
0.0
  0
LINE
  5
A4DF
330
A24C
100
AcDbEntity
  8
1
  6
Continuous
100
AcDbLine
 10
403.3577639999998
 20
213.728381
 30
0.0
 11
405.072115
 21
215.4427319999999
 31
0.0
  0
LINE
  5
A4E0
330
A24C
100
AcDbEntity
  8
1
  6
Continuous
100
AcDbLine
 10
401.9614589999997
 20
213.74629
 30
0.0
 11
403.6579009999998
 21
215.4427319999999
 31
0.0
  0
LINE
  5
A4E1
330
A24C
100
AcDbEntity
  8
1
  6
Continuous
100
AcDbLine
 10
400.565155
 20
213.764199
 30
0.0
 11
402.2436879999998
 21
215.4427319999999
 31
0.0
  0
LINE
  5
A4E2
330
A24C
100
AcDbEntity
  8
1
  6
Continuous
100
AcDbLine
 10
411.128779
 20
213.6287079999999
 30
0.0
 11
409.314755
 21
215.4427319999999
 31
0.0
  0
LINE
  5
A4E3
330
A24C
100
AcDbEntity
  8
1
  6
Continuous
100
AcDbLine
 10
409.69619
 20
213.6470829999999
 30
0.0
 11
407.9005419999998
 21
215.4427319999999
 31
0.0
  0
LINE
  5
A4E4
330
A24C
100
AcDbEntity
  8
1
  6
Continuous
100
AcDbLine
 10
408.2636019999998
 20
213.665458
 30
0.0
 11
406.4863279999998
 21
215.4427319999999
 31
0.0
  0
LINE
  5
A4E5
330
A24C
100
AcDbEntity
  8
1
  6
Continuous
100
AcDbLine
 10
406.8310139999998
 20
213.6838319999998
 30
0.0
 11
405.072115
 21
215.4427319999999
 31
0.0
  0
LINE
  5
A4E6
330
A24C
100
AcDbEntity
  8
1
  6
Continuous
100
AcDbLine
 10
405.398426
 20
213.7022069999999
 30
0.0
 11
403.6579009999998
 21
215.4427319999999
 31
0.0
  0
LINE
  5
A4E7
330
A24C
100
AcDbEntity
  8
1
  6
Continuous
100
AcDbLine
 10
403.9658379999998
 20
213.720581
 30
0.0
 11
402.2436879999998
 21
215.4427319999999
 31
0.0
  0
LINE
  5
A4E8
330
A24C
100
AcDbEntity
  8
1
  6
Continuous
100
AcDbLine
 10
402.53325
 20
213.7389559999999
 30
0.0
 11
400.829474
 21
215.4427319999999
 31
0.0
  0
ARC
  5
A4E9
330
A24C
100
AcDbEntity
  8
1
  6
Continuous
100
AcDbCircle
 10
397.200722
 20
211.2148599999999
 30
0.0
 40
2.592278999999999
100
AcDbArc
 50
89.265156
 51
92.80458299999999
  0
ARC
  5
A4EA
330
A24C
100
AcDbEntity
  8
1
  6
Continuous
100
AcDbCircle
 10
397.174715
 20
211.745731
 30
0.0
 40
2.060770999999999
100
AcDbArc
 50
92.80458299999999
 51
128.5203349999999
  0
LINE
  5
A4EB
330
A24C
100
AcDbEntity
  8
1
  6
Continuous
100
AcDbLine
 10
396.625364
 20
217.5423079999999
 30
0.0
 11
396.936345
 21
217.537343
 31
0.0
  0
LINE
  5
A4EC
330
A24C
100
AcDbEntity
  8
1
  6
Continuous
100
AcDbLine
 10
395.838911
 20
215.500603
 30
0.0
 11
395.708864
 21
215.76257
 31
0.0
  0
ARC
  5
A4ED
330
A24C
100
AcDbEntity
  8
1
  6
Continuous
100
AcDbCircle
 10
396.121662
 20
216.1624069999998
 30
0.0
 40
0.719675
100
AcDbArc
 50
246.865712
 51
270.0
  0
ARC
  5
A4EE
330
A24C
100
AcDbEntity
  8
1
  6
Continuous
100
AcDbCircle
 10
396.598339
 20
215.8497279999999
 30
0.0
 40
1.692795999999999
100
AcDbArc
 50
89.08527799999998
 51
119.0993819999999
  0
ARC
  5
A4EF
330
A24C
100
AcDbEntity
  8
1
  6
Continuous
100
AcDbCircle
 10
399.8541839999999
 20
215.023205
 30
0.0
 40
3.765966
100
AcDbArc
 50
133.0669129999998
 51
136.499305
  0
ARC
  5
A4F0
330
A24C
100
AcDbEntity
  8
1
  6
Continuous
100
AcDbCircle
 10
396.9403529999998
 20
217.788394
 30
0.0
 40
0.251083
100
AcDbArc
 50
269.0852779999999
 51
316.499305
  0
LINE
  5
A4F1
330
A24C
100
AcDbEntity
  8
1
  6
Continuous
100
AcDbLine
 10
397.7725459999999
 20
213.800017
 30
0.0
 11
399.4152599999999
 21
215.4427319999999
 31
0.0
  0
LINE
  5
A4F2
330
A24C
100
AcDbEntity
  8
1
  6
Continuous
100
AcDbLine
 10
396.376242
 20
213.817927
 30
0.0
 11
398.001047
 21
215.4427319999999
 31
0.0
  0
LINE
  5
A4F3
330
A24C
100
AcDbEntity
  8
1
  6
Continuous
100
AcDbLine
 10
399.6680729999998
 20
213.7757049999999
 30
0.0
 11
398.001047
 21
215.4427319999999
 31
0.0
  0
LINE
  5
A4F4
330
A24C
100
AcDbEntity
  8
1
  6
Continuous
100
AcDbLine
 10
398.235485
 20
213.7940799999999
 30
0.0
 11
396.586833
 21
215.4427319999999
 31
0.0
  0
ARC
  5
A4F5
330
A24C
100
AcDbEntity
  8
1
  6
Continuous
100
AcDbCircle
 10
376.315397
 20
71.13047399999998
 30
0.0
 40
135.119607
100
AcDbArc
 50
78.892228
 51
81.63511599999997
  0
LINE
  5
A4F6
330
A24C
100
AcDbEntity
  8
1
  6
Continuous
100
AcDbLine
 10
399.1688509999999
 20
213.782108
 30
0.0
 11
400.829474
 21
215.4427319999999
 31
0.0
  0
LINE
  5
A4F7
330
A24C
100
AcDbEntity
  8
1
  6
Continuous
100
AcDbLine
 10
401.1006619999998
 20
213.7573299999999
 30
0.0
 11
399.4152599999999
 21
215.4427319999999
 31
0.0
  0
LINE
  5
A4F8
330
A24C
100
AcDbEntity
  8
1
  6
Continuous
100
AcDbLine
 10
394.2987749999998
 20
205.0278599999999
 30
0.0
 11
395.2406339999998
 21
204.8903
 31
0.0
  0
ARC
  5
A4F9
330
A24C
100
AcDbEntity
  8
1
  6
Continuous
100
AcDbCircle
 10
395.08562
 20
205.4313089999999
 30
0.0
 40
0.8842489999999999
100
AcDbArc
 50
182.020906
 51
207.1461129999999
  0
ARC
  5
A4FA
330
A24C
100
AcDbEntity
  8
1
  6
Continuous
100
AcDbCircle
 10
400.604329
 20
205.626042
 30
0.0
 40
6.406392999999998
100
AcDbArc
 50
172.3137389999999
 51
182.020906
  0
ARC
  5
A4FB
330
A24C
100
AcDbEntity
  8
1
  6
Continuous
100
AcDbCircle
 10
370.6099899999999
 20
209.6741129999998
 30
0.0
 40
23.85988
100
AcDbArc
 50
352.313739
 51
356.261507
  0
ARC
  5
A4FC
330
A24C
100
AcDbEntity
  8
1
  6
Continuous
100
AcDbCircle
 10
400.153122
 20
209.9154509999999
 30
0.0
 40
5.751019999999998
100
AcDbArc
 50
165.955657
 51
183.9894219999999
  0
ARC
  5
A4FD
330
A24C
100
AcDbEntity
  8
1
  6
Continuous
100
AcDbCircle
 10
384.0760609999999
 20
208.7942159999998
 30
0.0
 40
10.365093
100
AcDbArc
 50
356.261507
 51
3.989421999999999
  0
ARC
  5
A4FE
330
A24C
100
AcDbEntity
  8
1
  6
Continuous
100
AcDbCircle
 10
395.455588
 20
202.9295999999999
 30
0.0
 40
1.972447999999999
100
AcDbArc
 50
91.39763100000001
 51
96.25642499999999
  0
LINE
  5
A4FF
330
A24C
100
AcDbEntity
  8
1
  6
Continuous
100
AcDbLine
 10
395.0573959999999
 20
213.8348419999999
 30
0.0
 11
395.0573959999999
 21
215.4427319999999
 31
0.0
  0
LINE
  5
A500
330
A24C
100
AcDbEntity
  8
1
  6
Continuous
100
AcDbLine
 10
395.562472
 20
216.0252009999999
 30
0.0
 11
395.340016
 21
216.770727
 31
0.0
  0
ARC
  5
A501
330
A24C
100
AcDbEntity
  8
1
  6
Continuous
100
AcDbCircle
 10
395.6639599999999
 20
216.8673879999999
 30
0.0
 40
0.338058
100
AcDbArc
 50
123.0596909999998
 51
196.614532
  0
LINE
  5
A502
330
A24C
100
AcDbEntity
  8
1
  6
Continuous
100
AcDbLine
 10
395.0573959999999
 20
215.3275079999999
 30
0.0
 11
395.1726199999998
 21
215.4427319999999
 31
0.0
  0
LINE
  5
A503
330
A24C
100
AcDbEntity
  8
1
  6
Continuous
100
AcDbLine
 10
395.3703089999999
 20
213.8308289999999
 30
0.0
 11
395.0573959999999
 21
214.1437419999999
 31
0.0
  0
LINE
  5
A504
330
A24C
100
AcDbEntity
  8
4
  6
CENTER
100
AcDbLine
 10
400.307396
 20
224.806225
 30
0.0
 11
400.307396
 21
218.727031
 31
0.0
  0
LINE
  5
A505
330
A24C
100
AcDbEntity
  8
1
  6
Continuous
100
AcDbLine
 10
387.848207
 20
222.1432319999999
 30
0.0
 11
387.848207
 21
219.8432319999998
 31
0.0
  0
LINE
  5
A506
330
A24C
100
AcDbEntity
  8
1
  6
Continuous
100
AcDbLine
 10
392.6881339999998
 20
219.4765289999998
 30
0.0
 11
392.697265
 21
219.8432319999998
 31
0.0
  0
ARC
  5
A507
330
A24C
100
AcDbEntity
  8
1
  6
Continuous
100
AcDbCircle
 10
282.3179799999999
 20
96.485271
 30
0.0
 40
165.252597
100
AcDbArc
 50
47.82842099999999
 51
48.095765
  0
CIRCLE
  5
A508
330
A24C
100
AcDbEntity
  8
1
  6
Continuous
100
AcDbCircle
 10
432.5573959999998
 20
182.143232
 30
0.0
 40
4.25
  0
LINE
  5
A509
330
A24C
100
AcDbEntity
  8
1
  6
Continuous
100
AcDbLine
 10
173.9914269999999
 20
58.876384
 30
0.0
 11
174.261518
 21
61.96354
 31
0.0
  0
ARC
  5
A50A
330
A24C
100
AcDbEntity
  8
1
  6
Continuous
100
AcDbCircle
 10
166.575174
 20
58.44816999999999
 30
0.0
 40
1.034630999999997
100
AcDbArc
 50
247.129869
 51
270.0
  0
LINE
  5
A50B
330
A24C
100
AcDbEntity
  8
1
  6
Continuous
100
AcDbLine
 10
170.911563
 20
57.96354
 30
0.0
 11
170.911563
 21
57.41354000000001
 31
0.0
  0
ARC
  5
A50C
330
A24C
100
AcDbEntity
  8
1
  6
Continuous
100
AcDbCircle
 10
172.9952319999999
 20
58.96354
 30
0.0
 40
1.0
100
AcDbArc
 50
270.0
 51
355.0
  0
LINE
  5
A50D
330
A24C
100
AcDbEntity
  8
1
  6
Continuous
100
AcDbLine
 10
162.8278939999999
 20
57.96354
 30
0.0
 11
172.9952319999999
 21
57.96354
 31
0.0
  0
LINE
  5
A50E
330
A24C
100
AcDbEntity
  8
1
  6
Continuous
100
AcDbLine
 10
163.661563
 20
54.480225
 30
0.0
 11
163.661563
 21
55.41354000000001
 31
0.0
  0
LINE
  5
A50F
330
A24C
100
AcDbEntity
  8
1
  6
Continuous
100
AcDbLine
 10
172.161563
 20
54.480225
 30
0.0
 11
172.161563
 21
55.41354000000001
 31
0.0
  0
ARC
  5
A510
330
A24C
100
AcDbEntity
  8
1
  6
Continuous
100
AcDbCircle
 10
167.911563
 20
62.41354000000001
 30
0.0
 40
9.0
100
AcDbArc
 50
241.8213569999999
 51
298.178643
  0
LINE
  5
A511
330
A24C
100
AcDbEntity
  8
1
  6
Continuous
100
AcDbLine
 10
163.661563
 20
54.480225
 30
0.0
 11
172.161563
 21
54.480225
 31
0.0
  0
LINE
  5
A512
330
A24C
100
AcDbEntity
  8
1
  6
Continuous
100
AcDbLine
 10
185.476223
 20
61.96354
 30
0.0
 11
150.3469029999999
 21
61.96354
 31
0.0
  0
LINE
  5
A513
330
A24C
100
AcDbEntity
  8
1
  6
Continuous
100
AcDbLine
 10
155.7520189999999
 20
82.51354
 30
0.0
 11
180.453576
 21
82.51354
 31
0.0
  0
LINE
  5
A514
330
A24C
100
AcDbEntity
  8
1
  6
Continuous
100
AcDbLine
 10
185.476223
 20
77.96353999999998
 30
0.0
 11
150.3469029999999
 21
77.96353999999998
 31
0.0
  0
ARC
  5
A515
330
A24C
100
AcDbEntity
  8
1
  6
Continuous
100
AcDbCircle
 10
171.911563
 20
69.96354000000001
 30
0.0
 40
16.0
100
AcDbArc
 50
331.0614719999999
 51
28.938528
  0
ARC
  5
A516
330
A24C
100
AcDbEntity
  8
1
  6
Continuous
100
AcDbCircle
 10
185.476223
 20
62.46354
 30
0.0
 40
0.5
100
AcDbArc
 50
270.0
 51
331.0614719999999
  0
ARC
  5
A517
330
A24C
100
AcDbEntity
  8
1
  6
Continuous
100
AcDbCircle
 10
185.476223
 20
77.46354000000002
 30
0.0
 40
0.5
100
AcDbArc
 50
28.938528
 51
90.0
  0
LINE
  5
A518
330
A24C
100
AcDbEntity
  8
1
  6
Continuous
100
AcDbLine
 10
164.0115629999999
 20
84.51354
 30
0.0
 11
164.0115629999999
 21
84.86210900000001
 31
0.0
  0
LINE
  5
A519
330
A24C
100
AcDbEntity
  8
1
  6
Continuous
100
AcDbLine
 10
171.8115629999998
 20
84.51354
 30
0.0
 11
171.8115629999998
 21
84.86210900000001
 31
0.0
  0
ARC
  5
A51A
330
A24C
100
AcDbEntity
  8
1
  6
Continuous
100
AcDbCircle
 10
167.911563
 20
73.51354
 30
0.0
 40
12.0
100
AcDbArc
 50
71.03442499999998
 51
108.965575
  0
LINE
  5
A51B
330
A24C
100
AcDbEntity
  8
1
  6
Continuous
100
AcDbLine
 10
164.0115629999999
 20
84.86210900000001
 30
0.0
 11
171.8115629999998
 21
84.86210900000001
 31
0.0
  0
LINE
  5
A51C
330
A24C
100
AcDbEntity
  8
1
  6
Continuous
100
AcDbLine
 10
170.911563
 20
81.96354000000003
 30
0.0
 11
170.911563
 21
82.51354
 31
0.0
  0
LINE
  5
A51D
330
A24C
100
AcDbEntity
  8
1
  6
Continuous
100
AcDbLine
 10
173.9914269999999
 20
81.05069499999997
 30
0.0
 11
174.261518
 21
77.96353999999998
 31
0.0
  0
ARC
  5
A51E
330
A24C
100
AcDbEntity
  8
1
  6
Continuous
100
AcDbCircle
 10
172.9952319999999
 20
80.96354000000003
 30
0.0
 40
1.0
100
AcDbArc
 50
5.0
 51
90.0
  0
LINE
  5
A51F
330
A24C
100
AcDbEntity
  8
1
  6
Continuous
100
AcDbLine
 10
162.8278939999999
 20
81.96354000000003
 30
0.0
 11
172.9952319999999
 21
81.96354000000003
 31
0.0
  0
ARC
  5
A520
330
A24C
100
AcDbEntity
  8
1
  6
Continuous
100
AcDbCircle
 10
150.3469029999999
 20
77.46354000000002
 30
0.0
 40
0.5
100
AcDbArc
 50
90.0
 51
151.061472
  0
ARC
  5
A521
330
A24C
100
AcDbEntity
  8
1
  6
Continuous
100
AcDbCircle
 10
163.911563
 20
69.96354000000001
 30
0.0
 40
16.0
100
AcDbArc
 50
151.061472
 51
208.9385279999999
  0
ARC
  5
A522
330
A24C
100
AcDbEntity
  8
1
  6
Continuous
100
AcDbCircle
 10
162.8278939999999
 20
80.96354000000003
 30
0.0
 40
1.0
100
AcDbArc
 50
90.0
 51
175.0
  0
LINE
  5
A523
330
A24C
100
AcDbEntity
  8
1
  6
Continuous
100
AcDbLine
 10
161.8316989999998
 20
81.05069499999997
 30
0.0
 11
161.561608
 21
77.96353999999998
 31
0.0
  0
LINE
  5
A524
330
A24C
100
AcDbEntity
  8
1
  6
Continuous
100
AcDbLine
 10
164.911563
 20
81.96354000000003
 30
0.0
 11
164.911563
 21
82.51354
 31
0.0
  0
ARC
  5
A525
330
A24C
100
AcDbEntity
  8
1
  6
Continuous
100
AcDbCircle
 10
162.8278939999999
 20
58.96354
 30
0.0
 40
1.0
100
AcDbArc
 50
185.0
 51
270.0
  0
LINE
  5
A526
330
A24C
100
AcDbEntity
  8
1
  6
Continuous
100
AcDbLine
 10
161.8316989999998
 20
58.876384
 30
0.0
 11
161.561608
 21
61.96354
 31
0.0
  0
LINE
  5
A527
330
A24C
100
AcDbEntity
  8
1
  6
Continuous
100
AcDbLine
 10
164.911563
 20
57.96354
 30
0.0
 11
164.911563
 21
57.41354000000001
 31
0.0
  0
ARC
  5
A528
330
A24C
100
AcDbEntity
  8
1
  6
Continuous
100
AcDbCircle
 10
150.3469029999999
 20
62.46354
 30
0.0
 40
0.5
100
AcDbArc
 50
208.9385279999999
 51
270.0
  0
ARC
  5
A529
330
A24C
100
AcDbEntity
  8
1
  6
Continuous
100
AcDbCircle
 10
155.7520189999999
 20
69.96354000000001
 30
0.0
 40
12.55
100
AcDbArc
 50
90.0
 51
270.0
  0
LINE
  5
A52A
330
A24C
100
AcDbEntity
  8
1
  6
Continuous
100
AcDbLine
 10
160.3152259999999
 20
84.51354
 30
0.0
 11
160.3152259999999
 21
82.51354
 31
0.0
  0
LINE
  5
A52B
330
A24C
100
AcDbEntity
  8
1
  6
Continuous
100
AcDbLine
 10
180.453576
 20
84.51354
 30
0.0
 11
180.453576
 21
82.51354
 31
0.0
  0
LINE
  5
A52C
330
A24C
100
AcDbEntity
  8
1
  6
Continuous
100
AcDbLine
 10
180.453576
 20
55.41354000000001
 30
0.0
 11
180.453576
 21
57.41354000000001
 31
0.0
  0
LINE
  5
A52D
330
A24C
100
AcDbEntity
  8
1
  6
Continuous
100
AcDbLine
 10
180.453576
 20
55.41354000000001
 30
0.0
 11
155.7520189999999
 21
55.41354000000001
 31
0.0
  0
LINE
  5
A52E
330
A24C
100
AcDbEntity
  8
1
  6
Continuous
100
AcDbLine
 10
155.7520189999999
 20
57.41354000000001
 30
0.0
 11
180.453576
 21
57.41354000000001
 31
0.0
  0
LINE
  5
A52F
330
A24C
100
AcDbEntity
  8
1
  6
Continuous
100
AcDbLine
 10
160.3152259999999
 20
55.41354000000001
 30
0.0
 11
160.3152259999999
 21
57.41354000000001
 31
0.0
  0
ARC
  5
A530
330
A24C
100
AcDbEntity
  8
1
  6
Continuous
100
AcDbCircle
 10
186.9115629999998
 20
69.96354000000001
 30
0.0
 40
19.35
100
AcDbArc
 50
228.7585319999998
 51
131.241468
  0
ARC
  5
A531
330
A24C
100
AcDbEntity
  8
1
  6
Continuous
100
AcDbCircle
 10
186.9115629999998
 20
69.96354000000001
 30
0.0
 40
17.35
100
AcDbArc
 50
236.994335
 51
123.0056649999998
  0
ARC
  5
A532
330
A24C
100
AcDbEntity
  8
1
  6
Continuous
100
AcDbCircle
 10
186.9115629999998
 20
69.96354000000001
 30
0.0
 40
20.869262
100
AcDbArc
 50
224.2026
 51
135.7974
  0
LINE
  5
A533
330
A24C
100
AcDbEntity
  8
1
  6
Continuous
100
AcDbLine
 10
312.2344799999999
 20
185.143232
 30
0.0
 11
312.7844799999999
 21
185.143232
 31
0.0
  0
ARC
  5
A534
330
A24C
100
AcDbEntity
  8
1
  6
Continuous
100
AcDbCircle
 10
311.2344799999998
 20
187.226901
 30
0.0
 40
1.0
100
AcDbArc
 50
0.0
 51
85.0
  0
LINE
  5
A535
330
A24C
100
AcDbEntity
  8
1
  6
Continuous
100
AcDbLine
 10
311.321636
 20
188.223096
 30
0.0
 11
308.2344799999999
 21
188.493187
 31
0.0
  0
LINE
  5
A536
330
A24C
100
AcDbEntity
  8
1
  6
Continuous
100
AcDbLine
 10
289.147325
 20
188.223096
 30
0.0
 11
292.2344799999999
 21
188.493187
 31
0.0
  0
ARC
  5
A537
330
A24C
100
AcDbEntity
  8
1
  6
Continuous
100
AcDbCircle
 10
289.2344799999999
 20
187.226901
 30
0.0
 40
1.0
100
AcDbArc
 50
95.0
 51
180.0
  0
LINE
  5
A538
330
A24C
100
AcDbEntity
  8
1
  6
Continuous
100
AcDbLine
 10
288.2344799999998
 20
185.143232
 30
0.0
 11
287.68448
 21
185.143232
 31
0.0
  0
ARC
  5
A539
330
A24C
100
AcDbEntity
  8
1
  6
Continuous
100
AcDbCircle
 10
318.38448
 20
200.6081029999998
 30
0.0
 40
1.199999999999999
100
AcDbArc
 50
0.0
 51
53.153886
  0
ARC
  5
A53A
330
A24C
100
AcDbEntity
  8
1
  6
Continuous
100
AcDbCircle
 10
312.5436029999999
 20
192.813528
 30
0.0
 40
10.940187
100
AcDbArc
 50
53.153886
 51
78.180459
  0
ARC
  5
A53B
330
A24C
100
AcDbEntity
  8
1
  6
Continuous
100
AcDbCircle
 10
300.2344799999999
 20
133.993299
 30
0.0
 40
71.034562
100
AcDbArc
 50
78.18045999999998
 51
101.8195399999999
  0
ARC
  5
A53C
330
A24C
100
AcDbEntity
  8
1
  6
Continuous
100
AcDbCircle
 10
316.2844799999998
 20
200.6081029999998
 30
0.0
 40
1.3
100
AcDbArc
 50
0.0
 51
44.238314
  0
ARC
  5
A53D
330
A24C
100
AcDbEntity
  8
1
  6
Continuous
100
AcDbCircle
 10
300.2344799999999
 20
151.986747
 30
0.0
 40
53.041114
100
AcDbArc
 50
76.313519
 51
103.6864809999999
  0
ARC
  5
A53E
330
A24C
100
AcDbEntity
  8
1
  6
Continuous
100
AcDbCircle
 10
282.0844799999999
 20
200.6081029999998
 30
0.0
 40
1.199999999999999
100
AcDbArc
 50
126.8461139999999
 51
180.0
  0
ARC
  5
A53F
330
A24C
100
AcDbEntity
  8
1
  6
Continuous
100
AcDbCircle
 10
287.9253569999999
 20
192.813528
 30
0.0
 40
10.940187
100
AcDbArc
 50
101.819541
 51
126.8461139999999
  0
ARC
  5
A540
330
A24C
100
AcDbEntity
  8
1
  6
Continuous
100
AcDbCircle
 10
300.2344799999999
 20
186.143232
 30
0.0
 40
16.0
100
AcDbArc
 50
61.061472
 51
118.938528
  0
ARC
  5
A541
330
A24C
100
AcDbEntity
  8
1
  6
Continuous
100
AcDbCircle
 10
292.7344799999999
 20
199.7078919999999
 30
0.0
 40
0.5
100
AcDbArc
 50
118.938528
 51
180.0
  0
ARC
  5
A542
330
A24C
100
AcDbEntity
  8
1
  6
Continuous
100
AcDbCircle
 10
307.7344799999999
 20
199.7078919999999
 30
0.0
 40
0.5
100
AcDbArc
 50
0.0
 51
61.061472
  0
LINE
  5
A543
330
A24C
100
AcDbEntity
  8
1
  6
Continuous
100
AcDbLine
 10
73.31354000000001
 20
204.4007919999998
 30
0.0
 11
73.31354000000001
 21
200.6081029999998
 31
0.0
  0
LINE
  5
A544
330
A24C
100
AcDbEntity
  8
1
  6
Continuous
100
AcDbLine
 10
34.61354
 20
204.4007919999998
 30
0.0
 11
34.61354
 21
200.6081029999998
 31
0.0
  0
ARC
  5
A545
330
A24C
100
AcDbEntity
  8
1
  6
Continuous
100
AcDbCircle
 10
316.5844799999999
 20
200.6081029999998
 30
0.0
 40
3.0
100
AcDbArc
 50
316.852208
 51
0.0
  0
ARC
  5
A546
330
A24C
100
AcDbEntity
  8
1
  6
Continuous
100
AcDbCircle
 10
311.6783569999999
 20
205.206853
 30
0.0
 40
9.724472999999999
100
AcDbArc
 50
292.5118219999998
 51
316.852208
  0
ARC
  5
A547
330
A24C
100
AcDbEntity
  8
1
  6
Continuous
100
AcDbCircle
 10
283.88448
 20
200.6081029999998
 30
0.0
 40
3.0
100
AcDbArc
 50
180.0
 51
223.1477919999999
  0
ARC
  5
A548
330
A24C
100
AcDbEntity
  8
1
  6
Continuous
100
AcDbCircle
 10
314.5844799999999
 20
200.6081029999998
 30
0.0
 40
3.0
100
AcDbArc
 50
312.8345239999999
 51
0.0
  0
ARC
  5
A549
330
A24C
100
AcDbEntity
  8
1
  6
Continuous
100
AcDbCircle
 10
308.280522
 20
207.407536
 30
0.0
 40
12.272118
100
AcDbArc
 50
291.531173
 51
312.8345239999999
  0
ARC
  5
A54A
330
A24C
100
AcDbEntity
  8
1
  6
Continuous
100
AcDbCircle
 10
315.7844799999999
 20
195.2995789999999
 30
0.0
 40
1.0
100
AcDbArc
 50
112.511822
 51
180.0
  0
ARC
  5
A54B
330
A24C
100
AcDbEntity
  8
1
  6
Continuous
100
AcDbCircle
 10
283.88448
 20
200.6081029999998
 30
0.0
 40
3.0
100
AcDbArc
 50
180.0
 51
223.1477919999999
  0
ARC
  5
A54C
330
A24C
100
AcDbEntity
  8
1
  6
Continuous
100
AcDbCircle
 10
288.7906019999999
 20
205.206853
 30
0.0
 40
9.724472999999999
100
AcDbArc
 50
223.1477919999999
 51
247.488178
  0
ARC
  5
A54D
330
A24C
100
AcDbEntity
  8
1
  6
Continuous
100
AcDbCircle
 10
292.1884379999998
 20
207.407536
 30
0.0
 40
12.272118
100
AcDbArc
 50
227.165476
 51
248.468827
  0
ARC
  5
A54E
330
A24C
100
AcDbEntity
  8
1
  6
Continuous
100
AcDbCircle
 10
285.8844799999999
 20
200.6081029999998
 30
0.0
 40
3.0
100
AcDbArc
 50
180.0
 51
227.165476
  0
ARC
  5
A54F
330
A24C
100
AcDbEntity
  8
1
  6
Continuous
100
AcDbCircle
 10
284.6844799999999
 20
195.2995789999999
 30
0.0
 40
1.0
100
AcDbArc
 50
0.0
 51
67.48817800000001
  0
ARC
  5
A550
330
A24C
100
AcDbEntity
  8
1
  6
Continuous
100
AcDbCircle
 10
70.31354
 20
200.6081029999998
 30
0.0
 40
3.0
100
AcDbArc
 50
316.852208
 51
0.0
  0
ARC
  5
A551
330
A24C
100
AcDbEntity
  8
1
  6
Continuous
100
AcDbCircle
 10
65.40741800000001
 20
205.206853
 30
0.0
 40
9.724472999999999
100
AcDbArc
 50
292.5118219999998
 51
316.852208
  0
ARC
  5
A552
330
A24C
100
AcDbEntity
  8
1
  6
Continuous
100
AcDbCircle
 10
69.51354000000001
 20
195.2995789999999
 30
0.0
 40
1.0
100
AcDbArc
 50
112.511822
 51
180.0
  0
ARC
  5
A553
330
A24C
100
AcDbEntity
  8
1
  6
Continuous
100
AcDbCircle
 10
37.61354
 20
200.6081029999998
 30
0.0
 40
3.0
100
AcDbArc
 50
180.0
 51
223.1477919999999
  0
ARC
  5
A554
330
A24C
100
AcDbEntity
  8
1
  6
Continuous
100
AcDbCircle
 10
42.519663
 20
205.206853
 30
0.0
 40
9.724472999999999
100
AcDbArc
 50
223.1477919999999
 51
247.488178
  0
ARC
  5
A555
330
A24C
100
AcDbEntity
  8
1
  6
Continuous
100
AcDbCircle
 10
38.41353999999999
 20
195.2995789999999
 30
0.0
 40
1.0
100
AcDbArc
 50
0.0
 51
67.48817800000001
  0
ARC
  5
A556
330
A24C
100
AcDbEntity
  8
1
  6
Continuous
100
AcDbCircle
 10
307.7129969999999
 20
182.696347
 30
0.0
 40
21.43403
100
AcDbArc
 50
68.88340500000001
 51
76.313518
  0
ARC
  5
A557
330
A24C
100
AcDbEntity
  8
1
  6
Continuous
100
AcDbCircle
 10
313.6336359999999
 20
198.0268189999999
 30
0.0
 40
5.0
100
AcDbArc
 50
44.238314
 51
68.88340500000001
  0
ARC
  5
A558
330
A24C
100
AcDbEntity
  8
1
  6
Continuous
100
AcDbCircle
 10
284.18448
 20
200.6081029999998
 30
0.0
 40
1.3
100
AcDbArc
 50
135.761686
 51
180.0
  0
ARC
  5
A559
330
A24C
100
AcDbEntity
  8
1
  6
Continuous
100
AcDbCircle
 10
286.835324
 20
198.0268189999999
 30
0.0
 40
5.0
100
AcDbArc
 50
111.1165949999998
 51
135.761686
  0
ARC
  5
A55A
330
A24C
100
AcDbEntity
  8
1
  6
Continuous
100
AcDbCircle
 10
292.755963
 20
182.696347
 30
0.0
 40
21.43403
100
AcDbArc
 50
103.686482
 51
111.1165949999998
  0
ENDSEC
  0
SECTION
  2
OBJECTS
  0
DICTIONARY
  5
A23A
330
0
100
AcDbDictionary
281
     1
  3
ACAD_CIP_PREVIOUS_PRODUCT_INFO
350
A5BC
  3
ACAD_COLOR
350
A59E
  3
ACAD_DETAILVIEWSTYLE
350
A5B7
  3
ACAD_GROUP
350
A23B
  3
ACAD_LAYOUT
350
A247
  3
ACAD_MATERIAL
350
A56C
  3
ACAD_MLEADERSTYLE
350
A5B3
  3
ACAD_MLINESTYLE
350
A244
  3
ACAD_PLOTSETTINGS
350
A246
  3
ACAD_PLOTSTYLENAME
350
A56A
  3
ACAD_SCALELIST
350
A5A1
  3
ACAD_SECTIONVIEWSTYLE
350
A5B5
  3
ACAD_TABLESTYLE
350
A59F
  3
ACAD_VISUALSTYLE
350
A585
  3
ACDB_RECOMPOSE_DATA
350
A5DA
  3
AcDbVariableDictionary
350
A5CD
  3
DWGPROPS
350
A5DB
  0
DICTIONARY
  5
A5BD
330
A23E
100
AcDbDictionary
280
     1
281
     1
  3
ADSK_XREC_LAYER_RECONCILED
360
A5BE
  0
DICTIONARY
  5
A5BF
330
A254
100
AcDbDictionary
280
     1
281
     1
  3
ADSK_XREC_LAYER_RECONCILED
360
A5C0
  0
DICTIONARY
  5
A5C1
330
A255
100
AcDbDictionary
280
     1
281
     1
  3
ADSK_XREC_LAYER_RECONCILED
360
A5C2
  0
DICTIONARY
  5
A5C3
330
A256
100
AcDbDictionary
280
     1
281
     1
  3
ADSK_XREC_LAYER_RECONCILED
360
A5C4
  0
DICTIONARY
  5
A5C5
330
A257
100
AcDbDictionary
280
     1
281
     1
  3
ADSK_XREC_LAYER_RECONCILED
360
A5C6
  0
DICTIONARY
  5
A5C7
330
A258
100
AcDbDictionary
280
     1
281
     1
  3
ADSK_XREC_LAYER_RECONCILED
360
A5C8
  0
DICTIONARY
  5
A5C9
330
A259
100
AcDbDictionary
280
     1
281
     1
  3
ADSK_XREC_LAYER_RECONCILED
360
A5CA
  0
DICTIONARY
  5
A5CB
330
A25A
100
AcDbDictionary
280
     1
281
     1
  3
ADSK_XREC_LAYER_RECONCILED
360
A5CC
  0
DICTIONARY
  5
A565
330
A24C
100
AcDbDictionary
281
     1
  3
ACAD_LAYOUTSELFREF
350
A566
  0
DICTIONARY
  5
A563
330
A248
100
AcDbDictionary
281
     1
  3
ACAD_LAYOUTSELFREF
350
A564
  0
XRECORD
  5
A5BC
102
{ACAD_REACTORS
330
A23A
102
}
330
A23A
100
AcDbXrecord
280
     1
300
ACDLT
300
2014
300
ACDLT_F_S
  0
DICTIONARY
  5
A59E
102
{ACAD_REACTORS
330
A23A
102
}
330
A23A
100
AcDbDictionary
281
     1
  0
DICTIONARY
  5
A5B7
102
{ACAD_REACTORS
330
A23A
102
}
330
A23A
100
AcDbDictionary
281
     1
  3
Imperial24
350
A5B8
  0
DICTIONARY
  5
A23B
102
{ACAD_REACTORS
330
A23A
102
}
330
A23A
100
AcDbDictionary
281
     1
  0
DICTIONARY
  5
A247
102
{ACAD_REACTORS
330
A23A
102
}
330
A23A
100
AcDbDictionary
281
     1
  3
Model
350
A5B9
  3
レイアウト1
350
A5BA
  0
DICTIONARY
  5
A56C
102
{ACAD_REACTORS
330
A23A
102
}
330
A23A
100
AcDbDictionary
281
     1
  3
ByBlock
350
A575
  3
ByLayer
350
A56D
  3
Global
350
A57D
  0
DICTIONARY
  5
A5B3
102
{ACAD_REACTORS
330
A23A
102
}
330
A23A
100
AcDbDictionary
281
     1
  3
Standard
350
A5B4
  0
DICTIONARY
  5
A244
102
{ACAD_REACTORS
330
A23A
102
}
330
A23A
100
AcDbDictionary
281
     1
  3
STANDARD
350
A245
  0
DICTIONARY
  5
A246
102
{ACAD_REACTORS
330
A23A
102
}
330
A23A
100
AcDbDictionary
281
     1
  0
ACDBDICTIONARYWDFLT
  5
A56A
102
{ACAD_REACTORS
330
A23A
102
}
330
A23A
100
AcDbDictionary
281
     1
  3
Normal
350
A56B
100
AcDbDictionaryWithDefault
340
A56B
  0
DICTIONARY
  5
A5A1
102
{ACAD_REACTORS
330
A23A
102
}
330
A23A
100
AcDbDictionary
281
     1
  3
A0
350
A5A2
  3
A1
350
A5A3
  3
A2
350
A5A4
  3
A3
350
A5A5
  3
A4
350
A5A6
  3
A5
350
A5A7
  3
A6
350
A5A8
  3
A7
350
A5A9
  3
A8
350
A5AA
  3
A9
350
A5AB
  3
B0
350
A5AC
  3
B1
350
A5AD
  3
B2
350
A5AE
  3
B3
350
A5AF
  3
B4
350
A5B0
  3
B5
350
A5B1
  3
B6
350
A5B2
  0
DICTIONARY
  5
A5B5
102
{ACAD_REACTORS
330
A23A
102
}
330
A23A
100
AcDbDictionary
281
     1
  3
Imperial24
350
A5B6
  0
DICTIONARY
  5
A59F
102
{ACAD_REACTORS
330
A23A
102
}
330
A23A
100
AcDbDictionary
281
     1
  3
Standard
350
A5A0
  0
DICTIONARY
  5
A585
102
{ACAD_REACTORS
330
A23A
102
}
330
A23A
100
AcDbDictionary
281
     1
  3
2dWireframe
350
A58B
  3
Basic
350
A58A
  3
Brighten
350
A591
  3
ColorChange
350
A595
  3
Conceptual
350
A58E
  3
Dim
350
A590
  3
EdgeColorOff
350
A59D
  3
Facepattern
350
A594
  3
Flat
350
A586
  3
FlatWithEdges
350
A587
  3
Gouraud
350
A588
  3
GouraudWithEdges
350
A589
  3
Hidden
350
A58D
  3
JitterOff
350
A59B
  3
Linepattern
350
A593
  3
OverhangOff
350
A59C
  3
Realistic
350
A58F
  3
Shaded
350
A59A
  3
Shaded with edges
350
A599
  3
Shades of Gray
350
A596
  3
Sketchy
350
A597
  3
Thicken
350
A592
  3
Wireframe
350
A58C
  3
X-Ray
350
A598
  0
XRECORD
  5
A5DA
102
{ACAD_REACTORS
330
A23A
102
}
330
A23A
100
AcDbXrecord
280
     1
 90
        1
330
A5A0
  0
DICTIONARY
  5
A5CD
102
{ACAD_REACTORS
330
A23A
102
}
330
A23A
100
AcDbDictionary
281
     1
  3
CANNOSCALE
350
A5D2
  3
CMLEADERSTYLE
350
A5CF
  3
CTABLESTYLE
350
A5CE
  3
CVIEWDETAILSTYLE
350
A5D0
  3
CVIEWSECTIONSTYLE
350
A5D1
  3
DIMASSOC
350
A5D5
  3
INDEXCTL
350
A5D4
  3
SORTENTS
350
A5D3
  3
XCLIPFRAME
350
A5D6
  0
XRECORD
  5
A5DB
102
{ACAD_REACTORS
330
A23A
102
}
330
A23A
100
AcDbXrecord
280
     1
  1
DWGPROPS COOKIE
  2

  3

  4

  6

  7

  8
Yoshitsune
  9

300
=
301
=
302
=
303
=
304
=
305
=
306
=
307
=
308
=
309
=
 40
0.00009375
 41
2451345.357210764
 42
2457618.719888137
  1

 90
        0
  0
XRECORD
  5
A5BE
102
{ACAD_REACTORS
330
A5BD
102
}
330
A5BD
100
AcDbXrecord
280
     1
290
     1
  0
XRECORD
  5
A5C0
102
{ACAD_REACTORS
330
A5BF
102
}
330
A5BF
100
AcDbXrecord
280
     1
290
     1
  0
XRECORD
  5
A5C2
102
{ACAD_REACTORS
330
A5C1
102
}
330
A5C1
100
AcDbXrecord
280
     1
290
     1
  0
XRECORD
  5
A5C4
102
{ACAD_REACTORS
330
A5C3
102
}
330
A5C3
100
AcDbXrecord
280
     1
290
     1
  0
XRECORD
  5
A5C6
102
{ACAD_REACTORS
330
A5C5
102
}
330
A5C5
100
AcDbXrecord
280
     1
290
     1
  0
XRECORD
  5
A5C8
102
{ACAD_REACTORS
330
A5C7
102
}
330
A5C7
100
AcDbXrecord
280
     1
290
     1
  0
XRECORD
  5
A5CA
102
{ACAD_REACTORS
330
A5C9
102
}
330
A5C9
100
AcDbXrecord
280
     1
290
     1
  0
XRECORD
  5
A5CC
102
{ACAD_REACTORS
330
A5CB
102
}
330
A5CB
100
AcDbXrecord
280
     1
290
     1
  0
XRECORD
  5
A566
102
{ACAD_REACTORS
330
A565
102
}
330
A565
100
AcDbXrecord
280
     1
340
A24C
  0
XRECORD
  5
A564
102
{ACAD_REACTORS
330
A563
102
}
330
A563
100
AcDbXrecord
280
     1
340
A248
  0
ACDBDETAILVIEWSTYLE
  5
A5B8
102
{ACAD_XDICTIONARY
360
A613
102
}
102
{ACAD_REACTORS
330
A5B7
102
}
330
A5B7
100
AcDbModelDocViewStyle
 70
     0
  3
Imperial24
290
     0
100
AcDbDetailViewStyle
 70
     0
 71
     0
 90
        3
 71
     1
340
A23F
 40
0.24
340
0
 40
0.24
300

 40
0.36
280
     3
 71
     2
340
A243
 90
       25
 71
     3
340
A23F
 40
0.24
 90
        1
 40
0.75
 90
        1
300
%<\AcVar ViewType \f "%tc1">% %<\AcVar ViewDetailId>%\PSCALE %<\AcVar ViewScale \f "%sn">%
 71
     4
340
A243
 90
       25
340
A243
 90
       25
280
     0
  0
LAYOUT
  5
A5B9
102
{ACAD_XDICTIONARY
360
A615
102
}
102
{ACAD_REACTORS
330
A247
102
}
330
A247
100
AcDbPlotSettings
  1

  2
Canon LBP9100C
  4

  6

 40
0.0
 41
0.0
 42
0.0
 43
0.0
 44
0.0
 45
0.0
 46
0.0
 47
0.0
 48
0.0
 49
0.0
140
0.0
141
0.0
142
1.0
143
1.0
 70
  1712
 72
     0
 73
     0
 74
     0
  7

 75
     0
147
1.0
148
0.0
149
0.0
100
AcDbLayout
  1
Model
 70
     1
 71
     0
 10
0.0
 20
0.0
 11
12.0
 21
9.0
 12
0.0
 22
0.0
 32
0.0
 14
0.0
 24
0.0
 34
0.0
 15
0.0
 25
0.0
 35
0.0
146
0.0
 13
0.0
 23
0.0
 33
0.0
 16
1.0
 26
0.0
 36
0.0
 17
0.0
 27
1.0
 37
0.0
 76
     0
330
A24C
331
A562
  0
LAYOUT
  5
A5BA
102
{ACAD_XDICTIONARY
360
A617
102
}
102
{ACAD_REACTORS
330
A247
102
}
330
A247
100
AcDbPlotSettings
  1

  2
Canon LBP9100C
  4

  6

 40
0.0
 41
0.0
 42
0.0
 43
0.0
 44
0.0
 45
0.0
 46
0.0
 47
0.0
 48
0.0
 49
0.0
140
0.0
141
0.0
142
1.0
143
1.0
 70
   688
 72
     0
 73
     0
 74
     5
  7

 75
    16
147
1.0
148
0.0
149
0.0
100
AcDbLayout
  1
レイアウト1
 70
     0
 71
     1
 10
0.0
 20
0.0
 11
420.0
 21
297.0
 12
0.0
 22
0.0
 32
0.0
 14
1.000000000000000E+20
 24
1.000000000000000E+20
 34
1.000000000000000E+20
 15
-1.000000000000000E+20
 25
-1.000000000000000E+20
 35
-1.000000000000000E+20
146
0.0
 13
0.0
 23
0.0
 33
0.0
 16
1.0
 26
0.0
 36
0.0
 17
0.0
 27
1.0
 37
0.0
 76
     0
330
A248
  0
MATERIAL
  5
A575
102
{ACAD_XDICTIONARY
360
A576
102
}
102
{ACAD_REACTORS
330
A56C
102
}
330
A56C
100
AcDbMaterial
  1
ByBlock
 72
     0
 43
0.0208333333333333
 43
0.0
 43
0.0
 43
0.0
 43
0.0
 43
0.0208333333333333
 43
0.0
 43
0.0
 43
0.0
 43
0.0
 43
1.0
 43
0.0
 43
0.0
 43
0.0
 43
0.0
 43
1.0
 77
     0
 47
0.0208333333333333
 47
0.0
 47
0.0
 47
0.0
 47
0.0
 47
0.0208333333333333
 47
0.0
 47
0.0
 47
0.0
 47
0.0
 47
1.0
 47
0.0
 47
0.0
 47
0.0
 47
0.0
 47
1.0
171
     0
 49
0.0208333333333333
 49
0.0
 49
0.0
 49
0.0
 49
0.0
 49
0.0208333333333333
 49
0.0
 49
0.0
 49
0.0
 49
0.0
 49
1.0
 49
0.0
 49
0.0
 49
0.0
 49
0.0
 49
1.0
175
     0
142
0.0208333333333333
142
0.0
142
0.0
142
0.0
142
0.0
142
0.0208333333333333
142
0.0
142
0.0
142
0.0
142
0.0
142
1.0
142
0.0
142
0.0
142
0.0
142
0.0
142
1.0
179
     0
144
0.0208333333333333
144
0.0
144
0.0
144
0.0
144
0.0
144
0.0208333333333333
144
0.0
144
0.0
144
0.0
144
0.0
144
1.0
144
0.0
144
0.0
144
0.0
144
0.0
144
1.0
147
0.0208333333333333
147
0.0
147
0.0
147
0.0
147
0.0
147
0.0208333333333333
147
0.0
147
0.0
147
0.0
147
0.0
147
1.0
147
0.0
147
0.0
147
0.0
147
0.0
147
1.0
  0
MATERIAL
  5
A56D
102
{ACAD_XDICTIONARY
360
A56E
102
}
102
{ACAD_REACTORS
330
A56C
102
}
330
A56C
100
AcDbMaterial
  1
ByLayer
 72
     0
 43
0.0208333333333333
 43
0.0
 43
0.0
 43
0.0
 43
0.0
 43
0.0208333333333333
 43
0.0
 43
0.0
 43
0.0
 43
0.0
 43
1.0
 43
0.0
 43
0.0
 43
0.0
 43
0.0
 43
1.0
 77
     0
 47
0.0208333333333333
 47
0.0
 47
0.0
 47
0.0
 47
0.0
 47
0.0208333333333333
 47
0.0
 47
0.0
 47
0.0
 47
0.0
 47
1.0
 47
0.0
 47
0.0
 47
0.0
 47
0.0
 47
1.0
171
     0
 49
0.0208333333333333
 49
0.0
 49
0.0
 49
0.0
 49
0.0
 49
0.0208333333333333
 49
0.0
 49
0.0
 49
0.0
 49
0.0
 49
1.0
 49
0.0
 49
0.0
 49
0.0
 49
0.0
 49
1.0
175
     0
142
0.0208333333333333
142
0.0
142
0.0
142
0.0
142
0.0
142
0.0208333333333333
142
0.0
142
0.0
142
0.0
142
0.0
142
1.0
142
0.0
142
0.0
142
0.0
142
0.0
142
1.0
179
     0
144
0.0208333333333333
144
0.0
144
0.0
144
0.0
144
0.0
144
0.0208333333333333
144
0.0
144
0.0
144
0.0
144
0.0
144
1.0
144
0.0
144
0.0
144
0.0
144
0.0
144
1.0
147
0.0208333333333333
147
0.0
147
0.0
147
0.0
147
0.0
147
0.0208333333333333
147
0.0
147
0.0
147
0.0
147
0.0
147
1.0
147
0.0
147
0.0
147
0.0
147
0.0
147
1.0
  0
MATERIAL
  5
A57D
102
{ACAD_XDICTIONARY
360
A57E
102
}
102
{ACAD_REACTORS
330
A56C
102
}
330
A56C
100
AcDbMaterial
  1
Global
 72
     0
 43
0.0208333333333333
 43
0.0
 43
0.0
 43
0.0
 43
0.0
 43
0.0208333333333333
 43
0.0
 43
0.0
 43
0.0
 43
0.0
 43
1.0
 43
0.0
 43
0.0
 43
0.0
 43
0.0
 43
1.0
 77
     0
 47
0.0208333333333333
 47
0.0
 47
0.0
 47
0.0
 47
0.0
 47
0.0208333333333333
 47
0.0
 47
0.0
 47
0.0
 47
0.0
 47
1.0
 47
0.0
 47
0.0
 47
0.0
 47
0.0
 47
1.0
171
     0
 49
0.0208333333333333
 49
0.0
 49
0.0
 49
0.0
 49
0.0
 49
0.0208333333333333
 49
0.0
 49
0.0
 49
0.0
 49
0.0
 49
1.0
 49
0.0
 49
0.0
 49
0.0
 49
0.0
 49
1.0
175
     0
142
0.0208333333333333
142
0.0
142
0.0
142
0.0
142
0.0
142
0.0208333333333333
142
0.0
142
0.0
142
0.0
142
0.0
142
1.0
142
0.0
142
0.0
142
0.0
142
0.0
142
1.0
179
     0
144
0.0208333333333333
144
0.0
144
0.0
144
0.0
144
0.0
144
0.0208333333333333
144
0.0
144
0.0
144
0.0
144
0.0
144
1.0
144
0.0
144
0.0
144
0.0
144
0.0
144
1.0
147
0.0208333333333333
147
0.0
147
0.0
147
0.0
147
0.0
147
0.0208333333333333
147
0.0
147
0.0
147
0.0
147
0.0
147
1.0
147
0.0
147
0.0
147
0.0
147
0.0
147
1.0
  0
MLEADERSTYLE
  5
A5B4
102
{ACAD_REACTORS
330
A5B3
102
}
330
A5B3
100
AcDbMLeaderStyle
170
     2
171
     1
172
     0
 90
        2
 40
0.0
 41
0.0
173
     1
 91
-1056964608
340
A241
 92
       -2
290
     1
 42
0.09
291
     1
 43
0.36
  3
Standard
 44
0.18
300

342
A23F
174
     1
178
     6
175
     1
176
     0
 93
-1056964608
 45
0.18
292
     0
297
     0
 46
0.18
 94
-1056964608
 47
1.0
 49
1.0
140
1.0
293
     1
141
0.0
294
     1
177
     0
142
1.0
295
     0
296
     0
143
0.125
1001
ACAD_MLEADERVER
1070
     2
  0
MLINESTYLE
  5
A245
102
{ACAD_REACTORS
330
A244
102
}
330
A244
100
AcDbMlineStyle
  2
STANDARD
 70
     0
  3

 62
   256
 51
90.0
 52
90.0
 71
     2
 49
0.5
 62
   256
  6
BYLAYER
 49
-0.5
 62
   256
  6
BYLAYER
  0
ACDBPLACEHOLDER
  5
A56B
102
{ACAD_REACTORS
330
A56A
102
}
330
A56A
  0
SCALE
  5
A5A2
102
{ACAD_REACTORS
330
A5A1
102
}
330
A5A1
100
AcDbScale
 70
     0
300
1:1
140
1.0
141
1.0
290
     1
  0
SCALE
  5
A5A3
102
{ACAD_REACTORS
330
A5A1
102
}
330
A5A1
100
AcDbScale
 70
     0
300
1/128" = 1'-0"
140
0.0078125
141
12.0
290
     0
  0
SCALE
  5
A5A4
102
{ACAD_REACTORS
330
A5A1
102
}
330
A5A1
100
AcDbScale
 70
     0
300
1/64" = 1'-0"
140
0.015625
141
12.0
290
     0
  0
SCALE
  5
A5A5
102
{ACAD_REACTORS
330
A5A1
102
}
330
A5A1
100
AcDbScale
 70
     0
300
1/32" = 1'-0"
140
0.03125
141
12.0
290
     0
  0
SCALE
  5
A5A6
102
{ACAD_REACTORS
330
A5A1
102
}
330
A5A1
100
AcDbScale
 70
     0
300
1/16" = 1'-0"
140
0.0625
141
12.0
290
     0
  0
SCALE
  5
A5A7
102
{ACAD_REACTORS
330
A5A1
102
}
330
A5A1
100
AcDbScale
 70
     0
300
3/32" = 1'-0"
140
0.09375
141
12.0
290
     0
  0
SCALE
  5
A5A8
102
{ACAD_REACTORS
330
A5A1
102
}
330
A5A1
100
AcDbScale
 70
     0
300
1/8" = 1'-0"
140
0.125
141
12.0
290
     0
  0
SCALE
  5
A5A9
102
{ACAD_REACTORS
330
A5A1
102
}
330
A5A1
100
AcDbScale
 70
     0
300
3/16" = 1'-0"
140
0.1875
141
12.0
290
     0
  0
SCALE
  5
A5AA
102
{ACAD_REACTORS
330
A5A1
102
}
330
A5A1
100
AcDbScale
 70
     0
300
1/4" = 1'-0"
140
0.25
141
12.0
290
     0
  0
SCALE
  5
A5AB
102
{ACAD_REACTORS
330
A5A1
102
}
330
A5A1
100
AcDbScale
 70
     0
300
3/8" = 1'-0"
140
0.375
141
12.0
290
     0
  0
SCALE
  5
A5AC
102
{ACAD_REACTORS
330
A5A1
102
}
330
A5A1
100
AcDbScale
 70
     0
300
1/2" = 1'-0"
140
0.5
141
12.0
290
     0
  0
SCALE
  5
A5AD
102
{ACAD_REACTORS
330
A5A1
102
}
330
A5A1
100
AcDbScale
 70
     0
300
3/4" = 1'-0"
140
0.75
141
12.0
290
     0
  0
SCALE
  5
A5AE
102
{ACAD_REACTORS
330
A5A1
102
}
330
A5A1
100
AcDbScale
 70
     0
300
1" = 1'-0"
140
1.0
141
12.0
290
     0
  0
SCALE
  5
A5AF
102
{ACAD_REACTORS
330
A5A1
102
}
330
A5A1
100
AcDbScale
 70
     0
300
1-1/2" = 1'-0"
140
1.5
141
12.0
290
     0
  0
SCALE
  5
A5B0
102
{ACAD_REACTORS
330
A5A1
102
}
330
A5A1
100
AcDbScale
 70
     0
300
3" = 1'-0"
140
3.0
141
12.0
290
     0
  0
SCALE
  5
A5B1
102
{ACAD_REACTORS
330
A5A1
102
}
330
A5A1
100
AcDbScale
 70
     0
300
6" = 1'-0"
140
6.0
141
12.0
290
     0
  0
SCALE
  5
A5B2
102
{ACAD_REACTORS
330
A5A1
102
}
330
A5A1
100
AcDbScale
 70
     0
300
1'-0" = 1'-0"
140
12.0
141
12.0
290
     0
  0
ACDBSECTIONVIEWSTYLE
  5
A5B6
102
{ACAD_XDICTIONARY
360
A611
102
}
102
{ACAD_REACTORS
330
A5B5
102
}
330
A5B5
100
AcDbModelDocViewStyle
 70
     0
  3
Imperial24
290
     0
100
AcDbSectionViewStyle
 70
     0
 71
     0
 90
       78
 71
     1
340
A23F
 40
0.24
340
0
340
0
 40
0.24
300
I, O, Q, S, X, Z
 40
0.48
 90
        3
 40
0.18
 90
        1
 71
     2
340
A243
 90
       25
340
A243
 90
       50
 40
0.24
 40
0.0
 40
0.24
 71
     3
340
A23F
 40
0.24
 90
        1
 40
0.75
 90
        1
300
%<\AcVar ViewType \f "%tc1">% %<\AcVar ViewSectionStartId>%-%<\AcVar ViewSectionEndId>%\PSCALE %<\AcVar ViewScale \f "%sn">%
 71
     4
300
ANSI31
 40
1.0
 90
        0
290
     0
290
     0
 90
        6
 40
0.0
 40
1.570796326794896
 40
0.2617993877991494
 40
1.308996938995747
 40
-0.2617993877991494
 40
1.832595714594046
  0
TABLESTYLE
  5
A5A0
102
{ACAD_XDICTIONARY
360
A5D8
102
}
102
{ACAD_REACTORS
330
A59F
102
}
330
A59F
100
AcDbTableStyle
  3
Standard
 70
     0
 71
     0
 40
0.06
 41
0.06
280
     0
281
     0
  7
STANDARD
140
0.18
170
     2
 62
     0
 63
     7
283
     0
274
    -2
284
     1
 64
     0
275
    -2
285
     1
 65
     0
276
    -2
286
     1
 66
     0
277
    -2
287
     1
 67
     0
278
    -2
288
     1
 68
     0
279
    -2
289
     1
 69
     0
  7
STANDARD
140
0.25
170
     5
 62
     0
 63
     7
283
     0
274
    -2
284
     1
 64
     0
275
    -2
285
     1
 65
     0
276
    -2
286
     1
 66
     0
277
    -2
287
     1
 67
     0
278
    -2
288
     1
 68
     0
279
    -2
289
     1
 69
     0
  7
STANDARD
140
0.18
170
     5
 62
     0
 63
     7
283
     0
274
    -2
284
     1
 64
     0
275
    -2
285
     1
 65
     0
276
    -2
286
     1
 66
     0
277
    -2
287
     1
 67
     0
278
    -2
288
     1
 68
     0
279
    -2
289
     1
 69
     0
  0
VISUALSTYLE
  5
A58B
102
{ACAD_XDICTIONARY
360
A5E9
102
}
102
{ACAD_REACTORS
330
A585
102
}
330
A585
100
AcDbVisualStyle
  2
2dWireframe
 70
     4
 71
     0
 72
     2
 73
     0
 90
        0
 40
-0.6
 41
-30.0
 62
     5
 63
     7
 74
     1
 91
        4
 64
     7
 65
   257
 75
     1
175
     1
 42
1.0
 92
        0
 66
   257
 43
1.0
 76
     1
 77
     6
 78
     2
 67
     7
 79
     5
170
     0
171
     0
290
     0
174
     0
 93
        1
 44
0.0
173
     0
291
     0
 45
0.0
1001
ACAD
1000
AcDbSavedByObjectVersion
1070
     0
  0
VISUALSTYLE
  5
A58A
102
{ACAD_XDICTIONARY
360
A5E7
102
}
102
{ACAD_REACTORS
330
A585
102
}
330
A585
100
AcDbVisualStyle
  2
Basic
 70
     7
 71
     1
 72
     0
 73
     1
 90
        0
 40
-0.6
 41
-30.0
 62
     5
 63
     7
 74
     0
 91
        4
 64
     7
 65
   257
 75
     1
175
     1
 42
1.0
 92
        8
 66
     7
 43
1.0
 76
     1
 77
     6
 78
     2
 67
     7
 79
     5
170
     0
171
     0
290
     0
174
     0
 93
        1
 44
0.0
173
     0
291
     1
 45
0.0
1001
ACAD
1000
AcDbSavedByObjectVersion
1070
     0
  0
VISUALSTYLE
  5
A591
102
{ACAD_XDICTIONARY
360
A5F5
102
}
102
{ACAD_REACTORS
330
A585
102
}
330
A585
100
AcDbVisualStyle
  2
Brighten
 70
    12
 71
     2
 72
     2
 73
     0
 90
        0
 40
-0.6
 41
-30.0
 62
     5
 63
     7
 74
     1
 91
        4
 64
     7
 65
   257
 75
     1
175
     1
 42
1.0
 92
        8
 66
     7
 43
1.0
 76
     1
 77
     6
 78
     2
 67
     7
 79
     5
170
     0
171
     0
290
     0
174
     0
 93
        1
 44
50.0
173
     0
291
     1
 45
0.0
1001
ACAD
1000
AcDbSavedByObjectVersion
1070
     0
  0
VISUALSTYLE
  5
A595
102
{ACAD_XDICTIONARY
360
A5FD
102
}
102
{ACAD_REACTORS
330
A585
102
}
330
A585
100
AcDbVisualStyle
  2
ColorChange
 70
    16
 71
     2
 72
     2
 73
     3
 90
        0
 40
-0.6
 41
-30.0
 62
     5
 63
     8
 74
     1
 91
        4
 64
     7
 65
   257
 75
     1
175
     1
 42
1.0
 92
        8
 66
     8
 43
1.0
 76
     1
 77
     6
 78
     2
 67
     7
 79
     5
170
     0
171
     0
290
     0
174
     0
 93
        1
 44
0.0
173
     0
291
     1
 45
0.0
1001
ACAD
1000
AcDbSavedByObjectVersion
1070
     0
  0
VISUALSTYLE
  5
A58E
102
{ACAD_XDICTIONARY
360
A5EF
102
}
102
{ACAD_REACTORS
330
A585
102
}
330
A585
100
AcDbVisualStyle
  2
Conceptual
 70
     9
 71
     3
 72
     2
 73
     0
 90
        0
 40
-0.6
 41
-30.0
 62
     5
 63
     7
 74
     2
 91
        2
 64
     7
 65
   257
 75
     1
175
     1
 42
179.0
 92
        8
 66
     7
 43
1.0
 76
     1
 77
     6
 78
     2
 67
     7
 79
     3
170
     0
171
     0
290
     0
174
     0
 93
        1
 44
0.0
173
     0
291
     0
 45
0.0
1001
ACAD
1000
AcDbSavedByObjectVersion
1070
     0
  0
VISUALSTYLE
  5
A590
102
{ACAD_XDICTIONARY
360
A5F3
102
}
102
{ACAD_REACTORS
330
A585
102
}
330
A585
100
AcDbVisualStyle
  2
Dim
 70
    11
 71
     2
 72
     2
 73
     0
 90
        0
 40
-0.6
 41
-30.0
 62
     5
 63
     7
 74
     1
 91
        4
 64
     7
 65
   257
 75
     1
175
     1
 42
1.0
 92
        8
 66
     7
 43
1.0
 76
     1
 77
     6
 78
     2
 67
     7
 79
     5
170
     0
171
     0
290
     0
174
     0
 93
        1
 44
-50.0
173
     0
291
     1
 45
0.0
1001
ACAD
1000
AcDbSavedByObjectVersion
1070
     0
  0
VISUALSTYLE
  5
A59D
102
{ACAD_XDICTIONARY
360
A60D
102
}
102
{ACAD_REACTORS
330
A585
102
}
330
A585
100
AcDbVisualStyle
  2
EdgeColorOff
 70
    22
 71
     2
 72
     2
 73
     0
 90
        0
 40
-0.6
 41
-30.0
 62
     5
 63
     7
 74
     1
 91
        4
 64
     7
 65
   257
 75
     1
175
     1
 42
1.0
 92
        8
 66
     7
 43
1.0
 76
     1
 77
     6
 78
     2
 67
     7
 79
     5
170
     0
171
     0
290
     0
174
     0
 93
        1
 44
0.0
173
     0
291
     1
 45
0.0
1001
ACAD
1000
AcDbSavedByObjectVersion
1070
     0
  0
VISUALSTYLE
  5
A594
102
{ACAD_XDICTIONARY
360
A5FB
102
}
102
{ACAD_REACTORS
330
A585
102
}
330
A585
100
AcDbVisualStyle
  2
Facepattern
 70
    15
 71
     2
 72
     2
 73
     0
 90
        0
 40
-0.6
 41
-30.0
 62
     5
 63
     7
 74
     1
 91
        4
 64
     7
 65
   257
 75
     1
175
     1
 42
1.0
 92
        8
 66
     7
 43
1.0
 76
     1
 77
     6
 78
     2
 67
     7
 79
     5
170
     0
171
     0
290
     0
174
     0
 93
        1
 44
0.0
173
     0
291
     1
 45
0.0
1001
ACAD
1000
AcDbSavedByObjectVersion
1070
     0
  0
VISUALSTYLE
  5
A586
102
{ACAD_XDICTIONARY
360
A5DF
102
}
102
{ACAD_REACTORS
330
A585
102
}
330
A585
100
AcDbVisualStyle
  2
Flat
 70
     0
 71
     2
 72
     1
 73
     1
 90
        2
 40
-0.6
 41
30.0
 62
     5
 63
     7
 74
     0
 91
        0
 64
     7
 65
   257
 75
     1
175
     1
 42
1.0
 92
        8
 66
     7
 43
1.0
 76
     1
 77
     6
 78
     2
 67
     7
 79
     5
170
     0
171
     0
290
     0
174
     0
 93
       13
 44
0.0
173
     0
291
     1
 45
0.0
1001
ACAD
1000
AcDbSavedByObjectVersion
1070
     0
  0
VISUALSTYLE
  5
A587
102
{ACAD_XDICTIONARY
360
A5E1
102
}
102
{ACAD_REACTORS
330
A585
102
}
330
A585
100
AcDbVisualStyle
  2
FlatWithEdges
 70
     1
 71
     2
 72
     1
 73
     1
 90
        2
 40
-0.6
 41
30.0
 62
     5
 63
     7
 74
     1
 91
        0
 64
     7
 65
   257
 75
     1
175
     1
 42
1.0
 92
        0
 66
   257
 43
1.0
 76
     1
 77
     6
 78
     2
 67
     7
 79
     5
170
     0
171
     0
290
     0
174
     0
 93
       13
 44
0.0
173
     0
291
     1
 45
0.0
1001
ACAD
1000
AcDbSavedByObjectVersion
1070
     0
  0
VISUALSTYLE
  5
A588
102
{ACAD_XDICTIONARY
360
A5E3
102
}
102
{ACAD_REACTORS
330
A585
102
}
330
A585
100
AcDbVisualStyle
  2
Gouraud
 70
     2
 71
     2
 72
     2
 73
     1
 90
        2
 40
-0.6
 41
30.0
 62
     5
 63
     7
 74
     0
 91
        0
 64
     7
 65
   257
 75
     1
175
     1
 42
1.0
 92
        0
 66
     7
 43
1.0
 76
     1
 77
     6
 78
     2
 67
     7
 79
     5
170
     0
171
     0
290
     0
174
     0
 93
       13
 44
0.0
173
     0
291
     1
 45
0.0
1001
ACAD
1000
AcDbSavedByObjectVersion
1070
     0
  0
VISUALSTYLE
  5
A589
102
{ACAD_XDICTIONARY
360
A5E5
102
}
102
{ACAD_REACTORS
330
A585
102
}
330
A585
100
AcDbVisualStyle
  2
GouraudWithEdges
 70
     3
 71
     2
 72
     2
 73
     1
 90
        2
 40
-0.6
 41
30.0
 62
     5
 63
     7
 74
     1
 91
        0
 64
     7
 65
   257
 75
     1
175
     1
 42
1.0
 92
        0
 66
   257
 43
1.0
 76
     1
 77
     6
 78
     2
 67
     7
 79
     5
170
     0
171
     0
290
     0
174
     0
 93
       13
 44
0.0
173
     0
291
     1
 45
0.0
1001
ACAD
1000
AcDbSavedByObjectVersion
1070
     0
  0
VISUALSTYLE
  5
A58D
102
{ACAD_XDICTIONARY
360
A5ED
102
}
102
{ACAD_REACTORS
330
A585
102
}
330
A585
100
AcDbVisualStyle
  2
Hidden
 70
     6
 71
     1
 72
     2
 73
     2
 90
        0
 40
-0.6
 41
-30.0
 62
     5
 63
     7
 74
     2
 91
        2
 64
     7
 65
   257
 75
     2
175
     1
 42
40.0
 92
        0
 66
   257
 43
1.0
 76
     1
 77
     6
 78
     2
 67
     7
 79
     3
170
     0
171
     0
290
     0
174
     0
 93
        1
 44
0.0
173
     0
291
     0
 45
0.0
1001
ACAD
1000
AcDbSavedByObjectVersion
1070
     0
  0
VISUALSTYLE
  5
A59B
102
{ACAD_XDICTIONARY
360
A609
102
}
102
{ACAD_REACTORS
330
A585
102
}
330
A585
100
AcDbVisualStyle
  2
JitterOff
 70
    20
 71
     2
 72
     2
 73
     0
 90
        0
 40
-0.6
 41
-30.0
 62
     5
 63
     7
 74
     1
 91
        4
 64
     7
 65
   257
 75
     1
175
     1
 42
1.0
 92
       10
 66
     7
 43
1.0
 76
     1
 77
     6
 78
     2
 67
     7
 79
     5
170
     0
171
     0
290
     0
174
     0
 93
        1
 44
0.0
173
     0
291
     1
 45
0.0
1001
ACAD
1000
AcDbSavedByObjectVersion
1070
     0
  0
VISUALSTYLE
  5
A593
102
{ACAD_XDICTIONARY
360
A5F9
102
}
102
{ACAD_REACTORS
330
A585
102
}
330
A585
100
AcDbVisualStyle
  2
Linepattern
 70
    14
 71
     2
 72
     2
 73
     0
 90
        0
 40
-0.6
 41
-30.0
 62
     5
 63
     7
 74
     1
 91
        4
 64
     7
 65
   257
 75
     7
175
     7
 42
1.0
 92
        8
 66
     7
 43
1.0
 76
     1
 77
     6
 78
     2
 67
     7
 79
     5
170
     0
171
     0
290
     0
174
     0
 93
        1
 44
0.0
173
     0
291
     1
 45
0.0
1001
ACAD
1000
AcDbSavedByObjectVersion
1070
     0
  0
VISUALSTYLE
  5
A59C
102
{ACAD_XDICTIONARY
360
A60B
102
}
102
{ACAD_REACTORS
330
A585
102
}
330
A585
100
AcDbVisualStyle
  2
OverhangOff
 70
    21
 71
     2
 72
     2
 73
     0
 90
        0
 40
-0.6
 41
-30.0
 62
     5
 63
     7
 74
     1
 91
        4
 64
     7
 65
   257
 75
     1
175
     1
 42
1.0
 92
        9
 66
     7
 43
1.0
 76
     1
 77
     6
 78
     2
 67
     7
 79
     5
170
     0
171
     0
290
     0
174
     0
 93
        1
 44
0.0
173
     0
291
     1
 45
0.0
1001
ACAD
1000
AcDbSavedByObjectVersion
1070
     0
  0
VISUALSTYLE
  5
A58F
102
{ACAD_XDICTIONARY
360
A5F1
102
}
102
{ACAD_REACTORS
330
A585
102
}
330
A585
100
AcDbVisualStyle
  2
Realistic
 70
     8
 71
     2
 72
     3
 73
     0
 90
        2
 40
-0.6
 41
30.0
 62
     5
 63
     7
 74
     0
 91
        0
 64
     7
 65
   257
 75
     1
175
     1
 42
1.0
 92
        8
 66
   257
 43
1.0
 76
     1
 77
     6
 78
     2
 67
     7
 79
     3
170
     0
171
     0
290
     0
174
     0
 93
       13
 44
0.0
173
     0
291
     0
 45
0.0
1001
ACAD
1000
AcDbSavedByObjectVersion
1070
     0
  0
VISUALSTYLE
  5
A59A
102
{ACAD_XDICTIONARY
360
A607
102
}
102
{ACAD_REACTORS
330
A585
102
}
330
A585
100
AcDbVisualStyle
  2
Shaded
 70
    27
 71
     2
 72
     2
 73
     1
 90
        2
 40
-0.6
 41
30.0
 62
     5
 63
     7
 74
     0
 91
        4
 64
     7
 65
   257
 75
     1
175
     1
 42
1.0
 92
        8
 66
   257
 43
1.0
 76
     1
 77
     6
 78
     2
 67
     8
 79
     3
170
     0
171
     0
290
     0
174
     0
 93
        5
 44
0.0
173
     0
291
     0
 45
0.0
1001
ACAD
1000
AcDbSavedByObjectVersion
1070
     0
  0
VISUALSTYLE
  5
A599
102
{ACAD_XDICTIONARY
360
A605
102
}
102
{ACAD_REACTORS
330
A585
102
}
330
A585
100
AcDbVisualStyle
  2
Shaded with edges
 70
    26
 71
     2
 72
     2
 73
     1
 90
        2
 40
-0.6
 41
30.0
 62
     5
 63
     7
 74
     1
 91
       10
 64
     7
 65
   257
 75
     2
175
     1
 42
1.0
 92
        8
 66
   257
 43
1.0
 76
     1
 77
     6
 78
     2
 67
     7
 79
     3
170
     0
171
     0
290
     0
174
     0
 93
        5
 44
0.0
173
     0
291
     0
 45
0.0
1001
ACAD
1000
AcDbSavedByObjectVersion
1070
     0
  0
VISUALSTYLE
  5
A596
102
{ACAD_XDICTIONARY
360
A5FF
102
}
102
{ACAD_REACTORS
330
A585
102
}
330
A585
100
AcDbVisualStyle
  2
Shades of Gray
 70
    23
 71
     2
 72
     2
 73
     3
 90
        0
 40
-0.6
 41
-30.0
 62
     5
 63
     7
 74
     2
 91
        2
 64
     7
 65
     7
 75
     1
175
     1
 42
40.0
 92
        8
 66
     7
 43
1.0
 76
     1
 77
     6
 78
     2
 67
     7
 79
     3
170
     0
171
     0
290
     0
174
     0
 93
        1
 44
0.0
173
     0
291
     0
 45
0.0
1001
ACAD
1000
AcDbSavedByObjectVersion
1070
     0
  0
VISUALSTYLE
  5
A597
102
{ACAD_XDICTIONARY
360
A601
102
}
102
{ACAD_REACTORS
330
A585
102
}
330
A585
100
AcDbVisualStyle
  2
Sketchy
 70
    24
 71
     1
 72
     2
 73
     2
 90
        0
 40
-0.6
 41
-30.0
 62
     5
 63
     7
 74
     2
 91
        2
 64
     7
 65
     7
 75
     1
175
     1
 42
40.0
 92
       11
 66
     7
 43
1.0
 76
     1
 77
     6
 78
     2
 67
     7
 79
     6
170
     0
171
     0
290
     0
174
     0
 93
        1
 44
0.0
173
     0
291
     0
 45
0.0
1001
ACAD
1000
AcDbSavedByObjectVersion
1070
     0
  0
VISUALSTYLE
  5
A592
102
{ACAD_XDICTIONARY
360
A5F7
102
}
102
{ACAD_REACTORS
330
A585
102
}
330
A585
100
AcDbVisualStyle
  2
Thicken
 70
    13
 71
     2
 72
     2
 73
     0
 90
        0
 40
-0.6
 41
-30.0
 62
     5
 63
     7
 74
     1
 91
        4
 64
     7
 65
   257
 75
     1
175
     1
 42
1.0
 92
       12
 66
     7
 43
1.0
 76
     1
 77
     6
 78
     2
 67
     7
 79
     5
170
     0
171
     0
290
     0
174
     0
 93
        1
 44
0.0
173
     0
291
     1
 45
0.0
1001
ACAD
1000
AcDbSavedByObjectVersion
1070
     0
  0
VISUALSTYLE
  5
A58C
102
{ACAD_XDICTIONARY
360
A5EB
102
}
102
{ACAD_REACTORS
330
A585
102
}
330
A585
100
AcDbVisualStyle
  2
Wireframe
 70
     5
 71
     0
 72
     2
 73
     0
 90
        0
 40
-0.6
 41
-30.0
 62
     5
 63
     7
 74
     1
 91
        4
 64
     7
 65
   257
 75
     1
175
     1
 42
1.0
 92
        0
 66
   257
 43
1.0
 76
     1
 77
     6
 78
     2
 67
     7
 79
     3
170
     0
171
     0
290
     0
174
     0
 93
        1
 44
0.0
173
     0
291
     0
 45
0.0
1001
ACAD
1000
AcDbSavedByObjectVersion
1070
     0
  0
VISUALSTYLE
  5
A598
102
{ACAD_XDICTIONARY
360
A603
102
}
102
{ACAD_REACTORS
330
A585
102
}
330
A585
100
AcDbVisualStyle
  2
X-Ray
 70
    25
 71
     2
 72
     2
 73
     1
 90
        1
 40
0.5
 41
-30.0
 62
     5
 63
     7
 74
     1
 91
        0
 64
     7
 65
   257
 75
     1
175
     1
 42
1.0
 92
        8
 66
     7
 43
1.0
 76
     1
 77
     6
 78
     2
 67
     7
 79
     3
170
     0
171
     0
290
     0
174
     0
 93
       13
 44
0.0
173
     0
291
     0
 45
0.0
1001
ACAD
1000
AcDbSavedByObjectVersion
1070
     0
  0
DICTIONARYVAR
  5
A5D2
102
{ACAD_REACTORS
330
A5CD
102
}
330
A5CD
100
DictionaryVariables
280
     0
  1
1:1
  0
DICTIONARYVAR
  5
A5CF
102
{ACAD_REACTORS
330
A5CD
102
}
330
A5CD
100
DictionaryVariables
280
     0
  1
STANDARD
  0
DICTIONARYVAR
  5
A5CE
102
{ACAD_REACTORS
330
A5CD
102
}
330
A5CD
100
DictionaryVariables
280
     0
  1
STANDARD
  0
DICTIONARYVAR
  5
A5D0
102
{ACAD_REACTORS
330
A5CD
102
}
330
A5CD
100
DictionaryVariables
280
     0
  1
Imperial24
  0
DICTIONARYVAR
  5
A5D1
102
{ACAD_REACTORS
330
A5CD
102
}
330
A5CD
100
DictionaryVariables
280
     0
  1
Imperial24
  0
DICTIONARYVAR
  5
A5D5
102
{ACAD_REACTORS
330
A5CD
102
}
330
A5CD
100
DictionaryVariables
280
     0
  1
1
  0
DICTIONARYVAR
  5
A5D4
102
{ACAD_REACTORS
330
A5CD
102
}
330
A5CD
100
DictionaryVariables
280
     0
  1
0
  0
DICTIONARYVAR
  5
A5D3
102
{ACAD_REACTORS
330
A5CD
102
}
330
A5CD
100
DictionaryVariables
280
     0
  1
127
  0
DICTIONARYVAR
  5
A5D6
102
{ACAD_REACTORS
330
A5CD
102
}
330
A5CD
100
DictionaryVariables
280
     0
  1
2
  0
DICTIONARY
  5
A613
330
A5B8
100
AcDbDictionary
280
     1
281
     1
  3
ACAD_XREC_ROUNDTRIP
360
A614
  0
DICTIONARY
  5
A615
330
A5B9
100
AcDbDictionary
280
     1
281
     1
  3
ACAD_XREC_ROUNDTRIP
360
A616
  0
DICTIONARY
  5
A617
330
A5BA
100
AcDbDictionary
280
     1
281
     1
  3
ACAD_XREC_ROUNDTRIP
360
A618
  0
DICTIONARY
  5
A576
330
A575
100
AcDbDictionary
280
     1
281
     1
  3
ACAD_XREC_ROUNDTRIP
360
A5DD
  3
BUMPTILE
360
A578
  3
DIFFUSETILE
360
A577
  3
OPACITYTILE
360
A57B
  3
REFLECTIONTILE
360
A57A
  3
REFRACTIONTILE
360
A57C
  3
SPECULARTILE
360
A579
  0
DICTIONARY
  5
A56E
330
A56D
100
AcDbDictionary
280
     1
281
     1
  3
ACAD_XREC_ROUNDTRIP
360
A5DC
  3
BUMPTILE
360
A570
  3
DIFFUSETILE
360
A56F
  3
OPACITYTILE
360
A573
  3
REFLECTIONTILE
360
A572
  3
REFRACTIONTILE
360
A574
  3
SPECULARTILE
360
A571
  0
DICTIONARY
  5
A57E
330
A57D
100
AcDbDictionary
280
     1
281
     1
  3
ACAD_XREC_ROUNDTRIP
360
A5DE
  3
BUMPTILE
360
A580
  3
DIFFUSETILE
360
A57F
  3
OPACITYTILE
360
A583
  3
REFLECTIONTILE
360
A582
  3
REFRACTIONTILE
360
A584
  3
SPECULARTILE
360
A581
  0
DICTIONARY
  5
A611
330
A5B6
100
AcDbDictionary
280
     1
281
     1
  3
ACAD_XREC_ROUNDTRIP
360
A612
  0
DICTIONARY
  5
A5D8
330
A5A0
100
AcDbDictionary
280
     1
281
     1
  3
ACAD_ROUNDTRIP_2008_TABLESTYLE_CELLSTYLEMAP
360
A5D9
  3
ACAD_XREC_ROUNDTRIP
360
A60F
  0
DICTIONARY
  5
A5E9
330
A58B
100
AcDbDictionary
280
     1
281
     1
  3
ACAD_XREC_ROUNDTRIP
360
A5EA
  0
DICTIONARY
  5
A5E7
330
A58A
100
AcDbDictionary
280
     1
281
     1
  3
ACAD_XREC_ROUNDTRIP
360
A5E8
  0
DICTIONARY
  5
A5F5
330
A591
100
AcDbDictionary
280
     1
281
     1
  3
ACAD_XREC_ROUNDTRIP
360
A5F6
  0
DICTIONARY
  5
A5FD
330
A595
100
AcDbDictionary
280
     1
281
     1
  3
ACAD_XREC_ROUNDTRIP
360
A5FE
  0
DICTIONARY
  5
A5EF
330
A58E
100
AcDbDictionary
280
     1
281
     1
  3
ACAD_XREC_ROUNDTRIP
360
A5F0
  0
DICTIONARY
  5
A5F3
330
A590
100
AcDbDictionary
280
     1
281
     1
  3
ACAD_XREC_ROUNDTRIP
360
A5F4
  0
DICTIONARY
  5
A60D
330
A59D
100
AcDbDictionary
280
     1
281
     1
  3
ACAD_XREC_ROUNDTRIP
360
A60E
  0
DICTIONARY
  5
A5FB
330
A594
100
AcDbDictionary
280
     1
281
     1
  3
ACAD_XREC_ROUNDTRIP
360
A5FC
  0
DICTIONARY
  5
A5DF
330
A586
100
AcDbDictionary
280
     1
281
     1
  3
ACAD_XREC_ROUNDTRIP
360
A5E0
  0
DICTIONARY
  5
A5E1
330
A587
100
AcDbDictionary
280
     1
281
     1
  3
ACAD_XREC_ROUNDTRIP
360
A5E2
  0
DICTIONARY
  5
A5E3
330
A588
100
AcDbDictionary
280
     1
281
     1
  3
ACAD_XREC_ROUNDTRIP
360
A5E4
  0
DICTIONARY
  5
A5E5
330
A589
100
AcDbDictionary
280
     1
281
     1
  3
ACAD_XREC_ROUNDTRIP
360
A5E6
  0
DICTIONARY
  5
A5ED
330
A58D
100
AcDbDictionary
280
     1
281
     1
  3
ACAD_XREC_ROUNDTRIP
360
A5EE
  0
DICTIONARY
  5
A609
330
A59B
100
AcDbDictionary
280
     1
281
     1
  3
ACAD_XREC_ROUNDTRIP
360
A60A
  0
DICTIONARY
  5
A5F9
330
A593
100
AcDbDictionary
280
     1
281
     1
  3
ACAD_XREC_ROUNDTRIP
360
A5FA
  0
DICTIONARY
  5
A60B
330
A59C
100
AcDbDictionary
280
     1
281
     1
  3
ACAD_XREC_ROUNDTRIP
360
A60C
  0
DICTIONARY
  5
A5F1
330
A58F
100
AcDbDictionary
280
     1
281
     1
  3
ACAD_XREC_ROUNDTRIP
360
A5F2
  0
DICTIONARY
  5
A607
330
A59A
100
AcDbDictionary
280
     1
281
     1
  3
ACAD_XREC_ROUNDTRIP
360
A608
  0
DICTIONARY
  5
A605
330
A599
100
AcDbDictionary
280
     1
281
     1
  3
ACAD_XREC_ROUNDTRIP
360
A606
  0
DICTIONARY
  5
A5FF
330
A596
100
AcDbDictionary
280
     1
281
     1
  3
ACAD_XREC_ROUNDTRIP
360
A600
  0
DICTIONARY
  5
A601
330
A597
100
AcDbDictionary
280
     1
281
     1
  3
ACAD_XREC_ROUNDTRIP
360
A602
  0
DICTIONARY
  5
A5F7
330
A592
100
AcDbDictionary
280
     1
281
     1
  3
ACAD_XREC_ROUNDTRIP
360
A5F8
  0
DICTIONARY
  5
A5EB
330
A58C
100
AcDbDictionary
280
     1
281
     1
  3
ACAD_XREC_ROUNDTRIP
360
A5EC
  0
DICTIONARY
  5
A603
330
A598
100
AcDbDictionary
280
     1
281
     1
  3
ACAD_XREC_ROUNDTRIP
360
A604
  0
XRECORD
  5
A614
102
{ACAD_REACTORS
330
A613
102
}
330
A613
100
AcDbXrecord
280
     1
102
DISPLAYNAME
  1
Imperial24
102
FLAGS
 90
        0
  0
XRECORD
  5
A616
102
{ACAD_REACTORS
330
A615
102
}
330
A615
100
AcDbXrecord
280
     1
102
SHADEPLOT
 70
     0
102
SHADEPLOTRESLEVEL
 70
     2
102
SHADEPLOTCUSTOMDPI
 70
   300
  0
XRECORD
  5
A618
102
{ACAD_REACTORS
330
A617
102
}
330
A617
100
AcDbXrecord
280
     1
102
SHADEPLOT
 70
     0
102
SHADEPLOTRESLEVEL
 70
     2
102
SHADEPLOTCUSTOMDPI
 70
   300
  0
XRECORD
  5
A5DD
102
{ACAD_REACTORS
330
A576
102
}
330
A576
100
AcDbXrecord
280
     1
102
MATERIAL
148
0.0
149
0.0
149
0.0
 93
        0
 94
      127
282
     0
 72
     0
 77
     0
171
     0
175
     0
179
     0
273
     0
  0
XRECORD
  5
A578
102
{ACAD_REACTORS
330
A576
102
}
330
A576
100
AcDbXrecord
280
     1
270
     1
271
     1
  0
XRECORD
  5
A577
102
{ACAD_REACTORS
330
A576
102
}
330
A576
100
AcDbXrecord
280
     1
270
     1
271
     1
  0
XRECORD
  5
A57B
102
{ACAD_REACTORS
330
A576
102
}
330
A576
100
AcDbXrecord
280
     1
270
     1
271
     1
  0
XRECORD
  5
A57A
102
{ACAD_REACTORS
330
A576
102
}
330
A576
100
AcDbXrecord
280
     1
270
     1
271
     1
  0
XRECORD
  5
A57C
102
{ACAD_REACTORS
330
A576
102
}
330
A576
100
AcDbXrecord
280
     1
270
     1
271
     1
  0
XRECORD
  5
A579
102
{ACAD_REACTORS
330
A576
102
}
330
A576
100
AcDbXrecord
280
     1
270
     1
271
     1
  0
XRECORD
  5
A5DC
102
{ACAD_REACTORS
330
A56E
102
}
330
A56E
100
AcDbXrecord
280
     1
102
MATERIAL
148
0.0
149
0.0
149
0.0
 93
        0
 94
      127
282
     0
 72
     0
 77
     0
171
     0
175
     0
179
     0
273
     0
  0
XRECORD
  5
A570
102
{ACAD_REACTORS
330
A56E
102
}
330
A56E
100
AcDbXrecord
280
     1
270
     1
271
     1
  0
XRECORD
  5
A56F
102
{ACAD_REACTORS
330
A56E
102
}
330
A56E
100
AcDbXrecord
280
     1
270
     1
271
     1
  0
XRECORD
  5
A573
102
{ACAD_REACTORS
330
A56E
102
}
330
A56E
100
AcDbXrecord
280
     1
270
     1
271
     1
  0
XRECORD
  5
A572
102
{ACAD_REACTORS
330
A56E
102
}
330
A56E
100
AcDbXrecord
280
     1
270
     1
271
     1
  0
XRECORD
  5
A574
102
{ACAD_REACTORS
330
A56E
102
}
330
A56E
100
AcDbXrecord
280
     1
270
     1
271
     1
  0
XRECORD
  5
A571
102
{ACAD_REACTORS
330
A56E
102
}
330
A56E
100
AcDbXrecord
280
     1
270
     1
271
     1
  0
XRECORD
  5
A5DE
102
{ACAD_REACTORS
330
A57E
102
}
330
A57E
100
AcDbXrecord
280
     1
102
MATERIAL
148
0.0
149
0.0
149
0.0
 93
        0
 94
      127
282
     0
 72
     0
 77
     0
171
     0
175
     0
179
     0
273
     0
  0
XRECORD
  5
A580
102
{ACAD_REACTORS
330
A57E
102
}
330
A57E
100
AcDbXrecord
280
     1
270
     1
271
     1
  0
XRECORD
  5
A57F
102
{ACAD_REACTORS
330
A57E
102
}
330
A57E
100
AcDbXrecord
280
     1
270
     1
271
     1
  0
XRECORD
  5
A583
102
{ACAD_REACTORS
330
A57E
102
}
330
A57E
100
AcDbXrecord
280
     1
270
     1
271
     1
  0
XRECORD
  5
A582
102
{ACAD_REACTORS
330
A57E
102
}
330
A57E
100
AcDbXrecord
280
     1
270
     1
271
     1
  0
XRECORD
  5
A584
102
{ACAD_REACTORS
330
A57E
102
}
330
A57E
100
AcDbXrecord
280
     1
270
     1
271
     1
  0
XRECORD
  5
A581
102
{ACAD_REACTORS
330
A57E
102
}
330
A57E
100
AcDbXrecord
280
     1
270
     1
271
     1
  0
XRECORD
  5
A612
102
{ACAD_REACTORS
330
A611
102
}
330
A611
100
AcDbXrecord
280
     1
102
DISPLAYNAME
  1
Imperial24
102
FLAGS
 90
        0
  0
CELLSTYLEMAP
  5
A5D9
102
{ACAD_REACTORS
330
A5D8
102
}
330
A5D8
100
AcDbCellStyleMap
 90
        3
300
CELLSTYLE
  1
TABLEFORMAT_BEGIN
 90
        5
170
     1
 91
        0
 92
    32768
 62
   257
 93
        1
300
CONTENTFORMAT
  1
CONTENTFORMAT_BEGIN
 90
        0
 91
        0
 92
      512
 93
        0
300

 40
0.0
140
1.0
 94
        5
 62
     0
340
A23F
144
0.25
309
CONTENTFORMAT_END
171
     0
 94
        0
309
TABLEFORMAT_END
  1
CELLSTYLE_BEGIN
 90
        1
 91
        1
300
_TITLE
309
CELLSTYLE_END
300
CELLSTYLE
  1
TABLEFORMAT_BEGIN
 90
        5
170
     1
 91
        0
 92
        0
 62
   257
 93
        1
300
CONTENTFORMAT
  1
CONTENTFORMAT_BEGIN
 90
        0
 91
        0
 92
      512
 93
        0
300

 40
0.0
140
1.0
 94
        5
 62
     0
340
A23F
144
0.18
309
CONTENTFORMAT_END
171
     0
 94
        0
309
TABLEFORMAT_END
  1
CELLSTYLE_BEGIN
 90
        2
 91
        1
300
_HEADER
309
CELLSTYLE_END
300
CELLSTYLE
  1
TABLEFORMAT_BEGIN
 90
        5
170
     1
 91
        0
 92
        0
 62
   257
 93
        1
300
CONTENTFORMAT
  1
CONTENTFORMAT_BEGIN
 90
        0
 91
        0
 92
      512
 93
        0
300

 40
0.0
140
1.0
 94
        2
 62
     0
340
A23F
144
0.18
309
CONTENTFORMAT_END
171
     0
 94
        0
309
TABLEFORMAT_END
  1
CELLSTYLE_BEGIN
 90
        3
 91
        2
300
_DATA
309
CELLSTYLE_END
  0
XRECORD
  5
A60F
102
{ACAD_REACTORS
330
A5D8
102
}
330
A5D8
100
AcDbXrecord
280
     1
102
ACAD_ROUNDTRIP_PRE2007_TABLESTYLE
 90
      512
 91
        0
  1

 92
      512
 93
        0
  2

 94
      512
 95
        0
  3

  0
XRECORD
  5
A5EA
102
{ACAD_REACTORS
330
A5E9
102
}
330
A5E9
100
AcDbXrecord
280
     1
102
RTVSPost2010Prop28
280
     1
102
RTVSPost2010PropOp28
 70
     1
102
RTVSPost2010Prop29
280
     1
102
RTVSPost2010PropOp29
 70
     1
102
RTVSPost2010Prop30
280
     0
102
RTVSPost2010PropOp30
 70
     1
102
RTVSPost2010Prop31
280
     0
102
RTVSPost2010PropOp31
 70
     1
102
RTVSPost2010Prop32
280
     0
102
RTVSPost2010PropOp32
 70
     1
102
RTVSPost2010Prop33
280
     0
102
RTVSPost2010PropOp33
 70
     1
102
RTVSPost2010Prop34
280
     0
102
RTVSPost2010PropOp34
 70
     1
102
RTVSPost2010Prop35
280
     0
102
RTVSPost2010PropOp35
 70
     1
102
RTVSPost2010Prop36
280
     0
102
RTVSPost2010PropOp36
 70
     1
102
RTVSPost2010Prop37
 90
       50
102
RTVSPost2010PropOp37
 70
     1
102
RTVSPost2010Prop38
140
0.0
102
RTVSPost2010PropOp38
 70
     1
102
RTVSPost2010Prop39
140
1.0
102
RTVSPost2010PropOp39
 70
     1
102
RTVSPost2010Prop40
 90
        0
102
RTVSPost2010PropOp40
 70
     1
102
RTVSPost2010Prop41ColorIndex
 90
       18
102
RTVSPost2010Prop41ColorRGB
 90
        0
102
RTVSPost2010PropOp41
 70
     1
102
RTVSPost2010Prop42
 90
       50
102
RTVSPost2010PropOp42
 70
     1
102
RTVSPost2010Prop43
 90
        3
102
RTVSPost2010PropOp43
 70
     1
102
RTVSPost2010Prop44ColorIndex
 90
        5
102
RTVSPost2010Prop44ColorRGB
 90
      255
102
RTVSPost2010PropOp44
 70
     1
102
RTVSPost2010Prop45
280
     0
102
RTVSPost2010PropOp45
 70
     1
102
RTVSPost2010Prop46
 90
       50
102
RTVSPost2010PropOp46
 70
     1
102
RTVSPost2010Prop47
 90
       50
102
RTVSPost2010PropOp47
 70
     1
102
RTVSPost2010Prop48
 90
       50
102
RTVSPost2010PropOp48
 70
     1
102
RTVSPost2010Prop49
280
     0
102
RTVSPost2010PropOp49
 70
     1
102
RTVSPost2010Prop50
 90
       50
102
RTVSPost2010PropOp50
 70
     1
102
RTVSPost2010Prop51ColorIndex
 90
      256
102
RTVSPost2010Prop51ColorRGB
 90
-16777216
102
RTVSPost2010PropOp51
 70
     0
102
RTVSPost2010Prop52
140
1.0
102
RTVSPost2010PropOp52
 70
     0
102
RTVSPost2010Prop53
 90
        2
102
RTVSPost2010PropOp53
 70
     1
102
RTVSPost2010Prop54
  1
strokes_ogs.tif
102
RTVSPost2010PropOp54
 70
     1
102
RTVSPost2010Prop55
280
     0
102
RTVSPost2010PropOp55
 70
     1
102
RTVSPost2010Prop56
140
1.0
102
RTVSPost2010PropOp56
 70
     1
102
RTVSPost2010Prop57
140
1.0
102
RTVSPost2010PropOp57
 70
     1
102
RTVSPropertyOp0
 70
     1
102
RTVSPropertyOp1
 70
     1
102
RTVSPropertyOp2
 70
     1
102
RTVSPropertyOp3
 70
     1
102
RTVSPropertyOp4
 70
     1
102
RTVSPropertyOp5
 70
     1
102
RTVSPropertyOp6
 70
     1
102
RTVSPropertyOp7
 70
     1
102
RTVSPropertyOp8
 70
     1
102
RTVSPropertyOp9
 70
     1
102
RTVSPropertyOp10
 70
     1
102
RTVSPropertyOp11
 70
     1
102
RTVSPropertyOp12
 70
     1
102
RTVSPropertyOp13
 70
     1
102
RTVSPropertyOp14
 70
     1
102
RTVSPropertyOp15
 70
     1
102
RTVSPropertyOp16
 70
     1
102
RTVSPropertyOp17
 70
     1
102
RTVSPropertyOp18
 70
     1
102
RTVSPropertyOp19
 70
     1
102
RTVSPropertyOp20
 70
     1
102
RTVSPropertyOp21
 70
     1
102
RTVSPropertyOp22
 70
     1
102
RTVSPropertyOp23
 70
     1
102
RTVSPropertyOp24
 70
     1
102
RTVSPropertyOp25
 70
     1
102
RTVSPropertyOp26
 70
     1
102
RTVSPropertyOp27
 70
     1
102
RTVSPropertyOp28
 70
     1
102
RTVSPropertyOp29
 70
     1
102
RTVSPropertyOp30
 70
     1
102
RTVSPropertyOp31
 70
     1
102
RTVSPropertyOp32
 70
     1
102
RTVSPropertyOp33
 70
     1
102
RTVSPropertyOp34
 70
     1
102
RTVSPropertyOp35
 70
     1
102
RTVSPropertyOp36
 70
     1
102
RTVSPropertyOp37
 70
     1
102
RTVSPropertyOp38
 70
     1
102
RTVSPropertyOp39
 70
     1
102
RTVSPropertyOp40
 70
     1
102
RTVSPropertyOp41
 70
     1
102
RTVSPropertyOp42
 70
     1
102
RTVSPropertyOp43
 70
     1
102
RTVSPropertyOp44
 70
     1
102
RTVSPropertyOp45
 70
     1
102
RTVSPropertyOp46
 70
     1
102
RTVSPropertyOp47
 70
     1
102
RTVSPropertyOp48
 70
     1
102
RTVSPropertyOp49
 70
     1
102
RTVSPropertyOp50
 70
     1
102
RTVSPropertyOp51
 70
     0
102
RTVSPropertyOp52
 70
     0
102
RTVSPropertyOp53
 70
     1
102
RTVSPropertyOp54
 70
     1
102
RTVSPropertyOp55
 70
     1
102
RTVSPropertyOp56
 70
     1
102
RTVSPropertyOp57
 70
     1
102
RTVSPropertyOp58
 70
     1
102
RTVSPropertyOp59
 70
     1
102
RTVSPropertyOp60
 70
     1
102
RTVSPropertyOp61
 70
     1
102
RTVSPropertyOp62
 70
     1
  0
XRECORD
  5
A5E8
102
{ACAD_REACTORS
330
A5E7
102
}
330
A5E7
100
AcDbXrecord
280
     1
102
RTVSPost2010Prop28
280
     0
102
RTVSPost2010PropOp28
 70
     1
102
RTVSPost2010Prop29
280
     1
102
RTVSPost2010PropOp29
 70
     1
102
RTVSPost2010Prop30
280
     1
102
RTVSPost2010PropOp30
 70
     1
102
RTVSPost2010Prop31
280
     0
102
RTVSPost2010PropOp31
 70
     1
102
RTVSPost2010Prop32
280
     0
102
RTVSPost2010PropOp32
 70
     1
102
RTVSPost2010Prop33
280
     0
102
RTVSPost2010PropOp33
 70
     1
102
RTVSPost2010Prop34
280
     0
102
RTVSPost2010PropOp34
 70
     1
102
RTVSPost2010Prop35
280
     0
102
RTVSPost2010PropOp35
 70
     1
102
RTVSPost2010Prop36
280
     0
102
RTVSPost2010PropOp36
 70
     1
102
RTVSPost2010Prop37
 90
       50
102
RTVSPost2010PropOp37
 70
     1
102
RTVSPost2010Prop38
140
0.0
102
RTVSPost2010PropOp38
 70
     1
102
RTVSPost2010Prop39
140
1.0
102
RTVSPost2010PropOp39
 70
     1
102
RTVSPost2010Prop40
 90
        0
102
RTVSPost2010PropOp40
 70
     1
102
RTVSPost2010Prop41ColorIndex
 90
       18
102
RTVSPost2010Prop41ColorRGB
 90
        0
102
RTVSPost2010PropOp41
 70
     1
102
RTVSPost2010Prop42
 90
       50
102
RTVSPost2010PropOp42
 70
     1
102
RTVSPost2010Prop43
 90
        3
102
RTVSPost2010PropOp43
 70
     1
102
RTVSPost2010Prop44ColorIndex
 90
        5
102
RTVSPost2010Prop44ColorRGB
 90
      255
102
RTVSPost2010PropOp44
 70
     1
102
RTVSPost2010Prop45
280
     0
102
RTVSPost2010PropOp45
 70
     1
102
RTVSPost2010Prop46
 90
       50
102
RTVSPost2010PropOp46
 70
     1
102
RTVSPost2010Prop47
 90
       50
102
RTVSPost2010PropOp47
 70
     1
102
RTVSPost2010Prop48
 90
       50
102
RTVSPost2010PropOp48
 70
     1
102
RTVSPost2010Prop49
280
     0
102
RTVSPost2010PropOp49
 70
     1
102
RTVSPost2010Prop50
 90
       50
102
RTVSPost2010PropOp50
 70
     1
102
RTVSPost2010Prop51ColorIndex
 90
      256
102
RTVSPost2010Prop51ColorRGB
 90
-16777216
102
RTVSPost2010PropOp51
 70
     0
102
RTVSPost2010Prop52
140
1.0
102
RTVSPost2010PropOp52
 70
     0
102
RTVSPost2010Prop53
 90
        2
102
RTVSPost2010PropOp53
 70
     1
102
RTVSPost2010Prop54
  1
strokes_ogs.tif
102
RTVSPost2010PropOp54
 70
     1
102
RTVSPost2010Prop55
280
     0
102
RTVSPost2010PropOp55
 70
     1
102
RTVSPost2010Prop56
140
1.0
102
RTVSPost2010PropOp56
 70
     1
102
RTVSPost2010Prop57
140
1.0
102
RTVSPost2010PropOp57
 70
     1
102
RTVSPropertyOp0
 70
     1
102
RTVSPropertyOp1
 70
     1
102
RTVSPropertyOp2
 70
     1
102
RTVSPropertyOp3
 70
     1
102
RTVSPropertyOp4
 70
     1
102
RTVSPropertyOp5
 70
     1
102
RTVSPropertyOp6
 70
     1
102
RTVSPropertyOp7
 70
     1
102
RTVSPropertyOp8
 70
     1
102
RTVSPropertyOp9
 70
     1
102
RTVSPropertyOp10
 70
     1
102
RTVSPropertyOp11
 70
     1
102
RTVSPropertyOp12
 70
     1
102
RTVSPropertyOp13
 70
     1
102
RTVSPropertyOp14
 70
     1
102
RTVSPropertyOp15
 70
     1
102
RTVSPropertyOp16
 70
     1
102
RTVSPropertyOp17
 70
     1
102
RTVSPropertyOp18
 70
     1
102
RTVSPropertyOp19
 70
     1
102
RTVSPropertyOp20
 70
     1
102
RTVSPropertyOp21
 70
     1
102
RTVSPropertyOp22
 70
     1
102
RTVSPropertyOp23
 70
     1
102
RTVSPropertyOp24
 70
     1
102
RTVSPropertyOp25
 70
     1
102
RTVSPropertyOp26
 70
     1
102
RTVSPropertyOp27
 70
     1
102
RTVSPropertyOp28
 70
     1
102
RTVSPropertyOp29
 70
     1
102
RTVSPropertyOp30
 70
     1
102
RTVSPropertyOp31
 70
     1
102
RTVSPropertyOp32
 70
     1
102
RTVSPropertyOp33
 70
     1
102
RTVSPropertyOp34
 70
     1
102
RTVSPropertyOp35
 70
     1
102
RTVSPropertyOp36
 70
     1
102
RTVSPropertyOp37
 70
     1
102
RTVSPropertyOp38
 70
     1
102
RTVSPropertyOp39
 70
     1
102
RTVSPropertyOp40
 70
     1
102
RTVSPropertyOp41
 70
     1
102
RTVSPropertyOp42
 70
     1
102
RTVSPropertyOp43
 70
     1
102
RTVSPropertyOp44
 70
     1
102
RTVSPropertyOp45
 70
     1
102
RTVSPropertyOp46
 70
     1
102
RTVSPropertyOp47
 70
     1
102
RTVSPropertyOp48
 70
     1
102
RTVSPropertyOp49
 70
     1
102
RTVSPropertyOp50
 70
     1
102
RTVSPropertyOp51
 70
     0
102
RTVSPropertyOp52
 70
     0
102
RTVSPropertyOp53
 70
     1
102
RTVSPropertyOp54
 70
     1
102
RTVSPropertyOp55
 70
     1
102
RTVSPropertyOp56
 70
     1
102
RTVSPropertyOp57
 70
     1
102
RTVSPropertyOp58
 70
     1
102
RTVSPropertyOp59
 70
     1
102
RTVSPropertyOp60
 70
     1
102
RTVSPropertyOp61
 70
     1
102
RTVSPropertyOp62
 70
     1
  0
XRECORD
  5
A5F6
102
{ACAD_REACTORS
330
A5F5
102
}
330
A5F5
100
AcDbXrecord
280
     1
102
RTVSPost2010Prop28
280
     0
102
RTVSPost2010PropOp28
 70
     1
102
RTVSPost2010Prop29
280
     1
102
RTVSPost2010PropOp29
 70
     1
102
RTVSPost2010Prop30
280
     1
102
RTVSPost2010PropOp30
 70
     1
102
RTVSPost2010Prop31
280
     0
102
RTVSPost2010PropOp31
 70
     1
102
RTVSPost2010Prop32
280
     0
102
RTVSPost2010PropOp32
 70
     1
102
RTVSPost2010Prop33
280
     0
102
RTVSPost2010PropOp33
 70
     1
102
RTVSPost2010Prop34
280
     0
102
RTVSPost2010PropOp34
 70
     1
102
RTVSPost2010Prop35
280
     0
102
RTVSPost2010PropOp35
 70
     1
102
RTVSPost2010Prop36
280
     0
102
RTVSPost2010PropOp36
 70
     1
102
RTVSPost2010Prop37
 90
       50
102
RTVSPost2010PropOp37
 70
     1
102
RTVSPost2010Prop38
140
0.0
102
RTVSPost2010PropOp38
 70
     1
102
RTVSPost2010Prop39
140
1.0
102
RTVSPost2010PropOp39
 70
     1
102
RTVSPost2010Prop40
 90
        0
102
RTVSPost2010PropOp40
 70
     1
102
RTVSPost2010Prop41ColorIndex
 90
       18
102
RTVSPost2010Prop41ColorRGB
 90
        0
102
RTVSPost2010PropOp41
 70
     1
102
RTVSPost2010Prop42
 90
       50
102
RTVSPost2010PropOp42
 70
     1
102
RTVSPost2010Prop43
 90
        3
102
RTVSPost2010PropOp43
 70
     1
102
RTVSPost2010Prop44ColorIndex
 90
        5
102
RTVSPost2010Prop44ColorRGB
 90
      255
102
RTVSPost2010PropOp44
 70
     1
102
RTVSPost2010Prop45
280
     0
102
RTVSPost2010PropOp45
 70
     1
102
RTVSPost2010Prop46
 90
       50
102
RTVSPost2010PropOp46
 70
     1
102
RTVSPost2010Prop47
 90
       50
102
RTVSPost2010PropOp47
 70
     1
102
RTVSPost2010Prop48
 90
       50
102
RTVSPost2010PropOp48
 70
     1
102
RTVSPost2010Prop49
280
     0
102
RTVSPost2010PropOp49
 70
     1
102
RTVSPost2010Prop50
 90
       50
102
RTVSPost2010PropOp50
 70
     1
102
RTVSPost2010Prop51ColorIndex
 90
      256
102
RTVSPost2010Prop51ColorRGB
 90
-16777216
102
RTVSPost2010PropOp51
 70
     0
102
RTVSPost2010Prop52
140
1.0
102
RTVSPost2010PropOp52
 70
     0
102
RTVSPost2010Prop53
 90
        2
102
RTVSPost2010PropOp53
 70
     1
102
RTVSPost2010Prop54
  1
strokes_ogs.tif
102
RTVSPost2010PropOp54
 70
     1
102
RTVSPost2010Prop55
280
     0
102
RTVSPost2010PropOp55
 70
     1
102
RTVSPost2010Prop56
140
1.0
102
RTVSPost2010PropOp56
 70
     1
102
RTVSPost2010Prop57
140
1.0
102
RTVSPost2010PropOp57
 70
     1
102
RTVSPropertyOp0
 70
     1
102
RTVSPropertyOp1
 70
     1
102
RTVSPropertyOp2
 70
     1
102
RTVSPropertyOp3
 70
     1
102
RTVSPropertyOp4
 70
     1
102
RTVSPropertyOp5
 70
     1
102
RTVSPropertyOp6
 70
     1
102
RTVSPropertyOp7
 70
     1
102
RTVSPropertyOp8
 70
     1
102
RTVSPropertyOp9
 70
     1
102
RTVSPropertyOp10
 70
     1
102
RTVSPropertyOp11
 70
     1
102
RTVSPropertyOp12
 70
     1
102
RTVSPropertyOp13
 70
     1
102
RTVSPropertyOp14
 70
     1
102
RTVSPropertyOp15
 70
     1
102
RTVSPropertyOp16
 70
     1
102
RTVSPropertyOp17
 70
     1
102
RTVSPropertyOp18
 70
     1
102
RTVSPropertyOp19
 70
     1
102
RTVSPropertyOp20
 70
     1
102
RTVSPropertyOp21
 70
     1
102
RTVSPropertyOp22
 70
     1
102
RTVSPropertyOp23
 70
     1
102
RTVSPropertyOp24
 70
     1
102
RTVSPropertyOp25
 70
     1
102
RTVSPropertyOp26
 70
     1
102
RTVSPropertyOp27
 70
     1
102
RTVSPropertyOp28
 70
     1
102
RTVSPropertyOp29
 70
     1
102
RTVSPropertyOp30
 70
     1
102
RTVSPropertyOp31
 70
     1
102
RTVSPropertyOp32
 70
     1
102
RTVSPropertyOp33
 70
     1
102
RTVSPropertyOp34
 70
     1
102
RTVSPropertyOp35
 70
     1
102
RTVSPropertyOp36
 70
     1
102
RTVSPropertyOp37
 70
     1
102
RTVSPropertyOp38
 70
     1
102
RTVSPropertyOp39
 70
     1
102
RTVSPropertyOp40
 70
     1
102
RTVSPropertyOp41
 70
     1
102
RTVSPropertyOp42
 70
     1
102
RTVSPropertyOp43
 70
     1
102
RTVSPropertyOp44
 70
     1
102
RTVSPropertyOp45
 70
     1
102
RTVSPropertyOp46
 70
     1
102
RTVSPropertyOp47
 70
     1
102
RTVSPropertyOp48
 70
     1
102
RTVSPropertyOp49
 70
     1
102
RTVSPropertyOp50
 70
     1
102
RTVSPropertyOp51
 70
     0
102
RTVSPropertyOp52
 70
     0
102
RTVSPropertyOp53
 70
     1
102
RTVSPropertyOp54
 70
     1
102
RTVSPropertyOp55
 70
     1
102
RTVSPropertyOp56
 70
     1
102
RTVSPropertyOp57
 70
     1
102
RTVSPropertyOp58
 70
     1
102
RTVSPropertyOp59
 70
     1
102
RTVSPropertyOp60
 70
     1
102
RTVSPropertyOp61
 70
     1
102
RTVSPropertyOp62
 70
     1
  0
XRECORD
  5
A5FE
102
{ACAD_REACTORS
330
A5FD
102
}
330
A5FD
100
AcDbXrecord
280
     1
102
RTVSPost2010Prop28
280
     0
102
RTVSPost2010PropOp28
 70
     1
102
RTVSPost2010Prop29
280
     1
102
RTVSPost2010PropOp29
 70
     1
102
RTVSPost2010Prop30
280
     1
102
RTVSPost2010PropOp30
 70
     1
102
RTVSPost2010Prop31
280
     0
102
RTVSPost2010PropOp31
 70
     1
102
RTVSPost2010Prop32
280
     0
102
RTVSPost2010PropOp32
 70
     1
102
RTVSPost2010Prop33
280
     0
102
RTVSPost2010PropOp33
 70
     1
102
RTVSPost2010Prop34
280
     0
102
RTVSPost2010PropOp34
 70
     1
102
RTVSPost2010Prop35
280
     0
102
RTVSPost2010PropOp35
 70
     1
102
RTVSPost2010Prop36
280
     0
102
RTVSPost2010PropOp36
 70
     1
102
RTVSPost2010Prop37
 90
       50
102
RTVSPost2010PropOp37
 70
     1
102
RTVSPost2010Prop38
140
0.0
102
RTVSPost2010PropOp38
 70
     1
102
RTVSPost2010Prop39
140
1.0
102
RTVSPost2010PropOp39
 70
     1
102
RTVSPost2010Prop40
 90
        0
102
RTVSPost2010PropOp40
 70
     1
102
RTVSPost2010Prop41ColorIndex
 90
       18
102
RTVSPost2010Prop41ColorRGB
 90
        0
102
RTVSPost2010PropOp41
 70
     1
102
RTVSPost2010Prop42
 90
       50
102
RTVSPost2010PropOp42
 70
     1
102
RTVSPost2010Prop43
 90
        3
102
RTVSPost2010PropOp43
 70
     1
102
RTVSPost2010Prop44ColorIndex
 90
        5
102
RTVSPost2010Prop44ColorRGB
 90
      255
102
RTVSPost2010PropOp44
 70
     1
102
RTVSPost2010Prop45
280
     0
102
RTVSPost2010PropOp45
 70
     1
102
RTVSPost2010Prop46
 90
       50
102
RTVSPost2010PropOp46
 70
     1
102
RTVSPost2010Prop47
 90
       50
102
RTVSPost2010PropOp47
 70
     1
102
RTVSPost2010Prop48
 90
       50
102
RTVSPost2010PropOp48
 70
     1
102
RTVSPost2010Prop49
280
     0
102
RTVSPost2010PropOp49
 70
     1
102
RTVSPost2010Prop50
 90
       50
102
RTVSPost2010PropOp50
 70
     1
102
RTVSPost2010Prop51ColorIndex
 90
      256
102
RTVSPost2010Prop51ColorRGB
 90
-16777216
102
RTVSPost2010PropOp51
 70
     0
102
RTVSPost2010Prop52
140
1.0
102
RTVSPost2010PropOp52
 70
     0
102
RTVSPost2010Prop53
 90
        2
102
RTVSPost2010PropOp53
 70
     1
102
RTVSPost2010Prop54
  1
strokes_ogs.tif
102
RTVSPost2010PropOp54
 70
     1
102
RTVSPost2010Prop55
280
     0
102
RTVSPost2010PropOp55
 70
     1
102
RTVSPost2010Prop56
140
1.0
102
RTVSPost2010PropOp56
 70
     1
102
RTVSPost2010Prop57
140
1.0
102
RTVSPost2010PropOp57
 70
     1
102
RTVSPropertyOp0
 70
     1
102
RTVSPropertyOp1
 70
     1
102
RTVSPropertyOp2
 70
     1
102
RTVSPropertyOp3
 70
     1
102
RTVSPropertyOp4
 70
     1
102
RTVSPropertyOp5
 70
     1
102
RTVSPropertyOp6
 70
     1
102
RTVSPropertyOp7
 70
     1
102
RTVSPropertyOp8
 70
     1
102
RTVSPropertyOp9
 70
     1
102
RTVSPropertyOp10
 70
     1
102
RTVSPropertyOp11
 70
     1
102
RTVSPropertyOp12
 70
     1
102
RTVSPropertyOp13
 70
     1
102
RTVSPropertyOp14
 70
     1
102
RTVSPropertyOp15
 70
     1
102
RTVSPropertyOp16
 70
     1
102
RTVSPropertyOp17
 70
     1
102
RTVSPropertyOp18
 70
     1
102
RTVSPropertyOp19
 70
     1
102
RTVSPropertyOp20
 70
     1
102
RTVSPropertyOp21
 70
     1
102
RTVSPropertyOp22
 70
     1
102
RTVSPropertyOp23
 70
     1
102
RTVSPropertyOp24
 70
     1
102
RTVSPropertyOp25
 70
     1
102
RTVSPropertyOp26
 70
     1
102
RTVSPropertyOp27
 70
     1
102
RTVSPropertyOp28
 70
     1
102
RTVSPropertyOp29
 70
     1
102
RTVSPropertyOp30
 70
     1
102
RTVSPropertyOp31
 70
     1
102
RTVSPropertyOp32
 70
     1
102
RTVSPropertyOp33
 70
     1
102
RTVSPropertyOp34
 70
     1
102
RTVSPropertyOp35
 70
     1
102
RTVSPropertyOp36
 70
     1
102
RTVSPropertyOp37
 70
     1
102
RTVSPropertyOp38
 70
     1
102
RTVSPropertyOp39
 70
     1
102
RTVSPropertyOp40
 70
     1
102
RTVSPropertyOp41
 70
     1
102
RTVSPropertyOp42
 70
     1
102
RTVSPropertyOp43
 70
     1
102
RTVSPropertyOp44
 70
     1
102
RTVSPropertyOp45
 70
     1
102
RTVSPropertyOp46
 70
     1
102
RTVSPropertyOp47
 70
     1
102
RTVSPropertyOp48
 70
     1
102
RTVSPropertyOp49
 70
     1
102
RTVSPropertyOp50
 70
     1
102
RTVSPropertyOp51
 70
     0
102
RTVSPropertyOp52
 70
     0
102
RTVSPropertyOp53
 70
     1
102
RTVSPropertyOp54
 70
     1
102
RTVSPropertyOp55
 70
     1
102
RTVSPropertyOp56
 70
     1
102
RTVSPropertyOp57
 70
     1
102
RTVSPropertyOp58
 70
     1
102
RTVSPropertyOp59
 70
     1
102
RTVSPropertyOp60
 70
     1
102
RTVSPropertyOp61
 70
     1
102
RTVSPropertyOp62
 70
     1
  0
XRECORD
  5
A5F0
102
{ACAD_REACTORS
330
A5EF
102
}
330
A5EF
100
AcDbXrecord
280
     1
102
RTVSPost2010Prop28
280
     0
102
RTVSPost2010PropOp28
 70
     1
102
RTVSPost2010Prop29
280
     1
102
RTVSPost2010PropOp29
 70
     1
102
RTVSPost2010Prop30
280
     1
102
RTVSPost2010PropOp30
 70
     1
102
RTVSPost2010Prop31
280
     0
102
RTVSPost2010PropOp31
 70
     1
102
RTVSPost2010Prop32
280
     0
102
RTVSPost2010PropOp32
 70
     1
102
RTVSPost2010Prop33
280
     0
102
RTVSPost2010PropOp33
 70
     1
102
RTVSPost2010Prop34
280
     0
102
RTVSPost2010PropOp34
 70
     1
102
RTVSPost2010Prop35
280
     0
102
RTVSPost2010PropOp35
 70
     1
102
RTVSPost2010Prop36
280
     0
102
RTVSPost2010PropOp36
 70
     1
102
RTVSPost2010Prop37
 90
       50
102
RTVSPost2010PropOp37
 70
     1
102
RTVSPost2010Prop38
140
0.0
102
RTVSPost2010PropOp38
 70
     1
102
RTVSPost2010Prop39
140
1.0
102
RTVSPost2010PropOp39
 70
     1
102
RTVSPost2010Prop40
 90
        0
102
RTVSPost2010PropOp40
 70
     1
102
RTVSPost2010Prop41ColorIndex
 90
       18
102
RTVSPost2010Prop41ColorRGB
 90
        0
102
RTVSPost2010PropOp41
 70
     1
102
RTVSPost2010Prop42
 90
       50
102
RTVSPost2010PropOp42
 70
     1
102
RTVSPost2010Prop43
 90
        3
102
RTVSPost2010PropOp43
 70
     1
102
RTVSPost2010Prop44ColorIndex
 90
        5
102
RTVSPost2010Prop44ColorRGB
 90
      255
102
RTVSPost2010PropOp44
 70
     1
102
RTVSPost2010Prop45
280
     0
102
RTVSPost2010PropOp45
 70
     1
102
RTVSPost2010Prop46
 90
       50
102
RTVSPost2010PropOp46
 70
     1
102
RTVSPost2010Prop47
 90
       50
102
RTVSPost2010PropOp47
 70
     1
102
RTVSPost2010Prop48
 90
       50
102
RTVSPost2010PropOp48
 70
     1
102
RTVSPost2010Prop49
280
     0
102
RTVSPost2010PropOp49
 70
     1
102
RTVSPost2010Prop50
 90
       50
102
RTVSPost2010PropOp50
 70
     1
102
RTVSPost2010Prop51ColorIndex
 90
      256
102
RTVSPost2010Prop51ColorRGB
 90
-16777216
102
RTVSPost2010PropOp51
 70
     0
102
RTVSPost2010Prop52
140
1.0
102
RTVSPost2010PropOp52
 70
     0
102
RTVSPost2010Prop53
 90
        2
102
RTVSPost2010PropOp53
 70
     1
102
RTVSPost2010Prop54
  1
strokes_ogs.tif
102
RTVSPost2010PropOp54
 70
     1
102
RTVSPost2010Prop55
280
     0
102
RTVSPost2010PropOp55
 70
     1
102
RTVSPost2010Prop56
140
1.0
102
RTVSPost2010PropOp56
 70
     1
102
RTVSPost2010Prop57
140
1.0
102
RTVSPost2010PropOp57
 70
     1
102
RTVSPropertyOp0
 70
     1
102
RTVSPropertyOp1
 70
     1
102
RTVSPropertyOp2
 70
     1
102
RTVSPropertyOp3
 70
     1
102
RTVSPropertyOp4
 70
     1
102
RTVSPropertyOp5
 70
     1
102
RTVSPropertyOp6
 70
     1
102
RTVSPropertyOp7
 70
     1
102
RTVSPropertyOp8
 70
     1
102
RTVSPropertyOp9
 70
     1
102
RTVSPropertyOp10
 70
     1
102
RTVSPropertyOp11
 70
     1
102
RTVSPropertyOp12
 70
     1
102
RTVSPropertyOp13
 70
     1
102
RTVSPropertyOp14
 70
     1
102
RTVSPropertyOp15
 70
     1
102
RTVSPropertyOp16
 70
     1
102
RTVSPropertyOp17
 70
     1
102
RTVSPropertyOp18
 70
     1
102
RTVSPropertyOp19
 70
     1
102
RTVSPropertyOp20
 70
     1
102
RTVSPropertyOp21
 70
     1
102
RTVSPropertyOp22
 70
     1
102
RTVSPropertyOp23
 70
     1
102
RTVSPropertyOp24
 70
     1
102
RTVSPropertyOp25
 70
     1
102
RTVSPropertyOp26
 70
     1
102
RTVSPropertyOp27
 70
     1
102
RTVSPropertyOp28
 70
     1
102
RTVSPropertyOp29
 70
     1
102
RTVSPropertyOp30
 70
     1
102
RTVSPropertyOp31
 70
     1
102
RTVSPropertyOp32
 70
     1
102
RTVSPropertyOp33
 70
     1
102
RTVSPropertyOp34
 70
     1
102
RTVSPropertyOp35
 70
     1
102
RTVSPropertyOp36
 70
     1
102
RTVSPropertyOp37
 70
     1
102
RTVSPropertyOp38
 70
     1
102
RTVSPropertyOp39
 70
     1
102
RTVSPropertyOp40
 70
     1
102
RTVSPropertyOp41
 70
     1
102
RTVSPropertyOp42
 70
     1
102
RTVSPropertyOp43
 70
     1
102
RTVSPropertyOp44
 70
     1
102
RTVSPropertyOp45
 70
     1
102
RTVSPropertyOp46
 70
     1
102
RTVSPropertyOp47
 70
     1
102
RTVSPropertyOp48
 70
     1
102
RTVSPropertyOp49
 70
     1
102
RTVSPropertyOp50
 70
     1
102
RTVSPropertyOp51
 70
     0
102
RTVSPropertyOp52
 70
     0
102
RTVSPropertyOp53
 70
     1
102
RTVSPropertyOp54
 70
     1
102
RTVSPropertyOp55
 70
     1
102
RTVSPropertyOp56
 70
     1
102
RTVSPropertyOp57
 70
     1
102
RTVSPropertyOp58
 70
     1
102
RTVSPropertyOp59
 70
     1
102
RTVSPropertyOp60
 70
     1
102
RTVSPropertyOp61
 70
     1
102
RTVSPropertyOp62
 70
     1
  0
XRECORD
  5
A5F4
102
{ACAD_REACTORS
330
A5F3
102
}
330
A5F3
100
AcDbXrecord
280
     1
102
RTVSPost2010Prop28
280
     0
102
RTVSPost2010PropOp28
 70
     1
102
RTVSPost2010Prop29
280
     1
102
RTVSPost2010PropOp29
 70
     1
102
RTVSPost2010Prop30
280
     1
102
RTVSPost2010PropOp30
 70
     1
102
RTVSPost2010Prop31
280
     0
102
RTVSPost2010PropOp31
 70
     1
102
RTVSPost2010Prop32
280
     0
102
RTVSPost2010PropOp32
 70
     1
102
RTVSPost2010Prop33
280
     0
102
RTVSPost2010PropOp33
 70
     1
102
RTVSPost2010Prop34
280
     0
102
RTVSPost2010PropOp34
 70
     1
102
RTVSPost2010Prop35
280
     0
102
RTVSPost2010PropOp35
 70
     1
102
RTVSPost2010Prop36
280
     0
102
RTVSPost2010PropOp36
 70
     1
102
RTVSPost2010Prop37
 90
       50
102
RTVSPost2010PropOp37
 70
     1
102
RTVSPost2010Prop38
140
0.0
102
RTVSPost2010PropOp38
 70
     1
102
RTVSPost2010Prop39
140
1.0
102
RTVSPost2010PropOp39
 70
     1
102
RTVSPost2010Prop40
 90
        0
102
RTVSPost2010PropOp40
 70
     1
102
RTVSPost2010Prop41ColorIndex
 90
       18
102
RTVSPost2010Prop41ColorRGB
 90
        0
102
RTVSPost2010PropOp41
 70
     1
102
RTVSPost2010Prop42
 90
       50
102
RTVSPost2010PropOp42
 70
     1
102
RTVSPost2010Prop43
 90
        3
102
RTVSPost2010PropOp43
 70
     1
102
RTVSPost2010Prop44ColorIndex
 90
        5
102
RTVSPost2010Prop44ColorRGB
 90
      255
102
RTVSPost2010PropOp44
 70
     1
102
RTVSPost2010Prop45
280
     0
102
RTVSPost2010PropOp45
 70
     1
102
RTVSPost2010Prop46
 90
       50
102
RTVSPost2010PropOp46
 70
     1
102
RTVSPost2010Prop47
 90
       50
102
RTVSPost2010PropOp47
 70
     1
102
RTVSPost2010Prop48
 90
       50
102
RTVSPost2010PropOp48
 70
     1
102
RTVSPost2010Prop49
280
     0
102
RTVSPost2010PropOp49
 70
     1
102
RTVSPost2010Prop50
 90
       50
102
RTVSPost2010PropOp50
 70
     1
102
RTVSPost2010Prop51ColorIndex
 90
      256
102
RTVSPost2010Prop51ColorRGB
 90
-16777216
102
RTVSPost2010PropOp51
 70
     0
102
RTVSPost2010Prop52
140
1.0
102
RTVSPost2010PropOp52
 70
     0
102
RTVSPost2010Prop53
 90
        2
102
RTVSPost2010PropOp53
 70
     1
102
RTVSPost2010Prop54
  1
strokes_ogs.tif
102
RTVSPost2010PropOp54
 70
     1
102
RTVSPost2010Prop55
280
     0
102
RTVSPost2010PropOp55
 70
     1
102
RTVSPost2010Prop56
140
1.0
102
RTVSPost2010PropOp56
 70
     1
102
RTVSPost2010Prop57
140
1.0
102
RTVSPost2010PropOp57
 70
     1
102
RTVSPropertyOp0
 70
     1
102
RTVSPropertyOp1
 70
     1
102
RTVSPropertyOp2
 70
     1
102
RTVSPropertyOp3
 70
     1
102
RTVSPropertyOp4
 70
     1
102
RTVSPropertyOp5
 70
     1
102
RTVSPropertyOp6
 70
     1
102
RTVSPropertyOp7
 70
     1
102
RTVSPropertyOp8
 70
     1
102
RTVSPropertyOp9
 70
     1
102
RTVSPropertyOp10
 70
     1
102
RTVSPropertyOp11
 70
     1
102
RTVSPropertyOp12
 70
     1
102
RTVSPropertyOp13
 70
     1
102
RTVSPropertyOp14
 70
     1
102
RTVSPropertyOp15
 70
     1
102
RTVSPropertyOp16
 70
     1
102
RTVSPropertyOp17
 70
     1
102
RTVSPropertyOp18
 70
     1
102
RTVSPropertyOp19
 70
     1
102
RTVSPropertyOp20
 70
     1
102
RTVSPropertyOp21
 70
     1
102
RTVSPropertyOp22
 70
     1
102
RTVSPropertyOp23
 70
     1
102
RTVSPropertyOp24
 70
     1
102
RTVSPropertyOp25
 70
     1
102
RTVSPropertyOp26
 70
     1
102
RTVSPropertyOp27
 70
     1
102
RTVSPropertyOp28
 70
     1
102
RTVSPropertyOp29
 70
     1
102
RTVSPropertyOp30
 70
     1
102
RTVSPropertyOp31
 70
     1
102
RTVSPropertyOp32
 70
     1
102
RTVSPropertyOp33
 70
     1
102
RTVSPropertyOp34
 70
     1
102
RTVSPropertyOp35
 70
     1
102
RTVSPropertyOp36
 70
     1
102
RTVSPropertyOp37
 70
     1
102
RTVSPropertyOp38
 70
     1
102
RTVSPropertyOp39
 70
     1
102
RTVSPropertyOp40
 70
     1
102
RTVSPropertyOp41
 70
     1
102
RTVSPropertyOp42
 70
     1
102
RTVSPropertyOp43
 70
     1
102
RTVSPropertyOp44
 70
     1
102
RTVSPropertyOp45
 70
     1
102
RTVSPropertyOp46
 70
     1
102
RTVSPropertyOp47
 70
     1
102
RTVSPropertyOp48
 70
     1
102
RTVSPropertyOp49
 70
     1
102
RTVSPropertyOp50
 70
     1
102
RTVSPropertyOp51
 70
     0
102
RTVSPropertyOp52
 70
     0
102
RTVSPropertyOp53
 70
     1
102
RTVSPropertyOp54
 70
     1
102
RTVSPropertyOp55
 70
     1
102
RTVSPropertyOp56
 70
     1
102
RTVSPropertyOp57
 70
     1
102
RTVSPropertyOp58
 70
     1
102
RTVSPropertyOp59
 70
     1
102
RTVSPropertyOp60
 70
     1
102
RTVSPropertyOp61
 70
     1
102
RTVSPropertyOp62
 70
     1
  0
XRECORD
  5
A60E
102
{ACAD_REACTORS
330
A60D
102
}
330
A60D
100
AcDbXrecord
280
     1
102
RTVSPost2010Prop28
280
     0
102
RTVSPost2010PropOp28
 70
     1
102
RTVSPost2010Prop29
280
     1
102
RTVSPost2010PropOp29
 70
     1
102
RTVSPost2010Prop30
280
     1
102
RTVSPost2010PropOp30
 70
     1
102
RTVSPost2010Prop31
280
     0
102
RTVSPost2010PropOp31
 70
     1
102
RTVSPost2010Prop32
280
     0
102
RTVSPost2010PropOp32
 70
     1
102
RTVSPost2010Prop33
280
     0
102
RTVSPost2010PropOp33
 70
     1
102
RTVSPost2010Prop34
280
     0
102
RTVSPost2010PropOp34
 70
     1
102
RTVSPost2010Prop35
280
     0
102
RTVSPost2010PropOp35
 70
     1
102
RTVSPost2010Prop36
280
     0
102
RTVSPost2010PropOp36
 70
     1
102
RTVSPost2010Prop37
 90
       50
102
RTVSPost2010PropOp37
 70
     0
102
RTVSPost2010Prop38
140
0.0
102
RTVSPost2010PropOp38
 70
     0
102
RTVSPost2010Prop39
140
1.0
102
RTVSPost2010PropOp39
 70
     0
102
RTVSPost2010Prop40
 90
        0
102
RTVSPost2010PropOp40
 70
     0
102
RTVSPost2010Prop41ColorIndex
 90
       18
102
RTVSPost2010Prop41ColorRGB
 90
        0
102
RTVSPost2010PropOp41
 70
     0
102
RTVSPost2010Prop42
 90
       50
102
RTVSPost2010PropOp42
 70
     0
102
RTVSPost2010Prop43
 90
        3
102
RTVSPost2010PropOp43
 70
     0
102
RTVSPost2010Prop44ColorIndex
 90
        5
102
RTVSPost2010Prop44ColorRGB
 90
      255
102
RTVSPost2010PropOp44
 70
     0
102
RTVSPost2010Prop45
280
     0
102
RTVSPost2010PropOp45
 70
     1
102
RTVSPost2010Prop46
 90
       50
102
RTVSPost2010PropOp46
 70
     0
102
RTVSPost2010Prop47
 90
       50
102
RTVSPost2010PropOp47
 70
     0
102
RTVSPost2010Prop48
 90
       50
102
RTVSPost2010PropOp48
 70
     0
102
RTVSPost2010Prop49
280
     0
102
RTVSPost2010PropOp49
 70
     1
102
RTVSPost2010Prop50
 90
       50
102
RTVSPost2010PropOp50
 70
     0
102
RTVSPost2010Prop51ColorIndex
 90
      256
102
RTVSPost2010Prop51ColorRGB
 90
-16777216
102
RTVSPost2010PropOp51
 70
     0
102
RTVSPost2010Prop52
140
1.0
102
RTVSPost2010PropOp52
 70
     0
102
RTVSPost2010Prop53
 90
        2
102
RTVSPost2010PropOp53
 70
     0
102
RTVSPost2010Prop54
  1
strokes_ogs.tif
102
RTVSPost2010PropOp54
 70
     0
102
RTVSPost2010Prop55
280
     0
102
RTVSPost2010PropOp55
 70
     1
102
RTVSPost2010Prop56
140
1.0
102
RTVSPost2010PropOp56
 70
     0
102
RTVSPost2010Prop57
140
1.0
102
RTVSPost2010PropOp57
 70
     0
102
RTVSPropertyOp0
 70
     0
102
RTVSPropertyOp1
 70
     0
102
RTVSPropertyOp2
 70
     0
102
RTVSPropertyOp3
 70
     0
102
RTVSPropertyOp4
 70
     0
102
RTVSPropertyOp5
 70
     0
102
RTVSPropertyOp6
 70
     0
102
RTVSPropertyOp7
 70
     0
102
RTVSPropertyOp8
 70
     0
102
RTVSPropertyOp9
 70
     0
102
RTVSPropertyOp10
 70
     0
102
RTVSPropertyOp11
 70
     0
102
RTVSPropertyOp12
 70
     0
102
RTVSPropertyOp13
 70
     0
102
RTVSPropertyOp14
 70
     2
102
RTVSPropertyOp15
 70
     0
102
RTVSPropertyOp16
 70
     0
102
RTVSPropertyOp17
 70
     0
102
RTVSPropertyOp18
 70
     0
102
RTVSPropertyOp19
 70
     0
102
RTVSPropertyOp20
 70
     0
102
RTVSPropertyOp21
 70
     0
102
RTVSPropertyOp22
 70
     0
102
RTVSPropertyOp23
 70
     0
102
RTVSPropertyOp24
 70
     0
102
RTVSPropertyOp25
 70
     0
102
RTVSPropertyOp26
 70
     0
102
RTVSPropertyOp27
 70
     0
102
RTVSPropertyOp28
 70
     1
102
RTVSPropertyOp29
 70
     1
102
RTVSPropertyOp30
 70
     1
102
RTVSPropertyOp31
 70
     1
102
RTVSPropertyOp32
 70
     1
102
RTVSPropertyOp33
 70
     1
102
RTVSPropertyOp34
 70
     1
102
RTVSPropertyOp35
 70
     1
102
RTVSPropertyOp36
 70
     1
102
RTVSPropertyOp37
 70
     0
102
RTVSPropertyOp38
 70
     0
102
RTVSPropertyOp39
 70
     0
102
RTVSPropertyOp40
 70
     0
102
RTVSPropertyOp41
 70
     0
102
RTVSPropertyOp42
 70
     0
102
RTVSPropertyOp43
 70
     0
102
RTVSPropertyOp44
 70
     0
102
RTVSPropertyOp45
 70
     1
102
RTVSPropertyOp46
 70
     0
102
RTVSPropertyOp47
 70
     0
102
RTVSPropertyOp48
 70
     0
102
RTVSPropertyOp49
 70
     1
102
RTVSPropertyOp50
 70
     0
102
RTVSPropertyOp51
 70
     0
102
RTVSPropertyOp52
 70
     0
102
RTVSPropertyOp53
 70
     0
102
RTVSPropertyOp54
 70
     0
102
RTVSPropertyOp55
 70
     1
102
RTVSPropertyOp56
 70
     0
102
RTVSPropertyOp57
 70
     0
102
RTVSPropertyOp58
 70
     0
102
RTVSPropertyOp59
 70
     0
102
RTVSPropertyOp60
 70
     0
102
RTVSPropertyOp61
 70
     0
102
RTVSPropertyOp62
 70
     0
  0
XRECORD
  5
A5FC
102
{ACAD_REACTORS
330
A5FB
102
}
330
A5FB
100
AcDbXrecord
280
     1
102
RTVSPost2010Prop28
280
     0
102
RTVSPost2010PropOp28
 70
     1
102
RTVSPost2010Prop29
280
     1
102
RTVSPost2010PropOp29
 70
     1
102
RTVSPost2010Prop30
280
     1
102
RTVSPost2010PropOp30
 70
     1
102
RTVSPost2010Prop31
280
     0
102
RTVSPost2010PropOp31
 70
     1
102
RTVSPost2010Prop32
280
     0
102
RTVSPost2010PropOp32
 70
     1
102
RTVSPost2010Prop33
280
     0
102
RTVSPost2010PropOp33
 70
     1
102
RTVSPost2010Prop34
280
     0
102
RTVSPost2010PropOp34
 70
     1
102
RTVSPost2010Prop35
280
     0
102
RTVSPost2010PropOp35
 70
     1
102
RTVSPost2010Prop36
280
     0
102
RTVSPost2010PropOp36
 70
     1
102
RTVSPost2010Prop37
 90
       50
102
RTVSPost2010PropOp37
 70
     1
102
RTVSPost2010Prop38
140
0.0
102
RTVSPost2010PropOp38
 70
     1
102
RTVSPost2010Prop39
140
1.0
102
RTVSPost2010PropOp39
 70
     1
102
RTVSPost2010Prop40
 90
        0
102
RTVSPost2010PropOp40
 70
     1
102
RTVSPost2010Prop41ColorIndex
 90
       18
102
RTVSPost2010Prop41ColorRGB
 90
        0
102
RTVSPost2010PropOp41
 70
     1
102
RTVSPost2010Prop42
 90
       50
102
RTVSPost2010PropOp42
 70
     1
102
RTVSPost2010Prop43
 90
        3
102
RTVSPost2010PropOp43
 70
     1
102
RTVSPost2010Prop44ColorIndex
 90
        5
102
RTVSPost2010Prop44ColorRGB
 90
      255
102
RTVSPost2010PropOp44
 70
     1
102
RTVSPost2010Prop45
280
     0
102
RTVSPost2010PropOp45
 70
     1
102
RTVSPost2010Prop46
 90
       50
102
RTVSPost2010PropOp46
 70
     1
102
RTVSPost2010Prop47
 90
       50
102
RTVSPost2010PropOp47
 70
     1
102
RTVSPost2010Prop48
 90
       50
102
RTVSPost2010PropOp48
 70
     1
102
RTVSPost2010Prop49
280
     0
102
RTVSPost2010PropOp49
 70
     1
102
RTVSPost2010Prop50
 90
       50
102
RTVSPost2010PropOp50
 70
     1
102
RTVSPost2010Prop51ColorIndex
 90
      256
102
RTVSPost2010Prop51ColorRGB
 90
-16777216
102
RTVSPost2010PropOp51
 70
     0
102
RTVSPost2010Prop52
140
1.0
102
RTVSPost2010PropOp52
 70
     0
102
RTVSPost2010Prop53
 90
        2
102
RTVSPost2010PropOp53
 70
     1
102
RTVSPost2010Prop54
  1
strokes_ogs.tif
102
RTVSPost2010PropOp54
 70
     1
102
RTVSPost2010Prop55
280
     0
102
RTVSPost2010PropOp55
 70
     1
102
RTVSPost2010Prop56
140
1.0
102
RTVSPost2010PropOp56
 70
     1
102
RTVSPost2010Prop57
140
1.0
102
RTVSPost2010PropOp57
 70
     1
102
RTVSPropertyOp0
 70
     1
102
RTVSPropertyOp1
 70
     1
102
RTVSPropertyOp2
 70
     1
102
RTVSPropertyOp3
 70
     1
102
RTVSPropertyOp4
 70
     1
102
RTVSPropertyOp5
 70
     1
102
RTVSPropertyOp6
 70
     1
102
RTVSPropertyOp7
 70
     1
102
RTVSPropertyOp8
 70
     1
102
RTVSPropertyOp9
 70
     1
102
RTVSPropertyOp10
 70
     1
102
RTVSPropertyOp11
 70
     1
102
RTVSPropertyOp12
 70
     1
102
RTVSPropertyOp13
 70
     1
102
RTVSPropertyOp14
 70
     1
102
RTVSPropertyOp15
 70
     1
102
RTVSPropertyOp16
 70
     1
102
RTVSPropertyOp17
 70
     1
102
RTVSPropertyOp18
 70
     1
102
RTVSPropertyOp19
 70
     1
102
RTVSPropertyOp20
 70
     1
102
RTVSPropertyOp21
 70
     1
102
RTVSPropertyOp22
 70
     1
102
RTVSPropertyOp23
 70
     1
102
RTVSPropertyOp24
 70
     1
102
RTVSPropertyOp25
 70
     1
102
RTVSPropertyOp26
 70
     1
102
RTVSPropertyOp27
 70
     1
102
RTVSPropertyOp28
 70
     1
102
RTVSPropertyOp29
 70
     1
102
RTVSPropertyOp30
 70
     1
102
RTVSPropertyOp31
 70
     1
102
RTVSPropertyOp32
 70
     1
102
RTVSPropertyOp33
 70
     1
102
RTVSPropertyOp34
 70
     1
102
RTVSPropertyOp35
 70
     1
102
RTVSPropertyOp36
 70
     1
102
RTVSPropertyOp37
 70
     1
102
RTVSPropertyOp38
 70
     1
102
RTVSPropertyOp39
 70
     1
102
RTVSPropertyOp40
 70
     1
102
RTVSPropertyOp41
 70
     1
102
RTVSPropertyOp42
 70
     1
102
RTVSPropertyOp43
 70
     1
102
RTVSPropertyOp44
 70
     1
102
RTVSPropertyOp45
 70
     1
102
RTVSPropertyOp46
 70
     1
102
RTVSPropertyOp47
 70
     1
102
RTVSPropertyOp48
 70
     1
102
RTVSPropertyOp49
 70
     1
102
RTVSPropertyOp50
 70
     1
102
RTVSPropertyOp51
 70
     0
102
RTVSPropertyOp52
 70
     0
102
RTVSPropertyOp53
 70
     1
102
RTVSPropertyOp54
 70
     1
102
RTVSPropertyOp55
 70
     1
102
RTVSPropertyOp56
 70
     1
102
RTVSPropertyOp57
 70
     1
102
RTVSPropertyOp58
 70
     1
102
RTVSPropertyOp59
 70
     1
102
RTVSPropertyOp60
 70
     1
102
RTVSPropertyOp61
 70
     1
102
RTVSPropertyOp62
 70
     1
  0
XRECORD
  5
A5E0
102
{ACAD_REACTORS
330
A5DF
102
}
330
A5DF
100
AcDbXrecord
280
     1
102
RTVSPost2010Prop28
280
     0
102
RTVSPost2010PropOp28
 70
     1
102
RTVSPost2010Prop29
280
     1
102
RTVSPost2010PropOp29
 70
     1
102
RTVSPost2010Prop30
280
     1
102
RTVSPost2010PropOp30
 70
     1
102
RTVSPost2010Prop31
280
     0
102
RTVSPost2010PropOp31
 70
     1
102
RTVSPost2010Prop32
280
     0
102
RTVSPost2010PropOp32
 70
     1
102
RTVSPost2010Prop33
280
     0
102
RTVSPost2010PropOp33
 70
     1
102
RTVSPost2010Prop34
280
     0
102
RTVSPost2010PropOp34
 70
     1
102
RTVSPost2010Prop35
280
     0
102
RTVSPost2010PropOp35
 70
     1
102
RTVSPost2010Prop36
280
     0
102
RTVSPost2010PropOp36
 70
     1
102
RTVSPost2010Prop37
 90
       50
102
RTVSPost2010PropOp37
 70
     1
102
RTVSPost2010Prop38
140
0.0
102
RTVSPost2010PropOp38
 70
     1
102
RTVSPost2010Prop39
140
1.0
102
RTVSPost2010PropOp39
 70
     1
102
RTVSPost2010Prop40
 90
        0
102
RTVSPost2010PropOp40
 70
     1
102
RTVSPost2010Prop41ColorIndex
 90
       18
102
RTVSPost2010Prop41ColorRGB
 90
        0
102
RTVSPost2010PropOp41
 70
     1
102
RTVSPost2010Prop42
 90
       50
102
RTVSPost2010PropOp42
 70
     1
102
RTVSPost2010Prop43
 90
        3
102
RTVSPost2010PropOp43
 70
     1
102
RTVSPost2010Prop44ColorIndex
 90
        5
102
RTVSPost2010Prop44ColorRGB
 90
      255
102
RTVSPost2010PropOp44
 70
     1
102
RTVSPost2010Prop45
280
     0
102
RTVSPost2010PropOp45
 70
     1
102
RTVSPost2010Prop46
 90
       50
102
RTVSPost2010PropOp46
 70
     1
102
RTVSPost2010Prop47
 90
       50
102
RTVSPost2010PropOp47
 70
     1
102
RTVSPost2010Prop48
 90
       50
102
RTVSPost2010PropOp48
 70
     1
102
RTVSPost2010Prop49
280
     0
102
RTVSPost2010PropOp49
 70
     1
102
RTVSPost2010Prop50
 90
       50
102
RTVSPost2010PropOp50
 70
     1
102
RTVSPost2010Prop51ColorIndex
 90
      256
102
RTVSPost2010Prop51ColorRGB
 90
-16777216
102
RTVSPost2010PropOp51
 70
     0
102
RTVSPost2010Prop52
140
1.0
102
RTVSPost2010PropOp52
 70
     0
102
RTVSPost2010Prop53
 90
        2
102
RTVSPost2010PropOp53
 70
     1
102
RTVSPost2010Prop54
  1
strokes_ogs.tif
102
RTVSPost2010PropOp54
 70
     1
102
RTVSPost2010Prop55
280
     0
102
RTVSPost2010PropOp55
 70
     1
102
RTVSPost2010Prop56
140
1.0
102
RTVSPost2010PropOp56
 70
     1
102
RTVSPost2010Prop57
140
1.0
102
RTVSPost2010PropOp57
 70
     1
102
RTVSPropertyOp0
 70
     1
102
RTVSPropertyOp1
 70
     1
102
RTVSPropertyOp2
 70
     1
102
RTVSPropertyOp3
 70
     1
102
RTVSPropertyOp4
 70
     1
102
RTVSPropertyOp5
 70
     1
102
RTVSPropertyOp6
 70
     1
102
RTVSPropertyOp7
 70
     1
102
RTVSPropertyOp8
 70
     1
102
RTVSPropertyOp9
 70
     1
102
RTVSPropertyOp10
 70
     1
102
RTVSPropertyOp11
 70
     1
102
RTVSPropertyOp12
 70
     1
102
RTVSPropertyOp13
 70
     1
102
RTVSPropertyOp14
 70
     1
102
RTVSPropertyOp15
 70
     1
102
RTVSPropertyOp16
 70
     1
102
RTVSPropertyOp17
 70
     1
102
RTVSPropertyOp18
 70
     1
102
RTVSPropertyOp19
 70
     1
102
RTVSPropertyOp20
 70
     1
102
RTVSPropertyOp21
 70
     1
102
RTVSPropertyOp22
 70
     1
102
RTVSPropertyOp23
 70
     1
102
RTVSPropertyOp24
 70
     1
102
RTVSPropertyOp25
 70
     1
102
RTVSPropertyOp26
 70
     1
102
RTVSPropertyOp27
 70
     1
102
RTVSPropertyOp28
 70
     1
102
RTVSPropertyOp29
 70
     1
102
RTVSPropertyOp30
 70
     1
102
RTVSPropertyOp31
 70
     1
102
RTVSPropertyOp32
 70
     1
102
RTVSPropertyOp33
 70
     1
102
RTVSPropertyOp34
 70
     1
102
RTVSPropertyOp35
 70
     1
102
RTVSPropertyOp36
 70
     1
102
RTVSPropertyOp37
 70
     1
102
RTVSPropertyOp38
 70
     1
102
RTVSPropertyOp39
 70
     1
102
RTVSPropertyOp40
 70
     1
102
RTVSPropertyOp41
 70
     1
102
RTVSPropertyOp42
 70
     1
102
RTVSPropertyOp43
 70
     1
102
RTVSPropertyOp44
 70
     1
102
RTVSPropertyOp45
 70
     1
102
RTVSPropertyOp46
 70
     1
102
RTVSPropertyOp47
 70
     1
102
RTVSPropertyOp48
 70
     1
102
RTVSPropertyOp49
 70
     1
102
RTVSPropertyOp50
 70
     1
102
RTVSPropertyOp51
 70
     0
102
RTVSPropertyOp52
 70
     0
102
RTVSPropertyOp53
 70
     1
102
RTVSPropertyOp54
 70
     1
102
RTVSPropertyOp55
 70
     1
102
RTVSPropertyOp56
 70
     1
102
RTVSPropertyOp57
 70
     1
102
RTVSPropertyOp58
 70
     1
102
RTVSPropertyOp59
 70
     1
102
RTVSPropertyOp60
 70
     1
102
RTVSPropertyOp61
 70
     1
102
RTVSPropertyOp62
 70
     1
  0
XRECORD
  5
A5E2
102
{ACAD_REACTORS
330
A5E1
102
}
330
A5E1
100
AcDbXrecord
280
     1
102
RTVSPost2010Prop28
280
     0
102
RTVSPost2010PropOp28
 70
     1
102
RTVSPost2010Prop29
280
     1
102
RTVSPost2010PropOp29
 70
     1
102
RTVSPost2010Prop30
280
     1
102
RTVSPost2010PropOp30
 70
     1
102
RTVSPost2010Prop31
280
     0
102
RTVSPost2010PropOp31
 70
     1
102
RTVSPost2010Prop32
280
     0
102
RTVSPost2010PropOp32
 70
     1
102
RTVSPost2010Prop33
280
     0
102
RTVSPost2010PropOp33
 70
     1
102
RTVSPost2010Prop34
280
     0
102
RTVSPost2010PropOp34
 70
     1
102
RTVSPost2010Prop35
280
     0
102
RTVSPost2010PropOp35
 70
     1
102
RTVSPost2010Prop36
280
     0
102
RTVSPost2010PropOp36
 70
     1
102
RTVSPost2010Prop37
 90
       50
102
RTVSPost2010PropOp37
 70
     1
102
RTVSPost2010Prop38
140
0.0
102
RTVSPost2010PropOp38
 70
     1
102
RTVSPost2010Prop39
140
1.0
102
RTVSPost2010PropOp39
 70
     1
102
RTVSPost2010Prop40
 90
        0
102
RTVSPost2010PropOp40
 70
     1
102
RTVSPost2010Prop41ColorIndex
 90
       18
102
RTVSPost2010Prop41ColorRGB
 90
        0
102
RTVSPost2010PropOp41
 70
     1
102
RTVSPost2010Prop42
 90
       50
102
RTVSPost2010PropOp42
 70
     1
102
RTVSPost2010Prop43
 90
        3
102
RTVSPost2010PropOp43
 70
     1
102
RTVSPost2010Prop44ColorIndex
 90
        5
102
RTVSPost2010Prop44ColorRGB
 90
      255
102
RTVSPost2010PropOp44
 70
     1
102
RTVSPost2010Prop45
280
     0
102
RTVSPost2010PropOp45
 70
     1
102
RTVSPost2010Prop46
 90
       50
102
RTVSPost2010PropOp46
 70
     1
102
RTVSPost2010Prop47
 90
       50
102
RTVSPost2010PropOp47
 70
     1
102
RTVSPost2010Prop48
 90
       50
102
RTVSPost2010PropOp48
 70
     1
102
RTVSPost2010Prop49
280
     0
102
RTVSPost2010PropOp49
 70
     1
102
RTVSPost2010Prop50
 90
       50
102
RTVSPost2010PropOp50
 70
     1
102
RTVSPost2010Prop51ColorIndex
 90
      256
102
RTVSPost2010Prop51ColorRGB
 90
-16777216
102
RTVSPost2010PropOp51
 70
     0
102
RTVSPost2010Prop52
140
1.0
102
RTVSPost2010PropOp52
 70
     0
102
RTVSPost2010Prop53
 90
        2
102
RTVSPost2010PropOp53
 70
     1
102
RTVSPost2010Prop54
  1
strokes_ogs.tif
102
RTVSPost2010PropOp54
 70
     1
102
RTVSPost2010Prop55
280
     0
102
RTVSPost2010PropOp55
 70
     1
102
RTVSPost2010Prop56
140
1.0
102
RTVSPost2010PropOp56
 70
     1
102
RTVSPost2010Prop57
140
1.0
102
RTVSPost2010PropOp57
 70
     1
102
RTVSPropertyOp0
 70
     1
102
RTVSPropertyOp1
 70
     1
102
RTVSPropertyOp2
 70
     1
102
RTVSPropertyOp3
 70
     1
102
RTVSPropertyOp4
 70
     1
102
RTVSPropertyOp5
 70
     1
102
RTVSPropertyOp6
 70
     1
102
RTVSPropertyOp7
 70
     1
102
RTVSPropertyOp8
 70
     1
102
RTVSPropertyOp9
 70
     1
102
RTVSPropertyOp10
 70
     1
102
RTVSPropertyOp11
 70
     1
102
RTVSPropertyOp12
 70
     1
102
RTVSPropertyOp13
 70
     1
102
RTVSPropertyOp14
 70
     1
102
RTVSPropertyOp15
 70
     1
102
RTVSPropertyOp16
 70
     1
102
RTVSPropertyOp17
 70
     1
102
RTVSPropertyOp18
 70
     1
102
RTVSPropertyOp19
 70
     1
102
RTVSPropertyOp20
 70
     1
102
RTVSPropertyOp21
 70
     1
102
RTVSPropertyOp22
 70
     1
102
RTVSPropertyOp23
 70
     1
102
RTVSPropertyOp24
 70
     1
102
RTVSPropertyOp25
 70
     1
102
RTVSPropertyOp26
 70
     1
102
RTVSPropertyOp27
 70
     1
102
RTVSPropertyOp28
 70
     1
102
RTVSPropertyOp29
 70
     1
102
RTVSPropertyOp30
 70
     1
102
RTVSPropertyOp31
 70
     1
102
RTVSPropertyOp32
 70
     1
102
RTVSPropertyOp33
 70
     1
102
RTVSPropertyOp34
 70
     1
102
RTVSPropertyOp35
 70
     1
102
RTVSPropertyOp36
 70
     1
102
RTVSPropertyOp37
 70
     1
102
RTVSPropertyOp38
 70
     1
102
RTVSPropertyOp39
 70
     1
102
RTVSPropertyOp40
 70
     1
102
RTVSPropertyOp41
 70
     1
102
RTVSPropertyOp42
 70
     1
102
RTVSPropertyOp43
 70
     1
102
RTVSPropertyOp44
 70
     1
102
RTVSPropertyOp45
 70
     1
102
RTVSPropertyOp46
 70
     1
102
RTVSPropertyOp47
 70
     1
102
RTVSPropertyOp48
 70
     1
102
RTVSPropertyOp49
 70
     1
102
RTVSPropertyOp50
 70
     1
102
RTVSPropertyOp51
 70
     0
102
RTVSPropertyOp52
 70
     0
102
RTVSPropertyOp53
 70
     1
102
RTVSPropertyOp54
 70
     1
102
RTVSPropertyOp55
 70
     1
102
RTVSPropertyOp56
 70
     1
102
RTVSPropertyOp57
 70
     1
102
RTVSPropertyOp58
 70
     1
102
RTVSPropertyOp59
 70
     1
102
RTVSPropertyOp60
 70
     1
102
RTVSPropertyOp61
 70
     1
102
RTVSPropertyOp62
 70
     1
  0
XRECORD
  5
A5E4
102
{ACAD_REACTORS
330
A5E3
102
}
330
A5E3
100
AcDbXrecord
280
     1
102
RTVSPost2010Prop28
280
     0
102
RTVSPost2010PropOp28
 70
     1
102
RTVSPost2010Prop29
280
     1
102
RTVSPost2010PropOp29
 70
     1
102
RTVSPost2010Prop30
280
     1
102
RTVSPost2010PropOp30
 70
     1
102
RTVSPost2010Prop31
280
     0
102
RTVSPost2010PropOp31
 70
     1
102
RTVSPost2010Prop32
280
     0
102
RTVSPost2010PropOp32
 70
     1
102
RTVSPost2010Prop33
280
     0
102
RTVSPost2010PropOp33
 70
     1
102
RTVSPost2010Prop34
280
     0
102
RTVSPost2010PropOp34
 70
     1
102
RTVSPost2010Prop35
280
     0
102
RTVSPost2010PropOp35
 70
     1
102
RTVSPost2010Prop36
280
     0
102
RTVSPost2010PropOp36
 70
     1
102
RTVSPost2010Prop37
 90
       50
102
RTVSPost2010PropOp37
 70
     1
102
RTVSPost2010Prop38
140
0.0
102
RTVSPost2010PropOp38
 70
     1
102
RTVSPost2010Prop39
140
1.0
102
RTVSPost2010PropOp39
 70
     1
102
RTVSPost2010Prop40
 90
        0
102
RTVSPost2010PropOp40
 70
     1
102
RTVSPost2010Prop41ColorIndex
 90
       18
102
RTVSPost2010Prop41ColorRGB
 90
        0
102
RTVSPost2010PropOp41
 70
     1
102
RTVSPost2010Prop42
 90
       50
102
RTVSPost2010PropOp42
 70
     1
102
RTVSPost2010Prop43
 90
        3
102
RTVSPost2010PropOp43
 70
     1
102
RTVSPost2010Prop44ColorIndex
 90
        5
102
RTVSPost2010Prop44ColorRGB
 90
      255
102
RTVSPost2010PropOp44
 70
     1
102
RTVSPost2010Prop45
280
     0
102
RTVSPost2010PropOp45
 70
     1
102
RTVSPost2010Prop46
 90
       50
102
RTVSPost2010PropOp46
 70
     1
102
RTVSPost2010Prop47
 90
       50
102
RTVSPost2010PropOp47
 70
     1
102
RTVSPost2010Prop48
 90
       50
102
RTVSPost2010PropOp48
 70
     1
102
RTVSPost2010Prop49
280
     0
102
RTVSPost2010PropOp49
 70
     1
102
RTVSPost2010Prop50
 90
       50
102
RTVSPost2010PropOp50
 70
     1
102
RTVSPost2010Prop51ColorIndex
 90
      256
102
RTVSPost2010Prop51ColorRGB
 90
-16777216
102
RTVSPost2010PropOp51
 70
     0
102
RTVSPost2010Prop52
140
1.0
102
RTVSPost2010PropOp52
 70
     0
102
RTVSPost2010Prop53
 90
        2
102
RTVSPost2010PropOp53
 70
     1
102
RTVSPost2010Prop54
  1
strokes_ogs.tif
102
RTVSPost2010PropOp54
 70
     1
102
RTVSPost2010Prop55
280
     0
102
RTVSPost2010PropOp55
 70
     1
102
RTVSPost2010Prop56
140
1.0
102
RTVSPost2010PropOp56
 70
     1
102
RTVSPost2010Prop57
140
1.0
102
RTVSPost2010PropOp57
 70
     1
102
RTVSPropertyOp0
 70
     1
102
RTVSPropertyOp1
 70
     1
102
RTVSPropertyOp2
 70
     1
102
RTVSPropertyOp3
 70
     1
102
RTVSPropertyOp4
 70
     1
102
RTVSPropertyOp5
 70
     1
102
RTVSPropertyOp6
 70
     1
102
RTVSPropertyOp7
 70
     1
102
RTVSPropertyOp8
 70
     1
102
RTVSPropertyOp9
 70
     1
102
RTVSPropertyOp10
 70
     1
102
RTVSPropertyOp11
 70
     1
102
RTVSPropertyOp12
 70
     1
102
RTVSPropertyOp13
 70
     1
102
RTVSPropertyOp14
 70
     1
102
RTVSPropertyOp15
 70
     1
102
RTVSPropertyOp16
 70
     1
102
RTVSPropertyOp17
 70
     1
102
RTVSPropertyOp18
 70
     1
102
RTVSPropertyOp19
 70
     1
102
RTVSPropertyOp20
 70
     1
102
RTVSPropertyOp21
 70
     1
102
RTVSPropertyOp22
 70
     1
102
RTVSPropertyOp23
 70
     1
102
RTVSPropertyOp24
 70
     1
102
RTVSPropertyOp25
 70
     1
102
RTVSPropertyOp26
 70
     1
102
RTVSPropertyOp27
 70
     1
102
RTVSPropertyOp28
 70
     1
102
RTVSPropertyOp29
 70
     1
102
RTVSPropertyOp30
 70
     1
102
RTVSPropertyOp31
 70
     1
102
RTVSPropertyOp32
 70
     1
102
RTVSPropertyOp33
 70
     1
102
RTVSPropertyOp34
 70
     1
102
RTVSPropertyOp35
 70
     1
102
RTVSPropertyOp36
 70
     1
102
RTVSPropertyOp37
 70
     1
102
RTVSPropertyOp38
 70
     1
102
RTVSPropertyOp39
 70
     1
102
RTVSPropertyOp40
 70
     1
102
RTVSPropertyOp41
 70
     1
102
RTVSPropertyOp42
 70
     1
102
RTVSPropertyOp43
 70
     1
102
RTVSPropertyOp44
 70
     1
102
RTVSPropertyOp45
 70
     1
102
RTVSPropertyOp46
 70
     1
102
RTVSPropertyOp47
 70
     1
102
RTVSPropertyOp48
 70
     1
102
RTVSPropertyOp49
 70
     1
102
RTVSPropertyOp50
 70
     1
102
RTVSPropertyOp51
 70
     0
102
RTVSPropertyOp52
 70
     0
102
RTVSPropertyOp53
 70
     1
102
RTVSPropertyOp54
 70
     1
102
RTVSPropertyOp55
 70
     1
102
RTVSPropertyOp56
 70
     1
102
RTVSPropertyOp57
 70
     1
102
RTVSPropertyOp58
 70
     1
102
RTVSPropertyOp59
 70
     1
102
RTVSPropertyOp60
 70
     1
102
RTVSPropertyOp61
 70
     1
102
RTVSPropertyOp62
 70
     1
  0
XRECORD
  5
A5E6
102
{ACAD_REACTORS
330
A5E5
102
}
330
A5E5
100
AcDbXrecord
280
     1
102
RTVSPost2010Prop28
280
     0
102
RTVSPost2010PropOp28
 70
     1
102
RTVSPost2010Prop29
280
     1
102
RTVSPost2010PropOp29
 70
     1
102
RTVSPost2010Prop30
280
     1
102
RTVSPost2010PropOp30
 70
     1
102
RTVSPost2010Prop31
280
     0
102
RTVSPost2010PropOp31
 70
     1
102
RTVSPost2010Prop32
280
     0
102
RTVSPost2010PropOp32
 70
     1
102
RTVSPost2010Prop33
280
     0
102
RTVSPost2010PropOp33
 70
     1
102
RTVSPost2010Prop34
280
     0
102
RTVSPost2010PropOp34
 70
     1
102
RTVSPost2010Prop35
280
     0
102
RTVSPost2010PropOp35
 70
     1
102
RTVSPost2010Prop36
280
     0
102
RTVSPost2010PropOp36
 70
     1
102
RTVSPost2010Prop37
 90
       50
102
RTVSPost2010PropOp37
 70
     1
102
RTVSPost2010Prop38
140
0.0
102
RTVSPost2010PropOp38
 70
     1
102
RTVSPost2010Prop39
140
1.0
102
RTVSPost2010PropOp39
 70
     1
102
RTVSPost2010Prop40
 90
        0
102
RTVSPost2010PropOp40
 70
     1
102
RTVSPost2010Prop41ColorIndex
 90
       18
102
RTVSPost2010Prop41ColorRGB
 90
        0
102
RTVSPost2010PropOp41
 70
     1
102
RTVSPost2010Prop42
 90
       50
102
RTVSPost2010PropOp42
 70
     1
102
RTVSPost2010Prop43
 90
        3
102
RTVSPost2010PropOp43
 70
     1
102
RTVSPost2010Prop44ColorIndex
 90
        5
102
RTVSPost2010Prop44ColorRGB
 90
      255
102
RTVSPost2010PropOp44
 70
     1
102
RTVSPost2010Prop45
280
     0
102
RTVSPost2010PropOp45
 70
     1
102
RTVSPost2010Prop46
 90
       50
102
RTVSPost2010PropOp46
 70
     1
102
RTVSPost2010Prop47
 90
       50
102
RTVSPost2010PropOp47
 70
     1
102
RTVSPost2010Prop48
 90
       50
102
RTVSPost2010PropOp48
 70
     1
102
RTVSPost2010Prop49
280
     0
102
RTVSPost2010PropOp49
 70
     1
102
RTVSPost2010Prop50
 90
       50
102
RTVSPost2010PropOp50
 70
     1
102
RTVSPost2010Prop51ColorIndex
 90
      256
102
RTVSPost2010Prop51ColorRGB
 90
-16777216
102
RTVSPost2010PropOp51
 70
     0
102
RTVSPost2010Prop52
140
1.0
102
RTVSPost2010PropOp52
 70
     0
102
RTVSPost2010Prop53
 90
        2
102
RTVSPost2010PropOp53
 70
     1
102
RTVSPost2010Prop54
  1
strokes_ogs.tif
102
RTVSPost2010PropOp54
 70
     1
102
RTVSPost2010Prop55
280
     0
102
RTVSPost2010PropOp55
 70
     1
102
RTVSPost2010Prop56
140
1.0
102
RTVSPost2010PropOp56
 70
     1
102
RTVSPost2010Prop57
140
1.0
102
RTVSPost2010PropOp57
 70
     1
102
RTVSPropertyOp0
 70
     1
102
RTVSPropertyOp1
 70
     1
102
RTVSPropertyOp2
 70
     1
102
RTVSPropertyOp3
 70
     1
102
RTVSPropertyOp4
 70
     1
102
RTVSPropertyOp5
 70
     1
102
RTVSPropertyOp6
 70
     1
102
RTVSPropertyOp7
 70
     1
102
RTVSPropertyOp8
 70
     1
102
RTVSPropertyOp9
 70
     1
102
RTVSPropertyOp10
 70
     1
102
RTVSPropertyOp11
 70
     1
102
RTVSPropertyOp12
 70
     1
102
RTVSPropertyOp13
 70
     1
102
RTVSPropertyOp14
 70
     1
102
RTVSPropertyOp15
 70
     1
102
RTVSPropertyOp16
 70
     1
102
RTVSPropertyOp17
 70
     1
102
RTVSPropertyOp18
 70
     1
102
RTVSPropertyOp19
 70
     1
102
RTVSPropertyOp20
 70
     1
102
RTVSPropertyOp21
 70
     1
102
RTVSPropertyOp22
 70
     1
102
RTVSPropertyOp23
 70
     1
102
RTVSPropertyOp24
 70
     1
102
RTVSPropertyOp25
 70
     1
102
RTVSPropertyOp26
 70
     1
102
RTVSPropertyOp27
 70
     1
102
RTVSPropertyOp28
 70
     1
102
RTVSPropertyOp29
 70
     1
102
RTVSPropertyOp30
 70
     1
102
RTVSPropertyOp31
 70
     1
102
RTVSPropertyOp32
 70
     1
102
RTVSPropertyOp33
 70
     1
102
RTVSPropertyOp34
 70
     1
102
RTVSPropertyOp35
 70
     1
102
RTVSPropertyOp36
 70
     1
102
RTVSPropertyOp37
 70
     1
102
RTVSPropertyOp38
 70
     1
102
RTVSPropertyOp39
 70
     1
102
RTVSPropertyOp40
 70
     1
102
RTVSPropertyOp41
 70
     1
102
RTVSPropertyOp42
 70
     1
102
RTVSPropertyOp43
 70
     1
102
RTVSPropertyOp44
 70
     1
102
RTVSPropertyOp45
 70
     1
102
RTVSPropertyOp46
 70
     1
102
RTVSPropertyOp47
 70
     1
102
RTVSPropertyOp48
 70
     1
102
RTVSPropertyOp49
 70
     1
102
RTVSPropertyOp50
 70
     1
102
RTVSPropertyOp51
 70
     0
102
RTVSPropertyOp52
 70
     0
102
RTVSPropertyOp53
 70
     1
102
RTVSPropertyOp54
 70
     1
102
RTVSPropertyOp55
 70
     1
102
RTVSPropertyOp56
 70
     1
102
RTVSPropertyOp57
 70
     1
102
RTVSPropertyOp58
 70
     1
102
RTVSPropertyOp59
 70
     1
102
RTVSPropertyOp60
 70
     1
102
RTVSPropertyOp61
 70
     1
102
RTVSPropertyOp62
 70
     1
  0
XRECORD
  5
A5EE
102
{ACAD_REACTORS
330
A5ED
102
}
330
A5ED
100
AcDbXrecord
280
     1
102
RTVSPost2010Prop28
280
     0
102
RTVSPost2010PropOp28
 70
     1
102
RTVSPost2010Prop29
280
     1
102
RTVSPost2010PropOp29
 70
     1
102
RTVSPost2010Prop30
280
     1
102
RTVSPost2010PropOp30
 70
     1
102
RTVSPost2010Prop31
280
     0
102
RTVSPost2010PropOp31
 70
     1
102
RTVSPost2010Prop32
280
     0
102
RTVSPost2010PropOp32
 70
     1
102
RTVSPost2010Prop33
280
     0
102
RTVSPost2010PropOp33
 70
     1
102
RTVSPost2010Prop34
280
     0
102
RTVSPost2010PropOp34
 70
     1
102
RTVSPost2010Prop35
280
     0
102
RTVSPost2010PropOp35
 70
     1
102
RTVSPost2010Prop36
280
     0
102
RTVSPost2010PropOp36
 70
     1
102
RTVSPost2010Prop37
 90
       50
102
RTVSPost2010PropOp37
 70
     1
102
RTVSPost2010Prop38
140
0.0
102
RTVSPost2010PropOp38
 70
     1
102
RTVSPost2010Prop39
140
1.0
102
RTVSPost2010PropOp39
 70
     1
102
RTVSPost2010Prop40
 90
        0
102
RTVSPost2010PropOp40
 70
     1
102
RTVSPost2010Prop41ColorIndex
 90
       18
102
RTVSPost2010Prop41ColorRGB
 90
        0
102
RTVSPost2010PropOp41
 70
     1
102
RTVSPost2010Prop42
 90
       50
102
RTVSPost2010PropOp42
 70
     1
102
RTVSPost2010Prop43
 90
        3
102
RTVSPost2010PropOp43
 70
     1
102
RTVSPost2010Prop44ColorIndex
 90
        5
102
RTVSPost2010Prop44ColorRGB
 90
      255
102
RTVSPost2010PropOp44
 70
     1
102
RTVSPost2010Prop45
280
     0
102
RTVSPost2010PropOp45
 70
     1
102
RTVSPost2010Prop46
 90
       50
102
RTVSPost2010PropOp46
 70
     1
102
RTVSPost2010Prop47
 90
       50
102
RTVSPost2010PropOp47
 70
     1
102
RTVSPost2010Prop48
 90
       50
102
RTVSPost2010PropOp48
 70
     1
102
RTVSPost2010Prop49
280
     0
102
RTVSPost2010PropOp49
 70
     1
102
RTVSPost2010Prop50
 90
       50
102
RTVSPost2010PropOp50
 70
     1
102
RTVSPost2010Prop51ColorIndex
 90
      256
102
RTVSPost2010Prop51ColorRGB
 90
-16777216
102
RTVSPost2010PropOp51
 70
     0
102
RTVSPost2010Prop52
140
1.0
102
RTVSPost2010PropOp52
 70
     0
102
RTVSPost2010Prop53
 90
        2
102
RTVSPost2010PropOp53
 70
     1
102
RTVSPost2010Prop54
  1
strokes_ogs.tif
102
RTVSPost2010PropOp54
 70
     1
102
RTVSPost2010Prop55
280
     0
102
RTVSPost2010PropOp55
 70
     1
102
RTVSPost2010Prop56
140
1.0
102
RTVSPost2010PropOp56
 70
     1
102
RTVSPost2010Prop57
140
1.0
102
RTVSPost2010PropOp57
 70
     1
102
RTVSPropertyOp0
 70
     1
102
RTVSPropertyOp1
 70
     1
102
RTVSPropertyOp2
 70
     1
102
RTVSPropertyOp3
 70
     1
102
RTVSPropertyOp4
 70
     1
102
RTVSPropertyOp5
 70
     1
102
RTVSPropertyOp6
 70
     1
102
RTVSPropertyOp7
 70
     1
102
RTVSPropertyOp8
 70
     1
102
RTVSPropertyOp9
 70
     1
102
RTVSPropertyOp10
 70
     1
102
RTVSPropertyOp11
 70
     1
102
RTVSPropertyOp12
 70
     1
102
RTVSPropertyOp13
 70
     1
102
RTVSPropertyOp14
 70
     1
102
RTVSPropertyOp15
 70
     1
102
RTVSPropertyOp16
 70
     1
102
RTVSPropertyOp17
 70
     1
102
RTVSPropertyOp18
 70
     1
102
RTVSPropertyOp19
 70
     1
102
RTVSPropertyOp20
 70
     1
102
RTVSPropertyOp21
 70
     1
102
RTVSPropertyOp22
 70
     1
102
RTVSPropertyOp23
 70
     1
102
RTVSPropertyOp24
 70
     1
102
RTVSPropertyOp25
 70
     1
102
RTVSPropertyOp26
 70
     1
102
RTVSPropertyOp27
 70
     1
102
RTVSPropertyOp28
 70
     1
102
RTVSPropertyOp29
 70
     1
102
RTVSPropertyOp30
 70
     1
102
RTVSPropertyOp31
 70
     1
102
RTVSPropertyOp32
 70
     1
102
RTVSPropertyOp33
 70
     1
102
RTVSPropertyOp34
 70
     1
102
RTVSPropertyOp35
 70
     1
102
RTVSPropertyOp36
 70
     1
102
RTVSPropertyOp37
 70
     1
102
RTVSPropertyOp38
 70
     1
102
RTVSPropertyOp39
 70
     1
102
RTVSPropertyOp40
 70
     1
102
RTVSPropertyOp41
 70
     1
102
RTVSPropertyOp42
 70
     1
102
RTVSPropertyOp43
 70
     1
102
RTVSPropertyOp44
 70
     1
102
RTVSPropertyOp45
 70
     1
102
RTVSPropertyOp46
 70
     1
102
RTVSPropertyOp47
 70
     1
102
RTVSPropertyOp48
 70
     1
102
RTVSPropertyOp49
 70
     1
102
RTVSPropertyOp50
 70
     1
102
RTVSPropertyOp51
 70
     0
102
RTVSPropertyOp52
 70
     0
102
RTVSPropertyOp53
 70
     1
102
RTVSPropertyOp54
 70
     1
102
RTVSPropertyOp55
 70
     1
102
RTVSPropertyOp56
 70
     1
102
RTVSPropertyOp57
 70
     1
102
RTVSPropertyOp58
 70
     1
102
RTVSPropertyOp59
 70
     1
102
RTVSPropertyOp60
 70
     1
102
RTVSPropertyOp61
 70
     1
102
RTVSPropertyOp62
 70
     1
  0
XRECORD
  5
A60A
102
{ACAD_REACTORS
330
A609
102
}
330
A609
100
AcDbXrecord
280
     1
102
RTVSPost2010Prop28
280
     0
102
RTVSPost2010PropOp28
 70
     1
102
RTVSPost2010Prop29
280
     1
102
RTVSPost2010PropOp29
 70
     1
102
RTVSPost2010Prop30
280
     1
102
RTVSPost2010PropOp30
 70
     1
102
RTVSPost2010Prop31
280
     0
102
RTVSPost2010PropOp31
 70
     1
102
RTVSPost2010Prop32
280
     0
102
RTVSPost2010PropOp32
 70
     1
102
RTVSPost2010Prop33
280
     0
102
RTVSPost2010PropOp33
 70
     1
102
RTVSPost2010Prop34
280
     0
102
RTVSPost2010PropOp34
 70
     1
102
RTVSPost2010Prop35
280
     0
102
RTVSPost2010PropOp35
 70
     1
102
RTVSPost2010Prop36
280
     0
102
RTVSPost2010PropOp36
 70
     1
102
RTVSPost2010Prop37
 90
       50
102
RTVSPost2010PropOp37
 70
     0
102
RTVSPost2010Prop38
140
0.0
102
RTVSPost2010PropOp38
 70
     0
102
RTVSPost2010Prop39
140
1.0
102
RTVSPost2010PropOp39
 70
     0
102
RTVSPost2010Prop40
 90
        0
102
RTVSPost2010PropOp40
 70
     0
102
RTVSPost2010Prop41ColorIndex
 90
       18
102
RTVSPost2010Prop41ColorRGB
 90
        0
102
RTVSPost2010PropOp41
 70
     0
102
RTVSPost2010Prop42
 90
       50
102
RTVSPost2010PropOp42
 70
     0
102
RTVSPost2010Prop43
 90
        3
102
RTVSPost2010PropOp43
 70
     0
102
RTVSPost2010Prop44ColorIndex
 90
        5
102
RTVSPost2010Prop44ColorRGB
 90
      255
102
RTVSPost2010PropOp44
 70
     0
102
RTVSPost2010Prop45
280
     0
102
RTVSPost2010PropOp45
 70
     1
102
RTVSPost2010Prop46
 90
       50
102
RTVSPost2010PropOp46
 70
     0
102
RTVSPost2010Prop47
 90
       50
102
RTVSPost2010PropOp47
 70
     0
102
RTVSPost2010Prop48
 90
       50
102
RTVSPost2010PropOp48
 70
     0
102
RTVSPost2010Prop49
280
     0
102
RTVSPost2010PropOp49
 70
     1
102
RTVSPost2010Prop50
 90
       50
102
RTVSPost2010PropOp50
 70
     0
102
RTVSPost2010Prop51ColorIndex
 90
      256
102
RTVSPost2010Prop51ColorRGB
 90
-16777216
102
RTVSPost2010PropOp51
 70
     0
102
RTVSPost2010Prop52
140
1.0
102
RTVSPost2010PropOp52
 70
     0
102
RTVSPost2010Prop53
 90
        2
102
RTVSPost2010PropOp53
 70
     0
102
RTVSPost2010Prop54
  1
strokes_ogs.tif
102
RTVSPost2010PropOp54
 70
     0
102
RTVSPost2010Prop55
280
     0
102
RTVSPost2010PropOp55
 70
     1
102
RTVSPost2010Prop56
140
1.0
102
RTVSPost2010PropOp56
 70
     0
102
RTVSPost2010Prop57
140
1.0
102
RTVSPost2010PropOp57
 70
     0
102
RTVSPropertyOp0
 70
     0
102
RTVSPropertyOp1
 70
     0
102
RTVSPropertyOp2
 70
     0
102
RTVSPropertyOp3
 70
     0
102
RTVSPropertyOp4
 70
     0
102
RTVSPropertyOp5
 70
     0
102
RTVSPropertyOp6
 70
     0
102
RTVSPropertyOp7
 70
     0
102
RTVSPropertyOp8
 70
     0
102
RTVSPropertyOp9
 70
     0
102
RTVSPropertyOp10
 70
     0
102
RTVSPropertyOp11
 70
     0
102
RTVSPropertyOp12
 70
     0
102
RTVSPropertyOp13
 70
     0
102
RTVSPropertyOp14
 70
     2
102
RTVSPropertyOp15
 70
     0
102
RTVSPropertyOp16
 70
     0
102
RTVSPropertyOp17
 70
     0
102
RTVSPropertyOp18
 70
     0
102
RTVSPropertyOp19
 70
     0
102
RTVSPropertyOp20
 70
     0
102
RTVSPropertyOp21
 70
     0
102
RTVSPropertyOp22
 70
     0
102
RTVSPropertyOp23
 70
     0
102
RTVSPropertyOp24
 70
     0
102
RTVSPropertyOp25
 70
     0
102
RTVSPropertyOp26
 70
     0
102
RTVSPropertyOp27
 70
     0
102
RTVSPropertyOp28
 70
     1
102
RTVSPropertyOp29
 70
     1
102
RTVSPropertyOp30
 70
     1
102
RTVSPropertyOp31
 70
     1
102
RTVSPropertyOp32
 70
     1
102
RTVSPropertyOp33
 70
     1
102
RTVSPropertyOp34
 70
     1
102
RTVSPropertyOp35
 70
     1
102
RTVSPropertyOp36
 70
     1
102
RTVSPropertyOp37
 70
     0
102
RTVSPropertyOp38
 70
     0
102
RTVSPropertyOp39
 70
     0
102
RTVSPropertyOp40
 70
     0
102
RTVSPropertyOp41
 70
     0
102
RTVSPropertyOp42
 70
     0
102
RTVSPropertyOp43
 70
     0
102
RTVSPropertyOp44
 70
     0
102
RTVSPropertyOp45
 70
     1
102
RTVSPropertyOp46
 70
     0
102
RTVSPropertyOp47
 70
     0
102
RTVSPropertyOp48
 70
     0
102
RTVSPropertyOp49
 70
     1
102
RTVSPropertyOp50
 70
     0
102
RTVSPropertyOp51
 70
     0
102
RTVSPropertyOp52
 70
     0
102
RTVSPropertyOp53
 70
     0
102
RTVSPropertyOp54
 70
     0
102
RTVSPropertyOp55
 70
     1
102
RTVSPropertyOp56
 70
     0
102
RTVSPropertyOp57
 70
     0
102
RTVSPropertyOp58
 70
     0
102
RTVSPropertyOp59
 70
     0
102
RTVSPropertyOp60
 70
     0
102
RTVSPropertyOp61
 70
     0
102
RTVSPropertyOp62
 70
     0
  0
XRECORD
  5
A5FA
102
{ACAD_REACTORS
330
A5F9
102
}
330
A5F9
100
AcDbXrecord
280
     1
102
RTVSPost2010Prop28
280
     0
102
RTVSPost2010PropOp28
 70
     1
102
RTVSPost2010Prop29
280
     1
102
RTVSPost2010PropOp29
 70
     1
102
RTVSPost2010Prop30
280
     1
102
RTVSPost2010PropOp30
 70
     1
102
RTVSPost2010Prop31
280
     0
102
RTVSPost2010PropOp31
 70
     1
102
RTVSPost2010Prop32
280
     0
102
RTVSPost2010PropOp32
 70
     1
102
RTVSPost2010Prop33
280
     0
102
RTVSPost2010PropOp33
 70
     1
102
RTVSPost2010Prop34
280
     0
102
RTVSPost2010PropOp34
 70
     1
102
RTVSPost2010Prop35
280
     0
102
RTVSPost2010PropOp35
 70
     1
102
RTVSPost2010Prop36
280
     0
102
RTVSPost2010PropOp36
 70
     1
102
RTVSPost2010Prop37
 90
       50
102
RTVSPost2010PropOp37
 70
     1
102
RTVSPost2010Prop38
140
0.0
102
RTVSPost2010PropOp38
 70
     1
102
RTVSPost2010Prop39
140
1.0
102
RTVSPost2010PropOp39
 70
     1
102
RTVSPost2010Prop40
 90
        0
102
RTVSPost2010PropOp40
 70
     1
102
RTVSPost2010Prop41ColorIndex
 90
       18
102
RTVSPost2010Prop41ColorRGB
 90
        0
102
RTVSPost2010PropOp41
 70
     1
102
RTVSPost2010Prop42
 90
       50
102
RTVSPost2010PropOp42
 70
     1
102
RTVSPost2010Prop43
 90
        3
102
RTVSPost2010PropOp43
 70
     1
102
RTVSPost2010Prop44ColorIndex
 90
        5
102
RTVSPost2010Prop44ColorRGB
 90
      255
102
RTVSPost2010PropOp44
 70
     1
102
RTVSPost2010Prop45
280
     0
102
RTVSPost2010PropOp45
 70
     1
102
RTVSPost2010Prop46
 90
       50
102
RTVSPost2010PropOp46
 70
     1
102
RTVSPost2010Prop47
 90
       50
102
RTVSPost2010PropOp47
 70
     1
102
RTVSPost2010Prop48
 90
       50
102
RTVSPost2010PropOp48
 70
     1
102
RTVSPost2010Prop49
280
     0
102
RTVSPost2010PropOp49
 70
     1
102
RTVSPost2010Prop50
 90
       50
102
RTVSPost2010PropOp50
 70
     1
102
RTVSPost2010Prop51ColorIndex
 90
      256
102
RTVSPost2010Prop51ColorRGB
 90
-16777216
102
RTVSPost2010PropOp51
 70
     0
102
RTVSPost2010Prop52
140
1.0
102
RTVSPost2010PropOp52
 70
     0
102
RTVSPost2010Prop53
 90
        2
102
RTVSPost2010PropOp53
 70
     1
102
RTVSPost2010Prop54
  1
strokes_ogs.tif
102
RTVSPost2010PropOp54
 70
     1
102
RTVSPost2010Prop55
280
     0
102
RTVSPost2010PropOp55
 70
     1
102
RTVSPost2010Prop56
140
1.0
102
RTVSPost2010PropOp56
 70
     1
102
RTVSPost2010Prop57
140
1.0
102
RTVSPost2010PropOp57
 70
     1
102
RTVSPropertyOp0
 70
     1
102
RTVSPropertyOp1
 70
     1
102
RTVSPropertyOp2
 70
     1
102
RTVSPropertyOp3
 70
     1
102
RTVSPropertyOp4
 70
     1
102
RTVSPropertyOp5
 70
     1
102
RTVSPropertyOp6
 70
     1
102
RTVSPropertyOp7
 70
     1
102
RTVSPropertyOp8
 70
     1
102
RTVSPropertyOp9
 70
     1
102
RTVSPropertyOp10
 70
     1
102
RTVSPropertyOp11
 70
     1
102
RTVSPropertyOp12
 70
     1
102
RTVSPropertyOp13
 70
     1
102
RTVSPropertyOp14
 70
     1
102
RTVSPropertyOp15
 70
     1
102
RTVSPropertyOp16
 70
     1
102
RTVSPropertyOp17
 70
     1
102
RTVSPropertyOp18
 70
     1
102
RTVSPropertyOp19
 70
     1
102
RTVSPropertyOp20
 70
     1
102
RTVSPropertyOp21
 70
     1
102
RTVSPropertyOp22
 70
     1
102
RTVSPropertyOp23
 70
     1
102
RTVSPropertyOp24
 70
     1
102
RTVSPropertyOp25
 70
     1
102
RTVSPropertyOp26
 70
     1
102
RTVSPropertyOp27
 70
     1
102
RTVSPropertyOp28
 70
     1
102
RTVSPropertyOp29
 70
     1
102
RTVSPropertyOp30
 70
     1
102
RTVSPropertyOp31
 70
     1
102
RTVSPropertyOp32
 70
     1
102
RTVSPropertyOp33
 70
     1
102
RTVSPropertyOp34
 70
     1
102
RTVSPropertyOp35
 70
     1
102
RTVSPropertyOp36
 70
     1
102
RTVSPropertyOp37
 70
     1
102
RTVSPropertyOp38
 70
     1
102
RTVSPropertyOp39
 70
     1
102
RTVSPropertyOp40
 70
     1
102
RTVSPropertyOp41
 70
     1
102
RTVSPropertyOp42
 70
     1
102
RTVSPropertyOp43
 70
     1
102
RTVSPropertyOp44
 70
     1
102
RTVSPropertyOp45
 70
     1
102
RTVSPropertyOp46
 70
     1
102
RTVSPropertyOp47
 70
     1
102
RTVSPropertyOp48
 70
     1
102
RTVSPropertyOp49
 70
     1
102
RTVSPropertyOp50
 70
     1
102
RTVSPropertyOp51
 70
     0
102
RTVSPropertyOp52
 70
     0
102
RTVSPropertyOp53
 70
     1
102
RTVSPropertyOp54
 70
     1
102
RTVSPropertyOp55
 70
     1
102
RTVSPropertyOp56
 70
     1
102
RTVSPropertyOp57
 70
     1
102
RTVSPropertyOp58
 70
     1
102
RTVSPropertyOp59
 70
     1
102
RTVSPropertyOp60
 70
     1
102
RTVSPropertyOp61
 70
     1
102
RTVSPropertyOp62
 70
     1
  0
XRECORD
  5
A60C
102
{ACAD_REACTORS
330
A60B
102
}
330
A60B
100
AcDbXrecord
280
     1
102
RTVSPost2010Prop28
280
     0
102
RTVSPost2010PropOp28
 70
     1
102
RTVSPost2010Prop29
280
     1
102
RTVSPost2010PropOp29
 70
     1
102
RTVSPost2010Prop30
280
     1
102
RTVSPost2010PropOp30
 70
     1
102
RTVSPost2010Prop31
280
     0
102
RTVSPost2010PropOp31
 70
     1
102
RTVSPost2010Prop32
280
     0
102
RTVSPost2010PropOp32
 70
     1
102
RTVSPost2010Prop33
280
     0
102
RTVSPost2010PropOp33
 70
     1
102
RTVSPost2010Prop34
280
     0
102
RTVSPost2010PropOp34
 70
     1
102
RTVSPost2010Prop35
280
     0
102
RTVSPost2010PropOp35
 70
     1
102
RTVSPost2010Prop36
280
     0
102
RTVSPost2010PropOp36
 70
     1
102
RTVSPost2010Prop37
 90
       50
102
RTVSPost2010PropOp37
 70
     0
102
RTVSPost2010Prop38
140
0.0
102
RTVSPost2010PropOp38
 70
     0
102
RTVSPost2010Prop39
140
1.0
102
RTVSPost2010PropOp39
 70
     0
102
RTVSPost2010Prop40
 90
        0
102
RTVSPost2010PropOp40
 70
     0
102
RTVSPost2010Prop41ColorIndex
 90
       18
102
RTVSPost2010Prop41ColorRGB
 90
        0
102
RTVSPost2010PropOp41
 70
     0
102
RTVSPost2010Prop42
 90
       50
102
RTVSPost2010PropOp42
 70
     0
102
RTVSPost2010Prop43
 90
        3
102
RTVSPost2010PropOp43
 70
     0
102
RTVSPost2010Prop44ColorIndex
 90
        5
102
RTVSPost2010Prop44ColorRGB
 90
      255
102
RTVSPost2010PropOp44
 70
     0
102
RTVSPost2010Prop45
280
     0
102
RTVSPost2010PropOp45
 70
     1
102
RTVSPost2010Prop46
 90
       50
102
RTVSPost2010PropOp46
 70
     0
102
RTVSPost2010Prop47
 90
       50
102
RTVSPost2010PropOp47
 70
     0
102
RTVSPost2010Prop48
 90
       50
102
RTVSPost2010PropOp48
 70
     0
102
RTVSPost2010Prop49
280
     0
102
RTVSPost2010PropOp49
 70
     1
102
RTVSPost2010Prop50
 90
       50
102
RTVSPost2010PropOp50
 70
     0
102
RTVSPost2010Prop51ColorIndex
 90
      256
102
RTVSPost2010Prop51ColorRGB
 90
-16777216
102
RTVSPost2010PropOp51
 70
     0
102
RTVSPost2010Prop52
140
1.0
102
RTVSPost2010PropOp52
 70
     0
102
RTVSPost2010Prop53
 90
        2
102
RTVSPost2010PropOp53
 70
     0
102
RTVSPost2010Prop54
  1
strokes_ogs.tif
102
RTVSPost2010PropOp54
 70
     0
102
RTVSPost2010Prop55
280
     0
102
RTVSPost2010PropOp55
 70
     1
102
RTVSPost2010Prop56
140
1.0
102
RTVSPost2010PropOp56
 70
     0
102
RTVSPost2010Prop57
140
1.0
102
RTVSPost2010PropOp57
 70
     0
102
RTVSPropertyOp0
 70
     0
102
RTVSPropertyOp1
 70
     0
102
RTVSPropertyOp2
 70
     0
102
RTVSPropertyOp3
 70
     0
102
RTVSPropertyOp4
 70
     0
102
RTVSPropertyOp5
 70
     0
102
RTVSPropertyOp6
 70
     0
102
RTVSPropertyOp7
 70
     0
102
RTVSPropertyOp8
 70
     0
102
RTVSPropertyOp9
 70
     0
102
RTVSPropertyOp10
 70
     0
102
RTVSPropertyOp11
 70
     0
102
RTVSPropertyOp12
 70
     0
102
RTVSPropertyOp13
 70
     0
102
RTVSPropertyOp14
 70
     2
102
RTVSPropertyOp15
 70
     0
102
RTVSPropertyOp16
 70
     0
102
RTVSPropertyOp17
 70
     0
102
RTVSPropertyOp18
 70
     0
102
RTVSPropertyOp19
 70
     0
102
RTVSPropertyOp20
 70
     0
102
RTVSPropertyOp21
 70
     0
102
RTVSPropertyOp22
 70
     0
102
RTVSPropertyOp23
 70
     0
102
RTVSPropertyOp24
 70
     0
102
RTVSPropertyOp25
 70
     0
102
RTVSPropertyOp26
 70
     0
102
RTVSPropertyOp27
 70
     0
102
RTVSPropertyOp28
 70
     1
102
RTVSPropertyOp29
 70
     1
102
RTVSPropertyOp30
 70
     1
102
RTVSPropertyOp31
 70
     1
102
RTVSPropertyOp32
 70
     1
102
RTVSPropertyOp33
 70
     1
102
RTVSPropertyOp34
 70
     1
102
RTVSPropertyOp35
 70
     1
102
RTVSPropertyOp36
 70
     1
102
RTVSPropertyOp37
 70
     0
102
RTVSPropertyOp38
 70
     0
102
RTVSPropertyOp39
 70
     0
102
RTVSPropertyOp40
 70
     0
102
RTVSPropertyOp41
 70
     0
102
RTVSPropertyOp42
 70
     0
102
RTVSPropertyOp43
 70
     0
102
RTVSPropertyOp44
 70
     0
102
RTVSPropertyOp45
 70
     1
102
RTVSPropertyOp46
 70
     0
102
RTVSPropertyOp47
 70
     0
102
RTVSPropertyOp48
 70
     0
102
RTVSPropertyOp49
 70
     1
102
RTVSPropertyOp50
 70
     0
102
RTVSPropertyOp51
 70
     0
102
RTVSPropertyOp52
 70
     0
102
RTVSPropertyOp53
 70
     0
102
RTVSPropertyOp54
 70
     0
102
RTVSPropertyOp55
 70
     1
102
RTVSPropertyOp56
 70
     0
102
RTVSPropertyOp57
 70
     0
102
RTVSPropertyOp58
 70
     0
102
RTVSPropertyOp59
 70
     0
102
RTVSPropertyOp60
 70
     0
102
RTVSPropertyOp61
 70
     0
102
RTVSPropertyOp62
 70
     0
  0
XRECORD
  5
A5F2
102
{ACAD_REACTORS
330
A5F1
102
}
330
A5F1
100
AcDbXrecord
280
     1
102
RTVSPost2010Prop28
280
     0
102
RTVSPost2010PropOp28
 70
     1
102
RTVSPost2010Prop29
280
     1
102
RTVSPost2010PropOp29
 70
     1
102
RTVSPost2010Prop30
280
     1
102
RTVSPost2010PropOp30
 70
     1
102
RTVSPost2010Prop31
280
     0
102
RTVSPost2010PropOp31
 70
     1
102
RTVSPost2010Prop32
280
     0
102
RTVSPost2010PropOp32
 70
     1
102
RTVSPost2010Prop33
280
     0
102
RTVSPost2010PropOp33
 70
     1
102
RTVSPost2010Prop34
280
     0
102
RTVSPost2010PropOp34
 70
     1
102
RTVSPost2010Prop35
280
     0
102
RTVSPost2010PropOp35
 70
     1
102
RTVSPost2010Prop36
280
     0
102
RTVSPost2010PropOp36
 70
     1
102
RTVSPost2010Prop37
 90
       50
102
RTVSPost2010PropOp37
 70
     1
102
RTVSPost2010Prop38
140
0.0
102
RTVSPost2010PropOp38
 70
     1
102
RTVSPost2010Prop39
140
1.0
102
RTVSPost2010PropOp39
 70
     1
102
RTVSPost2010Prop40
 90
        0
102
RTVSPost2010PropOp40
 70
     1
102
RTVSPost2010Prop41ColorIndex
 90
       18
102
RTVSPost2010Prop41ColorRGB
 90
        0
102
RTVSPost2010PropOp41
 70
     1
102
RTVSPost2010Prop42
 90
       50
102
RTVSPost2010PropOp42
 70
     1
102
RTVSPost2010Prop43
 90
        3
102
RTVSPost2010PropOp43
 70
     1
102
RTVSPost2010Prop44ColorIndex
 90
        5
102
RTVSPost2010Prop44ColorRGB
 90
      255
102
RTVSPost2010PropOp44
 70
     1
102
RTVSPost2010Prop45
280
     0
102
RTVSPost2010PropOp45
 70
     1
102
RTVSPost2010Prop46
 90
       50
102
RTVSPost2010PropOp46
 70
     1
102
RTVSPost2010Prop47
 90
       50
102
RTVSPost2010PropOp47
 70
     1
102
RTVSPost2010Prop48
 90
       50
102
RTVSPost2010PropOp48
 70
     1
102
RTVSPost2010Prop49
280
     0
102
RTVSPost2010PropOp49
 70
     1
102
RTVSPost2010Prop50
 90
       50
102
RTVSPost2010PropOp50
 70
     1
102
RTVSPost2010Prop51ColorIndex
 90
      256
102
RTVSPost2010Prop51ColorRGB
 90
-16777216
102
RTVSPost2010PropOp51
 70
     0
102
RTVSPost2010Prop52
140
1.0
102
RTVSPost2010PropOp52
 70
     0
102
RTVSPost2010Prop53
 90
        2
102
RTVSPost2010PropOp53
 70
     1
102
RTVSPost2010Prop54
  1
strokes_ogs.tif
102
RTVSPost2010PropOp54
 70
     1
102
RTVSPost2010Prop55
280
     0
102
RTVSPost2010PropOp55
 70
     1
102
RTVSPost2010Prop56
140
1.0
102
RTVSPost2010PropOp56
 70
     1
102
RTVSPost2010Prop57
140
1.0
102
RTVSPost2010PropOp57
 70
     1
102
RTVSPropertyOp0
 70
     1
102
RTVSPropertyOp1
 70
     1
102
RTVSPropertyOp2
 70
     1
102
RTVSPropertyOp3
 70
     1
102
RTVSPropertyOp4
 70
     1
102
RTVSPropertyOp5
 70
     1
102
RTVSPropertyOp6
 70
     1
102
RTVSPropertyOp7
 70
     1
102
RTVSPropertyOp8
 70
     1
102
RTVSPropertyOp9
 70
     1
102
RTVSPropertyOp10
 70
     1
102
RTVSPropertyOp11
 70
     1
102
RTVSPropertyOp12
 70
     1
102
RTVSPropertyOp13
 70
     1
102
RTVSPropertyOp14
 70
     1
102
RTVSPropertyOp15
 70
     1
102
RTVSPropertyOp16
 70
     1
102
RTVSPropertyOp17
 70
     1
102
RTVSPropertyOp18
 70
     1
102
RTVSPropertyOp19
 70
     1
102
RTVSPropertyOp20
 70
     1
102
RTVSPropertyOp21
 70
     1
102
RTVSPropertyOp22
 70
     1
102
RTVSPropertyOp23
 70
     1
102
RTVSPropertyOp24
 70
     1
102
RTVSPropertyOp25
 70
     1
102
RTVSPropertyOp26
 70
     1
102
RTVSPropertyOp27
 70
     1
102
RTVSPropertyOp28
 70
     1
102
RTVSPropertyOp29
 70
     1
102
RTVSPropertyOp30
 70
     1
102
RTVSPropertyOp31
 70
     1
102
RTVSPropertyOp32
 70
     1
102
RTVSPropertyOp33
 70
     1
102
RTVSPropertyOp34
 70
     1
102
RTVSPropertyOp35
 70
     1
102
RTVSPropertyOp36
 70
     1
102
RTVSPropertyOp37
 70
     1
102
RTVSPropertyOp38
 70
     1
102
RTVSPropertyOp39
 70
     1
102
RTVSPropertyOp40
 70
     1
102
RTVSPropertyOp41
 70
     1
102
RTVSPropertyOp42
 70
     1
102
RTVSPropertyOp43
 70
     1
102
RTVSPropertyOp44
 70
     1
102
RTVSPropertyOp45
 70
     1
102
RTVSPropertyOp46
 70
     1
102
RTVSPropertyOp47
 70
     1
102
RTVSPropertyOp48
 70
     1
102
RTVSPropertyOp49
 70
     1
102
RTVSPropertyOp50
 70
     1
102
RTVSPropertyOp51
 70
     0
102
RTVSPropertyOp52
 70
     0
102
RTVSPropertyOp53
 70
     1
102
RTVSPropertyOp54
 70
     1
102
RTVSPropertyOp55
 70
     1
102
RTVSPropertyOp56
 70
     1
102
RTVSPropertyOp57
 70
     1
102
RTVSPropertyOp58
 70
     1
102
RTVSPropertyOp59
 70
     1
102
RTVSPropertyOp60
 70
     1
102
RTVSPropertyOp61
 70
     1
102
RTVSPropertyOp62
 70
     1
  0
XRECORD
  5
A608
102
{ACAD_REACTORS
330
A607
102
}
330
A607
100
AcDbXrecord
280
     1
102
RTVSPost2010Prop28
280
     0
102
RTVSPost2010PropOp28
 70
     1
102
RTVSPost2010Prop29
280
     1
102
RTVSPost2010PropOp29
 70
     1
102
RTVSPost2010Prop30
280
     1
102
RTVSPost2010PropOp30
 70
     1
102
RTVSPost2010Prop31
280
     0
102
RTVSPost2010PropOp31
 70
     1
102
RTVSPost2010Prop32
280
     0
102
RTVSPost2010PropOp32
 70
     1
102
RTVSPost2010Prop33
280
     0
102
RTVSPost2010PropOp33
 70
     1
102
RTVSPost2010Prop34
280
     0
102
RTVSPost2010PropOp34
 70
     1
102
RTVSPost2010Prop35
280
     0
102
RTVSPost2010PropOp35
 70
     1
102
RTVSPost2010Prop36
280
     0
102
RTVSPost2010PropOp36
 70
     1
102
RTVSPost2010Prop37
 90
       50
102
RTVSPost2010PropOp37
 70
     1
102
RTVSPost2010Prop38
140
0.0
102
RTVSPost2010PropOp38
 70
     1
102
RTVSPost2010Prop39
140
1.0
102
RTVSPost2010PropOp39
 70
     1
102
RTVSPost2010Prop40
 90
        0
102
RTVSPost2010PropOp40
 70
     1
102
RTVSPost2010Prop41ColorIndex
 90
       18
102
RTVSPost2010Prop41ColorRGB
 90
        0
102
RTVSPost2010PropOp41
 70
     1
102
RTVSPost2010Prop42
 90
       50
102
RTVSPost2010PropOp42
 70
     1
102
RTVSPost2010Prop43
 90
        3
102
RTVSPost2010PropOp43
 70
     1
102
RTVSPost2010Prop44ColorIndex
 90
        5
102
RTVSPost2010Prop44ColorRGB
 90
      255
102
RTVSPost2010PropOp44
 70
     1
102
RTVSPost2010Prop45
280
     0
102
RTVSPost2010PropOp45
 70
     1
102
RTVSPost2010Prop46
 90
       50
102
RTVSPost2010PropOp46
 70
     1
102
RTVSPost2010Prop47
 90
       50
102
RTVSPost2010PropOp47
 70
     1
102
RTVSPost2010Prop48
 90
       50
102
RTVSPost2010PropOp48
 70
     1
102
RTVSPost2010Prop49
280
     0
102
RTVSPost2010PropOp49
 70
     1
102
RTVSPost2010Prop50
 90
       50
102
RTVSPost2010PropOp50
 70
     1
102
RTVSPost2010Prop51ColorIndex
 90
      256
102
RTVSPost2010Prop51ColorRGB
 90
-16777216
102
RTVSPost2010PropOp51
 70
     0
102
RTVSPost2010Prop52
140
1.0
102
RTVSPost2010PropOp52
 70
     0
102
RTVSPost2010Prop53
 90
        2
102
RTVSPost2010PropOp53
 70
     1
102
RTVSPost2010Prop54
  1
strokes_ogs.tif
102
RTVSPost2010PropOp54
 70
     1
102
RTVSPost2010Prop55
280
     0
102
RTVSPost2010PropOp55
 70
     1
102
RTVSPost2010Prop56
140
1.0
102
RTVSPost2010PropOp56
 70
     1
102
RTVSPost2010Prop57
140
1.0
102
RTVSPost2010PropOp57
 70
     1
102
RTVSPropertyOp0
 70
     1
102
RTVSPropertyOp1
 70
     1
102
RTVSPropertyOp2
 70
     1
102
RTVSPropertyOp3
 70
     1
102
RTVSPropertyOp4
 70
     1
102
RTVSPropertyOp5
 70
     1
102
RTVSPropertyOp6
 70
     1
102
RTVSPropertyOp7
 70
     1
102
RTVSPropertyOp8
 70
     1
102
RTVSPropertyOp9
 70
     1
102
RTVSPropertyOp10
 70
     1
102
RTVSPropertyOp11
 70
     1
102
RTVSPropertyOp12
 70
     1
102
RTVSPropertyOp13
 70
     1
102
RTVSPropertyOp14
 70
     1
102
RTVSPropertyOp15
 70
     1
102
RTVSPropertyOp16
 70
     1
102
RTVSPropertyOp17
 70
     1
102
RTVSPropertyOp18
 70
     1
102
RTVSPropertyOp19
 70
     1
102
RTVSPropertyOp20
 70
     1
102
RTVSPropertyOp21
 70
     1
102
RTVSPropertyOp22
 70
     1
102
RTVSPropertyOp23
 70
     1
102
RTVSPropertyOp24
 70
     1
102
RTVSPropertyOp25
 70
     1
102
RTVSPropertyOp26
 70
     1
102
RTVSPropertyOp27
 70
     1
102
RTVSPropertyOp28
 70
     1
102
RTVSPropertyOp29
 70
     1
102
RTVSPropertyOp30
 70
     1
102
RTVSPropertyOp31
 70
     1
102
RTVSPropertyOp32
 70
     1
102
RTVSPropertyOp33
 70
     1
102
RTVSPropertyOp34
 70
     1
102
RTVSPropertyOp35
 70
     1
102
RTVSPropertyOp36
 70
     1
102
RTVSPropertyOp37
 70
     1
102
RTVSPropertyOp38
 70
     1
102
RTVSPropertyOp39
 70
     1
102
RTVSPropertyOp40
 70
     1
102
RTVSPropertyOp41
 70
     1
102
RTVSPropertyOp42
 70
     1
102
RTVSPropertyOp43
 70
     1
102
RTVSPropertyOp44
 70
     1
102
RTVSPropertyOp45
 70
     1
102
RTVSPropertyOp46
 70
     1
102
RTVSPropertyOp47
 70
     1
102
RTVSPropertyOp48
 70
     1
102
RTVSPropertyOp49
 70
     1
102
RTVSPropertyOp50
 70
     1
102
RTVSPropertyOp51
 70
     0
102
RTVSPropertyOp52
 70
     0
102
RTVSPropertyOp53
 70
     1
102
RTVSPropertyOp54
 70
     1
102
RTVSPropertyOp55
 70
     1
102
RTVSPropertyOp56
 70
     1
102
RTVSPropertyOp57
 70
     1
102
RTVSPropertyOp58
 70
     1
102
RTVSPropertyOp59
 70
     1
102
RTVSPropertyOp60
 70
     1
102
RTVSPropertyOp61
 70
     1
102
RTVSPropertyOp62
 70
     1
  0
XRECORD
  5
A606
102
{ACAD_REACTORS
330
A605
102
}
330
A605
100
AcDbXrecord
280
     1
102
RTVSPost2010Prop28
280
     0
102
RTVSPost2010PropOp28
 70
     1
102
RTVSPost2010Prop29
280
     1
102
RTVSPost2010PropOp29
 70
     1
102
RTVSPost2010Prop30
280
     1
102
RTVSPost2010PropOp30
 70
     1
102
RTVSPost2010Prop31
280
     0
102
RTVSPost2010PropOp31
 70
     1
102
RTVSPost2010Prop32
280
     0
102
RTVSPost2010PropOp32
 70
     1
102
RTVSPost2010Prop33
280
     0
102
RTVSPost2010PropOp33
 70
     1
102
RTVSPost2010Prop34
280
     0
102
RTVSPost2010PropOp34
 70
     1
102
RTVSPost2010Prop35
280
     0
102
RTVSPost2010PropOp35
 70
     1
102
RTVSPost2010Prop36
280
     0
102
RTVSPost2010PropOp36
 70
     1
102
RTVSPost2010Prop37
 90
       50
102
RTVSPost2010PropOp37
 70
     1
102
RTVSPost2010Prop38
140
0.0
102
RTVSPost2010PropOp38
 70
     1
102
RTVSPost2010Prop39
140
1.0
102
RTVSPost2010PropOp39
 70
     1
102
RTVSPost2010Prop40
 90
        0
102
RTVSPost2010PropOp40
 70
     1
102
RTVSPost2010Prop41ColorIndex
 90
       18
102
RTVSPost2010Prop41ColorRGB
 90
        0
102
RTVSPost2010PropOp41
 70
     1
102
RTVSPost2010Prop42
 90
       50
102
RTVSPost2010PropOp42
 70
     1
102
RTVSPost2010Prop43
 90
        3
102
RTVSPost2010PropOp43
 70
     1
102
RTVSPost2010Prop44ColorIndex
 90
        5
102
RTVSPost2010Prop44ColorRGB
 90
      255
102
RTVSPost2010PropOp44
 70
     1
102
RTVSPost2010Prop45
280
     0
102
RTVSPost2010PropOp45
 70
     1
102
RTVSPost2010Prop46
 90
       50
102
RTVSPost2010PropOp46
 70
     1
102
RTVSPost2010Prop47
 90
       50
102
RTVSPost2010PropOp47
 70
     1
102
RTVSPost2010Prop48
 90
       50
102
RTVSPost2010PropOp48
 70
     1
102
RTVSPost2010Prop49
280
     0
102
RTVSPost2010PropOp49
 70
     1
102
RTVSPost2010Prop50
 90
       50
102
RTVSPost2010PropOp50
 70
     1
102
RTVSPost2010Prop51ColorIndex
 90
      256
102
RTVSPost2010Prop51ColorRGB
 90
-16777216
102
RTVSPost2010PropOp51
 70
     0
102
RTVSPost2010Prop52
140
1.0
102
RTVSPost2010PropOp52
 70
     0
102
RTVSPost2010Prop53
 90
        2
102
RTVSPost2010PropOp53
 70
     1
102
RTVSPost2010Prop54
  1
strokes_ogs.tif
102
RTVSPost2010PropOp54
 70
     1
102
RTVSPost2010Prop55
280
     0
102
RTVSPost2010PropOp55
 70
     1
102
RTVSPost2010Prop56
140
1.0
102
RTVSPost2010PropOp56
 70
     1
102
RTVSPost2010Prop57
140
1.0
102
RTVSPost2010PropOp57
 70
     1
102
RTVSPropertyOp0
 70
     1
102
RTVSPropertyOp1
 70
     1
102
RTVSPropertyOp2
 70
     1
102
RTVSPropertyOp3
 70
     1
102
RTVSPropertyOp4
 70
     1
102
RTVSPropertyOp5
 70
     1
102
RTVSPropertyOp6
 70
     1
102
RTVSPropertyOp7
 70
     1
102
RTVSPropertyOp8
 70
     1
102
RTVSPropertyOp9
 70
     1
102
RTVSPropertyOp10
 70
     1
102
RTVSPropertyOp11
 70
     1
102
RTVSPropertyOp12
 70
     1
102
RTVSPropertyOp13
 70
     1
102
RTVSPropertyOp14
 70
     1
102
RTVSPropertyOp15
 70
     1
102
RTVSPropertyOp16
 70
     1
102
RTVSPropertyOp17
 70
     1
102
RTVSPropertyOp18
 70
     1
102
RTVSPropertyOp19
 70
     1
102
RTVSPropertyOp20
 70
     1
102
RTVSPropertyOp21
 70
     1
102
RTVSPropertyOp22
 70
     1
102
RTVSPropertyOp23
 70
     1
102
RTVSPropertyOp24
 70
     1
102
RTVSPropertyOp25
 70
     1
102
RTVSPropertyOp26
 70
     1
102
RTVSPropertyOp27
 70
     1
102
RTVSPropertyOp28
 70
     1
102
RTVSPropertyOp29
 70
     1
102
RTVSPropertyOp30
 70
     1
102
RTVSPropertyOp31
 70
     1
102
RTVSPropertyOp32
 70
     1
102
RTVSPropertyOp33
 70
     1
102
RTVSPropertyOp34
 70
     1
102
RTVSPropertyOp35
 70
     1
102
RTVSPropertyOp36
 70
     1
102
RTVSPropertyOp37
 70
     1
102
RTVSPropertyOp38
 70
     1
102
RTVSPropertyOp39
 70
     1
102
RTVSPropertyOp40
 70
     1
102
RTVSPropertyOp41
 70
     1
102
RTVSPropertyOp42
 70
     1
102
RTVSPropertyOp43
 70
     1
102
RTVSPropertyOp44
 70
     1
102
RTVSPropertyOp45
 70
     1
102
RTVSPropertyOp46
 70
     1
102
RTVSPropertyOp47
 70
     1
102
RTVSPropertyOp48
 70
     1
102
RTVSPropertyOp49
 70
     1
102
RTVSPropertyOp50
 70
     1
102
RTVSPropertyOp51
 70
     0
102
RTVSPropertyOp52
 70
     0
102
RTVSPropertyOp53
 70
     1
102
RTVSPropertyOp54
 70
     1
102
RTVSPropertyOp55
 70
     1
102
RTVSPropertyOp56
 70
     1
102
RTVSPropertyOp57
 70
     1
102
RTVSPropertyOp58
 70
     1
102
RTVSPropertyOp59
 70
     1
102
RTVSPropertyOp60
 70
     1
102
RTVSPropertyOp61
 70
     1
102
RTVSPropertyOp62
 70
     1
  0
XRECORD
  5
A600
102
{ACAD_REACTORS
330
A5FF
102
}
330
A5FF
100
AcDbXrecord
280
     1
102
RTVSPost2010Prop28
280
     0
102
RTVSPost2010PropOp28
 70
     1
102
RTVSPost2010Prop29
280
     1
102
RTVSPost2010PropOp29
 70
     1
102
RTVSPost2010Prop30
280
     1
102
RTVSPost2010PropOp30
 70
     1
102
RTVSPost2010Prop31
280
     0
102
RTVSPost2010PropOp31
 70
     1
102
RTVSPost2010Prop32
280
     0
102
RTVSPost2010PropOp32
 70
     1
102
RTVSPost2010Prop33
280
     0
102
RTVSPost2010PropOp33
 70
     1
102
RTVSPost2010Prop34
280
     0
102
RTVSPost2010PropOp34
 70
     1
102
RTVSPost2010Prop35
280
     0
102
RTVSPost2010PropOp35
 70
     1
102
RTVSPost2010Prop36
280
     0
102
RTVSPost2010PropOp36
 70
     1
102
RTVSPost2010Prop37
 90
       50
102
RTVSPost2010PropOp37
 70
     1
102
RTVSPost2010Prop38
140
0.0
102
RTVSPost2010PropOp38
 70
     1
102
RTVSPost2010Prop39
140
1.0
102
RTVSPost2010PropOp39
 70
     1
102
RTVSPost2010Prop40
 90
        0
102
RTVSPost2010PropOp40
 70
     1
102
RTVSPost2010Prop41ColorIndex
 90
       18
102
RTVSPost2010Prop41ColorRGB
 90
        0
102
RTVSPost2010PropOp41
 70
     1
102
RTVSPost2010Prop42
 90
       50
102
RTVSPost2010PropOp42
 70
     1
102
RTVSPost2010Prop43
 90
        3
102
RTVSPost2010PropOp43
 70
     1
102
RTVSPost2010Prop44ColorIndex
 90
        5
102
RTVSPost2010Prop44ColorRGB
 90
      255
102
RTVSPost2010PropOp44
 70
     1
102
RTVSPost2010Prop45
280
     0
102
RTVSPost2010PropOp45
 70
     1
102
RTVSPost2010Prop46
 90
       50
102
RTVSPost2010PropOp46
 70
     1
102
RTVSPost2010Prop47
 90
       50
102
RTVSPost2010PropOp47
 70
     1
102
RTVSPost2010Prop48
 90
       50
102
RTVSPost2010PropOp48
 70
     1
102
RTVSPost2010Prop49
280
     0
102
RTVSPost2010PropOp49
 70
     1
102
RTVSPost2010Prop50
 90
       50
102
RTVSPost2010PropOp50
 70
     1
102
RTVSPost2010Prop51ColorIndex
 90
      256
102
RTVSPost2010Prop51ColorRGB
 90
-16777216
102
RTVSPost2010PropOp51
 70
     0
102
RTVSPost2010Prop52
140
1.0
102
RTVSPost2010PropOp52
 70
     0
102
RTVSPost2010Prop53
 90
        2
102
RTVSPost2010PropOp53
 70
     1
102
RTVSPost2010Prop54
  1
strokes_ogs.tif
102
RTVSPost2010PropOp54
 70
     1
102
RTVSPost2010Prop55
280
     0
102
RTVSPost2010PropOp55
 70
     1
102
RTVSPost2010Prop56
140
1.0
102
RTVSPost2010PropOp56
 70
     1
102
RTVSPost2010Prop57
140
1.0
102
RTVSPost2010PropOp57
 70
     1
102
RTVSPropertyOp0
 70
     1
102
RTVSPropertyOp1
 70
     1
102
RTVSPropertyOp2
 70
     1
102
RTVSPropertyOp3
 70
     1
102
RTVSPropertyOp4
 70
     1
102
RTVSPropertyOp5
 70
     1
102
RTVSPropertyOp6
 70
     1
102
RTVSPropertyOp7
 70
     1
102
RTVSPropertyOp8
 70
     1
102
RTVSPropertyOp9
 70
     1
102
RTVSPropertyOp10
 70
     1
102
RTVSPropertyOp11
 70
     1
102
RTVSPropertyOp12
 70
     1
102
RTVSPropertyOp13
 70
     1
102
RTVSPropertyOp14
 70
     1
102
RTVSPropertyOp15
 70
     1
102
RTVSPropertyOp16
 70
     1
102
RTVSPropertyOp17
 70
     1
102
RTVSPropertyOp18
 70
     1
102
RTVSPropertyOp19
 70
     1
102
RTVSPropertyOp20
 70
     1
102
RTVSPropertyOp21
 70
     1
102
RTVSPropertyOp22
 70
     1
102
RTVSPropertyOp23
 70
     1
102
RTVSPropertyOp24
 70
     1
102
RTVSPropertyOp25
 70
     1
102
RTVSPropertyOp26
 70
     1
102
RTVSPropertyOp27
 70
     1
102
RTVSPropertyOp28
 70
     1
102
RTVSPropertyOp29
 70
     1
102
RTVSPropertyOp30
 70
     1
102
RTVSPropertyOp31
 70
     1
102
RTVSPropertyOp32
 70
     1
102
RTVSPropertyOp33
 70
     1
102
RTVSPropertyOp34
 70
     1
102
RTVSPropertyOp35
 70
     1
102
RTVSPropertyOp36
 70
     1
102
RTVSPropertyOp37
 70
     1
102
RTVSPropertyOp38
 70
     1
102
RTVSPropertyOp39
 70
     1
102
RTVSPropertyOp40
 70
     1
102
RTVSPropertyOp41
 70
     1
102
RTVSPropertyOp42
 70
     1
102
RTVSPropertyOp43
 70
     1
102
RTVSPropertyOp44
 70
     1
102
RTVSPropertyOp45
 70
     1
102
RTVSPropertyOp46
 70
     1
102
RTVSPropertyOp47
 70
     1
102
RTVSPropertyOp48
 70
     1
102
RTVSPropertyOp49
 70
     1
102
RTVSPropertyOp50
 70
     1
102
RTVSPropertyOp51
 70
     0
102
RTVSPropertyOp52
 70
     0
102
RTVSPropertyOp53
 70
     1
102
RTVSPropertyOp54
 70
     1
102
RTVSPropertyOp55
 70
     1
102
RTVSPropertyOp56
 70
     1
102
RTVSPropertyOp57
 70
     1
102
RTVSPropertyOp58
 70
     1
102
RTVSPropertyOp59
 70
     1
102
RTVSPropertyOp60
 70
     1
102
RTVSPropertyOp61
 70
     1
102
RTVSPropertyOp62
 70
     1
  0
XRECORD
  5
A602
102
{ACAD_REACTORS
330
A601
102
}
330
A601
100
AcDbXrecord
280
     1
102
RTVSPost2010Prop28
280
     0
102
RTVSPost2010PropOp28
 70
     1
102
RTVSPost2010Prop29
280
     1
102
RTVSPost2010PropOp29
 70
     1
102
RTVSPost2010Prop30
280
     1
102
RTVSPost2010PropOp30
 70
     1
102
RTVSPost2010Prop31
280
     0
102
RTVSPost2010PropOp31
 70
     1
102
RTVSPost2010Prop32
280
     0
102
RTVSPost2010PropOp32
 70
     1
102
RTVSPost2010Prop33
280
     0
102
RTVSPost2010PropOp33
 70
     1
102
RTVSPost2010Prop34
280
     0
102
RTVSPost2010PropOp34
 70
     1
102
RTVSPost2010Prop35
280
     0
102
RTVSPost2010PropOp35
 70
     1
102
RTVSPost2010Prop36
280
     0
102
RTVSPost2010PropOp36
 70
     1
102
RTVSPost2010Prop37
 90
       50
102
RTVSPost2010PropOp37
 70
     1
102
RTVSPost2010Prop38
140
0.0
102
RTVSPost2010PropOp38
 70
     1
102
RTVSPost2010Prop39
140
1.0
102
RTVSPost2010PropOp39
 70
     1
102
RTVSPost2010Prop40
 90
        0
102
RTVSPost2010PropOp40
 70
     1
102
RTVSPost2010Prop41ColorIndex
 90
       18
102
RTVSPost2010Prop41ColorRGB
 90
        0
102
RTVSPost2010PropOp41
 70
     1
102
RTVSPost2010Prop42
 90
       50
102
RTVSPost2010PropOp42
 70
     1
102
RTVSPost2010Prop43
 90
        3
102
RTVSPost2010PropOp43
 70
     1
102
RTVSPost2010Prop44ColorIndex
 90
        5
102
RTVSPost2010Prop44ColorRGB
 90
      255
102
RTVSPost2010PropOp44
 70
     1
102
RTVSPost2010Prop45
280
     0
102
RTVSPost2010PropOp45
 70
     1
102
RTVSPost2010Prop46
 90
       50
102
RTVSPost2010PropOp46
 70
     1
102
RTVSPost2010Prop47
 90
       50
102
RTVSPost2010PropOp47
 70
     1
102
RTVSPost2010Prop48
 90
       50
102
RTVSPost2010PropOp48
 70
     1
102
RTVSPost2010Prop49
280
     0
102
RTVSPost2010PropOp49
 70
     1
102
RTVSPost2010Prop50
 90
       50
102
RTVSPost2010PropOp50
 70
     1
102
RTVSPost2010Prop51ColorIndex
 90
      256
102
RTVSPost2010Prop51ColorRGB
 90
-16777216
102
RTVSPost2010PropOp51
 70
     0
102
RTVSPost2010Prop52
140
1.0
102
RTVSPost2010PropOp52
 70
     0
102
RTVSPost2010Prop53
 90
        2
102
RTVSPost2010PropOp53
 70
     1
102
RTVSPost2010Prop54
  1
strokes_ogs.tif
102
RTVSPost2010PropOp54
 70
     1
102
RTVSPost2010Prop55
280
     0
102
RTVSPost2010PropOp55
 70
     1
102
RTVSPost2010Prop56
140
1.0
102
RTVSPost2010PropOp56
 70
     1
102
RTVSPost2010Prop57
140
1.0
102
RTVSPost2010PropOp57
 70
     1
102
RTVSPropertyOp0
 70
     1
102
RTVSPropertyOp1
 70
     1
102
RTVSPropertyOp2
 70
     1
102
RTVSPropertyOp3
 70
     1
102
RTVSPropertyOp4
 70
     1
102
RTVSPropertyOp5
 70
     1
102
RTVSPropertyOp6
 70
     1
102
RTVSPropertyOp7
 70
     1
102
RTVSPropertyOp8
 70
     1
102
RTVSPropertyOp9
 70
     1
102
RTVSPropertyOp10
 70
     1
102
RTVSPropertyOp11
 70
     1
102
RTVSPropertyOp12
 70
     1
102
RTVSPropertyOp13
 70
     1
102
RTVSPropertyOp14
 70
     1
102
RTVSPropertyOp15
 70
     1
102
RTVSPropertyOp16
 70
     1
102
RTVSPropertyOp17
 70
     1
102
RTVSPropertyOp18
 70
     1
102
RTVSPropertyOp19
 70
     1
102
RTVSPropertyOp20
 70
     1
102
RTVSPropertyOp21
 70
     1
102
RTVSPropertyOp22
 70
     1
102
RTVSPropertyOp23
 70
     1
102
RTVSPropertyOp24
 70
     1
102
RTVSPropertyOp25
 70
     1
102
RTVSPropertyOp26
 70
     1
102
RTVSPropertyOp27
 70
     1
102
RTVSPropertyOp28
 70
     1
102
RTVSPropertyOp29
 70
     1
102
RTVSPropertyOp30
 70
     1
102
RTVSPropertyOp31
 70
     1
102
RTVSPropertyOp32
 70
     1
102
RTVSPropertyOp33
 70
     1
102
RTVSPropertyOp34
 70
     1
102
RTVSPropertyOp35
 70
     1
102
RTVSPropertyOp36
 70
     1
102
RTVSPropertyOp37
 70
     1
102
RTVSPropertyOp38
 70
     1
102
RTVSPropertyOp39
 70
     1
102
RTVSPropertyOp40
 70
     1
102
RTVSPropertyOp41
 70
     1
102
RTVSPropertyOp42
 70
     1
102
RTVSPropertyOp43
 70
     1
102
RTVSPropertyOp44
 70
     1
102
RTVSPropertyOp45
 70
     1
102
RTVSPropertyOp46
 70
     1
102
RTVSPropertyOp47
 70
     1
102
RTVSPropertyOp48
 70
     1
102
RTVSPropertyOp49
 70
     1
102
RTVSPropertyOp50
 70
     1
102
RTVSPropertyOp51
 70
     0
102
RTVSPropertyOp52
 70
     0
102
RTVSPropertyOp53
 70
     1
102
RTVSPropertyOp54
 70
     1
102
RTVSPropertyOp55
 70
     1
102
RTVSPropertyOp56
 70
     1
102
RTVSPropertyOp57
 70
     1
102
RTVSPropertyOp58
 70
     1
102
RTVSPropertyOp59
 70
     1
102
RTVSPropertyOp60
 70
     1
102
RTVSPropertyOp61
 70
     1
102
RTVSPropertyOp62
 70
     1
  0
XRECORD
  5
A5F8
102
{ACAD_REACTORS
330
A5F7
102
}
330
A5F7
100
AcDbXrecord
280
     1
102
RTVSPost2010Prop28
280
     0
102
RTVSPost2010PropOp28
 70
     1
102
RTVSPost2010Prop29
280
     1
102
RTVSPost2010PropOp29
 70
     1
102
RTVSPost2010Prop30
280
     1
102
RTVSPost2010PropOp30
 70
     1
102
RTVSPost2010Prop31
280
     0
102
RTVSPost2010PropOp31
 70
     1
102
RTVSPost2010Prop32
280
     0
102
RTVSPost2010PropOp32
 70
     1
102
RTVSPost2010Prop33
280
     0
102
RTVSPost2010PropOp33
 70
     1
102
RTVSPost2010Prop34
280
     0
102
RTVSPost2010PropOp34
 70
     1
102
RTVSPost2010Prop35
280
     0
102
RTVSPost2010PropOp35
 70
     1
102
RTVSPost2010Prop36
280
     0
102
RTVSPost2010PropOp36
 70
     1
102
RTVSPost2010Prop37
 90
       50
102
RTVSPost2010PropOp37
 70
     1
102
RTVSPost2010Prop38
140
0.0
102
RTVSPost2010PropOp38
 70
     1
102
RTVSPost2010Prop39
140
1.0
102
RTVSPost2010PropOp39
 70
     1
102
RTVSPost2010Prop40
 90
        0
102
RTVSPost2010PropOp40
 70
     1
102
RTVSPost2010Prop41ColorIndex
 90
       18
102
RTVSPost2010Prop41ColorRGB
 90
        0
102
RTVSPost2010PropOp41
 70
     1
102
RTVSPost2010Prop42
 90
       50
102
RTVSPost2010PropOp42
 70
     1
102
RTVSPost2010Prop43
 90
        3
102
RTVSPost2010PropOp43
 70
     1
102
RTVSPost2010Prop44ColorIndex
 90
        5
102
RTVSPost2010Prop44ColorRGB
 90
      255
102
RTVSPost2010PropOp44
 70
     1
102
RTVSPost2010Prop45
280
     0
102
RTVSPost2010PropOp45
 70
     1
102
RTVSPost2010Prop46
 90
       50
102
RTVSPost2010PropOp46
 70
     1
102
RTVSPost2010Prop47
 90
       50
102
RTVSPost2010PropOp47
 70
     1
102
RTVSPost2010Prop48
 90
       50
102
RTVSPost2010PropOp48
 70
     1
102
RTVSPost2010Prop49
280
     0
102
RTVSPost2010PropOp49
 70
     1
102
RTVSPost2010Prop50
 90
       50
102
RTVSPost2010PropOp50
 70
     1
102
RTVSPost2010Prop51ColorIndex
 90
      256
102
RTVSPost2010Prop51ColorRGB
 90
-16777216
102
RTVSPost2010PropOp51
 70
     0
102
RTVSPost2010Prop52
140
1.0
102
RTVSPost2010PropOp52
 70
     0
102
RTVSPost2010Prop53
 90
        2
102
RTVSPost2010PropOp53
 70
     1
102
RTVSPost2010Prop54
  1
strokes_ogs.tif
102
RTVSPost2010PropOp54
 70
     1
102
RTVSPost2010Prop55
280
     0
102
RTVSPost2010PropOp55
 70
     1
102
RTVSPost2010Prop56
140
1.0
102
RTVSPost2010PropOp56
 70
     1
102
RTVSPost2010Prop57
140
1.0
102
RTVSPost2010PropOp57
 70
     1
102
RTVSPropertyOp0
 70
     1
102
RTVSPropertyOp1
 70
     1
102
RTVSPropertyOp2
 70
     1
102
RTVSPropertyOp3
 70
     1
102
RTVSPropertyOp4
 70
     1
102
RTVSPropertyOp5
 70
     1
102
RTVSPropertyOp6
 70
     1
102
RTVSPropertyOp7
 70
     1
102
RTVSPropertyOp8
 70
     1
102
RTVSPropertyOp9
 70
     1
102
RTVSPropertyOp10
 70
     1
102
RTVSPropertyOp11
 70
     1
102
RTVSPropertyOp12
 70
     1
102
RTVSPropertyOp13
 70
     1
102
RTVSPropertyOp14
 70
     1
102
RTVSPropertyOp15
 70
     1
102
RTVSPropertyOp16
 70
     1
102
RTVSPropertyOp17
 70
     1
102
RTVSPropertyOp18
 70
     1
102
RTVSPropertyOp19
 70
     1
102
RTVSPropertyOp20
 70
     1
102
RTVSPropertyOp21
 70
     1
102
RTVSPropertyOp22
 70
     1
102
RTVSPropertyOp23
 70
     1
102
RTVSPropertyOp24
 70
     1
102
RTVSPropertyOp25
 70
     1
102
RTVSPropertyOp26
 70
     1
102
RTVSPropertyOp27
 70
     1
102
RTVSPropertyOp28
 70
     1
102
RTVSPropertyOp29
 70
     1
102
RTVSPropertyOp30
 70
     1
102
RTVSPropertyOp31
 70
     1
102
RTVSPropertyOp32
 70
     1
102
RTVSPropertyOp33
 70
     1
102
RTVSPropertyOp34
 70
     1
102
RTVSPropertyOp35
 70
     1
102
RTVSPropertyOp36
 70
     1
102
RTVSPropertyOp37
 70
     1
102
RTVSPropertyOp38
 70
     1
102
RTVSPropertyOp39
 70
     1
102
RTVSPropertyOp40
 70
     1
102
RTVSPropertyOp41
 70
     1
102
RTVSPropertyOp42
 70
     1
102
RTVSPropertyOp43
 70
     1
102
RTVSPropertyOp44
 70
     1
102
RTVSPropertyOp45
 70
     1
102
RTVSPropertyOp46
 70
     1
102
RTVSPropertyOp47
 70
     1
102
RTVSPropertyOp48
 70
     1
102
RTVSPropertyOp49
 70
     1
102
RTVSPropertyOp50
 70
     1
102
RTVSPropertyOp51
 70
     0
102
RTVSPropertyOp52
 70
     0
102
RTVSPropertyOp53
 70
     1
102
RTVSPropertyOp54
 70
     1
102
RTVSPropertyOp55
 70
     1
102
RTVSPropertyOp56
 70
     1
102
RTVSPropertyOp57
 70
     1
102
RTVSPropertyOp58
 70
     1
102
RTVSPropertyOp59
 70
     1
102
RTVSPropertyOp60
 70
     1
102
RTVSPropertyOp61
 70
     1
102
RTVSPropertyOp62
 70
     1
  0
XRECORD
  5
A5EC
102
{ACAD_REACTORS
330
A5EB
102
}
330
A5EB
100
AcDbXrecord
280
     1
102
RTVSPost2010Prop28
280
     0
102
RTVSPost2010PropOp28
 70
     1
102
RTVSPost2010Prop29
280
     1
102
RTVSPost2010PropOp29
 70
     1
102
RTVSPost2010Prop30
280
     1
102
RTVSPost2010PropOp30
 70
     1
102
RTVSPost2010Prop31
280
     0
102
RTVSPost2010PropOp31
 70
     1
102
RTVSPost2010Prop32
280
     0
102
RTVSPost2010PropOp32
 70
     1
102
RTVSPost2010Prop33
280
     0
102
RTVSPost2010PropOp33
 70
     1
102
RTVSPost2010Prop34
280
     0
102
RTVSPost2010PropOp34
 70
     1
102
RTVSPost2010Prop35
280
     0
102
RTVSPost2010PropOp35
 70
     1
102
RTVSPost2010Prop36
280
     0
102
RTVSPost2010PropOp36
 70
     1
102
RTVSPost2010Prop37
 90
       50
102
RTVSPost2010PropOp37
 70
     1
102
RTVSPost2010Prop38
140
0.0
102
RTVSPost2010PropOp38
 70
     1
102
RTVSPost2010Prop39
140
1.0
102
RTVSPost2010PropOp39
 70
     1
102
RTVSPost2010Prop40
 90
        0
102
RTVSPost2010PropOp40
 70
     1
102
RTVSPost2010Prop41ColorIndex
 90
       18
102
RTVSPost2010Prop41ColorRGB
 90
        0
102
RTVSPost2010PropOp41
 70
     1
102
RTVSPost2010Prop42
 90
       50
102
RTVSPost2010PropOp42
 70
     1
102
RTVSPost2010Prop43
 90
        3
102
RTVSPost2010PropOp43
 70
     1
102
RTVSPost2010Prop44ColorIndex
 90
        5
102
RTVSPost2010Prop44ColorRGB
 90
      255
102
RTVSPost2010PropOp44
 70
     1
102
RTVSPost2010Prop45
280
     0
102
RTVSPost2010PropOp45
 70
     1
102
RTVSPost2010Prop46
 90
       50
102
RTVSPost2010PropOp46
 70
     1
102
RTVSPost2010Prop47
 90
       50
102
RTVSPost2010PropOp47
 70
     1
102
RTVSPost2010Prop48
 90
       50
102
RTVSPost2010PropOp48
 70
     1
102
RTVSPost2010Prop49
280
     0
102
RTVSPost2010PropOp49
 70
     1
102
RTVSPost2010Prop50
 90
       50
102
RTVSPost2010PropOp50
 70
     1
102
RTVSPost2010Prop51ColorIndex
 90
      256
102
RTVSPost2010Prop51ColorRGB
 90
-16777216
102
RTVSPost2010PropOp51
 70
     0
102
RTVSPost2010Prop52
140
1.0
102
RTVSPost2010PropOp52
 70
     0
102
RTVSPost2010Prop53
 90
        2
102
RTVSPost2010PropOp53
 70
     1
102
RTVSPost2010Prop54
  1
strokes_ogs.tif
102
RTVSPost2010PropOp54
 70
     1
102
RTVSPost2010Prop55
280
     0
102
RTVSPost2010PropOp55
 70
     1
102
RTVSPost2010Prop56
140
1.0
102
RTVSPost2010PropOp56
 70
     1
102
RTVSPost2010Prop57
140
1.0
102
RTVSPost2010PropOp57
 70
     1
102
RTVSPropertyOp0
 70
     1
102
RTVSPropertyOp1
 70
     1
102
RTVSPropertyOp2
 70
     1
102
RTVSPropertyOp3
 70
     1
102
RTVSPropertyOp4
 70
     1
102
RTVSPropertyOp5
 70
     1
102
RTVSPropertyOp6
 70
     1
102
RTVSPropertyOp7
 70
     1
102
RTVSPropertyOp8
 70
     1
102
RTVSPropertyOp9
 70
     1
102
RTVSPropertyOp10
 70
     1
102
RTVSPropertyOp11
 70
     1
102
RTVSPropertyOp12
 70
     1
102
RTVSPropertyOp13
 70
     1
102
RTVSPropertyOp14
 70
     1
102
RTVSPropertyOp15
 70
     1
102
RTVSPropertyOp16
 70
     1
102
RTVSPropertyOp17
 70
     1
102
RTVSPropertyOp18
 70
     1
102
RTVSPropertyOp19
 70
     1
102
RTVSPropertyOp20
 70
     1
102
RTVSPropertyOp21
 70
     1
102
RTVSPropertyOp22
 70
     1
102
RTVSPropertyOp23
 70
     1
102
RTVSPropertyOp24
 70
     1
102
RTVSPropertyOp25
 70
     1
102
RTVSPropertyOp26
 70
     1
102
RTVSPropertyOp27
 70
     1
102
RTVSPropertyOp28
 70
     1
102
RTVSPropertyOp29
 70
     1
102
RTVSPropertyOp30
 70
     1
102
RTVSPropertyOp31
 70
     1
102
RTVSPropertyOp32
 70
     1
102
RTVSPropertyOp33
 70
     1
102
RTVSPropertyOp34
 70
     1
102
RTVSPropertyOp35
 70
     1
102
RTVSPropertyOp36
 70
     1
102
RTVSPropertyOp37
 70
     1
102
RTVSPropertyOp38
 70
     1
102
RTVSPropertyOp39
 70
     1
102
RTVSPropertyOp40
 70
     1
102
RTVSPropertyOp41
 70
     1
102
RTVSPropertyOp42
 70
     1
102
RTVSPropertyOp43
 70
     1
102
RTVSPropertyOp44
 70
     1
102
RTVSPropertyOp45
 70
     1
102
RTVSPropertyOp46
 70
     1
102
RTVSPropertyOp47
 70
     1
102
RTVSPropertyOp48
 70
     1
102
RTVSPropertyOp49
 70
     1
102
RTVSPropertyOp50
 70
     1
102
RTVSPropertyOp51
 70
     0
102
RTVSPropertyOp52
 70
     0
102
RTVSPropertyOp53
 70
     1
102
RTVSPropertyOp54
 70
     1
102
RTVSPropertyOp55
 70
     1
102
RTVSPropertyOp56
 70
     1
102
RTVSPropertyOp57
 70
     1
102
RTVSPropertyOp58
 70
     1
102
RTVSPropertyOp59
 70
     1
102
RTVSPropertyOp60
 70
     1
102
RTVSPropertyOp61
 70
     1
102
RTVSPropertyOp62
 70
     1
  0
XRECORD
  5
A604
102
{ACAD_REACTORS
330
A603
102
}
330
A603
100
AcDbXrecord
280
     1
102
RTVSPost2010Prop28
280
     0
102
RTVSPost2010PropOp28
 70
     1
102
RTVSPost2010Prop29
280
     1
102
RTVSPost2010PropOp29
 70
     1
102
RTVSPost2010Prop30
280
     1
102
RTVSPost2010PropOp30
 70
     1
102
RTVSPost2010Prop31
280
     0
102
RTVSPost2010PropOp31
 70
     1
102
RTVSPost2010Prop32
280
     0
102
RTVSPost2010PropOp32
 70
     1
102
RTVSPost2010Prop33
280
     0
102
RTVSPost2010PropOp33
 70
     1
102
RTVSPost2010Prop34
280
     0
102
RTVSPost2010PropOp34
 70
     1
102
RTVSPost2010Prop35
280
     0
102
RTVSPost2010PropOp35
 70
     1
102
RTVSPost2010Prop36
280
     0
102
RTVSPost2010PropOp36
 70
     1
102
RTVSPost2010Prop37
 90
       50
102
RTVSPost2010PropOp37
 70
     1
102
RTVSPost2010Prop38
140
0.0
102
RTVSPost2010PropOp38
 70
     1
102
RTVSPost2010Prop39
140
1.0
102
RTVSPost2010PropOp39
 70
     1
102
RTVSPost2010Prop40
 90
        0
102
RTVSPost2010PropOp40
 70
     1
102
RTVSPost2010Prop41ColorIndex
 90
       18
102
RTVSPost2010Prop41ColorRGB
 90
        0
102
RTVSPost2010PropOp41
 70
     1
102
RTVSPost2010Prop42
 90
       50
102
RTVSPost2010PropOp42
 70
     1
102
RTVSPost2010Prop43
 90
        3
102
RTVSPost2010PropOp43
 70
     1
102
RTVSPost2010Prop44ColorIndex
 90
        5
102
RTVSPost2010Prop44ColorRGB
 90
      255
102
RTVSPost2010PropOp44
 70
     1
102
RTVSPost2010Prop45
280
     0
102
RTVSPost2010PropOp45
 70
     1
102
RTVSPost2010Prop46
 90
       50
102
RTVSPost2010PropOp46
 70
     1
102
RTVSPost2010Prop47
 90
       50
102
RTVSPost2010PropOp47
 70
     1
102
RTVSPost2010Prop48
 90
       50
102
RTVSPost2010PropOp48
 70
     1
102
RTVSPost2010Prop49
280
     0
102
RTVSPost2010PropOp49
 70
     1
102
RTVSPost2010Prop50
 90
       50
102
RTVSPost2010PropOp50
 70
     1
102
RTVSPost2010Prop51ColorIndex
 90
      256
102
RTVSPost2010Prop51ColorRGB
 90
-16777216
102
RTVSPost2010PropOp51
 70
     0
102
RTVSPost2010Prop52
140
1.0
102
RTVSPost2010PropOp52
 70
     0
102
RTVSPost2010Prop53
 90
        2
102
RTVSPost2010PropOp53
 70
     1
102
RTVSPost2010Prop54
  1
strokes_ogs.tif
102
RTVSPost2010PropOp54
 70
     1
102
RTVSPost2010Prop55
280
     0
102
RTVSPost2010PropOp55
 70
     1
102
RTVSPost2010Prop56
140
1.0
102
RTVSPost2010PropOp56
 70
     1
102
RTVSPost2010Prop57
140
1.0
102
RTVSPost2010PropOp57
 70
     1
102
RTVSPropertyOp0
 70
     1
102
RTVSPropertyOp1
 70
     1
102
RTVSPropertyOp2
 70
     1
102
RTVSPropertyOp3
 70
     1
102
RTVSPropertyOp4
 70
     1
102
RTVSPropertyOp5
 70
     1
102
RTVSPropertyOp6
 70
     1
102
RTVSPropertyOp7
 70
     1
102
RTVSPropertyOp8
 70
     1
102
RTVSPropertyOp9
 70
     1
102
RTVSPropertyOp10
 70
     1
102
RTVSPropertyOp11
 70
     1
102
RTVSPropertyOp12
 70
     1
102
RTVSPropertyOp13
 70
     1
102
RTVSPropertyOp14
 70
     1
102
RTVSPropertyOp15
 70
     1
102
RTVSPropertyOp16
 70
     1
102
RTVSPropertyOp17
 70
     1
102
RTVSPropertyOp18
 70
     1
102
RTVSPropertyOp19
 70
     1
102
RTVSPropertyOp20
 70
     1
102
RTVSPropertyOp21
 70
     1
102
RTVSPropertyOp22
 70
     1
102
RTVSPropertyOp23
 70
     1
102
RTVSPropertyOp24
 70
     1
102
RTVSPropertyOp25
 70
     1
102
RTVSPropertyOp26
 70
     1
102
RTVSPropertyOp27
 70
     1
102
RTVSPropertyOp28
 70
     1
102
RTVSPropertyOp29
 70
     1
102
RTVSPropertyOp30
 70
     1
102
RTVSPropertyOp31
 70
     1
102
RTVSPropertyOp32
 70
     1
102
RTVSPropertyOp33
 70
     1
102
RTVSPropertyOp34
 70
     1
102
RTVSPropertyOp35
 70
     1
102
RTVSPropertyOp36
 70
     1
102
RTVSPropertyOp37
 70
     1
102
RTVSPropertyOp38
 70
     1
102
RTVSPropertyOp39
 70
     1
102
RTVSPropertyOp40
 70
     1
102
RTVSPropertyOp41
 70
     1
102
RTVSPropertyOp42
 70
     1
102
RTVSPropertyOp43
 70
     1
102
RTVSPropertyOp44
 70
     1
102
RTVSPropertyOp45
 70
     1
102
RTVSPropertyOp46
 70
     1
102
RTVSPropertyOp47
 70
     1
102
RTVSPropertyOp48
 70
     1
102
RTVSPropertyOp49
 70
     1
102
RTVSPropertyOp50
 70
     1
102
RTVSPropertyOp51
 70
     0
102
RTVSPropertyOp52
 70
     0
102
RTVSPropertyOp53
 70
     1
102
RTVSPropertyOp54
 70
     1
102
RTVSPropertyOp55
 70
     1
102
RTVSPropertyOp56
 70
     1
102
RTVSPropertyOp57
 70
     1
102
RTVSPropertyOp58
 70
     1
102
RTVSPropertyOp59
 70
     1
102
RTVSPropertyOp60
 70
     1
102
RTVSPropertyOp61
 70
     1
102
RTVSPropertyOp62
 70
     1
  0
ENDSEC
  0
EOF
