  0
SECTION
  2
HEADER
  9
$ACADVER
  1
AC1015
  9
$ACADMAINTVER
 70
    20
  9
$DWGCODEPAGE
  3
ANSI_932
  9
$INSBASE
 10
0.0
 20
0.0
 30
0.0
  9
$EXTMIN
 10
10.0
 20
9.999999999999998
 30
0.0
  9
$EXTMAX
 10
549.999942
 20
409.1967509999998
 30
0.0
  9
$LIMMIN
 10
0.0
 20
0.0
  9
$LIMMAX
 10
633.1749999999998
 20
436.5070079999998
  9
$ORTHOMODE
 70
     1
  9
$REGENMODE
 70
     1
  9
$FILLMODE
 70
     1
  9
$QTEXTMODE
 70
     0
  9
$MIRRTEXT
 70
     1
  9
$LTSCALE
 40
20.0
  9
$ATTMODE
 70
     1
  9
$TEXTSIZE
 40
5.0
  9
$TRACEWID
 40
1.0
  9
$TEXTSTYLE
  7
STANDARD
  9
$CLAYER
  8
0
  9
$CELTYPE
  6
BYLAYER
  9
$CECOLOR
 62
   256
  9
$CELTSCALE
 40
1.0
  9
$DISPSILH
 70
     0
  9
$DIMSCALE
 40
1.0
  9
$DIMASZ
 40
3.0
  9
$DIMEXO
 40
1.0
  9
$DIMDLI
 40
10.0
  9
$DIMRND
 40
0.0
  9
$DIMDLE
 40
0.0
  9
$DIMEXE
 40
1.0
  9
$DIMTP
 40
0.0
  9
$DIMTM
 40
0.0
  9
$DIMTXT
 40
2.5
  9
$DIMCEN
 40
0.0
  9
$DIMTSZ
 40
0.0
  9
$DIMTOL
 70
     0
  9
$DIMLIM
 70
     0
  9
$DIMTIH
 70
     0
  9
$DIMTOH
 70
     0
  9
$DIMSE1
 70
     0
  9
$DIMSE2
 70
     0
  9
$DIMTAD
 70
     3
  9
$DIMZIN
 70
     8
  9
$DIMBLK
  1

  9
$DIMASO
 70
     1
  9
$DIMSHO
 70
     1
  9
$DIMPOST
  1

  9
$DIMAPOST
  1

  9
$DIMALT
 70
     0
  9
$DIMALTD
 70
     2
  9
$DIMALTF
 40
25.4
  9
$DIMLFAC
 40
1.0
  9
$DIMTOFL
 70
     1
  9
$DIMTVP
 40
0.0
  9
$DIMTIX
 70
     0
  9
$DIMSOXD
 70
     0
  9
$DIMSAH
 70
     1
  9
$DIMBLK1
  1
OPEN
  9
$DIMBLK2
  1
OPEN
  9
$DIMSTYLE
  2
STANDARD
  9
$DIMCLRD
 70
     0
  9
$DIMCLRE
 70
     0
  9
$DIMCLRT
 70
     0
  9
$DIMTFAC
 40
1.0
  9
$DIMGAP
 40
1.0
  9
$DIMJUST
 70
     0
  9
$DIMSD1
 70
     0
  9
$DIMSD2
 70
     0
  9
$DIMTOLJ
 70
     1
  9
$DIMTZIN
 70
     0
  9
$DIMALTZ
 70
     0
  9
$DIMALTTZ
 70
     0
  9
$DIMUPT
 70
     0
  9
$DIMDEC
 70
     4
  9
$DIMTDEC
 70
     4
  9
$DIMALTU
 70
     2
  9
$DIMALTTD
 70
     2
  9
$DIMTXSTY
  7
STANDARD
  9
$DIMAUNIT
 70
     0
  9
$DIMADEC
 70
     0
  9
$DIMALTRND
 40
0.0
  9
$DIMAZIN
 70
     0
  9
$DIMDSEP
 70
    46
  9
$DIMATFIT
 70
     3
  9
$DIMFRAC
 70
     0
  9
$DIMLDRBLK
  1
OPEN
  9
$DIMLUNIT
 70
     2
  9
$DIMLWD
 70
    -2
  9
$DIMLWE
 70
    -2
  9
$DIMTMOVE
 70
     0
  9
$LUNITS
 70
     2
  9
$LUPREC
 70
     4
  9
$SKETCHINC
 40
1.0
  9
$FILLETRAD
 40
1.3
  9
$AUNITS
 70
     0
  9
$AUPREC
 70
     2
  9
$MENU
  1
.
  9
$ELEVATION
 40
0.0
  9
$PELEVATION
 40
0.0
  9
$THICKNESS
 40
0.0
  9
$LIMCHECK
 70
     0
  9
$CHAMFERA
 40
10.0
  9
$CHAMFERB
 40
10.0
  9
$CHAMFERC
 40
0.0
  9
$CHAMFERD
 40
0.0
  9
$SKPOLY
 70
     0
  9
$TDCREATE
 40
2451301.404673032
  9
$TDUCREATE
 40
2451301.029673032
  9
$TDUPDATE
 40
2457192.686454827
  9
$TDUUPDATE
 40
2457192.311454827
  9
$TDINDWG
 40
0.0000112847
  9
$TDUSRTIMER
 40
0.0000109954
  9
$USRTIMER
 70
     1
  9
$ANGBASE
 50
0.0
  9
$ANGDIR
 70
     0
  9
$PDMODE
 70
     0
  9
$PDSIZE
 40
0.0
  9
$PLINEWID
 40
0.0
  9
$SPLFRAME
 70
     0
  9
$SPLINETYPE
 70
     6
  9
$SPLINESEGS
 70
     8
  9
$HANDSEED
  5
CA90
  9
$SURFTAB1
 70
     6
  9
$SURFTAB2
 70
     6
  9
$SURFTYPE
 70
     6
  9
$SURFU
 70
     6
  9
$SURFV
 70
     6
  9
$UCSBASE
  2

  9
$UCSNAME
  2

  9
$UCSORG
 10
0.0
 20
0.0
 30
0.0
  9
$UCSXDIR
 10
1.0
 20
0.0
 30
0.0
  9
$UCSYDIR
 10
0.0
 20
1.0
 30
0.0
  9
$UCSORTHOREF
  2

  9
$UCSORTHOVIEW
 70
     0
  9
$UCSORGTOP
 10
0.0
 20
0.0
 30
0.0
  9
$UCSORGBOTTOM
 10
0.0
 20
0.0
 30
0.0
  9
$UCSORGLEFT
 10
0.0
 20
0.0
 30
0.0
  9
$UCSORGRIGHT
 10
0.0
 20
0.0
 30
0.0
  9
$UCSORGFRONT
 10
0.0
 20
0.0
 30
0.0
  9
$UCSORGBACK
 10
0.0
 20
0.0
 30
0.0
  9
$PUCSBASE
  2

  9
$PUCSNAME
  2

  9
$PUCSORG
 10
0.0
 20
0.0
 30
0.0
  9
$PUCSXDIR
 10
1.0
 20
0.0
 30
0.0
  9
$PUCSYDIR
 10
0.0
 20
1.0
 30
0.0
  9
$PUCSORTHOREF
  2

  9
$PUCSORTHOVIEW
 70
     0
  9
$PUCSORGTOP
 10
0.0
 20
0.0
 30
0.0
  9
$PUCSORGBOTTOM
 10
0.0
 20
0.0
 30
0.0
  9
$PUCSORGLEFT
 10
0.0
 20
0.0
 30
0.0
  9
$PUCSORGRIGHT
 10
0.0
 20
0.0
 30
0.0
  9
$PUCSORGFRONT
 10
0.0
 20
0.0
 30
0.0
  9
$PUCSORGBACK
 10
0.0
 20
0.0
 30
0.0
  9
$USERI1
 70
     0
  9
$USERI2
 70
     0
  9
$USERI3
 70
     0
  9
$USERI4
 70
     0
  9
$USERI5
 70
     0
  9
$USERR1
 40
0.0
  9
$USERR2
 40
0.0
  9
$USERR3
 40
0.0
  9
$USERR4
 40
0.0
  9
$USERR5
 40
0.0
  9
$WORLDVIEW
 70
     1
  9
$SHADEDGE
 70
     3
  9
$SHADEDIF
 70
    70
  9
$TILEMODE
 70
     1
  9
$MAXACTVP
 70
    16
  9
$PINSBASE
 10
0.0
 20
0.0
 30
0.0
  9
$PLIMCHECK
 70
     0
  9
$PEXTMIN
 10
1.000000000000000E+20
 20
1.000000000000000E+20
 30
1.000000000000000E+20
  9
$PEXTMAX
 10
-1.000000000000000E+20
 20
-1.000000000000000E+20
 30
-1.000000000000000E+20
  9
$PLIMMIN
 10
0.0
 20
0.0
  9
$PLIMMAX
 10
420.0
 20
297.0
  9
$UNITMODE
 70
     0
  9
$VISRETAIN
 70
     0
  9
$PLINEGEN
 70
     0
  9
$PSLTSCALE
 70
     0
  9
$TREEDEPTH
 70
  3020
  9
$CMLSTYLE
  2
STANDARD
  9
$CMLJUST
 70
     0
  9
$CMLSCALE
 40
1.0
  9
$PROXYGRAPHICS
 70
     1
  9
$MEASUREMENT
 70
     0
  9
$CELWEIGHT
370
    -1
  9
$ENDCAPS
280
     0
  9
$JOINSTYLE
280
     0
  9
$LWDISPLAY
290
     0
  9
$INSUNITS
 70
     0
  9
$HYPERLINKBASE
  1

  9
$STYLESHEET
  1

  9
$XEDIT
290
     1
  9
$CEPSNTYPE
380
     0
  9
$PSTYLEMODE
290
     1
  9
$FINGERPRINTGUID
  2
{A66B896D-3262-4BDC-B311-4B1F99C58BE2}
  9
$VERSIONGUID
  2
{BC7491BC-CB29-4C38-80F3-6ADEC71B66DF}
  9
$EXTNAMES
290
     1
  9
$PSVPSCALE
 40
0.0
  9
$OLESTARTUP
290
     0
  0
ENDSEC
  0
SECTION
  2
CLASSES
  0
CLASS
  1
ACDBDICTIONARYWDFLT
  2
AcDbDictionaryWithDefault
  3
ObjectDBX Classes
 90
        0
280
     0
281
     0
  0
CLASS
  1
ACDBPLACEHOLDER
  2
AcDbPlaceHolder
  3
ObjectDBX Classes
 90
        0
280
     0
281
     0
  0
CLASS
  1
LAYOUT
  2
AcDbLayout
  3
ObjectDBX Classes
 90
        0
280
     0
281
     0
  0
CLASS
  1
DICTIONARYVAR
  2
AcDbDictionaryVar
  3
ObjectDBX Classes
 90
        0
280
     0
281
     0
  0
CLASS
  1
MATERIAL
  2
AcDbMaterial
  3
ObjectDBX Classes
 90
     1153
280
     0
281
     0
  0
CLASS
  1
VISUALSTYLE
  2
AcDbVisualStyle
  3
ObjectDBX Classes
 90
     4095
280
     0
281
     0
  0
CLASS
  1
TABLESTYLE
  2
AcDbTableStyle
  3
ObjectDBX Classes
 90
     4095
280
     0
281
     0
  0
CLASS
  1
SCALE
  2
AcDbScale
  3
ObjectDBX Classes
 90
     1153
280
     0
281
     0
  0
CLASS
  1
MLEADERSTYLE
  2
AcDbMLeaderStyle
  3
ACDB_MLEADERSTYLE_CLASS
 90
     4095
280
     0
281
     0
  0
CLASS
  1
ACDBSECTIONVIEWSTYLE
  2
AcDbSectionViewStyle
  3
ObjectDBX Classes
 90
     1025
280
     0
281
     0
  0
CLASS
  1
ACDBDETAILVIEWSTYLE
  2
AcDbDetailViewStyle
  3
ObjectDBX Classes
 90
     1025
280
     0
281
     0
  0
CLASS
  1
CELLSTYLEMAP
  2
AcDbCellStyleMap
  3
ObjectDBX Classes
 90
     1152
280
     0
281
     0
  0
ENDSEC
  0
SECTION
  2
TABLES
  0
TABLE
  2
VPORT
  5
C5FB
330
0
100
AcDbSymbolTable
 70
     1
  0
VPORT
  5
C9D9
330
C5FB
100
AcDbSymbolTableRecord
100
AcDbViewportTableRecord
  2
*ACTIVE
 70
     0
 10
0.0
 20
0.0
 11
1.0
 21
1.0
 12
400.9155479855299
 22
209.5947661390545
 13
0.0
 23
0.0
 14
10.0
 24
10.0
 15
10.0
 25
10.0
 16
0.0
 26
0.0
 36
1.0
 17
0.0
 27
0.0
 37
0.0
 40
403.6458979967459
 41
2.35006605019815
 42
50.0
 43
0.0
 44
0.0
 50
0.0
 51
0.0
 71
     0
 72
   100
 73
     1
 74
     0
 75
     0
 76
     0
 77
     0
 78
     0
281
     0
 65
     1
110
0.0
120
0.0
130
0.0
111
1.0
121
0.0
131
0.0
112
0.0
122
1.0
132
0.0
 79
     0
146
0.0
1001
ACAD_NAV_VCDISPLAY
1070
     3
  0
ENDTAB
  0
TABLE
  2
LTYPE
  5
C5F8
330
0
100
AcDbSymbolTable
 70
     4
  0
LTYPE
  5
C606
330
C5F8
100
AcDbSymbolTableRecord
100
AcDbLinetypeTableRecord
  2
BYBLOCK
 70
     0
  3

 72
    65
 73
     0
 40
0.0
  0
LTYPE
  5
C607
330
C5F8
100
AcDbSymbolTableRecord
100
AcDbLinetypeTableRecord
  2
BYLAYER
 70
     0
  3

 72
    65
 73
     0
 40
0.0
  0
LTYPE
  5
C608
330
C5F8
100
AcDbSymbolTableRecord
100
AcDbLinetypeTableRecord
  2
CONTINUOUS
 70
     0
  3
Solid line
 72
    65
 73
     0
 40
0.0
  0
LTYPE
  5
C616
330
C5F8
100
AcDbSymbolTableRecord
100
AcDbLinetypeTableRecord
  2
DASHED
 70
     0
  3
__ __ __ __ __ __ __ __ __ __ __ __ __ __ __ __
 72
    65
 73
     2
 40
0.75
 49
0.5
 74
     0
 49
-0.25
 74
     0
  0
LTYPE
  5
C617
330
C5F8
100
AcDbSymbolTableRecord
100
AcDbLinetypeTableRecord
  2
CENTER
 70
     0
  3
____ _ ____ _ ____ _ ____ _ ____ _ ____ _ ____ 
 72
    65
 73
     4
 40
2.0
 49
1.25
 74
     0
 49
-0.25
 74
     0
 49
0.25
 74
     0
 49
-0.25
 74
     0
  0
LTYPE
  5
C618
330
C5F8
100
AcDbSymbolTableRecord
100
AcDbLinetypeTableRecord
  2
PHANTOM
 70
     0
  3
______  __  __  ______  __  __  ______  __  __ 
 72
    65
 73
     6
 40
2.5
 49
1.25
 74
     0
 49
-0.25
 74
     0
 49
0.25
 74
     0
 49
-0.25
 74
     0
 49
0.25
 74
     0
 49
-0.25
 74
     0
  0
ENDTAB
  0
TABLE
  2
LAYER
  5
C5F5
330
0
100
AcDbSymbolTable
 70
     8
  0
LAYER
  5
C603
102
{ACAD_XDICTIONARY
360
CA34
102
}
330
C5F5
100
AcDbSymbolTableRecord
100
AcDbLayerTableRecord
  2
0
 70
     0
 62
     7
  6
CONTINUOUS
370
    -3
390
C9E2
  0
LAYER
  5
C619
102
{ACAD_XDICTIONARY
360
CA36
102
}
330
C5F5
100
AcDbSymbolTableRecord
100
AcDbLayerTableRecord
  2
4
 70
     0
 62
     1
  6
CENTER
370
    -3
390
C9E2
  0
LAYER
  5
C61A
102
{ACAD_XDICTIONARY
360
CA38
102
}
330
C5F5
100
AcDbSymbolTableRecord
100
AcDbLayerTableRecord
  2
5
 70
     0
 62
     6
  6
PHANTOM
370
    -3
390
C9E2
  0
LAYER
  5
C61B
102
{ACAD_XDICTIONARY
360
CA3A
102
}
330
C5F5
100
AcDbSymbolTableRecord
100
AcDbLayerTableRecord
  2
1
 70
     0
 62
     7
  6
CONTINUOUS
370
    -3
390
C9E2
  0
LAYER
  5
C61C
102
{ACAD_XDICTIONARY
360
CA3C
102
}
330
C5F5
100
AcDbSymbolTableRecord
100
AcDbLayerTableRecord
  2
2
 70
     0
 62
     4
  6
CONTINUOUS
370
    -3
390
C9E2
  0
LAYER
  5
C61D
102
{ACAD_XDICTIONARY
360
CA3E
102
}
330
C5F5
100
AcDbSymbolTableRecord
100
AcDbLayerTableRecord
  2
3
 70
     0
 62
     2
  6
DASHED
370
    -3
390
C9E2
  0
LAYER
  5
C61E
102
{ACAD_XDICTIONARY
360
CA40
102
}
330
C5F5
100
AcDbSymbolTableRecord
100
AcDbLayerTableRecord
  2
6
 70
     0
 62
     5
  6
CONTINUOUS
370
    -3
390
C9E2
  0
LAYER
  5
C61F
102
{ACAD_XDICTIONARY
360
CA42
102
}
330
C5F5
100
AcDbSymbolTableRecord
100
AcDbLayerTableRecord
  2
7
 70
     0
 62
     3
  6
CONTINUOUS
370
    -3
390
C9E2
  0
ENDTAB
  0
TABLE
  2
STYLE
  5
C5F6
330
0
100
AcDbSymbolTable
 70
     1
  0
STYLE
  5
C604
330
C5F6
100
AcDbSymbolTableRecord
100
AcDbTextStyleTableRecord
  2
STANDARD
 70
     0
 40
0.0
 41
1.0
 50
0.0
 71
     0
 42
5.0
  3
txt
  4

  0
ENDTAB
  0
TABLE
  2
VIEW
  5
C5F9
330
0
100
AcDbSymbolTable
 70
     0
  0
ENDTAB
  0
TABLE
  2
UCS
  5
C5FA
330
0
100
AcDbSymbolTable
 70
     0
  0
ENDTAB
  0
TABLE
  2
APPID
  5
C5FC
330
0
100
AcDbSymbolTable
 70
     3
  0
APPID
  5
C605
330
C5FC
100
AcDbSymbolTableRecord
100
AcDbRegAppTableRecord
  2
ACAD
 70
     0
  0
APPID
  5
CA4E
330
C5FC
100
AcDbSymbolTableRecord
100
AcDbRegAppTableRecord
  2
ACAD_NAV_VCDISPLAY
 70
     0
  0
APPID
  5
CA87
330
C5FC
100
AcDbSymbolTableRecord
100
AcDbRegAppTableRecord
  2
ACAD_MLEADERVER
 70
     0
  0
ENDTAB
  0
TABLE
  2
DIMSTYLE
  5
C5FD
330
0
100
AcDbSymbolTable
 70
     1
100
AcDbDimStyleTable
 71
     0
  0
DIMSTYLE
105
C621
330
C5FD
100
AcDbSymbolTableRecord
100
AcDbDimStyleTableRecord
  2
STANDARD
 70
     0
 41
3.0
 42
1.0
 43
10.0
 44
1.0
 73
     0
 74
     0
 77
     3
 78
     8
140
2.5
141
0.0
147
1.0
172
     1
173
     1
284
     8
285
     8
286
     8
340
C604
  0
ENDTAB
  0
TABLE
  2
BLOCK_RECORD
  5
C5F4
330
0
100
AcDbSymbolTable
 70
     1
  0
BLOCK_RECORD
  5
C611
102
{ACAD_XDICTIONARY
360
C9DC
102
}
330
C5F4
100
AcDbSymbolTableRecord
100
AcDbBlockTableRecord
  2
*MODEL_SPACE
340
CA30
  0
BLOCK_RECORD
  5
C60D
102
{ACAD_XDICTIONARY
360
C9DA
102
}
330
C5F4
100
AcDbSymbolTableRecord
100
AcDbBlockTableRecord
  2
*PAPER_SPACE
340
CA31
  0
BLOCK_RECORD
  5
C629
330
C5F4
100
AcDbSymbolTableRecord
100
AcDbBlockTableRecord
  2
_OPEN
340
0
  0
ENDTAB
  0
ENDSEC
  0
SECTION
  2
BLOCKS
  0
BLOCK
  5
C612
330
C611
100
AcDbEntity
  8
0
100
AcDbBlockBegin
  2
*MODEL_SPACE
 70
     0
 10
0.0
 20
0.0
 30
0.0
  3
*MODEL_SPACE
  1

  0
ENDBLK
  5
C613
330
C611
100
AcDbEntity
  8
0
100
AcDbBlockEnd
  0
BLOCK
  5
C60E
330
C60D
100
AcDbEntity
 67
     1
  8
0
100
AcDbBlockBegin
  2
*PAPER_SPACE
 70
     0
 10
0.0
 20
0.0
 30
0.0
  3
*PAPER_SPACE
  1

  0
ENDBLK
  5
C60F
330
C60D
100
AcDbEntity
 67
     1
  8
0
100
AcDbBlockEnd
  0
BLOCK
  5
C62A
330
C629
100
AcDbEntity
  8
0
100
AcDbBlockBegin
  2
_OPEN
 70
     0
 10
0.0
 20
0.0
 30
0.0
  3
_OPEN
  1

  0
LINE
  5
C62B
330
C629
100
AcDbEntity
  8
0
  6
ByBlock
 62
     0
100
AcDbLine
 10
-1.0
 20
0.166667
 30
0.0
 11
0.0
 21
0.0
 31
0.0
  0
LINE
  5
C62C
330
C629
100
AcDbEntity
  8
0
  6
ByBlock
 62
     0
100
AcDbLine
 10
0.0
 20
0.0
 30
0.0
 11
-1.0
 21
-0.166667
 31
0.0
  0
LINE
  5
C62D
330
C629
100
AcDbEntity
  8
0
  6
ByBlock
 62
     0
100
AcDbLine
 10
0.0
 20
0.0
 30
0.0
 11
-1.0
 21
0.0
 31
0.0
  0
ENDBLK
  5
C62E
330
C629
100
AcDbEntity
  8
0
100
AcDbBlockEnd
  0
ENDSEC
  0
SECTION
  2
ENTITIES
  0
TEXT
  5
C62F
330
C611
100
AcDbEntity
  8
7
  6
Continuous
100
AcDbText
 10
10.0
 20
18.0
 30
0.0
 40
3.0
  1
TYPE No.102HB2A.F-PA
100
AcDbText
  0
TEXT
  5
C630
330
C611
100
AcDbEntity
  8
7
  6
Continuous
100
AcDbText
 10
10.0
 20
26.0
 30
0.0
 40
3.0
  1
CODE No.19090
100
AcDbText
  0
TEXT
  5
C631
330
C611
100
AcDbEntity
  8
1
  6
Continuous
100
AcDbText
 10
10.0
 20
10.0
 30
0.0
 40
1.399999999999999
  1
LAYER
100
AcDbText
  0
TEXT
  5
C632
330
C611
100
AcDbEntity
  8
1
  6
Continuous
100
AcDbText
 10
17.97951099999998
 20
10.04873699999998
 30
0.0
 40
1.399999999999999
  1
1
100
AcDbText
  0
TEXT
  5
C633
330
C611
100
AcDbEntity
  8
7
  6
Continuous
100
AcDbText
 10
29.97951099999999
 20
10.04873699999998
 30
0.0
 40
1.399999999999999
  1
7
100
AcDbText
  0
TEXT
  5
C634
330
C611
100
AcDbEntity
  8
4
  6
CENTER
100
AcDbText
 10
23.97951099999999
 20
10.04873699999998
 30
0.0
 40
1.399999999999999
  1
4
100
AcDbText
  0
TEXT
  5
C635
330
C611
100
AcDbEntity
  8
3
  6
DASHED
100
AcDbText
 10
21.979511
 20
10.04873699999998
 30
0.0
 40
1.399999999999999
  1
3
100
AcDbText
  0
TEXT
  5
C636
330
C611
100
AcDbEntity
  8
2
  6
Continuous
100
AcDbText
 10
19.97951099999999
 20
10.04873699999998
 30
0.0
 40
1.399999999999999
  1
2
100
AcDbText
  0
TEXT
  5
C637
330
C611
100
AcDbEntity
  8
6
  6
Continuous
100
AcDbText
 10
27.979511
 20
10.04873699999998
 30
0.0
 40
1.399999999999999
  1
6
100
AcDbText
  0
TEXT
  5
C638
330
C611
100
AcDbEntity
  8
5
  6
PHANTOM
100
AcDbText
 10
25.97951099999999
 20
10.04873699999998
 30
0.0
 40
1.399999999999999
  1
5
100
AcDbText
  0
LINE
  5
C639
330
C611
100
AcDbEntity
  8
1
  6
Continuous
100
AcDbLine
 10
165.9999709999999
 20
398.6000559999998
 30
0.0
 11
165.9999709999999
 21
323.6000559999999
 31
0.0
  0
LINE
  5
C63A
330
C611
100
AcDbEntity
  8
1
  6
Continuous
100
AcDbLine
 10
249.499971
 20
407.1000559999998
 30
0.0
 11
174.4999709999999
 21
407.1000559999998
 31
0.0
  0
LINE
  5
C63B
330
C611
100
AcDbEntity
  8
1
  6
Continuous
100
AcDbLine
 10
249.499971
 20
315.1000559999999
 30
0.0
 11
174.4999709999999
 21
315.1000559999999
 31
0.0
  0
ARC
  5
C63C
330
C611
100
AcDbEntity
  8
1
  6
Continuous
100
AcDbCircle
 10
249.499971
 20
323.6000559999999
 30
0.0
 40
8.5
100
AcDbArc
 50
270.0
 51
0.0
  0
ARC
  5
C63D
330
C611
100
AcDbEntity
  8
1
  6
Continuous
100
AcDbCircle
 10
174.4999709999999
 20
323.6000559999999
 30
0.0
 40
8.5
100
AcDbArc
 50
180.0
 51
270.0
  0
ARC
  5
C63E
330
C611
100
AcDbEntity
  8
1
  6
Continuous
100
AcDbCircle
 10
174.4999709999999
 20
398.6000559999998
 30
0.0
 40
8.5
100
AcDbArc
 50
90.0
 51
180.0
  0
ARC
  5
C63F
330
C611
100
AcDbEntity
  8
1
  6
Continuous
100
AcDbCircle
 10
249.499971
 20
398.6000559999998
 30
0.0
 40
8.5
100
AcDbArc
 50
0.0
 51
90.0
  0
CIRCLE
  5
C640
330
C611
100
AcDbEntity
  8
1
  6
Continuous
100
AcDbCircle
 10
249.499971
 20
398.6000559999998
 30
0.0
 40
4.25
  0
CIRCLE
  5
C641
330
C611
100
AcDbEntity
  8
1
  6
Continuous
100
AcDbCircle
 10
249.499971
 20
323.6000559999999
 30
0.0
 40
4.25
  0
CIRCLE
  5
C642
330
C611
100
AcDbEntity
  8
1
  6
Continuous
100
AcDbCircle
 10
174.4999709999999
 20
323.6000559999999
 30
0.0
 40
4.25
  0
CIRCLE
  5
C643
330
C611
100
AcDbEntity
  8
1
  6
Continuous
100
AcDbCircle
 10
174.4999709999999
 20
398.6000559999998
 30
0.0
 40
4.25
  0
LINE
  5
C644
330
C611
100
AcDbEntity
  8
1
  6
Continuous
100
AcDbLine
 10
257.999971
 20
323.6000559999999
 30
0.0
 11
257.999971
 21
398.6000559999998
 31
0.0
  0
CIRCLE
  5
C645
330
C611
100
AcDbEntity
  8
1
  6
Continuous
100
AcDbCircle
 10
211.999971
 20
361.1000559999998
 30
0.0
 40
8.849999999999997
  0
ARC
  5
C646
330
C611
100
AcDbEntity
  8
1
  6
Continuous
100
AcDbCircle
 10
241.9999379999999
 20
361.1000559999998
 30
0.0
 40
20.0
100
AcDbArc
 50
323.130261
 51
36.869739
  0
ARC
  5
C647
330
C611
100
AcDbEntity
  8
1
  6
Continuous
100
AcDbCircle
 10
228.455422
 20
243.0773149999999
 30
0.0
 40
2.15138
100
AcDbArc
 50
47.19977599999999
 51
90.0
  0
ARC
  5
C648
330
C611
100
AcDbEntity
  8
1
  6
Continuous
100
AcDbCircle
 10
229.8976509999999
 20
219.655841
 30
0.0
 40
10.0
100
AcDbArc
 50
90.0
 51
134.75885
  0
LINE
  5
C649
330
C611
100
AcDbEntity
  8
1
  6
Continuous
100
AcDbLine
 10
251.4999379999999
 20
244.655841
 30
0.0
 11
229.9171649999999
 21
244.655841
 31
0.0
  0
LINE
  5
C64A
330
C611
100
AcDbEntity
  8
1
  6
Continuous
100
AcDbLine
 10
254.7999379999999
 20
229.655841
 30
0.0
 11
229.8976509999999
 21
229.655841
 31
0.0
  0
ARC
  5
C64B
330
C611
100
AcDbEntity
  8
1
  6
Continuous
100
AcDbCircle
 10
194.8602699999999
 20
243.2286949999999
 30
0.0
 40
2.0
100
AcDbArc
 50
90.0
 51
131.8341439999999
  0
LINE
  5
C64C
330
C611
100
AcDbEntity
  8
1
  6
Continuous
100
AcDbLine
 10
222.856407
 20
226.7566069999999
 30
0.0
 11
201.4494639999998
 21
205.5291079999999
 31
0.0
  0
LINE
  5
C64D
330
C611
100
AcDbEntity
  8
1
  6
Continuous
100
AcDbLine
 10
181.740226
 20
209.9005529999999
 30
0.0
 11
173.822564
 21
231.3854099999999
 31
0.0
  0
ARC
  5
C64E
330
C611
100
AcDbEntity
  8
1
  6
Continuous
100
AcDbCircle
 10
192.9999719999999
 20
214.0500279999999
 30
0.0
 40
12.0
100
AcDbArc
 50
200.2299999999999
 51
314.7588499999999
  0
ARC
  5
C64F
330
C611
100
AcDbEntity
  8
1
  6
Continuous
100
AcDbCircle
 10
201.293494
 20
204.6976229999999
 30
0.0
 40
36.0
100
AcDbArc
 50
137.5955079999999
 51
143.1179989999999
  0
ARC
  5
C650
330
C611
100
AcDbEntity
  8
1
  6
Continuous
100
AcDbCircle
 10
201.293494
 20
204.6976229999999
 30
0.0
 40
38.3
100
AcDbArc
 50
97.888564
 51
143.1179989999999
  0
LINE
  5
C651
330
C611
100
AcDbEntity
  8
1
  6
Continuous
100
AcDbLine
 10
170.6583489999998
 20
227.6840949999999
 30
0.0
 11
172.4980579999999
 21
226.303706
 31
0.0
  0
ARC
  5
C652
330
C611
100
AcDbEntity
  8
1
  6
Continuous
100
AcDbCircle
 10
251.4999379999999
 20
241.355841
 30
0.0
 40
3.299999999999998
100
AcDbArc
 50
0.0
 51
90.0
  0
LINE
  5
C653
330
C611
100
AcDbEntity
  8
1
  6
Continuous
100
AcDbLine
 10
254.7999379999999
 20
229.655841
 30
0.0
 11
254.7999379999999
 21
241.355841
 31
0.0
  0
CIRCLE
  5
C654
330
C611
100
AcDbEntity
  8
1
  6
Continuous
100
AcDbCircle
 10
211.999971
 20
361.1000559999998
 30
0.0
 40
17.5
  0
CIRCLE
  5
C655
330
C611
100
AcDbEntity
  8
1
  6
Continuous
100
AcDbCircle
 10
211.999971
 20
361.1000559999998
 30
0.0
 40
18.85
  0
ARC
  5
C656
330
C611
100
AcDbEntity
  8
1
  6
Continuous
100
AcDbCircle
 10
193.9999719999999
 20
214.0500279999999
 30
0.0
 40
20.0
100
AcDbArc
 50
150.539453
 51
10.370877
  0
ARC
  5
C657
330
C611
100
AcDbEntity
  8
1
  6
Continuous
100
AcDbCircle
 10
194.0687409999999
 20
253.3452609999999
 30
0.0
 40
3.610794999999998
100
AcDbArc
 50
216.7321109999999
 51
270.0
  0
ARC
  5
C658
330
C611
100
AcDbEntity
  8
1
  6
Continuous
100
AcDbCircle
 10
199.9117449999999
 20
250.3112049999999
 30
0.0
 40
6.407901999999999
100
AcDbArc
 50
192.8787169999999
 51
205.64444
  0
ARC
  5
C659
330
C611
100
AcDbEntity
  8
1
  6
Continuous
100
AcDbCircle
 10
198.42738
 20
246.2284609999999
 30
0.0
 40
4.640519999999998
100
AcDbArc
 50
130.929183
 51
132.6433189999999
  0
ARC
  5
C65A
330
C611
100
AcDbEntity
  8
1
  6
Continuous
100
AcDbCircle
 10
194.4543009999999
 20
248.6059229999999
 30
0.0
 40
0.8364709999999998
100
AcDbArc
 50
102.3749159999999
 51
160.6585409999999
  0
LINE
  5
C65B
330
C611
100
AcDbEntity
  8
1
  6
Continuous
100
AcDbLine
 10
194.275039
 20
249.42296
 30
0.0
 11
195.140039
 21
249.44796
 31
0.0
  0
LINE
  5
C65C
330
C611
100
AcDbEntity
  8
1
  6
Continuous
100
AcDbLine
 10
195.140039
 20
249.44796
 30
0.0
 11
195.283742
 21
249.6419589999999
 31
0.0
  0
LINE
  5
C65D
330
C611
100
AcDbEntity
  8
1
  6
Continuous
100
AcDbLine
 10
230.999971
 20
247.53796
 30
0.0
 11
192.9999709999999
 21
247.53796
 31
0.0
  0
LINE
  5
C65E
330
C611
100
AcDbEntity
  8
1
  6
Continuous
100
AcDbLine
 10
166.0
 20
254.049999
 30
0.0
 11
166.0
 21
251.750022
 31
0.0
  0
LINE
  5
C65F
330
C611
100
AcDbEntity
  8
1
  6
Continuous
100
AcDbLine
 10
166.0
 20
254.050022
 30
0.0
 11
257.9999419999999
 21
254.050022
 31
0.0
  0
LINE
  5
C660
330
C611
100
AcDbEntity
  8
1
  6
Continuous
100
AcDbLine
 10
166.0
 20
251.750022
 30
0.0
 11
257.9999419999999
 21
251.750022
 31
0.0
  0
LINE
  5
C661
330
C611
100
AcDbEntity
  8
1
  6
Continuous
100
AcDbLine
 10
191.174904
 20
251.1857369999999
 30
0.0
 11
191.174904
 21
251.364394
 31
0.0
  0
LINE
  5
C662
330
C611
100
AcDbEntity
  8
1
  6
Continuous
100
AcDbLine
 10
230.999971
 20
245.2286949999999
 30
0.0
 11
192.9999709999999
 21
245.2286949999999
 31
0.0
  0
LINE
  5
C663
330
C611
100
AcDbEntity
  8
1
  6
Continuous
100
AcDbLine
 10
195.140039
 20
249.44796
 30
0.0
 11
228.8599029999998
 21
249.44796
 31
0.0
  0
LINE
  5
C664
330
C611
100
AcDbEntity
  8
1
  6
Continuous
100
AcDbLine
 10
194.0687409999999
 20
249.734466
 30
0.0
 11
229.9312
 21
249.734466
 31
0.0
  0
LINE
  5
C665
330
C611
100
AcDbEntity
  8
1
  6
Continuous
100
AcDbLine
 10
191.174904
 20
251.1857369999999
 30
0.0
 11
232.8250379999999
 21
251.1857369999999
 31
0.0
  0
LINE
  5
C666
330
C611
100
AcDbEntity
  8
1
  6
Continuous
100
AcDbLine
 10
192.9999709999999
 20
247.53796
 30
0.0
 11
192.9999709999999
 21
245.2286949999999
 31
0.0
  0
LINE
  5
C667
330
C611
100
AcDbEntity
  8
1
  6
Continuous
100
AcDbLine
 10
254.8585339999999
 20
251.364394
 30
0.0
 11
169.141408
 21
251.364394
 31
0.0
  0
ARC
  5
C668
330
C611
100
AcDbEntity
  8
1
  6
Continuous
100
AcDbCircle
 10
203.732142
 20
233.317938
 30
0.0
 40
15.301624
100
AcDbArc
 50
131.8341439999999
 51
147.4987869999999
  0
ARC
  5
C669
330
C611
100
AcDbEntity
  8
1
  6
Continuous
100
AcDbCircle
 10
229.9312
 20
253.3452609999999
 30
0.0
 40
3.610794999999998
100
AcDbArc
 50
270.0
 51
323.267889
  0
ARC
  5
C66A
330
C611
100
AcDbEntity
  8
1
  6
Continuous
100
AcDbCircle
 10
224.088197
 20
250.3112049999999
 30
0.0
 40
6.407901999999999
100
AcDbArc
 50
334.3555600000001
 51
347.121283
  0
ARC
  5
C66B
330
C611
100
AcDbEntity
  8
1
  6
Continuous
100
AcDbCircle
 10
225.572562
 20
246.2284609999999
 30
0.0
 40
4.640519999999998
100
AcDbArc
 50
47.356681
 51
49.07081699999999
  0
ARC
  5
C66C
330
C611
100
AcDbEntity
  8
1
  6
Continuous
100
AcDbCircle
 10
229.5456399999999
 20
248.6059229999999
 30
0.0
 40
0.8364709999999998
100
AcDbArc
 50
19.341459
 51
77.625084
  0
LINE
  5
C66D
330
C611
100
AcDbEntity
  8
1
  6
Continuous
100
AcDbLine
 10
229.7249029999999
 20
249.42296
 30
0.0
 11
228.8599029999998
 21
249.44796
 31
0.0
  0
LINE
  5
C66E
330
C611
100
AcDbEntity
  8
1
  6
Continuous
100
AcDbLine
 10
228.8599029999998
 20
249.44796
 30
0.0
 11
228.7161999999999
 21
249.6419589999999
 31
0.0
  0
LINE
  5
C66F
330
C611
100
AcDbEntity
  8
1
  6
Continuous
100
AcDbLine
 10
257.9999419999999
 20
254.050022
 30
0.0
 11
257.9999419999999
 21
251.750022
 31
0.0
  0
LINE
  5
C670
330
C611
100
AcDbEntity
  8
1
  6
Continuous
100
AcDbLine
 10
232.8250379999999
 20
251.1857369999999
 30
0.0
 11
232.8250379999999
 21
251.364394
 31
0.0
  0
LINE
  5
C671
330
C611
100
AcDbEntity
  8
1
  6
Continuous
100
AcDbLine
 10
230.999971
 20
247.53796
 30
0.0
 11
230.999971
 21
245.2286949999999
 31
0.0
  0
ARC
  5
C672
330
C611
100
AcDbEntity
  8
1
  6
Continuous
100
AcDbCircle
 10
88.93120000000001
 20
253.3452609999999
 30
0.0
 40
3.610794999999998
100
AcDbArc
 50
270.0
 51
323.267889
  0
ARC
  5
C673
330
C611
100
AcDbEntity
  8
1
  6
Continuous
100
AcDbCircle
 10
83.08819699999999
 20
250.3112049999999
 30
0.0
 40
6.407901999999999
100
AcDbArc
 50
334.3555600000001
 51
347.121283
  0
ARC
  5
C674
330
C611
100
AcDbEntity
  8
1
  6
Continuous
100
AcDbCircle
 10
84.57256200000001
 20
246.2284609999999
 30
0.0
 40
4.640519999999998
100
AcDbArc
 50
47.356681
 51
49.07081699999999
  0
ARC
  5
C675
330
C611
100
AcDbEntity
  8
1
  6
Continuous
100
AcDbCircle
 10
88.54564000000001
 20
248.6059229999999
 30
0.0
 40
0.8364709999999998
100
AcDbArc
 50
19.341459
 51
77.625084
  0
LINE
  5
C676
330
C611
100
AcDbEntity
  8
1
  6
Continuous
100
AcDbLine
 10
88.724903
 20
249.42296
 30
0.0
 11
87.85990299999998
 21
249.44796
 31
0.0
  0
LINE
  5
C677
330
C611
100
AcDbEntity
  8
1
  6
Continuous
100
AcDbLine
 10
87.85990299999998
 20
249.44796
 30
0.0
 11
87.7162
 21
249.6419589999999
 31
0.0
  0
ARC
  5
C678
330
C611
100
AcDbEntity
  8
1
  6
Continuous
100
AcDbCircle
 10
53.068741
 20
253.3452609999999
 30
0.0
 40
3.610794999999998
100
AcDbArc
 50
216.7321109999999
 51
270.0
  0
ARC
  5
C679
330
C611
100
AcDbEntity
  8
1
  6
Continuous
100
AcDbCircle
 10
58.91174499999999
 20
250.3112049999999
 30
0.0
 40
6.407901999999999
100
AcDbArc
 50
192.8787169999999
 51
205.64444
  0
ARC
  5
C67A
330
C611
100
AcDbEntity
  8
1
  6
Continuous
100
AcDbCircle
 10
57.42738000000001
 20
246.2284609999999
 30
0.0
 40
4.640519999999998
100
AcDbArc
 50
130.929183
 51
132.6433189999999
  0
ARC
  5
C67B
330
C611
100
AcDbEntity
  8
1
  6
Continuous
100
AcDbCircle
 10
53.454301
 20
248.6059229999999
 30
0.0
 40
0.8364709999999998
100
AcDbArc
 50
102.3749159999999
 51
160.6585409999999
  0
LINE
  5
C67C
330
C611
100
AcDbEntity
  8
1
  6
Continuous
100
AcDbLine
 10
53.27503899999999
 20
249.42296
 30
0.0
 11
54.140039
 21
249.44796
 31
0.0
  0
LINE
  5
C67D
330
C611
100
AcDbEntity
  8
1
  6
Continuous
100
AcDbLine
 10
54.140039
 20
249.44796
 30
0.0
 11
54.283742
 21
249.6419589999999
 31
0.0
  0
LINE
  5
C67E
330
C611
100
AcDbEntity
  8
1
  6
Continuous
100
AcDbLine
 10
89.99997099999999
 20
247.53796
 30
0.0
 11
51.999971
 21
247.53796
 31
0.0
  0
LINE
  5
C67F
330
C611
100
AcDbEntity
  8
1
  6
Continuous
100
AcDbLine
 10
91.825038
 20
251.1857369999999
 30
0.0
 11
91.825038
 21
251.364394
 31
0.0
  0
LINE
  5
C680
330
C611
100
AcDbEntity
  8
1
  6
Continuous
100
AcDbLine
 10
50.17490399999999
 20
251.1857369999999
 30
0.0
 11
50.17490399999999
 21
251.364394
 31
0.0
  0
LINE
  5
C681
330
C611
100
AcDbEntity
  8
1
  6
Continuous
100
AcDbLine
 10
51.86027
 20
243.2286949999999
 30
0.0
 11
51.86027
 21
221.0500279999999
 31
0.0
  0
LINE
  5
C682
330
C611
100
AcDbEntity
  8
1
  6
Continuous
100
AcDbLine
 10
89.99997099999999
 20
245.2286949999999
 30
0.0
 11
51.999971
 21
245.2286949999999
 31
0.0
  0
ARC
  5
C683
330
C611
100
AcDbEntity
  8
1
  6
Continuous
100
AcDbCircle
 10
53.86026999999999
 20
243.2286949999999
 30
0.0
 40
2.0
100
AcDbArc
 50
90.0
 51
180.0
  0
LINE
  5
C684
330
C611
100
AcDbEntity
  8
1
  6
Continuous
100
AcDbLine
 10
90.13967200000001
 20
243.2286949999999
 30
0.0
 11
90.13967200000001
 21
221.5500279999999
 31
0.0
  0
ARC
  5
C685
330
C611
100
AcDbEntity
  8
1
  6
Continuous
100
AcDbCircle
 10
88.13967199999996
 20
243.2286949999999
 30
0.0
 40
2.0
100
AcDbArc
 50
0.0
 51
90.0
  0
LINE
  5
C686
330
C611
100
AcDbEntity
  8
1
  6
Continuous
100
AcDbLine
 10
86.499971
 20
228.31401
 30
0.0
 11
86.499971
 21
202.0500279999999
 31
0.0
  0
ARC
  5
C687
330
C611
100
AcDbEntity
  8
1
  6
Continuous
100
AcDbCircle
 10
55.80072499999999
 20
217.3127159999999
 30
0.0
 40
30.0
100
AcDbArc
 50
8.119820999999998
 51
18.57392699999999
  0
ARC
  5
C688
330
C611
100
AcDbEntity
  8
1
  6
Continuous
100
AcDbCircle
 10
85.499971
 20
220.5500279999998
 30
0.0
 40
1.0
100
AcDbArc
 50
0.0
 51
90.0
  0
LINE
  5
C689
330
C611
100
AcDbEntity
  8
1
  6
Continuous
100
AcDbLine
 10
83.49997100000001
 20
228.3660629999999
 30
0.0
 11
83.49997100000001
 21
198.050028
 31
0.0
  0
ARC
  5
C68A
330
C611
100
AcDbEntity
  8
1
  6
Continuous
100
AcDbCircle
 10
55.80072499999999
 20
210.7873389999999
 30
0.0
 40
30.0
100
AcDbArc
 50
341.4260729999999
 51
351.8801789999998
  0
ARC
  5
C68B
330
C611
100
AcDbEntity
  8
1
  6
Continuous
100
AcDbCircle
 10
83.290216
 20
201.5500279999999
 30
0.0
 40
1.0
100
AcDbArc
 50
282.1080149999999
 51
341.4260729999999
  0
ARC
  5
C68C
330
C611
100
AcDbEntity
  8
1
  6
Continuous
100
AcDbCircle
 10
85.499971
 20
207.5500279999999
 30
0.0
 40
1.0
100
AcDbArc
 50
270.0
 51
0.0
  0
LINE
  5
C68D
330
C611
100
AcDbEntity
  8
1
  6
Continuous
100
AcDbLine
 10
58.49997099999999
 20
228.3660629999999
 30
0.0
 11
58.49997099999999
 21
198.050028
 31
0.0
  0
ARC
  5
C68E
330
C611
100
AcDbEntity
  8
1
  6
Continuous
100
AcDbCircle
 10
86.199217
 20
210.7873389999999
 30
0.0
 40
30.0
100
AcDbArc
 50
188.1198209999999
 51
198.573927
  0
ARC
  5
C68F
330
C611
100
AcDbEntity
  8
1
  6
Continuous
100
AcDbCircle
 10
58.709726
 20
201.5500279999999
 30
0.0
 40
1.0
100
AcDbArc
 50
198.573927
 51
257.8919849999999
  0
ARC
  5
C690
330
C611
100
AcDbEntity
  8
1
  6
Continuous
100
AcDbCircle
 10
56.499971
 20
207.5500279999999
 30
0.0
 40
1.0
100
AcDbArc
 50
180.0
 51
270.0
  0
LINE
  5
C691
330
C611
100
AcDbEntity
  8
1
  6
Continuous
100
AcDbLine
 10
55.49997099999998
 20
228.31401
 30
0.0
 11
55.49997099999998
 21
202.0500279999999
 31
0.0
  0
ARC
  5
C692
330
C611
100
AcDbEntity
  8
1
  6
Continuous
100
AcDbCircle
 10
86.199217
 20
217.3127159999999
 30
0.0
 40
30.0
100
AcDbArc
 50
161.4260729999998
 51
171.880179
  0
ARC
  5
C693
330
C611
100
AcDbEntity
  8
1
  6
Continuous
100
AcDbCircle
 10
58.709726
 20
226.5500279999999
 30
0.0
 40
1.0
100
AcDbArc
 50
102.108015
 51
161.4260729999998
  0
ARC
  5
C694
330
C611
100
AcDbEntity
  8
1
  6
Continuous
100
AcDbCircle
 10
56.499971
 20
220.5500279999998
 30
0.0
 40
1.0
100
AcDbArc
 50
90.0
 51
180.0
  0
LINE
  5
C695
330
C611
100
AcDbEntity
  8
1
  6
Continuous
100
AcDbLine
 10
88.799971
 20
202.0500279999999
 30
0.0
 11
86.499971
 21
202.0500279999999
 31
0.0
  0
LINE
  5
C696
330
C611
100
AcDbEntity
  8
1
  6
Continuous
100
AcDbLine
 10
55.49997099999998
 20
202.0500279999999
 30
0.0
 11
53.199971
 21
202.0500279999999
 31
0.0
  0
LINE
  5
C697
330
C611
100
AcDbEntity
  8
1
  6
Continuous
100
AcDbLine
 10
88.799971
 20
242.0500279999999
 30
0.0
 11
53.199971
 21
242.0500279999999
 31
0.0
  0
LINE
  5
C698
330
C611
100
AcDbEntity
  8
1
  6
Continuous
100
AcDbLine
 10
54.140039
 20
249.44796
 30
0.0
 11
87.85990299999998
 21
249.44796
 31
0.0
  0
LINE
  5
C699
330
C611
100
AcDbEntity
  8
1
  6
Continuous
100
AcDbLine
 10
53.068741
 20
249.734466
 30
0.0
 11
88.93120000000001
 21
249.734466
 31
0.0
  0
LINE
  5
C69A
330
C611
100
AcDbEntity
  8
1
  6
Continuous
100
AcDbLine
 10
91.825038
 20
251.1857369999999
 30
0.0
 11
70.999971
 21
251.1857369999999
 31
0.0
  0
LINE
  5
C69B
330
C611
100
AcDbEntity
  8
1
  6
Continuous
100
AcDbLine
 10
50.17490399999999
 20
251.1857369999999
 30
0.0
 11
70.999971
 21
251.1857369999999
 31
0.0
  0
LINE
  5
C69C
330
C611
100
AcDbEntity
  8
1
  6
Continuous
100
AcDbLine
 10
89.99997099999999
 20
247.53796
 30
0.0
 11
89.99997099999999
 21
245.2286949999999
 31
0.0
  0
LINE
  5
C69D
330
C611
100
AcDbEntity
  8
1
  6
Continuous
100
AcDbLine
 10
51.999971
 20
247.53796
 30
0.0
 11
51.999971
 21
245.2286949999999
 31
0.0
  0
LINE
  5
C69E
330
C611
100
AcDbEntity
  8
1
  6
Continuous
100
AcDbLine
 10
85.499971
 20
221.5500279999999
 30
0.0
 11
85.499971
 21
206.550028
 31
0.0
  0
LINE
  5
C69F
330
C611
100
AcDbEntity
  8
1
  6
Continuous
100
AcDbLine
 10
56.499971
 20
221.5500279999999
 30
0.0
 11
56.499971
 21
206.550028
 31
0.0
  0
ARC
  5
C6A0
330
C611
100
AcDbEntity
  8
1
  6
Continuous
100
AcDbCircle
 10
83.290216
 20
226.5500279999999
 30
0.0
 40
1.0
100
AcDbArc
 50
18.57392699999999
 51
77.89198499999997
  0
LINE
  5
C6A1
330
C611
100
AcDbEntity
  8
1
  6
Continuous
100
AcDbLine
 10
90.79997099999998
 20
206.550028
 30
0.0
 11
90.79997099999998
 21
221.5500279999999
 31
0.0
  0
LINE
  5
C6A2
330
C611
100
AcDbEntity
  8
1
  6
Continuous
100
AcDbLine
 10
88.799971
 20
206.550028
 30
0.0
 11
90.79997099999998
 21
206.550028
 31
0.0
  0
LINE
  5
C6A3
330
C611
100
AcDbEntity
  8
1
  6
Continuous
100
AcDbLine
 10
88.799971
 20
221.5500279999999
 30
0.0
 11
90.79997099999998
 21
221.5500279999999
 31
0.0
  0
LINE
  5
C6A4
330
C611
100
AcDbEntity
  8
1
  6
Continuous
100
AcDbLine
 10
97.69997100000001
 20
214.0500279999999
 30
0.0
 11
97.69997100000001
 21
217.4500279999998
 31
0.0
  0
LINE
  5
C6A5
330
C611
100
AcDbEntity
  8
1
  6
Continuous
100
AcDbLine
 10
95.79997099999998
 20
218.0500279999999
 30
0.0
 11
97.099971
 21
218.0500279999999
 31
0.0
  0
LINE
  5
C6A6
330
C611
100
AcDbEntity
  8
1
  6
Continuous
100
AcDbLine
 10
50.873733
 20
207.050028
 30
0.0
 11
53.199971
 21
207.050028
 31
0.0
  0
LINE
  5
C6A7
330
C611
100
AcDbEntity
  8
1
  6
Continuous
100
AcDbLine
 10
50.873733
 20
221.0500279999999
 30
0.0
 11
53.199971
 21
221.0500279999999
 31
0.0
  0
ARC
  5
C6A8
330
C611
100
AcDbEntity
  8
1
  6
Continuous
100
AcDbCircle
 10
58.69997099999999
 20
214.0500279999999
 30
0.0
 40
10.5
100
AcDbArc
 50
138.1896849999999
 51
221.810315
  0
LINE
  5
C6A9
330
C611
100
AcDbEntity
  8
1
  6
Continuous
100
AcDbLine
 10
50.873733
 20
207.050028
 30
0.0
 11
50.873733
 21
221.0500279999999
 31
0.0
  0
LINE
  5
C6AA
330
C611
100
AcDbEntity
  8
1
  6
Continuous
100
AcDbLine
 10
88.799971
 20
239.750028
 30
0.0
 11
88.799971
 21
202.0500279999999
 31
0.0
  0
LINE
  5
C6AB
330
C611
100
AcDbEntity
  8
1
  6
Continuous
100
AcDbLine
 10
53.199971
 20
202.0500279999999
 30
0.0
 11
53.199971
 21
239.750028
 31
0.0
  0
ARC
  5
C6AC
330
C611
100
AcDbEntity
  8
1
  6
Continuous
100
AcDbCircle
 10
70.999971
 20
291.1494599999999
 30
0.0
 40
62.388927
100
AcDbArc
 50
256.13658
 51
283.86342
  0
ARC
  5
C6AD
330
C611
100
AcDbEntity
  8
1
  6
Continuous
100
AcDbCircle
 10
70.999971
 20
303.6790419999999
 30
0.0
 40
76.34326999999998
100
AcDbArc
 50
258.7434449999999
 51
281.256555
  0
ARC
  5
C6AE
330
C611
100
AcDbEntity
  8
1
  6
Continuous
100
AcDbCircle
 10
86.499971
 20
239.750028
 30
0.0
 40
2.299999999999998
100
AcDbArc
 50
0.0
 51
90.0
  0
ARC
  5
C6AF
330
C611
100
AcDbEntity
  8
1
  6
Continuous
100
AcDbCircle
 10
55.49997099999998
 20
239.750028
 30
0.0
 40
2.299999999999998
100
AcDbArc
 50
90.0
 51
180.0
  0
ARC
  5
C6B0
330
C611
100
AcDbEntity
  8
1
  6
Continuous
100
AcDbCircle
 10
86.499971
 20
228.344944
 30
0.0
 40
2.299999999999998
100
AcDbArc
 50
0.0
 51
103.8634199999999
  0
ARC
  5
C6B1
330
C611
100
AcDbEntity
  8
1
  6
Continuous
100
AcDbCircle
 10
55.49997099999998
 20
228.344944
 30
0.0
 40
2.299999999999998
100
AcDbArc
 50
76.13657999999998
 51
180.0
  0
ARC
  5
C6B2
330
C611
100
AcDbEntity
  8
1
  6
Continuous
100
AcDbCircle
 10
85.99997100000001
 20
228.31401
 30
0.0
 40
0.5
100
AcDbArc
 50
0.0
 51
101.256555
  0
ARC
  5
C6B3
330
C611
100
AcDbEntity
  8
1
  6
Continuous
100
AcDbCircle
 10
55.99997099999999
 20
228.31401
 30
0.0
 40
0.5
100
AcDbArc
 50
78.74344499999998
 51
180.0
  0
ARC
  5
C6B4
330
C611
100
AcDbEntity
  8
1
  6
Continuous
100
AcDbCircle
 10
70.999971
 20
294.050028
 30
0.0
 40
100.0
100
AcDbArc
 50
264.3552869999999
 51
275.6447129999999
  0
LINE
  5
C6B5
330
C611
100
AcDbEntity
  8
1
  6
Continuous
100
AcDbLine
 10
52.59997099999999
 20
197.0500279999999
 30
0.0
 11
52.59997099999999
 21
196.0500279999999
 31
0.0
  0
LINE
  5
C6B6
330
C611
100
AcDbEntity
  8
1
  6
Continuous
100
AcDbLine
 10
89.39997099999997
 20
197.0500279999999
 30
0.0
 11
89.39997099999997
 21
196.0500279999999
 31
0.0
  0
LINE
  5
C6B7
330
C611
100
AcDbEntity
  8
1
  6
Continuous
100
AcDbLine
 10
90.99997100000001
 20
201.050028
 30
0.0
 11
90.99997100000001
 21
197.0500279999999
 31
0.0
  0
LINE
  5
C6B8
330
C611
100
AcDbEntity
  8
1
  6
Continuous
100
AcDbLine
 10
50.999971
 20
201.050028
 30
0.0
 11
50.999971
 21
197.0500279999999
 31
0.0
  0
LINE
  5
C6B9
330
C611
100
AcDbEntity
  8
1
  6
Continuous
100
AcDbLine
 10
87.39997099999998
 20
194.050028
 30
0.0
 11
54.59997099999998
 21
194.050028
 31
0.0
  0
LINE
  5
C6BA
330
C611
100
AcDbEntity
  8
1
  6
Continuous
100
AcDbLine
 10
90.99997100000001
 20
197.0500279999999
 30
0.0
 11
83.057905
 21
197.0500279999999
 31
0.0
  0
ARC
  5
C6BB
330
C611
100
AcDbEntity
  8
1
  6
Continuous
100
AcDbCircle
 10
87.39997099999998
 20
196.0500279999999
 30
0.0
 40
2.0
100
AcDbArc
 50
270.0
 51
0.0
  0
ARC
  5
C6BC
330
C611
100
AcDbEntity
  8
1
  6
Continuous
100
AcDbCircle
 10
54.59997099999998
 20
196.0500279999999
 30
0.0
 40
2.0
100
AcDbArc
 50
180.0
 51
270.0
  0
ARC
  5
C6BD
330
C611
100
AcDbEntity
  8
1
  6
Continuous
100
AcDbCircle
 10
88.999971
 20
201.050028
 30
0.0
 40
2.0
100
AcDbArc
 50
0.0
 51
90.0
  0
ARC
  5
C6BE
330
C611
100
AcDbEntity
  8
1
  6
Continuous
100
AcDbCircle
 10
52.99997099999998
 20
201.050028
 30
0.0
 40
2.0
100
AcDbArc
 50
90.0
 51
180.0
  0
LINE
  5
C6BF
330
C611
100
AcDbEntity
  8
1
  6
Continuous
100
AcDbLine
 10
88.999971
 20
203.050028
 30
0.0
 11
88.799971
 21
203.050028
 31
0.0
  0
LINE
  5
C6C0
330
C611
100
AcDbEntity
  8
1
  6
Continuous
100
AcDbLine
 10
57.214152
 20
203.050028
 30
0.0
 11
55.49997099999998
 21
203.050028
 31
0.0
  0
ARC
  5
C6C1
330
C611
100
AcDbEntity
  8
1
  6
Continuous
100
AcDbCircle
 10
246.249938
 20
228.720852
 30
0.0
 40
6.770832999999998
100
AcDbArc
 50
231.11993
 51
308.8800700000001
  0
ARC
  5
C6C2
330
C611
100
AcDbEntity
  8
1
  6
Continuous
100
AcDbCircle
 10
237.7499379999999
 20
228.720852
 30
0.0
 40
6.770832999999998
100
AcDbArc
 50
231.11993
 51
308.8800700000001
  0
LINE
  5
C6C3
330
C611
100
AcDbEntity
  8
1
  6
Continuous
100
AcDbLine
 10
250.499938
 20
221.950006
 30
0.0
 11
233.4999379999999
 21
221.950006
 31
0.0
  0
LINE
  5
C6C4
330
C611
100
AcDbEntity
  8
1
  6
Continuous
100
AcDbLine
 10
247.9999379999999
 20
221.950006
 30
0.0
 11
247.9999379999999
 21
208.0500279999998
 31
0.0
  0
LINE
  5
C6C5
330
C611
100
AcDbEntity
  8
1
  6
Continuous
100
AcDbLine
 10
235.999938
 20
221.950006
 30
0.0
 11
235.999938
 21
208.0500279999998
 31
0.0
  0
LINE
  5
C6C6
330
C611
100
AcDbEntity
  8
5
  6
PHANTOM
100
AcDbLine
 10
223.5999379999999
 20
209.050028
 30
0.0
 11
223.5999379999999
 21
208.0500279999998
 31
0.0
  0
LINE
  5
C6C7
330
C611
100
AcDbEntity
  8
5
  6
PHANTOM
100
AcDbLine
 10
260.3999379999998
 20
209.050028
 30
0.0
 11
260.3999379999998
 21
208.0500279999998
 31
0.0
  0
LINE
  5
C6C8
330
C611
100
AcDbEntity
  8
5
  6
PHANTOM
100
AcDbLine
 10
261.9999379999998
 20
213.0500279999999
 30
0.0
 11
261.9999379999998
 21
209.050028
 31
0.0
  0
LINE
  5
C6C9
330
C611
100
AcDbEntity
  8
5
  6
PHANTOM
100
AcDbLine
 10
221.9999379999999
 20
213.0500279999999
 30
0.0
 11
221.9999379999999
 21
209.050028
 31
0.0
  0
LINE
  5
C6CA
330
C611
100
AcDbEntity
  8
5
  6
PHANTOM
100
AcDbLine
 10
258.3999379999998
 20
206.0500279999998
 30
0.0
 11
225.5999379999999
 21
206.0500279999998
 31
0.0
  0
LINE
  5
C6CB
330
C611
100
AcDbEntity
  8
5
  6
PHANTOM
100
AcDbLine
 10
261.9999379999998
 20
209.050028
 30
0.0
 11
221.9999379999999
 21
209.050028
 31
0.0
  0
LINE
  5
C6CC
330
C611
100
AcDbEntity
  8
5
  6
PHANTOM
100
AcDbLine
 10
259.9999379999998
 20
215.0500279999999
 30
0.0
 11
223.9999379999999
 21
215.0500279999999
 31
0.0
  0
ARC
  5
C6CD
330
C611
100
AcDbEntity
  8
5
  6
PHANTOM
100
AcDbCircle
 10
258.3999379999998
 20
208.0500279999998
 30
0.0
 40
2.0
100
AcDbArc
 50
270.0
 51
0.0
  0
ARC
  5
C6CE
330
C611
100
AcDbEntity
  8
5
  6
PHANTOM
100
AcDbCircle
 10
225.5999379999999
 20
208.0500279999998
 30
0.0
 40
2.0
100
AcDbArc
 50
180.0
 51
270.0
  0
ARC
  5
C6CF
330
C611
100
AcDbEntity
  8
5
  6
PHANTOM
100
AcDbCircle
 10
259.9999379999998
 20
213.0500279999999
 30
0.0
 40
2.0
100
AcDbArc
 50
0.0
 51
90.0
  0
ARC
  5
C6D0
330
C611
100
AcDbEntity
  8
5
  6
PHANTOM
100
AcDbCircle
 10
223.9999379999999
 20
213.0500279999999
 30
0.0
 40
2.0
100
AcDbArc
 50
90.0
 51
180.0
  0
LINE
  5
C6D1
330
C611
100
AcDbEntity
  8
1
  6
Continuous
100
AcDbLine
 10
250.499938
 20
251.364394
 30
0.0
 11
250.499938
 21
244.655841
 31
0.0
  0
LINE
  5
C6D2
330
C611
100
AcDbEntity
  8
1
  6
Continuous
100
AcDbLine
 10
250.499938
 20
229.655841
 30
0.0
 11
250.499938
 21
221.950006
 31
0.0
  0
LINE
  5
C6D3
330
C611
100
AcDbEntity
  8
1
  6
Continuous
100
AcDbLine
 10
241.9999379999999
 20
229.655841
 30
0.0
 11
241.9999379999999
 21
223.4500189999998
 31
0.0
  0
LINE
  5
C6D4
330
C611
100
AcDbEntity
  8
1
  6
Continuous
100
AcDbLine
 10
233.4999379999999
 20
229.655841
 30
0.0
 11
233.4999379999999
 21
221.950006
 31
0.0
  0
LINE
  5
C6D5
330
C611
100
AcDbEntity
  8
1
  6
Continuous
100
AcDbLine
 10
233.4999379999999
 20
251.364394
 30
0.0
 11
233.4999379999999
 21
244.655841
 31
0.0
  0
LINE
  5
C6D6
330
C611
100
AcDbEntity
  8
1
  6
Continuous
100
AcDbLine
 10
242.7499379999999
 20
247.0143939999999
 30
0.0
 11
242.7499379999999
 21
245.5143939999999
 31
0.0
  0
LINE
  5
C6D7
330
C611
100
AcDbEntity
  8
1
  6
Continuous
100
AcDbLine
 10
241.2499379999999
 20
247.0143939999999
 30
0.0
 11
241.2499379999999
 21
245.5143939999999
 31
0.0
  0
ARC
  5
C6D8
330
C611
100
AcDbEntity
  8
1
  6
Continuous
100
AcDbCircle
 10
241.9999379999999
 20
247.0143939999999
 30
0.0
 40
0.75
100
AcDbArc
 50
0.0
 51
180.0
  0
ARC
  5
C6D9
330
C611
100
AcDbEntity
  8
1
  6
Continuous
100
AcDbCircle
 10
241.9999379999999
 20
245.5143939999999
 30
0.0
 40
0.75
100
AcDbArc
 50
180.0
 51
0.0
  0
ARC
  5
C6DA
330
C611
100
AcDbEntity
  8
1
  6
Continuous
100
AcDbCircle
 10
254.8585339999999
 20
254.704394
 30
0.0
 40
3.339999999999998
100
AcDbArc
 50
270.0
 51
297.804724
  0
ARC
  5
C6DB
330
C611
100
AcDbEntity
  8
1
  6
Continuous
100
AcDbCircle
 10
169.141408
 20
254.704394
 30
0.0
 40
3.339999999999998
100
AcDbArc
 50
242.1952759999999
 51
270.0
  0
LINE
  5
C6DC
330
C611
100
AcDbEntity
  8
1
  6
Continuous
100
AcDbLine
 10
25.0
 20
254.049999
 30
0.0
 11
25.0
 21
251.750022
 31
0.0
  0
LINE
  5
C6DD
330
C611
100
AcDbEntity
  8
1
  6
Continuous
100
AcDbLine
 10
25.0
 20
254.050022
 30
0.0
 11
116.9999419999999
 21
254.050022
 31
0.0
  0
LINE
  5
C6DE
330
C611
100
AcDbEntity
  8
1
  6
Continuous
100
AcDbLine
 10
25.0
 20
251.750022
 30
0.0
 11
116.9999419999999
 21
251.750022
 31
0.0
  0
LINE
  5
C6DF
330
C611
100
AcDbEntity
  8
1
  6
Continuous
100
AcDbLine
 10
113.858534
 20
251.364394
 30
0.0
 11
28.141408
 21
251.364394
 31
0.0
  0
LINE
  5
C6E0
330
C611
100
AcDbEntity
  8
1
  6
Continuous
100
AcDbLine
 10
116.9999419999999
 20
254.050022
 30
0.0
 11
116.9999419999999
 21
251.750022
 31
0.0
  0
ARC
  5
C6E1
330
C611
100
AcDbEntity
  8
1
  6
Continuous
100
AcDbCircle
 10
113.858534
 20
254.704394
 30
0.0
 40
3.339999999999998
100
AcDbArc
 50
270.0
 51
297.804724
  0
ARC
  5
C6E2
330
C611
100
AcDbEntity
  8
1
  6
Continuous
100
AcDbCircle
 10
28.141408
 20
254.704394
 30
0.0
 40
3.339999999999998
100
AcDbArc
 50
242.1952759999999
 51
270.0
  0
ARC
  5
C6E3
330
C611
100
AcDbEntity
  8
1
  6
Continuous
100
AcDbCircle
 10
193.9999719999999
 20
214.0500279999999
 30
0.0
 40
16.0
100
AcDbArc
 50
164.1937069999999
 51
359.8490889999998
  0
ARC
  5
C6E4
330
C611
100
AcDbEntity
  8
1
  6
Continuous
100
AcDbCircle
 10
193.9999719999999
 20
214.0500279999999
 30
0.0
 40
13.5
100
AcDbArc
 50
183.6442279999999
 51
347.9622799999999
  0
ARC
  5
C6E5
330
C611
100
AcDbEntity
  8
1
  6
Continuous
100
AcDbCircle
 10
193.9999719999999
 20
214.0500279999999
 30
0.0
 40
14.0
100
AcDbArc
 50
177.772802
 51
350.969719
  0
LINE
  5
C6E6
330
C611
100
AcDbEntity
  8
1
  6
Continuous
100
AcDbLine
 10
83.49997100000001
 20
198.050028
 30
0.0
 11
82.468439
 21
195.716593
 31
0.0
  0
ARC
  5
C6E7
330
C611
100
AcDbEntity
  8
1
  6
Continuous
100
AcDbCircle
 10
80.639205
 20
196.525235
 30
0.0
 40
2.0
100
AcDbArc
 50
275.6447129999999
 51
336.151409
  0
LINE
  5
C6E8
330
C611
100
AcDbEntity
  8
1
  6
Continuous
100
AcDbLine
 10
58.49997099999999
 20
198.050028
 30
0.0
 11
59.531503
 21
195.716593
 31
0.0
  0
ARC
  5
C6E9
330
C611
100
AcDbEntity
  8
1
  6
Continuous
100
AcDbCircle
 10
61.360737
 20
196.525235
 30
0.0
 40
2.0
100
AcDbArc
 50
203.8485909999999
 51
264.3552869999999
  0
LINE
  5
C6EA
330
C611
100
AcDbEntity
  8
1
  6
Continuous
100
AcDbLine
 10
241.9999379999999
 20
244.655841
 30
0.0
 11
241.9999379999999
 21
244.7643939999999
 31
0.0
  0
LINE
  5
C6EB
330
C611
100
AcDbEntity
  8
1
  6
Continuous
100
AcDbLine
 10
241.9999379999999
 20
247.7643939999999
 30
0.0
 11
241.9999379999999
 21
251.364394
 31
0.0
  0
LINE
  5
C6EC
330
C611
100
AcDbEntity
  8
1
  6
Continuous
100
AcDbLine
 10
97.69997100000001
 20
217.4500279999998
 30
0.0
 11
97.099971
 21
218.0500279999999
 31
0.0
  0
LINE
  5
C6ED
330
C611
100
AcDbEntity
  8
1
  6
Continuous
100
AcDbLine
 10
97.099971
 20
218.0500279999999
 30
0.0
 11
97.099971
 21
214.0500279999999
 31
0.0
  0
LINE
  5
C6EE
330
C611
100
AcDbEntity
  8
1
  6
Continuous
100
AcDbLine
 10
97.69997100000001
 20
214.0500279999999
 30
0.0
 11
97.69997100000001
 21
210.650028
 31
0.0
  0
LINE
  5
C6EF
330
C611
100
AcDbEntity
  8
1
  6
Continuous
100
AcDbLine
 10
95.79997099999998
 20
210.0500279999998
 30
0.0
 11
97.099971
 21
210.0500279999998
 31
0.0
  0
LINE
  5
C6F0
330
C611
100
AcDbEntity
  8
1
  6
Continuous
100
AcDbLine
 10
97.69997100000001
 20
210.650028
 30
0.0
 11
97.099971
 21
210.0500279999998
 31
0.0
  0
LINE
  5
C6F1
330
C611
100
AcDbEntity
  8
1
  6
Continuous
100
AcDbLine
 10
97.099971
 20
210.0500279999998
 30
0.0
 11
97.099971
 21
214.0500279999999
 31
0.0
  0
CIRCLE
  5
C6F2
330
C611
100
AcDbEntity
  8
1
  6
Continuous
100
AcDbCircle
 10
211.999971
 20
361.1000559999998
 30
0.0
 40
42.25
  0
CIRCLE
  5
C6F3
330
C611
100
AcDbEntity
  8
1
  6
Continuous
100
AcDbCircle
 10
211.999971
 20
361.1000559999998
 30
0.0
 40
42.85
  0
LINE
  5
C6F4
330
C611
100
AcDbEntity
  8
1
  6
Continuous
100
AcDbLine
 10
88.84533799999998
 20
247.53796
 30
0.0
 11
89.99997099999999
 21
246.383327
 31
0.0
  0
LINE
  5
C6F5
330
C611
100
AcDbEntity
  8
1
  6
Continuous
100
AcDbLine
 10
87.43112499999998
 20
247.53796
 30
0.0
 11
89.74039000000002
 21
245.2286949999999
 31
0.0
  0
LINE
  5
C6F6
330
C611
100
AcDbEntity
  8
1
  6
Continuous
100
AcDbLine
 10
86.01691099999998
 20
247.53796
 30
0.0
 11
88.326176
 21
245.2286949999999
 31
0.0
  0
LINE
  5
C6F7
330
C611
100
AcDbEntity
  8
1
  6
Continuous
100
AcDbLine
 10
84.602698
 20
247.53796
 30
0.0
 11
86.91196299999999
 21
245.2286949999999
 31
0.0
  0
LINE
  5
C6F8
330
C611
100
AcDbEntity
  8
1
  6
Continuous
100
AcDbLine
 10
83.188484
 20
247.53796
 30
0.0
 11
85.497749
 21
245.2286949999999
 31
0.0
  0
LINE
  5
C6F9
330
C611
100
AcDbEntity
  8
1
  6
Continuous
100
AcDbLine
 10
81.77426999999999
 20
247.53796
 30
0.0
 11
84.08353599999998
 21
245.2286949999999
 31
0.0
  0
LINE
  5
C6FA
330
C611
100
AcDbEntity
  8
1
  6
Continuous
100
AcDbLine
 10
80.360057
 20
247.53796
 30
0.0
 11
82.66932199999997
 21
245.2286949999999
 31
0.0
  0
LINE
  5
C6FB
330
C611
100
AcDbEntity
  8
1
  6
Continuous
100
AcDbLine
 10
78.94584300000002
 20
247.53796
 30
0.0
 11
81.255109
 21
245.2286949999999
 31
0.0
  0
LINE
  5
C6FC
330
C611
100
AcDbEntity
  8
1
  6
Continuous
100
AcDbLine
 10
77.53163
 20
247.53796
 30
0.0
 11
79.84089499999999
 21
245.2286949999999
 31
0.0
  0
LINE
  5
C6FD
330
C611
100
AcDbEntity
  8
1
  6
Continuous
100
AcDbLine
 10
76.11741600000001
 20
247.53796
 30
0.0
 11
78.426681
 21
245.2286949999999
 31
0.0
  0
LINE
  5
C6FE
330
C611
100
AcDbEntity
  8
1
  6
Continuous
100
AcDbLine
 10
74.703203
 20
247.53796
 30
0.0
 11
77.01246799999998
 21
245.2286949999999
 31
0.0
  0
LINE
  5
C6FF
330
C611
100
AcDbEntity
  8
1
  6
Continuous
100
AcDbLine
 10
73.288989
 20
247.53796
 30
0.0
 11
75.59825399999998
 21
245.2286949999999
 31
0.0
  0
LINE
  5
C700
330
C611
100
AcDbEntity
  8
1
  6
Continuous
100
AcDbLine
 10
71.874776
 20
247.53796
 30
0.0
 11
74.18404099999998
 21
245.2286949999999
 31
0.0
  0
LINE
  5
C701
330
C611
100
AcDbEntity
  8
1
  6
Continuous
100
AcDbLine
 10
70.46056199999998
 20
247.53796
 30
0.0
 11
72.76982700000002
 21
245.2286949999999
 31
0.0
  0
LINE
  5
C702
330
C611
100
AcDbEntity
  8
1
  6
Continuous
100
AcDbLine
 10
69.046348
 20
247.53796
 30
0.0
 11
71.355614
 21
245.2286949999999
 31
0.0
  0
LINE
  5
C703
330
C611
100
AcDbEntity
  8
1
  6
Continuous
100
AcDbLine
 10
67.63213499999999
 20
247.53796
 30
0.0
 11
69.9414
 21
245.2286949999999
 31
0.0
  0
LINE
  5
C704
330
C611
100
AcDbEntity
  8
1
  6
Continuous
100
AcDbLine
 10
66.21792099999999
 20
247.53796
 30
0.0
 11
68.527186
 21
245.2286949999999
 31
0.0
  0
LINE
  5
C705
330
C611
100
AcDbEntity
  8
1
  6
Continuous
100
AcDbLine
 10
64.803708
 20
247.53796
 30
0.0
 11
67.112973
 21
245.2286949999999
 31
0.0
  0
LINE
  5
C706
330
C611
100
AcDbEntity
  8
1
  6
Continuous
100
AcDbLine
 10
63.38949399999999
 20
247.53796
 30
0.0
 11
65.69875899999999
 21
245.2286949999999
 31
0.0
  0
LINE
  5
C707
330
C611
100
AcDbEntity
  8
1
  6
Continuous
100
AcDbLine
 10
61.975281
 20
247.53796
 30
0.0
 11
64.28454599999999
 21
245.2286949999999
 31
0.0
  0
LINE
  5
C708
330
C611
100
AcDbEntity
  8
1
  6
Continuous
100
AcDbLine
 10
60.561067
 20
247.53796
 30
0.0
 11
62.87033199999999
 21
245.2286949999999
 31
0.0
  0
LINE
  5
C709
330
C611
100
AcDbEntity
  8
1
  6
Continuous
100
AcDbLine
 10
59.146853
 20
247.53796
 30
0.0
 11
61.45611899999999
 21
245.2286949999999
 31
0.0
  0
LINE
  5
C70A
330
C611
100
AcDbEntity
  8
1
  6
Continuous
100
AcDbLine
 10
57.73264000000001
 20
247.53796
 30
0.0
 11
60.041905
 21
245.2286949999999
 31
0.0
  0
LINE
  5
C70B
330
C611
100
AcDbEntity
  8
1
  6
Continuous
100
AcDbLine
 10
56.318426
 20
247.53796
 30
0.0
 11
58.627692
 21
245.2286949999999
 31
0.0
  0
LINE
  5
C70C
330
C611
100
AcDbEntity
  8
1
  6
Continuous
100
AcDbLine
 10
54.904213
 20
247.53796
 30
0.0
 11
57.213478
 21
245.2286949999999
 31
0.0
  0
LINE
  5
C70D
330
C611
100
AcDbEntity
  8
1
  6
Continuous
100
AcDbLine
 10
53.48999899999999
 20
247.53796
 30
0.0
 11
55.799264
 21
245.2286949999999
 31
0.0
  0
LINE
  5
C70E
330
C611
100
AcDbEntity
  8
1
  6
Continuous
100
AcDbLine
 10
52.075786
 20
247.53796
 30
0.0
 11
54.385051
 21
245.2286949999999
 31
0.0
  0
LINE
  5
C70F
330
C611
100
AcDbEntity
  8
1
  6
Continuous
100
AcDbLine
 10
51.999971
 20
246.1995609999999
 30
0.0
 11
52.970837
 21
245.2286949999999
 31
0.0
  0
LINE
  5
C710
330
C611
100
AcDbEntity
  8
1
  6
Continuous
100
AcDbLine
 10
88.84533799999998
 20
245.2286949999999
 30
0.0
 11
89.99997099999999
 21
246.383327
 31
0.0
  0
LINE
  5
C711
330
C611
100
AcDbEntity
  8
1
  6
Continuous
100
AcDbLine
 10
89.74039000000002
 20
247.53796
 30
0.0
 11
87.43112499999998
 21
245.2286949999999
 31
0.0
  0
LINE
  5
C712
330
C611
100
AcDbEntity
  8
1
  6
Continuous
100
AcDbLine
 10
88.326176
 20
247.53796
 30
0.0
 11
86.01691099999998
 21
245.2286949999999
 31
0.0
  0
LINE
  5
C713
330
C611
100
AcDbEntity
  8
1
  6
Continuous
100
AcDbLine
 10
86.91196299999999
 20
247.53796
 30
0.0
 11
84.602698
 21
245.2286949999999
 31
0.0
  0
LINE
  5
C714
330
C611
100
AcDbEntity
  8
1
  6
Continuous
100
AcDbLine
 10
85.497749
 20
247.53796
 30
0.0
 11
83.188484
 21
245.2286949999999
 31
0.0
  0
LINE
  5
C715
330
C611
100
AcDbEntity
  8
1
  6
Continuous
100
AcDbLine
 10
84.08353599999998
 20
247.53796
 30
0.0
 11
81.77426999999999
 21
245.2286949999999
 31
0.0
  0
LINE
  5
C716
330
C611
100
AcDbEntity
  8
1
  6
Continuous
100
AcDbLine
 10
82.66932199999997
 20
247.53796
 30
0.0
 11
80.360057
 21
245.2286949999999
 31
0.0
  0
LINE
  5
C717
330
C611
100
AcDbEntity
  8
1
  6
Continuous
100
AcDbLine
 10
81.255109
 20
247.53796
 30
0.0
 11
78.94584300000002
 21
245.2286949999999
 31
0.0
  0
LINE
  5
C718
330
C611
100
AcDbEntity
  8
1
  6
Continuous
100
AcDbLine
 10
79.84089499999999
 20
247.53796
 30
0.0
 11
77.53163
 21
245.2286949999999
 31
0.0
  0
LINE
  5
C719
330
C611
100
AcDbEntity
  8
1
  6
Continuous
100
AcDbLine
 10
78.426681
 20
247.53796
 30
0.0
 11
76.11741600000001
 21
245.2286949999999
 31
0.0
  0
LINE
  5
C71A
330
C611
100
AcDbEntity
  8
1
  6
Continuous
100
AcDbLine
 10
77.01246799999998
 20
247.53796
 30
0.0
 11
74.703203
 21
245.2286949999999
 31
0.0
  0
LINE
  5
C71B
330
C611
100
AcDbEntity
  8
1
  6
Continuous
100
AcDbLine
 10
75.59825399999998
 20
247.53796
 30
0.0
 11
73.288989
 21
245.2286949999999
 31
0.0
  0
LINE
  5
C71C
330
C611
100
AcDbEntity
  8
1
  6
Continuous
100
AcDbLine
 10
74.18404099999998
 20
247.53796
 30
0.0
 11
71.874776
 21
245.2286949999999
 31
0.0
  0
LINE
  5
C71D
330
C611
100
AcDbEntity
  8
1
  6
Continuous
100
AcDbLine
 10
72.76982700000002
 20
247.53796
 30
0.0
 11
70.46056199999998
 21
245.2286949999999
 31
0.0
  0
LINE
  5
C71E
330
C611
100
AcDbEntity
  8
1
  6
Continuous
100
AcDbLine
 10
71.355614
 20
247.53796
 30
0.0
 11
69.046348
 21
245.2286949999999
 31
0.0
  0
LINE
  5
C71F
330
C611
100
AcDbEntity
  8
1
  6
Continuous
100
AcDbLine
 10
69.9414
 20
247.53796
 30
0.0
 11
67.63213499999999
 21
245.2286949999999
 31
0.0
  0
LINE
  5
C720
330
C611
100
AcDbEntity
  8
1
  6
Continuous
100
AcDbLine
 10
68.527186
 20
247.53796
 30
0.0
 11
66.21792099999999
 21
245.2286949999999
 31
0.0
  0
LINE
  5
C721
330
C611
100
AcDbEntity
  8
1
  6
Continuous
100
AcDbLine
 10
67.112973
 20
247.53796
 30
0.0
 11
64.803708
 21
245.2286949999999
 31
0.0
  0
LINE
  5
C722
330
C611
100
AcDbEntity
  8
1
  6
Continuous
100
AcDbLine
 10
65.69875899999999
 20
247.53796
 30
0.0
 11
63.38949399999999
 21
245.2286949999999
 31
0.0
  0
LINE
  5
C723
330
C611
100
AcDbEntity
  8
1
  6
Continuous
100
AcDbLine
 10
64.28454599999999
 20
247.53796
 30
0.0
 11
61.975281
 21
245.2286949999999
 31
0.0
  0
LINE
  5
C724
330
C611
100
AcDbEntity
  8
1
  6
Continuous
100
AcDbLine
 10
62.87033199999999
 20
247.53796
 30
0.0
 11
60.561067
 21
245.2286949999999
 31
0.0
  0
LINE
  5
C725
330
C611
100
AcDbEntity
  8
1
  6
Continuous
100
AcDbLine
 10
61.45611899999999
 20
247.53796
 30
0.0
 11
59.146853
 21
245.2286949999999
 31
0.0
  0
LINE
  5
C726
330
C611
100
AcDbEntity
  8
1
  6
Continuous
100
AcDbLine
 10
60.041905
 20
247.53796
 30
0.0
 11
57.73264000000001
 21
245.2286949999999
 31
0.0
  0
LINE
  5
C727
330
C611
100
AcDbEntity
  8
1
  6
Continuous
100
AcDbLine
 10
58.627692
 20
247.53796
 30
0.0
 11
56.318426
 21
245.2286949999999
 31
0.0
  0
LINE
  5
C728
330
C611
100
AcDbEntity
  8
1
  6
Continuous
100
AcDbLine
 10
57.213478
 20
247.53796
 30
0.0
 11
54.904213
 21
245.2286949999999
 31
0.0
  0
LINE
  5
C729
330
C611
100
AcDbEntity
  8
1
  6
Continuous
100
AcDbLine
 10
55.799264
 20
247.53796
 30
0.0
 11
53.48999899999999
 21
245.2286949999999
 31
0.0
  0
LINE
  5
C72A
330
C611
100
AcDbEntity
  8
1
  6
Continuous
100
AcDbLine
 10
54.385051
 20
247.53796
 30
0.0
 11
52.075786
 21
245.2286949999999
 31
0.0
  0
LINE
  5
C72B
330
C611
100
AcDbEntity
  8
1
  6
Continuous
100
AcDbLine
 10
52.970837
 20
247.53796
 30
0.0
 11
51.999971
 21
246.5670939999998
 31
0.0
  0
LINE
  5
C72C
330
C611
100
AcDbEntity
  8
1
  6
Continuous
100
AcDbLine
 10
229.845338
 20
247.53796
 30
0.0
 11
230.999971
 21
246.383327
 31
0.0
  0
LINE
  5
C72D
330
C611
100
AcDbEntity
  8
1
  6
Continuous
100
AcDbLine
 10
228.431125
 20
247.53796
 30
0.0
 11
230.74039
 21
245.2286949999999
 31
0.0
  0
LINE
  5
C72E
330
C611
100
AcDbEntity
  8
1
  6
Continuous
100
AcDbLine
 10
227.0169109999999
 20
247.53796
 30
0.0
 11
229.3261759999999
 21
245.2286949999999
 31
0.0
  0
LINE
  5
C72F
330
C611
100
AcDbEntity
  8
1
  6
Continuous
100
AcDbLine
 10
225.602698
 20
247.53796
 30
0.0
 11
227.9119629999999
 21
245.2286949999999
 31
0.0
  0
LINE
  5
C730
330
C611
100
AcDbEntity
  8
1
  6
Continuous
100
AcDbLine
 10
224.1884839999999
 20
247.53796
 30
0.0
 11
226.497749
 21
245.2286949999999
 31
0.0
  0
LINE
  5
C731
330
C611
100
AcDbEntity
  8
1
  6
Continuous
100
AcDbLine
 10
222.77427
 20
247.53796
 30
0.0
 11
225.0835359999999
 21
245.2286949999999
 31
0.0
  0
LINE
  5
C732
330
C611
100
AcDbEntity
  8
1
  6
Continuous
100
AcDbLine
 10
221.360057
 20
247.53796
 30
0.0
 11
223.6693219999999
 21
245.2286949999999
 31
0.0
  0
LINE
  5
C733
330
C611
100
AcDbEntity
  8
1
  6
Continuous
100
AcDbLine
 10
219.945843
 20
247.53796
 30
0.0
 11
222.2551089999999
 21
245.2286949999999
 31
0.0
  0
LINE
  5
C734
330
C611
100
AcDbEntity
  8
1
  6
Continuous
100
AcDbLine
 10
218.5316299999998
 20
247.53796
 30
0.0
 11
220.8408949999999
 21
245.2286949999999
 31
0.0
  0
LINE
  5
C735
330
C611
100
AcDbEntity
  8
1
  6
Continuous
100
AcDbLine
 10
217.117416
 20
247.53796
 30
0.0
 11
219.426681
 21
245.2286949999999
 31
0.0
  0
LINE
  5
C736
330
C611
100
AcDbEntity
  8
1
  6
Continuous
100
AcDbLine
 10
215.7032029999998
 20
247.53796
 30
0.0
 11
218.012468
 21
245.2286949999999
 31
0.0
  0
LINE
  5
C737
330
C611
100
AcDbEntity
  8
1
  6
Continuous
100
AcDbLine
 10
214.2889889999999
 20
247.53796
 30
0.0
 11
216.5982539999999
 21
245.2286949999999
 31
0.0
  0
LINE
  5
C738
330
C611
100
AcDbEntity
  8
1
  6
Continuous
100
AcDbLine
 10
212.8747759999999
 20
247.53796
 30
0.0
 11
215.184041
 21
245.2286949999999
 31
0.0
  0
LINE
  5
C739
330
C611
100
AcDbEntity
  8
1
  6
Continuous
100
AcDbLine
 10
211.460562
 20
247.53796
 30
0.0
 11
213.769827
 21
245.2286949999999
 31
0.0
  0
LINE
  5
C73A
330
C611
100
AcDbEntity
  8
1
  6
Continuous
100
AcDbLine
 10
210.046348
 20
247.53796
 30
0.0
 11
212.355614
 21
245.2286949999999
 31
0.0
  0
LINE
  5
C73B
330
C611
100
AcDbEntity
  8
1
  6
Continuous
100
AcDbLine
 10
208.6321349999999
 20
247.53796
 30
0.0
 11
210.9414
 21
245.2286949999999
 31
0.0
  0
LINE
  5
C73C
330
C611
100
AcDbEntity
  8
1
  6
Continuous
100
AcDbLine
 10
207.2179209999999
 20
247.53796
 30
0.0
 11
209.5271859999999
 21
245.2286949999999
 31
0.0
  0
LINE
  5
C73D
330
C611
100
AcDbEntity
  8
1
  6
Continuous
100
AcDbLine
 10
205.803708
 20
247.53796
 30
0.0
 11
208.112973
 21
245.2286949999999
 31
0.0
  0
LINE
  5
C73E
330
C611
100
AcDbEntity
  8
1
  6
Continuous
100
AcDbLine
 10
204.3894939999999
 20
247.53796
 30
0.0
 11
206.698759
 21
245.2286949999999
 31
0.0
  0
LINE
  5
C73F
330
C611
100
AcDbEntity
  8
1
  6
Continuous
100
AcDbLine
 10
202.975281
 20
247.53796
 30
0.0
 11
205.2845459999999
 21
245.2286949999999
 31
0.0
  0
LINE
  5
C740
330
C611
100
AcDbEntity
  8
1
  6
Continuous
100
AcDbLine
 10
201.561067
 20
247.53796
 30
0.0
 11
203.8703319999999
 21
245.2286949999999
 31
0.0
  0
LINE
  5
C741
330
C611
100
AcDbEntity
  8
1
  6
Continuous
100
AcDbLine
 10
200.1468529999999
 20
247.53796
 30
0.0
 11
202.456119
 21
245.2286949999999
 31
0.0
  0
LINE
  5
C742
330
C611
100
AcDbEntity
  8
1
  6
Continuous
100
AcDbLine
 10
198.73264
 20
247.53796
 30
0.0
 11
201.041905
 21
245.2286949999999
 31
0.0
  0
LINE
  5
C743
330
C611
100
AcDbEntity
  8
1
  6
Continuous
100
AcDbLine
 10
197.318426
 20
247.53796
 30
0.0
 11
199.6276919999999
 21
245.2286949999999
 31
0.0
  0
LINE
  5
C744
330
C611
100
AcDbEntity
  8
1
  6
Continuous
100
AcDbLine
 10
195.904213
 20
247.53796
 30
0.0
 11
198.213478
 21
245.2286949999999
 31
0.0
  0
LINE
  5
C745
330
C611
100
AcDbEntity
  8
1
  6
Continuous
100
AcDbLine
 10
194.489999
 20
247.53796
 30
0.0
 11
196.799264
 21
245.2286949999999
 31
0.0
  0
LINE
  5
C746
330
C611
100
AcDbEntity
  8
1
  6
Continuous
100
AcDbLine
 10
193.0757859999999
 20
247.53796
 30
0.0
 11
195.385051
 21
245.2286949999999
 31
0.0
  0
LINE
  5
C747
330
C611
100
AcDbEntity
  8
1
  6
Continuous
100
AcDbLine
 10
192.9999709999999
 20
246.1995609999999
 30
0.0
 11
193.9708369999999
 21
245.2286949999999
 31
0.0
  0
LINE
  5
C748
330
C611
100
AcDbEntity
  8
1
  6
Continuous
100
AcDbLine
 10
229.845338
 20
245.2286949999999
 30
0.0
 11
230.999971
 21
246.383327
 31
0.0
  0
LINE
  5
C749
330
C611
100
AcDbEntity
  8
1
  6
Continuous
100
AcDbLine
 10
230.74039
 20
247.53796
 30
0.0
 11
228.431125
 21
245.2286949999999
 31
0.0
  0
LINE
  5
C74A
330
C611
100
AcDbEntity
  8
1
  6
Continuous
100
AcDbLine
 10
229.3261759999999
 20
247.53796
 30
0.0
 11
227.0169109999999
 21
245.2286949999999
 31
0.0
  0
LINE
  5
C74B
330
C611
100
AcDbEntity
  8
1
  6
Continuous
100
AcDbLine
 10
227.9119629999999
 20
247.53796
 30
0.0
 11
225.602698
 21
245.2286949999999
 31
0.0
  0
LINE
  5
C74C
330
C611
100
AcDbEntity
  8
1
  6
Continuous
100
AcDbLine
 10
226.497749
 20
247.53796
 30
0.0
 11
224.1884839999999
 21
245.2286949999999
 31
0.0
  0
LINE
  5
C74D
330
C611
100
AcDbEntity
  8
1
  6
Continuous
100
AcDbLine
 10
225.0835359999999
 20
247.53796
 30
0.0
 11
222.77427
 21
245.2286949999999
 31
0.0
  0
LINE
  5
C74E
330
C611
100
AcDbEntity
  8
1
  6
Continuous
100
AcDbLine
 10
223.6693219999999
 20
247.53796
 30
0.0
 11
221.360057
 21
245.2286949999999
 31
0.0
  0
LINE
  5
C74F
330
C611
100
AcDbEntity
  8
1
  6
Continuous
100
AcDbLine
 10
222.2551089999999
 20
247.53796
 30
0.0
 11
219.945843
 21
245.2286949999999
 31
0.0
  0
LINE
  5
C750
330
C611
100
AcDbEntity
  8
1
  6
Continuous
100
AcDbLine
 10
220.8408949999999
 20
247.53796
 30
0.0
 11
218.5316299999998
 21
245.2286949999999
 31
0.0
  0
LINE
  5
C751
330
C611
100
AcDbEntity
  8
1
  6
Continuous
100
AcDbLine
 10
219.426681
 20
247.53796
 30
0.0
 11
217.117416
 21
245.2286949999999
 31
0.0
  0
LINE
  5
C752
330
C611
100
AcDbEntity
  8
1
  6
Continuous
100
AcDbLine
 10
218.012468
 20
247.53796
 30
0.0
 11
215.7032029999998
 21
245.2286949999999
 31
0.0
  0
LINE
  5
C753
330
C611
100
AcDbEntity
  8
1
  6
Continuous
100
AcDbLine
 10
216.5982539999999
 20
247.53796
 30
0.0
 11
214.2889889999999
 21
245.2286949999999
 31
0.0
  0
LINE
  5
C754
330
C611
100
AcDbEntity
  8
1
  6
Continuous
100
AcDbLine
 10
215.184041
 20
247.53796
 30
0.0
 11
212.8747759999999
 21
245.2286949999999
 31
0.0
  0
LINE
  5
C755
330
C611
100
AcDbEntity
  8
1
  6
Continuous
100
AcDbLine
 10
213.769827
 20
247.53796
 30
0.0
 11
211.460562
 21
245.2286949999999
 31
0.0
  0
LINE
  5
C756
330
C611
100
AcDbEntity
  8
1
  6
Continuous
100
AcDbLine
 10
212.355614
 20
247.53796
 30
0.0
 11
210.046348
 21
245.2286949999999
 31
0.0
  0
LINE
  5
C757
330
C611
100
AcDbEntity
  8
1
  6
Continuous
100
AcDbLine
 10
210.9414
 20
247.53796
 30
0.0
 11
208.6321349999999
 21
245.2286949999999
 31
0.0
  0
LINE
  5
C758
330
C611
100
AcDbEntity
  8
1
  6
Continuous
100
AcDbLine
 10
209.5271859999999
 20
247.53796
 30
0.0
 11
207.2179209999999
 21
245.2286949999999
 31
0.0
  0
LINE
  5
C759
330
C611
100
AcDbEntity
  8
1
  6
Continuous
100
AcDbLine
 10
208.112973
 20
247.53796
 30
0.0
 11
205.803708
 21
245.2286949999999
 31
0.0
  0
LINE
  5
C75A
330
C611
100
AcDbEntity
  8
1
  6
Continuous
100
AcDbLine
 10
206.698759
 20
247.53796
 30
0.0
 11
204.3894939999999
 21
245.2286949999999
 31
0.0
  0
LINE
  5
C75B
330
C611
100
AcDbEntity
  8
1
  6
Continuous
100
AcDbLine
 10
205.2845459999999
 20
247.53796
 30
0.0
 11
202.975281
 21
245.2286949999999
 31
0.0
  0
LINE
  5
C75C
330
C611
100
AcDbEntity
  8
1
  6
Continuous
100
AcDbLine
 10
203.8703319999999
 20
247.53796
 30
0.0
 11
201.561067
 21
245.2286949999999
 31
0.0
  0
LINE
  5
C75D
330
C611
100
AcDbEntity
  8
1
  6
Continuous
100
AcDbLine
 10
202.456119
 20
247.53796
 30
0.0
 11
200.1468529999999
 21
245.2286949999999
 31
0.0
  0
LINE
  5
C75E
330
C611
100
AcDbEntity
  8
1
  6
Continuous
100
AcDbLine
 10
201.041905
 20
247.53796
 30
0.0
 11
198.73264
 21
245.2286949999999
 31
0.0
  0
LINE
  5
C75F
330
C611
100
AcDbEntity
  8
1
  6
Continuous
100
AcDbLine
 10
199.6276919999999
 20
247.53796
 30
0.0
 11
197.318426
 21
245.2286949999999
 31
0.0
  0
LINE
  5
C760
330
C611
100
AcDbEntity
  8
1
  6
Continuous
100
AcDbLine
 10
198.213478
 20
247.53796
 30
0.0
 11
195.904213
 21
245.2286949999999
 31
0.0
  0
LINE
  5
C761
330
C611
100
AcDbEntity
  8
1
  6
Continuous
100
AcDbLine
 10
196.799264
 20
247.53796
 30
0.0
 11
194.489999
 21
245.2286949999999
 31
0.0
  0
LINE
  5
C762
330
C611
100
AcDbEntity
  8
1
  6
Continuous
100
AcDbLine
 10
195.385051
 20
247.53796
 30
0.0
 11
193.0757859999999
 21
245.2286949999999
 31
0.0
  0
LINE
  5
C763
330
C611
100
AcDbEntity
  8
1
  6
Continuous
100
AcDbLine
 10
193.9708369999999
 20
247.53796
 30
0.0
 11
192.9999709999999
 21
246.5670939999998
 31
0.0
  0
LINE
  5
C764
330
C611
100
AcDbEntity
  8
2
  6
Continuous
100
AcDbLine
 10
247.0529379999999
 20
221.950006
 30
0.0
 11
247.0529379999999
 21
211.5500279999999
 31
0.0
  0
LINE
  5
C765
330
C611
100
AcDbEntity
  8
2
  6
Continuous
100
AcDbLine
 10
236.9469379999999
 20
221.950006
 30
0.0
 11
236.9469379999999
 21
211.5500279999999
 31
0.0
  0
LINE
  5
C766
330
C611
100
AcDbEntity
  8
2
  6
Continuous
100
AcDbLine
 10
95.79997099999998
 20
217.3735279999999
 30
0.0
 11
97.69997100000001
 21
217.3735279999999
 31
0.0
  0
LINE
  5
C767
330
C611
100
AcDbEntity
  8
4
  6
CENTER
100
AcDbLine
 10
211.999971
 20
235.704123
 30
0.0
 11
211.999971
 21
256.8974509999998
 31
0.0
  0
LINE
  5
C768
330
C611
100
AcDbEntity
  8
4
  6
CENTER
100
AcDbLine
 10
211.999971
 20
409.1967509999998
 30
0.0
 11
211.999971
 21
311.52063
 31
0.0
  0
LINE
  5
C769
330
C611
100
AcDbEntity
  8
4
  6
CENTER
100
AcDbLine
 10
256.749971
 20
398.6000559999998
 30
0.0
 11
242.2499709999999
 21
398.6000559999998
 31
0.0
  0
LINE
  5
C76A
330
C611
100
AcDbEntity
  8
4
  6
CENTER
100
AcDbLine
 10
249.499971
 20
391.350056
 30
0.0
 11
249.499971
 21
405.8500559999997
 31
0.0
  0
LINE
  5
C76B
330
C611
100
AcDbEntity
  8
4
  6
CENTER
100
AcDbLine
 10
256.749971
 20
323.6000559999999
 30
0.0
 11
242.2499709999999
 21
323.6000559999999
 31
0.0
  0
LINE
  5
C76C
330
C611
100
AcDbEntity
  8
4
  6
CENTER
100
AcDbLine
 10
249.499971
 20
315.872569
 30
0.0
 11
249.499971
 21
330.850056
 31
0.0
  0
LINE
  5
C76D
330
C611
100
AcDbEntity
  8
4
  6
CENTER
100
AcDbLine
 10
181.7499709999999
 20
323.6000559999999
 30
0.0
 11
167.2499709999998
 21
323.6000559999999
 31
0.0
  0
LINE
  5
C76E
330
C611
100
AcDbEntity
  8
4
  6
CENTER
100
AcDbLine
 10
174.4999709999999
 20
316.350056
 30
0.0
 11
174.4999709999999
 21
330.850056
 31
0.0
  0
LINE
  5
C76F
330
C611
100
AcDbEntity
  8
4
  6
CENTER
100
AcDbLine
 10
181.7499709999999
 20
398.6000559999998
 30
0.0
 11
167.2499709999998
 21
398.6000559999998
 31
0.0
  0
LINE
  5
C770
330
C611
100
AcDbEntity
  8
4
  6
CENTER
100
AcDbLine
 10
174.4999709999999
 20
391.350056
 30
0.0
 11
174.4999709999999
 21
405.8500559999997
 31
0.0
  0
LINE
  5
C771
330
C611
100
AcDbEntity
  8
4
  6
CENTER
100
AcDbLine
 10
263.849938
 20
361.1000559999998
 30
0.0
 11
162.9999709999998
 21
361.1000559999998
 31
0.0
  0
LINE
  5
C772
330
C611
100
AcDbEntity
  8
4
  6
CENTER
100
AcDbLine
 10
70.999971
 20
256.932454
 30
0.0
 11
70.999971
 21
191.0500279999999
 31
0.0
  0
LINE
  5
C773
330
C611
100
AcDbEntity
  8
4
  6
CENTER
100
AcDbLine
 10
45.300129
 20
214.0500279999999
 30
0.0
 11
99.65010800000001
 21
214.0500279999999
 31
0.0
  0
LINE
  5
C774
330
C611
100
AcDbEntity
  8
4
  6
CENTER
100
AcDbLine
 10
241.9999379999999
 20
183.7096689999999
 30
0.0
 11
241.9999379999999
 21
256.1741749999999
 31
0.0
  0
LINE
  5
C775
330
C611
100
AcDbEntity
  8
4
  6
CENTER
100
AcDbLine
 10
249.499971
 20
249.732199
 30
0.0
 11
249.499971
 21
256.004236
 31
0.0
  0
LINE
  5
C776
330
C611
100
AcDbEntity
  8
4
  6
CENTER
100
AcDbLine
 10
174.4999709999999
 20
249.732199
 30
0.0
 11
174.4999709999999
 21
256.004236
 31
0.0
  0
LINE
  5
C777
330
C611
100
AcDbEntity
  8
4
  6
CENTER
100
AcDbLine
 10
108.4999709999999
 20
249.424791
 30
0.0
 11
108.4999709999999
 21
256.3034359999999
 31
0.0
  0
LINE
  5
C778
330
C611
100
AcDbEntity
  8
4
  6
CENTER
100
AcDbLine
 10
33.499971
 20
249.424791
 30
0.0
 11
33.499971
 21
256.3034359999999
 31
0.0
  0
LINE
  5
C779
330
C611
100
AcDbEntity
  8
4
  6
CENTER
100
AcDbLine
 10
216.999972
 20
214.0500279999999
 30
0.0
 11
170.9999719999999
 21
214.0500279999999
 31
0.0
  0
LINE
  5
C77A
330
C611
100
AcDbEntity
  8
4
  6
CENTER
100
AcDbLine
 10
193.9999719999999
 20
191.0500279999999
 30
0.0
 11
193.9999719999999
 21
237.0500279999999
 31
0.0
  0
LINE
  5
C77B
330
C611
100
AcDbEntity
  8
1
  6
Continuous
100
AcDbLine
 10
247.9999379999999
 20
211.5500279999999
 30
0.0
 11
235.999938
 21
211.5500279999999
 31
0.0
  0
LINE
  5
C77C
330
C611
100
AcDbEntity
  8
2
  6
Continuous
100
AcDbLine
 10
247.0529379999999
 20
211.5500279999999
 30
0.0
 11
247.9999379999999
 21
209.9097759999999
 31
0.0
  0
LINE
  5
C77D
330
C611
100
AcDbEntity
  8
2
  6
Continuous
100
AcDbLine
 10
236.9469379999999
 20
211.5500279999999
 30
0.0
 11
235.999938
 21
209.9097759999999
 31
0.0
  0
LINE
  5
C77E
330
C611
100
AcDbEntity
  8
1
  6
Continuous
100
AcDbLine
 10
252.999938
 20
204.0500279999998
 30
0.0
 11
254.7016439999999
 21
205.0325079999999
 31
0.0
  0
LINE
  5
C77F
330
C611
100
AcDbEntity
  8
1
  6
Continuous
100
AcDbLine
 10
256.2499379999998
 20
203.5500279999999
 30
0.0
 11
227.749938
 21
203.5500279999999
 31
0.0
  0
LINE
  5
C780
330
C611
100
AcDbEntity
  8
1
  6
Continuous
100
AcDbLine
 10
254.7016439999999
 20
208.0500279999998
 30
0.0
 11
229.2982319999999
 21
208.0500279999998
 31
0.0
  0
LINE
  5
C781
330
C611
100
AcDbEntity
  8
1
  6
Continuous
100
AcDbLine
 10
259.9999379999998
 20
203.050028
 30
0.0
 11
223.9999379999999
 21
203.050028
 31
0.0
  0
LINE
  5
C782
330
C611
100
AcDbEntity
  8
1
  6
Continuous
100
AcDbLine
 10
261.9999379999998
 20
197.0500279999999
 30
0.0
 11
221.9999379999999
 21
197.0500279999999
 31
0.0
  0
LINE
  5
C783
330
C611
100
AcDbEntity
  8
1
  6
Continuous
100
AcDbLine
 10
258.3999379999998
 20
194.050028
 30
0.0
 11
225.5999379999999
 21
194.050028
 31
0.0
  0
ARC
  5
C784
330
C611
100
AcDbEntity
  8
1
  6
Continuous
100
AcDbCircle
 10
223.9999379999999
 20
201.050028
 30
0.0
 40
2.0
100
AcDbArc
 50
90.0
 51
180.0
  0
LINE
  5
C785
330
C611
100
AcDbEntity
  8
1
  6
Continuous
100
AcDbLine
 10
221.9999379999999
 20
201.050028
 30
0.0
 11
221.9999379999999
 21
197.0500279999999
 31
0.0
  0
ARC
  5
C786
330
C611
100
AcDbEntity
  8
1
  6
Continuous
100
AcDbCircle
 10
241.9999379999999
 20
224.536125
 30
0.0
 40
20.486097
100
AcDbArc
 50
251.94029
 51
288.05971
  0
ARC
  5
C787
330
C611
100
AcDbEntity
  8
1
  6
Continuous
100
AcDbCircle
 10
232.473658
 20
209.5500279999999
 30
0.0
 40
5.5
100
AcDbArc
 50
239.9999999999999
 51
305.26439
  0
LINE
  5
C788
330
C611
100
AcDbEntity
  8
1
  6
Continuous
100
AcDbLine
 10
230.9999379999999
 20
204.0500279999998
 30
0.0
 11
229.2982319999999
 21
205.0325079999999
 31
0.0
  0
ARC
  5
C789
330
C611
100
AcDbEntity
  8
1
  6
Continuous
100
AcDbCircle
 10
251.526217
 20
209.5500279999999
 30
0.0
 40
5.5
100
AcDbArc
 50
234.73561
 51
300.0
  0
LINE
  5
C78A
330
C611
100
AcDbEntity
  8
1
  6
Continuous
100
AcDbLine
 10
252.999938
 20
204.0500279999998
 30
0.0
 11
230.9999379999999
 21
204.0500279999998
 31
0.0
  0
LINE
  5
C78B
330
C611
100
AcDbEntity
  8
1
  6
Continuous
100
AcDbLine
 10
237.9499379999999
 20
204.0500279999998
 30
0.0
 11
237.9499379999999
 21
203.5500279999999
 31
0.0
  0
LINE
  5
C78C
330
C611
100
AcDbEntity
  8
1
  6
Continuous
100
AcDbLine
 10
227.749938
 20
203.5500279999999
 30
0.0
 11
227.749938
 21
203.050028
 31
0.0
  0
ARC
  5
C78D
330
C611
100
AcDbEntity
  8
1
  6
Continuous
100
AcDbCircle
 10
225.5999379999999
 20
196.0500279999999
 30
0.0
 40
2.0
100
AcDbArc
 50
180.0
 51
270.0
  0
LINE
  5
C78E
330
C611
100
AcDbEntity
  8
1
  6
Continuous
100
AcDbLine
 10
223.5999379999999
 20
197.0500279999999
 30
0.0
 11
223.5999379999999
 21
196.0500279999999
 31
0.0
  0
LINE
  5
C78F
330
C611
100
AcDbEntity
  8
1
  6
Continuous
100
AcDbLine
 10
246.0499379999999
 20
204.0500279999998
 30
0.0
 11
246.0499379999999
 21
203.5500279999999
 31
0.0
  0
LINE
  5
C790
330
C611
100
AcDbEntity
  8
1
  6
Continuous
100
AcDbLine
 10
235.649085
 20
205.0592969999999
 30
0.0
 11
235.649085
 21
208.0500279999998
 31
0.0
  0
LINE
  5
C791
330
C611
100
AcDbEntity
  8
1
  6
Continuous
100
AcDbLine
 10
229.2982319999999
 20
208.0500279999998
 30
0.0
 11
229.2982319999999
 21
205.0325079999999
 31
0.0
  0
LINE
  5
C792
330
C611
100
AcDbEntity
  8
1
  6
Continuous
100
AcDbLine
 10
248.3507909999999
 20
205.0592969999999
 30
0.0
 11
248.3507909999999
 21
208.0500279999998
 31
0.0
  0
ARC
  5
C793
330
C611
100
AcDbEntity
  8
1
  6
Continuous
100
AcDbCircle
 10
259.9999379999998
 20
201.050028
 30
0.0
 40
2.0
100
AcDbArc
 50
0.0
 51
90.0
  0
ARC
  5
C794
330
C611
100
AcDbEntity
  8
1
  6
Continuous
100
AcDbCircle
 10
258.3999379999998
 20
196.0500279999999
 30
0.0
 40
2.0
100
AcDbArc
 50
270.0
 51
0.0
  0
LINE
  5
C795
330
C611
100
AcDbEntity
  8
1
  6
Continuous
100
AcDbLine
 10
261.9999379999998
 20
201.050028
 30
0.0
 11
261.9999379999998
 21
197.0500279999999
 31
0.0
  0
LINE
  5
C796
330
C611
100
AcDbEntity
  8
1
  6
Continuous
100
AcDbLine
 10
260.3999379999998
 20
197.0500279999999
 30
0.0
 11
260.3999379999998
 21
196.0500279999999
 31
0.0
  0
LINE
  5
C797
330
C611
100
AcDbEntity
  8
1
  6
Continuous
100
AcDbLine
 10
254.7016439999999
 20
208.0500279999998
 30
0.0
 11
254.7016439999999
 21
205.0325079999999
 31
0.0
  0
LINE
  5
C798
330
C611
100
AcDbEntity
  8
1
  6
Continuous
100
AcDbLine
 10
88.799971
 20
214.0500279999999
 30
0.0
 11
90.79997099999998
 21
216.0500279999999
 31
0.0
  0
LINE
  5
C799
330
C611
100
AcDbEntity
  8
1
  6
Continuous
100
AcDbLine
 10
88.799971
 20
212.0500279999999
 30
0.0
 11
90.79997099999998
 21
214.0500279999999
 31
0.0
  0
LINE
  5
C79A
330
C611
100
AcDbEntity
  8
2
  6
Continuous
100
AcDbLine
 10
95.79997099999998
 20
210.7265279999999
 30
0.0
 11
97.69997100000001
 21
210.7265279999999
 31
0.0
  0
LINE
  5
C79B
330
C611
100
AcDbEntity
  8
1
  6
Continuous
100
AcDbLine
 10
256.2499379999998
 20
203.5500279999999
 30
0.0
 11
256.2499379999998
 21
203.050028
 31
0.0
  0
LINE
  5
C79C
330
C611
100
AcDbEntity
  8
1
  6
Continuous
100
AcDbLine
 10
373.499971
 20
203.050028
 30
0.0
 11
373.499971
 21
222.5733879999999
 31
0.0
  0
LINE
  5
C79D
330
C611
100
AcDbEntity
  8
1
  6
Continuous
100
AcDbLine
 10
345.499971
 20
227.275037
 30
0.0
 11
345.499971
 21
203.5500279999999
 31
0.0
  0
LINE
  5
C79E
330
C611
100
AcDbEntity
  8
1
  6
Continuous
100
AcDbLine
 10
370.499971
 20
227.275037
 30
0.0
 11
370.499971
 21
203.5500279999999
 31
0.0
  0
LINE
  5
C79F
330
C611
100
AcDbEntity
  8
1
  6
Continuous
100
AcDbLine
 10
343.499971
 20
221.5500279999999
 30
0.0
 11
343.499971
 21
206.550028
 31
0.0
  0
LINE
  5
C7A0
330
C611
100
AcDbEntity
  8
1
  6
Continuous
100
AcDbLine
 10
372.499971
 20
221.5500279999999
 30
0.0
 11
372.499971
 21
206.550028
 31
0.0
  0
LINE
  5
C7A1
330
C611
100
AcDbEntity
  8
1
  6
Continuous
100
AcDbLine
 10
338.199971
 20
206.550028
 30
0.0
 11
338.199971
 21
221.5500279999999
 31
0.0
  0
ARC
  5
C7A2
330
C611
100
AcDbEntity
  8
1
  6
Continuous
100
AcDbCircle
 10
370.2999709999998
 20
214.0500279999999
 30
0.0
 40
10.5
100
AcDbArc
 50
318.189685
 51
41.810315
  0
LINE
  5
C7A3
330
C611
100
AcDbEntity
  8
1
  6
Continuous
100
AcDbLine
 10
378.1262089999998
 20
207.050028
 30
0.0
 11
378.1262089999998
 21
221.0500279999999
 31
0.0
  0
LINE
  5
C7A4
330
C611
100
AcDbEntity
  8
1
  6
Continuous
100
AcDbLine
 10
375.7999709999999
 20
203.050028
 30
0.0
 11
375.7999709999999
 21
207.746418
 31
0.0
  0
LINE
  5
C7A5
330
C611
100
AcDbEntity
  8
4
  6
CENTER
100
AcDbLine
 10
357.999971
 20
256.932454
 30
0.0
 11
357.999971
 21
191.0500279999999
 31
0.0
  0
ARC
  5
C7A6
330
C611
100
AcDbEntity
  8
1
  6
Continuous
100
AcDbCircle
 10
342.800725
 20
210.7873389999999
 30
0.0
 40
30.0
100
AcDbArc
 50
346.0400439999999
 51
351.8801789999998
  0
ARC
  5
C7A7
330
C611
100
AcDbEntity
  8
1
  6
Continuous
100
AcDbCircle
 10
372.499971
 20
207.5500279999999
 30
0.0
 40
1.0
100
AcDbArc
 50
270.0
 51
0.0
  0
LINE
  5
C7A8
330
C611
100
AcDbEntity
  8
1
  6
Continuous
100
AcDbLine
 10
340.199971
 20
206.550028
 30
0.0
 11
338.199971
 21
206.550028
 31
0.0
  0
ARC
  5
C7A9
330
C611
100
AcDbEntity
  8
1
  6
Continuous
100
AcDbCircle
 10
132.2803889999998
 20
205.5291079999999
 30
0.0
 40
207.9195819999999
100
AcDbArc
 50
0.0
 51
0.281333
  0
ARC
  5
C7AA
330
C611
100
AcDbEntity
  8
1
  6
Continuous
100
AcDbCircle
 10
373.1992169999998
 20
210.7873389999999
 30
0.0
 40
30.0
100
AcDbArc
 50
188.1198209999999
 51
193.9599559999998
  0
ARC
  5
C7AB
330
C611
100
AcDbEntity
  8
1
  6
Continuous
100
AcDbCircle
 10
343.499971
 20
207.5500279999999
 30
0.0
 40
1.0
100
AcDbArc
 50
180.0
 51
270.0
  0
LINE
  5
C7AC
330
C611
100
AcDbEntity
  8
1
  6
Continuous
100
AcDbLine
 10
378.1262089999998
 20
207.050028
 30
0.0
 11
375.7999709999999
 21
207.050028
 31
0.0
  0
LINE
  5
C7AD
330
C611
100
AcDbEntity
  8
1
  6
Continuous
100
AcDbLine
 10
403.999942
 20
254.050022
 30
0.0
 11
312.0
 21
254.050022
 31
0.0
  0
LINE
  5
C7AE
330
C611
100
AcDbEntity
  8
1
  6
Continuous
100
AcDbLine
 10
403.999942
 20
251.750022
 30
0.0
 11
312.0
 21
251.750022
 31
0.0
  0
LINE
  5
C7AF
330
C611
100
AcDbEntity
  8
1
  6
Continuous
100
AcDbLine
 10
315.141408
 20
251.364394
 30
0.0
 11
400.8585339999998
 21
251.364394
 31
0.0
  0
LINE
  5
C7B0
330
C611
100
AcDbEntity
  8
4
  6
CENTER
100
AcDbLine
 10
383.6998129999998
 20
214.0500279999999
 30
0.0
 11
329.3498339999998
 21
214.0500279999999
 31
0.0
  0
LINE
  5
C7B1
330
C611
100
AcDbEntity
  8
4
  6
CENTER
100
AcDbLine
 10
395.499971
 20
249.424791
 30
0.0
 11
395.499971
 21
256.3034359999999
 31
0.0
  0
ARC
  5
C7B2
330
C611
100
AcDbEntity
  8
1
  6
Continuous
100
AcDbCircle
 10
400.8585339999998
 20
254.704394
 30
0.0
 40
3.339999999999998
100
AcDbArc
 50
270.0
 51
297.804724
  0
LINE
  5
C7B3
330
C611
100
AcDbEntity
  8
1
  6
Continuous
100
AcDbLine
 10
331.2999709999999
 20
214.0500279999999
 30
0.0
 11
331.2999709999999
 21
217.4500279999998
 31
0.0
  0
LINE
  5
C7B4
330
C611
100
AcDbEntity
  8
1
  6
Continuous
100
AcDbLine
 10
333.199971
 20
218.0500279999999
 30
0.0
 11
331.8999709999999
 21
218.0500279999999
 31
0.0
  0
LINE
  5
C7B5
330
C611
100
AcDbEntity
  8
1
  6
Continuous
100
AcDbLine
 10
331.2999709999999
 20
217.4500279999998
 30
0.0
 11
331.8999709999999
 21
218.0500279999999
 31
0.0
  0
LINE
  5
C7B6
330
C611
100
AcDbEntity
  8
1
  6
Continuous
100
AcDbLine
 10
331.8999709999999
 20
218.0500279999999
 30
0.0
 11
331.8999709999999
 21
214.0500279999999
 31
0.0
  0
LINE
  5
C7B7
330
C611
100
AcDbEntity
  8
1
  6
Continuous
100
AcDbLine
 10
331.2999709999999
 20
214.0500279999999
 30
0.0
 11
331.2999709999999
 21
210.650028
 31
0.0
  0
LINE
  5
C7B8
330
C611
100
AcDbEntity
  8
1
  6
Continuous
100
AcDbLine
 10
333.199971
 20
210.0500279999998
 30
0.0
 11
331.8999709999999
 21
210.0500279999998
 31
0.0
  0
LINE
  5
C7B9
330
C611
100
AcDbEntity
  8
1
  6
Continuous
100
AcDbLine
 10
331.2999709999999
 20
210.650028
 30
0.0
 11
331.8999709999999
 21
210.0500279999998
 31
0.0
  0
LINE
  5
C7BA
330
C611
100
AcDbEntity
  8
1
  6
Continuous
100
AcDbLine
 10
331.8999709999999
 20
210.0500279999998
 30
0.0
 11
331.8999709999999
 21
214.0500279999999
 31
0.0
  0
LINE
  5
C7BB
330
C611
100
AcDbEntity
  8
2
  6
Continuous
100
AcDbLine
 10
333.199971
 20
217.3735279999999
 30
0.0
 11
331.2999709999999
 21
217.3735279999999
 31
0.0
  0
LINE
  5
C7BC
330
C611
100
AcDbEntity
  8
2
  6
Continuous
100
AcDbLine
 10
333.199971
 20
210.7265279999999
 30
0.0
 11
331.2999709999999
 21
210.7265279999999
 31
0.0
  0
LINE
  5
C7BD
330
C611
100
AcDbEntity
  8
1
  6
Continuous
100
AcDbLine
 10
403.999942
 20
254.049999
 30
0.0
 11
403.999942
 21
251.750022
 31
0.0
  0
LINE
  5
C7BE
330
C611
100
AcDbEntity
  8
4
  6
CENTER
100
AcDbLine
 10
320.499971
 20
249.424791
 30
0.0
 11
320.499971
 21
256.3034359999999
 31
0.0
  0
LINE
  5
C7BF
330
C611
100
AcDbEntity
  8
1
  6
Continuous
100
AcDbLine
 10
338.999971
 20
247.53796
 30
0.0
 11
347.949971
 21
247.53796
 31
0.0
  0
LINE
  5
C7C0
330
C611
100
AcDbEntity
  8
1
  6
Continuous
100
AcDbLine
 10
338.999971
 20
245.2286949999999
 30
0.0
 11
347.949971
 21
245.2286949999999
 31
0.0
  0
LINE
  5
C7C1
330
C611
100
AcDbEntity
  8
1
  6
Continuous
100
AcDbLine
 10
374.8599029999998
 20
249.44796
 30
0.0
 11
367.8149259999998
 21
249.44796
 31
0.0
  0
LINE
  5
C7C2
330
C611
100
AcDbEntity
  8
1
  6
Continuous
100
AcDbLine
 10
375.9312009999999
 20
249.734466
 30
0.0
 11
367.8149259999998
 21
249.734466
 31
0.0
  0
LINE
  5
C7C3
330
C611
100
AcDbEntity
  8
1
  6
Continuous
100
AcDbLine
 10
337.174904
 20
251.1857369999999
 30
0.0
 11
348.185016
 21
251.1857369999999
 31
0.0
  0
LINE
  5
C7C4
330
C611
100
AcDbEntity
  8
1
  6
Continuous
100
AcDbLine
 10
347.949971
 20
245.433833
 30
0.0
 11
347.744833
 21
245.2286949999999
 31
0.0
  0
LINE
  5
C7C5
330
C611
100
AcDbEntity
  8
1
  6
Continuous
100
AcDbLine
 10
347.744833
 20
247.53796
 30
0.0
 11
347.949971
 21
247.3328219999999
 31
0.0
  0
ARC
  5
C7C6
330
C611
100
AcDbEntity
  8
1
  6
Continuous
100
AcDbCircle
 10
342.800725
 20
217.3127159999999
 30
0.0
 40
30.0
100
AcDbArc
 50
8.119820999999998
 51
16.955753
  0
ARC
  5
C7C7
330
C611
100
AcDbEntity
  8
1
  6
Continuous
100
AcDbCircle
 10
372.499971
 20
220.5500279999998
 30
0.0
 40
1.0
100
AcDbArc
 50
0.0
 51
90.0
  0
LINE
  5
C7C8
330
C611
100
AcDbEntity
  8
1
  6
Continuous
100
AcDbLine
 10
338.86027
 20
221.5500279999999
 30
0.0
 11
338.199971
 21
221.5500279999999
 31
0.0
  0
LINE
  5
C7C9
330
C611
100
AcDbEntity
  8
1
  6
Continuous
100
AcDbLine
 10
339.1029429999999
 20
212.9529999999999
 30
0.0
 11
338.199971
 21
212.0500279999999
 31
0.0
  0
LINE
  5
C7CA
330
C611
100
AcDbEntity
  8
1
  6
Continuous
100
AcDbLine
 10
338.9005189999999
 20
214.7505759999999
 30
0.0
 11
338.199971
 21
214.0500279999999
 31
0.0
  0
LINE
  5
C7CB
330
C611
100
AcDbEntity
  8
1
  6
Continuous
100
AcDbLine
 10
378.825038
 20
251.1857369999999
 30
0.0
 11
367.8149259999998
 21
251.1857369999999
 31
0.0
  0
ARC
  5
C7CC
330
C611
100
AcDbEntity
  8
1
  6
Continuous
100
AcDbCircle
 10
375.9312009999999
 20
253.3452609999999
 30
0.0
 40
3.610794999999998
100
AcDbArc
 50
270.0
 51
323.267889
  0
ARC
  5
C7CD
330
C611
100
AcDbEntity
  8
1
  6
Continuous
100
AcDbCircle
 10
370.0881969999999
 20
250.3112049999999
 30
0.0
 40
6.407901999999999
100
AcDbArc
 50
334.3555600000001
 51
347.121283
  0
ARC
  5
C7CE
330
C611
100
AcDbEntity
  8
1
  6
Continuous
100
AcDbCircle
 10
371.572562
 20
246.2284609999999
 30
0.0
 40
4.640519999999998
100
AcDbArc
 50
47.356681
 51
49.07081699999999
  0
ARC
  5
C7CF
330
C611
100
AcDbEntity
  8
1
  6
Continuous
100
AcDbCircle
 10
375.5456409999999
 20
248.6059229999999
 30
0.0
 40
0.8364709999999998
100
AcDbArc
 50
19.341459
 51
77.625084
  0
LINE
  5
C7D0
330
C611
100
AcDbEntity
  8
1
  6
Continuous
100
AcDbLine
 10
375.724903
 20
249.42296
 30
0.0
 11
374.8599029999998
 21
249.44796
 31
0.0
  0
LINE
  5
C7D1
330
C611
100
AcDbEntity
  8
1
  6
Continuous
100
AcDbLine
 10
374.8599029999998
 20
249.44796
 30
0.0
 11
374.7162
 21
249.6419589999999
 31
0.0
  0
LINE
  5
C7D2
330
C611
100
AcDbEntity
  8
1
  6
Continuous
100
AcDbLine
 10
378.825038
 20
251.1857369999999
 30
0.0
 11
378.825038
 21
251.364394
 31
0.0
  0
ARC
  5
C7D3
330
C611
100
AcDbEntity
  8
1
  6
Continuous
100
AcDbCircle
 10
375.139672
 20
243.2286949999999
 30
0.0
 40
2.0
100
AcDbArc
 50
0.0
 51
90.0
  0
LINE
  5
C7D4
330
C611
100
AcDbEntity
  8
1
  6
Continuous
100
AcDbLine
 10
376.999971
 20
247.53796
 30
0.0
 11
376.999971
 21
245.2286949999999
 31
0.0
  0
LINE
  5
C7D5
330
C611
100
AcDbEntity
  8
1
  6
Continuous
100
AcDbLine
 10
368.438875
 20
247.53796
 30
0.0
 11
368.0499709999998
 21
247.1490559999999
 31
0.0
  0
LINE
  5
C7D6
330
C611
100
AcDbEntity
  8
1
  6
Continuous
100
AcDbLine
 10
369.853089
 20
247.53796
 30
0.0
 11
368.0499709999998
 21
245.734843
 31
0.0
  0
LINE
  5
C7D7
330
C611
100
AcDbEntity
  8
1
  6
Continuous
100
AcDbLine
 10
371.2673019999999
 20
247.53796
 30
0.0
 11
368.9580369999998
 21
245.2286949999999
 31
0.0
  0
LINE
  5
C7D8
330
C611
100
AcDbEntity
  8
1
  6
Continuous
100
AcDbLine
 10
372.681516
 20
247.53796
 30
0.0
 11
370.37225
 21
245.2286949999999
 31
0.0
  0
LINE
  5
C7D9
330
C611
100
AcDbEntity
  8
1
  6
Continuous
100
AcDbLine
 10
374.095729
 20
247.53796
 30
0.0
 11
371.786464
 21
245.2286949999999
 31
0.0
  0
LINE
  5
C7DA
330
C611
100
AcDbEntity
  8
1
  6
Continuous
100
AcDbLine
 10
375.509943
 20
247.53796
 30
0.0
 11
373.2006779999999
 21
245.2286949999999
 31
0.0
  0
LINE
  5
C7DB
330
C611
100
AcDbEntity
  8
1
  6
Continuous
100
AcDbLine
 10
376.9241559999999
 20
247.53796
 30
0.0
 11
374.614891
 21
245.2286949999999
 31
0.0
  0
LINE
  5
C7DC
330
C611
100
AcDbEntity
  8
1
  6
Continuous
100
AcDbLine
 10
376.999971
 20
246.1995609999999
 30
0.0
 11
376.0291049999998
 21
245.2286949999999
 31
0.0
  0
LINE
  5
C7DD
330
C611
100
AcDbEntity
  8
1
  6
Continuous
100
AcDbLine
 10
368.0499709999998
 20
245.617599
 30
0.0
 11
368.438875
 21
245.2286949999999
 31
0.0
  0
LINE
  5
C7DE
330
C611
100
AcDbEntity
  8
1
  6
Continuous
100
AcDbLine
 10
368.0499709999998
 20
247.0318119999999
 30
0.0
 11
369.853089
 21
245.2286949999999
 31
0.0
  0
LINE
  5
C7DF
330
C611
100
AcDbEntity
  8
1
  6
Continuous
100
AcDbLine
 10
368.9580369999998
 20
247.53796
 30
0.0
 11
371.2673019999999
 21
245.2286949999999
 31
0.0
  0
LINE
  5
C7E0
330
C611
100
AcDbEntity
  8
1
  6
Continuous
100
AcDbLine
 10
370.37225
 20
247.53796
 30
0.0
 11
372.681516
 21
245.2286949999999
 31
0.0
  0
LINE
  5
C7E1
330
C611
100
AcDbEntity
  8
1
  6
Continuous
100
AcDbLine
 10
371.786464
 20
247.53796
 30
0.0
 11
374.095729
 21
245.2286949999999
 31
0.0
  0
LINE
  5
C7E2
330
C611
100
AcDbEntity
  8
1
  6
Continuous
100
AcDbLine
 10
373.2006779999999
 20
247.53796
 30
0.0
 11
375.509943
 21
245.2286949999999
 31
0.0
  0
LINE
  5
C7E3
330
C611
100
AcDbEntity
  8
1
  6
Continuous
100
AcDbLine
 10
374.614891
 20
247.53796
 30
0.0
 11
376.9241559999999
 21
245.2286949999999
 31
0.0
  0
LINE
  5
C7E4
330
C611
100
AcDbEntity
  8
1
  6
Continuous
100
AcDbLine
 10
376.0291049999998
 20
247.53796
 30
0.0
 11
376.999971
 21
246.5670939999998
 31
0.0
  0
LINE
  5
C7E5
330
C611
100
AcDbEntity
  8
1
  6
Continuous
100
AcDbLine
 10
377.139672
 20
243.2286949999999
 30
0.0
 11
377.139672
 21
215.991175
 31
0.0
  0
ARC
  5
C7E6
330
C611
100
AcDbEntity
  8
1
  6
Continuous
100
AcDbCircle
 10
373.1992169999998
 20
217.3127159999999
 30
0.0
 40
30.0
100
AcDbArc
 50
163.044247
 51
171.880179
  0
ARC
  5
C7E7
330
C611
100
AcDbEntity
  8
1
  6
Continuous
100
AcDbCircle
 10
343.499971
 20
220.5500279999998
 30
0.0
 40
1.0
100
AcDbArc
 50
90.0
 51
180.0
  0
LINE
  5
C7E8
330
C611
100
AcDbEntity
  8
1
  6
Continuous
100
AcDbLine
 10
378.1262089999998
 20
221.0500279999999
 30
0.0
 11
377.139672
 21
221.0500279999999
 31
0.0
  0
ARC
  5
C7E9
330
C611
100
AcDbEntity
  8
1
  6
Continuous
100
AcDbCircle
 10
340.068742
 20
253.3452609999999
 30
0.0
 40
3.610794999999998
100
AcDbArc
 50
216.7321109999999
 51
270.0
  0
ARC
  5
C7EA
330
C611
100
AcDbEntity
  8
1
  6
Continuous
100
AcDbCircle
 10
345.9117449999998
 20
250.3112049999999
 30
0.0
 40
6.407901999999999
100
AcDbArc
 50
192.8787169999999
 51
205.64444
  0
ARC
  5
C7EB
330
C611
100
AcDbEntity
  8
1
  6
Continuous
100
AcDbCircle
 10
344.4273799999999
 20
246.2284609999999
 30
0.0
 40
4.640519999999998
100
AcDbArc
 50
130.929183
 51
132.6433189999999
  0
ARC
  5
C7EC
330
C611
100
AcDbEntity
  8
1
  6
Continuous
100
AcDbCircle
 10
340.4543019999999
 20
248.6059229999999
 30
0.0
 40
0.8364709999999998
100
AcDbArc
 50
102.3749159999999
 51
160.6585409999999
  0
LINE
  5
C7ED
330
C611
100
AcDbEntity
  8
1
  6
Continuous
100
AcDbLine
 10
340.275039
 20
249.42296
 30
0.0
 11
341.140039
 21
249.44796
 31
0.0
  0
LINE
  5
C7EE
330
C611
100
AcDbEntity
  8
1
  6
Continuous
100
AcDbLine
 10
341.140039
 20
249.44796
 30
0.0
 11
341.283742
 21
249.6419589999999
 31
0.0
  0
LINE
  5
C7EF
330
C611
100
AcDbEntity
  8
1
  6
Continuous
100
AcDbLine
 10
337.174904
 20
251.1857369999999
 30
0.0
 11
337.174904
 21
251.364394
 31
0.0
  0
ARC
  5
C7F0
330
C611
100
AcDbEntity
  8
1
  6
Continuous
100
AcDbCircle
 10
340.86027
 20
243.2286949999999
 30
0.0
 40
2.0
100
AcDbArc
 50
90.0
 51
180.0
  0
LINE
  5
C7F1
330
C611
100
AcDbEntity
  8
1
  6
Continuous
100
AcDbLine
 10
338.999971
 20
247.53796
 30
0.0
 11
338.999971
 21
245.2286949999999
 31
0.0
  0
LINE
  5
C7F2
330
C611
100
AcDbEntity
  8
1
  6
Continuous
100
AcDbLine
 10
340.1546039999999
 20
247.53796
 30
0.0
 11
338.999971
 21
246.383327
 31
0.0
  0
LINE
  5
C7F3
330
C611
100
AcDbEntity
  8
1
  6
Continuous
100
AcDbLine
 10
341.5688169999999
 20
247.53796
 30
0.0
 11
339.2595519999999
 21
245.2286949999999
 31
0.0
  0
LINE
  5
C7F4
330
C611
100
AcDbEntity
  8
1
  6
Continuous
100
AcDbLine
 10
342.9830309999999
 20
247.53796
 30
0.0
 11
340.673766
 21
245.2286949999999
 31
0.0
  0
LINE
  5
C7F5
330
C611
100
AcDbEntity
  8
1
  6
Continuous
100
AcDbLine
 10
344.397244
 20
247.53796
 30
0.0
 11
342.087979
 21
245.2286949999999
 31
0.0
  0
LINE
  5
C7F6
330
C611
100
AcDbEntity
  8
1
  6
Continuous
100
AcDbLine
 10
345.811458
 20
247.53796
 30
0.0
 11
343.502193
 21
245.2286949999999
 31
0.0
  0
LINE
  5
C7F7
330
C611
100
AcDbEntity
  8
1
  6
Continuous
100
AcDbLine
 10
347.2256719999998
 20
247.53796
 30
0.0
 11
344.916406
 21
245.2286949999999
 31
0.0
  0
LINE
  5
C7F8
330
C611
100
AcDbEntity
  8
1
  6
Continuous
100
AcDbLine
 10
347.949971
 20
246.8480459999999
 30
0.0
 11
346.33062
 21
245.2286949999999
 31
0.0
  0
LINE
  5
C7F9
330
C611
100
AcDbEntity
  8
1
  6
Continuous
100
AcDbLine
 10
340.1546039999999
 20
245.2286949999999
 30
0.0
 11
338.999971
 21
246.383327
 31
0.0
  0
LINE
  5
C7FA
330
C611
100
AcDbEntity
  8
1
  6
Continuous
100
AcDbLine
 10
339.2595519999999
 20
247.53796
 30
0.0
 11
341.5688169999999
 21
245.2286949999999
 31
0.0
  0
LINE
  5
C7FB
330
C611
100
AcDbEntity
  8
1
  6
Continuous
100
AcDbLine
 10
340.673766
 20
247.53796
 30
0.0
 11
342.9830309999999
 21
245.2286949999999
 31
0.0
  0
LINE
  5
C7FC
330
C611
100
AcDbEntity
  8
1
  6
Continuous
100
AcDbLine
 10
342.087979
 20
247.53796
 30
0.0
 11
344.397244
 21
245.2286949999999
 31
0.0
  0
LINE
  5
C7FD
330
C611
100
AcDbEntity
  8
1
  6
Continuous
100
AcDbLine
 10
343.502193
 20
247.53796
 30
0.0
 11
345.811458
 21
245.2286949999999
 31
0.0
  0
LINE
  5
C7FE
330
C611
100
AcDbEntity
  8
1
  6
Continuous
100
AcDbLine
 10
344.916406
 20
247.53796
 30
0.0
 11
347.2256719999998
 21
245.2286949999999
 31
0.0
  0
LINE
  5
C7FF
330
C611
100
AcDbEntity
  8
1
  6
Continuous
100
AcDbLine
 10
346.33062
 20
247.53796
 30
0.0
 11
347.949971
 21
245.9186089999998
 31
0.0
  0
LINE
  5
C800
330
C611
100
AcDbEntity
  8
1
  6
Continuous
100
AcDbLine
 10
338.86027
 20
243.2286949999999
 30
0.0
 11
338.86027
 21
215.991175
 31
0.0
  0
ARC
  5
C801
330
C611
100
AcDbEntity
  8
1
  6
Continuous
100
AcDbCircle
 10
315.141408
 20
254.704394
 30
0.0
 40
3.339999999999998
100
AcDbArc
 50
242.1952759999999
 51
270.0
  0
LINE
  5
C802
330
C611
100
AcDbEntity
  8
1
  6
Continuous
100
AcDbLine
 10
312.0
 20
254.050022
 30
0.0
 11
312.0
 21
251.750022
 31
0.0
  0
LINE
  5
C803
330
C611
100
AcDbEntity
  8
1
  6
Continuous
100
AcDbLine
 10
363.999971
 20
211.5500279999999
 30
0.0
 11
351.999971
 21
211.5500279999999
 31
0.0
  0
LINE
  5
C804
330
C611
100
AcDbEntity
  8
1
  6
Continuous
100
AcDbLine
 10
368.999971
 20
208.0500279999998
 30
0.0
 11
346.999971
 21
208.0500279999998
 31
0.0
  0
LINE
  5
C805
330
C611
100
AcDbEntity
  8
1
  6
Continuous
100
AcDbLine
 10
375.999971
 20
203.050028
 30
0.0
 11
339.999971
 21
203.050028
 31
0.0
  0
LINE
  5
C806
330
C611
100
AcDbEntity
  8
1
  6
Continuous
100
AcDbLine
 10
377.999971
 20
197.0500279999999
 30
0.0
 11
337.999971
 21
197.0500279999999
 31
0.0
  0
LINE
  5
C807
330
C611
100
AcDbEntity
  8
1
  6
Continuous
100
AcDbLine
 10
374.399971
 20
194.050028
 30
0.0
 11
341.5999709999999
 21
194.050028
 31
0.0
  0
LINE
  5
C808
330
C611
100
AcDbEntity
  8
1
  6
Continuous
100
AcDbLine
 10
372.249971
 20
203.5500279999999
 30
0.0
 11
343.749971
 21
203.5500279999999
 31
0.0
  0
LINE
  5
C809
330
C611
100
AcDbEntity
  8
1
  6
Continuous
100
AcDbLine
 10
351.999971
 20
221.950006
 30
0.0
 11
351.999971
 21
208.0500279999998
 31
0.0
  0
LINE
  5
C80A
330
C611
100
AcDbEntity
  8
2
  6
Continuous
100
AcDbLine
 10
352.946971
 20
221.950006
 30
0.0
 11
352.946971
 21
211.5500279999999
 31
0.0
  0
ARC
  5
C80B
330
C611
100
AcDbEntity
  8
1
  6
Continuous
100
AcDbCircle
 10
341.5999709999999
 20
196.0500279999999
 30
0.0
 40
2.0
100
AcDbArc
 50
180.0
 51
270.0
  0
ARC
  5
C80C
330
C611
100
AcDbEntity
  8
1
  6
Continuous
100
AcDbCircle
 10
339.999971
 20
201.050028
 30
0.0
 40
2.0
100
AcDbArc
 50
90.0
 51
180.0
  0
LINE
  5
C80D
330
C611
100
AcDbEntity
  8
1
  6
Continuous
100
AcDbLine
 10
337.999971
 20
201.050028
 30
0.0
 11
337.999971
 21
197.0500279999999
 31
0.0
  0
LINE
  5
C80E
330
C611
100
AcDbEntity
  8
1
  6
Continuous
100
AcDbLine
 10
353.949971
 20
204.0500279999998
 30
0.0
 11
353.949971
 21
203.5500279999999
 31
0.0
  0
LINE
  5
C80F
330
C611
100
AcDbEntity
  8
2
  6
Continuous
100
AcDbLine
 10
352.946971
 20
211.5500279999999
 30
0.0
 11
351.999971
 21
209.9097759999999
 31
0.0
  0
LINE
  5
C810
330
C611
100
AcDbEntity
  8
1
  6
Continuous
100
AcDbLine
 10
339.5999709999999
 20
197.0500279999999
 30
0.0
 11
339.5999709999999
 21
196.0500279999999
 31
0.0
  0
LINE
  5
C811
330
C611
100
AcDbEntity
  8
1
  6
Continuous
100
AcDbLine
 10
343.749971
 20
203.5500279999999
 30
0.0
 11
343.749971
 21
203.050028
 31
0.0
  0
LINE
  5
C812
330
C611
100
AcDbEntity
  8
1
  6
Continuous
100
AcDbLine
 10
363.999971
 20
221.950006
 30
0.0
 11
363.999971
 21
208.0500279999998
 31
0.0
  0
LINE
  5
C813
330
C611
100
AcDbEntity
  8
2
  6
Continuous
100
AcDbLine
 10
363.052971
 20
221.950006
 30
0.0
 11
363.052971
 21
211.5500279999999
 31
0.0
  0
LINE
  5
C814
330
C611
100
AcDbEntity
  8
1
  6
Continuous
100
AcDbLine
 10
362.0499709999998
 20
204.0500279999998
 30
0.0
 11
362.0499709999998
 21
203.5500279999999
 31
0.0
  0
LINE
  5
C815
330
C611
100
AcDbEntity
  8
2
  6
Continuous
100
AcDbLine
 10
363.052971
 20
211.5500279999999
 30
0.0
 11
363.999971
 21
209.9097759999999
 31
0.0
  0
LINE
  5
C816
330
C611
100
AcDbEntity
  8
1
  6
Continuous
100
AcDbLine
 10
377.999971
 20
201.050028
 30
0.0
 11
377.999971
 21
197.0500279999999
 31
0.0
  0
LINE
  5
C817
330
C611
100
AcDbEntity
  8
1
  6
Continuous
100
AcDbLine
 10
376.399971
 20
197.0500279999999
 30
0.0
 11
376.399971
 21
196.0500279999999
 31
0.0
  0
LINE
  5
C818
330
C611
100
AcDbEntity
  8
1
  6
Continuous
100
AcDbLine
 10
372.249971
 20
203.5500279999999
 30
0.0
 11
372.249971
 21
203.050028
 31
0.0
  0
ARC
  5
C819
330
C611
100
AcDbEntity
  8
1
  6
Continuous
100
AcDbCircle
 10
375.999971
 20
201.050028
 30
0.0
 40
2.0
100
AcDbArc
 50
0.0
 51
90.0
  0
ARC
  5
C81A
330
C611
100
AcDbEntity
  8
1
  6
Continuous
100
AcDbCircle
 10
374.399971
 20
196.0500279999999
 30
0.0
 40
2.0
100
AcDbArc
 50
270.0
 51
0.0
  0
LINE
  5
C81B
330
C611
100
AcDbEntity
  8
1
  6
Continuous
100
AcDbLine
 10
365.3611869999999
 20
221.950006
 30
0.0
 11
350.6387549999999
 21
221.950006
 31
0.0
  0
LINE
  5
C81C
330
C611
100
AcDbEntity
  8
1
  6
Continuous
100
AcDbLine
 10
370.859597
 20
229.655841
 30
0.0
 11
345.140345
 21
229.655841
 31
0.0
  0
LINE
  5
C81D
330
C611
100
AcDbEntity
  8
1
  6
Continuous
100
AcDbLine
 10
370.7999709999999
 20
229.655841
 30
0.0
 11
370.7999709999999
 21
241.355841
 31
0.0
  0
ARC
  5
C81E
330
C611
100
AcDbEntity
  8
1
  6
Continuous
100
AcDbCircle
 10
367.499971
 20
241.355841
 30
0.0
 40
3.299999999999998
100
AcDbArc
 50
0.0
 51
90.0
  0
LINE
  5
C81F
330
C611
100
AcDbEntity
  8
1
  6
Continuous
100
AcDbLine
 10
367.499971
 20
244.655841
 30
0.0
 11
348.499971
 21
244.655841
 31
0.0
  0
ARC
  5
C820
330
C611
100
AcDbEntity
  8
1
  6
Continuous
100
AcDbCircle
 10
348.499971
 20
241.355841
 30
0.0
 40
3.299999999999998
100
AcDbArc
 50
90.0
 51
180.0
  0
LINE
  5
C821
330
C611
100
AcDbEntity
  8
1
  6
Continuous
100
AcDbLine
 10
345.1999709999999
 20
229.655841
 30
0.0
 11
345.1999709999999
 21
241.355841
 31
0.0
  0
LINE
  5
C822
330
C611
100
AcDbEntity
  8
1
  6
Continuous
100
AcDbLine
 10
367.8149259999998
 20
229.655841
 30
0.0
 11
367.8149259999998
 21
222.941993
 31
0.0
  0
LINE
  5
C823
330
C611
100
AcDbEntity
  8
1
  6
Continuous
100
AcDbLine
 10
348.185016
 20
229.655841
 30
0.0
 11
348.185016
 21
222.941993
 31
0.0
  0
LINE
  5
C824
330
C611
100
AcDbEntity
  8
1
  6
Continuous
100
AcDbLine
 10
362.9074479999999
 20
229.655841
 30
0.0
 11
362.9074479999999
 21
223.4500189999998
 31
0.0
  0
ARC
  5
C825
330
C611
100
AcDbEntity
  8
1
  6
Continuous
100
AcDbCircle
 10
365.3611869999999
 20
224.7069399999999
 30
0.0
 40
2.756934
100
AcDbArc
 50
207.1236649999999
 51
301.9371729999999
  0
ARC
  5
C826
330
C611
100
AcDbEntity
  8
1
  6
Continuous
100
AcDbCircle
 10
357.999971
 20
230.727721
 30
0.0
 40
8.777714999999998
100
AcDbArc
 50
236.0075469999999
 51
303.9924529999999
  0
LINE
  5
C827
330
C611
100
AcDbEntity
  8
1
  6
Continuous
100
AcDbLine
 10
353.0924939999999
 20
229.655841
 30
0.0
 11
353.0924939999999
 21
223.4500189999998
 31
0.0
  0
LINE
  5
C828
330
C611
100
AcDbEntity
  8
1
  6
Continuous
100
AcDbLine
 10
368.999971
 20
204.0500279999998
 30
0.0
 11
346.999971
 21
204.0500279999998
 31
0.0
  0
LINE
  5
C829
330
C611
100
AcDbEntity
  8
1
  6
Continuous
100
AcDbLine
 10
346.999971
 20
208.0500279999998
 30
0.0
 11
346.999971
 21
204.0500279999998
 31
0.0
  0
LINE
  5
C82A
330
C611
100
AcDbEntity
  8
1
  6
Continuous
100
AcDbLine
 10
357.999971
 20
205.0592969999999
 30
0.0
 11
357.999971
 21
208.0500279999998
 31
0.0
  0
LINE
  5
C82B
330
C611
100
AcDbEntity
  8
1
  6
Continuous
100
AcDbLine
 10
368.999971
 20
208.0500279999998
 30
0.0
 11
368.999971
 21
204.0500279999998
 31
0.0
  0
LINE
  5
C82C
330
C611
100
AcDbEntity
  8
1
  6
Continuous
100
AcDbLine
 10
367.8149259999998
 20
222.941993
 30
0.0
 11
366.6581569999999
 21
222.2741319999999
 31
0.0
  0
LINE
  5
C82D
330
C611
100
AcDbEntity
  8
1
  6
Continuous
100
AcDbLine
 10
348.185016
 20
222.941993
 30
0.0
 11
349.341785
 21
222.2741319999999
 31
0.0
  0
ARC
  5
C82E
330
C611
100
AcDbEntity
  8
1
  6
Continuous
100
AcDbCircle
 10
350.6387549999999
 20
224.7069399999999
 30
0.0
 40
2.756934
100
AcDbArc
 50
238.0628269999998
 51
332.876335
  0
ARC
  5
C82F
330
C611
100
AcDbEntity
  8
1
  6
Continuous
100
AcDbCircle
 10
352.499971
 20
219.540756
 30
0.0
 40
15.490728
100
AcDbArc
 50
249.203424
 51
290.7965759999999
  0
ARC
  5
C830
330
C611
100
AcDbEntity
  8
1
  6
Continuous
100
AcDbCircle
 10
363.499971
 20
219.540756
 30
0.0
 40
15.490728
100
AcDbArc
 50
249.203424
 51
290.7965759999999
  0
LINE
  5
C831
330
C611
100
AcDbEntity
  8
1
  6
Continuous
100
AcDbLine
 10
367.8149259999998
 20
251.364394
 30
0.0
 11
367.8149259999998
 21
244.6407769999999
 31
0.0
  0
LINE
  5
C832
330
C611
100
AcDbEntity
  8
1
  6
Continuous
100
AcDbLine
 10
362.9074479999999
 20
251.364394
 30
0.0
 11
362.9074479999999
 21
244.655841
 31
0.0
  0
LINE
  5
C833
330
C611
100
AcDbEntity
  8
1
  6
Continuous
100
AcDbLine
 10
353.0924939999999
 20
251.364394
 30
0.0
 11
353.0924939999999
 21
244.655841
 31
0.0
  0
LINE
  5
C834
330
C611
100
AcDbEntity
  8
1
  6
Continuous
100
AcDbLine
 10
348.185016
 20
251.364394
 30
0.0
 11
348.185016
 21
244.6407769999999
 31
0.0
  0
LINE
  5
C835
330
C611
100
AcDbEntity
  8
1
  6
Continuous
100
AcDbLine
 10
348.185016
 20
249.44796
 30
0.0
 11
341.140039
 21
249.44796
 31
0.0
  0
LINE
  5
C836
330
C611
100
AcDbEntity
  8
1
  6
Continuous
100
AcDbLine
 10
348.185016
 20
249.734466
 30
0.0
 11
340.068742
 21
249.734466
 31
0.0
  0
LINE
  5
C837
330
C611
100
AcDbEntity
  8
1
  6
Continuous
100
AcDbLine
 10
368.0499709999998
 20
247.53796
 30
0.0
 11
376.999971
 21
247.53796
 31
0.0
  0
LINE
  5
C838
330
C611
100
AcDbEntity
  8
1
  6
Continuous
100
AcDbLine
 10
368.0499709999998
 20
245.2286949999999
 30
0.0
 11
376.999971
 21
245.2286949999999
 31
0.0
  0
LINE
  5
C839
330
C611
100
AcDbEntity
  8
1
  6
Continuous
100
AcDbLine
 10
367.8149259999998
 20
247.7643939999999
 30
0.0
 11
368.0499709999998
 21
247.7643939999999
 31
0.0
  0
LINE
  5
C83A
330
C611
100
AcDbEntity
  8
1
  6
Continuous
100
AcDbLine
 10
367.8149259999998
 20
244.7643939999999
 30
0.0
 11
368.0499709999998
 21
244.7643939999999
 31
0.0
  0
LINE
  5
C83B
330
C611
100
AcDbEntity
  8
1
  6
Continuous
100
AcDbLine
 10
368.0499709999998
 20
247.7643939999999
 30
0.0
 11
368.0499709999998
 21
244.7643939999999
 31
0.0
  0
LINE
  5
C83C
330
C611
100
AcDbEntity
  8
1
  6
Continuous
100
AcDbLine
 10
348.185016
 20
247.7643939999999
 30
0.0
 11
347.949971
 21
247.7643939999999
 31
0.0
  0
LINE
  5
C83D
330
C611
100
AcDbEntity
  8
1
  6
Continuous
100
AcDbLine
 10
347.949971
 20
247.7643939999999
 30
0.0
 11
347.949971
 21
244.7643939999999
 31
0.0
  0
LINE
  5
C83E
330
C611
100
AcDbEntity
  8
1
  6
Continuous
100
AcDbLine
 10
348.185016
 20
244.7643939999999
 30
0.0
 11
347.949971
 21
244.7643939999999
 31
0.0
  0
CIRCLE
  5
C83F
330
C611
100
AcDbEntity
  8
1
  6
Continuous
100
AcDbCircle
 10
521.9999699999998
 20
214.0500279999999
 30
0.0
 40
7.0
  0
CIRCLE
  5
C840
330
C611
100
AcDbEntity
  8
1
  6
Continuous
100
AcDbCircle
 10
193.9999719999999
 20
214.0500279999999
 30
0.0
 40
7.5
  0
CIRCLE
  5
C841
330
C611
100
AcDbEntity
  8
1
  6
Continuous
100
AcDbCircle
 10
193.9999719999999
 20
214.0500279999999
 30
0.0
 40
4.0
  0
CIRCLE
  5
C842
330
C611
100
AcDbEntity
  8
2
  6
Continuous
100
AcDbCircle
 10
193.9999719999999
 20
214.0500279999999
 30
0.0
 40
3.3235
  0
LINE
  5
C843
330
C611
100
AcDbEntity
  8
1
  6
Continuous
100
AcDbLine
 10
257.999971
 20
124.5
 30
0.0
 11
257.999971
 21
98.99995600000004
 31
0.0
  0
LINE
  5
C844
330
C611
100
AcDbEntity
  8
1
  6
Continuous
100
AcDbLine
 10
165.9999709999999
 20
49.5
 30
0.0
 11
165.9999709999999
 21
124.5
 31
0.0
  0
LINE
  5
C845
330
C611
100
AcDbEntity
  8
4
  6
CENTER
100
AcDbLine
 10
211.999971
 20
38.90330499999999
 30
0.0
 11
211.999971
 21
136.579426
 31
0.0
  0
LINE
  5
C846
330
C611
100
AcDbEntity
  8
4
  6
CENTER
100
AcDbLine
 10
264.999938
 20
87.0
 30
0.0
 11
162.9999709999998
 21
87.0
 31
0.0
  0
LINE
  5
C847
330
C611
100
AcDbEntity
  8
1
  6
Continuous
100
AcDbLine
 10
249.499971
 20
133.0
 30
0.0
 11
174.4999709999999
 21
133.0
 31
0.0
  0
LINE
  5
C848
330
C611
100
AcDbEntity
  8
4
  6
CENTER
100
AcDbLine
 10
181.7499709999999
 20
124.5
 30
0.0
 11
167.2499709999998
 21
124.5
 31
0.0
  0
CIRCLE
  5
C849
330
C611
100
AcDbEntity
  8
1
  6
Continuous
100
AcDbCircle
 10
174.4999709999999
 20
124.5
 30
0.0
 40
4.25
  0
ARC
  5
C84A
330
C611
100
AcDbEntity
  8
1
  6
Continuous
100
AcDbCircle
 10
174.4999709999999
 20
124.5
 30
0.0
 40
8.5
100
AcDbArc
 50
90.0
 51
180.0
  0
LINE
  5
C84B
330
C611
100
AcDbEntity
  8
4
  6
CENTER
100
AcDbLine
 10
174.4999709999999
 20
131.75
 30
0.0
 11
174.4999709999999
 21
117.25
 31
0.0
  0
LINE
  5
C84C
330
C611
100
AcDbEntity
  8
4
  6
CENTER
100
AcDbLine
 10
249.499971
 20
132.227487
 30
0.0
 11
249.499971
 21
117.25
 31
0.0
  0
CIRCLE
  5
C84D
330
C611
100
AcDbEntity
  8
1
  6
Continuous
100
AcDbCircle
 10
249.499971
 20
124.5
 30
0.0
 40
4.25
  0
ARC
  5
C84E
330
C611
100
AcDbEntity
  8
1
  6
Continuous
100
AcDbCircle
 10
249.499971
 20
124.5
 30
0.0
 40
8.5
100
AcDbArc
 50
0.0
 51
90.0
  0
LINE
  5
C84F
330
C611
100
AcDbEntity
  8
4
  6
CENTER
100
AcDbLine
 10
256.749971
 20
124.5
 30
0.0
 11
242.2499709999999
 21
124.5
 31
0.0
  0
LINE
  5
C850
330
C611
100
AcDbEntity
  8
1
  6
Continuous
100
AcDbLine
 10
249.499971
 20
41.0
 30
0.0
 11
174.4999709999999
 21
41.0
 31
0.0
  0
LINE
  5
C851
330
C611
100
AcDbEntity
  8
4
  6
CENTER
100
AcDbLine
 10
181.7499709999999
 20
49.5
 30
0.0
 11
167.2499709999998
 21
49.5
 31
0.0
  0
CIRCLE
  5
C852
330
C611
100
AcDbEntity
  8
1
  6
Continuous
100
AcDbCircle
 10
174.4999709999999
 20
49.5
 30
0.0
 40
4.25
  0
LINE
  5
C853
330
C611
100
AcDbEntity
  8
4
  6
CENTER
100
AcDbLine
 10
174.4999709999999
 20
56.75
 30
0.0
 11
174.4999709999999
 21
42.25
 31
0.0
  0
ARC
  5
C854
330
C611
100
AcDbEntity
  8
1
  6
Continuous
100
AcDbCircle
 10
174.4999709999999
 20
49.5
 30
0.0
 40
8.5
100
AcDbArc
 50
180.0
 51
270.0
  0
LINE
  5
C855
330
C611
100
AcDbEntity
  8
4
  6
CENTER
100
AcDbLine
 10
256.749971
 20
49.5
 30
0.0
 11
242.2499709999999
 21
49.5
 31
0.0
  0
ARC
  5
C856
330
C611
100
AcDbEntity
  8
1
  6
Continuous
100
AcDbCircle
 10
249.499971
 20
49.5
 30
0.0
 40
8.5
100
AcDbArc
 50
270.0
 51
0.0
  0
LINE
  5
C857
330
C611
100
AcDbEntity
  8
4
  6
CENTER
100
AcDbLine
 10
249.499971
 20
56.75
 30
0.0
 11
249.499971
 21
42.25
 31
0.0
  0
CIRCLE
  5
C858
330
C611
100
AcDbEntity
  8
1
  6
Continuous
100
AcDbCircle
 10
249.499971
 20
49.5
 30
0.0
 40
4.25
  0
CIRCLE
  5
C859
330
C611
100
AcDbEntity
  8
1
  6
Continuous
100
AcDbCircle
 10
241.9999379999999
 20
87.0
 30
0.0
 40
20.0
  0
LINE
  5
C85A
330
C611
100
AcDbEntity
  8
1
  6
Continuous
100
AcDbLine
 10
257.999971
 20
75.00004399999999
 30
0.0
 11
257.999971
 21
49.5
 31
0.0
  0
CIRCLE
  5
C85B
330
C611
100
AcDbEntity
  8
1
  6
Continuous
100
AcDbCircle
 10
241.9999379999999
 20
87.0
 30
0.0
 40
18.39999999999999
  0
LINE
  5
C85C
330
C611
100
AcDbEntity
  8
4
  6
CENTER
100
AcDbLine
 10
241.9999379999999
 20
64.0
 30
0.0
 11
241.9999379999999
 21
110.0
 31
0.0
  0
ARC
  5
C85D
330
C611
100
AcDbEntity
  8
1
  6
Continuous
100
AcDbCircle
 10
241.9999379999999
 20
87.0
 30
0.0
 40
5.5
100
AcDbArc
 50
318.5691279999999
 51
221.430826
  0
ARC
  5
C85E
330
C611
100
AcDbEntity
  8
1
  6
Continuous
100
AcDbCircle
 10
245.8236879999998
 20
83.625252
 30
0.0
 40
0.4
100
AcDbArc
 50
209.999934
 51
318.568933
  0
ARC
  5
C85F
330
C611
100
AcDbEntity
  8
1
  6
Continuous
100
AcDbCircle
 10
238.1761879999999
 20
83.625252
 30
0.0
 40
0.4
100
AcDbArc
 50
221.430871
 51
329.999948
  0
LINE
  5
C860
330
C611
100
AcDbEntity
  8
1
  6
Continuous
100
AcDbLine
 10
238.522599
 20
83.425255
 30
0.0
 11
239.3003639999998
 21
84.77237800000002
 31
0.0
  0
LINE
  5
C861
330
C611
100
AcDbEntity
  8
1
  6
Continuous
100
AcDbLine
 10
244.6995149999999
 20
84.77238099999999
 30
0.0
 11
245.477279
 21
83.425255
 31
0.0
  0
ARC
  5
C862
330
C611
100
AcDbEntity
  8
1
  6
Continuous
100
AcDbCircle
 10
238.1205049999998
 20
87.400002
 30
0.0
 40
0.4
100
AcDbArc
 50
174.1132429999999
 51
270.000001
  0
ARC
  5
C863
330
C611
100
AcDbEntity
  8
1
  6
Continuous
100
AcDbCircle
 10
240.2972169999999
 20
90.508667
 30
0.0
 40
0.4
100
AcDbArc
 50
20.000122
 51
115.886945
  0
ARC
  5
C864
330
C611
100
AcDbEntity
  8
1
  6
Continuous
100
AcDbCircle
 10
245.879371
 20
87.400002
 30
0.0
 40
0.4
100
AcDbArc
 50
270.0000179999999
 51
5.886752999999998
  0
ARC
  5
C865
330
C611
100
AcDbEntity
  8
1
  6
Continuous
100
AcDbCircle
 10
243.7026589999999
 20
90.508667
 30
0.0
 40
0.4
100
AcDbArc
 50
64.113073
 51
159.9999949999999
  0
ARC
  5
C866
330
C611
100
AcDbEntity
  8
1
  6
Continuous
100
AcDbCircle
 10
241.9999379999999
 20
87.0
 30
0.0
 40
4.299999999999998
100
AcDbArc
 50
115.8868629999999
 51
174.113188
  0
ARC
  5
C867
330
C611
100
AcDbEntity
  8
1
  6
Continuous
100
AcDbCircle
 10
241.9999379999999
 20
87.0
 30
0.0
 40
4.299999999999998
100
AcDbArc
 50
5.886828999999999
 51
64.113162
  0
LINE
  5
C868
330
C611
100
AcDbEntity
  8
1
  6
Continuous
100
AcDbLine
 10
245.4999379999999
 20
87.0
 30
0.0
 11
245.879371
 21
87.0
 31
0.0
  0
LINE
  5
C869
330
C611
100
AcDbEntity
  8
1
  6
Continuous
100
AcDbLine
 10
243.1970069999999
 20
90.28892500000001
 30
0.0
 11
243.326781
 21
90.645477
 31
0.0
  0
LINE
  5
C86A
330
C611
100
AcDbEntity
  8
1
  6
Continuous
100
AcDbLine
 10
240.673093
 20
90.645477
 30
0.0
 11
240.802868
 21
90.288924
 31
0.0
  0
LINE
  5
C86B
330
C611
100
AcDbEntity
  8
1
  6
Continuous
100
AcDbLine
 10
238.1205049999998
 20
87.0
 30
0.0
 11
238.499938
 21
87.0
 31
0.0
  0
LINE
  5
C86C
330
C611
100
AcDbEntity
  8
1
  6
Continuous
100
AcDbLine
 10
240.891599
 20
87.49278599999998
 30
0.0
 11
240.284133
 21
88.12183500000001
 31
0.0
  0
LINE
  5
C86D
330
C611
100
AcDbEntity
  8
1
  6
Continuous
100
AcDbLine
 10
243.1082769999999
 20
87.49278599999998
 30
0.0
 11
243.715743
 21
88.12183500000001
 31
0.0
  0
LINE
  5
C86E
330
C611
100
AcDbEntity
  8
1
  6
Continuous
100
AcDbLine
 10
241.9999379999999
 20
87.92897999999999
 30
0.0
 11
242.492724
 21
88.108339
 31
0.0
  0
LINE
  5
C86F
330
C611
100
AcDbEntity
  8
1
  6
Continuous
100
AcDbLine
 10
241.9999379999999
 20
87.92897999999999
 30
0.0
 11
241.507152
 21
88.108339
 31
0.0
  0
CIRCLE
  5
C870
330
C611
100
AcDbEntity
  8
1
  6
Continuous
100
AcDbCircle
 10
241.9999379999999
 20
87.0
 30
0.0
 40
3.5
  0
LINE
  5
C871
330
C611
100
AcDbEntity
  8
1
  6
Continuous
100
AcDbLine
 10
235.4999379999999
 20
93.49999999999999
 30
0.0
 11
235.4999379999999
 21
87.0
 31
0.0
  0
LINE
  5
C872
330
C611
100
AcDbEntity
  8
1
  6
Continuous
100
AcDbLine
 10
241.9999379999999
 20
86.07101999999995
 30
0.0
 11
241.507152
 21
85.89166099999998
 31
0.0
  0
LINE
  5
C873
330
C611
100
AcDbEntity
  8
1
  6
Continuous
100
AcDbLine
 10
241.507152
 20
85.89166099999998
 30
0.0
 11
240.8781029999999
 21
85.28419499999998
 31
0.0
  0
LINE
  5
C874
330
C611
100
AcDbEntity
  8
1
  6
Continuous
100
AcDbLine
 10
241.0709579999999
 20
87.0
 30
0.0
 11
240.891599
 21
87.49278599999998
 31
0.0
  0
LINE
  5
C875
330
C611
100
AcDbEntity
  8
1
  6
Continuous
100
AcDbLine
 10
241.0709579999999
 20
87.0
 30
0.0
 11
240.891599
 21
86.507214
 31
0.0
  0
LINE
  5
C876
330
C611
100
AcDbEntity
  8
1
  6
Continuous
100
AcDbLine
 10
240.891599
 20
86.507214
 30
0.0
 11
240.284133
 21
85.87816499999998
 31
0.0
  0
ARC
  5
C877
330
C611
100
AcDbEntity
  8
1
  6
Continuous
100
AcDbCircle
 10
241.9999379999999
 20
87.0
 30
0.0
 40
2.049999999999998
100
AcDbArc
 50
213.17764
 51
236.8223599999998
  0
LINE
  5
C878
330
C611
100
AcDbEntity
  8
1
  6
Continuous
100
AcDbLine
 10
242.492724
 20
85.89166099999998
 30
0.0
 11
243.1217729999999
 21
85.28419499999998
 31
0.0
  0
LINE
  5
C879
330
C611
100
AcDbEntity
  8
1
  6
Continuous
100
AcDbLine
 10
241.9999379999999
 20
86.07101999999995
 30
0.0
 11
242.492724
 21
85.89166099999998
 31
0.0
  0
LINE
  5
C87A
330
C611
100
AcDbEntity
  8
1
  6
Continuous
100
AcDbLine
 10
242.928918
 20
87.0
 30
0.0
 11
243.1082769999999
 21
86.507214
 31
0.0
  0
LINE
  5
C87B
330
C611
100
AcDbEntity
  8
1
  6
Continuous
100
AcDbLine
 10
243.1082769999999
 20
86.507214
 30
0.0
 11
243.715743
 21
85.87816499999998
 31
0.0
  0
LINE
  5
C87C
330
C611
100
AcDbEntity
  8
1
  6
Continuous
100
AcDbLine
 10
242.928918
 20
87.0
 30
0.0
 11
243.1082769999999
 21
87.49278599999998
 31
0.0
  0
ARC
  5
C87D
330
C611
100
AcDbEntity
  8
1
  6
Continuous
100
AcDbCircle
 10
241.9999379999999
 20
87.0
 30
0.0
 40
2.049999999999998
100
AcDbArc
 50
303.17764
 51
326.82236
  0
LINE
  5
C87E
330
C611
100
AcDbEntity
  8
1
  6
Continuous
100
AcDbLine
 10
241.507152
 20
88.108339
 30
0.0
 11
240.8781029999999
 21
88.715805
 31
0.0
  0
ARC
  5
C87F
330
C611
100
AcDbEntity
  8
1
  6
Continuous
100
AcDbCircle
 10
241.9999379999999
 20
87.0
 30
0.0
 40
2.049999999999998
100
AcDbArc
 50
123.1776399999999
 51
146.8223599999998
  0
LINE
  5
C880
330
C611
100
AcDbEntity
  8
1
  6
Continuous
100
AcDbLine
 10
242.492724
 20
88.108339
 30
0.0
 11
243.1217729999999
 21
88.715805
 31
0.0
  0
ARC
  5
C881
330
C611
100
AcDbEntity
  8
1
  6
Continuous
100
AcDbCircle
 10
241.9999379999999
 20
87.0
 30
0.0
 40
2.049999999999998
100
AcDbArc
 50
33.17763999999999
 51
56.82235999999999
  0
ARC
  5
C882
330
C611
100
AcDbEntity
  8
1
  6
Continuous
100
AcDbCircle
 10
241.9999379999999
 20
87.0
 30
0.0
 40
6.5
100
AcDbArc
 50
180.0
 51
0.0
  0
ARC
  5
C883
330
C611
100
AcDbEntity
  8
1
  6
Continuous
100
AcDbCircle
 10
241.9999379999999
 20
93.49999999999999
 30
0.0
 40
6.5
100
AcDbArc
 50
0.0
 51
180.0
  0
ARC
  5
C884
330
C611
100
AcDbEntity
  8
1
  6
Continuous
100
AcDbCircle
 10
211.999971
 20
87.0
 30
0.0
 40
44.416538
100
AcDbArc
 50
21.891171
 51
338.108829
  0
LINE
  5
C885
330
C611
100
AcDbEntity
  8
4
  6
CENTER
100
AcDbLine
 10
193.9999719999999
 20
61.30015799999998
 30
0.0
 11
193.9999719999999
 21
115.650137
 31
0.0
  0
ARC
  5
C886
330
C611
100
AcDbEntity
  8
1
  6
Continuous
100
AcDbCircle
 10
113.999972
 20
87.0
 30
0.0
 40
100.0
100
AcDbArc
 50
354.3552869999999
 51
5.644713000000001
  0
LINE
  5
C887
330
C611
100
AcDbEntity
  8
1
  6
Continuous
100
AcDbLine
 10
200.9999719999999
 20
66.873762
 30
0.0
 11
186.9999719999999
 21
66.873762
 31
0.0
  0
ARC
  5
C888
330
C611
100
AcDbEntity
  8
1
  6
Continuous
100
AcDbCircle
 10
193.9999719999999
 20
74.7
 30
0.0
 40
10.5
100
AcDbArc
 50
228.1896849999998
 51
311.810315
  0
LINE
  5
C889
330
C611
100
AcDbEntity
  8
1
  6
Continuous
100
AcDbLine
 10
186.4999719999999
 20
72.5
 30
0.0
 11
201.499972
 21
72.5
 31
0.0
  0
LINE
  5
C88A
330
C611
100
AcDbEntity
  8
1
  6
Continuous
100
AcDbLine
 10
177.9999719999999
 20
74.5
 30
0.0
 11
209.999972
 21
74.5
 31
0.0
  0
LINE
  5
C88B
330
C611
100
AcDbEntity
  8
1
  6
Continuous
100
AcDbLine
 10
209.999972
 20
74.5
 30
0.0
 11
212.3334069999999
 21
75.531532
 31
0.0
  0
ARC
  5
C88C
330
C611
100
AcDbEntity
  8
1
  6
Continuous
100
AcDbCircle
 10
211.524765
 20
77.360766
 30
0.0
 40
2.0
100
AcDbArc
 50
293.848591
 51
354.3552869999999
  0
LINE
  5
C88D
330
C611
100
AcDbEntity
  8
1
  6
Continuous
100
AcDbLine
 10
200.9999719999999
 20
66.873762
 30
0.0
 11
200.9999719999999
 21
69.2
 31
0.0
  0
ARC
  5
C88E
330
C611
100
AcDbEntity
  8
1
  6
Continuous
100
AcDbCircle
 10
200.4999719999999
 20
72.5
 30
0.0
 40
1.0
100
AcDbArc
 50
270.0
 51
0.0
  0
ARC
  5
C88F
330
C611
100
AcDbEntity
  8
1
  6
Continuous
100
AcDbCircle
 10
206.4999719999999
 20
74.709755
 30
0.0
 40
1.0
100
AcDbArc
 50
288.5739270000001
 51
347.891985
  0
ARC
  5
C890
330
C611
100
AcDbEntity
  8
1
  6
Continuous
100
AcDbCircle
 10
197.262661
 20
102.199246
 30
0.0
 40
30.0
100
AcDbArc
 50
278.1198209999999
 51
288.5739270000001
  0
LINE
  5
C891
330
C611
100
AcDbEntity
  8
1
  6
Continuous
100
AcDbLine
 10
186.9999719999999
 20
66.873762
 30
0.0
 11
186.9999719999999
 21
69.2
 31
0.0
  0
ARC
  5
C892
330
C611
100
AcDbEntity
  8
1
  6
Continuous
100
AcDbCircle
 10
187.4999719999999
 20
72.5
 30
0.0
 40
1.0
100
AcDbArc
 50
180.0
 51
270.0
  0
ARC
  5
C893
330
C611
100
AcDbEntity
  8
1
  6
Continuous
100
AcDbCircle
 10
190.7372839999999
 20
102.199246
 30
0.0
 40
30.0
100
AcDbArc
 50
251.426073
 51
261.880179
  0
LINE
  5
C894
330
C611
100
AcDbEntity
  8
1
  6
Continuous
100
AcDbLine
 10
175.455775
 20
104.8
 30
0.0
 11
202.5300619999999
 21
104.8
 31
0.0
  0
LINE
  5
C895
330
C611
100
AcDbEntity
  8
1
  6
Continuous
100
AcDbLine
 10
201.499972
 20
106.8
 30
0.0
 11
186.4999719999999
 21
106.8
 31
0.0
  0
LINE
  5
C896
330
C611
100
AcDbEntity
  8
1
  6
Continuous
100
AcDbLine
 10
186.4999719999999
 20
101.5
 30
0.0
 11
201.499972
 21
101.5
 31
0.0
  0
LINE
  5
C897
330
C611
100
AcDbEntity
  8
1
  6
Continuous
100
AcDbLine
 10
177.9999719999999
 20
99.50000000000001
 30
0.0
 11
209.999972
 21
99.50000000000001
 31
0.0
  0
LINE
  5
C898
330
C611
100
AcDbEntity
  8
1
  6
Continuous
100
AcDbLine
 10
175.087403
 20
102.4999999999999
 30
0.0
 11
202.5300619999999
 21
102.4999999999999
 31
0.0
  0
LINE
  5
C899
330
C611
100
AcDbEntity
  8
1
  6
Continuous
100
AcDbLine
 10
209.999972
 20
99.50000000000001
 30
0.0
 11
212.3334069999999
 21
98.46846800000001
 31
0.0
  0
ARC
  5
C89A
330
C611
100
AcDbEntity
  8
1
  6
Continuous
100
AcDbCircle
 10
211.524765
 20
96.63923400000001
 30
0.0
 40
2.0
100
AcDbArc
 50
5.644713000000001
 51
66.151409
  0
LINE
  5
C89B
330
C611
100
AcDbEntity
  8
1
  6
Continuous
100
AcDbLine
 10
195.9999719999999
 20
104.8
 30
0.0
 11
193.9999719999999
 21
106.8
 31
0.0
  0
LINE
  5
C89C
330
C611
100
AcDbEntity
  8
1
  6
Continuous
100
AcDbLine
 10
193.9999719999999
 20
104.8
 30
0.0
 11
191.9999719999999
 21
106.8
 31
0.0
  0
LINE
  5
C89D
330
C611
100
AcDbEntity
  8
1
  6
Continuous
100
AcDbLine
 10
201.499972
 20
104.8
 30
0.0
 11
201.499972
 21
106.8
 31
0.0
  0
ARC
  5
C89E
330
C611
100
AcDbEntity
  8
1
  6
Continuous
100
AcDbCircle
 10
200.4999719999999
 20
101.5
 30
0.0
 40
1.0
100
AcDbArc
 50
0.0
 51
90.0
  0
ARC
  5
C89F
330
C611
100
AcDbEntity
  8
1
  6
Continuous
100
AcDbCircle
 10
206.4999719999999
 20
99.29024500000002
 30
0.0
 40
1.0
100
AcDbArc
 50
12.108015
 51
71.426073
  0
ARC
  5
C8A0
330
C611
100
AcDbEntity
  8
1
  6
Continuous
100
AcDbCircle
 10
197.262661
 20
71.80075399999998
 30
0.0
 40
30.0
100
AcDbArc
 50
71.426073
 51
81.880179
  0
LINE
  5
C8A1
330
C611
100
AcDbEntity
  8
2
  6
Continuous
100
AcDbLine
 10
197.323472
 20
111.8
 30
0.0
 11
197.323472
 21
113.7
 31
0.0
  0
LINE
  5
C8A2
330
C611
100
AcDbEntity
  8
2
  6
Continuous
100
AcDbLine
 10
190.6764719999999
 20
111.8
 30
0.0
 11
190.6764719999999
 21
113.7
 31
0.0
  0
LINE
  5
C8A3
330
C611
100
AcDbEntity
  8
1
  6
Continuous
100
AcDbLine
 10
197.9999719999999
 20
113.1
 30
0.0
 11
193.9999719999999
 21
113.1
 31
0.0
  0
LINE
  5
C8A4
330
C611
100
AcDbEntity
  8
1
  6
Continuous
100
AcDbLine
 10
197.3999719999999
 20
113.7
 30
0.0
 11
197.9999719999999
 21
113.1
 31
0.0
  0
LINE
  5
C8A5
330
C611
100
AcDbEntity
  8
1
  6
Continuous
100
AcDbLine
 10
197.9999719999999
 20
111.8
 30
0.0
 11
197.9999719999999
 21
113.1
 31
0.0
  0
LINE
  5
C8A6
330
C611
100
AcDbEntity
  8
1
  6
Continuous
100
AcDbLine
 10
193.9999719999999
 20
113.7
 30
0.0
 11
197.3999719999999
 21
113.7
 31
0.0
  0
LINE
  5
C8A7
330
C611
100
AcDbEntity
  8
1
  6
Continuous
100
AcDbLine
 10
189.9999719999999
 20
113.1
 30
0.0
 11
193.9999719999999
 21
113.1
 31
0.0
  0
LINE
  5
C8A8
330
C611
100
AcDbEntity
  8
1
  6
Continuous
100
AcDbLine
 10
190.599972
 20
113.7
 30
0.0
 11
189.9999719999999
 21
113.1
 31
0.0
  0
LINE
  5
C8A9
330
C611
100
AcDbEntity
  8
1
  6
Continuous
100
AcDbLine
 10
189.9999719999999
 20
111.8
 30
0.0
 11
189.9999719999999
 21
113.1
 31
0.0
  0
LINE
  5
C8AA
330
C611
100
AcDbEntity
  8
1
  6
Continuous
100
AcDbLine
 10
193.9999719999999
 20
113.7
 30
0.0
 11
190.599972
 21
113.7
 31
0.0
  0
LINE
  5
C8AB
330
C611
100
AcDbEntity
  8
1
  6
Continuous
100
AcDbLine
 10
186.4999719999999
 20
104.8
 30
0.0
 11
186.4999719999999
 21
106.8
 31
0.0
  0
ARC
  5
C8AC
330
C611
100
AcDbEntity
  8
1
  6
Continuous
100
AcDbCircle
 10
187.4999719999999
 20
101.5
 30
0.0
 40
1.0
100
AcDbArc
 50
90.0
 51
180.0
  0
ARC
  5
C8AD
330
C611
100
AcDbEntity
  8
1
  6
Continuous
100
AcDbCircle
 10
190.7372839999999
 20
71.80075399999998
 30
0.0
 40
30.0
100
AcDbArc
 50
98.11982100000001
 51
108.5739269999999
  0
LINE
  5
C8AE
330
C611
100
AcDbEntity
  8
1
  6
Continuous
100
AcDbLine
 10
85.249971
 20
203.5500279999999
 30
0.0
 11
84.91466199999996
 21
203.5500279999999
 31
0.0
  0
ARC
  5
C8AF
330
C611
100
AcDbEntity
  8
1
  6
Continuous
100
AcDbCircle
 10
61.360737
 20
196.525235
 30
0.0
 40
2.0
100
AcDbArc
 50
203.8485909999999
 51
209.1831879999999
  0
LINE
  5
C8B0
330
C611
100
AcDbEntity
  8
1
  6
Continuous
100
AcDbLine
 10
56.74997099999998
 20
203.5500279999999
 30
0.0
 11
56.74997099999998
 21
203.050028
 31
0.0
  0
LINE
  5
C8B1
330
C611
100
AcDbEntity
  8
1
  6
Continuous
100
AcDbLine
 10
85.249971
 20
203.5500279999999
 30
0.0
 11
85.249971
 21
203.050028
 31
0.0
  0
LINE
  5
C8B2
330
C611
100
AcDbEntity
  8
1
  6
Continuous
100
AcDbLine
 10
57.08528000000001
 20
203.5500279999999
 30
0.0
 11
56.74997099999998
 21
203.5500279999999
 31
0.0
  0
LINE
  5
C8B3
330
C611
100
AcDbEntity
  8
1
  6
Continuous
100
AcDbLine
 10
177.9999719999999
 20
99.50000000000001
 30
0.0
 11
175.666537
 21
98.46846800000001
 31
0.0
  0
ARC
  5
C8B4
330
C611
100
AcDbEntity
  8
1
  6
Continuous
100
AcDbCircle
 10
176.475179
 20
96.63923400000001
 30
0.0
 40
2.0
100
AcDbArc
 50
113.8485909999998
 51
174.355287
  0
ARC
  5
C8B5
330
C611
100
AcDbEntity
  8
1
  6
Continuous
100
AcDbCircle
 10
273.999972
 20
87.0
 30
0.0
 40
100.0
100
AcDbArc
 50
174.355287
 51
185.644713
  0
ARC
  5
C8B6
330
C611
100
AcDbEntity
  8
1
  6
Continuous
100
AcDbCircle
 10
176.475179
 20
77.360766
 30
0.0
 40
2.0
100
AcDbArc
 50
185.644713
 51
246.1514089999999
  0
LINE
  5
C8B7
330
C611
100
AcDbEntity
  8
1
  6
Continuous
100
AcDbLine
 10
177.9999719999999
 20
74.5
 30
0.0
 11
175.666537
 21
75.531532
 31
0.0
  0
ARC
  5
C8B8
330
C611
100
AcDbEntity
  8
1
  6
Continuous
100
AcDbCircle
 10
181.4999719999999
 20
99.29024500000002
 30
0.0
 40
1.0
100
AcDbArc
 50
108.5739269999999
 51
167.8919849999998
  0
ARC
  5
C8B9
330
C611
100
AcDbEntity
  8
1
  6
Continuous
100
AcDbCircle
 10
181.4999719999999
 20
74.709755
 30
0.0
 40
1.0
100
AcDbArc
 50
192.108015
 51
251.426073
  0
ARC
  5
C8BA
330
C611
100
AcDbEntity
  8
1
  6
Continuous
100
AcDbCircle
 10
222.306587
 20
87.0
 30
0.0
 40
51.648238
100
AcDbArc
 50
161.6938539999999
 51
198.3061459999999
  0
ARC
  5
C8BB
330
C611
100
AcDbEntity
  8
1
  6
Continuous
100
AcDbCircle
 10
227.8873379999998
 20
87.0
 30
0.0
 40
55.38928099999999
100
AcDbArc
 50
164.1406149999999
 51
195.8593849999998
  0
ARC
  5
C8BC
330
C611
100
AcDbEntity
  8
1
  6
Continuous
100
AcDbCircle
 10
175.455775
 20
71.5
 30
0.0
 40
2.299999999999998
100
AcDbArc
 50
198.3061459999999
 51
270.0
  0
ARC
  5
C8BD
330
C611
100
AcDbEntity
  8
1
  6
Continuous
100
AcDbCircle
 10
175.455775
 20
102.4999999999999
 30
0.0
 40
2.299999999999998
100
AcDbArc
 50
90.0
 51
161.6938539999999
  0
ARC
  5
C8BE
330
C611
100
AcDbEntity
  8
1
  6
Continuous
100
AcDbCircle
 10
175.087403
 20
102.0
 30
0.0
 40
0.5
100
AcDbArc
 50
90.0
 51
164.1406149999999
  0
ARC
  5
C8BF
330
C611
100
AcDbEntity
  8
1
  6
Continuous
100
AcDbCircle
 10
175.087403
 20
72.0
 30
0.0
 40
0.5
100
AcDbArc
 50
195.8593849999998
 51
270.0
  0
ARC
  5
C8C0
330
C611
100
AcDbEntity
  8
1
  6
Continuous
100
AcDbCircle
 10
211.999971
 20
87.0
 30
0.0
 40
19.139701
100
AcDbArc
 50
65.131825
 51
106.1043149999999
  0
ARC
  5
C8C1
330
C611
100
AcDbEntity
  8
1
  6
Continuous
100
AcDbCircle
 10
211.999971
 20
87.0
 30
0.0
 40
40.416538
100
AcDbArc
 50
28.382315
 51
153.8697159999999
  0
ARC
  5
C8C2
330
C611
100
AcDbEntity
  8
1
  6
Continuous
100
AcDbCircle
 10
211.999971
 20
87.0
 30
0.0
 40
40.416538
100
AcDbArc
 50
206.130284
 51
331.617685
  0
ARC
  5
C8C3
330
C611
100
AcDbEntity
  8
1
  6
Continuous
100
AcDbCircle
 10
211.999971
 20
87.0
 30
0.0
 40
12.5
100
AcDbArc
 50
28.95522299999999
 51
97.94781299999998
  0
ARC
  5
C8C4
330
C611
100
AcDbEntity
  8
1
  6
Continuous
100
AcDbCircle
 10
211.999971
 20
87.0
 30
0.0
 40
6.0
100
AcDbArc
 50
287.825716
 51
72.17428400000001
  0
ARC
  5
C8C5
330
C611
100
AcDbEntity
  8
1
  6
Continuous
100
AcDbCircle
 10
211.999971
 20
87.0
 30
0.0
 40
12.5
100
AcDbArc
 50
262.052187
 51
331.044777
  0
LINE
  5
C8C6
330
C611
100
AcDbEntity
  8
1
  6
Continuous
100
AcDbLine
 10
248.499938
 20
93.49999999999999
 30
0.0
 11
248.499938
 21
87.0
 31
0.0
  0
LINE
  5
C8C7
330
C611
100
AcDbEntity
  8
5
  6
PHANTOM
100
AcDbLine
 10
259.9999379999998
 20
195.0500279999999
 30
0.0
 11
223.9999379999999
 21
195.0500279999999
 31
0.0
  0
LINE
  5
C8C8
330
C611
100
AcDbEntity
  8
5
  6
PHANTOM
100
AcDbLine
 10
261.9999379999998
 20
189.0500279999999
 30
0.0
 11
221.9999379999999
 21
189.0500279999999
 31
0.0
  0
LINE
  5
C8C9
330
C611
100
AcDbEntity
  8
5
  6
PHANTOM
100
AcDbLine
 10
258.3999379999998
 20
186.050028
 30
0.0
 11
225.5999379999999
 21
186.050028
 31
0.0
  0
ARC
  5
C8CA
330
C611
100
AcDbEntity
  8
5
  6
PHANTOM
100
AcDbCircle
 10
259.9999379999998
 20
193.050028
 30
0.0
 40
2.0
100
AcDbArc
 50
0.0
 51
90.0
  0
ARC
  5
C8CB
330
C611
100
AcDbEntity
  8
5
  6
PHANTOM
100
AcDbCircle
 10
258.3999379999998
 20
188.0500279999999
 30
0.0
 40
2.0
100
AcDbArc
 50
270.0
 51
0.0
  0
LINE
  5
C8CC
330
C611
100
AcDbEntity
  8
5
  6
PHANTOM
100
AcDbLine
 10
261.9999379999998
 20
193.050028
 30
0.0
 11
261.9999379999998
 21
189.0500279999999
 31
0.0
  0
LINE
  5
C8CD
330
C611
100
AcDbEntity
  8
5
  6
PHANTOM
100
AcDbLine
 10
260.3999379999998
 20
189.0500279999999
 30
0.0
 11
260.3999379999998
 21
188.0500279999999
 31
0.0
  0
ARC
  5
C8CE
330
C611
100
AcDbEntity
  8
5
  6
PHANTOM
100
AcDbCircle
 10
223.9999379999999
 20
193.050028
 30
0.0
 40
2.0
100
AcDbArc
 50
90.0
 51
180.0
  0
ARC
  5
C8CF
330
C611
100
AcDbEntity
  8
5
  6
PHANTOM
100
AcDbCircle
 10
225.5999379999999
 20
188.0500279999999
 30
0.0
 40
2.0
100
AcDbArc
 50
180.0
 51
270.0
  0
LINE
  5
C8D0
330
C611
100
AcDbEntity
  8
5
  6
PHANTOM
100
AcDbLine
 10
221.9999379999999
 20
193.050028
 30
0.0
 11
221.9999379999999
 21
189.0500279999999
 31
0.0
  0
LINE
  5
C8D1
330
C611
100
AcDbEntity
  8
5
  6
PHANTOM
100
AcDbLine
 10
223.5999379999999
 20
189.0500279999999
 30
0.0
 11
223.5999379999999
 21
188.0500279999999
 31
0.0
  0
LINE
  5
C8D2
330
C611
100
AcDbEntity
  8
1
  6
Continuous
100
AcDbLine
 10
86.499971
 20
203.050028
 30
0.0
 11
84.78579000000001
 21
203.050028
 31
0.0
  0
LINE
  5
C8D3
330
C611
100
AcDbEntity
  8
1
  6
Continuous
100
AcDbLine
 10
53.199971
 20
203.050028
 30
0.0
 11
52.99997099999998
 21
203.050028
 31
0.0
  0
LINE
  5
C8D4
330
C611
100
AcDbEntity
  8
1
  6
Continuous
100
AcDbLine
 10
58.942037
 20
197.0500279999999
 30
0.0
 11
50.999971
 21
197.0500279999999
 31
0.0
  0
LINE
  5
C8D5
330
C611
100
AcDbEntity
  8
5
  6
PHANTOM
100
AcDbLine
 10
457.600004
 20
186.050028
 30
0.0
 11
490.400004
 21
186.050028
 31
0.0
  0
LINE
  5
C8D6
330
C611
100
AcDbEntity
  8
5
  6
PHANTOM
100
AcDbLine
 10
454.0000039999998
 20
189.0500279999999
 30
0.0
 11
494.000004
 21
189.0500279999999
 31
0.0
  0
LINE
  5
C8D7
330
C611
100
AcDbEntity
  8
5
  6
PHANTOM
100
AcDbLine
 10
456.000004
 20
195.0500279999999
 30
0.0
 11
492.0000039999997
 21
195.0500279999999
 31
0.0
  0
LINE
  5
C8D8
330
C611
100
AcDbEntity
  8
1
  6
Continuous
100
AcDbLine
 10
459.7500039999998
 20
203.5500279999999
 30
0.0
 11
488.250004
 21
203.5500279999999
 31
0.0
  0
LINE
  5
C8D9
330
C611
100
AcDbEntity
  8
1
  6
Continuous
100
AcDbLine
 10
456.000004
 20
203.050028
 30
0.0
 11
492.0000039999997
 21
203.050028
 31
0.0
  0
LINE
  5
C8DA
330
C611
100
AcDbEntity
  8
1
  6
Continuous
100
AcDbLine
 10
454.0000039999998
 20
197.0500279999999
 30
0.0
 11
494.000004
 21
197.0500279999999
 31
0.0
  0
LINE
  5
C8DB
330
C611
100
AcDbEntity
  8
1
  6
Continuous
100
AcDbLine
 10
457.600004
 20
194.050028
 30
0.0
 11
490.400004
 21
194.050028
 31
0.0
  0
ARC
  5
C8DC
330
C611
100
AcDbEntity
  8
1
  6
Continuous
100
AcDbCircle
 10
461.141408
 20
254.704394
 30
0.0
 40
3.339999999999998
100
AcDbArc
 50
242.1952759999999
 51
270.0
  0
LINE
  5
C8DD
330
C611
100
AcDbEntity
  8
5
  6
PHANTOM
100
AcDbLine
 10
456.000004
 20
215.0500279999999
 30
0.0
 11
492.0000039999997
 21
215.0500279999999
 31
0.0
  0
LINE
  5
C8DE
330
C611
100
AcDbEntity
  8
5
  6
PHANTOM
100
AcDbLine
 10
454.0000039999998
 20
209.050028
 30
0.0
 11
494.000004
 21
209.050028
 31
0.0
  0
LINE
  5
C8DF
330
C611
100
AcDbEntity
  8
5
  6
PHANTOM
100
AcDbLine
 10
457.600004
 20
206.0500279999998
 30
0.0
 11
490.400004
 21
206.0500279999998
 31
0.0
  0
LINE
  5
C8E0
330
C611
100
AcDbEntity
  8
1
  6
Continuous
100
AcDbLine
 10
549.999942
 20
251.750022
 30
0.0
 11
458.0
 21
251.750022
 31
0.0
  0
LINE
  5
C8E1
330
C611
100
AcDbEntity
  8
1
  6
Continuous
100
AcDbLine
 10
549.999942
 20
254.050022
 30
0.0
 11
458.0
 21
254.050022
 31
0.0
  0
ARC
  5
C8E2
330
C611
100
AcDbEntity
  8
1
  6
Continuous
100
AcDbCircle
 10
464.500004
 20
241.355841
 30
0.0
 40
3.299999999999998
100
AcDbArc
 50
90.0
 51
180.0
  0
LINE
  5
C8E3
330
C611
100
AcDbEntity
  8
4
  6
CENTER
100
AcDbLine
 10
498.99997
 20
214.0500279999999
 30
0.0
 11
544.9999699999998
 21
214.0500279999999
 31
0.0
  0
ARC
  5
C8E4
330
C611
100
AcDbEntity
  8
1
  6
Continuous
100
AcDbCircle
 10
521.9999699999998
 20
214.0500279999999
 30
0.0
 40
14.0
100
AcDbArc
 50
189.030281
 51
2.227198
  0
ARC
  5
C8E5
330
C611
100
AcDbEntity
  8
1
  6
Continuous
100
AcDbCircle
 10
521.9999699999998
 20
214.0500279999999
 30
0.0
 40
13.5
100
AcDbArc
 50
192.03772
 51
356.3557719999999
  0
ARC
  5
C8E6
330
C611
100
AcDbEntity
  8
1
  6
Continuous
100
AcDbCircle
 10
521.9999699999998
 20
214.0500279999999
 30
0.0
 40
16.0
100
AcDbArc
 50
180.150911
 51
15.806293
  0
ARC
  5
C8E7
330
C611
100
AcDbEntity
  8
1
  6
Continuous
100
AcDbCircle
 10
512.2677999999998
 20
233.317938
 30
0.0
 40
15.301624
100
AcDbArc
 50
32.50121299999999
 51
48.16585599999999
  0
LINE
  5
C8E8
330
C611
100
AcDbEntity
  8
1
  6
Continuous
100
AcDbLine
 10
461.141408
 20
251.364394
 30
0.0
 11
546.8585339999998
 21
251.364394
 31
0.0
  0
LINE
  5
C8E9
330
C611
100
AcDbEntity
  8
1
  6
Continuous
100
AcDbLine
 10
524.8250379999998
 20
251.1857369999999
 30
0.0
 11
483.174904
 21
251.1857369999999
 31
0.0
  0
ARC
  5
C8EA
330
C611
100
AcDbEntity
  8
1
  6
Continuous
100
AcDbCircle
 10
521.931201
 20
253.3452609999999
 30
0.0
 40
3.610794999999998
100
AcDbArc
 50
270.0
 51
323.267889
  0
ARC
  5
C8EB
330
C611
100
AcDbEntity
  8
1
  6
Continuous
100
AcDbCircle
 10
521.9999699999998
 20
214.0500279999999
 30
0.0
 40
20.0
100
AcDbArc
 50
169.6291229999999
 51
29.46054699999999
  0
ARC
  5
C8EC
330
C611
100
AcDbEntity
  8
1
  6
Continuous
100
AcDbCircle
 10
514.706448
 20
204.6976229999999
 30
0.0
 40
38.3
100
AcDbArc
 50
36.882001
 51
82.11143599999997
  0
ARC
  5
C8ED
330
C611
100
AcDbEntity
  8
1
  6
Continuous
100
AcDbCircle
 10
522.9999699999998
 20
214.0500279999999
 30
0.0
 40
12.0
100
AcDbArc
 50
225.24115
 51
339.7699999999999
  0
LINE
  5
C8EE
330
C611
100
AcDbEntity
  8
1
  6
Continuous
100
AcDbLine
 10
534.259716
 20
209.9005529999999
 30
0.0
 11
542.1773779999998
 21
231.3854099999999
 31
0.0
  0
LINE
  5
C8EF
330
C611
100
AcDbEntity
  8
1
  6
Continuous
100
AcDbLine
 10
545.341593
 20
227.6840949999999
 30
0.0
 11
543.501884
 21
226.303706
 31
0.0
  0
ARC
  5
C8F0
330
C611
100
AcDbEntity
  8
1
  6
Continuous
100
AcDbCircle
 10
514.706448
 20
204.6976229999999
 30
0.0
 40
36.0
100
AcDbArc
 50
36.882001
 51
42.40449199999999
  0
LINE
  5
C8F1
330
C611
100
AcDbEntity
  8
4
  6
CENTER
100
AcDbLine
 10
541.499971
 20
249.732199
 30
0.0
 11
541.499971
 21
256.004236
 31
0.0
  0
ARC
  5
C8F2
330
C611
100
AcDbEntity
  8
1
  6
Continuous
100
AcDbCircle
 10
546.8585339999998
 20
254.704394
 30
0.0
 40
3.339999999999998
100
AcDbArc
 50
270.0
 51
297.804724
  0
LINE
  5
C8F3
330
C611
100
AcDbEntity
  8
1
  6
Continuous
100
AcDbLine
 10
549.999942
 20
254.049999
 30
0.0
 11
549.999942
 21
251.750022
 31
0.0
  0
LINE
  5
C8F4
330
C611
100
AcDbEntity
  8
1
  6
Continuous
100
AcDbLine
 10
524.8250379999998
 20
251.1857369999999
 30
0.0
 11
524.8250379999998
 21
251.364394
 31
0.0
  0
LINE
  5
C8F5
330
C611
100
AcDbEntity
  8
1
  6
Continuous
100
AcDbLine
 10
468.000004
 20
221.950006
 30
0.0
 11
468.000004
 21
208.0500279999998
 31
0.0
  0
LINE
  5
C8F6
330
C611
100
AcDbEntity
  8
1
  6
Continuous
100
AcDbLine
 10
480.0000039999998
 20
221.950006
 30
0.0
 11
480.0000039999998
 21
208.0500279999998
 31
0.0
  0
LINE
  5
C8F7
330
C611
100
AcDbEntity
  8
2
  6
Continuous
100
AcDbLine
 10
468.9470039999998
 20
221.950006
 30
0.0
 11
468.9470039999998
 21
211.5500279999999
 31
0.0
  0
LINE
  5
C8F8
330
C611
100
AcDbEntity
  8
2
  6
Continuous
100
AcDbLine
 10
479.053004
 20
221.950006
 30
0.0
 11
479.053004
 21
211.5500279999999
 31
0.0
  0
LINE
  5
C8F9
330
C611
100
AcDbEntity
  8
4
  6
CENTER
100
AcDbLine
 10
521.9999699999998
 20
191.0500279999999
 30
0.0
 11
521.9999699999998
 21
237.0500279999999
 31
0.0
  0
LINE
  5
C8FA
330
C611
100
AcDbEntity
  8
4
  6
CENTER
100
AcDbLine
 10
474.0000039999998
 20
183.7096689999999
 30
0.0
 11
474.0000039999998
 21
256.58547
 31
0.0
  0
LINE
  5
C8FB
330
C611
100
AcDbEntity
  8
1
  6
Continuous
100
AcDbLine
 10
493.143535
 20
226.7566069999999
 30
0.0
 11
514.550478
 21
205.5291079999999
 31
0.0
  0
ARC
  5
C8FC
330
C611
100
AcDbEntity
  8
5
  6
PHANTOM
100
AcDbCircle
 10
490.400004
 20
188.0500279999999
 30
0.0
 40
2.0
100
AcDbArc
 50
270.0
 51
0.0
  0
ARC
  5
C8FD
330
C611
100
AcDbEntity
  8
5
  6
PHANTOM
100
AcDbCircle
 10
492.0000039999997
 20
193.050028
 30
0.0
 40
2.0
100
AcDbArc
 50
0.0
 51
90.0
  0
ARC
  5
C8FE
330
C611
100
AcDbEntity
  8
1
  6
Continuous
100
AcDbCircle
 10
492.0000039999997
 20
201.050028
 30
0.0
 40
2.0
100
AcDbArc
 50
0.0
 51
90.0
  0
ARC
  5
C8FF
330
C611
100
AcDbEntity
  8
1
  6
Continuous
100
AcDbCircle
 10
490.400004
 20
196.0500279999999
 30
0.0
 40
2.0
100
AcDbArc
 50
270.0
 51
0.0
  0
ARC
  5
C900
330
C611
100
AcDbEntity
  8
5
  6
PHANTOM
100
AcDbCircle
 10
492.0000039999997
 20
213.0500279999999
 30
0.0
 40
2.0
100
AcDbArc
 50
0.0
 51
90.0
  0
ARC
  5
C901
330
C611
100
AcDbEntity
  8
5
  6
PHANTOM
100
AcDbCircle
 10
490.400004
 20
208.0500279999998
 30
0.0
 40
2.0
100
AcDbArc
 50
270.0
 51
0.0
  0
LINE
  5
C902
330
C611
100
AcDbEntity
  8
1
  6
Continuous
100
AcDbLine
 10
494.000004
 20
201.050028
 30
0.0
 11
494.000004
 21
197.0500279999999
 31
0.0
  0
LINE
  5
C903
330
C611
100
AcDbEntity
  8
5
  6
PHANTOM
100
AcDbLine
 10
494.000004
 20
193.050028
 30
0.0
 11
494.000004
 21
189.0500279999999
 31
0.0
  0
LINE
  5
C904
330
C611
100
AcDbEntity
  8
5
  6
PHANTOM
100
AcDbLine
 10
494.000004
 20
213.0500279999999
 30
0.0
 11
494.000004
 21
209.050028
 31
0.0
  0
LINE
  5
C905
330
C611
100
AcDbEntity
  8
5
  6
PHANTOM
100
AcDbLine
 10
492.400004
 20
189.0500279999999
 30
0.0
 11
492.400004
 21
188.0500279999999
 31
0.0
  0
LINE
  5
C906
330
C611
100
AcDbEntity
  8
1
  6
Continuous
100
AcDbLine
 10
492.400004
 20
197.0500279999999
 30
0.0
 11
492.400004
 21
196.0500279999999
 31
0.0
  0
LINE
  5
C907
330
C611
100
AcDbEntity
  8
1
  6
Continuous
100
AcDbLine
 10
468.000004
 20
211.5500279999999
 30
0.0
 11
480.0000039999998
 21
211.5500279999999
 31
0.0
  0
LINE
  5
C908
330
C611
100
AcDbEntity
  8
1
  6
Continuous
100
AcDbLine
 10
461.2982979999999
 20
208.0500279999998
 30
0.0
 11
486.7017099999998
 21
208.0500279999998
 31
0.0
  0
ARC
  5
C909
330
C611
100
AcDbEntity
  8
1
  6
Continuous
100
AcDbCircle
 10
474.0000039999998
 20
224.536125
 30
0.0
 40
20.486097
100
AcDbArc
 50
251.94029
 51
288.05971
  0
LINE
  5
C90A
330
C611
100
AcDbEntity
  8
1
  6
Continuous
100
AcDbLine
 10
463.0000039999997
 20
204.0500279999998
 30
0.0
 11
485.000004
 21
204.0500279999998
 31
0.0
  0
LINE
  5
C90B
330
C611
100
AcDbEntity
  8
2
  6
Continuous
100
AcDbLine
 10
479.053004
 20
211.5500279999999
 30
0.0
 11
480.0000039999998
 21
209.9097759999999
 31
0.0
  0
ARC
  5
C90C
330
C611
100
AcDbEntity
  8
1
  6
Continuous
100
AcDbCircle
 10
483.5262839999998
 20
209.5500279999999
 30
0.0
 40
5.5
100
AcDbArc
 50
234.73561
 51
300.0
  0
LINE
  5
C90D
330
C611
100
AcDbEntity
  8
1
  6
Continuous
100
AcDbLine
 10
485.000004
 20
204.0500279999998
 30
0.0
 11
486.7017099999998
 21
205.0325079999999
 31
0.0
  0
LINE
  5
C90E
330
C611
100
AcDbEntity
  8
1
  6
Continuous
100
AcDbLine
 10
478.0500039999998
 20
204.0500279999998
 30
0.0
 11
478.0500039999998
 21
203.5500279999999
 31
0.0
  0
LINE
  5
C90F
330
C611
100
AcDbEntity
  8
1
  6
Continuous
100
AcDbLine
 10
488.250004
 20
203.5500279999999
 30
0.0
 11
488.250004
 21
203.050028
 31
0.0
  0
LINE
  5
C910
330
C611
100
AcDbEntity
  8
1
  6
Continuous
100
AcDbLine
 10
480.3508569999998
 20
205.0592969999999
 30
0.0
 11
480.3508569999998
 21
208.0500279999998
 31
0.0
  0
LINE
  5
C911
330
C611
100
AcDbEntity
  8
1
  6
Continuous
100
AcDbLine
 10
486.7017099999998
 20
208.0500279999998
 30
0.0
 11
486.7017099999998
 21
205.0325079999999
 31
0.0
  0
LINE
  5
C912
330
C611
100
AcDbEntity
  8
5
  6
PHANTOM
100
AcDbLine
 10
492.400004
 20
209.050028
 30
0.0
 11
492.400004
 21
208.0500279999998
 31
0.0
  0
LINE
  5
C913
330
C611
100
AcDbEntity
  8
2
  6
Continuous
100
AcDbLine
 10
468.9470039999998
 20
211.5500279999999
 30
0.0
 11
468.000004
 21
209.9097759999999
 31
0.0
  0
LINE
  5
C914
330
C611
100
AcDbEntity
  8
1
  6
Continuous
100
AcDbLine
 10
463.0000039999997
 20
204.0500279999998
 30
0.0
 11
461.2982979999999
 21
205.0325079999999
 31
0.0
  0
ARC
  5
C915
330
C611
100
AcDbEntity
  8
1
  6
Continuous
100
AcDbCircle
 10
464.473725
 20
209.5500279999999
 30
0.0
 40
5.5
100
AcDbArc
 50
239.9999999999999
 51
305.26439
  0
LINE
  5
C916
330
C611
100
AcDbEntity
  8
1
  6
Continuous
100
AcDbLine
 10
469.950004
 20
204.0500279999998
 30
0.0
 11
469.950004
 21
203.5500279999999
 31
0.0
  0
LINE
  5
C917
330
C611
100
AcDbEntity
  8
1
  6
Continuous
100
AcDbLine
 10
467.6491509999998
 20
205.0592969999999
 30
0.0
 11
467.6491509999998
 21
208.0500279999998
 31
0.0
  0
LINE
  5
C918
330
C611
100
AcDbEntity
  8
1
  6
Continuous
100
AcDbLine
 10
461.2982979999999
 20
208.0500279999998
 30
0.0
 11
461.2982979999999
 21
205.0325079999999
 31
0.0
  0
LINE
  5
C919
330
C611
100
AcDbEntity
  8
1
  6
Continuous
100
AcDbLine
 10
492.3306199999998
 20
247.53796
 30
0.0
 11
494.6398849999998
 21
245.2286949999999
 31
0.0
  0
LINE
  5
C91A
330
C611
100
AcDbEntity
  8
1
  6
Continuous
100
AcDbLine
 10
490.9164059999998
 20
247.53796
 30
0.0
 11
493.2256719999998
 21
245.2286949999999
 31
0.0
  0
LINE
  5
C91B
330
C611
100
AcDbEntity
  8
1
  6
Continuous
100
AcDbLine
 10
494.6398849999998
 20
247.53796
 30
0.0
 11
492.3306199999998
 21
245.2286949999999
 31
0.0
  0
LINE
  5
C91C
330
C611
100
AcDbEntity
  8
1
  6
Continuous
100
AcDbLine
 10
493.2256719999998
 20
247.53796
 30
0.0
 11
490.9164059999998
 21
245.2286949999999
 31
0.0
  0
LINE
  5
C91D
330
C611
100
AcDbEntity
  8
1
  6
Continuous
100
AcDbLine
 10
521.931201
 20
249.734466
 30
0.0
 11
486.0687419999998
 21
249.734466
 31
0.0
  0
LINE
  5
C91E
330
C611
100
AcDbEntity
  8
1
  6
Continuous
100
AcDbLine
 10
520.859903
 20
249.44796
 30
0.0
 11
487.1400389999998
 21
249.44796
 31
0.0
  0
LINE
  5
C91F
330
C611
100
AcDbEntity
  8
1
  6
Continuous
100
AcDbLine
 10
484.999971
 20
245.2286949999999
 30
0.0
 11
522.9999709999998
 21
245.2286949999999
 31
0.0
  0
LINE
  5
C920
330
C611
100
AcDbEntity
  8
1
  6
Continuous
100
AcDbLine
 10
484.999971
 20
247.53796
 30
0.0
 11
522.9999709999998
 21
247.53796
 31
0.0
  0
ARC
  5
C921
330
C611
100
AcDbEntity
  8
1
  6
Continuous
100
AcDbCircle
 10
486.1022909999999
 20
219.655841
 30
0.0
 40
10.0
100
AcDbArc
 50
45.24115
 51
90.0
  0
LINE
  5
C922
330
C611
100
AcDbEntity
  8
4
  6
CENTER
100
AcDbLine
 10
503.999971
 20
235.704123
 30
0.0
 11
503.999971
 21
256.8974509999998
 31
0.0
  0
LINE
  5
C923
330
C611
100
AcDbEntity
  8
1
  6
Continuous
100
AcDbLine
 10
507.886969
 20
247.53796
 30
0.0
 11
510.196234
 21
245.2286949999999
 31
0.0
  0
LINE
  5
C924
330
C611
100
AcDbEntity
  8
1
  6
Continuous
100
AcDbLine
 10
506.4727559999998
 20
247.53796
 30
0.0
 11
508.782021
 21
245.2286949999999
 31
0.0
  0
LINE
  5
C925
330
C611
100
AcDbEntity
  8
1
  6
Continuous
100
AcDbLine
 10
510.196234
 20
247.53796
 30
0.0
 11
507.886969
 21
245.2286949999999
 31
0.0
  0
LINE
  5
C926
330
C611
100
AcDbEntity
  8
1
  6
Continuous
100
AcDbLine
 10
508.782021
 20
247.53796
 30
0.0
 11
506.4727559999998
 21
245.2286949999999
 31
0.0
  0
LINE
  5
C927
330
C611
100
AcDbEntity
  8
1
  6
Continuous
100
AcDbLine
 10
522.0291049999998
 20
247.53796
 30
0.0
 11
522.9999709999998
 21
246.5670939999998
 31
0.0
  0
LINE
  5
C928
330
C611
100
AcDbEntity
  8
1
  6
Continuous
100
AcDbLine
 10
520.6148909999998
 20
247.53796
 30
0.0
 11
522.9241559999998
 21
245.2286949999999
 31
0.0
  0
LINE
  5
C929
330
C611
100
AcDbEntity
  8
1
  6
Continuous
100
AcDbLine
 10
519.200678
 20
247.53796
 30
0.0
 11
521.509943
 21
245.2286949999999
 31
0.0
  0
LINE
  5
C92A
330
C611
100
AcDbEntity
  8
1
  6
Continuous
100
AcDbLine
 10
517.7864639999998
 20
247.53796
 30
0.0
 11
520.0957289999998
 21
245.2286949999999
 31
0.0
  0
LINE
  5
C92B
330
C611
100
AcDbEntity
  8
1
  6
Continuous
100
AcDbLine
 10
516.37225
 20
247.53796
 30
0.0
 11
518.681516
 21
245.2286949999999
 31
0.0
  0
LINE
  5
C92C
330
C611
100
AcDbEntity
  8
1
  6
Continuous
100
AcDbLine
 10
514.9580369999998
 20
247.53796
 30
0.0
 11
517.2673019999998
 21
245.2286949999999
 31
0.0
  0
LINE
  5
C92D
330
C611
100
AcDbEntity
  8
1
  6
Continuous
100
AcDbLine
 10
513.543823
 20
247.53796
 30
0.0
 11
515.8530889999998
 21
245.2286949999999
 31
0.0
  0
LINE
  5
C92E
330
C611
100
AcDbEntity
  8
1
  6
Continuous
100
AcDbLine
 10
512.1296099999998
 20
247.53796
 30
0.0
 11
514.438875
 21
245.2286949999999
 31
0.0
  0
LINE
  5
C92F
330
C611
100
AcDbEntity
  8
1
  6
Continuous
100
AcDbLine
 10
510.7153959999997
 20
247.53796
 30
0.0
 11
513.024661
 21
245.2286949999999
 31
0.0
  0
LINE
  5
C930
330
C611
100
AcDbEntity
  8
1
  6
Continuous
100
AcDbLine
 10
509.301183
 20
247.53796
 30
0.0
 11
511.610448
 21
245.2286949999999
 31
0.0
  0
LINE
  5
C931
330
C611
100
AcDbEntity
  8
1
  6
Continuous
100
AcDbLine
 10
522.9999709999998
 20
246.1995609999999
 30
0.0
 11
522.0291049999998
 21
245.2286949999999
 31
0.0
  0
LINE
  5
C932
330
C611
100
AcDbEntity
  8
1
  6
Continuous
100
AcDbLine
 10
522.9241559999998
 20
247.53796
 30
0.0
 11
520.6148909999998
 21
245.2286949999999
 31
0.0
  0
LINE
  5
C933
330
C611
100
AcDbEntity
  8
1
  6
Continuous
100
AcDbLine
 10
521.509943
 20
247.53796
 30
0.0
 11
519.200678
 21
245.2286949999999
 31
0.0
  0
LINE
  5
C934
330
C611
100
AcDbEntity
  8
1
  6
Continuous
100
AcDbLine
 10
520.0957289999998
 20
247.53796
 30
0.0
 11
517.7864639999998
 21
245.2286949999999
 31
0.0
  0
LINE
  5
C935
330
C611
100
AcDbEntity
  8
1
  6
Continuous
100
AcDbLine
 10
518.681516
 20
247.53796
 30
0.0
 11
516.37225
 21
245.2286949999999
 31
0.0
  0
LINE
  5
C936
330
C611
100
AcDbEntity
  8
1
  6
Continuous
100
AcDbLine
 10
517.2673019999998
 20
247.53796
 30
0.0
 11
514.9580369999998
 21
245.2286949999999
 31
0.0
  0
LINE
  5
C937
330
C611
100
AcDbEntity
  8
1
  6
Continuous
100
AcDbLine
 10
515.8530889999998
 20
247.53796
 30
0.0
 11
513.543823
 21
245.2286949999999
 31
0.0
  0
LINE
  5
C938
330
C611
100
AcDbEntity
  8
1
  6
Continuous
100
AcDbLine
 10
514.438875
 20
247.53796
 30
0.0
 11
512.1296099999998
 21
245.2286949999999
 31
0.0
  0
LINE
  5
C939
330
C611
100
AcDbEntity
  8
1
  6
Continuous
100
AcDbLine
 10
513.024661
 20
247.53796
 30
0.0
 11
510.7153959999997
 21
245.2286949999999
 31
0.0
  0
LINE
  5
C93A
330
C611
100
AcDbEntity
  8
1
  6
Continuous
100
AcDbLine
 10
511.610448
 20
247.53796
 30
0.0
 11
509.301183
 21
245.2286949999999
 31
0.0
  0
LINE
  5
C93B
330
C611
100
AcDbEntity
  8
1
  6
Continuous
100
AcDbLine
 10
522.9999709999998
 20
247.53796
 30
0.0
 11
522.9999709999998
 21
245.2286949999999
 31
0.0
  0
LINE
  5
C93C
330
C611
100
AcDbEntity
  8
1
  6
Continuous
100
AcDbLine
 10
520.859903
 20
249.44796
 30
0.0
 11
520.7161999999998
 21
249.6419589999999
 31
0.0
  0
LINE
  5
C93D
330
C611
100
AcDbEntity
  8
1
  6
Continuous
100
AcDbLine
 10
521.724903
 20
249.42296
 30
0.0
 11
520.859903
 21
249.44796
 31
0.0
  0
ARC
  5
C93E
330
C611
100
AcDbEntity
  8
1
  6
Continuous
100
AcDbCircle
 10
521.545641
 20
248.6059229999999
 30
0.0
 40
0.8364709999999998
100
AcDbArc
 50
19.341459
 51
77.625084
  0
ARC
  5
C93F
330
C611
100
AcDbEntity
  8
1
  6
Continuous
100
AcDbCircle
 10
517.5725619999998
 20
246.2284609999999
 30
0.0
 40
4.640519999999998
100
AcDbArc
 50
47.356681
 51
49.07081699999999
  0
ARC
  5
C940
330
C611
100
AcDbEntity
  8
1
  6
Continuous
100
AcDbCircle
 10
516.0881969999998
 20
250.3112049999999
 30
0.0
 40
6.407901999999999
100
AcDbArc
 50
334.3555600000001
 51
347.121283
  0
ARC
  5
C941
330
C611
100
AcDbEntity
  8
1
  6
Continuous
100
AcDbCircle
 10
521.139672
 20
243.2286949999999
 30
0.0
 40
2.0
100
AcDbArc
 50
48.16585599999999
 51
90.0
  0
LINE
  5
C942
330
C611
100
AcDbEntity
  8
1
  6
Continuous
100
AcDbLine
 10
505.0585419999999
 20
247.53796
 30
0.0
 11
507.367807
 21
245.2286949999999
 31
0.0
  0
LINE
  5
C943
330
C611
100
AcDbEntity
  8
1
  6
Continuous
100
AcDbLine
 10
503.6443279999998
 20
247.53796
 30
0.0
 11
505.9535939999998
 21
245.2286949999999
 31
0.0
  0
LINE
  5
C944
330
C611
100
AcDbEntity
  8
1
  6
Continuous
100
AcDbLine
 10
502.230115
 20
247.53796
 30
0.0
 11
504.53938
 21
245.2286949999999
 31
0.0
  0
LINE
  5
C945
330
C611
100
AcDbEntity
  8
1
  6
Continuous
100
AcDbLine
 10
500.8159009999998
 20
247.53796
 30
0.0
 11
503.1251659999998
 21
245.2286949999999
 31
0.0
  0
LINE
  5
C946
330
C611
100
AcDbEntity
  8
1
  6
Continuous
100
AcDbLine
 10
499.401688
 20
247.53796
 30
0.0
 11
501.7109529999998
 21
245.2286949999999
 31
0.0
  0
LINE
  5
C947
330
C611
100
AcDbEntity
  8
1
  6
Continuous
100
AcDbLine
 10
497.987474
 20
247.53796
 30
0.0
 11
500.2967389999998
 21
245.2286949999999
 31
0.0
  0
LINE
  5
C948
330
C611
100
AcDbEntity
  8
1
  6
Continuous
100
AcDbLine
 10
496.573261
 20
247.53796
 30
0.0
 11
498.8825259999998
 21
245.2286949999999
 31
0.0
  0
LINE
  5
C949
330
C611
100
AcDbEntity
  8
1
  6
Continuous
100
AcDbLine
 10
495.159047
 20
247.53796
 30
0.0
 11
497.468312
 21
245.2286949999999
 31
0.0
  0
LINE
  5
C94A
330
C611
100
AcDbEntity
  8
1
  6
Continuous
100
AcDbLine
 10
493.744833
 20
247.53796
 30
0.0
 11
496.054099
 21
245.2286949999999
 31
0.0
  0
LINE
  5
C94B
330
C611
100
AcDbEntity
  8
1
  6
Continuous
100
AcDbLine
 10
507.367807
 20
247.53796
 30
0.0
 11
505.0585419999999
 21
245.2286949999999
 31
0.0
  0
LINE
  5
C94C
330
C611
100
AcDbEntity
  8
1
  6
Continuous
100
AcDbLine
 10
505.9535939999998
 20
247.53796
 30
0.0
 11
503.6443279999998
 21
245.2286949999999
 31
0.0
  0
LINE
  5
C94D
330
C611
100
AcDbEntity
  8
1
  6
Continuous
100
AcDbLine
 10
504.53938
 20
247.53796
 30
0.0
 11
502.230115
 21
245.2286949999999
 31
0.0
  0
LINE
  5
C94E
330
C611
100
AcDbEntity
  8
1
  6
Continuous
100
AcDbLine
 10
503.1251659999998
 20
247.53796
 30
0.0
 11
500.8159009999998
 21
245.2286949999999
 31
0.0
  0
LINE
  5
C94F
330
C611
100
AcDbEntity
  8
1
  6
Continuous
100
AcDbLine
 10
501.7109529999998
 20
247.53796
 30
0.0
 11
499.401688
 21
245.2286949999999
 31
0.0
  0
LINE
  5
C950
330
C611
100
AcDbEntity
  8
1
  6
Continuous
100
AcDbLine
 10
500.2967389999998
 20
247.53796
 30
0.0
 11
497.987474
 21
245.2286949999999
 31
0.0
  0
LINE
  5
C951
330
C611
100
AcDbEntity
  8
1
  6
Continuous
100
AcDbLine
 10
498.8825259999998
 20
247.53796
 30
0.0
 11
496.573261
 21
245.2286949999999
 31
0.0
  0
LINE
  5
C952
330
C611
100
AcDbEntity
  8
1
  6
Continuous
100
AcDbLine
 10
497.468312
 20
247.53796
 30
0.0
 11
495.159047
 21
245.2286949999999
 31
0.0
  0
LINE
  5
C953
330
C611
100
AcDbEntity
  8
1
  6
Continuous
100
AcDbLine
 10
496.054099
 20
247.53796
 30
0.0
 11
493.744833
 21
245.2286949999999
 31
0.0
  0
LINE
  5
C954
330
C611
100
AcDbEntity
  8
1
  6
Continuous
100
AcDbLine
 10
465.500004
 20
221.950006
 30
0.0
 11
482.5000039999998
 21
221.950006
 31
0.0
  0
ARC
  5
C955
330
C611
100
AcDbEntity
  8
1
  6
Continuous
100
AcDbCircle
 10
478.250004
 20
228.720852
 30
0.0
 40
6.770832999999998
100
AcDbArc
 50
231.11993
 51
308.8800700000001
  0
LINE
  5
C956
330
C611
100
AcDbEntity
  8
1
  6
Continuous
100
AcDbLine
 10
461.2000039999998
 20
229.655841
 30
0.0
 11
486.1022909999999
 21
229.655841
 31
0.0
  0
LINE
  5
C957
330
C611
100
AcDbEntity
  8
1
  6
Continuous
100
AcDbLine
 10
482.5000039999998
 20
229.655841
 30
0.0
 11
482.5000039999998
 21
221.950006
 31
0.0
  0
LINE
  5
C958
330
C611
100
AcDbEntity
  8
1
  6
Continuous
100
AcDbLine
 10
474.0000039999998
 20
229.655841
 30
0.0
 11
474.0000039999998
 21
223.4500189999998
 31
0.0
  0
LINE
  5
C959
330
C611
100
AcDbEntity
  8
1
  6
Continuous
100
AcDbLine
 10
465.500004
 20
229.655841
 30
0.0
 11
465.500004
 21
221.950006
 31
0.0
  0
ARC
  5
C95A
330
C611
100
AcDbEntity
  8
1
  6
Continuous
100
AcDbCircle
 10
469.750004
 20
228.720852
 30
0.0
 40
6.770832999999998
100
AcDbArc
 50
231.11993
 51
308.8800700000001
  0
LINE
  5
C95B
330
C611
100
AcDbEntity
  8
1
  6
Continuous
100
AcDbLine
 10
461.2000039999998
 20
229.655841
 30
0.0
 11
461.2000039999998
 21
241.355841
 31
0.0
  0
LINE
  5
C95C
330
C611
100
AcDbEntity
  8
1
  6
Continuous
100
AcDbLine
 10
464.500004
 20
244.655841
 30
0.0
 11
486.0827769999998
 21
244.655841
 31
0.0
  0
LINE
  5
C95D
330
C611
100
AcDbEntity
  8
1
  6
Continuous
100
AcDbLine
 10
489.5021929999998
 20
247.53796
 30
0.0
 11
491.811458
 21
245.2286949999999
 31
0.0
  0
LINE
  5
C95E
330
C611
100
AcDbEntity
  8
1
  6
Continuous
100
AcDbLine
 10
488.087979
 20
247.53796
 30
0.0
 11
490.397244
 21
245.2286949999999
 31
0.0
  0
LINE
  5
C95F
330
C611
100
AcDbEntity
  8
1
  6
Continuous
100
AcDbLine
 10
486.673766
 20
247.53796
 30
0.0
 11
488.9830309999998
 21
245.2286949999999
 31
0.0
  0
LINE
  5
C960
330
C611
100
AcDbEntity
  8
1
  6
Continuous
100
AcDbLine
 10
485.2595519999998
 20
247.53796
 30
0.0
 11
487.568817
 21
245.2286949999999
 31
0.0
  0
LINE
  5
C961
330
C611
100
AcDbEntity
  8
1
  6
Continuous
100
AcDbLine
 10
486.154604
 20
245.2286949999999
 30
0.0
 11
484.999971
 21
246.383327
 31
0.0
  0
LINE
  5
C962
330
C611
100
AcDbEntity
  8
1
  6
Continuous
100
AcDbLine
 10
491.811458
 20
247.53796
 30
0.0
 11
489.5021929999998
 21
245.2286949999999
 31
0.0
  0
LINE
  5
C963
330
C611
100
AcDbEntity
  8
1
  6
Continuous
100
AcDbLine
 10
490.397244
 20
247.53796
 30
0.0
 11
488.087979
 21
245.2286949999999
 31
0.0
  0
LINE
  5
C964
330
C611
100
AcDbEntity
  8
1
  6
Continuous
100
AcDbLine
 10
488.9830309999998
 20
247.53796
 30
0.0
 11
486.673766
 21
245.2286949999999
 31
0.0
  0
LINE
  5
C965
330
C611
100
AcDbEntity
  8
1
  6
Continuous
100
AcDbLine
 10
487.568817
 20
247.53796
 30
0.0
 11
485.2595519999998
 21
245.2286949999999
 31
0.0
  0
LINE
  5
C966
330
C611
100
AcDbEntity
  8
1
  6
Continuous
100
AcDbLine
 10
486.154604
 20
247.53796
 30
0.0
 11
484.999971
 21
246.383327
 31
0.0
  0
LINE
  5
C967
330
C611
100
AcDbEntity
  8
1
  6
Continuous
100
AcDbLine
 10
482.5000039999998
 20
251.364394
 30
0.0
 11
482.5000039999998
 21
244.655841
 31
0.0
  0
LINE
  5
C968
330
C611
100
AcDbEntity
  8
1
  6
Continuous
100
AcDbLine
 10
484.999971
 20
247.53796
 30
0.0
 11
484.999971
 21
245.2286949999999
 31
0.0
  0
LINE
  5
C969
330
C611
100
AcDbEntity
  8
1
  6
Continuous
100
AcDbLine
 10
483.174904
 20
251.1857369999999
 30
0.0
 11
483.174904
 21
251.364394
 31
0.0
  0
LINE
  5
C96A
330
C611
100
AcDbEntity
  8
1
  6
Continuous
100
AcDbLine
 10
487.1400389999998
 20
249.44796
 30
0.0
 11
487.283742
 21
249.6419589999999
 31
0.0
  0
LINE
  5
C96B
330
C611
100
AcDbEntity
  8
1
  6
Continuous
100
AcDbLine
 10
486.275039
 20
249.42296
 30
0.0
 11
487.1400389999998
 21
249.44796
 31
0.0
  0
ARC
  5
C96C
330
C611
100
AcDbEntity
  8
1
  6
Continuous
100
AcDbCircle
 10
486.4543019999998
 20
248.6059229999999
 30
0.0
 40
0.8364709999999998
100
AcDbArc
 50
102.3749159999999
 51
160.6585409999999
  0
ARC
  5
C96D
330
C611
100
AcDbEntity
  8
1
  6
Continuous
100
AcDbCircle
 10
490.4273799999998
 20
246.2284609999999
 30
0.0
 40
4.640519999999998
100
AcDbArc
 50
130.929183
 51
132.6433189999999
  0
ARC
  5
C96E
330
C611
100
AcDbEntity
  8
1
  6
Continuous
100
AcDbCircle
 10
491.9117449999998
 20
250.3112049999999
 30
0.0
 40
6.407901999999999
100
AcDbArc
 50
192.8787169999999
 51
205.64444
  0
ARC
  5
C96F
330
C611
100
AcDbEntity
  8
1
  6
Continuous
100
AcDbCircle
 10
486.0687419999998
 20
253.3452609999999
 30
0.0
 40
3.610794999999998
100
AcDbArc
 50
216.7321109999999
 51
270.0
  0
ARC
  5
C970
330
C611
100
AcDbEntity
  8
1
  6
Continuous
100
AcDbCircle
 10
487.5445199999998
 20
243.0773149999999
 30
0.0
 40
2.15138
100
AcDbArc
 50
90.0
 51
132.8002239999999
  0
LINE
  5
C971
330
C611
100
AcDbEntity
  8
4
  6
CENTER
100
AcDbLine
 10
466.499971
 20
249.732199
 30
0.0
 11
466.499971
 21
256.004236
 31
0.0
  0
LINE
  5
C972
330
C611
100
AcDbEntity
  8
1
  6
Continuous
100
AcDbLine
 10
474.0000039999998
 20
247.7643939999999
 30
0.0
 11
474.0000039999998
 21
251.364394
 31
0.0
  0
LINE
  5
C973
330
C611
100
AcDbEntity
  8
1
  6
Continuous
100
AcDbLine
 10
474.0000039999998
 20
244.655841
 30
0.0
 11
474.0000039999998
 21
244.7643939999999
 31
0.0
  0
ARC
  5
C974
330
C611
100
AcDbEntity
  8
1
  6
Continuous
100
AcDbCircle
 10
474.0000039999998
 20
245.5143939999999
 30
0.0
 40
0.75
100
AcDbArc
 50
180.0
 51
0.0
  0
ARC
  5
C975
330
C611
100
AcDbEntity
  8
1
  6
Continuous
100
AcDbCircle
 10
474.0000039999998
 20
247.0143939999999
 30
0.0
 40
0.75
100
AcDbArc
 50
0.0
 51
180.0
  0
LINE
  5
C976
330
C611
100
AcDbEntity
  8
1
  6
Continuous
100
AcDbLine
 10
474.750004
 20
247.0143939999999
 30
0.0
 11
474.750004
 21
245.5143939999999
 31
0.0
  0
LINE
  5
C977
330
C611
100
AcDbEntity
  8
1
  6
Continuous
100
AcDbLine
 10
473.2500039999997
 20
247.0143939999999
 30
0.0
 11
473.2500039999997
 21
245.5143939999999
 31
0.0
  0
LINE
  5
C978
330
C611
100
AcDbEntity
  8
1
  6
Continuous
100
AcDbLine
 10
465.500004
 20
251.364394
 30
0.0
 11
465.500004
 21
244.655841
 31
0.0
  0
LINE
  5
C979
330
C611
100
AcDbEntity
  8
1
  6
Continuous
100
AcDbLine
 10
454.0000039999998
 20
201.050028
 30
0.0
 11
454.0000039999998
 21
197.0500279999999
 31
0.0
  0
LINE
  5
C97A
330
C611
100
AcDbEntity
  8
5
  6
PHANTOM
100
AcDbLine
 10
455.6000039999998
 20
189.0500279999999
 30
0.0
 11
455.6000039999998
 21
188.0500279999999
 31
0.0
  0
LINE
  5
C97B
330
C611
100
AcDbEntity
  8
5
  6
PHANTOM
100
AcDbLine
 10
454.0000039999998
 20
193.050028
 30
0.0
 11
454.0000039999998
 21
189.0500279999999
 31
0.0
  0
ARC
  5
C97C
330
C611
100
AcDbEntity
  8
5
  6
PHANTOM
100
AcDbCircle
 10
457.600004
 20
188.0500279999999
 30
0.0
 40
2.0
100
AcDbArc
 50
180.0
 51
270.0
  0
ARC
  5
C97D
330
C611
100
AcDbEntity
  8
5
  6
PHANTOM
100
AcDbCircle
 10
456.000004
 20
193.050028
 30
0.0
 40
2.0
100
AcDbArc
 50
90.0
 51
180.0
  0
ARC
  5
C97E
330
C611
100
AcDbEntity
  8
1
  6
Continuous
100
AcDbCircle
 10
457.600004
 20
196.0500279999999
 30
0.0
 40
2.0
100
AcDbArc
 50
180.0
 51
270.0
  0
LINE
  5
C97F
330
C611
100
AcDbEntity
  8
1
  6
Continuous
100
AcDbLine
 10
455.6000039999998
 20
197.0500279999999
 30
0.0
 11
455.6000039999998
 21
196.0500279999999
 31
0.0
  0
ARC
  5
C980
330
C611
100
AcDbEntity
  8
1
  6
Continuous
100
AcDbCircle
 10
456.000004
 20
201.050028
 30
0.0
 40
2.0
100
AcDbArc
 50
90.0
 51
180.0
  0
LINE
  5
C981
330
C611
100
AcDbEntity
  8
1
  6
Continuous
100
AcDbLine
 10
459.7500039999998
 20
203.5500279999999
 30
0.0
 11
459.7500039999998
 21
203.050028
 31
0.0
  0
ARC
  5
C982
330
C611
100
AcDbEntity
  8
5
  6
PHANTOM
100
AcDbCircle
 10
456.000004
 20
213.0500279999999
 30
0.0
 40
2.0
100
AcDbArc
 50
90.0
 51
180.0
  0
ARC
  5
C983
330
C611
100
AcDbEntity
  8
5
  6
PHANTOM
100
AcDbCircle
 10
457.600004
 20
208.0500279999998
 30
0.0
 40
2.0
100
AcDbArc
 50
180.0
 51
270.0
  0
LINE
  5
C984
330
C611
100
AcDbEntity
  8
5
  6
PHANTOM
100
AcDbLine
 10
454.0000039999998
 20
213.0500279999999
 30
0.0
 11
454.0000039999998
 21
209.050028
 31
0.0
  0
LINE
  5
C985
330
C611
100
AcDbEntity
  8
5
  6
PHANTOM
100
AcDbLine
 10
455.6000039999998
 20
209.050028
 30
0.0
 11
455.6000039999998
 21
208.0500279999998
 31
0.0
  0
LINE
  5
C986
330
C611
100
AcDbEntity
  8
1
  6
Continuous
100
AcDbLine
 10
458.0
 20
254.050022
 30
0.0
 11
458.0
 21
251.750022
 31
0.0
  0
LINE
  5
C987
330
C611
100
AcDbEntity
  8
1
  6
Continuous
100
AcDbLine
 10
204.9651889999999
 20
212.529437
 30
0.0
 11
204.9651889999999
 21
239.447746
 31
0.0
  0
LINE
  5
C988
330
C611
100
AcDbEntity
  8
1
  6
Continuous
100
AcDbLine
 10
511.034753
 20
212.529437
 30
0.0
 11
511.034753
 21
239.447746
 31
0.0
  0
LINE
  5
C989
330
C611
100
AcDbEntity
  8
1
  6
Continuous
100
AcDbLine
 10
227.5903029999998
 20
100.869478
 30
0.0
 11
220.0488259999999
 21
104.365025
 31
0.0
  0
LINE
  5
C98A
330
C611
100
AcDbEntity
  8
1
  6
Continuous
100
AcDbLine
 10
226.039872
 20
99.053061
 30
0.0
 11
219.0816029999998
 21
102.2782859999998
 31
0.0
  0
ARC
  5
C98B
330
C611
100
AcDbEntity
  8
1
  6
Continuous
100
AcDbCircle
 10
202.5300619999999
 20
119.7999999999999
 30
0.0
 40
15.0
100
AcDbArc
 50
270.0
 51
286.104315
  0
ARC
  5
C98C
330
C611
100
AcDbEntity
  8
1
  6
Continuous
100
AcDbCircle
 10
202.5300619999999
 20
119.7999999999999
 30
0.0
 40
17.3
100
AcDbArc
 50
270.0
 51
286.104315
  0
ARC
  5
C98D
330
C611
100
AcDbEntity
  8
1
  6
Continuous
100
AcDbCircle
 10
211.999971
 20
87.0
 30
0.0
 40
16.839701
100
AcDbArc
 50
65.131825
 51
106.1043149999999
  0
LINE
  5
C98E
330
C611
100
AcDbEntity
  8
1
  6
Continuous
100
AcDbLine
 10
226.039872
 20
74.946939
 30
0.0
 11
219.0816029999998
 21
71.72171400000002
 31
0.0
  0
LINE
  5
C98F
330
C611
100
AcDbEntity
  8
1
  6
Continuous
100
AcDbLine
 10
227.5903029999998
 20
73.130522
 30
0.0
 11
220.0488259999999
 21
69.63497499999999
 31
0.0
  0
ARC
  5
C990
330
C611
100
AcDbEntity
  8
1
  6
Continuous
100
AcDbCircle
 10
211.999971
 20
87.0
 30
0.0
 40
16.839701
100
AcDbArc
 50
253.8956849999999
 51
294.868175
  0
ARC
  5
C991
330
C611
100
AcDbEntity
  8
1
  6
Continuous
100
AcDbCircle
 10
211.999971
 20
87.0
 30
0.0
 40
19.139701
100
AcDbArc
 50
253.8956849999999
 51
294.868175
  0
ARC
  5
C992
330
C611
100
AcDbEntity
  8
1
  6
Continuous
100
AcDbCircle
 10
202.5300619999999
 20
54.2
 30
0.0
 40
17.3
100
AcDbArc
 50
73.89568500000001
 51
90.0
  0
ARC
  5
C993
330
C611
100
AcDbEntity
  8
1
  6
Continuous
100
AcDbCircle
 10
202.5300619999999
 20
54.2
 30
0.0
 40
15.0
100
AcDbArc
 50
73.89568500000001
 51
90.0
  0
LINE
  5
C994
330
C611
100
AcDbEntity
  8
1
  6
Continuous
100
AcDbLine
 10
175.455775
 20
69.2
 30
0.0
 11
202.5300619999999
 21
69.2
 31
0.0
  0
LINE
  5
C995
330
C611
100
AcDbEntity
  8
1
  6
Continuous
100
AcDbLine
 10
175.087403
 20
71.5
 30
0.0
 11
202.5300619999999
 21
71.5
 31
0.0
  0
ARC
  5
C996
330
C611
100
AcDbEntity
  8
1
  6
Continuous
100
AcDbCircle
 10
357.999971
 20
215.991175
 30
0.0
 40
19.139701
100
AcDbArc
 50
341.541204
 51
43.87586599999997
  0
ARC
  5
C997
330
C611
100
AcDbEntity
  8
1
  6
Continuous
100
AcDbCircle
 10
382.6999709999999
 20
207.746418
 30
0.0
 40
6.9
100
AcDbArc
 50
161.541204
 51
180.0
  0
ARC
  5
C998
330
C611
100
AcDbEntity
  8
1
  6
Continuous
100
AcDbCircle
 10
382.6999709999999
 20
207.746418
 30
0.0
 40
9.199999999999999
100
AcDbArc
 50
161.541204
 51
180.0
  0
ARC
  5
C999
330
C611
100
AcDbEntity
  8
1
  6
Continuous
100
AcDbCircle
 10
357.999971
 20
215.991175
 30
0.0
 40
16.839701
100
AcDbArc
 50
341.541204
 51
54.23836899999999
  0
ARC
  5
C99A
330
C611
100
AcDbEntity
  8
1
  6
Continuous
100
AcDbCircle
 10
370.859597
 20
228.355841
 30
0.0
 40
1.3
100
AcDbArc
 50
43.87586599999997
 51
90.0
  0
ARC
  5
C99B
330
C611
100
AcDbEntity
  8
1
  6
Continuous
100
AcDbCircle
 10
357.999971
 20
215.991175
 30
0.0
 40
19.139701
100
AcDbArc
 50
136.124134
 51
198.4587959999998
  0
ARC
  5
C99C
330
C611
100
AcDbEntity
  8
1
  6
Continuous
100
AcDbCircle
 10
345.140345
 20
228.355841
 30
0.0
 40
1.3
100
AcDbArc
 50
90.0
 51
136.124134
  0
ARC
  5
C99D
330
C611
100
AcDbEntity
  8
1
  6
Continuous
100
AcDbCircle
 10
357.999971
 20
215.991175
 30
0.0
 40
16.839701
100
AcDbArc
 50
125.7616309999998
 51
198.4587959999998
  0
ARC
  5
C99E
330
C611
100
AcDbEntity
  8
1
  6
Continuous
100
AcDbCircle
 10
333.2999709999999
 20
207.746418
 30
0.0
 40
9.199999999999999
100
AcDbArc
 50
0.0
 51
18.45879599999999
  0
ARC
  5
C99F
330
C611
100
AcDbEntity
  8
1
  6
Continuous
100
AcDbCircle
 10
333.2999709999999
 20
207.746418
 30
0.0
 40
6.9
100
AcDbArc
 50
0.0
 51
18.45879599999999
  0
LINE
  5
C9A0
330
C611
100
AcDbEntity
  8
1
  6
Continuous
100
AcDbLine
 10
342.499971
 20
203.050028
 30
0.0
 11
342.499971
 21
222.5733879999999
 31
0.0
  0
LINE
  5
C9A1
330
C611
100
AcDbEntity
  8
1
  6
Continuous
100
AcDbLine
 10
340.199971
 20
203.050028
 30
0.0
 11
340.199971
 21
207.746418
 31
0.0
  0
LINE
  5
C9A2
330
C611
100
AcDbEntity
  8
1
  6
Continuous
100
AcDbLine
 10
95.79997099999998
 20
220.0500279999999
 30
0.0
 11
95.79997099999998
 21
208.0500279999998
 31
0.0
  0
ARC
  5
C9A3
330
C611
100
AcDbEntity
  8
1
  6
Continuous
100
AcDbCircle
 10
84.33586899999998
 20
214.0500279999999
 30
0.0
 40
11.464102
100
AcDbArc
 50
342.4120459999999
 51
17.587954
  0
ARC
  5
C9A4
330
C611
100
AcDbEntity
  8
1
  6
Continuous
100
AcDbCircle
 10
102.2640729999999
 20
214.0500279999999
 30
0.0
 40
11.464102
100
AcDbArc
 50
162.412046
 51
197.5879539999999
  0
LINE
  5
C9A5
330
C611
100
AcDbEntity
  8
1
  6
Continuous
100
AcDbLine
 10
90.79997099999998
 20
220.0500279999999
 30
0.0
 11
90.79997099999998
 21
208.0500279999998
 31
0.0
  0
LINE
  5
C9A6
330
C611
100
AcDbEntity
  8
1
  6
Continuous
100
AcDbLine
 10
95.264073
 20
207.121825
 30
0.0
 11
95.79997099999998
 21
208.0500279999998
 31
0.0
  0
LINE
  5
C9A7
330
C611
100
AcDbEntity
  8
1
  6
Continuous
100
AcDbLine
 10
91.33586899999999
 20
207.121825
 30
0.0
 11
90.79997099999998
 21
208.0500279999998
 31
0.0
  0
LINE
  5
C9A8
330
C611
100
AcDbEntity
  8
1
  6
Continuous
100
AcDbLine
 10
91.33586899999999
 20
207.121825
 30
0.0
 11
95.264073
 21
207.121825
 31
0.0
  0
LINE
  5
C9A9
330
C611
100
AcDbEntity
  8
1
  6
Continuous
100
AcDbLine
 10
91.33586899999999
 20
210.5859259999999
 30
0.0
 11
95.264073
 21
210.5859259999999
 31
0.0
  0
ARC
  5
C9AA
330
C611
100
AcDbEntity
  8
1
  6
Continuous
100
AcDbCircle
 10
93.866958
 20
208.853876
 30
0.0
 40
3.066986999999998
100
AcDbArc
 50
145.615753
 51
205.615753
  0
ARC
  5
C9AB
330
C611
100
AcDbEntity
  8
1
  6
Continuous
100
AcDbCircle
 10
92.73298399999999
 20
208.853876
 30
0.0
 40
3.066986999999998
100
AcDbArc
 50
334.384247
 51
34.38424699999998
  0
ARC
  5
C9AC
330
C611
100
AcDbEntity
  8
1
  6
Continuous
100
AcDbCircle
 10
92.73298399999999
 20
219.2461799999999
 30
0.0
 40
3.066986999999998
100
AcDbArc
 50
325.6157529999999
 51
25.615753
  0
ARC
  5
C9AD
330
C611
100
AcDbEntity
  8
1
  6
Continuous
100
AcDbCircle
 10
93.866958
 20
219.2461799999999
 30
0.0
 40
3.066986999999998
100
AcDbArc
 50
154.3842469999999
 51
214.384247
  0
LINE
  5
C9AE
330
C611
100
AcDbEntity
  8
1
  6
Continuous
100
AcDbLine
 10
91.33586899999999
 20
217.5141299999999
 30
0.0
 11
95.264073
 21
217.5141299999999
 31
0.0
  0
LINE
  5
C9AF
330
C611
100
AcDbEntity
  8
1
  6
Continuous
100
AcDbLine
 10
91.33586899999999
 20
220.978231
 30
0.0
 11
95.264073
 21
220.978231
 31
0.0
  0
LINE
  5
C9B0
330
C611
100
AcDbEntity
  8
1
  6
Continuous
100
AcDbLine
 10
91.33586899999999
 20
220.978231
 30
0.0
 11
90.79997099999998
 21
220.0500279999999
 31
0.0
  0
LINE
  5
C9B1
330
C611
100
AcDbEntity
  8
1
  6
Continuous
100
AcDbLine
 10
95.264073
 20
220.978231
 30
0.0
 11
95.79997099999998
 21
220.0500279999999
 31
0.0
  0
LINE
  5
C9B2
330
C611
100
AcDbEntity
  8
1
  6
Continuous
100
AcDbLine
 10
187.9999719999999
 20
217.5141299999999
 30
0.0
 11
187.9999719999999
 21
210.5859259999999
 31
0.0
  0
LINE
  5
C9B3
330
C611
100
AcDbEntity
  8
1
  6
Continuous
100
AcDbLine
 10
199.9999719999999
 20
217.5141299999999
 30
0.0
 11
199.9999719999999
 21
210.5859259999999
 31
0.0
  0
CIRCLE
  5
C9B4
330
C611
100
AcDbEntity
  8
1
  6
Continuous
100
AcDbCircle
 10
193.9999719999999
 20
214.0500279999999
 30
0.0
 40
6.0
  0
LINE
  5
C9B5
330
C611
100
AcDbEntity
  8
1
  6
Continuous
100
AcDbLine
 10
193.9999719999999
 20
207.121825
 30
0.0
 11
199.9999719999999
 21
210.5859259999999
 31
0.0
  0
LINE
  5
C9B6
330
C611
100
AcDbEntity
  8
1
  6
Continuous
100
AcDbLine
 10
193.9999719999999
 20
207.121825
 30
0.0
 11
187.9999719999999
 21
210.5859259999999
 31
0.0
  0
LINE
  5
C9B7
330
C611
100
AcDbEntity
  8
1
  6
Continuous
100
AcDbLine
 10
199.9999719999999
 20
217.5141299999999
 30
0.0
 11
193.9999719999999
 21
220.978231
 31
0.0
  0
LINE
  5
C9B8
330
C611
100
AcDbEntity
  8
1
  6
Continuous
100
AcDbLine
 10
187.9999719999999
 20
217.5141299999999
 30
0.0
 11
193.9999719999999
 21
220.978231
 31
0.0
  0
ARC
  5
C9B9
330
C611
100
AcDbEntity
  8
1
  6
Continuous
100
AcDbCircle
 10
190.9999719999999
 20
103.1349359999999
 30
0.0
 40
8.665063999999999
100
AcDbArc
 50
69.743842
 51
110.256158
  0
ARC
  5
C9BA
330
C611
100
AcDbEntity
  8
1
  6
Continuous
100
AcDbCircle
 10
190.9999719999999
 20
115.4650639999998
 30
0.0
 40
8.665063999999999
100
AcDbArc
 50
249.7438419999999
 51
290.256158
  0
LINE
  5
C9BB
330
C611
100
AcDbEntity
  8
1
  6
Continuous
100
AcDbLine
 10
199.9999719999999
 20
111.8
 30
0.0
 11
187.9999719999999
 21
111.8
 31
0.0
  0
LINE
  5
C9BC
330
C611
100
AcDbEntity
  8
1
  6
Continuous
100
AcDbLine
 10
187.9999719999999
 20
106.8
 30
0.0
 11
187.9999719999999
 21
111.8
 31
0.0
  0
ARC
  5
C9BD
330
C611
100
AcDbEntity
  8
1
  6
Continuous
100
AcDbCircle
 10
196.9999719999999
 20
103.1349359999999
 30
0.0
 40
8.665063999999999
100
AcDbArc
 50
69.743842
 51
110.256158
  0
ARC
  5
C9BE
330
C611
100
AcDbEntity
  8
1
  6
Continuous
100
AcDbCircle
 10
196.9999719999999
 20
115.4650639999998
 30
0.0
 40
8.665063999999999
100
AcDbArc
 50
249.7438419999999
 51
290.256158
  0
LINE
  5
C9BF
330
C611
100
AcDbEntity
  8
1
  6
Continuous
100
AcDbLine
 10
193.9999719999999
 20
111.2641019999999
 30
0.0
 11
193.9999719999999
 21
107.335898
 31
0.0
  0
LINE
  5
C9C0
330
C611
100
AcDbEntity
  8
1
  6
Continuous
100
AcDbLine
 10
199.9999719999999
 20
106.8
 30
0.0
 11
199.9999719999999
 21
111.8
 31
0.0
  0
ARC
  5
C9C1
330
C611
100
AcDbEntity
  8
1
  6
Continuous
100
AcDbCircle
 10
326.735869
 20
214.0500279999999
 30
0.0
 40
11.464102
100
AcDbArc
 50
342.4120459999999
 51
17.587954
  0
ARC
  5
C9C2
330
C611
100
AcDbEntity
  8
1
  6
Continuous
100
AcDbCircle
 10
344.6640729999999
 20
214.0500279999999
 30
0.0
 40
11.464102
100
AcDbArc
 50
162.412046
 51
197.5879539999999
  0
LINE
  5
C9C3
330
C611
100
AcDbEntity
  8
1
  6
Continuous
100
AcDbLine
 10
333.199971
 20
220.0500279999999
 30
0.0
 11
333.199971
 21
208.0500279999998
 31
0.0
  0
LINE
  5
C9C4
330
C611
100
AcDbEntity
  8
1
  6
Continuous
100
AcDbLine
 10
337.6640729999999
 20
207.121825
 30
0.0
 11
338.199971
 21
208.0500279999998
 31
0.0
  0
LINE
  5
C9C5
330
C611
100
AcDbEntity
  8
1
  6
Continuous
100
AcDbLine
 10
333.7358689999998
 20
207.121825
 30
0.0
 11
333.199971
 21
208.0500279999998
 31
0.0
  0
LINE
  5
C9C6
330
C611
100
AcDbEntity
  8
1
  6
Continuous
100
AcDbLine
 10
333.7358689999998
 20
207.121825
 30
0.0
 11
337.6640729999999
 21
207.121825
 31
0.0
  0
LINE
  5
C9C7
330
C611
100
AcDbEntity
  8
1
  6
Continuous
100
AcDbLine
 10
333.7358689999998
 20
210.5859259999999
 30
0.0
 11
337.6640729999999
 21
210.5859259999999
 31
0.0
  0
ARC
  5
C9C8
330
C611
100
AcDbEntity
  8
1
  6
Continuous
100
AcDbCircle
 10
336.2669579999998
 20
208.853876
 30
0.0
 40
3.066986999999998
100
AcDbArc
 50
145.615753
 51
205.615753
  0
ARC
  5
C9C9
330
C611
100
AcDbEntity
  8
1
  6
Continuous
100
AcDbCircle
 10
335.1329839999999
 20
208.853876
 30
0.0
 40
3.066986999999998
100
AcDbArc
 50
334.384247
 51
34.38424699999998
  0
ARC
  5
C9CA
330
C611
100
AcDbEntity
  8
1
  6
Continuous
100
AcDbCircle
 10
335.1329839999999
 20
219.2461799999999
 30
0.0
 40
3.066986999999998
100
AcDbArc
 50
325.6157529999999
 51
25.615753
  0
ARC
  5
C9CB
330
C611
100
AcDbEntity
  8
1
  6
Continuous
100
AcDbCircle
 10
336.2669579999998
 20
219.2461799999999
 30
0.0
 40
3.066986999999998
100
AcDbArc
 50
154.3842469999999
 51
214.384247
  0
LINE
  5
C9CC
330
C611
100
AcDbEntity
  8
1
  6
Continuous
100
AcDbLine
 10
333.7358689999998
 20
217.5141299999999
 30
0.0
 11
337.6640729999999
 21
217.5141299999999
 31
0.0
  0
LINE
  5
C9CD
330
C611
100
AcDbEntity
  8
1
  6
Continuous
100
AcDbLine
 10
333.7358689999998
 20
220.978231
 30
0.0
 11
337.6640729999999
 21
220.978231
 31
0.0
  0
LINE
  5
C9CE
330
C611
100
AcDbEntity
  8
1
  6
Continuous
100
AcDbLine
 10
333.7358689999998
 20
220.978231
 30
0.0
 11
333.199971
 21
220.0500279999999
 31
0.0
  0
LINE
  5
C9CF
330
C611
100
AcDbEntity
  8
1
  6
Continuous
100
AcDbLine
 10
337.6640729999999
 20
220.978231
 30
0.0
 11
338.199971
 21
220.0500279999999
 31
0.0
  0
LINE
  5
C9D0
330
C611
100
AcDbEntity
  8
4
  6
CENTER
100
AcDbLine
 10
241.9999379999999
 20
338.1000559999999
 30
0.0
 11
241.9999379999999
 21
384.1000559999998
 31
0.0
  0
LINE
  5
C9D1
330
C611
100
AcDbEntity
  8
4
  6
CENTER
100
AcDbLine
 10
193.9999719999999
 20
335.4002139999999
 30
0.0
 11
193.9999719999999
 21
389.750193
 31
0.0
  0
ENDSEC
  0
SECTION
  2
OBJECTS
  0
DICTIONARY
  5
C5FF
330
0
100
AcDbDictionary
281
     1
  3
ACAD_CIP_PREVIOUS_PRODUCT_INFO
350
CA33
  3
ACAD_COLOR
350
CA15
  3
ACAD_DETAILVIEWSTYLE
350
CA2E
  3
ACAD_GROUP
350
C600
  3
ACAD_LAYOUT
350
C60C
  3
ACAD_MATERIAL
350
C9E3
  3
ACAD_MLEADERSTYLE
350
CA2A
  3
ACAD_MLINESTYLE
350
C609
  3
ACAD_PLOTSETTINGS
350
C60B
  3
ACAD_PLOTSTYLENAME
350
C9E1
  3
ACAD_SCALELIST
350
CA18
  3
ACAD_SECTIONVIEWSTYLE
350
CA2C
  3
ACAD_TABLESTYLE
350
CA16
  3
ACAD_VISUALSTYLE
350
C9FC
  3
ACDB_RECOMPOSE_DATA
350
CA51
  3
AcDbVariableDictionary
350
CA44
  3
DWGPROPS
350
CA52
  0
DICTIONARY
  5
CA34
330
C603
100
AcDbDictionary
280
     1
281
     1
  3
ADSK_XREC_LAYER_RECONCILED
360
CA35
  0
DICTIONARY
  5
CA36
330
C619
100
AcDbDictionary
280
     1
281
     1
  3
ADSK_XREC_LAYER_RECONCILED
360
CA37
  0
DICTIONARY
  5
CA38
330
C61A
100
AcDbDictionary
280
     1
281
     1
  3
ADSK_XREC_LAYER_RECONCILED
360
CA39
  0
DICTIONARY
  5
CA3A
330
C61B
100
AcDbDictionary
280
     1
281
     1
  3
ADSK_XREC_LAYER_RECONCILED
360
CA3B
  0
DICTIONARY
  5
CA3C
330
C61C
100
AcDbDictionary
280
     1
281
     1
  3
ADSK_XREC_LAYER_RECONCILED
360
CA3D
  0
DICTIONARY
  5
CA3E
330
C61D
100
AcDbDictionary
280
     1
281
     1
  3
ADSK_XREC_LAYER_RECONCILED
360
CA3F
  0
DICTIONARY
  5
CA40
330
C61E
100
AcDbDictionary
280
     1
281
     1
  3
ADSK_XREC_LAYER_RECONCILED
360
CA41
  0
DICTIONARY
  5
CA42
330
C61F
100
AcDbDictionary
280
     1
281
     1
  3
ADSK_XREC_LAYER_RECONCILED
360
CA43
  0
DICTIONARY
  5
C9DC
330
C611
100
AcDbDictionary
281
     1
  3
ACAD_LAYOUTSELFREF
350
C9DD
  0
DICTIONARY
  5
C9DA
330
C60D
100
AcDbDictionary
281
     1
  3
ACAD_LAYOUTSELFREF
350
C9DB
  0
XRECORD
  5
CA33
102
{ACAD_REACTORS
330
C5FF
102
}
330
C5FF
100
AcDbXrecord
280
     1
300
ACDLT
300
2014
300
ACDLT_F_S
  0
DICTIONARY
  5
CA15
102
{ACAD_REACTORS
330
C5FF
102
}
330
C5FF
100
AcDbDictionary
281
     1
  0
DICTIONARY
  5
CA2E
102
{ACAD_REACTORS
330
C5FF
102
}
330
C5FF
100
AcDbDictionary
281
     1
  3
Imperial24
350
CA2F
  0
DICTIONARY
  5
C600
102
{ACAD_REACTORS
330
C5FF
102
}
330
C5FF
100
AcDbDictionary
281
     1
  0
DICTIONARY
  5
C60C
102
{ACAD_REACTORS
330
C5FF
102
}
330
C5FF
100
AcDbDictionary
281
     1
  3
Model
350
CA30
  3
レイアウト1
350
CA31
  0
DICTIONARY
  5
C9E3
102
{ACAD_REACTORS
330
C5FF
102
}
330
C5FF
100
AcDbDictionary
281
     1
  3
ByBlock
350
C9EC
  3
ByLayer
350
C9E4
  3
Global
350
C9F4
  0
DICTIONARY
  5
CA2A
102
{ACAD_REACTORS
330
C5FF
102
}
330
C5FF
100
AcDbDictionary
281
     1
  3
Standard
350
CA2B
  0
DICTIONARY
  5
C609
102
{ACAD_REACTORS
330
C5FF
102
}
330
C5FF
100
AcDbDictionary
281
     1
  3
STANDARD
350
C60A
  0
DICTIONARY
  5
C60B
102
{ACAD_REACTORS
330
C5FF
102
}
330
C5FF
100
AcDbDictionary
281
     1
  0
ACDBDICTIONARYWDFLT
  5
C9E1
102
{ACAD_REACTORS
330
C5FF
102
}
330
C5FF
100
AcDbDictionary
281
     1
  3
Normal
350
C9E2
100
AcDbDictionaryWithDefault
340
C9E2
  0
DICTIONARY
  5
CA18
102
{ACAD_REACTORS
330
C5FF
102
}
330
C5FF
100
AcDbDictionary
281
     1
  3
A0
350
CA19
  3
A1
350
CA1A
  3
A2
350
CA1B
  3
A3
350
CA1C
  3
A4
350
CA1D
  3
A5
350
CA1E
  3
A6
350
CA1F
  3
A7
350
CA20
  3
A8
350
CA21
  3
A9
350
CA22
  3
B0
350
CA23
  3
B1
350
CA24
  3
B2
350
CA25
  3
B3
350
CA26
  3
B4
350
CA27
  3
B5
350
CA28
  3
B6
350
CA29
  0
DICTIONARY
  5
CA2C
102
{ACAD_REACTORS
330
C5FF
102
}
330
C5FF
100
AcDbDictionary
281
     1
  3
Imperial24
350
CA2D
  0
DICTIONARY
  5
CA16
102
{ACAD_REACTORS
330
C5FF
102
}
330
C5FF
100
AcDbDictionary
281
     1
  3
Standard
350
CA17
  0
DICTIONARY
  5
C9FC
102
{ACAD_REACTORS
330
C5FF
102
}
330
C5FF
100
AcDbDictionary
281
     1
  3
2dWireframe
350
CA02
  3
Basic
350
CA01
  3
Brighten
350
CA08
  3
ColorChange
350
CA0C
  3
Conceptual
350
CA05
  3
Dim
350
CA07
  3
EdgeColorOff
350
CA14
  3
Facepattern
350
CA0B
  3
Flat
350
C9FD
  3
FlatWithEdges
350
C9FE
  3
Gouraud
350
C9FF
  3
GouraudWithEdges
350
CA00
  3
Hidden
350
CA04
  3
JitterOff
350
CA12
  3
Linepattern
350
CA0A
  3
OverhangOff
350
CA13
  3
Realistic
350
CA06
  3
Shaded
350
CA11
  3
Shaded with edges
350
CA10
  3
Shades of Gray
350
CA0D
  3
Sketchy
350
CA0E
  3
Thicken
350
CA09
  3
Wireframe
350
CA03
  3
X-Ray
350
CA0F
  0
XRECORD
  5
CA51
102
{ACAD_REACTORS
330
C5FF
102
}
330
C5FF
100
AcDbXrecord
280
     1
 90
        1
330
CA17
  0
DICTIONARY
  5
CA44
102
{ACAD_REACTORS
330
C5FF
102
}
330
C5FF
100
AcDbDictionary
281
     1
  3
CANNOSCALE
350
CA49
  3
CMLEADERSTYLE
350
CA46
  3
CTABLESTYLE
350
CA45
  3
CVIEWDETAILSTYLE
350
CA47
  3
CVIEWSECTIONSTYLE
350
CA48
  3
DIMASSOC
350
CA4C
  3
INDEXCTL
350
CA4B
  3
SORTENTS
350
CA4A
  3
XCLIPFRAME
350
CA4D
  0
XRECORD
  5
CA52
102
{ACAD_REACTORS
330
C5FF
102
}
330
C5FF
100
AcDbXrecord
280
     1
  1
DWGPROPS COOKIE
  2

  3

  4

  6

  7

  8
Yoshitsune
  9

300
=
301
=
302
=
303
=
304
=
305
=
306
=
307
=
308
=
309
=
 40
0.000010625
 41
2451301.404673032
 42
2457192.686454827
  1

 90
        0
  0
XRECORD
  5
CA35
102
{ACAD_REACTORS
330
CA34
102
}
330
CA34
100
AcDbXrecord
280
     1
290
     1
  0
XRECORD
  5
CA37
102
{ACAD_REACTORS
330
CA36
102
}
330
CA36
100
AcDbXrecord
280
     1
290
     1
  0
XRECORD
  5
CA39
102
{ACAD_REACTORS
330
CA38
102
}
330
CA38
100
AcDbXrecord
280
     1
290
     1
  0
XRECORD
  5
CA3B
102
{ACAD_REACTORS
330
CA3A
102
}
330
CA3A
100
AcDbXrecord
280
     1
290
     1
  0
XRECORD
  5
CA3D
102
{ACAD_REACTORS
330
CA3C
102
}
330
CA3C
100
AcDbXrecord
280
     1
290
     1
  0
XRECORD
  5
CA3F
102
{ACAD_REACTORS
330
CA3E
102
}
330
CA3E
100
AcDbXrecord
280
     1
290
     1
  0
XRECORD
  5
CA41
102
{ACAD_REACTORS
330
CA40
102
}
330
CA40
100
AcDbXrecord
280
     1
290
     1
  0
XRECORD
  5
CA43
102
{ACAD_REACTORS
330
CA42
102
}
330
CA42
100
AcDbXrecord
280
     1
290
     1
  0
XRECORD
  5
C9DD
102
{ACAD_REACTORS
330
C9DC
102
}
330
C9DC
100
AcDbXrecord
280
     1
340
C611
  0
XRECORD
  5
C9DB
102
{ACAD_REACTORS
330
C9DA
102
}
330
C9DA
100
AcDbXrecord
280
     1
340
C60D
  0
ACDBDETAILVIEWSTYLE
  5
CA2F
102
{ACAD_XDICTIONARY
360
CA8A
102
}
102
{ACAD_REACTORS
330
CA2E
102
}
330
CA2E
100
AcDbModelDocViewStyle
 70
     0
  3
Imperial24
290
     0
100
AcDbDetailViewStyle
 70
     0
 71
     0
 90
        3
 71
     1
340
C604
 40
0.24
340
0
 40
0.24
300

 40
0.36
280
     3
 71
     2
340
C608
 90
       25
 71
     3
340
C604
 40
0.24
 90
        1
 40
0.75
 90
        1
300
%<\AcVar ViewType \f "%tc1">% %<\AcVar ViewDetailId>%\PSCALE %<\AcVar ViewScale \f "%sn">%
 71
     4
340
C608
 90
       25
340
C608
 90
       25
280
     0
  0
LAYOUT
  5
CA30
102
{ACAD_XDICTIONARY
360
CA8C
102
}
102
{ACAD_REACTORS
330
C60C
102
}
330
C60C
100
AcDbPlotSettings
  1

  2
Canon LBP9100C
  4

  6

 40
0.0
 41
0.0
 42
0.0
 43
0.0
 44
0.0
 45
0.0
 46
0.0
 47
0.0
 48
0.0
 49
0.0
140
0.0
141
0.0
142
1.0
143
1.0
 70
  1712
 72
     0
 73
     0
 74
     0
  7

 75
     0
147
1.0
148
0.0
149
0.0
100
AcDbLayout
  1
Model
 70
     1
 71
     0
 10
0.0
 20
0.0
 11
12.0
 21
9.0
 12
0.0
 22
0.0
 32
0.0
 14
0.0
 24
0.0
 34
0.0
 15
0.0
 25
0.0
 35
0.0
146
0.0
 13
0.0
 23
0.0
 33
0.0
 16
1.0
 26
0.0
 36
0.0
 17
0.0
 27
1.0
 37
0.0
 76
     0
330
C611
331
C9D9
  0
LAYOUT
  5
CA31
102
{ACAD_XDICTIONARY
360
CA8E
102
}
102
{ACAD_REACTORS
330
C60C
102
}
330
C60C
100
AcDbPlotSettings
  1

  2
Canon LBP9100C
  4

  6

 40
0.0
 41
0.0
 42
0.0
 43
0.0
 44
0.0
 45
0.0
 46
0.0
 47
0.0
 48
0.0
 49
0.0
140
0.0
141
0.0
142
1.0
143
1.0
 70
   688
 72
     0
 73
     0
 74
     5
  7

 75
    16
147
1.0
148
0.0
149
0.0
100
AcDbLayout
  1
レイアウト1
 70
     0
 71
     1
 10
0.0
 20
0.0
 11
420.0
 21
297.0
 12
0.0
 22
0.0
 32
0.0
 14
1.000000000000000E+20
 24
1.000000000000000E+20
 34
1.000000000000000E+20
 15
-1.000000000000000E+20
 25
-1.000000000000000E+20
 35
-1.000000000000000E+20
146
0.0
 13
0.0
 23
0.0
 33
0.0
 16
1.0
 26
0.0
 36
0.0
 17
0.0
 27
1.0
 37
0.0
 76
     0
330
C60D
  0
MATERIAL
  5
C9EC
102
{ACAD_XDICTIONARY
360
C9ED
102
}
102
{ACAD_REACTORS
330
C9E3
102
}
330
C9E3
100
AcDbMaterial
  1
ByBlock
 72
     0
 43
0.0208333333333333
 43
0.0
 43
0.0
 43
0.0
 43
0.0
 43
0.0208333333333333
 43
0.0
 43
0.0
 43
0.0
 43
0.0
 43
1.0
 43
0.0
 43
0.0
 43
0.0
 43
0.0
 43
1.0
 77
     0
 47
0.0208333333333333
 47
0.0
 47
0.0
 47
0.0
 47
0.0
 47
0.0208333333333333
 47
0.0
 47
0.0
 47
0.0
 47
0.0
 47
1.0
 47
0.0
 47
0.0
 47
0.0
 47
0.0
 47
1.0
171
     0
 49
0.0208333333333333
 49
0.0
 49
0.0
 49
0.0
 49
0.0
 49
0.0208333333333333
 49
0.0
 49
0.0
 49
0.0
 49
0.0
 49
1.0
 49
0.0
 49
0.0
 49
0.0
 49
0.0
 49
1.0
175
     0
142
0.0208333333333333
142
0.0
142
0.0
142
0.0
142
0.0
142
0.0208333333333333
142
0.0
142
0.0
142
0.0
142
0.0
142
1.0
142
0.0
142
0.0
142
0.0
142
0.0
142
1.0
179
     0
144
0.0208333333333333
144
0.0
144
0.0
144
0.0
144
0.0
144
0.0208333333333333
144
0.0
144
0.0
144
0.0
144
0.0
144
1.0
144
0.0
144
0.0
144
0.0
144
0.0
144
1.0
147
0.0208333333333333
147
0.0
147
0.0
147
0.0
147
0.0
147
0.0208333333333333
147
0.0
147
0.0
147
0.0
147
0.0
147
1.0
147
0.0
147
0.0
147
0.0
147
0.0
147
1.0
  0
MATERIAL
  5
C9E4
102
{ACAD_XDICTIONARY
360
C9E5
102
}
102
{ACAD_REACTORS
330
C9E3
102
}
330
C9E3
100
AcDbMaterial
  1
ByLayer
 72
     0
 43
0.0208333333333333
 43
0.0
 43
0.0
 43
0.0
 43
0.0
 43
0.0208333333333333
 43
0.0
 43
0.0
 43
0.0
 43
0.0
 43
1.0
 43
0.0
 43
0.0
 43
0.0
 43
0.0
 43
1.0
 77
     0
 47
0.0208333333333333
 47
0.0
 47
0.0
 47
0.0
 47
0.0
 47
0.0208333333333333
 47
0.0
 47
0.0
 47
0.0
 47
0.0
 47
1.0
 47
0.0
 47
0.0
 47
0.0
 47
0.0
 47
1.0
171
     0
 49
0.0208333333333333
 49
0.0
 49
0.0
 49
0.0
 49
0.0
 49
0.0208333333333333
 49
0.0
 49
0.0
 49
0.0
 49
0.0
 49
1.0
 49
0.0
 49
0.0
 49
0.0
 49
0.0
 49
1.0
175
     0
142
0.0208333333333333
142
0.0
142
0.0
142
0.0
142
0.0
142
0.0208333333333333
142
0.0
142
0.0
142
0.0
142
0.0
142
1.0
142
0.0
142
0.0
142
0.0
142
0.0
142
1.0
179
     0
144
0.0208333333333333
144
0.0
144
0.0
144
0.0
144
0.0
144
0.0208333333333333
144
0.0
144
0.0
144
0.0
144
0.0
144
1.0
144
0.0
144
0.0
144
0.0
144
0.0
144
1.0
147
0.0208333333333333
147
0.0
147
0.0
147
0.0
147
0.0
147
0.0208333333333333
147
0.0
147
0.0
147
0.0
147
0.0
147
1.0
147
0.0
147
0.0
147
0.0
147
0.0
147
1.0
  0
MATERIAL
  5
C9F4
102
{ACAD_XDICTIONARY
360
C9F5
102
}
102
{ACAD_REACTORS
330
C9E3
102
}
330
C9E3
100
AcDbMaterial
  1
Global
 72
     0
 43
0.0208333333333333
 43
0.0
 43
0.0
 43
0.0
 43
0.0
 43
0.0208333333333333
 43
0.0
 43
0.0
 43
0.0
 43
0.0
 43
1.0
 43
0.0
 43
0.0
 43
0.0
 43
0.0
 43
1.0
 77
     0
 47
0.0208333333333333
 47
0.0
 47
0.0
 47
0.0
 47
0.0
 47
0.0208333333333333
 47
0.0
 47
0.0
 47
0.0
 47
0.0
 47
1.0
 47
0.0
 47
0.0
 47
0.0
 47
0.0
 47
1.0
171
     0
 49
0.0208333333333333
 49
0.0
 49
0.0
 49
0.0
 49
0.0
 49
0.0208333333333333
 49
0.0
 49
0.0
 49
0.0
 49
0.0
 49
1.0
 49
0.0
 49
0.0
 49
0.0
 49
0.0
 49
1.0
175
     0
142
0.0208333333333333
142
0.0
142
0.0
142
0.0
142
0.0
142
0.0208333333333333
142
0.0
142
0.0
142
0.0
142
0.0
142
1.0
142
0.0
142
0.0
142
0.0
142
0.0
142
1.0
179
     0
144
0.0208333333333333
144
0.0
144
0.0
144
0.0
144
0.0
144
0.0208333333333333
144
0.0
144
0.0
144
0.0
144
0.0
144
1.0
144
0.0
144
0.0
144
0.0
144
0.0
144
1.0
147
0.0208333333333333
147
0.0
147
0.0
147
0.0
147
0.0
147
0.0208333333333333
147
0.0
147
0.0
147
0.0
147
0.0
147
1.0
147
0.0
147
0.0
147
0.0
147
0.0
147
1.0
  0
MLEADERSTYLE
  5
CA2B
102
{ACAD_REACTORS
330
CA2A
102
}
330
CA2A
100
AcDbMLeaderStyle
170
     2
171
     1
172
     0
 90
        2
 40
0.0
 41
0.0
173
     1
 91
-1056964608
340
C606
 92
       -2
290
     1
 42
0.09
291
     1
 43
0.36
  3
Standard
 44
0.18
300

342
C604
174
     1
178
     6
175
     1
176
     0
 93
-1056964608
 45
0.18
292
     0
297
     0
 46
0.18
 94
-1056964608
 47
1.0
 49
1.0
140
1.0
293
     1
141
0.0
294
     1
177
     0
142
1.0
295
     0
296
     0
143
0.125
1001
ACAD_MLEADERVER
1070
     2
  0
MLINESTYLE
  5
C60A
102
{ACAD_REACTORS
330
C609
102
}
330
C609
100
AcDbMlineStyle
  2
STANDARD
 70
     0
  3

 62
   256
 51
90.0
 52
90.0
 71
     2
 49
0.5
 62
   256
  6
BYLAYER
 49
-0.5
 62
   256
  6
BYLAYER
  0
ACDBPLACEHOLDER
  5
C9E2
102
{ACAD_REACTORS
330
C9E1
102
}
330
C9E1
  0
SCALE
  5
CA19
102
{ACAD_REACTORS
330
CA18
102
}
330
CA18
100
AcDbScale
 70
     0
300
1:1
140
1.0
141
1.0
290
     1
  0
SCALE
  5
CA1A
102
{ACAD_REACTORS
330
CA18
102
}
330
CA18
100
AcDbScale
 70
     0
300
1/128" = 1'-0"
140
0.0078125
141
12.0
290
     0
  0
SCALE
  5
CA1B
102
{ACAD_REACTORS
330
CA18
102
}
330
CA18
100
AcDbScale
 70
     0
300
1/64" = 1'-0"
140
0.015625
141
12.0
290
     0
  0
SCALE
  5
CA1C
102
{ACAD_REACTORS
330
CA18
102
}
330
CA18
100
AcDbScale
 70
     0
300
1/32" = 1'-0"
140
0.03125
141
12.0
290
     0
  0
SCALE
  5
CA1D
102
{ACAD_REACTORS
330
CA18
102
}
330
CA18
100
AcDbScale
 70
     0
300
1/16" = 1'-0"
140
0.0625
141
12.0
290
     0
  0
SCALE
  5
CA1E
102
{ACAD_REACTORS
330
CA18
102
}
330
CA18
100
AcDbScale
 70
     0
300
3/32" = 1'-0"
140
0.09375
141
12.0
290
     0
  0
SCALE
  5
CA1F
102
{ACAD_REACTORS
330
CA18
102
}
330
CA18
100
AcDbScale
 70
     0
300
1/8" = 1'-0"
140
0.125
141
12.0
290
     0
  0
SCALE
  5
CA20
102
{ACAD_REACTORS
330
CA18
102
}
330
CA18
100
AcDbScale
 70
     0
300
3/16" = 1'-0"
140
0.1875
141
12.0
290
     0
  0
SCALE
  5
CA21
102
{ACAD_REACTORS
330
CA18
102
}
330
CA18
100
AcDbScale
 70
     0
300
1/4" = 1'-0"
140
0.25
141
12.0
290
     0
  0
SCALE
  5
CA22
102
{ACAD_REACTORS
330
CA18
102
}
330
CA18
100
AcDbScale
 70
     0
300
3/8" = 1'-0"
140
0.375
141
12.0
290
     0
  0
SCALE
  5
CA23
102
{ACAD_REACTORS
330
CA18
102
}
330
CA18
100
AcDbScale
 70
     0
300
1/2" = 1'-0"
140
0.5
141
12.0
290
     0
  0
SCALE
  5
CA24
102
{ACAD_REACTORS
330
CA18
102
}
330
CA18
100
AcDbScale
 70
     0
300
3/4" = 1'-0"
140
0.75
141
12.0
290
     0
  0
SCALE
  5
CA25
102
{ACAD_REACTORS
330
CA18
102
}
330
CA18
100
AcDbScale
 70
     0
300
1" = 1'-0"
140
1.0
141
12.0
290
     0
  0
SCALE
  5
CA26
102
{ACAD_REACTORS
330
CA18
102
}
330
CA18
100
AcDbScale
 70
     0
300
1-1/2" = 1'-0"
140
1.5
141
12.0
290
     0
  0
SCALE
  5
CA27
102
{ACAD_REACTORS
330
CA18
102
}
330
CA18
100
AcDbScale
 70
     0
300
3" = 1'-0"
140
3.0
141
12.0
290
     0
  0
SCALE
  5
CA28
102
{ACAD_REACTORS
330
CA18
102
}
330
CA18
100
AcDbScale
 70
     0
300
6" = 1'-0"
140
6.0
141
12.0
290
     0
  0
SCALE
  5
CA29
102
{ACAD_REACTORS
330
CA18
102
}
330
CA18
100
AcDbScale
 70
     0
300
1'-0" = 1'-0"
140
12.0
141
12.0
290
     0
  0
ACDBSECTIONVIEWSTYLE
  5
CA2D
102
{ACAD_XDICTIONARY
360
CA88
102
}
102
{ACAD_REACTORS
330
CA2C
102
}
330
CA2C
100
AcDbModelDocViewStyle
 70
     0
  3
Imperial24
290
     0
100
AcDbSectionViewStyle
 70
     0
 71
     0
 90
       78
 71
     1
340
C604
 40
0.24
340
0
340
0
 40
0.24
300
I, O, Q, S, X, Z
 40
0.48
 90
        3
 40
0.18
 90
        1
 71
     2
340
C608
 90
       25
340
C608
 90
       50
 40
0.24
 40
0.0
 40
0.24
 71
     3
340
C604
 40
0.24
 90
        1
 40
0.75
 90
        1
300
%<\AcVar ViewType \f "%tc1">% %<\AcVar ViewSectionStartId>%-%<\AcVar ViewSectionEndId>%\PSCALE %<\AcVar ViewScale \f "%sn">%
 71
     4
300
ANSI31
 40
1.0
 90
        0
290
     0
290
     0
 90
        6
 40
0.0
 40
1.570796326794896
 40
0.2617993877991494
 40
1.308996938995747
 40
-0.2617993877991494
 40
1.832595714594046
  0
TABLESTYLE
  5
CA17
102
{ACAD_XDICTIONARY
360
CA4F
102
}
102
{ACAD_REACTORS
330
CA16
102
}
330
CA16
100
AcDbTableStyle
  3
Standard
 70
     0
 71
     0
 40
0.06
 41
0.06
280
     0
281
     0
  7
STANDARD
140
0.18
170
     2
 62
     0
 63
     7
283
     0
274
    -2
284
     1
 64
     0
275
    -2
285
     1
 65
     0
276
    -2
286
     1
 66
     0
277
    -2
287
     1
 67
     0
278
    -2
288
     1
 68
     0
279
    -2
289
     1
 69
     0
  7
STANDARD
140
0.25
170
     5
 62
     0
 63
     7
283
     0
274
    -2
284
     1
 64
     0
275
    -2
285
     1
 65
     0
276
    -2
286
     1
 66
     0
277
    -2
287
     1
 67
     0
278
    -2
288
     1
 68
     0
279
    -2
289
     1
 69
     0
  7
STANDARD
140
0.18
170
     5
 62
     0
 63
     7
283
     0
274
    -2
284
     1
 64
     0
275
    -2
285
     1
 65
     0
276
    -2
286
     1
 66
     0
277
    -2
287
     1
 67
     0
278
    -2
288
     1
 68
     0
279
    -2
289
     1
 69
     0
  0
VISUALSTYLE
  5
CA02
102
{ACAD_XDICTIONARY
360
CA60
102
}
102
{ACAD_REACTORS
330
C9FC
102
}
330
C9FC
100
AcDbVisualStyle
  2
2dWireframe
 70
     4
 71
     0
 72
     2
 73
     0
 90
        0
 40
-0.6
 41
-30.0
 62
     5
 63
     7
 74
     1
 91
        4
 64
     7
 65
   257
 75
     1
175
     1
 42
1.0
 92
        0
 66
   257
 43
1.0
 76
     1
 77
     6
 78
     2
 67
     7
 79
     5
170
     0
171
     0
290
     0
174
     0
 93
        1
 44
0.0
173
     0
291
     0
 45
0.0
1001
ACAD
1000
AcDbSavedByObjectVersion
1070
     0
  0
VISUALSTYLE
  5
CA01
102
{ACAD_XDICTIONARY
360
CA5E
102
}
102
{ACAD_REACTORS
330
C9FC
102
}
330
C9FC
100
AcDbVisualStyle
  2
Basic
 70
     7
 71
     1
 72
     0
 73
     1
 90
        0
 40
-0.6
 41
-30.0
 62
     5
 63
     7
 74
     0
 91
        4
 64
     7
 65
   257
 75
     1
175
     1
 42
1.0
 92
        8
 66
     7
 43
1.0
 76
     1
 77
     6
 78
     2
 67
     7
 79
     5
170
     0
171
     0
290
     0
174
     0
 93
        1
 44
0.0
173
     0
291
     1
 45
0.0
1001
ACAD
1000
AcDbSavedByObjectVersion
1070
     0
  0
VISUALSTYLE
  5
CA08
102
{ACAD_XDICTIONARY
360
CA6C
102
}
102
{ACAD_REACTORS
330
C9FC
102
}
330
C9FC
100
AcDbVisualStyle
  2
Brighten
 70
    12
 71
     2
 72
     2
 73
     0
 90
        0
 40
-0.6
 41
-30.0
 62
     5
 63
     7
 74
     1
 91
        4
 64
     7
 65
   257
 75
     1
175
     1
 42
1.0
 92
        8
 66
     7
 43
1.0
 76
     1
 77
     6
 78
     2
 67
     7
 79
     5
170
     0
171
     0
290
     0
174
     0
 93
        1
 44
50.0
173
     0
291
     1
 45
0.0
1001
ACAD
1000
AcDbSavedByObjectVersion
1070
     0
  0
VISUALSTYLE
  5
CA0C
102
{ACAD_XDICTIONARY
360
CA74
102
}
102
{ACAD_REACTORS
330
C9FC
102
}
330
C9FC
100
AcDbVisualStyle
  2
ColorChange
 70
    16
 71
     2
 72
     2
 73
     3
 90
        0
 40
-0.6
 41
-30.0
 62
     5
 63
     8
 74
     1
 91
        4
 64
     7
 65
   257
 75
     1
175
     1
 42
1.0
 92
        8
 66
     8
 43
1.0
 76
     1
 77
     6
 78
     2
 67
     7
 79
     5
170
     0
171
     0
290
     0
174
     0
 93
        1
 44
0.0
173
     0
291
     1
 45
0.0
1001
ACAD
1000
AcDbSavedByObjectVersion
1070
     0
  0
VISUALSTYLE
  5
CA05
102
{ACAD_XDICTIONARY
360
CA66
102
}
102
{ACAD_REACTORS
330
C9FC
102
}
330
C9FC
100
AcDbVisualStyle
  2
Conceptual
 70
     9
 71
     3
 72
     2
 73
     0
 90
        0
 40
-0.6
 41
-30.0
 62
     5
 63
     7
 74
     2
 91
        2
 64
     7
 65
   257
 75
     1
175
     1
 42
179.0
 92
        8
 66
     7
 43
1.0
 76
     1
 77
     6
 78
     2
 67
     7
 79
     3
170
     0
171
     0
290
     0
174
     0
 93
        1
 44
0.0
173
     0
291
     0
 45
0.0
1001
ACAD
1000
AcDbSavedByObjectVersion
1070
     0
  0
VISUALSTYLE
  5
CA07
102
{ACAD_XDICTIONARY
360
CA6A
102
}
102
{ACAD_REACTORS
330
C9FC
102
}
330
C9FC
100
AcDbVisualStyle
  2
Dim
 70
    11
 71
     2
 72
     2
 73
     0
 90
        0
 40
-0.6
 41
-30.0
 62
     5
 63
     7
 74
     1
 91
        4
 64
     7
 65
   257
 75
     1
175
     1
 42
1.0
 92
        8
 66
     7
 43
1.0
 76
     1
 77
     6
 78
     2
 67
     7
 79
     5
170
     0
171
     0
290
     0
174
     0
 93
        1
 44
-50.0
173
     0
291
     1
 45
0.0
1001
ACAD
1000
AcDbSavedByObjectVersion
1070
     0
  0
VISUALSTYLE
  5
CA14
102
{ACAD_XDICTIONARY
360
CA84
102
}
102
{ACAD_REACTORS
330
C9FC
102
}
330
C9FC
100
AcDbVisualStyle
  2
EdgeColorOff
 70
    22
 71
     2
 72
     2
 73
     0
 90
        0
 40
-0.6
 41
-30.0
 62
     5
 63
     7
 74
     1
 91
        4
 64
     7
 65
   257
 75
     1
175
     1
 42
1.0
 92
        8
 66
     7
 43
1.0
 76
     1
 77
     6
 78
     2
 67
     7
 79
     5
170
     0
171
     0
290
     0
174
     0
 93
        1
 44
0.0
173
     0
291
     1
 45
0.0
1001
ACAD
1000
AcDbSavedByObjectVersion
1070
     0
  0
VISUALSTYLE
  5
CA0B
102
{ACAD_XDICTIONARY
360
CA72
102
}
102
{ACAD_REACTORS
330
C9FC
102
}
330
C9FC
100
AcDbVisualStyle
  2
Facepattern
 70
    15
 71
     2
 72
     2
 73
     0
 90
        0
 40
-0.6
 41
-30.0
 62
     5
 63
     7
 74
     1
 91
        4
 64
     7
 65
   257
 75
     1
175
     1
 42
1.0
 92
        8
 66
     7
 43
1.0
 76
     1
 77
     6
 78
     2
 67
     7
 79
     5
170
     0
171
     0
290
     0
174
     0
 93
        1
 44
0.0
173
     0
291
     1
 45
0.0
1001
ACAD
1000
AcDbSavedByObjectVersion
1070
     0
  0
VISUALSTYLE
  5
C9FD
102
{ACAD_XDICTIONARY
360
CA56
102
}
102
{ACAD_REACTORS
330
C9FC
102
}
330
C9FC
100
AcDbVisualStyle
  2
Flat
 70
     0
 71
     2
 72
     1
 73
     1
 90
        2
 40
-0.6
 41
30.0
 62
     5
 63
     7
 74
     0
 91
        0
 64
     7
 65
   257
 75
     1
175
     1
 42
1.0
 92
        8
 66
     7
 43
1.0
 76
     1
 77
     6
 78
     2
 67
     7
 79
     5
170
     0
171
     0
290
     0
174
     0
 93
       13
 44
0.0
173
     0
291
     1
 45
0.0
1001
ACAD
1000
AcDbSavedByObjectVersion
1070
     0
  0
VISUALSTYLE
  5
C9FE
102
{ACAD_XDICTIONARY
360
CA58
102
}
102
{ACAD_REACTORS
330
C9FC
102
}
330
C9FC
100
AcDbVisualStyle
  2
FlatWithEdges
 70
     1
 71
     2
 72
     1
 73
     1
 90
        2
 40
-0.6
 41
30.0
 62
     5
 63
     7
 74
     1
 91
        0
 64
     7
 65
   257
 75
     1
175
     1
 42
1.0
 92
        0
 66
   257
 43
1.0
 76
     1
 77
     6
 78
     2
 67
     7
 79
     5
170
     0
171
     0
290
     0
174
     0
 93
       13
 44
0.0
173
     0
291
     1
 45
0.0
1001
ACAD
1000
AcDbSavedByObjectVersion
1070
     0
  0
VISUALSTYLE
  5
C9FF
102
{ACAD_XDICTIONARY
360
CA5A
102
}
102
{ACAD_REACTORS
330
C9FC
102
}
330
C9FC
100
AcDbVisualStyle
  2
Gouraud
 70
     2
 71
     2
 72
     2
 73
     1
 90
        2
 40
-0.6
 41
30.0
 62
     5
 63
     7
 74
     0
 91
        0
 64
     7
 65
   257
 75
     1
175
     1
 42
1.0
 92
        0
 66
     7
 43
1.0
 76
     1
 77
     6
 78
     2
 67
     7
 79
     5
170
     0
171
     0
290
     0
174
     0
 93
       13
 44
0.0
173
     0
291
     1
 45
0.0
1001
ACAD
1000
AcDbSavedByObjectVersion
1070
     0
  0
VISUALSTYLE
  5
CA00
102
{ACAD_XDICTIONARY
360
CA5C
102
}
102
{ACAD_REACTORS
330
C9FC
102
}
330
C9FC
100
AcDbVisualStyle
  2
GouraudWithEdges
 70
     3
 71
     2
 72
     2
 73
     1
 90
        2
 40
-0.6
 41
30.0
 62
     5
 63
     7
 74
     1
 91
        0
 64
     7
 65
   257
 75
     1
175
     1
 42
1.0
 92
        0
 66
   257
 43
1.0
 76
     1
 77
     6
 78
     2
 67
     7
 79
     5
170
     0
171
     0
290
     0
174
     0
 93
       13
 44
0.0
173
     0
291
     1
 45
0.0
1001
ACAD
1000
AcDbSavedByObjectVersion
1070
     0
  0
VISUALSTYLE
  5
CA04
102
{ACAD_XDICTIONARY
360
CA64
102
}
102
{ACAD_REACTORS
330
C9FC
102
}
330
C9FC
100
AcDbVisualStyle
  2
Hidden
 70
     6
 71
     1
 72
     2
 73
     2
 90
        0
 40
-0.6
 41
-30.0
 62
     5
 63
     7
 74
     2
 91
        2
 64
     7
 65
   257
 75
     2
175
     1
 42
40.0
 92
        0
 66
   257
 43
1.0
 76
     1
 77
     6
 78
     2
 67
     7
 79
     3
170
     0
171
     0
290
     0
174
     0
 93
        1
 44
0.0
173
     0
291
     0
 45
0.0
1001
ACAD
1000
AcDbSavedByObjectVersion
1070
     0
  0
VISUALSTYLE
  5
CA12
102
{ACAD_XDICTIONARY
360
CA80
102
}
102
{ACAD_REACTORS
330
C9FC
102
}
330
C9FC
100
AcDbVisualStyle
  2
JitterOff
 70
    20
 71
     2
 72
     2
 73
     0
 90
        0
 40
-0.6
 41
-30.0
 62
     5
 63
     7
 74
     1
 91
        4
 64
     7
 65
   257
 75
     1
175
     1
 42
1.0
 92
       10
 66
     7
 43
1.0
 76
     1
 77
     6
 78
     2
 67
     7
 79
     5
170
     0
171
     0
290
     0
174
     0
 93
        1
 44
0.0
173
     0
291
     1
 45
0.0
1001
ACAD
1000
AcDbSavedByObjectVersion
1070
     0
  0
VISUALSTYLE
  5
CA0A
102
{ACAD_XDICTIONARY
360
CA70
102
}
102
{ACAD_REACTORS
330
C9FC
102
}
330
C9FC
100
AcDbVisualStyle
  2
Linepattern
 70
    14
 71
     2
 72
     2
 73
     0
 90
        0
 40
-0.6
 41
-30.0
 62
     5
 63
     7
 74
     1
 91
        4
 64
     7
 65
   257
 75
     7
175
     7
 42
1.0
 92
        8
 66
     7
 43
1.0
 76
     1
 77
     6
 78
     2
 67
     7
 79
     5
170
     0
171
     0
290
     0
174
     0
 93
        1
 44
0.0
173
     0
291
     1
 45
0.0
1001
ACAD
1000
AcDbSavedByObjectVersion
1070
     0
  0
VISUALSTYLE
  5
CA13
102
{ACAD_XDICTIONARY
360
CA82
102
}
102
{ACAD_REACTORS
330
C9FC
102
}
330
C9FC
100
AcDbVisualStyle
  2
OverhangOff
 70
    21
 71
     2
 72
     2
 73
     0
 90
        0
 40
-0.6
 41
-30.0
 62
     5
 63
     7
 74
     1
 91
        4
 64
     7
 65
   257
 75
     1
175
     1
 42
1.0
 92
        9
 66
     7
 43
1.0
 76
     1
 77
     6
 78
     2
 67
     7
 79
     5
170
     0
171
     0
290
     0
174
     0
 93
        1
 44
0.0
173
     0
291
     1
 45
0.0
1001
ACAD
1000
AcDbSavedByObjectVersion
1070
     0
  0
VISUALSTYLE
  5
CA06
102
{ACAD_XDICTIONARY
360
CA68
102
}
102
{ACAD_REACTORS
330
C9FC
102
}
330
C9FC
100
AcDbVisualStyle
  2
Realistic
 70
     8
 71
     2
 72
     3
 73
     0
 90
        2
 40
-0.6
 41
30.0
 62
     5
 63
     7
 74
     0
 91
        0
 64
     7
 65
   257
 75
     1
175
     1
 42
1.0
 92
        8
 66
   257
 43
1.0
 76
     1
 77
     6
 78
     2
 67
     7
 79
     3
170
     0
171
     0
290
     0
174
     0
 93
       13
 44
0.0
173
     0
291
     0
 45
0.0
1001
ACAD
1000
AcDbSavedByObjectVersion
1070
     0
  0
VISUALSTYLE
  5
CA11
102
{ACAD_XDICTIONARY
360
CA7E
102
}
102
{ACAD_REACTORS
330
C9FC
102
}
330
C9FC
100
AcDbVisualStyle
  2
Shaded
 70
    27
 71
     2
 72
     2
 73
     1
 90
        2
 40
-0.6
 41
30.0
 62
     5
 63
     7
 74
     0
 91
        4
 64
     7
 65
   257
 75
     1
175
     1
 42
1.0
 92
        8
 66
   257
 43
1.0
 76
     1
 77
     6
 78
     2
 67
     8
 79
     3
170
     0
171
     0
290
     0
174
     0
 93
        5
 44
0.0
173
     0
291
     0
 45
0.0
1001
ACAD
1000
AcDbSavedByObjectVersion
1070
     0
  0
VISUALSTYLE
  5
CA10
102
{ACAD_XDICTIONARY
360
CA7C
102
}
102
{ACAD_REACTORS
330
C9FC
102
}
330
C9FC
100
AcDbVisualStyle
  2
Shaded with edges
 70
    26
 71
     2
 72
     2
 73
     1
 90
        2
 40
-0.6
 41
30.0
 62
     5
 63
     7
 74
     1
 91
       10
 64
     7
 65
   257
 75
     2
175
     1
 42
1.0
 92
        8
 66
   257
 43
1.0
 76
     1
 77
     6
 78
     2
 67
     7
 79
     3
170
     0
171
     0
290
     0
174
     0
 93
        5
 44
0.0
173
     0
291
     0
 45
0.0
1001
ACAD
1000
AcDbSavedByObjectVersion
1070
     0
  0
VISUALSTYLE
  5
CA0D
102
{ACAD_XDICTIONARY
360
CA76
102
}
102
{ACAD_REACTORS
330
C9FC
102
}
330
C9FC
100
AcDbVisualStyle
  2
Shades of Gray
 70
    23
 71
     2
 72
     2
 73
     3
 90
        0
 40
-0.6
 41
-30.0
 62
     5
 63
     7
 74
     2
 91
        2
 64
     7
 65
     7
 75
     1
175
     1
 42
40.0
 92
        8
 66
     7
 43
1.0
 76
     1
 77
     6
 78
     2
 67
     7
 79
     3
170
     0
171
     0
290
     0
174
     0
 93
        1
 44
0.0
173
     0
291
     0
 45
0.0
1001
ACAD
1000
AcDbSavedByObjectVersion
1070
     0
  0
VISUALSTYLE
  5
CA0E
102
{ACAD_XDICTIONARY
360
CA78
102
}
102
{ACAD_REACTORS
330
C9FC
102
}
330
C9FC
100
AcDbVisualStyle
  2
Sketchy
 70
    24
 71
     1
 72
     2
 73
     2
 90
        0
 40
-0.6
 41
-30.0
 62
     5
 63
     7
 74
     2
 91
        2
 64
     7
 65
     7
 75
     1
175
     1
 42
40.0
 92
       11
 66
     7
 43
1.0
 76
     1
 77
     6
 78
     2
 67
     7
 79
     6
170
     0
171
     0
290
     0
174
     0
 93
        1
 44
0.0
173
     0
291
     0
 45
0.0
1001
ACAD
1000
AcDbSavedByObjectVersion
1070
     0
  0
VISUALSTYLE
  5
CA09
102
{ACAD_XDICTIONARY
360
CA6E
102
}
102
{ACAD_REACTORS
330
C9FC
102
}
330
C9FC
100
AcDbVisualStyle
  2
Thicken
 70
    13
 71
     2
 72
     2
 73
     0
 90
        0
 40
-0.6
 41
-30.0
 62
     5
 63
     7
 74
     1
 91
        4
 64
     7
 65
   257
 75
     1
175
     1
 42
1.0
 92
       12
 66
     7
 43
1.0
 76
     1
 77
     6
 78
     2
 67
     7
 79
     5
170
     0
171
     0
290
     0
174
     0
 93
        1
 44
0.0
173
     0
291
     1
 45
0.0
1001
ACAD
1000
AcDbSavedByObjectVersion
1070
     0
  0
VISUALSTYLE
  5
CA03
102
{ACAD_XDICTIONARY
360
CA62
102
}
102
{ACAD_REACTORS
330
C9FC
102
}
330
C9FC
100
AcDbVisualStyle
  2
Wireframe
 70
     5
 71
     0
 72
     2
 73
     0
 90
        0
 40
-0.6
 41
-30.0
 62
     5
 63
     7
 74
     1
 91
        4
 64
     7
 65
   257
 75
     1
175
     1
 42
1.0
 92
        0
 66
   257
 43
1.0
 76
     1
 77
     6
 78
     2
 67
     7
 79
     3
170
     0
171
     0
290
     0
174
     0
 93
        1
 44
0.0
173
     0
291
     0
 45
0.0
1001
ACAD
1000
AcDbSavedByObjectVersion
1070
     0
  0
VISUALSTYLE
  5
CA0F
102
{ACAD_XDICTIONARY
360
CA7A
102
}
102
{ACAD_REACTORS
330
C9FC
102
}
330
C9FC
100
AcDbVisualStyle
  2
X-Ray
 70
    25
 71
     2
 72
     2
 73
     1
 90
        1
 40
0.5
 41
-30.0
 62
     5
 63
     7
 74
     1
 91
        0
 64
     7
 65
   257
 75
     1
175
     1
 42
1.0
 92
        8
 66
     7
 43
1.0
 76
     1
 77
     6
 78
     2
 67
     7
 79
     3
170
     0
171
     0
290
     0
174
     0
 93
       13
 44
0.0
173
     0
291
     0
 45
0.0
1001
ACAD
1000
AcDbSavedByObjectVersion
1070
     0
  0
DICTIONARYVAR
  5
CA49
102
{ACAD_REACTORS
330
CA44
102
}
330
CA44
100
DictionaryVariables
280
     0
  1
1:1
  0
DICTIONARYVAR
  5
CA46
102
{ACAD_REACTORS
330
CA44
102
}
330
CA44
100
DictionaryVariables
280
     0
  1
STANDARD
  0
DICTIONARYVAR
  5
CA45
102
{ACAD_REACTORS
330
CA44
102
}
330
CA44
100
DictionaryVariables
280
     0
  1
STANDARD
  0
DICTIONARYVAR
  5
CA47
102
{ACAD_REACTORS
330
CA44
102
}
330
CA44
100
DictionaryVariables
280
     0
  1
Imperial24
  0
DICTIONARYVAR
  5
CA48
102
{ACAD_REACTORS
330
CA44
102
}
330
CA44
100
DictionaryVariables
280
     0
  1
Imperial24
  0
DICTIONARYVAR
  5
CA4C
102
{ACAD_REACTORS
330
CA44
102
}
330
CA44
100
DictionaryVariables
280
     0
  1
1
  0
DICTIONARYVAR
  5
CA4B
102
{ACAD_REACTORS
330
CA44
102
}
330
CA44
100
DictionaryVariables
280
     0
  1
0
  0
DICTIONARYVAR
  5
CA4A
102
{ACAD_REACTORS
330
CA44
102
}
330
CA44
100
DictionaryVariables
280
     0
  1
127
  0
DICTIONARYVAR
  5
CA4D
102
{ACAD_REACTORS
330
CA44
102
}
330
CA44
100
DictionaryVariables
280
     0
  1
2
  0
DICTIONARY
  5
CA8A
330
CA2F
100
AcDbDictionary
280
     1
281
     1
  3
ACAD_XREC_ROUNDTRIP
360
CA8B
  0
DICTIONARY
  5
CA8C
330
CA30
100
AcDbDictionary
280
     1
281
     1
  3
ACAD_XREC_ROUNDTRIP
360
CA8D
  0
DICTIONARY
  5
CA8E
330
CA31
100
AcDbDictionary
280
     1
281
     1
  3
ACAD_XREC_ROUNDTRIP
360
CA8F
  0
DICTIONARY
  5
C9ED
330
C9EC
100
AcDbDictionary
280
     1
281
     1
  3
ACAD_XREC_ROUNDTRIP
360
CA54
  3
BUMPTILE
360
C9EF
  3
DIFFUSETILE
360
C9EE
  3
OPACITYTILE
360
C9F2
  3
REFLECTIONTILE
360
C9F1
  3
REFRACTIONTILE
360
C9F3
  3
SPECULARTILE
360
C9F0
  0
DICTIONARY
  5
C9E5
330
C9E4
100
AcDbDictionary
280
     1
281
     1
  3
ACAD_XREC_ROUNDTRIP
360
CA53
  3
BUMPTILE
360
C9E7
  3
DIFFUSETILE
360
C9E6
  3
OPACITYTILE
360
C9EA
  3
REFLECTIONTILE
360
C9E9
  3
REFRACTIONTILE
360
C9EB
  3
SPECULARTILE
360
C9E8
  0
DICTIONARY
  5
C9F5
330
C9F4
100
AcDbDictionary
280
     1
281
     1
  3
ACAD_XREC_ROUNDTRIP
360
CA55
  3
BUMPTILE
360
C9F7
  3
DIFFUSETILE
360
C9F6
  3
OPACITYTILE
360
C9FA
  3
REFLECTIONTILE
360
C9F9
  3
REFRACTIONTILE
360
C9FB
  3
SPECULARTILE
360
C9F8
  0
DICTIONARY
  5
CA88
330
CA2D
100
AcDbDictionary
280
     1
281
     1
  3
ACAD_XREC_ROUNDTRIP
360
CA89
  0
DICTIONARY
  5
CA4F
330
CA17
100
AcDbDictionary
280
     1
281
     1
  3
ACAD_ROUNDTRIP_2008_TABLESTYLE_CELLSTYLEMAP
360
CA50
  3
ACAD_XREC_ROUNDTRIP
360
CA86
  0
DICTIONARY
  5
CA60
330
CA02
100
AcDbDictionary
280
     1
281
     1
  3
ACAD_XREC_ROUNDTRIP
360
CA61
  0
DICTIONARY
  5
CA5E
330
CA01
100
AcDbDictionary
280
     1
281
     1
  3
ACAD_XREC_ROUNDTRIP
360
CA5F
  0
DICTIONARY
  5
CA6C
330
CA08
100
AcDbDictionary
280
     1
281
     1
  3
ACAD_XREC_ROUNDTRIP
360
CA6D
  0
DICTIONARY
  5
CA74
330
CA0C
100
AcDbDictionary
280
     1
281
     1
  3
ACAD_XREC_ROUNDTRIP
360
CA75
  0
DICTIONARY
  5
CA66
330
CA05
100
AcDbDictionary
280
     1
281
     1
  3
ACAD_XREC_ROUNDTRIP
360
CA67
  0
DICTIONARY
  5
CA6A
330
CA07
100
AcDbDictionary
280
     1
281
     1
  3
ACAD_XREC_ROUNDTRIP
360
CA6B
  0
DICTIONARY
  5
CA84
330
CA14
100
AcDbDictionary
280
     1
281
     1
  3
ACAD_XREC_ROUNDTRIP
360
CA85
  0
DICTIONARY
  5
CA72
330
CA0B
100
AcDbDictionary
280
     1
281
     1
  3
ACAD_XREC_ROUNDTRIP
360
CA73
  0
DICTIONARY
  5
CA56
330
C9FD
100
AcDbDictionary
280
     1
281
     1
  3
ACAD_XREC_ROUNDTRIP
360
CA57
  0
DICTIONARY
  5
CA58
330
C9FE
100
AcDbDictionary
280
     1
281
     1
  3
ACAD_XREC_ROUNDTRIP
360
CA59
  0
DICTIONARY
  5
CA5A
330
C9FF
100
AcDbDictionary
280
     1
281
     1
  3
ACAD_XREC_ROUNDTRIP
360
CA5B
  0
DICTIONARY
  5
CA5C
330
CA00
100
AcDbDictionary
280
     1
281
     1
  3
ACAD_XREC_ROUNDTRIP
360
CA5D
  0
DICTIONARY
  5
CA64
330
CA04
100
AcDbDictionary
280
     1
281
     1
  3
ACAD_XREC_ROUNDTRIP
360
CA65
  0
DICTIONARY
  5
CA80
330
CA12
100
AcDbDictionary
280
     1
281
     1
  3
ACAD_XREC_ROUNDTRIP
360
CA81
  0
DICTIONARY
  5
CA70
330
CA0A
100
AcDbDictionary
280
     1
281
     1
  3
ACAD_XREC_ROUNDTRIP
360
CA71
  0
DICTIONARY
  5
CA82
330
CA13
100
AcDbDictionary
280
     1
281
     1
  3
ACAD_XREC_ROUNDTRIP
360
CA83
  0
DICTIONARY
  5
CA68
330
CA06
100
AcDbDictionary
280
     1
281
     1
  3
ACAD_XREC_ROUNDTRIP
360
CA69
  0
DICTIONARY
  5
CA7E
330
CA11
100
AcDbDictionary
280
     1
281
     1
  3
ACAD_XREC_ROUNDTRIP
360
CA7F
  0
DICTIONARY
  5
CA7C
330
CA10
100
AcDbDictionary
280
     1
281
     1
  3
ACAD_XREC_ROUNDTRIP
360
CA7D
  0
DICTIONARY
  5
CA76
330
CA0D
100
AcDbDictionary
280
     1
281
     1
  3
ACAD_XREC_ROUNDTRIP
360
CA77
  0
DICTIONARY
  5
CA78
330
CA0E
100
AcDbDictionary
280
     1
281
     1
  3
ACAD_XREC_ROUNDTRIP
360
CA79
  0
DICTIONARY
  5
CA6E
330
CA09
100
AcDbDictionary
280
     1
281
     1
  3
ACAD_XREC_ROUNDTRIP
360
CA6F
  0
DICTIONARY
  5
CA62
330
CA03
100
AcDbDictionary
280
     1
281
     1
  3
ACAD_XREC_ROUNDTRIP
360
CA63
  0
DICTIONARY
  5
CA7A
330
CA0F
100
AcDbDictionary
280
     1
281
     1
  3
ACAD_XREC_ROUNDTRIP
360
CA7B
  0
XRECORD
  5
CA8B
102
{ACAD_REACTORS
330
CA8A
102
}
330
CA8A
100
AcDbXrecord
280
     1
102
DISPLAYNAME
  1
Imperial24
102
FLAGS
 90
        0
  0
XRECORD
  5
CA8D
102
{ACAD_REACTORS
330
CA8C
102
}
330
CA8C
100
AcDbXrecord
280
     1
102
SHADEPLOT
 70
     0
102
SHADEPLOTRESLEVEL
 70
     2
102
SHADEPLOTCUSTOMDPI
 70
   300
  0
XRECORD
  5
CA8F
102
{ACAD_REACTORS
330
CA8E
102
}
330
CA8E
100
AcDbXrecord
280
     1
102
SHADEPLOT
 70
     0
102
SHADEPLOTRESLEVEL
 70
     2
102
SHADEPLOTCUSTOMDPI
 70
   300
  0
XRECORD
  5
CA54
102
{ACAD_REACTORS
330
C9ED
102
}
330
C9ED
100
AcDbXrecord
280
     1
102
MATERIAL
148
0.0
149
0.0
149
0.0
 93
        0
 94
      127
282
     0
 72
     0
 77
     0
171
     0
175
     0
179
     0
273
     0
  0
XRECORD
  5
C9EF
102
{ACAD_REACTORS
330
C9ED
102
}
330
C9ED
100
AcDbXrecord
280
     1
270
     1
271
     1
  0
XRECORD
  5
C9EE
102
{ACAD_REACTORS
330
C9ED
102
}
330
C9ED
100
AcDbXrecord
280
     1
270
     1
271
     1
  0
XRECORD
  5
C9F2
102
{ACAD_REACTORS
330
C9ED
102
}
330
C9ED
100
AcDbXrecord
280
     1
270
     1
271
     1
  0
XRECORD
  5
C9F1
102
{ACAD_REACTORS
330
C9ED
102
}
330
C9ED
100
AcDbXrecord
280
     1
270
     1
271
     1
  0
XRECORD
  5
C9F3
102
{ACAD_REACTORS
330
C9ED
102
}
330
C9ED
100
AcDbXrecord
280
     1
270
     1
271
     1
  0
XRECORD
  5
C9F0
102
{ACAD_REACTORS
330
C9ED
102
}
330
C9ED
100
AcDbXrecord
280
     1
270
     1
271
     1
  0
XRECORD
  5
CA53
102
{ACAD_REACTORS
330
C9E5
102
}
330
C9E5
100
AcDbXrecord
280
     1
102
MATERIAL
148
0.0
149
0.0
149
0.0
 93
        0
 94
      127
282
     0
 72
     0
 77
     0
171
     0
175
     0
179
     0
273
     0
  0
XRECORD
  5
C9E7
102
{ACAD_REACTORS
330
C9E5
102
}
330
C9E5
100
AcDbXrecord
280
     1
270
     1
271
     1
  0
XRECORD
  5
C9E6
102
{ACAD_REACTORS
330
C9E5
102
}
330
C9E5
100
AcDbXrecord
280
     1
270
     1
271
     1
  0
XRECORD
  5
C9EA
102
{ACAD_REACTORS
330
C9E5
102
}
330
C9E5
100
AcDbXrecord
280
     1
270
     1
271
     1
  0
XRECORD
  5
C9E9
102
{ACAD_REACTORS
330
C9E5
102
}
330
C9E5
100
AcDbXrecord
280
     1
270
     1
271
     1
  0
XRECORD
  5
C9EB
102
{ACAD_REACTORS
330
C9E5
102
}
330
C9E5
100
AcDbXrecord
280
     1
270
     1
271
     1
  0
XRECORD
  5
C9E8
102
{ACAD_REACTORS
330
C9E5
102
}
330
C9E5
100
AcDbXrecord
280
     1
270
     1
271
     1
  0
XRECORD
  5
CA55
102
{ACAD_REACTORS
330
C9F5
102
}
330
C9F5
100
AcDbXrecord
280
     1
102
MATERIAL
148
0.0
149
0.0
149
0.0
 93
        0
 94
      127
282
     0
 72
     0
 77
     0
171
     0
175
     0
179
     0
273
     0
  0
XRECORD
  5
C9F7
102
{ACAD_REACTORS
330
C9F5
102
}
330
C9F5
100
AcDbXrecord
280
     1
270
     1
271
     1
  0
XRECORD
  5
C9F6
102
{ACAD_REACTORS
330
C9F5
102
}
330
C9F5
100
AcDbXrecord
280
     1
270
     1
271
     1
  0
XRECORD
  5
C9FA
102
{ACAD_REACTORS
330
C9F5
102
}
330
C9F5
100
AcDbXrecord
280
     1
270
     1
271
     1
  0
XRECORD
  5
C9F9
102
{ACAD_REACTORS
330
C9F5
102
}
330
C9F5
100
AcDbXrecord
280
     1
270
     1
271
     1
  0
XRECORD
  5
C9FB
102
{ACAD_REACTORS
330
C9F5
102
}
330
C9F5
100
AcDbXrecord
280
     1
270
     1
271
     1
  0
XRECORD
  5
C9F8
102
{ACAD_REACTORS
330
C9F5
102
}
330
C9F5
100
AcDbXrecord
280
     1
270
     1
271
     1
  0
XRECORD
  5
CA89
102
{ACAD_REACTORS
330
CA88
102
}
330
CA88
100
AcDbXrecord
280
     1
102
DISPLAYNAME
  1
Imperial24
102
FLAGS
 90
        0
  0
CELLSTYLEMAP
  5
CA50
102
{ACAD_REACTORS
330
CA4F
102
}
330
CA4F
100
AcDbCellStyleMap
 90
        3
300
CELLSTYLE
  1
TABLEFORMAT_BEGIN
 90
        5
170
     1
 91
        0
 92
    32768
 62
   257
 93
        1
300
CONTENTFORMAT
  1
CONTENTFORMAT_BEGIN
 90
        0
 91
        0
 92
      512
 93
        0
300

 40
0.0
140
1.0
 94
        5
 62
     0
340
C604
144
0.25
309
CONTENTFORMAT_END
171
     0
 94
        0
309
TABLEFORMAT_END
  1
CELLSTYLE_BEGIN
 90
        1
 91
        1
300
_TITLE
309
CELLSTYLE_END
300
CELLSTYLE
  1
TABLEFORMAT_BEGIN
 90
        5
170
     1
 91
        0
 92
        0
 62
   257
 93
        1
300
CONTENTFORMAT
  1
CONTENTFORMAT_BEGIN
 90
        0
 91
        0
 92
      512
 93
        0
300

 40
0.0
140
1.0
 94
        5
 62
     0
340
C604
144
0.18
309
CONTENTFORMAT_END
171
     0
 94
        0
309
TABLEFORMAT_END
  1
CELLSTYLE_BEGIN
 90
        2
 91
        1
300
_HEADER
309
CELLSTYLE_END
300
CELLSTYLE
  1
TABLEFORMAT_BEGIN
 90
        5
170
     1
 91
        0
 92
        0
 62
   257
 93
        1
300
CONTENTFORMAT
  1
CONTENTFORMAT_BEGIN
 90
        0
 91
        0
 92
      512
 93
        0
300

 40
0.0
140
1.0
 94
        2
 62
     0
340
C604
144
0.18
309
CONTENTFORMAT_END
171
     0
 94
        0
309
TABLEFORMAT_END
  1
CELLSTYLE_BEGIN
 90
        3
 91
        2
300
_DATA
309
CELLSTYLE_END
  0
XRECORD
  5
CA86
102
{ACAD_REACTORS
330
CA4F
102
}
330
CA4F
100
AcDbXrecord
280
     1
102
ACAD_ROUNDTRIP_PRE2007_TABLESTYLE
 90
      512
 91
        0
  1

 92
      512
 93
        0
  2

 94
      512
 95
        0
  3

  0
XRECORD
  5
CA61
102
{ACAD_REACTORS
330
CA60
102
}
330
CA60
100
AcDbXrecord
280
     1
102
RTVSPost2010Prop28
280
     1
102
RTVSPost2010PropOp28
 70
     1
102
RTVSPost2010Prop29
280
     1
102
RTVSPost2010PropOp29
 70
     1
102
RTVSPost2010Prop30
280
     0
102
RTVSPost2010PropOp30
 70
     1
102
RTVSPost2010Prop31
280
     0
102
RTVSPost2010PropOp31
 70
     1
102
RTVSPost2010Prop32
280
     0
102
RTVSPost2010PropOp32
 70
     1
102
RTVSPost2010Prop33
280
     0
102
RTVSPost2010PropOp33
 70
     1
102
RTVSPost2010Prop34
280
     0
102
RTVSPost2010PropOp34
 70
     1
102
RTVSPost2010Prop35
280
     0
102
RTVSPost2010PropOp35
 70
     1
102
RTVSPost2010Prop36
280
     0
102
RTVSPost2010PropOp36
 70
     1
102
RTVSPost2010Prop37
 90
       50
102
RTVSPost2010PropOp37
 70
     1
102
RTVSPost2010Prop38
140
0.0
102
RTVSPost2010PropOp38
 70
     1
102
RTVSPost2010Prop39
140
1.0
102
RTVSPost2010PropOp39
 70
     1
102
RTVSPost2010Prop40
 90
        0
102
RTVSPost2010PropOp40
 70
     1
102
RTVSPost2010Prop41ColorIndex
 90
       18
102
RTVSPost2010Prop41ColorRGB
 90
        0
102
RTVSPost2010PropOp41
 70
     1
102
RTVSPost2010Prop42
 90
       50
102
RTVSPost2010PropOp42
 70
     1
102
RTVSPost2010Prop43
 90
        3
102
RTVSPost2010PropOp43
 70
     1
102
RTVSPost2010Prop44ColorIndex
 90
        5
102
RTVSPost2010Prop44ColorRGB
 90
      255
102
RTVSPost2010PropOp44
 70
     1
102
RTVSPost2010Prop45
280
     0
102
RTVSPost2010PropOp45
 70
     1
102
RTVSPost2010Prop46
 90
       50
102
RTVSPost2010PropOp46
 70
     1
102
RTVSPost2010Prop47
 90
       50
102
RTVSPost2010PropOp47
 70
     1
102
RTVSPost2010Prop48
 90
       50
102
RTVSPost2010PropOp48
 70
     1
102
RTVSPost2010Prop49
280
     0
102
RTVSPost2010PropOp49
 70
     1
102
RTVSPost2010Prop50
 90
       50
102
RTVSPost2010PropOp50
 70
     1
102
RTVSPost2010Prop51ColorIndex
 90
      256
102
RTVSPost2010Prop51ColorRGB
 90
-16777216
102
RTVSPost2010PropOp51
 70
     0
102
RTVSPost2010Prop52
140
1.0
102
RTVSPost2010PropOp52
 70
     0
102
RTVSPost2010Prop53
 90
        2
102
RTVSPost2010PropOp53
 70
     1
102
RTVSPost2010Prop54
  1
strokes_ogs.tif
102
RTVSPost2010PropOp54
 70
     1
102
RTVSPost2010Prop55
280
     0
102
RTVSPost2010PropOp55
 70
     1
102
RTVSPost2010Prop56
140
1.0
102
RTVSPost2010PropOp56
 70
     1
102
RTVSPost2010Prop57
140
1.0
102
RTVSPost2010PropOp57
 70
     1
102
RTVSPropertyOp0
 70
     1
102
RTVSPropertyOp1
 70
     1
102
RTVSPropertyOp2
 70
     1
102
RTVSPropertyOp3
 70
     1
102
RTVSPropertyOp4
 70
     1
102
RTVSPropertyOp5
 70
     1
102
RTVSPropertyOp6
 70
     1
102
RTVSPropertyOp7
 70
     1
102
RTVSPropertyOp8
 70
     1
102
RTVSPropertyOp9
 70
     1
102
RTVSPropertyOp10
 70
     1
102
RTVSPropertyOp11
 70
     1
102
RTVSPropertyOp12
 70
     1
102
RTVSPropertyOp13
 70
     1
102
RTVSPropertyOp14
 70
     1
102
RTVSPropertyOp15
 70
     1
102
RTVSPropertyOp16
 70
     1
102
RTVSPropertyOp17
 70
     1
102
RTVSPropertyOp18
 70
     1
102
RTVSPropertyOp19
 70
     1
102
RTVSPropertyOp20
 70
     1
102
RTVSPropertyOp21
 70
     1
102
RTVSPropertyOp22
 70
     1
102
RTVSPropertyOp23
 70
     1
102
RTVSPropertyOp24
 70
     1
102
RTVSPropertyOp25
 70
     1
102
RTVSPropertyOp26
 70
     1
102
RTVSPropertyOp27
 70
     1
102
RTVSPropertyOp28
 70
     1
102
RTVSPropertyOp29
 70
     1
102
RTVSPropertyOp30
 70
     1
102
RTVSPropertyOp31
 70
     1
102
RTVSPropertyOp32
 70
     1
102
RTVSPropertyOp33
 70
     1
102
RTVSPropertyOp34
 70
     1
102
RTVSPropertyOp35
 70
     1
102
RTVSPropertyOp36
 70
     1
102
RTVSPropertyOp37
 70
     1
102
RTVSPropertyOp38
 70
     1
102
RTVSPropertyOp39
 70
     1
102
RTVSPropertyOp40
 70
     1
102
RTVSPropertyOp41
 70
     1
102
RTVSPropertyOp42
 70
     1
102
RTVSPropertyOp43
 70
     1
102
RTVSPropertyOp44
 70
     1
102
RTVSPropertyOp45
 70
     1
102
RTVSPropertyOp46
 70
     1
102
RTVSPropertyOp47
 70
     1
102
RTVSPropertyOp48
 70
     1
102
RTVSPropertyOp49
 70
     1
102
RTVSPropertyOp50
 70
     1
102
RTVSPropertyOp51
 70
     0
102
RTVSPropertyOp52
 70
     0
102
RTVSPropertyOp53
 70
     1
102
RTVSPropertyOp54
 70
     1
102
RTVSPropertyOp55
 70
     1
102
RTVSPropertyOp56
 70
     1
102
RTVSPropertyOp57
 70
     1
102
RTVSPropertyOp58
 70
     1
102
RTVSPropertyOp59
 70
     1
102
RTVSPropertyOp60
 70
     1
102
RTVSPropertyOp61
 70
     1
102
RTVSPropertyOp62
 70
     1
  0
XRECORD
  5
CA5F
102
{ACAD_REACTORS
330
CA5E
102
}
330
CA5E
100
AcDbXrecord
280
     1
102
RTVSPost2010Prop28
280
     0
102
RTVSPost2010PropOp28
 70
     1
102
RTVSPost2010Prop29
280
     1
102
RTVSPost2010PropOp29
 70
     1
102
RTVSPost2010Prop30
280
     1
102
RTVSPost2010PropOp30
 70
     1
102
RTVSPost2010Prop31
280
     0
102
RTVSPost2010PropOp31
 70
     1
102
RTVSPost2010Prop32
280
     0
102
RTVSPost2010PropOp32
 70
     1
102
RTVSPost2010Prop33
280
     0
102
RTVSPost2010PropOp33
 70
     1
102
RTVSPost2010Prop34
280
     0
102
RTVSPost2010PropOp34
 70
     1
102
RTVSPost2010Prop35
280
     0
102
RTVSPost2010PropOp35
 70
     1
102
RTVSPost2010Prop36
280
     0
102
RTVSPost2010PropOp36
 70
     1
102
RTVSPost2010Prop37
 90
       50
102
RTVSPost2010PropOp37
 70
     1
102
RTVSPost2010Prop38
140
0.0
102
RTVSPost2010PropOp38
 70
     1
102
RTVSPost2010Prop39
140
1.0
102
RTVSPost2010PropOp39
 70
     1
102
RTVSPost2010Prop40
 90
        0
102
RTVSPost2010PropOp40
 70
     1
102
RTVSPost2010Prop41ColorIndex
 90
       18
102
RTVSPost2010Prop41ColorRGB
 90
        0
102
RTVSPost2010PropOp41
 70
     1
102
RTVSPost2010Prop42
 90
       50
102
RTVSPost2010PropOp42
 70
     1
102
RTVSPost2010Prop43
 90
        3
102
RTVSPost2010PropOp43
 70
     1
102
RTVSPost2010Prop44ColorIndex
 90
        5
102
RTVSPost2010Prop44ColorRGB
 90
      255
102
RTVSPost2010PropOp44
 70
     1
102
RTVSPost2010Prop45
280
     0
102
RTVSPost2010PropOp45
 70
     1
102
RTVSPost2010Prop46
 90
       50
102
RTVSPost2010PropOp46
 70
     1
102
RTVSPost2010Prop47
 90
       50
102
RTVSPost2010PropOp47
 70
     1
102
RTVSPost2010Prop48
 90
       50
102
RTVSPost2010PropOp48
 70
     1
102
RTVSPost2010Prop49
280
     0
102
RTVSPost2010PropOp49
 70
     1
102
RTVSPost2010Prop50
 90
       50
102
RTVSPost2010PropOp50
 70
     1
102
RTVSPost2010Prop51ColorIndex
 90
      256
102
RTVSPost2010Prop51ColorRGB
 90
-16777216
102
RTVSPost2010PropOp51
 70
     0
102
RTVSPost2010Prop52
140
1.0
102
RTVSPost2010PropOp52
 70
     0
102
RTVSPost2010Prop53
 90
        2
102
RTVSPost2010PropOp53
 70
     1
102
RTVSPost2010Prop54
  1
strokes_ogs.tif
102
RTVSPost2010PropOp54
 70
     1
102
RTVSPost2010Prop55
280
     0
102
RTVSPost2010PropOp55
 70
     1
102
RTVSPost2010Prop56
140
1.0
102
RTVSPost2010PropOp56
 70
     1
102
RTVSPost2010Prop57
140
1.0
102
RTVSPost2010PropOp57
 70
     1
102
RTVSPropertyOp0
 70
     1
102
RTVSPropertyOp1
 70
     1
102
RTVSPropertyOp2
 70
     1
102
RTVSPropertyOp3
 70
     1
102
RTVSPropertyOp4
 70
     1
102
RTVSPropertyOp5
 70
     1
102
RTVSPropertyOp6
 70
     1
102
RTVSPropertyOp7
 70
     1
102
RTVSPropertyOp8
 70
     1
102
RTVSPropertyOp9
 70
     1
102
RTVSPropertyOp10
 70
     1
102
RTVSPropertyOp11
 70
     1
102
RTVSPropertyOp12
 70
     1
102
RTVSPropertyOp13
 70
     1
102
RTVSPropertyOp14
 70
     1
102
RTVSPropertyOp15
 70
     1
102
RTVSPropertyOp16
 70
     1
102
RTVSPropertyOp17
 70
     1
102
RTVSPropertyOp18
 70
     1
102
RTVSPropertyOp19
 70
     1
102
RTVSPropertyOp20
 70
     1
102
RTVSPropertyOp21
 70
     1
102
RTVSPropertyOp22
 70
     1
102
RTVSPropertyOp23
 70
     1
102
RTVSPropertyOp24
 70
     1
102
RTVSPropertyOp25
 70
     1
102
RTVSPropertyOp26
 70
     1
102
RTVSPropertyOp27
 70
     1
102
RTVSPropertyOp28
 70
     1
102
RTVSPropertyOp29
 70
     1
102
RTVSPropertyOp30
 70
     1
102
RTVSPropertyOp31
 70
     1
102
RTVSPropertyOp32
 70
     1
102
RTVSPropertyOp33
 70
     1
102
RTVSPropertyOp34
 70
     1
102
RTVSPropertyOp35
 70
     1
102
RTVSPropertyOp36
 70
     1
102
RTVSPropertyOp37
 70
     1
102
RTVSPropertyOp38
 70
     1
102
RTVSPropertyOp39
 70
     1
102
RTVSPropertyOp40
 70
     1
102
RTVSPropertyOp41
 70
     1
102
RTVSPropertyOp42
 70
     1
102
RTVSPropertyOp43
 70
     1
102
RTVSPropertyOp44
 70
     1
102
RTVSPropertyOp45
 70
     1
102
RTVSPropertyOp46
 70
     1
102
RTVSPropertyOp47
 70
     1
102
RTVSPropertyOp48
 70
     1
102
RTVSPropertyOp49
 70
     1
102
RTVSPropertyOp50
 70
     1
102
RTVSPropertyOp51
 70
     0
102
RTVSPropertyOp52
 70
     0
102
RTVSPropertyOp53
 70
     1
102
RTVSPropertyOp54
 70
     1
102
RTVSPropertyOp55
 70
     1
102
RTVSPropertyOp56
 70
     1
102
RTVSPropertyOp57
 70
     1
102
RTVSPropertyOp58
 70
     1
102
RTVSPropertyOp59
 70
     1
102
RTVSPropertyOp60
 70
     1
102
RTVSPropertyOp61
 70
     1
102
RTVSPropertyOp62
 70
     1
  0
XRECORD
  5
CA6D
102
{ACAD_REACTORS
330
CA6C
102
}
330
CA6C
100
AcDbXrecord
280
     1
102
RTVSPost2010Prop28
280
     0
102
RTVSPost2010PropOp28
 70
     1
102
RTVSPost2010Prop29
280
     1
102
RTVSPost2010PropOp29
 70
     1
102
RTVSPost2010Prop30
280
     1
102
RTVSPost2010PropOp30
 70
     1
102
RTVSPost2010Prop31
280
     0
102
RTVSPost2010PropOp31
 70
     1
102
RTVSPost2010Prop32
280
     0
102
RTVSPost2010PropOp32
 70
     1
102
RTVSPost2010Prop33
280
     0
102
RTVSPost2010PropOp33
 70
     1
102
RTVSPost2010Prop34
280
     0
102
RTVSPost2010PropOp34
 70
     1
102
RTVSPost2010Prop35
280
     0
102
RTVSPost2010PropOp35
 70
     1
102
RTVSPost2010Prop36
280
     0
102
RTVSPost2010PropOp36
 70
     1
102
RTVSPost2010Prop37
 90
       50
102
RTVSPost2010PropOp37
 70
     1
102
RTVSPost2010Prop38
140
0.0
102
RTVSPost2010PropOp38
 70
     1
102
RTVSPost2010Prop39
140
1.0
102
RTVSPost2010PropOp39
 70
     1
102
RTVSPost2010Prop40
 90
        0
102
RTVSPost2010PropOp40
 70
     1
102
RTVSPost2010Prop41ColorIndex
 90
       18
102
RTVSPost2010Prop41ColorRGB
 90
        0
102
RTVSPost2010PropOp41
 70
     1
102
RTVSPost2010Prop42
 90
       50
102
RTVSPost2010PropOp42
 70
     1
102
RTVSPost2010Prop43
 90
        3
102
RTVSPost2010PropOp43
 70
     1
102
RTVSPost2010Prop44ColorIndex
 90
        5
102
RTVSPost2010Prop44ColorRGB
 90
      255
102
RTVSPost2010PropOp44
 70
     1
102
RTVSPost2010Prop45
280
     0
102
RTVSPost2010PropOp45
 70
     1
102
RTVSPost2010Prop46
 90
       50
102
RTVSPost2010PropOp46
 70
     1
102
RTVSPost2010Prop47
 90
       50
102
RTVSPost2010PropOp47
 70
     1
102
RTVSPost2010Prop48
 90
       50
102
RTVSPost2010PropOp48
 70
     1
102
RTVSPost2010Prop49
280
     0
102
RTVSPost2010PropOp49
 70
     1
102
RTVSPost2010Prop50
 90
       50
102
RTVSPost2010PropOp50
 70
     1
102
RTVSPost2010Prop51ColorIndex
 90
      256
102
RTVSPost2010Prop51ColorRGB
 90
-16777216
102
RTVSPost2010PropOp51
 70
     0
102
RTVSPost2010Prop52
140
1.0
102
RTVSPost2010PropOp52
 70
     0
102
RTVSPost2010Prop53
 90
        2
102
RTVSPost2010PropOp53
 70
     1
102
RTVSPost2010Prop54
  1
strokes_ogs.tif
102
RTVSPost2010PropOp54
 70
     1
102
RTVSPost2010Prop55
280
     0
102
RTVSPost2010PropOp55
 70
     1
102
RTVSPost2010Prop56
140
1.0
102
RTVSPost2010PropOp56
 70
     1
102
RTVSPost2010Prop57
140
1.0
102
RTVSPost2010PropOp57
 70
     1
102
RTVSPropertyOp0
 70
     1
102
RTVSPropertyOp1
 70
     1
102
RTVSPropertyOp2
 70
     1
102
RTVSPropertyOp3
 70
     1
102
RTVSPropertyOp4
 70
     1
102
RTVSPropertyOp5
 70
     1
102
RTVSPropertyOp6
 70
     1
102
RTVSPropertyOp7
 70
     1
102
RTVSPropertyOp8
 70
     1
102
RTVSPropertyOp9
 70
     1
102
RTVSPropertyOp10
 70
     1
102
RTVSPropertyOp11
 70
     1
102
RTVSPropertyOp12
 70
     1
102
RTVSPropertyOp13
 70
     1
102
RTVSPropertyOp14
 70
     1
102
RTVSPropertyOp15
 70
     1
102
RTVSPropertyOp16
 70
     1
102
RTVSPropertyOp17
 70
     1
102
RTVSPropertyOp18
 70
     1
102
RTVSPropertyOp19
 70
     1
102
RTVSPropertyOp20
 70
     1
102
RTVSPropertyOp21
 70
     1
102
RTVSPropertyOp22
 70
     1
102
RTVSPropertyOp23
 70
     1
102
RTVSPropertyOp24
 70
     1
102
RTVSPropertyOp25
 70
     1
102
RTVSPropertyOp26
 70
     1
102
RTVSPropertyOp27
 70
     1
102
RTVSPropertyOp28
 70
     1
102
RTVSPropertyOp29
 70
     1
102
RTVSPropertyOp30
 70
     1
102
RTVSPropertyOp31
 70
     1
102
RTVSPropertyOp32
 70
     1
102
RTVSPropertyOp33
 70
     1
102
RTVSPropertyOp34
 70
     1
102
RTVSPropertyOp35
 70
     1
102
RTVSPropertyOp36
 70
     1
102
RTVSPropertyOp37
 70
     1
102
RTVSPropertyOp38
 70
     1
102
RTVSPropertyOp39
 70
     1
102
RTVSPropertyOp40
 70
     1
102
RTVSPropertyOp41
 70
     1
102
RTVSPropertyOp42
 70
     1
102
RTVSPropertyOp43
 70
     1
102
RTVSPropertyOp44
 70
     1
102
RTVSPropertyOp45
 70
     1
102
RTVSPropertyOp46
 70
     1
102
RTVSPropertyOp47
 70
     1
102
RTVSPropertyOp48
 70
     1
102
RTVSPropertyOp49
 70
     1
102
RTVSPropertyOp50
 70
     1
102
RTVSPropertyOp51
 70
     0
102
RTVSPropertyOp52
 70
     0
102
RTVSPropertyOp53
 70
     1
102
RTVSPropertyOp54
 70
     1
102
RTVSPropertyOp55
 70
     1
102
RTVSPropertyOp56
 70
     1
102
RTVSPropertyOp57
 70
     1
102
RTVSPropertyOp58
 70
     1
102
RTVSPropertyOp59
 70
     1
102
RTVSPropertyOp60
 70
     1
102
RTVSPropertyOp61
 70
     1
102
RTVSPropertyOp62
 70
     1
  0
XRECORD
  5
CA75
102
{ACAD_REACTORS
330
CA74
102
}
330
CA74
100
AcDbXrecord
280
     1
102
RTVSPost2010Prop28
280
     0
102
RTVSPost2010PropOp28
 70
     1
102
RTVSPost2010Prop29
280
     1
102
RTVSPost2010PropOp29
 70
     1
102
RTVSPost2010Prop30
280
     1
102
RTVSPost2010PropOp30
 70
     1
102
RTVSPost2010Prop31
280
     0
102
RTVSPost2010PropOp31
 70
     1
102
RTVSPost2010Prop32
280
     0
102
RTVSPost2010PropOp32
 70
     1
102
RTVSPost2010Prop33
280
     0
102
RTVSPost2010PropOp33
 70
     1
102
RTVSPost2010Prop34
280
     0
102
RTVSPost2010PropOp34
 70
     1
102
RTVSPost2010Prop35
280
     0
102
RTVSPost2010PropOp35
 70
     1
102
RTVSPost2010Prop36
280
     0
102
RTVSPost2010PropOp36
 70
     1
102
RTVSPost2010Prop37
 90
       50
102
RTVSPost2010PropOp37
 70
     1
102
RTVSPost2010Prop38
140
0.0
102
RTVSPost2010PropOp38
 70
     1
102
RTVSPost2010Prop39
140
1.0
102
RTVSPost2010PropOp39
 70
     1
102
RTVSPost2010Prop40
 90
        0
102
RTVSPost2010PropOp40
 70
     1
102
RTVSPost2010Prop41ColorIndex
 90
       18
102
RTVSPost2010Prop41ColorRGB
 90
        0
102
RTVSPost2010PropOp41
 70
     1
102
RTVSPost2010Prop42
 90
       50
102
RTVSPost2010PropOp42
 70
     1
102
RTVSPost2010Prop43
 90
        3
102
RTVSPost2010PropOp43
 70
     1
102
RTVSPost2010Prop44ColorIndex
 90
        5
102
RTVSPost2010Prop44ColorRGB
 90
      255
102
RTVSPost2010PropOp44
 70
     1
102
RTVSPost2010Prop45
280
     0
102
RTVSPost2010PropOp45
 70
     1
102
RTVSPost2010Prop46
 90
       50
102
RTVSPost2010PropOp46
 70
     1
102
RTVSPost2010Prop47
 90
       50
102
RTVSPost2010PropOp47
 70
     1
102
RTVSPost2010Prop48
 90
       50
102
RTVSPost2010PropOp48
 70
     1
102
RTVSPost2010Prop49
280
     0
102
RTVSPost2010PropOp49
 70
     1
102
RTVSPost2010Prop50
 90
       50
102
RTVSPost2010PropOp50
 70
     1
102
RTVSPost2010Prop51ColorIndex
 90
      256
102
RTVSPost2010Prop51ColorRGB
 90
-16777216
102
RTVSPost2010PropOp51
 70
     0
102
RTVSPost2010Prop52
140
1.0
102
RTVSPost2010PropOp52
 70
     0
102
RTVSPost2010Prop53
 90
        2
102
RTVSPost2010PropOp53
 70
     1
102
RTVSPost2010Prop54
  1
strokes_ogs.tif
102
RTVSPost2010PropOp54
 70
     1
102
RTVSPost2010Prop55
280
     0
102
RTVSPost2010PropOp55
 70
     1
102
RTVSPost2010Prop56
140
1.0
102
RTVSPost2010PropOp56
 70
     1
102
RTVSPost2010Prop57
140
1.0
102
RTVSPost2010PropOp57
 70
     1
102
RTVSPropertyOp0
 70
     1
102
RTVSPropertyOp1
 70
     1
102
RTVSPropertyOp2
 70
     1
102
RTVSPropertyOp3
 70
     1
102
RTVSPropertyOp4
 70
     1
102
RTVSPropertyOp5
 70
     1
102
RTVSPropertyOp6
 70
     1
102
RTVSPropertyOp7
 70
     1
102
RTVSPropertyOp8
 70
     1
102
RTVSPropertyOp9
 70
     1
102
RTVSPropertyOp10
 70
     1
102
RTVSPropertyOp11
 70
     1
102
RTVSPropertyOp12
 70
     1
102
RTVSPropertyOp13
 70
     1
102
RTVSPropertyOp14
 70
     1
102
RTVSPropertyOp15
 70
     1
102
RTVSPropertyOp16
 70
     1
102
RTVSPropertyOp17
 70
     1
102
RTVSPropertyOp18
 70
     1
102
RTVSPropertyOp19
 70
     1
102
RTVSPropertyOp20
 70
     1
102
RTVSPropertyOp21
 70
     1
102
RTVSPropertyOp22
 70
     1
102
RTVSPropertyOp23
 70
     1
102
RTVSPropertyOp24
 70
     1
102
RTVSPropertyOp25
 70
     1
102
RTVSPropertyOp26
 70
     1
102
RTVSPropertyOp27
 70
     1
102
RTVSPropertyOp28
 70
     1
102
RTVSPropertyOp29
 70
     1
102
RTVSPropertyOp30
 70
     1
102
RTVSPropertyOp31
 70
     1
102
RTVSPropertyOp32
 70
     1
102
RTVSPropertyOp33
 70
     1
102
RTVSPropertyOp34
 70
     1
102
RTVSPropertyOp35
 70
     1
102
RTVSPropertyOp36
 70
     1
102
RTVSPropertyOp37
 70
     1
102
RTVSPropertyOp38
 70
     1
102
RTVSPropertyOp39
 70
     1
102
RTVSPropertyOp40
 70
     1
102
RTVSPropertyOp41
 70
     1
102
RTVSPropertyOp42
 70
     1
102
RTVSPropertyOp43
 70
     1
102
RTVSPropertyOp44
 70
     1
102
RTVSPropertyOp45
 70
     1
102
RTVSPropertyOp46
 70
     1
102
RTVSPropertyOp47
 70
     1
102
RTVSPropertyOp48
 70
     1
102
RTVSPropertyOp49
 70
     1
102
RTVSPropertyOp50
 70
     1
102
RTVSPropertyOp51
 70
     0
102
RTVSPropertyOp52
 70
     0
102
RTVSPropertyOp53
 70
     1
102
RTVSPropertyOp54
 70
     1
102
RTVSPropertyOp55
 70
     1
102
RTVSPropertyOp56
 70
     1
102
RTVSPropertyOp57
 70
     1
102
RTVSPropertyOp58
 70
     1
102
RTVSPropertyOp59
 70
     1
102
RTVSPropertyOp60
 70
     1
102
RTVSPropertyOp61
 70
     1
102
RTVSPropertyOp62
 70
     1
  0
XRECORD
  5
CA67
102
{ACAD_REACTORS
330
CA66
102
}
330
CA66
100
AcDbXrecord
280
     1
102
RTVSPost2010Prop28
280
     0
102
RTVSPost2010PropOp28
 70
     1
102
RTVSPost2010Prop29
280
     1
102
RTVSPost2010PropOp29
 70
     1
102
RTVSPost2010Prop30
280
     1
102
RTVSPost2010PropOp30
 70
     1
102
RTVSPost2010Prop31
280
     0
102
RTVSPost2010PropOp31
 70
     1
102
RTVSPost2010Prop32
280
     0
102
RTVSPost2010PropOp32
 70
     1
102
RTVSPost2010Prop33
280
     0
102
RTVSPost2010PropOp33
 70
     1
102
RTVSPost2010Prop34
280
     0
102
RTVSPost2010PropOp34
 70
     1
102
RTVSPost2010Prop35
280
     0
102
RTVSPost2010PropOp35
 70
     1
102
RTVSPost2010Prop36
280
     0
102
RTVSPost2010PropOp36
 70
     1
102
RTVSPost2010Prop37
 90
       50
102
RTVSPost2010PropOp37
 70
     1
102
RTVSPost2010Prop38
140
0.0
102
RTVSPost2010PropOp38
 70
     1
102
RTVSPost2010Prop39
140
1.0
102
RTVSPost2010PropOp39
 70
     1
102
RTVSPost2010Prop40
 90
        0
102
RTVSPost2010PropOp40
 70
     1
102
RTVSPost2010Prop41ColorIndex
 90
       18
102
RTVSPost2010Prop41ColorRGB
 90
        0
102
RTVSPost2010PropOp41
 70
     1
102
RTVSPost2010Prop42
 90
       50
102
RTVSPost2010PropOp42
 70
     1
102
RTVSPost2010Prop43
 90
        3
102
RTVSPost2010PropOp43
 70
     1
102
RTVSPost2010Prop44ColorIndex
 90
        5
102
RTVSPost2010Prop44ColorRGB
 90
      255
102
RTVSPost2010PropOp44
 70
     1
102
RTVSPost2010Prop45
280
     0
102
RTVSPost2010PropOp45
 70
     1
102
RTVSPost2010Prop46
 90
       50
102
RTVSPost2010PropOp46
 70
     1
102
RTVSPost2010Prop47
 90
       50
102
RTVSPost2010PropOp47
 70
     1
102
RTVSPost2010Prop48
 90
       50
102
RTVSPost2010PropOp48
 70
     1
102
RTVSPost2010Prop49
280
     0
102
RTVSPost2010PropOp49
 70
     1
102
RTVSPost2010Prop50
 90
       50
102
RTVSPost2010PropOp50
 70
     1
102
RTVSPost2010Prop51ColorIndex
 90
      256
102
RTVSPost2010Prop51ColorRGB
 90
-16777216
102
RTVSPost2010PropOp51
 70
     0
102
RTVSPost2010Prop52
140
1.0
102
RTVSPost2010PropOp52
 70
     0
102
RTVSPost2010Prop53
 90
        2
102
RTVSPost2010PropOp53
 70
     1
102
RTVSPost2010Prop54
  1
strokes_ogs.tif
102
RTVSPost2010PropOp54
 70
     1
102
RTVSPost2010Prop55
280
     0
102
RTVSPost2010PropOp55
 70
     1
102
RTVSPost2010Prop56
140
1.0
102
RTVSPost2010PropOp56
 70
     1
102
RTVSPost2010Prop57
140
1.0
102
RTVSPost2010PropOp57
 70
     1
102
RTVSPropertyOp0
 70
     1
102
RTVSPropertyOp1
 70
     1
102
RTVSPropertyOp2
 70
     1
102
RTVSPropertyOp3
 70
     1
102
RTVSPropertyOp4
 70
     1
102
RTVSPropertyOp5
 70
     1
102
RTVSPropertyOp6
 70
     1
102
RTVSPropertyOp7
 70
     1
102
RTVSPropertyOp8
 70
     1
102
RTVSPropertyOp9
 70
     1
102
RTVSPropertyOp10
 70
     1
102
RTVSPropertyOp11
 70
     1
102
RTVSPropertyOp12
 70
     1
102
RTVSPropertyOp13
 70
     1
102
RTVSPropertyOp14
 70
     1
102
RTVSPropertyOp15
 70
     1
102
RTVSPropertyOp16
 70
     1
102
RTVSPropertyOp17
 70
     1
102
RTVSPropertyOp18
 70
     1
102
RTVSPropertyOp19
 70
     1
102
RTVSPropertyOp20
 70
     1
102
RTVSPropertyOp21
 70
     1
102
RTVSPropertyOp22
 70
     1
102
RTVSPropertyOp23
 70
     1
102
RTVSPropertyOp24
 70
     1
102
RTVSPropertyOp25
 70
     1
102
RTVSPropertyOp26
 70
     1
102
RTVSPropertyOp27
 70
     1
102
RTVSPropertyOp28
 70
     1
102
RTVSPropertyOp29
 70
     1
102
RTVSPropertyOp30
 70
     1
102
RTVSPropertyOp31
 70
     1
102
RTVSPropertyOp32
 70
     1
102
RTVSPropertyOp33
 70
     1
102
RTVSPropertyOp34
 70
     1
102
RTVSPropertyOp35
 70
     1
102
RTVSPropertyOp36
 70
     1
102
RTVSPropertyOp37
 70
     1
102
RTVSPropertyOp38
 70
     1
102
RTVSPropertyOp39
 70
     1
102
RTVSPropertyOp40
 70
     1
102
RTVSPropertyOp41
 70
     1
102
RTVSPropertyOp42
 70
     1
102
RTVSPropertyOp43
 70
     1
102
RTVSPropertyOp44
 70
     1
102
RTVSPropertyOp45
 70
     1
102
RTVSPropertyOp46
 70
     1
102
RTVSPropertyOp47
 70
     1
102
RTVSPropertyOp48
 70
     1
102
RTVSPropertyOp49
 70
     1
102
RTVSPropertyOp50
 70
     1
102
RTVSPropertyOp51
 70
     0
102
RTVSPropertyOp52
 70
     0
102
RTVSPropertyOp53
 70
     1
102
RTVSPropertyOp54
 70
     1
102
RTVSPropertyOp55
 70
     1
102
RTVSPropertyOp56
 70
     1
102
RTVSPropertyOp57
 70
     1
102
RTVSPropertyOp58
 70
     1
102
RTVSPropertyOp59
 70
     1
102
RTVSPropertyOp60
 70
     1
102
RTVSPropertyOp61
 70
     1
102
RTVSPropertyOp62
 70
     1
  0
XRECORD
  5
CA6B
102
{ACAD_REACTORS
330
CA6A
102
}
330
CA6A
100
AcDbXrecord
280
     1
102
RTVSPost2010Prop28
280
     0
102
RTVSPost2010PropOp28
 70
     1
102
RTVSPost2010Prop29
280
     1
102
RTVSPost2010PropOp29
 70
     1
102
RTVSPost2010Prop30
280
     1
102
RTVSPost2010PropOp30
 70
     1
102
RTVSPost2010Prop31
280
     0
102
RTVSPost2010PropOp31
 70
     1
102
RTVSPost2010Prop32
280
     0
102
RTVSPost2010PropOp32
 70
     1
102
RTVSPost2010Prop33
280
     0
102
RTVSPost2010PropOp33
 70
     1
102
RTVSPost2010Prop34
280
     0
102
RTVSPost2010PropOp34
 70
     1
102
RTVSPost2010Prop35
280
     0
102
RTVSPost2010PropOp35
 70
     1
102
RTVSPost2010Prop36
280
     0
102
RTVSPost2010PropOp36
 70
     1
102
RTVSPost2010Prop37
 90
       50
102
RTVSPost2010PropOp37
 70
     1
102
RTVSPost2010Prop38
140
0.0
102
RTVSPost2010PropOp38
 70
     1
102
RTVSPost2010Prop39
140
1.0
102
RTVSPost2010PropOp39
 70
     1
102
RTVSPost2010Prop40
 90
        0
102
RTVSPost2010PropOp40
 70
     1
102
RTVSPost2010Prop41ColorIndex
 90
       18
102
RTVSPost2010Prop41ColorRGB
 90
        0
102
RTVSPost2010PropOp41
 70
     1
102
RTVSPost2010Prop42
 90
       50
102
RTVSPost2010PropOp42
 70
     1
102
RTVSPost2010Prop43
 90
        3
102
RTVSPost2010PropOp43
 70
     1
102
RTVSPost2010Prop44ColorIndex
 90
        5
102
RTVSPost2010Prop44ColorRGB
 90
      255
102
RTVSPost2010PropOp44
 70
     1
102
RTVSPost2010Prop45
280
     0
102
RTVSPost2010PropOp45
 70
     1
102
RTVSPost2010Prop46
 90
       50
102
RTVSPost2010PropOp46
 70
     1
102
RTVSPost2010Prop47
 90
       50
102
RTVSPost2010PropOp47
 70
     1
102
RTVSPost2010Prop48
 90
       50
102
RTVSPost2010PropOp48
 70
     1
102
RTVSPost2010Prop49
280
     0
102
RTVSPost2010PropOp49
 70
     1
102
RTVSPost2010Prop50
 90
       50
102
RTVSPost2010PropOp50
 70
     1
102
RTVSPost2010Prop51ColorIndex
 90
      256
102
RTVSPost2010Prop51ColorRGB
 90
-16777216
102
RTVSPost2010PropOp51
 70
     0
102
RTVSPost2010Prop52
140
1.0
102
RTVSPost2010PropOp52
 70
     0
102
RTVSPost2010Prop53
 90
        2
102
RTVSPost2010PropOp53
 70
     1
102
RTVSPost2010Prop54
  1
strokes_ogs.tif
102
RTVSPost2010PropOp54
 70
     1
102
RTVSPost2010Prop55
280
     0
102
RTVSPost2010PropOp55
 70
     1
102
RTVSPost2010Prop56
140
1.0
102
RTVSPost2010PropOp56
 70
     1
102
RTVSPost2010Prop57
140
1.0
102
RTVSPost2010PropOp57
 70
     1
102
RTVSPropertyOp0
 70
     1
102
RTVSPropertyOp1
 70
     1
102
RTVSPropertyOp2
 70
     1
102
RTVSPropertyOp3
 70
     1
102
RTVSPropertyOp4
 70
     1
102
RTVSPropertyOp5
 70
     1
102
RTVSPropertyOp6
 70
     1
102
RTVSPropertyOp7
 70
     1
102
RTVSPropertyOp8
 70
     1
102
RTVSPropertyOp9
 70
     1
102
RTVSPropertyOp10
 70
     1
102
RTVSPropertyOp11
 70
     1
102
RTVSPropertyOp12
 70
     1
102
RTVSPropertyOp13
 70
     1
102
RTVSPropertyOp14
 70
     1
102
RTVSPropertyOp15
 70
     1
102
RTVSPropertyOp16
 70
     1
102
RTVSPropertyOp17
 70
     1
102
RTVSPropertyOp18
 70
     1
102
RTVSPropertyOp19
 70
     1
102
RTVSPropertyOp20
 70
     1
102
RTVSPropertyOp21
 70
     1
102
RTVSPropertyOp22
 70
     1
102
RTVSPropertyOp23
 70
     1
102
RTVSPropertyOp24
 70
     1
102
RTVSPropertyOp25
 70
     1
102
RTVSPropertyOp26
 70
     1
102
RTVSPropertyOp27
 70
     1
102
RTVSPropertyOp28
 70
     1
102
RTVSPropertyOp29
 70
     1
102
RTVSPropertyOp30
 70
     1
102
RTVSPropertyOp31
 70
     1
102
RTVSPropertyOp32
 70
     1
102
RTVSPropertyOp33
 70
     1
102
RTVSPropertyOp34
 70
     1
102
RTVSPropertyOp35
 70
     1
102
RTVSPropertyOp36
 70
     1
102
RTVSPropertyOp37
 70
     1
102
RTVSPropertyOp38
 70
     1
102
RTVSPropertyOp39
 70
     1
102
RTVSPropertyOp40
 70
     1
102
RTVSPropertyOp41
 70
     1
102
RTVSPropertyOp42
 70
     1
102
RTVSPropertyOp43
 70
     1
102
RTVSPropertyOp44
 70
     1
102
RTVSPropertyOp45
 70
     1
102
RTVSPropertyOp46
 70
     1
102
RTVSPropertyOp47
 70
     1
102
RTVSPropertyOp48
 70
     1
102
RTVSPropertyOp49
 70
     1
102
RTVSPropertyOp50
 70
     1
102
RTVSPropertyOp51
 70
     0
102
RTVSPropertyOp52
 70
     0
102
RTVSPropertyOp53
 70
     1
102
RTVSPropertyOp54
 70
     1
102
RTVSPropertyOp55
 70
     1
102
RTVSPropertyOp56
 70
     1
102
RTVSPropertyOp57
 70
     1
102
RTVSPropertyOp58
 70
     1
102
RTVSPropertyOp59
 70
     1
102
RTVSPropertyOp60
 70
     1
102
RTVSPropertyOp61
 70
     1
102
RTVSPropertyOp62
 70
     1
  0
XRECORD
  5
CA85
102
{ACAD_REACTORS
330
CA84
102
}
330
CA84
100
AcDbXrecord
280
     1
102
RTVSPost2010Prop28
280
     0
102
RTVSPost2010PropOp28
 70
     1
102
RTVSPost2010Prop29
280
     1
102
RTVSPost2010PropOp29
 70
     1
102
RTVSPost2010Prop30
280
     1
102
RTVSPost2010PropOp30
 70
     1
102
RTVSPost2010Prop31
280
     0
102
RTVSPost2010PropOp31
 70
     1
102
RTVSPost2010Prop32
280
     0
102
RTVSPost2010PropOp32
 70
     1
102
RTVSPost2010Prop33
280
     0
102
RTVSPost2010PropOp33
 70
     1
102
RTVSPost2010Prop34
280
     0
102
RTVSPost2010PropOp34
 70
     1
102
RTVSPost2010Prop35
280
     0
102
RTVSPost2010PropOp35
 70
     1
102
RTVSPost2010Prop36
280
     0
102
RTVSPost2010PropOp36
 70
     1
102
RTVSPost2010Prop37
 90
       50
102
RTVSPost2010PropOp37
 70
     0
102
RTVSPost2010Prop38
140
0.0
102
RTVSPost2010PropOp38
 70
     0
102
RTVSPost2010Prop39
140
1.0
102
RTVSPost2010PropOp39
 70
     0
102
RTVSPost2010Prop40
 90
        0
102
RTVSPost2010PropOp40
 70
     0
102
RTVSPost2010Prop41ColorIndex
 90
       18
102
RTVSPost2010Prop41ColorRGB
 90
        0
102
RTVSPost2010PropOp41
 70
     0
102
RTVSPost2010Prop42
 90
       50
102
RTVSPost2010PropOp42
 70
     0
102
RTVSPost2010Prop43
 90
        3
102
RTVSPost2010PropOp43
 70
     0
102
RTVSPost2010Prop44ColorIndex
 90
        5
102
RTVSPost2010Prop44ColorRGB
 90
      255
102
RTVSPost2010PropOp44
 70
     0
102
RTVSPost2010Prop45
280
     0
102
RTVSPost2010PropOp45
 70
     1
102
RTVSPost2010Prop46
 90
       50
102
RTVSPost2010PropOp46
 70
     0
102
RTVSPost2010Prop47
 90
       50
102
RTVSPost2010PropOp47
 70
     0
102
RTVSPost2010Prop48
 90
       50
102
RTVSPost2010PropOp48
 70
     0
102
RTVSPost2010Prop49
280
     0
102
RTVSPost2010PropOp49
 70
     1
102
RTVSPost2010Prop50
 90
       50
102
RTVSPost2010PropOp50
 70
     0
102
RTVSPost2010Prop51ColorIndex
 90
      256
102
RTVSPost2010Prop51ColorRGB
 90
-16777216
102
RTVSPost2010PropOp51
 70
     0
102
RTVSPost2010Prop52
140
1.0
102
RTVSPost2010PropOp52
 70
     0
102
RTVSPost2010Prop53
 90
        2
102
RTVSPost2010PropOp53
 70
     0
102
RTVSPost2010Prop54
  1
strokes_ogs.tif
102
RTVSPost2010PropOp54
 70
     0
102
RTVSPost2010Prop55
280
     0
102
RTVSPost2010PropOp55
 70
     1
102
RTVSPost2010Prop56
140
1.0
102
RTVSPost2010PropOp56
 70
     0
102
RTVSPost2010Prop57
140
1.0
102
RTVSPost2010PropOp57
 70
     0
102
RTVSPropertyOp0
 70
     0
102
RTVSPropertyOp1
 70
     0
102
RTVSPropertyOp2
 70
     0
102
RTVSPropertyOp3
 70
     0
102
RTVSPropertyOp4
 70
     0
102
RTVSPropertyOp5
 70
     0
102
RTVSPropertyOp6
 70
     0
102
RTVSPropertyOp7
 70
     0
102
RTVSPropertyOp8
 70
     0
102
RTVSPropertyOp9
 70
     0
102
RTVSPropertyOp10
 70
     0
102
RTVSPropertyOp11
 70
     0
102
RTVSPropertyOp12
 70
     0
102
RTVSPropertyOp13
 70
     0
102
RTVSPropertyOp14
 70
     2
102
RTVSPropertyOp15
 70
     0
102
RTVSPropertyOp16
 70
     0
102
RTVSPropertyOp17
 70
     0
102
RTVSPropertyOp18
 70
     0
102
RTVSPropertyOp19
 70
     0
102
RTVSPropertyOp20
 70
     0
102
RTVSPropertyOp21
 70
     0
102
RTVSPropertyOp22
 70
     0
102
RTVSPropertyOp23
 70
     0
102
RTVSPropertyOp24
 70
     0
102
RTVSPropertyOp25
 70
     0
102
RTVSPropertyOp26
 70
     0
102
RTVSPropertyOp27
 70
     0
102
RTVSPropertyOp28
 70
     1
102
RTVSPropertyOp29
 70
     1
102
RTVSPropertyOp30
 70
     1
102
RTVSPropertyOp31
 70
     1
102
RTVSPropertyOp32
 70
     1
102
RTVSPropertyOp33
 70
     1
102
RTVSPropertyOp34
 70
     1
102
RTVSPropertyOp35
 70
     1
102
RTVSPropertyOp36
 70
     1
102
RTVSPropertyOp37
 70
     0
102
RTVSPropertyOp38
 70
     0
102
RTVSPropertyOp39
 70
     0
102
RTVSPropertyOp40
 70
     0
102
RTVSPropertyOp41
 70
     0
102
RTVSPropertyOp42
 70
     0
102
RTVSPropertyOp43
 70
     0
102
RTVSPropertyOp44
 70
     0
102
RTVSPropertyOp45
 70
     1
102
RTVSPropertyOp46
 70
     0
102
RTVSPropertyOp47
 70
     0
102
RTVSPropertyOp48
 70
     0
102
RTVSPropertyOp49
 70
     1
102
RTVSPropertyOp50
 70
     0
102
RTVSPropertyOp51
 70
     0
102
RTVSPropertyOp52
 70
     0
102
RTVSPropertyOp53
 70
     0
102
RTVSPropertyOp54
 70
     0
102
RTVSPropertyOp55
 70
     1
102
RTVSPropertyOp56
 70
     0
102
RTVSPropertyOp57
 70
     0
102
RTVSPropertyOp58
 70
     0
102
RTVSPropertyOp59
 70
     0
102
RTVSPropertyOp60
 70
     0
102
RTVSPropertyOp61
 70
     0
102
RTVSPropertyOp62
 70
     0
  0
XRECORD
  5
CA73
102
{ACAD_REACTORS
330
CA72
102
}
330
CA72
100
AcDbXrecord
280
     1
102
RTVSPost2010Prop28
280
     0
102
RTVSPost2010PropOp28
 70
     1
102
RTVSPost2010Prop29
280
     1
102
RTVSPost2010PropOp29
 70
     1
102
RTVSPost2010Prop30
280
     1
102
RTVSPost2010PropOp30
 70
     1
102
RTVSPost2010Prop31
280
     0
102
RTVSPost2010PropOp31
 70
     1
102
RTVSPost2010Prop32
280
     0
102
RTVSPost2010PropOp32
 70
     1
102
RTVSPost2010Prop33
280
     0
102
RTVSPost2010PropOp33
 70
     1
102
RTVSPost2010Prop34
280
     0
102
RTVSPost2010PropOp34
 70
     1
102
RTVSPost2010Prop35
280
     0
102
RTVSPost2010PropOp35
 70
     1
102
RTVSPost2010Prop36
280
     0
102
RTVSPost2010PropOp36
 70
     1
102
RTVSPost2010Prop37
 90
       50
102
RTVSPost2010PropOp37
 70
     1
102
RTVSPost2010Prop38
140
0.0
102
RTVSPost2010PropOp38
 70
     1
102
RTVSPost2010Prop39
140
1.0
102
RTVSPost2010PropOp39
 70
     1
102
RTVSPost2010Prop40
 90
        0
102
RTVSPost2010PropOp40
 70
     1
102
RTVSPost2010Prop41ColorIndex
 90
       18
102
RTVSPost2010Prop41ColorRGB
 90
        0
102
RTVSPost2010PropOp41
 70
     1
102
RTVSPost2010Prop42
 90
       50
102
RTVSPost2010PropOp42
 70
     1
102
RTVSPost2010Prop43
 90
        3
102
RTVSPost2010PropOp43
 70
     1
102
RTVSPost2010Prop44ColorIndex
 90
        5
102
RTVSPost2010Prop44ColorRGB
 90
      255
102
RTVSPost2010PropOp44
 70
     1
102
RTVSPost2010Prop45
280
     0
102
RTVSPost2010PropOp45
 70
     1
102
RTVSPost2010Prop46
 90
       50
102
RTVSPost2010PropOp46
 70
     1
102
RTVSPost2010Prop47
 90
       50
102
RTVSPost2010PropOp47
 70
     1
102
RTVSPost2010Prop48
 90
       50
102
RTVSPost2010PropOp48
 70
     1
102
RTVSPost2010Prop49
280
     0
102
RTVSPost2010PropOp49
 70
     1
102
RTVSPost2010Prop50
 90
       50
102
RTVSPost2010PropOp50
 70
     1
102
RTVSPost2010Prop51ColorIndex
 90
      256
102
RTVSPost2010Prop51ColorRGB
 90
-16777216
102
RTVSPost2010PropOp51
 70
     0
102
RTVSPost2010Prop52
140
1.0
102
RTVSPost2010PropOp52
 70
     0
102
RTVSPost2010Prop53
 90
        2
102
RTVSPost2010PropOp53
 70
     1
102
RTVSPost2010Prop54
  1
strokes_ogs.tif
102
RTVSPost2010PropOp54
 70
     1
102
RTVSPost2010Prop55
280
     0
102
RTVSPost2010PropOp55
 70
     1
102
RTVSPost2010Prop56
140
1.0
102
RTVSPost2010PropOp56
 70
     1
102
RTVSPost2010Prop57
140
1.0
102
RTVSPost2010PropOp57
 70
     1
102
RTVSPropertyOp0
 70
     1
102
RTVSPropertyOp1
 70
     1
102
RTVSPropertyOp2
 70
     1
102
RTVSPropertyOp3
 70
     1
102
RTVSPropertyOp4
 70
     1
102
RTVSPropertyOp5
 70
     1
102
RTVSPropertyOp6
 70
     1
102
RTVSPropertyOp7
 70
     1
102
RTVSPropertyOp8
 70
     1
102
RTVSPropertyOp9
 70
     1
102
RTVSPropertyOp10
 70
     1
102
RTVSPropertyOp11
 70
     1
102
RTVSPropertyOp12
 70
     1
102
RTVSPropertyOp13
 70
     1
102
RTVSPropertyOp14
 70
     1
102
RTVSPropertyOp15
 70
     1
102
RTVSPropertyOp16
 70
     1
102
RTVSPropertyOp17
 70
     1
102
RTVSPropertyOp18
 70
     1
102
RTVSPropertyOp19
 70
     1
102
RTVSPropertyOp20
 70
     1
102
RTVSPropertyOp21
 70
     1
102
RTVSPropertyOp22
 70
     1
102
RTVSPropertyOp23
 70
     1
102
RTVSPropertyOp24
 70
     1
102
RTVSPropertyOp25
 70
     1
102
RTVSPropertyOp26
 70
     1
102
RTVSPropertyOp27
 70
     1
102
RTVSPropertyOp28
 70
     1
102
RTVSPropertyOp29
 70
     1
102
RTVSPropertyOp30
 70
     1
102
RTVSPropertyOp31
 70
     1
102
RTVSPropertyOp32
 70
     1
102
RTVSPropertyOp33
 70
     1
102
RTVSPropertyOp34
 70
     1
102
RTVSPropertyOp35
 70
     1
102
RTVSPropertyOp36
 70
     1
102
RTVSPropertyOp37
 70
     1
102
RTVSPropertyOp38
 70
     1
102
RTVSPropertyOp39
 70
     1
102
RTVSPropertyOp40
 70
     1
102
RTVSPropertyOp41
 70
     1
102
RTVSPropertyOp42
 70
     1
102
RTVSPropertyOp43
 70
     1
102
RTVSPropertyOp44
 70
     1
102
RTVSPropertyOp45
 70
     1
102
RTVSPropertyOp46
 70
     1
102
RTVSPropertyOp47
 70
     1
102
RTVSPropertyOp48
 70
     1
102
RTVSPropertyOp49
 70
     1
102
RTVSPropertyOp50
 70
     1
102
RTVSPropertyOp51
 70
     0
102
RTVSPropertyOp52
 70
     0
102
RTVSPropertyOp53
 70
     1
102
RTVSPropertyOp54
 70
     1
102
RTVSPropertyOp55
 70
     1
102
RTVSPropertyOp56
 70
     1
102
RTVSPropertyOp57
 70
     1
102
RTVSPropertyOp58
 70
     1
102
RTVSPropertyOp59
 70
     1
102
RTVSPropertyOp60
 70
     1
102
RTVSPropertyOp61
 70
     1
102
RTVSPropertyOp62
 70
     1
  0
XRECORD
  5
CA57
102
{ACAD_REACTORS
330
CA56
102
}
330
CA56
100
AcDbXrecord
280
     1
102
RTVSPost2010Prop28
280
     0
102
RTVSPost2010PropOp28
 70
     1
102
RTVSPost2010Prop29
280
     1
102
RTVSPost2010PropOp29
 70
     1
102
RTVSPost2010Prop30
280
     1
102
RTVSPost2010PropOp30
 70
     1
102
RTVSPost2010Prop31
280
     0
102
RTVSPost2010PropOp31
 70
     1
102
RTVSPost2010Prop32
280
     0
102
RTVSPost2010PropOp32
 70
     1
102
RTVSPost2010Prop33
280
     0
102
RTVSPost2010PropOp33
 70
     1
102
RTVSPost2010Prop34
280
     0
102
RTVSPost2010PropOp34
 70
     1
102
RTVSPost2010Prop35
280
     0
102
RTVSPost2010PropOp35
 70
     1
102
RTVSPost2010Prop36
280
     0
102
RTVSPost2010PropOp36
 70
     1
102
RTVSPost2010Prop37
 90
       50
102
RTVSPost2010PropOp37
 70
     1
102
RTVSPost2010Prop38
140
0.0
102
RTVSPost2010PropOp38
 70
     1
102
RTVSPost2010Prop39
140
1.0
102
RTVSPost2010PropOp39
 70
     1
102
RTVSPost2010Prop40
 90
        0
102
RTVSPost2010PropOp40
 70
     1
102
RTVSPost2010Prop41ColorIndex
 90
       18
102
RTVSPost2010Prop41ColorRGB
 90
        0
102
RTVSPost2010PropOp41
 70
     1
102
RTVSPost2010Prop42
 90
       50
102
RTVSPost2010PropOp42
 70
     1
102
RTVSPost2010Prop43
 90
        3
102
RTVSPost2010PropOp43
 70
     1
102
RTVSPost2010Prop44ColorIndex
 90
        5
102
RTVSPost2010Prop44ColorRGB
 90
      255
102
RTVSPost2010PropOp44
 70
     1
102
RTVSPost2010Prop45
280
     0
102
RTVSPost2010PropOp45
 70
     1
102
RTVSPost2010Prop46
 90
       50
102
RTVSPost2010PropOp46
 70
     1
102
RTVSPost2010Prop47
 90
       50
102
RTVSPost2010PropOp47
 70
     1
102
RTVSPost2010Prop48
 90
       50
102
RTVSPost2010PropOp48
 70
     1
102
RTVSPost2010Prop49
280
     0
102
RTVSPost2010PropOp49
 70
     1
102
RTVSPost2010Prop50
 90
       50
102
RTVSPost2010PropOp50
 70
     1
102
RTVSPost2010Prop51ColorIndex
 90
      256
102
RTVSPost2010Prop51ColorRGB
 90
-16777216
102
RTVSPost2010PropOp51
 70
     0
102
RTVSPost2010Prop52
140
1.0
102
RTVSPost2010PropOp52
 70
     0
102
RTVSPost2010Prop53
 90
        2
102
RTVSPost2010PropOp53
 70
     1
102
RTVSPost2010Prop54
  1
strokes_ogs.tif
102
RTVSPost2010PropOp54
 70
     1
102
RTVSPost2010Prop55
280
     0
102
RTVSPost2010PropOp55
 70
     1
102
RTVSPost2010Prop56
140
1.0
102
RTVSPost2010PropOp56
 70
     1
102
RTVSPost2010Prop57
140
1.0
102
RTVSPost2010PropOp57
 70
     1
102
RTVSPropertyOp0
 70
     1
102
RTVSPropertyOp1
 70
     1
102
RTVSPropertyOp2
 70
     1
102
RTVSPropertyOp3
 70
     1
102
RTVSPropertyOp4
 70
     1
102
RTVSPropertyOp5
 70
     1
102
RTVSPropertyOp6
 70
     1
102
RTVSPropertyOp7
 70
     1
102
RTVSPropertyOp8
 70
     1
102
RTVSPropertyOp9
 70
     1
102
RTVSPropertyOp10
 70
     1
102
RTVSPropertyOp11
 70
     1
102
RTVSPropertyOp12
 70
     1
102
RTVSPropertyOp13
 70
     1
102
RTVSPropertyOp14
 70
     1
102
RTVSPropertyOp15
 70
     1
102
RTVSPropertyOp16
 70
     1
102
RTVSPropertyOp17
 70
     1
102
RTVSPropertyOp18
 70
     1
102
RTVSPropertyOp19
 70
     1
102
RTVSPropertyOp20
 70
     1
102
RTVSPropertyOp21
 70
     1
102
RTVSPropertyOp22
 70
     1
102
RTVSPropertyOp23
 70
     1
102
RTVSPropertyOp24
 70
     1
102
RTVSPropertyOp25
 70
     1
102
RTVSPropertyOp26
 70
     1
102
RTVSPropertyOp27
 70
     1
102
RTVSPropertyOp28
 70
     1
102
RTVSPropertyOp29
 70
     1
102
RTVSPropertyOp30
 70
     1
102
RTVSPropertyOp31
 70
     1
102
RTVSPropertyOp32
 70
     1
102
RTVSPropertyOp33
 70
     1
102
RTVSPropertyOp34
 70
     1
102
RTVSPropertyOp35
 70
     1
102
RTVSPropertyOp36
 70
     1
102
RTVSPropertyOp37
 70
     1
102
RTVSPropertyOp38
 70
     1
102
RTVSPropertyOp39
 70
     1
102
RTVSPropertyOp40
 70
     1
102
RTVSPropertyOp41
 70
     1
102
RTVSPropertyOp42
 70
     1
102
RTVSPropertyOp43
 70
     1
102
RTVSPropertyOp44
 70
     1
102
RTVSPropertyOp45
 70
     1
102
RTVSPropertyOp46
 70
     1
102
RTVSPropertyOp47
 70
     1
102
RTVSPropertyOp48
 70
     1
102
RTVSPropertyOp49
 70
     1
102
RTVSPropertyOp50
 70
     1
102
RTVSPropertyOp51
 70
     0
102
RTVSPropertyOp52
 70
     0
102
RTVSPropertyOp53
 70
     1
102
RTVSPropertyOp54
 70
     1
102
RTVSPropertyOp55
 70
     1
102
RTVSPropertyOp56
 70
     1
102
RTVSPropertyOp57
 70
     1
102
RTVSPropertyOp58
 70
     1
102
RTVSPropertyOp59
 70
     1
102
RTVSPropertyOp60
 70
     1
102
RTVSPropertyOp61
 70
     1
102
RTVSPropertyOp62
 70
     1
  0
XRECORD
  5
CA59
102
{ACAD_REACTORS
330
CA58
102
}
330
CA58
100
AcDbXrecord
280
     1
102
RTVSPost2010Prop28
280
     0
102
RTVSPost2010PropOp28
 70
     1
102
RTVSPost2010Prop29
280
     1
102
RTVSPost2010PropOp29
 70
     1
102
RTVSPost2010Prop30
280
     1
102
RTVSPost2010PropOp30
 70
     1
102
RTVSPost2010Prop31
280
     0
102
RTVSPost2010PropOp31
 70
     1
102
RTVSPost2010Prop32
280
     0
102
RTVSPost2010PropOp32
 70
     1
102
RTVSPost2010Prop33
280
     0
102
RTVSPost2010PropOp33
 70
     1
102
RTVSPost2010Prop34
280
     0
102
RTVSPost2010PropOp34
 70
     1
102
RTVSPost2010Prop35
280
     0
102
RTVSPost2010PropOp35
 70
     1
102
RTVSPost2010Prop36
280
     0
102
RTVSPost2010PropOp36
 70
     1
102
RTVSPost2010Prop37
 90
       50
102
RTVSPost2010PropOp37
 70
     1
102
RTVSPost2010Prop38
140
0.0
102
RTVSPost2010PropOp38
 70
     1
102
RTVSPost2010Prop39
140
1.0
102
RTVSPost2010PropOp39
 70
     1
102
RTVSPost2010Prop40
 90
        0
102
RTVSPost2010PropOp40
 70
     1
102
RTVSPost2010Prop41ColorIndex
 90
       18
102
RTVSPost2010Prop41ColorRGB
 90
        0
102
RTVSPost2010PropOp41
 70
     1
102
RTVSPost2010Prop42
 90
       50
102
RTVSPost2010PropOp42
 70
     1
102
RTVSPost2010Prop43
 90
        3
102
RTVSPost2010PropOp43
 70
     1
102
RTVSPost2010Prop44ColorIndex
 90
        5
102
RTVSPost2010Prop44ColorRGB
 90
      255
102
RTVSPost2010PropOp44
 70
     1
102
RTVSPost2010Prop45
280
     0
102
RTVSPost2010PropOp45
 70
     1
102
RTVSPost2010Prop46
 90
       50
102
RTVSPost2010PropOp46
 70
     1
102
RTVSPost2010Prop47
 90
       50
102
RTVSPost2010PropOp47
 70
     1
102
RTVSPost2010Prop48
 90
       50
102
RTVSPost2010PropOp48
 70
     1
102
RTVSPost2010Prop49
280
     0
102
RTVSPost2010PropOp49
 70
     1
102
RTVSPost2010Prop50
 90
       50
102
RTVSPost2010PropOp50
 70
     1
102
RTVSPost2010Prop51ColorIndex
 90
      256
102
RTVSPost2010Prop51ColorRGB
 90
-16777216
102
RTVSPost2010PropOp51
 70
     0
102
RTVSPost2010Prop52
140
1.0
102
RTVSPost2010PropOp52
 70
     0
102
RTVSPost2010Prop53
 90
        2
102
RTVSPost2010PropOp53
 70
     1
102
RTVSPost2010Prop54
  1
strokes_ogs.tif
102
RTVSPost2010PropOp54
 70
     1
102
RTVSPost2010Prop55
280
     0
102
RTVSPost2010PropOp55
 70
     1
102
RTVSPost2010Prop56
140
1.0
102
RTVSPost2010PropOp56
 70
     1
102
RTVSPost2010Prop57
140
1.0
102
RTVSPost2010PropOp57
 70
     1
102
RTVSPropertyOp0
 70
     1
102
RTVSPropertyOp1
 70
     1
102
RTVSPropertyOp2
 70
     1
102
RTVSPropertyOp3
 70
     1
102
RTVSPropertyOp4
 70
     1
102
RTVSPropertyOp5
 70
     1
102
RTVSPropertyOp6
 70
     1
102
RTVSPropertyOp7
 70
     1
102
RTVSPropertyOp8
 70
     1
102
RTVSPropertyOp9
 70
     1
102
RTVSPropertyOp10
 70
     1
102
RTVSPropertyOp11
 70
     1
102
RTVSPropertyOp12
 70
     1
102
RTVSPropertyOp13
 70
     1
102
RTVSPropertyOp14
 70
     1
102
RTVSPropertyOp15
 70
     1
102
RTVSPropertyOp16
 70
     1
102
RTVSPropertyOp17
 70
     1
102
RTVSPropertyOp18
 70
     1
102
RTVSPropertyOp19
 70
     1
102
RTVSPropertyOp20
 70
     1
102
RTVSPropertyOp21
 70
     1
102
RTVSPropertyOp22
 70
     1
102
RTVSPropertyOp23
 70
     1
102
RTVSPropertyOp24
 70
     1
102
RTVSPropertyOp25
 70
     1
102
RTVSPropertyOp26
 70
     1
102
RTVSPropertyOp27
 70
     1
102
RTVSPropertyOp28
 70
     1
102
RTVSPropertyOp29
 70
     1
102
RTVSPropertyOp30
 70
     1
102
RTVSPropertyOp31
 70
     1
102
RTVSPropertyOp32
 70
     1
102
RTVSPropertyOp33
 70
     1
102
RTVSPropertyOp34
 70
     1
102
RTVSPropertyOp35
 70
     1
102
RTVSPropertyOp36
 70
     1
102
RTVSPropertyOp37
 70
     1
102
RTVSPropertyOp38
 70
     1
102
RTVSPropertyOp39
 70
     1
102
RTVSPropertyOp40
 70
     1
102
RTVSPropertyOp41
 70
     1
102
RTVSPropertyOp42
 70
     1
102
RTVSPropertyOp43
 70
     1
102
RTVSPropertyOp44
 70
     1
102
RTVSPropertyOp45
 70
     1
102
RTVSPropertyOp46
 70
     1
102
RTVSPropertyOp47
 70
     1
102
RTVSPropertyOp48
 70
     1
102
RTVSPropertyOp49
 70
     1
102
RTVSPropertyOp50
 70
     1
102
RTVSPropertyOp51
 70
     0
102
RTVSPropertyOp52
 70
     0
102
RTVSPropertyOp53
 70
     1
102
RTVSPropertyOp54
 70
     1
102
RTVSPropertyOp55
 70
     1
102
RTVSPropertyOp56
 70
     1
102
RTVSPropertyOp57
 70
     1
102
RTVSPropertyOp58
 70
     1
102
RTVSPropertyOp59
 70
     1
102
RTVSPropertyOp60
 70
     1
102
RTVSPropertyOp61
 70
     1
102
RTVSPropertyOp62
 70
     1
  0
XRECORD
  5
CA5B
102
{ACAD_REACTORS
330
CA5A
102
}
330
CA5A
100
AcDbXrecord
280
     1
102
RTVSPost2010Prop28
280
     0
102
RTVSPost2010PropOp28
 70
     1
102
RTVSPost2010Prop29
280
     1
102
RTVSPost2010PropOp29
 70
     1
102
RTVSPost2010Prop30
280
     1
102
RTVSPost2010PropOp30
 70
     1
102
RTVSPost2010Prop31
280
     0
102
RTVSPost2010PropOp31
 70
     1
102
RTVSPost2010Prop32
280
     0
102
RTVSPost2010PropOp32
 70
     1
102
RTVSPost2010Prop33
280
     0
102
RTVSPost2010PropOp33
 70
     1
102
RTVSPost2010Prop34
280
     0
102
RTVSPost2010PropOp34
 70
     1
102
RTVSPost2010Prop35
280
     0
102
RTVSPost2010PropOp35
 70
     1
102
RTVSPost2010Prop36
280
     0
102
RTVSPost2010PropOp36
 70
     1
102
RTVSPost2010Prop37
 90
       50
102
RTVSPost2010PropOp37
 70
     1
102
RTVSPost2010Prop38
140
0.0
102
RTVSPost2010PropOp38
 70
     1
102
RTVSPost2010Prop39
140
1.0
102
RTVSPost2010PropOp39
 70
     1
102
RTVSPost2010Prop40
 90
        0
102
RTVSPost2010PropOp40
 70
     1
102
RTVSPost2010Prop41ColorIndex
 90
       18
102
RTVSPost2010Prop41ColorRGB
 90
        0
102
RTVSPost2010PropOp41
 70
     1
102
RTVSPost2010Prop42
 90
       50
102
RTVSPost2010PropOp42
 70
     1
102
RTVSPost2010Prop43
 90
        3
102
RTVSPost2010PropOp43
 70
     1
102
RTVSPost2010Prop44ColorIndex
 90
        5
102
RTVSPost2010Prop44ColorRGB
 90
      255
102
RTVSPost2010PropOp44
 70
     1
102
RTVSPost2010Prop45
280
     0
102
RTVSPost2010PropOp45
 70
     1
102
RTVSPost2010Prop46
 90
       50
102
RTVSPost2010PropOp46
 70
     1
102
RTVSPost2010Prop47
 90
       50
102
RTVSPost2010PropOp47
 70
     1
102
RTVSPost2010Prop48
 90
       50
102
RTVSPost2010PropOp48
 70
     1
102
RTVSPost2010Prop49
280
     0
102
RTVSPost2010PropOp49
 70
     1
102
RTVSPost2010Prop50
 90
       50
102
RTVSPost2010PropOp50
 70
     1
102
RTVSPost2010Prop51ColorIndex
 90
      256
102
RTVSPost2010Prop51ColorRGB
 90
-16777216
102
RTVSPost2010PropOp51
 70
     0
102
RTVSPost2010Prop52
140
1.0
102
RTVSPost2010PropOp52
 70
     0
102
RTVSPost2010Prop53
 90
        2
102
RTVSPost2010PropOp53
 70
     1
102
RTVSPost2010Prop54
  1
strokes_ogs.tif
102
RTVSPost2010PropOp54
 70
     1
102
RTVSPost2010Prop55
280
     0
102
RTVSPost2010PropOp55
 70
     1
102
RTVSPost2010Prop56
140
1.0
102
RTVSPost2010PropOp56
 70
     1
102
RTVSPost2010Prop57
140
1.0
102
RTVSPost2010PropOp57
 70
     1
102
RTVSPropertyOp0
 70
     1
102
RTVSPropertyOp1
 70
     1
102
RTVSPropertyOp2
 70
     1
102
RTVSPropertyOp3
 70
     1
102
RTVSPropertyOp4
 70
     1
102
RTVSPropertyOp5
 70
     1
102
RTVSPropertyOp6
 70
     1
102
RTVSPropertyOp7
 70
     1
102
RTVSPropertyOp8
 70
     1
102
RTVSPropertyOp9
 70
     1
102
RTVSPropertyOp10
 70
     1
102
RTVSPropertyOp11
 70
     1
102
RTVSPropertyOp12
 70
     1
102
RTVSPropertyOp13
 70
     1
102
RTVSPropertyOp14
 70
     1
102
RTVSPropertyOp15
 70
     1
102
RTVSPropertyOp16
 70
     1
102
RTVSPropertyOp17
 70
     1
102
RTVSPropertyOp18
 70
     1
102
RTVSPropertyOp19
 70
     1
102
RTVSPropertyOp20
 70
     1
102
RTVSPropertyOp21
 70
     1
102
RTVSPropertyOp22
 70
     1
102
RTVSPropertyOp23
 70
     1
102
RTVSPropertyOp24
 70
     1
102
RTVSPropertyOp25
 70
     1
102
RTVSPropertyOp26
 70
     1
102
RTVSPropertyOp27
 70
     1
102
RTVSPropertyOp28
 70
     1
102
RTVSPropertyOp29
 70
     1
102
RTVSPropertyOp30
 70
     1
102
RTVSPropertyOp31
 70
     1
102
RTVSPropertyOp32
 70
     1
102
RTVSPropertyOp33
 70
     1
102
RTVSPropertyOp34
 70
     1
102
RTVSPropertyOp35
 70
     1
102
RTVSPropertyOp36
 70
     1
102
RTVSPropertyOp37
 70
     1
102
RTVSPropertyOp38
 70
     1
102
RTVSPropertyOp39
 70
     1
102
RTVSPropertyOp40
 70
     1
102
RTVSPropertyOp41
 70
     1
102
RTVSPropertyOp42
 70
     1
102
RTVSPropertyOp43
 70
     1
102
RTVSPropertyOp44
 70
     1
102
RTVSPropertyOp45
 70
     1
102
RTVSPropertyOp46
 70
     1
102
RTVSPropertyOp47
 70
     1
102
RTVSPropertyOp48
 70
     1
102
RTVSPropertyOp49
 70
     1
102
RTVSPropertyOp50
 70
     1
102
RTVSPropertyOp51
 70
     0
102
RTVSPropertyOp52
 70
     0
102
RTVSPropertyOp53
 70
     1
102
RTVSPropertyOp54
 70
     1
102
RTVSPropertyOp55
 70
     1
102
RTVSPropertyOp56
 70
     1
102
RTVSPropertyOp57
 70
     1
102
RTVSPropertyOp58
 70
     1
102
RTVSPropertyOp59
 70
     1
102
RTVSPropertyOp60
 70
     1
102
RTVSPropertyOp61
 70
     1
102
RTVSPropertyOp62
 70
     1
  0
XRECORD
  5
CA5D
102
{ACAD_REACTORS
330
CA5C
102
}
330
CA5C
100
AcDbXrecord
280
     1
102
RTVSPost2010Prop28
280
     0
102
RTVSPost2010PropOp28
 70
     1
102
RTVSPost2010Prop29
280
     1
102
RTVSPost2010PropOp29
 70
     1
102
RTVSPost2010Prop30
280
     1
102
RTVSPost2010PropOp30
 70
     1
102
RTVSPost2010Prop31
280
     0
102
RTVSPost2010PropOp31
 70
     1
102
RTVSPost2010Prop32
280
     0
102
RTVSPost2010PropOp32
 70
     1
102
RTVSPost2010Prop33
280
     0
102
RTVSPost2010PropOp33
 70
     1
102
RTVSPost2010Prop34
280
     0
102
RTVSPost2010PropOp34
 70
     1
102
RTVSPost2010Prop35
280
     0
102
RTVSPost2010PropOp35
 70
     1
102
RTVSPost2010Prop36
280
     0
102
RTVSPost2010PropOp36
 70
     1
102
RTVSPost2010Prop37
 90
       50
102
RTVSPost2010PropOp37
 70
     1
102
RTVSPost2010Prop38
140
0.0
102
RTVSPost2010PropOp38
 70
     1
102
RTVSPost2010Prop39
140
1.0
102
RTVSPost2010PropOp39
 70
     1
102
RTVSPost2010Prop40
 90
        0
102
RTVSPost2010PropOp40
 70
     1
102
RTVSPost2010Prop41ColorIndex
 90
       18
102
RTVSPost2010Prop41ColorRGB
 90
        0
102
RTVSPost2010PropOp41
 70
     1
102
RTVSPost2010Prop42
 90
       50
102
RTVSPost2010PropOp42
 70
     1
102
RTVSPost2010Prop43
 90
        3
102
RTVSPost2010PropOp43
 70
     1
102
RTVSPost2010Prop44ColorIndex
 90
        5
102
RTVSPost2010Prop44ColorRGB
 90
      255
102
RTVSPost2010PropOp44
 70
     1
102
RTVSPost2010Prop45
280
     0
102
RTVSPost2010PropOp45
 70
     1
102
RTVSPost2010Prop46
 90
       50
102
RTVSPost2010PropOp46
 70
     1
102
RTVSPost2010Prop47
 90
       50
102
RTVSPost2010PropOp47
 70
     1
102
RTVSPost2010Prop48
 90
       50
102
RTVSPost2010PropOp48
 70
     1
102
RTVSPost2010Prop49
280
     0
102
RTVSPost2010PropOp49
 70
     1
102
RTVSPost2010Prop50
 90
       50
102
RTVSPost2010PropOp50
 70
     1
102
RTVSPost2010Prop51ColorIndex
 90
      256
102
RTVSPost2010Prop51ColorRGB
 90
-16777216
102
RTVSPost2010PropOp51
 70
     0
102
RTVSPost2010Prop52
140
1.0
102
RTVSPost2010PropOp52
 70
     0
102
RTVSPost2010Prop53
 90
        2
102
RTVSPost2010PropOp53
 70
     1
102
RTVSPost2010Prop54
  1
strokes_ogs.tif
102
RTVSPost2010PropOp54
 70
     1
102
RTVSPost2010Prop55
280
     0
102
RTVSPost2010PropOp55
 70
     1
102
RTVSPost2010Prop56
140
1.0
102
RTVSPost2010PropOp56
 70
     1
102
RTVSPost2010Prop57
140
1.0
102
RTVSPost2010PropOp57
 70
     1
102
RTVSPropertyOp0
 70
     1
102
RTVSPropertyOp1
 70
     1
102
RTVSPropertyOp2
 70
     1
102
RTVSPropertyOp3
 70
     1
102
RTVSPropertyOp4
 70
     1
102
RTVSPropertyOp5
 70
     1
102
RTVSPropertyOp6
 70
     1
102
RTVSPropertyOp7
 70
     1
102
RTVSPropertyOp8
 70
     1
102
RTVSPropertyOp9
 70
     1
102
RTVSPropertyOp10
 70
     1
102
RTVSPropertyOp11
 70
     1
102
RTVSPropertyOp12
 70
     1
102
RTVSPropertyOp13
 70
     1
102
RTVSPropertyOp14
 70
     1
102
RTVSPropertyOp15
 70
     1
102
RTVSPropertyOp16
 70
     1
102
RTVSPropertyOp17
 70
     1
102
RTVSPropertyOp18
 70
     1
102
RTVSPropertyOp19
 70
     1
102
RTVSPropertyOp20
 70
     1
102
RTVSPropertyOp21
 70
     1
102
RTVSPropertyOp22
 70
     1
102
RTVSPropertyOp23
 70
     1
102
RTVSPropertyOp24
 70
     1
102
RTVSPropertyOp25
 70
     1
102
RTVSPropertyOp26
 70
     1
102
RTVSPropertyOp27
 70
     1
102
RTVSPropertyOp28
 70
     1
102
RTVSPropertyOp29
 70
     1
102
RTVSPropertyOp30
 70
     1
102
RTVSPropertyOp31
 70
     1
102
RTVSPropertyOp32
 70
     1
102
RTVSPropertyOp33
 70
     1
102
RTVSPropertyOp34
 70
     1
102
RTVSPropertyOp35
 70
     1
102
RTVSPropertyOp36
 70
     1
102
RTVSPropertyOp37
 70
     1
102
RTVSPropertyOp38
 70
     1
102
RTVSPropertyOp39
 70
     1
102
RTVSPropertyOp40
 70
     1
102
RTVSPropertyOp41
 70
     1
102
RTVSPropertyOp42
 70
     1
102
RTVSPropertyOp43
 70
     1
102
RTVSPropertyOp44
 70
     1
102
RTVSPropertyOp45
 70
     1
102
RTVSPropertyOp46
 70
     1
102
RTVSPropertyOp47
 70
     1
102
RTVSPropertyOp48
 70
     1
102
RTVSPropertyOp49
 70
     1
102
RTVSPropertyOp50
 70
     1
102
RTVSPropertyOp51
 70
     0
102
RTVSPropertyOp52
 70
     0
102
RTVSPropertyOp53
 70
     1
102
RTVSPropertyOp54
 70
     1
102
RTVSPropertyOp55
 70
     1
102
RTVSPropertyOp56
 70
     1
102
RTVSPropertyOp57
 70
     1
102
RTVSPropertyOp58
 70
     1
102
RTVSPropertyOp59
 70
     1
102
RTVSPropertyOp60
 70
     1
102
RTVSPropertyOp61
 70
     1
102
RTVSPropertyOp62
 70
     1
  0
XRECORD
  5
CA65
102
{ACAD_REACTORS
330
CA64
102
}
330
CA64
100
AcDbXrecord
280
     1
102
RTVSPost2010Prop28
280
     0
102
RTVSPost2010PropOp28
 70
     1
102
RTVSPost2010Prop29
280
     1
102
RTVSPost2010PropOp29
 70
     1
102
RTVSPost2010Prop30
280
     1
102
RTVSPost2010PropOp30
 70
     1
102
RTVSPost2010Prop31
280
     0
102
RTVSPost2010PropOp31
 70
     1
102
RTVSPost2010Prop32
280
     0
102
RTVSPost2010PropOp32
 70
     1
102
RTVSPost2010Prop33
280
     0
102
RTVSPost2010PropOp33
 70
     1
102
RTVSPost2010Prop34
280
     0
102
RTVSPost2010PropOp34
 70
     1
102
RTVSPost2010Prop35
280
     0
102
RTVSPost2010PropOp35
 70
     1
102
RTVSPost2010Prop36
280
     0
102
RTVSPost2010PropOp36
 70
     1
102
RTVSPost2010Prop37
 90
       50
102
RTVSPost2010PropOp37
 70
     1
102
RTVSPost2010Prop38
140
0.0
102
RTVSPost2010PropOp38
 70
     1
102
RTVSPost2010Prop39
140
1.0
102
RTVSPost2010PropOp39
 70
     1
102
RTVSPost2010Prop40
 90
        0
102
RTVSPost2010PropOp40
 70
     1
102
RTVSPost2010Prop41ColorIndex
 90
       18
102
RTVSPost2010Prop41ColorRGB
 90
        0
102
RTVSPost2010PropOp41
 70
     1
102
RTVSPost2010Prop42
 90
       50
102
RTVSPost2010PropOp42
 70
     1
102
RTVSPost2010Prop43
 90
        3
102
RTVSPost2010PropOp43
 70
     1
102
RTVSPost2010Prop44ColorIndex
 90
        5
102
RTVSPost2010Prop44ColorRGB
 90
      255
102
RTVSPost2010PropOp44
 70
     1
102
RTVSPost2010Prop45
280
     0
102
RTVSPost2010PropOp45
 70
     1
102
RTVSPost2010Prop46
 90
       50
102
RTVSPost2010PropOp46
 70
     1
102
RTVSPost2010Prop47
 90
       50
102
RTVSPost2010PropOp47
 70
     1
102
RTVSPost2010Prop48
 90
       50
102
RTVSPost2010PropOp48
 70
     1
102
RTVSPost2010Prop49
280
     0
102
RTVSPost2010PropOp49
 70
     1
102
RTVSPost2010Prop50
 90
       50
102
RTVSPost2010PropOp50
 70
     1
102
RTVSPost2010Prop51ColorIndex
 90
      256
102
RTVSPost2010Prop51ColorRGB
 90
-16777216
102
RTVSPost2010PropOp51
 70
     0
102
RTVSPost2010Prop52
140
1.0
102
RTVSPost2010PropOp52
 70
     0
102
RTVSPost2010Prop53
 90
        2
102
RTVSPost2010PropOp53
 70
     1
102
RTVSPost2010Prop54
  1
strokes_ogs.tif
102
RTVSPost2010PropOp54
 70
     1
102
RTVSPost2010Prop55
280
     0
102
RTVSPost2010PropOp55
 70
     1
102
RTVSPost2010Prop56
140
1.0
102
RTVSPost2010PropOp56
 70
     1
102
RTVSPost2010Prop57
140
1.0
102
RTVSPost2010PropOp57
 70
     1
102
RTVSPropertyOp0
 70
     1
102
RTVSPropertyOp1
 70
     1
102
RTVSPropertyOp2
 70
     1
102
RTVSPropertyOp3
 70
     1
102
RTVSPropertyOp4
 70
     1
102
RTVSPropertyOp5
 70
     1
102
RTVSPropertyOp6
 70
     1
102
RTVSPropertyOp7
 70
     1
102
RTVSPropertyOp8
 70
     1
102
RTVSPropertyOp9
 70
     1
102
RTVSPropertyOp10
 70
     1
102
RTVSPropertyOp11
 70
     1
102
RTVSPropertyOp12
 70
     1
102
RTVSPropertyOp13
 70
     1
102
RTVSPropertyOp14
 70
     1
102
RTVSPropertyOp15
 70
     1
102
RTVSPropertyOp16
 70
     1
102
RTVSPropertyOp17
 70
     1
102
RTVSPropertyOp18
 70
     1
102
RTVSPropertyOp19
 70
     1
102
RTVSPropertyOp20
 70
     1
102
RTVSPropertyOp21
 70
     1
102
RTVSPropertyOp22
 70
     1
102
RTVSPropertyOp23
 70
     1
102
RTVSPropertyOp24
 70
     1
102
RTVSPropertyOp25
 70
     1
102
RTVSPropertyOp26
 70
     1
102
RTVSPropertyOp27
 70
     1
102
RTVSPropertyOp28
 70
     1
102
RTVSPropertyOp29
 70
     1
102
RTVSPropertyOp30
 70
     1
102
RTVSPropertyOp31
 70
     1
102
RTVSPropertyOp32
 70
     1
102
RTVSPropertyOp33
 70
     1
102
RTVSPropertyOp34
 70
     1
102
RTVSPropertyOp35
 70
     1
102
RTVSPropertyOp36
 70
     1
102
RTVSPropertyOp37
 70
     1
102
RTVSPropertyOp38
 70
     1
102
RTVSPropertyOp39
 70
     1
102
RTVSPropertyOp40
 70
     1
102
RTVSPropertyOp41
 70
     1
102
RTVSPropertyOp42
 70
     1
102
RTVSPropertyOp43
 70
     1
102
RTVSPropertyOp44
 70
     1
102
RTVSPropertyOp45
 70
     1
102
RTVSPropertyOp46
 70
     1
102
RTVSPropertyOp47
 70
     1
102
RTVSPropertyOp48
 70
     1
102
RTVSPropertyOp49
 70
     1
102
RTVSPropertyOp50
 70
     1
102
RTVSPropertyOp51
 70
     0
102
RTVSPropertyOp52
 70
     0
102
RTVSPropertyOp53
 70
     1
102
RTVSPropertyOp54
 70
     1
102
RTVSPropertyOp55
 70
     1
102
RTVSPropertyOp56
 70
     1
102
RTVSPropertyOp57
 70
     1
102
RTVSPropertyOp58
 70
     1
102
RTVSPropertyOp59
 70
     1
102
RTVSPropertyOp60
 70
     1
102
RTVSPropertyOp61
 70
     1
102
RTVSPropertyOp62
 70
     1
  0
XRECORD
  5
CA81
102
{ACAD_REACTORS
330
CA80
102
}
330
CA80
100
AcDbXrecord
280
     1
102
RTVSPost2010Prop28
280
     0
102
RTVSPost2010PropOp28
 70
     1
102
RTVSPost2010Prop29
280
     1
102
RTVSPost2010PropOp29
 70
     1
102
RTVSPost2010Prop30
280
     1
102
RTVSPost2010PropOp30
 70
     1
102
RTVSPost2010Prop31
280
     0
102
RTVSPost2010PropOp31
 70
     1
102
RTVSPost2010Prop32
280
     0
102
RTVSPost2010PropOp32
 70
     1
102
RTVSPost2010Prop33
280
     0
102
RTVSPost2010PropOp33
 70
     1
102
RTVSPost2010Prop34
280
     0
102
RTVSPost2010PropOp34
 70
     1
102
RTVSPost2010Prop35
280
     0
102
RTVSPost2010PropOp35
 70
     1
102
RTVSPost2010Prop36
280
     0
102
RTVSPost2010PropOp36
 70
     1
102
RTVSPost2010Prop37
 90
       50
102
RTVSPost2010PropOp37
 70
     0
102
RTVSPost2010Prop38
140
0.0
102
RTVSPost2010PropOp38
 70
     0
102
RTVSPost2010Prop39
140
1.0
102
RTVSPost2010PropOp39
 70
     0
102
RTVSPost2010Prop40
 90
        0
102
RTVSPost2010PropOp40
 70
     0
102
RTVSPost2010Prop41ColorIndex
 90
       18
102
RTVSPost2010Prop41ColorRGB
 90
        0
102
RTVSPost2010PropOp41
 70
     0
102
RTVSPost2010Prop42
 90
       50
102
RTVSPost2010PropOp42
 70
     0
102
RTVSPost2010Prop43
 90
        3
102
RTVSPost2010PropOp43
 70
     0
102
RTVSPost2010Prop44ColorIndex
 90
        5
102
RTVSPost2010Prop44ColorRGB
 90
      255
102
RTVSPost2010PropOp44
 70
     0
102
RTVSPost2010Prop45
280
     0
102
RTVSPost2010PropOp45
 70
     1
102
RTVSPost2010Prop46
 90
       50
102
RTVSPost2010PropOp46
 70
     0
102
RTVSPost2010Prop47
 90
       50
102
RTVSPost2010PropOp47
 70
     0
102
RTVSPost2010Prop48
 90
       50
102
RTVSPost2010PropOp48
 70
     0
102
RTVSPost2010Prop49
280
     0
102
RTVSPost2010PropOp49
 70
     1
102
RTVSPost2010Prop50
 90
       50
102
RTVSPost2010PropOp50
 70
     0
102
RTVSPost2010Prop51ColorIndex
 90
      256
102
RTVSPost2010Prop51ColorRGB
 90
-16777216
102
RTVSPost2010PropOp51
 70
     0
102
RTVSPost2010Prop52
140
1.0
102
RTVSPost2010PropOp52
 70
     0
102
RTVSPost2010Prop53
 90
        2
102
RTVSPost2010PropOp53
 70
     0
102
RTVSPost2010Prop54
  1
strokes_ogs.tif
102
RTVSPost2010PropOp54
 70
     0
102
RTVSPost2010Prop55
280
     0
102
RTVSPost2010PropOp55
 70
     1
102
RTVSPost2010Prop56
140
1.0
102
RTVSPost2010PropOp56
 70
     0
102
RTVSPost2010Prop57
140
1.0
102
RTVSPost2010PropOp57
 70
     0
102
RTVSPropertyOp0
 70
     0
102
RTVSPropertyOp1
 70
     0
102
RTVSPropertyOp2
 70
     0
102
RTVSPropertyOp3
 70
     0
102
RTVSPropertyOp4
 70
     0
102
RTVSPropertyOp5
 70
     0
102
RTVSPropertyOp6
 70
     0
102
RTVSPropertyOp7
 70
     0
102
RTVSPropertyOp8
 70
     0
102
RTVSPropertyOp9
 70
     0
102
RTVSPropertyOp10
 70
     0
102
RTVSPropertyOp11
 70
     0
102
RTVSPropertyOp12
 70
     0
102
RTVSPropertyOp13
 70
     0
102
RTVSPropertyOp14
 70
     2
102
RTVSPropertyOp15
 70
     0
102
RTVSPropertyOp16
 70
     0
102
RTVSPropertyOp17
 70
     0
102
RTVSPropertyOp18
 70
     0
102
RTVSPropertyOp19
 70
     0
102
RTVSPropertyOp20
 70
     0
102
RTVSPropertyOp21
 70
     0
102
RTVSPropertyOp22
 70
     0
102
RTVSPropertyOp23
 70
     0
102
RTVSPropertyOp24
 70
     0
102
RTVSPropertyOp25
 70
     0
102
RTVSPropertyOp26
 70
     0
102
RTVSPropertyOp27
 70
     0
102
RTVSPropertyOp28
 70
     1
102
RTVSPropertyOp29
 70
     1
102
RTVSPropertyOp30
 70
     1
102
RTVSPropertyOp31
 70
     1
102
RTVSPropertyOp32
 70
     1
102
RTVSPropertyOp33
 70
     1
102
RTVSPropertyOp34
 70
     1
102
RTVSPropertyOp35
 70
     1
102
RTVSPropertyOp36
 70
     1
102
RTVSPropertyOp37
 70
     0
102
RTVSPropertyOp38
 70
     0
102
RTVSPropertyOp39
 70
     0
102
RTVSPropertyOp40
 70
     0
102
RTVSPropertyOp41
 70
     0
102
RTVSPropertyOp42
 70
     0
102
RTVSPropertyOp43
 70
     0
102
RTVSPropertyOp44
 70
     0
102
RTVSPropertyOp45
 70
     1
102
RTVSPropertyOp46
 70
     0
102
RTVSPropertyOp47
 70
     0
102
RTVSPropertyOp48
 70
     0
102
RTVSPropertyOp49
 70
     1
102
RTVSPropertyOp50
 70
     0
102
RTVSPropertyOp51
 70
     0
102
RTVSPropertyOp52
 70
     0
102
RTVSPropertyOp53
 70
     0
102
RTVSPropertyOp54
 70
     0
102
RTVSPropertyOp55
 70
     1
102
RTVSPropertyOp56
 70
     0
102
RTVSPropertyOp57
 70
     0
102
RTVSPropertyOp58
 70
     0
102
RTVSPropertyOp59
 70
     0
102
RTVSPropertyOp60
 70
     0
102
RTVSPropertyOp61
 70
     0
102
RTVSPropertyOp62
 70
     0
  0
XRECORD
  5
CA71
102
{ACAD_REACTORS
330
CA70
102
}
330
CA70
100
AcDbXrecord
280
     1
102
RTVSPost2010Prop28
280
     0
102
RTVSPost2010PropOp28
 70
     1
102
RTVSPost2010Prop29
280
     1
102
RTVSPost2010PropOp29
 70
     1
102
RTVSPost2010Prop30
280
     1
102
RTVSPost2010PropOp30
 70
     1
102
RTVSPost2010Prop31
280
     0
102
RTVSPost2010PropOp31
 70
     1
102
RTVSPost2010Prop32
280
     0
102
RTVSPost2010PropOp32
 70
     1
102
RTVSPost2010Prop33
280
     0
102
RTVSPost2010PropOp33
 70
     1
102
RTVSPost2010Prop34
280
     0
102
RTVSPost2010PropOp34
 70
     1
102
RTVSPost2010Prop35
280
     0
102
RTVSPost2010PropOp35
 70
     1
102
RTVSPost2010Prop36
280
     0
102
RTVSPost2010PropOp36
 70
     1
102
RTVSPost2010Prop37
 90
       50
102
RTVSPost2010PropOp37
 70
     1
102
RTVSPost2010Prop38
140
0.0
102
RTVSPost2010PropOp38
 70
     1
102
RTVSPost2010Prop39
140
1.0
102
RTVSPost2010PropOp39
 70
     1
102
RTVSPost2010Prop40
 90
        0
102
RTVSPost2010PropOp40
 70
     1
102
RTVSPost2010Prop41ColorIndex
 90
       18
102
RTVSPost2010Prop41ColorRGB
 90
        0
102
RTVSPost2010PropOp41
 70
     1
102
RTVSPost2010Prop42
 90
       50
102
RTVSPost2010PropOp42
 70
     1
102
RTVSPost2010Prop43
 90
        3
102
RTVSPost2010PropOp43
 70
     1
102
RTVSPost2010Prop44ColorIndex
 90
        5
102
RTVSPost2010Prop44ColorRGB
 90
      255
102
RTVSPost2010PropOp44
 70
     1
102
RTVSPost2010Prop45
280
     0
102
RTVSPost2010PropOp45
 70
     1
102
RTVSPost2010Prop46
 90
       50
102
RTVSPost2010PropOp46
 70
     1
102
RTVSPost2010Prop47
 90
       50
102
RTVSPost2010PropOp47
 70
     1
102
RTVSPost2010Prop48
 90
       50
102
RTVSPost2010PropOp48
 70
     1
102
RTVSPost2010Prop49
280
     0
102
RTVSPost2010PropOp49
 70
     1
102
RTVSPost2010Prop50
 90
       50
102
RTVSPost2010PropOp50
 70
     1
102
RTVSPost2010Prop51ColorIndex
 90
      256
102
RTVSPost2010Prop51ColorRGB
 90
-16777216
102
RTVSPost2010PropOp51
 70
     0
102
RTVSPost2010Prop52
140
1.0
102
RTVSPost2010PropOp52
 70
     0
102
RTVSPost2010Prop53
 90
        2
102
RTVSPost2010PropOp53
 70
     1
102
RTVSPost2010Prop54
  1
strokes_ogs.tif
102
RTVSPost2010PropOp54
 70
     1
102
RTVSPost2010Prop55
280
     0
102
RTVSPost2010PropOp55
 70
     1
102
RTVSPost2010Prop56
140
1.0
102
RTVSPost2010PropOp56
 70
     1
102
RTVSPost2010Prop57
140
1.0
102
RTVSPost2010PropOp57
 70
     1
102
RTVSPropertyOp0
 70
     1
102
RTVSPropertyOp1
 70
     1
102
RTVSPropertyOp2
 70
     1
102
RTVSPropertyOp3
 70
     1
102
RTVSPropertyOp4
 70
     1
102
RTVSPropertyOp5
 70
     1
102
RTVSPropertyOp6
 70
     1
102
RTVSPropertyOp7
 70
     1
102
RTVSPropertyOp8
 70
     1
102
RTVSPropertyOp9
 70
     1
102
RTVSPropertyOp10
 70
     1
102
RTVSPropertyOp11
 70
     1
102
RTVSPropertyOp12
 70
     1
102
RTVSPropertyOp13
 70
     1
102
RTVSPropertyOp14
 70
     1
102
RTVSPropertyOp15
 70
     1
102
RTVSPropertyOp16
 70
     1
102
RTVSPropertyOp17
 70
     1
102
RTVSPropertyOp18
 70
     1
102
RTVSPropertyOp19
 70
     1
102
RTVSPropertyOp20
 70
     1
102
RTVSPropertyOp21
 70
     1
102
RTVSPropertyOp22
 70
     1
102
RTVSPropertyOp23
 70
     1
102
RTVSPropertyOp24
 70
     1
102
RTVSPropertyOp25
 70
     1
102
RTVSPropertyOp26
 70
     1
102
RTVSPropertyOp27
 70
     1
102
RTVSPropertyOp28
 70
     1
102
RTVSPropertyOp29
 70
     1
102
RTVSPropertyOp30
 70
     1
102
RTVSPropertyOp31
 70
     1
102
RTVSPropertyOp32
 70
     1
102
RTVSPropertyOp33
 70
     1
102
RTVSPropertyOp34
 70
     1
102
RTVSPropertyOp35
 70
     1
102
RTVSPropertyOp36
 70
     1
102
RTVSPropertyOp37
 70
     1
102
RTVSPropertyOp38
 70
     1
102
RTVSPropertyOp39
 70
     1
102
RTVSPropertyOp40
 70
     1
102
RTVSPropertyOp41
 70
     1
102
RTVSPropertyOp42
 70
     1
102
RTVSPropertyOp43
 70
     1
102
RTVSPropertyOp44
 70
     1
102
RTVSPropertyOp45
 70
     1
102
RTVSPropertyOp46
 70
     1
102
RTVSPropertyOp47
 70
     1
102
RTVSPropertyOp48
 70
     1
102
RTVSPropertyOp49
 70
     1
102
RTVSPropertyOp50
 70
     1
102
RTVSPropertyOp51
 70
     0
102
RTVSPropertyOp52
 70
     0
102
RTVSPropertyOp53
 70
     1
102
RTVSPropertyOp54
 70
     1
102
RTVSPropertyOp55
 70
     1
102
RTVSPropertyOp56
 70
     1
102
RTVSPropertyOp57
 70
     1
102
RTVSPropertyOp58
 70
     1
102
RTVSPropertyOp59
 70
     1
102
RTVSPropertyOp60
 70
     1
102
RTVSPropertyOp61
 70
     1
102
RTVSPropertyOp62
 70
     1
  0
XRECORD
  5
CA83
102
{ACAD_REACTORS
330
CA82
102
}
330
CA82
100
AcDbXrecord
280
     1
102
RTVSPost2010Prop28
280
     0
102
RTVSPost2010PropOp28
 70
     1
102
RTVSPost2010Prop29
280
     1
102
RTVSPost2010PropOp29
 70
     1
102
RTVSPost2010Prop30
280
     1
102
RTVSPost2010PropOp30
 70
     1
102
RTVSPost2010Prop31
280
     0
102
RTVSPost2010PropOp31
 70
     1
102
RTVSPost2010Prop32
280
     0
102
RTVSPost2010PropOp32
 70
     1
102
RTVSPost2010Prop33
280
     0
102
RTVSPost2010PropOp33
 70
     1
102
RTVSPost2010Prop34
280
     0
102
RTVSPost2010PropOp34
 70
     1
102
RTVSPost2010Prop35
280
     0
102
RTVSPost2010PropOp35
 70
     1
102
RTVSPost2010Prop36
280
     0
102
RTVSPost2010PropOp36
 70
     1
102
RTVSPost2010Prop37
 90
       50
102
RTVSPost2010PropOp37
 70
     0
102
RTVSPost2010Prop38
140
0.0
102
RTVSPost2010PropOp38
 70
     0
102
RTVSPost2010Prop39
140
1.0
102
RTVSPost2010PropOp39
 70
     0
102
RTVSPost2010Prop40
 90
        0
102
RTVSPost2010PropOp40
 70
     0
102
RTVSPost2010Prop41ColorIndex
 90
       18
102
RTVSPost2010Prop41ColorRGB
 90
        0
102
RTVSPost2010PropOp41
 70
     0
102
RTVSPost2010Prop42
 90
       50
102
RTVSPost2010PropOp42
 70
     0
102
RTVSPost2010Prop43
 90
        3
102
RTVSPost2010PropOp43
 70
     0
102
RTVSPost2010Prop44ColorIndex
 90
        5
102
RTVSPost2010Prop44ColorRGB
 90
      255
102
RTVSPost2010PropOp44
 70
     0
102
RTVSPost2010Prop45
280
     0
102
RTVSPost2010PropOp45
 70
     1
102
RTVSPost2010Prop46
 90
       50
102
RTVSPost2010PropOp46
 70
     0
102
RTVSPost2010Prop47
 90
       50
102
RTVSPost2010PropOp47
 70
     0
102
RTVSPost2010Prop48
 90
       50
102
RTVSPost2010PropOp48
 70
     0
102
RTVSPost2010Prop49
280
     0
102
RTVSPost2010PropOp49
 70
     1
102
RTVSPost2010Prop50
 90
       50
102
RTVSPost2010PropOp50
 70
     0
102
RTVSPost2010Prop51ColorIndex
 90
      256
102
RTVSPost2010Prop51ColorRGB
 90
-16777216
102
RTVSPost2010PropOp51
 70
     0
102
RTVSPost2010Prop52
140
1.0
102
RTVSPost2010PropOp52
 70
     0
102
RTVSPost2010Prop53
 90
        2
102
RTVSPost2010PropOp53
 70
     0
102
RTVSPost2010Prop54
  1
strokes_ogs.tif
102
RTVSPost2010PropOp54
 70
     0
102
RTVSPost2010Prop55
280
     0
102
RTVSPost2010PropOp55
 70
     1
102
RTVSPost2010Prop56
140
1.0
102
RTVSPost2010PropOp56
 70
     0
102
RTVSPost2010Prop57
140
1.0
102
RTVSPost2010PropOp57
 70
     0
102
RTVSPropertyOp0
 70
     0
102
RTVSPropertyOp1
 70
     0
102
RTVSPropertyOp2
 70
     0
102
RTVSPropertyOp3
 70
     0
102
RTVSPropertyOp4
 70
     0
102
RTVSPropertyOp5
 70
     0
102
RTVSPropertyOp6
 70
     0
102
RTVSPropertyOp7
 70
     0
102
RTVSPropertyOp8
 70
     0
102
RTVSPropertyOp9
 70
     0
102
RTVSPropertyOp10
 70
     0
102
RTVSPropertyOp11
 70
     0
102
RTVSPropertyOp12
 70
     0
102
RTVSPropertyOp13
 70
     0
102
RTVSPropertyOp14
 70
     2
102
RTVSPropertyOp15
 70
     0
102
RTVSPropertyOp16
 70
     0
102
RTVSPropertyOp17
 70
     0
102
RTVSPropertyOp18
 70
     0
102
RTVSPropertyOp19
 70
     0
102
RTVSPropertyOp20
 70
     0
102
RTVSPropertyOp21
 70
     0
102
RTVSPropertyOp22
 70
     0
102
RTVSPropertyOp23
 70
     0
102
RTVSPropertyOp24
 70
     0
102
RTVSPropertyOp25
 70
     0
102
RTVSPropertyOp26
 70
     0
102
RTVSPropertyOp27
 70
     0
102
RTVSPropertyOp28
 70
     1
102
RTVSPropertyOp29
 70
     1
102
RTVSPropertyOp30
 70
     1
102
RTVSPropertyOp31
 70
     1
102
RTVSPropertyOp32
 70
     1
102
RTVSPropertyOp33
 70
     1
102
RTVSPropertyOp34
 70
     1
102
RTVSPropertyOp35
 70
     1
102
RTVSPropertyOp36
 70
     1
102
RTVSPropertyOp37
 70
     0
102
RTVSPropertyOp38
 70
     0
102
RTVSPropertyOp39
 70
     0
102
RTVSPropertyOp40
 70
     0
102
RTVSPropertyOp41
 70
     0
102
RTVSPropertyOp42
 70
     0
102
RTVSPropertyOp43
 70
     0
102
RTVSPropertyOp44
 70
     0
102
RTVSPropertyOp45
 70
     1
102
RTVSPropertyOp46
 70
     0
102
RTVSPropertyOp47
 70
     0
102
RTVSPropertyOp48
 70
     0
102
RTVSPropertyOp49
 70
     1
102
RTVSPropertyOp50
 70
     0
102
RTVSPropertyOp51
 70
     0
102
RTVSPropertyOp52
 70
     0
102
RTVSPropertyOp53
 70
     0
102
RTVSPropertyOp54
 70
     0
102
RTVSPropertyOp55
 70
     1
102
RTVSPropertyOp56
 70
     0
102
RTVSPropertyOp57
 70
     0
102
RTVSPropertyOp58
 70
     0
102
RTVSPropertyOp59
 70
     0
102
RTVSPropertyOp60
 70
     0
102
RTVSPropertyOp61
 70
     0
102
RTVSPropertyOp62
 70
     0
  0
XRECORD
  5
CA69
102
{ACAD_REACTORS
330
CA68
102
}
330
CA68
100
AcDbXrecord
280
     1
102
RTVSPost2010Prop28
280
     0
102
RTVSPost2010PropOp28
 70
     1
102
RTVSPost2010Prop29
280
     1
102
RTVSPost2010PropOp29
 70
     1
102
RTVSPost2010Prop30
280
     1
102
RTVSPost2010PropOp30
 70
     1
102
RTVSPost2010Prop31
280
     0
102
RTVSPost2010PropOp31
 70
     1
102
RTVSPost2010Prop32
280
     0
102
RTVSPost2010PropOp32
 70
     1
102
RTVSPost2010Prop33
280
     0
102
RTVSPost2010PropOp33
 70
     1
102
RTVSPost2010Prop34
280
     0
102
RTVSPost2010PropOp34
 70
     1
102
RTVSPost2010Prop35
280
     0
102
RTVSPost2010PropOp35
 70
     1
102
RTVSPost2010Prop36
280
     0
102
RTVSPost2010PropOp36
 70
     1
102
RTVSPost2010Prop37
 90
       50
102
RTVSPost2010PropOp37
 70
     1
102
RTVSPost2010Prop38
140
0.0
102
RTVSPost2010PropOp38
 70
     1
102
RTVSPost2010Prop39
140
1.0
102
RTVSPost2010PropOp39
 70
     1
102
RTVSPost2010Prop40
 90
        0
102
RTVSPost2010PropOp40
 70
     1
102
RTVSPost2010Prop41ColorIndex
 90
       18
102
RTVSPost2010Prop41ColorRGB
 90
        0
102
RTVSPost2010PropOp41
 70
     1
102
RTVSPost2010Prop42
 90
       50
102
RTVSPost2010PropOp42
 70
     1
102
RTVSPost2010Prop43
 90
        3
102
RTVSPost2010PropOp43
 70
     1
102
RTVSPost2010Prop44ColorIndex
 90
        5
102
RTVSPost2010Prop44ColorRGB
 90
      255
102
RTVSPost2010PropOp44
 70
     1
102
RTVSPost2010Prop45
280
     0
102
RTVSPost2010PropOp45
 70
     1
102
RTVSPost2010Prop46
 90
       50
102
RTVSPost2010PropOp46
 70
     1
102
RTVSPost2010Prop47
 90
       50
102
RTVSPost2010PropOp47
 70
     1
102
RTVSPost2010Prop48
 90
       50
102
RTVSPost2010PropOp48
 70
     1
102
RTVSPost2010Prop49
280
     0
102
RTVSPost2010PropOp49
 70
     1
102
RTVSPost2010Prop50
 90
       50
102
RTVSPost2010PropOp50
 70
     1
102
RTVSPost2010Prop51ColorIndex
 90
      256
102
RTVSPost2010Prop51ColorRGB
 90
-16777216
102
RTVSPost2010PropOp51
 70
     0
102
RTVSPost2010Prop52
140
1.0
102
RTVSPost2010PropOp52
 70
     0
102
RTVSPost2010Prop53
 90
        2
102
RTVSPost2010PropOp53
 70
     1
102
RTVSPost2010Prop54
  1
strokes_ogs.tif
102
RTVSPost2010PropOp54
 70
     1
102
RTVSPost2010Prop55
280
     0
102
RTVSPost2010PropOp55
 70
     1
102
RTVSPost2010Prop56
140
1.0
102
RTVSPost2010PropOp56
 70
     1
102
RTVSPost2010Prop57
140
1.0
102
RTVSPost2010PropOp57
 70
     1
102
RTVSPropertyOp0
 70
     1
102
RTVSPropertyOp1
 70
     1
102
RTVSPropertyOp2
 70
     1
102
RTVSPropertyOp3
 70
     1
102
RTVSPropertyOp4
 70
     1
102
RTVSPropertyOp5
 70
     1
102
RTVSPropertyOp6
 70
     1
102
RTVSPropertyOp7
 70
     1
102
RTVSPropertyOp8
 70
     1
102
RTVSPropertyOp9
 70
     1
102
RTVSPropertyOp10
 70
     1
102
RTVSPropertyOp11
 70
     1
102
RTVSPropertyOp12
 70
     1
102
RTVSPropertyOp13
 70
     1
102
RTVSPropertyOp14
 70
     1
102
RTVSPropertyOp15
 70
     1
102
RTVSPropertyOp16
 70
     1
102
RTVSPropertyOp17
 70
     1
102
RTVSPropertyOp18
 70
     1
102
RTVSPropertyOp19
 70
     1
102
RTVSPropertyOp20
 70
     1
102
RTVSPropertyOp21
 70
     1
102
RTVSPropertyOp22
 70
     1
102
RTVSPropertyOp23
 70
     1
102
RTVSPropertyOp24
 70
     1
102
RTVSPropertyOp25
 70
     1
102
RTVSPropertyOp26
 70
     1
102
RTVSPropertyOp27
 70
     1
102
RTVSPropertyOp28
 70
     1
102
RTVSPropertyOp29
 70
     1
102
RTVSPropertyOp30
 70
     1
102
RTVSPropertyOp31
 70
     1
102
RTVSPropertyOp32
 70
     1
102
RTVSPropertyOp33
 70
     1
102
RTVSPropertyOp34
 70
     1
102
RTVSPropertyOp35
 70
     1
102
RTVSPropertyOp36
 70
     1
102
RTVSPropertyOp37
 70
     1
102
RTVSPropertyOp38
 70
     1
102
RTVSPropertyOp39
 70
     1
102
RTVSPropertyOp40
 70
     1
102
RTVSPropertyOp41
 70
     1
102
RTVSPropertyOp42
 70
     1
102
RTVSPropertyOp43
 70
     1
102
RTVSPropertyOp44
 70
     1
102
RTVSPropertyOp45
 70
     1
102
RTVSPropertyOp46
 70
     1
102
RTVSPropertyOp47
 70
     1
102
RTVSPropertyOp48
 70
     1
102
RTVSPropertyOp49
 70
     1
102
RTVSPropertyOp50
 70
     1
102
RTVSPropertyOp51
 70
     0
102
RTVSPropertyOp52
 70
     0
102
RTVSPropertyOp53
 70
     1
102
RTVSPropertyOp54
 70
     1
102
RTVSPropertyOp55
 70
     1
102
RTVSPropertyOp56
 70
     1
102
RTVSPropertyOp57
 70
     1
102
RTVSPropertyOp58
 70
     1
102
RTVSPropertyOp59
 70
     1
102
RTVSPropertyOp60
 70
     1
102
RTVSPropertyOp61
 70
     1
102
RTVSPropertyOp62
 70
     1
  0
XRECORD
  5
CA7F
102
{ACAD_REACTORS
330
CA7E
102
}
330
CA7E
100
AcDbXrecord
280
     1
102
RTVSPost2010Prop28
280
     0
102
RTVSPost2010PropOp28
 70
     1
102
RTVSPost2010Prop29
280
     1
102
RTVSPost2010PropOp29
 70
     1
102
RTVSPost2010Prop30
280
     1
102
RTVSPost2010PropOp30
 70
     1
102
RTVSPost2010Prop31
280
     0
102
RTVSPost2010PropOp31
 70
     1
102
RTVSPost2010Prop32
280
     0
102
RTVSPost2010PropOp32
 70
     1
102
RTVSPost2010Prop33
280
     0
102
RTVSPost2010PropOp33
 70
     1
102
RTVSPost2010Prop34
280
     0
102
RTVSPost2010PropOp34
 70
     1
102
RTVSPost2010Prop35
280
     0
102
RTVSPost2010PropOp35
 70
     1
102
RTVSPost2010Prop36
280
     0
102
RTVSPost2010PropOp36
 70
     1
102
RTVSPost2010Prop37
 90
       50
102
RTVSPost2010PropOp37
 70
     1
102
RTVSPost2010Prop38
140
0.0
102
RTVSPost2010PropOp38
 70
     1
102
RTVSPost2010Prop39
140
1.0
102
RTVSPost2010PropOp39
 70
     1
102
RTVSPost2010Prop40
 90
        0
102
RTVSPost2010PropOp40
 70
     1
102
RTVSPost2010Prop41ColorIndex
 90
       18
102
RTVSPost2010Prop41ColorRGB
 90
        0
102
RTVSPost2010PropOp41
 70
     1
102
RTVSPost2010Prop42
 90
       50
102
RTVSPost2010PropOp42
 70
     1
102
RTVSPost2010Prop43
 90
        3
102
RTVSPost2010PropOp43
 70
     1
102
RTVSPost2010Prop44ColorIndex
 90
        5
102
RTVSPost2010Prop44ColorRGB
 90
      255
102
RTVSPost2010PropOp44
 70
     1
102
RTVSPost2010Prop45
280
     0
102
RTVSPost2010PropOp45
 70
     1
102
RTVSPost2010Prop46
 90
       50
102
RTVSPost2010PropOp46
 70
     1
102
RTVSPost2010Prop47
 90
       50
102
RTVSPost2010PropOp47
 70
     1
102
RTVSPost2010Prop48
 90
       50
102
RTVSPost2010PropOp48
 70
     1
102
RTVSPost2010Prop49
280
     0
102
RTVSPost2010PropOp49
 70
     1
102
RTVSPost2010Prop50
 90
       50
102
RTVSPost2010PropOp50
 70
     1
102
RTVSPost2010Prop51ColorIndex
 90
      256
102
RTVSPost2010Prop51ColorRGB
 90
-16777216
102
RTVSPost2010PropOp51
 70
     0
102
RTVSPost2010Prop52
140
1.0
102
RTVSPost2010PropOp52
 70
     0
102
RTVSPost2010Prop53
 90
        2
102
RTVSPost2010PropOp53
 70
     1
102
RTVSPost2010Prop54
  1
strokes_ogs.tif
102
RTVSPost2010PropOp54
 70
     1
102
RTVSPost2010Prop55
280
     0
102
RTVSPost2010PropOp55
 70
     1
102
RTVSPost2010Prop56
140
1.0
102
RTVSPost2010PropOp56
 70
     1
102
RTVSPost2010Prop57
140
1.0
102
RTVSPost2010PropOp57
 70
     1
102
RTVSPropertyOp0
 70
     1
102
RTVSPropertyOp1
 70
     1
102
RTVSPropertyOp2
 70
     1
102
RTVSPropertyOp3
 70
     1
102
RTVSPropertyOp4
 70
     1
102
RTVSPropertyOp5
 70
     1
102
RTVSPropertyOp6
 70
     1
102
RTVSPropertyOp7
 70
     1
102
RTVSPropertyOp8
 70
     1
102
RTVSPropertyOp9
 70
     1
102
RTVSPropertyOp10
 70
     1
102
RTVSPropertyOp11
 70
     1
102
RTVSPropertyOp12
 70
     1
102
RTVSPropertyOp13
 70
     1
102
RTVSPropertyOp14
 70
     1
102
RTVSPropertyOp15
 70
     1
102
RTVSPropertyOp16
 70
     1
102
RTVSPropertyOp17
 70
     1
102
RTVSPropertyOp18
 70
     1
102
RTVSPropertyOp19
 70
     1
102
RTVSPropertyOp20
 70
     1
102
RTVSPropertyOp21
 70
     1
102
RTVSPropertyOp22
 70
     1
102
RTVSPropertyOp23
 70
     1
102
RTVSPropertyOp24
 70
     1
102
RTVSPropertyOp25
 70
     1
102
RTVSPropertyOp26
 70
     1
102
RTVSPropertyOp27
 70
     1
102
RTVSPropertyOp28
 70
     1
102
RTVSPropertyOp29
 70
     1
102
RTVSPropertyOp30
 70
     1
102
RTVSPropertyOp31
 70
     1
102
RTVSPropertyOp32
 70
     1
102
RTVSPropertyOp33
 70
     1
102
RTVSPropertyOp34
 70
     1
102
RTVSPropertyOp35
 70
     1
102
RTVSPropertyOp36
 70
     1
102
RTVSPropertyOp37
 70
     1
102
RTVSPropertyOp38
 70
     1
102
RTVSPropertyOp39
 70
     1
102
RTVSPropertyOp40
 70
     1
102
RTVSPropertyOp41
 70
     1
102
RTVSPropertyOp42
 70
     1
102
RTVSPropertyOp43
 70
     1
102
RTVSPropertyOp44
 70
     1
102
RTVSPropertyOp45
 70
     1
102
RTVSPropertyOp46
 70
     1
102
RTVSPropertyOp47
 70
     1
102
RTVSPropertyOp48
 70
     1
102
RTVSPropertyOp49
 70
     1
102
RTVSPropertyOp50
 70
     1
102
RTVSPropertyOp51
 70
     0
102
RTVSPropertyOp52
 70
     0
102
RTVSPropertyOp53
 70
     1
102
RTVSPropertyOp54
 70
     1
102
RTVSPropertyOp55
 70
     1
102
RTVSPropertyOp56
 70
     1
102
RTVSPropertyOp57
 70
     1
102
RTVSPropertyOp58
 70
     1
102
RTVSPropertyOp59
 70
     1
102
RTVSPropertyOp60
 70
     1
102
RTVSPropertyOp61
 70
     1
102
RTVSPropertyOp62
 70
     1
  0
XRECORD
  5
CA7D
102
{ACAD_REACTORS
330
CA7C
102
}
330
CA7C
100
AcDbXrecord
280
     1
102
RTVSPost2010Prop28
280
     0
102
RTVSPost2010PropOp28
 70
     1
102
RTVSPost2010Prop29
280
     1
102
RTVSPost2010PropOp29
 70
     1
102
RTVSPost2010Prop30
280
     1
102
RTVSPost2010PropOp30
 70
     1
102
RTVSPost2010Prop31
280
     0
102
RTVSPost2010PropOp31
 70
     1
102
RTVSPost2010Prop32
280
     0
102
RTVSPost2010PropOp32
 70
     1
102
RTVSPost2010Prop33
280
     0
102
RTVSPost2010PropOp33
 70
     1
102
RTVSPost2010Prop34
280
     0
102
RTVSPost2010PropOp34
 70
     1
102
RTVSPost2010Prop35
280
     0
102
RTVSPost2010PropOp35
 70
     1
102
RTVSPost2010Prop36
280
     0
102
RTVSPost2010PropOp36
 70
     1
102
RTVSPost2010Prop37
 90
       50
102
RTVSPost2010PropOp37
 70
     1
102
RTVSPost2010Prop38
140
0.0
102
RTVSPost2010PropOp38
 70
     1
102
RTVSPost2010Prop39
140
1.0
102
RTVSPost2010PropOp39
 70
     1
102
RTVSPost2010Prop40
 90
        0
102
RTVSPost2010PropOp40
 70
     1
102
RTVSPost2010Prop41ColorIndex
 90
       18
102
RTVSPost2010Prop41ColorRGB
 90
        0
102
RTVSPost2010PropOp41
 70
     1
102
RTVSPost2010Prop42
 90
       50
102
RTVSPost2010PropOp42
 70
     1
102
RTVSPost2010Prop43
 90
        3
102
RTVSPost2010PropOp43
 70
     1
102
RTVSPost2010Prop44ColorIndex
 90
        5
102
RTVSPost2010Prop44ColorRGB
 90
      255
102
RTVSPost2010PropOp44
 70
     1
102
RTVSPost2010Prop45
280
     0
102
RTVSPost2010PropOp45
 70
     1
102
RTVSPost2010Prop46
 90
       50
102
RTVSPost2010PropOp46
 70
     1
102
RTVSPost2010Prop47
 90
       50
102
RTVSPost2010PropOp47
 70
     1
102
RTVSPost2010Prop48
 90
       50
102
RTVSPost2010PropOp48
 70
     1
102
RTVSPost2010Prop49
280
     0
102
RTVSPost2010PropOp49
 70
     1
102
RTVSPost2010Prop50
 90
       50
102
RTVSPost2010PropOp50
 70
     1
102
RTVSPost2010Prop51ColorIndex
 90
      256
102
RTVSPost2010Prop51ColorRGB
 90
-16777216
102
RTVSPost2010PropOp51
 70
     0
102
RTVSPost2010Prop52
140
1.0
102
RTVSPost2010PropOp52
 70
     0
102
RTVSPost2010Prop53
 90
        2
102
RTVSPost2010PropOp53
 70
     1
102
RTVSPost2010Prop54
  1
strokes_ogs.tif
102
RTVSPost2010PropOp54
 70
     1
102
RTVSPost2010Prop55
280
     0
102
RTVSPost2010PropOp55
 70
     1
102
RTVSPost2010Prop56
140
1.0
102
RTVSPost2010PropOp56
 70
     1
102
RTVSPost2010Prop57
140
1.0
102
RTVSPost2010PropOp57
 70
     1
102
RTVSPropertyOp0
 70
     1
102
RTVSPropertyOp1
 70
     1
102
RTVSPropertyOp2
 70
     1
102
RTVSPropertyOp3
 70
     1
102
RTVSPropertyOp4
 70
     1
102
RTVSPropertyOp5
 70
     1
102
RTVSPropertyOp6
 70
     1
102
RTVSPropertyOp7
 70
     1
102
RTVSPropertyOp8
 70
     1
102
RTVSPropertyOp9
 70
     1
102
RTVSPropertyOp10
 70
     1
102
RTVSPropertyOp11
 70
     1
102
RTVSPropertyOp12
 70
     1
102
RTVSPropertyOp13
 70
     1
102
RTVSPropertyOp14
 70
     1
102
RTVSPropertyOp15
 70
     1
102
RTVSPropertyOp16
 70
     1
102
RTVSPropertyOp17
 70
     1
102
RTVSPropertyOp18
 70
     1
102
RTVSPropertyOp19
 70
     1
102
RTVSPropertyOp20
 70
     1
102
RTVSPropertyOp21
 70
     1
102
RTVSPropertyOp22
 70
     1
102
RTVSPropertyOp23
 70
     1
102
RTVSPropertyOp24
 70
     1
102
RTVSPropertyOp25
 70
     1
102
RTVSPropertyOp26
 70
     1
102
RTVSPropertyOp27
 70
     1
102
RTVSPropertyOp28
 70
     1
102
RTVSPropertyOp29
 70
     1
102
RTVSPropertyOp30
 70
     1
102
RTVSPropertyOp31
 70
     1
102
RTVSPropertyOp32
 70
     1
102
RTVSPropertyOp33
 70
     1
102
RTVSPropertyOp34
 70
     1
102
RTVSPropertyOp35
 70
     1
102
RTVSPropertyOp36
 70
     1
102
RTVSPropertyOp37
 70
     1
102
RTVSPropertyOp38
 70
     1
102
RTVSPropertyOp39
 70
     1
102
RTVSPropertyOp40
 70
     1
102
RTVSPropertyOp41
 70
     1
102
RTVSPropertyOp42
 70
     1
102
RTVSPropertyOp43
 70
     1
102
RTVSPropertyOp44
 70
     1
102
RTVSPropertyOp45
 70
     1
102
RTVSPropertyOp46
 70
     1
102
RTVSPropertyOp47
 70
     1
102
RTVSPropertyOp48
 70
     1
102
RTVSPropertyOp49
 70
     1
102
RTVSPropertyOp50
 70
     1
102
RTVSPropertyOp51
 70
     0
102
RTVSPropertyOp52
 70
     0
102
RTVSPropertyOp53
 70
     1
102
RTVSPropertyOp54
 70
     1
102
RTVSPropertyOp55
 70
     1
102
RTVSPropertyOp56
 70
     1
102
RTVSPropertyOp57
 70
     1
102
RTVSPropertyOp58
 70
     1
102
RTVSPropertyOp59
 70
     1
102
RTVSPropertyOp60
 70
     1
102
RTVSPropertyOp61
 70
     1
102
RTVSPropertyOp62
 70
     1
  0
XRECORD
  5
CA77
102
{ACAD_REACTORS
330
CA76
102
}
330
CA76
100
AcDbXrecord
280
     1
102
RTVSPost2010Prop28
280
     0
102
RTVSPost2010PropOp28
 70
     1
102
RTVSPost2010Prop29
280
     1
102
RTVSPost2010PropOp29
 70
     1
102
RTVSPost2010Prop30
280
     1
102
RTVSPost2010PropOp30
 70
     1
102
RTVSPost2010Prop31
280
     0
102
RTVSPost2010PropOp31
 70
     1
102
RTVSPost2010Prop32
280
     0
102
RTVSPost2010PropOp32
 70
     1
102
RTVSPost2010Prop33
280
     0
102
RTVSPost2010PropOp33
 70
     1
102
RTVSPost2010Prop34
280
     0
102
RTVSPost2010PropOp34
 70
     1
102
RTVSPost2010Prop35
280
     0
102
RTVSPost2010PropOp35
 70
     1
102
RTVSPost2010Prop36
280
     0
102
RTVSPost2010PropOp36
 70
     1
102
RTVSPost2010Prop37
 90
       50
102
RTVSPost2010PropOp37
 70
     1
102
RTVSPost2010Prop38
140
0.0
102
RTVSPost2010PropOp38
 70
     1
102
RTVSPost2010Prop39
140
1.0
102
RTVSPost2010PropOp39
 70
     1
102
RTVSPost2010Prop40
 90
        0
102
RTVSPost2010PropOp40
 70
     1
102
RTVSPost2010Prop41ColorIndex
 90
       18
102
RTVSPost2010Prop41ColorRGB
 90
        0
102
RTVSPost2010PropOp41
 70
     1
102
RTVSPost2010Prop42
 90
       50
102
RTVSPost2010PropOp42
 70
     1
102
RTVSPost2010Prop43
 90
        3
102
RTVSPost2010PropOp43
 70
     1
102
RTVSPost2010Prop44ColorIndex
 90
        5
102
RTVSPost2010Prop44ColorRGB
 90
      255
102
RTVSPost2010PropOp44
 70
     1
102
RTVSPost2010Prop45
280
     0
102
RTVSPost2010PropOp45
 70
     1
102
RTVSPost2010Prop46
 90
       50
102
RTVSPost2010PropOp46
 70
     1
102
RTVSPost2010Prop47
 90
       50
102
RTVSPost2010PropOp47
 70
     1
102
RTVSPost2010Prop48
 90
       50
102
RTVSPost2010PropOp48
 70
     1
102
RTVSPost2010Prop49
280
     0
102
RTVSPost2010PropOp49
 70
     1
102
RTVSPost2010Prop50
 90
       50
102
RTVSPost2010PropOp50
 70
     1
102
RTVSPost2010Prop51ColorIndex
 90
      256
102
RTVSPost2010Prop51ColorRGB
 90
-16777216
102
RTVSPost2010PropOp51
 70
     0
102
RTVSPost2010Prop52
140
1.0
102
RTVSPost2010PropOp52
 70
     0
102
RTVSPost2010Prop53
 90
        2
102
RTVSPost2010PropOp53
 70
     1
102
RTVSPost2010Prop54
  1
strokes_ogs.tif
102
RTVSPost2010PropOp54
 70
     1
102
RTVSPost2010Prop55
280
     0
102
RTVSPost2010PropOp55
 70
     1
102
RTVSPost2010Prop56
140
1.0
102
RTVSPost2010PropOp56
 70
     1
102
RTVSPost2010Prop57
140
1.0
102
RTVSPost2010PropOp57
 70
     1
102
RTVSPropertyOp0
 70
     1
102
RTVSPropertyOp1
 70
     1
102
RTVSPropertyOp2
 70
     1
102
RTVSPropertyOp3
 70
     1
102
RTVSPropertyOp4
 70
     1
102
RTVSPropertyOp5
 70
     1
102
RTVSPropertyOp6
 70
     1
102
RTVSPropertyOp7
 70
     1
102
RTVSPropertyOp8
 70
     1
102
RTVSPropertyOp9
 70
     1
102
RTVSPropertyOp10
 70
     1
102
RTVSPropertyOp11
 70
     1
102
RTVSPropertyOp12
 70
     1
102
RTVSPropertyOp13
 70
     1
102
RTVSPropertyOp14
 70
     1
102
RTVSPropertyOp15
 70
     1
102
RTVSPropertyOp16
 70
     1
102
RTVSPropertyOp17
 70
     1
102
RTVSPropertyOp18
 70
     1
102
RTVSPropertyOp19
 70
     1
102
RTVSPropertyOp20
 70
     1
102
RTVSPropertyOp21
 70
     1
102
RTVSPropertyOp22
 70
     1
102
RTVSPropertyOp23
 70
     1
102
RTVSPropertyOp24
 70
     1
102
RTVSPropertyOp25
 70
     1
102
RTVSPropertyOp26
 70
     1
102
RTVSPropertyOp27
 70
     1
102
RTVSPropertyOp28
 70
     1
102
RTVSPropertyOp29
 70
     1
102
RTVSPropertyOp30
 70
     1
102
RTVSPropertyOp31
 70
     1
102
RTVSPropertyOp32
 70
     1
102
RTVSPropertyOp33
 70
     1
102
RTVSPropertyOp34
 70
     1
102
RTVSPropertyOp35
 70
     1
102
RTVSPropertyOp36
 70
     1
102
RTVSPropertyOp37
 70
     1
102
RTVSPropertyOp38
 70
     1
102
RTVSPropertyOp39
 70
     1
102
RTVSPropertyOp40
 70
     1
102
RTVSPropertyOp41
 70
     1
102
RTVSPropertyOp42
 70
     1
102
RTVSPropertyOp43
 70
     1
102
RTVSPropertyOp44
 70
     1
102
RTVSPropertyOp45
 70
     1
102
RTVSPropertyOp46
 70
     1
102
RTVSPropertyOp47
 70
     1
102
RTVSPropertyOp48
 70
     1
102
RTVSPropertyOp49
 70
     1
102
RTVSPropertyOp50
 70
     1
102
RTVSPropertyOp51
 70
     0
102
RTVSPropertyOp52
 70
     0
102
RTVSPropertyOp53
 70
     1
102
RTVSPropertyOp54
 70
     1
102
RTVSPropertyOp55
 70
     1
102
RTVSPropertyOp56
 70
     1
102
RTVSPropertyOp57
 70
     1
102
RTVSPropertyOp58
 70
     1
102
RTVSPropertyOp59
 70
     1
102
RTVSPropertyOp60
 70
     1
102
RTVSPropertyOp61
 70
     1
102
RTVSPropertyOp62
 70
     1
  0
XRECORD
  5
CA79
102
{ACAD_REACTORS
330
CA78
102
}
330
CA78
100
AcDbXrecord
280
     1
102
RTVSPost2010Prop28
280
     0
102
RTVSPost2010PropOp28
 70
     1
102
RTVSPost2010Prop29
280
     1
102
RTVSPost2010PropOp29
 70
     1
102
RTVSPost2010Prop30
280
     1
102
RTVSPost2010PropOp30
 70
     1
102
RTVSPost2010Prop31
280
     0
102
RTVSPost2010PropOp31
 70
     1
102
RTVSPost2010Prop32
280
     0
102
RTVSPost2010PropOp32
 70
     1
102
RTVSPost2010Prop33
280
     0
102
RTVSPost2010PropOp33
 70
     1
102
RTVSPost2010Prop34
280
     0
102
RTVSPost2010PropOp34
 70
     1
102
RTVSPost2010Prop35
280
     0
102
RTVSPost2010PropOp35
 70
     1
102
RTVSPost2010Prop36
280
     0
102
RTVSPost2010PropOp36
 70
     1
102
RTVSPost2010Prop37
 90
       50
102
RTVSPost2010PropOp37
 70
     1
102
RTVSPost2010Prop38
140
0.0
102
RTVSPost2010PropOp38
 70
     1
102
RTVSPost2010Prop39
140
1.0
102
RTVSPost2010PropOp39
 70
     1
102
RTVSPost2010Prop40
 90
        0
102
RTVSPost2010PropOp40
 70
     1
102
RTVSPost2010Prop41ColorIndex
 90
       18
102
RTVSPost2010Prop41ColorRGB
 90
        0
102
RTVSPost2010PropOp41
 70
     1
102
RTVSPost2010Prop42
 90
       50
102
RTVSPost2010PropOp42
 70
     1
102
RTVSPost2010Prop43
 90
        3
102
RTVSPost2010PropOp43
 70
     1
102
RTVSPost2010Prop44ColorIndex
 90
        5
102
RTVSPost2010Prop44ColorRGB
 90
      255
102
RTVSPost2010PropOp44
 70
     1
102
RTVSPost2010Prop45
280
     0
102
RTVSPost2010PropOp45
 70
     1
102
RTVSPost2010Prop46
 90
       50
102
RTVSPost2010PropOp46
 70
     1
102
RTVSPost2010Prop47
 90
       50
102
RTVSPost2010PropOp47
 70
     1
102
RTVSPost2010Prop48
 90
       50
102
RTVSPost2010PropOp48
 70
     1
102
RTVSPost2010Prop49
280
     0
102
RTVSPost2010PropOp49
 70
     1
102
RTVSPost2010Prop50
 90
       50
102
RTVSPost2010PropOp50
 70
     1
102
RTVSPost2010Prop51ColorIndex
 90
      256
102
RTVSPost2010Prop51ColorRGB
 90
-16777216
102
RTVSPost2010PropOp51
 70
     0
102
RTVSPost2010Prop52
140
1.0
102
RTVSPost2010PropOp52
 70
     0
102
RTVSPost2010Prop53
 90
        2
102
RTVSPost2010PropOp53
 70
     1
102
RTVSPost2010Prop54
  1
strokes_ogs.tif
102
RTVSPost2010PropOp54
 70
     1
102
RTVSPost2010Prop55
280
     0
102
RTVSPost2010PropOp55
 70
     1
102
RTVSPost2010Prop56
140
1.0
102
RTVSPost2010PropOp56
 70
     1
102
RTVSPost2010Prop57
140
1.0
102
RTVSPost2010PropOp57
 70
     1
102
RTVSPropertyOp0
 70
     1
102
RTVSPropertyOp1
 70
     1
102
RTVSPropertyOp2
 70
     1
102
RTVSPropertyOp3
 70
     1
102
RTVSPropertyOp4
 70
     1
102
RTVSPropertyOp5
 70
     1
102
RTVSPropertyOp6
 70
     1
102
RTVSPropertyOp7
 70
     1
102
RTVSPropertyOp8
 70
     1
102
RTVSPropertyOp9
 70
     1
102
RTVSPropertyOp10
 70
     1
102
RTVSPropertyOp11
 70
     1
102
RTVSPropertyOp12
 70
     1
102
RTVSPropertyOp13
 70
     1
102
RTVSPropertyOp14
 70
     1
102
RTVSPropertyOp15
 70
     1
102
RTVSPropertyOp16
 70
     1
102
RTVSPropertyOp17
 70
     1
102
RTVSPropertyOp18
 70
     1
102
RTVSPropertyOp19
 70
     1
102
RTVSPropertyOp20
 70
     1
102
RTVSPropertyOp21
 70
     1
102
RTVSPropertyOp22
 70
     1
102
RTVSPropertyOp23
 70
     1
102
RTVSPropertyOp24
 70
     1
102
RTVSPropertyOp25
 70
     1
102
RTVSPropertyOp26
 70
     1
102
RTVSPropertyOp27
 70
     1
102
RTVSPropertyOp28
 70
     1
102
RTVSPropertyOp29
 70
     1
102
RTVSPropertyOp30
 70
     1
102
RTVSPropertyOp31
 70
     1
102
RTVSPropertyOp32
 70
     1
102
RTVSPropertyOp33
 70
     1
102
RTVSPropertyOp34
 70
     1
102
RTVSPropertyOp35
 70
     1
102
RTVSPropertyOp36
 70
     1
102
RTVSPropertyOp37
 70
     1
102
RTVSPropertyOp38
 70
     1
102
RTVSPropertyOp39
 70
     1
102
RTVSPropertyOp40
 70
     1
102
RTVSPropertyOp41
 70
     1
102
RTVSPropertyOp42
 70
     1
102
RTVSPropertyOp43
 70
     1
102
RTVSPropertyOp44
 70
     1
102
RTVSPropertyOp45
 70
     1
102
RTVSPropertyOp46
 70
     1
102
RTVSPropertyOp47
 70
     1
102
RTVSPropertyOp48
 70
     1
102
RTVSPropertyOp49
 70
     1
102
RTVSPropertyOp50
 70
     1
102
RTVSPropertyOp51
 70
     0
102
RTVSPropertyOp52
 70
     0
102
RTVSPropertyOp53
 70
     1
102
RTVSPropertyOp54
 70
     1
102
RTVSPropertyOp55
 70
     1
102
RTVSPropertyOp56
 70
     1
102
RTVSPropertyOp57
 70
     1
102
RTVSPropertyOp58
 70
     1
102
RTVSPropertyOp59
 70
     1
102
RTVSPropertyOp60
 70
     1
102
RTVSPropertyOp61
 70
     1
102
RTVSPropertyOp62
 70
     1
  0
XRECORD
  5
CA6F
102
{ACAD_REACTORS
330
CA6E
102
}
330
CA6E
100
AcDbXrecord
280
     1
102
RTVSPost2010Prop28
280
     0
102
RTVSPost2010PropOp28
 70
     1
102
RTVSPost2010Prop29
280
     1
102
RTVSPost2010PropOp29
 70
     1
102
RTVSPost2010Prop30
280
     1
102
RTVSPost2010PropOp30
 70
     1
102
RTVSPost2010Prop31
280
     0
102
RTVSPost2010PropOp31
 70
     1
102
RTVSPost2010Prop32
280
     0
102
RTVSPost2010PropOp32
 70
     1
102
RTVSPost2010Prop33
280
     0
102
RTVSPost2010PropOp33
 70
     1
102
RTVSPost2010Prop34
280
     0
102
RTVSPost2010PropOp34
 70
     1
102
RTVSPost2010Prop35
280
     0
102
RTVSPost2010PropOp35
 70
     1
102
RTVSPost2010Prop36
280
     0
102
RTVSPost2010PropOp36
 70
     1
102
RTVSPost2010Prop37
 90
       50
102
RTVSPost2010PropOp37
 70
     1
102
RTVSPost2010Prop38
140
0.0
102
RTVSPost2010PropOp38
 70
     1
102
RTVSPost2010Prop39
140
1.0
102
RTVSPost2010PropOp39
 70
     1
102
RTVSPost2010Prop40
 90
        0
102
RTVSPost2010PropOp40
 70
     1
102
RTVSPost2010Prop41ColorIndex
 90
       18
102
RTVSPost2010Prop41ColorRGB
 90
        0
102
RTVSPost2010PropOp41
 70
     1
102
RTVSPost2010Prop42
 90
       50
102
RTVSPost2010PropOp42
 70
     1
102
RTVSPost2010Prop43
 90
        3
102
RTVSPost2010PropOp43
 70
     1
102
RTVSPost2010Prop44ColorIndex
 90
        5
102
RTVSPost2010Prop44ColorRGB
 90
      255
102
RTVSPost2010PropOp44
 70
     1
102
RTVSPost2010Prop45
280
     0
102
RTVSPost2010PropOp45
 70
     1
102
RTVSPost2010Prop46
 90
       50
102
RTVSPost2010PropOp46
 70
     1
102
RTVSPost2010Prop47
 90
       50
102
RTVSPost2010PropOp47
 70
     1
102
RTVSPost2010Prop48
 90
       50
102
RTVSPost2010PropOp48
 70
     1
102
RTVSPost2010Prop49
280
     0
102
RTVSPost2010PropOp49
 70
     1
102
RTVSPost2010Prop50
 90
       50
102
RTVSPost2010PropOp50
 70
     1
102
RTVSPost2010Prop51ColorIndex
 90
      256
102
RTVSPost2010Prop51ColorRGB
 90
-16777216
102
RTVSPost2010PropOp51
 70
     0
102
RTVSPost2010Prop52
140
1.0
102
RTVSPost2010PropOp52
 70
     0
102
RTVSPost2010Prop53
 90
        2
102
RTVSPost2010PropOp53
 70
     1
102
RTVSPost2010Prop54
  1
strokes_ogs.tif
102
RTVSPost2010PropOp54
 70
     1
102
RTVSPost2010Prop55
280
     0
102
RTVSPost2010PropOp55
 70
     1
102
RTVSPost2010Prop56
140
1.0
102
RTVSPost2010PropOp56
 70
     1
102
RTVSPost2010Prop57
140
1.0
102
RTVSPost2010PropOp57
 70
     1
102
RTVSPropertyOp0
 70
     1
102
RTVSPropertyOp1
 70
     1
102
RTVSPropertyOp2
 70
     1
102
RTVSPropertyOp3
 70
     1
102
RTVSPropertyOp4
 70
     1
102
RTVSPropertyOp5
 70
     1
102
RTVSPropertyOp6
 70
     1
102
RTVSPropertyOp7
 70
     1
102
RTVSPropertyOp8
 70
     1
102
RTVSPropertyOp9
 70
     1
102
RTVSPropertyOp10
 70
     1
102
RTVSPropertyOp11
 70
     1
102
RTVSPropertyOp12
 70
     1
102
RTVSPropertyOp13
 70
     1
102
RTVSPropertyOp14
 70
     1
102
RTVSPropertyOp15
 70
     1
102
RTVSPropertyOp16
 70
     1
102
RTVSPropertyOp17
 70
     1
102
RTVSPropertyOp18
 70
     1
102
RTVSPropertyOp19
 70
     1
102
RTVSPropertyOp20
 70
     1
102
RTVSPropertyOp21
 70
     1
102
RTVSPropertyOp22
 70
     1
102
RTVSPropertyOp23
 70
     1
102
RTVSPropertyOp24
 70
     1
102
RTVSPropertyOp25
 70
     1
102
RTVSPropertyOp26
 70
     1
102
RTVSPropertyOp27
 70
     1
102
RTVSPropertyOp28
 70
     1
102
RTVSPropertyOp29
 70
     1
102
RTVSPropertyOp30
 70
     1
102
RTVSPropertyOp31
 70
     1
102
RTVSPropertyOp32
 70
     1
102
RTVSPropertyOp33
 70
     1
102
RTVSPropertyOp34
 70
     1
102
RTVSPropertyOp35
 70
     1
102
RTVSPropertyOp36
 70
     1
102
RTVSPropertyOp37
 70
     1
102
RTVSPropertyOp38
 70
     1
102
RTVSPropertyOp39
 70
     1
102
RTVSPropertyOp40
 70
     1
102
RTVSPropertyOp41
 70
     1
102
RTVSPropertyOp42
 70
     1
102
RTVSPropertyOp43
 70
     1
102
RTVSPropertyOp44
 70
     1
102
RTVSPropertyOp45
 70
     1
102
RTVSPropertyOp46
 70
     1
102
RTVSPropertyOp47
 70
     1
102
RTVSPropertyOp48
 70
     1
102
RTVSPropertyOp49
 70
     1
102
RTVSPropertyOp50
 70
     1
102
RTVSPropertyOp51
 70
     0
102
RTVSPropertyOp52
 70
     0
102
RTVSPropertyOp53
 70
     1
102
RTVSPropertyOp54
 70
     1
102
RTVSPropertyOp55
 70
     1
102
RTVSPropertyOp56
 70
     1
102
RTVSPropertyOp57
 70
     1
102
RTVSPropertyOp58
 70
     1
102
RTVSPropertyOp59
 70
     1
102
RTVSPropertyOp60
 70
     1
102
RTVSPropertyOp61
 70
     1
102
RTVSPropertyOp62
 70
     1
  0
XRECORD
  5
CA63
102
{ACAD_REACTORS
330
CA62
102
}
330
CA62
100
AcDbXrecord
280
     1
102
RTVSPost2010Prop28
280
     0
102
RTVSPost2010PropOp28
 70
     1
102
RTVSPost2010Prop29
280
     1
102
RTVSPost2010PropOp29
 70
     1
102
RTVSPost2010Prop30
280
     1
102
RTVSPost2010PropOp30
 70
     1
102
RTVSPost2010Prop31
280
     0
102
RTVSPost2010PropOp31
 70
     1
102
RTVSPost2010Prop32
280
     0
102
RTVSPost2010PropOp32
 70
     1
102
RTVSPost2010Prop33
280
     0
102
RTVSPost2010PropOp33
 70
     1
102
RTVSPost2010Prop34
280
     0
102
RTVSPost2010PropOp34
 70
     1
102
RTVSPost2010Prop35
280
     0
102
RTVSPost2010PropOp35
 70
     1
102
RTVSPost2010Prop36
280
     0
102
RTVSPost2010PropOp36
 70
     1
102
RTVSPost2010Prop37
 90
       50
102
RTVSPost2010PropOp37
 70
     1
102
RTVSPost2010Prop38
140
0.0
102
RTVSPost2010PropOp38
 70
     1
102
RTVSPost2010Prop39
140
1.0
102
RTVSPost2010PropOp39
 70
     1
102
RTVSPost2010Prop40
 90
        0
102
RTVSPost2010PropOp40
 70
     1
102
RTVSPost2010Prop41ColorIndex
 90
       18
102
RTVSPost2010Prop41ColorRGB
 90
        0
102
RTVSPost2010PropOp41
 70
     1
102
RTVSPost2010Prop42
 90
       50
102
RTVSPost2010PropOp42
 70
     1
102
RTVSPost2010Prop43
 90
        3
102
RTVSPost2010PropOp43
 70
     1
102
RTVSPost2010Prop44ColorIndex
 90
        5
102
RTVSPost2010Prop44ColorRGB
 90
      255
102
RTVSPost2010PropOp44
 70
     1
102
RTVSPost2010Prop45
280
     0
102
RTVSPost2010PropOp45
 70
     1
102
RTVSPost2010Prop46
 90
       50
102
RTVSPost2010PropOp46
 70
     1
102
RTVSPost2010Prop47
 90
       50
102
RTVSPost2010PropOp47
 70
     1
102
RTVSPost2010Prop48
 90
       50
102
RTVSPost2010PropOp48
 70
     1
102
RTVSPost2010Prop49
280
     0
102
RTVSPost2010PropOp49
 70
     1
102
RTVSPost2010Prop50
 90
       50
102
RTVSPost2010PropOp50
 70
     1
102
RTVSPost2010Prop51ColorIndex
 90
      256
102
RTVSPost2010Prop51ColorRGB
 90
-16777216
102
RTVSPost2010PropOp51
 70
     0
102
RTVSPost2010Prop52
140
1.0
102
RTVSPost2010PropOp52
 70
     0
102
RTVSPost2010Prop53
 90
        2
102
RTVSPost2010PropOp53
 70
     1
102
RTVSPost2010Prop54
  1
strokes_ogs.tif
102
RTVSPost2010PropOp54
 70
     1
102
RTVSPost2010Prop55
280
     0
102
RTVSPost2010PropOp55
 70
     1
102
RTVSPost2010Prop56
140
1.0
102
RTVSPost2010PropOp56
 70
     1
102
RTVSPost2010Prop57
140
1.0
102
RTVSPost2010PropOp57
 70
     1
102
RTVSPropertyOp0
 70
     1
102
RTVSPropertyOp1
 70
     1
102
RTVSPropertyOp2
 70
     1
102
RTVSPropertyOp3
 70
     1
102
RTVSPropertyOp4
 70
     1
102
RTVSPropertyOp5
 70
     1
102
RTVSPropertyOp6
 70
     1
102
RTVSPropertyOp7
 70
     1
102
RTVSPropertyOp8
 70
     1
102
RTVSPropertyOp9
 70
     1
102
RTVSPropertyOp10
 70
     1
102
RTVSPropertyOp11
 70
     1
102
RTVSPropertyOp12
 70
     1
102
RTVSPropertyOp13
 70
     1
102
RTVSPropertyOp14
 70
     1
102
RTVSPropertyOp15
 70
     1
102
RTVSPropertyOp16
 70
     1
102
RTVSPropertyOp17
 70
     1
102
RTVSPropertyOp18
 70
     1
102
RTVSPropertyOp19
 70
     1
102
RTVSPropertyOp20
 70
     1
102
RTVSPropertyOp21
 70
     1
102
RTVSPropertyOp22
 70
     1
102
RTVSPropertyOp23
 70
     1
102
RTVSPropertyOp24
 70
     1
102
RTVSPropertyOp25
 70
     1
102
RTVSPropertyOp26
 70
     1
102
RTVSPropertyOp27
 70
     1
102
RTVSPropertyOp28
 70
     1
102
RTVSPropertyOp29
 70
     1
102
RTVSPropertyOp30
 70
     1
102
RTVSPropertyOp31
 70
     1
102
RTVSPropertyOp32
 70
     1
102
RTVSPropertyOp33
 70
     1
102
RTVSPropertyOp34
 70
     1
102
RTVSPropertyOp35
 70
     1
102
RTVSPropertyOp36
 70
     1
102
RTVSPropertyOp37
 70
     1
102
RTVSPropertyOp38
 70
     1
102
RTVSPropertyOp39
 70
     1
102
RTVSPropertyOp40
 70
     1
102
RTVSPropertyOp41
 70
     1
102
RTVSPropertyOp42
 70
     1
102
RTVSPropertyOp43
 70
     1
102
RTVSPropertyOp44
 70
     1
102
RTVSPropertyOp45
 70
     1
102
RTVSPropertyOp46
 70
     1
102
RTVSPropertyOp47
 70
     1
102
RTVSPropertyOp48
 70
     1
102
RTVSPropertyOp49
 70
     1
102
RTVSPropertyOp50
 70
     1
102
RTVSPropertyOp51
 70
     0
102
RTVSPropertyOp52
 70
     0
102
RTVSPropertyOp53
 70
     1
102
RTVSPropertyOp54
 70
     1
102
RTVSPropertyOp55
 70
     1
102
RTVSPropertyOp56
 70
     1
102
RTVSPropertyOp57
 70
     1
102
RTVSPropertyOp58
 70
     1
102
RTVSPropertyOp59
 70
     1
102
RTVSPropertyOp60
 70
     1
102
RTVSPropertyOp61
 70
     1
102
RTVSPropertyOp62
 70
     1
  0
XRECORD
  5
CA7B
102
{ACAD_REACTORS
330
CA7A
102
}
330
CA7A
100
AcDbXrecord
280
     1
102
RTVSPost2010Prop28
280
     0
102
RTVSPost2010PropOp28
 70
     1
102
RTVSPost2010Prop29
280
     1
102
RTVSPost2010PropOp29
 70
     1
102
RTVSPost2010Prop30
280
     1
102
RTVSPost2010PropOp30
 70
     1
102
RTVSPost2010Prop31
280
     0
102
RTVSPost2010PropOp31
 70
     1
102
RTVSPost2010Prop32
280
     0
102
RTVSPost2010PropOp32
 70
     1
102
RTVSPost2010Prop33
280
     0
102
RTVSPost2010PropOp33
 70
     1
102
RTVSPost2010Prop34
280
     0
102
RTVSPost2010PropOp34
 70
     1
102
RTVSPost2010Prop35
280
     0
102
RTVSPost2010PropOp35
 70
     1
102
RTVSPost2010Prop36
280
     0
102
RTVSPost2010PropOp36
 70
     1
102
RTVSPost2010Prop37
 90
       50
102
RTVSPost2010PropOp37
 70
     1
102
RTVSPost2010Prop38
140
0.0
102
RTVSPost2010PropOp38
 70
     1
102
RTVSPost2010Prop39
140
1.0
102
RTVSPost2010PropOp39
 70
     1
102
RTVSPost2010Prop40
 90
        0
102
RTVSPost2010PropOp40
 70
     1
102
RTVSPost2010Prop41ColorIndex
 90
       18
102
RTVSPost2010Prop41ColorRGB
 90
        0
102
RTVSPost2010PropOp41
 70
     1
102
RTVSPost2010Prop42
 90
       50
102
RTVSPost2010PropOp42
 70
     1
102
RTVSPost2010Prop43
 90
        3
102
RTVSPost2010PropOp43
 70
     1
102
RTVSPost2010Prop44ColorIndex
 90
        5
102
RTVSPost2010Prop44ColorRGB
 90
      255
102
RTVSPost2010PropOp44
 70
     1
102
RTVSPost2010Prop45
280
     0
102
RTVSPost2010PropOp45
 70
     1
102
RTVSPost2010Prop46
 90
       50
102
RTVSPost2010PropOp46
 70
     1
102
RTVSPost2010Prop47
 90
       50
102
RTVSPost2010PropOp47
 70
     1
102
RTVSPost2010Prop48
 90
       50
102
RTVSPost2010PropOp48
 70
     1
102
RTVSPost2010Prop49
280
     0
102
RTVSPost2010PropOp49
 70
     1
102
RTVSPost2010Prop50
 90
       50
102
RTVSPost2010PropOp50
 70
     1
102
RTVSPost2010Prop51ColorIndex
 90
      256
102
RTVSPost2010Prop51ColorRGB
 90
-16777216
102
RTVSPost2010PropOp51
 70
     0
102
RTVSPost2010Prop52
140
1.0
102
RTVSPost2010PropOp52
 70
     0
102
RTVSPost2010Prop53
 90
        2
102
RTVSPost2010PropOp53
 70
     1
102
RTVSPost2010Prop54
  1
strokes_ogs.tif
102
RTVSPost2010PropOp54
 70
     1
102
RTVSPost2010Prop55
280
     0
102
RTVSPost2010PropOp55
 70
     1
102
RTVSPost2010Prop56
140
1.0
102
RTVSPost2010PropOp56
 70
     1
102
RTVSPost2010Prop57
140
1.0
102
RTVSPost2010PropOp57
 70
     1
102
RTVSPropertyOp0
 70
     1
102
RTVSPropertyOp1
 70
     1
102
RTVSPropertyOp2
 70
     1
102
RTVSPropertyOp3
 70
     1
102
RTVSPropertyOp4
 70
     1
102
RTVSPropertyOp5
 70
     1
102
RTVSPropertyOp6
 70
     1
102
RTVSPropertyOp7
 70
     1
102
RTVSPropertyOp8
 70
     1
102
RTVSPropertyOp9
 70
     1
102
RTVSPropertyOp10
 70
     1
102
RTVSPropertyOp11
 70
     1
102
RTVSPropertyOp12
 70
     1
102
RTVSPropertyOp13
 70
     1
102
RTVSPropertyOp14
 70
     1
102
RTVSPropertyOp15
 70
     1
102
RTVSPropertyOp16
 70
     1
102
RTVSPropertyOp17
 70
     1
102
RTVSPropertyOp18
 70
     1
102
RTVSPropertyOp19
 70
     1
102
RTVSPropertyOp20
 70
     1
102
RTVSPropertyOp21
 70
     1
102
RTVSPropertyOp22
 70
     1
102
RTVSPropertyOp23
 70
     1
102
RTVSPropertyOp24
 70
     1
102
RTVSPropertyOp25
 70
     1
102
RTVSPropertyOp26
 70
     1
102
RTVSPropertyOp27
 70
     1
102
RTVSPropertyOp28
 70
     1
102
RTVSPropertyOp29
 70
     1
102
RTVSPropertyOp30
 70
     1
102
RTVSPropertyOp31
 70
     1
102
RTVSPropertyOp32
 70
     1
102
RTVSPropertyOp33
 70
     1
102
RTVSPropertyOp34
 70
     1
102
RTVSPropertyOp35
 70
     1
102
RTVSPropertyOp36
 70
     1
102
RTVSPropertyOp37
 70
     1
102
RTVSPropertyOp38
 70
     1
102
RTVSPropertyOp39
 70
     1
102
RTVSPropertyOp40
 70
     1
102
RTVSPropertyOp41
 70
     1
102
RTVSPropertyOp42
 70
     1
102
RTVSPropertyOp43
 70
     1
102
RTVSPropertyOp44
 70
     1
102
RTVSPropertyOp45
 70
     1
102
RTVSPropertyOp46
 70
     1
102
RTVSPropertyOp47
 70
     1
102
RTVSPropertyOp48
 70
     1
102
RTVSPropertyOp49
 70
     1
102
RTVSPropertyOp50
 70
     1
102
RTVSPropertyOp51
 70
     0
102
RTVSPropertyOp52
 70
     0
102
RTVSPropertyOp53
 70
     1
102
RTVSPropertyOp54
 70
     1
102
RTVSPropertyOp55
 70
     1
102
RTVSPropertyOp56
 70
     1
102
RTVSPropertyOp57
 70
     1
102
RTVSPropertyOp58
 70
     1
102
RTVSPropertyOp59
 70
     1
102
RTVSPropertyOp60
 70
     1
102
RTVSPropertyOp61
 70
     1
102
RTVSPropertyOp62
 70
     1
  0
ENDSEC
  0
EOF
