  0
SECTION
  2
HEADER
  9
$ACADVER
  1
AC1015
  9
$ACADMAINTVER
 70
    20
  9
$DWGCODEPAGE
  3
ANSI_932
  9
$INSBASE
 10
0.0
 20
0.0
 30
0.0
  9
$EXTMIN
 10
10.0
 20
9.999999999999998
 30
0.0
  9
$EXTMAX
 10
468.255519
 20
352.295657
 30
0.0
  9
$LIMMIN
 10
0.0
 20
0.0
  9
$LIMMAX
 10
554.3999999999998
 20
382.2
  9
$ORTHOMODE
 70
     1
  9
$REGENMODE
 70
     1
  9
$FILLMODE
 70
     1
  9
$QTEXTMODE
 70
     0
  9
$MIRRTEXT
 70
     1
  9
$LTSCALE
 40
20.0
  9
$ATTMODE
 70
     1
  9
$TEXTSIZE
 40
5.0
  9
$TRACEWID
 40
1.0
  9
$TEXTSTYLE
  7
STANDARD
  9
$CLAYER
  8
0
  9
$CELTYPE
  6
BYLAYER
  9
$CECOLOR
 62
   256
  9
$CELTSCALE
 40
1.0
  9
$DISPSILH
 70
     0
  9
$DIMSCALE
 40
1.0
  9
$DIMASZ
 40
3.0
  9
$DIMEXO
 40
1.0
  9
$DIMDLI
 40
10.0
  9
$DIMRND
 40
0.0
  9
$DIMDLE
 40
0.0
  9
$DIMEXE
 40
1.0
  9
$DIMTP
 40
0.0
  9
$DIMTM
 40
0.0
  9
$DIMTXT
 40
2.5
  9
$DIMCEN
 40
0.0
  9
$DIMTSZ
 40
0.0
  9
$DIMTOL
 70
     0
  9
$DIMLIM
 70
     0
  9
$DIMTIH
 70
     0
  9
$DIMTOH
 70
     0
  9
$DIMSE1
 70
     0
  9
$DIMSE2
 70
     0
  9
$DIMTAD
 70
     3
  9
$DIMZIN
 70
     8
  9
$DIMBLK
  1

  9
$DIMASO
 70
     1
  9
$DIMSHO
 70
     1
  9
$DIMPOST
  1

  9
$DIMAPOST
  1

  9
$DIMALT
 70
     0
  9
$DIMALTD
 70
     2
  9
$DIMALTF
 40
25.4
  9
$DIMLFAC
 40
1.0
  9
$DIMTOFL
 70
     1
  9
$DIMTVP
 40
0.0
  9
$DIMTIX
 70
     0
  9
$DIMSOXD
 70
     0
  9
$DIMSAH
 70
     1
  9
$DIMBLK1
  1
OPEN
  9
$DIMBLK2
  1
OPEN
  9
$DIMSTYLE
  2
STANDARD
  9
$DIMCLRD
 70
     0
  9
$DIMCLRE
 70
     0
  9
$DIMCLRT
 70
     0
  9
$DIMTFAC
 40
1.0
  9
$DIMGAP
 40
1.0
  9
$DIMJUST
 70
     0
  9
$DIMSD1
 70
     0
  9
$DIMSD2
 70
     0
  9
$DIMTOLJ
 70
     1
  9
$DIMTZIN
 70
     0
  9
$DIMALTZ
 70
     0
  9
$DIMALTTZ
 70
     0
  9
$DIMUPT
 70
     0
  9
$DIMDEC
 70
     4
  9
$DIMTDEC
 70
     4
  9
$DIMALTU
 70
     2
  9
$DIMALTTD
 70
     2
  9
$DIMTXSTY
  7
STANDARD
  9
$DIMAUNIT
 70
     0
  9
$DIMADEC
 70
     0
  9
$DIMALTRND
 40
0.0
  9
$DIMAZIN
 70
     0
  9
$DIMDSEP
 70
    46
  9
$DIMATFIT
 70
     3
  9
$DIMFRAC
 70
     0
  9
$DIMLDRBLK
  1
OPEN
  9
$DIMLUNIT
 70
     2
  9
$DIMLWD
 70
    -2
  9
$DIMLWE
 70
    -2
  9
$DIMTMOVE
 70
     0
  9
$LUNITS
 70
     2
  9
$LUPREC
 70
     4
  9
$SKETCHINC
 40
1.0
  9
$FILLETRAD
 40
0.0
  9
$AUNITS
 70
     0
  9
$AUPREC
 70
     2
  9
$MENU
  1
.
  9
$ELEVATION
 40
0.0
  9
$PELEVATION
 40
0.0
  9
$THICKNESS
 40
0.0
  9
$LIMCHECK
 70
     0
  9
$CHAMFERA
 40
10.0
  9
$CHAMFERB
 40
10.0
  9
$CHAMFERC
 40
0.0
  9
$CHAMFERD
 40
0.0
  9
$SKPOLY
 70
     0
  9
$TDCREATE
 40
2451301.395590046
  9
$TDUCREATE
 40
2451301.020590046
  9
$TDUPDATE
 40
2457192.686508820
  9
$TDUUPDATE
 40
2457192.311508820
  9
$TDINDWG
 40
0.0250620023
  9
$TDUSRTIMER
 40
0.0250614931
  9
$USRTIMER
 70
     1
  9
$ANGBASE
 50
0.0
  9
$ANGDIR
 70
     0
  9
$PDMODE
 70
     0
  9
$PDSIZE
 40
0.0
  9
$PLINEWID
 40
0.0
  9
$SPLFRAME
 70
     0
  9
$SPLINETYPE
 70
     6
  9
$SPLINESEGS
 70
     8
  9
$HANDSEED
  5
CC03
  9
$SURFTAB1
 70
     6
  9
$SURFTAB2
 70
     6
  9
$SURFTYPE
 70
     6
  9
$SURFU
 70
     6
  9
$SURFV
 70
     6
  9
$UCSBASE
  2

  9
$UCSNAME
  2

  9
$UCSORG
 10
0.0
 20
0.0
 30
0.0
  9
$UCSXDIR
 10
1.0
 20
0.0
 30
0.0
  9
$UCSYDIR
 10
0.0
 20
1.0
 30
0.0
  9
$UCSORTHOREF
  2

  9
$UCSORTHOVIEW
 70
     0
  9
$UCSORGTOP
 10
0.0
 20
0.0
 30
0.0
  9
$UCSORGBOTTOM
 10
0.0
 20
0.0
 30
0.0
  9
$UCSORGLEFT
 10
0.0
 20
0.0
 30
0.0
  9
$UCSORGRIGHT
 10
0.0
 20
0.0
 30
0.0
  9
$UCSORGFRONT
 10
0.0
 20
0.0
 30
0.0
  9
$UCSORGBACK
 10
0.0
 20
0.0
 30
0.0
  9
$PUCSBASE
  2

  9
$PUCSNAME
  2

  9
$PUCSORG
 10
0.0
 20
0.0
 30
0.0
  9
$PUCSXDIR
 10
1.0
 20
0.0
 30
0.0
  9
$PUCSYDIR
 10
0.0
 20
1.0
 30
0.0
  9
$PUCSORTHOREF
  2

  9
$PUCSORTHOVIEW
 70
     0
  9
$PUCSORGTOP
 10
0.0
 20
0.0
 30
0.0
  9
$PUCSORGBOTTOM
 10
0.0
 20
0.0
 30
0.0
  9
$PUCSORGLEFT
 10
0.0
 20
0.0
 30
0.0
  9
$PUCSORGRIGHT
 10
0.0
 20
0.0
 30
0.0
  9
$PUCSORGFRONT
 10
0.0
 20
0.0
 30
0.0
  9
$PUCSORGBACK
 10
0.0
 20
0.0
 30
0.0
  9
$USERI1
 70
     0
  9
$USERI2
 70
     0
  9
$USERI3
 70
     0
  9
$USERI4
 70
     0
  9
$USERI5
 70
     0
  9
$USERR1
 40
0.0
  9
$USERR2
 40
0.0
  9
$USERR3
 40
0.0
  9
$USERR4
 40
0.0
  9
$USERR5
 40
0.0
  9
$WORLDVIEW
 70
     1
  9
$SHADEDGE
 70
     3
  9
$SHADEDIF
 70
    70
  9
$TILEMODE
 70
     1
  9
$MAXACTVP
 70
    16
  9
$PINSBASE
 10
0.0
 20
0.0
 30
0.0
  9
$PLIMCHECK
 70
     0
  9
$PEXTMIN
 10
1.000000000000000E+20
 20
1.000000000000000E+20
 30
1.000000000000000E+20
  9
$PEXTMAX
 10
-1.000000000000000E+20
 20
-1.000000000000000E+20
 30
-1.000000000000000E+20
  9
$PLIMMIN
 10
0.0
 20
0.0
  9
$PLIMMAX
 10
420.0
 20
297.0
  9
$UNITMODE
 70
     0
  9
$VISRETAIN
 70
     0
  9
$PLINEGEN
 70
     0
  9
$PSLTSCALE
 70
     0
  9
$TREEDEPTH
 70
  3020
  9
$CMLSTYLE
  2
STANDARD
  9
$CMLJUST
 70
     0
  9
$CMLSCALE
 40
1.0
  9
$PROXYGRAPHICS
 70
     1
  9
$MEASUREMENT
 70
     0
  9
$CELWEIGHT
370
    -1
  9
$ENDCAPS
280
     0
  9
$JOINSTYLE
280
     0
  9
$LWDISPLAY
290
     0
  9
$INSUNITS
 70
     0
  9
$HYPERLINKBASE
  1

  9
$STYLESHEET
  1

  9
$XEDIT
290
     1
  9
$CEPSNTYPE
380
     0
  9
$PSTYLEMODE
290
     1
  9
$FINGERPRINTGUID
  2
{39442155-24F0-4B08-ADA7-9773CA990E21}
  9
$VERSIONGUID
  2
{D24278D6-8599-44EF-8489-23DC5F479133}
  9
$EXTNAMES
290
     1
  9
$PSVPSCALE
 40
0.0
  9
$OLESTARTUP
290
     0
  0
ENDSEC
  0
SECTION
  2
CLASSES
  0
CLASS
  1
ACDBDICTIONARYWDFLT
  2
AcDbDictionaryWithDefault
  3
ObjectDBX Classes
 90
        0
280
     0
281
     0
  0
CLASS
  1
ACDBPLACEHOLDER
  2
AcDbPlaceHolder
  3
ObjectDBX Classes
 90
        0
280
     0
281
     0
  0
CLASS
  1
LAYOUT
  2
AcDbLayout
  3
ObjectDBX Classes
 90
        0
280
     0
281
     0
  0
CLASS
  1
DICTIONARYVAR
  2
AcDbDictionaryVar
  3
ObjectDBX Classes
 90
        0
280
     0
281
     0
  0
CLASS
  1
MATERIAL
  2
AcDbMaterial
  3
ObjectDBX Classes
 90
     1153
280
     0
281
     0
  0
CLASS
  1
VISUALSTYLE
  2
AcDbVisualStyle
  3
ObjectDBX Classes
 90
     4095
280
     0
281
     0
  0
CLASS
  1
TABLESTYLE
  2
AcDbTableStyle
  3
ObjectDBX Classes
 90
     4095
280
     0
281
     0
  0
CLASS
  1
SCALE
  2
AcDbScale
  3
ObjectDBX Classes
 90
     1153
280
     0
281
     0
  0
CLASS
  1
MLEADERSTYLE
  2
AcDbMLeaderStyle
  3
ACDB_MLEADERSTYLE_CLASS
 90
     4095
280
     0
281
     0
  0
CLASS
  1
ACDBSECTIONVIEWSTYLE
  2
AcDbSectionViewStyle
  3
ObjectDBX Classes
 90
     1025
280
     0
281
     0
  0
CLASS
  1
ACDBDETAILVIEWSTYLE
  2
AcDbDetailViewStyle
  3
ObjectDBX Classes
 90
     1025
280
     0
281
     0
  0
CLASS
  1
CELLSTYLEMAP
  2
AcDbCellStyleMap
  3
ObjectDBX Classes
 90
     1152
280
     0
281
     0
  0
ENDSEC
  0
SECTION
  2
TABLES
  0
TABLE
  2
VPORT
  5
C7FF
330
0
100
AcDbSymbolTable
 70
     1
  0
VPORT
  5
CB4C
330
C7FF
100
AcDbSymbolTableRecord
100
AcDbViewportTableRecord
  2
*ACTIVE
 70
     0
 10
0.0
 20
0.0
 11
1.0
 21
1.0
 12
342.7977350237963
 22
181.1565957269358
 13
0.0
 23
0.0
 14
10.0
 24
10.0
 15
10.0
 25
10.0
 16
0.0
 26
0.0
 36
1.0
 17
0.0
 27
0.0
 37
0.0
 40
346.1157546443526
 41
2.35006605019815
 42
50.0
 43
0.0
 44
0.0
 50
0.0
 51
0.0
 71
     0
 72
   100
 73
     1
 74
     0
 75
     0
 76
     0
 77
     0
 78
     0
281
     0
 65
     1
110
0.0
120
0.0
130
0.0
111
1.0
121
0.0
131
0.0
112
0.0
122
1.0
132
0.0
 79
     0
146
0.0
1001
ACAD_NAV_VCDISPLAY
1070
     3
  0
ENDTAB
  0
TABLE
  2
LTYPE
  5
C7FC
330
0
100
AcDbSymbolTable
 70
     4
  0
LTYPE
  5
C80A
330
C7FC
100
AcDbSymbolTableRecord
100
AcDbLinetypeTableRecord
  2
BYBLOCK
 70
     0
  3

 72
    65
 73
     0
 40
0.0
  0
LTYPE
  5
C80B
330
C7FC
100
AcDbSymbolTableRecord
100
AcDbLinetypeTableRecord
  2
BYLAYER
 70
     0
  3

 72
    65
 73
     0
 40
0.0
  0
LTYPE
  5
C80C
330
C7FC
100
AcDbSymbolTableRecord
100
AcDbLinetypeTableRecord
  2
CONTINUOUS
 70
     0
  3
Solid line
 72
    65
 73
     0
 40
0.0
  0
LTYPE
  5
C81A
330
C7FC
100
AcDbSymbolTableRecord
100
AcDbLinetypeTableRecord
  2
DASHED
 70
     0
  3
__ __ __ __ __ __ __ __ __ __ __ __ __ __ __ __
 72
    65
 73
     2
 40
0.75
 49
0.5
 74
     0
 49
-0.25
 74
     0
  0
LTYPE
  5
C81B
330
C7FC
100
AcDbSymbolTableRecord
100
AcDbLinetypeTableRecord
  2
CENTER
 70
     0
  3
____ _ ____ _ ____ _ ____ _ ____ _ ____ _ ____ 
 72
    65
 73
     4
 40
2.0
 49
1.25
 74
     0
 49
-0.25
 74
     0
 49
0.25
 74
     0
 49
-0.25
 74
     0
  0
LTYPE
  5
C81C
330
C7FC
100
AcDbSymbolTableRecord
100
AcDbLinetypeTableRecord
  2
PHANTOM
 70
     0
  3
______  __  __  ______  __  __  ______  __  __ 
 72
    65
 73
     6
 40
2.5
 49
1.25
 74
     0
 49
-0.25
 74
     0
 49
0.25
 74
     0
 49
-0.25
 74
     0
 49
0.25
 74
     0
 49
-0.25
 74
     0
  0
ENDTAB
  0
TABLE
  2
LAYER
  5
C7F9
330
0
100
AcDbSymbolTable
 70
     8
  0
LAYER
  5
C807
102
{ACAD_XDICTIONARY
360
CBA7
102
}
330
C7F9
100
AcDbSymbolTableRecord
100
AcDbLayerTableRecord
  2
0
 70
     0
 62
     7
  6
CONTINUOUS
370
    -3
390
CB55
  0
LAYER
  5
C81D
102
{ACAD_XDICTIONARY
360
CBA9
102
}
330
C7F9
100
AcDbSymbolTableRecord
100
AcDbLayerTableRecord
  2
4
 70
     0
 62
     1
  6
CENTER
370
    -3
390
CB55
  0
LAYER
  5
C81E
102
{ACAD_XDICTIONARY
360
CBAB
102
}
330
C7F9
100
AcDbSymbolTableRecord
100
AcDbLayerTableRecord
  2
5
 70
     0
 62
     6
  6
PHANTOM
370
    -3
390
CB55
  0
LAYER
  5
C81F
102
{ACAD_XDICTIONARY
360
CBAD
102
}
330
C7F9
100
AcDbSymbolTableRecord
100
AcDbLayerTableRecord
  2
1
 70
     0
 62
     7
  6
CONTINUOUS
370
    -3
390
CB55
  0
LAYER
  5
C820
102
{ACAD_XDICTIONARY
360
CBAF
102
}
330
C7F9
100
AcDbSymbolTableRecord
100
AcDbLayerTableRecord
  2
2
 70
     0
 62
     4
  6
CONTINUOUS
370
    -3
390
CB55
  0
LAYER
  5
C821
102
{ACAD_XDICTIONARY
360
CBB1
102
}
330
C7F9
100
AcDbSymbolTableRecord
100
AcDbLayerTableRecord
  2
3
 70
     0
 62
     2
  6
DASHED
370
    -3
390
CB55
  0
LAYER
  5
C822
102
{ACAD_XDICTIONARY
360
CBB3
102
}
330
C7F9
100
AcDbSymbolTableRecord
100
AcDbLayerTableRecord
  2
6
 70
     0
 62
     5
  6
CONTINUOUS
370
    -3
390
CB55
  0
LAYER
  5
C823
102
{ACAD_XDICTIONARY
360
CBB5
102
}
330
C7F9
100
AcDbSymbolTableRecord
100
AcDbLayerTableRecord
  2
7
 70
     0
 62
     3
  6
CONTINUOUS
370
    -3
390
CB55
  0
ENDTAB
  0
TABLE
  2
STYLE
  5
C7FA
330
0
100
AcDbSymbolTable
 70
     1
  0
STYLE
  5
C808
330
C7FA
100
AcDbSymbolTableRecord
100
AcDbTextStyleTableRecord
  2
STANDARD
 70
     0
 40
0.0
 41
1.0
 50
0.0
 71
     0
 42
5.0
  3
txt
  4

  0
ENDTAB
  0
TABLE
  2
VIEW
  5
C7FD
330
0
100
AcDbSymbolTable
 70
     0
  0
ENDTAB
  0
TABLE
  2
UCS
  5
C7FE
330
0
100
AcDbSymbolTable
 70
     0
  0
ENDTAB
  0
TABLE
  2
APPID
  5
C800
330
0
100
AcDbSymbolTable
 70
     3
  0
APPID
  5
C809
330
C800
100
AcDbSymbolTableRecord
100
AcDbRegAppTableRecord
  2
ACAD
 70
     0
  0
APPID
  5
CBC1
330
C800
100
AcDbSymbolTableRecord
100
AcDbRegAppTableRecord
  2
ACAD_NAV_VCDISPLAY
 70
     0
  0
APPID
  5
CBFA
330
C800
100
AcDbSymbolTableRecord
100
AcDbRegAppTableRecord
  2
ACAD_MLEADERVER
 70
     0
  0
ENDTAB
  0
TABLE
  2
DIMSTYLE
  5
C801
330
0
100
AcDbSymbolTable
 70
     1
100
AcDbDimStyleTable
 71
     0
  0
DIMSTYLE
105
C825
330
C801
100
AcDbSymbolTableRecord
100
AcDbDimStyleTableRecord
  2
STANDARD
 70
     0
 41
3.0
 42
1.0
 43
10.0
 44
1.0
 73
     0
 74
     0
 77
     3
 78
     8
140
2.5
141
0.0
147
1.0
172
     1
173
     1
284
     8
285
     8
286
     8
340
C808
  0
ENDTAB
  0
TABLE
  2
BLOCK_RECORD
  5
C7F8
330
0
100
AcDbSymbolTable
 70
     1
  0
BLOCK_RECORD
  5
C815
102
{ACAD_XDICTIONARY
360
CB4F
102
}
330
C7F8
100
AcDbSymbolTableRecord
100
AcDbBlockTableRecord
  2
*MODEL_SPACE
340
CBA3
  0
BLOCK_RECORD
  5
C811
102
{ACAD_XDICTIONARY
360
CB4D
102
}
330
C7F8
100
AcDbSymbolTableRecord
100
AcDbBlockTableRecord
  2
*PAPER_SPACE
340
CBA4
  0
BLOCK_RECORD
  5
C82D
330
C7F8
100
AcDbSymbolTableRecord
100
AcDbBlockTableRecord
  2
_OPEN
340
0
  0
ENDTAB
  0
ENDSEC
  0
SECTION
  2
BLOCKS
  0
BLOCK
  5
C816
330
C815
100
AcDbEntity
  8
0
100
AcDbBlockBegin
  2
*MODEL_SPACE
 70
     0
 10
0.0
 20
0.0
 30
0.0
  3
*MODEL_SPACE
  1

  0
ENDBLK
  5
C817
330
C815
100
AcDbEntity
  8
0
100
AcDbBlockEnd
  0
BLOCK
  5
C812
330
C811
100
AcDbEntity
 67
     1
  8
0
100
AcDbBlockBegin
  2
*PAPER_SPACE
 70
     0
 10
0.0
 20
0.0
 30
0.0
  3
*PAPER_SPACE
  1

  0
ENDBLK
  5
C813
330
C811
100
AcDbEntity
 67
     1
  8
0
100
AcDbBlockEnd
  0
BLOCK
  5
C82E
330
C82D
100
AcDbEntity
  8
0
100
AcDbBlockBegin
  2
_OPEN
 70
     0
 10
0.0
 20
0.0
 30
0.0
  3
_OPEN
  1

  0
LINE
  5
C82F
330
C82D
100
AcDbEntity
  8
0
  6
ByBlock
 62
     0
100
AcDbLine
 10
-1.0
 20
0.166667
 30
0.0
 11
0.0
 21
0.0
 31
0.0
  0
LINE
  5
C830
330
C82D
100
AcDbEntity
  8
0
  6
ByBlock
 62
     0
100
AcDbLine
 10
0.0
 20
0.0
 30
0.0
 11
-1.0
 21
-0.166667
 31
0.0
  0
LINE
  5
C831
330
C82D
100
AcDbEntity
  8
0
  6
ByBlock
 62
     0
100
AcDbLine
 10
0.0
 20
0.0
 30
0.0
 11
-1.0
 21
0.0
 31
0.0
  0
ENDBLK
  5
C832
330
C82D
100
AcDbEntity
  8
0
100
AcDbBlockEnd
  0
ENDSEC
  0
SECTION
  2
ENTITIES
  0
TEXT
  5
C833
330
C815
100
AcDbEntity
  8
7
  6
Continuous
100
AcDbText
 10
10.0
 20
18.0
 30
0.0
 40
3.0
  1
TYPE No.103A.F
100
AcDbText
  0
TEXT
  5
C834
330
C815
100
AcDbEntity
  8
7
  6
Continuous
100
AcDbText
 10
10.0
 20
26.0
 30
0.0
 40
3.0
  1
CODE No.9130
100
AcDbText
  0
TEXT
  5
C835
330
C815
100
AcDbEntity
  8
1
  6
Continuous
100
AcDbText
 10
10.0
 20
10.0
 30
0.0
 40
1.399999999999999
  1
LAYER
100
AcDbText
  0
TEXT
  5
C836
330
C815
100
AcDbEntity
  8
1
  6
Continuous
100
AcDbText
 10
17.97951099999998
 20
10.04873699999998
 30
0.0
 40
1.399999999999999
  1
1
100
AcDbText
  0
TEXT
  5
C837
330
C815
100
AcDbEntity
  8
7
  6
Continuous
100
AcDbText
 10
29.97951099999999
 20
10.04873699999998
 30
0.0
 40
1.399999999999999
  1
7
100
AcDbText
  0
TEXT
  5
C838
330
C815
100
AcDbEntity
  8
4
  6
CENTER
100
AcDbText
 10
23.97951099999999
 20
10.04873699999998
 30
0.0
 40
1.399999999999999
  1
4
100
AcDbText
  0
TEXT
  5
C839
330
C815
100
AcDbEntity
  8
3
  6
DASHED
100
AcDbText
 10
21.979511
 20
10.04873699999998
 30
0.0
 40
1.399999999999999
  1
3
100
AcDbText
  0
TEXT
  5
C83A
330
C815
100
AcDbEntity
  8
2
  6
Continuous
100
AcDbText
 10
19.97951099999999
 20
10.04873699999998
 30
0.0
 40
1.399999999999999
  1
2
100
AcDbText
  0
TEXT
  5
C83B
330
C815
100
AcDbEntity
  8
6
  6
Continuous
100
AcDbText
 10
27.979511
 20
10.04873699999998
 30
0.0
 40
1.399999999999999
  1
6
100
AcDbText
  0
TEXT
  5
C83C
330
C815
100
AcDbEntity
  8
5
  6
PHANTOM
100
AcDbText
 10
25.97951099999999
 20
10.04873699999998
 30
0.0
 40
1.399999999999999
  1
5
100
AcDbText
  0
LINE
  5
C83D
330
C815
100
AcDbEntity
  8
1
  6
Continuous
100
AcDbLine
 10
216.2516779999999
 20
176.210263
 30
0.0
 11
216.2516779999999
 21
172.210263
 31
0.0
  0
LINE
  5
C83E
330
C815
100
AcDbEntity
  8
1
  6
Continuous
100
AcDbLine
 10
196.2516779999999
 20
176.210263
 30
0.0
 11
196.2516779999999
 21
172.210263
 31
0.0
  0
LINE
  5
C83F
330
C815
100
AcDbEntity
  8
1
  6
Continuous
100
AcDbLine
 10
210.7516779999999
 20
176.210263
 30
0.0
 11
210.7516779999999
 21
172.210263
 31
0.0
  0
LINE
  5
C840
330
C815
100
AcDbEntity
  8
1
  6
Continuous
100
AcDbLine
 10
201.751678
 20
176.210263
 30
0.0
 11
201.751678
 21
172.210263
 31
0.0
  0
LINE
  5
C841
330
C815
100
AcDbEntity
  8
1
  6
Continuous
100
AcDbLine
 10
216.2516779999999
 20
176.210263
 30
0.0
 11
196.2516779999999
 21
176.210263
 31
0.0
  0
ARC
  5
C842
330
C815
100
AcDbEntity
  8
1
  6
Continuous
100
AcDbCircle
 10
213.5016779999999
 20
175.491513
 30
0.0
 40
4.28125
100
AcDbArc
 50
230.0337869999999
 51
309.966213
  0
ARC
  5
C843
330
C815
100
AcDbEntity
  8
1
  6
Continuous
100
AcDbCircle
 10
206.251678
 20
181.8352629999999
 30
0.0
 40
10.625
100
AcDbArc
 50
244.942385
 51
295.057615
  0
ARC
  5
C844
330
C815
100
AcDbEntity
  8
1
  6
Continuous
100
AcDbCircle
 10
199.0016779999999
 20
175.491513
 30
0.0
 40
4.28125
100
AcDbArc
 50
230.0337869999999
 51
309.966213
  0
LINE
  5
C845
330
C815
100
AcDbEntity
  8
1
  6
Continuous
100
AcDbLine
 10
213.5016779999999
 20
171.2102629999999
 30
0.0
 11
199.0016779999999
 21
171.2102629999999
 31
0.0
  0
LINE
  5
C846
330
C815
100
AcDbEntity
  8
1
  6
Continuous
100
AcDbLine
 10
211.2516779999999
 20
188.910298
 30
0.0
 11
211.2516779999999
 21
176.210263
 31
0.0
  0
LINE
  5
C847
330
C815
100
AcDbEntity
  8
1
  6
Continuous
100
AcDbLine
 10
201.2516779999999
 20
188.910298
 30
0.0
 11
201.2516779999999
 21
176.210263
 31
0.0
  0
LINE
  5
C848
330
C815
100
AcDbEntity
  8
1
  6
Continuous
100
AcDbLine
 10
209.7516779999998
 20
171.2102629999999
 30
0.0
 11
209.7516779999998
 21
170.724955
 31
0.0
  0
LINE
  5
C849
330
C815
100
AcDbEntity
  8
1
  6
Continuous
100
AcDbLine
 10
202.751678
 20
170.724955
 30
0.0
 11
202.751678
 21
171.2102629999999
 31
0.0
  0
LINE
  5
C84A
330
C815
100
AcDbEntity
  8
1
  6
Continuous
100
AcDbLine
 10
195.7516779999999
 20
170.710263
 30
0.0
 11
195.7516779999999
 21
170.2102629999999
 31
0.0
  0
LINE
  5
C84B
330
C815
100
AcDbEntity
  8
1
  6
Continuous
100
AcDbLine
 10
216.7516779999999
 20
170.710263
 30
0.0
 11
216.7516779999999
 21
170.2102629999999
 31
0.0
  0
LINE
  5
C84C
330
C815
100
AcDbEntity
  8
1
  6
Continuous
100
AcDbLine
 10
225.101678
 20
167.2102629999999
 30
0.0
 11
225.101678
 21
164.210263
 31
0.0
  0
LINE
  5
C84D
330
C815
100
AcDbEntity
  8
1
  6
Continuous
100
AcDbLine
 10
187.401678
 20
164.210263
 30
0.0
 11
187.401678
 21
167.2102629999999
 31
0.0
  0
LINE
  5
C84E
330
C815
100
AcDbEntity
  8
1
  6
Continuous
100
AcDbLine
 10
225.101678
 20
164.210263
 30
0.0
 11
187.401678
 21
164.210263
 31
0.0
  0
ARC
  5
C84F
330
C815
100
AcDbEntity
  8
1
  6
Continuous
100
AcDbCircle
 10
222.1016779999999
 20
167.2102629999999
 30
0.0
 40
3.0
100
AcDbArc
 50
0.0
 51
90.0
  0
ARC
  5
C850
330
C815
100
AcDbEntity
  8
1
  6
Continuous
100
AcDbCircle
 10
190.401678
 20
167.2102629999999
 30
0.0
 40
3.0
100
AcDbArc
 50
90.0
 51
180.0
  0
LINE
  5
C851
330
C815
100
AcDbEntity
  8
1
  6
Continuous
100
AcDbLine
 10
222.1016779999999
 20
170.2102629999999
 30
0.0
 11
190.401678
 21
170.2102629999999
 31
0.0
  0
LINE
  5
C852
330
C815
100
AcDbEntity
  8
1
  6
Continuous
100
AcDbLine
 10
223.5016779999999
 20
164.210263
 30
0.0
 11
223.5016779999999
 21
157.7102629999999
 31
0.0
  0
LINE
  5
C853
330
C815
100
AcDbEntity
  8
1
  6
Continuous
100
AcDbLine
 10
189.001678
 20
164.210263
 30
0.0
 11
189.001678
 21
157.7102629999999
 31
0.0
  0
LINE
  5
C854
330
C815
100
AcDbEntity
  8
1
  6
Continuous
100
AcDbLine
 10
223.5016779999999
 20
157.7102629999999
 30
0.0
 11
189.001678
 21
157.7102629999999
 31
0.0
  0
ARC
  5
C855
330
C815
100
AcDbEntity
  8
1
  6
Continuous
100
AcDbCircle
 10
163.699799
 20
211.1999049999997
 30
0.0
 40
3.903893
100
AcDbArc
 50
122.2397269999999
 51
138.3577309999997
  0
ARC
  5
C856
330
C815
100
AcDbEntity
  8
1
  6
Continuous
100
AcDbCircle
 10
163.6011879999998
 20
211.356256
 30
0.0
 40
3.719041999999998
100
AcDbArc
 50
90.00004399999998
 51
122.2397269999999
  0
ARC
  5
C857
330
C815
100
AcDbEntity
  8
1
  6
Continuous
100
AcDbCircle
 10
164.8156699999999
 20
210.2077149999999
 30
0.0
 40
5.397081
100
AcDbArc
 50
138.3577309999997
 51
153.7952999999999
  0
ARC
  5
C858
330
C815
100
AcDbEntity
  8
1
  6
Continuous
100
AcDbCircle
 10
157.194327
 20
212.569241
 30
0.0
 40
2.779046999999998
100
AcDbArc
 50
350.511243
 51
0.4476720000000002
  0
ARC
  5
C859
330
C815
100
AcDbEntity
  8
1
  6
Continuous
100
AcDbCircle
 10
162.6462209999999
 20
164.1543809999998
 30
0.0
 40
47.941747
100
AcDbArc
 50
93.523197
 51
101.7392569999999
  0
ARC
  5
C85A
330
C815
100
AcDbEntity
  8
1
  6
Continuous
100
AcDbCircle
 10
159.677601
 20
212.370523
 30
0.0
 40
0.365696
100
AcDbArc
 50
273.523197
 51
314.815141
  0
ARC
  5
C85B
330
C815
100
AcDbEntity
  8
1
  6
Continuous
100
AcDbCircle
 10
158.087221
 20
186.093254
 30
0.0
 40
25.53418999999999
100
AcDbArc
 50
101.7392569999999
 51
116.385656
  0
ARC
  5
C85C
330
C815
100
AcDbEntity
  8
1
  6
Continuous
100
AcDbCircle
 10
141.6595669999999
 20
221.267236
 30
0.0
 40
15.28686099999998
100
AcDbArc
 50
290.113849
 51
295.562224
  0
ARC
  5
C85D
330
C815
100
AcDbEntity
  8
1
  6
Continuous
100
AcDbCircle
 10
157.2476969999998
 20
188.677174
 30
0.0
 40
20.83933299999999
100
AcDbArc
 50
108.002609
 51
115.562224
  0
ARC
  5
C85E
330
C815
100
AcDbEntity
  8
1
  6
Continuous
100
AcDbCircle
 10
147.182095
 20
207.4596099999999
 30
0.0
 40
0.6079810000000001
100
AcDbArc
 50
201.184
 51
244.098621
  0
ARC
  5
C85F
330
C815
100
AcDbEntity
  8
1
  6
Continuous
100
AcDbCircle
 10
124.5163369999997
 20
198.675423
 30
0.0
 40
23.70042399999999
100
AcDbArc
 50
21.184
 51
24.157624
  0
ARC
  5
C860
330
C815
100
AcDbEntity
  8
1
  6
Continuous
100
AcDbCircle
 10
148.5554299999997
 20
206.5352569999999
 30
0.0
 40
3.035225999999998
100
AcDbArc
 50
126.74604
 51
142.6949679999998
  0
LINE
  5
C861
330
C815
100
AcDbEntity
  8
1
  6
Continuous
100
AcDbLine
 10
194.3951449999999
 20
215.075322
 30
0.0
 11
163.6011879999998
 21
215.075275
 31
0.0
  0
LINE
  5
C862
330
C815
100
AcDbEntity
  8
1
  6
Continuous
100
AcDbLine
 10
159.174185
 20
174.818107
 30
0.0
 11
169.7373979999998
 21
175.561726
 31
0.0
  0
ARC
  5
C863
330
C815
100
AcDbEntity
  8
1
  6
Continuous
100
AcDbCircle
 10
169.473928
 20
179.304356
 30
0.0
 40
3.751891999999998
100
AcDbArc
 50
274.0268089999999
 51
333.909053
  0
ARC
  5
C864
330
C815
100
AcDbEntity
  8
1
  6
Continuous
100
AcDbCircle
 10
338.7870659999999
 20
96.391874
 30
0.0
 40
184.7724259999999
100
AcDbArc
 50
148.295173
 51
153.909053
  0
ARC
  5
C865
330
C815
100
AcDbEntity
  8
1
  6
Continuous
100
AcDbCircle
 10
196.331632
 20
181.3483939999999
 30
0.0
 40
21.51445999999999
100
AcDbArc
 50
96.15826500000002
 51
104.01644
  0
ARC
  5
C866
330
C815
100
AcDbEntity
  8
1
  6
Continuous
100
AcDbCircle
 10
192.020574
 20
198.6179939999999
 30
0.0
 40
3.714901999999998
100
AcDbArc
 50
104.01644
 51
130.072753
  0
ARC
  5
C867
330
C815
100
AcDbEntity
  8
1
  6
Continuous
100
AcDbCircle
 10
234.554637
 20
148.05839
 30
0.0
 40
69.78622699999999
100
AcDbArc
 50
130.072753
 51
139.3736939999998
  0
ARC
  5
C868
330
C815
100
AcDbEntity
  8
1
  6
Continuous
100
AcDbCircle
 10
202.6093939999999
 20
123.84341
 30
0.0
 40
79.35321
100
AcDbArc
 50
88.925005
 51
96.15826500000002
  0
LINE
  5
C869
330
C815
100
AcDbEntity
  8
1
  6
Continuous
100
AcDbLine
 10
150.603251
 20
210.012882
 30
0.0
 11
154.861435
 21
178.330389
 31
0.0
  0
ARC
  5
C86A
330
C815
100
AcDbEntity
  8
1
  6
Continuous
100
AcDbCircle
 10
158.888825
 20
178.871678
 30
0.0
 40
4.063601999999998
100
AcDbArc
 50
187.654785
 51
274.0268089999999
  0
ARC
  5
C86B
330
C815
100
AcDbEntity
  8
1
  6
Continuous
100
AcDbCircle
 10
202.494055
 20
686.1225789999997
 30
0.0
 40
471.1497549999998
100
AcDbArc
 50
269.952738
 51
270.630847
  0
ARC
  5
C86C
330
C815
100
AcDbEntity
  8
1
  6
Continuous
100
AcDbCircle
 10
202.172795
 20
296.6542029999999
 30
0.0
 40
81.681246
100
AcDbArc
 50
267.598015
 51
269.952738
  0
ARC
  5
C86D
330
C815
100
AcDbEntity
  8
1
  6
Continuous
100
AcDbCircle
 10
209.147073
 20
81.89576700000001
 30
0.0
 40
133.113684
100
AcDbArc
 50
87.996002
 51
90.630847
  0
ARC
  5
C86E
330
C815
100
AcDbEntity
  8
1
  6
Continuous
100
AcDbCircle
 10
213.927671
 20
211.3957259999998
 30
0.0
 40
3.485376999999997
100
AcDbArc
 50
23.353943
 51
81.35279999999999
  0
ARC
  5
C86F
330
C815
100
AcDbEntity
  8
1
  6
Continuous
100
AcDbCircle
 10
211.2406189999999
 20
210.235499
 30
0.0
 40
6.412213999999998
100
AcDbArc
 50
359.6315119999999
 51
23.353943
  0
ARC
  5
C870
330
C815
100
AcDbEntity
  8
1
  6
Continuous
100
AcDbCircle
 10
144.7173939999998
 20
207.493794
 30
0.0
 40
72.95869999999998
100
AcDbArc
 50
357.774122
 51
1.159634
  0
ARC
  5
C871
330
C815
100
AcDbEntity
  8
1
  6
Continuous
100
AcDbCircle
 10
213.9024089999999
 20
204.517147
 30
0.0
 40
3.749505
100
AcDbArc
 50
334.349468
 51
347.6783879999999
  0
ARC
  5
C872
330
C815
100
AcDbEntity
  8
1
  6
Continuous
100
AcDbCircle
 10
230.3373099999999
 20
203.438648
 30
0.0
 40
12.774798
100
AcDbArc
 50
174.513139
 51
178.7514419999999
  0
LINE
  5
C873
330
C815
100
AcDbEntity
  8
1
  6
Continuous
100
AcDbLine
 10
206.063017
 20
202.8940579999999
 30
0.0
 11
204.0981469999999
 21
203.1826539999999
 31
0.0
  0
ARC
  5
C874
330
C815
100
AcDbEntity
  8
1
  6
Continuous
100
AcDbCircle
 10
196.126055
 20
152.502723
 30
0.0
 40
62.597
100
AcDbArc
 50
87.598015
 51
91.66966499999999
  0
ARC
  5
C875
330
C815
100
AcDbEntity
  8
1
  6
Continuous
100
AcDbCircle
 10
263.5443509999999
 20
209.8991119999999
 30
0.0
 40
45.8926
100
AcDbArc
 50
179.6315119999999
 51
181.159634
  0
ARC
  5
C876
330
C815
100
AcDbEntity
  8
1
  6
Continuous
100
AcDbCircle
 10
212.800825
 20
203.5054249999999
 30
0.0
 40
11.4664
100
AcDbArc
 50
81.35279999999999
 51
84.991134
  0
LINE
  5
C877
330
C815
100
AcDbEntity
  8
1
  6
Continuous
100
AcDbLine
 10
159.935352
 20
212.111104
 30
0.0
 11
168.7288399999999
 21
212.111104
 31
0.0
  0
ARC
  5
C878
330
C815
100
AcDbEntity
  8
1
  6
Continuous
100
AcDbCircle
 10
168.7288399999999
 20
214.7626409999999
 30
0.0
 40
2.651536999999998
100
AcDbArc
 50
270.0
 51
350.453982
  0
LINE
  5
C879
330
C815
100
AcDbEntity
  8
1
  6
Continuous
100
AcDbLine
 10
206.063017
 20
202.8940579999999
 30
0.0
 11
217.282405
 21
202.8940579999999
 31
0.0
  0
ARC
  5
C87A
330
C815
100
AcDbEntity
  8
1
  6
Continuous
100
AcDbCircle
 10
159.7516589999998
 20
182.7102629999999
 30
0.0
 40
25.0
100
AcDbArc
 50
110.19956
 51
26.907958
  0
ARC
  5
C87B
330
C815
100
AcDbEntity
  8
1
  6
Continuous
100
AcDbCircle
 10
57.49972299999999
 20
270.9244519999999
 30
0.0
 40
64.067327
100
AcDbArc
 50
259.7451689999999
 51
280.254831
  0
ARC
  5
C87C
330
C815
100
AcDbEntity
  8
1
  6
Continuous
100
AcDbCircle
 10
57.49972299999999
 20
270.9244519999999
 30
0.0
 40
62.646627
100
AcDbArc
 50
259.8436229999999
 51
280.156377
  0
LINE
  5
C87D
330
C815
100
AcDbEntity
  8
1
  6
Continuous
100
AcDbLine
 10
44.916102
 20
206.883163
 30
0.0
 11
45.34491699999999
 21
174.807778
 31
0.0
  0
LINE
  5
C87E
330
C815
100
AcDbEntity
  8
1
  6
Continuous
100
AcDbLine
 10
70.083343
 20
206.883163
 30
0.0
 11
69.65452900000001
 21
174.807778
 31
0.0
  0
LINE
  5
C87F
330
C815
100
AcDbEntity
  8
1
  6
Continuous
100
AcDbLine
 10
42.888899
 20
208.9045959999999
 30
0.0
 11
43.34473899999998
 21
174.807775
 31
0.0
  0
LINE
  5
C880
330
C815
100
AcDbEntity
  8
1
  6
Continuous
100
AcDbLine
 10
72.11054699999998
 20
208.9045959999999
 30
0.0
 11
71.654707
 21
174.807778
 31
0.0
  0
LINE
  5
C881
330
C815
100
AcDbEntity
  8
1
  6
Continuous
100
AcDbLine
 10
71.829551
 20
174.807778
 30
0.0
 11
69.65452900000001
 21
174.807778
 31
0.0
  0
LINE
  5
C882
330
C815
100
AcDbEntity
  8
1
  6
Continuous
100
AcDbLine
 10
45.34491699999999
 20
174.807778
 30
0.0
 11
43.169895
 21
174.807778
 31
0.0
  0
LINE
  5
C883
330
C815
100
AcDbEntity
  8
1
  6
Continuous
100
AcDbLine
 10
72.15119
 20
211.944699
 30
0.0
 11
42.848256
 21
211.944699
 31
0.0
  0
ARC
  5
C884
330
C815
100
AcDbEntity
  8
1
  6
Continuous
100
AcDbCircle
 10
69.07554499999999
 20
206.306498
 30
0.0
 40
3.0
100
AcDbArc
 50
359.2340599999997
 51
100.156377
  0
ARC
  5
C885
330
C815
100
AcDbEntity
  8
1
  6
Continuous
100
AcDbCircle
 10
45.923901
 20
206.306498
 30
0.0
 40
3.0
100
AcDbArc
 50
79.84362299999998
 51
180.76594
  0
ARC
  5
C886
330
C815
100
AcDbEntity
  8
1
  6
Continuous
100
AcDbCircle
 10
69.083433
 20
206.896531
 30
0.0
 40
1.0
100
AcDbArc
 50
359.2340599999997
 51
100.254831
  0
ARC
  5
C887
330
C815
100
AcDbEntity
  8
1
  6
Continuous
100
AcDbCircle
 10
45.91601299999999
 20
206.896531
 30
0.0
 40
1.0
100
AcDbArc
 50
79.74516899999997
 51
180.76594
  0
ARC
  5
C888
330
C815
100
AcDbEntity
  8
1
  6
Continuous
100
AcDbCircle
 10
69.110815
 20
208.9446989999999
 30
0.0
 40
3.0
100
AcDbArc
 50
359.2340599999997
 51
90.0
  0
ARC
  5
C889
330
C815
100
AcDbEntity
  8
1
  6
Continuous
100
AcDbCircle
 10
45.888631
 20
208.9446989999999
 30
0.0
 40
3.0
100
AcDbArc
 50
90.0
 51
180.76594
  0
ARC
  5
C88A
330
C815
100
AcDbEntity
  8
1
  6
Continuous
100
AcDbCircle
 10
50.14623199999999
 20
182.710298
 30
0.0
 40
9.0
100
AcDbArc
 50
151.821357
 51
208.178643
  0
LINE
  5
C88B
330
C815
100
AcDbEntity
  8
1
  6
Continuous
100
AcDbLine
 10
42.21291599999999
 20
186.9602979999999
 30
0.0
 11
42.21291599999999
 21
178.460298
 31
0.0
  0
LINE
  5
C88C
330
C815
100
AcDbEntity
  8
1
  6
Continuous
100
AcDbLine
 10
43.14623199999998
 20
186.9602979999999
 30
0.0
 11
42.21291599999999
 21
186.9602979999999
 31
0.0
  0
LINE
  5
C88D
330
C815
100
AcDbEntity
  8
1
  6
Continuous
100
AcDbLine
 10
43.14623199999998
 20
178.460298
 30
0.0
 11
42.21291599999999
 21
178.460298
 31
0.0
  0
ARC
  5
C88E
330
C815
100
AcDbEntity
  8
1
  6
Continuous
100
AcDbCircle
 10
65.70242399999999
 20
182.710298
 30
0.0
 40
7.5
100
AcDbArc
 50
327.769047
 51
32.230953
  0
LINE
  5
C88F
330
C815
100
AcDbEntity
  8
1
  6
Continuous
100
AcDbLine
 10
72.04671199999999
 20
186.710298
 30
0.0
 11
72.04671199999999
 21
178.710298
 31
0.0
  0
LINE
  5
C890
330
C815
100
AcDbEntity
  8
1
  6
Continuous
100
AcDbLine
 10
71.813822
 20
186.710298
 30
0.0
 11
72.04671199999999
 21
186.710298
 31
0.0
  0
LINE
  5
C891
330
C815
100
AcDbEntity
  8
1
  6
Continuous
100
AcDbLine
 10
72.04671199999999
 20
178.710298
 30
0.0
 11
71.70687099999998
 21
178.710298
 31
0.0
  0
LINE
  5
C892
330
C815
100
AcDbEntity
  8
1
  6
Continuous
100
AcDbLine
 10
43.14623199999998
 20
186.9602979999999
 30
0.0
 11
43.14623199999998
 21
178.460298
 31
0.0
  0
LINE
  5
C893
330
C815
100
AcDbEntity
  8
4
  6
CENTER
100
AcDbLine
 10
178.7516589999999
 20
200.065842
 30
0.0
 11
178.7516589999999
 21
225.1361249999999
 31
0.0
  0
LINE
  5
C894
330
C815
100
AcDbEntity
  8
4
  6
CENTER
100
AcDbLine
 10
57.49972299999999
 20
226.4876679999999
 30
0.0
 11
57.49972299999999
 21
154.823675
 31
0.0
  0
LINE
  5
C895
330
C815
100
AcDbEntity
  8
4
  6
CENTER
100
AcDbLine
 10
206.251678
 20
146.005844
 30
0.0
 11
206.251678
 21
225.1405899999999
 31
0.0
  0
LINE
  5
C896
330
C815
100
AcDbEntity
  8
4
  6
CENTER
100
AcDbLine
 10
187.7516589999999
 20
182.7102629999999
 30
0.0
 11
131.7516589999998
 21
182.7102629999999
 31
0.0
  0
LINE
  5
C897
330
C815
100
AcDbEntity
  8
4
  6
CENTER
100
AcDbLine
 10
159.7516589999998
 20
154.7102629999999
 30
0.0
 11
159.7516589999998
 21
210.7102629999999
 31
0.0
  0
LINE
  5
C898
330
C815
100
AcDbEntity
  8
4
  6
CENTER
100
AcDbLine
 10
74.975502
 20
182.7102629999999
 30
0.0
 11
40.628719
 21
182.7102629999999
 31
0.0
  0
LINE
  5
C899
330
C815
100
AcDbEntity
  8
1
  6
Continuous
100
AcDbLine
 10
216.7516779999999
 20
170.710263
 30
0.0
 11
195.7516779999999
 21
170.710263
 31
0.0
  0
LINE
  5
C89A
330
C815
100
AcDbEntity
  8
2
  6
Continuous
100
AcDbLine
 10
211.2516779999999
 20
177.8038379999999
 30
0.0
 11
210.439678
 21
179.210263
 31
0.0
  0
LINE
  5
C89B
330
C815
100
AcDbEntity
  8
2
  6
Continuous
100
AcDbLine
 10
201.2516779999999
 20
177.8038379999999
 30
0.0
 11
202.063678
 21
179.210263
 31
0.0
  0
LINE
  5
C89C
330
C815
100
AcDbEntity
  8
1
  6
Continuous
100
AcDbLine
 10
211.2516779999999
 20
179.210263
 30
0.0
 11
201.2516779999999
 21
179.210263
 31
0.0
  0
LINE
  5
C89D
330
C815
100
AcDbEntity
  8
2
  6
Continuous
100
AcDbLine
 10
210.439678
 20
179.210263
 30
0.0
 11
210.439678
 21
188.910298
 31
0.0
  0
LINE
  5
C89E
330
C815
100
AcDbEntity
  8
2
  6
Continuous
100
AcDbLine
 10
202.063678
 20
179.210263
 30
0.0
 11
202.063678
 21
188.910298
 31
0.0
  0
LINE
  5
C89F
330
C815
100
AcDbEntity
  8
1
  6
Continuous
100
AcDbLine
 10
73.34972299999998
 20
170.210298
 30
0.0
 11
67.499723
 21
170.210298
 31
0.0
  0
LINE
  5
C8A0
330
C815
100
AcDbEntity
  8
1
  6
Continuous
100
AcDbLine
 10
76.34972299999998
 20
164.2102979999999
 30
0.0
 11
67.499723
 21
164.2102979999999
 31
0.0
  0
LINE
  5
C8A1
330
C815
100
AcDbEntity
  8
1
  6
Continuous
100
AcDbLine
 10
74.74972300000001
 20
157.710298
 30
0.0
 11
40.24972299999999
 21
157.710298
 31
0.0
  0
ARC
  5
C8A2
330
C815
100
AcDbEntity
  8
1
  6
Continuous
100
AcDbCircle
 10
73.34972299999998
 20
167.210298
 30
0.0
 40
3.0
100
AcDbArc
 50
0.0
 51
90.0
  0
LINE
  5
C8A3
330
C815
100
AcDbEntity
  8
1
  6
Continuous
100
AcDbLine
 10
76.34972299999998
 20
167.210298
 30
0.0
 11
76.34972299999998
 21
164.2102979999999
 31
0.0
  0
LINE
  5
C8A4
330
C815
100
AcDbEntity
  8
1
  6
Continuous
100
AcDbLine
 10
74.74972300000001
 20
164.2102979999999
 30
0.0
 11
74.74972300000001
 21
157.710298
 31
0.0
  0
LINE
  5
C8A5
330
C815
100
AcDbEntity
  8
1
  6
Continuous
100
AcDbLine
 10
38.649723
 20
164.2102979999999
 30
0.0
 11
38.649723
 21
167.210298
 31
0.0
  0
ARC
  5
C8A6
330
C815
100
AcDbEntity
  8
1
  6
Continuous
100
AcDbCircle
 10
41.649723
 20
167.210298
 30
0.0
 40
3.0
100
AcDbArc
 50
90.0
 51
180.0
  0
LINE
  5
C8A7
330
C815
100
AcDbEntity
  8
1
  6
Continuous
100
AcDbLine
 10
40.24972299999999
 20
164.2102979999999
 30
0.0
 11
40.24972299999999
 21
157.710298
 31
0.0
  0
LINE
  5
C8A8
330
C815
100
AcDbEntity
  8
1
  6
Continuous
100
AcDbLine
 10
47.49972299999998
 20
164.2102979999999
 30
0.0
 11
38.649723
 21
164.2102979999999
 31
0.0
  0
LINE
  5
C8A9
330
C815
100
AcDbEntity
  8
1
  6
Continuous
100
AcDbLine
 10
47.49972299999998
 20
170.210298
 30
0.0
 11
41.649723
 21
170.210298
 31
0.0
  0
LINE
  5
C8AA
330
C815
100
AcDbEntity
  8
4
  6
CENTER
100
AcDbLine
 10
300.0035889999999
 20
226.4876679999999
 30
0.0
 11
300.0035889999999
 21
154.823675
 31
0.0
  0
LINE
  5
C8AB
330
C815
100
AcDbEntity
  8
1
  6
Continuous
100
AcDbLine
 10
282.7535889999999
 20
157.710298
 30
0.0
 11
317.2535889999999
 21
157.710298
 31
0.0
  0
LINE
  5
C8AC
330
C815
100
AcDbEntity
  8
4
  6
CENTER
100
AcDbLine
 10
282.5278099999998
 20
182.7102629999999
 30
0.0
 11
316.874593
 21
182.7102629999999
 31
0.0
  0
LINE
  5
C8AD
330
C815
100
AcDbEntity
  8
1
  6
Continuous
100
AcDbLine
 10
284.153589
 20
170.210298
 30
0.0
 11
315.853589
 21
170.210298
 31
0.0
  0
LINE
  5
C8AE
330
C815
100
AcDbEntity
  8
1
  6
Continuous
100
AcDbLine
 10
281.153589
 20
164.2102979999999
 30
0.0
 11
318.853589
 21
164.2102979999999
 31
0.0
  0
LINE
  5
C8AF
330
C815
100
AcDbEntity
  8
1
  6
Continuous
100
AcDbLine
 10
317.2535889999999
 20
164.2102979999999
 30
0.0
 11
317.2535889999999
 21
157.710298
 31
0.0
  0
ARC
  5
C8B0
330
C815
100
AcDbEntity
  8
1
  6
Continuous
100
AcDbCircle
 10
315.853589
 20
167.210298
 30
0.0
 40
3.0
100
AcDbArc
 50
0.0
 51
90.0
  0
LINE
  5
C8B1
330
C815
100
AcDbEntity
  8
1
  6
Continuous
100
AcDbLine
 10
318.853589
 20
164.2102979999999
 30
0.0
 11
318.853589
 21
167.210298
 31
0.0
  0
LINE
  5
C8B2
330
C815
100
AcDbEntity
  8
1
  6
Continuous
100
AcDbLine
 10
312.1583949999999
 20
174.807778
 30
0.0
 11
314.333417
 21
174.807778
 31
0.0
  0
LINE
  5
C8B3
330
C815
100
AcDbEntity
  8
1
  6
Continuous
100
AcDbLine
 10
282.7535889999999
 20
164.2102979999999
 30
0.0
 11
282.7535889999999
 21
157.710298
 31
0.0
  0
LINE
  5
C8B4
330
C815
100
AcDbEntity
  8
1
  6
Continuous
100
AcDbLine
 10
281.153589
 20
167.210298
 30
0.0
 11
281.153589
 21
164.2102979999999
 31
0.0
  0
ARC
  5
C8B5
330
C815
100
AcDbEntity
  8
1
  6
Continuous
100
AcDbCircle
 10
284.153589
 20
167.210298
 30
0.0
 40
3.0
100
AcDbArc
 50
90.0
 51
180.0
  0
LINE
  5
C8B6
330
C815
100
AcDbEntity
  8
1
  6
Continuous
100
AcDbLine
 10
285.203589
 20
215.074991
 30
0.0
 11
291.920685
 21
215.074991
 31
0.0
  0
CIRCLE
  5
C8B7
330
C815
100
AcDbEntity
  8
1
  6
Continuous
100
AcDbCircle
 10
159.7516589999998
 20
182.7102629999999
 30
0.0
 40
4.0
  0
ARC
  5
C8B8
330
C815
100
AcDbEntity
  8
1
  6
Continuous
100
AcDbCircle
 10
238.469305
 20
207.4938289999999
 30
0.0
 40
72.95869999999998
100
AcDbArc
 50
357.774122
 51
1.159634
  0
LINE
  5
C8B9
330
C815
100
AcDbEntity
  8
1
  6
Continuous
100
AcDbLine
 10
287.4221559999999
 20
202.894093
 30
0.0
 11
312.5850219999999
 21
202.894093
 31
0.0
  0
ARC
  5
C8BA
330
C815
100
AcDbEntity
  8
1
  6
Continuous
100
AcDbCircle
 10
324.089221
 20
203.4386829999998
 30
0.0
 40
12.774798
100
AcDbArc
 50
174.513139
 51
178.7514419999999
  0
ARC
  5
C8BB
330
C815
100
AcDbEntity
  8
1
  6
Continuous
100
AcDbCircle
 10
307.6543199999999
 20
204.5171819999999
 30
0.0
 40
3.749505
100
AcDbArc
 50
334.349468
 51
347.6783879999999
  0
ARC
  5
C8BC
330
C815
100
AcDbEntity
  8
1
  6
Continuous
100
AcDbCircle
 10
357.296262
 20
209.899147
 30
0.0
 40
45.8926
100
AcDbArc
 50
179.6315119999999
 51
181.159634
  0
ARC
  5
C8BD
330
C815
100
AcDbEntity
  8
1
  6
Continuous
100
AcDbCircle
 10
304.9925299999998
 20
210.2355339999999
 30
0.0
 40
6.412213999999998
100
AcDbArc
 50
359.6315119999999
 51
23.353943
  0
ARC
  5
C8BE
330
C815
100
AcDbEntity
  8
1
  6
Continuous
100
AcDbCircle
 10
307.679582
 20
211.3957609999999
 30
0.0
 40
3.485376999999997
100
AcDbArc
 50
23.353943
 51
81.35279999999999
  0
LINE
  5
C8BF
330
C815
100
AcDbEntity
  8
2
  6
Continuous
100
AcDbLine
 10
295.815589
 20
179.2102979999999
 30
0.0
 11
295.815589
 21
188.910298
 31
0.0
  0
LINE
  5
C8C0
330
C815
100
AcDbEntity
  8
2
  6
Continuous
100
AcDbLine
 10
304.191589
 20
179.2102979999999
 30
0.0
 11
304.191589
 21
188.910298
 31
0.0
  0
LINE
  5
C8C1
330
C815
100
AcDbEntity
  8
1
  6
Continuous
100
AcDbLine
 10
295.0035889999999
 20
188.910298
 30
0.0
 11
295.0035889999999
 21
176.2102979999999
 31
0.0
  0
LINE
  5
C8C2
330
C815
100
AcDbEntity
  8
1
  6
Continuous
100
AcDbLine
 10
305.0035889999999
 20
188.910298
 30
0.0
 11
305.0035889999999
 21
176.2102979999999
 31
0.0
  0
LINE
  5
C8C3
330
C815
100
AcDbEntity
  8
1
  6
Continuous
100
AcDbLine
 10
305.0035889999999
 20
179.2102979999999
 30
0.0
 11
295.0035889999999
 21
179.2102979999999
 31
0.0
  0
LINE
  5
C8C4
330
C815
100
AcDbEntity
  8
1
  6
Continuous
100
AcDbLine
 10
310.5035889999999
 20
170.7102979999999
 30
0.0
 11
289.5035889999999
 21
170.7102979999999
 31
0.0
  0
LINE
  5
C8C5
330
C815
100
AcDbEntity
  8
1
  6
Continuous
100
AcDbLine
 10
308.5035889999999
 20
171.210298
 30
0.0
 11
291.503589
 21
171.210298
 31
0.0
  0
LINE
  5
C8C6
330
C815
100
AcDbEntity
  8
1
  6
Continuous
100
AcDbLine
 10
308.5035889999999
 20
176.2102979999999
 30
0.0
 11
291.503589
 21
176.2102979999999
 31
0.0
  0
LINE
  5
C8C7
330
C815
100
AcDbEntity
  8
2
  6
Continuous
100
AcDbLine
 10
295.0035889999999
 20
177.803873
 30
0.0
 11
295.815589
 21
179.2102979999999
 31
0.0
  0
LINE
  5
C8C8
330
C815
100
AcDbEntity
  8
1
  6
Continuous
100
AcDbLine
 10
289.5035889999999
 20
170.7102979999999
 30
0.0
 11
289.5035889999999
 21
170.210298
 31
0.0
  0
LINE
  5
C8C9
330
C815
100
AcDbEntity
  8
1
  6
Continuous
100
AcDbLine
 10
296.5035889999999
 20
170.7249899999998
 30
0.0
 11
296.5035889999999
 21
171.210298
 31
0.0
  0
LINE
  5
C8CA
330
C815
100
AcDbEntity
  8
1
  6
Continuous
100
AcDbLine
 10
300.0035889999999
 20
176.2102979999999
 30
0.0
 11
300.0035889999999
 21
172.210298
 31
0.0
  0
LINE
  5
C8CB
330
C815
100
AcDbEntity
  8
2
  6
Continuous
100
AcDbLine
 10
305.0035889999999
 20
177.803873
 30
0.0
 11
304.191589
 21
179.2102979999999
 31
0.0
  0
LINE
  5
C8CC
330
C815
100
AcDbEntity
  8
1
  6
Continuous
100
AcDbLine
 10
310.5035889999999
 20
170.7102979999999
 30
0.0
 11
310.5035889999999
 21
170.210298
 31
0.0
  0
LINE
  5
C8CD
330
C815
100
AcDbEntity
  8
1
  6
Continuous
100
AcDbLine
 10
303.5035889999999
 20
171.210298
 30
0.0
 11
303.5035889999999
 21
170.7249899999998
 31
0.0
  0
LINE
  5
C8CE
330
C815
100
AcDbEntity
  8
1
  6
Continuous
100
AcDbLine
 10
306.0657669999998
 20
188.910298
 30
0.0
 11
293.9414109999999
 21
188.910298
 31
0.0
  0
LINE
  5
C8CF
330
C815
100
AcDbEntity
  8
1
  6
Continuous
100
AcDbLine
 10
308.086493
 20
189.767809
 30
0.0
 11
308.086493
 21
202.894093
 31
0.0
  0
LINE
  5
C8D0
330
C815
100
AcDbEntity
  8
1
  6
Continuous
100
AcDbLine
 10
291.920685
 20
189.767809
 30
0.0
 11
291.920685
 21
202.894093
 31
0.0
  0
ARC
  5
C8D1
330
C815
100
AcDbEntity
  8
1
  6
Continuous
100
AcDbCircle
 10
361.5378729999998
 20
207.4938289999999
 30
0.0
 40
72.95869999999998
100
AcDbArc
 50
178.8403659999999
 51
182.225878
  0
ARC
  5
C8D2
330
C815
100
AcDbEntity
  8
1
  6
Continuous
100
AcDbCircle
 10
292.3528580000001
 20
204.5171819999999
 30
0.0
 40
3.749505
100
AcDbArc
 50
192.321612
 51
205.6505319999998
  0
ARC
  5
C8D3
330
C815
100
AcDbEntity
  8
1
  6
Continuous
100
AcDbCircle
 10
275.917957
 20
203.4386829999998
 30
0.0
 40
12.774798
100
AcDbArc
 50
1.248558
 51
5.486861
  0
ARC
  5
C8D4
330
C815
100
AcDbEntity
  8
1
  6
Continuous
100
AcDbCircle
 10
242.710916
 20
209.899147
 30
0.0
 40
45.8926
100
AcDbArc
 50
358.840366
 51
0.3684880000000001
  0
ARC
  5
C8D5
330
C815
100
AcDbEntity
  8
1
  6
Continuous
100
AcDbCircle
 10
295.014648
 20
210.2355339999999
 30
0.0
 40
6.412213999999998
100
AcDbArc
 50
156.646057
 51
180.3684879999999
  0
LINE
  5
C8D6
330
C815
100
AcDbEntity
  8
1
  6
Continuous
100
AcDbLine
 10
304.045041
 20
190.910298
 30
0.0
 11
304.045041
 21
202.894093
 31
0.0
  0
LINE
  5
C8D7
330
C815
100
AcDbEntity
  8
1
  6
Continuous
100
AcDbLine
 10
295.9621369999999
 20
190.910298
 30
0.0
 11
295.9621369999999
 21
202.894093
 31
0.0
  0
ARC
  5
C8D8
330
C815
100
AcDbEntity
  8
1
  6
Continuous
100
AcDbCircle
 10
300.0035889999999
 20
193.9936319999999
 30
0.0
 40
5.083332999999997
100
AcDbArc
 50
217.340992
 51
322.6590079999998
  0
ARC
  5
C8D9
330
C815
100
AcDbEntity
  8
1
  6
Continuous
100
AcDbCircle
 10
306.0657669999998
 20
190.931132
 30
0.0
 40
2.020833
100
AcDbArc
 50
180.5906879999998
 51
303.124319
  0
LINE
  5
C8DA
330
C815
100
AcDbEntity
  8
1
  6
Continuous
100
AcDbLine
 10
307.170066
 20
189.23871
 30
0.0
 11
308.086493
 21
189.767809
 31
0.0
  0
LINE
  5
C8DB
330
C815
100
AcDbEntity
  8
1
  6
Continuous
100
AcDbLine
 10
292.8371119999998
 20
189.23871
 30
0.0
 11
291.920685
 21
189.767809
 31
0.0
  0
ARC
  5
C8DC
330
C815
100
AcDbEntity
  8
1
  6
Continuous
100
AcDbCircle
 10
293.9414109999999
 20
190.931132
 30
0.0
 40
2.020833
100
AcDbArc
 50
236.8756809999999
 51
359.409312
  0
LINE
  5
C8DD
330
C815
100
AcDbEntity
  8
1
  6
Continuous
100
AcDbLine
 10
291.920685
 20
214.846056
 30
0.0
 11
291.920685
 21
220.710298
 31
0.0
  0
LINE
  5
C8DE
330
C815
100
AcDbEntity
  8
1
  6
Continuous
100
AcDbLine
 10
295.9621369999999
 20
214.9866779999999
 30
0.0
 11
295.9621369999999
 21
220.710298
 31
0.0
  0
LINE
  5
C8DF
330
C815
100
AcDbEntity
  8
1
  6
Continuous
100
AcDbLine
 10
304.045041
 20
214.951796
 30
0.0
 11
304.045041
 21
220.710298
 31
0.0
  0
LINE
  5
C8E0
330
C815
100
AcDbEntity
  8
1
  6
Continuous
100
AcDbLine
 10
308.086493
 20
214.8454839999998
 30
0.0
 11
308.086493
 21
220.710298
 31
0.0
  0
ARC
  5
C8E1
330
C815
100
AcDbEntity
  8
1
  6
Continuous
100
AcDbCircle
 10
292.3275959999998
 20
211.3957609999999
 30
0.0
 40
3.485376999999997
100
AcDbArc
 50
98.6472
 51
156.646057
  0
ARC
  5
C8E2
330
C815
100
AcDbEntity
  8
1
  6
Continuous
100
AcDbCircle
 10
300.0035889999999
 20
4.661861
 30
0.0
 40
210.3395569999999
100
AcDbArc
 50
87.765777
 51
92.23422300000001
  0
LINE
  5
C8E3
330
C815
100
AcDbEntity
  8
1
  6
Continuous
100
AcDbLine
 10
308.5035889999999
 20
171.210298
 30
0.0
 11
308.5035889999999
 21
176.2102979999999
 31
0.0
  0
LINE
  5
C8E4
330
C815
100
AcDbEntity
  8
1
  6
Continuous
100
AcDbLine
 10
291.503589
 20
171.210298
 30
0.0
 11
291.503589
 21
176.2102979999999
 31
0.0
  0
ARC
  5
C8E5
330
C815
100
AcDbEntity
  8
1
  6
Continuous
100
AcDbCircle
 10
304.2535889999999
 20
180.7415479999999
 30
0.0
 40
9.53125
100
AcDbArc
 50
243.5189599999999
 51
296.48104
  0
ARC
  5
C8E6
330
C815
100
AcDbEntity
  8
1
  6
Continuous
100
AcDbCircle
 10
295.7535889999999
 20
180.7415479999999
 30
0.0
 40
9.53125
100
AcDbArc
 50
243.5189599999999
 51
296.48104
  0
LINE
  5
C8E7
330
C815
100
AcDbEntity
  8
1
  6
Continuous
100
AcDbLine
 10
308.086493
 20
215.074991
 30
0.0
 11
314.803589
 21
215.074991
 31
0.0
  0
CIRCLE
  5
C8E8
330
C815
100
AcDbEntity
  8
1
  6
Continuous
100
AcDbCircle
 10
206.251678
 20
73.5
 30
0.0
 40
18.85
  0
CIRCLE
  5
C8E9
330
C815
100
AcDbEntity
  8
1
  6
Continuous
100
AcDbCircle
 10
206.251678
 20
73.5
 30
0.0
 40
17.25
  0
LINE
  5
C8EA
330
C815
100
AcDbEntity
  8
4
  6
CENTER
100
AcDbLine
 10
206.251678
 20
51.65
 30
0.0
 11
206.251678
 21
95.35
 31
0.0
  0
LINE
  5
C8EB
330
C815
100
AcDbEntity
  8
1
  6
Continuous
100
AcDbLine
 10
205.143339
 20
73.99278599999998
 30
0.0
 11
204.535873
 21
74.621835
 31
0.0
  0
LINE
  5
C8EC
330
C815
100
AcDbEntity
  8
1
  6
Continuous
100
AcDbLine
 10
207.360017
 20
73.99278599999998
 30
0.0
 11
207.967483
 21
74.621835
 31
0.0
  0
LINE
  5
C8ED
330
C815
100
AcDbEntity
  8
1
  6
Continuous
100
AcDbLine
 10
206.251678
 20
74.42898000000003
 30
0.0
 11
206.744464
 21
74.608339
 31
0.0
  0
LINE
  5
C8EE
330
C815
100
AcDbEntity
  8
1
  6
Continuous
100
AcDbLine
 10
206.251678
 20
74.42898000000003
 30
0.0
 11
205.758892
 21
74.608339
 31
0.0
  0
CIRCLE
  5
C8EF
330
C815
100
AcDbEntity
  8
1
  6
Continuous
100
AcDbCircle
 10
206.251678
 20
73.5
 30
0.0
 40
3.5
  0
LINE
  5
C8F0
330
C815
100
AcDbEntity
  8
1
  6
Continuous
100
AcDbLine
 10
200.251678
 20
79.5
 30
0.0
 11
200.251678
 21
73.5
 31
0.0
  0
LINE
  5
C8F1
330
C815
100
AcDbEntity
  8
1
  6
Continuous
100
AcDbLine
 10
212.2516779999999
 20
79.5
 30
0.0
 11
212.2516779999999
 21
73.5
 31
0.0
  0
LINE
  5
C8F2
330
C815
100
AcDbEntity
  8
1
  6
Continuous
100
AcDbLine
 10
206.251678
 20
72.57101999999997
 30
0.0
 11
205.758892
 21
72.391661
 31
0.0
  0
ARC
  5
C8F3
330
C815
100
AcDbEntity
  8
1
  6
Continuous
100
AcDbCircle
 10
206.251678
 20
73.5
 30
0.0
 40
6.0
100
AcDbArc
 50
180.0
 51
0.0
  0
LINE
  5
C8F4
330
C815
100
AcDbEntity
  8
1
  6
Continuous
100
AcDbLine
 10
205.758892
 20
72.391661
 30
0.0
 11
205.129843
 21
71.784195
 31
0.0
  0
LINE
  5
C8F5
330
C815
100
AcDbEntity
  8
1
  6
Continuous
100
AcDbLine
 10
205.322698
 20
73.5
 30
0.0
 11
205.143339
 21
73.99278599999998
 31
0.0
  0
LINE
  5
C8F6
330
C815
100
AcDbEntity
  8
1
  6
Continuous
100
AcDbLine
 10
205.322698
 20
73.5
 30
0.0
 11
205.143339
 21
73.007214
 31
0.0
  0
LINE
  5
C8F7
330
C815
100
AcDbEntity
  8
1
  6
Continuous
100
AcDbLine
 10
205.143339
 20
73.007214
 30
0.0
 11
204.535873
 21
72.37816499999998
 31
0.0
  0
ARC
  5
C8F8
330
C815
100
AcDbEntity
  8
1
  6
Continuous
100
AcDbCircle
 10
206.251678
 20
73.5
 30
0.0
 40
2.049999999999998
100
AcDbArc
 50
213.17764
 51
236.8223599999998
  0
LINE
  5
C8F9
330
C815
100
AcDbEntity
  8
1
  6
Continuous
100
AcDbLine
 10
206.744464
 20
72.391661
 30
0.0
 11
207.373513
 21
71.784195
 31
0.0
  0
LINE
  5
C8FA
330
C815
100
AcDbEntity
  8
1
  6
Continuous
100
AcDbLine
 10
206.251678
 20
72.57101999999997
 30
0.0
 11
206.744464
 21
72.391661
 31
0.0
  0
LINE
  5
C8FB
330
C815
100
AcDbEntity
  8
1
  6
Continuous
100
AcDbLine
 10
207.180658
 20
73.5
 30
0.0
 11
207.360017
 21
73.007214
 31
0.0
  0
LINE
  5
C8FC
330
C815
100
AcDbEntity
  8
1
  6
Continuous
100
AcDbLine
 10
207.360017
 20
73.007214
 30
0.0
 11
207.967483
 21
72.37816499999998
 31
0.0
  0
LINE
  5
C8FD
330
C815
100
AcDbEntity
  8
1
  6
Continuous
100
AcDbLine
 10
207.180658
 20
73.5
 30
0.0
 11
207.360017
 21
73.99278599999998
 31
0.0
  0
ARC
  5
C8FE
330
C815
100
AcDbEntity
  8
1
  6
Continuous
100
AcDbCircle
 10
206.251678
 20
73.5
 30
0.0
 40
2.049999999999998
100
AcDbArc
 50
303.17764
 51
326.82236
  0
ARC
  5
C8FF
330
C815
100
AcDbEntity
  8
1
  6
Continuous
100
AcDbCircle
 10
206.251678
 20
79.5
 30
0.0
 40
6.0
100
AcDbArc
 50
0.0
 51
180.0
  0
LINE
  5
C900
330
C815
100
AcDbEntity
  8
1
  6
Continuous
100
AcDbLine
 10
205.758892
 20
74.608339
 30
0.0
 11
205.129843
 21
75.215805
 31
0.0
  0
ARC
  5
C901
330
C815
100
AcDbEntity
  8
1
  6
Continuous
100
AcDbCircle
 10
206.251678
 20
73.5
 30
0.0
 40
2.049999999999998
100
AcDbArc
 50
123.1776399999999
 51
146.8223599999998
  0
LINE
  5
C902
330
C815
100
AcDbEntity
  8
1
  6
Continuous
100
AcDbLine
 10
206.744464
 20
74.608339
 30
0.0
 11
207.373513
 21
75.215805
 31
0.0
  0
ARC
  5
C903
330
C815
100
AcDbEntity
  8
1
  6
Continuous
100
AcDbCircle
 10
206.251678
 20
73.5
 30
0.0
 40
2.049999999999998
100
AcDbArc
 50
33.17763999999999
 51
56.82235999999999
  0
ARC
  5
C904
330
C815
100
AcDbEntity
  8
1
  6
Continuous
100
AcDbCircle
 10
206.251678
 20
73.5
 30
0.0
 40
5.5
100
AcDbArc
 50
318.5691279999999
 51
221.430826
  0
ARC
  5
C905
330
C815
100
AcDbEntity
  8
1
  6
Continuous
100
AcDbCircle
 10
206.251678
 20
73.5
 30
0.0
 40
4.299999999999998
100
AcDbArc
 50
115.8868629999999
 51
174.113188
  0
ARC
  5
C906
330
C815
100
AcDbEntity
  8
1
  6
Continuous
100
AcDbCircle
 10
204.5489569999999
 20
77.008667
 30
0.0
 40
0.4
100
AcDbArc
 50
20.000122
 51
115.886945
  0
LINE
  5
C907
330
C815
100
AcDbEntity
  8
1
  6
Continuous
100
AcDbLine
 10
204.924833
 20
77.145477
 30
0.0
 11
205.054608
 21
76.78892399999998
 31
0.0
  0
LINE
  5
C908
330
C815
100
AcDbEntity
  8
1
  6
Continuous
100
AcDbLine
 10
207.448747
 20
76.788925
 30
0.0
 11
207.5785209999998
 21
77.145477
 31
0.0
  0
ARC
  5
C909
330
C815
100
AcDbEntity
  8
1
  6
Continuous
100
AcDbCircle
 10
207.9543989999999
 20
77.008667
 30
0.0
 40
0.4
100
AcDbArc
 50
64.113073
 51
159.9999949999999
  0
ARC
  5
C90A
330
C815
100
AcDbEntity
  8
1
  6
Continuous
100
AcDbCircle
 10
206.251678
 20
73.5
 30
0.0
 40
4.299999999999998
100
AcDbArc
 50
5.886828999999999
 51
64.113162
  0
ARC
  5
C90B
330
C815
100
AcDbEntity
  8
1
  6
Continuous
100
AcDbCircle
 10
210.1311109999997
 20
73.900002
 30
0.0
 40
0.4
100
AcDbArc
 50
270.0000179999999
 51
5.886752999999998
  0
ARC
  5
C90C
330
C815
100
AcDbEntity
  8
1
  6
Continuous
100
AcDbCircle
 10
210.0754279999999
 20
70.125252
 30
0.0
 40
0.4
100
AcDbArc
 50
209.999934
 51
318.568933
  0
LINE
  5
C90D
330
C815
100
AcDbEntity
  8
1
  6
Continuous
100
AcDbLine
 10
208.951255
 20
71.27238100000003
 30
0.0
 11
209.7290189999999
 21
69.92525500000001
 31
0.0
  0
LINE
  5
C90E
330
C815
100
AcDbEntity
  8
1
  6
Continuous
100
AcDbLine
 10
202.7743389999999
 20
69.92525500000001
 30
0.0
 11
203.552104
 21
71.272378
 31
0.0
  0
ARC
  5
C90F
330
C815
100
AcDbEntity
  8
1
  6
Continuous
100
AcDbCircle
 10
202.427928
 20
70.125252
 30
0.0
 40
0.4
100
AcDbArc
 50
221.430871
 51
329.999948
  0
ARC
  5
C910
330
C815
100
AcDbEntity
  8
1
  6
Continuous
100
AcDbCircle
 10
202.372245
 20
73.900002
 30
0.0
 40
0.4
100
AcDbArc
 50
174.1132429999999
 51
270.000001
  0
LINE
  5
C911
330
C815
100
AcDbEntity
  8
1
  6
Continuous
100
AcDbLine
 10
202.372245
 20
73.50000199999998
 30
0.0
 11
202.7242939999999
 21
73.50000199999998
 31
0.0
  0
LINE
  5
C912
330
C815
100
AcDbEntity
  8
1
  6
Continuous
100
AcDbLine
 10
210.1311109999997
 20
73.50000199999998
 30
0.0
 11
209.7516779999998
 21
73.5
 31
0.0
  0
ARC
  5
C913
330
C815
100
AcDbEntity
  8
1
  6
Continuous
100
AcDbCircle
 10
178.751656
 20
73.5
 30
0.0
 40
19.5
100
AcDbArc
 50
43.24998299999999
 51
133.195908
  0
LINE
  5
C914
330
C815
100
AcDbEntity
  8
1
  6
Continuous
100
AcDbLine
 10
164.0016939999999
 20
59.14650899999998
 30
0.0
 11
155.5016939999999
 21
59.14650899999998
 31
0.0
  0
LINE
  5
C915
330
C815
100
AcDbEntity
  8
1
  6
Continuous
100
AcDbLine
 10
163.7516939999999
 20
88.04698899999998
 30
0.0
 11
155.751694
 21
88.04698899999998
 31
0.0
  0
ARC
  5
C916
330
C815
100
AcDbEntity
  8
1
  6
Continuous
100
AcDbCircle
 10
159.751694
 20
81.70270100000001
 30
0.0
 40
7.5
100
AcDbArc
 50
57.76904700000001
 51
122.230953
  0
LINE
  5
C917
330
C815
100
AcDbEntity
  8
1
  6
Continuous
100
AcDbLine
 10
164.0016939999999
 20
58.21319299999998
 30
0.0
 11
155.5016939999999
 21
58.21319299999998
 31
0.0
  0
ARC
  5
C918
330
C815
100
AcDbEntity
  8
1
  6
Continuous
100
AcDbCircle
 10
159.751694
 20
66.146509
 30
0.0
 40
9.0
100
AcDbArc
 50
241.8213569999999
 51
298.178643
  0
LINE
  5
C919
330
C815
100
AcDbEntity
  8
1
  6
Continuous
100
AcDbLine
 10
155.751694
 20
88.04698899999998
 30
0.0
 11
155.751694
 21
87.654984
 31
0.0
  0
LINE
  5
C91A
330
C815
100
AcDbEntity
  8
1
  6
Continuous
100
AcDbLine
 10
155.5016939999999
 20
59.14650899999998
 30
0.0
 11
155.5016939999999
 21
58.21319299999998
 31
0.0
  0
LINE
  5
C91B
330
C815
100
AcDbEntity
  8
1
  6
Continuous
100
AcDbLine
 10
163.7516939999999
 20
87.654984
 30
0.0
 11
163.7516939999999
 21
88.04698899999998
 31
0.0
  0
LINE
  5
C91C
330
C815
100
AcDbEntity
  8
1
  6
Continuous
100
AcDbLine
 10
164.0016939999999
 20
59.14650899999998
 30
0.0
 11
164.0016939999999
 21
58.21319299999998
 31
0.0
  0
LINE
  5
C91D
330
C815
100
AcDbEntity
  8
4
  6
CENTER
100
AcDbLine
 10
159.7516589999998
 20
54.14650899999998
 30
0.0
 11
159.7516589999998
 21
92.202701
 31
0.0
  0
ARC
  5
C91E
330
C815
100
AcDbEntity
  8
1
  6
Continuous
100
AcDbCircle
 10
178.751656
 20
73.5
 30
0.0
 40
19.5
100
AcDbArc
 50
226.5434909999999
 51
316.750017
  0
LINE
  5
C91F
330
C815
100
AcDbEntity
  8
1
  6
Continuous
100
AcDbLine
 10
151.6196699999998
 20
87.654984
 30
0.0
 11
164.6262679999999
 21
87.654984
 31
0.0
  0
LINE
  5
C920
330
C815
100
AcDbEntity
  8
1
  6
Continuous
100
AcDbLine
 10
156.7516939999999
 20
59.14650899999998
 30
0.0
 11
156.7516939999999
 21
59.34501499999999
 31
0.0
  0
LINE
  5
C921
330
C815
100
AcDbEntity
  8
1
  6
Continuous
100
AcDbLine
 10
162.7516939999999
 20
59.14650899999998
 30
0.0
 11
162.7516939999999
 21
59.34501499999999
 31
0.0
  0
LINE
  5
C922
330
C815
100
AcDbEntity
  8
1
  6
Continuous
100
AcDbLine
 10
318.803589
 20
188.3578449999999
 30
0.0
 11
318.803589
 21
211.074991
 31
0.0
  0
ARC
  5
C923
330
C815
100
AcDbEntity
  8
1
  6
Continuous
100
AcDbCircle
 10
314.803589
 20
211.074991
 30
0.0
 40
4.0
100
AcDbArc
 50
0.0
 51
90.0
  0
ARC
  5
C924
330
C815
100
AcDbEntity
  8
1
  6
Continuous
100
AcDbCircle
 10
262.763906
 20
188.3578449999999
 30
0.0
 40
56.039683
100
AcDbArc
 50
348.9721999999999
 51
0.0
  0
ARC
  5
C925
330
C815
100
AcDbEntity
  8
1
  6
Continuous
100
AcDbCircle
 10
300.0035889999999
 20
190.6879139999998
 30
0.0
 40
18.8
100
AcDbArc
 50
0.0
 51
34.682702
  0
LINE
  5
C926
330
C815
100
AcDbEntity
  8
1
  6
Continuous
100
AcDbLine
 10
312.520504
 20
201.8935749999999
 30
0.0
 11
312.1583949999999
 21
174.807778
 31
0.0
  0
ARC
  5
C927
330
C815
100
AcDbEntity
  8
1
  6
Continuous
100
AcDbCircle
 10
314.333417
 20
178.307778
 30
0.0
 40
3.5
100
AcDbArc
 50
270.0
 51
348.9721999999999
  0
ARC
  5
C928
330
C815
100
AcDbEntity
  8
1
  6
Continuous
100
AcDbCircle
 10
262.763906
 20
188.3578449999999
 30
0.0
 40
54.03968299999998
100
AcDbArc
 50
345.5713600000001
 51
0.0
  0
ARC
  5
C929
330
C815
100
AcDbEntity
  8
1
  6
Continuous
100
AcDbCircle
 10
300.0035889999999
 20
190.6879139999998
 30
0.0
 40
16.8
100
AcDbArc
 50
0.0
 51
46.59863099999999
  0
LINE
  5
C92A
330
C815
100
AcDbEntity
  8
1
  6
Continuous
100
AcDbLine
 10
316.803589
 20
188.3578449999999
 30
0.0
 11
316.803589
 21
190.6879139999998
 31
0.0
  0
ARC
  5
C92B
330
C815
100
AcDbEntity
  8
1
  6
Continuous
100
AcDbCircle
 10
312.5850219999999
 20
199.3940929999999
 30
0.0
 40
3.5
100
AcDbArc
 50
34.682702
 51
90.0
  0
ARC
  5
C92C
330
C815
100
AcDbEntity
  8
1
  6
Continuous
100
AcDbCircle
 10
285.203589
 20
211.074991
 30
0.0
 40
4.0
100
AcDbArc
 50
90.0
 51
180.0
  0
LINE
  5
C92D
330
C815
100
AcDbEntity
  8
1
  6
Continuous
100
AcDbLine
 10
281.203589
 20
188.3578449999999
 30
0.0
 11
281.203589
 21
211.074991
 31
0.0
  0
ARC
  5
C92E
330
C815
100
AcDbEntity
  8
1
  6
Continuous
100
AcDbCircle
 10
337.2432719999999
 20
188.3578449999999
 30
0.0
 40
56.039683
100
AcDbArc
 50
180.0
 51
191.0278
  0
ARC
  5
C92F
330
C815
100
AcDbEntity
  8
1
  6
Continuous
100
AcDbCircle
 10
285.673761
 20
178.307778
 30
0.0
 40
3.5
100
AcDbArc
 50
191.0278
 51
270.0
  0
LINE
  5
C930
330
C815
100
AcDbEntity
  8
1
  6
Continuous
100
AcDbLine
 10
287.848783
 20
174.807778
 30
0.0
 11
285.673761
 21
174.807778
 31
0.0
  0
LINE
  5
C931
330
C815
100
AcDbEntity
  8
1
  6
Continuous
100
AcDbLine
 10
287.4866739999998
 20
201.8935749999999
 30
0.0
 11
287.848783
 21
174.807778
 31
0.0
  0
ARC
  5
C932
330
C815
100
AcDbEntity
  8
1
  6
Continuous
100
AcDbCircle
 10
300.0035889999999
 20
190.6879139999998
 30
0.0
 40
18.8
100
AcDbArc
 50
145.3172979999999
 51
180.0
  0
ARC
  5
C933
330
C815
100
AcDbEntity
  8
1
  6
Continuous
100
AcDbCircle
 10
300.0035889999999
 20
190.6879139999998
 30
0.0
 40
16.8
100
AcDbArc
 50
133.4013689999999
 51
180.0
  0
ARC
  5
C934
330
C815
100
AcDbEntity
  8
1
  6
Continuous
100
AcDbCircle
 10
337.2432719999999
 20
188.3578449999999
 30
0.0
 40
54.03968299999998
100
AcDbArc
 50
180.0
 51
194.4286399999997
  0
LINE
  5
C935
330
C815
100
AcDbEntity
  8
1
  6
Continuous
100
AcDbLine
 10
283.203589
 20
188.3578449999999
 30
0.0
 11
283.203589
 21
190.6879139999998
 31
0.0
  0
ARC
  5
C936
330
C815
100
AcDbEntity
  8
1
  6
Continuous
100
AcDbCircle
 10
287.4221559999999
 20
199.3940929999999
 30
0.0
 40
3.5
100
AcDbArc
 50
90.0
 51
145.3172979999999
  0
ARC
  5
C937
330
C815
100
AcDbEntity
  8
1
  6
Continuous
100
AcDbCircle
 10
94.739406
 20
188.3578449999999
 30
0.0
 40
56.039683
100
AcDbArc
 50
180.0
 51
191.0278
  0
ARC
  5
C938
330
C815
100
AcDbEntity
  8
1
  6
Continuous
100
AcDbCircle
 10
20.26003999999999
 20
188.3578449999999
 30
0.0
 40
56.039683
100
AcDbArc
 50
348.9721999999999
 51
0.0
  0
ARC
  5
C939
330
C815
100
AcDbEntity
  8
1
  6
Continuous
100
AcDbCircle
 10
43.169895
 20
178.307778
 30
0.0
 40
3.5
100
AcDbArc
 50
191.0278
 51
270.0
  0
ARC
  5
C93A
330
C815
100
AcDbEntity
  8
1
  6
Continuous
100
AcDbCircle
 10
71.829551
 20
178.307778
 30
0.0
 40
3.5
100
AcDbArc
 50
270.0
 51
348.9721999999999
  0
ARC
  5
C93B
330
C815
100
AcDbEntity
  8
1
  6
Continuous
100
AcDbCircle
 10
72.299723
 20
211.074991
 30
0.0
 40
4.0
100
AcDbArc
 50
0.0
 51
90.0
  0
LINE
  5
C93C
330
C815
100
AcDbEntity
  8
1
  6
Continuous
100
AcDbLine
 10
38.699723
 20
188.3578449999999
 30
0.0
 11
38.699723
 21
211.074991
 31
0.0
  0
ARC
  5
C93D
330
C815
100
AcDbEntity
  8
1
  6
Continuous
100
AcDbCircle
 10
42.699723
 20
211.074991
 30
0.0
 40
4.0
100
AcDbArc
 50
90.0
 51
180.0
  0
LINE
  5
C93E
330
C815
100
AcDbEntity
  8
1
  6
Continuous
100
AcDbLine
 10
76.299723
 20
188.3578449999999
 30
0.0
 11
76.299723
 21
211.074991
 31
0.0
  0
LINE
  5
C93F
330
C815
100
AcDbEntity
  8
1
  6
Continuous
100
AcDbLine
 10
42.699723
 20
215.074991
 30
0.0
 11
72.299723
 21
215.074991
 31
0.0
  0
ARC
  5
C940
330
C815
100
AcDbEntity
  8
1
  6
Continuous
100
AcDbCircle
 10
178.751656
 20
73.5
 30
0.0
 40
18.8
100
AcDbArc
 50
43.638145
 51
126.406038
  0
LINE
  5
C941
330
C815
100
AcDbEntity
  8
1
  6
Continuous
100
AcDbLine
 10
166.37925
 20
179.270101
 30
0.0
 11
166.37925
 21
206.524058
 31
0.0
  0
ARC
  5
C942
330
C815
100
AcDbEntity
  8
1
  6
Continuous
100
AcDbCircle
 10
195.9760159999999
 20
89.92441599999997
 30
0.0
 40
5.0
100
AcDbArc
 50
223.638145
 51
225.4708149999999
  0
ARC
  5
C943
330
C815
100
AcDbEntity
  8
1
  6
Continuous
100
AcDbCircle
 10
164.6262679999999
 20
92.654984
 30
0.0
 40
5.0
100
AcDbArc
 50
270.0
 51
306.4060379999999
  0
ARC
  5
C944
330
C815
100
AcDbEntity
  8
1
  6
Continuous
100
AcDbCircle
 10
178.751656
 20
73.5
 30
0.0
 40
16.8
100
AcDbArc
 50
43.638145
 51
126.406038
  0
ARC
  5
C945
330
C815
100
AcDbEntity
  8
1
  6
Continuous
100
AcDbCircle
 10
164.6262679999999
 20
92.654984
 30
0.0
 40
7.0
100
AcDbArc
 50
270.0
 51
306.4060379999999
  0
ARC
  5
C946
330
C815
100
AcDbEntity
  8
1
  6
Continuous
100
AcDbCircle
 10
195.9760159999999
 20
89.92441599999997
 30
0.0
 40
7.0
100
AcDbArc
 50
223.638145
 51
226.775152
  0
LINE
  5
C947
330
C815
100
AcDbEntity
  8
1
  6
Continuous
100
AcDbLine
 10
150.807086
 20
85.654984
 30
0.0
 11
164.6262679999999
 21
85.654984
 31
0.0
  0
ARC
  5
C948
330
C815
100
AcDbEntity
  8
1
  6
Continuous
100
AcDbCircle
 10
164.6262679999999
 20
54.345016
 30
0.0
 40
7.0
100
AcDbArc
 50
53.59396199999999
 51
90.0
  0
ARC
  5
C949
330
C815
100
AcDbEntity
  8
1
  6
Continuous
100
AcDbCircle
 10
178.751656
 20
73.5
 30
0.0
 40
16.8
100
AcDbArc
 50
233.5939619999999
 51
316.3618549999998
  0
ARC
  5
C94A
330
C815
100
AcDbEntity
  8
1
  6
Continuous
100
AcDbCircle
 10
178.751656
 20
73.5
 30
0.0
 40
18.8
100
AcDbArc
 50
233.5939619999999
 51
316.3618549999998
  0
ARC
  5
C94B
330
C815
100
AcDbEntity
  8
1
  6
Continuous
100
AcDbCircle
 10
164.6262679999999
 20
54.345016
 30
0.0
 40
5.0
100
AcDbArc
 50
53.59396199999999
 51
90.0
  0
LINE
  5
C94C
330
C815
100
AcDbEntity
  8
1
  6
Continuous
100
AcDbLine
 10
151.6196699999998
 20
59.345016
 30
0.0
 11
164.6262679999999
 21
59.345016
 31
0.0
  0
LINE
  5
C94D
330
C815
100
AcDbEntity
  8
1
  6
Continuous
100
AcDbLine
 10
150.807086
 20
61.345016
 30
0.0
 11
164.6262679999999
 21
61.345016
 31
0.0
  0
ARC
  5
C94E
330
C815
100
AcDbEntity
  8
1
  6
Continuous
100
AcDbCircle
 10
195.9760159999999
 20
57.07558399999999
 30
0.0
 40
7.0
100
AcDbArc
 50
133.224848
 51
136.3618549999999
  0
ARC
  5
C94F
330
C815
100
AcDbEntity
  8
1
  6
Continuous
100
AcDbCircle
 10
195.9760159999999
 20
57.07558399999999
 30
0.0
 40
5.0
100
AcDbArc
 50
134.529185
 51
136.3618549999999
  0
ARC
  5
C950
330
C815
100
AcDbEntity
  8
1
  6
Continuous
100
AcDbCircle
 10
171.1169759999999
 20
73.5
 30
0.0
 40
24.975827
100
AcDbArc
 50
148.059819
 51
156.397617
  0
ARC
  5
C951
330
C815
100
AcDbEntity
  8
1
  6
Continuous
100
AcDbCircle
 10
167.849195
 20
73.5
 30
0.0
 40
20.93267999999999
100
AcDbArc
 50
144.502303
 51
151.463278
  0
ARC
  5
C952
330
C815
100
AcDbEntity
  8
1
  6
Continuous
100
AcDbCircle
 10
151.6196699999998
 20
85.654984
 30
0.0
 40
2.0
100
AcDbArc
 50
90.0
 51
148.059819
  0
ARC
  5
C953
330
C815
100
AcDbEntity
  8
1
  6
Continuous
100
AcDbCircle
 10
151.6196699999998
 20
61.345016
 30
0.0
 40
2.0
100
AcDbArc
 50
211.9401809999998
 51
270.0
  0
ARC
  5
C954
330
C815
100
AcDbEntity
  8
1
  6
Continuous
100
AcDbCircle
 10
167.849195
 20
73.5
 30
0.0
 40
20.93267999999999
100
AcDbArc
 50
208.536722
 51
215.4976969999999
  0
ARC
  5
C955
330
C815
100
AcDbEntity
  8
1
  6
Continuous
100
AcDbCircle
 10
171.1169759999999
 20
73.5
 30
0.0
 40
24.975827
100
AcDbArc
 50
203.6023829999999
 51
211.9401809999998
  0
LINE
  5
C956
330
C815
100
AcDbEntity
  8
1
  6
Continuous
100
AcDbLine
 10
43.14623199999998
 20
179.710298
 30
0.0
 11
43.27919699999998
 21
179.710298
 31
0.0
  0
LINE
  5
C957
330
C815
100
AcDbEntity
  8
1
  6
Continuous
100
AcDbLine
 10
43.14623199999998
 20
185.710298
 30
0.0
 11
43.198983
 21
185.710298
 31
0.0
  0
ARC
  5
C958
330
C815
100
AcDbEntity
  8
1
  6
Continuous
100
AcDbCircle
 10
159.7516589999998
 20
182.7102629999999
 30
0.0
 40
17.5
100
AcDbArc
 50
115.731449
 51
9.667051999999998
  0
LINE
  5
C959
330
C815
100
AcDbEntity
  8
4
  6
CENTER
100
AcDbLine
 10
206.251678
 20
287.961343
 30
0.0
 11
206.251678
 21
331.6613429999998
 31
0.0
  0
LINE
  5
C95A
330
C815
100
AcDbEntity
  8
4
  6
CENTER
100
AcDbLine
 10
159.7516589999998
 20
290.457852
 30
0.0
 11
159.7516589999998
 21
328.514044
 31
0.0
  0
LINE
  5
C95B
330
C815
100
AcDbEntity
  8
4
  6
CENTER
100
AcDbLine
 10
178.751656
 20
268.643296
 30
0.0
 11
178.751656
 21
352.295657
 31
0.0
  0
LINE
  5
C95C
330
C815
100
AcDbEntity
  8
4
  6
CENTER
100
AcDbLine
 10
227.8175599999999
 20
309.811343
 30
0.0
 11
130.568616
 21
309.811343
 31
0.0
  0
CIRCLE
  5
C95D
330
C815
100
AcDbEntity
  8
1
  6
Continuous
100
AcDbCircle
 10
178.751656
 20
309.811343
 30
0.0
 40
36.5
  0
CIRCLE
  5
C95E
330
C815
100
AcDbEntity
  8
1
  6
Continuous
100
AcDbCircle
 10
178.751656
 20
309.811343
 30
0.0
 40
37.0
  0
CIRCLE
  5
C95F
330
C815
100
AcDbEntity
  8
1
  6
Continuous
100
AcDbCircle
 10
178.751656
 20
309.811343
 30
0.0
 40
17.0
  0
LINE
  5
C960
330
C815
100
AcDbEntity
  8
1
  6
Continuous
100
AcDbLine
 10
210.751656
 20
270.811343
 30
0.0
 11
146.7516559999999
 21
270.811343
 31
0.0
  0
LINE
  5
C961
330
C815
100
AcDbEntity
  8
1
  6
Continuous
100
AcDbLine
 10
210.751656
 20
348.811343
 30
0.0
 11
146.7516559999999
 21
348.811343
 31
0.0
  0
ARC
  5
C962
330
C815
100
AcDbEntity
  8
1
  6
Continuous
100
AcDbCircle
 10
206.251678
 20
309.811343
 30
0.0
 40
18.85
100
AcDbArc
 50
307.5963259999999
 51
52.403674
  0
LINE
  5
C963
330
C815
100
AcDbEntity
  8
1
  6
Continuous
100
AcDbLine
 10
217.7516559999999
 20
341.811343
 30
0.0
 11
217.7516559999999
 21
277.811343
 31
0.0
  0
LINE
  5
C964
330
C815
100
AcDbEntity
  8
4
  6
CENTER
100
AcDbLine
 10
210.751656
 20
271.561343
 30
0.0
 11
210.751656
 21
284.061343
 31
0.0
  0
LINE
  5
C965
330
C815
100
AcDbEntity
  8
4
  6
CENTER
100
AcDbLine
 10
217.001656
 20
277.811343
 30
0.0
 11
204.501656
 21
277.811343
 31
0.0
  0
CIRCLE
  5
C966
330
C815
100
AcDbEntity
  8
1
  6
Continuous
100
AcDbCircle
 10
210.751656
 20
277.811343
 30
0.0
 40
3.25
  0
ARC
  5
C967
330
C815
100
AcDbEntity
  8
1
  6
Continuous
100
AcDbCircle
 10
210.751656
 20
277.811343
 30
0.0
 40
7.0
100
AcDbArc
 50
270.0
 51
0.0
  0
LINE
  5
C968
330
C815
100
AcDbEntity
  8
4
  6
CENTER
100
AcDbLine
 10
217.001656
 20
341.811343
 30
0.0
 11
204.501656
 21
341.811343
 31
0.0
  0
CIRCLE
  5
C969
330
C815
100
AcDbEntity
  8
1
  6
Continuous
100
AcDbCircle
 10
210.751656
 20
341.811343
 30
0.0
 40
3.25
  0
LINE
  5
C96A
330
C815
100
AcDbEntity
  8
4
  6
CENTER
100
AcDbLine
 10
210.751656
 20
335.561343
 30
0.0
 11
210.751656
 21
348.061343
 31
0.0
  0
ARC
  5
C96B
330
C815
100
AcDbEntity
  8
1
  6
Continuous
100
AcDbCircle
 10
210.751656
 20
341.811343
 30
0.0
 40
7.0
100
AcDbArc
 50
0.0
 51
90.0
  0
CIRCLE
  5
C96C
330
C815
100
AcDbEntity
  8
1
  6
Continuous
100
AcDbCircle
 10
178.751656
 20
309.811343
 30
0.0
 40
15.0
  0
CIRCLE
  5
C96D
330
C815
100
AcDbEntity
  8
1
  6
Continuous
100
AcDbCircle
 10
178.751656
 20
309.811343
 30
0.0
 40
8.5
  0
LINE
  5
C96E
330
C815
100
AcDbEntity
  8
1
  6
Continuous
100
AcDbLine
 10
139.7516559999999
 20
341.811343
 30
0.0
 11
139.7516559999999
 21
277.811343
 31
0.0
  0
LINE
  5
C96F
330
C815
100
AcDbEntity
  8
4
  6
CENTER
100
AcDbLine
 10
146.7516559999999
 20
271.561343
 30
0.0
 11
146.7516559999999
 21
284.061343
 31
0.0
  0
LINE
  5
C970
330
C815
100
AcDbEntity
  8
4
  6
CENTER
100
AcDbLine
 10
153.0016559999999
 20
277.811343
 30
0.0
 11
140.5016559999999
 21
277.811343
 31
0.0
  0
CIRCLE
  5
C971
330
C815
100
AcDbEntity
  8
1
  6
Continuous
100
AcDbCircle
 10
146.7516559999999
 20
277.811343
 30
0.0
 40
3.25
  0
ARC
  5
C972
330
C815
100
AcDbEntity
  8
1
  6
Continuous
100
AcDbCircle
 10
146.7516559999999
 20
277.811343
 30
0.0
 40
7.0
100
AcDbArc
 50
180.0
 51
270.0
  0
LINE
  5
C973
330
C815
100
AcDbEntity
  8
4
  6
CENTER
100
AcDbLine
 10
153.0016559999999
 20
341.811343
 30
0.0
 11
140.5016559999999
 21
341.811343
 31
0.0
  0
CIRCLE
  5
C974
330
C815
100
AcDbEntity
  8
1
  6
Continuous
100
AcDbCircle
 10
146.7516559999999
 20
341.811343
 30
0.0
 40
3.25
  0
ARC
  5
C975
330
C815
100
AcDbEntity
  8
1
  6
Continuous
100
AcDbCircle
 10
146.7516559999999
 20
341.811343
 30
0.0
 40
7.0
100
AcDbArc
 50
90.0
 51
180.0
  0
LINE
  5
C976
330
C815
100
AcDbEntity
  8
4
  6
CENTER
100
AcDbLine
 10
146.7516559999999
 20
335.561343
 30
0.0
 11
146.7516559999999
 21
348.061343
 31
0.0
  0
LINE
  5
C977
330
C815
100
AcDbEntity
  8
1
  6
Continuous
100
AcDbLine
 10
73.75
 20
215.0912959999998
 30
0.0
 11
41.25
 21
215.0912959999998
 31
0.0
  0
ARC
  5
C978
330
C815
100
AcDbEntity
  8
1
  6
Continuous
100
AcDbCircle
 10
40.89430899999999
 20
216.6182399999999
 30
0.0
 40
1.212217
100
AcDbArc
 50
24.41332
 51
50.77817899999999
  0
LINE
  5
C979
330
C815
100
AcDbEntity
  8
1
  6
Continuous
100
AcDbLine
 10
41.660823
 20
217.557349
 30
0.0
 11
41.403036
 21
218.3567559999999
 31
0.0
  0
ARC
  5
C97A
330
C815
100
AcDbEntity
  8
1
  6
Continuous
100
AcDbCircle
 10
41.782488
 20
218.4791189999998
 30
0.0
 40
0.398694
100
AcDbArc
 50
123.1388479999999
 51
197.873131
  0
ARC
  5
C97B
330
C815
100
AcDbEntity
  8
1
  6
Continuous
100
AcDbCircle
 10
42.36947199999996
 20
217.716718
 30
0.0
 40
1.360029999999999
100
AcDbArc
 50
104.2867189999999
 51
126.288607
  0
ARC
  5
C97C
330
C815
100
AcDbEntity
  8
1
  6
Continuous
100
AcDbCircle
 10
71.256002
 20
218.6523799999999
 30
0.0
 40
2.338996999999999
100
AcDbArc
 50
319.015841
 51
344.9161179999999
  0
ARC
  5
C97D
330
C815
100
AcDbEntity
  8
1
  6
Continuous
100
AcDbCircle
 10
72.82174399999998
 20
218.2664359999999
 30
0.0
 40
0.76825
100
AcDbArc
 50
345.5231819999998
 51
90.0
  0
LINE
  5
C97E
330
C815
100
AcDbEntity
  8
1
  6
Continuous
100
AcDbLine
 10
73.51441099999998
 20
218.0436959999999
 30
0.0
 11
73.565601
 21
218.0743819999999
 31
0.0
  0
LINE
  5
C97F
330
C815
100
AcDbEntity
  8
1
  6
Continuous
100
AcDbLine
 10
72.82174399999998
 20
219.034686
 30
0.0
 11
42.033851
 21
219.034686
 31
0.0
  0
LINE
  5
C980
330
C815
100
AcDbEntity
  8
1
  6
Continuous
100
AcDbLine
 10
73.75
 20
217.1183479999999
 30
0.0
 11
73.75
 21
215.091271
 31
0.0
  0
LINE
  5
C981
330
C815
100
AcDbEntity
  8
1
  6
Continuous
100
AcDbLine
 10
41.25
 20
217.1183479999999
 30
0.0
 11
41.25
 21
215.0912959999998
 31
0.0
  0
LINE
  5
C982
330
C815
100
AcDbEntity
  8
1
  6
Continuous
100
AcDbLine
 10
96.49972300000001
 20
222.710298
 30
0.0
 11
18.499723
 21
222.710298
 31
0.0
  0
LINE
  5
C983
330
C815
100
AcDbEntity
  8
1
  6
Continuous
100
AcDbLine
 10
96.49972300000001
 20
220.710298
 30
0.0
 11
96.49972300000001
 21
222.710298
 31
0.0
  0
LINE
  5
C984
330
C815
100
AcDbEntity
  8
1
  6
Continuous
100
AcDbLine
 10
18.499723
 20
222.710298
 30
0.0
 11
18.499723
 21
220.710298
 31
0.0
  0
LINE
  5
C985
330
C815
100
AcDbEntity
  8
1
  6
Continuous
100
AcDbLine
 10
96.49972300000001
 20
220.710298
 30
0.0
 11
18.499723
 21
220.710298
 31
0.0
  0
LINE
  5
C986
330
C815
100
AcDbEntity
  8
1
  6
Continuous
100
AcDbLine
 10
91.93255999999999
 20
219.910298
 30
0.0
 11
23.0669
 21
219.910298
 31
0.0
  0
ARC
  5
C987
330
C815
100
AcDbEntity
  8
1
  6
Continuous
100
AcDbCircle
 10
23.0669
 20
221.845325
 30
0.0
 40
1.935027
100
AcDbArc
 50
215.9139189999999
 51
270.0
  0
ARC
  5
C988
330
C815
100
AcDbEntity
  8
1
  6
Continuous
100
AcDbCircle
 10
91.93255999999999
 20
221.8452979999999
 30
0.0
 40
1.935
100
AcDbArc
 50
270.0
 51
324.086493
  0
ARC
  5
C989
330
C815
100
AcDbEntity
  8
1
  6
Continuous
100
AcDbCircle
 10
74.51787
 20
223.9600089999999
 30
0.0
 40
4.749710999999998
100
AcDbArc
 50
270.0
 51
301.5019239999999
  0
ARC
  5
C98A
330
C815
100
AcDbEntity
  8
1
  6
Continuous
100
AcDbCircle
 10
40.481658
 20
223.9602979999999
 30
0.0
 40
4.75
100
AcDbArc
 50
238.499059
 51
270.0
  0
LINE
  5
C98B
330
C815
100
AcDbEntity
  8
1
  6
Continuous
100
AcDbLine
 10
74.51787
 20
219.210298
 30
0.0
 11
40.481658
 21
219.210298
 31
0.0
  0
LINE
  5
C98C
330
C815
100
AcDbEntity
  8
1
  6
Continuous
100
AcDbLine
 10
73.565601
 20
218.0743819999999
 30
0.0
 11
41.49409399999997
 21
218.0743819999999
 31
0.0
  0
LINE
  5
C98D
330
C815
100
AcDbEntity
  8
1
  6
Continuous
100
AcDbLine
 10
59.54705699999998
 20
215.0912959999998
 30
0.0
 11
57.52000500000001
 21
217.1183479999999
 31
0.0
  0
LINE
  5
C98E
330
C815
100
AcDbEntity
  8
1
  6
Continuous
100
AcDbLine
 10
58.13284300000001
 20
215.0912959999998
 30
0.0
 11
56.105791
 21
217.1183479999999
 31
0.0
  0
LINE
  5
C98F
330
C815
100
AcDbEntity
  8
1
  6
Continuous
100
AcDbLine
 10
56.71863
 20
215.0912959999998
 30
0.0
 11
54.691577
 21
217.1183479999999
 31
0.0
  0
LINE
  5
C990
330
C815
100
AcDbEntity
  8
1
  6
Continuous
100
AcDbLine
 10
55.304416
 20
215.0912959999998
 30
0.0
 11
53.277363
 21
217.1183479999999
 31
0.0
  0
LINE
  5
C991
330
C815
100
AcDbEntity
  8
1
  6
Continuous
100
AcDbLine
 10
53.890202
 20
215.0912959999998
 30
0.0
 11
51.86315
 21
217.1183479999999
 31
0.0
  0
LINE
  5
C992
330
C815
100
AcDbEntity
  8
1
  6
Continuous
100
AcDbLine
 10
52.47598899999999
 20
215.0912959999998
 30
0.0
 11
50.448937
 21
217.1183479999999
 31
0.0
  0
LINE
  5
C993
330
C815
100
AcDbEntity
  8
1
  6
Continuous
100
AcDbLine
 10
51.061775
 20
215.0912959999998
 30
0.0
 11
49.034723
 21
217.1183479999999
 31
0.0
  0
LINE
  5
C994
330
C815
100
AcDbEntity
  8
1
  6
Continuous
100
AcDbLine
 10
49.647562
 20
215.0912959999998
 30
0.0
 11
47.62050900000001
 21
217.1183479999999
 31
0.0
  0
LINE
  5
C995
330
C815
100
AcDbEntity
  8
1
  6
Continuous
100
AcDbLine
 10
48.233348
 20
215.0912959999998
 30
0.0
 11
46.206296
 21
217.1183479999999
 31
0.0
  0
LINE
  5
C996
330
C815
100
AcDbEntity
  8
1
  6
Continuous
100
AcDbLine
 10
46.81913499999999
 20
215.0912959999998
 30
0.0
 11
44.792082
 21
217.1183479999999
 31
0.0
  0
LINE
  5
C997
330
C815
100
AcDbEntity
  8
1
  6
Continuous
100
AcDbLine
 10
45.404921
 20
215.0912959999998
 30
0.0
 11
43.37786799999999
 21
217.1183479999999
 31
0.0
  0
LINE
  5
C998
330
C815
100
AcDbEntity
  8
1
  6
Continuous
100
AcDbLine
 10
43.990707
 20
215.0912959999998
 30
0.0
 11
41.963656
 21
217.1183479999999
 31
0.0
  0
LINE
  5
C999
330
C815
100
AcDbEntity
  8
1
  6
Continuous
100
AcDbLine
 10
42.576494
 20
215.0912959999998
 30
0.0
 11
41.25
 21
216.4177899999998
 31
0.0
  0
LINE
  5
C99A
330
C815
100
AcDbEntity
  8
1
  6
Continuous
100
AcDbLine
 10
60.96126999999999
 20
215.0912959999998
 30
0.0
 11
58.93421800000001
 21
217.1183479999999
 31
0.0
  0
LINE
  5
C99B
330
C815
100
AcDbEntity
  8
1
  6
Continuous
100
AcDbLine
 10
62.375484
 20
215.0912959999998
 30
0.0
 11
60.34843099999999
 21
217.1183479999999
 31
0.0
  0
LINE
  5
C99C
330
C815
100
AcDbEntity
  8
1
  6
Continuous
100
AcDbLine
 10
63.78969699999998
 20
215.0912959999998
 30
0.0
 11
61.76264499999999
 21
217.1183479999999
 31
0.0
  0
LINE
  5
C99D
330
C815
100
AcDbEntity
  8
1
  6
Continuous
100
AcDbLine
 10
65.20391100000001
 20
215.0912959999998
 30
0.0
 11
63.17685899999999
 21
217.1183479999999
 31
0.0
  0
LINE
  5
C99E
330
C815
100
AcDbEntity
  8
1
  6
Continuous
100
AcDbLine
 10
66.61812399999999
 20
215.0912959999998
 30
0.0
 11
64.591072
 21
217.1183479999999
 31
0.0
  0
LINE
  5
C99F
330
C815
100
AcDbEntity
  8
1
  6
Continuous
100
AcDbLine
 10
68.032338
 20
215.0912959999998
 30
0.0
 11
66.005286
 21
217.1183479999999
 31
0.0
  0
LINE
  5
C9A0
330
C815
100
AcDbEntity
  8
1
  6
Continuous
100
AcDbLine
 10
69.44655199999999
 20
215.0912959999998
 30
0.0
 11
67.4195
 21
217.1183479999999
 31
0.0
  0
LINE
  5
C9A1
330
C815
100
AcDbEntity
  8
1
  6
Continuous
100
AcDbLine
 10
70.860765
 20
215.0912959999998
 30
0.0
 11
68.833712
 21
217.1183479999999
 31
0.0
  0
LINE
  5
C9A2
330
C815
100
AcDbEntity
  8
1
  6
Continuous
100
AcDbLine
 10
72.274979
 20
215.0912959999998
 30
0.0
 11
70.24792600000001
 21
217.1183479999999
 31
0.0
  0
LINE
  5
C9A3
330
C815
100
AcDbEntity
  8
1
  6
Continuous
100
AcDbLine
 10
73.689192
 20
215.0912959999998
 30
0.0
 11
71.66214
 21
217.1183479999999
 31
0.0
  0
LINE
  5
C9A4
330
C815
100
AcDbEntity
  8
1
  6
Continuous
100
AcDbLine
 10
73.75
 20
216.444702
 30
0.0
 11
73.07635400000002
 21
217.1183479999999
 31
0.0
  0
LINE
  5
C9A5
330
C815
100
AcDbEntity
  8
1
  6
Continuous
100
AcDbLine
 10
55.452942
 20
215.0912959999998
 30
0.0
 11
57.47999499999998
 21
217.1183479999999
 31
0.0
  0
LINE
  5
C9A6
330
C815
100
AcDbEntity
  8
1
  6
Continuous
100
AcDbLine
 10
52.624515
 20
215.0912959999998
 30
0.0
 11
54.65156700000001
 21
217.1183479999999
 31
0.0
  0
LINE
  5
C9A7
330
C815
100
AcDbEntity
  8
1
  6
Continuous
100
AcDbLine
 10
49.796088
 20
215.0912959999998
 30
0.0
 11
51.823141
 21
217.1183479999999
 31
0.0
  0
LINE
  5
C9A8
330
C815
100
AcDbEntity
  8
1
  6
Continuous
100
AcDbLine
 10
46.967661
 20
215.0912959999998
 30
0.0
 11
48.994713
 21
217.1183479999999
 31
0.0
  0
LINE
  5
C9A9
330
C815
100
AcDbEntity
  8
1
  6
Continuous
100
AcDbLine
 10
44.139234
 20
215.0912959999998
 30
0.0
 11
46.166286
 21
217.1183479999999
 31
0.0
  0
LINE
  5
C9AA
330
C815
100
AcDbEntity
  8
1
  6
Continuous
100
AcDbLine
 10
41.310807
 20
215.0912959999998
 30
0.0
 11
43.337859
 21
217.1183479999999
 31
0.0
  0
LINE
  5
C9AB
330
C815
100
AcDbEntity
  8
1
  6
Continuous
100
AcDbLine
 10
58.28136999999999
 20
215.0912959999998
 30
0.0
 11
60.308422
 21
217.1183479999999
 31
0.0
  0
LINE
  5
C9AC
330
C815
100
AcDbEntity
  8
1
  6
Continuous
100
AcDbLine
 10
61.109797
 20
215.0912959999998
 30
0.0
 11
63.136849
 21
217.1183479999999
 31
0.0
  0
LINE
  5
C9AD
330
C815
100
AcDbEntity
  8
1
  6
Continuous
100
AcDbLine
 10
63.938224
 20
215.0912959999998
 30
0.0
 11
65.965277
 21
217.1183479999999
 31
0.0
  0
LINE
  5
C9AE
330
C815
100
AcDbEntity
  8
1
  6
Continuous
100
AcDbLine
 10
66.766651
 20
215.0912959999998
 30
0.0
 11
68.79370300000001
 21
217.1183479999999
 31
0.0
  0
LINE
  5
C9AF
330
C815
100
AcDbEntity
  8
1
  6
Continuous
100
AcDbLine
 10
69.595078
 20
215.0912959999998
 30
0.0
 11
71.62213
 21
217.1183479999999
 31
0.0
  0
LINE
  5
C9B0
330
C815
100
AcDbEntity
  8
1
  6
Continuous
100
AcDbLine
 10
73.75
 20
216.4177899999998
 30
0.0
 11
72.423505
 21
215.0912959999998
 31
0.0
  0
LINE
  5
C9B1
330
C815
100
AcDbEntity
  8
4
  6
CENTER
100
AcDbLine
 10
89.499723
 20
218.250827
 30
0.0
 11
89.499723
 21
225.364622
 31
0.0
  0
LINE
  5
C9B2
330
C815
100
AcDbEntity
  8
4
  6
CENTER
100
AcDbLine
 10
25.499723
 20
224.887404
 30
0.0
 11
25.499723
 21
217.514668
 31
0.0
  0
LINE
  5
C9B3
330
C815
100
AcDbEntity
  8
1
  6
Continuous
100
AcDbLine
 10
194.8175369999999
 20
218.0743819999999
 30
0.0
 11
162.7460299999999
 21
218.0743819999999
 31
0.0
  0
LINE
  5
C9B4
330
C815
100
AcDbEntity
  8
1
  6
Continuous
100
AcDbLine
 10
195.769806
 20
219.210298
 30
0.0
 11
161.7335939999998
 21
219.210298
 31
0.0
  0
LINE
  5
C9B5
330
C815
100
AcDbEntity
  8
1
  6
Continuous
100
AcDbLine
 10
213.184496
 20
219.910298
 30
0.0
 11
144.318836
 21
219.910298
 31
0.0
  0
LINE
  5
C9B6
330
C815
100
AcDbEntity
  8
1
  6
Continuous
100
AcDbLine
 10
217.7516589999999
 20
220.710298
 30
0.0
 11
139.7516589999999
 21
220.710298
 31
0.0
  0
LINE
  5
C9B7
330
C815
100
AcDbEntity
  8
1
  6
Continuous
100
AcDbLine
 10
217.7516589999999
 20
222.710298
 30
0.0
 11
139.7516589999999
 21
222.710298
 31
0.0
  0
LINE
  5
C9B8
330
C815
100
AcDbEntity
  8
1
  6
Continuous
100
AcDbLine
 10
194.0736799999999
 20
219.034686
 30
0.0
 11
163.285787
 21
219.034686
 31
0.0
  0
ARC
  5
C9B9
330
C815
100
AcDbEntity
  8
1
  6
Continuous
100
AcDbCircle
 10
144.318836
 20
221.845325
 30
0.0
 40
1.935027
100
AcDbArc
 50
215.9139189999999
 51
270.0
  0
LINE
  5
C9BA
330
C815
100
AcDbEntity
  8
1
  6
Continuous
100
AcDbLine
 10
139.7516589999999
 20
222.710298
 30
0.0
 11
139.7516589999999
 21
220.710298
 31
0.0
  0
LINE
  5
C9BB
330
C815
100
AcDbEntity
  8
4
  6
CENTER
100
AcDbLine
 10
146.7516589999999
 20
224.887404
 30
0.0
 11
146.7516589999999
 21
217.514668
 31
0.0
  0
ARC
  5
C9BC
330
C815
100
AcDbEntity
  8
1
  6
Continuous
100
AcDbCircle
 10
161.7335939999998
 20
223.9602979999999
 30
0.0
 40
4.75
100
AcDbArc
 50
238.499059
 51
270.0
  0
ARC
  5
C9BD
330
C815
100
AcDbEntity
  8
1
  6
Continuous
100
AcDbCircle
 10
163.621408
 20
217.716718
 30
0.0
 40
1.360029999999999
100
AcDbArc
 50
104.2867189999999
 51
126.288607
  0
LINE
  5
C9BE
330
C815
100
AcDbEntity
  8
1
  6
Continuous
100
AcDbLine
 10
162.9127589999999
 20
217.557349
 30
0.0
 11
162.6549719999998
 21
218.3567559999999
 31
0.0
  0
ARC
  5
C9BF
330
C815
100
AcDbEntity
  8
1
  6
Continuous
100
AcDbCircle
 10
162.1462449999999
 20
216.6182399999999
 30
0.0
 40
1.212217
100
AcDbArc
 50
24.41332
 51
50.77817899999999
  0
ARC
  5
C9C0
330
C815
100
AcDbEntity
  8
1
  6
Continuous
100
AcDbCircle
 10
163.034424
 20
218.4791189999998
 30
0.0
 40
0.398694
100
AcDbArc
 50
123.1388479999999
 51
197.873131
  0
ARC
  5
C9C1
330
C815
100
AcDbEntity
  8
1
  6
Continuous
100
AcDbCircle
 10
195.769806
 20
223.9600089999999
 30
0.0
 40
4.749710999999998
100
AcDbArc
 50
270.0
 51
301.5019239999999
  0
LINE
  5
C9C2
330
C815
100
AcDbEntity
  8
1
  6
Continuous
100
AcDbLine
 10
194.7663469999999
 20
218.0436959999999
 30
0.0
 11
194.8175369999999
 21
218.0743819999999
 31
0.0
  0
ARC
  5
C9C3
330
C815
100
AcDbEntity
  8
1
  6
Continuous
100
AcDbCircle
 10
192.5079379999999
 20
218.6523799999999
 30
0.0
 40
2.338996999999999
100
AcDbArc
 50
319.015841
 51
344.9161179999999
  0
ARC
  5
C9C4
330
C815
100
AcDbEntity
  8
1
  6
Continuous
100
AcDbCircle
 10
194.0736799999999
 20
218.2664359999999
 30
0.0
 40
0.76825
100
AcDbArc
 50
345.5231819999998
 51
90.0
  0
ARC
  5
C9C5
330
C815
100
AcDbEntity
  8
1
  6
Continuous
100
AcDbCircle
 10
213.184496
 20
221.8452979999999
 30
0.0
 40
1.935
100
AcDbArc
 50
270.0
 51
324.086493
  0
LINE
  5
C9C6
330
C815
100
AcDbEntity
  8
4
  6
CENTER
100
AcDbLine
 10
210.7516589999999
 20
218.250827
 30
0.0
 11
210.7516589999999
 21
225.364622
 31
0.0
  0
LINE
  5
C9C7
330
C815
100
AcDbEntity
  8
1
  6
Continuous
100
AcDbLine
 10
217.7516589999999
 20
220.710298
 30
0.0
 11
217.7516589999999
 21
222.710298
 31
0.0
  0
LINE
  5
C9C8
330
C815
100
AcDbEntity
  8
1
  6
Continuous
100
AcDbLine
 10
195.0019359999997
 20
215.0912959999998
 30
0.0
 11
162.501936
 21
215.0912959999998
 31
0.0
  0
LINE
  5
C9C9
330
C815
100
AcDbEntity
  8
1
  6
Continuous
100
AcDbLine
 10
213.2516779999999
 20
214.9461529999999
 30
0.0
 11
213.2516779999999
 21
219.910298
 31
0.0
  0
LINE
  5
C9CA
330
C815
100
AcDbEntity
  8
1
  6
Continuous
100
AcDbLine
 10
206.251678
 20
219.910298
 30
0.0
 11
206.251678
 21
218.0879099999999
 31
0.0
  0
LINE
  5
C9CB
330
C815
100
AcDbEntity
  8
1
  6
Continuous
100
AcDbLine
 10
205.2516779999999
 20
216.0878779999999
 30
0.0
 11
205.2516779999999
 21
217.08791
 31
0.0
  0
LINE
  5
C9CC
330
C815
100
AcDbEntity
  8
1
  6
Continuous
100
AcDbLine
 10
207.2516779999999
 20
216.0878779999999
 30
0.0
 11
207.2516779999999
 21
217.08791
 31
0.0
  0
ARC
  5
C9CD
330
C815
100
AcDbEntity
  8
1
  6
Continuous
100
AcDbCircle
 10
206.251678
 20
217.08791
 30
0.0
 40
1.0
100
AcDbArc
 50
0.0
 51
180.0
  0
ARC
  5
C9CE
330
C815
100
AcDbEntity
  8
1
  6
Continuous
100
AcDbCircle
 10
206.251678
 20
216.0878779999999
 30
0.0
 40
1.0
100
AcDbArc
 50
180.0
 51
0.0
  0
LINE
  5
C9CF
330
C815
100
AcDbEntity
  8
1
  6
Continuous
100
AcDbLine
 10
199.251678
 20
215.025207
 30
0.0
 11
199.251678
 21
219.910298
 31
0.0
  0
LINE
  5
C9D0
330
C815
100
AcDbEntity
  8
1
  6
Continuous
100
AcDbLine
 10
199.251678
 20
202.894092
 30
0.0
 11
199.251678
 21
189.410298
 31
0.0
  0
LINE
  5
C9D1
330
C815
100
AcDbEntity
  8
1
  6
Continuous
100
AcDbLine
 10
212.7516779999999
 20
188.910298
 30
0.0
 11
199.7516779999999
 21
188.910298
 31
0.0
  0
ARC
  5
C9D2
330
C815
100
AcDbEntity
  8
1
  6
Continuous
100
AcDbCircle
 10
199.7516779999999
 20
189.410298
 30
0.0
 40
0.5
100
AcDbArc
 50
180.0
 51
270.0
  0
ARC
  5
C9D3
330
C815
100
AcDbEntity
  8
1
  6
Continuous
100
AcDbCircle
 10
202.751678
 20
193.743631
 30
0.0
 40
4.833332999999997
100
AcDbArc
 50
223.6028189999999
 51
316.397181
  0
ARC
  5
C9D4
330
C815
100
AcDbEntity
  8
1
  6
Continuous
100
AcDbCircle
 10
209.7516779999998
 20
193.743631
 30
0.0
 40
4.833332999999997
100
AcDbArc
 50
223.6028189999999
 51
316.397181
  0
LINE
  5
C9D5
330
C815
100
AcDbEntity
  8
1
  6
Continuous
100
AcDbLine
 10
206.251678
 20
202.894092
 30
0.0
 11
206.251678
 21
190.410298
 31
0.0
  0
LINE
  5
C9D6
330
C815
100
AcDbEntity
  8
1
  6
Continuous
100
AcDbLine
 10
213.2516779999999
 20
202.894092
 30
0.0
 11
213.2516779999999
 21
189.410298
 31
0.0
  0
ARC
  5
C9D7
330
C815
100
AcDbEntity
  8
1
  6
Continuous
100
AcDbCircle
 10
212.7516779999999
 20
189.410298
 30
0.0
 40
0.5
100
AcDbArc
 50
270.0
 51
0.0
  0
LINE
  5
C9D8
330
C815
100
AcDbEntity
  8
1
  6
Continuous
100
AcDbLine
 10
334.4364259999999
 20
219.910298
 30
0.0
 11
308.086493
 21
219.910298
 31
0.0
  0
LINE
  5
C9D9
330
C815
100
AcDbEntity
  8
1
  6
Continuous
100
AcDbLine
 10
339.003589
 20
220.710298
 30
0.0
 11
261.0035889999999
 21
220.710298
 31
0.0
  0
LINE
  5
C9DA
330
C815
100
AcDbEntity
  8
1
  6
Continuous
100
AcDbLine
 10
339.003589
 20
222.710298
 30
0.0
 11
261.0035889999999
 21
222.710298
 31
0.0
  0
ARC
  5
C9DB
330
C815
100
AcDbEntity
  8
1
  6
Continuous
100
AcDbCircle
 10
334.4364259999999
 20
221.8452979999999
 30
0.0
 40
1.935
100
AcDbArc
 50
270.0
 51
324.086493
  0
LINE
  5
C9DC
330
C815
100
AcDbEntity
  8
4
  6
CENTER
100
AcDbLine
 10
332.0035889999999
 20
218.250827
 30
0.0
 11
332.0035889999999
 21
225.364622
 31
0.0
  0
LINE
  5
C9DD
330
C815
100
AcDbEntity
  8
1
  6
Continuous
100
AcDbLine
 10
339.003589
 20
220.710298
 30
0.0
 11
339.003589
 21
222.710298
 31
0.0
  0
ARC
  5
C9DE
330
C815
100
AcDbEntity
  8
1
  6
Continuous
100
AcDbCircle
 10
265.570766
 20
221.845325
 30
0.0
 40
1.935027
100
AcDbArc
 50
215.9139189999999
 51
270.0
  0
LINE
  5
C9DF
330
C815
100
AcDbEntity
  8
1
  6
Continuous
100
AcDbLine
 10
261.0035889999999
 20
222.710298
 30
0.0
 11
261.0035889999999
 21
220.710298
 31
0.0
  0
LINE
  5
C9E0
330
C815
100
AcDbEntity
  8
4
  6
CENTER
100
AcDbLine
 10
268.0035889999999
 20
224.887404
 30
0.0
 11
268.0035889999999
 21
217.514668
 31
0.0
  0
LINE
  5
C9E1
330
C815
100
AcDbEntity
  8
1
  6
Continuous
100
AcDbLine
 10
316.0694669999998
 20
218.0743819999999
 30
0.0
 11
308.086493
 21
218.0743819999999
 31
0.0
  0
LINE
  5
C9E2
330
C815
100
AcDbEntity
  8
1
  6
Continuous
100
AcDbLine
 10
317.0217359999999
 20
219.210298
 30
0.0
 11
308.086493
 21
219.210298
 31
0.0
  0
LINE
  5
C9E3
330
C815
100
AcDbEntity
  8
1
  6
Continuous
100
AcDbLine
 10
315.32561
 20
219.034686
 30
0.0
 11
308.086493
 21
219.034686
 31
0.0
  0
ARC
  5
C9E4
330
C815
100
AcDbEntity
  8
1
  6
Continuous
100
AcDbCircle
 10
282.985524
 20
223.9602979999999
 30
0.0
 40
4.75
100
AcDbArc
 50
238.499059
 51
270.0
  0
ARC
  5
C9E5
330
C815
100
AcDbEntity
  8
1
  6
Continuous
100
AcDbCircle
 10
284.873338
 20
217.716718
 30
0.0
 40
1.360029999999999
100
AcDbArc
 50
104.2867189999999
 51
126.288607
  0
LINE
  5
C9E6
330
C815
100
AcDbEntity
  8
1
  6
Continuous
100
AcDbLine
 10
284.164689
 20
217.557349
 30
0.0
 11
283.906902
 21
218.3567559999999
 31
0.0
  0
ARC
  5
C9E7
330
C815
100
AcDbEntity
  8
1
  6
Continuous
100
AcDbCircle
 10
283.3981749999999
 20
216.6182399999999
 30
0.0
 40
1.212217
100
AcDbArc
 50
24.41332
 51
50.77817899999999
  0
ARC
  5
C9E8
330
C815
100
AcDbEntity
  8
1
  6
Continuous
100
AcDbCircle
 10
284.286354
 20
218.4791189999998
 30
0.0
 40
0.398694
100
AcDbArc
 50
123.1388479999999
 51
197.873131
  0
ARC
  5
C9E9
330
C815
100
AcDbEntity
  8
1
  6
Continuous
100
AcDbCircle
 10
317.0217359999999
 20
223.9600089999999
 30
0.0
 40
4.749710999999998
100
AcDbArc
 50
270.0
 51
301.5019239999999
  0
LINE
  5
C9EA
330
C815
100
AcDbEntity
  8
1
  6
Continuous
100
AcDbLine
 10
316.018277
 20
218.0436959999999
 30
0.0
 11
316.0694669999998
 21
218.0743819999999
 31
0.0
  0
ARC
  5
C9EB
330
C815
100
AcDbEntity
  8
1
  6
Continuous
100
AcDbCircle
 10
313.7598679999999
 20
218.6523799999999
 30
0.0
 40
2.338996999999999
100
AcDbArc
 50
319.015841
 51
344.9161179999999
  0
ARC
  5
C9EC
330
C815
100
AcDbEntity
  8
1
  6
Continuous
100
AcDbCircle
 10
315.32561
 20
218.2664359999999
 30
0.0
 40
0.76825
100
AcDbArc
 50
345.5231819999998
 51
90.0
  0
LINE
  5
C9ED
330
C815
100
AcDbEntity
  8
1
  6
Continuous
100
AcDbLine
 10
316.253866
 20
215.0912959999998
 30
0.0
 11
308.086493
 21
215.0912959999998
 31
0.0
  0
LINE
  5
C9EE
330
C815
100
AcDbEntity
  8
1
  6
Continuous
100
AcDbLine
 10
41.25
 20
217.1183479999999
 30
0.0
 11
73.75
 21
217.1183479999999
 31
0.0
  0
LINE
  5
C9EF
330
C815
100
AcDbEntity
  8
1
  6
Continuous
100
AcDbLine
 10
162.501936
 20
217.1183479999999
 30
0.0
 11
195.0019359999997
 21
217.1183479999999
 31
0.0
  0
LINE
  5
C9F0
330
C815
100
AcDbEntity
  8
1
  6
Continuous
100
AcDbLine
 10
195.0019359999997
 20
217.1183479999999
 30
0.0
 11
195.0019359999997
 21
215.091271
 31
0.0
  0
LINE
  5
C9F1
330
C815
100
AcDbEntity
  8
1
  6
Continuous
100
AcDbLine
 10
195.0019359999997
 20
216.444702
 30
0.0
 11
194.3282899999999
 21
217.1183479999999
 31
0.0
  0
LINE
  5
C9F2
330
C815
100
AcDbEntity
  8
1
  6
Continuous
100
AcDbLine
 10
195.0019359999997
 20
216.4177899999998
 30
0.0
 11
193.6754409999998
 21
215.0912959999998
 31
0.0
  0
LINE
  5
C9F3
330
C815
100
AcDbEntity
  8
1
  6
Continuous
100
AcDbLine
 10
186.455847
 20
215.0912959999998
 30
0.0
 11
184.428795
 21
217.1183479999999
 31
0.0
  0
LINE
  5
C9F4
330
C815
100
AcDbEntity
  8
1
  6
Continuous
100
AcDbLine
 10
182.213206
 20
215.0912959999998
 30
0.0
 11
180.1861539999999
 21
217.1183479999999
 31
0.0
  0
LINE
  5
C9F5
330
C815
100
AcDbEntity
  8
1
  6
Continuous
100
AcDbLine
 10
183.62742
 20
215.0912959999998
 30
0.0
 11
181.600367
 21
217.1183479999999
 31
0.0
  0
LINE
  5
C9F6
330
C815
100
AcDbEntity
  8
1
  6
Continuous
100
AcDbLine
 10
179.533306
 20
215.0912959999998
 30
0.0
 11
181.560358
 21
217.1183479999999
 31
0.0
  0
LINE
  5
C9F7
330
C815
100
AcDbEntity
  8
1
  6
Continuous
100
AcDbLine
 10
182.3617329999999
 20
215.0912959999998
 30
0.0
 11
184.388785
 21
217.1183479999999
 31
0.0
  0
LINE
  5
C9F8
330
C815
100
AcDbEntity
  8
1
  6
Continuous
100
AcDbLine
 10
185.0416329999999
 20
215.0912959999998
 30
0.0
 11
183.0145809999999
 21
217.1183479999999
 31
0.0
  0
LINE
  5
C9F9
330
C815
100
AcDbEntity
  8
1
  6
Continuous
100
AcDbLine
 10
180.7989929999999
 20
215.0912959999998
 30
0.0
 11
178.771941
 21
217.1183479999999
 31
0.0
  0
LINE
  5
C9FA
330
C815
100
AcDbEntity
  8
1
  6
Continuous
100
AcDbLine
 10
193.526915
 20
215.0912959999998
 30
0.0
 11
191.499862
 21
217.1183479999999
 31
0.0
  0
LINE
  5
C9FB
330
C815
100
AcDbEntity
  8
1
  6
Continuous
100
AcDbLine
 10
194.9411279999999
 20
215.0912959999998
 30
0.0
 11
192.9140759999999
 21
217.1183479999999
 31
0.0
  0
LINE
  5
C9FC
330
C815
100
AcDbEntity
  8
1
  6
Continuous
100
AcDbLine
 10
190.847014
 20
215.0912959999998
 30
0.0
 11
192.874066
 21
217.1183479999999
 31
0.0
  0
LINE
  5
C9FD
330
C815
100
AcDbEntity
  8
1
  6
Continuous
100
AcDbLine
 10
188.018587
 20
215.0912959999998
 30
0.0
 11
190.045639
 21
217.1183479999999
 31
0.0
  0
LINE
  5
C9FE
330
C815
100
AcDbEntity
  8
1
  6
Continuous
100
AcDbLine
 10
192.112701
 20
215.0912959999998
 30
0.0
 11
190.0856479999999
 21
217.1183479999999
 31
0.0
  0
LINE
  5
C9FF
330
C815
100
AcDbEntity
  8
1
  6
Continuous
100
AcDbLine
 10
187.8700599999999
 20
215.0912959999998
 30
0.0
 11
185.8430079999999
 21
217.1183479999999
 31
0.0
  0
LINE
  5
CA00
330
C815
100
AcDbEntity
  8
1
  6
Continuous
100
AcDbLine
 10
185.1901599999999
 20
215.0912959999998
 30
0.0
 11
187.2172129999999
 21
217.1183479999999
 31
0.0
  0
LINE
  5
CA01
330
C815
100
AcDbEntity
  8
1
  6
Continuous
100
AcDbLine
 10
189.284274
 20
215.0912959999998
 30
0.0
 11
187.2572219999999
 21
217.1183479999999
 31
0.0
  0
LINE
  5
CA02
330
C815
100
AcDbEntity
  8
1
  6
Continuous
100
AcDbLine
 10
190.6984879999999
 20
215.0912959999998
 30
0.0
 11
188.671436
 21
217.1183479999999
 31
0.0
  0
LINE
  5
CA03
330
C815
100
AcDbEntity
  8
1
  6
Continuous
100
AcDbLine
 10
168.2195969999999
 20
215.0912959999998
 30
0.0
 11
170.2466489999999
 21
217.1183479999999
 31
0.0
  0
LINE
  5
CA04
330
C815
100
AcDbEntity
  8
1
  6
Continuous
100
AcDbLine
 10
169.485284
 20
215.0912959999998
 30
0.0
 11
167.458232
 21
217.1183479999999
 31
0.0
  0
LINE
  5
CA05
330
C815
100
AcDbEntity
  8
1
  6
Continuous
100
AcDbLine
 10
170.8994979999999
 20
215.0912959999998
 30
0.0
 11
168.872445
 21
217.1183479999999
 31
0.0
  0
LINE
  5
CA06
330
C815
100
AcDbEntity
  8
1
  6
Continuous
100
AcDbLine
 10
165.3911699999999
 20
215.0912959999998
 30
0.0
 11
167.4182219999998
 21
217.1183479999999
 31
0.0
  0
LINE
  5
CA07
330
C815
100
AcDbEntity
  8
1
  6
Continuous
100
AcDbLine
 10
162.5627429999999
 20
215.0912959999998
 30
0.0
 11
164.589795
 21
217.1183479999999
 31
0.0
  0
LINE
  5
CA08
330
C815
100
AcDbEntity
  8
1
  6
Continuous
100
AcDbLine
 10
165.242643
 20
215.0912959999998
 30
0.0
 11
163.2155919999999
 21
217.1183479999999
 31
0.0
  0
LINE
  5
CA09
330
C815
100
AcDbEntity
  8
1
  6
Continuous
100
AcDbLine
 10
166.656857
 20
215.0912959999998
 30
0.0
 11
164.629804
 21
217.1183479999999
 31
0.0
  0
LINE
  5
CA0A
330
C815
100
AcDbEntity
  8
1
  6
Continuous
100
AcDbLine
 10
168.0710709999999
 20
215.0912959999998
 30
0.0
 11
166.0440179999999
 21
217.1183479999999
 31
0.0
  0
LINE
  5
CA0B
330
C815
100
AcDbEntity
  8
1
  6
Continuous
100
AcDbLine
 10
162.501936
 20
217.1183479999999
 30
0.0
 11
162.501936
 21
215.0912959999998
 31
0.0
  0
LINE
  5
CA0C
330
C815
100
AcDbEntity
  8
1
  6
Continuous
100
AcDbLine
 10
163.82843
 20
215.0912959999998
 30
0.0
 11
162.501936
 21
216.4177899999998
 31
0.0
  0
LINE
  5
CA0D
330
C815
100
AcDbEntity
  8
1
  6
Continuous
100
AcDbLine
 10
176.704878
 20
215.0912959999998
 30
0.0
 11
178.7319309999998
 21
217.1183479999999
 31
0.0
  0
LINE
  5
CA0E
330
C815
100
AcDbEntity
  8
1
  6
Continuous
100
AcDbLine
 10
177.9705659999999
 20
215.0912959999998
 30
0.0
 11
175.9435129999999
 21
217.1183479999999
 31
0.0
  0
LINE
  5
CA0F
330
C815
100
AcDbEntity
  8
1
  6
Continuous
100
AcDbLine
 10
179.384779
 20
215.0912959999998
 30
0.0
 11
177.357727
 21
217.1183479999999
 31
0.0
  0
LINE
  5
CA10
330
C815
100
AcDbEntity
  8
1
  6
Continuous
100
AcDbLine
 10
176.556352
 20
215.0912959999998
 30
0.0
 11
174.529299
 21
217.1183479999999
 31
0.0
  0
LINE
  5
CA11
330
C815
100
AcDbEntity
  8
1
  6
Continuous
100
AcDbLine
 10
175.142138
 20
215.0912959999998
 30
0.0
 11
173.1150859999999
 21
217.1183479999999
 31
0.0
  0
LINE
  5
CA12
330
C815
100
AcDbEntity
  8
1
  6
Continuous
100
AcDbLine
 10
173.876451
 20
215.0912959999998
 30
0.0
 11
175.9035029999997
 21
217.1183479999999
 31
0.0
  0
LINE
  5
CA13
330
C815
100
AcDbEntity
  8
1
  6
Continuous
100
AcDbLine
 10
171.048024
 20
215.0912959999998
 30
0.0
 11
173.075077
 21
217.1183479999999
 31
0.0
  0
LINE
  5
CA14
330
C815
100
AcDbEntity
  8
1
  6
Continuous
100
AcDbLine
 10
172.313711
 20
215.0912959999998
 30
0.0
 11
170.286659
 21
217.1183479999999
 31
0.0
  0
LINE
  5
CA15
330
C815
100
AcDbEntity
  8
1
  6
Continuous
100
AcDbLine
 10
173.727925
 20
215.0912959999998
 30
0.0
 11
171.700873
 21
217.1183479999999
 31
0.0
  0
LINE
  5
CA16
330
C815
100
AcDbEntity
  8
1
  6
Continuous
100
AcDbLine
 10
283.753866
 20
217.1183479999999
 30
0.0
 11
291.920685
 21
217.1183479999999
 31
0.0
  0
LINE
  5
CA17
330
C815
100
AcDbEntity
  8
1
  6
Continuous
100
AcDbLine
 10
316.253866
 20
216.4177899999998
 30
0.0
 11
314.927371
 21
215.0912959999998
 31
0.0
  0
LINE
  5
CA18
330
C815
100
AcDbEntity
  8
1
  6
Continuous
100
AcDbLine
 10
316.253866
 20
216.444702
 30
0.0
 11
315.58022
 21
217.1183479999999
 31
0.0
  0
LINE
  5
CA19
330
C815
100
AcDbEntity
  8
1
  6
Continuous
100
AcDbLine
 10
316.253866
 20
217.1183479999999
 30
0.0
 11
316.253866
 21
215.091271
 31
0.0
  0
LINE
  5
CA1A
330
C815
100
AcDbEntity
  8
1
  6
Continuous
100
AcDbLine
 10
313.3646309999999
 20
215.0912959999998
 30
0.0
 11
311.337578
 21
217.1183479999999
 31
0.0
  0
LINE
  5
CA1B
330
C815
100
AcDbEntity
  8
1
  6
Continuous
100
AcDbLine
 10
312.098944
 20
215.0912959999998
 30
0.0
 11
314.1259959999998
 21
217.1183479999999
 31
0.0
  0
LINE
  5
CA1C
330
C815
100
AcDbEntity
  8
1
  6
Continuous
100
AcDbLine
 10
311.950418
 20
215.0912959999998
 30
0.0
 11
309.9233659999999
 21
217.1183479999999
 31
0.0
  0
LINE
  5
CA1D
330
C815
100
AcDbEntity
  8
1
  6
Continuous
100
AcDbLine
 10
310.536204
 20
215.0912959999998
 30
0.0
 11
308.5091519999999
 21
217.1183479999999
 31
0.0
  0
LINE
  5
CA1E
330
C815
100
AcDbEntity
  8
1
  6
Continuous
100
AcDbLine
 10
308.086493
 20
216.735698
 30
0.0
 11
308.4691429999999
 21
217.1183479999999
 31
0.0
  0
LINE
  5
CA1F
330
C815
100
AcDbEntity
  8
1
  6
Continuous
100
AcDbLine
 10
309.12199
 20
215.0912959999998
 30
0.0
 11
308.086493
 21
216.126793
 31
0.0
  0
LINE
  5
CA20
330
C815
100
AcDbEntity
  8
1
  6
Continuous
100
AcDbLine
 10
309.2705169999999
 20
215.0912959999998
 30
0.0
 11
311.297569
 21
217.1183479999999
 31
0.0
  0
LINE
  5
CA21
330
C815
100
AcDbEntity
  8
1
  6
Continuous
100
AcDbLine
 10
316.1930579999999
 20
215.0912959999998
 30
0.0
 11
314.1660059999999
 21
217.1183479999999
 31
0.0
  0
LINE
  5
CA22
330
C815
100
AcDbEntity
  8
1
  6
Continuous
100
AcDbLine
 10
314.7788450000001
 20
215.0912959999998
 30
0.0
 11
312.7517919999998
 21
217.1183479999999
 31
0.0
  0
LINE
  5
CA23
330
C815
100
AcDbEntity
  8
1
  6
Continuous
100
AcDbLine
 10
291.920685
 20
216.736252
 30
0.0
 11
291.5385889999999
 21
217.1183479999999
 31
0.0
  0
LINE
  5
CA24
330
C815
100
AcDbEntity
  8
1
  6
Continuous
100
AcDbLine
 10
285.0803599999998
 20
215.0912959999998
 30
0.0
 11
283.753866
 21
216.4177899999998
 31
0.0
  0
LINE
  5
CA25
330
C815
100
AcDbEntity
  8
1
  6
Continuous
100
AcDbLine
 10
283.753866
 20
217.1183479999999
 30
0.0
 11
283.753866
 21
215.0912959999998
 31
0.0
  0
LINE
  5
CA26
330
C815
100
AcDbEntity
  8
1
  6
Continuous
100
AcDbLine
 10
289.3230009999999
 20
215.0912959999998
 30
0.0
 11
287.295948
 21
217.1183479999999
 31
0.0
  0
LINE
  5
CA27
330
C815
100
AcDbEntity
  8
1
  6
Continuous
100
AcDbLine
 10
287.908787
 20
215.0912959999998
 30
0.0
 11
285.8817339999998
 21
217.1183479999999
 31
0.0
  0
LINE
  5
CA28
330
C815
100
AcDbEntity
  8
1
  6
Continuous
100
AcDbLine
 10
286.494573
 20
215.0912959999998
 30
0.0
 11
284.4675219999999
 21
217.1183479999999
 31
0.0
  0
LINE
  5
CA29
330
C815
100
AcDbEntity
  8
1
  6
Continuous
100
AcDbLine
 10
283.8146729999999
 20
215.0912959999998
 30
0.0
 11
285.841725
 21
217.1183479999999
 31
0.0
  0
LINE
  5
CA2A
330
C815
100
AcDbEntity
  8
1
  6
Continuous
100
AcDbLine
 10
286.6431
 20
215.0912959999998
 30
0.0
 11
288.6701519999999
 21
217.1183479999999
 31
0.0
  0
LINE
  5
CA2B
330
C815
100
AcDbEntity
  8
1
  6
Continuous
100
AcDbLine
 10
291.920685
 20
215.3220389999999
 30
0.0
 11
290.1243749999998
 21
217.1183479999999
 31
0.0
  0
LINE
  5
CA2C
330
C815
100
AcDbEntity
  8
1
  6
Continuous
100
AcDbLine
 10
290.737214
 20
215.0912959999998
 30
0.0
 11
288.7101620000001
 21
217.1183479999999
 31
0.0
  0
LINE
  5
CA2D
330
C815
100
AcDbEntity
  8
1
  6
Continuous
100
AcDbLine
 10
289.4715269999998
 20
215.0912959999998
 30
0.0
 11
291.498579
 21
217.1183479999999
 31
0.0
  0
LINE
  5
CA2E
330
C815
100
AcDbEntity
  8
1
  6
Continuous
100
AcDbLine
 10
291.920685
 20
218.0743819999999
 30
0.0
 11
283.9979599999999
 21
218.0743819999999
 31
0.0
  0
LINE
  5
CA2F
330
C815
100
AcDbEntity
  8
1
  6
Continuous
100
AcDbLine
 10
291.920685
 20
219.034686
 30
0.0
 11
284.5377169999998
 21
219.034686
 31
0.0
  0
LINE
  5
CA30
330
C815
100
AcDbEntity
  8
1
  6
Continuous
100
AcDbLine
 10
291.920685
 20
219.210298
 30
0.0
 11
282.985524
 21
219.210298
 31
0.0
  0
LINE
  5
CA31
330
C815
100
AcDbEntity
  8
1
  6
Continuous
100
AcDbLine
 10
291.920685
 20
219.910298
 30
0.0
 11
265.570766
 21
219.910298
 31
0.0
  0
LINE
  5
CA32
330
C815
100
AcDbEntity
  8
1
  6
Continuous
100
AcDbLine
 10
308.086493
 20
217.1183479999999
 30
0.0
 11
316.253866
 21
217.1183479999999
 31
0.0
  0
LINE
  5
CA33
330
C815
100
AcDbEntity
  8
1
  6
Continuous
100
AcDbLine
 10
291.920685
 20
215.0912959999998
 30
0.0
 11
283.753866
 21
215.0912959999998
 31
0.0
  0
LINE
  5
CA34
330
C815
100
AcDbEntity
  8
1
  6
Continuous
100
AcDbLine
 10
139.7516559999999
 20
105.4999999999999
 30
0.0
 11
139.7516559999999
 21
83.49999999999999
 31
0.0
  0
LINE
  5
CA35
330
C815
100
AcDbEntity
  8
1
  6
Continuous
100
AcDbLine
 10
210.751656
 20
112.5
 30
0.0
 11
146.7516559999999
 21
112.5
 31
0.0
  0
ARC
  5
CA36
330
C815
100
AcDbEntity
  8
1
  6
Continuous
100
AcDbCircle
 10
146.7516559999999
 20
105.4999999999999
 30
0.0
 40
7.0
100
AcDbArc
 50
90.0
 51
180.0
  0
CIRCLE
  5
CA37
330
C815
100
AcDbEntity
  8
1
  6
Continuous
100
AcDbCircle
 10
146.7516559999999
 20
105.4999999999999
 30
0.0
 40
3.25
  0
LINE
  5
CA38
330
C815
100
AcDbEntity
  8
4
  6
CENTER
100
AcDbLine
 10
153.0016559999999
 20
105.4999999999999
 30
0.0
 11
140.5016559999999
 21
105.4999999999999
 31
0.0
  0
LINE
  5
CA39
330
C815
100
AcDbEntity
  8
4
  6
CENTER
100
AcDbLine
 10
146.7516559999999
 20
99.25
 30
0.0
 11
146.7516559999999
 21
111.7499999999999
 31
0.0
  0
LINE
  5
CA3A
330
C815
100
AcDbEntity
  8
4
  6
CENTER
100
AcDbLine
 10
146.7516559999999
 20
35.25
 30
0.0
 11
146.7516559999999
 21
47.75
 31
0.0
  0
CIRCLE
  5
CA3B
330
C815
100
AcDbEntity
  8
1
  6
Continuous
100
AcDbCircle
 10
146.7516559999999
 20
41.5
 30
0.0
 40
3.25
  0
LINE
  5
CA3C
330
C815
100
AcDbEntity
  8
4
  6
CENTER
100
AcDbLine
 10
153.0016559999999
 20
41.5
 30
0.0
 11
140.5016559999999
 21
41.5
 31
0.0
  0
ARC
  5
CA3D
330
C815
100
AcDbEntity
  8
1
  6
Continuous
100
AcDbCircle
 10
146.7516559999999
 20
41.5
 30
0.0
 40
7.0
100
AcDbArc
 50
180.0
 51
270.0
  0
LINE
  5
CA3E
330
C815
100
AcDbEntity
  8
4
  6
CENTER
100
AcDbLine
 10
210.751656
 20
35.25
 30
0.0
 11
210.751656
 21
47.75
 31
0.0
  0
LINE
  5
CA3F
330
C815
100
AcDbEntity
  8
1
  6
Continuous
100
AcDbLine
 10
217.7516559999999
 20
105.4999999999999
 30
0.0
 11
217.7516559999999
 21
88.435629
 31
0.0
  0
LINE
  5
CA40
330
C815
100
AcDbEntity
  8
1
  6
Continuous
100
AcDbLine
 10
210.751656
 20
34.5
 30
0.0
 11
146.7516559999999
 21
34.5
 31
0.0
  0
LINE
  5
CA41
330
C815
100
AcDbEntity
  8
4
  6
CENTER
100
AcDbLine
 10
217.001656
 20
41.5
 30
0.0
 11
204.501656
 21
41.5
 31
0.0
  0
ARC
  5
CA42
330
C815
100
AcDbEntity
  8
1
  6
Continuous
100
AcDbCircle
 10
210.751656
 20
41.5
 30
0.0
 40
7.0
100
AcDbArc
 50
270.0
 51
0.0
  0
CIRCLE
  5
CA43
330
C815
100
AcDbEntity
  8
1
  6
Continuous
100
AcDbCircle
 10
210.751656
 20
41.5
 30
0.0
 40
3.25
  0
ARC
  5
CA44
330
C815
100
AcDbEntity
  8
1
  6
Continuous
100
AcDbCircle
 10
210.751656
 20
105.4999999999999
 30
0.0
 40
7.0
100
AcDbArc
 50
0.0
 51
90.0
  0
CIRCLE
  5
CA45
330
C815
100
AcDbEntity
  8
1
  6
Continuous
100
AcDbCircle
 10
210.751656
 20
105.4999999999999
 30
0.0
 40
3.25
  0
LINE
  5
CA46
330
C815
100
AcDbEntity
  8
4
  6
CENTER
100
AcDbLine
 10
217.001656
 20
105.4999999999999
 30
0.0
 11
204.501656
 21
105.4999999999999
 31
0.0
  0
LINE
  5
CA47
330
C815
100
AcDbEntity
  8
4
  6
CENTER
100
AcDbLine
 10
210.751656
 20
99.25
 30
0.0
 11
210.751656
 21
111.7499999999999
 31
0.0
  0
LINE
  5
CA48
330
C815
100
AcDbEntity
  8
4
  6
CENTER
100
AcDbLine
 10
227.8175599999999
 20
73.5
 30
0.0
 11
130.568616
 21
73.5
 31
0.0
  0
LINE
  5
CA49
330
C815
100
AcDbEntity
  8
4
  6
CENTER
100
AcDbLine
 10
178.751656
 20
32.33195300000001
 30
0.0
 11
178.751656
 21
115.9843139999999
 31
0.0
  0
LINE
  5
CA4A
330
C815
100
AcDbEntity
  8
1
  6
Continuous
100
AcDbLine
 10
139.7516559999999
 20
63.5
 30
0.0
 11
139.7516559999999
 21
41.5
 31
0.0
  0
LINE
  5
CA4B
330
C815
100
AcDbEntity
  8
1
  6
Continuous
100
AcDbLine
 10
217.7516559999999
 20
58.56437099999999
 30
0.0
 11
217.7516559999999
 21
41.5
 31
0.0
  0
ARC
  5
CA4C
330
C815
100
AcDbEntity
  8
1
  6
Continuous
100
AcDbCircle
 10
178.751656
 20
73.5
 30
0.0
 40
36.000003
100
AcDbArc
 50
31.01482
 51
163.8723809999999
  0
ARC
  5
CA4D
330
C815
100
AcDbEntity
  8
1
  6
Continuous
100
AcDbCircle
 10
178.751656
 20
73.5
 30
0.0
 40
32.50000299999999
100
AcDbArc
 50
35.392437
 51
162.0797889999998
  0
ARC
  5
CA4E
330
C815
100
AcDbEntity
  8
1
  6
Continuous
100
AcDbCircle
 10
178.751656
 20
73.5
 30
0.0
 40
32.50000299999999
100
AcDbArc
 50
197.9202109999999
 51
324.6075629999999
  0
ARC
  5
CA4F
330
C815
100
AcDbEntity
  8
1
  6
Continuous
100
AcDbCircle
 10
178.751656
 20
73.5
 30
0.0
 40
36.000003
100
AcDbArc
 50
196.1276189999999
 51
328.9851799999999
  0
LINE
  5
CA50
330
C815
100
AcDbEntity
  8
2
  6
Continuous
100
AcDbLine
 10
388.7554999999999
 20
177.8038379999999
 30
0.0
 11
389.5675
 21
179.210263
 31
0.0
  0
LINE
  5
CA51
330
C815
100
AcDbEntity
  8
2
  6
Continuous
100
AcDbLine
 10
398.7555
 20
177.8038379999999
 30
0.0
 11
397.9434999999999
 21
179.210263
 31
0.0
  0
ARC
  5
CA52
330
C815
100
AcDbEntity
  8
1
  6
Continuous
100
AcDbCircle
 10
430.53325
 20
179.304356
 30
0.0
 40
3.751891999999998
100
AcDbArc
 50
206.0909469999999
 51
265.973191
  0
ARC
  5
CA53
330
C815
100
AcDbEntity
  8
1
  6
Continuous
100
AcDbCircle
 10
441.118353
 20
178.871678
 30
0.0
 40
4.063601999999998
100
AcDbArc
 50
265.973191
 51
352.345215
  0
LINE
  5
CA54
330
C815
100
AcDbEntity
  8
1
  6
Continuous
100
AcDbLine
 10
388.7554999999999
 20
188.910298
 30
0.0
 11
388.7554999999999
 21
176.210263
 31
0.0
  0
LINE
  5
CA55
330
C815
100
AcDbEntity
  8
1
  6
Continuous
100
AcDbLine
 10
398.7555
 20
188.910298
 30
0.0
 11
398.7555
 21
176.210263
 31
0.0
  0
ARC
  5
CA56
330
C815
100
AcDbEntity
  8
1
  6
Continuous
100
AcDbCircle
 10
440.255519
 20
182.7102629999999
 30
0.0
 40
25.0
100
AcDbArc
 50
153.0920419999999
 51
69.80044000000001
  0
LINE
  5
CA57
330
C815
100
AcDbEntity
  8
4
  6
CENTER
100
AcDbLine
 10
440.255519
 20
154.7102629999999
 30
0.0
 11
440.255519
 21
210.7102629999999
 31
0.0
  0
ARC
  5
CA58
330
C815
100
AcDbEntity
  8
1
  6
Continuous
100
AcDbCircle
 10
440.255519
 20
182.7102629999999
 30
0.0
 40
17.5
100
AcDbArc
 50
170.3329479999999
 51
64.268551
  0
LINE
  5
CA59
330
C815
100
AcDbEntity
  8
4
  6
CENTER
100
AcDbLine
 10
393.7555
 20
146.005844
 30
0.0
 11
393.7555
 21
225.1405899999999
 31
0.0
  0
LINE
  5
CA5A
330
C815
100
AcDbEntity
  8
1
  6
Continuous
100
AcDbLine
 10
374.9055
 20
164.210263
 30
0.0
 11
412.6055
 21
164.210263
 31
0.0
  0
LINE
  5
CA5B
330
C815
100
AcDbEntity
  8
1
  6
Continuous
100
AcDbLine
 10
377.9055
 20
170.2102629999999
 30
0.0
 11
409.6054999999998
 21
170.2102629999999
 31
0.0
  0
LINE
  5
CA5C
330
C815
100
AcDbEntity
  8
1
  6
Continuous
100
AcDbLine
 10
376.5054999999999
 20
157.7102629999999
 30
0.0
 11
411.0055
 21
157.7102629999999
 31
0.0
  0
LINE
  5
CA5D
330
C815
100
AcDbEntity
  8
1
  6
Continuous
100
AcDbLine
 10
440.8329929999998
 20
174.818107
 30
0.0
 11
430.2697799999998
 21
175.561726
 31
0.0
  0
ARC
  5
CA5E
330
C815
100
AcDbEntity
  8
1
  6
Continuous
100
AcDbCircle
 10
409.6054999999998
 20
167.2102629999999
 30
0.0
 40
3.0
100
AcDbArc
 50
0.0
 51
90.0
  0
LINE
  5
CA5F
330
C815
100
AcDbEntity
  8
1
  6
Continuous
100
AcDbLine
 10
411.0055
 20
164.210263
 30
0.0
 11
411.0055
 21
157.7102629999999
 31
0.0
  0
LINE
  5
CA60
330
C815
100
AcDbEntity
  8
1
  6
Continuous
100
AcDbLine
 10
412.6055
 20
164.210263
 30
0.0
 11
412.6055
 21
167.2102629999999
 31
0.0
  0
ARC
  5
CA61
330
C815
100
AcDbEntity
  8
1
  6
Continuous
100
AcDbCircle
 10
377.9055
 20
167.2102629999999
 30
0.0
 40
3.0
100
AcDbArc
 50
90.0
 51
180.0
  0
LINE
  5
CA62
330
C815
100
AcDbEntity
  8
1
  6
Continuous
100
AcDbLine
 10
383.7555
 20
176.210263
 30
0.0
 11
403.7555
 21
176.210263
 31
0.0
  0
ARC
  5
CA63
330
C815
100
AcDbEntity
  8
1
  6
Continuous
100
AcDbCircle
 10
393.7555
 20
181.8352629999999
 30
0.0
 40
10.625
100
AcDbArc
 50
244.942385
 51
295.057615
  0
LINE
  5
CA64
330
C815
100
AcDbEntity
  8
1
  6
Continuous
100
AcDbLine
 10
386.5054999999999
 20
171.2102629999999
 30
0.0
 11
401.0054999999998
 21
171.2102629999999
 31
0.0
  0
LINE
  5
CA65
330
C815
100
AcDbEntity
  8
1
  6
Continuous
100
AcDbLine
 10
383.2554999999999
 20
170.710263
 30
0.0
 11
404.2555
 21
170.710263
 31
0.0
  0
LINE
  5
CA66
330
C815
100
AcDbEntity
  8
1
  6
Continuous
100
AcDbLine
 10
403.7555
 20
176.210263
 30
0.0
 11
403.7555
 21
172.210263
 31
0.0
  0
LINE
  5
CA67
330
C815
100
AcDbEntity
  8
1
  6
Continuous
100
AcDbLine
 10
398.2554999999999
 20
176.210263
 30
0.0
 11
398.2554999999999
 21
172.210263
 31
0.0
  0
ARC
  5
CA68
330
C815
100
AcDbEntity
  8
1
  6
Continuous
100
AcDbCircle
 10
401.0054999999998
 20
175.491513
 30
0.0
 40
4.28125
100
AcDbArc
 50
230.0337869999999
 51
309.966213
  0
LINE
  5
CA69
330
C815
100
AcDbEntity
  8
1
  6
Continuous
100
AcDbLine
 10
397.2554999999999
 20
170.724955
 30
0.0
 11
397.2554999999999
 21
171.2102629999999
 31
0.0
  0
LINE
  5
CA6A
330
C815
100
AcDbEntity
  8
1
  6
Continuous
100
AcDbLine
 10
404.2555
 20
170.710263
 30
0.0
 11
404.2555
 21
170.2102629999999
 31
0.0
  0
LINE
  5
CA6B
330
C815
100
AcDbEntity
  8
1
  6
Continuous
100
AcDbLine
 10
383.7555
 20
176.210263
 30
0.0
 11
383.7555
 21
172.210263
 31
0.0
  0
LINE
  5
CA6C
330
C815
100
AcDbEntity
  8
1
  6
Continuous
100
AcDbLine
 10
389.2554999999999
 20
176.210263
 30
0.0
 11
389.2554999999999
 21
172.210263
 31
0.0
  0
ARC
  5
CA6D
330
C815
100
AcDbEntity
  8
1
  6
Continuous
100
AcDbCircle
 10
386.5054999999999
 20
175.491513
 30
0.0
 40
4.28125
100
AcDbArc
 50
230.0337869999999
 51
309.966213
  0
LINE
  5
CA6E
330
C815
100
AcDbEntity
  8
1
  6
Continuous
100
AcDbLine
 10
390.2554999999999
 20
171.2102629999999
 30
0.0
 11
390.2554999999999
 21
170.724955
 31
0.0
  0
LINE
  5
CA6F
330
C815
100
AcDbEntity
  8
1
  6
Continuous
100
AcDbLine
 10
383.2554999999999
 20
170.710263
 30
0.0
 11
383.2554999999999
 21
170.2102629999999
 31
0.0
  0
LINE
  5
CA70
330
C815
100
AcDbEntity
  8
1
  6
Continuous
100
AcDbLine
 10
376.5054999999999
 20
164.210263
 30
0.0
 11
376.5054999999999
 21
157.7102629999999
 31
0.0
  0
LINE
  5
CA71
330
C815
100
AcDbEntity
  8
1
  6
Continuous
100
AcDbLine
 10
374.9055
 20
167.2102629999999
 30
0.0
 11
374.9055
 21
164.210263
 31
0.0
  0
LINE
  5
CA72
330
C815
100
AcDbEntity
  8
1
  6
Continuous
100
AcDbLine
 10
405.6120329999997
 20
215.075322
 30
0.0
 11
436.4059899999999
 21
215.075275
 31
0.0
  0
ARC
  5
CA73
330
C815
100
AcDbEntity
  8
1
  6
Continuous
100
AcDbCircle
 10
403.675546
 20
181.3483939999999
 30
0.0
 40
21.51445999999999
100
AcDbArc
 50
75.98355999999998
 51
83.84173500000001
  0
LINE
  5
CA74
330
C815
100
AcDbEntity
  8
1
  6
Continuous
100
AcDbLine
 10
405.189641
 20
218.0743819999999
 30
0.0
 11
437.2611479999997
 21
218.0743819999999
 31
0.0
  0
LINE
  5
CA75
330
C815
100
AcDbEntity
  8
1
  6
Continuous
100
AcDbLine
 10
404.2373719999998
 20
219.210298
 30
0.0
 11
438.2735839999998
 21
219.210298
 31
0.0
  0
LINE
  5
CA76
330
C815
100
AcDbEntity
  8
1
  6
Continuous
100
AcDbLine
 10
386.8226819999999
 20
219.910298
 30
0.0
 11
455.688342
 21
219.910298
 31
0.0
  0
LINE
  5
CA77
330
C815
100
AcDbEntity
  8
1
  6
Continuous
100
AcDbLine
 10
382.255519
 20
220.710298
 30
0.0
 11
460.255519
 21
220.710298
 31
0.0
  0
LINE
  5
CA78
330
C815
100
AcDbEntity
  8
1
  6
Continuous
100
AcDbLine
 10
382.255519
 20
222.710298
 30
0.0
 11
460.255519
 21
222.710298
 31
0.0
  0
LINE
  5
CA79
330
C815
100
AcDbEntity
  8
1
  6
Continuous
100
AcDbLine
 10
405.933498
 20
219.034686
 30
0.0
 11
436.721391
 21
219.034686
 31
0.0
  0
LINE
  5
CA7A
330
C815
100
AcDbEntity
  8
1
  6
Continuous
100
AcDbLine
 10
405.005242
 20
215.0912959999998
 30
0.0
 11
437.505242
 21
215.0912959999998
 31
0.0
  0
LINE
  5
CA7B
330
C815
100
AcDbEntity
  8
1
  6
Continuous
100
AcDbLine
 10
437.505242
 20
217.1183479999999
 30
0.0
 11
405.005242
 21
217.1183479999999
 31
0.0
  0
LINE
  5
CA7C
330
C815
100
AcDbEntity
  8
1
  6
Continuous
100
AcDbLine
 10
409.160164
 20
215.0912959999998
 30
0.0
 11
407.1331119999999
 21
217.1183479999999
 31
0.0
  0
LINE
  5
CA7D
330
C815
100
AcDbEntity
  8
1
  6
Continuous
100
AcDbLine
 10
407.8944769999997
 20
215.0912959999998
 30
0.0
 11
409.92153
 21
217.1183479999999
 31
0.0
  0
LINE
  5
CA7E
330
C815
100
AcDbEntity
  8
4
  6
CENTER
100
AcDbLine
 10
421.2555189999998
 20
200.065842
 30
0.0
 11
421.2555189999998
 21
225.1361249999999
 31
0.0
  0
LINE
  5
CA7F
330
C815
100
AcDbEntity
  8
4
  6
CENTER
100
AcDbLine
 10
453.255519
 20
224.887404
 30
0.0
 11
453.255519
 21
217.514668
 31
0.0
  0
ARC
  5
CA80
330
C815
100
AcDbEntity
  8
1
  6
Continuous
100
AcDbCircle
 10
455.688342
 20
221.845325
 30
0.0
 40
1.935027
100
AcDbArc
 50
270.0
 51
324.086081
  0
ARC
  5
CA81
330
C815
100
AcDbEntity
  8
1
  6
Continuous
100
AcDbCircle
 10
437.360957
 20
164.1543809999998
 30
0.0
 40
47.941747
100
AcDbArc
 50
78.26074300000001
 51
86.47680300000002
  0
ARC
  5
CA82
330
C815
100
AcDbEntity
  8
1
  6
Continuous
100
AcDbCircle
 10
438.2735839999998
 20
223.9602979999999
 30
0.0
 40
4.75
100
AcDbArc
 50
270.0
 51
301.500941
  0
LINE
  5
CA83
330
C815
100
AcDbEntity
  8
4
  6
CENTER
100
AcDbLine
 10
412.2555189999998
 20
182.7102629999999
 30
0.0
 11
468.255519
 21
182.7102629999999
 31
0.0
  0
LINE
  5
CA84
330
C815
100
AcDbEntity
  8
1
  6
Continuous
100
AcDbLine
 10
449.403927
 20
210.012882
 30
0.0
 11
445.1457429999998
 21
178.330389
 31
0.0
  0
ARC
  5
CA85
330
C815
100
AcDbEntity
  8
1
  6
Continuous
100
AcDbCircle
 10
441.9199569999998
 20
186.093254
 30
0.0
 40
25.53418999999999
100
AcDbArc
 50
63.614344
 51
78.26074300000001
  0
ARC
  5
CA86
330
C815
100
AcDbEntity
  8
1
  6
Continuous
100
AcDbCircle
 10
451.4517480000002
 20
206.5352569999999
 30
0.0
 40
3.035225999999998
100
AcDbArc
 50
37.30503200000001
 51
53.25395999999999
  0
ARC
  5
CA87
330
C815
100
AcDbEntity
  8
1
  6
Continuous
100
AcDbCircle
 10
458.3476109999998
 20
221.267236
 30
0.0
 40
15.28686099999998
100
AcDbArc
 50
244.4377759999999
 51
249.886151
  0
ARC
  5
CA88
330
C815
100
AcDbEntity
  8
1
  6
Continuous
100
AcDbCircle
 10
452.825083
 20
207.4596099999999
 30
0.0
 40
0.6079810000000001
100
AcDbArc
 50
295.901379
 51
338.816
  0
ARC
  5
CA89
330
C815
100
AcDbEntity
  8
1
  6
Continuous
100
AcDbCircle
 10
442.7594809999998
 20
188.677174
 30
0.0
 40
20.83933299999999
100
AcDbArc
 50
64.437776
 51
71.99739100000002
  0
ARC
  5
CA8A
330
C815
100
AcDbEntity
  8
1
  6
Continuous
100
AcDbCircle
 10
475.4908409999998
 20
198.675423
 30
0.0
 40
23.70042399999999
100
AcDbArc
 50
155.842376
 51
158.816
  0
ARC
  5
CA8B
330
C815
100
AcDbEntity
  8
1
  6
Continuous
100
AcDbCircle
 10
365.452541
 20
148.05839
 30
0.0
 40
69.78622699999999
100
AcDbArc
 50
40.62630600000001
 51
49.92724700000001
  0
LINE
  5
CA8C
330
C815
100
AcDbEntity
  8
1
  6
Continuous
100
AcDbLine
 10
433.627928
 20
179.270101
 30
0.0
 11
433.627928
 21
206.524058
 31
0.0
  0
ARC
  5
CA8D
330
C815
100
AcDbEntity
  8
1
  6
Continuous
100
AcDbCircle
 10
261.2201119999999
 20
96.391874
 30
0.0
 40
184.7724259999999
100
AcDbArc
 50
26.09094699999999
 51
31.704827
  0
LINE
  5
CA8E
330
C815
100
AcDbEntity
  8
1
  6
Continuous
100
AcDbLine
 10
423.4508259999998
 20
215.0912959999998
 30
0.0
 11
425.4778789999998
 21
217.1183479999999
 31
0.0
  0
LINE
  5
CA8F
330
C815
100
AcDbEntity
  8
1
  6
Continuous
100
AcDbLine
 10
426.1307269999998
 20
215.0912959999998
 30
0.0
 11
424.103675
 21
217.1183479999999
 31
0.0
  0
ARC
  5
CA90
330
C815
100
AcDbEntity
  8
1
  6
Continuous
100
AcDbCircle
 10
436.307379
 20
211.1999049999997
 30
0.0
 40
3.903893
100
AcDbArc
 50
41.642269
 51
57.76027299999999
  0
ARC
  5
CA91
330
C815
100
AcDbEntity
  8
1
  6
Continuous
100
AcDbCircle
 10
436.4059899999999
 20
211.356256
 30
0.0
 40
3.719041999999998
100
AcDbArc
 50
57.76027299999999
 51
89.99995600000003
  0
ARC
  5
CA92
330
C815
100
AcDbEntity
  8
1
  6
Continuous
100
AcDbCircle
 10
435.191508
 20
210.2077149999999
 30
0.0
 40
5.397081
100
AcDbArc
 50
26.2047
 51
41.642269
  0
ARC
  5
CA93
330
C815
100
AcDbEntity
  8
1
  6
Continuous
100
AcDbCircle
 10
442.8128509999998
 20
212.569241
 30
0.0
 40
2.779046999999998
100
AcDbArc
 50
179.5523279999999
 51
189.4887569999999
  0
ARC
  5
CA94
330
C815
100
AcDbEntity
  8
1
  6
Continuous
100
AcDbCircle
 10
440.3295769999998
 20
212.370523
 30
0.0
 40
0.365696
100
AcDbArc
 50
225.1848589999999
 51
266.4768029999997
  0
LINE
  5
CA95
330
C815
100
AcDbEntity
  8
1
  6
Continuous
100
AcDbLine
 10
440.0718259999998
 20
212.111104
 30
0.0
 11
431.2783379999998
 21
212.111104
 31
0.0
  0
ARC
  5
CA96
330
C815
100
AcDbEntity
  8
1
  6
Continuous
100
AcDbCircle
 10
431.2783379999998
 20
214.7626409999999
 30
0.0
 40
2.651536999999998
100
AcDbArc
 50
189.546018
 51
270.0
  0
ARC
  5
CA97
330
C815
100
AcDbEntity
  8
1
  6
Continuous
100
AcDbCircle
 10
436.3857699999998
 20
217.716718
 30
0.0
 40
1.360029999999999
100
AcDbArc
 50
53.71139300000001
 51
75.71328100000002
  0
LINE
  5
CA98
330
C815
100
AcDbEntity
  8
1
  6
Continuous
100
AcDbLine
 10
437.094419
 20
217.557349
 30
0.0
 11
437.3522059999998
 21
218.3567559999999
 31
0.0
  0
ARC
  5
CA99
330
C815
100
AcDbEntity
  8
1
  6
Continuous
100
AcDbCircle
 10
437.8609329999998
 20
216.6182399999999
 30
0.0
 40
1.212217
100
AcDbArc
 50
129.221821
 51
155.5866799999997
  0
ARC
  5
CA9A
330
C815
100
AcDbEntity
  8
1
  6
Continuous
100
AcDbCircle
 10
436.972754
 20
218.4791189999998
 30
0.0
 40
0.398694
100
AcDbArc
 50
342.126869
 51
56.86115199999999
  0
LINE
  5
CA9B
330
C815
100
AcDbEntity
  8
1
  6
Continuous
100
AcDbLine
 10
431.7875809999998
 20
215.0912959999998
 30
0.0
 11
429.7605289999999
 21
217.1183479999999
 31
0.0
  0
LINE
  5
CA9C
330
C815
100
AcDbEntity
  8
1
  6
Continuous
100
AcDbLine
 10
430.5218939999998
 20
215.0912959999998
 30
0.0
 11
432.548946
 21
217.1183479999999
 31
0.0
  0
LINE
  5
CA9D
330
C815
100
AcDbEntity
  8
1
  6
Continuous
100
AcDbLine
 10
429.1076799999998
 20
215.0912959999998
 30
0.0
 11
431.134733
 21
217.1183479999999
 31
0.0
  0
LINE
  5
CA9E
330
C815
100
AcDbEntity
  8
1
  6
Continuous
100
AcDbLine
 10
434.616008
 20
215.0912959999998
 30
0.0
 11
432.5889559999998
 21
217.1183479999999
 31
0.0
  0
LINE
  5
CA9F
330
C815
100
AcDbEntity
  8
1
  6
Continuous
100
AcDbLine
 10
437.4444349999998
 20
215.0912959999998
 30
0.0
 11
435.4173829999998
 21
217.1183479999999
 31
0.0
  0
LINE
  5
CAA0
330
C815
100
AcDbEntity
  8
1
  6
Continuous
100
AcDbLine
 10
434.7645349999998
 20
215.0912959999998
 30
0.0
 11
436.791586
 21
217.1183479999999
 31
0.0
  0
LINE
  5
CAA1
330
C815
100
AcDbEntity
  8
1
  6
Continuous
100
AcDbLine
 10
433.3503209999998
 20
215.0912959999998
 30
0.0
 11
435.377374
 21
217.1183479999999
 31
0.0
  0
LINE
  5
CAA2
330
C815
100
AcDbEntity
  8
1
  6
Continuous
100
AcDbLine
 10
431.936107
 20
215.0912959999998
 30
0.0
 11
433.9631599999997
 21
217.1183479999999
 31
0.0
  0
LINE
  5
CAA3
330
C815
100
AcDbEntity
  8
1
  6
Continuous
100
AcDbLine
 10
437.505242
 20
217.1183479999999
 30
0.0
 11
437.505242
 21
215.0912959999998
 31
0.0
  0
LINE
  5
CAA4
330
C815
100
AcDbEntity
  8
1
  6
Continuous
100
AcDbLine
 10
436.178748
 20
215.0912959999998
 30
0.0
 11
437.505242
 21
216.4177899999998
 31
0.0
  0
LINE
  5
CAA5
330
C815
100
AcDbEntity
  8
1
  6
Continuous
100
AcDbLine
 10
424.86504
 20
215.0912959999998
 30
0.0
 11
426.892092
 21
217.1183479999999
 31
0.0
  0
LINE
  5
CAA6
330
C815
100
AcDbEntity
  8
1
  6
Continuous
100
AcDbLine
 10
428.9591539999998
 20
215.0912959999998
 30
0.0
 11
426.9321009999998
 21
217.1183479999999
 31
0.0
  0
LINE
  5
CAA7
330
C815
100
AcDbEntity
  8
1
  6
Continuous
100
AcDbLine
 10
427.693467
 20
215.0912959999998
 30
0.0
 11
429.720519
 21
217.1183479999999
 31
0.0
  0
LINE
  5
CAA8
330
C815
100
AcDbEntity
  8
1
  6
Continuous
100
AcDbLine
 10
426.2792529999998
 20
215.0912959999998
 30
0.0
 11
428.3063049999998
 21
217.1183479999999
 31
0.0
  0
LINE
  5
CAA9
330
C815
100
AcDbEntity
  8
1
  6
Continuous
100
AcDbLine
 10
413.551331
 20
215.0912959999998
 30
0.0
 11
415.5783829999998
 21
217.1183479999999
 31
0.0
  0
LINE
  5
CAAA
330
C815
100
AcDbEntity
  8
1
  6
Continuous
100
AcDbLine
 10
417.793972
 20
215.0912959999998
 30
0.0
 11
419.8210239999998
 21
217.1183479999999
 31
0.0
  0
LINE
  5
CAAB
330
C815
100
AcDbEntity
  8
1
  6
Continuous
100
AcDbLine
 10
416.3797579999998
 20
215.0912959999998
 30
0.0
 11
418.406811
 21
217.1183479999999
 31
0.0
  0
LINE
  5
CAAC
330
C815
100
AcDbEntity
  8
1
  6
Continuous
100
AcDbLine
 10
420.4738719999999
 20
215.0912959999998
 30
0.0
 11
418.44682
 21
217.1183479999999
 31
0.0
  0
LINE
  5
CAAD
330
C815
100
AcDbEntity
  8
1
  6
Continuous
100
AcDbLine
 10
417.6454449999998
 20
215.0912959999998
 30
0.0
 11
415.618393
 21
217.1183479999999
 31
0.0
  0
LINE
  5
CAAE
330
C815
100
AcDbEntity
  8
1
  6
Continuous
100
AcDbLine
 10
414.965545
 20
215.0912959999998
 30
0.0
 11
416.9925969999998
 21
217.1183479999999
 31
0.0
  0
LINE
  5
CAAF
330
C815
100
AcDbEntity
  8
1
  6
Continuous
100
AcDbLine
 10
419.208185
 20
215.0912959999998
 30
0.0
 11
421.2352369999998
 21
217.1183479999999
 31
0.0
  0
LINE
  5
CAB0
330
C815
100
AcDbEntity
  8
1
  6
Continuous
100
AcDbLine
 10
411.9885909999998
 20
215.0912959999998
 30
0.0
 11
409.961539
 21
217.1183479999999
 31
0.0
  0
LINE
  5
CAB1
330
C815
100
AcDbEntity
  8
1
  6
Continuous
100
AcDbLine
 10
412.1371179999998
 20
215.0912959999998
 30
0.0
 11
414.16417
 21
217.1183479999999
 31
0.0
  0
LINE
  5
CAB2
330
C815
100
AcDbEntity
  8
1
  6
Continuous
100
AcDbLine
 10
414.817018
 20
215.0912959999998
 30
0.0
 11
412.7899649999998
 21
217.1183479999999
 31
0.0
  0
LINE
  5
CAB3
330
C815
100
AcDbEntity
  8
1
  6
Continuous
100
AcDbLine
 10
410.7229039999998
 20
215.0912959999998
 30
0.0
 11
412.749956
 21
217.1183479999999
 31
0.0
  0
LINE
  5
CAB4
330
C815
100
AcDbEntity
  8
1
  6
Continuous
100
AcDbLine
 10
409.30869
 20
215.0912959999998
 30
0.0
 11
411.3357419999998
 21
217.1183479999999
 31
0.0
  0
LINE
  5
CAB5
330
C815
100
AcDbEntity
  8
1
  6
Continuous
100
AcDbLine
 10
423.3023
 20
215.0912959999998
 30
0.0
 11
421.2752469999998
 21
217.1183479999999
 31
0.0
  0
LINE
  5
CAB6
330
C815
100
AcDbEntity
  8
1
  6
Continuous
100
AcDbLine
 10
422.0366119999998
 20
215.0912959999998
 30
0.0
 11
424.0636649999998
 21
217.1183479999999
 31
0.0
  0
LINE
  5
CAB7
330
C815
100
AcDbEntity
  8
1
  6
Continuous
100
AcDbLine
 10
420.6223989999998
 20
215.0912959999998
 30
0.0
 11
422.649451
 21
217.1183479999999
 31
0.0
  0
ARC
  5
CAB8
330
C815
100
AcDbEntity
  8
1
  6
Continuous
100
AcDbCircle
 10
407.9866039999997
 20
198.6179939999999
 30
0.0
 40
3.714901999999998
100
AcDbArc
 50
49.92724700000001
 51
75.98355999999998
  0
LINE
  5
CAB9
330
C815
100
AcDbEntity
  8
1
  6
Continuous
100
AcDbLine
 10
460.255519
 20
222.710298
 30
0.0
 11
460.255519
 21
220.710298
 31
0.0
  0
ARC
  5
CABA
330
C815
100
AcDbEntity
  8
1
  6
Continuous
100
AcDbCircle
 10
386.8226819999999
 20
221.8452979999999
 30
0.0
 40
1.935
100
AcDbArc
 50
215.9135069999999
 51
270.0
  0
LINE
  5
CABB
330
C815
100
AcDbEntity
  8
4
  6
CENTER
100
AcDbLine
 10
389.2555189999998
 20
218.250827
 30
0.0
 11
389.2555189999998
 21
225.364622
 31
0.0
  0
LINE
  5
CABC
330
C815
100
AcDbEntity
  8
1
  6
Continuous
100
AcDbLine
 10
386.7554999999999
 20
202.894092
 30
0.0
 11
386.7554999999999
 21
189.410298
 31
0.0
  0
LINE
  5
CABD
330
C815
100
AcDbEntity
  8
1
  6
Continuous
100
AcDbLine
 10
400.7554999999999
 20
202.894092
 30
0.0
 11
400.7554999999999
 21
189.410298
 31
0.0
  0
LINE
  5
CABE
330
C815
100
AcDbEntity
  8
1
  6
Continuous
100
AcDbLine
 10
393.7555
 20
202.894092
 30
0.0
 11
393.7555
 21
190.410298
 31
0.0
  0
LINE
  5
CABF
330
C815
100
AcDbEntity
  8
1
  6
Continuous
100
AcDbLine
 10
387.2554999999999
 20
188.910298
 30
0.0
 11
400.2555
 21
188.910298
 31
0.0
  0
ARC
  5
CAC0
330
C815
100
AcDbEntity
  8
1
  6
Continuous
100
AcDbCircle
 10
390.2554999999999
 20
193.743631
 30
0.0
 40
4.833332999999997
100
AcDbArc
 50
223.6028189999999
 51
316.397181
  0
LINE
  5
CAC1
330
C815
100
AcDbEntity
  8
1
  6
Continuous
100
AcDbLine
 10
388.7554999999999
 20
179.210263
 30
0.0
 11
398.7555
 21
179.210263
 31
0.0
  0
ARC
  5
CAC2
330
C815
100
AcDbEntity
  8
1
  6
Continuous
100
AcDbCircle
 10
400.2555
 20
189.410298
 30
0.0
 40
0.5
100
AcDbArc
 50
270.0
 51
0.0
  0
ARC
  5
CAC3
330
C815
100
AcDbEntity
  8
1
  6
Continuous
100
AcDbCircle
 10
397.2554999999999
 20
193.743631
 30
0.0
 40
4.833332999999997
100
AcDbArc
 50
223.6028189999999
 51
316.397181
  0
LINE
  5
CAC4
330
C815
100
AcDbEntity
  8
2
  6
Continuous
100
AcDbLine
 10
397.9434999999999
 20
179.210263
 30
0.0
 11
397.9434999999999
 21
188.910298
 31
0.0
  0
ARC
  5
CAC5
330
C815
100
AcDbEntity
  8
1
  6
Continuous
100
AcDbCircle
 10
387.2554999999999
 20
189.410298
 30
0.0
 40
0.5
100
AcDbArc
 50
180.0
 51
270.0
  0
LINE
  5
CAC6
330
C815
100
AcDbEntity
  8
2
  6
Continuous
100
AcDbLine
 10
389.5675
 20
179.210263
 30
0.0
 11
389.5675
 21
188.910298
 31
0.0
  0
ARC
  5
CAC7
330
C815
100
AcDbEntity
  8
1
  6
Continuous
100
AcDbCircle
 10
397.513123
 20
686.1225789999997
 30
0.0
 40
471.1497549999998
100
AcDbArc
 50
269.3691529999999
 51
270.0472619999998
  0
LINE
  5
CAC8
330
C815
100
AcDbEntity
  8
1
  6
Continuous
100
AcDbLine
 10
393.944161
 20
202.8940579999999
 30
0.0
 11
382.7247729999998
 21
202.8940579999999
 31
0.0
  0
ARC
  5
CAC9
330
C815
100
AcDbEntity
  8
1
  6
Continuous
100
AcDbCircle
 10
397.834383
 20
296.6542029999999
 30
0.0
 40
81.681246
100
AcDbArc
 50
270.0472619999998
 51
272.401985
  0
ARC
  5
CACA
330
C815
100
AcDbEntity
  8
1
  6
Continuous
100
AcDbCircle
 10
403.881123
 20
152.502723
 30
0.0
 40
62.597
100
AcDbArc
 50
88.33033499999997
 51
92.40198499999999
  0
ARC
  5
CACB
330
C815
100
AcDbEntity
  8
1
  6
Continuous
100
AcDbCircle
 10
404.2373719999998
 20
223.9600089999999
 30
0.0
 40
4.749710999999998
100
AcDbArc
 50
238.4980759999999
 51
270.0
  0
LINE
  5
CACC
330
C815
100
AcDbEntity
  8
1
  6
Continuous
100
AcDbLine
 10
405.240831
 20
218.0436959999999
 30
0.0
 11
405.189641
 21
218.0743819999999
 31
0.0
  0
ARC
  5
CACD
330
C815
100
AcDbEntity
  8
1
  6
Continuous
100
AcDbCircle
 10
407.49924
 20
218.6523799999999
 30
0.0
 40
2.338996999999999
100
AcDbArc
 50
195.0838819999999
 51
220.9841589999999
  0
ARC
  5
CACE
330
C815
100
AcDbEntity
  8
1
  6
Continuous
100
AcDbCircle
 10
405.933498
 20
218.2664359999999
 30
0.0
 40
0.76825
100
AcDbArc
 50
90.0
 51
194.4768179999998
  0
LINE
  5
CACF
330
C815
100
AcDbEntity
  8
1
  6
Continuous
100
AcDbLine
 10
393.7555
 20
219.910298
 30
0.0
 11
393.7555
 21
218.0879099999999
 31
0.0
  0
LINE
  5
CAD0
330
C815
100
AcDbEntity
  8
1
  6
Continuous
100
AcDbLine
 10
394.7554999999999
 20
216.0878779999999
 30
0.0
 11
394.7554999999999
 21
217.08791
 31
0.0
  0
LINE
  5
CAD1
330
C815
100
AcDbEntity
  8
1
  6
Continuous
100
AcDbLine
 10
392.7554999999999
 20
216.0878779999999
 30
0.0
 11
392.7554999999999
 21
217.08791
 31
0.0
  0
ARC
  5
CAD2
330
C815
100
AcDbEntity
  8
1
  6
Continuous
100
AcDbCircle
 10
393.7555
 20
217.08791
 30
0.0
 40
1.0
100
AcDbArc
 50
0.0
 51
180.0
  0
ARC
  5
CAD3
330
C815
100
AcDbEntity
  8
1
  6
Continuous
100
AcDbCircle
 10
393.7555
 20
216.0878779999999
 30
0.0
 40
1.0
100
AcDbArc
 50
180.0
 51
0.0
  0
LINE
  5
CAD4
330
C815
100
AcDbEntity
  8
1
  6
Continuous
100
AcDbLine
 10
400.7554999999999
 20
215.025207
 30
0.0
 11
400.7554999999999
 21
219.910298
 31
0.0
  0
LINE
  5
CAD5
330
C815
100
AcDbEntity
  8
1
  6
Continuous
100
AcDbLine
 10
405.005242
 20
217.1183479999999
 30
0.0
 11
405.005242
 21
215.091271
 31
0.0
  0
LINE
  5
CAD6
330
C815
100
AcDbEntity
  8
1
  6
Continuous
100
AcDbLine
 10
405.005242
 20
216.444702
 30
0.0
 11
405.678888
 21
217.1183479999999
 31
0.0
  0
LINE
  5
CAD7
330
C815
100
AcDbEntity
  8
1
  6
Continuous
100
AcDbLine
 10
405.005242
 20
216.4177899999998
 30
0.0
 11
406.331737
 21
215.0912959999998
 31
0.0
  0
LINE
  5
CAD8
330
C815
100
AcDbEntity
  8
1
  6
Continuous
100
AcDbLine
 10
406.4802629999999
 20
215.0912959999998
 30
0.0
 11
408.507316
 21
217.1183479999999
 31
0.0
  0
LINE
  5
CAD9
330
C815
100
AcDbEntity
  8
1
  6
Continuous
100
AcDbLine
 10
405.06605
 20
215.0912959999998
 30
0.0
 11
407.0931019999998
 21
217.1183479999999
 31
0.0
  0
ARC
  5
CADA
330
C815
100
AcDbEntity
  8
1
  6
Continuous
100
AcDbCircle
 10
397.397784
 20
123.84341
 30
0.0
 40
79.35321
100
AcDbArc
 50
83.84173500000001
 51
91.07499500000001
  0
LINE
  5
CADB
330
C815
100
AcDbEntity
  8
1
  6
Continuous
100
AcDbLine
 10
393.944161
 20
202.8940579999999
 30
0.0
 11
395.909031
 21
203.1826539999999
 31
0.0
  0
ARC
  5
CADC
330
C815
100
AcDbEntity
  8
1
  6
Continuous
100
AcDbCircle
 10
390.8601049999999
 20
81.89576700000001
 30
0.0
 40
133.113684
100
AcDbArc
 50
89.36915299999999
 51
92.00399799999999
  0
ARC
  5
CADD
330
C815
100
AcDbEntity
  8
1
  6
Continuous
100
AcDbCircle
 10
386.0795069999999
 20
211.3957259999998
 30
0.0
 40
3.485376999999997
100
AcDbArc
 50
98.6472
 51
156.646057
  0
ARC
  5
CADE
330
C815
100
AcDbEntity
  8
1
  6
Continuous
100
AcDbCircle
 10
388.7665589999999
 20
210.235499
 30
0.0
 40
6.412213999999998
100
AcDbArc
 50
156.646057
 51
180.3684879999999
  0
ARC
  5
CADF
330
C815
100
AcDbEntity
  8
1
  6
Continuous
100
AcDbCircle
 10
336.462827
 20
209.8991119999999
 30
0.0
 40
45.8926
100
AcDbArc
 50
358.840366
 51
0.3684880000000001
  0
ARC
  5
CAE0
330
C815
100
AcDbEntity
  8
1
  6
Continuous
100
AcDbCircle
 10
387.2063529999999
 20
203.5054249999999
 30
0.0
 40
11.4664
100
AcDbArc
 50
95.00886599999999
 51
98.6472
  0
LINE
  5
CAE1
330
C815
100
AcDbEntity
  8
1
  6
Continuous
100
AcDbLine
 10
386.7554999999999
 20
214.9461529999999
 30
0.0
 11
386.7554999999999
 21
219.910298
 31
0.0
  0
ARC
  5
CAE2
330
C815
100
AcDbEntity
  8
1
  6
Continuous
100
AcDbCircle
 10
386.1047689999999
 20
204.517147
 30
0.0
 40
3.749505
100
AcDbArc
 50
192.321612
 51
205.6505319999998
  0
ARC
  5
CAE3
330
C815
100
AcDbEntity
  8
1
  6
Continuous
100
AcDbCircle
 10
369.669868
 20
203.438648
 30
0.0
 40
12.774798
100
AcDbArc
 50
1.248558
 51
5.486861
  0
ARC
  5
CAE4
330
C815
100
AcDbEntity
  8
1
  6
Continuous
100
AcDbCircle
 10
455.2897839999998
 20
207.493794
 30
0.0
 40
72.95869999999998
100
AcDbArc
 50
178.8403659999999
 51
182.225878
  0
LINE
  5
CAE5
330
C815
100
AcDbEntity
  8
1
  6
Continuous
100
AcDbLine
 10
382.255519
 20
220.710298
 30
0.0
 11
382.255519
 21
222.710298
 31
0.0
  0
CIRCLE
  5
CAE6
330
C815
100
AcDbEntity
  8
1
  6
Continuous
100
AcDbCircle
 10
440.255519
 20
182.7102629999999
 30
0.0
 40
4.25
  0
LINE
  5
CAE7
330
C815
100
AcDbEntity
  8
1
  6
Continuous
100
AcDbLine
 10
68.999723
 20
191.2102629999999
 30
0.0
 11
68.999723
 21
174.2102629999999
 31
0.0
  0
LINE
  5
CAE8
330
C815
100
AcDbEntity
  8
1
  6
Continuous
100
AcDbLine
 10
45.999723
 20
191.2102629999999
 30
0.0
 11
45.999723
 21
174.2102629999999
 31
0.0
  0
LINE
  5
CAE9
330
C815
100
AcDbEntity
  8
1
  6
Continuous
100
AcDbLine
 10
67.499723
 20
205.1139649999998
 30
0.0
 11
67.499723
 21
160.3065609999999
 31
0.0
  0
LINE
  5
CAEA
330
C815
100
AcDbEntity
  8
1
  6
Continuous
100
AcDbLine
 10
47.49972299999998
 20
205.1139649999998
 30
0.0
 11
47.49972299999998
 21
160.3065609999999
 31
0.0
  0
LINE
  5
CAEB
330
C815
100
AcDbEntity
  8
1
  6
Continuous
100
AcDbLine
 10
69.80028399999999
 20
185.7102629999999
 30
0.0
 11
68.999723
 21
185.7102629999999
 31
0.0
  0
LINE
  5
CAEC
330
C815
100
AcDbEntity
  8
1
  6
Continuous
100
AcDbLine
 10
69.72006999999999
 20
179.7102629999999
 30
0.0
 11
68.999723
 21
179.7102629999999
 31
0.0
  0
ARC
  5
CAED
330
C815
100
AcDbEntity
  8
1
  6
Continuous
100
AcDbCircle
 10
57.49972299999999
 20
192.710263
 30
0.0
 40
35.0
100
AcDbArc
 50
255.301575
 51
284.6984249999998
  0
ARC
  5
CAEE
330
C815
100
AcDbEntity
  8
1
  6
Continuous
100
AcDbCircle
 10
48.99972299999999
 20
160.3065609999999
 30
0.0
 40
1.5
100
AcDbArc
 50
180.0
 51
255.301575
  0
ARC
  5
CAEF
330
C815
100
AcDbEntity
  8
1
  6
Continuous
100
AcDbCircle
 10
65.99972300000001
 20
160.3065609999999
 30
0.0
 40
1.5
100
AcDbArc
 50
284.6984249999998
 51
0.0
  0
LINE
  5
CAF0
330
C815
100
AcDbEntity
  8
1
  6
Continuous
100
AcDbLine
 10
45.19916199999999
 20
185.7102629999999
 30
0.0
 11
45.999723
 21
185.7102629999999
 31
0.0
  0
LINE
  5
CAF1
330
C815
100
AcDbEntity
  8
1
  6
Continuous
100
AcDbLine
 10
45.279376
 20
179.7102629999999
 30
0.0
 11
45.999723
 21
179.7102629999999
 31
0.0
  0
LINE
  5
CAF2
330
C815
100
AcDbEntity
  8
1
  6
Continuous
100
AcDbLine
 10
47.49972299999998
 20
174.2102629999999
 30
0.0
 11
45.999723
 21
174.2102629999999
 31
0.0
  0
LINE
  5
CAF3
330
C815
100
AcDbEntity
  8
1
  6
Continuous
100
AcDbLine
 10
68.999723
 20
174.2102629999999
 30
0.0
 11
67.499723
 21
174.2102629999999
 31
0.0
  0
ARC
  5
CAF4
330
C815
100
AcDbEntity
  8
1
  6
Continuous
100
AcDbCircle
 10
57.49972299999999
 20
172.710263
 30
0.0
 40
35.0
100
AcDbArc
 50
75.301575
 51
79.80312499999998
  0
ARC
  5
CAF5
330
C815
100
AcDbEntity
  8
1
  6
Continuous
100
AcDbCircle
 10
48.99972299999999
 20
205.1139649999998
 30
0.0
 40
1.5
100
AcDbArc
 50
104.6984249999997
 51
180.0
  0
LINE
  5
CAF6
330
C815
100
AcDbEntity
  8
1
  6
Continuous
100
AcDbLine
 10
47.49972299999998
 20
191.2102629999999
 30
0.0
 11
45.999723
 21
191.2102629999999
 31
0.0
  0
ARC
  5
CAF7
330
C815
100
AcDbEntity
  8
1
  6
Continuous
100
AcDbCircle
 10
65.99972300000001
 20
205.1139649999998
 30
0.0
 40
1.5
100
AcDbArc
 50
0.0
 51
75.301575
  0
LINE
  5
CAF8
330
C815
100
AcDbEntity
  8
1
  6
Continuous
100
AcDbLine
 10
68.999723
 20
191.2102629999999
 30
0.0
 11
67.499723
 21
191.2102629999999
 31
0.0
  0
ARC
  5
CAF9
330
C815
100
AcDbEntity
  8
1
  6
Continuous
100
AcDbCircle
 10
57.49972299999999
 20
172.710263
 30
0.0
 40
35.0
100
AcDbArc
 50
100.196875
 51
104.6984249999997
  0
ARC
  5
CAFA
330
C815
100
AcDbEntity
  8
1
  6
Continuous
100
AcDbCircle
 10
57.49972299999999
 20
190.6879139999998
 30
0.0
 40
16.8
100
AcDbArc
 50
41.836226
 51
46.59863099999999
  0
LINE
  5
CAFB
330
C815
100
AcDbEntity
  8
1
  6
Continuous
100
AcDbLine
 10
45.956361
 20
202.894093
 30
0.0
 11
47.49972299999998
 21
202.894093
 31
0.0
  0
ARC
  5
CAFC
330
C815
100
AcDbEntity
  8
1
  6
Continuous
100
AcDbCircle
 10
57.49972299999999
 20
190.6879139999998
 30
0.0
 40
16.8
100
AcDbArc
 50
133.4013689999999
 51
138.163778
  0
LINE
  5
CAFD
330
C815
100
AcDbEntity
  8
1
  6
Continuous
100
AcDbLine
 10
67.499723
 20
202.894093
 30
0.0
 11
69.04308499999999
 21
202.894093
 31
0.0
  0
LINE
  5
CAFE
330
C815
100
AcDbEntity
  8
1
  6
Continuous
100
AcDbLine
 10
137.347957
 20
63.5
 30
0.0
 11
182.155361
 21
63.5
 31
0.0
  0
LINE
  5
CAFF
330
C815
100
AcDbEntity
  8
1
  6
Continuous
100
AcDbLine
 10
137.347957
 20
83.49999999999999
 30
0.0
 11
182.155361
 21
83.49999999999999
 31
0.0
  0
LINE
  5
CB00
330
C815
100
AcDbEntity
  8
1
  6
Continuous
100
AcDbLine
 10
151.2516589999999
 20
62.0
 30
0.0
 11
168.2516589999998
 21
62.0
 31
0.0
  0
LINE
  5
CB01
330
C815
100
AcDbEntity
  8
1
  6
Continuous
100
AcDbLine
 10
151.2516589999999
 20
85.0
 30
0.0
 11
168.2516589999998
 21
85.0
 31
0.0
  0
ARC
  5
CB02
330
C815
100
AcDbEntity
  8
1
  6
Continuous
100
AcDbCircle
 10
149.751659
 20
73.5
 30
0.0
 40
35.0
100
AcDbArc
 50
345.301575
 51
14.698425
  0
ARC
  5
CB03
330
C815
100
AcDbEntity
  8
1
  6
Continuous
100
AcDbCircle
 10
182.155361
 20
65.0
 30
0.0
 40
1.5
100
AcDbArc
 50
270.0
 51
345.301575
  0
LINE
  5
CB04
330
C815
100
AcDbEntity
  8
1
  6
Continuous
100
AcDbLine
 10
168.2516589999998
 20
63.5
 30
0.0
 11
168.2516589999998
 21
62.0
 31
0.0
  0
LINE
  5
CB05
330
C815
100
AcDbEntity
  8
1
  6
Continuous
100
AcDbLine
 10
168.2516589999998
 20
85.0
 30
0.0
 11
168.2516589999998
 21
83.49999999999999
 31
0.0
  0
ARC
  5
CB06
330
C815
100
AcDbEntity
  8
1
  6
Continuous
100
AcDbCircle
 10
182.155361
 20
82.0
 30
0.0
 40
1.5
100
AcDbArc
 50
14.698425
 51
90.0
  0
LINE
  5
CB07
330
C815
100
AcDbEntity
  8
1
  6
Continuous
100
AcDbLine
 10
151.2516589999999
 20
63.5
 30
0.0
 11
151.2516589999999
 21
62.0
 31
0.0
  0
LINE
  5
CB08
330
C815
100
AcDbEntity
  8
1
  6
Continuous
100
AcDbLine
 10
162.7516589999999
 20
61.345016
 30
0.0
 11
162.7516589999999
 21
62.0
 31
0.0
  0
LINE
  5
CB09
330
C815
100
AcDbEntity
  8
1
  6
Continuous
100
AcDbLine
 10
156.7516589999998
 20
61.345016
 30
0.0
 11
156.7516589999998
 21
62.0
 31
0.0
  0
LINE
  5
CB0A
330
C815
100
AcDbEntity
  8
1
  6
Continuous
100
AcDbLine
 10
151.2516589999999
 20
85.0
 30
0.0
 11
151.2516589999999
 21
83.49999999999999
 31
0.0
  0
LINE
  5
CB0B
330
C815
100
AcDbEntity
  8
1
  6
Continuous
100
AcDbLine
 10
162.7516589999999
 20
85.654984
 30
0.0
 11
162.7516589999999
 21
85.0
 31
0.0
  0
LINE
  5
CB0C
330
C815
100
AcDbEntity
  8
1
  6
Continuous
100
AcDbLine
 10
156.7516589999998
 20
85.654984
 30
0.0
 11
156.7516589999998
 21
85.0
 31
0.0
  0
ARC
  5
CB0D
330
C815
100
AcDbEntity
  8
1
  6
Continuous
100
AcDbCircle
 10
169.751659
 20
73.5
 30
0.0
 40
35.0
100
AcDbArc
 50
165.301575
 51
194.698425
  0
ARC
  5
CB0E
330
C815
100
AcDbEntity
  8
1
  6
Continuous
100
AcDbCircle
 10
137.347957
 20
65.0
 30
0.0
 40
1.5
100
AcDbArc
 50
194.698425
 51
270.0
  0
ARC
  5
CB0F
330
C815
100
AcDbEntity
  8
1
  6
Continuous
100
AcDbCircle
 10
137.347957
 20
82.0
 30
0.0
 40
1.5
100
AcDbArc
 50
90.0
 51
165.301575
  0
LINE
  5
CB10
330
C815
100
AcDbEntity
  8
1
  6
Continuous
100
AcDbLine
 10
312.223936
 20
179.7102629999999
 30
0.0
 11
311.5035889999999
 21
179.7102629999999
 31
0.0
  0
LINE
  5
CB11
330
C815
100
AcDbEntity
  8
1
  6
Continuous
100
AcDbLine
 10
312.3041499999998
 20
185.7102629999999
 30
0.0
 11
311.5035889999999
 21
185.7102629999999
 31
0.0
  0
LINE
  5
CB12
330
C815
100
AcDbEntity
  8
1
  6
Continuous
100
AcDbLine
 10
310.003589
 20
202.894093
 30
0.0
 11
310.003589
 21
170.7102979999999
 31
0.0
  0
LINE
  5
CB13
330
C815
100
AcDbEntity
  8
1
  6
Continuous
100
AcDbLine
 10
311.5035889999999
 20
174.2102629999999
 30
0.0
 11
310.003589
 21
174.2102629999999
 31
0.0
  0
LINE
  5
CB14
330
C815
100
AcDbEntity
  8
1
  6
Continuous
100
AcDbLine
 10
311.5035889999999
 20
191.2102629999999
 30
0.0
 11
311.5035889999999
 21
174.2102629999999
 31
0.0
  0
LINE
  5
CB15
330
C815
100
AcDbEntity
  8
1
  6
Continuous
100
AcDbLine
 10
311.5035889999999
 20
191.2102629999999
 30
0.0
 11
310.003589
 21
191.2102629999999
 31
0.0
  0
LINE
  5
CB16
330
C815
100
AcDbEntity
  8
1
  6
Continuous
100
AcDbLine
 10
290.0035889999998
 20
202.894093
 30
0.0
 11
290.0035889999998
 21
170.7102979999999
 31
0.0
  0
LINE
  5
CB17
330
C815
100
AcDbEntity
  8
1
  6
Continuous
100
AcDbLine
 10
288.5035889999999
 20
191.2102629999999
 30
0.0
 11
288.5035889999999
 21
174.2102629999999
 31
0.0
  0
LINE
  5
CB18
330
C815
100
AcDbEntity
  8
1
  6
Continuous
100
AcDbLine
 10
290.0035889999998
 20
174.2102629999999
 30
0.0
 11
288.5035889999999
 21
174.2102629999999
 31
0.0
  0
LINE
  5
CB19
330
C815
100
AcDbEntity
  8
1
  6
Continuous
100
AcDbLine
 10
287.7832419999998
 20
179.7102629999999
 30
0.0
 11
288.5035889999999
 21
179.7102629999999
 31
0.0
  0
LINE
  5
CB1A
330
C815
100
AcDbEntity
  8
1
  6
Continuous
100
AcDbLine
 10
287.7030279999999
 20
185.7102629999999
 30
0.0
 11
288.5035889999999
 21
185.7102629999999
 31
0.0
  0
LINE
  5
CB1B
330
C815
100
AcDbEntity
  8
1
  6
Continuous
100
AcDbLine
 10
290.0035889999998
 20
191.2102629999999
 30
0.0
 11
288.5035889999999
 21
191.2102629999999
 31
0.0
  0
LINE
  5
CB1C
330
C815
100
AcDbEntity
  8
1
  6
Continuous
100
AcDbLine
 10
137.347957
 20
319.811343
 30
0.0
 11
139.7516559999999
 21
319.811343
 31
0.0
  0
ARC
  5
CB1D
330
C815
100
AcDbEntity
  8
1
  6
Continuous
100
AcDbCircle
 10
137.347957
 20
318.311343
 30
0.0
 40
1.5
100
AcDbArc
 50
90.0
 51
165.301575
  0
ARC
  5
CB1E
330
C815
100
AcDbEntity
  8
1
  6
Continuous
100
AcDbCircle
 10
169.751659
 20
309.811343
 30
0.0
 40
35.0
100
AcDbArc
 50
165.301575
 51
194.698425
  0
ARC
  5
CB1F
330
C815
100
AcDbEntity
  8
1
  6
Continuous
100
AcDbCircle
 10
137.347957
 20
301.311343
 30
0.0
 40
1.5
100
AcDbArc
 50
194.698425
 51
270.0
  0
LINE
  5
CB20
330
C815
100
AcDbEntity
  8
1
  6
Continuous
100
AcDbLine
 10
137.347957
 20
299.811343
 30
0.0
 11
139.7516559999999
 21
299.811343
 31
0.0
  0
LINE
  5
CB21
330
C815
100
AcDbEntity
  8
5
  6
PHANTOM
100
AcDbLine
 10
374.9055
 20
154.210263
 30
0.0
 11
412.6055
 21
154.210263
 31
0.0
  0
LINE
  5
CB22
330
C815
100
AcDbEntity
  8
5
  6
PHANTOM
100
AcDbLine
 10
376.5054999999999
 20
147.710263
 30
0.0
 11
411.0055
 21
147.710263
 31
0.0
  0
LINE
  5
CB23
330
C815
100
AcDbEntity
  8
5
  6
PHANTOM
100
AcDbLine
 10
376.5054999999999
 20
154.210263
 30
0.0
 11
376.5054999999999
 21
147.710263
 31
0.0
  0
LINE
  5
CB24
330
C815
100
AcDbEntity
  8
5
  6
PHANTOM
100
AcDbLine
 10
374.9055
 20
157.210263
 30
0.0
 11
374.9055
 21
154.210263
 31
0.0
  0
LINE
  5
CB25
330
C815
100
AcDbEntity
  8
5
  6
PHANTOM
100
AcDbLine
 10
377.9055
 20
160.210263
 30
0.0
 11
409.6054999999998
 21
160.210263
 31
0.0
  0
ARC
  5
CB26
330
C815
100
AcDbEntity
  8
5
  6
PHANTOM
100
AcDbCircle
 10
377.9055
 20
157.210263
 30
0.0
 40
3.0
100
AcDbArc
 50
90.0
 51
180.0
  0
LINE
  5
CB27
330
C815
100
AcDbEntity
  8
5
  6
PHANTOM
100
AcDbLine
 10
411.0055
 20
154.210263
 30
0.0
 11
411.0055
 21
147.710263
 31
0.0
  0
ARC
  5
CB28
330
C815
100
AcDbEntity
  8
5
  6
PHANTOM
100
AcDbCircle
 10
409.6054999999998
 20
157.210263
 30
0.0
 40
3.0
100
AcDbArc
 50
0.0
 51
90.0
  0
LINE
  5
CB29
330
C815
100
AcDbEntity
  8
5
  6
PHANTOM
100
AcDbLine
 10
412.6055
 20
154.210263
 30
0.0
 11
412.6055
 21
157.210263
 31
0.0
  0
LINE
  5
CB2A
330
C815
100
AcDbEntity
  8
5
  6
PHANTOM
100
AcDbLine
 10
377.9055
 20
180.210263
 30
0.0
 11
409.6054999999998
 21
180.210263
 31
0.0
  0
ARC
  5
CB2B
330
C815
100
AcDbEntity
  8
5
  6
PHANTOM
100
AcDbCircle
 10
377.9055
 20
177.210263
 30
0.0
 40
3.0
100
AcDbArc
 50
90.0
 51
180.0
  0
LINE
  5
CB2C
330
C815
100
AcDbEntity
  8
5
  6
PHANTOM
100
AcDbLine
 10
376.5054999999999
 20
167.710263
 30
0.0
 11
411.0055
 21
167.710263
 31
0.0
  0
LINE
  5
CB2D
330
C815
100
AcDbEntity
  8
5
  6
PHANTOM
100
AcDbLine
 10
374.9055
 20
174.2102629999999
 30
0.0
 11
412.6055
 21
174.2102629999999
 31
0.0
  0
LINE
  5
CB2E
330
C815
100
AcDbEntity
  8
5
  6
PHANTOM
100
AcDbLine
 10
376.5054999999999
 20
174.2102629999999
 30
0.0
 11
376.5054999999999
 21
167.710263
 31
0.0
  0
LINE
  5
CB2F
330
C815
100
AcDbEntity
  8
5
  6
PHANTOM
100
AcDbLine
 10
374.9055
 20
177.210263
 30
0.0
 11
374.9055
 21
174.2102629999999
 31
0.0
  0
LINE
  5
CB30
330
C815
100
AcDbEntity
  8
5
  6
PHANTOM
100
AcDbLine
 10
411.0055
 20
174.2102629999999
 30
0.0
 11
411.0055
 21
167.710263
 31
0.0
  0
LINE
  5
CB31
330
C815
100
AcDbEntity
  8
5
  6
PHANTOM
100
AcDbLine
 10
412.6055
 20
174.2102629999999
 30
0.0
 11
412.6055
 21
177.210263
 31
0.0
  0
ARC
  5
CB32
330
C815
100
AcDbEntity
  8
5
  6
PHANTOM
100
AcDbCircle
 10
409.6054999999998
 20
177.210263
 30
0.0
 40
3.0
100
AcDbArc
 50
0.0
 51
90.0
  0
LINE
  5
CB33
330
C815
100
AcDbEntity
  8
5
  6
PHANTOM
100
AcDbLine
 10
187.401678
 20
174.2102629999999
 30
0.0
 11
225.101678
 21
174.2102629999999
 31
0.0
  0
LINE
  5
CB34
330
C815
100
AcDbEntity
  8
5
  6
PHANTOM
100
AcDbLine
 10
190.401678
 20
180.210263
 30
0.0
 11
222.1016779999999
 21
180.210263
 31
0.0
  0
LINE
  5
CB35
330
C815
100
AcDbEntity
  8
5
  6
PHANTOM
100
AcDbLine
 10
187.401678
 20
177.210263
 30
0.0
 11
187.401678
 21
174.2102629999999
 31
0.0
  0
LINE
  5
CB36
330
C815
100
AcDbEntity
  8
5
  6
PHANTOM
100
AcDbLine
 10
189.001678
 20
174.2102629999999
 30
0.0
 11
189.001678
 21
167.710263
 31
0.0
  0
ARC
  5
CB37
330
C815
100
AcDbEntity
  8
5
  6
PHANTOM
100
AcDbCircle
 10
190.401678
 20
177.210263
 30
0.0
 40
3.0
100
AcDbArc
 50
90.0
 51
180.0
  0
LINE
  5
CB38
330
C815
100
AcDbEntity
  8
5
  6
PHANTOM
100
AcDbLine
 10
225.101678
 20
174.2102629999999
 30
0.0
 11
225.101678
 21
177.210263
 31
0.0
  0
LINE
  5
CB39
330
C815
100
AcDbEntity
  8
5
  6
PHANTOM
100
AcDbLine
 10
223.5016779999999
 20
174.2102629999999
 30
0.0
 11
223.5016779999999
 21
167.710263
 31
0.0
  0
ARC
  5
CB3A
330
C815
100
AcDbEntity
  8
5
  6
PHANTOM
100
AcDbCircle
 10
222.1016779999999
 20
177.210263
 30
0.0
 40
3.0
100
AcDbArc
 50
0.0
 51
90.0
  0
LINE
  5
CB3B
330
C815
100
AcDbEntity
  8
5
  6
PHANTOM
100
AcDbLine
 10
189.001678
 20
167.710263
 30
0.0
 11
223.5016779999999
 21
167.710263
 31
0.0
  0
LINE
  5
CB3C
330
C815
100
AcDbEntity
  8
5
  6
PHANTOM
100
AcDbLine
 10
187.401678
 20
154.210263
 30
0.0
 11
225.101678
 21
154.210263
 31
0.0
  0
ARC
  5
CB3D
330
C815
100
AcDbEntity
  8
5
  6
PHANTOM
100
AcDbCircle
 10
222.1016779999999
 20
157.210263
 30
0.0
 40
3.0
100
AcDbArc
 50
0.0
 51
90.0
  0
LINE
  5
CB3E
330
C815
100
AcDbEntity
  8
5
  6
PHANTOM
100
AcDbLine
 10
225.101678
 20
154.210263
 30
0.0
 11
225.101678
 21
157.210263
 31
0.0
  0
LINE
  5
CB3F
330
C815
100
AcDbEntity
  8
5
  6
PHANTOM
100
AcDbLine
 10
189.001678
 20
147.710263
 30
0.0
 11
223.5016779999999
 21
147.710263
 31
0.0
  0
LINE
  5
CB40
330
C815
100
AcDbEntity
  8
5
  6
PHANTOM
100
AcDbLine
 10
223.5016779999999
 20
154.210263
 30
0.0
 11
223.5016779999999
 21
147.710263
 31
0.0
  0
LINE
  5
CB41
330
C815
100
AcDbEntity
  8
5
  6
PHANTOM
100
AcDbLine
 10
189.001678
 20
154.210263
 30
0.0
 11
189.001678
 21
147.710263
 31
0.0
  0
LINE
  5
CB42
330
C815
100
AcDbEntity
  8
5
  6
PHANTOM
100
AcDbLine
 10
187.401678
 20
157.210263
 30
0.0
 11
187.401678
 21
154.210263
 31
0.0
  0
LINE
  5
CB43
330
C815
100
AcDbEntity
  8
5
  6
PHANTOM
100
AcDbLine
 10
190.401678
 20
160.210263
 30
0.0
 11
222.1016779999999
 21
160.210263
 31
0.0
  0
ARC
  5
CB44
330
C815
100
AcDbEntity
  8
5
  6
PHANTOM
100
AcDbCircle
 10
190.401678
 20
157.210263
 30
0.0
 40
3.0
100
AcDbArc
 50
90.0
 51
180.0
  0
ENDSEC
  0
SECTION
  2
OBJECTS
  0
DICTIONARY
  5
C803
330
0
100
AcDbDictionary
281
     1
  3
ACAD_CIP_PREVIOUS_PRODUCT_INFO
350
CBA6
  3
ACAD_COLOR
350
CB88
  3
ACAD_DETAILVIEWSTYLE
350
CBA1
  3
ACAD_GROUP
350
C804
  3
ACAD_LAYOUT
350
C810
  3
ACAD_MATERIAL
350
CB56
  3
ACAD_MLEADERSTYLE
350
CB9D
  3
ACAD_MLINESTYLE
350
C80D
  3
ACAD_PLOTSETTINGS
350
C80F
  3
ACAD_PLOTSTYLENAME
350
CB54
  3
ACAD_SCALELIST
350
CB8B
  3
ACAD_SECTIONVIEWSTYLE
350
CB9F
  3
ACAD_TABLESTYLE
350
CB89
  3
ACAD_VISUALSTYLE
350
CB6F
  3
ACDB_RECOMPOSE_DATA
350
CBC4
  3
AcDbVariableDictionary
350
CBB7
  3
DWGPROPS
350
CBC5
  0
DICTIONARY
  5
CBA7
330
C807
100
AcDbDictionary
280
     1
281
     1
  3
ADSK_XREC_LAYER_RECONCILED
360
CBA8
  0
DICTIONARY
  5
CBA9
330
C81D
100
AcDbDictionary
280
     1
281
     1
  3
ADSK_XREC_LAYER_RECONCILED
360
CBAA
  0
DICTIONARY
  5
CBAB
330
C81E
100
AcDbDictionary
280
     1
281
     1
  3
ADSK_XREC_LAYER_RECONCILED
360
CBAC
  0
DICTIONARY
  5
CBAD
330
C81F
100
AcDbDictionary
280
     1
281
     1
  3
ADSK_XREC_LAYER_RECONCILED
360
CBAE
  0
DICTIONARY
  5
CBAF
330
C820
100
AcDbDictionary
280
     1
281
     1
  3
ADSK_XREC_LAYER_RECONCILED
360
CBB0
  0
DICTIONARY
  5
CBB1
330
C821
100
AcDbDictionary
280
     1
281
     1
  3
ADSK_XREC_LAYER_RECONCILED
360
CBB2
  0
DICTIONARY
  5
CBB3
330
C822
100
AcDbDictionary
280
     1
281
     1
  3
ADSK_XREC_LAYER_RECONCILED
360
CBB4
  0
DICTIONARY
  5
CBB5
330
C823
100
AcDbDictionary
280
     1
281
     1
  3
ADSK_XREC_LAYER_RECONCILED
360
CBB6
  0
DICTIONARY
  5
CB4F
330
C815
100
AcDbDictionary
281
     1
  3
ACAD_LAYOUTSELFREF
350
CB50
  0
DICTIONARY
  5
CB4D
330
C811
100
AcDbDictionary
281
     1
  3
ACAD_LAYOUTSELFREF
350
CB4E
  0
XRECORD
  5
CBA6
102
{ACAD_REACTORS
330
C803
102
}
330
C803
100
AcDbXrecord
280
     1
300
ACDLT
300
2014
300
ACDLT_F_S
  0
DICTIONARY
  5
CB88
102
{ACAD_REACTORS
330
C803
102
}
330
C803
100
AcDbDictionary
281
     1
  0
DICTIONARY
  5
CBA1
102
{ACAD_REACTORS
330
C803
102
}
330
C803
100
AcDbDictionary
281
     1
  3
Imperial24
350
CBA2
  0
DICTIONARY
  5
C804
102
{ACAD_REACTORS
330
C803
102
}
330
C803
100
AcDbDictionary
281
     1
  0
DICTIONARY
  5
C810
102
{ACAD_REACTORS
330
C803
102
}
330
C803
100
AcDbDictionary
281
     1
  3
Model
350
CBA3
  3
レイアウト1
350
CBA4
  0
DICTIONARY
  5
CB56
102
{ACAD_REACTORS
330
C803
102
}
330
C803
100
AcDbDictionary
281
     1
  3
ByBlock
350
CB5F
  3
ByLayer
350
CB57
  3
Global
350
CB67
  0
DICTIONARY
  5
CB9D
102
{ACAD_REACTORS
330
C803
102
}
330
C803
100
AcDbDictionary
281
     1
  3
Standard
350
CB9E
  0
DICTIONARY
  5
C80D
102
{ACAD_REACTORS
330
C803
102
}
330
C803
100
AcDbDictionary
281
     1
  3
STANDARD
350
C80E
  0
DICTIONARY
  5
C80F
102
{ACAD_REACTORS
330
C803
102
}
330
C803
100
AcDbDictionary
281
     1
  0
ACDBDICTIONARYWDFLT
  5
CB54
102
{ACAD_REACTORS
330
C803
102
}
330
C803
100
AcDbDictionary
281
     1
  3
Normal
350
CB55
100
AcDbDictionaryWithDefault
340
CB55
  0
DICTIONARY
  5
CB8B
102
{ACAD_REACTORS
330
C803
102
}
330
C803
100
AcDbDictionary
281
     1
  3
A0
350
CB8C
  3
A1
350
CB8D
  3
A2
350
CB8E
  3
A3
350
CB8F
  3
A4
350
CB90
  3
A5
350
CB91
  3
A6
350
CB92
  3
A7
350
CB93
  3
A8
350
CB94
  3
A9
350
CB95
  3
B0
350
CB96
  3
B1
350
CB97
  3
B2
350
CB98
  3
B3
350
CB99
  3
B4
350
CB9A
  3
B5
350
CB9B
  3
B6
350
CB9C
  0
DICTIONARY
  5
CB9F
102
{ACAD_REACTORS
330
C803
102
}
330
C803
100
AcDbDictionary
281
     1
  3
Imperial24
350
CBA0
  0
DICTIONARY
  5
CB89
102
{ACAD_REACTORS
330
C803
102
}
330
C803
100
AcDbDictionary
281
     1
  3
Standard
350
CB8A
  0
DICTIONARY
  5
CB6F
102
{ACAD_REACTORS
330
C803
102
}
330
C803
100
AcDbDictionary
281
     1
  3
2dWireframe
350
CB75
  3
Basic
350
CB74
  3
Brighten
350
CB7B
  3
ColorChange
350
CB7F
  3
Conceptual
350
CB78
  3
Dim
350
CB7A
  3
EdgeColorOff
350
CB87
  3
Facepattern
350
CB7E
  3
Flat
350
CB70
  3
FlatWithEdges
350
CB71
  3
Gouraud
350
CB72
  3
GouraudWithEdges
350
CB73
  3
Hidden
350
CB77
  3
JitterOff
350
CB85
  3
Linepattern
350
CB7D
  3
OverhangOff
350
CB86
  3
Realistic
350
CB79
  3
Shaded
350
CB84
  3
Shaded with edges
350
CB83
  3
Shades of Gray
350
CB80
  3
Sketchy
350
CB81
  3
Thicken
350
CB7C
  3
Wireframe
350
CB76
  3
X-Ray
350
CB82
  0
XRECORD
  5
CBC4
102
{ACAD_REACTORS
330
C803
102
}
330
C803
100
AcDbXrecord
280
     1
 90
        1
330
CB8A
  0
DICTIONARY
  5
CBB7
102
{ACAD_REACTORS
330
C803
102
}
330
C803
100
AcDbDictionary
281
     1
  3
CANNOSCALE
350
CBBC
  3
CMLEADERSTYLE
350
CBB9
  3
CTABLESTYLE
350
CBB8
  3
CVIEWDETAILSTYLE
350
CBBA
  3
CVIEWSECTIONSTYLE
350
CBBB
  3
DIMASSOC
350
CBBF
  3
INDEXCTL
350
CBBE
  3
SORTENTS
350
CBBD
  3
XCLIPFRAME
350
CBC0
  0
XRECORD
  5
CBC5
102
{ACAD_REACTORS
330
C803
102
}
330
C803
100
AcDbXrecord
280
     1
  1
DWGPROPS COOKIE
  2

  3

  4

  6

  7

  8
Yoshitsune
  9

300
=
301
=
302
=
303
=
304
=
305
=
306
=
307
=
308
=
309
=
 40
0.0250613194444445
 41
2451301.395590046
 42
2457192.68650882
  1

 90
        0
  0
XRECORD
  5
CBA8
102
{ACAD_REACTORS
330
CBA7
102
}
330
CBA7
100
AcDbXrecord
280
     1
290
     1
  0
XRECORD
  5
CBAA
102
{ACAD_REACTORS
330
CBA9
102
}
330
CBA9
100
AcDbXrecord
280
     1
290
     1
  0
XRECORD
  5
CBAC
102
{ACAD_REACTORS
330
CBAB
102
}
330
CBAB
100
AcDbXrecord
280
     1
290
     1
  0
XRECORD
  5
CBAE
102
{ACAD_REACTORS
330
CBAD
102
}
330
CBAD
100
AcDbXrecord
280
     1
290
     1
  0
XRECORD
  5
CBB0
102
{ACAD_REACTORS
330
CBAF
102
}
330
CBAF
100
AcDbXrecord
280
     1
290
     1
  0
XRECORD
  5
CBB2
102
{ACAD_REACTORS
330
CBB1
102
}
330
CBB1
100
AcDbXrecord
280
     1
290
     1
  0
XRECORD
  5
CBB4
102
{ACAD_REACTORS
330
CBB3
102
}
330
CBB3
100
AcDbXrecord
280
     1
290
     1
  0
XRECORD
  5
CBB6
102
{ACAD_REACTORS
330
CBB5
102
}
330
CBB5
100
AcDbXrecord
280
     1
290
     1
  0
XRECORD
  5
CB50
102
{ACAD_REACTORS
330
CB4F
102
}
330
CB4F
100
AcDbXrecord
280
     1
340
C815
  0
XRECORD
  5
CB4E
102
{ACAD_REACTORS
330
CB4D
102
}
330
CB4D
100
AcDbXrecord
280
     1
340
C811
  0
ACDBDETAILVIEWSTYLE
  5
CBA2
102
{ACAD_XDICTIONARY
360
CBFD
102
}
102
{ACAD_REACTORS
330
CBA1
102
}
330
CBA1
100
AcDbModelDocViewStyle
 70
     0
  3
Imperial24
290
     0
100
AcDbDetailViewStyle
 70
     0
 71
     0
 90
        3
 71
     1
340
C808
 40
0.24
340
0
 40
0.24
300

 40
0.36
280
     3
 71
     2
340
C80C
 90
       25
 71
     3
340
C808
 40
0.24
 90
        1
 40
0.75
 90
        1
300
%<\AcVar ViewType \f "%tc1">% %<\AcVar ViewDetailId>%\PSCALE %<\AcVar ViewScale \f "%sn">%
 71
     4
340
C80C
 90
       25
340
C80C
 90
       25
280
     0
  0
LAYOUT
  5
CBA3
102
{ACAD_XDICTIONARY
360
CBFF
102
}
102
{ACAD_REACTORS
330
C810
102
}
330
C810
100
AcDbPlotSettings
  1

  2
Canon LBP9100C
  4

  6

 40
0.0
 41
0.0
 42
0.0
 43
0.0
 44
0.0
 45
0.0
 46
0.0
 47
0.0
 48
0.0
 49
0.0
140
0.0
141
0.0
142
1.0
143
1.0
 70
  1712
 72
     0
 73
     0
 74
     0
  7

 75
     0
147
1.0
148
0.0
149
0.0
100
AcDbLayout
  1
Model
 70
     1
 71
     0
 10
0.0
 20
0.0
 11
12.0
 21
9.0
 12
0.0
 22
0.0
 32
0.0
 14
0.0
 24
0.0
 34
0.0
 15
0.0
 25
0.0
 35
0.0
146
0.0
 13
0.0
 23
0.0
 33
0.0
 16
1.0
 26
0.0
 36
0.0
 17
0.0
 27
1.0
 37
0.0
 76
     0
330
C815
331
CB4C
  0
LAYOUT
  5
CBA4
102
{ACAD_XDICTIONARY
360
CC01
102
}
102
{ACAD_REACTORS
330
C810
102
}
330
C810
100
AcDbPlotSettings
  1

  2
Canon LBP9100C
  4

  6

 40
0.0
 41
0.0
 42
0.0
 43
0.0
 44
0.0
 45
0.0
 46
0.0
 47
0.0
 48
0.0
 49
0.0
140
0.0
141
0.0
142
1.0
143
1.0
 70
   688
 72
     0
 73
     0
 74
     5
  7

 75
    16
147
1.0
148
0.0
149
0.0
100
AcDbLayout
  1
レイアウト1
 70
     0
 71
     1
 10
0.0
 20
0.0
 11
420.0
 21
297.0
 12
0.0
 22
0.0
 32
0.0
 14
1.000000000000000E+20
 24
1.000000000000000E+20
 34
1.000000000000000E+20
 15
-1.000000000000000E+20
 25
-1.000000000000000E+20
 35
-1.000000000000000E+20
146
0.0
 13
0.0
 23
0.0
 33
0.0
 16
1.0
 26
0.0
 36
0.0
 17
0.0
 27
1.0
 37
0.0
 76
     0
330
C811
  0
MATERIAL
  5
CB5F
102
{ACAD_XDICTIONARY
360
CB60
102
}
102
{ACAD_REACTORS
330
CB56
102
}
330
CB56
100
AcDbMaterial
  1
ByBlock
 72
     0
 43
0.0208333333333333
 43
0.0
 43
0.0
 43
0.0
 43
0.0
 43
0.0208333333333333
 43
0.0
 43
0.0
 43
0.0
 43
0.0
 43
1.0
 43
0.0
 43
0.0
 43
0.0
 43
0.0
 43
1.0
 77
     0
 47
0.0208333333333333
 47
0.0
 47
0.0
 47
0.0
 47
0.0
 47
0.0208333333333333
 47
0.0
 47
0.0
 47
0.0
 47
0.0
 47
1.0
 47
0.0
 47
0.0
 47
0.0
 47
0.0
 47
1.0
171
     0
 49
0.0208333333333333
 49
0.0
 49
0.0
 49
0.0
 49
0.0
 49
0.0208333333333333
 49
0.0
 49
0.0
 49
0.0
 49
0.0
 49
1.0
 49
0.0
 49
0.0
 49
0.0
 49
0.0
 49
1.0
175
     0
142
0.0208333333333333
142
0.0
142
0.0
142
0.0
142
0.0
142
0.0208333333333333
142
0.0
142
0.0
142
0.0
142
0.0
142
1.0
142
0.0
142
0.0
142
0.0
142
0.0
142
1.0
179
     0
144
0.0208333333333333
144
0.0
144
0.0
144
0.0
144
0.0
144
0.0208333333333333
144
0.0
144
0.0
144
0.0
144
0.0
144
1.0
144
0.0
144
0.0
144
0.0
144
0.0
144
1.0
147
0.0208333333333333
147
0.0
147
0.0
147
0.0
147
0.0
147
0.0208333333333333
147
0.0
147
0.0
147
0.0
147
0.0
147
1.0
147
0.0
147
0.0
147
0.0
147
0.0
147
1.0
  0
MATERIAL
  5
CB57
102
{ACAD_XDICTIONARY
360
CB58
102
}
102
{ACAD_REACTORS
330
CB56
102
}
330
CB56
100
AcDbMaterial
  1
ByLayer
 72
     0
 43
0.0208333333333333
 43
0.0
 43
0.0
 43
0.0
 43
0.0
 43
0.0208333333333333
 43
0.0
 43
0.0
 43
0.0
 43
0.0
 43
1.0
 43
0.0
 43
0.0
 43
0.0
 43
0.0
 43
1.0
 77
     0
 47
0.0208333333333333
 47
0.0
 47
0.0
 47
0.0
 47
0.0
 47
0.0208333333333333
 47
0.0
 47
0.0
 47
0.0
 47
0.0
 47
1.0
 47
0.0
 47
0.0
 47
0.0
 47
0.0
 47
1.0
171
     0
 49
0.0208333333333333
 49
0.0
 49
0.0
 49
0.0
 49
0.0
 49
0.0208333333333333
 49
0.0
 49
0.0
 49
0.0
 49
0.0
 49
1.0
 49
0.0
 49
0.0
 49
0.0
 49
0.0
 49
1.0
175
     0
142
0.0208333333333333
142
0.0
142
0.0
142
0.0
142
0.0
142
0.0208333333333333
142
0.0
142
0.0
142
0.0
142
0.0
142
1.0
142
0.0
142
0.0
142
0.0
142
0.0
142
1.0
179
     0
144
0.0208333333333333
144
0.0
144
0.0
144
0.0
144
0.0
144
0.0208333333333333
144
0.0
144
0.0
144
0.0
144
0.0
144
1.0
144
0.0
144
0.0
144
0.0
144
0.0
144
1.0
147
0.0208333333333333
147
0.0
147
0.0
147
0.0
147
0.0
147
0.0208333333333333
147
0.0
147
0.0
147
0.0
147
0.0
147
1.0
147
0.0
147
0.0
147
0.0
147
0.0
147
1.0
  0
MATERIAL
  5
CB67
102
{ACAD_XDICTIONARY
360
CB68
102
}
102
{ACAD_REACTORS
330
CB56
102
}
330
CB56
100
AcDbMaterial
  1
Global
 72
     0
 43
0.0208333333333333
 43
0.0
 43
0.0
 43
0.0
 43
0.0
 43
0.0208333333333333
 43
0.0
 43
0.0
 43
0.0
 43
0.0
 43
1.0
 43
0.0
 43
0.0
 43
0.0
 43
0.0
 43
1.0
 77
     0
 47
0.0208333333333333
 47
0.0
 47
0.0
 47
0.0
 47
0.0
 47
0.0208333333333333
 47
0.0
 47
0.0
 47
0.0
 47
0.0
 47
1.0
 47
0.0
 47
0.0
 47
0.0
 47
0.0
 47
1.0
171
     0
 49
0.0208333333333333
 49
0.0
 49
0.0
 49
0.0
 49
0.0
 49
0.0208333333333333
 49
0.0
 49
0.0
 49
0.0
 49
0.0
 49
1.0
 49
0.0
 49
0.0
 49
0.0
 49
0.0
 49
1.0
175
     0
142
0.0208333333333333
142
0.0
142
0.0
142
0.0
142
0.0
142
0.0208333333333333
142
0.0
142
0.0
142
0.0
142
0.0
142
1.0
142
0.0
142
0.0
142
0.0
142
0.0
142
1.0
179
     0
144
0.0208333333333333
144
0.0
144
0.0
144
0.0
144
0.0
144
0.0208333333333333
144
0.0
144
0.0
144
0.0
144
0.0
144
1.0
144
0.0
144
0.0
144
0.0
144
0.0
144
1.0
147
0.0208333333333333
147
0.0
147
0.0
147
0.0
147
0.0
147
0.0208333333333333
147
0.0
147
0.0
147
0.0
147
0.0
147
1.0
147
0.0
147
0.0
147
0.0
147
0.0
147
1.0
  0
MLEADERSTYLE
  5
CB9E
102
{ACAD_REACTORS
330
CB9D
102
}
330
CB9D
100
AcDbMLeaderStyle
170
     2
171
     1
172
     0
 90
        2
 40
0.0
 41
0.0
173
     1
 91
-1056964608
340
C80A
 92
       -2
290
     1
 42
0.09
291
     1
 43
0.36
  3
Standard
 44
0.18
300

342
C808
174
     1
178
     6
175
     1
176
     0
 93
-1056964608
 45
0.18
292
     0
297
     0
 46
0.18
 94
-1056964608
 47
1.0
 49
1.0
140
1.0
293
     1
141
0.0
294
     1
177
     0
142
1.0
295
     0
296
     0
143
0.125
1001
ACAD_MLEADERVER
1070
     2
  0
MLINESTYLE
  5
C80E
102
{ACAD_REACTORS
330
C80D
102
}
330
C80D
100
AcDbMlineStyle
  2
STANDARD
 70
     0
  3

 62
   256
 51
90.0
 52
90.0
 71
     2
 49
0.5
 62
   256
  6
BYLAYER
 49
-0.5
 62
   256
  6
BYLAYER
  0
ACDBPLACEHOLDER
  5
CB55
102
{ACAD_REACTORS
330
CB54
102
}
330
CB54
  0
SCALE
  5
CB8C
102
{ACAD_REACTORS
330
CB8B
102
}
330
CB8B
100
AcDbScale
 70
     0
300
1:1
140
1.0
141
1.0
290
     1
  0
SCALE
  5
CB8D
102
{ACAD_REACTORS
330
CB8B
102
}
330
CB8B
100
AcDbScale
 70
     0
300
1/128" = 1'-0"
140
0.0078125
141
12.0
290
     0
  0
SCALE
  5
CB8E
102
{ACAD_REACTORS
330
CB8B
102
}
330
CB8B
100
AcDbScale
 70
     0
300
1/64" = 1'-0"
140
0.015625
141
12.0
290
     0
  0
SCALE
  5
CB8F
102
{ACAD_REACTORS
330
CB8B
102
}
330
CB8B
100
AcDbScale
 70
     0
300
1/32" = 1'-0"
140
0.03125
141
12.0
290
     0
  0
SCALE
  5
CB90
102
{ACAD_REACTORS
330
CB8B
102
}
330
CB8B
100
AcDbScale
 70
     0
300
1/16" = 1'-0"
140
0.0625
141
12.0
290
     0
  0
SCALE
  5
CB91
102
{ACAD_REACTORS
330
CB8B
102
}
330
CB8B
100
AcDbScale
 70
     0
300
3/32" = 1'-0"
140
0.09375
141
12.0
290
     0
  0
SCALE
  5
CB92
102
{ACAD_REACTORS
330
CB8B
102
}
330
CB8B
100
AcDbScale
 70
     0
300
1/8" = 1'-0"
140
0.125
141
12.0
290
     0
  0
SCALE
  5
CB93
102
{ACAD_REACTORS
330
CB8B
102
}
330
CB8B
100
AcDbScale
 70
     0
300
3/16" = 1'-0"
140
0.1875
141
12.0
290
     0
  0
SCALE
  5
CB94
102
{ACAD_REACTORS
330
CB8B
102
}
330
CB8B
100
AcDbScale
 70
     0
300
1/4" = 1'-0"
140
0.25
141
12.0
290
     0
  0
SCALE
  5
CB95
102
{ACAD_REACTORS
330
CB8B
102
}
330
CB8B
100
AcDbScale
 70
     0
300
3/8" = 1'-0"
140
0.375
141
12.0
290
     0
  0
SCALE
  5
CB96
102
{ACAD_REACTORS
330
CB8B
102
}
330
CB8B
100
AcDbScale
 70
     0
300
1/2" = 1'-0"
140
0.5
141
12.0
290
     0
  0
SCALE
  5
CB97
102
{ACAD_REACTORS
330
CB8B
102
}
330
CB8B
100
AcDbScale
 70
     0
300
3/4" = 1'-0"
140
0.75
141
12.0
290
     0
  0
SCALE
  5
CB98
102
{ACAD_REACTORS
330
CB8B
102
}
330
CB8B
100
AcDbScale
 70
     0
300
1" = 1'-0"
140
1.0
141
12.0
290
     0
  0
SCALE
  5
CB99
102
{ACAD_REACTORS
330
CB8B
102
}
330
CB8B
100
AcDbScale
 70
     0
300
1-1/2" = 1'-0"
140
1.5
141
12.0
290
     0
  0
SCALE
  5
CB9A
102
{ACAD_REACTORS
330
CB8B
102
}
330
CB8B
100
AcDbScale
 70
     0
300
3" = 1'-0"
140
3.0
141
12.0
290
     0
  0
SCALE
  5
CB9B
102
{ACAD_REACTORS
330
CB8B
102
}
330
CB8B
100
AcDbScale
 70
     0
300
6" = 1'-0"
140
6.0
141
12.0
290
     0
  0
SCALE
  5
CB9C
102
{ACAD_REACTORS
330
CB8B
102
}
330
CB8B
100
AcDbScale
 70
     0
300
1'-0" = 1'-0"
140
12.0
141
12.0
290
     0
  0
ACDBSECTIONVIEWSTYLE
  5
CBA0
102
{ACAD_XDICTIONARY
360
CBFB
102
}
102
{ACAD_REACTORS
330
CB9F
102
}
330
CB9F
100
AcDbModelDocViewStyle
 70
     0
  3
Imperial24
290
     0
100
AcDbSectionViewStyle
 70
     0
 71
     0
 90
       78
 71
     1
340
C808
 40
0.24
340
0
340
0
 40
0.24
300
I, O, Q, S, X, Z
 40
0.48
 90
        3
 40
0.18
 90
        1
 71
     2
340
C80C
 90
       25
340
C80C
 90
       50
 40
0.24
 40
0.0
 40
0.24
 71
     3
340
C808
 40
0.24
 90
        1
 40
0.75
 90
        1
300
%<\AcVar ViewType \f "%tc1">% %<\AcVar ViewSectionStartId>%-%<\AcVar ViewSectionEndId>%\PSCALE %<\AcVar ViewScale \f "%sn">%
 71
     4
300
ANSI31
 40
1.0
 90
        0
290
     0
290
     0
 90
        6
 40
0.0
 40
1.570796326794896
 40
0.2617993877991494
 40
1.308996938995747
 40
-0.2617993877991494
 40
1.832595714594046
  0
TABLESTYLE
  5
CB8A
102
{ACAD_XDICTIONARY
360
CBC2
102
}
102
{ACAD_REACTORS
330
CB89
102
}
330
CB89
100
AcDbTableStyle
  3
Standard
 70
     0
 71
     0
 40
0.06
 41
0.06
280
     0
281
     0
  7
STANDARD
140
0.18
170
     2
 62
     0
 63
     7
283
     0
274
    -2
284
     1
 64
     0
275
    -2
285
     1
 65
     0
276
    -2
286
     1
 66
     0
277
    -2
287
     1
 67
     0
278
    -2
288
     1
 68
     0
279
    -2
289
     1
 69
     0
  7
STANDARD
140
0.25
170
     5
 62
     0
 63
     7
283
     0
274
    -2
284
     1
 64
     0
275
    -2
285
     1
 65
     0
276
    -2
286
     1
 66
     0
277
    -2
287
     1
 67
     0
278
    -2
288
     1
 68
     0
279
    -2
289
     1
 69
     0
  7
STANDARD
140
0.18
170
     5
 62
     0
 63
     7
283
     0
274
    -2
284
     1
 64
     0
275
    -2
285
     1
 65
     0
276
    -2
286
     1
 66
     0
277
    -2
287
     1
 67
     0
278
    -2
288
     1
 68
     0
279
    -2
289
     1
 69
     0
  0
VISUALSTYLE
  5
CB75
102
{ACAD_XDICTIONARY
360
CBD3
102
}
102
{ACAD_REACTORS
330
CB6F
102
}
330
CB6F
100
AcDbVisualStyle
  2
2dWireframe
 70
     4
 71
     0
 72
     2
 73
     0
 90
        0
 40
-0.6
 41
-30.0
 62
     5
 63
     7
 74
     1
 91
        4
 64
     7
 65
   257
 75
     1
175
     1
 42
1.0
 92
        0
 66
   257
 43
1.0
 76
     1
 77
     6
 78
     2
 67
     7
 79
     5
170
     0
171
     0
290
     0
174
     0
 93
        1
 44
0.0
173
     0
291
     0
 45
0.0
1001
ACAD
1000
AcDbSavedByObjectVersion
1070
     0
  0
VISUALSTYLE
  5
CB74
102
{ACAD_XDICTIONARY
360
CBD1
102
}
102
{ACAD_REACTORS
330
CB6F
102
}
330
CB6F
100
AcDbVisualStyle
  2
Basic
 70
     7
 71
     1
 72
     0
 73
     1
 90
        0
 40
-0.6
 41
-30.0
 62
     5
 63
     7
 74
     0
 91
        4
 64
     7
 65
   257
 75
     1
175
     1
 42
1.0
 92
        8
 66
     7
 43
1.0
 76
     1
 77
     6
 78
     2
 67
     7
 79
     5
170
     0
171
     0
290
     0
174
     0
 93
        1
 44
0.0
173
     0
291
     1
 45
0.0
1001
ACAD
1000
AcDbSavedByObjectVersion
1070
     0
  0
VISUALSTYLE
  5
CB7B
102
{ACAD_XDICTIONARY
360
CBDF
102
}
102
{ACAD_REACTORS
330
CB6F
102
}
330
CB6F
100
AcDbVisualStyle
  2
Brighten
 70
    12
 71
     2
 72
     2
 73
     0
 90
        0
 40
-0.6
 41
-30.0
 62
     5
 63
     7
 74
     1
 91
        4
 64
     7
 65
   257
 75
     1
175
     1
 42
1.0
 92
        8
 66
     7
 43
1.0
 76
     1
 77
     6
 78
     2
 67
     7
 79
     5
170
     0
171
     0
290
     0
174
     0
 93
        1
 44
50.0
173
     0
291
     1
 45
0.0
1001
ACAD
1000
AcDbSavedByObjectVersion
1070
     0
  0
VISUALSTYLE
  5
CB7F
102
{ACAD_XDICTIONARY
360
CBE7
102
}
102
{ACAD_REACTORS
330
CB6F
102
}
330
CB6F
100
AcDbVisualStyle
  2
ColorChange
 70
    16
 71
     2
 72
     2
 73
     3
 90
        0
 40
-0.6
 41
-30.0
 62
     5
 63
     8
 74
     1
 91
        4
 64
     7
 65
   257
 75
     1
175
     1
 42
1.0
 92
        8
 66
     8
 43
1.0
 76
     1
 77
     6
 78
     2
 67
     7
 79
     5
170
     0
171
     0
290
     0
174
     0
 93
        1
 44
0.0
173
     0
291
     1
 45
0.0
1001
ACAD
1000
AcDbSavedByObjectVersion
1070
     0
  0
VISUALSTYLE
  5
CB78
102
{ACAD_XDICTIONARY
360
CBD9
102
}
102
{ACAD_REACTORS
330
CB6F
102
}
330
CB6F
100
AcDbVisualStyle
  2
Conceptual
 70
     9
 71
     3
 72
     2
 73
     0
 90
        0
 40
-0.6
 41
-30.0
 62
     5
 63
     7
 74
     2
 91
        2
 64
     7
 65
   257
 75
     1
175
     1
 42
179.0
 92
        8
 66
     7
 43
1.0
 76
     1
 77
     6
 78
     2
 67
     7
 79
     3
170
     0
171
     0
290
     0
174
     0
 93
        1
 44
0.0
173
     0
291
     0
 45
0.0
1001
ACAD
1000
AcDbSavedByObjectVersion
1070
     0
  0
VISUALSTYLE
  5
CB7A
102
{ACAD_XDICTIONARY
360
CBDD
102
}
102
{ACAD_REACTORS
330
CB6F
102
}
330
CB6F
100
AcDbVisualStyle
  2
Dim
 70
    11
 71
     2
 72
     2
 73
     0
 90
        0
 40
-0.6
 41
-30.0
 62
     5
 63
     7
 74
     1
 91
        4
 64
     7
 65
   257
 75
     1
175
     1
 42
1.0
 92
        8
 66
     7
 43
1.0
 76
     1
 77
     6
 78
     2
 67
     7
 79
     5
170
     0
171
     0
290
     0
174
     0
 93
        1
 44
-50.0
173
     0
291
     1
 45
0.0
1001
ACAD
1000
AcDbSavedByObjectVersion
1070
     0
  0
VISUALSTYLE
  5
CB87
102
{ACAD_XDICTIONARY
360
CBF7
102
}
102
{ACAD_REACTORS
330
CB6F
102
}
330
CB6F
100
AcDbVisualStyle
  2
EdgeColorOff
 70
    22
 71
     2
 72
     2
 73
     0
 90
        0
 40
-0.6
 41
-30.0
 62
     5
 63
     7
 74
     1
 91
        4
 64
     7
 65
   257
 75
     1
175
     1
 42
1.0
 92
        8
 66
     7
 43
1.0
 76
     1
 77
     6
 78
     2
 67
     7
 79
     5
170
     0
171
     0
290
     0
174
     0
 93
        1
 44
0.0
173
     0
291
     1
 45
0.0
1001
ACAD
1000
AcDbSavedByObjectVersion
1070
     0
  0
VISUALSTYLE
  5
CB7E
102
{ACAD_XDICTIONARY
360
CBE5
102
}
102
{ACAD_REACTORS
330
CB6F
102
}
330
CB6F
100
AcDbVisualStyle
  2
Facepattern
 70
    15
 71
     2
 72
     2
 73
     0
 90
        0
 40
-0.6
 41
-30.0
 62
     5
 63
     7
 74
     1
 91
        4
 64
     7
 65
   257
 75
     1
175
     1
 42
1.0
 92
        8
 66
     7
 43
1.0
 76
     1
 77
     6
 78
     2
 67
     7
 79
     5
170
     0
171
     0
290
     0
174
     0
 93
        1
 44
0.0
173
     0
291
     1
 45
0.0
1001
ACAD
1000
AcDbSavedByObjectVersion
1070
     0
  0
VISUALSTYLE
  5
CB70
102
{ACAD_XDICTIONARY
360
CBC9
102
}
102
{ACAD_REACTORS
330
CB6F
102
}
330
CB6F
100
AcDbVisualStyle
  2
Flat
 70
     0
 71
     2
 72
     1
 73
     1
 90
        2
 40
-0.6
 41
30.0
 62
     5
 63
     7
 74
     0
 91
        0
 64
     7
 65
   257
 75
     1
175
     1
 42
1.0
 92
        8
 66
     7
 43
1.0
 76
     1
 77
     6
 78
     2
 67
     7
 79
     5
170
     0
171
     0
290
     0
174
     0
 93
       13
 44
0.0
173
     0
291
     1
 45
0.0
1001
ACAD
1000
AcDbSavedByObjectVersion
1070
     0
  0
VISUALSTYLE
  5
CB71
102
{ACAD_XDICTIONARY
360
CBCB
102
}
102
{ACAD_REACTORS
330
CB6F
102
}
330
CB6F
100
AcDbVisualStyle
  2
FlatWithEdges
 70
     1
 71
     2
 72
     1
 73
     1
 90
        2
 40
-0.6
 41
30.0
 62
     5
 63
     7
 74
     1
 91
        0
 64
     7
 65
   257
 75
     1
175
     1
 42
1.0
 92
        0
 66
   257
 43
1.0
 76
     1
 77
     6
 78
     2
 67
     7
 79
     5
170
     0
171
     0
290
     0
174
     0
 93
       13
 44
0.0
173
     0
291
     1
 45
0.0
1001
ACAD
1000
AcDbSavedByObjectVersion
1070
     0
  0
VISUALSTYLE
  5
CB72
102
{ACAD_XDICTIONARY
360
CBCD
102
}
102
{ACAD_REACTORS
330
CB6F
102
}
330
CB6F
100
AcDbVisualStyle
  2
Gouraud
 70
     2
 71
     2
 72
     2
 73
     1
 90
        2
 40
-0.6
 41
30.0
 62
     5
 63
     7
 74
     0
 91
        0
 64
     7
 65
   257
 75
     1
175
     1
 42
1.0
 92
        0
 66
     7
 43
1.0
 76
     1
 77
     6
 78
     2
 67
     7
 79
     5
170
     0
171
     0
290
     0
174
     0
 93
       13
 44
0.0
173
     0
291
     1
 45
0.0
1001
ACAD
1000
AcDbSavedByObjectVersion
1070
     0
  0
VISUALSTYLE
  5
CB73
102
{ACAD_XDICTIONARY
360
CBCF
102
}
102
{ACAD_REACTORS
330
CB6F
102
}
330
CB6F
100
AcDbVisualStyle
  2
GouraudWithEdges
 70
     3
 71
     2
 72
     2
 73
     1
 90
        2
 40
-0.6
 41
30.0
 62
     5
 63
     7
 74
     1
 91
        0
 64
     7
 65
   257
 75
     1
175
     1
 42
1.0
 92
        0
 66
   257
 43
1.0
 76
     1
 77
     6
 78
     2
 67
     7
 79
     5
170
     0
171
     0
290
     0
174
     0
 93
       13
 44
0.0
173
     0
291
     1
 45
0.0
1001
ACAD
1000
AcDbSavedByObjectVersion
1070
     0
  0
VISUALSTYLE
  5
CB77
102
{ACAD_XDICTIONARY
360
CBD7
102
}
102
{ACAD_REACTORS
330
CB6F
102
}
330
CB6F
100
AcDbVisualStyle
  2
Hidden
 70
     6
 71
     1
 72
     2
 73
     2
 90
        0
 40
-0.6
 41
-30.0
 62
     5
 63
     7
 74
     2
 91
        2
 64
     7
 65
   257
 75
     2
175
     1
 42
40.0
 92
        0
 66
   257
 43
1.0
 76
     1
 77
     6
 78
     2
 67
     7
 79
     3
170
     0
171
     0
290
     0
174
     0
 93
        1
 44
0.0
173
     0
291
     0
 45
0.0
1001
ACAD
1000
AcDbSavedByObjectVersion
1070
     0
  0
VISUALSTYLE
  5
CB85
102
{ACAD_XDICTIONARY
360
CBF3
102
}
102
{ACAD_REACTORS
330
CB6F
102
}
330
CB6F
100
AcDbVisualStyle
  2
JitterOff
 70
    20
 71
     2
 72
     2
 73
     0
 90
        0
 40
-0.6
 41
-30.0
 62
     5
 63
     7
 74
     1
 91
        4
 64
     7
 65
   257
 75
     1
175
     1
 42
1.0
 92
       10
 66
     7
 43
1.0
 76
     1
 77
     6
 78
     2
 67
     7
 79
     5
170
     0
171
     0
290
     0
174
     0
 93
        1
 44
0.0
173
     0
291
     1
 45
0.0
1001
ACAD
1000
AcDbSavedByObjectVersion
1070
     0
  0
VISUALSTYLE
  5
CB7D
102
{ACAD_XDICTIONARY
360
CBE3
102
}
102
{ACAD_REACTORS
330
CB6F
102
}
330
CB6F
100
AcDbVisualStyle
  2
Linepattern
 70
    14
 71
     2
 72
     2
 73
     0
 90
        0
 40
-0.6
 41
-30.0
 62
     5
 63
     7
 74
     1
 91
        4
 64
     7
 65
   257
 75
     7
175
     7
 42
1.0
 92
        8
 66
     7
 43
1.0
 76
     1
 77
     6
 78
     2
 67
     7
 79
     5
170
     0
171
     0
290
     0
174
     0
 93
        1
 44
0.0
173
     0
291
     1
 45
0.0
1001
ACAD
1000
AcDbSavedByObjectVersion
1070
     0
  0
VISUALSTYLE
  5
CB86
102
{ACAD_XDICTIONARY
360
CBF5
102
}
102
{ACAD_REACTORS
330
CB6F
102
}
330
CB6F
100
AcDbVisualStyle
  2
OverhangOff
 70
    21
 71
     2
 72
     2
 73
     0
 90
        0
 40
-0.6
 41
-30.0
 62
     5
 63
     7
 74
     1
 91
        4
 64
     7
 65
   257
 75
     1
175
     1
 42
1.0
 92
        9
 66
     7
 43
1.0
 76
     1
 77
     6
 78
     2
 67
     7
 79
     5
170
     0
171
     0
290
     0
174
     0
 93
        1
 44
0.0
173
     0
291
     1
 45
0.0
1001
ACAD
1000
AcDbSavedByObjectVersion
1070
     0
  0
VISUALSTYLE
  5
CB79
102
{ACAD_XDICTIONARY
360
CBDB
102
}
102
{ACAD_REACTORS
330
CB6F
102
}
330
CB6F
100
AcDbVisualStyle
  2
Realistic
 70
     8
 71
     2
 72
     3
 73
     0
 90
        2
 40
-0.6
 41
30.0
 62
     5
 63
     7
 74
     0
 91
        0
 64
     7
 65
   257
 75
     1
175
     1
 42
1.0
 92
        8
 66
   257
 43
1.0
 76
     1
 77
     6
 78
     2
 67
     7
 79
     3
170
     0
171
     0
290
     0
174
     0
 93
       13
 44
0.0
173
     0
291
     0
 45
0.0
1001
ACAD
1000
AcDbSavedByObjectVersion
1070
     0
  0
VISUALSTYLE
  5
CB84
102
{ACAD_XDICTIONARY
360
CBF1
102
}
102
{ACAD_REACTORS
330
CB6F
102
}
330
CB6F
100
AcDbVisualStyle
  2
Shaded
 70
    27
 71
     2
 72
     2
 73
     1
 90
        2
 40
-0.6
 41
30.0
 62
     5
 63
     7
 74
     0
 91
        4
 64
     7
 65
   257
 75
     1
175
     1
 42
1.0
 92
        8
 66
   257
 43
1.0
 76
     1
 77
     6
 78
     2
 67
     8
 79
     3
170
     0
171
     0
290
     0
174
     0
 93
        5
 44
0.0
173
     0
291
     0
 45
0.0
1001
ACAD
1000
AcDbSavedByObjectVersion
1070
     0
  0
VISUALSTYLE
  5
CB83
102
{ACAD_XDICTIONARY
360
CBEF
102
}
102
{ACAD_REACTORS
330
CB6F
102
}
330
CB6F
100
AcDbVisualStyle
  2
Shaded with edges
 70
    26
 71
     2
 72
     2
 73
     1
 90
        2
 40
-0.6
 41
30.0
 62
     5
 63
     7
 74
     1
 91
       10
 64
     7
 65
   257
 75
     2
175
     1
 42
1.0
 92
        8
 66
   257
 43
1.0
 76
     1
 77
     6
 78
     2
 67
     7
 79
     3
170
     0
171
     0
290
     0
174
     0
 93
        5
 44
0.0
173
     0
291
     0
 45
0.0
1001
ACAD
1000
AcDbSavedByObjectVersion
1070
     0
  0
VISUALSTYLE
  5
CB80
102
{ACAD_XDICTIONARY
360
CBE9
102
}
102
{ACAD_REACTORS
330
CB6F
102
}
330
CB6F
100
AcDbVisualStyle
  2
Shades of Gray
 70
    23
 71
     2
 72
     2
 73
     3
 90
        0
 40
-0.6
 41
-30.0
 62
     5
 63
     7
 74
     2
 91
        2
 64
     7
 65
     7
 75
     1
175
     1
 42
40.0
 92
        8
 66
     7
 43
1.0
 76
     1
 77
     6
 78
     2
 67
     7
 79
     3
170
     0
171
     0
290
     0
174
     0
 93
        1
 44
0.0
173
     0
291
     0
 45
0.0
1001
ACAD
1000
AcDbSavedByObjectVersion
1070
     0
  0
VISUALSTYLE
  5
CB81
102
{ACAD_XDICTIONARY
360
CBEB
102
}
102
{ACAD_REACTORS
330
CB6F
102
}
330
CB6F
100
AcDbVisualStyle
  2
Sketchy
 70
    24
 71
     1
 72
     2
 73
     2
 90
        0
 40
-0.6
 41
-30.0
 62
     5
 63
     7
 74
     2
 91
        2
 64
     7
 65
     7
 75
     1
175
     1
 42
40.0
 92
       11
 66
     7
 43
1.0
 76
     1
 77
     6
 78
     2
 67
     7
 79
     6
170
     0
171
     0
290
     0
174
     0
 93
        1
 44
0.0
173
     0
291
     0
 45
0.0
1001
ACAD
1000
AcDbSavedByObjectVersion
1070
     0
  0
VISUALSTYLE
  5
CB7C
102
{ACAD_XDICTIONARY
360
CBE1
102
}
102
{ACAD_REACTORS
330
CB6F
102
}
330
CB6F
100
AcDbVisualStyle
  2
Thicken
 70
    13
 71
     2
 72
     2
 73
     0
 90
        0
 40
-0.6
 41
-30.0
 62
     5
 63
     7
 74
     1
 91
        4
 64
     7
 65
   257
 75
     1
175
     1
 42
1.0
 92
       12
 66
     7
 43
1.0
 76
     1
 77
     6
 78
     2
 67
     7
 79
     5
170
     0
171
     0
290
     0
174
     0
 93
        1
 44
0.0
173
     0
291
     1
 45
0.0
1001
ACAD
1000
AcDbSavedByObjectVersion
1070
     0
  0
VISUALSTYLE
  5
CB76
102
{ACAD_XDICTIONARY
360
CBD5
102
}
102
{ACAD_REACTORS
330
CB6F
102
}
330
CB6F
100
AcDbVisualStyle
  2
Wireframe
 70
     5
 71
     0
 72
     2
 73
     0
 90
        0
 40
-0.6
 41
-30.0
 62
     5
 63
     7
 74
     1
 91
        4
 64
     7
 65
   257
 75
     1
175
     1
 42
1.0
 92
        0
 66
   257
 43
1.0
 76
     1
 77
     6
 78
     2
 67
     7
 79
     3
170
     0
171
     0
290
     0
174
     0
 93
        1
 44
0.0
173
     0
291
     0
 45
0.0
1001
ACAD
1000
AcDbSavedByObjectVersion
1070
     0
  0
VISUALSTYLE
  5
CB82
102
{ACAD_XDICTIONARY
360
CBED
102
}
102
{ACAD_REACTORS
330
CB6F
102
}
330
CB6F
100
AcDbVisualStyle
  2
X-Ray
 70
    25
 71
     2
 72
     2
 73
     1
 90
        1
 40
0.5
 41
-30.0
 62
     5
 63
     7
 74
     1
 91
        0
 64
     7
 65
   257
 75
     1
175
     1
 42
1.0
 92
        8
 66
     7
 43
1.0
 76
     1
 77
     6
 78
     2
 67
     7
 79
     3
170
     0
171
     0
290
     0
174
     0
 93
       13
 44
0.0
173
     0
291
     0
 45
0.0
1001
ACAD
1000
AcDbSavedByObjectVersion
1070
     0
  0
DICTIONARYVAR
  5
CBBC
102
{ACAD_REACTORS
330
CBB7
102
}
330
CBB7
100
DictionaryVariables
280
     0
  1
1:1
  0
DICTIONARYVAR
  5
CBB9
102
{ACAD_REACTORS
330
CBB7
102
}
330
CBB7
100
DictionaryVariables
280
     0
  1
STANDARD
  0
DICTIONARYVAR
  5
CBB8
102
{ACAD_REACTORS
330
CBB7
102
}
330
CBB7
100
DictionaryVariables
280
     0
  1
STANDARD
  0
DICTIONARYVAR
  5
CBBA
102
{ACAD_REACTORS
330
CBB7
102
}
330
CBB7
100
DictionaryVariables
280
     0
  1
Imperial24
  0
DICTIONARYVAR
  5
CBBB
102
{ACAD_REACTORS
330
CBB7
102
}
330
CBB7
100
DictionaryVariables
280
     0
  1
Imperial24
  0
DICTIONARYVAR
  5
CBBF
102
{ACAD_REACTORS
330
CBB7
102
}
330
CBB7
100
DictionaryVariables
280
     0
  1
1
  0
DICTIONARYVAR
  5
CBBE
102
{ACAD_REACTORS
330
CBB7
102
}
330
CBB7
100
DictionaryVariables
280
     0
  1
0
  0
DICTIONARYVAR
  5
CBBD
102
{ACAD_REACTORS
330
CBB7
102
}
330
CBB7
100
DictionaryVariables
280
     0
  1
127
  0
DICTIONARYVAR
  5
CBC0
102
{ACAD_REACTORS
330
CBB7
102
}
330
CBB7
100
DictionaryVariables
280
     0
  1
2
  0
DICTIONARY
  5
CBFD
330
CBA2
100
AcDbDictionary
280
     1
281
     1
  3
ACAD_XREC_ROUNDTRIP
360
CBFE
  0
DICTIONARY
  5
CBFF
330
CBA3
100
AcDbDictionary
280
     1
281
     1
  3
ACAD_XREC_ROUNDTRIP
360
CC00
  0
DICTIONARY
  5
CC01
330
CBA4
100
AcDbDictionary
280
     1
281
     1
  3
ACAD_XREC_ROUNDTRIP
360
CC02
  0
DICTIONARY
  5
CB60
330
CB5F
100
AcDbDictionary
280
     1
281
     1
  3
ACAD_XREC_ROUNDTRIP
360
CBC7
  3
BUMPTILE
360
CB62
  3
DIFFUSETILE
360
CB61
  3
OPACITYTILE
360
CB65
  3
REFLECTIONTILE
360
CB64
  3
REFRACTIONTILE
360
CB66
  3
SPECULARTILE
360
CB63
  0
DICTIONARY
  5
CB58
330
CB57
100
AcDbDictionary
280
     1
281
     1
  3
ACAD_XREC_ROUNDTRIP
360
CBC6
  3
BUMPTILE
360
CB5A
  3
DIFFUSETILE
360
CB59
  3
OPACITYTILE
360
CB5D
  3
REFLECTIONTILE
360
CB5C
  3
REFRACTIONTILE
360
CB5E
  3
SPECULARTILE
360
CB5B
  0
DICTIONARY
  5
CB68
330
CB67
100
AcDbDictionary
280
     1
281
     1
  3
ACAD_XREC_ROUNDTRIP
360
CBC8
  3
BUMPTILE
360
CB6A
  3
DIFFUSETILE
360
CB69
  3
OPACITYTILE
360
CB6D
  3
REFLECTIONTILE
360
CB6C
  3
REFRACTIONTILE
360
CB6E
  3
SPECULARTILE
360
CB6B
  0
DICTIONARY
  5
CBFB
330
CBA0
100
AcDbDictionary
280
     1
281
     1
  3
ACAD_XREC_ROUNDTRIP
360
CBFC
  0
DICTIONARY
  5
CBC2
330
CB8A
100
AcDbDictionary
280
     1
281
     1
  3
ACAD_ROUNDTRIP_2008_TABLESTYLE_CELLSTYLEMAP
360
CBC3
  3
ACAD_XREC_ROUNDTRIP
360
CBF9
  0
DICTIONARY
  5
CBD3
330
CB75
100
AcDbDictionary
280
     1
281
     1
  3
ACAD_XREC_ROUNDTRIP
360
CBD4
  0
DICTIONARY
  5
CBD1
330
CB74
100
AcDbDictionary
280
     1
281
     1
  3
ACAD_XREC_ROUNDTRIP
360
CBD2
  0
DICTIONARY
  5
CBDF
330
CB7B
100
AcDbDictionary
280
     1
281
     1
  3
ACAD_XREC_ROUNDTRIP
360
CBE0
  0
DICTIONARY
  5
CBE7
330
CB7F
100
AcDbDictionary
280
     1
281
     1
  3
ACAD_XREC_ROUNDTRIP
360
CBE8
  0
DICTIONARY
  5
CBD9
330
CB78
100
AcDbDictionary
280
     1
281
     1
  3
ACAD_XREC_ROUNDTRIP
360
CBDA
  0
DICTIONARY
  5
CBDD
330
CB7A
100
AcDbDictionary
280
     1
281
     1
  3
ACAD_XREC_ROUNDTRIP
360
CBDE
  0
DICTIONARY
  5
CBF7
330
CB87
100
AcDbDictionary
280
     1
281
     1
  3
ACAD_XREC_ROUNDTRIP
360
CBF8
  0
DICTIONARY
  5
CBE5
330
CB7E
100
AcDbDictionary
280
     1
281
     1
  3
ACAD_XREC_ROUNDTRIP
360
CBE6
  0
DICTIONARY
  5
CBC9
330
CB70
100
AcDbDictionary
280
     1
281
     1
  3
ACAD_XREC_ROUNDTRIP
360
CBCA
  0
DICTIONARY
  5
CBCB
330
CB71
100
AcDbDictionary
280
     1
281
     1
  3
ACAD_XREC_ROUNDTRIP
360
CBCC
  0
DICTIONARY
  5
CBCD
330
CB72
100
AcDbDictionary
280
     1
281
     1
  3
ACAD_XREC_ROUNDTRIP
360
CBCE
  0
DICTIONARY
  5
CBCF
330
CB73
100
AcDbDictionary
280
     1
281
     1
  3
ACAD_XREC_ROUNDTRIP
360
CBD0
  0
DICTIONARY
  5
CBD7
330
CB77
100
AcDbDictionary
280
     1
281
     1
  3
ACAD_XREC_ROUNDTRIP
360
CBD8
  0
DICTIONARY
  5
CBF3
330
CB85
100
AcDbDictionary
280
     1
281
     1
  3
ACAD_XREC_ROUNDTRIP
360
CBF4
  0
DICTIONARY
  5
CBE3
330
CB7D
100
AcDbDictionary
280
     1
281
     1
  3
ACAD_XREC_ROUNDTRIP
360
CBE4
  0
DICTIONARY
  5
CBF5
330
CB86
100
AcDbDictionary
280
     1
281
     1
  3
ACAD_XREC_ROUNDTRIP
360
CBF6
  0
DICTIONARY
  5
CBDB
330
CB79
100
AcDbDictionary
280
     1
281
     1
  3
ACAD_XREC_ROUNDTRIP
360
CBDC
  0
DICTIONARY
  5
CBF1
330
CB84
100
AcDbDictionary
280
     1
281
     1
  3
ACAD_XREC_ROUNDTRIP
360
CBF2
  0
DICTIONARY
  5
CBEF
330
CB83
100
AcDbDictionary
280
     1
281
     1
  3
ACAD_XREC_ROUNDTRIP
360
CBF0
  0
DICTIONARY
  5
CBE9
330
CB80
100
AcDbDictionary
280
     1
281
     1
  3
ACAD_XREC_ROUNDTRIP
360
CBEA
  0
DICTIONARY
  5
CBEB
330
CB81
100
AcDbDictionary
280
     1
281
     1
  3
ACAD_XREC_ROUNDTRIP
360
CBEC
  0
DICTIONARY
  5
CBE1
330
CB7C
100
AcDbDictionary
280
     1
281
     1
  3
ACAD_XREC_ROUNDTRIP
360
CBE2
  0
DICTIONARY
  5
CBD5
330
CB76
100
AcDbDictionary
280
     1
281
     1
  3
ACAD_XREC_ROUNDTRIP
360
CBD6
  0
DICTIONARY
  5
CBED
330
CB82
100
AcDbDictionary
280
     1
281
     1
  3
ACAD_XREC_ROUNDTRIP
360
CBEE
  0
XRECORD
  5
CBFE
102
{ACAD_REACTORS
330
CBFD
102
}
330
CBFD
100
AcDbXrecord
280
     1
102
DISPLAYNAME
  1
Imperial24
102
FLAGS
 90
        0
  0
XRECORD
  5
CC00
102
{ACAD_REACTORS
330
CBFF
102
}
330
CBFF
100
AcDbXrecord
280
     1
102
SHADEPLOT
 70
     0
102
SHADEPLOTRESLEVEL
 70
     2
102
SHADEPLOTCUSTOMDPI
 70
   300
  0
XRECORD
  5
CC02
102
{ACAD_REACTORS
330
CC01
102
}
330
CC01
100
AcDbXrecord
280
     1
102
SHADEPLOT
 70
     0
102
SHADEPLOTRESLEVEL
 70
     2
102
SHADEPLOTCUSTOMDPI
 70
   300
  0
XRECORD
  5
CBC7
102
{ACAD_REACTORS
330
CB60
102
}
330
CB60
100
AcDbXrecord
280
     1
102
MATERIAL
148
0.0
149
0.0
149
0.0
 93
        0
 94
      127
282
     0
 72
     0
 77
     0
171
     0
175
     0
179
     0
273
     0
  0
XRECORD
  5
CB62
102
{ACAD_REACTORS
330
CB60
102
}
330
CB60
100
AcDbXrecord
280
     1
270
     1
271
     1
  0
XRECORD
  5
CB61
102
{ACAD_REACTORS
330
CB60
102
}
330
CB60
100
AcDbXrecord
280
     1
270
     1
271
     1
  0
XRECORD
  5
CB65
102
{ACAD_REACTORS
330
CB60
102
}
330
CB60
100
AcDbXrecord
280
     1
270
     1
271
     1
  0
XRECORD
  5
CB64
102
{ACAD_REACTORS
330
CB60
102
}
330
CB60
100
AcDbXrecord
280
     1
270
     1
271
     1
  0
XRECORD
  5
CB66
102
{ACAD_REACTORS
330
CB60
102
}
330
CB60
100
AcDbXrecord
280
     1
270
     1
271
     1
  0
XRECORD
  5
CB63
102
{ACAD_REACTORS
330
CB60
102
}
330
CB60
100
AcDbXrecord
280
     1
270
     1
271
     1
  0
XRECORD
  5
CBC6
102
{ACAD_REACTORS
330
CB58
102
}
330
CB58
100
AcDbXrecord
280
     1
102
MATERIAL
148
0.0
149
0.0
149
0.0
 93
        0
 94
      127
282
     0
 72
     0
 77
     0
171
     0
175
     0
179
     0
273
     0
  0
XRECORD
  5
CB5A
102
{ACAD_REACTORS
330
CB58
102
}
330
CB58
100
AcDbXrecord
280
     1
270
     1
271
     1
  0
XRECORD
  5
CB59
102
{ACAD_REACTORS
330
CB58
102
}
330
CB58
100
AcDbXrecord
280
     1
270
     1
271
     1
  0
XRECORD
  5
CB5D
102
{ACAD_REACTORS
330
CB58
102
}
330
CB58
100
AcDbXrecord
280
     1
270
     1
271
     1
  0
XRECORD
  5
CB5C
102
{ACAD_REACTORS
330
CB58
102
}
330
CB58
100
AcDbXrecord
280
     1
270
     1
271
     1
  0
XRECORD
  5
CB5E
102
{ACAD_REACTORS
330
CB58
102
}
330
CB58
100
AcDbXrecord
280
     1
270
     1
271
     1
  0
XRECORD
  5
CB5B
102
{ACAD_REACTORS
330
CB58
102
}
330
CB58
100
AcDbXrecord
280
     1
270
     1
271
     1
  0
XRECORD
  5
CBC8
102
{ACAD_REACTORS
330
CB68
102
}
330
CB68
100
AcDbXrecord
280
     1
102
MATERIAL
148
0.0
149
0.0
149
0.0
 93
        0
 94
      127
282
     0
 72
     0
 77
     0
171
     0
175
     0
179
     0
273
     0
  0
XRECORD
  5
CB6A
102
{ACAD_REACTORS
330
CB68
102
}
330
CB68
100
AcDbXrecord
280
     1
270
     1
271
     1
  0
XRECORD
  5
CB69
102
{ACAD_REACTORS
330
CB68
102
}
330
CB68
100
AcDbXrecord
280
     1
270
     1
271
     1
  0
XRECORD
  5
CB6D
102
{ACAD_REACTORS
330
CB68
102
}
330
CB68
100
AcDbXrecord
280
     1
270
     1
271
     1
  0
XRECORD
  5
CB6C
102
{ACAD_REACTORS
330
CB68
102
}
330
CB68
100
AcDbXrecord
280
     1
270
     1
271
     1
  0
XRECORD
  5
CB6E
102
{ACAD_REACTORS
330
CB68
102
}
330
CB68
100
AcDbXrecord
280
     1
270
     1
271
     1
  0
XRECORD
  5
CB6B
102
{ACAD_REACTORS
330
CB68
102
}
330
CB68
100
AcDbXrecord
280
     1
270
     1
271
     1
  0
XRECORD
  5
CBFC
102
{ACAD_REACTORS
330
CBFB
102
}
330
CBFB
100
AcDbXrecord
280
     1
102
DISPLAYNAME
  1
Imperial24
102
FLAGS
 90
        0
  0
CELLSTYLEMAP
  5
CBC3
102
{ACAD_REACTORS
330
CBC2
102
}
330
CBC2
100
AcDbCellStyleMap
 90
        3
300
CELLSTYLE
  1
TABLEFORMAT_BEGIN
 90
        5
170
     1
 91
        0
 92
    32768
 62
   257
 93
        1
300
CONTENTFORMAT
  1
CONTENTFORMAT_BEGIN
 90
        0
 91
        0
 92
      512
 93
        0
300

 40
0.0
140
1.0
 94
        5
 62
     0
340
C808
144
0.25
309
CONTENTFORMAT_END
171
     0
 94
        0
309
TABLEFORMAT_END
  1
CELLSTYLE_BEGIN
 90
        1
 91
        1
300
_TITLE
309
CELLSTYLE_END
300
CELLSTYLE
  1
TABLEFORMAT_BEGIN
 90
        5
170
     1
 91
        0
 92
        0
 62
   257
 93
        1
300
CONTENTFORMAT
  1
CONTENTFORMAT_BEGIN
 90
        0
 91
        0
 92
      512
 93
        0
300

 40
0.0
140
1.0
 94
        5
 62
     0
340
C808
144
0.18
309
CONTENTFORMAT_END
171
     0
 94
        0
309
TABLEFORMAT_END
  1
CELLSTYLE_BEGIN
 90
        2
 91
        1
300
_HEADER
309
CELLSTYLE_END
300
CELLSTYLE
  1
TABLEFORMAT_BEGIN
 90
        5
170
     1
 91
        0
 92
        0
 62
   257
 93
        1
300
CONTENTFORMAT
  1
CONTENTFORMAT_BEGIN
 90
        0
 91
        0
 92
      512
 93
        0
300

 40
0.0
140
1.0
 94
        2
 62
     0
340
C808
144
0.18
309
CONTENTFORMAT_END
171
     0
 94
        0
309
TABLEFORMAT_END
  1
CELLSTYLE_BEGIN
 90
        3
 91
        2
300
_DATA
309
CELLSTYLE_END
  0
XRECORD
  5
CBF9
102
{ACAD_REACTORS
330
CBC2
102
}
330
CBC2
100
AcDbXrecord
280
     1
102
ACAD_ROUNDTRIP_PRE2007_TABLESTYLE
 90
      512
 91
        0
  1

 92
      512
 93
        0
  2

 94
      512
 95
        0
  3

  0
XRECORD
  5
CBD4
102
{ACAD_REACTORS
330
CBD3
102
}
330
CBD3
100
AcDbXrecord
280
     1
102
RTVSPost2010Prop28
280
     1
102
RTVSPost2010PropOp28
 70
     1
102
RTVSPost2010Prop29
280
     1
102
RTVSPost2010PropOp29
 70
     1
102
RTVSPost2010Prop30
280
     0
102
RTVSPost2010PropOp30
 70
     1
102
RTVSPost2010Prop31
280
     0
102
RTVSPost2010PropOp31
 70
     1
102
RTVSPost2010Prop32
280
     0
102
RTVSPost2010PropOp32
 70
     1
102
RTVSPost2010Prop33
280
     0
102
RTVSPost2010PropOp33
 70
     1
102
RTVSPost2010Prop34
280
     0
102
RTVSPost2010PropOp34
 70
     1
102
RTVSPost2010Prop35
280
     0
102
RTVSPost2010PropOp35
 70
     1
102
RTVSPost2010Prop36
280
     0
102
RTVSPost2010PropOp36
 70
     1
102
RTVSPost2010Prop37
 90
       50
102
RTVSPost2010PropOp37
 70
     1
102
RTVSPost2010Prop38
140
0.0
102
RTVSPost2010PropOp38
 70
     1
102
RTVSPost2010Prop39
140
1.0
102
RTVSPost2010PropOp39
 70
     1
102
RTVSPost2010Prop40
 90
        0
102
RTVSPost2010PropOp40
 70
     1
102
RTVSPost2010Prop41ColorIndex
 90
       18
102
RTVSPost2010Prop41ColorRGB
 90
        0
102
RTVSPost2010PropOp41
 70
     1
102
RTVSPost2010Prop42
 90
       50
102
RTVSPost2010PropOp42
 70
     1
102
RTVSPost2010Prop43
 90
        3
102
RTVSPost2010PropOp43
 70
     1
102
RTVSPost2010Prop44ColorIndex
 90
        5
102
RTVSPost2010Prop44ColorRGB
 90
      255
102
RTVSPost2010PropOp44
 70
     1
102
RTVSPost2010Prop45
280
     0
102
RTVSPost2010PropOp45
 70
     1
102
RTVSPost2010Prop46
 90
       50
102
RTVSPost2010PropOp46
 70
     1
102
RTVSPost2010Prop47
 90
       50
102
RTVSPost2010PropOp47
 70
     1
102
RTVSPost2010Prop48
 90
       50
102
RTVSPost2010PropOp48
 70
     1
102
RTVSPost2010Prop49
280
     0
102
RTVSPost2010PropOp49
 70
     1
102
RTVSPost2010Prop50
 90
       50
102
RTVSPost2010PropOp50
 70
     1
102
RTVSPost2010Prop51ColorIndex
 90
      256
102
RTVSPost2010Prop51ColorRGB
 90
-16777216
102
RTVSPost2010PropOp51
 70
     0
102
RTVSPost2010Prop52
140
1.0
102
RTVSPost2010PropOp52
 70
     0
102
RTVSPost2010Prop53
 90
        2
102
RTVSPost2010PropOp53
 70
     1
102
RTVSPost2010Prop54
  1
strokes_ogs.tif
102
RTVSPost2010PropOp54
 70
     1
102
RTVSPost2010Prop55
280
     0
102
RTVSPost2010PropOp55
 70
     1
102
RTVSPost2010Prop56
140
1.0
102
RTVSPost2010PropOp56
 70
     1
102
RTVSPost2010Prop57
140
1.0
102
RTVSPost2010PropOp57
 70
     1
102
RTVSPropertyOp0
 70
     1
102
RTVSPropertyOp1
 70
     1
102
RTVSPropertyOp2
 70
     1
102
RTVSPropertyOp3
 70
     1
102
RTVSPropertyOp4
 70
     1
102
RTVSPropertyOp5
 70
     1
102
RTVSPropertyOp6
 70
     1
102
RTVSPropertyOp7
 70
     1
102
RTVSPropertyOp8
 70
     1
102
RTVSPropertyOp9
 70
     1
102
RTVSPropertyOp10
 70
     1
102
RTVSPropertyOp11
 70
     1
102
RTVSPropertyOp12
 70
     1
102
RTVSPropertyOp13
 70
     1
102
RTVSPropertyOp14
 70
     1
102
RTVSPropertyOp15
 70
     1
102
RTVSPropertyOp16
 70
     1
102
RTVSPropertyOp17
 70
     1
102
RTVSPropertyOp18
 70
     1
102
RTVSPropertyOp19
 70
     1
102
RTVSPropertyOp20
 70
     1
102
RTVSPropertyOp21
 70
     1
102
RTVSPropertyOp22
 70
     1
102
RTVSPropertyOp23
 70
     1
102
RTVSPropertyOp24
 70
     1
102
RTVSPropertyOp25
 70
     1
102
RTVSPropertyOp26
 70
     1
102
RTVSPropertyOp27
 70
     1
102
RTVSPropertyOp28
 70
     1
102
RTVSPropertyOp29
 70
     1
102
RTVSPropertyOp30
 70
     1
102
RTVSPropertyOp31
 70
     1
102
RTVSPropertyOp32
 70
     1
102
RTVSPropertyOp33
 70
     1
102
RTVSPropertyOp34
 70
     1
102
RTVSPropertyOp35
 70
     1
102
RTVSPropertyOp36
 70
     1
102
RTVSPropertyOp37
 70
     1
102
RTVSPropertyOp38
 70
     1
102
RTVSPropertyOp39
 70
     1
102
RTVSPropertyOp40
 70
     1
102
RTVSPropertyOp41
 70
     1
102
RTVSPropertyOp42
 70
     1
102
RTVSPropertyOp43
 70
     1
102
RTVSPropertyOp44
 70
     1
102
RTVSPropertyOp45
 70
     1
102
RTVSPropertyOp46
 70
     1
102
RTVSPropertyOp47
 70
     1
102
RTVSPropertyOp48
 70
     1
102
RTVSPropertyOp49
 70
     1
102
RTVSPropertyOp50
 70
     1
102
RTVSPropertyOp51
 70
     0
102
RTVSPropertyOp52
 70
     0
102
RTVSPropertyOp53
 70
     1
102
RTVSPropertyOp54
 70
     1
102
RTVSPropertyOp55
 70
     1
102
RTVSPropertyOp56
 70
     1
102
RTVSPropertyOp57
 70
     1
102
RTVSPropertyOp58
 70
     1
102
RTVSPropertyOp59
 70
     1
102
RTVSPropertyOp60
 70
     1
102
RTVSPropertyOp61
 70
     1
102
RTVSPropertyOp62
 70
     1
  0
XRECORD
  5
CBD2
102
{ACAD_REACTORS
330
CBD1
102
}
330
CBD1
100
AcDbXrecord
280
     1
102
RTVSPost2010Prop28
280
     0
102
RTVSPost2010PropOp28
 70
     1
102
RTVSPost2010Prop29
280
     1
102
RTVSPost2010PropOp29
 70
     1
102
RTVSPost2010Prop30
280
     1
102
RTVSPost2010PropOp30
 70
     1
102
RTVSPost2010Prop31
280
     0
102
RTVSPost2010PropOp31
 70
     1
102
RTVSPost2010Prop32
280
     0
102
RTVSPost2010PropOp32
 70
     1
102
RTVSPost2010Prop33
280
     0
102
RTVSPost2010PropOp33
 70
     1
102
RTVSPost2010Prop34
280
     0
102
RTVSPost2010PropOp34
 70
     1
102
RTVSPost2010Prop35
280
     0
102
RTVSPost2010PropOp35
 70
     1
102
RTVSPost2010Prop36
280
     0
102
RTVSPost2010PropOp36
 70
     1
102
RTVSPost2010Prop37
 90
       50
102
RTVSPost2010PropOp37
 70
     1
102
RTVSPost2010Prop38
140
0.0
102
RTVSPost2010PropOp38
 70
     1
102
RTVSPost2010Prop39
140
1.0
102
RTVSPost2010PropOp39
 70
     1
102
RTVSPost2010Prop40
 90
        0
102
RTVSPost2010PropOp40
 70
     1
102
RTVSPost2010Prop41ColorIndex
 90
       18
102
RTVSPost2010Prop41ColorRGB
 90
        0
102
RTVSPost2010PropOp41
 70
     1
102
RTVSPost2010Prop42
 90
       50
102
RTVSPost2010PropOp42
 70
     1
102
RTVSPost2010Prop43
 90
        3
102
RTVSPost2010PropOp43
 70
     1
102
RTVSPost2010Prop44ColorIndex
 90
        5
102
RTVSPost2010Prop44ColorRGB
 90
      255
102
RTVSPost2010PropOp44
 70
     1
102
RTVSPost2010Prop45
280
     0
102
RTVSPost2010PropOp45
 70
     1
102
RTVSPost2010Prop46
 90
       50
102
RTVSPost2010PropOp46
 70
     1
102
RTVSPost2010Prop47
 90
       50
102
RTVSPost2010PropOp47
 70
     1
102
RTVSPost2010Prop48
 90
       50
102
RTVSPost2010PropOp48
 70
     1
102
RTVSPost2010Prop49
280
     0
102
RTVSPost2010PropOp49
 70
     1
102
RTVSPost2010Prop50
 90
       50
102
RTVSPost2010PropOp50
 70
     1
102
RTVSPost2010Prop51ColorIndex
 90
      256
102
RTVSPost2010Prop51ColorRGB
 90
-16777216
102
RTVSPost2010PropOp51
 70
     0
102
RTVSPost2010Prop52
140
1.0
102
RTVSPost2010PropOp52
 70
     0
102
RTVSPost2010Prop53
 90
        2
102
RTVSPost2010PropOp53
 70
     1
102
RTVSPost2010Prop54
  1
strokes_ogs.tif
102
RTVSPost2010PropOp54
 70
     1
102
RTVSPost2010Prop55
280
     0
102
RTVSPost2010PropOp55
 70
     1
102
RTVSPost2010Prop56
140
1.0
102
RTVSPost2010PropOp56
 70
     1
102
RTVSPost2010Prop57
140
1.0
102
RTVSPost2010PropOp57
 70
     1
102
RTVSPropertyOp0
 70
     1
102
RTVSPropertyOp1
 70
     1
102
RTVSPropertyOp2
 70
     1
102
RTVSPropertyOp3
 70
     1
102
RTVSPropertyOp4
 70
     1
102
RTVSPropertyOp5
 70
     1
102
RTVSPropertyOp6
 70
     1
102
RTVSPropertyOp7
 70
     1
102
RTVSPropertyOp8
 70
     1
102
RTVSPropertyOp9
 70
     1
102
RTVSPropertyOp10
 70
     1
102
RTVSPropertyOp11
 70
     1
102
RTVSPropertyOp12
 70
     1
102
RTVSPropertyOp13
 70
     1
102
RTVSPropertyOp14
 70
     1
102
RTVSPropertyOp15
 70
     1
102
RTVSPropertyOp16
 70
     1
102
RTVSPropertyOp17
 70
     1
102
RTVSPropertyOp18
 70
     1
102
RTVSPropertyOp19
 70
     1
102
RTVSPropertyOp20
 70
     1
102
RTVSPropertyOp21
 70
     1
102
RTVSPropertyOp22
 70
     1
102
RTVSPropertyOp23
 70
     1
102
RTVSPropertyOp24
 70
     1
102
RTVSPropertyOp25
 70
     1
102
RTVSPropertyOp26
 70
     1
102
RTVSPropertyOp27
 70
     1
102
RTVSPropertyOp28
 70
     1
102
RTVSPropertyOp29
 70
     1
102
RTVSPropertyOp30
 70
     1
102
RTVSPropertyOp31
 70
     1
102
RTVSPropertyOp32
 70
     1
102
RTVSPropertyOp33
 70
     1
102
RTVSPropertyOp34
 70
     1
102
RTVSPropertyOp35
 70
     1
102
RTVSPropertyOp36
 70
     1
102
RTVSPropertyOp37
 70
     1
102
RTVSPropertyOp38
 70
     1
102
RTVSPropertyOp39
 70
     1
102
RTVSPropertyOp40
 70
     1
102
RTVSPropertyOp41
 70
     1
102
RTVSPropertyOp42
 70
     1
102
RTVSPropertyOp43
 70
     1
102
RTVSPropertyOp44
 70
     1
102
RTVSPropertyOp45
 70
     1
102
RTVSPropertyOp46
 70
     1
102
RTVSPropertyOp47
 70
     1
102
RTVSPropertyOp48
 70
     1
102
RTVSPropertyOp49
 70
     1
102
RTVSPropertyOp50
 70
     1
102
RTVSPropertyOp51
 70
     0
102
RTVSPropertyOp52
 70
     0
102
RTVSPropertyOp53
 70
     1
102
RTVSPropertyOp54
 70
     1
102
RTVSPropertyOp55
 70
     1
102
RTVSPropertyOp56
 70
     1
102
RTVSPropertyOp57
 70
     1
102
RTVSPropertyOp58
 70
     1
102
RTVSPropertyOp59
 70
     1
102
RTVSPropertyOp60
 70
     1
102
RTVSPropertyOp61
 70
     1
102
RTVSPropertyOp62
 70
     1
  0
XRECORD
  5
CBE0
102
{ACAD_REACTORS
330
CBDF
102
}
330
CBDF
100
AcDbXrecord
280
     1
102
RTVSPost2010Prop28
280
     0
102
RTVSPost2010PropOp28
 70
     1
102
RTVSPost2010Prop29
280
     1
102
RTVSPost2010PropOp29
 70
     1
102
RTVSPost2010Prop30
280
     1
102
RTVSPost2010PropOp30
 70
     1
102
RTVSPost2010Prop31
280
     0
102
RTVSPost2010PropOp31
 70
     1
102
RTVSPost2010Prop32
280
     0
102
RTVSPost2010PropOp32
 70
     1
102
RTVSPost2010Prop33
280
     0
102
RTVSPost2010PropOp33
 70
     1
102
RTVSPost2010Prop34
280
     0
102
RTVSPost2010PropOp34
 70
     1
102
RTVSPost2010Prop35
280
     0
102
RTVSPost2010PropOp35
 70
     1
102
RTVSPost2010Prop36
280
     0
102
RTVSPost2010PropOp36
 70
     1
102
RTVSPost2010Prop37
 90
       50
102
RTVSPost2010PropOp37
 70
     1
102
RTVSPost2010Prop38
140
0.0
102
RTVSPost2010PropOp38
 70
     1
102
RTVSPost2010Prop39
140
1.0
102
RTVSPost2010PropOp39
 70
     1
102
RTVSPost2010Prop40
 90
        0
102
RTVSPost2010PropOp40
 70
     1
102
RTVSPost2010Prop41ColorIndex
 90
       18
102
RTVSPost2010Prop41ColorRGB
 90
        0
102
RTVSPost2010PropOp41
 70
     1
102
RTVSPost2010Prop42
 90
       50
102
RTVSPost2010PropOp42
 70
     1
102
RTVSPost2010Prop43
 90
        3
102
RTVSPost2010PropOp43
 70
     1
102
RTVSPost2010Prop44ColorIndex
 90
        5
102
RTVSPost2010Prop44ColorRGB
 90
      255
102
RTVSPost2010PropOp44
 70
     1
102
RTVSPost2010Prop45
280
     0
102
RTVSPost2010PropOp45
 70
     1
102
RTVSPost2010Prop46
 90
       50
102
RTVSPost2010PropOp46
 70
     1
102
RTVSPost2010Prop47
 90
       50
102
RTVSPost2010PropOp47
 70
     1
102
RTVSPost2010Prop48
 90
       50
102
RTVSPost2010PropOp48
 70
     1
102
RTVSPost2010Prop49
280
     0
102
RTVSPost2010PropOp49
 70
     1
102
RTVSPost2010Prop50
 90
       50
102
RTVSPost2010PropOp50
 70
     1
102
RTVSPost2010Prop51ColorIndex
 90
      256
102
RTVSPost2010Prop51ColorRGB
 90
-16777216
102
RTVSPost2010PropOp51
 70
     0
102
RTVSPost2010Prop52
140
1.0
102
RTVSPost2010PropOp52
 70
     0
102
RTVSPost2010Prop53
 90
        2
102
RTVSPost2010PropOp53
 70
     1
102
RTVSPost2010Prop54
  1
strokes_ogs.tif
102
RTVSPost2010PropOp54
 70
     1
102
RTVSPost2010Prop55
280
     0
102
RTVSPost2010PropOp55
 70
     1
102
RTVSPost2010Prop56
140
1.0
102
RTVSPost2010PropOp56
 70
     1
102
RTVSPost2010Prop57
140
1.0
102
RTVSPost2010PropOp57
 70
     1
102
RTVSPropertyOp0
 70
     1
102
RTVSPropertyOp1
 70
     1
102
RTVSPropertyOp2
 70
     1
102
RTVSPropertyOp3
 70
     1
102
RTVSPropertyOp4
 70
     1
102
RTVSPropertyOp5
 70
     1
102
RTVSPropertyOp6
 70
     1
102
RTVSPropertyOp7
 70
     1
102
RTVSPropertyOp8
 70
     1
102
RTVSPropertyOp9
 70
     1
102
RTVSPropertyOp10
 70
     1
102
RTVSPropertyOp11
 70
     1
102
RTVSPropertyOp12
 70
     1
102
RTVSPropertyOp13
 70
     1
102
RTVSPropertyOp14
 70
     1
102
RTVSPropertyOp15
 70
     1
102
RTVSPropertyOp16
 70
     1
102
RTVSPropertyOp17
 70
     1
102
RTVSPropertyOp18
 70
     1
102
RTVSPropertyOp19
 70
     1
102
RTVSPropertyOp20
 70
     1
102
RTVSPropertyOp21
 70
     1
102
RTVSPropertyOp22
 70
     1
102
RTVSPropertyOp23
 70
     1
102
RTVSPropertyOp24
 70
     1
102
RTVSPropertyOp25
 70
     1
102
RTVSPropertyOp26
 70
     1
102
RTVSPropertyOp27
 70
     1
102
RTVSPropertyOp28
 70
     1
102
RTVSPropertyOp29
 70
     1
102
RTVSPropertyOp30
 70
     1
102
RTVSPropertyOp31
 70
     1
102
RTVSPropertyOp32
 70
     1
102
RTVSPropertyOp33
 70
     1
102
RTVSPropertyOp34
 70
     1
102
RTVSPropertyOp35
 70
     1
102
RTVSPropertyOp36
 70
     1
102
RTVSPropertyOp37
 70
     1
102
RTVSPropertyOp38
 70
     1
102
RTVSPropertyOp39
 70
     1
102
RTVSPropertyOp40
 70
     1
102
RTVSPropertyOp41
 70
     1
102
RTVSPropertyOp42
 70
     1
102
RTVSPropertyOp43
 70
     1
102
RTVSPropertyOp44
 70
     1
102
RTVSPropertyOp45
 70
     1
102
RTVSPropertyOp46
 70
     1
102
RTVSPropertyOp47
 70
     1
102
RTVSPropertyOp48
 70
     1
102
RTVSPropertyOp49
 70
     1
102
RTVSPropertyOp50
 70
     1
102
RTVSPropertyOp51
 70
     0
102
RTVSPropertyOp52
 70
     0
102
RTVSPropertyOp53
 70
     1
102
RTVSPropertyOp54
 70
     1
102
RTVSPropertyOp55
 70
     1
102
RTVSPropertyOp56
 70
     1
102
RTVSPropertyOp57
 70
     1
102
RTVSPropertyOp58
 70
     1
102
RTVSPropertyOp59
 70
     1
102
RTVSPropertyOp60
 70
     1
102
RTVSPropertyOp61
 70
     1
102
RTVSPropertyOp62
 70
     1
  0
XRECORD
  5
CBE8
102
{ACAD_REACTORS
330
CBE7
102
}
330
CBE7
100
AcDbXrecord
280
     1
102
RTVSPost2010Prop28
280
     0
102
RTVSPost2010PropOp28
 70
     1
102
RTVSPost2010Prop29
280
     1
102
RTVSPost2010PropOp29
 70
     1
102
RTVSPost2010Prop30
280
     1
102
RTVSPost2010PropOp30
 70
     1
102
RTVSPost2010Prop31
280
     0
102
RTVSPost2010PropOp31
 70
     1
102
RTVSPost2010Prop32
280
     0
102
RTVSPost2010PropOp32
 70
     1
102
RTVSPost2010Prop33
280
     0
102
RTVSPost2010PropOp33
 70
     1
102
RTVSPost2010Prop34
280
     0
102
RTVSPost2010PropOp34
 70
     1
102
RTVSPost2010Prop35
280
     0
102
RTVSPost2010PropOp35
 70
     1
102
RTVSPost2010Prop36
280
     0
102
RTVSPost2010PropOp36
 70
     1
102
RTVSPost2010Prop37
 90
       50
102
RTVSPost2010PropOp37
 70
     1
102
RTVSPost2010Prop38
140
0.0
102
RTVSPost2010PropOp38
 70
     1
102
RTVSPost2010Prop39
140
1.0
102
RTVSPost2010PropOp39
 70
     1
102
RTVSPost2010Prop40
 90
        0
102
RTVSPost2010PropOp40
 70
     1
102
RTVSPost2010Prop41ColorIndex
 90
       18
102
RTVSPost2010Prop41ColorRGB
 90
        0
102
RTVSPost2010PropOp41
 70
     1
102
RTVSPost2010Prop42
 90
       50
102
RTVSPost2010PropOp42
 70
     1
102
RTVSPost2010Prop43
 90
        3
102
RTVSPost2010PropOp43
 70
     1
102
RTVSPost2010Prop44ColorIndex
 90
        5
102
RTVSPost2010Prop44ColorRGB
 90
      255
102
RTVSPost2010PropOp44
 70
     1
102
RTVSPost2010Prop45
280
     0
102
RTVSPost2010PropOp45
 70
     1
102
RTVSPost2010Prop46
 90
       50
102
RTVSPost2010PropOp46
 70
     1
102
RTVSPost2010Prop47
 90
       50
102
RTVSPost2010PropOp47
 70
     1
102
RTVSPost2010Prop48
 90
       50
102
RTVSPost2010PropOp48
 70
     1
102
RTVSPost2010Prop49
280
     0
102
RTVSPost2010PropOp49
 70
     1
102
RTVSPost2010Prop50
 90
       50
102
RTVSPost2010PropOp50
 70
     1
102
RTVSPost2010Prop51ColorIndex
 90
      256
102
RTVSPost2010Prop51ColorRGB
 90
-16777216
102
RTVSPost2010PropOp51
 70
     0
102
RTVSPost2010Prop52
140
1.0
102
RTVSPost2010PropOp52
 70
     0
102
RTVSPost2010Prop53
 90
        2
102
RTVSPost2010PropOp53
 70
     1
102
RTVSPost2010Prop54
  1
strokes_ogs.tif
102
RTVSPost2010PropOp54
 70
     1
102
RTVSPost2010Prop55
280
     0
102
RTVSPost2010PropOp55
 70
     1
102
RTVSPost2010Prop56
140
1.0
102
RTVSPost2010PropOp56
 70
     1
102
RTVSPost2010Prop57
140
1.0
102
RTVSPost2010PropOp57
 70
     1
102
RTVSPropertyOp0
 70
     1
102
RTVSPropertyOp1
 70
     1
102
RTVSPropertyOp2
 70
     1
102
RTVSPropertyOp3
 70
     1
102
RTVSPropertyOp4
 70
     1
102
RTVSPropertyOp5
 70
     1
102
RTVSPropertyOp6
 70
     1
102
RTVSPropertyOp7
 70
     1
102
RTVSPropertyOp8
 70
     1
102
RTVSPropertyOp9
 70
     1
102
RTVSPropertyOp10
 70
     1
102
RTVSPropertyOp11
 70
     1
102
RTVSPropertyOp12
 70
     1
102
RTVSPropertyOp13
 70
     1
102
RTVSPropertyOp14
 70
     1
102
RTVSPropertyOp15
 70
     1
102
RTVSPropertyOp16
 70
     1
102
RTVSPropertyOp17
 70
     1
102
RTVSPropertyOp18
 70
     1
102
RTVSPropertyOp19
 70
     1
102
RTVSPropertyOp20
 70
     1
102
RTVSPropertyOp21
 70
     1
102
RTVSPropertyOp22
 70
     1
102
RTVSPropertyOp23
 70
     1
102
RTVSPropertyOp24
 70
     1
102
RTVSPropertyOp25
 70
     1
102
RTVSPropertyOp26
 70
     1
102
RTVSPropertyOp27
 70
     1
102
RTVSPropertyOp28
 70
     1
102
RTVSPropertyOp29
 70
     1
102
RTVSPropertyOp30
 70
     1
102
RTVSPropertyOp31
 70
     1
102
RTVSPropertyOp32
 70
     1
102
RTVSPropertyOp33
 70
     1
102
RTVSPropertyOp34
 70
     1
102
RTVSPropertyOp35
 70
     1
102
RTVSPropertyOp36
 70
     1
102
RTVSPropertyOp37
 70
     1
102
RTVSPropertyOp38
 70
     1
102
RTVSPropertyOp39
 70
     1
102
RTVSPropertyOp40
 70
     1
102
RTVSPropertyOp41
 70
     1
102
RTVSPropertyOp42
 70
     1
102
RTVSPropertyOp43
 70
     1
102
RTVSPropertyOp44
 70
     1
102
RTVSPropertyOp45
 70
     1
102
RTVSPropertyOp46
 70
     1
102
RTVSPropertyOp47
 70
     1
102
RTVSPropertyOp48
 70
     1
102
RTVSPropertyOp49
 70
     1
102
RTVSPropertyOp50
 70
     1
102
RTVSPropertyOp51
 70
     0
102
RTVSPropertyOp52
 70
     0
102
RTVSPropertyOp53
 70
     1
102
RTVSPropertyOp54
 70
     1
102
RTVSPropertyOp55
 70
     1
102
RTVSPropertyOp56
 70
     1
102
RTVSPropertyOp57
 70
     1
102
RTVSPropertyOp58
 70
     1
102
RTVSPropertyOp59
 70
     1
102
RTVSPropertyOp60
 70
     1
102
RTVSPropertyOp61
 70
     1
102
RTVSPropertyOp62
 70
     1
  0
XRECORD
  5
CBDA
102
{ACAD_REACTORS
330
CBD9
102
}
330
CBD9
100
AcDbXrecord
280
     1
102
RTVSPost2010Prop28
280
     0
102
RTVSPost2010PropOp28
 70
     1
102
RTVSPost2010Prop29
280
     1
102
RTVSPost2010PropOp29
 70
     1
102
RTVSPost2010Prop30
280
     1
102
RTVSPost2010PropOp30
 70
     1
102
RTVSPost2010Prop31
280
     0
102
RTVSPost2010PropOp31
 70
     1
102
RTVSPost2010Prop32
280
     0
102
RTVSPost2010PropOp32
 70
     1
102
RTVSPost2010Prop33
280
     0
102
RTVSPost2010PropOp33
 70
     1
102
RTVSPost2010Prop34
280
     0
102
RTVSPost2010PropOp34
 70
     1
102
RTVSPost2010Prop35
280
     0
102
RTVSPost2010PropOp35
 70
     1
102
RTVSPost2010Prop36
280
     0
102
RTVSPost2010PropOp36
 70
     1
102
RTVSPost2010Prop37
 90
       50
102
RTVSPost2010PropOp37
 70
     1
102
RTVSPost2010Prop38
140
0.0
102
RTVSPost2010PropOp38
 70
     1
102
RTVSPost2010Prop39
140
1.0
102
RTVSPost2010PropOp39
 70
     1
102
RTVSPost2010Prop40
 90
        0
102
RTVSPost2010PropOp40
 70
     1
102
RTVSPost2010Prop41ColorIndex
 90
       18
102
RTVSPost2010Prop41ColorRGB
 90
        0
102
RTVSPost2010PropOp41
 70
     1
102
RTVSPost2010Prop42
 90
       50
102
RTVSPost2010PropOp42
 70
     1
102
RTVSPost2010Prop43
 90
        3
102
RTVSPost2010PropOp43
 70
     1
102
RTVSPost2010Prop44ColorIndex
 90
        5
102
RTVSPost2010Prop44ColorRGB
 90
      255
102
RTVSPost2010PropOp44
 70
     1
102
RTVSPost2010Prop45
280
     0
102
RTVSPost2010PropOp45
 70
     1
102
RTVSPost2010Prop46
 90
       50
102
RTVSPost2010PropOp46
 70
     1
102
RTVSPost2010Prop47
 90
       50
102
RTVSPost2010PropOp47
 70
     1
102
RTVSPost2010Prop48
 90
       50
102
RTVSPost2010PropOp48
 70
     1
102
RTVSPost2010Prop49
280
     0
102
RTVSPost2010PropOp49
 70
     1
102
RTVSPost2010Prop50
 90
       50
102
RTVSPost2010PropOp50
 70
     1
102
RTVSPost2010Prop51ColorIndex
 90
      256
102
RTVSPost2010Prop51ColorRGB
 90
-16777216
102
RTVSPost2010PropOp51
 70
     0
102
RTVSPost2010Prop52
140
1.0
102
RTVSPost2010PropOp52
 70
     0
102
RTVSPost2010Prop53
 90
        2
102
RTVSPost2010PropOp53
 70
     1
102
RTVSPost2010Prop54
  1
strokes_ogs.tif
102
RTVSPost2010PropOp54
 70
     1
102
RTVSPost2010Prop55
280
     0
102
RTVSPost2010PropOp55
 70
     1
102
RTVSPost2010Prop56
140
1.0
102
RTVSPost2010PropOp56
 70
     1
102
RTVSPost2010Prop57
140
1.0
102
RTVSPost2010PropOp57
 70
     1
102
RTVSPropertyOp0
 70
     1
102
RTVSPropertyOp1
 70
     1
102
RTVSPropertyOp2
 70
     1
102
RTVSPropertyOp3
 70
     1
102
RTVSPropertyOp4
 70
     1
102
RTVSPropertyOp5
 70
     1
102
RTVSPropertyOp6
 70
     1
102
RTVSPropertyOp7
 70
     1
102
RTVSPropertyOp8
 70
     1
102
RTVSPropertyOp9
 70
     1
102
RTVSPropertyOp10
 70
     1
102
RTVSPropertyOp11
 70
     1
102
RTVSPropertyOp12
 70
     1
102
RTVSPropertyOp13
 70
     1
102
RTVSPropertyOp14
 70
     1
102
RTVSPropertyOp15
 70
     1
102
RTVSPropertyOp16
 70
     1
102
RTVSPropertyOp17
 70
     1
102
RTVSPropertyOp18
 70
     1
102
RTVSPropertyOp19
 70
     1
102
RTVSPropertyOp20
 70
     1
102
RTVSPropertyOp21
 70
     1
102
RTVSPropertyOp22
 70
     1
102
RTVSPropertyOp23
 70
     1
102
RTVSPropertyOp24
 70
     1
102
RTVSPropertyOp25
 70
     1
102
RTVSPropertyOp26
 70
     1
102
RTVSPropertyOp27
 70
     1
102
RTVSPropertyOp28
 70
     1
102
RTVSPropertyOp29
 70
     1
102
RTVSPropertyOp30
 70
     1
102
RTVSPropertyOp31
 70
     1
102
RTVSPropertyOp32
 70
     1
102
RTVSPropertyOp33
 70
     1
102
RTVSPropertyOp34
 70
     1
102
RTVSPropertyOp35
 70
     1
102
RTVSPropertyOp36
 70
     1
102
RTVSPropertyOp37
 70
     1
102
RTVSPropertyOp38
 70
     1
102
RTVSPropertyOp39
 70
     1
102
RTVSPropertyOp40
 70
     1
102
RTVSPropertyOp41
 70
     1
102
RTVSPropertyOp42
 70
     1
102
RTVSPropertyOp43
 70
     1
102
RTVSPropertyOp44
 70
     1
102
RTVSPropertyOp45
 70
     1
102
RTVSPropertyOp46
 70
     1
102
RTVSPropertyOp47
 70
     1
102
RTVSPropertyOp48
 70
     1
102
RTVSPropertyOp49
 70
     1
102
RTVSPropertyOp50
 70
     1
102
RTVSPropertyOp51
 70
     0
102
RTVSPropertyOp52
 70
     0
102
RTVSPropertyOp53
 70
     1
102
RTVSPropertyOp54
 70
     1
102
RTVSPropertyOp55
 70
     1
102
RTVSPropertyOp56
 70
     1
102
RTVSPropertyOp57
 70
     1
102
RTVSPropertyOp58
 70
     1
102
RTVSPropertyOp59
 70
     1
102
RTVSPropertyOp60
 70
     1
102
RTVSPropertyOp61
 70
     1
102
RTVSPropertyOp62
 70
     1
  0
XRECORD
  5
CBDE
102
{ACAD_REACTORS
330
CBDD
102
}
330
CBDD
100
AcDbXrecord
280
     1
102
RTVSPost2010Prop28
280
     0
102
RTVSPost2010PropOp28
 70
     1
102
RTVSPost2010Prop29
280
     1
102
RTVSPost2010PropOp29
 70
     1
102
RTVSPost2010Prop30
280
     1
102
RTVSPost2010PropOp30
 70
     1
102
RTVSPost2010Prop31
280
     0
102
RTVSPost2010PropOp31
 70
     1
102
RTVSPost2010Prop32
280
     0
102
RTVSPost2010PropOp32
 70
     1
102
RTVSPost2010Prop33
280
     0
102
RTVSPost2010PropOp33
 70
     1
102
RTVSPost2010Prop34
280
     0
102
RTVSPost2010PropOp34
 70
     1
102
RTVSPost2010Prop35
280
     0
102
RTVSPost2010PropOp35
 70
     1
102
RTVSPost2010Prop36
280
     0
102
RTVSPost2010PropOp36
 70
     1
102
RTVSPost2010Prop37
 90
       50
102
RTVSPost2010PropOp37
 70
     1
102
RTVSPost2010Prop38
140
0.0
102
RTVSPost2010PropOp38
 70
     1
102
RTVSPost2010Prop39
140
1.0
102
RTVSPost2010PropOp39
 70
     1
102
RTVSPost2010Prop40
 90
        0
102
RTVSPost2010PropOp40
 70
     1
102
RTVSPost2010Prop41ColorIndex
 90
       18
102
RTVSPost2010Prop41ColorRGB
 90
        0
102
RTVSPost2010PropOp41
 70
     1
102
RTVSPost2010Prop42
 90
       50
102
RTVSPost2010PropOp42
 70
     1
102
RTVSPost2010Prop43
 90
        3
102
RTVSPost2010PropOp43
 70
     1
102
RTVSPost2010Prop44ColorIndex
 90
        5
102
RTVSPost2010Prop44ColorRGB
 90
      255
102
RTVSPost2010PropOp44
 70
     1
102
RTVSPost2010Prop45
280
     0
102
RTVSPost2010PropOp45
 70
     1
102
RTVSPost2010Prop46
 90
       50
102
RTVSPost2010PropOp46
 70
     1
102
RTVSPost2010Prop47
 90
       50
102
RTVSPost2010PropOp47
 70
     1
102
RTVSPost2010Prop48
 90
       50
102
RTVSPost2010PropOp48
 70
     1
102
RTVSPost2010Prop49
280
     0
102
RTVSPost2010PropOp49
 70
     1
102
RTVSPost2010Prop50
 90
       50
102
RTVSPost2010PropOp50
 70
     1
102
RTVSPost2010Prop51ColorIndex
 90
      256
102
RTVSPost2010Prop51ColorRGB
 90
-16777216
102
RTVSPost2010PropOp51
 70
     0
102
RTVSPost2010Prop52
140
1.0
102
RTVSPost2010PropOp52
 70
     0
102
RTVSPost2010Prop53
 90
        2
102
RTVSPost2010PropOp53
 70
     1
102
RTVSPost2010Prop54
  1
strokes_ogs.tif
102
RTVSPost2010PropOp54
 70
     1
102
RTVSPost2010Prop55
280
     0
102
RTVSPost2010PropOp55
 70
     1
102
RTVSPost2010Prop56
140
1.0
102
RTVSPost2010PropOp56
 70
     1
102
RTVSPost2010Prop57
140
1.0
102
RTVSPost2010PropOp57
 70
     1
102
RTVSPropertyOp0
 70
     1
102
RTVSPropertyOp1
 70
     1
102
RTVSPropertyOp2
 70
     1
102
RTVSPropertyOp3
 70
     1
102
RTVSPropertyOp4
 70
     1
102
RTVSPropertyOp5
 70
     1
102
RTVSPropertyOp6
 70
     1
102
RTVSPropertyOp7
 70
     1
102
RTVSPropertyOp8
 70
     1
102
RTVSPropertyOp9
 70
     1
102
RTVSPropertyOp10
 70
     1
102
RTVSPropertyOp11
 70
     1
102
RTVSPropertyOp12
 70
     1
102
RTVSPropertyOp13
 70
     1
102
RTVSPropertyOp14
 70
     1
102
RTVSPropertyOp15
 70
     1
102
RTVSPropertyOp16
 70
     1
102
RTVSPropertyOp17
 70
     1
102
RTVSPropertyOp18
 70
     1
102
RTVSPropertyOp19
 70
     1
102
RTVSPropertyOp20
 70
     1
102
RTVSPropertyOp21
 70
     1
102
RTVSPropertyOp22
 70
     1
102
RTVSPropertyOp23
 70
     1
102
RTVSPropertyOp24
 70
     1
102
RTVSPropertyOp25
 70
     1
102
RTVSPropertyOp26
 70
     1
102
RTVSPropertyOp27
 70
     1
102
RTVSPropertyOp28
 70
     1
102
RTVSPropertyOp29
 70
     1
102
RTVSPropertyOp30
 70
     1
102
RTVSPropertyOp31
 70
     1
102
RTVSPropertyOp32
 70
     1
102
RTVSPropertyOp33
 70
     1
102
RTVSPropertyOp34
 70
     1
102
RTVSPropertyOp35
 70
     1
102
RTVSPropertyOp36
 70
     1
102
RTVSPropertyOp37
 70
     1
102
RTVSPropertyOp38
 70
     1
102
RTVSPropertyOp39
 70
     1
102
RTVSPropertyOp40
 70
     1
102
RTVSPropertyOp41
 70
     1
102
RTVSPropertyOp42
 70
     1
102
RTVSPropertyOp43
 70
     1
102
RTVSPropertyOp44
 70
     1
102
RTVSPropertyOp45
 70
     1
102
RTVSPropertyOp46
 70
     1
102
RTVSPropertyOp47
 70
     1
102
RTVSPropertyOp48
 70
     1
102
RTVSPropertyOp49
 70
     1
102
RTVSPropertyOp50
 70
     1
102
RTVSPropertyOp51
 70
     0
102
RTVSPropertyOp52
 70
     0
102
RTVSPropertyOp53
 70
     1
102
RTVSPropertyOp54
 70
     1
102
RTVSPropertyOp55
 70
     1
102
RTVSPropertyOp56
 70
     1
102
RTVSPropertyOp57
 70
     1
102
RTVSPropertyOp58
 70
     1
102
RTVSPropertyOp59
 70
     1
102
RTVSPropertyOp60
 70
     1
102
RTVSPropertyOp61
 70
     1
102
RTVSPropertyOp62
 70
     1
  0
XRECORD
  5
CBF8
102
{ACAD_REACTORS
330
CBF7
102
}
330
CBF7
100
AcDbXrecord
280
     1
102
RTVSPost2010Prop28
280
     0
102
RTVSPost2010PropOp28
 70
     1
102
RTVSPost2010Prop29
280
     1
102
RTVSPost2010PropOp29
 70
     1
102
RTVSPost2010Prop30
280
     1
102
RTVSPost2010PropOp30
 70
     1
102
RTVSPost2010Prop31
280
     0
102
RTVSPost2010PropOp31
 70
     1
102
RTVSPost2010Prop32
280
     0
102
RTVSPost2010PropOp32
 70
     1
102
RTVSPost2010Prop33
280
     0
102
RTVSPost2010PropOp33
 70
     1
102
RTVSPost2010Prop34
280
     0
102
RTVSPost2010PropOp34
 70
     1
102
RTVSPost2010Prop35
280
     0
102
RTVSPost2010PropOp35
 70
     1
102
RTVSPost2010Prop36
280
     0
102
RTVSPost2010PropOp36
 70
     1
102
RTVSPost2010Prop37
 90
       50
102
RTVSPost2010PropOp37
 70
     0
102
RTVSPost2010Prop38
140
0.0
102
RTVSPost2010PropOp38
 70
     0
102
RTVSPost2010Prop39
140
1.0
102
RTVSPost2010PropOp39
 70
     0
102
RTVSPost2010Prop40
 90
        0
102
RTVSPost2010PropOp40
 70
     0
102
RTVSPost2010Prop41ColorIndex
 90
       18
102
RTVSPost2010Prop41ColorRGB
 90
        0
102
RTVSPost2010PropOp41
 70
     0
102
RTVSPost2010Prop42
 90
       50
102
RTVSPost2010PropOp42
 70
     0
102
RTVSPost2010Prop43
 90
        3
102
RTVSPost2010PropOp43
 70
     0
102
RTVSPost2010Prop44ColorIndex
 90
        5
102
RTVSPost2010Prop44ColorRGB
 90
      255
102
RTVSPost2010PropOp44
 70
     0
102
RTVSPost2010Prop45
280
     0
102
RTVSPost2010PropOp45
 70
     1
102
RTVSPost2010Prop46
 90
       50
102
RTVSPost2010PropOp46
 70
     0
102
RTVSPost2010Prop47
 90
       50
102
RTVSPost2010PropOp47
 70
     0
102
RTVSPost2010Prop48
 90
       50
102
RTVSPost2010PropOp48
 70
     0
102
RTVSPost2010Prop49
280
     0
102
RTVSPost2010PropOp49
 70
     1
102
RTVSPost2010Prop50
 90
       50
102
RTVSPost2010PropOp50
 70
     0
102
RTVSPost2010Prop51ColorIndex
 90
      256
102
RTVSPost2010Prop51ColorRGB
 90
-16777216
102
RTVSPost2010PropOp51
 70
     0
102
RTVSPost2010Prop52
140
1.0
102
RTVSPost2010PropOp52
 70
     0
102
RTVSPost2010Prop53
 90
        2
102
RTVSPost2010PropOp53
 70
     0
102
RTVSPost2010Prop54
  1
strokes_ogs.tif
102
RTVSPost2010PropOp54
 70
     0
102
RTVSPost2010Prop55
280
     0
102
RTVSPost2010PropOp55
 70
     1
102
RTVSPost2010Prop56
140
1.0
102
RTVSPost2010PropOp56
 70
     0
102
RTVSPost2010Prop57
140
1.0
102
RTVSPost2010PropOp57
 70
     0
102
RTVSPropertyOp0
 70
     0
102
RTVSPropertyOp1
 70
     0
102
RTVSPropertyOp2
 70
     0
102
RTVSPropertyOp3
 70
     0
102
RTVSPropertyOp4
 70
     0
102
RTVSPropertyOp5
 70
     0
102
RTVSPropertyOp6
 70
     0
102
RTVSPropertyOp7
 70
     0
102
RTVSPropertyOp8
 70
     0
102
RTVSPropertyOp9
 70
     0
102
RTVSPropertyOp10
 70
     0
102
RTVSPropertyOp11
 70
     0
102
RTVSPropertyOp12
 70
     0
102
RTVSPropertyOp13
 70
     0
102
RTVSPropertyOp14
 70
     2
102
RTVSPropertyOp15
 70
     0
102
RTVSPropertyOp16
 70
     0
102
RTVSPropertyOp17
 70
     0
102
RTVSPropertyOp18
 70
     0
102
RTVSPropertyOp19
 70
     0
102
RTVSPropertyOp20
 70
     0
102
RTVSPropertyOp21
 70
     0
102
RTVSPropertyOp22
 70
     0
102
RTVSPropertyOp23
 70
     0
102
RTVSPropertyOp24
 70
     0
102
RTVSPropertyOp25
 70
     0
102
RTVSPropertyOp26
 70
     0
102
RTVSPropertyOp27
 70
     0
102
RTVSPropertyOp28
 70
     1
102
RTVSPropertyOp29
 70
     1
102
RTVSPropertyOp30
 70
     1
102
RTVSPropertyOp31
 70
     1
102
RTVSPropertyOp32
 70
     1
102
RTVSPropertyOp33
 70
     1
102
RTVSPropertyOp34
 70
     1
102
RTVSPropertyOp35
 70
     1
102
RTVSPropertyOp36
 70
     1
102
RTVSPropertyOp37
 70
     0
102
RTVSPropertyOp38
 70
     0
102
RTVSPropertyOp39
 70
     0
102
RTVSPropertyOp40
 70
     0
102
RTVSPropertyOp41
 70
     0
102
RTVSPropertyOp42
 70
     0
102
RTVSPropertyOp43
 70
     0
102
RTVSPropertyOp44
 70
     0
102
RTVSPropertyOp45
 70
     1
102
RTVSPropertyOp46
 70
     0
102
RTVSPropertyOp47
 70
     0
102
RTVSPropertyOp48
 70
     0
102
RTVSPropertyOp49
 70
     1
102
RTVSPropertyOp50
 70
     0
102
RTVSPropertyOp51
 70
     0
102
RTVSPropertyOp52
 70
     0
102
RTVSPropertyOp53
 70
     0
102
RTVSPropertyOp54
 70
     0
102
RTVSPropertyOp55
 70
     1
102
RTVSPropertyOp56
 70
     0
102
RTVSPropertyOp57
 70
     0
102
RTVSPropertyOp58
 70
     0
102
RTVSPropertyOp59
 70
     0
102
RTVSPropertyOp60
 70
     0
102
RTVSPropertyOp61
 70
     0
102
RTVSPropertyOp62
 70
     0
  0
XRECORD
  5
CBE6
102
{ACAD_REACTORS
330
CBE5
102
}
330
CBE5
100
AcDbXrecord
280
     1
102
RTVSPost2010Prop28
280
     0
102
RTVSPost2010PropOp28
 70
     1
102
RTVSPost2010Prop29
280
     1
102
RTVSPost2010PropOp29
 70
     1
102
RTVSPost2010Prop30
280
     1
102
RTVSPost2010PropOp30
 70
     1
102
RTVSPost2010Prop31
280
     0
102
RTVSPost2010PropOp31
 70
     1
102
RTVSPost2010Prop32
280
     0
102
RTVSPost2010PropOp32
 70
     1
102
RTVSPost2010Prop33
280
     0
102
RTVSPost2010PropOp33
 70
     1
102
RTVSPost2010Prop34
280
     0
102
RTVSPost2010PropOp34
 70
     1
102
RTVSPost2010Prop35
280
     0
102
RTVSPost2010PropOp35
 70
     1
102
RTVSPost2010Prop36
280
     0
102
RTVSPost2010PropOp36
 70
     1
102
RTVSPost2010Prop37
 90
       50
102
RTVSPost2010PropOp37
 70
     1
102
RTVSPost2010Prop38
140
0.0
102
RTVSPost2010PropOp38
 70
     1
102
RTVSPost2010Prop39
140
1.0
102
RTVSPost2010PropOp39
 70
     1
102
RTVSPost2010Prop40
 90
        0
102
RTVSPost2010PropOp40
 70
     1
102
RTVSPost2010Prop41ColorIndex
 90
       18
102
RTVSPost2010Prop41ColorRGB
 90
        0
102
RTVSPost2010PropOp41
 70
     1
102
RTVSPost2010Prop42
 90
       50
102
RTVSPost2010PropOp42
 70
     1
102
RTVSPost2010Prop43
 90
        3
102
RTVSPost2010PropOp43
 70
     1
102
RTVSPost2010Prop44ColorIndex
 90
        5
102
RTVSPost2010Prop44ColorRGB
 90
      255
102
RTVSPost2010PropOp44
 70
     1
102
RTVSPost2010Prop45
280
     0
102
RTVSPost2010PropOp45
 70
     1
102
RTVSPost2010Prop46
 90
       50
102
RTVSPost2010PropOp46
 70
     1
102
RTVSPost2010Prop47
 90
       50
102
RTVSPost2010PropOp47
 70
     1
102
RTVSPost2010Prop48
 90
       50
102
RTVSPost2010PropOp48
 70
     1
102
RTVSPost2010Prop49
280
     0
102
RTVSPost2010PropOp49
 70
     1
102
RTVSPost2010Prop50
 90
       50
102
RTVSPost2010PropOp50
 70
     1
102
RTVSPost2010Prop51ColorIndex
 90
      256
102
RTVSPost2010Prop51ColorRGB
 90
-16777216
102
RTVSPost2010PropOp51
 70
     0
102
RTVSPost2010Prop52
140
1.0
102
RTVSPost2010PropOp52
 70
     0
102
RTVSPost2010Prop53
 90
        2
102
RTVSPost2010PropOp53
 70
     1
102
RTVSPost2010Prop54
  1
strokes_ogs.tif
102
RTVSPost2010PropOp54
 70
     1
102
RTVSPost2010Prop55
280
     0
102
RTVSPost2010PropOp55
 70
     1
102
RTVSPost2010Prop56
140
1.0
102
RTVSPost2010PropOp56
 70
     1
102
RTVSPost2010Prop57
140
1.0
102
RTVSPost2010PropOp57
 70
     1
102
RTVSPropertyOp0
 70
     1
102
RTVSPropertyOp1
 70
     1
102
RTVSPropertyOp2
 70
     1
102
RTVSPropertyOp3
 70
     1
102
RTVSPropertyOp4
 70
     1
102
RTVSPropertyOp5
 70
     1
102
RTVSPropertyOp6
 70
     1
102
RTVSPropertyOp7
 70
     1
102
RTVSPropertyOp8
 70
     1
102
RTVSPropertyOp9
 70
     1
102
RTVSPropertyOp10
 70
     1
102
RTVSPropertyOp11
 70
     1
102
RTVSPropertyOp12
 70
     1
102
RTVSPropertyOp13
 70
     1
102
RTVSPropertyOp14
 70
     1
102
RTVSPropertyOp15
 70
     1
102
RTVSPropertyOp16
 70
     1
102
RTVSPropertyOp17
 70
     1
102
RTVSPropertyOp18
 70
     1
102
RTVSPropertyOp19
 70
     1
102
RTVSPropertyOp20
 70
     1
102
RTVSPropertyOp21
 70
     1
102
RTVSPropertyOp22
 70
     1
102
RTVSPropertyOp23
 70
     1
102
RTVSPropertyOp24
 70
     1
102
RTVSPropertyOp25
 70
     1
102
RTVSPropertyOp26
 70
     1
102
RTVSPropertyOp27
 70
     1
102
RTVSPropertyOp28
 70
     1
102
RTVSPropertyOp29
 70
     1
102
RTVSPropertyOp30
 70
     1
102
RTVSPropertyOp31
 70
     1
102
RTVSPropertyOp32
 70
     1
102
RTVSPropertyOp33
 70
     1
102
RTVSPropertyOp34
 70
     1
102
RTVSPropertyOp35
 70
     1
102
RTVSPropertyOp36
 70
     1
102
RTVSPropertyOp37
 70
     1
102
RTVSPropertyOp38
 70
     1
102
RTVSPropertyOp39
 70
     1
102
RTVSPropertyOp40
 70
     1
102
RTVSPropertyOp41
 70
     1
102
RTVSPropertyOp42
 70
     1
102
RTVSPropertyOp43
 70
     1
102
RTVSPropertyOp44
 70
     1
102
RTVSPropertyOp45
 70
     1
102
RTVSPropertyOp46
 70
     1
102
RTVSPropertyOp47
 70
     1
102
RTVSPropertyOp48
 70
     1
102
RTVSPropertyOp49
 70
     1
102
RTVSPropertyOp50
 70
     1
102
RTVSPropertyOp51
 70
     0
102
RTVSPropertyOp52
 70
     0
102
RTVSPropertyOp53
 70
     1
102
RTVSPropertyOp54
 70
     1
102
RTVSPropertyOp55
 70
     1
102
RTVSPropertyOp56
 70
     1
102
RTVSPropertyOp57
 70
     1
102
RTVSPropertyOp58
 70
     1
102
RTVSPropertyOp59
 70
     1
102
RTVSPropertyOp60
 70
     1
102
RTVSPropertyOp61
 70
     1
102
RTVSPropertyOp62
 70
     1
  0
XRECORD
  5
CBCA
102
{ACAD_REACTORS
330
CBC9
102
}
330
CBC9
100
AcDbXrecord
280
     1
102
RTVSPost2010Prop28
280
     0
102
RTVSPost2010PropOp28
 70
     1
102
RTVSPost2010Prop29
280
     1
102
RTVSPost2010PropOp29
 70
     1
102
RTVSPost2010Prop30
280
     1
102
RTVSPost2010PropOp30
 70
     1
102
RTVSPost2010Prop31
280
     0
102
RTVSPost2010PropOp31
 70
     1
102
RTVSPost2010Prop32
280
     0
102
RTVSPost2010PropOp32
 70
     1
102
RTVSPost2010Prop33
280
     0
102
RTVSPost2010PropOp33
 70
     1
102
RTVSPost2010Prop34
280
     0
102
RTVSPost2010PropOp34
 70
     1
102
RTVSPost2010Prop35
280
     0
102
RTVSPost2010PropOp35
 70
     1
102
RTVSPost2010Prop36
280
     0
102
RTVSPost2010PropOp36
 70
     1
102
RTVSPost2010Prop37
 90
       50
102
RTVSPost2010PropOp37
 70
     1
102
RTVSPost2010Prop38
140
0.0
102
RTVSPost2010PropOp38
 70
     1
102
RTVSPost2010Prop39
140
1.0
102
RTVSPost2010PropOp39
 70
     1
102
RTVSPost2010Prop40
 90
        0
102
RTVSPost2010PropOp40
 70
     1
102
RTVSPost2010Prop41ColorIndex
 90
       18
102
RTVSPost2010Prop41ColorRGB
 90
        0
102
RTVSPost2010PropOp41
 70
     1
102
RTVSPost2010Prop42
 90
       50
102
RTVSPost2010PropOp42
 70
     1
102
RTVSPost2010Prop43
 90
        3
102
RTVSPost2010PropOp43
 70
     1
102
RTVSPost2010Prop44ColorIndex
 90
        5
102
RTVSPost2010Prop44ColorRGB
 90
      255
102
RTVSPost2010PropOp44
 70
     1
102
RTVSPost2010Prop45
280
     0
102
RTVSPost2010PropOp45
 70
     1
102
RTVSPost2010Prop46
 90
       50
102
RTVSPost2010PropOp46
 70
     1
102
RTVSPost2010Prop47
 90
       50
102
RTVSPost2010PropOp47
 70
     1
102
RTVSPost2010Prop48
 90
       50
102
RTVSPost2010PropOp48
 70
     1
102
RTVSPost2010Prop49
280
     0
102
RTVSPost2010PropOp49
 70
     1
102
RTVSPost2010Prop50
 90
       50
102
RTVSPost2010PropOp50
 70
     1
102
RTVSPost2010Prop51ColorIndex
 90
      256
102
RTVSPost2010Prop51ColorRGB
 90
-16777216
102
RTVSPost2010PropOp51
 70
     0
102
RTVSPost2010Prop52
140
1.0
102
RTVSPost2010PropOp52
 70
     0
102
RTVSPost2010Prop53
 90
        2
102
RTVSPost2010PropOp53
 70
     1
102
RTVSPost2010Prop54
  1
strokes_ogs.tif
102
RTVSPost2010PropOp54
 70
     1
102
RTVSPost2010Prop55
280
     0
102
RTVSPost2010PropOp55
 70
     1
102
RTVSPost2010Prop56
140
1.0
102
RTVSPost2010PropOp56
 70
     1
102
RTVSPost2010Prop57
140
1.0
102
RTVSPost2010PropOp57
 70
     1
102
RTVSPropertyOp0
 70
     1
102
RTVSPropertyOp1
 70
     1
102
RTVSPropertyOp2
 70
     1
102
RTVSPropertyOp3
 70
     1
102
RTVSPropertyOp4
 70
     1
102
RTVSPropertyOp5
 70
     1
102
RTVSPropertyOp6
 70
     1
102
RTVSPropertyOp7
 70
     1
102
RTVSPropertyOp8
 70
     1
102
RTVSPropertyOp9
 70
     1
102
RTVSPropertyOp10
 70
     1
102
RTVSPropertyOp11
 70
     1
102
RTVSPropertyOp12
 70
     1
102
RTVSPropertyOp13
 70
     1
102
RTVSPropertyOp14
 70
     1
102
RTVSPropertyOp15
 70
     1
102
RTVSPropertyOp16
 70
     1
102
RTVSPropertyOp17
 70
     1
102
RTVSPropertyOp18
 70
     1
102
RTVSPropertyOp19
 70
     1
102
RTVSPropertyOp20
 70
     1
102
RTVSPropertyOp21
 70
     1
102
RTVSPropertyOp22
 70
     1
102
RTVSPropertyOp23
 70
     1
102
RTVSPropertyOp24
 70
     1
102
RTVSPropertyOp25
 70
     1
102
RTVSPropertyOp26
 70
     1
102
RTVSPropertyOp27
 70
     1
102
RTVSPropertyOp28
 70
     1
102
RTVSPropertyOp29
 70
     1
102
RTVSPropertyOp30
 70
     1
102
RTVSPropertyOp31
 70
     1
102
RTVSPropertyOp32
 70
     1
102
RTVSPropertyOp33
 70
     1
102
RTVSPropertyOp34
 70
     1
102
RTVSPropertyOp35
 70
     1
102
RTVSPropertyOp36
 70
     1
102
RTVSPropertyOp37
 70
     1
102
RTVSPropertyOp38
 70
     1
102
RTVSPropertyOp39
 70
     1
102
RTVSPropertyOp40
 70
     1
102
RTVSPropertyOp41
 70
     1
102
RTVSPropertyOp42
 70
     1
102
RTVSPropertyOp43
 70
     1
102
RTVSPropertyOp44
 70
     1
102
RTVSPropertyOp45
 70
     1
102
RTVSPropertyOp46
 70
     1
102
RTVSPropertyOp47
 70
     1
102
RTVSPropertyOp48
 70
     1
102
RTVSPropertyOp49
 70
     1
102
RTVSPropertyOp50
 70
     1
102
RTVSPropertyOp51
 70
     0
102
RTVSPropertyOp52
 70
     0
102
RTVSPropertyOp53
 70
     1
102
RTVSPropertyOp54
 70
     1
102
RTVSPropertyOp55
 70
     1
102
RTVSPropertyOp56
 70
     1
102
RTVSPropertyOp57
 70
     1
102
RTVSPropertyOp58
 70
     1
102
RTVSPropertyOp59
 70
     1
102
RTVSPropertyOp60
 70
     1
102
RTVSPropertyOp61
 70
     1
102
RTVSPropertyOp62
 70
     1
  0
XRECORD
  5
CBCC
102
{ACAD_REACTORS
330
CBCB
102
}
330
CBCB
100
AcDbXrecord
280
     1
102
RTVSPost2010Prop28
280
     0
102
RTVSPost2010PropOp28
 70
     1
102
RTVSPost2010Prop29
280
     1
102
RTVSPost2010PropOp29
 70
     1
102
RTVSPost2010Prop30
280
     1
102
RTVSPost2010PropOp30
 70
     1
102
RTVSPost2010Prop31
280
     0
102
RTVSPost2010PropOp31
 70
     1
102
RTVSPost2010Prop32
280
     0
102
RTVSPost2010PropOp32
 70
     1
102
RTVSPost2010Prop33
280
     0
102
RTVSPost2010PropOp33
 70
     1
102
RTVSPost2010Prop34
280
     0
102
RTVSPost2010PropOp34
 70
     1
102
RTVSPost2010Prop35
280
     0
102
RTVSPost2010PropOp35
 70
     1
102
RTVSPost2010Prop36
280
     0
102
RTVSPost2010PropOp36
 70
     1
102
RTVSPost2010Prop37
 90
       50
102
RTVSPost2010PropOp37
 70
     1
102
RTVSPost2010Prop38
140
0.0
102
RTVSPost2010PropOp38
 70
     1
102
RTVSPost2010Prop39
140
1.0
102
RTVSPost2010PropOp39
 70
     1
102
RTVSPost2010Prop40
 90
        0
102
RTVSPost2010PropOp40
 70
     1
102
RTVSPost2010Prop41ColorIndex
 90
       18
102
RTVSPost2010Prop41ColorRGB
 90
        0
102
RTVSPost2010PropOp41
 70
     1
102
RTVSPost2010Prop42
 90
       50
102
RTVSPost2010PropOp42
 70
     1
102
RTVSPost2010Prop43
 90
        3
102
RTVSPost2010PropOp43
 70
     1
102
RTVSPost2010Prop44ColorIndex
 90
        5
102
RTVSPost2010Prop44ColorRGB
 90
      255
102
RTVSPost2010PropOp44
 70
     1
102
RTVSPost2010Prop45
280
     0
102
RTVSPost2010PropOp45
 70
     1
102
RTVSPost2010Prop46
 90
       50
102
RTVSPost2010PropOp46
 70
     1
102
RTVSPost2010Prop47
 90
       50
102
RTVSPost2010PropOp47
 70
     1
102
RTVSPost2010Prop48
 90
       50
102
RTVSPost2010PropOp48
 70
     1
102
RTVSPost2010Prop49
280
     0
102
RTVSPost2010PropOp49
 70
     1
102
RTVSPost2010Prop50
 90
       50
102
RTVSPost2010PropOp50
 70
     1
102
RTVSPost2010Prop51ColorIndex
 90
      256
102
RTVSPost2010Prop51ColorRGB
 90
-16777216
102
RTVSPost2010PropOp51
 70
     0
102
RTVSPost2010Prop52
140
1.0
102
RTVSPost2010PropOp52
 70
     0
102
RTVSPost2010Prop53
 90
        2
102
RTVSPost2010PropOp53
 70
     1
102
RTVSPost2010Prop54
  1
strokes_ogs.tif
102
RTVSPost2010PropOp54
 70
     1
102
RTVSPost2010Prop55
280
     0
102
RTVSPost2010PropOp55
 70
     1
102
RTVSPost2010Prop56
140
1.0
102
RTVSPost2010PropOp56
 70
     1
102
RTVSPost2010Prop57
140
1.0
102
RTVSPost2010PropOp57
 70
     1
102
RTVSPropertyOp0
 70
     1
102
RTVSPropertyOp1
 70
     1
102
RTVSPropertyOp2
 70
     1
102
RTVSPropertyOp3
 70
     1
102
RTVSPropertyOp4
 70
     1
102
RTVSPropertyOp5
 70
     1
102
RTVSPropertyOp6
 70
     1
102
RTVSPropertyOp7
 70
     1
102
RTVSPropertyOp8
 70
     1
102
RTVSPropertyOp9
 70
     1
102
RTVSPropertyOp10
 70
     1
102
RTVSPropertyOp11
 70
     1
102
RTVSPropertyOp12
 70
     1
102
RTVSPropertyOp13
 70
     1
102
RTVSPropertyOp14
 70
     1
102
RTVSPropertyOp15
 70
     1
102
RTVSPropertyOp16
 70
     1
102
RTVSPropertyOp17
 70
     1
102
RTVSPropertyOp18
 70
     1
102
RTVSPropertyOp19
 70
     1
102
RTVSPropertyOp20
 70
     1
102
RTVSPropertyOp21
 70
     1
102
RTVSPropertyOp22
 70
     1
102
RTVSPropertyOp23
 70
     1
102
RTVSPropertyOp24
 70
     1
102
RTVSPropertyOp25
 70
     1
102
RTVSPropertyOp26
 70
     1
102
RTVSPropertyOp27
 70
     1
102
RTVSPropertyOp28
 70
     1
102
RTVSPropertyOp29
 70
     1
102
RTVSPropertyOp30
 70
     1
102
RTVSPropertyOp31
 70
     1
102
RTVSPropertyOp32
 70
     1
102
RTVSPropertyOp33
 70
     1
102
RTVSPropertyOp34
 70
     1
102
RTVSPropertyOp35
 70
     1
102
RTVSPropertyOp36
 70
     1
102
RTVSPropertyOp37
 70
     1
102
RTVSPropertyOp38
 70
     1
102
RTVSPropertyOp39
 70
     1
102
RTVSPropertyOp40
 70
     1
102
RTVSPropertyOp41
 70
     1
102
RTVSPropertyOp42
 70
     1
102
RTVSPropertyOp43
 70
     1
102
RTVSPropertyOp44
 70
     1
102
RTVSPropertyOp45
 70
     1
102
RTVSPropertyOp46
 70
     1
102
RTVSPropertyOp47
 70
     1
102
RTVSPropertyOp48
 70
     1
102
RTVSPropertyOp49
 70
     1
102
RTVSPropertyOp50
 70
     1
102
RTVSPropertyOp51
 70
     0
102
RTVSPropertyOp52
 70
     0
102
RTVSPropertyOp53
 70
     1
102
RTVSPropertyOp54
 70
     1
102
RTVSPropertyOp55
 70
     1
102
RTVSPropertyOp56
 70
     1
102
RTVSPropertyOp57
 70
     1
102
RTVSPropertyOp58
 70
     1
102
RTVSPropertyOp59
 70
     1
102
RTVSPropertyOp60
 70
     1
102
RTVSPropertyOp61
 70
     1
102
RTVSPropertyOp62
 70
     1
  0
XRECORD
  5
CBCE
102
{ACAD_REACTORS
330
CBCD
102
}
330
CBCD
100
AcDbXrecord
280
     1
102
RTVSPost2010Prop28
280
     0
102
RTVSPost2010PropOp28
 70
     1
102
RTVSPost2010Prop29
280
     1
102
RTVSPost2010PropOp29
 70
     1
102
RTVSPost2010Prop30
280
     1
102
RTVSPost2010PropOp30
 70
     1
102
RTVSPost2010Prop31
280
     0
102
RTVSPost2010PropOp31
 70
     1
102
RTVSPost2010Prop32
280
     0
102
RTVSPost2010PropOp32
 70
     1
102
RTVSPost2010Prop33
280
     0
102
RTVSPost2010PropOp33
 70
     1
102
RTVSPost2010Prop34
280
     0
102
RTVSPost2010PropOp34
 70
     1
102
RTVSPost2010Prop35
280
     0
102
RTVSPost2010PropOp35
 70
     1
102
RTVSPost2010Prop36
280
     0
102
RTVSPost2010PropOp36
 70
     1
102
RTVSPost2010Prop37
 90
       50
102
RTVSPost2010PropOp37
 70
     1
102
RTVSPost2010Prop38
140
0.0
102
RTVSPost2010PropOp38
 70
     1
102
RTVSPost2010Prop39
140
1.0
102
RTVSPost2010PropOp39
 70
     1
102
RTVSPost2010Prop40
 90
        0
102
RTVSPost2010PropOp40
 70
     1
102
RTVSPost2010Prop41ColorIndex
 90
       18
102
RTVSPost2010Prop41ColorRGB
 90
        0
102
RTVSPost2010PropOp41
 70
     1
102
RTVSPost2010Prop42
 90
       50
102
RTVSPost2010PropOp42
 70
     1
102
RTVSPost2010Prop43
 90
        3
102
RTVSPost2010PropOp43
 70
     1
102
RTVSPost2010Prop44ColorIndex
 90
        5
102
RTVSPost2010Prop44ColorRGB
 90
      255
102
RTVSPost2010PropOp44
 70
     1
102
RTVSPost2010Prop45
280
     0
102
RTVSPost2010PropOp45
 70
     1
102
RTVSPost2010Prop46
 90
       50
102
RTVSPost2010PropOp46
 70
     1
102
RTVSPost2010Prop47
 90
       50
102
RTVSPost2010PropOp47
 70
     1
102
RTVSPost2010Prop48
 90
       50
102
RTVSPost2010PropOp48
 70
     1
102
RTVSPost2010Prop49
280
     0
102
RTVSPost2010PropOp49
 70
     1
102
RTVSPost2010Prop50
 90
       50
102
RTVSPost2010PropOp50
 70
     1
102
RTVSPost2010Prop51ColorIndex
 90
      256
102
RTVSPost2010Prop51ColorRGB
 90
-16777216
102
RTVSPost2010PropOp51
 70
     0
102
RTVSPost2010Prop52
140
1.0
102
RTVSPost2010PropOp52
 70
     0
102
RTVSPost2010Prop53
 90
        2
102
RTVSPost2010PropOp53
 70
     1
102
RTVSPost2010Prop54
  1
strokes_ogs.tif
102
RTVSPost2010PropOp54
 70
     1
102
RTVSPost2010Prop55
280
     0
102
RTVSPost2010PropOp55
 70
     1
102
RTVSPost2010Prop56
140
1.0
102
RTVSPost2010PropOp56
 70
     1
102
RTVSPost2010Prop57
140
1.0
102
RTVSPost2010PropOp57
 70
     1
102
RTVSPropertyOp0
 70
     1
102
RTVSPropertyOp1
 70
     1
102
RTVSPropertyOp2
 70
     1
102
RTVSPropertyOp3
 70
     1
102
RTVSPropertyOp4
 70
     1
102
RTVSPropertyOp5
 70
     1
102
RTVSPropertyOp6
 70
     1
102
RTVSPropertyOp7
 70
     1
102
RTVSPropertyOp8
 70
     1
102
RTVSPropertyOp9
 70
     1
102
RTVSPropertyOp10
 70
     1
102
RTVSPropertyOp11
 70
     1
102
RTVSPropertyOp12
 70
     1
102
RTVSPropertyOp13
 70
     1
102
RTVSPropertyOp14
 70
     1
102
RTVSPropertyOp15
 70
     1
102
RTVSPropertyOp16
 70
     1
102
RTVSPropertyOp17
 70
     1
102
RTVSPropertyOp18
 70
     1
102
RTVSPropertyOp19
 70
     1
102
RTVSPropertyOp20
 70
     1
102
RTVSPropertyOp21
 70
     1
102
RTVSPropertyOp22
 70
     1
102
RTVSPropertyOp23
 70
     1
102
RTVSPropertyOp24
 70
     1
102
RTVSPropertyOp25
 70
     1
102
RTVSPropertyOp26
 70
     1
102
RTVSPropertyOp27
 70
     1
102
RTVSPropertyOp28
 70
     1
102
RTVSPropertyOp29
 70
     1
102
RTVSPropertyOp30
 70
     1
102
RTVSPropertyOp31
 70
     1
102
RTVSPropertyOp32
 70
     1
102
RTVSPropertyOp33
 70
     1
102
RTVSPropertyOp34
 70
     1
102
RTVSPropertyOp35
 70
     1
102
RTVSPropertyOp36
 70
     1
102
RTVSPropertyOp37
 70
     1
102
RTVSPropertyOp38
 70
     1
102
RTVSPropertyOp39
 70
     1
102
RTVSPropertyOp40
 70
     1
102
RTVSPropertyOp41
 70
     1
102
RTVSPropertyOp42
 70
     1
102
RTVSPropertyOp43
 70
     1
102
RTVSPropertyOp44
 70
     1
102
RTVSPropertyOp45
 70
     1
102
RTVSPropertyOp46
 70
     1
102
RTVSPropertyOp47
 70
     1
102
RTVSPropertyOp48
 70
     1
102
RTVSPropertyOp49
 70
     1
102
RTVSPropertyOp50
 70
     1
102
RTVSPropertyOp51
 70
     0
102
RTVSPropertyOp52
 70
     0
102
RTVSPropertyOp53
 70
     1
102
RTVSPropertyOp54
 70
     1
102
RTVSPropertyOp55
 70
     1
102
RTVSPropertyOp56
 70
     1
102
RTVSPropertyOp57
 70
     1
102
RTVSPropertyOp58
 70
     1
102
RTVSPropertyOp59
 70
     1
102
RTVSPropertyOp60
 70
     1
102
RTVSPropertyOp61
 70
     1
102
RTVSPropertyOp62
 70
     1
  0
XRECORD
  5
CBD0
102
{ACAD_REACTORS
330
CBCF
102
}
330
CBCF
100
AcDbXrecord
280
     1
102
RTVSPost2010Prop28
280
     0
102
RTVSPost2010PropOp28
 70
     1
102
RTVSPost2010Prop29
280
     1
102
RTVSPost2010PropOp29
 70
     1
102
RTVSPost2010Prop30
280
     1
102
RTVSPost2010PropOp30
 70
     1
102
RTVSPost2010Prop31
280
     0
102
RTVSPost2010PropOp31
 70
     1
102
RTVSPost2010Prop32
280
     0
102
RTVSPost2010PropOp32
 70
     1
102
RTVSPost2010Prop33
280
     0
102
RTVSPost2010PropOp33
 70
     1
102
RTVSPost2010Prop34
280
     0
102
RTVSPost2010PropOp34
 70
     1
102
RTVSPost2010Prop35
280
     0
102
RTVSPost2010PropOp35
 70
     1
102
RTVSPost2010Prop36
280
     0
102
RTVSPost2010PropOp36
 70
     1
102
RTVSPost2010Prop37
 90
       50
102
RTVSPost2010PropOp37
 70
     1
102
RTVSPost2010Prop38
140
0.0
102
RTVSPost2010PropOp38
 70
     1
102
RTVSPost2010Prop39
140
1.0
102
RTVSPost2010PropOp39
 70
     1
102
RTVSPost2010Prop40
 90
        0
102
RTVSPost2010PropOp40
 70
     1
102
RTVSPost2010Prop41ColorIndex
 90
       18
102
RTVSPost2010Prop41ColorRGB
 90
        0
102
RTVSPost2010PropOp41
 70
     1
102
RTVSPost2010Prop42
 90
       50
102
RTVSPost2010PropOp42
 70
     1
102
RTVSPost2010Prop43
 90
        3
102
RTVSPost2010PropOp43
 70
     1
102
RTVSPost2010Prop44ColorIndex
 90
        5
102
RTVSPost2010Prop44ColorRGB
 90
      255
102
RTVSPost2010PropOp44
 70
     1
102
RTVSPost2010Prop45
280
     0
102
RTVSPost2010PropOp45
 70
     1
102
RTVSPost2010Prop46
 90
       50
102
RTVSPost2010PropOp46
 70
     1
102
RTVSPost2010Prop47
 90
       50
102
RTVSPost2010PropOp47
 70
     1
102
RTVSPost2010Prop48
 90
       50
102
RTVSPost2010PropOp48
 70
     1
102
RTVSPost2010Prop49
280
     0
102
RTVSPost2010PropOp49
 70
     1
102
RTVSPost2010Prop50
 90
       50
102
RTVSPost2010PropOp50
 70
     1
102
RTVSPost2010Prop51ColorIndex
 90
      256
102
RTVSPost2010Prop51ColorRGB
 90
-16777216
102
RTVSPost2010PropOp51
 70
     0
102
RTVSPost2010Prop52
140
1.0
102
RTVSPost2010PropOp52
 70
     0
102
RTVSPost2010Prop53
 90
        2
102
RTVSPost2010PropOp53
 70
     1
102
RTVSPost2010Prop54
  1
strokes_ogs.tif
102
RTVSPost2010PropOp54
 70
     1
102
RTVSPost2010Prop55
280
     0
102
RTVSPost2010PropOp55
 70
     1
102
RTVSPost2010Prop56
140
1.0
102
RTVSPost2010PropOp56
 70
     1
102
RTVSPost2010Prop57
140
1.0
102
RTVSPost2010PropOp57
 70
     1
102
RTVSPropertyOp0
 70
     1
102
RTVSPropertyOp1
 70
     1
102
RTVSPropertyOp2
 70
     1
102
RTVSPropertyOp3
 70
     1
102
RTVSPropertyOp4
 70
     1
102
RTVSPropertyOp5
 70
     1
102
RTVSPropertyOp6
 70
     1
102
RTVSPropertyOp7
 70
     1
102
RTVSPropertyOp8
 70
     1
102
RTVSPropertyOp9
 70
     1
102
RTVSPropertyOp10
 70
     1
102
RTVSPropertyOp11
 70
     1
102
RTVSPropertyOp12
 70
     1
102
RTVSPropertyOp13
 70
     1
102
RTVSPropertyOp14
 70
     1
102
RTVSPropertyOp15
 70
     1
102
RTVSPropertyOp16
 70
     1
102
RTVSPropertyOp17
 70
     1
102
RTVSPropertyOp18
 70
     1
102
RTVSPropertyOp19
 70
     1
102
RTVSPropertyOp20
 70
     1
102
RTVSPropertyOp21
 70
     1
102
RTVSPropertyOp22
 70
     1
102
RTVSPropertyOp23
 70
     1
102
RTVSPropertyOp24
 70
     1
102
RTVSPropertyOp25
 70
     1
102
RTVSPropertyOp26
 70
     1
102
RTVSPropertyOp27
 70
     1
102
RTVSPropertyOp28
 70
     1
102
RTVSPropertyOp29
 70
     1
102
RTVSPropertyOp30
 70
     1
102
RTVSPropertyOp31
 70
     1
102
RTVSPropertyOp32
 70
     1
102
RTVSPropertyOp33
 70
     1
102
RTVSPropertyOp34
 70
     1
102
RTVSPropertyOp35
 70
     1
102
RTVSPropertyOp36
 70
     1
102
RTVSPropertyOp37
 70
     1
102
RTVSPropertyOp38
 70
     1
102
RTVSPropertyOp39
 70
     1
102
RTVSPropertyOp40
 70
     1
102
RTVSPropertyOp41
 70
     1
102
RTVSPropertyOp42
 70
     1
102
RTVSPropertyOp43
 70
     1
102
RTVSPropertyOp44
 70
     1
102
RTVSPropertyOp45
 70
     1
102
RTVSPropertyOp46
 70
     1
102
RTVSPropertyOp47
 70
     1
102
RTVSPropertyOp48
 70
     1
102
RTVSPropertyOp49
 70
     1
102
RTVSPropertyOp50
 70
     1
102
RTVSPropertyOp51
 70
     0
102
RTVSPropertyOp52
 70
     0
102
RTVSPropertyOp53
 70
     1
102
RTVSPropertyOp54
 70
     1
102
RTVSPropertyOp55
 70
     1
102
RTVSPropertyOp56
 70
     1
102
RTVSPropertyOp57
 70
     1
102
RTVSPropertyOp58
 70
     1
102
RTVSPropertyOp59
 70
     1
102
RTVSPropertyOp60
 70
     1
102
RTVSPropertyOp61
 70
     1
102
RTVSPropertyOp62
 70
     1
  0
XRECORD
  5
CBD8
102
{ACAD_REACTORS
330
CBD7
102
}
330
CBD7
100
AcDbXrecord
280
     1
102
RTVSPost2010Prop28
280
     0
102
RTVSPost2010PropOp28
 70
     1
102
RTVSPost2010Prop29
280
     1
102
RTVSPost2010PropOp29
 70
     1
102
RTVSPost2010Prop30
280
     1
102
RTVSPost2010PropOp30
 70
     1
102
RTVSPost2010Prop31
280
     0
102
RTVSPost2010PropOp31
 70
     1
102
RTVSPost2010Prop32
280
     0
102
RTVSPost2010PropOp32
 70
     1
102
RTVSPost2010Prop33
280
     0
102
RTVSPost2010PropOp33
 70
     1
102
RTVSPost2010Prop34
280
     0
102
RTVSPost2010PropOp34
 70
     1
102
RTVSPost2010Prop35
280
     0
102
RTVSPost2010PropOp35
 70
     1
102
RTVSPost2010Prop36
280
     0
102
RTVSPost2010PropOp36
 70
     1
102
RTVSPost2010Prop37
 90
       50
102
RTVSPost2010PropOp37
 70
     1
102
RTVSPost2010Prop38
140
0.0
102
RTVSPost2010PropOp38
 70
     1
102
RTVSPost2010Prop39
140
1.0
102
RTVSPost2010PropOp39
 70
     1
102
RTVSPost2010Prop40
 90
        0
102
RTVSPost2010PropOp40
 70
     1
102
RTVSPost2010Prop41ColorIndex
 90
       18
102
RTVSPost2010Prop41ColorRGB
 90
        0
102
RTVSPost2010PropOp41
 70
     1
102
RTVSPost2010Prop42
 90
       50
102
RTVSPost2010PropOp42
 70
     1
102
RTVSPost2010Prop43
 90
        3
102
RTVSPost2010PropOp43
 70
     1
102
RTVSPost2010Prop44ColorIndex
 90
        5
102
RTVSPost2010Prop44ColorRGB
 90
      255
102
RTVSPost2010PropOp44
 70
     1
102
RTVSPost2010Prop45
280
     0
102
RTVSPost2010PropOp45
 70
     1
102
RTVSPost2010Prop46
 90
       50
102
RTVSPost2010PropOp46
 70
     1
102
RTVSPost2010Prop47
 90
       50
102
RTVSPost2010PropOp47
 70
     1
102
RTVSPost2010Prop48
 90
       50
102
RTVSPost2010PropOp48
 70
     1
102
RTVSPost2010Prop49
280
     0
102
RTVSPost2010PropOp49
 70
     1
102
RTVSPost2010Prop50
 90
       50
102
RTVSPost2010PropOp50
 70
     1
102
RTVSPost2010Prop51ColorIndex
 90
      256
102
RTVSPost2010Prop51ColorRGB
 90
-16777216
102
RTVSPost2010PropOp51
 70
     0
102
RTVSPost2010Prop52
140
1.0
102
RTVSPost2010PropOp52
 70
     0
102
RTVSPost2010Prop53
 90
        2
102
RTVSPost2010PropOp53
 70
     1
102
RTVSPost2010Prop54
  1
strokes_ogs.tif
102
RTVSPost2010PropOp54
 70
     1
102
RTVSPost2010Prop55
280
     0
102
RTVSPost2010PropOp55
 70
     1
102
RTVSPost2010Prop56
140
1.0
102
RTVSPost2010PropOp56
 70
     1
102
RTVSPost2010Prop57
140
1.0
102
RTVSPost2010PropOp57
 70
     1
102
RTVSPropertyOp0
 70
     1
102
RTVSPropertyOp1
 70
     1
102
RTVSPropertyOp2
 70
     1
102
RTVSPropertyOp3
 70
     1
102
RTVSPropertyOp4
 70
     1
102
RTVSPropertyOp5
 70
     1
102
RTVSPropertyOp6
 70
     1
102
RTVSPropertyOp7
 70
     1
102
RTVSPropertyOp8
 70
     1
102
RTVSPropertyOp9
 70
     1
102
RTVSPropertyOp10
 70
     1
102
RTVSPropertyOp11
 70
     1
102
RTVSPropertyOp12
 70
     1
102
RTVSPropertyOp13
 70
     1
102
RTVSPropertyOp14
 70
     1
102
RTVSPropertyOp15
 70
     1
102
RTVSPropertyOp16
 70
     1
102
RTVSPropertyOp17
 70
     1
102
RTVSPropertyOp18
 70
     1
102
RTVSPropertyOp19
 70
     1
102
RTVSPropertyOp20
 70
     1
102
RTVSPropertyOp21
 70
     1
102
RTVSPropertyOp22
 70
     1
102
RTVSPropertyOp23
 70
     1
102
RTVSPropertyOp24
 70
     1
102
RTVSPropertyOp25
 70
     1
102
RTVSPropertyOp26
 70
     1
102
RTVSPropertyOp27
 70
     1
102
RTVSPropertyOp28
 70
     1
102
RTVSPropertyOp29
 70
     1
102
RTVSPropertyOp30
 70
     1
102
RTVSPropertyOp31
 70
     1
102
RTVSPropertyOp32
 70
     1
102
RTVSPropertyOp33
 70
     1
102
RTVSPropertyOp34
 70
     1
102
RTVSPropertyOp35
 70
     1
102
RTVSPropertyOp36
 70
     1
102
RTVSPropertyOp37
 70
     1
102
RTVSPropertyOp38
 70
     1
102
RTVSPropertyOp39
 70
     1
102
RTVSPropertyOp40
 70
     1
102
RTVSPropertyOp41
 70
     1
102
RTVSPropertyOp42
 70
     1
102
RTVSPropertyOp43
 70
     1
102
RTVSPropertyOp44
 70
     1
102
RTVSPropertyOp45
 70
     1
102
RTVSPropertyOp46
 70
     1
102
RTVSPropertyOp47
 70
     1
102
RTVSPropertyOp48
 70
     1
102
RTVSPropertyOp49
 70
     1
102
RTVSPropertyOp50
 70
     1
102
RTVSPropertyOp51
 70
     0
102
RTVSPropertyOp52
 70
     0
102
RTVSPropertyOp53
 70
     1
102
RTVSPropertyOp54
 70
     1
102
RTVSPropertyOp55
 70
     1
102
RTVSPropertyOp56
 70
     1
102
RTVSPropertyOp57
 70
     1
102
RTVSPropertyOp58
 70
     1
102
RTVSPropertyOp59
 70
     1
102
RTVSPropertyOp60
 70
     1
102
RTVSPropertyOp61
 70
     1
102
RTVSPropertyOp62
 70
     1
  0
XRECORD
  5
CBF4
102
{ACAD_REACTORS
330
CBF3
102
}
330
CBF3
100
AcDbXrecord
280
     1
102
RTVSPost2010Prop28
280
     0
102
RTVSPost2010PropOp28
 70
     1
102
RTVSPost2010Prop29
280
     1
102
RTVSPost2010PropOp29
 70
     1
102
RTVSPost2010Prop30
280
     1
102
RTVSPost2010PropOp30
 70
     1
102
RTVSPost2010Prop31
280
     0
102
RTVSPost2010PropOp31
 70
     1
102
RTVSPost2010Prop32
280
     0
102
RTVSPost2010PropOp32
 70
     1
102
RTVSPost2010Prop33
280
     0
102
RTVSPost2010PropOp33
 70
     1
102
RTVSPost2010Prop34
280
     0
102
RTVSPost2010PropOp34
 70
     1
102
RTVSPost2010Prop35
280
     0
102
RTVSPost2010PropOp35
 70
     1
102
RTVSPost2010Prop36
280
     0
102
RTVSPost2010PropOp36
 70
     1
102
RTVSPost2010Prop37
 90
       50
102
RTVSPost2010PropOp37
 70
     0
102
RTVSPost2010Prop38
140
0.0
102
RTVSPost2010PropOp38
 70
     0
102
RTVSPost2010Prop39
140
1.0
102
RTVSPost2010PropOp39
 70
     0
102
RTVSPost2010Prop40
 90
        0
102
RTVSPost2010PropOp40
 70
     0
102
RTVSPost2010Prop41ColorIndex
 90
       18
102
RTVSPost2010Prop41ColorRGB
 90
        0
102
RTVSPost2010PropOp41
 70
     0
102
RTVSPost2010Prop42
 90
       50
102
RTVSPost2010PropOp42
 70
     0
102
RTVSPost2010Prop43
 90
        3
102
RTVSPost2010PropOp43
 70
     0
102
RTVSPost2010Prop44ColorIndex
 90
        5
102
RTVSPost2010Prop44ColorRGB
 90
      255
102
RTVSPost2010PropOp44
 70
     0
102
RTVSPost2010Prop45
280
     0
102
RTVSPost2010PropOp45
 70
     1
102
RTVSPost2010Prop46
 90
       50
102
RTVSPost2010PropOp46
 70
     0
102
RTVSPost2010Prop47
 90
       50
102
RTVSPost2010PropOp47
 70
     0
102
RTVSPost2010Prop48
 90
       50
102
RTVSPost2010PropOp48
 70
     0
102
RTVSPost2010Prop49
280
     0
102
RTVSPost2010PropOp49
 70
     1
102
RTVSPost2010Prop50
 90
       50
102
RTVSPost2010PropOp50
 70
     0
102
RTVSPost2010Prop51ColorIndex
 90
      256
102
RTVSPost2010Prop51ColorRGB
 90
-16777216
102
RTVSPost2010PropOp51
 70
     0
102
RTVSPost2010Prop52
140
1.0
102
RTVSPost2010PropOp52
 70
     0
102
RTVSPost2010Prop53
 90
        2
102
RTVSPost2010PropOp53
 70
     0
102
RTVSPost2010Prop54
  1
strokes_ogs.tif
102
RTVSPost2010PropOp54
 70
     0
102
RTVSPost2010Prop55
280
     0
102
RTVSPost2010PropOp55
 70
     1
102
RTVSPost2010Prop56
140
1.0
102
RTVSPost2010PropOp56
 70
     0
102
RTVSPost2010Prop57
140
1.0
102
RTVSPost2010PropOp57
 70
     0
102
RTVSPropertyOp0
 70
     0
102
RTVSPropertyOp1
 70
     0
102
RTVSPropertyOp2
 70
     0
102
RTVSPropertyOp3
 70
     0
102
RTVSPropertyOp4
 70
     0
102
RTVSPropertyOp5
 70
     0
102
RTVSPropertyOp6
 70
     0
102
RTVSPropertyOp7
 70
     0
102
RTVSPropertyOp8
 70
     0
102
RTVSPropertyOp9
 70
     0
102
RTVSPropertyOp10
 70
     0
102
RTVSPropertyOp11
 70
     0
102
RTVSPropertyOp12
 70
     0
102
RTVSPropertyOp13
 70
     0
102
RTVSPropertyOp14
 70
     2
102
RTVSPropertyOp15
 70
     0
102
RTVSPropertyOp16
 70
     0
102
RTVSPropertyOp17
 70
     0
102
RTVSPropertyOp18
 70
     0
102
RTVSPropertyOp19
 70
     0
102
RTVSPropertyOp20
 70
     0
102
RTVSPropertyOp21
 70
     0
102
RTVSPropertyOp22
 70
     0
102
RTVSPropertyOp23
 70
     0
102
RTVSPropertyOp24
 70
     0
102
RTVSPropertyOp25
 70
     0
102
RTVSPropertyOp26
 70
     0
102
RTVSPropertyOp27
 70
     0
102
RTVSPropertyOp28
 70
     1
102
RTVSPropertyOp29
 70
     1
102
RTVSPropertyOp30
 70
     1
102
RTVSPropertyOp31
 70
     1
102
RTVSPropertyOp32
 70
     1
102
RTVSPropertyOp33
 70
     1
102
RTVSPropertyOp34
 70
     1
102
RTVSPropertyOp35
 70
     1
102
RTVSPropertyOp36
 70
     1
102
RTVSPropertyOp37
 70
     0
102
RTVSPropertyOp38
 70
     0
102
RTVSPropertyOp39
 70
     0
102
RTVSPropertyOp40
 70
     0
102
RTVSPropertyOp41
 70
     0
102
RTVSPropertyOp42
 70
     0
102
RTVSPropertyOp43
 70
     0
102
RTVSPropertyOp44
 70
     0
102
RTVSPropertyOp45
 70
     1
102
RTVSPropertyOp46
 70
     0
102
RTVSPropertyOp47
 70
     0
102
RTVSPropertyOp48
 70
     0
102
RTVSPropertyOp49
 70
     1
102
RTVSPropertyOp50
 70
     0
102
RTVSPropertyOp51
 70
     0
102
RTVSPropertyOp52
 70
     0
102
RTVSPropertyOp53
 70
     0
102
RTVSPropertyOp54
 70
     0
102
RTVSPropertyOp55
 70
     1
102
RTVSPropertyOp56
 70
     0
102
RTVSPropertyOp57
 70
     0
102
RTVSPropertyOp58
 70
     0
102
RTVSPropertyOp59
 70
     0
102
RTVSPropertyOp60
 70
     0
102
RTVSPropertyOp61
 70
     0
102
RTVSPropertyOp62
 70
     0
  0
XRECORD
  5
CBE4
102
{ACAD_REACTORS
330
CBE3
102
}
330
CBE3
100
AcDbXrecord
280
     1
102
RTVSPost2010Prop28
280
     0
102
RTVSPost2010PropOp28
 70
     1
102
RTVSPost2010Prop29
280
     1
102
RTVSPost2010PropOp29
 70
     1
102
RTVSPost2010Prop30
280
     1
102
RTVSPost2010PropOp30
 70
     1
102
RTVSPost2010Prop31
280
     0
102
RTVSPost2010PropOp31
 70
     1
102
RTVSPost2010Prop32
280
     0
102
RTVSPost2010PropOp32
 70
     1
102
RTVSPost2010Prop33
280
     0
102
RTVSPost2010PropOp33
 70
     1
102
RTVSPost2010Prop34
280
     0
102
RTVSPost2010PropOp34
 70
     1
102
RTVSPost2010Prop35
280
     0
102
RTVSPost2010PropOp35
 70
     1
102
RTVSPost2010Prop36
280
     0
102
RTVSPost2010PropOp36
 70
     1
102
RTVSPost2010Prop37
 90
       50
102
RTVSPost2010PropOp37
 70
     1
102
RTVSPost2010Prop38
140
0.0
102
RTVSPost2010PropOp38
 70
     1
102
RTVSPost2010Prop39
140
1.0
102
RTVSPost2010PropOp39
 70
     1
102
RTVSPost2010Prop40
 90
        0
102
RTVSPost2010PropOp40
 70
     1
102
RTVSPost2010Prop41ColorIndex
 90
       18
102
RTVSPost2010Prop41ColorRGB
 90
        0
102
RTVSPost2010PropOp41
 70
     1
102
RTVSPost2010Prop42
 90
       50
102
RTVSPost2010PropOp42
 70
     1
102
RTVSPost2010Prop43
 90
        3
102
RTVSPost2010PropOp43
 70
     1
102
RTVSPost2010Prop44ColorIndex
 90
        5
102
RTVSPost2010Prop44ColorRGB
 90
      255
102
RTVSPost2010PropOp44
 70
     1
102
RTVSPost2010Prop45
280
     0
102
RTVSPost2010PropOp45
 70
     1
102
RTVSPost2010Prop46
 90
       50
102
RTVSPost2010PropOp46
 70
     1
102
RTVSPost2010Prop47
 90
       50
102
RTVSPost2010PropOp47
 70
     1
102
RTVSPost2010Prop48
 90
       50
102
RTVSPost2010PropOp48
 70
     1
102
RTVSPost2010Prop49
280
     0
102
RTVSPost2010PropOp49
 70
     1
102
RTVSPost2010Prop50
 90
       50
102
RTVSPost2010PropOp50
 70
     1
102
RTVSPost2010Prop51ColorIndex
 90
      256
102
RTVSPost2010Prop51ColorRGB
 90
-16777216
102
RTVSPost2010PropOp51
 70
     0
102
RTVSPost2010Prop52
140
1.0
102
RTVSPost2010PropOp52
 70
     0
102
RTVSPost2010Prop53
 90
        2
102
RTVSPost2010PropOp53
 70
     1
102
RTVSPost2010Prop54
  1
strokes_ogs.tif
102
RTVSPost2010PropOp54
 70
     1
102
RTVSPost2010Prop55
280
     0
102
RTVSPost2010PropOp55
 70
     1
102
RTVSPost2010Prop56
140
1.0
102
RTVSPost2010PropOp56
 70
     1
102
RTVSPost2010Prop57
140
1.0
102
RTVSPost2010PropOp57
 70
     1
102
RTVSPropertyOp0
 70
     1
102
RTVSPropertyOp1
 70
     1
102
RTVSPropertyOp2
 70
     1
102
RTVSPropertyOp3
 70
     1
102
RTVSPropertyOp4
 70
     1
102
RTVSPropertyOp5
 70
     1
102
RTVSPropertyOp6
 70
     1
102
RTVSPropertyOp7
 70
     1
102
RTVSPropertyOp8
 70
     1
102
RTVSPropertyOp9
 70
     1
102
RTVSPropertyOp10
 70
     1
102
RTVSPropertyOp11
 70
     1
102
RTVSPropertyOp12
 70
     1
102
RTVSPropertyOp13
 70
     1
102
RTVSPropertyOp14
 70
     1
102
RTVSPropertyOp15
 70
     1
102
RTVSPropertyOp16
 70
     1
102
RTVSPropertyOp17
 70
     1
102
RTVSPropertyOp18
 70
     1
102
RTVSPropertyOp19
 70
     1
102
RTVSPropertyOp20
 70
     1
102
RTVSPropertyOp21
 70
     1
102
RTVSPropertyOp22
 70
     1
102
RTVSPropertyOp23
 70
     1
102
RTVSPropertyOp24
 70
     1
102
RTVSPropertyOp25
 70
     1
102
RTVSPropertyOp26
 70
     1
102
RTVSPropertyOp27
 70
     1
102
RTVSPropertyOp28
 70
     1
102
RTVSPropertyOp29
 70
     1
102
RTVSPropertyOp30
 70
     1
102
RTVSPropertyOp31
 70
     1
102
RTVSPropertyOp32
 70
     1
102
RTVSPropertyOp33
 70
     1
102
RTVSPropertyOp34
 70
     1
102
RTVSPropertyOp35
 70
     1
102
RTVSPropertyOp36
 70
     1
102
RTVSPropertyOp37
 70
     1
102
RTVSPropertyOp38
 70
     1
102
RTVSPropertyOp39
 70
     1
102
RTVSPropertyOp40
 70
     1
102
RTVSPropertyOp41
 70
     1
102
RTVSPropertyOp42
 70
     1
102
RTVSPropertyOp43
 70
     1
102
RTVSPropertyOp44
 70
     1
102
RTVSPropertyOp45
 70
     1
102
RTVSPropertyOp46
 70
     1
102
RTVSPropertyOp47
 70
     1
102
RTVSPropertyOp48
 70
     1
102
RTVSPropertyOp49
 70
     1
102
RTVSPropertyOp50
 70
     1
102
RTVSPropertyOp51
 70
     0
102
RTVSPropertyOp52
 70
     0
102
RTVSPropertyOp53
 70
     1
102
RTVSPropertyOp54
 70
     1
102
RTVSPropertyOp55
 70
     1
102
RTVSPropertyOp56
 70
     1
102
RTVSPropertyOp57
 70
     1
102
RTVSPropertyOp58
 70
     1
102
RTVSPropertyOp59
 70
     1
102
RTVSPropertyOp60
 70
     1
102
RTVSPropertyOp61
 70
     1
102
RTVSPropertyOp62
 70
     1
  0
XRECORD
  5
CBF6
102
{ACAD_REACTORS
330
CBF5
102
}
330
CBF5
100
AcDbXrecord
280
     1
102
RTVSPost2010Prop28
280
     0
102
RTVSPost2010PropOp28
 70
     1
102
RTVSPost2010Prop29
280
     1
102
RTVSPost2010PropOp29
 70
     1
102
RTVSPost2010Prop30
280
     1
102
RTVSPost2010PropOp30
 70
     1
102
RTVSPost2010Prop31
280
     0
102
RTVSPost2010PropOp31
 70
     1
102
RTVSPost2010Prop32
280
     0
102
RTVSPost2010PropOp32
 70
     1
102
RTVSPost2010Prop33
280
     0
102
RTVSPost2010PropOp33
 70
     1
102
RTVSPost2010Prop34
280
     0
102
RTVSPost2010PropOp34
 70
     1
102
RTVSPost2010Prop35
280
     0
102
RTVSPost2010PropOp35
 70
     1
102
RTVSPost2010Prop36
280
     0
102
RTVSPost2010PropOp36
 70
     1
102
RTVSPost2010Prop37
 90
       50
102
RTVSPost2010PropOp37
 70
     0
102
RTVSPost2010Prop38
140
0.0
102
RTVSPost2010PropOp38
 70
     0
102
RTVSPost2010Prop39
140
1.0
102
RTVSPost2010PropOp39
 70
     0
102
RTVSPost2010Prop40
 90
        0
102
RTVSPost2010PropOp40
 70
     0
102
RTVSPost2010Prop41ColorIndex
 90
       18
102
RTVSPost2010Prop41ColorRGB
 90
        0
102
RTVSPost2010PropOp41
 70
     0
102
RTVSPost2010Prop42
 90
       50
102
RTVSPost2010PropOp42
 70
     0
102
RTVSPost2010Prop43
 90
        3
102
RTVSPost2010PropOp43
 70
     0
102
RTVSPost2010Prop44ColorIndex
 90
        5
102
RTVSPost2010Prop44ColorRGB
 90
      255
102
RTVSPost2010PropOp44
 70
     0
102
RTVSPost2010Prop45
280
     0
102
RTVSPost2010PropOp45
 70
     1
102
RTVSPost2010Prop46
 90
       50
102
RTVSPost2010PropOp46
 70
     0
102
RTVSPost2010Prop47
 90
       50
102
RTVSPost2010PropOp47
 70
     0
102
RTVSPost2010Prop48
 90
       50
102
RTVSPost2010PropOp48
 70
     0
102
RTVSPost2010Prop49
280
     0
102
RTVSPost2010PropOp49
 70
     1
102
RTVSPost2010Prop50
 90
       50
102
RTVSPost2010PropOp50
 70
     0
102
RTVSPost2010Prop51ColorIndex
 90
      256
102
RTVSPost2010Prop51ColorRGB
 90
-16777216
102
RTVSPost2010PropOp51
 70
     0
102
RTVSPost2010Prop52
140
1.0
102
RTVSPost2010PropOp52
 70
     0
102
RTVSPost2010Prop53
 90
        2
102
RTVSPost2010PropOp53
 70
     0
102
RTVSPost2010Prop54
  1
strokes_ogs.tif
102
RTVSPost2010PropOp54
 70
     0
102
RTVSPost2010Prop55
280
     0
102
RTVSPost2010PropOp55
 70
     1
102
RTVSPost2010Prop56
140
1.0
102
RTVSPost2010PropOp56
 70
     0
102
RTVSPost2010Prop57
140
1.0
102
RTVSPost2010PropOp57
 70
     0
102
RTVSPropertyOp0
 70
     0
102
RTVSPropertyOp1
 70
     0
102
RTVSPropertyOp2
 70
     0
102
RTVSPropertyOp3
 70
     0
102
RTVSPropertyOp4
 70
     0
102
RTVSPropertyOp5
 70
     0
102
RTVSPropertyOp6
 70
     0
102
RTVSPropertyOp7
 70
     0
102
RTVSPropertyOp8
 70
     0
102
RTVSPropertyOp9
 70
     0
102
RTVSPropertyOp10
 70
     0
102
RTVSPropertyOp11
 70
     0
102
RTVSPropertyOp12
 70
     0
102
RTVSPropertyOp13
 70
     0
102
RTVSPropertyOp14
 70
     2
102
RTVSPropertyOp15
 70
     0
102
RTVSPropertyOp16
 70
     0
102
RTVSPropertyOp17
 70
     0
102
RTVSPropertyOp18
 70
     0
102
RTVSPropertyOp19
 70
     0
102
RTVSPropertyOp20
 70
     0
102
RTVSPropertyOp21
 70
     0
102
RTVSPropertyOp22
 70
     0
102
RTVSPropertyOp23
 70
     0
102
RTVSPropertyOp24
 70
     0
102
RTVSPropertyOp25
 70
     0
102
RTVSPropertyOp26
 70
     0
102
RTVSPropertyOp27
 70
     0
102
RTVSPropertyOp28
 70
     1
102
RTVSPropertyOp29
 70
     1
102
RTVSPropertyOp30
 70
     1
102
RTVSPropertyOp31
 70
     1
102
RTVSPropertyOp32
 70
     1
102
RTVSPropertyOp33
 70
     1
102
RTVSPropertyOp34
 70
     1
102
RTVSPropertyOp35
 70
     1
102
RTVSPropertyOp36
 70
     1
102
RTVSPropertyOp37
 70
     0
102
RTVSPropertyOp38
 70
     0
102
RTVSPropertyOp39
 70
     0
102
RTVSPropertyOp40
 70
     0
102
RTVSPropertyOp41
 70
     0
102
RTVSPropertyOp42
 70
     0
102
RTVSPropertyOp43
 70
     0
102
RTVSPropertyOp44
 70
     0
102
RTVSPropertyOp45
 70
     1
102
RTVSPropertyOp46
 70
     0
102
RTVSPropertyOp47
 70
     0
102
RTVSPropertyOp48
 70
     0
102
RTVSPropertyOp49
 70
     1
102
RTVSPropertyOp50
 70
     0
102
RTVSPropertyOp51
 70
     0
102
RTVSPropertyOp52
 70
     0
102
RTVSPropertyOp53
 70
     0
102
RTVSPropertyOp54
 70
     0
102
RTVSPropertyOp55
 70
     1
102
RTVSPropertyOp56
 70
     0
102
RTVSPropertyOp57
 70
     0
102
RTVSPropertyOp58
 70
     0
102
RTVSPropertyOp59
 70
     0
102
RTVSPropertyOp60
 70
     0
102
RTVSPropertyOp61
 70
     0
102
RTVSPropertyOp62
 70
     0
  0
XRECORD
  5
CBDC
102
{ACAD_REACTORS
330
CBDB
102
}
330
CBDB
100
AcDbXrecord
280
     1
102
RTVSPost2010Prop28
280
     0
102
RTVSPost2010PropOp28
 70
     1
102
RTVSPost2010Prop29
280
     1
102
RTVSPost2010PropOp29
 70
     1
102
RTVSPost2010Prop30
280
     1
102
RTVSPost2010PropOp30
 70
     1
102
RTVSPost2010Prop31
280
     0
102
RTVSPost2010PropOp31
 70
     1
102
RTVSPost2010Prop32
280
     0
102
RTVSPost2010PropOp32
 70
     1
102
RTVSPost2010Prop33
280
     0
102
RTVSPost2010PropOp33
 70
     1
102
RTVSPost2010Prop34
280
     0
102
RTVSPost2010PropOp34
 70
     1
102
RTVSPost2010Prop35
280
     0
102
RTVSPost2010PropOp35
 70
     1
102
RTVSPost2010Prop36
280
     0
102
RTVSPost2010PropOp36
 70
     1
102
RTVSPost2010Prop37
 90
       50
102
RTVSPost2010PropOp37
 70
     1
102
RTVSPost2010Prop38
140
0.0
102
RTVSPost2010PropOp38
 70
     1
102
RTVSPost2010Prop39
140
1.0
102
RTVSPost2010PropOp39
 70
     1
102
RTVSPost2010Prop40
 90
        0
102
RTVSPost2010PropOp40
 70
     1
102
RTVSPost2010Prop41ColorIndex
 90
       18
102
RTVSPost2010Prop41ColorRGB
 90
        0
102
RTVSPost2010PropOp41
 70
     1
102
RTVSPost2010Prop42
 90
       50
102
RTVSPost2010PropOp42
 70
     1
102
RTVSPost2010Prop43
 90
        3
102
RTVSPost2010PropOp43
 70
     1
102
RTVSPost2010Prop44ColorIndex
 90
        5
102
RTVSPost2010Prop44ColorRGB
 90
      255
102
RTVSPost2010PropOp44
 70
     1
102
RTVSPost2010Prop45
280
     0
102
RTVSPost2010PropOp45
 70
     1
102
RTVSPost2010Prop46
 90
       50
102
RTVSPost2010PropOp46
 70
     1
102
RTVSPost2010Prop47
 90
       50
102
RTVSPost2010PropOp47
 70
     1
102
RTVSPost2010Prop48
 90
       50
102
RTVSPost2010PropOp48
 70
     1
102
RTVSPost2010Prop49
280
     0
102
RTVSPost2010PropOp49
 70
     1
102
RTVSPost2010Prop50
 90
       50
102
RTVSPost2010PropOp50
 70
     1
102
RTVSPost2010Prop51ColorIndex
 90
      256
102
RTVSPost2010Prop51ColorRGB
 90
-16777216
102
RTVSPost2010PropOp51
 70
     0
102
RTVSPost2010Prop52
140
1.0
102
RTVSPost2010PropOp52
 70
     0
102
RTVSPost2010Prop53
 90
        2
102
RTVSPost2010PropOp53
 70
     1
102
RTVSPost2010Prop54
  1
strokes_ogs.tif
102
RTVSPost2010PropOp54
 70
     1
102
RTVSPost2010Prop55
280
     0
102
RTVSPost2010PropOp55
 70
     1
102
RTVSPost2010Prop56
140
1.0
102
RTVSPost2010PropOp56
 70
     1
102
RTVSPost2010Prop57
140
1.0
102
RTVSPost2010PropOp57
 70
     1
102
RTVSPropertyOp0
 70
     1
102
RTVSPropertyOp1
 70
     1
102
RTVSPropertyOp2
 70
     1
102
RTVSPropertyOp3
 70
     1
102
RTVSPropertyOp4
 70
     1
102
RTVSPropertyOp5
 70
     1
102
RTVSPropertyOp6
 70
     1
102
RTVSPropertyOp7
 70
     1
102
RTVSPropertyOp8
 70
     1
102
RTVSPropertyOp9
 70
     1
102
RTVSPropertyOp10
 70
     1
102
RTVSPropertyOp11
 70
     1
102
RTVSPropertyOp12
 70
     1
102
RTVSPropertyOp13
 70
     1
102
RTVSPropertyOp14
 70
     1
102
RTVSPropertyOp15
 70
     1
102
RTVSPropertyOp16
 70
     1
102
RTVSPropertyOp17
 70
     1
102
RTVSPropertyOp18
 70
     1
102
RTVSPropertyOp19
 70
     1
102
RTVSPropertyOp20
 70
     1
102
RTVSPropertyOp21
 70
     1
102
RTVSPropertyOp22
 70
     1
102
RTVSPropertyOp23
 70
     1
102
RTVSPropertyOp24
 70
     1
102
RTVSPropertyOp25
 70
     1
102
RTVSPropertyOp26
 70
     1
102
RTVSPropertyOp27
 70
     1
102
RTVSPropertyOp28
 70
     1
102
RTVSPropertyOp29
 70
     1
102
RTVSPropertyOp30
 70
     1
102
RTVSPropertyOp31
 70
     1
102
RTVSPropertyOp32
 70
     1
102
RTVSPropertyOp33
 70
     1
102
RTVSPropertyOp34
 70
     1
102
RTVSPropertyOp35
 70
     1
102
RTVSPropertyOp36
 70
     1
102
RTVSPropertyOp37
 70
     1
102
RTVSPropertyOp38
 70
     1
102
RTVSPropertyOp39
 70
     1
102
RTVSPropertyOp40
 70
     1
102
RTVSPropertyOp41
 70
     1
102
RTVSPropertyOp42
 70
     1
102
RTVSPropertyOp43
 70
     1
102
RTVSPropertyOp44
 70
     1
102
RTVSPropertyOp45
 70
     1
102
RTVSPropertyOp46
 70
     1
102
RTVSPropertyOp47
 70
     1
102
RTVSPropertyOp48
 70
     1
102
RTVSPropertyOp49
 70
     1
102
RTVSPropertyOp50
 70
     1
102
RTVSPropertyOp51
 70
     0
102
RTVSPropertyOp52
 70
     0
102
RTVSPropertyOp53
 70
     1
102
RTVSPropertyOp54
 70
     1
102
RTVSPropertyOp55
 70
     1
102
RTVSPropertyOp56
 70
     1
102
RTVSPropertyOp57
 70
     1
102
RTVSPropertyOp58
 70
     1
102
RTVSPropertyOp59
 70
     1
102
RTVSPropertyOp60
 70
     1
102
RTVSPropertyOp61
 70
     1
102
RTVSPropertyOp62
 70
     1
  0
XRECORD
  5
CBF2
102
{ACAD_REACTORS
330
CBF1
102
}
330
CBF1
100
AcDbXrecord
280
     1
102
RTVSPost2010Prop28
280
     0
102
RTVSPost2010PropOp28
 70
     1
102
RTVSPost2010Prop29
280
     1
102
RTVSPost2010PropOp29
 70
     1
102
RTVSPost2010Prop30
280
     1
102
RTVSPost2010PropOp30
 70
     1
102
RTVSPost2010Prop31
280
     0
102
RTVSPost2010PropOp31
 70
     1
102
RTVSPost2010Prop32
280
     0
102
RTVSPost2010PropOp32
 70
     1
102
RTVSPost2010Prop33
280
     0
102
RTVSPost2010PropOp33
 70
     1
102
RTVSPost2010Prop34
280
     0
102
RTVSPost2010PropOp34
 70
     1
102
RTVSPost2010Prop35
280
     0
102
RTVSPost2010PropOp35
 70
     1
102
RTVSPost2010Prop36
280
     0
102
RTVSPost2010PropOp36
 70
     1
102
RTVSPost2010Prop37
 90
       50
102
RTVSPost2010PropOp37
 70
     1
102
RTVSPost2010Prop38
140
0.0
102
RTVSPost2010PropOp38
 70
     1
102
RTVSPost2010Prop39
140
1.0
102
RTVSPost2010PropOp39
 70
     1
102
RTVSPost2010Prop40
 90
        0
102
RTVSPost2010PropOp40
 70
     1
102
RTVSPost2010Prop41ColorIndex
 90
       18
102
RTVSPost2010Prop41ColorRGB
 90
        0
102
RTVSPost2010PropOp41
 70
     1
102
RTVSPost2010Prop42
 90
       50
102
RTVSPost2010PropOp42
 70
     1
102
RTVSPost2010Prop43
 90
        3
102
RTVSPost2010PropOp43
 70
     1
102
RTVSPost2010Prop44ColorIndex
 90
        5
102
RTVSPost2010Prop44ColorRGB
 90
      255
102
RTVSPost2010PropOp44
 70
     1
102
RTVSPost2010Prop45
280
     0
102
RTVSPost2010PropOp45
 70
     1
102
RTVSPost2010Prop46
 90
       50
102
RTVSPost2010PropOp46
 70
     1
102
RTVSPost2010Prop47
 90
       50
102
RTVSPost2010PropOp47
 70
     1
102
RTVSPost2010Prop48
 90
       50
102
RTVSPost2010PropOp48
 70
     1
102
RTVSPost2010Prop49
280
     0
102
RTVSPost2010PropOp49
 70
     1
102
RTVSPost2010Prop50
 90
       50
102
RTVSPost2010PropOp50
 70
     1
102
RTVSPost2010Prop51ColorIndex
 90
      256
102
RTVSPost2010Prop51ColorRGB
 90
-16777216
102
RTVSPost2010PropOp51
 70
     0
102
RTVSPost2010Prop52
140
1.0
102
RTVSPost2010PropOp52
 70
     0
102
RTVSPost2010Prop53
 90
        2
102
RTVSPost2010PropOp53
 70
     1
102
RTVSPost2010Prop54
  1
strokes_ogs.tif
102
RTVSPost2010PropOp54
 70
     1
102
RTVSPost2010Prop55
280
     0
102
RTVSPost2010PropOp55
 70
     1
102
RTVSPost2010Prop56
140
1.0
102
RTVSPost2010PropOp56
 70
     1
102
RTVSPost2010Prop57
140
1.0
102
RTVSPost2010PropOp57
 70
     1
102
RTVSPropertyOp0
 70
     1
102
RTVSPropertyOp1
 70
     1
102
RTVSPropertyOp2
 70
     1
102
RTVSPropertyOp3
 70
     1
102
RTVSPropertyOp4
 70
     1
102
RTVSPropertyOp5
 70
     1
102
RTVSPropertyOp6
 70
     1
102
RTVSPropertyOp7
 70
     1
102
RTVSPropertyOp8
 70
     1
102
RTVSPropertyOp9
 70
     1
102
RTVSPropertyOp10
 70
     1
102
RTVSPropertyOp11
 70
     1
102
RTVSPropertyOp12
 70
     1
102
RTVSPropertyOp13
 70
     1
102
RTVSPropertyOp14
 70
     1
102
RTVSPropertyOp15
 70
     1
102
RTVSPropertyOp16
 70
     1
102
RTVSPropertyOp17
 70
     1
102
RTVSPropertyOp18
 70
     1
102
RTVSPropertyOp19
 70
     1
102
RTVSPropertyOp20
 70
     1
102
RTVSPropertyOp21
 70
     1
102
RTVSPropertyOp22
 70
     1
102
RTVSPropertyOp23
 70
     1
102
RTVSPropertyOp24
 70
     1
102
RTVSPropertyOp25
 70
     1
102
RTVSPropertyOp26
 70
     1
102
RTVSPropertyOp27
 70
     1
102
RTVSPropertyOp28
 70
     1
102
RTVSPropertyOp29
 70
     1
102
RTVSPropertyOp30
 70
     1
102
RTVSPropertyOp31
 70
     1
102
RTVSPropertyOp32
 70
     1
102
RTVSPropertyOp33
 70
     1
102
RTVSPropertyOp34
 70
     1
102
RTVSPropertyOp35
 70
     1
102
RTVSPropertyOp36
 70
     1
102
RTVSPropertyOp37
 70
     1
102
RTVSPropertyOp38
 70
     1
102
RTVSPropertyOp39
 70
     1
102
RTVSPropertyOp40
 70
     1
102
RTVSPropertyOp41
 70
     1
102
RTVSPropertyOp42
 70
     1
102
RTVSPropertyOp43
 70
     1
102
RTVSPropertyOp44
 70
     1
102
RTVSPropertyOp45
 70
     1
102
RTVSPropertyOp46
 70
     1
102
RTVSPropertyOp47
 70
     1
102
RTVSPropertyOp48
 70
     1
102
RTVSPropertyOp49
 70
     1
102
RTVSPropertyOp50
 70
     1
102
RTVSPropertyOp51
 70
     0
102
RTVSPropertyOp52
 70
     0
102
RTVSPropertyOp53
 70
     1
102
RTVSPropertyOp54
 70
     1
102
RTVSPropertyOp55
 70
     1
102
RTVSPropertyOp56
 70
     1
102
RTVSPropertyOp57
 70
     1
102
RTVSPropertyOp58
 70
     1
102
RTVSPropertyOp59
 70
     1
102
RTVSPropertyOp60
 70
     1
102
RTVSPropertyOp61
 70
     1
102
RTVSPropertyOp62
 70
     1
  0
XRECORD
  5
CBF0
102
{ACAD_REACTORS
330
CBEF
102
}
330
CBEF
100
AcDbXrecord
280
     1
102
RTVSPost2010Prop28
280
     0
102
RTVSPost2010PropOp28
 70
     1
102
RTVSPost2010Prop29
280
     1
102
RTVSPost2010PropOp29
 70
     1
102
RTVSPost2010Prop30
280
     1
102
RTVSPost2010PropOp30
 70
     1
102
RTVSPost2010Prop31
280
     0
102
RTVSPost2010PropOp31
 70
     1
102
RTVSPost2010Prop32
280
     0
102
RTVSPost2010PropOp32
 70
     1
102
RTVSPost2010Prop33
280
     0
102
RTVSPost2010PropOp33
 70
     1
102
RTVSPost2010Prop34
280
     0
102
RTVSPost2010PropOp34
 70
     1
102
RTVSPost2010Prop35
280
     0
102
RTVSPost2010PropOp35
 70
     1
102
RTVSPost2010Prop36
280
     0
102
RTVSPost2010PropOp36
 70
     1
102
RTVSPost2010Prop37
 90
       50
102
RTVSPost2010PropOp37
 70
     1
102
RTVSPost2010Prop38
140
0.0
102
RTVSPost2010PropOp38
 70
     1
102
RTVSPost2010Prop39
140
1.0
102
RTVSPost2010PropOp39
 70
     1
102
RTVSPost2010Prop40
 90
        0
102
RTVSPost2010PropOp40
 70
     1
102
RTVSPost2010Prop41ColorIndex
 90
       18
102
RTVSPost2010Prop41ColorRGB
 90
        0
102
RTVSPost2010PropOp41
 70
     1
102
RTVSPost2010Prop42
 90
       50
102
RTVSPost2010PropOp42
 70
     1
102
RTVSPost2010Prop43
 90
        3
102
RTVSPost2010PropOp43
 70
     1
102
RTVSPost2010Prop44ColorIndex
 90
        5
102
RTVSPost2010Prop44ColorRGB
 90
      255
102
RTVSPost2010PropOp44
 70
     1
102
RTVSPost2010Prop45
280
     0
102
RTVSPost2010PropOp45
 70
     1
102
RTVSPost2010Prop46
 90
       50
102
RTVSPost2010PropOp46
 70
     1
102
RTVSPost2010Prop47
 90
       50
102
RTVSPost2010PropOp47
 70
     1
102
RTVSPost2010Prop48
 90
       50
102
RTVSPost2010PropOp48
 70
     1
102
RTVSPost2010Prop49
280
     0
102
RTVSPost2010PropOp49
 70
     1
102
RTVSPost2010Prop50
 90
       50
102
RTVSPost2010PropOp50
 70
     1
102
RTVSPost2010Prop51ColorIndex
 90
      256
102
RTVSPost2010Prop51ColorRGB
 90
-16777216
102
RTVSPost2010PropOp51
 70
     0
102
RTVSPost2010Prop52
140
1.0
102
RTVSPost2010PropOp52
 70
     0
102
RTVSPost2010Prop53
 90
        2
102
RTVSPost2010PropOp53
 70
     1
102
RTVSPost2010Prop54
  1
strokes_ogs.tif
102
RTVSPost2010PropOp54
 70
     1
102
RTVSPost2010Prop55
280
     0
102
RTVSPost2010PropOp55
 70
     1
102
RTVSPost2010Prop56
140
1.0
102
RTVSPost2010PropOp56
 70
     1
102
RTVSPost2010Prop57
140
1.0
102
RTVSPost2010PropOp57
 70
     1
102
RTVSPropertyOp0
 70
     1
102
RTVSPropertyOp1
 70
     1
102
RTVSPropertyOp2
 70
     1
102
RTVSPropertyOp3
 70
     1
102
RTVSPropertyOp4
 70
     1
102
RTVSPropertyOp5
 70
     1
102
RTVSPropertyOp6
 70
     1
102
RTVSPropertyOp7
 70
     1
102
RTVSPropertyOp8
 70
     1
102
RTVSPropertyOp9
 70
     1
102
RTVSPropertyOp10
 70
     1
102
RTVSPropertyOp11
 70
     1
102
RTVSPropertyOp12
 70
     1
102
RTVSPropertyOp13
 70
     1
102
RTVSPropertyOp14
 70
     1
102
RTVSPropertyOp15
 70
     1
102
RTVSPropertyOp16
 70
     1
102
RTVSPropertyOp17
 70
     1
102
RTVSPropertyOp18
 70
     1
102
RTVSPropertyOp19
 70
     1
102
RTVSPropertyOp20
 70
     1
102
RTVSPropertyOp21
 70
     1
102
RTVSPropertyOp22
 70
     1
102
RTVSPropertyOp23
 70
     1
102
RTVSPropertyOp24
 70
     1
102
RTVSPropertyOp25
 70
     1
102
RTVSPropertyOp26
 70
     1
102
RTVSPropertyOp27
 70
     1
102
RTVSPropertyOp28
 70
     1
102
RTVSPropertyOp29
 70
     1
102
RTVSPropertyOp30
 70
     1
102
RTVSPropertyOp31
 70
     1
102
RTVSPropertyOp32
 70
     1
102
RTVSPropertyOp33
 70
     1
102
RTVSPropertyOp34
 70
     1
102
RTVSPropertyOp35
 70
     1
102
RTVSPropertyOp36
 70
     1
102
RTVSPropertyOp37
 70
     1
102
RTVSPropertyOp38
 70
     1
102
RTVSPropertyOp39
 70
     1
102
RTVSPropertyOp40
 70
     1
102
RTVSPropertyOp41
 70
     1
102
RTVSPropertyOp42
 70
     1
102
RTVSPropertyOp43
 70
     1
102
RTVSPropertyOp44
 70
     1
102
RTVSPropertyOp45
 70
     1
102
RTVSPropertyOp46
 70
     1
102
RTVSPropertyOp47
 70
     1
102
RTVSPropertyOp48
 70
     1
102
RTVSPropertyOp49
 70
     1
102
RTVSPropertyOp50
 70
     1
102
RTVSPropertyOp51
 70
     0
102
RTVSPropertyOp52
 70
     0
102
RTVSPropertyOp53
 70
     1
102
RTVSPropertyOp54
 70
     1
102
RTVSPropertyOp55
 70
     1
102
RTVSPropertyOp56
 70
     1
102
RTVSPropertyOp57
 70
     1
102
RTVSPropertyOp58
 70
     1
102
RTVSPropertyOp59
 70
     1
102
RTVSPropertyOp60
 70
     1
102
RTVSPropertyOp61
 70
     1
102
RTVSPropertyOp62
 70
     1
  0
XRECORD
  5
CBEA
102
{ACAD_REACTORS
330
CBE9
102
}
330
CBE9
100
AcDbXrecord
280
     1
102
RTVSPost2010Prop28
280
     0
102
RTVSPost2010PropOp28
 70
     1
102
RTVSPost2010Prop29
280
     1
102
RTVSPost2010PropOp29
 70
     1
102
RTVSPost2010Prop30
280
     1
102
RTVSPost2010PropOp30
 70
     1
102
RTVSPost2010Prop31
280
     0
102
RTVSPost2010PropOp31
 70
     1
102
RTVSPost2010Prop32
280
     0
102
RTVSPost2010PropOp32
 70
     1
102
RTVSPost2010Prop33
280
     0
102
RTVSPost2010PropOp33
 70
     1
102
RTVSPost2010Prop34
280
     0
102
RTVSPost2010PropOp34
 70
     1
102
RTVSPost2010Prop35
280
     0
102
RTVSPost2010PropOp35
 70
     1
102
RTVSPost2010Prop36
280
     0
102
RTVSPost2010PropOp36
 70
     1
102
RTVSPost2010Prop37
 90
       50
102
RTVSPost2010PropOp37
 70
     1
102
RTVSPost2010Prop38
140
0.0
102
RTVSPost2010PropOp38
 70
     1
102
RTVSPost2010Prop39
140
1.0
102
RTVSPost2010PropOp39
 70
     1
102
RTVSPost2010Prop40
 90
        0
102
RTVSPost2010PropOp40
 70
     1
102
RTVSPost2010Prop41ColorIndex
 90
       18
102
RTVSPost2010Prop41ColorRGB
 90
        0
102
RTVSPost2010PropOp41
 70
     1
102
RTVSPost2010Prop42
 90
       50
102
RTVSPost2010PropOp42
 70
     1
102
RTVSPost2010Prop43
 90
        3
102
RTVSPost2010PropOp43
 70
     1
102
RTVSPost2010Prop44ColorIndex
 90
        5
102
RTVSPost2010Prop44ColorRGB
 90
      255
102
RTVSPost2010PropOp44
 70
     1
102
RTVSPost2010Prop45
280
     0
102
RTVSPost2010PropOp45
 70
     1
102
RTVSPost2010Prop46
 90
       50
102
RTVSPost2010PropOp46
 70
     1
102
RTVSPost2010Prop47
 90
       50
102
RTVSPost2010PropOp47
 70
     1
102
RTVSPost2010Prop48
 90
       50
102
RTVSPost2010PropOp48
 70
     1
102
RTVSPost2010Prop49
280
     0
102
RTVSPost2010PropOp49
 70
     1
102
RTVSPost2010Prop50
 90
       50
102
RTVSPost2010PropOp50
 70
     1
102
RTVSPost2010Prop51ColorIndex
 90
      256
102
RTVSPost2010Prop51ColorRGB
 90
-16777216
102
RTVSPost2010PropOp51
 70
     0
102
RTVSPost2010Prop52
140
1.0
102
RTVSPost2010PropOp52
 70
     0
102
RTVSPost2010Prop53
 90
        2
102
RTVSPost2010PropOp53
 70
     1
102
RTVSPost2010Prop54
  1
strokes_ogs.tif
102
RTVSPost2010PropOp54
 70
     1
102
RTVSPost2010Prop55
280
     0
102
RTVSPost2010PropOp55
 70
     1
102
RTVSPost2010Prop56
140
1.0
102
RTVSPost2010PropOp56
 70
     1
102
RTVSPost2010Prop57
140
1.0
102
RTVSPost2010PropOp57
 70
     1
102
RTVSPropertyOp0
 70
     1
102
RTVSPropertyOp1
 70
     1
102
RTVSPropertyOp2
 70
     1
102
RTVSPropertyOp3
 70
     1
102
RTVSPropertyOp4
 70
     1
102
RTVSPropertyOp5
 70
     1
102
RTVSPropertyOp6
 70
     1
102
RTVSPropertyOp7
 70
     1
102
RTVSPropertyOp8
 70
     1
102
RTVSPropertyOp9
 70
     1
102
RTVSPropertyOp10
 70
     1
102
RTVSPropertyOp11
 70
     1
102
RTVSPropertyOp12
 70
     1
102
RTVSPropertyOp13
 70
     1
102
RTVSPropertyOp14
 70
     1
102
RTVSPropertyOp15
 70
     1
102
RTVSPropertyOp16
 70
     1
102
RTVSPropertyOp17
 70
     1
102
RTVSPropertyOp18
 70
     1
102
RTVSPropertyOp19
 70
     1
102
RTVSPropertyOp20
 70
     1
102
RTVSPropertyOp21
 70
     1
102
RTVSPropertyOp22
 70
     1
102
RTVSPropertyOp23
 70
     1
102
RTVSPropertyOp24
 70
     1
102
RTVSPropertyOp25
 70
     1
102
RTVSPropertyOp26
 70
     1
102
RTVSPropertyOp27
 70
     1
102
RTVSPropertyOp28
 70
     1
102
RTVSPropertyOp29
 70
     1
102
RTVSPropertyOp30
 70
     1
102
RTVSPropertyOp31
 70
     1
102
RTVSPropertyOp32
 70
     1
102
RTVSPropertyOp33
 70
     1
102
RTVSPropertyOp34
 70
     1
102
RTVSPropertyOp35
 70
     1
102
RTVSPropertyOp36
 70
     1
102
RTVSPropertyOp37
 70
     1
102
RTVSPropertyOp38
 70
     1
102
RTVSPropertyOp39
 70
     1
102
RTVSPropertyOp40
 70
     1
102
RTVSPropertyOp41
 70
     1
102
RTVSPropertyOp42
 70
     1
102
RTVSPropertyOp43
 70
     1
102
RTVSPropertyOp44
 70
     1
102
RTVSPropertyOp45
 70
     1
102
RTVSPropertyOp46
 70
     1
102
RTVSPropertyOp47
 70
     1
102
RTVSPropertyOp48
 70
     1
102
RTVSPropertyOp49
 70
     1
102
RTVSPropertyOp50
 70
     1
102
RTVSPropertyOp51
 70
     0
102
RTVSPropertyOp52
 70
     0
102
RTVSPropertyOp53
 70
     1
102
RTVSPropertyOp54
 70
     1
102
RTVSPropertyOp55
 70
     1
102
RTVSPropertyOp56
 70
     1
102
RTVSPropertyOp57
 70
     1
102
RTVSPropertyOp58
 70
     1
102
RTVSPropertyOp59
 70
     1
102
RTVSPropertyOp60
 70
     1
102
RTVSPropertyOp61
 70
     1
102
RTVSPropertyOp62
 70
     1
  0
XRECORD
  5
CBEC
102
{ACAD_REACTORS
330
CBEB
102
}
330
CBEB
100
AcDbXrecord
280
     1
102
RTVSPost2010Prop28
280
     0
102
RTVSPost2010PropOp28
 70
     1
102
RTVSPost2010Prop29
280
     1
102
RTVSPost2010PropOp29
 70
     1
102
RTVSPost2010Prop30
280
     1
102
RTVSPost2010PropOp30
 70
     1
102
RTVSPost2010Prop31
280
     0
102
RTVSPost2010PropOp31
 70
     1
102
RTVSPost2010Prop32
280
     0
102
RTVSPost2010PropOp32
 70
     1
102
RTVSPost2010Prop33
280
     0
102
RTVSPost2010PropOp33
 70
     1
102
RTVSPost2010Prop34
280
     0
102
RTVSPost2010PropOp34
 70
     1
102
RTVSPost2010Prop35
280
     0
102
RTVSPost2010PropOp35
 70
     1
102
RTVSPost2010Prop36
280
     0
102
RTVSPost2010PropOp36
 70
     1
102
RTVSPost2010Prop37
 90
       50
102
RTVSPost2010PropOp37
 70
     1
102
RTVSPost2010Prop38
140
0.0
102
RTVSPost2010PropOp38
 70
     1
102
RTVSPost2010Prop39
140
1.0
102
RTVSPost2010PropOp39
 70
     1
102
RTVSPost2010Prop40
 90
        0
102
RTVSPost2010PropOp40
 70
     1
102
RTVSPost2010Prop41ColorIndex
 90
       18
102
RTVSPost2010Prop41ColorRGB
 90
        0
102
RTVSPost2010PropOp41
 70
     1
102
RTVSPost2010Prop42
 90
       50
102
RTVSPost2010PropOp42
 70
     1
102
RTVSPost2010Prop43
 90
        3
102
RTVSPost2010PropOp43
 70
     1
102
RTVSPost2010Prop44ColorIndex
 90
        5
102
RTVSPost2010Prop44ColorRGB
 90
      255
102
RTVSPost2010PropOp44
 70
     1
102
RTVSPost2010Prop45
280
     0
102
RTVSPost2010PropOp45
 70
     1
102
RTVSPost2010Prop46
 90
       50
102
RTVSPost2010PropOp46
 70
     1
102
RTVSPost2010Prop47
 90
       50
102
RTVSPost2010PropOp47
 70
     1
102
RTVSPost2010Prop48
 90
       50
102
RTVSPost2010PropOp48
 70
     1
102
RTVSPost2010Prop49
280
     0
102
RTVSPost2010PropOp49
 70
     1
102
RTVSPost2010Prop50
 90
       50
102
RTVSPost2010PropOp50
 70
     1
102
RTVSPost2010Prop51ColorIndex
 90
      256
102
RTVSPost2010Prop51ColorRGB
 90
-16777216
102
RTVSPost2010PropOp51
 70
     0
102
RTVSPost2010Prop52
140
1.0
102
RTVSPost2010PropOp52
 70
     0
102
RTVSPost2010Prop53
 90
        2
102
RTVSPost2010PropOp53
 70
     1
102
RTVSPost2010Prop54
  1
strokes_ogs.tif
102
RTVSPost2010PropOp54
 70
     1
102
RTVSPost2010Prop55
280
     0
102
RTVSPost2010PropOp55
 70
     1
102
RTVSPost2010Prop56
140
1.0
102
RTVSPost2010PropOp56
 70
     1
102
RTVSPost2010Prop57
140
1.0
102
RTVSPost2010PropOp57
 70
     1
102
RTVSPropertyOp0
 70
     1
102
RTVSPropertyOp1
 70
     1
102
RTVSPropertyOp2
 70
     1
102
RTVSPropertyOp3
 70
     1
102
RTVSPropertyOp4
 70
     1
102
RTVSPropertyOp5
 70
     1
102
RTVSPropertyOp6
 70
     1
102
RTVSPropertyOp7
 70
     1
102
RTVSPropertyOp8
 70
     1
102
RTVSPropertyOp9
 70
     1
102
RTVSPropertyOp10
 70
     1
102
RTVSPropertyOp11
 70
     1
102
RTVSPropertyOp12
 70
     1
102
RTVSPropertyOp13
 70
     1
102
RTVSPropertyOp14
 70
     1
102
RTVSPropertyOp15
 70
     1
102
RTVSPropertyOp16
 70
     1
102
RTVSPropertyOp17
 70
     1
102
RTVSPropertyOp18
 70
     1
102
RTVSPropertyOp19
 70
     1
102
RTVSPropertyOp20
 70
     1
102
RTVSPropertyOp21
 70
     1
102
RTVSPropertyOp22
 70
     1
102
RTVSPropertyOp23
 70
     1
102
RTVSPropertyOp24
 70
     1
102
RTVSPropertyOp25
 70
     1
102
RTVSPropertyOp26
 70
     1
102
RTVSPropertyOp27
 70
     1
102
RTVSPropertyOp28
 70
     1
102
RTVSPropertyOp29
 70
     1
102
RTVSPropertyOp30
 70
     1
102
RTVSPropertyOp31
 70
     1
102
RTVSPropertyOp32
 70
     1
102
RTVSPropertyOp33
 70
     1
102
RTVSPropertyOp34
 70
     1
102
RTVSPropertyOp35
 70
     1
102
RTVSPropertyOp36
 70
     1
102
RTVSPropertyOp37
 70
     1
102
RTVSPropertyOp38
 70
     1
102
RTVSPropertyOp39
 70
     1
102
RTVSPropertyOp40
 70
     1
102
RTVSPropertyOp41
 70
     1
102
RTVSPropertyOp42
 70
     1
102
RTVSPropertyOp43
 70
     1
102
RTVSPropertyOp44
 70
     1
102
RTVSPropertyOp45
 70
     1
102
RTVSPropertyOp46
 70
     1
102
RTVSPropertyOp47
 70
     1
102
RTVSPropertyOp48
 70
     1
102
RTVSPropertyOp49
 70
     1
102
RTVSPropertyOp50
 70
     1
102
RTVSPropertyOp51
 70
     0
102
RTVSPropertyOp52
 70
     0
102
RTVSPropertyOp53
 70
     1
102
RTVSPropertyOp54
 70
     1
102
RTVSPropertyOp55
 70
     1
102
RTVSPropertyOp56
 70
     1
102
RTVSPropertyOp57
 70
     1
102
RTVSPropertyOp58
 70
     1
102
RTVSPropertyOp59
 70
     1
102
RTVSPropertyOp60
 70
     1
102
RTVSPropertyOp61
 70
     1
102
RTVSPropertyOp62
 70
     1
  0
XRECORD
  5
CBE2
102
{ACAD_REACTORS
330
CBE1
102
}
330
CBE1
100
AcDbXrecord
280
     1
102
RTVSPost2010Prop28
280
     0
102
RTVSPost2010PropOp28
 70
     1
102
RTVSPost2010Prop29
280
     1
102
RTVSPost2010PropOp29
 70
     1
102
RTVSPost2010Prop30
280
     1
102
RTVSPost2010PropOp30
 70
     1
102
RTVSPost2010Prop31
280
     0
102
RTVSPost2010PropOp31
 70
     1
102
RTVSPost2010Prop32
280
     0
102
RTVSPost2010PropOp32
 70
     1
102
RTVSPost2010Prop33
280
     0
102
RTVSPost2010PropOp33
 70
     1
102
RTVSPost2010Prop34
280
     0
102
RTVSPost2010PropOp34
 70
     1
102
RTVSPost2010Prop35
280
     0
102
RTVSPost2010PropOp35
 70
     1
102
RTVSPost2010Prop36
280
     0
102
RTVSPost2010PropOp36
 70
     1
102
RTVSPost2010Prop37
 90
       50
102
RTVSPost2010PropOp37
 70
     1
102
RTVSPost2010Prop38
140
0.0
102
RTVSPost2010PropOp38
 70
     1
102
RTVSPost2010Prop39
140
1.0
102
RTVSPost2010PropOp39
 70
     1
102
RTVSPost2010Prop40
 90
        0
102
RTVSPost2010PropOp40
 70
     1
102
RTVSPost2010Prop41ColorIndex
 90
       18
102
RTVSPost2010Prop41ColorRGB
 90
        0
102
RTVSPost2010PropOp41
 70
     1
102
RTVSPost2010Prop42
 90
       50
102
RTVSPost2010PropOp42
 70
     1
102
RTVSPost2010Prop43
 90
        3
102
RTVSPost2010PropOp43
 70
     1
102
RTVSPost2010Prop44ColorIndex
 90
        5
102
RTVSPost2010Prop44ColorRGB
 90
      255
102
RTVSPost2010PropOp44
 70
     1
102
RTVSPost2010Prop45
280
     0
102
RTVSPost2010PropOp45
 70
     1
102
RTVSPost2010Prop46
 90
       50
102
RTVSPost2010PropOp46
 70
     1
102
RTVSPost2010Prop47
 90
       50
102
RTVSPost2010PropOp47
 70
     1
102
RTVSPost2010Prop48
 90
       50
102
RTVSPost2010PropOp48
 70
     1
102
RTVSPost2010Prop49
280
     0
102
RTVSPost2010PropOp49
 70
     1
102
RTVSPost2010Prop50
 90
       50
102
RTVSPost2010PropOp50
 70
     1
102
RTVSPost2010Prop51ColorIndex
 90
      256
102
RTVSPost2010Prop51ColorRGB
 90
-16777216
102
RTVSPost2010PropOp51
 70
     0
102
RTVSPost2010Prop52
140
1.0
102
RTVSPost2010PropOp52
 70
     0
102
RTVSPost2010Prop53
 90
        2
102
RTVSPost2010PropOp53
 70
     1
102
RTVSPost2010Prop54
  1
strokes_ogs.tif
102
RTVSPost2010PropOp54
 70
     1
102
RTVSPost2010Prop55
280
     0
102
RTVSPost2010PropOp55
 70
     1
102
RTVSPost2010Prop56
140
1.0
102
RTVSPost2010PropOp56
 70
     1
102
RTVSPost2010Prop57
140
1.0
102
RTVSPost2010PropOp57
 70
     1
102
RTVSPropertyOp0
 70
     1
102
RTVSPropertyOp1
 70
     1
102
RTVSPropertyOp2
 70
     1
102
RTVSPropertyOp3
 70
     1
102
RTVSPropertyOp4
 70
     1
102
RTVSPropertyOp5
 70
     1
102
RTVSPropertyOp6
 70
     1
102
RTVSPropertyOp7
 70
     1
102
RTVSPropertyOp8
 70
     1
102
RTVSPropertyOp9
 70
     1
102
RTVSPropertyOp10
 70
     1
102
RTVSPropertyOp11
 70
     1
102
RTVSPropertyOp12
 70
     1
102
RTVSPropertyOp13
 70
     1
102
RTVSPropertyOp14
 70
     1
102
RTVSPropertyOp15
 70
     1
102
RTVSPropertyOp16
 70
     1
102
RTVSPropertyOp17
 70
     1
102
RTVSPropertyOp18
 70
     1
102
RTVSPropertyOp19
 70
     1
102
RTVSPropertyOp20
 70
     1
102
RTVSPropertyOp21
 70
     1
102
RTVSPropertyOp22
 70
     1
102
RTVSPropertyOp23
 70
     1
102
RTVSPropertyOp24
 70
     1
102
RTVSPropertyOp25
 70
     1
102
RTVSPropertyOp26
 70
     1
102
RTVSPropertyOp27
 70
     1
102
RTVSPropertyOp28
 70
     1
102
RTVSPropertyOp29
 70
     1
102
RTVSPropertyOp30
 70
     1
102
RTVSPropertyOp31
 70
     1
102
RTVSPropertyOp32
 70
     1
102
RTVSPropertyOp33
 70
     1
102
RTVSPropertyOp34
 70
     1
102
RTVSPropertyOp35
 70
     1
102
RTVSPropertyOp36
 70
     1
102
RTVSPropertyOp37
 70
     1
102
RTVSPropertyOp38
 70
     1
102
RTVSPropertyOp39
 70
     1
102
RTVSPropertyOp40
 70
     1
102
RTVSPropertyOp41
 70
     1
102
RTVSPropertyOp42
 70
     1
102
RTVSPropertyOp43
 70
     1
102
RTVSPropertyOp44
 70
     1
102
RTVSPropertyOp45
 70
     1
102
RTVSPropertyOp46
 70
     1
102
RTVSPropertyOp47
 70
     1
102
RTVSPropertyOp48
 70
     1
102
RTVSPropertyOp49
 70
     1
102
RTVSPropertyOp50
 70
     1
102
RTVSPropertyOp51
 70
     0
102
RTVSPropertyOp52
 70
     0
102
RTVSPropertyOp53
 70
     1
102
RTVSPropertyOp54
 70
     1
102
RTVSPropertyOp55
 70
     1
102
RTVSPropertyOp56
 70
     1
102
RTVSPropertyOp57
 70
     1
102
RTVSPropertyOp58
 70
     1
102
RTVSPropertyOp59
 70
     1
102
RTVSPropertyOp60
 70
     1
102
RTVSPropertyOp61
 70
     1
102
RTVSPropertyOp62
 70
     1
  0
XRECORD
  5
CBD6
102
{ACAD_REACTORS
330
CBD5
102
}
330
CBD5
100
AcDbXrecord
280
     1
102
RTVSPost2010Prop28
280
     0
102
RTVSPost2010PropOp28
 70
     1
102
RTVSPost2010Prop29
280
     1
102
RTVSPost2010PropOp29
 70
     1
102
RTVSPost2010Prop30
280
     1
102
RTVSPost2010PropOp30
 70
     1
102
RTVSPost2010Prop31
280
     0
102
RTVSPost2010PropOp31
 70
     1
102
RTVSPost2010Prop32
280
     0
102
RTVSPost2010PropOp32
 70
     1
102
RTVSPost2010Prop33
280
     0
102
RTVSPost2010PropOp33
 70
     1
102
RTVSPost2010Prop34
280
     0
102
RTVSPost2010PropOp34
 70
     1
102
RTVSPost2010Prop35
280
     0
102
RTVSPost2010PropOp35
 70
     1
102
RTVSPost2010Prop36
280
     0
102
RTVSPost2010PropOp36
 70
     1
102
RTVSPost2010Prop37
 90
       50
102
RTVSPost2010PropOp37
 70
     1
102
RTVSPost2010Prop38
140
0.0
102
RTVSPost2010PropOp38
 70
     1
102
RTVSPost2010Prop39
140
1.0
102
RTVSPost2010PropOp39
 70
     1
102
RTVSPost2010Prop40
 90
        0
102
RTVSPost2010PropOp40
 70
     1
102
RTVSPost2010Prop41ColorIndex
 90
       18
102
RTVSPost2010Prop41ColorRGB
 90
        0
102
RTVSPost2010PropOp41
 70
     1
102
RTVSPost2010Prop42
 90
       50
102
RTVSPost2010PropOp42
 70
     1
102
RTVSPost2010Prop43
 90
        3
102
RTVSPost2010PropOp43
 70
     1
102
RTVSPost2010Prop44ColorIndex
 90
        5
102
RTVSPost2010Prop44ColorRGB
 90
      255
102
RTVSPost2010PropOp44
 70
     1
102
RTVSPost2010Prop45
280
     0
102
RTVSPost2010PropOp45
 70
     1
102
RTVSPost2010Prop46
 90
       50
102
RTVSPost2010PropOp46
 70
     1
102
RTVSPost2010Prop47
 90
       50
102
RTVSPost2010PropOp47
 70
     1
102
RTVSPost2010Prop48
 90
       50
102
RTVSPost2010PropOp48
 70
     1
102
RTVSPost2010Prop49
280
     0
102
RTVSPost2010PropOp49
 70
     1
102
RTVSPost2010Prop50
 90
       50
102
RTVSPost2010PropOp50
 70
     1
102
RTVSPost2010Prop51ColorIndex
 90
      256
102
RTVSPost2010Prop51ColorRGB
 90
-16777216
102
RTVSPost2010PropOp51
 70
     0
102
RTVSPost2010Prop52
140
1.0
102
RTVSPost2010PropOp52
 70
     0
102
RTVSPost2010Prop53
 90
        2
102
RTVSPost2010PropOp53
 70
     1
102
RTVSPost2010Prop54
  1
strokes_ogs.tif
102
RTVSPost2010PropOp54
 70
     1
102
RTVSPost2010Prop55
280
     0
102
RTVSPost2010PropOp55
 70
     1
102
RTVSPost2010Prop56
140
1.0
102
RTVSPost2010PropOp56
 70
     1
102
RTVSPost2010Prop57
140
1.0
102
RTVSPost2010PropOp57
 70
     1
102
RTVSPropertyOp0
 70
     1
102
RTVSPropertyOp1
 70
     1
102
RTVSPropertyOp2
 70
     1
102
RTVSPropertyOp3
 70
     1
102
RTVSPropertyOp4
 70
     1
102
RTVSPropertyOp5
 70
     1
102
RTVSPropertyOp6
 70
     1
102
RTVSPropertyOp7
 70
     1
102
RTVSPropertyOp8
 70
     1
102
RTVSPropertyOp9
 70
     1
102
RTVSPropertyOp10
 70
     1
102
RTVSPropertyOp11
 70
     1
102
RTVSPropertyOp12
 70
     1
102
RTVSPropertyOp13
 70
     1
102
RTVSPropertyOp14
 70
     1
102
RTVSPropertyOp15
 70
     1
102
RTVSPropertyOp16
 70
     1
102
RTVSPropertyOp17
 70
     1
102
RTVSPropertyOp18
 70
     1
102
RTVSPropertyOp19
 70
     1
102
RTVSPropertyOp20
 70
     1
102
RTVSPropertyOp21
 70
     1
102
RTVSPropertyOp22
 70
     1
102
RTVSPropertyOp23
 70
     1
102
RTVSPropertyOp24
 70
     1
102
RTVSPropertyOp25
 70
     1
102
RTVSPropertyOp26
 70
     1
102
RTVSPropertyOp27
 70
     1
102
RTVSPropertyOp28
 70
     1
102
RTVSPropertyOp29
 70
     1
102
RTVSPropertyOp30
 70
     1
102
RTVSPropertyOp31
 70
     1
102
RTVSPropertyOp32
 70
     1
102
RTVSPropertyOp33
 70
     1
102
RTVSPropertyOp34
 70
     1
102
RTVSPropertyOp35
 70
     1
102
RTVSPropertyOp36
 70
     1
102
RTVSPropertyOp37
 70
     1
102
RTVSPropertyOp38
 70
     1
102
RTVSPropertyOp39
 70
     1
102
RTVSPropertyOp40
 70
     1
102
RTVSPropertyOp41
 70
     1
102
RTVSPropertyOp42
 70
     1
102
RTVSPropertyOp43
 70
     1
102
RTVSPropertyOp44
 70
     1
102
RTVSPropertyOp45
 70
     1
102
RTVSPropertyOp46
 70
     1
102
RTVSPropertyOp47
 70
     1
102
RTVSPropertyOp48
 70
     1
102
RTVSPropertyOp49
 70
     1
102
RTVSPropertyOp50
 70
     1
102
RTVSPropertyOp51
 70
     0
102
RTVSPropertyOp52
 70
     0
102
RTVSPropertyOp53
 70
     1
102
RTVSPropertyOp54
 70
     1
102
RTVSPropertyOp55
 70
     1
102
RTVSPropertyOp56
 70
     1
102
RTVSPropertyOp57
 70
     1
102
RTVSPropertyOp58
 70
     1
102
RTVSPropertyOp59
 70
     1
102
RTVSPropertyOp60
 70
     1
102
RTVSPropertyOp61
 70
     1
102
RTVSPropertyOp62
 70
     1
  0
XRECORD
  5
CBEE
102
{ACAD_REACTORS
330
CBED
102
}
330
CBED
100
AcDbXrecord
280
     1
102
RTVSPost2010Prop28
280
     0
102
RTVSPost2010PropOp28
 70
     1
102
RTVSPost2010Prop29
280
     1
102
RTVSPost2010PropOp29
 70
     1
102
RTVSPost2010Prop30
280
     1
102
RTVSPost2010PropOp30
 70
     1
102
RTVSPost2010Prop31
280
     0
102
RTVSPost2010PropOp31
 70
     1
102
RTVSPost2010Prop32
280
     0
102
RTVSPost2010PropOp32
 70
     1
102
RTVSPost2010Prop33
280
     0
102
RTVSPost2010PropOp33
 70
     1
102
RTVSPost2010Prop34
280
     0
102
RTVSPost2010PropOp34
 70
     1
102
RTVSPost2010Prop35
280
     0
102
RTVSPost2010PropOp35
 70
     1
102
RTVSPost2010Prop36
280
     0
102
RTVSPost2010PropOp36
 70
     1
102
RTVSPost2010Prop37
 90
       50
102
RTVSPost2010PropOp37
 70
     1
102
RTVSPost2010Prop38
140
0.0
102
RTVSPost2010PropOp38
 70
     1
102
RTVSPost2010Prop39
140
1.0
102
RTVSPost2010PropOp39
 70
     1
102
RTVSPost2010Prop40
 90
        0
102
RTVSPost2010PropOp40
 70
     1
102
RTVSPost2010Prop41ColorIndex
 90
       18
102
RTVSPost2010Prop41ColorRGB
 90
        0
102
RTVSPost2010PropOp41
 70
     1
102
RTVSPost2010Prop42
 90
       50
102
RTVSPost2010PropOp42
 70
     1
102
RTVSPost2010Prop43
 90
        3
102
RTVSPost2010PropOp43
 70
     1
102
RTVSPost2010Prop44ColorIndex
 90
        5
102
RTVSPost2010Prop44ColorRGB
 90
      255
102
RTVSPost2010PropOp44
 70
     1
102
RTVSPost2010Prop45
280
     0
102
RTVSPost2010PropOp45
 70
     1
102
RTVSPost2010Prop46
 90
       50
102
RTVSPost2010PropOp46
 70
     1
102
RTVSPost2010Prop47
 90
       50
102
RTVSPost2010PropOp47
 70
     1
102
RTVSPost2010Prop48
 90
       50
102
RTVSPost2010PropOp48
 70
     1
102
RTVSPost2010Prop49
280
     0
102
RTVSPost2010PropOp49
 70
     1
102
RTVSPost2010Prop50
 90
       50
102
RTVSPost2010PropOp50
 70
     1
102
RTVSPost2010Prop51ColorIndex
 90
      256
102
RTVSPost2010Prop51ColorRGB
 90
-16777216
102
RTVSPost2010PropOp51
 70
     0
102
RTVSPost2010Prop52
140
1.0
102
RTVSPost2010PropOp52
 70
     0
102
RTVSPost2010Prop53
 90
        2
102
RTVSPost2010PropOp53
 70
     1
102
RTVSPost2010Prop54
  1
strokes_ogs.tif
102
RTVSPost2010PropOp54
 70
     1
102
RTVSPost2010Prop55
280
     0
102
RTVSPost2010PropOp55
 70
     1
102
RTVSPost2010Prop56
140
1.0
102
RTVSPost2010PropOp56
 70
     1
102
RTVSPost2010Prop57
140
1.0
102
RTVSPost2010PropOp57
 70
     1
102
RTVSPropertyOp0
 70
     1
102
RTVSPropertyOp1
 70
     1
102
RTVSPropertyOp2
 70
     1
102
RTVSPropertyOp3
 70
     1
102
RTVSPropertyOp4
 70
     1
102
RTVSPropertyOp5
 70
     1
102
RTVSPropertyOp6
 70
     1
102
RTVSPropertyOp7
 70
     1
102
RTVSPropertyOp8
 70
     1
102
RTVSPropertyOp9
 70
     1
102
RTVSPropertyOp10
 70
     1
102
RTVSPropertyOp11
 70
     1
102
RTVSPropertyOp12
 70
     1
102
RTVSPropertyOp13
 70
     1
102
RTVSPropertyOp14
 70
     1
102
RTVSPropertyOp15
 70
     1
102
RTVSPropertyOp16
 70
     1
102
RTVSPropertyOp17
 70
     1
102
RTVSPropertyOp18
 70
     1
102
RTVSPropertyOp19
 70
     1
102
RTVSPropertyOp20
 70
     1
102
RTVSPropertyOp21
 70
     1
102
RTVSPropertyOp22
 70
     1
102
RTVSPropertyOp23
 70
     1
102
RTVSPropertyOp24
 70
     1
102
RTVSPropertyOp25
 70
     1
102
RTVSPropertyOp26
 70
     1
102
RTVSPropertyOp27
 70
     1
102
RTVSPropertyOp28
 70
     1
102
RTVSPropertyOp29
 70
     1
102
RTVSPropertyOp30
 70
     1
102
RTVSPropertyOp31
 70
     1
102
RTVSPropertyOp32
 70
     1
102
RTVSPropertyOp33
 70
     1
102
RTVSPropertyOp34
 70
     1
102
RTVSPropertyOp35
 70
     1
102
RTVSPropertyOp36
 70
     1
102
RTVSPropertyOp37
 70
     1
102
RTVSPropertyOp38
 70
     1
102
RTVSPropertyOp39
 70
     1
102
RTVSPropertyOp40
 70
     1
102
RTVSPropertyOp41
 70
     1
102
RTVSPropertyOp42
 70
     1
102
RTVSPropertyOp43
 70
     1
102
RTVSPropertyOp44
 70
     1
102
RTVSPropertyOp45
 70
     1
102
RTVSPropertyOp46
 70
     1
102
RTVSPropertyOp47
 70
     1
102
RTVSPropertyOp48
 70
     1
102
RTVSPropertyOp49
 70
     1
102
RTVSPropertyOp50
 70
     1
102
RTVSPropertyOp51
 70
     0
102
RTVSPropertyOp52
 70
     0
102
RTVSPropertyOp53
 70
     1
102
RTVSPropertyOp54
 70
     1
102
RTVSPropertyOp55
 70
     1
102
RTVSPropertyOp56
 70
     1
102
RTVSPropertyOp57
 70
     1
102
RTVSPropertyOp58
 70
     1
102
RTVSPropertyOp59
 70
     1
102
RTVSPropertyOp60
 70
     1
102
RTVSPropertyOp61
 70
     1
102
RTVSPropertyOp62
 70
     1
  0
ENDSEC
  0
EOF
