  0
SECTION
  2
HEADER
  9
$ACADVER
  1
AC1015
  9
$ACADMAINTVER
 70
    20
  9
$DWGCODEPAGE
  3
ANSI_932
  9
$INSBASE
 10
0.0
 20
0.0
 30
0.0
  9
$EXTMIN
 10
10.0
 20
9.999999999999998
 30
0.0
  9
$EXTMAX
 10
385.56178
 20
285.2174619999999
 30
0.0
  9
$LIMMIN
 10
0.0
 20
0.0
  9
$LIMMAX
 10
495.0
 20
341.25
  9
$ORTHOMODE
 70
     1
  9
$REGENMODE
 70
     1
  9
$FILLMODE
 70
     1
  9
$QTEXTMODE
 70
     0
  9
$MIRRTEXT
 70
     1
  9
$LTSCALE
 40
20.0
  9
$ATTMODE
 70
     1
  9
$TEXTSIZE
 40
5.0
  9
$TRACEWID
 40
1.0
  9
$TEXTSTYLE
  7
STANDARD
  9
$CLAYER
  8
0
  9
$CELTYPE
  6
BYLAYER
  9
$CECOLOR
 62
   256
  9
$CELTSCALE
 40
1.0
  9
$DISPSILH
 70
     0
  9
$DIMSCALE
 40
1.0
  9
$DIMASZ
 40
3.0
  9
$DIMEXO
 40
1.0
  9
$DIMDLI
 40
10.0
  9
$DIMRND
 40
0.0
  9
$DIMDLE
 40
0.0
  9
$DIMEXE
 40
1.0
  9
$DIMTP
 40
0.0
  9
$DIMTM
 40
0.0
  9
$DIMTXT
 40
3.2
  9
$DIMCEN
 40
0.0
  9
$DIMTSZ
 40
0.0
  9
$DIMTOL
 70
     0
  9
$DIMLIM
 70
     0
  9
$DIMTIH
 70
     0
  9
$DIMTOH
 70
     0
  9
$DIMSE1
 70
     0
  9
$DIMSE2
 70
     0
  9
$DIMTAD
 70
     3
  9
$DIMZIN
 70
     8
  9
$DIMBLK
  1

  9
$DIMASO
 70
     1
  9
$DIMSHO
 70
     1
  9
$DIMPOST
  1

  9
$DIMAPOST
  1

  9
$DIMALT
 70
     0
  9
$DIMALTD
 70
     2
  9
$DIMALTF
 40
25.4
  9
$DIMLFAC
 40
1.0
  9
$DIMTOFL
 70
     1
  9
$DIMTVP
 40
0.0
  9
$DIMTIX
 70
     0
  9
$DIMSOXD
 70
     0
  9
$DIMSAH
 70
     1
  9
$DIMBLK1
  1
OPEN
  9
$DIMBLK2
  1
OPEN
  9
$DIMSTYLE
  2
STANDARD
  9
$DIMCLRD
 70
     0
  9
$DIMCLRE
 70
     0
  9
$DIMCLRT
 70
     0
  9
$DIMTFAC
 40
1.0
  9
$DIMGAP
 40
1.0
  9
$DIMJUST
 70
     0
  9
$DIMSD1
 70
     0
  9
$DIMSD2
 70
     0
  9
$DIMTOLJ
 70
     1
  9
$DIMTZIN
 70
     0
  9
$DIMALTZ
 70
     0
  9
$DIMALTTZ
 70
     0
  9
$DIMUPT
 70
     0
  9
$DIMDEC
 70
     4
  9
$DIMTDEC
 70
     4
  9
$DIMALTU
 70
     2
  9
$DIMALTTD
 70
     2
  9
$DIMTXSTY
  7
STANDARD
  9
$DIMAUNIT
 70
     0
  9
$DIMADEC
 70
     0
  9
$DIMALTRND
 40
0.0
  9
$DIMAZIN
 70
     0
  9
$DIMDSEP
 70
    46
  9
$DIMATFIT
 70
     3
  9
$DIMFRAC
 70
     0
  9
$DIMLDRBLK
  1
OPEN
  9
$DIMLUNIT
 70
     2
  9
$DIMLWD
 70
    -2
  9
$DIMLWE
 70
    -2
  9
$DIMTMOVE
 70
     0
  9
$LUNITS
 70
     2
  9
$LUPREC
 70
     4
  9
$SKETCHINC
 40
1.0
  9
$FILLETRAD
 40
0.0
  9
$AUNITS
 70
     0
  9
$AUPREC
 70
     2
  9
$MENU
  1
.
  9
$ELEVATION
 40
0.0
  9
$PELEVATION
 40
0.0
  9
$THICKNESS
 40
0.0
  9
$LIMCHECK
 70
     0
  9
$CHAMFERA
 40
10.0
  9
$CHAMFERB
 40
10.0
  9
$CHAMFERC
 40
0.0
  9
$CHAMFERD
 40
0.0
  9
$SKPOLY
 70
     0
  9
$TDCREATE
 40
2451303.402713195
  9
$TDUCREATE
 40
2451303.027713195
  9
$TDUPDATE
 40
2457192.686535625
  9
$TDUUPDATE
 40
2457192.311535625
  9
$TDINDWG
 40
0.0000157523
  9
$TDUSRTIMER
 40
0.0000154398
  9
$USRTIMER
 70
     1
  9
$ANGBASE
 50
0.0
  9
$ANGDIR
 70
     0
  9
$PDMODE
 70
     0
  9
$PDSIZE
 40
0.0
  9
$PLINEWID
 40
0.0
  9
$SPLFRAME
 70
     0
  9
$SPLINETYPE
 70
     6
  9
$SPLINESEGS
 70
     8
  9
$HANDSEED
  5
C06F
  9
$SURFTAB1
 70
     6
  9
$SURFTAB2
 70
     6
  9
$SURFTYPE
 70
     6
  9
$SURFU
 70
     6
  9
$SURFV
 70
     6
  9
$UCSBASE
  2

  9
$UCSNAME
  2

  9
$UCSORG
 10
0.0
 20
0.0
 30
0.0
  9
$UCSXDIR
 10
1.0
 20
0.0
 30
0.0
  9
$UCSYDIR
 10
0.0
 20
1.0
 30
0.0
  9
$UCSORTHOREF
  2

  9
$UCSORTHOVIEW
 70
     0
  9
$UCSORGTOP
 10
0.0
 20
0.0
 30
0.0
  9
$UCSORGBOTTOM
 10
0.0
 20
0.0
 30
0.0
  9
$UCSORGLEFT
 10
0.0
 20
0.0
 30
0.0
  9
$UCSORGRIGHT
 10
0.0
 20
0.0
 30
0.0
  9
$UCSORGFRONT
 10
0.0
 20
0.0
 30
0.0
  9
$UCSORGBACK
 10
0.0
 20
0.0
 30
0.0
  9
$PUCSBASE
  2

  9
$PUCSNAME
  2

  9
$PUCSORG
 10
0.0
 20
0.0
 30
0.0
  9
$PUCSXDIR
 10
1.0
 20
0.0
 30
0.0
  9
$PUCSYDIR
 10
0.0
 20
1.0
 30
0.0
  9
$PUCSORTHOREF
  2

  9
$PUCSORTHOVIEW
 70
     0
  9
$PUCSORGTOP
 10
0.0
 20
0.0
 30
0.0
  9
$PUCSORGBOTTOM
 10
0.0
 20
0.0
 30
0.0
  9
$PUCSORGLEFT
 10
0.0
 20
0.0
 30
0.0
  9
$PUCSORGRIGHT
 10
0.0
 20
0.0
 30
0.0
  9
$PUCSORGFRONT
 10
0.0
 20
0.0
 30
0.0
  9
$PUCSORGBACK
 10
0.0
 20
0.0
 30
0.0
  9
$USERI1
 70
     0
  9
$USERI2
 70
     0
  9
$USERI3
 70
     0
  9
$USERI4
 70
     0
  9
$USERI5
 70
     0
  9
$USERR1
 40
0.0
  9
$USERR2
 40
0.0
  9
$USERR3
 40
0.0
  9
$USERR4
 40
0.0
  9
$USERR5
 40
0.0
  9
$WORLDVIEW
 70
     1
  9
$SHADEDGE
 70
     3
  9
$SHADEDIF
 70
    70
  9
$TILEMODE
 70
     1
  9
$MAXACTVP
 70
    16
  9
$PINSBASE
 10
0.0
 20
0.0
 30
0.0
  9
$PLIMCHECK
 70
     0
  9
$PEXTMIN
 10
1.000000000000000E+20
 20
1.000000000000000E+20
 30
1.000000000000000E+20
  9
$PEXTMAX
 10
-1.000000000000000E+20
 20
-1.000000000000000E+20
 30
-1.000000000000000E+20
  9
$PLIMMIN
 10
0.0
 20
0.0
  9
$PLIMMAX
 10
420.0
 20
297.0
  9
$UNITMODE
 70
     0
  9
$VISRETAIN
 70
     0
  9
$PLINEGEN
 70
     0
  9
$PSLTSCALE
 70
     0
  9
$TREEDEPTH
 70
  3020
  9
$CMLSTYLE
  2
STANDARD
  9
$CMLJUST
 70
     0
  9
$CMLSCALE
 40
1.0
  9
$PROXYGRAPHICS
 70
     1
  9
$MEASUREMENT
 70
     0
  9
$CELWEIGHT
370
    -1
  9
$ENDCAPS
280
     0
  9
$JOINSTYLE
280
     0
  9
$LWDISPLAY
290
     0
  9
$INSUNITS
 70
     0
  9
$HYPERLINKBASE
  1

  9
$STYLESHEET
  1

  9
$XEDIT
290
     1
  9
$CEPSNTYPE
380
     0
  9
$PSTYLEMODE
290
     1
  9
$FINGERPRINTGUID
  2
{3EF4F8CB-5D70-4FB7-A3A3-4A8E5C8D629B}
  9
$VERSIONGUID
  2
{86917203-534C-4F93-928B-D0AAC71A6DDB}
  9
$EXTNAMES
290
     1
  9
$PSVPSCALE
 40
0.0
  9
$OLESTARTUP
290
     0
  0
ENDSEC
  0
SECTION
  2
CLASSES
  0
CLASS
  1
ACDBDICTIONARYWDFLT
  2
AcDbDictionaryWithDefault
  3
ObjectDBX Classes
 90
        0
280
     0
281
     0
  0
CLASS
  1
ACDBPLACEHOLDER
  2
AcDbPlaceHolder
  3
ObjectDBX Classes
 90
        0
280
     0
281
     0
  0
CLASS
  1
LAYOUT
  2
AcDbLayout
  3
ObjectDBX Classes
 90
        0
280
     0
281
     0
  0
CLASS
  1
DICTIONARYVAR
  2
AcDbDictionaryVar
  3
ObjectDBX Classes
 90
        0
280
     0
281
     0
  0
CLASS
  1
MATERIAL
  2
AcDbMaterial
  3
ObjectDBX Classes
 90
     1153
280
     0
281
     0
  0
CLASS
  1
VISUALSTYLE
  2
AcDbVisualStyle
  3
ObjectDBX Classes
 90
     4095
280
     0
281
     0
  0
CLASS
  1
TABLESTYLE
  2
AcDbTableStyle
  3
ObjectDBX Classes
 90
     4095
280
     0
281
     0
  0
CLASS
  1
SCALE
  2
AcDbScale
  3
ObjectDBX Classes
 90
     1153
280
     0
281
     0
  0
CLASS
  1
MLEADERSTYLE
  2
AcDbMLeaderStyle
  3
ACDB_MLEADERSTYLE_CLASS
 90
     4095
280
     0
281
     0
  0
CLASS
  1
ACDBSECTIONVIEWSTYLE
  2
AcDbSectionViewStyle
  3
ObjectDBX Classes
 90
     1025
280
     0
281
     0
  0
CLASS
  1
ACDBDETAILVIEWSTYLE
  2
AcDbDetailViewStyle
  3
ObjectDBX Classes
 90
     1025
280
     0
281
     0
  0
CLASS
  1
CELLSTYLEMAP
  2
AcDbCellStyleMap
  3
ObjectDBX Classes
 90
     1152
280
     0
281
     0
  0
ENDSEC
  0
SECTION
  2
TABLES
  0
TABLE
  2
VPORT
  5
BBBB
330
0
100
AcDbSymbolTable
 70
     1
  0
VPORT
  5
BFB8
330
BBBB
100
AcDbSymbolTableRecord
100
AcDbViewportTableRecord
  2
*ACTIVE
 70
     0
 10
0.0
 20
0.0
 11
1.0
 21
1.0
 12
281.1485467191423
 22
147.609787755046
 13
0.0
 23
0.0
 14
10.0
 24
10.0
 15
10.0
 25
10.0
 16
0.0
 26
0.0
 36
1.0
 17
0.0
 27
0.0
 37
0.0
 40
278.2866693215096
 41
2.35006605019815
 42
50.0
 43
0.0
 44
0.0
 50
0.0
 51
0.0
 71
     0
 72
   100
 73
     1
 74
     0
 75
     0
 76
     0
 77
     0
 78
     0
281
     0
 65
     1
110
0.0
120
0.0
130
0.0
111
1.0
121
0.0
131
0.0
112
0.0
122
1.0
132
0.0
 79
     0
146
0.0
1001
ACAD_NAV_VCDISPLAY
1070
     3
  0
ENDTAB
  0
TABLE
  2
LTYPE
  5
BBB8
330
0
100
AcDbSymbolTable
 70
     4
  0
LTYPE
  5
BBC6
330
BBB8
100
AcDbSymbolTableRecord
100
AcDbLinetypeTableRecord
  2
BYBLOCK
 70
     0
  3

 72
    65
 73
     0
 40
0.0
  0
LTYPE
  5
BBC7
330
BBB8
100
AcDbSymbolTableRecord
100
AcDbLinetypeTableRecord
  2
BYLAYER
 70
     0
  3

 72
    65
 73
     0
 40
0.0
  0
LTYPE
  5
BBC8
330
BBB8
100
AcDbSymbolTableRecord
100
AcDbLinetypeTableRecord
  2
CONTINUOUS
 70
     0
  3
Solid line
 72
    65
 73
     0
 40
0.0
  0
LTYPE
  5
BBD6
330
BBB8
100
AcDbSymbolTableRecord
100
AcDbLinetypeTableRecord
  2
DASHED
 70
     0
  3
__ __ __ __ __ __ __ __ __ __ __ __ __ __ __ __
 72
    65
 73
     2
 40
0.75
 49
0.5
 74
     0
 49
-0.25
 74
     0
  0
LTYPE
  5
BBD7
330
BBB8
100
AcDbSymbolTableRecord
100
AcDbLinetypeTableRecord
  2
CENTER
 70
     0
  3
____ _ ____ _ ____ _ ____ _ ____ _ ____ _ ____ 
 72
    65
 73
     4
 40
2.0
 49
1.25
 74
     0
 49
-0.25
 74
     0
 49
0.25
 74
     0
 49
-0.25
 74
     0
  0
LTYPE
  5
BBD8
330
BBB8
100
AcDbSymbolTableRecord
100
AcDbLinetypeTableRecord
  2
PHANTOM
 70
     0
  3
______  __  __  ______  __  __  ______  __  __ 
 72
    65
 73
     6
 40
2.5
 49
1.25
 74
     0
 49
-0.25
 74
     0
 49
0.25
 74
     0
 49
-0.25
 74
     0
 49
0.25
 74
     0
 49
-0.25
 74
     0
  0
ENDTAB
  0
TABLE
  2
LAYER
  5
BBB5
330
0
100
AcDbSymbolTable
 70
     8
  0
LAYER
  5
BBC3
102
{ACAD_XDICTIONARY
360
C013
102
}
330
BBB5
100
AcDbSymbolTableRecord
100
AcDbLayerTableRecord
  2
0
 70
     0
 62
     7
  6
CONTINUOUS
370
    -3
390
BFC1
  0
LAYER
  5
BBD9
102
{ACAD_XDICTIONARY
360
C015
102
}
330
BBB5
100
AcDbSymbolTableRecord
100
AcDbLayerTableRecord
  2
4
 70
     0
 62
     1
  6
CENTER
370
    -3
390
BFC1
  0
LAYER
  5
BBDA
102
{ACAD_XDICTIONARY
360
C017
102
}
330
BBB5
100
AcDbSymbolTableRecord
100
AcDbLayerTableRecord
  2
5
 70
     0
 62
     6
  6
PHANTOM
370
    -3
390
BFC1
  0
LAYER
  5
BBDB
102
{ACAD_XDICTIONARY
360
C019
102
}
330
BBB5
100
AcDbSymbolTableRecord
100
AcDbLayerTableRecord
  2
1
 70
     0
 62
     7
  6
CONTINUOUS
370
    -3
390
BFC1
  0
LAYER
  5
BBDC
102
{ACAD_XDICTIONARY
360
C01B
102
}
330
BBB5
100
AcDbSymbolTableRecord
100
AcDbLayerTableRecord
  2
2
 70
     0
 62
     4
  6
CONTINUOUS
370
    -3
390
BFC1
  0
LAYER
  5
BBDD
102
{ACAD_XDICTIONARY
360
C01D
102
}
330
BBB5
100
AcDbSymbolTableRecord
100
AcDbLayerTableRecord
  2
3
 70
     0
 62
     2
  6
DASHED
370
    -3
390
BFC1
  0
LAYER
  5
BBDE
102
{ACAD_XDICTIONARY
360
C01F
102
}
330
BBB5
100
AcDbSymbolTableRecord
100
AcDbLayerTableRecord
  2
6
 70
     0
 62
     5
  6
CONTINUOUS
370
    -3
390
BFC1
  0
LAYER
  5
BBDF
102
{ACAD_XDICTIONARY
360
C021
102
}
330
BBB5
100
AcDbSymbolTableRecord
100
AcDbLayerTableRecord
  2
7
 70
     0
 62
     3
  6
CONTINUOUS
370
    -3
390
BFC1
  0
ENDTAB
  0
TABLE
  2
STYLE
  5
BBB6
330
0
100
AcDbSymbolTable
 70
     1
  0
STYLE
  5
BBC4
330
BBB6
100
AcDbSymbolTableRecord
100
AcDbTextStyleTableRecord
  2
STANDARD
 70
     0
 40
0.0
 41
1.0
 50
0.0
 71
     0
 42
5.0
  3
txt
  4

  0
ENDTAB
  0
TABLE
  2
VIEW
  5
BBB9
330
0
100
AcDbSymbolTable
 70
     0
  0
ENDTAB
  0
TABLE
  2
UCS
  5
BBBA
330
0
100
AcDbSymbolTable
 70
     0
  0
ENDTAB
  0
TABLE
  2
APPID
  5
BBBC
330
0
100
AcDbSymbolTable
 70
     3
  0
APPID
  5
BBC5
330
BBBC
100
AcDbSymbolTableRecord
100
AcDbRegAppTableRecord
  2
ACAD
 70
     0
  0
APPID
  5
C02D
330
BBBC
100
AcDbSymbolTableRecord
100
AcDbRegAppTableRecord
  2
ACAD_NAV_VCDISPLAY
 70
     0
  0
APPID
  5
C066
330
BBBC
100
AcDbSymbolTableRecord
100
AcDbRegAppTableRecord
  2
ACAD_MLEADERVER
 70
     0
  0
ENDTAB
  0
TABLE
  2
DIMSTYLE
  5
BBBD
330
0
100
AcDbSymbolTable
 70
     1
100
AcDbDimStyleTable
 71
     0
  0
DIMSTYLE
105
BBE1
330
BBBD
100
AcDbSymbolTableRecord
100
AcDbDimStyleTableRecord
  2
STANDARD
 70
     0
 41
3.0
 42
1.0
 43
10.0
 44
1.0
 73
     0
 74
     0
 77
     3
 78
     8
140
3.2
141
0.0
147
1.0
172
     1
173
     1
284
     8
285
     8
286
     8
340
BBC4
  0
ENDTAB
  0
TABLE
  2
BLOCK_RECORD
  5
BBB4
330
0
100
AcDbSymbolTable
 70
     1
  0
BLOCK_RECORD
  5
BBD1
102
{ACAD_XDICTIONARY
360
BFBB
102
}
330
BBB4
100
AcDbSymbolTableRecord
100
AcDbBlockTableRecord
  2
*MODEL_SPACE
340
C00F
  0
BLOCK_RECORD
  5
BBCD
102
{ACAD_XDICTIONARY
360
BFB9
102
}
330
BBB4
100
AcDbSymbolTableRecord
100
AcDbBlockTableRecord
  2
*PAPER_SPACE
340
C010
  0
BLOCK_RECORD
  5
BBE9
330
BBB4
100
AcDbSymbolTableRecord
100
AcDbBlockTableRecord
  2
_OPEN
340
0
  0
ENDTAB
  0
ENDSEC
  0
SECTION
  2
BLOCKS
  0
BLOCK
  5
BBD2
330
BBD1
100
AcDbEntity
  8
0
100
AcDbBlockBegin
  2
*MODEL_SPACE
 70
     0
 10
0.0
 20
0.0
 30
0.0
  3
*MODEL_SPACE
  1

  0
ENDBLK
  5
BBD3
330
BBD1
100
AcDbEntity
  8
0
100
AcDbBlockEnd
  0
BLOCK
  5
BBCE
330
BBCD
100
AcDbEntity
 67
     1
  8
0
100
AcDbBlockBegin
  2
*PAPER_SPACE
 70
     0
 10
0.0
 20
0.0
 30
0.0
  3
*PAPER_SPACE
  1

  0
ENDBLK
  5
BBCF
330
BBCD
100
AcDbEntity
 67
     1
  8
0
100
AcDbBlockEnd
  0
BLOCK
  5
BBEA
330
BBE9
100
AcDbEntity
  8
0
100
AcDbBlockBegin
  2
_OPEN
 70
     0
 10
0.0
 20
0.0
 30
0.0
  3
_OPEN
  1

  0
LINE
  5
BBEB
330
BBE9
100
AcDbEntity
  8
0
  6
ByBlock
 62
     0
100
AcDbLine
 10
-1.0
 20
0.166667
 30
0.0
 11
0.0
 21
0.0
 31
0.0
  0
LINE
  5
BBEC
330
BBE9
100
AcDbEntity
  8
0
  6
ByBlock
 62
     0
100
AcDbLine
 10
0.0
 20
0.0
 30
0.0
 11
-1.0
 21
-0.166667
 31
0.0
  0
LINE
  5
BBED
330
BBE9
100
AcDbEntity
  8
0
  6
ByBlock
 62
     0
100
AcDbLine
 10
0.0
 20
0.0
 30
0.0
 11
-1.0
 21
0.0
 31
0.0
  0
ENDBLK
  5
BBEE
330
BBE9
100
AcDbEntity
  8
0
100
AcDbBlockEnd
  0
ENDSEC
  0
SECTION
  2
ENTITIES
  0
TEXT
  5
BBEF
330
BBD1
100
AcDbEntity
  8
7
  6
Continuous
100
AcDbText
 10
10.0
 20
18.0
 30
0.0
 40
3.0
  1
TYPE No.103S
100
AcDbText
  0
TEXT
  5
BBF0
330
BBD1
100
AcDbEntity
  8
7
  6
Continuous
100
AcDbText
 10
10.0
 20
26.0
 30
0.0
 40
3.0
  1
CODE No.9014
100
AcDbText
  0
TEXT
  5
BBF1
330
BBD1
100
AcDbEntity
  8
1
  6
Continuous
100
AcDbText
 10
10.0
 20
10.0
 30
0.0
 40
1.399999999999999
  1
LAYER
100
AcDbText
  0
TEXT
  5
BBF2
330
BBD1
100
AcDbEntity
  8
1
  6
Continuous
100
AcDbText
 10
17.97951099999998
 20
10.04873699999998
 30
0.0
 40
1.399999999999999
  1
1
100
AcDbText
  0
TEXT
  5
BBF3
330
BBD1
100
AcDbEntity
  8
7
  6
Continuous
100
AcDbText
 10
29.97951099999999
 20
10.04873699999998
 30
0.0
 40
1.399999999999999
  1
7
100
AcDbText
  0
TEXT
  5
BBF4
330
BBD1
100
AcDbEntity
  8
4
  6
CENTER
100
AcDbText
 10
23.97951099999999
 20
10.04873699999998
 30
0.0
 40
1.399999999999999
  1
4
100
AcDbText
  0
TEXT
  5
BBF5
330
BBD1
100
AcDbEntity
  8
3
  6
DASHED
100
AcDbText
 10
21.979511
 20
10.04873699999998
 30
0.0
 40
1.399999999999999
  1
3
100
AcDbText
  0
TEXT
  5
BBF6
330
BBD1
100
AcDbEntity
  8
2
  6
Continuous
100
AcDbText
 10
19.97951099999999
 20
10.04873699999998
 30
0.0
 40
1.399999999999999
  1
2
100
AcDbText
  0
TEXT
  5
BBF7
330
BBD1
100
AcDbEntity
  8
6
  6
Continuous
100
AcDbText
 10
27.979511
 20
10.04873699999998
 30
0.0
 40
1.399999999999999
  1
6
100
AcDbText
  0
TEXT
  5
BBF8
330
BBD1
100
AcDbEntity
  8
5
  6
PHANTOM
100
AcDbText
 10
25.97951099999999
 20
10.04873699999998
 30
0.0
 40
1.399999999999999
  1
5
100
AcDbText
  0
LINE
  5
BBF9
330
BBD1
100
AcDbEntity
  8
1
  6
Continuous
100
AcDbLine
 10
179.6646189999999
 20
238.217462
 30
0.0
 11
124.6646189999998
 21
238.217462
 31
0.0
  0
LINE
  5
BBFA
330
BBD1
100
AcDbEntity
  8
1
  6
Continuous
100
AcDbLine
 10
122.1646189999999
 20
240.717462
 30
0.0
 11
122.1646189999999
 21
277.717462
 31
0.0
  0
LINE
  5
BBFB
330
BBD1
100
AcDbEntity
  8
1
  6
Continuous
100
AcDbLine
 10
124.6646189999998
 20
280.217462
 30
0.0
 11
179.6646189999999
 21
280.217462
 31
0.0
  0
LINE
  5
BBFC
330
BBD1
100
AcDbEntity
  8
1
  6
Continuous
100
AcDbLine
 10
182.1646189999999
 20
277.717462
 30
0.0
 11
182.1646189999999
 21
240.717462
 31
0.0
  0
CIRCLE
  5
BBFD
330
BBD1
100
AcDbEntity
  8
1
  6
Continuous
100
AcDbCircle
 10
152.164619
 20
259.217462
 30
0.0
 40
8.5
  0
CIRCLE
  5
BBFE
330
BBD1
100
AcDbEntity
  8
1
  6
Continuous
100
AcDbCircle
 10
175.6646189999999
 20
273.717462
 30
0.0
 40
3.25
  0
CIRCLE
  5
BBFF
330
BBD1
100
AcDbEntity
  8
1
  6
Continuous
100
AcDbCircle
 10
175.6646189999999
 20
244.717462
 30
0.0
 40
3.25
  0
CIRCLE
  5
BC00
330
BBD1
100
AcDbEntity
  8
1
  6
Continuous
100
AcDbCircle
 10
128.6646189999999
 20
244.717462
 30
0.0
 40
3.25
  0
CIRCLE
  5
BC01
330
BBD1
100
AcDbEntity
  8
1
  6
Continuous
100
AcDbCircle
 10
128.6646189999999
 20
273.717462
 30
0.0
 40
3.25
  0
ARC
  5
BC02
330
BBD1
100
AcDbEntity
  8
1
  6
Continuous
100
AcDbCircle
 10
179.6646189999999
 20
277.717462
 30
0.0
 40
2.5
100
AcDbArc
 50
0.0
 51
90.0
  0
ARC
  5
BC03
330
BBD1
100
AcDbEntity
  8
1
  6
Continuous
100
AcDbCircle
 10
179.6646189999999
 20
240.717462
 30
0.0
 40
2.5
100
AcDbArc
 50
270.0
 51
0.0
  0
ARC
  5
BC04
330
BBD1
100
AcDbEntity
  8
1
  6
Continuous
100
AcDbCircle
 10
124.6646189999998
 20
277.717462
 30
0.0
 40
2.5
100
AcDbArc
 50
90.0
 51
180.0
  0
ARC
  5
BC05
330
BBD1
100
AcDbEntity
  8
1
  6
Continuous
100
AcDbCircle
 10
124.6646189999998
 20
240.717462
 30
0.0
 40
2.5
100
AcDbArc
 50
180.0
 51
270.0
  0
LINE
  5
BC06
330
BBD1
100
AcDbEntity
  8
1
  6
Continuous
100
AcDbLine
 10
263.2132029999999
 20
186.8011789999999
 30
0.0
 11
263.2132029999999
 21
166.401179
 31
0.0
  0
ARC
  5
BC07
330
BBD1
100
AcDbEntity
  8
1
  6
Continuous
100
AcDbCircle
 10
228.5132029999998
 20
186.8011789999999
 30
0.0
 40
3.0
100
AcDbArc
 50
90.0
 51
180.0
  0
ARC
  5
BC08
330
BBD1
100
AcDbEntity
  8
1
  6
Continuous
100
AcDbCircle
 10
260.2132029999999
 20
186.8011789999999
 30
0.0
 40
3.0
100
AcDbArc
 50
0.0
 51
90.0
  0
LINE
  5
BC09
330
BBD1
100
AcDbEntity
  8
1
  6
Continuous
100
AcDbLine
 10
228.1362479999998
 20
193.145533
 30
0.0
 11
260.5899609999998
 21
193.145533
 31
0.0
  0
ARC
  5
BC0A
330
BBD1
100
AcDbEntity
  8
1
  6
Continuous
100
AcDbCircle
 10
228.1362479999998
 20
196.324106
 30
0.0
 40
3.178573
100
AcDbArc
 50
236.7899089999999
 51
270.0
  0
LINE
  5
BC0B
330
BBD1
100
AcDbEntity
  8
1
  6
Continuous
100
AcDbLine
 10
224.5976069999999
 20
194.865533
 30
0.0
 11
224.4094409999999
 21
195.113571
 31
0.0
  0
LINE
  5
BC0C
330
BBD1
100
AcDbEntity
  8
1
  6
Continuous
100
AcDbLine
 10
223.3632029999998
 20
197.1135329999999
 30
0.0
 11
265.363203
 21
197.1135329999999
 31
0.0
  0
ARC
  5
BC0D
330
BBD1
100
AcDbEntity
  8
1
  6
Continuous
100
AcDbCircle
 10
290.1340339999998
 20
291.0302449999999
 30
0.0
 40
116.3729999999999
100
AcDbArc
 50
235.7254979999999
 51
236.7899089999999
  0
ARC
  5
BC0E
330
BBD1
100
AcDbEntity
  8
1
  6
Continuous
100
AcDbCircle
 10
230.6688359999998
 20
192.7040129999998
 30
0.0
 40
2.371570999999998
100
AcDbArc
 50
188.020211
 51
218.050809
  0
ARC
  5
BC0F
330
BBD1
100
AcDbEntity
  8
1
  6
Continuous
100
AcDbCircle
 10
229.350973
 20
191.991802
 30
0.0
 40
1.098799999999998
100
AcDbArc
 50
121.214655
 51
159.693839
  0
LINE
  5
BC10
330
BBD1
100
AcDbEntity
  8
1
  6
Continuous
100
AcDbLine
 10
228.1131039999999
 20
189.801237
 30
0.0
 11
260.613104
 21
189.801043
 31
0.0
  0
LINE
  5
BC11
330
BBD1
100
AcDbEntity
  8
1
  6
Continuous
100
AcDbLine
 10
223.3632029999998
 20
195.113571
 30
0.0
 11
265.363203
 21
195.113571
 31
0.0
  0
LINE
  5
BC12
330
BBD1
100
AcDbEntity
  8
1
  6
Continuous
100
AcDbLine
 10
260.613104
 20
191.2421929999999
 30
0.0
 11
228.1131039999999
 21
191.242273
 31
0.0
  0
LINE
  5
BC13
330
BBD1
100
AcDbEntity
  8
1
  6
Continuous
100
AcDbLine
 10
228.1131039999999
 20
191.242233
 30
0.0
 11
228.1131039999999
 21
189.801237
 31
0.0
  0
LINE
  5
BC14
330
BBD1
100
AcDbEntity
  8
1
  6
Continuous
100
AcDbLine
 10
228.781524
 20
192.93153
 30
0.0
 11
229.1346809999998
 21
193.145533
 31
0.0
  0
ARC
  5
BC15
330
BBD1
100
AcDbEntity
  8
1
  6
Continuous
100
AcDbCircle
 10
260.5899609999998
 20
196.324106
 30
0.0
 40
3.178573
100
AcDbArc
 50
270.0
 51
303.210091
  0
LINE
  5
BC16
330
BBD1
100
AcDbEntity
  8
1
  6
Continuous
100
AcDbLine
 10
264.1286009999999
 20
194.865533
 30
0.0
 11
264.316768
 21
195.113571
 31
0.0
  0
ARC
  5
BC17
330
BBD1
100
AcDbEntity
  8
1
  6
Continuous
100
AcDbCircle
 10
198.592174
 20
291.0302449999999
 30
0.0
 40
116.3729999999999
100
AcDbArc
 50
303.210091
 51
304.2745019999999
  0
ARC
  5
BC18
330
BBD1
100
AcDbEntity
  8
1
  6
Continuous
100
AcDbCircle
 10
258.0573719999999
 20
192.7040129999998
 30
0.0
 40
2.371570999999998
100
AcDbArc
 50
321.9491909999999
 51
351.9797889999999
  0
ARC
  5
BC19
330
BBD1
100
AcDbEntity
  8
1
  6
Continuous
100
AcDbCircle
 10
259.3752359999999
 20
191.991802
 30
0.0
 40
1.098799999999998
100
AcDbArc
 50
20.306161
 51
58.785345
  0
LINE
  5
BC1A
330
BBD1
100
AcDbEntity
  8
1
  6
Continuous
100
AcDbLine
 10
260.613104
 20
191.242233
 30
0.0
 11
260.613104
 21
189.801237
 31
0.0
  0
LINE
  5
BC1B
330
BBD1
100
AcDbEntity
  8
1
  6
Continuous
100
AcDbLine
 10
259.944684
 20
192.93153
 30
0.0
 11
259.5915279999999
 21
193.145533
 31
0.0
  0
LINE
  5
BC1C
330
BBD1
100
AcDbEntity
  8
1
  6
Continuous
100
AcDbLine
 10
223.3632029999998
 20
197.1135329999999
 30
0.0
 11
223.3632029999998
 21
195.113571
 31
0.0
  0
LINE
  5
BC1D
330
BBD1
100
AcDbEntity
  8
1
  6
Continuous
100
AcDbLine
 10
265.363203
 20
197.1135329999999
 30
0.0
 11
265.363203
 21
195.113571
 31
0.0
  0
LINE
  5
BC1E
330
BBD1
100
AcDbEntity
  8
1
  6
Continuous
100
AcDbLine
 10
231.1158789999999
 20
183.097428
 30
0.0
 11
257.6105279999998
 21
183.097428
 31
0.0
  0
ARC
  5
BC1F
330
BBD1
100
AcDbEntity
  8
1
  6
Continuous
100
AcDbCircle
 10
257.6105279999998
 20
179.1487379999999
 30
0.0
 40
3.94869
100
AcDbArc
 50
33.136856
 51
90.0
  0
ARC
  5
BC20
330
BBD1
100
AcDbEntity
  8
1
  6
Continuous
100
AcDbCircle
 10
249.094448
 20
173.5893659999999
 30
0.0
 40
14.11875499999999
100
AcDbArc
 50
0.0
 51
33.136856
  0
ARC
  5
BC21
330
BBD1
100
AcDbEntity
  8
1
  6
Continuous
100
AcDbCircle
 10
247.9536839999999
 20
173.5058109999999
 30
0.0
 40
13.262575
100
AcDbArc
 50
4.189117999999997
 51
46.32007700000001
  0
ARC
  5
BC22
330
BBD1
100
AcDbEntity
  8
1
  6
Continuous
100
AcDbCircle
 10
231.1158789999999
 20
179.1487379999999
 30
0.0
 40
3.94869
100
AcDbArc
 50
90.0
 51
146.863144
  0
ARC
  5
BC23
330
BBD1
100
AcDbEntity
  8
1
  6
Continuous
100
AcDbCircle
 10
239.631959
 20
173.5893659999999
 30
0.0
 40
14.11875499999999
100
AcDbArc
 50
146.863144
 51
180.0
  0
LINE
  5
BC24
330
BBD1
100
AcDbEntity
  8
1
  6
Continuous
100
AcDbLine
 10
234.3632029999999
 20
179.5167409999999
 30
0.0
 11
234.3632029999999
 21
134.709334
 31
0.0
  0
LINE
  5
BC25
330
BBD1
100
AcDbEntity
  8
1
  6
Continuous
100
AcDbLine
 10
232.8632029999999
 20
165.613038
 30
0.0
 11
232.8632029999999
 21
148.6130379999998
 31
0.0
  0
LINE
  5
BC26
330
BBD1
100
AcDbEntity
  8
1
  6
Continuous
100
AcDbLine
 10
232.8632029999999
 20
165.613038
 30
0.0
 11
234.3632029999999
 21
165.613038
 31
0.0
  0
ARC
  5
BC27
330
BBD1
100
AcDbEntity
  8
1
  6
Continuous
100
AcDbCircle
 10
244.3632029999999
 20
147.1130379999999
 30
0.0
 40
35.0
100
AcDbArc
 50
75.30157599999999
 51
104.698424
  0
ARC
  5
BC28
330
BBD1
100
AcDbEntity
  8
1
  6
Continuous
100
AcDbCircle
 10
235.8632029999998
 20
179.5167409999999
 30
0.0
 40
1.5
100
AcDbArc
 50
104.698424
 51
180.0
  0
LINE
  5
BC29
330
BBD1
100
AcDbEntity
  8
1
  6
Continuous
100
AcDbLine
 10
254.3632029999999
 20
179.5167409999999
 30
0.0
 11
254.3632029999999
 21
134.709334
 31
0.0
  0
LINE
  5
BC2A
330
BBD1
100
AcDbEntity
  8
1
  6
Continuous
100
AcDbLine
 10
255.8632029999999
 20
165.613038
 30
0.0
 11
254.3632029999999
 21
165.613038
 31
0.0
  0
ARC
  5
BC2B
330
BBD1
100
AcDbEntity
  8
1
  6
Continuous
100
AcDbCircle
 10
252.8632029999999
 20
179.5167409999999
 30
0.0
 40
1.5
100
AcDbArc
 50
0.0
 51
75.30157599999999
  0
LINE
  5
BC2C
330
BBD1
100
AcDbEntity
  8
1
  6
Continuous
100
AcDbLine
 10
232.8632029999999
 20
148.6130379999998
 30
0.0
 11
234.3632029999999
 21
148.6130379999998
 31
0.0
  0
ARC
  5
BC2D
330
BBD1
100
AcDbEntity
  8
1
  6
Continuous
100
AcDbCircle
 10
244.3632029999999
 20
167.1130379999999
 30
0.0
 40
35.0
100
AcDbArc
 50
255.301576
 51
284.6984239999999
  0
ARC
  5
BC2E
330
BBD1
100
AcDbEntity
  8
1
  6
Continuous
100
AcDbCircle
 10
235.8632029999998
 20
134.709334
 30
0.0
 40
1.5
100
AcDbArc
 50
180.0
 51
255.301576
  0
LINE
  5
BC2F
330
BBD1
100
AcDbEntity
  8
1
  6
Continuous
100
AcDbLine
 10
255.8632029999999
 20
148.6130379999998
 30
0.0
 11
254.3632029999999
 21
148.6130379999998
 31
0.0
  0
ARC
  5
BC30
330
BBD1
100
AcDbEntity
  8
1
  6
Continuous
100
AcDbCircle
 10
252.8632029999999
 20
134.709334
 30
0.0
 40
1.5
100
AcDbArc
 50
284.6984239999999
 51
0.0
  0
LINE
  5
BC31
330
BBD1
100
AcDbEntity
  8
1
  6
Continuous
100
AcDbLine
 10
255.8632029999999
 20
165.613038
 30
0.0
 11
255.8632029999999
 21
148.6130379999998
 31
0.0
  0
LINE
  5
BC32
330
BBD1
100
AcDbEntity
  8
1
  6
Continuous
100
AcDbLine
 10
110.760923
 20
249.217462
 30
0.0
 11
122.1646189999999
 21
249.217462
 31
0.0
  0
ARC
  5
BC33
330
BBD1
100
AcDbEntity
  8
1
  6
Continuous
100
AcDbCircle
 10
143.1646259999999
 20
259.217462
 30
0.0
 40
35.0
100
AcDbArc
 50
165.301576
 51
194.698424
  0
ARC
  5
BC34
330
BBD1
100
AcDbEntity
  8
1
  6
Continuous
100
AcDbCircle
 10
110.760923
 20
250.717462
 30
0.0
 40
1.5
100
AcDbArc
 50
194.698424
 51
270.0
  0
LINE
  5
BC35
330
BBD1
100
AcDbEntity
  8
1
  6
Continuous
100
AcDbLine
 10
110.760923
 20
269.217462
 30
0.0
 11
122.1646189999999
 21
269.217462
 31
0.0
  0
ARC
  5
BC36
330
BBD1
100
AcDbEntity
  8
1
  6
Continuous
100
AcDbCircle
 10
110.760923
 20
267.717462
 30
0.0
 40
1.5
100
AcDbArc
 50
90.0
 51
165.301576
  0
CIRCLE
  5
BC37
330
BBD1
100
AcDbEntity
  8
1
  6
Continuous
100
AcDbCircle
 10
152.164619
 20
259.217462
 30
0.0
 40
16.89999999999999
  0
CIRCLE
  5
BC38
330
BBD1
100
AcDbEntity
  8
1
  6
Continuous
100
AcDbCircle
 10
152.164619
 20
259.217462
 30
0.0
 40
15.25
  0
LINE
  5
BC39
330
BBD1
100
AcDbEntity
  8
1
  6
Continuous
100
AcDbLine
 10
255.8632029999999
 20
160.1130379999998
 30
0.0
 11
256.8632029999998
 21
160.1130379999998
 31
0.0
  0
LINE
  5
BC3A
330
BBD1
100
AcDbEntity
  8
1
  6
Continuous
100
AcDbLine
 10
255.8632029999999
 20
154.113038
 30
0.0
 11
256.8632029999998
 21
154.113038
 31
0.0
  0
LINE
  5
BC3B
330
BBD1
100
AcDbEntity
  8
1
  6
Continuous
100
AcDbLine
 10
229.1131029999998
 20
191.242233
 30
0.0
 11
228.1131039999999
 21
190.2422349999999
 31
0.0
  0
LINE
  5
BC3C
330
BBD1
100
AcDbEntity
  8
1
  6
Continuous
100
AcDbLine
 10
230.527316
 20
191.242233
 30
0.0
 11
228.52732
 21
189.801237
 31
0.0
  0
LINE
  5
BC3D
330
BBD1
100
AcDbEntity
  8
1
  6
Continuous
100
AcDbLine
 10
231.9415299999998
 20
191.242233
 30
0.0
 11
229.9415329999999
 21
189.801237
 31
0.0
  0
LINE
  5
BC3E
330
BBD1
100
AcDbEntity
  8
1
  6
Continuous
100
AcDbLine
 10
233.3557429999999
 20
191.242233
 30
0.0
 11
231.355747
 21
189.801237
 31
0.0
  0
LINE
  5
BC3F
330
BBD1
100
AcDbEntity
  8
1
  6
Continuous
100
AcDbLine
 10
234.7699569999999
 20
191.242233
 30
0.0
 11
232.7699599999998
 21
189.801237
 31
0.0
  0
LINE
  5
BC40
330
BBD1
100
AcDbEntity
  8
1
  6
Continuous
100
AcDbLine
 10
236.1841699999999
 20
191.242233
 30
0.0
 11
234.184174
 21
189.801237
 31
0.0
  0
LINE
  5
BC41
330
BBD1
100
AcDbEntity
  8
1
  6
Continuous
100
AcDbLine
 10
237.5983839999999
 20
191.242233
 30
0.0
 11
235.598387
 21
189.801237
 31
0.0
  0
LINE
  5
BC42
330
BBD1
100
AcDbEntity
  8
1
  6
Continuous
100
AcDbLine
 10
239.012597
 20
191.242233
 30
0.0
 11
237.0126009999999
 21
189.801237
 31
0.0
  0
LINE
  5
BC43
330
BBD1
100
AcDbEntity
  8
1
  6
Continuous
100
AcDbLine
 10
240.4268109999999
 20
191.242233
 30
0.0
 11
238.426815
 21
189.801237
 31
0.0
  0
LINE
  5
BC44
330
BBD1
100
AcDbEntity
  8
1
  6
Continuous
100
AcDbLine
 10
241.8410249999999
 20
191.242233
 30
0.0
 11
239.8410279999999
 21
189.801237
 31
0.0
  0
LINE
  5
BC45
330
BBD1
100
AcDbEntity
  8
1
  6
Continuous
100
AcDbLine
 10
243.255238
 20
191.242233
 30
0.0
 11
241.2552419999999
 21
189.801237
 31
0.0
  0
LINE
  5
BC46
330
BBD1
100
AcDbEntity
  8
1
  6
Continuous
100
AcDbLine
 10
244.669452
 20
191.242233
 30
0.0
 11
242.6694549999999
 21
189.801237
 31
0.0
  0
LINE
  5
BC47
330
BBD1
100
AcDbEntity
  8
1
  6
Continuous
100
AcDbLine
 10
246.083665
 20
191.242233
 30
0.0
 11
244.0836689999999
 21
189.801237
 31
0.0
  0
LINE
  5
BC48
330
BBD1
100
AcDbEntity
  8
1
  6
Continuous
100
AcDbLine
 10
247.497879
 20
191.242233
 30
0.0
 11
245.497882
 21
189.801237
 31
0.0
  0
LINE
  5
BC49
330
BBD1
100
AcDbEntity
  8
1
  6
Continuous
100
AcDbLine
 10
248.9120919999999
 20
191.242233
 30
0.0
 11
246.912096
 21
189.801237
 31
0.0
  0
LINE
  5
BC4A
330
BBD1
100
AcDbEntity
  8
1
  6
Continuous
100
AcDbLine
 10
250.326306
 20
191.242233
 30
0.0
 11
248.32631
 21
189.801237
 31
0.0
  0
LINE
  5
BC4B
330
BBD1
100
AcDbEntity
  8
1
  6
Continuous
100
AcDbLine
 10
251.74052
 20
191.242233
 30
0.0
 11
249.740523
 21
189.801237
 31
0.0
  0
LINE
  5
BC4C
330
BBD1
100
AcDbEntity
  8
1
  6
Continuous
100
AcDbLine
 10
253.1547329999999
 20
191.242233
 30
0.0
 11
251.154737
 21
189.801237
 31
0.0
  0
LINE
  5
BC4D
330
BBD1
100
AcDbEntity
  8
1
  6
Continuous
100
AcDbLine
 10
254.568947
 20
191.242233
 30
0.0
 11
252.5689499999999
 21
189.801237
 31
0.0
  0
LINE
  5
BC4E
330
BBD1
100
AcDbEntity
  8
1
  6
Continuous
100
AcDbLine
 10
255.9831599999998
 20
191.242233
 30
0.0
 11
253.983164
 21
189.801237
 31
0.0
  0
LINE
  5
BC4F
330
BBD1
100
AcDbEntity
  8
1
  6
Continuous
100
AcDbLine
 10
257.397374
 20
191.242233
 30
0.0
 11
255.397377
 21
189.801237
 31
0.0
  0
LINE
  5
BC50
330
BBD1
100
AcDbEntity
  8
1
  6
Continuous
100
AcDbLine
 10
258.8115869999999
 20
191.242233
 30
0.0
 11
256.811591
 21
189.801237
 31
0.0
  0
LINE
  5
BC51
330
BBD1
100
AcDbEntity
  8
1
  6
Continuous
100
AcDbLine
 10
260.2258009999999
 20
191.242233
 30
0.0
 11
258.2258039999999
 21
189.801237
 31
0.0
  0
LINE
  5
BC52
330
BBD1
100
AcDbEntity
  8
1
  6
Continuous
100
AcDbLine
 10
260.613104
 20
190.215323
 30
0.0
 11
259.6400179999998
 21
189.801237
 31
0.0
  0
LINE
  5
BC53
330
BBD1
100
AcDbEntity
  8
1
  6
Continuous
100
AcDbLine
 10
229.1131029999998
 20
189.801237
 30
0.0
 11
228.1131039999999
 21
190.2422349999999
 31
0.0
  0
LINE
  5
BC54
330
BBD1
100
AcDbEntity
  8
1
  6
Continuous
100
AcDbLine
 10
229.9415329999999
 20
191.242233
 30
0.0
 11
231.9415299999998
 21
189.801237
 31
0.0
  0
LINE
  5
BC55
330
BBD1
100
AcDbEntity
  8
1
  6
Continuous
100
AcDbLine
 10
232.7699599999998
 20
191.242233
 30
0.0
 11
234.7699569999999
 21
189.801237
 31
0.0
  0
LINE
  5
BC56
330
BBD1
100
AcDbEntity
  8
1
  6
Continuous
100
AcDbLine
 10
235.598387
 20
191.242233
 30
0.0
 11
237.5983839999999
 21
189.801237
 31
0.0
  0
LINE
  5
BC57
330
BBD1
100
AcDbEntity
  8
1
  6
Continuous
100
AcDbLine
 10
238.426815
 20
191.242233
 30
0.0
 11
240.4268109999999
 21
189.801237
 31
0.0
  0
LINE
  5
BC58
330
BBD1
100
AcDbEntity
  8
1
  6
Continuous
100
AcDbLine
 10
241.2552419999999
 20
191.242233
 30
0.0
 11
243.255238
 21
189.801237
 31
0.0
  0
LINE
  5
BC59
330
BBD1
100
AcDbEntity
  8
1
  6
Continuous
100
AcDbLine
 10
244.0836689999999
 20
191.242233
 30
0.0
 11
246.083665
 21
189.801237
 31
0.0
  0
LINE
  5
BC5A
330
BBD1
100
AcDbEntity
  8
1
  6
Continuous
100
AcDbLine
 10
246.912096
 20
191.242233
 30
0.0
 11
248.9120919999999
 21
189.801237
 31
0.0
  0
LINE
  5
BC5B
330
BBD1
100
AcDbEntity
  8
1
  6
Continuous
100
AcDbLine
 10
249.740523
 20
191.242233
 30
0.0
 11
251.74052
 21
189.801237
 31
0.0
  0
LINE
  5
BC5C
330
BBD1
100
AcDbEntity
  8
1
  6
Continuous
100
AcDbLine
 10
252.5689499999999
 20
191.242233
 30
0.0
 11
254.568947
 21
189.801237
 31
0.0
  0
LINE
  5
BC5D
330
BBD1
100
AcDbEntity
  8
1
  6
Continuous
100
AcDbLine
 10
255.397377
 20
191.242233
 30
0.0
 11
257.397374
 21
189.801237
 31
0.0
  0
LINE
  5
BC5E
330
BBD1
100
AcDbEntity
  8
1
  6
Continuous
100
AcDbLine
 10
258.2258039999999
 20
191.242233
 30
0.0
 11
260.2258009999999
 21
189.801237
 31
0.0
  0
LINE
  5
BC5F
330
BBD1
100
AcDbEntity
  8
4
  6
CENTER
100
AcDbLine
 10
187.1646189999999
 20
259.217462
 30
0.0
 11
103.164626
 21
259.217462
 31
0.0
  0
LINE
  5
BC60
330
BBD1
100
AcDbEntity
  8
4
  6
CENTER
100
AcDbLine
 10
152.164619
 20
285.2174619999999
 30
0.0
 11
152.164619
 21
233.2174619999999
 31
0.0
  0
LINE
  5
BC61
330
BBD1
100
AcDbEntity
  8
4
  6
CENTER
100
AcDbLine
 10
181.9146189999999
 20
273.717462
 30
0.0
 11
169.4146189999998
 21
273.717462
 31
0.0
  0
LINE
  5
BC62
330
BBD1
100
AcDbEntity
  8
4
  6
CENTER
100
AcDbLine
 10
175.6646189999999
 20
267.467462
 30
0.0
 11
175.6646189999999
 21
279.967462
 31
0.0
  0
LINE
  5
BC63
330
BBD1
100
AcDbEntity
  8
4
  6
CENTER
100
AcDbLine
 10
181.9146189999999
 20
244.717462
 30
0.0
 11
169.4146189999998
 21
244.717462
 31
0.0
  0
LINE
  5
BC64
330
BBD1
100
AcDbEntity
  8
4
  6
CENTER
100
AcDbLine
 10
175.6646189999999
 20
238.467462
 30
0.0
 11
175.6646189999999
 21
250.967462
 31
0.0
  0
LINE
  5
BC65
330
BBD1
100
AcDbEntity
  8
4
  6
CENTER
100
AcDbLine
 10
134.9146189999999
 20
244.717462
 30
0.0
 11
122.4146189999999
 21
244.717462
 31
0.0
  0
LINE
  5
BC66
330
BBD1
100
AcDbEntity
  8
4
  6
CENTER
100
AcDbLine
 10
128.6646189999999
 20
238.467462
 30
0.0
 11
128.6646189999999
 21
250.967462
 31
0.0
  0
LINE
  5
BC67
330
BBD1
100
AcDbEntity
  8
4
  6
CENTER
100
AcDbLine
 10
134.9146189999999
 20
273.717462
 30
0.0
 11
122.4146189999999
 21
273.717462
 31
0.0
  0
LINE
  5
BC68
330
BBD1
100
AcDbEntity
  8
4
  6
CENTER
100
AcDbLine
 10
128.6646189999999
 20
267.467462
 30
0.0
 11
128.6646189999999
 21
279.967462
 31
0.0
  0
LINE
  5
BC69
330
BBD1
100
AcDbEntity
  8
4
  6
CENTER
100
AcDbLine
 10
244.3632029999999
 20
202.113537
 30
0.0
 11
244.3632029999999
 21
127.113038
 31
0.0
  0
LINE
  5
BC6A
330
BBD1
100
AcDbEntity
  8
4
  6
CENTER
100
AcDbLine
 10
215.8631629999999
 20
157.1130379999999
 30
0.0
 11
265.863443
 21
157.1130379999999
 31
0.0
  0
LINE
  5
BC6B
330
BBD1
100
AcDbEntity
  8
4
  6
CENTER
100
AcDbLine
 10
103.164626
 20
157.1132369999999
 30
0.0
 11
163.164626
 21
157.1132369999999
 31
0.0
  0
LINE
  5
BC6C
330
BBD1
100
AcDbEntity
  8
1
  6
Continuous
100
AcDbLine
 10
122.1646259999999
 20
197.113537
 30
0.0
 11
182.1646259999999
 21
197.113537
 31
0.0
  0
LINE
  5
BC6D
330
BBD1
100
AcDbEntity
  8
1
  6
Continuous
100
AcDbLine
 10
135.717126
 20
186.9818379999999
 30
0.0
 11
132.0371259999998
 21
186.938028
 31
0.0
  0
ARC
  5
BC6E
330
BBD1
100
AcDbEntity
  8
1
  6
Continuous
100
AcDbCircle
 10
197.9355559999999
 20
291.030249
 30
0.0
 40
116.3729999999999
100
AcDbArc
 50
235.7254979999999
 51
236.7899089999999
  0
LINE
  5
BC6F
330
BBD1
100
AcDbEntity
  8
1
  6
Continuous
100
AcDbLine
 10
122.1646259999999
 20
195.1135739999998
 30
0.0
 11
182.1646259999999
 21
195.1135739999998
 31
0.0
  0
ARC
  5
BC70
330
BBD1
100
AcDbEntity
  8
1
  6
Continuous
100
AcDbCircle
 10
133.5146259999999
 20
156.163237
 30
0.0
 40
7.5
100
AcDbArc
 50
221.016873
 51
277.6844179999998
  0
ARC
  5
BC71
330
BBD1
100
AcDbEntity
  8
1
  6
Continuous
100
AcDbCircle
 10
133.164626
 20
157.1132369999999
 30
0.0
 40
8.5
100
AcDbArc
 50
215.770985
 51
279.319315
  0
ARC
  5
BC72
330
BBD1
100
AcDbEntity
  8
1
  6
Continuous
100
AcDbCircle
 10
133.164626
 20
157.1132369999999
 30
0.0
 40
17.5
100
AcDbArc
 50
107.378525
 51
144.752443
  0
ARC
  5
BC73
330
BBD1
100
AcDbEntity
  8
1
  6
Continuous
100
AcDbCircle
 10
133.164626
 20
157.1132369999999
 30
0.0
 40
25.0
100
AcDbArc
 50
99.78061099999999
 51
147.9938109999999
  0
LINE
  5
BC74
330
BBD1
100
AcDbEntity
  8
1
  6
Continuous
100
AcDbLine
 10
141.0146259999999
 20
186.064782
 30
0.0
 11
141.0146259999999
 21
161.7072829999999
 31
0.0
  0
ARC
  5
BC75
330
BBD1
100
AcDbEntity
  8
1
  6
Continuous
100
AcDbCircle
 10
205.7691629999999
 20
135.989325
 30
0.0
 40
63.35981999999999
100
AcDbArc
 50
134.0470019999999
 51
143.333821
  0
LINE
  5
BC76
330
BBD1
100
AcDbEntity
  8
4
  6
CENTER
100
AcDbLine
 10
152.1646259999999
 20
202.113537
 30
0.0
 11
152.1646259999999
 21
166.57326
 31
0.0
  0
ARC
  5
BC77
330
BBD1
100
AcDbEntity
  8
1
  6
Continuous
100
AcDbCircle
 10
268.1828499999999
 20
89.52488199999995
 30
0.0
 40
141.169928
100
AcDbArc
 50
143.333821
 51
147.9917129999998
  0
ARC
  5
BC78
330
BBD1
100
AcDbEntity
  8
1
  6
Continuous
100
AcDbCircle
 10
165.5442449999999
 20
177.575123
 30
0.0
 40
5.502905999999999
100
AcDbArc
 50
90.0
 51
134.0470019999999
  0
LINE
  5
BC79
330
BBD1
100
AcDbEntity
  8
1
  6
Continuous
100
AcDbLine
 10
163.1719869999998
 20
191.2422369999999
 30
0.0
 11
165.4078309999999
 21
189.801237
 31
0.0
  0
LINE
  5
BC7A
330
BBD1
100
AcDbEntity
  8
1
  6
Continuous
100
AcDbLine
 10
182.1646259999999
 20
197.113537
 30
0.0
 11
182.1646259999999
 21
195.1135739999998
 31
0.0
  0
ARC
  5
BC7B
330
BBD1
100
AcDbEntity
  8
1
  6
Continuous
100
AcDbCircle
 10
165.858894
 20
192.7040159999999
 30
0.0
 40
2.371570999999998
100
AcDbArc
 50
321.9491909999999
 51
351.9797889999999
  0
ARC
  5
BC7C
330
BBD1
100
AcDbEntity
  8
1
  6
Continuous
100
AcDbCircle
 10
167.176758
 20
191.9918049999999
 30
0.0
 40
1.098799999999998
100
AcDbArc
 50
20.306161
 51
58.785345
  0
LINE
  5
BC7D
330
BBD1
100
AcDbEntity
  8
1
  6
Continuous
100
AcDbLine
 10
169.3501259999998
 20
183.018028
 30
0.0
 11
169.127126
 21
183.0780279999999
 31
0.0
  0
LINE
  5
BC7E
330
BBD1
100
AcDbEntity
  8
1
  6
Continuous
100
AcDbLine
 10
169.127126
 20
183.0780279999999
 30
0.0
 11
165.5442449999999
 21
183.0780279999999
 31
0.0
  0
LINE
  5
BC7F
330
BBD1
100
AcDbEntity
  8
1
  6
Continuous
100
AcDbLine
 10
168.414626
 20
191.2422369999999
 30
0.0
 11
168.414626
 21
189.95324
 31
0.0
  0
LINE
  5
BC80
330
BBD1
100
AcDbEntity
  8
1
  6
Continuous
100
AcDbLine
 10
167.746206
 20
192.931534
 30
0.0
 11
167.393049
 21
193.1455369999999
 31
0.0
  0
LINE
  5
BC81
330
BBD1
100
AcDbEntity
  8
1
  6
Continuous
100
AcDbLine
 10
168.414626
 20
191.2422369999999
 30
0.0
 11
168.414626
 21
189.801237
 31
0.0
  0
LINE
  5
BC82
330
BBD1
100
AcDbEntity
  8
1
  6
Continuous
100
AcDbLine
 10
167.4146279999999
 20
191.2422369999999
 30
0.0
 11
168.414626
 21
190.2422389999999
 31
0.0
  0
LINE
  5
BC83
330
BBD1
100
AcDbEntity
  8
1
  6
Continuous
100
AcDbLine
 10
166.0004139999998
 20
191.2422369999999
 30
0.0
 11
168.2362579999999
 21
189.801237
 31
0.0
  0
LINE
  5
BC84
330
BBD1
100
AcDbEntity
  8
1
  6
Continuous
100
AcDbLine
 10
164.5862009999999
 20
191.2422369999999
 30
0.0
 11
166.8220439999998
 21
189.801237
 31
0.0
  0
LINE
  5
BC85
330
BBD1
100
AcDbEntity
  8
1
  6
Continuous
100
AcDbLine
 10
166.888666
 20
189.801237
 30
0.0
 11
168.414626
 21
190.2422389999999
 31
0.0
  0
LINE
  5
BC86
330
BBD1
100
AcDbEntity
  8
1
  6
Continuous
100
AcDbLine
 10
166.5861969999999
 20
191.2422369999999
 30
0.0
 11
164.350355
 21
189.801237
 31
0.0
  0
LINE
  5
BC87
330
BBD1
100
AcDbEntity
  8
1
  6
Continuous
100
AcDbLine
 10
171.930123
 20
194.8655369999999
 30
0.0
 11
172.11829
 21
195.1135739999998
 31
0.0
  0
ARC
  5
BC88
330
BBD1
100
AcDbEntity
  8
1
  6
Continuous
100
AcDbCircle
 10
106.3936959999999
 20
291.030249
 30
0.0
 40
116.3729999999999
100
AcDbArc
 50
303.210091
 51
304.2745019999999
  0
LINE
  5
BC89
330
BBD1
100
AcDbEntity
  8
1
  6
Continuous
100
AcDbLine
 10
170.764126
 20
183.105367
 30
0.0
 11
170.015126
 21
183.063028
 31
0.0
  0
ARC
  5
BC8A
330
BBD1
100
AcDbEntity
  8
1
  6
Continuous
100
AcDbCircle
 10
168.391482
 20
196.3241099999999
 30
0.0
 40
3.178573
100
AcDbArc
 50
270.0
 51
303.210091
  0
ARC
  5
BC8B
330
BBD1
100
AcDbEntity
  8
1
  6
Continuous
100
AcDbCircle
 10
167.9451409999998
 20
187.2199979999998
 30
0.0
 40
2.732905
100
AcDbArc
 50
0.0
 51
70.822161
  0
LINE
  5
BC8C
330
BBD1
100
AcDbEntity
  8
1
  6
Continuous
100
AcDbLine
 10
170.015126
 20
183.063028
 30
0.0
 11
169.3501259999998
 21
183.018028
 31
0.0
  0
LINE
  5
BC8D
330
BBD1
100
AcDbEntity
  8
1
  6
Continuous
100
AcDbLine
 10
147.6156379999999
 20
191.2422369999999
 30
0.0
 11
149.851481
 21
189.801237
 31
0.0
  0
LINE
  5
BC8E
330
BBD1
100
AcDbEntity
  8
1
  6
Continuous
100
AcDbLine
 10
149.6156339999998
 20
191.2422369999999
 30
0.0
 11
147.3797919999998
 21
189.801237
 31
0.0
  0
LINE
  5
BC8F
330
BBD1
100
AcDbEntity
  8
1
  6
Continuous
100
AcDbLine
 10
135.93777
 20
193.1455369999999
 30
0.0
 11
168.391482
 21
193.1455369999999
 31
0.0
  0
LINE
  5
BC90
330
BBD1
100
AcDbEntity
  8
1
  6
Continuous
100
AcDbLine
 10
168.414626
 20
191.2421979999998
 30
0.0
 11
135.9146259999999
 21
191.242276
 31
0.0
  0
LINE
  5
BC91
330
BBD1
100
AcDbEntity
  8
1
  6
Continuous
100
AcDbLine
 10
151.858279
 20
191.2422369999999
 30
0.0
 11
154.094122
 21
189.801237
 31
0.0
  0
LINE
  5
BC92
330
BBD1
100
AcDbEntity
  8
1
  6
Continuous
100
AcDbLine
 10
150.444065
 20
191.2422369999999
 30
0.0
 11
152.679908
 21
189.801237
 31
0.0
  0
LINE
  5
BC93
330
BBD1
100
AcDbEntity
  8
1
  6
Continuous
100
AcDbLine
 10
149.029852
 20
191.2422369999999
 30
0.0
 11
151.265695
 21
189.801237
 31
0.0
  0
LINE
  5
BC94
330
BBD1
100
AcDbEntity
  8
1
  6
Continuous
100
AcDbLine
 10
152.444061
 20
191.2422369999999
 30
0.0
 11
150.2082189999998
 21
189.801237
 31
0.0
  0
LINE
  5
BC95
330
BBD1
100
AcDbEntity
  8
1
  6
Continuous
100
AcDbLine
 10
161.757774
 20
191.2422369999999
 30
0.0
 11
163.993617
 21
189.801237
 31
0.0
  0
LINE
  5
BC96
330
BBD1
100
AcDbEntity
  8
1
  6
Continuous
100
AcDbLine
 10
160.34356
 20
191.2422369999999
 30
0.0
 11
162.579403
 21
189.801237
 31
0.0
  0
LINE
  5
BC97
330
BBD1
100
AcDbEntity
  8
1
  6
Continuous
100
AcDbLine
 10
158.929346
 20
191.2422369999999
 30
0.0
 11
161.16519
 21
189.801237
 31
0.0
  0
LINE
  5
BC98
330
BBD1
100
AcDbEntity
  8
1
  6
Continuous
100
AcDbLine
 10
157.5151329999999
 20
191.2422369999999
 30
0.0
 11
159.750976
 21
189.801237
 31
0.0
  0
LINE
  5
BC99
330
BBD1
100
AcDbEntity
  8
1
  6
Continuous
100
AcDbLine
 10
156.100919
 20
191.2422369999999
 30
0.0
 11
158.3367629999998
 21
189.801237
 31
0.0
  0
LINE
  5
BC9A
330
BBD1
100
AcDbEntity
  8
1
  6
Continuous
100
AcDbLine
 10
154.6867059999999
 20
191.2422369999999
 30
0.0
 11
156.922549
 21
189.801237
 31
0.0
  0
LINE
  5
BC9B
330
BBD1
100
AcDbEntity
  8
1
  6
Continuous
100
AcDbLine
 10
163.75777
 20
191.2422369999999
 30
0.0
 11
161.5219279999998
 21
189.801237
 31
0.0
  0
LINE
  5
BC9C
330
BBD1
100
AcDbEntity
  8
1
  6
Continuous
100
AcDbLine
 10
160.9293429999999
 20
191.2422369999999
 30
0.0
 11
158.6934999999998
 21
189.801237
 31
0.0
  0
LINE
  5
BC9D
330
BBD1
100
AcDbEntity
  8
1
  6
Continuous
100
AcDbLine
 10
158.1009159999998
 20
191.2422369999999
 30
0.0
 11
155.865073
 21
189.801237
 31
0.0
  0
LINE
  5
BC9E
330
BBD1
100
AcDbEntity
  8
1
  6
Continuous
100
AcDbLine
 10
153.2724919999998
 20
191.2422369999999
 30
0.0
 11
155.508336
 21
189.801237
 31
0.0
  0
LINE
  5
BC9F
330
BBD1
100
AcDbEntity
  8
1
  6
Continuous
100
AcDbLine
 10
155.2724889999998
 20
191.2422369999999
 30
0.0
 11
153.0366459999999
 21
189.801237
 31
0.0
  0
ARC
  5
BCA0
330
BBD1
100
AcDbEntity
  8
1
  6
Continuous
100
AcDbCircle
 10
136.8794169999999
 20
186.686869
 30
0.0
 40
3.266183999999998
100
AcDbArc
 50
107.537707
 51
141.743298
  0
ARC
  5
BCA1
330
BBD1
100
AcDbEntity
  8
1
  6
Continuous
100
AcDbCircle
 10
137.810311
 20
185.9528349999999
 30
0.0
 40
4.451666999999998
100
AcDbArc
 50
141.743298
 51
156.849068
  0
LINE
  5
BCA2
330
BBD1
100
AcDbEntity
  8
1
  6
Continuous
100
AcDbLine
 10
133.717126
 20
187.7030279999999
 30
0.0
 11
133.5721259999999
 21
187.2680279999999
 31
0.0
  0
LINE
  5
BCA3
330
BBD1
100
AcDbEntity
  8
1
  6
Continuous
100
AcDbLine
 10
133.5721259999999
 20
187.2680279999999
 30
0.0
 11
133.232126
 21
187.068028
 31
0.0
  0
LINE
  5
BCA4
330
BBD1
100
AcDbEntity
  8
1
  6
Continuous
100
AcDbLine
 10
133.232126
 20
187.068028
 30
0.0
 11
133.062126
 21
186.983028
 31
0.0
  0
LINE
  5
BCA5
330
BBD1
100
AcDbEntity
  8
1
  6
Continuous
100
AcDbLine
 10
133.062126
 20
186.983028
 30
0.0
 11
132.877126
 21
186.9480279999999
 31
0.0
  0
ARC
  5
BCA6
330
BBD1
100
AcDbEntity
  8
1
  6
Continuous
100
AcDbCircle
 10
135.93777
 20
196.3241099999999
 30
0.0
 40
3.178573
100
AcDbArc
 50
236.7899089999999
 51
270.0
  0
ARC
  5
BCA7
330
BBD1
100
AcDbEntity
  8
1
  6
Continuous
100
AcDbCircle
 10
138.470358
 20
192.7040159999999
 30
0.0
 40
2.371570999999998
100
AcDbArc
 50
188.020211
 51
218.050809
  0
ARC
  5
BCA8
330
BBD1
100
AcDbEntity
  8
1
  6
Continuous
100
AcDbCircle
 10
137.152494
 20
191.9918049999999
 30
0.0
 40
1.098799999999998
100
AcDbArc
 50
121.214655
 51
159.693839
  0
LINE
  5
BCA9
330
BBD1
100
AcDbEntity
  8
1
  6
Continuous
100
AcDbLine
 10
135.9146259999999
 20
191.2422369999999
 30
0.0
 11
135.9146259999999
 21
189.95324
 31
0.0
  0
LINE
  5
BCAA
330
BBD1
100
AcDbEntity
  8
1
  6
Continuous
100
AcDbLine
 10
136.5830459999999
 20
192.931534
 30
0.0
 11
136.936203
 21
193.1455369999999
 31
0.0
  0
ARC
  5
BCAB
330
BBD1
100
AcDbEntity
  8
1
  6
Continuous
100
AcDbCircle
 10
135.6928139999999
 20
189.0240619999999
 30
0.0
 40
2.042368999999998
100
AcDbArc
 50
270.6820599999999
 51
340.178191
  0
LINE
  5
BCAC
330
BBD1
100
AcDbEntity
  8
1
  6
Continuous
100
AcDbLine
 10
135.9146259999999
 20
191.2422369999999
 30
0.0
 11
135.9146259999999
 21
189.801237
 31
0.0
  0
LINE
  5
BCAD
330
BBD1
100
AcDbEntity
  8
1
  6
Continuous
100
AcDbLine
 10
135.9146259999999
 20
190.215327
 30
0.0
 11
137.452075
 21
189.801237
 31
0.0
  0
LINE
  5
BCAE
330
BBD1
100
AcDbEntity
  8
1
  6
Continuous
100
AcDbLine
 10
146.201424
 20
191.2422369999999
 30
0.0
 11
148.4372679999999
 21
189.801237
 31
0.0
  0
LINE
  5
BCAF
330
BBD1
100
AcDbEntity
  8
1
  6
Continuous
100
AcDbLine
 10
144.787211
 20
191.2422369999999
 30
0.0
 11
147.023054
 21
189.801237
 31
0.0
  0
LINE
  5
BCB0
330
BBD1
100
AcDbEntity
  8
1
  6
Continuous
100
AcDbLine
 10
143.3729969999999
 20
191.2422369999999
 30
0.0
 11
145.6088409999999
 21
189.801237
 31
0.0
  0
LINE
  5
BCB1
330
BBD1
100
AcDbEntity
  8
1
  6
Continuous
100
AcDbLine
 10
141.958784
 20
191.2422369999999
 30
0.0
 11
144.194627
 21
189.801237
 31
0.0
  0
LINE
  5
BCB2
330
BBD1
100
AcDbEntity
  8
1
  6
Continuous
100
AcDbLine
 10
140.54457
 20
191.2422369999999
 30
0.0
 11
142.7804139999998
 21
189.801237
 31
0.0
  0
LINE
  5
BCB3
330
BBD1
100
AcDbEntity
  8
1
  6
Continuous
100
AcDbLine
 10
139.130357
 20
191.2422369999999
 30
0.0
 11
141.3661999999999
 21
189.801237
 31
0.0
  0
LINE
  5
BCB4
330
BBD1
100
AcDbEntity
  8
1
  6
Continuous
100
AcDbLine
 10
146.787207
 20
191.2422369999999
 30
0.0
 11
144.551365
 21
189.801237
 31
0.0
  0
LINE
  5
BCB5
330
BBD1
100
AcDbEntity
  8
1
  6
Continuous
100
AcDbLine
 10
143.9587799999999
 20
191.2422369999999
 30
0.0
 11
141.722938
 21
189.801237
 31
0.0
  0
LINE
  5
BCB6
330
BBD1
100
AcDbEntity
  8
1
  6
Continuous
100
AcDbLine
 10
141.130353
 20
191.2422369999999
 30
0.0
 11
138.8945109999999
 21
189.801237
 31
0.0
  0
LINE
  5
BCB7
330
BBD1
100
AcDbEntity
  8
1
  6
Continuous
100
AcDbLine
 10
137.7161429999999
 20
191.2422369999999
 30
0.0
 11
139.951986
 21
189.801237
 31
0.0
  0
LINE
  5
BCB8
330
BBD1
100
AcDbEntity
  8
1
  6
Continuous
100
AcDbLine
 10
136.3019289999998
 20
191.2422369999999
 30
0.0
 11
138.5377729999998
 21
189.801237
 31
0.0
  0
LINE
  5
BCB9
330
BBD1
100
AcDbEntity
  8
1
  6
Continuous
100
AcDbLine
 10
138.301926
 20
191.2422369999999
 30
0.0
 11
136.066083
 21
189.801237
 31
0.0
  0
LINE
  5
BCBA
330
BBD1
100
AcDbEntity
  8
1
  6
Continuous
100
AcDbLine
 10
130.877126
 20
186.928028
 30
0.0
 11
127.658798
 21
186.992395
 31
0.0
  0
LINE
  5
BCBB
330
BBD1
100
AcDbEntity
  8
1
  6
Continuous
100
AcDbLine
 10
132.0371259999998
 20
186.938028
 30
0.0
 11
131.442126
 21
186.9180279999999
 31
0.0
  0
LINE
  5
BCBC
330
BBD1
100
AcDbEntity
  8
1
  6
Continuous
100
AcDbLine
 10
131.442126
 20
186.9180279999999
 30
0.0
 11
130.877126
 21
186.928028
 31
0.0
  0
ARC
  5
BCBD
330
BBD1
100
AcDbEntity
  8
1
  6
Continuous
100
AcDbCircle
 10
127.631779
 20
185.6414879999999
 30
0.0
 40
1.351175999999999
100
AcDbArc
 50
88.85423700000002
 51
129.236686
  0
LINE
  5
BCBE
330
BBD1
100
AcDbEntity
  8
1
  6
Continuous
100
AcDbLine
 10
129.217126
 20
184.961041
 30
0.0
 11
126.9481689999998
 21
184.9947979999998
 31
0.0
  0
LINE
  5
BCBF
330
BBD1
100
AcDbEntity
  8
1
  6
Continuous
100
AcDbLine
 10
126.7771259999999
 20
186.688028
 30
0.0
 11
126.717126
 21
185.773028
 31
0.0
  0
LINE
  5
BCC0
330
BBD1
100
AcDbEntity
  8
1
  6
Continuous
100
AcDbLine
 10
126.717126
 20
185.773028
 30
0.0
 11
126.717126
 21
185.088028
 31
0.0
  0
ARC
  5
BCC1
330
BBD1
100
AcDbEntity
  8
1
  6
Continuous
100
AcDbCircle
 10
126.953311
 20
185.340442
 30
0.0
 40
0.345682
100
AcDbArc
 50
226.9023309999998
 51
269.1476279999998
  0
LINE
  5
BCC2
330
BBD1
100
AcDbEntity
  8
1
  6
Continuous
100
AcDbLine
 10
132.3991289999999
 20
194.8655369999999
 30
0.0
 11
132.2109619999999
 21
195.1135739999998
 31
0.0
  0
LINE
  5
BCC3
330
BBD1
100
AcDbEntity
  8
1
  6
Continuous
100
AcDbLine
 10
122.1646259999999
 20
197.113537
 30
0.0
 11
122.1646259999999
 21
195.1135739999998
 31
0.0
  0
LINE
  5
BCC4
330
BBD1
100
AcDbEntity
  8
1
  6
Continuous
100
AcDbLine
 10
225.5132029999999
 20
186.8011789999999
 30
0.0
 11
225.5132029999999
 21
166.401179
 31
0.0
  0
ARC
  5
BCC5
330
BBD1
100
AcDbEntity
  8
1
  6
Continuous
100
AcDbCircle
 10
56.366049
 20
134.709334
 30
0.0
 40
1.5
100
AcDbArc
 50
284.6984239999999
 51
0.0
  0
ARC
  5
BCC6
330
BBD1
100
AcDbEntity
  8
1
  6
Continuous
100
AcDbCircle
 10
47.86604899999999
 20
167.1130379999999
 30
0.0
 40
35.0
100
AcDbArc
 50
255.301576
 51
284.6984239999999
  0
ARC
  5
BCC7
330
BBD1
100
AcDbEntity
  8
1
  6
Continuous
100
AcDbCircle
 10
39.36604899999998
 20
134.709334
 30
0.0
 40
1.5
100
AcDbArc
 50
180.0
 51
255.301576
  0
LINE
  5
BCC8
330
BBD1
100
AcDbEntity
  8
4
  6
CENTER
100
AcDbLine
 10
76.366089
 20
157.1130379999999
 30
0.0
 11
26.365809
 21
157.1130379999999
 31
0.0
  0
ARC
  5
BCC9
330
BBD1
100
AcDbEntity
  8
1
  6
Continuous
100
AcDbCircle
 10
56.366049
 20
179.5167409999999
 30
0.0
 40
1.5
100
AcDbArc
 50
0.0
 51
75.30157599999999
  0
LINE
  5
BCCA
330
BBD1
100
AcDbEntity
  8
1
  6
Continuous
100
AcDbLine
 10
57.866049
 20
179.5167409999999
 30
0.0
 11
57.866049
 21
134.709334
 31
0.0
  0
LINE
  5
BCCB
330
BBD1
100
AcDbEntity
  8
1
  6
Continuous
100
AcDbLine
 10
59.36604899999998
 20
159.260796
 30
0.0
 11
59.36604899999998
 21
148.6130379999998
 31
0.0
  0
LINE
  5
BCCC
330
BBD1
100
AcDbEntity
  8
1
  6
Continuous
100
AcDbLine
 10
59.36604899999998
 20
148.6130379999998
 30
0.0
 11
57.866049
 21
148.6130379999998
 31
0.0
  0
LINE
  5
BCCD
330
BBD1
100
AcDbEntity
  8
1
  6
Continuous
100
AcDbLine
 10
60.366049
 20
154.113038
 30
0.0
 11
59.36604899999998
 21
154.113038
 31
0.0
  0
LINE
  5
BCCE
330
BBD1
100
AcDbEntity
  8
1
  6
Continuous
100
AcDbLine
 10
58.47258199999998
 20
165.613038
 30
0.0
 11
57.866049
 21
165.613038
 31
0.0
  0
ARC
  5
BCCF
330
BBD1
100
AcDbEntity
  8
1
  6
Continuous
100
AcDbCircle
 10
39.36604899999998
 20
179.5167409999999
 30
0.0
 40
1.5
100
AcDbArc
 50
104.698424
 51
180.0
  0
LINE
  5
BCD0
330
BBD1
100
AcDbEntity
  8
1
  6
Continuous
100
AcDbLine
 10
37.86604899999999
 20
179.5167409999999
 30
0.0
 11
37.86604899999999
 21
134.709334
 31
0.0
  0
LINE
  5
BCD1
330
BBD1
100
AcDbEntity
  8
1
  6
Continuous
100
AcDbLine
 10
36.366049
 20
165.613038
 30
0.0
 11
36.366049
 21
148.6130379999998
 31
0.0
  0
LINE
  5
BCD2
330
BBD1
100
AcDbEntity
  8
1
  6
Continuous
100
AcDbLine
 10
36.366049
 20
148.6130379999998
 30
0.0
 11
37.86604899999999
 21
148.6130379999998
 31
0.0
  0
LINE
  5
BCD3
330
BBD1
100
AcDbEntity
  8
1
  6
Continuous
100
AcDbLine
 10
36.366049
 20
154.113038
 30
0.0
 11
35.36604899999999
 21
154.113038
 31
0.0
  0
LINE
  5
BCD4
330
BBD1
100
AcDbEntity
  8
1
  6
Continuous
100
AcDbLine
 10
36.366049
 20
165.613038
 30
0.0
 11
37.86604899999999
 21
165.613038
 31
0.0
  0
LINE
  5
BCD5
330
BBD1
100
AcDbEntity
  8
1
  6
Continuous
100
AcDbLine
 10
36.366049
 20
160.1130379999998
 30
0.0
 11
35.36604899999999
 21
160.1130379999998
 31
0.0
  0
LINE
  5
BCD6
330
BBD1
100
AcDbEntity
  8
1
  6
Continuous
100
AcDbLine
 10
26.866049
 20
197.1135329999999
 30
0.0
 11
68.866049
 21
197.1135329999999
 31
0.0
  0
ARC
  5
BCD7
330
BBD1
100
AcDbEntity
  8
1
  6
Continuous
100
AcDbCircle
 10
47.86604899999999
 20
147.1130379999999
 30
0.0
 40
35.0
100
AcDbArc
 50
75.30157599999999
 51
104.698424
  0
LINE
  5
BCD8
330
BBD1
100
AcDbEntity
  8
4
  6
CENTER
100
AcDbLine
 10
47.86604899999999
 20
202.113537
 30
0.0
 11
47.86604899999999
 21
127.113038
 31
0.0
  0
LINE
  5
BCD9
330
BBD1
100
AcDbEntity
  8
1
  6
Continuous
100
AcDbLine
 10
31.61595
 20
189.801237
 30
0.0
 11
64.11595
 21
189.801044
 31
0.0
  0
ARC
  5
BCDA
330
BBD1
100
AcDbEntity
  8
1
  6
Continuous
100
AcDbCircle
 10
37.11580899999999
 20
183.0120179999999
 30
0.0
 40
3.75
100
AcDbArc
 50
90.0
 51
180.0
  0
LINE
  5
BCDB
330
BBD1
100
AcDbEntity
  8
1
  6
Continuous
100
AcDbLine
 10
35.444376
 20
191.242233
 30
0.0
 11
33.44437899999999
 21
189.801237
 31
0.0
  0
LINE
  5
BCDC
330
BBD1
100
AcDbEntity
  8
1
  6
Continuous
100
AcDbLine
 10
36.858589
 20
191.242233
 30
0.0
 11
34.85859299999999
 21
189.801237
 31
0.0
  0
LINE
  5
BCDD
330
BBD1
100
AcDbEntity
  8
1
  6
Continuous
100
AcDbLine
 10
33.44437899999999
 20
191.242233
 30
0.0
 11
35.444376
 21
189.801237
 31
0.0
  0
LINE
  5
BCDE
330
BBD1
100
AcDbEntity
  8
1
  6
Continuous
100
AcDbLine
 10
33.36580899999999
 20
148.6763159999999
 30
0.0
 11
35.36604899999999
 21
148.6763159999999
 31
0.0
  0
LINE
  5
BCDF
330
BBD1
100
AcDbEntity
  8
1
  6
Continuous
100
AcDbLine
 10
26.866049
 20
195.113571
 30
0.0
 11
68.866049
 21
195.113571
 31
0.0
  0
LINE
  5
BCE0
330
BBD1
100
AcDbEntity
  8
1
  6
Continuous
100
AcDbLine
 10
31.639094
 20
193.145533
 30
0.0
 11
64.092807
 21
193.145533
 31
0.0
  0
LINE
  5
BCE1
330
BBD1
100
AcDbEntity
  8
1
  6
Continuous
100
AcDbLine
 10
64.11595
 20
191.2421929999999
 30
0.0
 11
31.61595
 21
191.242273
 31
0.0
  0
ARC
  5
BCE2
330
BBD1
100
AcDbEntity
  8
1
  6
Continuous
100
AcDbCircle
 10
55.731462
 20
167.03323
 30
0.0
 40
26.722888
100
AcDbArc
 50
181.355289
 51
204.692905
  0
LINE
  5
BCE3
330
BBD1
100
AcDbEntity
  8
1
  6
Continuous
100
AcDbLine
 10
33.36580899999999
 20
183.0120179999999
 30
0.0
 11
33.36580899999999
 21
148.6763159999999
 31
0.0
  0
LINE
  5
BCE4
330
BBD1
100
AcDbEntity
  8
1
  6
Continuous
100
AcDbLine
 10
32.432493
 20
161.363038
 30
0.0
 11
32.432493
 21
152.8630379999999
 31
0.0
  0
ARC
  5
BCE5
330
BBD1
100
AcDbEntity
  8
1
  6
Continuous
100
AcDbCircle
 10
40.36580899999999
 20
157.1130379999999
 30
0.0
 40
9.0
100
AcDbArc
 50
151.821357
 51
208.178643
  0
LINE
  5
BCE6
330
BBD1
100
AcDbEntity
  8
1
  6
Continuous
100
AcDbLine
 10
33.36580899999999
 20
152.8630379999999
 30
0.0
 11
32.432493
 21
152.8630379999999
 31
0.0
  0
LINE
  5
BCE7
330
BBD1
100
AcDbEntity
  8
1
  6
Continuous
100
AcDbLine
 10
29.016049
 20
186.8011789999999
 30
0.0
 11
29.016049
 21
166.401179
 31
0.0
  0
LINE
  5
BCE8
330
BBD1
100
AcDbEntity
  8
1
  6
Continuous
100
AcDbLine
 10
33.36580899999999
 20
161.363038
 30
0.0
 11
32.432493
 21
161.363038
 31
0.0
  0
LINE
  5
BCE9
330
BBD1
100
AcDbEntity
  8
1
  6
Continuous
100
AcDbLine
 10
34.03016199999999
 20
191.242233
 30
0.0
 11
32.03016599999998
 21
189.801237
 31
0.0
  0
ARC
  5
BCEA
330
BBD1
100
AcDbEntity
  8
1
  6
Continuous
100
AcDbCircle
 10
32.23066699999999
 20
186.579094
 30
0.0
 40
3.22228
100
AcDbArc
 50
89.37084
 51
176.0479389999999
  0
LINE
  5
BCEB
330
BBD1
100
AcDbEntity
  8
1
  6
Continuous
100
AcDbLine
 10
31.61595
 20
191.242233
 30
0.0
 11
31.61595
 21
189.801237
 31
0.0
  0
LINE
  5
BCEC
330
BBD1
100
AcDbEntity
  8
1
  6
Continuous
100
AcDbLine
 10
31.61595
 20
191.242233
 30
0.0
 11
31.61595
 21
189.801237
 31
0.0
  0
LINE
  5
BCED
330
BBD1
100
AcDbEntity
  8
1
  6
Continuous
100
AcDbLine
 10
32.615949
 20
191.242233
 30
0.0
 11
31.61595
 21
190.8012349999999
 31
0.0
  0
LINE
  5
BCEE
330
BBD1
100
AcDbEntity
  8
1
  6
Continuous
100
AcDbLine
 10
32.615949
 20
189.801237
 30
0.0
 11
31.61595
 21
190.8012349999999
 31
0.0
  0
LINE
  5
BCEF
330
BBD1
100
AcDbEntity
  8
1
  6
Continuous
100
AcDbLine
 10
26.866049
 20
197.1135329999999
 30
0.0
 11
26.866049
 21
195.113571
 31
0.0
  0
LINE
  5
BCF0
330
BBD1
100
AcDbEntity
  8
1
  6
Continuous
100
AcDbLine
 10
32.28437
 20
192.93153
 30
0.0
 11
32.63752699999999
 21
193.145533
 31
0.0
  0
ARC
  5
BCF1
330
BBD1
100
AcDbEntity
  8
1
  6
Continuous
100
AcDbCircle
 10
32.853819
 20
191.991802
 30
0.0
 40
1.098799999999998
100
AcDbArc
 50
121.214655
 51
159.693839
  0
ARC
  5
BCF2
330
BBD1
100
AcDbEntity
  8
1
  6
Continuous
100
AcDbCircle
 10
34.17168199999999
 20
192.7040129999998
 30
0.0
 40
2.371570999999998
100
AcDbArc
 50
188.020211
 51
218.050809
  0
ARC
  5
BCF3
330
BBD1
100
AcDbEntity
  8
1
  6
Continuous
100
AcDbCircle
 10
93.63688000000001
 20
291.0302449999999
 30
0.0
 40
116.3729999999999
100
AcDbArc
 50
235.7254979999999
 51
236.7899089999999
  0
LINE
  5
BCF4
330
BBD1
100
AcDbEntity
  8
1
  6
Continuous
100
AcDbLine
 10
28.100453
 20
194.865533
 30
0.0
 11
27.912287
 21
195.113571
 31
0.0
  0
ARC
  5
BCF5
330
BBD1
100
AcDbEntity
  8
1
  6
Continuous
100
AcDbCircle
 10
31.639094
 20
196.324106
 30
0.0
 40
3.178573
100
AcDbArc
 50
236.7899089999999
 51
270.0
  0
ARC
  5
BCF6
330
BBD1
100
AcDbEntity
  8
1
  6
Continuous
100
AcDbCircle
 10
40.006289
 20
166.870484
 30
0.0
 40
26.713884
100
AcDbArc
 50
353.4437459999999
 51
358.9933849999999
  0
LINE
  5
BCF7
330
BBD1
100
AcDbEntity
  8
1
  6
Continuous
100
AcDbLine
 10
35.36604899999999
 20
183.020424
 30
0.0
 11
35.36604899999999
 21
148.6763159999999
 31
0.0
  0
LINE
  5
BCF8
330
BBD1
100
AcDbEntity
  8
1
  6
Continuous
100
AcDbLine
 10
60.366049
 20
183.020424
 30
0.0
 11
60.366049
 21
171.717376
 31
0.0
  0
LINE
  5
BCF9
330
BBD1
100
AcDbEntity
  8
1
  6
Continuous
100
AcDbLine
 10
62.366289
 20
183.0120179999999
 30
0.0
 11
62.366289
 21
171.720216
 31
0.0
  0
LINE
  5
BCFA
330
BBD1
100
AcDbEntity
  8
1
  6
Continuous
100
AcDbLine
 10
60.366049
 20
148.6763159999999
 30
0.0
 11
62.366289
 21
148.6763159999999
 31
0.0
  0
ARC
  5
BCFB
330
BBD1
100
AcDbEntity
  8
1
  6
Continuous
100
AcDbCircle
 10
63.50143199999997
 20
186.579094
 30
0.0
 40
3.22228
100
AcDbArc
 50
3.952061
 51
90.62915999999999
  0
ARC
  5
BCFC
330
BBD1
100
AcDbEntity
  8
1
  6
Continuous
100
AcDbCircle
 10
2.095019999999998
 20
291.0302449999999
 30
0.0
 40
116.3729999999999
100
AcDbArc
 50
303.210091
 51
304.2745019999999
  0
LINE
  5
BCFD
330
BBD1
100
AcDbEntity
  8
1
  6
Continuous
100
AcDbLine
 10
66.716049
 20
186.8011789999999
 30
0.0
 11
66.716049
 21
171.680234
 31
0.0
  0
LINE
  5
BCFE
330
BBD1
100
AcDbEntity
  8
1
  6
Continuous
100
AcDbLine
 10
37.11604899999999
 20
184.7704239999999
 30
0.0
 11
58.61604899999999
 21
184.7704239999999
 31
0.0
  0
LINE
  5
BCFF
330
BBD1
100
AcDbEntity
  8
1
  6
Continuous
100
AcDbLine
 10
37.11580899999999
 20
186.7620179999999
 30
0.0
 11
58.616289
 21
186.7620179999999
 31
0.0
  0
LINE
  5
BD00
330
BBD1
100
AcDbEntity
  8
1
  6
Continuous
100
AcDbLine
 10
51.000725
 20
191.242233
 30
0.0
 11
49.000728
 21
189.801237
 31
0.0
  0
LINE
  5
BD01
330
BBD1
100
AcDbEntity
  8
1
  6
Continuous
100
AcDbLine
 10
52.414938
 20
191.242233
 30
0.0
 11
50.41494199999998
 21
189.801237
 31
0.0
  0
LINE
  5
BD02
330
BBD1
100
AcDbEntity
  8
1
  6
Continuous
100
AcDbLine
 10
50.41494199999998
 20
191.242233
 30
0.0
 11
52.414938
 21
189.801237
 31
0.0
  0
LINE
  5
BD03
330
BBD1
100
AcDbEntity
  8
1
  6
Continuous
100
AcDbLine
 10
49.586511
 20
191.242233
 30
0.0
 11
47.586515
 21
189.801237
 31
0.0
  0
LINE
  5
BD04
330
BBD1
100
AcDbEntity
  8
1
  6
Continuous
100
AcDbLine
 10
47.586515
 20
191.242233
 30
0.0
 11
49.586511
 21
189.801237
 31
0.0
  0
ARC
  5
BD05
330
BBD1
100
AcDbEntity
  8
1
  6
Continuous
100
AcDbCircle
 10
37.11604899999999
 20
183.020424
 30
0.0
 40
1.75
100
AcDbArc
 50
90.0
 51
180.0
  0
LINE
  5
BD06
330
BBD1
100
AcDbEntity
  8
1
  6
Continuous
100
AcDbLine
 10
39.687016
 20
191.242233
 30
0.0
 11
37.68701999999999
 21
189.801237
 31
0.0
  0
LINE
  5
BD07
330
BBD1
100
AcDbEntity
  8
1
  6
Continuous
100
AcDbLine
 10
41.10123
 20
191.242233
 30
0.0
 11
39.101233
 21
189.801237
 31
0.0
  0
LINE
  5
BD08
330
BBD1
100
AcDbEntity
  8
1
  6
Continuous
100
AcDbLine
 10
42.51544299999999
 20
191.242233
 30
0.0
 11
40.51544699999999
 21
189.801237
 31
0.0
  0
LINE
  5
BD09
330
BBD1
100
AcDbEntity
  8
1
  6
Continuous
100
AcDbLine
 10
43.929657
 20
191.242233
 30
0.0
 11
41.92966099999997
 21
189.801237
 31
0.0
  0
LINE
  5
BD0A
330
BBD1
100
AcDbEntity
  8
1
  6
Continuous
100
AcDbLine
 10
45.343871
 20
191.242233
 30
0.0
 11
43.34387399999999
 21
189.801237
 31
0.0
  0
LINE
  5
BD0B
330
BBD1
100
AcDbEntity
  8
1
  6
Continuous
100
AcDbLine
 10
46.758084
 20
191.242233
 30
0.0
 11
44.758088
 21
189.801237
 31
0.0
  0
LINE
  5
BD0C
330
BBD1
100
AcDbEntity
  8
1
  6
Continuous
100
AcDbLine
 10
48.17229799999999
 20
191.242233
 30
0.0
 11
46.17230099999999
 21
189.801237
 31
0.0
  0
LINE
  5
BD0D
330
BBD1
100
AcDbEntity
  8
1
  6
Continuous
100
AcDbLine
 10
39.101233
 20
191.242233
 30
0.0
 11
41.10123
 21
189.801237
 31
0.0
  0
LINE
  5
BD0E
330
BBD1
100
AcDbEntity
  8
1
  6
Continuous
100
AcDbLine
 10
41.92966099999997
 20
191.242233
 30
0.0
 11
43.929657
 21
189.801237
 31
0.0
  0
LINE
  5
BD0F
330
BBD1
100
AcDbEntity
  8
1
  6
Continuous
100
AcDbLine
 10
44.758088
 20
191.242233
 30
0.0
 11
46.758084
 21
189.801237
 31
0.0
  0
LINE
  5
BD10
330
BBD1
100
AcDbEntity
  8
1
  6
Continuous
100
AcDbLine
 10
38.272803
 20
191.242233
 30
0.0
 11
36.27280600000001
 21
189.801237
 31
0.0
  0
LINE
  5
BD11
330
BBD1
100
AcDbEntity
  8
1
  6
Continuous
100
AcDbLine
 10
36.27280600000001
 20
191.242233
 30
0.0
 11
38.272803
 21
189.801237
 31
0.0
  0
ARC
  5
BD12
330
BBD1
100
AcDbEntity
  8
1
  6
Continuous
100
AcDbCircle
 10
58.616289
 20
183.0120179999999
 30
0.0
 40
3.75
100
AcDbArc
 50
0.0
 51
90.0
  0
ARC
  5
BD13
330
BBD1
100
AcDbEntity
  8
1
  6
Continuous
100
AcDbCircle
 10
58.61604899999999
 20
183.020424
 30
0.0
 40
1.75
100
AcDbArc
 50
0.0
 51
90.0
  0
LINE
  5
BD14
330
BBD1
100
AcDbEntity
  8
1
  6
Continuous
100
AcDbLine
 10
64.11595
 20
191.242233
 30
0.0
 11
64.11595
 21
189.801237
 31
0.0
  0
LINE
  5
BD15
330
BBD1
100
AcDbEntity
  8
1
  6
Continuous
100
AcDbLine
 10
64.11595
 20
191.242233
 30
0.0
 11
64.11595
 21
189.801044
 31
0.0
  0
LINE
  5
BD16
330
BBD1
100
AcDbEntity
  8
1
  6
Continuous
100
AcDbLine
 10
56.657579
 20
191.242233
 30
0.0
 11
54.657583
 21
189.801237
 31
0.0
  0
LINE
  5
BD17
330
BBD1
100
AcDbEntity
  8
1
  6
Continuous
100
AcDbLine
 10
58.07179300000001
 20
191.242233
 30
0.0
 11
56.071796
 21
189.801237
 31
0.0
  0
LINE
  5
BD18
330
BBD1
100
AcDbEntity
  8
1
  6
Continuous
100
AcDbLine
 10
59.486006
 20
191.242233
 30
0.0
 11
57.48601
 21
189.801237
 31
0.0
  0
LINE
  5
BD19
330
BBD1
100
AcDbEntity
  8
1
  6
Continuous
100
AcDbLine
 10
60.90022
 20
191.242233
 30
0.0
 11
58.900223
 21
189.801237
 31
0.0
  0
LINE
  5
BD1A
330
BBD1
100
AcDbEntity
  8
1
  6
Continuous
100
AcDbLine
 10
62.31443299999999
 20
191.242233
 30
0.0
 11
60.314437
 21
189.801237
 31
0.0
  0
LINE
  5
BD1B
330
BBD1
100
AcDbEntity
  8
1
  6
Continuous
100
AcDbLine
 10
63.728647
 20
191.242233
 30
0.0
 11
61.72865
 21
189.801237
 31
0.0
  0
LINE
  5
BD1C
330
BBD1
100
AcDbEntity
  8
1
  6
Continuous
100
AcDbLine
 10
64.11595
 20
190.774323
 30
0.0
 11
63.142864
 21
189.801237
 31
0.0
  0
LINE
  5
BD1D
330
BBD1
100
AcDbEntity
  8
1
  6
Continuous
100
AcDbLine
 10
56.071796
 20
191.242233
 30
0.0
 11
58.07179300000001
 21
189.801237
 31
0.0
  0
LINE
  5
BD1E
330
BBD1
100
AcDbEntity
  8
1
  6
Continuous
100
AcDbLine
 10
58.900223
 20
191.242233
 30
0.0
 11
60.90022
 21
189.801237
 31
0.0
  0
LINE
  5
BD1F
330
BBD1
100
AcDbEntity
  8
1
  6
Continuous
100
AcDbLine
 10
61.72865
 20
191.242233
 30
0.0
 11
63.728647
 21
189.801237
 31
0.0
  0
LINE
  5
BD20
330
BBD1
100
AcDbEntity
  8
1
  6
Continuous
100
AcDbLine
 10
55.243366
 20
191.242233
 30
0.0
 11
53.24336899999998
 21
189.801237
 31
0.0
  0
LINE
  5
BD21
330
BBD1
100
AcDbEntity
  8
1
  6
Continuous
100
AcDbLine
 10
53.24336899999998
 20
191.242233
 30
0.0
 11
55.243366
 21
189.801237
 31
0.0
  0
LINE
  5
BD22
330
BBD1
100
AcDbEntity
  8
1
  6
Continuous
100
AcDbLine
 10
53.829152
 20
191.242233
 30
0.0
 11
51.829156
 21
189.801237
 31
0.0
  0
LINE
  5
BD23
330
BBD1
100
AcDbEntity
  8
1
  6
Continuous
100
AcDbLine
 10
63.44753
 20
192.93153
 30
0.0
 11
63.094374
 21
193.145533
 31
0.0
  0
ARC
  5
BD24
330
BBD1
100
AcDbEntity
  8
1
  6
Continuous
100
AcDbCircle
 10
62.87808199999999
 20
191.991802
 30
0.0
 40
1.098799999999998
100
AcDbArc
 50
20.306161
 51
58.785345
  0
ARC
  5
BD25
330
BBD1
100
AcDbEntity
  8
1
  6
Continuous
100
AcDbCircle
 10
61.56021800000001
 20
192.7040129999998
 30
0.0
 40
2.371570999999998
100
AcDbArc
 50
321.9491909999999
 51
351.9797889999999
  0
ARC
  5
BD26
330
BBD1
100
AcDbEntity
  8
1
  6
Continuous
100
AcDbCircle
 10
64.092807
 20
196.324106
 30
0.0
 40
3.178573
100
AcDbArc
 50
270.0
 51
303.210091
  0
LINE
  5
BD27
330
BBD1
100
AcDbEntity
  8
1
  6
Continuous
100
AcDbLine
 10
68.866049
 20
197.1135329999999
 30
0.0
 11
68.866049
 21
195.113571
 31
0.0
  0
LINE
  5
BD28
330
BBD1
100
AcDbEntity
  8
1
  6
Continuous
100
AcDbLine
 10
67.63144699999999
 20
194.865533
 30
0.0
 11
67.819614
 21
195.113571
 31
0.0
  0
LINE
  5
BD29
330
BBD1
100
AcDbEntity
  8
1
  6
Continuous
100
AcDbLine
 10
256.8632029999998
 20
183.097428
 30
0.0
 11
256.8632029999998
 21
148.6763159999999
 31
0.0
  0
LINE
  5
BD2A
330
BBD1
100
AcDbEntity
  8
4
  6
CENTER
100
AcDbLine
 10
33.36604899999999
 20
202.113537
 30
0.0
 11
33.36604899999999
 21
190.1135739999998
 31
0.0
  0
LINE
  5
BD2B
330
BBD1
100
AcDbEntity
  8
4
  6
CENTER
100
AcDbLine
 10
62.36604899999999
 20
202.113537
 30
0.0
 11
62.36604899999999
 21
190.1135739999998
 31
0.0
  0
LINE
  5
BD2C
330
BBD1
100
AcDbEntity
  8
4
  6
CENTER
100
AcDbLine
 10
229.8632029999999
 20
202.113537
 30
0.0
 11
229.8632029999999
 21
190.1135739999998
 31
0.0
  0
LINE
  5
BD2D
330
BBD1
100
AcDbEntity
  8
4
  6
CENTER
100
AcDbLine
 10
258.8632029999998
 20
202.113537
 30
0.0
 11
258.8632029999998
 21
190.1135739999998
 31
0.0
  0
ARC
  5
BD2E
330
BBD1
100
AcDbEntity
  8
1
  6
Continuous
100
AcDbCircle
 10
252.113443
 20
157.1130379999999
 30
0.0
 40
9.0
100
AcDbArc
 50
331.8213569999999
 51
355.5531859999998
  0
LINE
  5
BD2F
330
BBD1
100
AcDbEntity
  8
1
  6
Continuous
100
AcDbLine
 10
260.046759
 20
154.2473369999999
 30
0.0
 11
260.046759
 21
152.8630379999999
 31
0.0
  0
LINE
  5
BD30
330
BBD1
100
AcDbEntity
  8
1
  6
Continuous
100
AcDbLine
 10
259.4357299999999
 20
152.8630379999999
 30
0.0
 11
260.046759
 21
152.8630379999999
 31
0.0
  0
LINE
  5
BD31
330
BBD1
100
AcDbEntity
  8
1
  6
Continuous
100
AcDbLine
 10
129.4032709999999
 20
186.9575049999999
 30
0.0
 11
126.953979
 21
164.9929119999999
 31
0.0
  0
LINE
  5
BD32
330
BBD1
100
AcDbEntity
  8
4
  6
CENTER
100
AcDbLine
 10
128.6646259999999
 20
202.113537
 30
0.0
 11
128.6646259999999
 21
190.1135739999998
 31
0.0
  0
LINE
  5
BD33
330
BBD1
100
AcDbEntity
  8
4
  6
CENTER
100
AcDbLine
 10
175.664626
 20
202.113537
 30
0.0
 11
175.664626
 21
190.1135739999998
 31
0.0
  0
LINE
  5
BD34
330
BBD1
100
AcDbEntity
  8
4
  6
CENTER
100
AcDbLine
 10
181.9146189999999
 20
55.50961199999999
 30
0.0
 11
169.4146189999998
 21
55.50961199999999
 31
0.0
  0
LINE
  5
BD35
330
BBD1
100
AcDbEntity
  8
4
  6
CENTER
100
AcDbLine
 10
181.9146189999999
 20
84.509612
 30
0.0
 11
169.4146189999998
 21
84.509612
 31
0.0
  0
LINE
  5
BD36
330
BBD1
100
AcDbEntity
  8
4
  6
CENTER
100
AcDbLine
 10
187.1646189999999
 20
70.009612
 30
0.0
 11
103.164626
 21
70.009612
 31
0.0
  0
LINE
  5
BD37
330
BBD1
100
AcDbEntity
  8
1
  6
Continuous
100
AcDbLine
 10
124.6646189999998
 20
49.009612
 30
0.0
 11
179.6646189999999
 21
49.009612
 31
0.0
  0
LINE
  5
BD38
330
BBD1
100
AcDbEntity
  8
1
  6
Continuous
100
AcDbLine
 10
179.6646189999999
 20
91.009612
 30
0.0
 11
164.268601
 21
91.009612
 31
0.0
  0
LINE
  5
BD39
330
BBD1
100
AcDbEntity
  8
4
  6
CENTER
100
AcDbLine
 10
152.164619
 20
44.009612
 30
0.0
 11
152.164619
 21
96.009612
 31
0.0
  0
LINE
  5
BD3A
330
BBD1
100
AcDbEntity
  8
4
  6
CENTER
100
AcDbLine
 10
128.6646189999999
 20
61.75961199999999
 30
0.0
 11
128.6646189999999
 21
49.25961199999999
 31
0.0
  0
LINE
  5
BD3B
330
BBD1
100
AcDbEntity
  8
1
  6
Continuous
100
AcDbLine
 10
122.1646189999999
 20
88.509612
 30
0.0
 11
122.1646189999999
 21
86.50985199999999
 31
0.0
  0
LINE
  5
BD3C
330
BBD1
100
AcDbEntity
  8
4
  6
CENTER
100
AcDbLine
 10
128.6646189999999
 20
90.759612
 30
0.0
 11
128.6646189999999
 21
78.259612
 31
0.0
  0
ARC
  5
BD3D
330
BBD1
100
AcDbEntity
  8
1
  6
Continuous
100
AcDbCircle
 10
128.6646189999999
 20
84.509612
 30
0.0
 40
3.25
100
AcDbArc
 50
119.492231
 51
142.0147599999999
  0
ARC
  5
BD3E
330
BBD1
100
AcDbEntity
  8
1
  6
Continuous
100
AcDbCircle
 10
124.6646189999998
 20
88.509612
 30
0.0
 40
2.5
100
AcDbArc
 50
90.0
 51
180.0
  0
LINE
  5
BD3F
330
BBD1
100
AcDbEntity
  8
4
  6
CENTER
100
AcDbLine
 10
134.9146189999999
 20
84.509612
 30
0.0
 11
122.4146189999999
 21
84.509612
 31
0.0
  0
ARC
  5
BD40
330
BBD1
100
AcDbEntity
  8
1
  6
Continuous
100
AcDbCircle
 10
124.6646189999998
 20
51.509612
 30
0.0
 40
2.5
100
AcDbArc
 50
180.0
 51
270.0
  0
LINE
  5
BD41
330
BBD1
100
AcDbEntity
  8
4
  6
CENTER
100
AcDbLine
 10
134.9146189999999
 20
55.50961199999999
 30
0.0
 11
122.4146189999999
 21
55.50961199999999
 31
0.0
  0
LINE
  5
BD42
330
BBD1
100
AcDbEntity
  8
4
  6
CENTER
100
AcDbLine
 10
175.6646189999999
 20
61.75961199999999
 30
0.0
 11
175.6646189999999
 21
49.25961199999999
 31
0.0
  0
LINE
  5
BD43
330
BBD1
100
AcDbEntity
  8
1
  6
Continuous
100
AcDbLine
 10
182.1646189999999
 20
51.509612
 30
0.0
 11
182.1646189999999
 21
88.509612
 31
0.0
  0
LINE
  5
BD44
330
BBD1
100
AcDbEntity
  8
4
  6
CENTER
100
AcDbLine
 10
175.6646189999999
 20
90.759612
 30
0.0
 11
175.6646189999999
 21
78.259612
 31
0.0
  0
CIRCLE
  5
BD45
330
BBD1
100
AcDbEntity
  8
1
  6
Continuous
100
AcDbCircle
 10
175.6646189999999
 20
84.509612
 30
0.0
 40
3.25
  0
ARC
  5
BD46
330
BBD1
100
AcDbEntity
  8
1
  6
Continuous
100
AcDbCircle
 10
179.6646189999999
 20
88.509612
 30
0.0
 40
2.5
100
AcDbArc
 50
0.0
 51
90.0
  0
ARC
  5
BD47
330
BBD1
100
AcDbEntity
  8
1
  6
Continuous
100
AcDbCircle
 10
179.6646189999999
 20
51.509612
 30
0.0
 40
2.5
100
AcDbArc
 50
270.0
 51
0.0
  0
CIRCLE
  5
BD48
330
BBD1
100
AcDbEntity
  8
1
  6
Continuous
100
AcDbCircle
 10
175.6646189999999
 20
55.50961199999999
 30
0.0
 40
3.25
  0
LINE
  5
BD49
330
BBD1
100
AcDbEntity
  8
1
  6
Continuous
100
AcDbLine
 10
137.5129129999999
 20
57.50961199999998
 30
0.0
 11
126.07531
 21
57.50961199999998
 31
0.0
  0
LINE
  5
BD4A
330
BBD1
100
AcDbEntity
  8
1
  6
Continuous
100
AcDbLine
 10
136.931079
 20
55.50937199999999
 30
0.0
 11
126.07531
 21
55.50937199999999
 31
0.0
  0
LINE
  5
BD4B
330
BBD1
100
AcDbEntity
  8
1
  6
Continuous
100
AcDbLine
 10
136.931079
 20
84.50985199999998
 30
0.0
 11
126.07531
 21
84.50985199999998
 31
0.0
  0
LINE
  5
BD4C
330
BBD1
100
AcDbEntity
  8
1
  6
Continuous
100
AcDbLine
 10
137.5129129999999
 20
82.509612
 30
0.0
 11
126.07531
 21
82.509612
 31
0.0
  0
LINE
  5
BD4D
330
BBD1
100
AcDbEntity
  8
1
  6
Continuous
100
AcDbLine
 10
122.1646189999999
 20
60.00961199999998
 30
0.0
 11
122.1646189999999
 21
51.509612
 31
0.0
  0
ARC
  5
BD4E
330
BBD1
100
AcDbEntity
  8
1
  6
Continuous
100
AcDbCircle
 10
128.6646189999999
 20
55.50961199999999
 30
0.0
 40
3.25
100
AcDbArc
 50
112.6198649999998
 51
142.020128
  0
LINE
  5
BD4F
330
BBD1
100
AcDbEntity
  8
4
  6
CENTER
100
AcDbLine
 10
133.164626
 20
127.113237
 30
0.0
 11
133.164626
 21
185.113237
 31
0.0
  0
LINE
  5
BD50
330
BBD1
100
AcDbEntity
  8
1
  6
Continuous
100
AcDbLine
 10
126.07531
 20
55.50937199999999
 30
0.0
 11
126.07531
 21
57.50961199999998
 31
0.0
  0
LINE
  5
BD51
330
BBD1
100
AcDbEntity
  8
1
  6
Continuous
100
AcDbLine
 10
126.07531
 20
82.509612
 30
0.0
 11
126.07531
 21
84.50985199999998
 31
0.0
  0
ARC
  5
BD52
330
BBD1
100
AcDbEntity
  8
1
  6
Continuous
100
AcDbCircle
 10
152.164619
 20
70.009612
 30
0.0
 40
19.953671
100
AcDbArc
 50
227.2057859999999
 51
55.13436399999999
  0
ARC
  5
BD53
330
BBD1
100
AcDbEntity
  8
1
  6
Continuous
100
AcDbCircle
 10
152.164619
 20
70.009612
 30
0.0
 40
13.6
100
AcDbArc
 50
227.332075
 51
91.60449599999999
  0
ARC
  5
BD54
330
BBD1
100
AcDbEntity
  8
1
  6
Continuous
100
AcDbCircle
 10
152.164619
 20
70.009612
 30
0.0
 40
12.0
100
AcDbArc
 50
236.44269
 51
123.55731
  0
LINE
  5
BD55
330
BBD1
100
AcDbEntity
  8
1
  6
Continuous
100
AcDbLine
 10
110.760923
 20
80.009612
 30
0.0
 11
155.56833
 21
80.009612
 31
0.0
  0
ARC
  5
BD56
330
BBD1
100
AcDbEntity
  8
1
  6
Continuous
100
AcDbCircle
 10
123.1646259999999
 20
70.009612
 30
0.0
 40
35.0
100
AcDbArc
 50
345.3015759999999
 51
14.698424
  0
ARC
  5
BD57
330
BBD1
100
AcDbEntity
  8
1
  6
Continuous
100
AcDbCircle
 10
155.56833
 20
78.509612
 30
0.0
 40
1.5
100
AcDbArc
 50
14.698424
 51
90.0
  0
LINE
  5
BD58
330
BBD1
100
AcDbEntity
  8
1
  6
Continuous
100
AcDbLine
 10
110.760923
 20
60.00961199999998
 30
0.0
 11
155.56833
 21
60.00961199999998
 31
0.0
  0
ARC
  5
BD59
330
BBD1
100
AcDbEntity
  8
1
  6
Continuous
100
AcDbCircle
 10
155.56833
 20
61.509612
 30
0.0
 40
1.5
100
AcDbArc
 50
270.0
 51
345.3015759999999
  0
LINE
  5
BD5A
330
BBD1
100
AcDbEntity
  8
4
  6
CENTER
100
AcDbLine
 10
133.164626
 20
98.509652
 30
0.0
 11
133.164626
 21
44.009612
 31
0.0
  0
ARC
  5
BD5B
330
BBD1
100
AcDbEntity
  8
1
  6
Continuous
100
AcDbCircle
 10
133.164626
 20
62.509372
 30
0.0
 40
9.0
100
AcDbArc
 50
241.8213569999999
 51
298.178643
  0
LINE
  5
BD5C
330
BBD1
100
AcDbEntity
  8
1
  6
Continuous
100
AcDbLine
 10
128.914626
 20
54.576056
 30
0.0
 11
137.414626
 21
54.576056
 31
0.0
  0
LINE
  5
BD5D
330
BBD1
100
AcDbEntity
  8
1
  6
Continuous
100
AcDbLine
 10
124.664626
 20
58.509612
 30
0.0
 11
141.664626
 21
58.509612
 31
0.0
  0
LINE
  5
BD5E
330
BBD1
100
AcDbEntity
  8
1
  6
Continuous
100
AcDbLine
 10
124.664626
 20
81.50961200000002
 30
0.0
 11
141.664626
 21
81.50961200000002
 31
0.0
  0
LINE
  5
BD5F
330
BBD1
100
AcDbEntity
  8
1
  6
Continuous
100
AcDbLine
 10
136.164626
 20
57.50961199999998
 30
0.0
 11
136.164626
 21
58.509612
 31
0.0
  0
LINE
  5
BD60
330
BBD1
100
AcDbEntity
  8
1
  6
Continuous
100
AcDbLine
 10
137.414626
 20
55.50937199999999
 30
0.0
 11
137.414626
 21
54.576056
 31
0.0
  0
LINE
  5
BD61
330
BBD1
100
AcDbEntity
  8
1
  6
Continuous
100
AcDbLine
 10
141.664626
 20
58.509612
 30
0.0
 11
141.664626
 21
60.00961199999998
 31
0.0
  0
LINE
  5
BD62
330
BBD1
100
AcDbEntity
  8
1
  6
Continuous
100
AcDbLine
 10
136.164626
 20
82.509612
 30
0.0
 11
136.164626
 21
81.50961200000002
 31
0.0
  0
LINE
  5
BD63
330
BBD1
100
AcDbEntity
  8
1
  6
Continuous
100
AcDbLine
 10
141.664626
 20
81.50961200000002
 30
0.0
 11
141.664626
 21
80.009612
 31
0.0
  0
LINE
  5
BD64
330
BBD1
100
AcDbEntity
  8
1
  6
Continuous
100
AcDbLine
 10
130.164626
 20
57.50961199999998
 30
0.0
 11
130.164626
 21
58.509612
 31
0.0
  0
LINE
  5
BD65
330
BBD1
100
AcDbEntity
  8
1
  6
Continuous
100
AcDbLine
 10
128.914626
 20
55.50937199999999
 30
0.0
 11
128.914626
 21
54.576056
 31
0.0
  0
LINE
  5
BD66
330
BBD1
100
AcDbEntity
  8
1
  6
Continuous
100
AcDbLine
 10
124.664626
 20
58.509612
 30
0.0
 11
124.664626
 21
60.00961199999998
 31
0.0
  0
LINE
  5
BD67
330
BBD1
100
AcDbEntity
  8
1
  6
Continuous
100
AcDbLine
 10
130.164626
 20
82.509612
 30
0.0
 11
130.164626
 21
81.50961200000002
 31
0.0
  0
LINE
  5
BD68
330
BBD1
100
AcDbEntity
  8
1
  6
Continuous
100
AcDbLine
 10
124.664626
 20
81.50961200000002
 30
0.0
 11
124.664626
 21
80.009612
 31
0.0
  0
ARC
  5
BD69
330
BBD1
100
AcDbEntity
  8
1
  6
Continuous
100
AcDbCircle
 10
110.760923
 20
78.509612
 30
0.0
 40
1.5
100
AcDbArc
 50
90.0
 51
165.301576
  0
ARC
  5
BD6A
330
BBD1
100
AcDbEntity
  8
1
  6
Continuous
100
AcDbCircle
 10
143.1646259999999
 20
70.009612
 30
0.0
 40
35.0
100
AcDbArc
 50
165.301576
 51
194.698424
  0
ARC
  5
BD6B
330
BBD1
100
AcDbEntity
  8
1
  6
Continuous
100
AcDbCircle
 10
110.760923
 20
61.509612
 30
0.0
 40
1.5
100
AcDbArc
 50
194.698424
 51
270.0
  0
ARC
  5
BD6C
330
BBD1
100
AcDbEntity
  8
1
  6
Continuous
100
AcDbCircle
 10
128.6646189999999
 20
55.50961199999999
 30
0.0
 40
3.25
100
AcDbArc
 50
142.817135
 51
326.0023529999998
  0
LINE
  5
BD6D
330
BBD1
100
AcDbEntity
  8
1
  6
Continuous
100
AcDbLine
 10
126.07531
 20
246.681635
 30
0.0
 11
126.07531
 21
244.717222
 31
0.0
  0
LINE
  5
BD6E
330
BBD1
100
AcDbEntity
  8
1
  6
Continuous
100
AcDbLine
 10
128.694865
 20
246.717462
 30
0.0
 11
126.1028819999999
 21
246.717462
 31
0.0
  0
LINE
  5
BD6F
330
BBD1
100
AcDbEntity
  8
1
  6
Continuous
100
AcDbLine
 10
131.9146189999998
 20
244.717222
 30
0.0
 11
126.07531
 21
244.717222
 31
0.0
  0
LINE
  5
BD70
330
BBD1
100
AcDbEntity
  8
1
  6
Continuous
100
AcDbLine
 10
126.07531
 20
273.7177019999999
 30
0.0
 11
126.07531
 21
271.753289
 31
0.0
  0
LINE
  5
BD71
330
BBD1
100
AcDbEntity
  8
1
  6
Continuous
100
AcDbLine
 10
128.914626
 20
273.7177019999999
 30
0.0
 11
128.914626
 21
274.651018
 31
0.0
  0
LINE
  5
BD72
330
BBD1
100
AcDbEntity
  8
1
  6
Continuous
100
AcDbLine
 10
131.9146189999998
 20
273.7177019999999
 30
0.0
 11
126.07531
 21
273.7177019999999
 31
0.0
  0
LINE
  5
BD73
330
BBD1
100
AcDbEntity
  8
1
  6
Continuous
100
AcDbLine
 10
128.694865
 20
271.717462
 30
0.0
 11
126.1028819999999
 21
271.717462
 31
0.0
  0
LINE
  5
BD74
330
BBD1
100
AcDbEntity
  8
1
  6
Continuous
100
AcDbLine
 10
128.914626
 20
274.651018
 30
0.0
 11
131.777652
 21
274.651018
 31
0.0
  0
ARC
  5
BD75
330
BBD1
100
AcDbEntity
  8
1
  6
Continuous
100
AcDbCircle
 10
133.164626
 20
266.717702
 30
0.0
 40
9.0
100
AcDbArc
 50
101.5730889999999
 51
118.178643
  0
ARC
  5
BD76
330
BBD1
100
AcDbEntity
  8
1
  6
Continuous
100
AcDbCircle
 10
167.167723
 20
70.009612
 30
0.0
 40
40.45257399999999
100
AcDbArc
 50
162.0007939999998
 51
163.4839739999998
  0
ARC
  5
BD77
330
BBD1
100
AcDbEntity
  8
1
  6
Continuous
100
AcDbCircle
 10
167.167723
 20
70.009612
 30
0.0
 40
40.45257399999999
100
AcDbArc
 50
196.516026
 51
197.9992059999999
  0
ARC
  5
BD78
330
BBD1
100
AcDbEntity
  8
1
  6
Continuous
100
AcDbCircle
 10
167.167723
 20
259.217462
 30
0.0
 40
40.45257399999999
100
AcDbArc
 50
196.174637
 51
201.005058
  0
ARC
  5
BD79
330
BBD1
100
AcDbEntity
  8
1
  6
Continuous
100
AcDbCircle
 10
167.167723
 20
259.217462
 30
0.0
 40
40.45257399999999
100
AcDbArc
 50
158.9949419999999
 51
163.8253629999999
  0
LINE
  5
BD7A
330
BBD1
100
AcDbEntity
  8
1
  6
Continuous
100
AcDbLine
 10
228.5132029999998
 20
189.8011789999999
 30
0.0
 11
260.2132029999999
 21
189.8011789999999
 31
0.0
  0
LINE
  5
BD7B
330
BBD1
100
AcDbEntity
  8
1
  6
Continuous
100
AcDbLine
 10
170.764126
 20
183.105367
 30
0.0
 11
171.0146259999999
 21
183.105367
 31
0.0
  0
LINE
  5
BD7C
330
BBD1
100
AcDbEntity
  8
1
  6
Continuous
100
AcDbLine
 10
171.0146259999999
 20
183.105367
 30
0.0
 11
170.6780469999999
 21
187.2199979999998
 31
0.0
  0
ARC
  5
BD7D
330
BBD1
100
AcDbEntity
  8
1
  6
Continuous
100
AcDbCircle
 10
152.164619
 20
70.009612
 30
0.0
 40
18.85
100
AcDbArc
 50
238.127847
 51
54.90516899999999
  0
ARC
  5
BD7E
330
BBD1
100
AcDbEntity
  8
1
  6
Continuous
100
AcDbCircle
 10
152.164619
 20
70.009612
 30
0.0
 40
16.85
100
AcDbArc
 50
236.92835
 51
64.319085
  0
ARC
  5
BD7F
330
BBD1
100
AcDbEntity
  8
1
  6
Continuous
100
AcDbCircle
 10
137.5129129999999
 20
92.509612
 30
0.0
 40
10.0
100
AcDbArc
 50
270.0
 51
303.07165
  0
ARC
  5
BD80
330
BBD1
100
AcDbEntity
  8
1
  6
Continuous
100
AcDbCircle
 10
137.5129129999999
 20
47.50961199999998
 30
0.0
 40
10.0
100
AcDbArc
 50
56.92835
 51
90.0
  0
ARC
  5
BD81
330
BBD1
100
AcDbEntity
  8
1
  6
Continuous
100
AcDbCircle
 10
136.931079
 20
45.50937199999999
 30
0.0
 40
10.0
100
AcDbArc
 50
58.12784699999998
 51
90.0
  0
ARC
  5
BD82
330
BBD1
100
AcDbEntity
  8
1
  6
Continuous
100
AcDbCircle
 10
128.6646189999999
 20
84.509612
 30
0.0
 40
3.25
100
AcDbArc
 50
217.9798719999999
 51
247.380135
  0
ARC
  5
BD83
330
BBD1
100
AcDbEntity
  8
1
  6
Continuous
100
AcDbCircle
 10
55.731462
 20
167.03323
 30
0.0
 40
26.722888
100
AcDbArc
 50
212.0233099999999
 51
213.180835
  0
LINE
  5
BD84
330
BBD1
100
AcDbEntity
  8
1
  6
Continuous
100
AcDbLine
 10
258.863443
 20
149.528637
 30
0.0
 11
258.863443
 21
148.6763159999999
 31
0.0
  0
ARC
  5
BD85
330
BBD1
100
AcDbEntity
  8
1
  6
Continuous
100
AcDbCircle
 10
236.503443
 20
166.870484
 30
0.0
 40
26.713884
100
AcDbArc
 50
331.812974
 51
358.9933849999999
  0
LINE
  5
BD86
330
BBD1
100
AcDbEntity
  8
1
  6
Continuous
100
AcDbLine
 10
256.8632029999998
 20
148.6763159999999
 30
0.0
 11
258.863443
 21
148.6763159999999
 31
0.0
  0
ARC
  5
BD87
330
BBD1
100
AcDbEntity
  8
1
  6
Continuous
100
AcDbCircle
 10
268.863443
 20
149.528637
 30
0.0
 40
10.0
100
AcDbArc
 50
151.812974
 51
180.0
  0
LINE
  5
BD88
330
BBD1
100
AcDbEntity
  8
1
  6
Continuous
100
AcDbLine
 10
261.180827
 20
174.474628
 30
0.0
 11
261.180827
 21
167.2864389999998
 31
0.0
  0
ARC
  5
BD89
330
BBD1
100
AcDbEntity
  8
1
  6
Continuous
100
AcDbCircle
 10
234.4710669999999
 20
167.7557439999999
 30
0.0
 40
26.713884
100
AcDbArc
 50
331.812974
 51
358.9933849999999
  0
ARC
  5
BD8A
330
BBD1
100
AcDbEntity
  8
1
  6
Continuous
100
AcDbCircle
 10
266.831067
 20
150.413898
 30
0.0
 40
10.0
100
AcDbArc
 50
151.812974
 51
175.405317
  0
ARC
  5
BD8B
330
BBD1
100
AcDbEntity
  8
1
  6
Continuous
100
AcDbCircle
 10
252.222963
 20
166.870484
 30
0.0
 40
26.713884
100
AcDbArc
 50
181.006615
 51
186.5399829999999
  0
LINE
  5
BD8C
330
BBD1
100
AcDbEntity
  8
1
  6
Continuous
100
AcDbLine
 10
227.5455799999999
 20
174.474628
 30
0.0
 11
227.5455799999999
 21
163.806512
 31
0.0
  0
ARC
  5
BD8D
330
BBD1
100
AcDbEntity
  8
1
  6
Continuous
100
AcDbCircle
 10
240.7727219999999
 20
173.5058109999999
 30
0.0
 40
13.262575
100
AcDbArc
 50
133.679923
 51
175.810882
  0
LINE
  5
BD8E
330
BBD1
100
AcDbEntity
  8
1
  6
Continuous
100
AcDbLine
 10
127.4146189999999
 20
247.7174619999999
 30
0.0
 11
128.3842109999999
 21
247.7174619999999
 31
0.0
  0
LINE
  5
BD8F
330
BBD1
100
AcDbEntity
  8
1
  6
Continuous
100
AcDbLine
 10
127.4146189999999
 20
270.7174619999999
 30
0.0
 11
128.3842109999999
 21
270.7174619999999
 31
0.0
  0
LINE
  5
BD90
330
BBD1
100
AcDbEntity
  8
1
  6
Continuous
100
AcDbLine
 10
135.8952069999999
 20
189.801237
 30
0.0
 11
168.842904
 21
189.801237
 31
0.0
  0
ARC
  5
BD91
330
BBD1
100
AcDbEntity
  8
5
  6
PHANTOM
100
AcDbCircle
 10
145.5561969999999
 20
212.8963939999999
 30
0.0
 40
56.58425499999999
100
AcDbArc
 50
276.844168
 51
286.0983499999999
  0
LINE
  5
BD92
330
BBD1
100
AcDbEntity
  8
5
  6
PHANTOM
100
AcDbLine
 10
157.513046
 20
166.2340409999998
 30
0.0
 11
169.020629
 21
163.8334979999999
 31
0.0
  0
LINE
  5
BD93
330
BBD1
100
AcDbEntity
  8
5
  6
PHANTOM
100
AcDbLine
 10
168.7149499999998
 20
162.068285
 30
0.0
 11
156.4071039999998
 21
164.4566739999999
 31
0.0
  0
LINE
  5
BD94
330
BBD1
100
AcDbEntity
  8
1
  6
Continuous
100
AcDbLine
 10
157.8268119999999
 20
148.8784879999998
 30
0.0
 11
165.2591699999998
 21
139.770952
 31
0.0
  0
LINE
  5
BD95
330
BBD1
100
AcDbEntity
  8
1
  6
Continuous
100
AcDbLine
 10
163.9107199999999
 20
138.591478
 30
0.0
 11
155.8488
 21
148.1931779999999
 31
0.0
  0
ARC
  5
BD96
330
BBD1
100
AcDbEntity
  8
1
  6
Continuous
100
AcDbCircle
 10
162.318328
 20
155.782205
 30
0.0
 40
16.543596
100
AcDbArc
 50
247.0983529999998
 51
268.9252189999999
  0
ARC
  5
BD97
330
BBD1
100
AcDbEntity
  8
5
  6
PHANTOM
100
AcDbCircle
 10
117.2110739999999
 20
171.1692139999998
 30
0.0
 40
13.95287699999999
100
AcDbArc
 50
308.5458459999999
 51
318.438777
  0
ARC
  5
BD98
330
BBD1
100
AcDbEntity
  8
1
  6
Continuous
100
AcDbCircle
 10
255.052886
 20
114.919107
 30
0.0
 40
123.5627139999998
100
AcDbArc
 50
157.650246
 51
159.637255
  0
LINE
  5
BD99
330
BBD1
100
AcDbEntity
  8
1
  6
Continuous
100
AcDbLine
 10
144.4378039999998
 20
163.0524
 30
0.0
 11
143.277679
 21
159.86165
 31
0.0
  0
LINE
  5
BD9A
330
BBD1
100
AcDbEntity
  8
1
  6
Continuous
100
AcDbLine
 10
140.772201
 20
161.9049929999999
 30
0.0
 11
143.277679
 21
159.86165
 31
0.0
  0
LINE
  5
BD9B
330
BBD1
100
AcDbEntity
  8
1
  6
Continuous
100
AcDbLine
 10
144.3960109999999
 20
162.9021159999998
 30
0.0
 11
154.7288049999998
 21
159.00406
 31
0.0
  0
ARC
  5
BD9C
330
BBD1
100
AcDbEntity
  8
1
  6
Continuous
100
AcDbCircle
 10
151.2206109999999
 20
159.767152
 30
0.0
 40
3.590214
100
AcDbArc
 50
336.150123
 51
24.02594
  0
LINE
  5
BD9D
330
BBD1
100
AcDbEntity
  8
1
  6
Continuous
100
AcDbLine
 10
118.9802999999999
 20
167.134943
 30
0.0
 11
115.083312
 21
156.605554
 31
0.0
  0
ARC
  5
BD9E
330
BBD1
100
AcDbEntity
  8
1
  6
Continuous
100
AcDbCircle
 10
111.5489189999999
 20
160.538507
 30
0.0
 40
2.460205999999999
100
AcDbArc
 50
166.0952429999998
 51
248.7204919999999
  0
ARC
  5
BD9F
330
BBD1
100
AcDbEntity
  8
5
  6
PHANTOM
100
AcDbCircle
 10
136.877456
 20
113.9828659999998
 30
0.0
 40
35.431274
100
AcDbArc
 50
98.453946
 51
107.688082
  0
ARC
  5
BDA0
330
BBD1
100
AcDbEntity
  8
1
  6
Continuous
100
AcDbCircle
 10
141.0649409999998
 20
175.7508709999999
 30
0.0
 40
27.842596
100
AcDbArc
 50
239.45395
 51
248.737537
  0
LINE
  5
BDA1
330
BBD1
100
AcDbEntity
  8
5
  6
PHANTOM
100
AcDbLine
 10
104.059875
 20
149.9511349999999
 30
0.0
 11
114.5244589999999
 21
154.611856
 31
0.0
  0
LINE
  5
BDA2
330
BBD1
100
AcDbEntity
  8
5
  6
PHANTOM
100
AcDbLine
 10
103.504958
 20
151.8912369999999
 30
0.0
 11
113.729827
 21
156.486909
 31
0.0
  0
ARC
  5
BDA3
330
BBD1
100
AcDbEntity
  8
5
  6
PHANTOM
100
AcDbCircle
 10
114.210479
 20
146.17196
 30
0.0
 40
2.460205999999999
100
AcDbArc
 50
205.095244
 51
287.720507
  0
ARC
  5
BDA4
330
BBD1
100
AcDbEntity
  8
5
  6
PHANTOM
100
AcDbCircle
 10
105.8788749999998
 20
142.2699979999999
 30
0.0
 40
6.739846
100
AcDbArc
 50
25.095239
 51
69.50158
  0
ARC
  5
BDA5
330
BBD1
100
AcDbEntity
  8
1
  6
Continuous
100
AcDbCircle
 10
120.4140309999999
 20
183.3004169999999
 30
0.0
 40
26.88754799999999
100
AcDbArc
 50
248.720502
 51
252.5158129999999
  0
LINE
  5
BDA6
330
BBD1
100
AcDbEntity
  8
5
  6
PHANTOM
100
AcDbLine
 10
103.504974
 20
151.8912369999999
 30
0.0
 11
104.1032399999999
 21
149.799562
 31
0.0
  0
ARC
  5
BDA7
330
BBD1
100
AcDbEntity
  8
5
  6
PHANTOM
100
AcDbCircle
 10
104.450927
 20
147.22825
 30
0.0
 40
2.594708999999999
100
AcDbArc
 50
69.53411200000001
 51
97.70087700000001
  0
ARC
  5
BDA8
330
BBD1
100
AcDbEntity
  8
5
  6
PHANTOM
100
AcDbCircle
 10
-1788.187012
 20
-4924.064986000001
 30
0.0
 40
5415.550781
100
AcDbArc
 50
69.50158
 51
69.53411200000001
  0
ARC
  5
BDA9
330
BBD1
100
AcDbEntity
  8
5
  6
PHANTOM
100
AcDbCircle
 10
115.6734919999999
 20
158.410562
 30
0.0
 40
2.440793999999999
100
AcDbArc
 50
271.258398
 51
302.701659
  0
LINE
  5
BDAA
330
BBD1
100
AcDbEntity
  8
5
  6
PHANTOM
100
AcDbLine
 10
114.5244589999999
 20
154.611848
 30
0.0
 11
113.896056
 21
156.4896029999999
 31
0.0
  0
LINE
  5
BDAB
330
BBD1
100
AcDbEntity
  8
5
  6
PHANTOM
100
AcDbLine
 10
115.8344719999999
 20
155.975076
 30
0.0
 11
119.432296
 21
145.339754
 31
0.0
  0
ARC
  5
BDAC
330
BBD1
100
AcDbEntity
  8
5
  6
PHANTOM
100
AcDbCircle
 10
114.3748159999999
 20
154.753641
 30
0.0
 40
1.038931
100
AcDbArc
 50
70.09784200000002
 51
103.151006
  0
ARC
  5
BDAD
330
BBD1
100
AcDbEntity
  8
5
  6
PHANTOM
100
AcDbCircle
 10
116.0645289999999
 20
152.3664639999998
 30
0.0
 40
3.619658999999998
100
AcDbArc
 50
95.34903100000002
 51
111.6606219999999
  0
ARC
  5
BDAE
330
BBD1
100
AcDbEntity
  8
5
  6
PHANTOM
100
AcDbCircle
 10
459.239837
 20
-896.838057
 30
0.0
 40
1096.410278
100
AcDbArc
 50
107.688082
 51
107.9409899999999
  0
ARC
  5
BDAF
330
BBD1
100
AcDbEntity
  8
5
  6
PHANTOM
100
AcDbCircle
 10
115.23912
 20
160.9716809999999
 30
0.0
 40
4.93677
100
AcDbArc
 50
290.799433
 51
323.676531
  0
ARC
  5
BDB0
330
BBD1
100
AcDbEntity
  8
5
  6
PHANTOM
100
AcDbCircle
 10
124.861968
 20
135.8890629999999
 30
0.0
 40
10.8994
100
AcDbArc
 50
107.9409899999999
 51
120.162712
  0
ARC
  5
BDB1
330
BBD1
100
AcDbEntity
  8
5
  6
PHANTOM
100
AcDbCircle
 10
124.969283
 20
123.289857
 30
0.0
 40
22.719694
100
AcDbArc
 50
104.227287
 51
111.515809
  0
ARC
  5
BDB2
330
BBD1
100
AcDbEntity
  8
5
  6
PHANTOM
100
AcDbCircle
 10
106.775436
 20
169.4402939999999
 30
0.0
 40
26.88754799999999
100
AcDbArc
 50
287.720507
 51
291.5158109999999
  0
LINE
  5
BDB3
330
BBD1
100
AcDbEntity
  8
5
  6
PHANTOM
100
AcDbLine
 10
119.3121029999999
 20
158.423303
 30
0.0
 11
119.2166129999999
 21
158.047426
 31
0.0
  0
LINE
  5
BDB4
330
BBD1
100
AcDbEntity
  8
5
  6
PHANTOM
100
AcDbLine
 10
119.312118
 20
158.423303
 30
0.0
 11
123.0762169999999
 21
159.503107
 31
0.0
  0
ARC
  5
BDB5
330
BBD1
100
AcDbEntity
  8
5
  6
PHANTOM
100
AcDbCircle
 10
123.2453449999999
 20
163.595537
 30
0.0
 40
4.269231999999997
100
AcDbArc
 50
269.844337
 51
308.5458459999999
  0
LINE
  5
BDB6
330
BBD1
100
AcDbEntity
  8
5
  6
PHANTOM
100
AcDbLine
 10
123.0762169999999
 20
159.503107
 30
0.0
 11
123.233733
 21
159.3263179999999
 31
0.0
  0
ARC
  5
BDB7
330
BBD1
100
AcDbEntity
  8
1
  6
Continuous
100
AcDbCircle
 10
108.907211
 20
121.2580889999999
 30
0.0
 40
35.431274
100
AcDbArc
 50
59.45394900000001
 51
68.68807700000001
  0
ARC
  5
BDB8
330
BBD1
100
AcDbEntity
  8
1
  6
Continuous
100
AcDbCircle
 10
105.5099019999999
 20
135.9850329999999
 30
0.0
 40
22.719694
100
AcDbArc
 50
65.227289
 51
72.51581100000001
  0
ARC
  5
BDB9
330
BBD1
100
AcDbEntity
  8
1
  6
Continuous
100
AcDbCircle
 10
-276.7003639999999
 20
-867.1665479999997
 30
0.0
 40
1096.410278
100
AcDbArc
 50
68.68807700000001
 51
68.940993
  0
ARC
  5
BDBA
330
BBD1
100
AcDbEntity
  8
1
  6
Continuous
100
AcDbCircle
 10
113.3554379999998
 20
145.843988
 30
0.0
 40
10.8994
100
AcDbArc
 50
68.940993
 51
81.16270799999998
  0
ARC
  5
BDBB
330
BBD1
100
AcDbEntity
  8
5
  6
PHANTOM
100
AcDbCircle
 10
113.816055
 20
156.2950449999999
 30
0.0
 40
0.210357
100
AcDbArc
 50
67.650818
 51
114.202061
  0
ARC
  5
BDBC
330
BBD1
100
AcDbEntity
  8
5
  6
PHANTOM
100
AcDbCircle
 10
48.99143099999999
 20
296.9435899999999
 30
0.0
 40
171.423233
100
AcDbArc
 50
302.5320859999999
 51
303.876052
  0
ARC
  5
BDBD
330
BBD1
100
AcDbEntity
  8
1
  6
Continuous
100
AcDbCircle
 10
132.9205159999999
 20
121.117921
 30
0.0
 40
27.92838099999999
100
AcDbArc
 50
57.844169
 51
74.38523399999998
  0
ARC
  5
BDBE
330
BBD1
100
AcDbEntity
  8
5
  6
PHANTOM
100
AcDbCircle
 10
139.4565879999998
 20
154.461298
 30
0.0
 40
2.671529999999997
100
AcDbArc
 50
295.748014
 51
310.1177079999998
  0
ARC
  5
BDBF
330
BBD1
100
AcDbEntity
  8
5
  6
PHANTOM
100
AcDbCircle
 10
254.443206
 20
201.0289929999999
 30
0.0
 40
123.5627139999998
100
AcDbArc
 50
200.9023819999999
 51
203.262007
  0
ARC
  5
BDC0
330
BBD1
100
AcDbEntity
  8
5
  6
PHANTOM
100
AcDbCircle
 10
128.7661129999999
 20
172.846262
 30
0.0
 40
23.93382099999999
100
AcDbArc
 50
287.737541
 51
299.683153
  0
ARC
  5
BDC1
330
BBD1
100
AcDbEntity
  8
5
  6
PHANTOM
100
AcDbCircle
 10
127.575286
 20
176.569231
 30
0.0
 40
27.842596
100
AcDbArc
 50
278.453948
 51
287.737541
  0
ARC
  5
BDC2
330
BBD1
100
AcDbEntity
  8
1
  6
Continuous
100
AcDbCircle
 10
255.052886
 20
114.919107
 30
0.0
 40
123.5627139999998
100
AcDbArc
 50
162.1740479999999
 51
164.262006
  0
ARC
  5
BDC3
330
BBD1
100
AcDbEntity
  8
1
  6
Continuous
100
AcDbCircle
 10
155.747863
 20
318.75374
 30
0.0
 40
171.423233
100
AcDbArc
 50
263.532088
 51
264.8760509999998
  0
ARC
  5
BDC4
330
BBD1
100
AcDbEntity
  8
1
  6
Continuous
100
AcDbCircle
 10
136.385482
 20
151.0926379999999
 30
0.0
 40
2.671529999999997
100
AcDbArc
 50
256.74801
 51
271.11771
  0
ARC
  5
BDC5
330
BBD1
100
AcDbEntity
  8
1
  6
Continuous
100
AcDbCircle
 10
139.6474599999999
 20
172.1081709999999
 30
0.0
 40
23.93382099999999
100
AcDbArc
 50
248.737537
 51
260.6831549999998
  0
ARC
  5
BDC6
330
BBD1
100
AcDbEntity
  8
5
  6
PHANTOM
100
AcDbCircle
 10
155.6275019999999
 20
128.986002
 30
0.0
 40
27.92838099999999
100
AcDbArc
 50
96.844166
 51
113.385232
  0
LINE
  5
BDC7
330
BBD1
100
AcDbEntity
  8
1
  6
Continuous
100
AcDbLine
 10
154.7288049999998
 20
159.0040679999999
 30
0.0
 11
153.3648059999999
 21
155.292436
 31
0.0
  0
LINE
  5
BDC8
330
BBD1
100
AcDbEntity
  8
1
  6
Continuous
100
AcDbLine
 10
153.3648059999999
 20
155.292421
 30
0.0
 11
155.5083919999999
 21
154.288599
 31
0.0
  0
LINE
  5
BDC9
330
BBD1
100
AcDbEntity
  8
1
  6
Continuous
100
AcDbLine
 10
155.5083919999999
 20
154.288614
 30
0.0
 11
155.7825919999999
 21
152.455911
 31
0.0
  0
ARC
  5
BDCA
330
BBD1
100
AcDbEntity
  8
1
  6
Continuous
100
AcDbCircle
 10
152.0338129999998
 20
153.255602
 30
0.0
 40
3.833123
100
AcDbArc
 50
325.9331439999999
 51
347.9581
  0
ARC
  5
BDCB
330
BBD1
100
AcDbEntity
  8
1
  6
Continuous
100
AcDbCircle
 10
156.3805989999998
 20
150.31627
 30
0.0
 40
1.414184999999997
100
AcDbArc
 50
145.9331389999998
 51
247.3461759999999
  0
ARC
  5
BDCC
330
BBD1
100
AcDbEntity
  8
1
  6
Continuous
100
AcDbCircle
 10
157.01979
 20
151.771776
 30
0.0
 40
3.003727999999998
100
AcDbArc
 50
246.787777
 51
285.585185
  0
LINE
  5
BDCD
330
BBD1
100
AcDbEntity
  8
1
  6
Continuous
100
AcDbLine
 10
155.8359059999999
 20
149.011194
 30
0.0
 11
155.8488
 21
148.193185
 31
0.0
  0
ARC
  5
BDCE
330
BBD1
100
AcDbEntity
  8
1
  6
Continuous
100
AcDbCircle
 10
177.9001609999999
 20
192.666628
 30
0.0
 40
56.58425499999999
100
AcDbArc
 50
237.84417
 51
247.0983529999998
  0
ARC
  5
BDCF
330
BBD1
100
AcDbEntity
  8
5
  6
PHANTOM
100
AcDbCircle
 10
135.5304099999999
 20
154.9266979999998
 30
0.0
 40
10.530131
100
AcDbArc
 50
102.073789
 51
138.438782
  0
ARC
  5
BDD0
330
BBD1
100
AcDbEntity
  8
1
  6
Continuous
100
AcDbCircle
 10
129.535339
 20
168.3933429999999
 30
0.0
 40
4.269231999999997
100
AcDbArc
 50
230.844333
 51
269.5458449999999
  0
LINE
  5
BDD1
330
BBD1
100
AcDbEntity
  8
1
  6
Continuous
100
AcDbLine
 10
106.828429
 20
171.720415
 30
0.0
 11
117.666793
 21
168.85721
 31
0.0
  0
LINE
  5
BDD2
330
BBD1
100
AcDbEntity
  8
1
  6
Continuous
100
AcDbLine
 10
106.0387259999999
 20
169.8634509999999
 30
0.0
 11
117.104324
 21
166.899934
 31
0.0
  0
ARC
  5
BDD3
330
BBD1
100
AcDbEntity
  8
1
  6
Continuous
100
AcDbCircle
 10
102.618453
 20
162.7493609999999
 30
0.0
 40
6.739846
100
AcDbArc
 50
346.095239
 51
30.501579
  0
ARC
  5
BDD4
330
BBD1
100
AcDbEntity
  8
1
  6
Continuous
100
AcDbCircle
 10
-4557.695190999999
 20
-2582.55815
 30
0.0
 40
5415.550781
100
AcDbArc
 50
30.501579
 51
30.53411500000001
  0
ARC
  5
BDD5
330
BBD1
100
AcDbEntity
  8
1
  6
Continuous
100
AcDbCircle
 10
104.6290579999999
 20
167.501283
 30
0.0
 40
2.594708999999999
100
AcDbArc
 50
30.53411500000001
 51
58.700872
  0
LINE
  5
BDD6
330
BBD1
100
AcDbEntity
  8
1
  6
Continuous
100
AcDbLine
 10
106.828429
 20
171.720415
 30
0.0
 11
105.977035
 21
169.718378
 31
0.0
  0
LINE
  5
BDD7
330
BBD1
100
AcDbEntity
  8
1
  6
Continuous
100
AcDbLine
 10
123.2236469999999
 20
166.8490309999999
 30
0.0
 11
126.82846
 21
165.3193599999999
 31
0.0
  0
LINE
  5
BDD8
330
BBD1
100
AcDbEntity
  8
1
  6
Continuous
100
AcDbLine
 10
123.2236469999999
 20
166.8490229999999
 30
0.0
 11
122.912887
 21
166.6170059999998
 31
0.0
  0
LINE
  5
BDD9
330
BBD1
100
AcDbEntity
  8
1
  6
Continuous
100
AcDbLine
 10
126.828475
 20
165.3193599999999
 30
0.0
 11
126.839629
 21
165.082841
 31
0.0
  0
ARC
  5
BDDA
330
BBD1
100
AcDbEntity
  8
1
  6
Continuous
100
AcDbCircle
 10
121.6620929999999
 20
171.392702
 30
0.0
 40
4.93677
100
AcDbArc
 50
251.7994349999999
 51
284.6765299999999
  0
ARC
  5
BDDB
330
BBD1
100
AcDbEntity
  8
1
  6
Continuous
100
AcDbCircle
 10
117.6130669999998
 20
168.6538329999999
 30
0.0
 40
0.210357
100
AcDbArc
 50
28.650816
 51
75.20206299999998
  0
ARC
  5
BDDC
330
BBD1
100
AcDbEntity
  8
1
  6
Continuous
100
AcDbCircle
 10
116.888107
 20
164.1857469999998
 30
0.0
 40
3.619658999999998
100
AcDbArc
 50
56.349033
 51
72.66062499999998
  0
ARC
  5
BDDD
330
BBD1
100
AcDbEntity
  8
1
  6
Continuous
100
AcDbCircle
 10
117.0772549999999
 20
167.1043029999999
 30
0.0
 40
1.038931
100
AcDbArc
 50
31.097841
 51
64.15100799999999
  0
LINE
  5
BDDE
330
BBD1
100
AcDbEntity
  8
1
  6
Continuous
100
AcDbLine
 10
117.104324
 20
166.899934
 30
0.0
 11
117.7976679999999
 21
168.754694
 31
0.0
  0
ARC
  5
BDDF
330
BBD1
100
AcDbEntity
  8
1
  6
Continuous
100
AcDbCircle
 10
120.3878929999999
 20
169.128984
 30
0.0
 40
2.440793999999999
100
AcDbArc
 50
232.2584009999999
 51
263.7016609999998
  0
LINE
  5
BDE0
330
BBD1
100
AcDbEntity
  8
5
  6
PHANTOM
100
AcDbLine
 10
141.4405209999999
 20
172.780908
 30
0.0
 11
144.656722
 21
173.906259
 31
0.0
  0
LINE
  5
BDE1
330
BBD1
100
AcDbEntity
  8
5
  6
PHANTOM
100
AcDbLine
 10
138.249999
 20
168.6801769999999
 30
0.0
 11
148.733215
 21
172.153459
 31
0.0
  0
ARC
  5
BDE2
330
BBD1
100
AcDbEntity
  8
5
  6
PHANTOM
100
AcDbCircle
 10
254.443206
 20
201.0289929999999
 30
0.0
 40
123.5627139999998
100
AcDbArc
 50
196.650248
 51
198.908923
  0
ARC
  5
BDE3
330
BBD1
100
AcDbEntity
  8
5
  6
PHANTOM
100
AcDbCircle
 10
137.57373
 20
145.374162
 30
0.0
 40
20.298761
100
AcDbArc
 50
94.98089699999999
 51
102.073789
  0
ARC
  5
BDE4
330
BBD1
100
AcDbEntity
  8
5
  6
PHANTOM
100
AcDbCircle
 10
136.0583949999998
 20
164.5378429999998
 30
0.0
 40
1.086873999999999
100
AcDbArc
 50
77.954486
 51
103.139634
  0
ARC
  5
BDE5
330
BBD1
100
AcDbEntity
  8
5
  6
PHANTOM
100
AcDbCircle
 10
137.2796779999999
 20
167.6383069999999
 30
0.0
 40
2.267253999999998
100
AcDbArc
 50
243.9841279999999
 51
286.719816
  0
ARC
  5
BDE6
330
BBD1
100
AcDbEntity
  8
5
  6
PHANTOM
100
AcDbCircle
 10
141.4627529999999
 20
169.078218
 30
0.0
 40
3.284759999999999
100
AcDbArc
 50
129.8009419999999
 51
184.4514439999999
  0
ARC
  5
BDE7
330
BBD1
100
AcDbEntity
  8
5
  6
PHANTOM
100
AcDbCircle
 10
139.0056299999999
 20
161.892625
 30
0.0
 40
3.732066
100
AcDbArc
 50
85.56350100000001
 51
106.7198209999999
  0
ARC
  5
BDE8
330
BBD1
100
AcDbEntity
  8
5
  6
PHANTOM
100
AcDbCircle
 10
119.0046379999998
 20
160.415178
 30
0.0
 40
20.94500899999999
100
AcDbArc
 50
14.37038999999999
 51
23.668023
  0
ARC
  5
BDE9
330
BBD1
100
AcDbEntity
  8
5
  6
PHANTOM
100
AcDbCircle
 10
143.657958
 20
166.443544
 30
0.0
 40
6.714102999999997
100
AcDbArc
 50
109.284898
 51
129.8009419999999
  0
ARC
  5
BDEA
330
BBD1
100
AcDbEntity
  8
1
  6
Continuous
100
AcDbCircle
 10
129.61209
 20
178.0766769999999
 30
0.0
 40
13.95287699999999
100
AcDbArc
 50
269.5458449999999
 51
279.438779
  0
ARC
  5
BDEB
330
BBD1
100
AcDbEntity
  8
1
  6
Continuous
100
AcDbCircle
 10
133.6271509999999
 20
153.925142
 30
0.0
 40
10.530131
100
AcDbArc
 50
63.073792
 51
99.43877800000002
  0
ARC
  5
BDEC
330
BBD1
100
AcDbEntity
  8
1
  6
Continuous
100
AcDbCircle
 10
129.203506
 20
145.2155239999999
 30
0.0
 40
20.298761
100
AcDbArc
 50
55.98089599999998
 51
63.073792
  0
ARC
  5
BDED
330
BBD1
100
AcDbEntity
  8
1
  6
Continuous
100
AcDbCircle
 10
140.0859669999998
 20
161.0621429999999
 30
0.0
 40
1.086873999999999
100
AcDbArc
 50
38.954485
 51
64.13963599999999
  0
ARC
  5
BDEE
330
BBD1
100
AcDbEntity
  8
5
  6
PHANTOM
100
AcDbCircle
 10
150.256423
 20
165.9900529999999
 30
0.0
 40
3.833123
100
AcDbArc
 50
4.933144999999997
 51
26.958099
  0
LINE
  5
BDEF
330
BBD1
100
AcDbEntity
  8
5
  6
PHANTOM
100
AcDbLine
 10
155.882293
 20
165.0842609999999
 30
0.0
 11
156.4071039999998
 21
164.4566669999998
 31
0.0
  0
ARC
  5
BDF0
330
BBD1
100
AcDbEntity
  8
5
  6
PHANTOM
100
AcDbCircle
 10
155.0650629999998
 20
167.97468
 30
0.0
 40
3.003727999999998
100
AcDbArc
 50
285.787782
 51
324.5851859999999
  0
ARC
  5
BDF1
330
BBD1
100
AcDbEntity
  8
5
  6
PHANTOM
100
AcDbCircle
 10
155.484298
 20
166.4412859999999
 30
0.0
 40
1.414184999999997
100
AcDbArc
 50
184.9331399999999
 51
286.3461699999998
  0
LINE
  5
BDF2
330
BBD1
100
AcDbEntity
  8
5
  6
PHANTOM
100
AcDbLine
 10
152.3065939999999
 20
168.9794779999998
 30
0.0
 11
153.673034
 21
167.7277469999999
 31
0.0
  0
ARC
  5
BDF3
330
BBD1
100
AcDbEntity
  8
5
  6
PHANTOM
100
AcDbCircle
 10
145.5266109999998
 20
170.538713
 30
0.0
 40
3.590214
100
AcDbArc
 50
15.150125
 51
63.02593899999999
  0
ARC
  5
BDF4
330
BBD1
100
AcDbEntity
  8
5
  6
PHANTOM
100
AcDbCircle
 10
145.709365
 20
170.897813
 30
0.0
 40
3.187289999999998
100
AcDbArc
 50
63.02593899999999
 51
109.284898
  0
ARC
  5
BDF5
330
BBD1
100
AcDbEntity
  8
5
  6
PHANTOM
100
AcDbCircle
 10
150.056106
 20
173.144426
 30
0.0
 40
4.734078
100
AcDbArc
 50
269.4296699999999
 51
298.3840579999998
  0
ARC
  5
BDF6
330
BBD1
100
AcDbEntity
  8
5
  6
PHANTOM
100
AcDbCircle
 10
161.334991
 20
175.0438859999999
 30
0.0
 40
13.106242
100
AcDbArc
 50
197.688805
 51
210.4064539999999
  0
ARC
  5
BDF7
330
BBD1
100
AcDbEntity
  8
5
  6
PHANTOM
100
AcDbCircle
 10
149.198241
 20
171.1731739999999
 30
0.0
 40
0.367205
100
AcDbArc
 50
124.162457
 51
197.688802
  0
ARC
  5
BDF8
330
BBD1
100
AcDbEntity
  8
1
  6
Continuous
100
AcDbCircle
 10
147.191222
 20
157.760591
 30
0.0
 40
6.714102999999997
100
AcDbArc
 50
70.284901
 51
90.80094499999995
  0
ARC
  5
BDF9
330
BBD1
100
AcDbEntity
  8
1
  6
Continuous
100
AcDbCircle
 10
147.143295
 20
161.1896
 30
0.0
 40
3.284759999999999
100
AcDbArc
 50
90.80094499999995
 51
145.451447
  0
LINE
  5
BDFA
330
BBD1
100
AcDbEntity
  8
1
  6
Continuous
100
AcDbLine
 10
149.4561909999999
 20
164.0811249999998
 30
0.0
 11
152.663848
 21
162.9316649999998
 31
0.0
  0
ARC
  5
BDFB
330
BBD1
100
AcDbEntity
  8
1
  6
Continuous
100
AcDbCircle
 10
151.5886379999998
 20
159.931207
 30
0.0
 40
3.187289999999998
100
AcDbArc
 50
24.02594
 51
70.284901
  0
ARC
  5
BDFC
330
BBD1
100
AcDbEntity
  8
5
  6
PHANTOM
100
AcDbCircle
 10
156.65895
 20
174.4258439999999
 30
0.0
 40
16.543596
100
AcDbArc
 50
286.0983499999999
 51
307.925221
  0
ARC
  5
BDFD
330
BBD1
100
AcDbEntity
  8
1
  6
Continuous
100
AcDbCircle
 10
162.0298149999999
 20
140.403802
 30
0.0
 40
1.162484
100
AcDbArc
 50
268.9252189999999
 51
323.707377
  0
LINE
  5
BDFE
330
BBD1
100
AcDbEntity
  8
1
  6
Continuous
100
AcDbLine
 10
163.9107349999999
 20
138.591478
 30
0.0
 11
165.2591699999998
 21
139.7709439999998
 31
0.0
  0
LINE
  5
BDFF
330
BBD1
100
AcDbEntity
  8
5
  6
PHANTOM
100
AcDbLine
 10
168.7149499999998
 20
162.0682769999999
 30
0.0
 11
169.0206139999999
 21
163.8334979999999
 31
0.0
  0
ARC
  5
BE00
330
BBD1
100
AcDbEntity
  8
5
  6
PHANTOM
100
AcDbCircle
 10
166.112685
 20
162.2930159999999
 30
0.0
 40
1.162484
100
AcDbArc
 50
307.925221
 51
2.707376
  0
ARC
  5
BE01
330
BBD1
100
AcDbEntity
  8
1
  6
Continuous
100
AcDbCircle
 10
133.164626
 20
157.1132369999999
 30
0.0
 40
17.5
100
AcDbArc
 50
182.0292169999999
 51
318.8861289999999
  0
ARC
  5
BE02
330
BBD1
100
AcDbEntity
  8
1
  6
Continuous
100
AcDbCircle
 10
133.164626
 20
157.1132369999999
 30
0.0
 40
25.0
100
AcDbArc
 50
163.4853389999999
 51
322.4205609999998
  0
ARC
  5
BE03
330
BBD1
100
AcDbEntity
  8
1
  6
Continuous
100
AcDbCircle
 10
133.164626
 20
157.1132369999999
 30
0.0
 40
25.0
100
AcDbArc
 50
340.5327529999999
 51
35.83806699999998
  0
LINE
  5
BE04
330
BBD1
100
AcDbEntity
  8
1
  6
Continuous
100
AcDbLine
 10
139.876959
 20
88.09226499999999
 30
0.0
 11
161.816199
 21
84.84773500000001
 31
0.0
  0
LWPOLYLINE
  5
BE05
330
BBD1
100
AcDbEntity
  8
1
  6
Continuous
100
AcDbPolyline
 90
        2
 70
     0
 43
0.0
 10
138.0824339999997
 20
85.40044599999998
 10
139.8769739999998
 20
88.09226499999999
  0
LWPOLYLINE
  5
BE09
330
BBD1
100
AcDbEntity
  8
1
  6
Continuous
100
AcDbPolyline
 90
        2
 70
     0
 43
0.0
 10
140.2612819999999
 20
85.40044599999998
 10
141.880087
 20
87.828654
  0
LWPOLYLINE
  5
BE0D
330
BBD1
100
AcDbEntity
  8
1
  6
Continuous
100
AcDbPolyline
 90
        2
 70
     0
 43
0.0
 10
151.6430419999998
 20
86.35221300000003
 10
150.804587
 20
83.83684800000002
  0
LWPOLYLINE
  5
BE11
330
BBD1
100
AcDbEntity
  8
1
  6
Continuous
100
AcDbPolyline
 90
        2
 70
     0
 43
0.0
 10
149.060553
 20
86.73414099999998
 10
149.597037
 20
83.91758199999998
  0
LWPOLYLINE
  5
BE15
330
BBD1
100
AcDbEntity
  8
1
  6
Continuous
100
AcDbPolyline
 90
        2
 70
     0
 43
0.0
 10
152.6565919999999
 20
86.20232599999999
 10
151.8181209999999
 20
83.68694599999997
  0
ARC
  5
BE19
330
BBD1
100
AcDbEntity
  8
1
  6
Continuous
100
AcDbCircle
 10
161.6384639999999
 20
86.89577699999999
 30
0.0
 40
2.0
100
AcDbArc
 50
261.5876559999999
 51
351.5876549999999
  0
LINE
  5
BE1A
330
BBD1
100
AcDbEntity
  8
1
  6
Continuous
100
AcDbLine
 10
117.2990779999999
 20
84.50985199999998
 30
0.0
 11
138.597174
 21
84.50985199999998
 31
0.0
  0
LINE
  5
BE1B
330
BBD1
100
AcDbEntity
  8
1
  6
Continuous
100
AcDbLine
 10
117.2990779999999
 20
84.50985199999998
 30
0.0
 11
136.418326
 21
84.50985199999998
 31
0.0
  0
ARC
  5
BE1C
330
BBD1
100
AcDbEntity
  8
1
  6
Continuous
100
AcDbCircle
 10
138.597174
 20
86.50985199999999
 30
0.0
 40
2.0
100
AcDbArc
 50
269.9999969999999
 51
326.309931
  0
ARC
  5
BE1D
330
BBD1
100
AcDbEntity
  8
1
  6
Continuous
100
AcDbCircle
 10
136.418326
 20
86.50985199999999
 30
0.0
 40
2.0
100
AcDbArc
 50
269.9999969999999
 51
326.309931
  0
ARC
  5
BE1E
330
BBD1
100
AcDbEntity
  8
1
  6
Continuous
100
AcDbCircle
 10
150.2113399999998
 20
84.03458699999999
 30
0.0
 40
0.625342
100
AcDbArc
 50
190.7843039999999
 51
341.5650509999999
  0
LINE
  5
BE1F
330
BBD1
100
AcDbEntity
  8
1
  6
Continuous
100
AcDbLine
 10
150.1198489999999
 20
83.41597199999998
 30
0.0
 11
151.133398
 21
83.266085
 31
0.0
  0
ARC
  5
BE20
330
BBD1
100
AcDbEntity
  8
1
  6
Continuous
100
AcDbCircle
 10
151.2248749999999
 20
83.884699
 30
0.0
 40
0.625342
100
AcDbArc
 50
261.5876559999999
 51
341.5650509999999
  0
LINE
  5
BE21
330
BBD1
100
AcDbEntity
  8
1
  6
Continuous
100
AcDbLine
 10
140.724478
 20
89.98867999999999
 30
0.0
 11
162.108786
 21
86.82622
 31
0.0
  0
LINE
  5
BE22
330
BBD1
100
AcDbEntity
  8
1
  6
Continuous
100
AcDbLine
 10
117.35668
 20
86.50985199999999
 30
0.0
 11
136.418326
 21
86.50985199999999
 31
0.0
  0
LWPOLYLINE
  5
BE23
330
BBD1
100
AcDbEntity
  8
1
  6
Continuous
100
AcDbPolyline
 90
       18
 70
     0
 43
0.0
 10
137.900931
 20
88.73375899999997
 10
138.016928
 20
88.884821
 10
138.142096
 20
89.02837599999998
 10
138.275931
 20
89.16387399999996
 10
138.41799
 20
89.29082699999998
 10
138.5676179999999
 20
89.408671
 10
138.7242949999998
 20
89.51699299999999
 10
138.887427
 20
89.61538199999997
 10
139.056342
 20
89.70340999999995
 10
139.2303829999999
 20
89.78077199999999
 10
139.408957
 20
89.847178
 10
139.5912539999999
 20
89.90233899999998
 10
139.776633
 20
89.946055
 10
139.964377
 20
89.97816
 10
140.153799
 20
89.99854499999996
 10
140.344077
 20
90.00710500000002
 10
140.5345059999999
 20
90.003825
 10
140.7244629999999
 20
89.98868799999998
  0
LWPOLYLINE
  5
BE37
330
BBD1
100
AcDbEntity
  8
1
  6
Continuous
100
AcDbPolyline
 90
        2
 70
     0
 43
0.0
 10
136.418326
 20
86.50985199999999
 10
137.900946
 20
88.73378999999998
  0
ARC
  5
BE3B
330
BBD1
100
AcDbEntity
  8
1
  6
Continuous
100
AcDbCircle
 10
140.117255
 20
87.55129499999998
 30
0.0
 40
0.5
100
AcDbArc
 50
81.58765499999999
 51
146.309933
  0
ARC
  5
BE3C
330
BBD1
100
AcDbEntity
  8
1
  6
Continuous
100
AcDbCircle
 10
160.1244719999999
 20
94.791377
 30
0.0
 40
2.909844999999998
100
AcDbArc
 50
23.929797
 51
136.0702089999997
  0
LINE
  5
BE3D
330
BBD1
100
AcDbEntity
  8
1
  6
Continuous
100
AcDbLine
 10
155.2815459999998
 20
87.835879
 30
0.0
 11
155.9974269999999
 21
92.676554
 31
0.0
  0
ARC
  5
BE3E
330
BBD1
100
AcDbEntity
  8
1
  6
Continuous
100
AcDbCircle
 10
163.466437
 20
91.57198599999999
 30
0.0
 40
7.550231
100
AcDbArc
 50
136.0702089999997
 51
170.7781019999998
  0
ARC
  5
BE3F
330
BBD1
100
AcDbEntity
  8
1
  6
Continuous
100
AcDbCircle
 10
161.1380069999999
 20
94.64149
 30
0.0
 40
2.909844999999998
100
AcDbArc
 50
23.929797
 51
81.58765499999999
  0
ARC
  5
BE40
330
BBD1
100
AcDbEntity
  8
1
  6
Continuous
100
AcDbCircle
 10
156.896506
 20
92.75927199999999
 30
0.0
 40
7.550231
100
AcDbArc
 50
352.7213919999999
 51
23.929797
  0
LINE
  5
BE41
330
BBD1
100
AcDbEntity
  8
1
  6
Continuous
100
AcDbLine
 10
162.6765499999999
 20
87.24769100000001
 30
0.0
 11
163.372351
 21
91.95259300000001
 31
0.0
  0
ARC
  5
BE42
330
BBD1
100
AcDbEntity
  8
1
  6
Continuous
100
AcDbCircle
 10
162.181937
 20
87.32084099999999
 30
0.0
 40
0.5
100
AcDbArc
 50
261.5876559999999
 51
351.5876549999999
  0
LINE
  5
BE43
330
BBD1
100
AcDbEntity
  8
1
  6
Continuous
100
AcDbLine
 10
163.616949
 20
86.60317499999996
 30
0.0
 11
164.3859399999998
 21
91.80305000000002
 31
0.0
  0
ARC
  5
BE44
330
BBD1
100
AcDbEntity
  8
1
  6
Continuous
100
AcDbCircle
 10
155.882956
 20
92.90915899999999
 30
0.0
 40
7.550231
100
AcDbArc
 50
352.7213919999999
 51
23.929797
  0
LINE
  5
BE45
330
BBD1
100
AcDbEntity
  8
1
  6
Continuous
100
AcDbLine
 10
160.550177
 20
97.669917
 30
0.0
 11
161.563712
 21
97.52002199999999
 31
0.0
  0
ARC
  5
BE46
330
BBD1
100
AcDbEntity
  8
1
  6
Continuous
100
AcDbCircle
 10
111.477026
 20
87.61614499999996
 30
0.0
 40
5.5
100
AcDbArc
 50
0.0
 51
180.000005
  0
LINE
  5
BE47
330
BBD1
100
AcDbEntity
  8
1
  6
Continuous
100
AcDbLine
 10
105.977026
 20
80.61614500000002
 30
0.0
 11
105.977026
 21
87.61614499999996
 31
0.0
  0
ARC
  5
BE48
330
BBD1
100
AcDbEntity
  8
1
  6
Continuous
100
AcDbCircle
 10
117.35668
 20
84.50985199999998
 30
0.0
 40
2.0
100
AcDbArc
 50
90.00000300000001
 51
153.4156519999999
  0
LINE
  5
BE49
330
BBD1
100
AcDbEntity
  8
1
  6
Continuous
100
AcDbLine
 10
105.977026
 20
80.61614500000002
 30
0.0
 11
116.293829
 21
80.61614500000002
 31
0.0
  0
LINE
  5
BE4A
330
BBD1
100
AcDbEntity
  8
1
  6
Continuous
100
AcDbLine
 10
105.977026
 20
82.61614499999998
 30
0.0
 11
114.172583
 21
82.61614499999998
 31
0.0
  0
LINE
  5
BE4B
330
BBD1
100
AcDbEntity
  8
1
  6
Continuous
100
AcDbLine
 10
107.471152
 20
80.61614500000002
 30
0.0
 11
107.471152
 21
82.61614499999998
 31
0.0
  0
ARC
  5
BE4C
330
BBD1
100
AcDbEntity
  8
1
  6
Continuous
100
AcDbCircle
 10
116.293829
 20
82.61614499999998
 30
0.0
 40
2.0
100
AcDbArc
 50
269.9999969999999
 51
333.4156469999999
  0
LINE
  5
BE4D
330
BBD1
100
AcDbEntity
  8
1
  6
Continuous
100
AcDbLine
 10
117.2990779999999
 20
84.50984400000001
 30
0.0
 11
115.903525
 21
81.72109499999997
 31
0.0
  0
ARC
  5
BE4E
330
BBD1
100
AcDbEntity
  8
1
  6
Continuous
100
AcDbCircle
 10
114.1149809999999
 20
82.61614499999998
 30
0.0
 40
2.0
100
AcDbArc
 50
269.9999969999999
 51
333.4156469999999
  0
LINE
  5
BE4F
330
BBD1
100
AcDbEntity
  8
1
  6
Continuous
100
AcDbLine
 10
115.568121
 20
85.40487199999999
 30
0.0
 11
114.172583
 21
82.61613699999998
 31
0.0
  0
LINE
  5
BE50
330
BBD1
100
AcDbEntity
  8
1
  6
Continuous
100
AcDbLine
 10
119.4779269999999
 20
84.50984400000001
 30
0.0
 11
118.0823879999999
 21
81.72110999999999
 31
0.0
  0
LINE
  5
BE51
330
BBD1
100
AcDbEntity
  8
1
  6
Continuous
100
AcDbLine
 10
117.036353
 20
86.50985199999999
 30
0.0
 11
117.036353
 21
87.61614499999996
 31
0.0
  0
ARC
  5
BE52
330
BBD1
100
AcDbEntity
  8
1
  6
Continuous
100
AcDbCircle
 10
128.6646189999999
 20
84.509612
 30
0.0
 40
3.25
100
AcDbArc
 50
179.995769
 51
217.182865
  0
ARC
  5
BE53
330
BBD1
100
AcDbEntity
  8
1
  6
Continuous
100
AcDbCircle
 10
152.164619
 20
70.009612
 30
0.0
 40
16.85
100
AcDbArc
 50
100.51187
 51
123.07165
  0
ARC
  5
BE54
330
BBD1
100
AcDbEntity
  8
1
  6
Continuous
100
AcDbCircle
 10
152.164619
 20
70.009612
 30
0.0
 40
18.85
100
AcDbArc
 50
80.14225700000002
 51
97.90784300000002
  0
ARC
  5
BE55
330
BBD1
100
AcDbEntity
  8
1
  6
Continuous
100
AcDbCircle
 10
152.164619
 20
70.009612
 30
0.0
 40
19.953671
100
AcDbArc
 50
80.22221599999998
 51
106.5448429999998
  0
LINE
  5
BE56
330
BBD1
100
AcDbEntity
  8
1
  6
Continuous
100
AcDbLine
 10
155.7509049999999
 20
91.009612
 30
0.0
 11
138.1646259999999
 21
91.009612
 31
0.0
  0
ARC
  5
BE57
330
BBD1
100
AcDbEntity
  8
1
  6
Continuous
100
AcDbCircle
 10
136.931079
 20
94.50985199999999
 30
0.0
 40
10.0
100
AcDbArc
 50
286.9041089999999
 51
301.8721529999999
  0
ARC
  5
BE58
330
BBD1
100
AcDbEntity
  8
1
  6
Continuous
100
AcDbCircle
 10
152.164619
 20
70.009612
 30
0.0
 40
18.85
100
AcDbArc
 50
112.9816479999998
 51
121.872153
  0
LINE
  5
BE59
330
BBD1
100
AcDbEntity
  8
1
  6
Continuous
100
AcDbLine
 10
122.1646189999999
 20
84.50985199999998
 30
0.0
 11
122.1646189999999
 21
80.009612
 31
0.0
  0
ARC
  5
BE5A
330
BBD1
100
AcDbEntity
  8
1
  6
Continuous
100
AcDbCircle
 10
152.164619
 20
70.009612
 30
0.0
 40
13.6
100
AcDbArc
 50
99.074904
 51
132.6679249999999
  0
LINE
  5
BE5B
330
BBD1
100
AcDbEntity
  8
1
  6
Continuous
100
AcDbLine
 10
67.84512499999999
 20
151.3395379999998
 30
0.0
 11
67.84512499999999
 21
148.8782889999999
 31
0.0
  0
LINE
  5
BE5C
330
BBD1
100
AcDbEntity
  8
1
  6
Continuous
100
AcDbLine
 10
64.36628899999999
 20
166.8570179999998
 30
0.0
 11
64.36628899999999
 21
149.433907
 31
0.0
  0
LINE
  5
BE5D
330
BBD1
100
AcDbEntity
  8
1
  6
Continuous
100
AcDbLine
 10
62.366289
 20
159.2551049999999
 30
0.0
 11
62.366289
 21
150.477784
 31
0.0
  0
LINE
  5
BE5E
330
BBD1
100
AcDbEntity
  8
1
  6
Continuous
100
AcDbLine
 10
64.88406600000001
 20
137.8926549999999
 30
0.0
 11
70.689837
 21
138.6436699999999
 31
0.0
  0
ARC
  5
BE5F
330
BBD1
100
AcDbEntity
  8
1
  6
Continuous
100
AcDbCircle
 10
69.876467
 20
144.9314659999998
 30
0.0
 40
6.340179
100
AcDbArc
 50
277.2467689999999
 51
309.623304
  0
ARC
  5
BE60
330
BBD1
100
AcDbEntity
  8
1
  6
Continuous
100
AcDbCircle
 10
69.876467
 20
141.3586359999999
 30
0.0
 40
6.340179
100
AcDbArc
 50
50.37669799999999
 51
90.00000500000002
  0
ARC
  5
BE61
330
BBD1
100
AcDbEntity
  8
1
  6
Continuous
100
AcDbCircle
 10
69.876467
 20
142.5381099999999
 30
0.0
 40
6.340179
100
AcDbArc
 50
50.37669799999999
 51
90.00000500000002
  0
LINE
  5
BE62
330
BBD1
100
AcDbEntity
  8
1
  6
Continuous
100
AcDbLine
 10
63.40468000000001
 20
148.6780019999999
 30
0.0
 11
61.98307299999999
 21
136.8986669999999
 31
0.0
  0
LINE
  5
BE63
330
BBD1
100
AcDbEntity
  8
1
  6
Continuous
100
AcDbLine
 10
67.84512499999999
 20
148.878282
 30
0.0
 11
63.95825399999999
 21
136.5127879999998
 31
0.0
  0
LINE
  5
BE64
330
BBD1
100
AcDbEntity
  8
1
  6
Continuous
100
AcDbLine
 10
65.48944300000001
 20
148.053666
 30
0.0
 11
62.050295
 21
137.1125189999999
 31
0.0
  0
LINE
  5
BE65
330
BBD1
100
AcDbEntity
  8
1
  6
Continuous
100
AcDbLine
 10
63.95825399999999
 20
136.5127879999998
 30
0.0
 11
62.050295
 21
137.1125189999999
 31
0.0
  0
ARC
  5
BE66
330
BBD1
100
AcDbEntity
  8
1
  6
Continuous
100
AcDbCircle
 10
65.012346
 20
136.900926
 30
0.0
 40
1.0
100
AcDbArc
 50
97.370643
 51
173.118473
  0
LINE
  5
BE67
330
BBD1
100
AcDbEntity
  8
1
  6
Continuous
100
AcDbLine
 10
67.47438299999998
 20
147.6988149999999
 30
0.0
 11
69.876467
 21
147.6988149999999
 31
0.0
  0
LINE
  5
BE68
330
BBD1
100
AcDbEntity
  8
1
  6
Continuous
100
AcDbLine
 10
67.84512499999999
 20
148.8782889999999
 30
0.0
 11
69.876467
 21
148.8782889999999
 31
0.0
  0
LINE
  5
BE69
330
BBD1
100
AcDbEntity
  8
1
  6
Continuous
100
AcDbLine
 10
64.36628899999999
 20
149.433907
 30
0.0
 11
67.36343599999999
 21
149.433907
 31
0.0
  0
ARC
  5
BE6A
330
BBD1
100
AcDbEntity
  8
1
  6
Continuous
100
AcDbCircle
 10
64.36628899999999
 20
150.477784
 30
0.0
 40
2.0
100
AcDbArc
 50
179.999997
 51
253.3282509999999
  0
LINE
  5
BE6B
330
BBD1
100
AcDbEntity
  8
1
  6
Continuous
100
AcDbLine
 10
63.79252799999999
 20
148.56186
 30
0.0
 11
65.489458
 21
148.053666
 31
0.0
  0
ARC
  5
BE6C
330
BBD1
100
AcDbEntity
  8
1
  6
Continuous
100
AcDbCircle
 10
67.36343599999999
 20
148.95221
 30
0.0
 40
0.481696
100
AcDbArc
 50
342.5503990000001
 51
90.00000500000002
  0
ARC
  5
BE6D
330
BBD1
100
AcDbEntity
  8
1
  6
Continuous
100
AcDbCircle
 10
71.355547
 20
144.3245249999999
 30
0.0
 40
4.020926
100
AcDbArc
 50
351.566194
 51
50.37669799999999
  0
ARC
  5
BE6E
330
BBD1
100
AcDbEntity
  8
1
  6
Continuous
100
AcDbCircle
 10
71.355547
 20
143.1450509999999
 30
0.0
 40
4.020926
100
AcDbArc
 50
309.623304
 51
61.115504
  0
LINE
  5
BE6F
330
BBD1
100
AcDbEntity
  8
1
  6
Continuous
100
AcDbLine
 10
75.376467
 20
144.3245249999999
 30
0.0
 11
75.376467
 21
143.1450509999999
 31
0.0
  0
ARC
  5
BE70
330
BBD1
100
AcDbEntity
  8
1
  6
Continuous
100
AcDbCircle
 10
65.47258199999999
 20
186.2134259999999
 30
0.0
 40
19.356407
100
AcDbArc
 50
269.9999969999999
 51
284.589829
  0
ARC
  5
BE71
330
BBD1
100
AcDbEntity
  8
1
  6
Continuous
100
AcDbCircle
 10
65.47258199999999
 20
150.363809
 30
0.0
 40
19.356407
100
AcDbArc
 50
75.41017499999998
 51
90.00000500000002
  0
ARC
  5
BE72
330
BBD1
100
AcDbEntity
  8
1
  6
Continuous
100
AcDbCircle
 10
65.47258199999999
 20
152.363809
 30
0.0
 40
19.356407
100
AcDbArc
 50
75.41017499999998
 51
90.00000500000002
  0
LINE
  5
BE73
330
BBD1
100
AcDbEntity
  8
1
  6
Continuous
100
AcDbLine
 10
60.47258199999999
 20
169.7202159999999
 30
0.0
 11
60.47258199999999
 21
159.7551049999999
 31
0.0
  0
LINE
  5
BE74
330
BBD1
100
AcDbEntity
  8
1
  6
Continuous
100
AcDbLine
 10
58.47258199999998
 20
169.7202159999999
 30
0.0
 11
58.47258199999998
 21
160.2551049999999
 31
0.0
  0
LINE
  5
BE75
330
BBD1
100
AcDbEntity
  8
1
  6
Continuous
100
AcDbLine
 10
59.472582
 20
159.2551049999999
 30
0.0
 11
62.366289
 21
159.2551049999999
 31
0.0
  0
LINE
  5
BE76
330
BBD1
100
AcDbEntity
  8
1
  6
Continuous
100
AcDbLine
 10
60.47258199999999
 20
159.7551049999999
 30
0.0
 11
63.366289
 21
159.7551049999999
 31
0.0
  0
LINE
  5
BE77
330
BBD1
100
AcDbEntity
  8
1
  6
Continuous
100
AcDbLine
 10
65.47258199999999
 20
166.8570179999998
 30
0.0
 11
60.47258199999999
 21
166.8570179999998
 31
0.0
  0
ARC
  5
BE78
330
BBD1
100
AcDbEntity
  8
1
  6
Continuous
100
AcDbCircle
 10
59.472582
 20
160.2551049999999
 30
0.0
 40
1.0
100
AcDbArc
 50
179.999997
 51
269.9999969999999
  0
ARC
  5
BE79
330
BBD1
100
AcDbEntity
  8
1
  6
Continuous
100
AcDbCircle
 10
66.915514
 20
163.3203289999999
 30
0.0
 40
0.5
100
AcDbArc
 50
3.077856
 51
90.00000500000002
  0
ARC
  5
BE7A
330
BBD1
100
AcDbEntity
  8
1
  6
Continuous
100
AcDbCircle
 10
64.607043
 20
163.3203289999999
 30
0.0
 40
0.5
100
AcDbArc
 50
3.077856
 51
90.00000500000002
  0
LINE
  5
BE7B
330
BBD1
100
AcDbEntity
  8
1
  6
Continuous
100
AcDbLine
 10
65.10632499999998
 20
163.3471759999999
 30
0.0
 11
65.11353800000001
 21
163.2130379999999
 31
0.0
  0
ARC
  5
BE7C
330
BBD1
100
AcDbEntity
  8
1
  6
Continuous
100
AcDbCircle
 10
63.366289
 20
158.7551049999999
 30
0.0
 40
1.0
100
AcDbArc
 50
0.000003
 51
90.00000500000002
  0
LINE
  5
BE7D
330
BBD1
100
AcDbEntity
  8
1
  6
Continuous
100
AcDbLine
 10
67.41479699999999
 20
163.3471759999999
 30
0.0
 11
67.43956700000001
 21
162.886538
 31
0.0
  0
LINE
  5
BE7E
330
BBD1
100
AcDbEntity
  8
1
  6
Continuous
100
AcDbLine
 10
64.36628899999999
 20
163.8203289999999
 30
0.0
 11
66.915514
 21
163.8203289999999
 31
0.0
  0
LINE
  5
BE7F
330
BBD1
100
AcDbEntity
  8
1
  6
Continuous
100
AcDbLine
 10
65.47258199999999
 20
169.7202159999999
 30
0.0
 11
60.47258199999999
 21
169.7202159999999
 31
0.0
  0
LINE
  5
BE80
330
BBD1
100
AcDbEntity
  8
1
  6
Continuous
100
AcDbLine
 10
65.47258199999999
 20
169.7202159999999
 30
0.0
 11
60.47258199999999
 21
169.7202159999999
 31
0.0
  0
LINE
  5
BE81
330
BBD1
100
AcDbEntity
  8
1
  6
Continuous
100
AcDbLine
 10
65.47258199999999
 20
171.720216
 30
0.0
 11
60.47258199999999
 21
171.720216
 31
0.0
  0
ARC
  5
BE82
330
BBD1
100
AcDbEntity
  8
1
  6
Continuous
100
AcDbCircle
 10
60.47258199999999
 20
169.7202159999999
 30
0.0
 40
2.0
100
AcDbArc
 50
90.00000500000002
 51
180.0000009999999
  0
LINE
  5
BE83
330
BBD1
100
AcDbEntity
  8
1
  6
Continuous
100
AcDbLine
 10
70.97258199999997
 20
170.2886129999999
 30
0.0
 11
70.97258199999997
 21
168.2886129999999
 31
0.0
  0
ARC
  5
BE84
330
BBD1
100
AcDbEntity
  8
1
  6
Continuous
100
AcDbCircle
 10
70.13824699999999
 20
168.2886129999999
 30
0.0
 40
0.834336
100
AcDbArc
 50
284.589829
 51
75.41017499999998
  0
ARC
  5
BE85
330
BBD1
100
AcDbEntity
  8
1
  6
Continuous
100
AcDbCircle
 10
70.13824699999999
 20
170.2886129999999
 30
0.0
 40
0.834336
100
AcDbArc
 50
0.000003
 51
75.41017499999998
  0
LINE
  5
BE86
330
BBD1
100
AcDbEntity
  8
1
  6
Continuous
100
AcDbLine
 10
66.716049
 20
166.8969999999999
 30
0.0
 11
66.716049
 21
166.401179
 31
0.0
  0
LINE
  5
BE87
330
BBD1
100
AcDbEntity
  8
1
  6
Continuous
100
AcDbLine
 10
60.366049
 20
159.2551049999999
 30
0.0
 11
60.366049
 21
148.6763159999999
 31
0.0
  0
LINE
  5
BE88
330
BBD1
100
AcDbEntity
  8
1
  6
Continuous
100
AcDbLine
 10
62.366289
 20
159.7551049999999
 30
0.0
 11
62.366289
 21
148.6763159999999
 31
0.0
  0
LINE
  5
BE89
330
BBD1
100
AcDbEntity
  8
1
  6
Continuous
100
AcDbLine
 10
66.266289
 20
163.2130379999999
 30
0.0
 11
66.266289
 21
151.0130379999999
 31
0.0
  0
LINE
  5
BE8A
330
BBD1
100
AcDbEntity
  8
1
  6
Continuous
100
AcDbLine
 10
66.266289
 20
151.0130379999999
 30
0.0
 11
64.36628899999999
 21
151.0130379999999
 31
0.0
  0
LINE
  5
BE8B
330
BBD1
100
AcDbEntity
  8
1
  6
Continuous
100
AcDbLine
 10
66.266289
 20
163.2130379999999
 30
0.0
 11
64.36628899999999
 21
163.2130379999999
 31
0.0
  0
LINE
  5
BE8C
330
BBD1
100
AcDbEntity
  8
1
  6
Continuous
100
AcDbLine
 10
66.266289
 20
157.1130379999999
 30
0.0
 11
64.36628899999999
 21
155.2130379999999
 31
0.0
  0
LINE
  5
BE8D
330
BBD1
100
AcDbEntity
  8
1
  6
Continuous
100
AcDbLine
 10
66.266289
 20
159.0130379999999
 30
0.0
 11
64.36628899999999
 21
157.1130379999999
 31
0.0
  0
ARC
  5
BE8E
330
BBD1
100
AcDbEntity
  8
1
  6
Continuous
100
AcDbCircle
 10
67.31031
 20
152.7825379999999
 30
0.0
 40
2.555979999999999
100
AcDbArc
 50
334.371637
 51
34.371637
  0
ARC
  5
BE8F
330
BBD1
100
AcDbEntity
  8
1
  6
Continuous
100
AcDbCircle
 10
68.82226899999999
 20
152.7825379999999
 30
0.0
 40
2.555979999999999
100
AcDbArc
 50
145.6283629999998
 51
205.6283629999998
  0
LINE
  5
BE90
330
BBD1
100
AcDbEntity
  8
1
  6
Continuous
100
AcDbLine
 10
69.86628899999999
 20
162.1135379999998
 30
0.0
 11
69.86628899999999
 21
152.1125379999998
 31
0.0
  0
LINE
  5
BE91
330
BBD1
100
AcDbEntity
  8
1
  6
Continuous
100
AcDbLine
 10
66.712581
 20
151.3395379999998
 30
0.0
 11
69.41999799999999
 21
151.3395379999998
 31
0.0
  0
LINE
  5
BE92
330
BBD1
100
AcDbEntity
  8
1
  6
Continuous
100
AcDbLine
 10
66.266289
 20
152.1125379999998
 30
0.0
 11
66.712581
 21
151.3395379999998
 31
0.0
  0
ARC
  5
BE93
330
BBD1
100
AcDbEntity
  8
1
  6
Continuous
100
AcDbCircle
 10
68.822289
 20
152.7835379999999
 30
0.0
 40
2.55582
100
AcDbArc
 50
214.3528569999999
 51
214.3839999999999
  0
ARC
  5
BE94
330
BBD1
100
AcDbEntity
  8
1
  6
Continuous
100
AcDbCircle
 10
67.310289
 20
152.7835379999999
 30
0.0
 40
2.55582
100
AcDbArc
 50
325.6159999999998
 51
325.647143
  0
LINE
  5
BE95
330
BBD1
100
AcDbEntity
  8
1
  6
Continuous
100
AcDbLine
 10
69.86628899999999
 20
152.1125379999998
 30
0.0
 11
69.41999799999999
 21
151.3395379999998
 31
0.0
  0
LINE
  5
BE96
330
BBD1
100
AcDbEntity
  8
1
  6
Continuous
100
AcDbLine
 10
66.712581
 20
162.886538
 30
0.0
 11
69.41999799999999
 21
162.886538
 31
0.0
  0
LINE
  5
BE97
330
BBD1
100
AcDbEntity
  8
1
  6
Continuous
100
AcDbLine
 10
66.712581
 20
160.0005379999998
 30
0.0
 11
69.41999799999999
 21
160.0005379999998
 31
0.0
  0
LINE
  5
BE98
330
BBD1
100
AcDbEntity
  8
1
  6
Continuous
100
AcDbLine
 10
66.712581
 20
154.2265379999998
 30
0.0
 11
69.41999799999999
 21
154.2265379999998
 31
0.0
  0
LINE
  5
BE99
330
BBD1
100
AcDbEntity
  8
1
  6
Continuous
100
AcDbLine
 10
66.266289
 20
162.1135379999998
 30
0.0
 11
66.712581
 21
162.886538
 31
0.0
  0
ARC
  5
BE9A
330
BBD1
100
AcDbEntity
  8
1
  6
Continuous
100
AcDbCircle
 10
68.82226899999999
 20
161.4435379999999
 30
0.0
 40
2.555979999999999
100
AcDbArc
 50
154.371637
 51
214.371637
  0
ARC
  5
BE9B
330
BBD1
100
AcDbEntity
  8
1
  6
Continuous
100
AcDbCircle
 10
75.82723799999998
 20
157.1135379999998
 30
0.0
 40
9.560949
100
AcDbArc
 50
162.4247879999998
 51
197.5752119999999
  0
LINE
  5
BE9C
330
BBD1
100
AcDbEntity
  8
1
  6
Continuous
100
AcDbLine
 10
69.86628899999999
 20
162.1135379999998
 30
0.0
 11
69.41999799999999
 21
162.886538
 31
0.0
  0
ARC
  5
BE9D
330
BBD1
100
AcDbEntity
  8
1
  6
Continuous
100
AcDbCircle
 10
67.31031
 20
161.4435379999999
 30
0.0
 40
2.555979999999999
100
AcDbArc
 50
325.6283629999999
 51
25.628363
  0
ARC
  5
BE9E
330
BBD1
100
AcDbEntity
  8
1
  6
Continuous
100
AcDbCircle
 10
60.305341
 20
157.1135379999998
 30
0.0
 40
9.560949
100
AcDbArc
 50
342.4247879999999
 51
17.575212
  0
LINE
  5
BE9F
330
BBD1
100
AcDbEntity
  8
1
  6
Continuous
100
AcDbLine
 10
222.362963
 20
162.1135379999998
 30
0.0
 11
222.362963
 21
152.1125379999998
 31
0.0
  0
ARC
  5
BEA0
330
BBD1
100
AcDbEntity
  8
1
  6
Continuous
100
AcDbCircle
 10
224.918943
 20
152.7825379999999
 30
0.0
 40
2.555979999999999
100
AcDbArc
 50
145.6283629999998
 51
205.6283629999998
  0
LINE
  5
BEA1
330
BBD1
100
AcDbEntity
  8
1
  6
Continuous
100
AcDbLine
 10
222.362963
 20
152.1125379999998
 30
0.0
 11
222.8092549999999
 21
151.3395379999998
 31
0.0
  0
ARC
  5
BEA2
330
BBD1
100
AcDbEntity
  8
1
  6
Continuous
100
AcDbCircle
 10
224.918963
 20
152.7835379999999
 30
0.0
 40
2.55582
100
AcDbArc
 50
214.3528569999999
 51
214.3839999999999
  0
LINE
  5
BEA3
330
BBD1
100
AcDbEntity
  8
1
  6
Continuous
100
AcDbLine
 10
224.384366
 20
151.3395379999998
 30
0.0
 11
222.8092549999999
 21
151.3395379999998
 31
0.0
  0
ARC
  5
BEA4
330
BBD1
100
AcDbEntity
  8
1
  6
Continuous
100
AcDbCircle
 10
231.923912
 20
157.1135379999998
 30
0.0
 40
9.560949
100
AcDbArc
 50
162.4247879999998
 51
197.5752119999999
  0
ARC
  5
BEA5
330
BBD1
100
AcDbEntity
  8
1
  6
Continuous
100
AcDbCircle
 10
224.918943
 20
161.4435379999999
 30
0.0
 40
2.555979999999999
100
AcDbArc
 50
154.371637
 51
214.371637
  0
LINE
  5
BEA6
330
BBD1
100
AcDbEntity
  8
1
  6
Continuous
100
AcDbLine
 10
222.362963
 20
162.1135379999998
 30
0.0
 11
222.8092549999999
 21
162.886538
 31
0.0
  0
LINE
  5
BEA7
330
BBD1
100
AcDbEntity
  8
1
  6
Continuous
100
AcDbLine
 10
224.384366
 20
154.2265379999998
 30
0.0
 11
222.8092549999999
 21
154.2265379999998
 31
0.0
  0
LINE
  5
BEA8
330
BBD1
100
AcDbEntity
  8
1
  6
Continuous
100
AcDbLine
 10
224.384366
 20
160.0005379999998
 30
0.0
 11
222.8092549999999
 21
160.0005379999998
 31
0.0
  0
LINE
  5
BEA9
330
BBD1
100
AcDbEntity
  8
1
  6
Continuous
100
AcDbLine
 10
224.789925
 20
162.886538
 30
0.0
 11
222.8092549999999
 21
162.886538
 31
0.0
  0
LINE
  5
BEAA
330
BBD1
100
AcDbEntity
  8
1
  6
Continuous
100
AcDbLine
 10
127.064626
 20
88.409852
 30
0.0
 11
127.064626
 21
86.50985199999999
 31
0.0
  0
LINE
  5
BEAB
330
BBD1
100
AcDbEntity
  8
1
  6
Continuous
100
AcDbLine
 10
127.064626
 20
88.409852
 30
0.0
 11
137.6849879999997
 21
88.409852
 31
0.0
  0
ARC
  5
BEAC
330
BBD1
100
AcDbEntity
  8
1
  6
Continuous
100
AcDbCircle
 10
130.6646259999999
 20
95.635144
 30
0.0
 40
7.225291999999997
100
AcDbArc
 50
249.7567339999999
 51
290.243266
  0
LINE
  5
BEAD
330
BBD1
100
AcDbEntity
  8
1
  6
Continuous
100
AcDbLine
 10
138.1646259999999
 20
92.00985199999999
 30
0.0
 11
128.164626
 21
92.00985199999999
 31
0.0
  0
ARC
  5
BEAE
330
BBD1
100
AcDbEntity
  8
1
  6
Continuous
100
AcDbCircle
 10
130.6646259999999
 20
84.78455999999999
 30
0.0
 40
7.225291999999997
100
AcDbArc
 50
69.75673399999999
 51
110.2432659999999
  0
LINE
  5
BEAF
330
BBD1
100
AcDbEntity
  8
1
  6
Continuous
100
AcDbLine
 10
128.164626
 20
88.409852
 30
0.0
 11
128.164626
 21
92.00985199999999
 31
0.0
  0
ARC
  5
BEB0
330
BBD1
100
AcDbEntity
  8
1
  6
Continuous
100
AcDbCircle
 10
135.6646259999999
 20
95.635144
 30
0.0
 40
7.225291999999997
100
AcDbArc
 50
249.7567339999999
 51
288.2942969999998
  0
ARC
  5
BEB1
330
BBD1
100
AcDbEntity
  8
1
  6
Continuous
100
AcDbCircle
 10
135.6646259999999
 20
84.78455999999999
 30
0.0
 40
7.225291999999997
100
AcDbArc
 50
69.75673399999999
 51
110.2432659999999
  0
LINE
  5
BEB2
330
BBD1
100
AcDbEntity
  8
1
  6
Continuous
100
AcDbLine
 10
133.164626
 20
91.56356
 30
0.0
 11
133.164626
 21
88.85614399999999
 31
0.0
  0
LINE
  5
BEB3
330
BBD1
100
AcDbEntity
  8
1
  6
Continuous
100
AcDbLine
 10
138.1646259999999
 20
89.051187
 30
0.0
 11
138.1646259999999
 21
92.00985199999999
 31
0.0
  0
LINE
  5
BEB4
330
BBD1
100
AcDbEntity
  8
1
  6
Continuous
100
AcDbLine
 10
128.164626
 20
91.009612
 30
0.0
 11
124.6646189999998
 21
91.009612
 31
0.0
  0
LINE
  5
BEB5
330
BBD1
100
AcDbEntity
  8
1
  6
Continuous
100
AcDbLine
 10
131.2646259999999
 20
88.409852
 30
0.0
 11
133.164626
 21
86.50985199999999
 31
0.0
  0
LINE
  5
BEB6
330
BBD1
100
AcDbEntity
  8
1
  6
Continuous
100
AcDbLine
 10
133.164626
 20
88.409852
 30
0.0
 11
135.0646259999997
 21
86.50985199999999
 31
0.0
  0
LINE
  5
BEB7
330
BBD1
100
AcDbEntity
  8
1
  6
Continuous
100
AcDbLine
 10
138.1646259999999
 20
154.2262369999999
 30
0.0
 11
138.1646259999999
 21
160.000237
 31
0.0
  0
LINE
  5
BEB8
330
BBD1
100
AcDbEntity
  8
1
  6
Continuous
100
AcDbLine
 10
128.164626
 20
154.2262369999999
 30
0.0
 11
128.164626
 21
160.000237
 31
0.0
  0
CIRCLE
  5
BEB9
330
BBD1
100
AcDbEntity
  8
1
  6
Continuous
100
AcDbCircle
 10
133.164626
 20
157.1132369999999
 30
0.0
 40
5.0
  0
LINE
  5
BEBA
330
BBD1
100
AcDbEntity
  8
1
  6
Continuous
100
AcDbLine
 10
138.1646259999999
 20
154.2262369999999
 30
0.0
 11
133.164626
 21
151.339237
 31
0.0
  0
LINE
  5
BEBB
330
BBD1
100
AcDbEntity
  8
1
  6
Continuous
100
AcDbLine
 10
128.164626
 20
154.2262369999999
 30
0.0
 11
133.164626
 21
151.339237
 31
0.0
  0
LINE
  5
BEBC
330
BBD1
100
AcDbEntity
  8
1
  6
Continuous
100
AcDbLine
 10
133.164626
 20
162.886237
 30
0.0
 11
138.1646259999999
 21
160.000237
 31
0.0
  0
LINE
  5
BEBD
330
BBD1
100
AcDbEntity
  8
1
  6
Continuous
100
AcDbLine
 10
133.164626
 20
162.886237
 30
0.0
 11
128.164626
 21
160.000237
 31
0.0
  0
LINE
  5
BEBE
330
BBD1
100
AcDbEntity
  8
2
  6
Continuous
100
AcDbLine
 10
71.366089
 20
159.5715379999998
 30
0.0
 11
69.86628899999999
 21
159.5715379999998
 31
0.0
  0
LINE
  5
BEBF
330
BBD1
100
AcDbEntity
  8
2
  6
Continuous
100
AcDbLine
 10
71.366089
 20
154.6545379999998
 30
0.0
 11
69.86628899999999
 21
154.6545379999998
 31
0.0
  0
LINE
  5
BEC0
330
BBD1
100
AcDbEntity
  8
1
  6
Continuous
100
AcDbLine
 10
70.824589
 20
160.1130379999998
 30
0.0
 11
69.86628899999999
 21
160.1130379999998
 31
0.0
  0
LINE
  5
BEC1
330
BBD1
100
AcDbEntity
  8
1
  6
Continuous
100
AcDbLine
 10
70.824589
 20
154.113038
 30
0.0
 11
69.86628899999999
 21
154.113038
 31
0.0
  0
LINE
  5
BEC2
330
BBD1
100
AcDbEntity
  8
1
  6
Continuous
100
AcDbLine
 10
71.366089
 20
159.5715379999998
 30
0.0
 11
71.366089
 21
154.6545379999998
 31
0.0
  0
LINE
  5
BEC3
330
BBD1
100
AcDbEntity
  8
1
  6
Continuous
100
AcDbLine
 10
71.366089
 20
159.5715379999998
 30
0.0
 11
70.824589
 21
160.1130379999998
 31
0.0
  0
LINE
  5
BEC4
330
BBD1
100
AcDbEntity
  8
1
  6
Continuous
100
AcDbLine
 10
71.366089
 20
154.6545379999998
 30
0.0
 11
70.824589
 21
154.113038
 31
0.0
  0
LINE
  5
BEC5
330
BBD1
100
AcDbEntity
  8
1
  6
Continuous
100
AcDbLine
 10
70.824589
 20
160.1130379999998
 30
0.0
 11
70.824589
 21
154.113038
 31
0.0
  0
CIRCLE
  5
BEC6
330
BBD1
100
AcDbEntity
  8
1
  6
Continuous
100
AcDbCircle
 10
133.164626
 20
157.1132369999999
 30
0.0
 40
6.099999999999997
  0
CIRCLE
  5
BEC7
330
BBD1
100
AcDbEntity
  8
1
  6
Continuous
100
AcDbCircle
 10
133.164626
 20
157.1132369999999
 30
0.0
 40
3.0
  0
CIRCLE
  5
BEC8
330
BBD1
100
AcDbEntity
  8
2
  6
Continuous
100
AcDbCircle
 10
133.164626
 20
157.1132369999999
 30
0.0
 40
2.458499999999999
  0
LINE
  5
BEC9
330
BBD1
100
AcDbEntity
  8
2
  6
Continuous
100
AcDbLine
 10
135.623126
 20
93.509652
 30
0.0
 11
135.623126
 21
92.00985199999999
 31
0.0
  0
LINE
  5
BECA
330
BBD1
100
AcDbEntity
  8
1
  6
Continuous
100
AcDbLine
 10
136.164626
 20
92.96815200000001
 30
0.0
 11
136.164626
 21
92.00985199999999
 31
0.0
  0
LINE
  5
BECB
330
BBD1
100
AcDbEntity
  8
1
  6
Continuous
100
AcDbLine
 10
136.164626
 20
92.96815200000001
 30
0.0
 11
130.164626
 21
92.96815200000001
 31
0.0
  0
LINE
  5
BECC
330
BBD1
100
AcDbEntity
  8
1
  6
Continuous
100
AcDbLine
 10
135.623126
 20
93.509652
 30
0.0
 11
136.164626
 21
92.96815200000001
 31
0.0
  0
LINE
  5
BECD
330
BBD1
100
AcDbEntity
  8
1
  6
Continuous
100
AcDbLine
 10
135.623126
 20
93.509652
 30
0.0
 11
130.706126
 21
93.509652
 31
0.0
  0
LINE
  5
BECE
330
BBD1
100
AcDbEntity
  8
1
  6
Continuous
100
AcDbLine
 10
130.164626
 20
92.96815200000001
 30
0.0
 11
130.164626
 21
92.00985199999999
 31
0.0
  0
LINE
  5
BECF
330
BBD1
100
AcDbEntity
  8
2
  6
Continuous
100
AcDbLine
 10
130.706126
 20
93.509652
 30
0.0
 11
130.706126
 21
92.00985199999999
 31
0.0
  0
LINE
  5
BED0
330
BBD1
100
AcDbEntity
  8
1
  6
Continuous
100
AcDbLine
 10
130.706126
 20
93.509652
 30
0.0
 11
130.164626
 21
92.96815200000001
 31
0.0
  0
LINE
  5
BED1
330
BBD1
100
AcDbEntity
  8
2
  6
Continuous
100
AcDbLine
 10
220.8631629999999
 20
159.5715379999998
 30
0.0
 11
222.362963
 21
159.5715379999998
 31
0.0
  0
LINE
  5
BED2
330
BBD1
100
AcDbEntity
  8
1
  6
Continuous
100
AcDbLine
 10
221.4046629999999
 20
160.1130379999998
 30
0.0
 11
222.362963
 21
160.1130379999998
 31
0.0
  0
LINE
  5
BED3
330
BBD1
100
AcDbEntity
  8
1
  6
Continuous
100
AcDbLine
 10
221.4046629999999
 20
160.1130379999998
 30
0.0
 11
221.4046629999999
 21
154.113038
 31
0.0
  0
LINE
  5
BED4
330
BBD1
100
AcDbEntity
  8
1
  6
Continuous
100
AcDbLine
 10
220.8631629999999
 20
159.5715379999998
 30
0.0
 11
221.4046629999999
 21
160.1130379999998
 31
0.0
  0
LINE
  5
BED5
330
BBD1
100
AcDbEntity
  8
1
  6
Continuous
100
AcDbLine
 10
220.8631629999999
 20
159.5715379999998
 30
0.0
 11
220.8631629999999
 21
154.6545379999998
 31
0.0
  0
LINE
  5
BED6
330
BBD1
100
AcDbEntity
  8
1
  6
Continuous
100
AcDbLine
 10
221.4046629999999
 20
154.113038
 30
0.0
 11
222.362963
 21
154.113038
 31
0.0
  0
LINE
  5
BED7
330
BBD1
100
AcDbEntity
  8
2
  6
Continuous
100
AcDbLine
 10
220.8631629999999
 20
154.6545379999998
 30
0.0
 11
222.362963
 21
154.6545379999998
 31
0.0
  0
LINE
  5
BED8
330
BBD1
100
AcDbEntity
  8
1
  6
Continuous
100
AcDbLine
 10
220.8631629999999
 20
154.6545379999998
 30
0.0
 11
221.4046629999999
 21
154.113038
 31
0.0
  0
LINE
  5
BED9
330
BBD1
100
AcDbEntity
  8
2
  6
Continuous
100
AcDbLine
 10
135.623126
 20
235.717422
 30
0.0
 11
135.623126
 21
237.2172219999999
 31
0.0
  0
LINE
  5
BEDA
330
BBD1
100
AcDbEntity
  8
1
  6
Continuous
100
AcDbLine
 10
136.164626
 20
236.258922
 30
0.0
 11
136.164626
 21
237.2172219999999
 31
0.0
  0
LINE
  5
BEDB
330
BBD1
100
AcDbEntity
  8
1
  6
Continuous
100
AcDbLine
 10
135.623126
 20
235.717422
 30
0.0
 11
136.164626
 21
236.258922
 31
0.0
  0
LINE
  5
BEDC
330
BBD1
100
AcDbEntity
  8
1
  6
Continuous
100
AcDbLine
 10
130.164626
 20
236.258922
 30
0.0
 11
130.164626
 21
237.2172219999999
 31
0.0
  0
LINE
  5
BEDD
330
BBD1
100
AcDbEntity
  8
2
  6
Continuous
100
AcDbLine
 10
130.706126
 20
235.717422
 30
0.0
 11
130.706126
 21
237.2172219999999
 31
0.0
  0
LINE
  5
BEDE
330
BBD1
100
AcDbEntity
  8
1
  6
Continuous
100
AcDbLine
 10
130.706126
 20
235.717422
 30
0.0
 11
130.164626
 21
236.258922
 31
0.0
  0
LINE
  5
BEDF
330
BBD1
100
AcDbEntity
  8
1
  6
Continuous
100
AcDbLine
 10
136.164626
 20
236.258922
 30
0.0
 11
130.164626
 21
236.258922
 31
0.0
  0
LINE
  5
BEE0
330
BBD1
100
AcDbEntity
  8
1
  6
Continuous
100
AcDbLine
 10
135.623126
 20
235.717422
 30
0.0
 11
130.706126
 21
235.717422
 31
0.0
  0
LINE
  5
BEE1
330
BBD1
100
AcDbEntity
  8
1
  6
Continuous
100
AcDbLine
 10
128.164626
 20
238.217462
 30
0.0
 11
128.164626
 21
237.2172219999999
 31
0.0
  0
ARC
  5
BEE2
330
BBD1
100
AcDbEntity
  8
1
  6
Continuous
100
AcDbCircle
 10
130.6646259999999
 20
244.4425139999999
 30
0.0
 40
7.225291999999997
100
AcDbArc
 50
249.7567339999999
 51
290.243266
  0
LINE
  5
BEE3
330
BBD1
100
AcDbEntity
  8
1
  6
Continuous
100
AcDbLine
 10
138.1646259999999
 20
237.2172219999999
 30
0.0
 11
128.164626
 21
237.2172219999999
 31
0.0
  0
LINE
  5
BEE4
330
BBD1
100
AcDbEntity
  8
1
  6
Continuous
100
AcDbLine
 10
138.1646259999999
 20
238.217462
 30
0.0
 11
138.1646259999999
 21
237.2172219999999
 31
0.0
  0
ARC
  5
BEE5
330
BBD1
100
AcDbEntity
  8
1
  6
Continuous
100
AcDbCircle
 10
135.6646259999999
 20
244.4425139999999
 30
0.0
 40
7.225291999999997
100
AcDbArc
 50
249.7567339999999
 51
290.243266
  0
LINE
  5
BEE6
330
BBD1
100
AcDbEntity
  8
1
  6
Continuous
100
AcDbLine
 10
133.164626
 20
237.6635139999999
 30
0.0
 11
133.164626
 21
238.217462
 31
0.0
  0
LINE
  5
BEE7
330
BBD1
100
AcDbEntity
  8
4
  6
CENTER
100
AcDbLine
 10
355.56178
 20
127.113237
 30
0.0
 11
355.56178
 21
185.113237
 31
0.0
  0
LINE
  5
BEE8
330
BBD1
100
AcDbEntity
  8
4
  6
CENTER
100
AcDbLine
 10
336.5617799999998
 20
202.113537
 30
0.0
 11
336.5617799999998
 21
166.57326
 31
0.0
  0
LINE
  5
BEE9
330
BBD1
100
AcDbEntity
  8
1
  6
Continuous
100
AcDbLine
 10
347.7117799999998
 20
186.064782
 30
0.0
 11
347.7117799999998
 21
161.7072829999999
 31
0.0
  0
ARC
  5
BEEA
330
BBD1
100
AcDbEntity
  8
1
  6
Continuous
100
AcDbCircle
 10
355.56178
 20
157.1132369999999
 30
0.0
 40
25.0
100
AcDbArc
 50
144.1619329999998
 51
79.99361000000003
  0
ARC
  5
BEEB
330
BBD1
100
AcDbEntity
  8
1
  6
Continuous
100
AcDbCircle
 10
355.56178
 20
157.1132369999999
 30
0.0
 40
17.5
100
AcDbArc
 50
153.524335
 51
72.62147500000001
  0
LINE
  5
BEEC
330
BBD1
100
AcDbEntity
  8
4
  6
CENTER
100
AcDbLine
 10
385.56178
 20
157.1132369999999
 30
0.0
 11
325.56178
 21
157.1132369999999
 31
0.0
  0
LINE
  5
BEED
330
BBD1
100
AcDbEntity
  8
5
  6
PHANTOM
100
AcDbLine
 10
385.221448
 20
151.8912369999999
 30
0.0
 11
380.375763
 21
154.0691799999999
 31
0.0
  0
ARC
  5
BEEE
330
BBD1
100
AcDbEntity
  8
5
  6
PHANTOM
100
AcDbCircle
 10
382.8475319999999
 20
142.2699979999999
 30
0.0
 40
6.739846
100
AcDbArc
 50
110.49842
 51
128.3985869999999
  0
ARC
  5
BEEF
330
BBD1
100
AcDbEntity
  8
5
  6
PHANTOM
100
AcDbCircle
 10
2276.913418999999
 20
-4924.064986000001
 30
0.0
 40
5415.550781
100
AcDbArc
 50
110.4658879999998
 51
110.49842
  0
ARC
  5
BEF0
330
BBD1
100
AcDbEntity
  8
5
  6
PHANTOM
100
AcDbCircle
 10
384.2754799999998
 20
147.22825
 30
0.0
 40
2.594708999999999
100
AcDbArc
 50
82.299123
 51
110.4658879999998
  0
LINE
  5
BEF1
330
BBD1
100
AcDbEntity
  8
5
  6
PHANTOM
100
AcDbLine
 10
385.2214329999998
 20
151.8912369999999
 30
0.0
 11
384.623166
 21
149.799562
 31
0.0
  0
LINE
  5
BEF2
330
BBD1
100
AcDbEntity
  8
1
  6
Continuous
100
AcDbLine
 10
381.897977
 20
171.720415
 30
0.0
 11
376.761552
 21
170.3635089999999
 31
0.0
  0
LINE
  5
BEF3
330
BBD1
100
AcDbEntity
  8
1
  6
Continuous
100
AcDbLine
 10
381.897977
 20
171.720415
 30
0.0
 11
382.749372
 21
169.718378
 31
0.0
  0
ARC
  5
BEF4
330
BBD1
100
AcDbEntity
  8
1
  6
Continuous
100
AcDbCircle
 10
384.097349
 20
167.501283
 30
0.0
 40
2.594708999999999
100
AcDbArc
 50
121.299128
 51
149.4658849999999
  0
ARC
  5
BEF5
330
BBD1
100
AcDbEntity
  8
1
  6
Continuous
100
AcDbCircle
 10
5046.421598
 20
-2582.55815
 30
0.0
 40
5415.550781
100
AcDbArc
 50
149.4658849999999
 51
149.498421
  0
ARC
  5
BEF6
330
BBD1
100
AcDbEntity
  8
1
  6
Continuous
100
AcDbCircle
 10
386.1079529999998
 20
162.7493609999999
 30
0.0
 40
6.739846
100
AcDbArc
 50
149.498421
 51
167.3987689999998
  0
ARC
  5
BEF7
330
BBD1
100
AcDbEntity
  8
1
  6
Continuous
100
AcDbCircle
 10
326.4080789999998
 20
155.782205
 30
0.0
 40
16.543596
100
AcDbArc
 50
271.0747809999999
 51
292.901647
  0
LINE
  5
BEF8
330
BBD1
100
AcDbEntity
  8
1
  6
Continuous
100
AcDbLine
 10
324.815687
 20
138.591478
 30
0.0
 11
325.7596299999999
 21
139.715709
 31
0.0
  0
LINE
  5
BEF9
330
BBD1
100
AcDbEntity
  8
1
  6
Continuous
100
AcDbLine
 10
330.8995949999999
 20
148.8784879999998
 30
0.0
 11
323.467237
 21
139.770952
 31
0.0
  0
LINE
  5
BEFA
330
BBD1
100
AcDbEntity
  8
5
  6
PHANTOM
100
AcDbLine
 10
320.011457
 20
162.068285
 30
0.0
 11
321.452535
 21
162.3479319999999
 31
0.0
  0
LINE
  5
BEFB
330
BBD1
100
AcDbEntity
  8
5
  6
PHANTOM
100
AcDbLine
 10
331.2133609999999
 20
166.2340409999998
 30
0.0
 11
319.7057779999998
 21
163.8334979999999
 31
0.0
  0
ARC
  5
BEFC
330
BBD1
100
AcDbEntity
  8
5
  6
PHANTOM
100
AcDbCircle
 10
343.1702089999999
 20
212.8963939999999
 30
0.0
 40
56.58425499999999
100
AcDbArc
 50
253.9016499999999
 51
257.132924
  0
ARC
  5
BEFD
330
BBD1
100
AcDbEntity
  8
1
  6
Continuous
100
AcDbCircle
 10
310.8262459999999
 20
192.666628
 30
0.0
 40
56.58425499999999
100
AcDbArc
 50
292.901647
 51
296.132919
  0
ARC
  5
BEFE
330
BBD1
100
AcDbEntity
  8
1
  6
Continuous
100
AcDbCircle
 10
331.7066169999999
 20
151.771776
 30
0.0
 40
3.003727999999998
100
AcDbArc
 50
254.414815
 51
275.4322649999999
  0
ARC
  5
BEFF
330
BBD1
100
AcDbEntity
  8
5
  6
PHANTOM
100
AcDbCircle
 10
333.6613439999998
 20
167.97468
 30
0.0
 40
3.003727999999998
100
AcDbArc
 50
215.4148139999998
 51
236.4322789999999
  0
LINE
  5
BF00
330
BBD1
100
AcDbEntity
  8
1
  6
Continuous
100
AcDbLine
 10
324.8156709999999
 20
138.591478
 30
0.0
 11
323.467237
 21
139.7709439999998
 31
0.0
  0
ARC
  5
BF01
330
BBD1
100
AcDbEntity
  8
1
  6
Continuous
100
AcDbCircle
 10
326.696592
 20
140.403802
 30
0.0
 40
1.162484
100
AcDbArc
 50
216.292623
 51
271.0747809999999
  0
ARC
  5
BF02
330
BBD1
100
AcDbEntity
  8
5
  6
PHANTOM
100
AcDbCircle
 10
322.613721
 20
162.2930159999999
 30
0.0
 40
1.162484
100
AcDbArc
 50
177.2926239999999
 51
232.0747789999999
  0
LINE
  5
BF03
330
BBD1
100
AcDbEntity
  8
5
  6
PHANTOM
100
AcDbLine
 10
320.011457
 20
162.0682769999999
 30
0.0
 11
319.7057930000001
 21
163.8334979999999
 31
0.0
  0
ARC
  5
BF04
330
BBD1
100
AcDbEntity
  8
5
  6
PHANTOM
100
AcDbCircle
 10
332.0674569999998
 20
174.4258439999999
 30
0.0
 40
16.543596
100
AcDbArc
 50
232.0747789999999
 51
253.9016499999999
  0
LINE
  5
BF05
330
BBD1
100
AcDbEntity
  8
1
  6
Continuous
100
AcDbLine
 10
359.5092799999998
 20
184.961041
 30
0.0
 11
361.778237
 21
184.9947979999998
 31
0.0
  0
ARC
  5
BF06
330
BBD1
100
AcDbEntity
  8
1
  6
Continuous
100
AcDbCircle
 10
361.0946269999999
 20
185.6414879999999
 30
0.0
 40
1.351175999999999
100
AcDbArc
 50
50.763314
 51
91.14576300000001
  0
LINE
  5
BF07
330
BBD1
100
AcDbEntity
  8
1
  6
Continuous
100
AcDbLine
 10
366.56178
 20
195.1135739999998
 30
0.0
 11
306.56178
 21
195.1135739999998
 31
0.0
  0
LINE
  5
BF08
330
BBD1
100
AcDbEntity
  8
1
  6
Continuous
100
AcDbLine
 10
366.56178
 20
197.113537
 30
0.0
 11
306.56178
 21
197.113537
 31
0.0
  0
LINE
  5
BF09
330
BBD1
100
AcDbEntity
  8
1
  6
Continuous
100
AcDbLine
 10
366.56178
 20
197.113537
 30
0.0
 11
366.56178
 21
195.1135739999998
 31
0.0
  0
ARC
  5
BF0A
330
BBD1
100
AcDbEntity
  8
1
  6
Continuous
100
AcDbCircle
 10
361.773095
 20
185.340442
 30
0.0
 40
0.345682
100
AcDbArc
 50
270.852372
 51
313.097669
  0
LINE
  5
BF0B
330
BBD1
100
AcDbEntity
  8
1
  6
Continuous
100
AcDbLine
 10
362.00928
 20
185.773028
 30
0.0
 11
362.00928
 21
185.088028
 31
0.0
  0
LINE
  5
BF0C
330
BBD1
100
AcDbEntity
  8
1
  6
Continuous
100
AcDbLine
 10
361.9492799999999
 20
186.688028
 30
0.0
 11
362.00928
 21
185.773028
 31
0.0
  0
LINE
  5
BF0D
330
BBD1
100
AcDbEntity
  8
1
  6
Continuous
100
AcDbLine
 10
352.8312
 20
189.801237
 30
0.0
 11
319.883502
 21
189.801237
 31
0.0
  0
LINE
  5
BF0E
330
BBD1
100
AcDbEntity
  8
1
  6
Continuous
100
AcDbLine
 10
327.7970629999999
 20
191.2422369999999
 30
0.0
 11
330.0329069999999
 21
189.801237
 31
0.0
  0
LINE
  5
BF0F
330
BBD1
100
AcDbEntity
  8
1
  6
Continuous
100
AcDbLine
 10
331.2112729999999
 20
191.2422369999999
 30
0.0
 11
328.975431
 21
189.801237
 31
0.0
  0
LINE
  5
BF10
330
BBD1
100
AcDbEntity
  8
1
  6
Continuous
100
AcDbLine
 10
329.7970599999998
 20
191.2422369999999
 30
0.0
 11
327.561217
 21
189.801237
 31
0.0
  0
LINE
  5
BF11
330
BBD1
100
AcDbEntity
  8
1
  6
Continuous
100
AcDbLine
 10
320.31178
 20
191.2421979999998
 30
0.0
 11
352.8117799999998
 21
191.242276
 31
0.0
  0
LINE
  5
BF12
330
BBD1
100
AcDbEntity
  8
1
  6
Continuous
100
AcDbLine
 10
352.788636
 20
193.1455369999999
 30
0.0
 11
320.334924
 21
193.1455369999999
 31
0.0
  0
LINE
  5
BF13
330
BBD1
100
AcDbEntity
  8
4
  6
CENTER
100
AcDbLine
 10
360.06178
 20
202.113537
 30
0.0
 11
360.06178
 21
190.1135739999998
 31
0.0
  0
LINE
  5
BF14
330
BBD1
100
AcDbEntity
  8
1
  6
Continuous
100
AcDbLine
 10
344.7676259999998
 20
191.2422369999999
 30
0.0
 11
347.0034689999998
 21
189.801237
 31
0.0
  0
LINE
  5
BF15
330
BBD1
100
AcDbEntity
  8
1
  6
Continuous
100
AcDbLine
 10
346.767622
 20
191.2422369999999
 30
0.0
 11
344.5317799999998
 21
189.801237
 31
0.0
  0
LINE
  5
BF16
330
BBD1
100
AcDbEntity
  8
1
  6
Continuous
100
AcDbLine
 10
345.353409
 20
191.2422369999999
 30
0.0
 11
343.117566
 21
189.801237
 31
0.0
  0
LINE
  5
BF17
330
BBD1
100
AcDbEntity
  8
1
  6
Continuous
100
AcDbLine
 10
356.3272769999999
 20
194.8655369999999
 30
0.0
 11
356.515444
 21
195.1135739999998
 31
0.0
  0
LINE
  5
BF18
330
BBD1
100
AcDbEntity
  8
1
  6
Continuous
100
AcDbLine
 10
357.2842799999999
 20
186.9180279999999
 30
0.0
 11
357.8492799999998
 21
186.928028
 31
0.0
  0
LINE
  5
BF19
330
BBD1
100
AcDbEntity
  8
1
  6
Continuous
100
AcDbLine
 10
356.68928
 20
186.938028
 30
0.0
 11
357.2842799999999
 21
186.9180279999999
 31
0.0
  0
LINE
  5
BF1A
330
BBD1
100
AcDbEntity
  8
1
  6
Continuous
100
AcDbLine
 10
357.8492799999998
 20
186.928028
 30
0.0
 11
361.067608
 21
186.992395
 31
0.0
  0
LINE
  5
BF1B
330
BBD1
100
AcDbEntity
  8
1
  6
Continuous
100
AcDbLine
 10
350.4244799999999
 20
191.2422369999999
 30
0.0
 11
352.660324
 21
189.801237
 31
0.0
  0
LINE
  5
BF1C
330
BBD1
100
AcDbEntity
  8
1
  6
Continuous
100
AcDbLine
 10
352.424477
 20
191.2422369999999
 30
0.0
 11
350.1886339999999
 21
189.801237
 31
0.0
  0
LINE
  5
BF1D
330
BBD1
100
AcDbEntity
  8
1
  6
Continuous
100
AcDbLine
 10
351.010263
 20
191.2422369999999
 30
0.0
 11
348.774421
 21
189.801237
 31
0.0
  0
LINE
  5
BF1E
330
BBD1
100
AcDbEntity
  8
1
  6
Continuous
100
AcDbLine
 10
347.596053
 20
191.2422369999999
 30
0.0
 11
349.8318959999999
 21
189.801237
 31
0.0
  0
LINE
  5
BF1F
330
BBD1
100
AcDbEntity
  8
1
  6
Continuous
100
AcDbLine
 10
349.5960489999998
 20
191.2422369999999
 30
0.0
 11
347.360207
 21
189.801237
 31
0.0
  0
LINE
  5
BF20
330
BBD1
100
AcDbEntity
  8
1
  6
Continuous
100
AcDbLine
 10
348.1818359999999
 20
191.2422369999999
 30
0.0
 11
345.9459929999999
 21
189.801237
 31
0.0
  0
LINE
  5
BF21
330
BBD1
100
AcDbEntity
  8
1
  6
Continuous
100
AcDbLine
 10
352.8117799999998
 20
190.215327
 30
0.0
 11
351.2743319999998
 21
189.801237
 31
0.0
  0
LINE
  5
BF22
330
BBD1
100
AcDbEntity
  8
1
  6
Continuous
100
AcDbLine
 10
352.8117799999998
 20
191.2422369999999
 30
0.0
 11
352.8117799999998
 21
189.801237
 31
0.0
  0
ARC
  5
BF23
330
BBD1
100
AcDbEntity
  8
1
  6
Continuous
100
AcDbCircle
 10
353.033592
 20
189.0240619999999
 30
0.0
 40
2.042368999999998
100
AcDbArc
 50
199.821809
 51
269.3179399999999
  0
LINE
  5
BF24
330
BBD1
100
AcDbEntity
  8
1
  6
Continuous
100
AcDbLine
 10
352.1433599999999
 20
192.931534
 30
0.0
 11
351.7902029999998
 21
193.1455369999999
 31
0.0
  0
LINE
  5
BF25
330
BBD1
100
AcDbEntity
  8
1
  6
Continuous
100
AcDbLine
 10
352.8117799999998
 20
191.2422369999999
 30
0.0
 11
352.8117799999998
 21
189.95324
 31
0.0
  0
ARC
  5
BF26
330
BBD1
100
AcDbEntity
  8
1
  6
Continuous
100
AcDbCircle
 10
351.573912
 20
191.9918049999999
 30
0.0
 40
1.098799999999998
100
AcDbArc
 50
20.306161
 51
58.785345
  0
ARC
  5
BF27
330
BBD1
100
AcDbEntity
  8
1
  6
Continuous
100
AcDbCircle
 10
350.256048
 20
192.7040159999999
 30
0.0
 40
2.371570999999998
100
AcDbArc
 50
321.9491909999999
 51
351.9797889999999
  0
ARC
  5
BF28
330
BBD1
100
AcDbEntity
  8
1
  6
Continuous
100
AcDbCircle
 10
352.788636
 20
196.3241099999999
 30
0.0
 40
3.178573
100
AcDbArc
 50
270.0
 51
303.210091
  0
LINE
  5
BF29
330
BBD1
100
AcDbEntity
  8
1
  6
Continuous
100
AcDbLine
 10
355.6642799999999
 20
186.983028
 30
0.0
 11
355.8492799999998
 21
186.9480279999999
 31
0.0
  0
LINE
  5
BF2A
330
BBD1
100
AcDbEntity
  8
1
  6
Continuous
100
AcDbLine
 10
355.49428
 20
187.068028
 30
0.0
 11
355.6642799999999
 21
186.983028
 31
0.0
  0
LINE
  5
BF2B
330
BBD1
100
AcDbEntity
  8
1
  6
Continuous
100
AcDbLine
 10
355.1542799999999
 20
187.2680279999999
 30
0.0
 11
355.49428
 21
187.068028
 31
0.0
  0
LINE
  5
BF2C
330
BBD1
100
AcDbEntity
  8
1
  6
Continuous
100
AcDbLine
 10
355.0092799999998
 20
187.7030279999999
 30
0.0
 11
355.1542799999999
 21
187.2680279999999
 31
0.0
  0
ARC
  5
BF2D
330
BBD1
100
AcDbEntity
  8
1
  6
Continuous
100
AcDbCircle
 10
350.916095
 20
185.9528349999999
 30
0.0
 40
4.451666999999998
100
AcDbArc
 50
23.150932
 51
38.25670199999999
  0
ARC
  5
BF2E
330
BBD1
100
AcDbEntity
  8
1
  6
Continuous
100
AcDbCircle
 10
351.8469889999999
 20
186.686869
 30
0.0
 40
3.266183999999998
100
AcDbArc
 50
38.25670199999999
 51
72.462293
  0
ARC
  5
BF2F
330
BBD1
100
AcDbEntity
  8
1
  6
Continuous
100
AcDbCircle
 10
290.7908499999999
 20
291.030249
 30
0.0
 40
116.3729999999999
100
AcDbArc
 50
303.210091
 51
304.2745019999999
  0
LINE
  5
BF30
330
BBD1
100
AcDbEntity
  8
1
  6
Continuous
100
AcDbLine
 10
353.0092799999998
 20
186.9818379999999
 30
0.0
 11
356.68928
 21
186.938028
 31
0.0
  0
LINE
  5
BF31
330
BBD1
100
AcDbEntity
  8
1
  6
Continuous
100
AcDbLine
 10
341.9391989999998
 20
191.2422369999999
 30
0.0
 11
344.175042
 21
189.801237
 31
0.0
  0
LINE
  5
BF32
330
BBD1
100
AcDbEntity
  8
1
  6
Continuous
100
AcDbLine
 10
343.939195
 20
191.2422369999999
 30
0.0
 11
341.7033529999998
 21
189.801237
 31
0.0
  0
LINE
  5
BF33
330
BBD1
100
AcDbEntity
  8
1
  6
Continuous
100
AcDbLine
 10
342.5249819999999
 20
191.2422369999999
 30
0.0
 11
340.2891389999999
 21
189.801237
 31
0.0
  0
LINE
  5
BF34
330
BBD1
100
AcDbEntity
  8
1
  6
Continuous
100
AcDbLine
 10
333.4539169999998
 20
191.2422369999999
 30
0.0
 11
335.6897609999998
 21
189.801237
 31
0.0
  0
LINE
  5
BF35
330
BBD1
100
AcDbEntity
  8
1
  6
Continuous
100
AcDbLine
 10
335.4539139999999
 20
191.2422369999999
 30
0.0
 11
333.218071
 21
189.801237
 31
0.0
  0
LINE
  5
BF36
330
BBD1
100
AcDbEntity
  8
1
  6
Continuous
100
AcDbLine
 10
330.62549
 20
191.2422369999999
 30
0.0
 11
332.8613339999999
 21
189.801237
 31
0.0
  0
LINE
  5
BF37
330
BBD1
100
AcDbEntity
  8
1
  6
Continuous
100
AcDbLine
 10
334.0396999999999
 20
191.2422369999999
 30
0.0
 11
331.803858
 21
189.801237
 31
0.0
  0
LINE
  5
BF38
330
BBD1
100
AcDbEntity
  8
1
  6
Continuous
100
AcDbLine
 10
332.625487
 20
191.2422369999999
 30
0.0
 11
330.3896439999999
 21
189.801237
 31
0.0
  0
LINE
  5
BF39
330
BBD1
100
AcDbEntity
  8
1
  6
Continuous
100
AcDbLine
 10
336.282345
 20
191.2422369999999
 30
0.0
 11
338.518188
 21
189.801237
 31
0.0
  0
LINE
  5
BF3A
330
BBD1
100
AcDbEntity
  8
1
  6
Continuous
100
AcDbLine
 10
339.696554
 20
191.2422369999999
 30
0.0
 11
337.460712
 21
189.801237
 31
0.0
  0
LINE
  5
BF3B
330
BBD1
100
AcDbEntity
  8
1
  6
Continuous
100
AcDbLine
 10
338.2823409999998
 20
191.2422369999999
 30
0.0
 11
336.046499
 21
189.801237
 31
0.0
  0
LINE
  5
BF3C
330
BBD1
100
AcDbEntity
  8
1
  6
Continuous
100
AcDbLine
 10
336.868127
 20
191.2422369999999
 30
0.0
 11
334.632285
 21
189.801237
 31
0.0
  0
LINE
  5
BF3D
330
BBD1
100
AcDbEntity
  8
1
  6
Continuous
100
AcDbLine
 10
339.1107719999999
 20
191.2422369999999
 30
0.0
 11
341.346615
 21
189.801237
 31
0.0
  0
LINE
  5
BF3E
330
BBD1
100
AcDbEntity
  8
1
  6
Continuous
100
AcDbLine
 10
341.110768
 20
191.2422369999999
 30
0.0
 11
338.8749259999999
 21
189.801237
 31
0.0
  0
LINE
  5
BF3F
330
BBD1
100
AcDbEntity
  8
4
  6
CENTER
100
AcDbLine
 10
313.06178
 20
202.113537
 30
0.0
 11
313.06178
 21
190.1135739999998
 31
0.0
  0
LINE
  5
BF40
330
BBD1
100
AcDbEntity
  8
1
  6
Continuous
100
AcDbLine
 10
317.7117799999999
 20
183.105367
 30
0.0
 11
318.04836
 21
187.2199979999998
 31
0.0
  0
LINE
  5
BF41
330
BBD1
100
AcDbEntity
  8
1
  6
Continuous
100
AcDbLine
 10
317.9622799999999
 20
183.105367
 30
0.0
 11
317.7117799999999
 21
183.105367
 31
0.0
  0
LINE
  5
BF42
330
BBD1
100
AcDbEntity
  8
1
  6
Continuous
100
AcDbLine
 10
324.968636
 20
191.2422369999999
 30
0.0
 11
327.2044789999998
 21
189.801237
 31
0.0
  0
LINE
  5
BF43
330
BBD1
100
AcDbEntity
  8
1
  6
Continuous
100
AcDbLine
 10
328.3828459999999
 20
191.2422369999999
 30
0.0
 11
326.1470039999999
 21
189.801237
 31
0.0
  0
LINE
  5
BF44
330
BBD1
100
AcDbEntity
  8
1
  6
Continuous
100
AcDbLine
 10
326.9686319999999
 20
191.2422369999999
 30
0.0
 11
324.7327899999999
 21
189.801237
 31
0.0
  0
LINE
  5
BF45
330
BBD1
100
AcDbEntity
  8
1
  6
Continuous
100
AcDbLine
 10
318.7112799999998
 20
183.063028
 30
0.0
 11
319.37628
 21
183.018028
 31
0.0
  0
ARC
  5
BF46
330
BBD1
100
AcDbEntity
  8
1
  6
Continuous
100
AcDbCircle
 10
320.781266
 20
187.2199979999998
 30
0.0
 40
2.732905
100
AcDbArc
 50
109.1778389999999
 51
180.0
  0
ARC
  5
BF47
330
BBD1
100
AcDbEntity
  8
1
  6
Continuous
100
AcDbCircle
 10
320.334924
 20
196.3241099999999
 30
0.0
 40
3.178573
100
AcDbArc
 50
236.7899089999999
 51
270.0
  0
LINE
  5
BF48
330
BBD1
100
AcDbEntity
  8
1
  6
Continuous
100
AcDbLine
 10
317.9622799999999
 20
183.105367
 30
0.0
 11
318.7112799999998
 21
183.063028
 31
0.0
  0
ARC
  5
BF49
330
BBD1
100
AcDbEntity
  8
1
  6
Continuous
100
AcDbCircle
 10
382.33271
 20
291.030249
 30
0.0
 40
116.3729999999999
100
AcDbArc
 50
235.7254979999999
 51
236.7899089999999
  0
LINE
  5
BF4A
330
BBD1
100
AcDbEntity
  8
1
  6
Continuous
100
AcDbLine
 10
316.796283
 20
194.8655369999999
 30
0.0
 11
316.608116
 21
195.1135739999998
 31
0.0
  0
LINE
  5
BF4B
330
BBD1
100
AcDbEntity
  8
1
  6
Continuous
100
AcDbLine
 10
322.1402089999999
 20
191.2422369999999
 30
0.0
 11
324.376052
 21
189.801237
 31
0.0
  0
LINE
  5
BF4C
330
BBD1
100
AcDbEntity
  8
1
  6
Continuous
100
AcDbLine
 10
321.8377409999998
 20
189.801237
 30
0.0
 11
320.31178
 21
190.2422389999999
 31
0.0
  0
LINE
  5
BF4D
330
BBD1
100
AcDbEntity
  8
1
  6
Continuous
100
AcDbLine
 10
324.140205
 20
191.2422369999999
 30
0.0
 11
321.9043629999998
 21
189.801237
 31
0.0
  0
LINE
  5
BF4E
330
BBD1
100
AcDbEntity
  8
1
  6
Continuous
100
AcDbLine
 10
322.725992
 20
191.2422369999999
 30
0.0
 11
320.4901489999999
 21
189.801237
 31
0.0
  0
LINE
  5
BF4F
330
BBD1
100
AcDbEntity
  8
1
  6
Continuous
100
AcDbLine
 10
321.311778
 20
191.2422369999999
 30
0.0
 11
320.31178
 21
190.2422389999999
 31
0.0
  0
LINE
  5
BF50
330
BBD1
100
AcDbEntity
  8
1
  6
Continuous
100
AcDbLine
 10
320.31178
 20
191.2422369999999
 30
0.0
 11
320.31178
 21
189.801237
 31
0.0
  0
LINE
  5
BF51
330
BBD1
100
AcDbEntity
  8
1
  6
Continuous
100
AcDbLine
 10
320.9802
 20
192.931534
 30
0.0
 11
321.3333569999999
 21
193.1455369999999
 31
0.0
  0
LINE
  5
BF52
330
BBD1
100
AcDbEntity
  8
1
  6
Continuous
100
AcDbLine
 10
320.31178
 20
191.2422369999999
 30
0.0
 11
320.31178
 21
189.95324
 31
0.0
  0
LINE
  5
BF53
330
BBD1
100
AcDbEntity
  8
1
  6
Continuous
100
AcDbLine
 10
319.5992799999999
 20
183.0780279999999
 30
0.0
 11
323.182161
 21
183.0780279999999
 31
0.0
  0
LINE
  5
BF54
330
BBD1
100
AcDbEntity
  8
1
  6
Continuous
100
AcDbLine
 10
319.37628
 20
183.018028
 30
0.0
 11
319.5992799999999
 21
183.0780279999999
 31
0.0
  0
ARC
  5
BF55
330
BBD1
100
AcDbEntity
  8
1
  6
Continuous
100
AcDbCircle
 10
321.549648
 20
191.9918049999999
 30
0.0
 40
1.098799999999998
100
AcDbArc
 50
121.214655
 51
159.693839
  0
ARC
  5
BF56
330
BBD1
100
AcDbEntity
  8
1
  6
Continuous
100
AcDbCircle
 10
322.8675119999999
 20
192.7040159999999
 30
0.0
 40
2.371570999999998
100
AcDbArc
 50
188.020211
 51
218.050809
  0
LINE
  5
BF57
330
BBD1
100
AcDbEntity
  8
1
  6
Continuous
100
AcDbLine
 10
325.554419
 20
191.2422369999999
 30
0.0
 11
323.3185759999999
 21
189.801237
 31
0.0
  0
ARC
  5
BF58
330
BBD1
100
AcDbEntity
  8
1
  6
Continuous
100
AcDbCircle
 10
323.182161
 20
177.575123
 30
0.0
 40
5.502905999999999
100
AcDbArc
 50
45.952998
 51
90.0
  0
LINE
  5
BF59
330
BBD1
100
AcDbEntity
  8
1
  6
Continuous
100
AcDbLine
 10
306.56178
 20
197.113537
 30
0.0
 11
306.56178
 21
195.1135739999998
 31
0.0
  0
LINE
  5
BF5A
330
BBD1
100
AcDbEntity
  8
1
  6
Continuous
100
AcDbLine
 10
359.3231349999999
 20
186.9575049999999
 30
0.0
 11
362.679392
 21
156.859497
 31
0.0
  0
ARC
  5
BF5B
330
BBD1
100
AcDbEntity
  8
1
  6
Continuous
100
AcDbCircle
 10
282.957243
 20
135.989325
 30
0.0
 40
63.35981999999999
100
AcDbArc
 50
36.666179
 51
45.952998
  0
ARC
  5
BF5C
330
BBD1
100
AcDbEntity
  8
1
  6
Continuous
100
AcDbCircle
 10
355.56178
 20
157.1132369999999
 30
0.0
 40
8.5
100
AcDbArc
 50
258.2104419999998
 51
40.37695
  0
ARC
  5
BF5D
330
BBD1
100
AcDbEntity
  8
1
  6
Continuous
100
AcDbCircle
 10
355.2117799999999
 20
156.163237
 30
0.0
 40
7.5
100
AcDbArc
 50
244.0790989999999
 51
5.326703
  0
ARC
  5
BF5E
330
BBD1
100
AcDbEntity
  8
1
  6
Continuous
100
AcDbCircle
 10
397.6036619999999
 20
191.822394
 30
0.0
 40
63.31738699999998
100
AcDbArc
 50
210.0174259999998
 51
218.02512
  0
ARC
  5
BF5F
330
BBD1
100
AcDbEntity
  8
1
  6
Continuous
100
AcDbCircle
 10
357.1788649999998
 20
160.21053
 30
0.0
 40
12.0
100
AcDbArc
 50
218.02512
 51
244.0790989999999
  0
ARC
  5
BF60
330
BBD1
100
AcDbEntity
  8
1
  6
Continuous
100
AcDbCircle
 10
220.543556
 20
89.52488199999995
 30
0.0
 40
141.169928
100
AcDbArc
 50
30.017426
 51
36.666179
  0
CIRCLE
  5
BF61
330
BBD1
100
AcDbEntity
  8
1
  6
Continuous
100
AcDbCircle
 10
355.56178
 20
157.1132369999999
 30
0.0
 40
4.25
  0
LINE
  5
BF62
330
BBD1
100
AcDbEntity
  8
4
  6
CENTER
100
AcDbLine
 10
133.1646189999998
 20
285.2174619999999
 30
0.0
 11
133.1646189999998
 21
230.717422
 31
0.0
  0
LINE
  5
BF63
330
BBD1
100
AcDbEntity
  8
1
  6
Continuous
100
AcDbLine
 10
229.2546359999998
 20
138.8251659999999
 30
0.0
 11
221.544872
 21
139.822471
 31
0.0
  0
LINE
  5
BF64
330
BBD1
100
AcDbEntity
  8
1
  6
Continuous
100
AcDbLine
 10
228.377822
 20
152.381789
 30
0.0
 11
230.2710459999999
 21
136.694581
 31
0.0
  0
LINE
  5
BF65
330
BBD1
100
AcDbEntity
  8
1
  6
Continuous
100
AcDbLine
 10
228.271237
 20
136.5127879999998
 30
0.0
 11
230.271054
 21
136.694581
 31
0.0
  0
ARC
  5
BF66
330
BBD1
100
AcDbEntity
  8
1
  6
Continuous
100
AcDbCircle
 10
227.027508
 20
146.878297
 30
0.0
 40
2.0
100
AcDbArc
 50
6.881516
 51
90.00000300000001
  0
ARC
  5
BF67
330
BBD1
100
AcDbEntity
  8
1
  6
Continuous
100
AcDbCircle
 10
226.7569169999999
 20
152.3638009999999
 30
0.0
 40
19.356407
100
AcDbArc
 50
93.68398199999999
 51
104.589825
  0
ARC
  5
BF68
330
BBD1
100
AcDbEntity
  8
1
  6
Continuous
100
AcDbCircle
 10
226.7569169999999
 20
186.781831
 30
0.0
 40
19.356407
100
AcDbArc
 50
255.410175
 51
266.3160179999999
  0
ARC
  5
BF69
330
BBD1
100
AcDbEntity
  8
1
  6
Continuous
100
AcDbCircle
 10
226.7569169999999
 20
188.21341
 30
0.0
 40
19.356407
100
AcDbArc
 50
255.410175
 51
266.3160179999999
  0
ARC
  5
BF6A
330
BBD1
100
AcDbEntity
  8
1
  6
Continuous
100
AcDbCircle
 10
222.353032
 20
142.538102
 30
0.0
 40
6.340179
100
AcDbArc
 50
90.00000300000001
 51
129.6233039999999
  0
ARC
  5
BF6B
330
BBD1
100
AcDbEntity
  8
1
  6
Continuous
100
AcDbCircle
 10
222.353032
 20
144.931458
 30
0.0
 40
6.340179
100
AcDbArc
 50
230.376698
 51
262.7194719999998
  0
LINE
  5
BF6C
330
BBD1
100
AcDbEntity
  8
1
  6
Continuous
100
AcDbLine
 10
228.116742
 20
137.7928779999998
 30
0.0
 11
221.5396539999999
 21
138.6436779999999
 31
0.0
  0
LINE
  5
BF6D
330
BBD1
100
AcDbEntity
  8
1
  6
Continuous
100
AcDbLine
 10
228.11675
 20
137.7928779999998
 30
0.0
 11
228.271237
 21
136.512773
 31
0.0
  0
ARC
  5
BF6E
330
BBD1
100
AcDbEntity
  8
1
  6
Continuous
100
AcDbCircle
 10
222.353032
 20
146.110932
 30
0.0
 40
6.340179
100
AcDbArc
 50
230.376698
 51
262.6767899999999
  0
ARC
  5
BF6F
330
BBD1
100
AcDbEntity
  8
1
  6
Continuous
100
AcDbCircle
 10
220.8739519999999
 20
144.3245249999999
 30
0.0
 40
4.020926
100
AcDbArc
 50
129.6233039999999
 51
230.3767119999998
  0
LINE
  5
BF70
330
BBD1
100
AcDbEntity
  8
1
  6
Continuous
100
AcDbLine
 10
216.8530319999999
 20
144.3245249999999
 30
0.0
 11
216.8530319999999
 21
143.1450509999999
 31
0.0
  0
ARC
  5
BF71
330
BBD1
100
AcDbEntity
  8
1
  6
Continuous
100
AcDbCircle
 10
220.8739519999999
 20
143.1450509999999
 30
0.0
 40
4.020926
100
AcDbArc
 50
180.0000029999999
 51
230.376698
  0
LINE
  5
BF72
330
BBD1
100
AcDbEntity
  8
1
  6
Continuous
100
AcDbLine
 10
221.256917
 20
170.2886059999999
 30
0.0
 11
221.256917
 21
168.8570259999998
 31
0.0
  0
ARC
  5
BF73
330
BBD1
100
AcDbEntity
  8
1
  6
Continuous
100
AcDbCircle
 10
222.091252
 20
170.2886059999999
 30
0.0
 40
0.834336
100
AcDbArc
 50
104.589825
 51
255.410175
  0
LINE
  5
BF74
330
BBD1
100
AcDbEntity
  8
1
  6
Continuous
100
AcDbLine
 10
224.814694
 20
163.3471989999998
 30
0.0
 11
224.62727
 21
159.8614509999999
 31
0.0
  0
ARC
  5
BF75
330
BBD1
100
AcDbEntity
  8
1
  6
Continuous
100
AcDbCircle
 10
223.4248399999999
 20
161.000764
 30
0.0
 40
5.0
100
AcDbArc
 50
356.8891879999998
 51
22.42549599999999
  0
ARC
  5
BF76
330
BBD1
100
AcDbEntity
  8
1
  6
Continuous
100
AcDbCircle
 10
221.419698
 20
160.9605109999999
 30
0.0
 40
5.0
100
AcDbArc
 50
356.8891879999998
 51
22.42549599999999
  0
LINE
  5
BF77
330
BBD1
100
AcDbEntity
  8
1
  6
Continuous
100
AcDbLine
 10
224.384366
 20
161.200959
 30
0.0
 11
224.384366
 21
148.878297
 31
0.0
  0
LINE
  5
BF78
330
BBD1
100
AcDbEntity
  8
1
  6
Continuous
100
AcDbLine
 10
226.1190229999999
 20
155.292237
 30
0.0
 11
226.893094
 21
148.878297
 31
0.0
  0
LINE
  5
BF79
330
BBD1
100
AcDbEntity
  8
1
  6
Continuous
100
AcDbLine
 10
227.027508
 20
148.878297
 30
0.0
 11
222.353032
 21
148.878297
 31
0.0
  0
LINE
  5
BF7A
330
BBD1
100
AcDbEntity
  8
1
  6
Continuous
100
AcDbLine
 10
226.412335
 20
160.6891789999998
 30
0.0
 11
226.1190229999999
 21
155.292237
 31
0.0
  0
LINE
  5
BF7B
330
BBD1
100
AcDbEntity
  8
1
  6
Continuous
100
AcDbLine
 10
224.384366
 20
161.200959
 30
0.0
 11
224.627255
 21
159.8614509999999
 31
0.0
  0
LINE
  5
BF7C
330
BBD1
100
AcDbEntity
  8
1
  6
Continuous
100
AcDbLine
 10
224.384366
 20
161.200959
 30
0.0
 11
224.704396
 21
161.2958689999999
 31
0.0
  0
LINE
  5
BF7D
330
BBD1
100
AcDbEntity
  8
1
  6
Continuous
100
AcDbLine
 10
228.41747
 20
160.729432
 30
0.0
 11
228.121972
 21
155.292237
 31
0.0
  0
ARC
  5
BF7E
330
BBD1
100
AcDbEntity
  8
1
  6
Continuous
100
AcDbCircle
 10
227.319035
 20
163.36078
 30
0.0
 40
0.5
100
AcDbArc
 50
22.42549599999999
 51
91.155404
  0
ARC
  5
BF7F
330
BBD1
100
AcDbEntity
  8
1
  6
Continuous
100
AcDbCircle
 10
222.091252
 20
168.8570259999998
 30
0.0
 40
0.834336
100
AcDbArc
 50
180.0000029999999
 51
255.410175
  0
ARC
  5
BF80
330
BBD1
100
AcDbEntity
  8
1
  6
Continuous
100
AcDbCircle
 10
225.3139689999999
 20
163.320313
 30
0.0
 40
0.5
100
AcDbArc
 50
22.42549599999999
 51
176.9221419999998
  0
LINE
  5
BF81
330
BBD1
100
AcDbEntity
  8
1
  6
Continuous
100
AcDbLine
 10
225.7761579999999
 20
163.5110789999998
 30
0.0
 11
226.041585
 21
162.867921
 31
0.0
  0
LINE
  5
BF82
330
BBD1
100
AcDbEntity
  8
1
  6
Continuous
100
AcDbLine
 10
225.3038909999999
 20
163.820222
 30
0.0
 11
227.3089569999999
 21
163.860658
 31
0.0
  0
LINE
  5
BF83
330
BBD1
100
AcDbEntity
  8
1
  6
Continuous
100
AcDbLine
 10
227.781224
 20
163.5515149999999
 30
0.0
 11
228.0467269999999
 21
162.908174
 31
0.0
  0
ARC
  5
BF84
330
BBD1
100
AcDbEntity
  8
1
  6
Continuous
100
AcDbCircle
 10
229.126355
 20
137.833421
 30
0.0
 40
1.0
100
AcDbArc
 50
6.881516
 51
82.629368
  0
LINE
  5
BF85
330
BBD1
100
AcDbEntity
  8
1
  6
Continuous
100
AcDbLine
 10
231.8632029999999
 20
183.097428
 30
0.0
 11
231.8632029999999
 21
148.6763159999999
 31
0.0
  0
LINE
  5
BF86
330
BBD1
100
AcDbEntity
  8
1
  6
Continuous
100
AcDbLine
 10
232.8632029999999
 20
160.1130379999998
 30
0.0
 11
231.8632029999999
 21
160.1130379999998
 31
0.0
  0
LINE
  5
BF87
330
BBD1
100
AcDbEntity
  8
1
  6
Continuous
100
AcDbLine
 10
232.8632029999999
 20
154.113038
 30
0.0
 11
231.8632029999999
 21
154.113038
 31
0.0
  0
ARC
  5
BF88
330
BBD1
100
AcDbEntity
  8
1
  6
Continuous
100
AcDbCircle
 10
254.25534
 20
167.7557439999999
 30
0.0
 40
26.713884
100
AcDbArc
 50
181.006615
 51
189.8782709999999
  0
ARC
  5
BF89
330
BBD1
100
AcDbEntity
  8
1
  6
Continuous
100
AcDbCircle
 10
221.89534
 20
150.413898
 30
0.0
 40
10.0
100
AcDbArc
 50
4.594682999999998
 51
22.90469499999999
  0
LINE
  5
BF8A
330
BBD1
100
AcDbEntity
  8
1
  6
Continuous
100
AcDbLine
 10
231.8632029999999
 20
148.6763159999999
 30
0.0
 11
228.8250199999999
 21
148.6763159999999
 31
0.0
  0
ARC
  5
BF8B
330
BBD1
100
AcDbEntity
  8
1
  6
Continuous
100
AcDbCircle
 10
219.8629629999998
 20
149.528637
 30
0.0
 40
10.0
100
AcDbArc
 50
0.0
 51
16.808385
  0
LINE
  5
BF8C
330
BBD1
100
AcDbEntity
  8
1
  6
Continuous
100
AcDbLine
 10
229.8629629999998
 20
148.6763159999999
 30
0.0
 11
229.8629629999998
 21
149.528637
 31
0.0
  0
ARC
  5
BF8D
330
BBD1
100
AcDbEntity
  8
1
  6
Continuous
100
AcDbCircle
 10
254.25534
 20
167.7557439999999
 30
0.0
 40
26.713884
100
AcDbArc
 50
194.7729779999999
 51
208.187026
  0
ARC
  5
BF8E
330
BBD1
100
AcDbEntity
  8
1
  6
Continuous
100
AcDbCircle
 10
227.2469679999999
 20
154.292237
 30
0.0
 40
1.0
100
AcDbArc
 50
90.0
 51
186.8815209999999
  0
ARC
  5
BF8F
330
BBD1
100
AcDbEntity
  8
1
  6
Continuous
100
AcDbCircle
 10
227.6516009999999
 20
150.9393929999999
 30
0.0
 40
1.0
100
AcDbArc
 50
115.01613
 51
186.8815209999999
  0
ARC
  5
BF90
330
BBD1
100
AcDbEntity
  8
1
  6
Continuous
100
AcDbCircle
 10
230.1069689999999
 20
154.292237
 30
0.0
 40
1.0
100
AcDbArc
 50
295.0161229999998
 51
90.0
  0
LINE
  5
BF91
330
BBD1
100
AcDbEntity
  8
1
  6
Continuous
100
AcDbLine
 10
226.1190229999999
 20
155.292222
 30
0.0
 11
226.2541699999999
 21
154.172425
 31
0.0
  0
ARC
  5
BF92
330
BBD1
100
AcDbEntity
  8
1
  6
Continuous
100
AcDbCircle
 10
230.1069689999999
 20
153.8371129999999
 30
0.0
 40
1.0
100
AcDbArc
 50
295.0161229999998
 51
13.15351399999999
  0
LINE
  5
BF93
330
BBD1
100
AcDbEntity
  8
1
  6
Continuous
100
AcDbLine
 10
230.5298509999999
 20
153.3860329999999
 30
0.0
 11
227.2287339999998
 21
151.8455669999999
 31
0.0
  0
LINE
  5
BF94
330
BBD1
100
AcDbEntity
  8
1
  6
Continuous
100
AcDbLine
 10
230.5298509999999
 20
152.930924
 30
0.0
 11
228.429814
 21
151.950944
 31
0.0
  0
LINE
  5
BF95
330
BBD1
100
AcDbEntity
  8
1
  6
Continuous
100
AcDbLine
 10
230.1069689999999
 20
155.292237
 30
0.0
 11
227.2469679999999
 21
155.292237
 31
0.0
  0
ARC
  5
BF96
330
BBD1
100
AcDbEntity
  8
1
  6
Continuous
100
AcDbCircle
 10
221.89534
 20
150.413898
 30
0.0
 40
10.0
100
AcDbArc
 50
27.65789499999999
 51
28.18702599999999
  0
ARC
  5
BF97
330
BBD1
100
AcDbEntity
  8
1
  6
Continuous
100
AcDbCircle
 10
161.0351939999999
 20
234.435937
 30
0.0
 40
2.909844999999998
100
AcDbArc
 50
223.9297909999999
 51
278.412345
  0
ARC
  5
BF98
330
BBD1
100
AcDbEntity
  8
1
  6
Continuous
100
AcDbCircle
 10
162.048736
 20
234.585824
 30
0.0
 40
2.909844999999998
100
AcDbArc
 50
223.9297909999999
 51
336.070203
  0
ARC
  5
BF99
330
BBD1
100
AcDbEntity
  8
1
  6
Continuous
100
AcDbCircle
 10
112.387756
 20
241.611177
 30
0.0
 40
5.5
100
AcDbArc
 50
179.9999909999999
 51
0.00001
  0
ARC
  5
BF9A
330
BBD1
100
AcDbEntity
  8
1
  6
Continuous
100
AcDbCircle
 10
111.538719
 20
241.611177
 30
0.0
 40
5.5
100
AcDbArc
 50
179.9999909999999
 51
274.426783
  0
LINE
  5
BF9B
330
BBD1
100
AcDbEntity
  8
1
  6
Continuous
100
AcDbLine
 10
156.6616769999999
 20
238.217462
 30
0.0
 11
156.908161
 21
236.5507599999999
 31
0.0
  0
LINE
  5
BF9C
330
BBD1
100
AcDbEntity
  8
1
  6
Continuous
100
AcDbLine
 10
157.6973869999999
 20
238.217462
 30
0.0
 11
157.921705
 21
236.700645
 31
0.0
  0
ARC
  5
BF9D
330
BBD1
100
AcDbEntity
  8
1
  6
Continuous
100
AcDbCircle
 10
164.377159
 20
237.6553279999999
 30
0.0
 40
7.550231
100
AcDbArc
 50
188.4123429999999
 51
223.9297909999999
  0
ARC
  5
BF9E
330
BBD1
100
AcDbEntity
  8
1
  6
Continuous
100
AcDbCircle
 10
165.390701
 20
237.805215
 30
0.0
 40
7.550231
100
AcDbArc
 50
188.4123429999999
 51
223.9297909999999
  0
LINE
  5
BF9F
330
BBD1
100
AcDbEntity
  8
1
  6
Continuous
100
AcDbLine
 10
117.9470819999999
 20
242.717462
 30
0.0
 11
122.1646189999999
 21
242.717462
 31
0.0
  0
LINE
  5
BFA0
330
BBD1
100
AcDbEntity
  8
1
  6
Continuous
100
AcDbLine
 10
106.0387189999999
 20
248.611173
 30
0.0
 11
117.2045589999999
 21
248.611173
 31
0.0
  0
LINE
  5
BFA1
330
BBD1
100
AcDbEntity
  8
1
  6
Continuous
100
AcDbLine
 10
106.0387189999999
 20
248.611173
 30
0.0
 11
106.0387189999999
 21
241.611177
 31
0.0
  0
LINE
  5
BFA2
330
BBD1
100
AcDbEntity
  8
1
  6
Continuous
100
AcDbLine
 10
106.887756
 20
248.611173
 30
0.0
 11
106.887756
 21
241.611177
 31
0.0
  0
LINE
  5
BFA3
330
BBD1
100
AcDbEntity
  8
1
  6
Continuous
100
AcDbLine
 10
120.388661
 20
244.7174599999999
 30
0.0
 11
118.9931129999998
 21
247.5062069999999
 31
0.0
  0
LINE
  5
BFA4
330
BBD1
100
AcDbEntity
  8
1
  6
Continuous
100
AcDbLine
 10
117.9470819999999
 20
247.6111729999999
 30
0.0
 11
117.9470819999999
 21
241.611177
 31
0.0
  0
LINE
  5
BFA5
330
BBD1
100
AcDbEntity
  8
1
  6
Continuous
100
AcDbLine
 10
120.3886569999999
 20
244.717462
 30
0.0
 11
122.1646189999999
 21
244.717462
 31
0.0
  0
LINE
  5
BFA6
330
BBD1
100
AcDbEntity
  8
1
  6
Continuous
100
AcDbLine
 10
118.600108
 20
243.8224309999999
 30
0.0
 11
117.947085
 21
245.127378
 31
0.0
  0
ARC
  5
BFA7
330
BBD1
100
AcDbEntity
  8
1
  6
Continuous
100
AcDbCircle
 10
120.3886569999999
 20
244.717462
 30
0.0
 40
2.0
100
AcDbArc
 50
206.584348
 51
269.9999969999999
  0
ARC
  5
BFA8
330
BBD1
100
AcDbEntity
  8
1
  6
Continuous
100
AcDbCircle
 10
117.2045589999999
 20
246.611173
 30
0.0
 40
2.0
100
AcDbArc
 50
26.58435300000001
 51
90.00000300000001
  0
ARC
  5
BFA9
330
BBD1
100
AcDbEntity
  8
1
  6
Continuous
100
AcDbCircle
 10
116.9470819999999
 20
247.6111729999999
 30
0.0
 40
1.0
100
AcDbArc
 50
0.0
 51
90.00000300000001
  0
LINE
  5
BFAA
330
BBD1
100
AcDbEntity
  8
1
  6
Continuous
100
AcDbLine
 10
126.736411
 20
243.802018
 30
0.0
 11
126.6587459999998
 21
244.717222
 31
0.0
  0
ARC
  5
BFAB
330
BBD1
100
AcDbEntity
  8
1
  6
Continuous
100
AcDbCircle
 10
125.73999
 20
243.7174619999999
 30
0.0
 40
1.0
100
AcDbArc
 50
288.792949
 51
4.850539999999998
  0
ARC
  5
BFAC
330
BBD1
100
AcDbEntity
  8
1
  6
Continuous
100
AcDbCircle
 10
157.807228
 20
236.4680459999999
 30
0.0
 40
7.550231
100
AcDbArc
 50
336.070203
 51
9.546331
  0
ARC
  5
BFAD
330
BBD1
100
AcDbEntity
  8
1
  6
Continuous
100
AcDbCircle
 10
162.048736
 20
234.585824
 30
0.0
 40
2.909844999999998
100
AcDbArc
 50
278.412345
 51
336.070203
  0
LINE
  5
BFAE
330
BBD1
100
AcDbEntity
  8
1
  6
Continuous
100
AcDbLine
 10
161.460894
 20
231.557399
 30
0.0
 11
162.4744379999999
 21
231.7072899999998
 31
0.0
  0
LINE
  5
BFAF
330
BBD1
100
AcDbEntity
  8
1
  6
Continuous
100
AcDbLine
 10
165.1793649999999
 20
238.217462
 30
0.0
 11
165.2591549999999
 21
237.6779259999999
 31
0.0
  0
LINE
  5
BFB0
330
BBD1
100
AcDbEntity
  8
1
  6
Continuous
100
AcDbLine
 10
126.1028819999999
 20
242.717462
 30
0.0
 11
131.226357
 21
242.717462
 31
0.0
  0
ENDSEC
  0
SECTION
  2
OBJECTS
  0
DICTIONARY
  5
BBBF
330
0
100
AcDbDictionary
281
     1
  3
ACAD_CIP_PREVIOUS_PRODUCT_INFO
350
C012
  3
ACAD_COLOR
350
BFF4
  3
ACAD_DETAILVIEWSTYLE
350
C00D
  3
ACAD_GROUP
350
BBC0
  3
ACAD_LAYOUT
350
BBCC
  3
ACAD_MATERIAL
350
BFC2
  3
ACAD_MLEADERSTYLE
350
C009
  3
ACAD_MLINESTYLE
350
BBC9
  3
ACAD_PLOTSETTINGS
350
BBCB
  3
ACAD_PLOTSTYLENAME
350
BFC0
  3
ACAD_SCALELIST
350
BFF7
  3
ACAD_SECTIONVIEWSTYLE
350
C00B
  3
ACAD_TABLESTYLE
350
BFF5
  3
ACAD_VISUALSTYLE
350
BFDB
  3
ACDB_RECOMPOSE_DATA
350
C030
  3
AcDbVariableDictionary
350
C023
  3
DWGPROPS
350
C031
  0
DICTIONARY
  5
C013
330
BBC3
100
AcDbDictionary
280
     1
281
     1
  3
ADSK_XREC_LAYER_RECONCILED
360
C014
  0
DICTIONARY
  5
C015
330
BBD9
100
AcDbDictionary
280
     1
281
     1
  3
ADSK_XREC_LAYER_RECONCILED
360
C016
  0
DICTIONARY
  5
C017
330
BBDA
100
AcDbDictionary
280
     1
281
     1
  3
ADSK_XREC_LAYER_RECONCILED
360
C018
  0
DICTIONARY
  5
C019
330
BBDB
100
AcDbDictionary
280
     1
281
     1
  3
ADSK_XREC_LAYER_RECONCILED
360
C01A
  0
DICTIONARY
  5
C01B
330
BBDC
100
AcDbDictionary
280
     1
281
     1
  3
ADSK_XREC_LAYER_RECONCILED
360
C01C
  0
DICTIONARY
  5
C01D
330
BBDD
100
AcDbDictionary
280
     1
281
     1
  3
ADSK_XREC_LAYER_RECONCILED
360
C01E
  0
DICTIONARY
  5
C01F
330
BBDE
100
AcDbDictionary
280
     1
281
     1
  3
ADSK_XREC_LAYER_RECONCILED
360
C020
  0
DICTIONARY
  5
C021
330
BBDF
100
AcDbDictionary
280
     1
281
     1
  3
ADSK_XREC_LAYER_RECONCILED
360
C022
  0
DICTIONARY
  5
BFBB
330
BBD1
100
AcDbDictionary
281
     1
  3
ACAD_LAYOUTSELFREF
350
BFBC
  0
DICTIONARY
  5
BFB9
330
BBCD
100
AcDbDictionary
281
     1
  3
ACAD_LAYOUTSELFREF
350
BFBA
  0
XRECORD
  5
C012
102
{ACAD_REACTORS
330
BBBF
102
}
330
BBBF
100
AcDbXrecord
280
     1
300
ACDLT
300
2014
300
ACDLT_F_S
  0
DICTIONARY
  5
BFF4
102
{ACAD_REACTORS
330
BBBF
102
}
330
BBBF
100
AcDbDictionary
281
     1
  0
DICTIONARY
  5
C00D
102
{ACAD_REACTORS
330
BBBF
102
}
330
BBBF
100
AcDbDictionary
281
     1
  3
Imperial24
350
C00E
  0
DICTIONARY
  5
BBC0
102
{ACAD_REACTORS
330
BBBF
102
}
330
BBBF
100
AcDbDictionary
281
     1
  0
DICTIONARY
  5
BBCC
102
{ACAD_REACTORS
330
BBBF
102
}
330
BBBF
100
AcDbDictionary
281
     1
  3
Model
350
C00F
  3
レイアウト1
350
C010
  0
DICTIONARY
  5
BFC2
102
{ACAD_REACTORS
330
BBBF
102
}
330
BBBF
100
AcDbDictionary
281
     1
  3
ByBlock
350
BFCB
  3
ByLayer
350
BFC3
  3
Global
350
BFD3
  0
DICTIONARY
  5
C009
102
{ACAD_REACTORS
330
BBBF
102
}
330
BBBF
100
AcDbDictionary
281
     1
  3
Standard
350
C00A
  0
DICTIONARY
  5
BBC9
102
{ACAD_REACTORS
330
BBBF
102
}
330
BBBF
100
AcDbDictionary
281
     1
  3
STANDARD
350
BBCA
  0
DICTIONARY
  5
BBCB
102
{ACAD_REACTORS
330
BBBF
102
}
330
BBBF
100
AcDbDictionary
281
     1
  0
ACDBDICTIONARYWDFLT
  5
BFC0
102
{ACAD_REACTORS
330
BBBF
102
}
330
BBBF
100
AcDbDictionary
281
     1
  3
Normal
350
BFC1
100
AcDbDictionaryWithDefault
340
BFC1
  0
DICTIONARY
  5
BFF7
102
{ACAD_REACTORS
330
BBBF
102
}
330
BBBF
100
AcDbDictionary
281
     1
  3
A0
350
BFF8
  3
A1
350
BFF9
  3
A2
350
BFFA
  3
A3
350
BFFB
  3
A4
350
BFFC
  3
A5
350
BFFD
  3
A6
350
BFFE
  3
A7
350
BFFF
  3
A8
350
C000
  3
A9
350
C001
  3
B0
350
C002
  3
B1
350
C003
  3
B2
350
C004
  3
B3
350
C005
  3
B4
350
C006
  3
B5
350
C007
  3
B6
350
C008
  0
DICTIONARY
  5
C00B
102
{ACAD_REACTORS
330
BBBF
102
}
330
BBBF
100
AcDbDictionary
281
     1
  3
Imperial24
350
C00C
  0
DICTIONARY
  5
BFF5
102
{ACAD_REACTORS
330
BBBF
102
}
330
BBBF
100
AcDbDictionary
281
     1
  3
Standard
350
BFF6
  0
DICTIONARY
  5
BFDB
102
{ACAD_REACTORS
330
BBBF
102
}
330
BBBF
100
AcDbDictionary
281
     1
  3
2dWireframe
350
BFE1
  3
Basic
350
BFE0
  3
Brighten
350
BFE7
  3
ColorChange
350
BFEB
  3
Conceptual
350
BFE4
  3
Dim
350
BFE6
  3
EdgeColorOff
350
BFF3
  3
Facepattern
350
BFEA
  3
Flat
350
BFDC
  3
FlatWithEdges
350
BFDD
  3
Gouraud
350
BFDE
  3
GouraudWithEdges
350
BFDF
  3
Hidden
350
BFE3
  3
JitterOff
350
BFF1
  3
Linepattern
350
BFE9
  3
OverhangOff
350
BFF2
  3
Realistic
350
BFE5
  3
Shaded
350
BFF0
  3
Shaded with edges
350
BFEF
  3
Shades of Gray
350
BFEC
  3
Sketchy
350
BFED
  3
Thicken
350
BFE8
  3
Wireframe
350
BFE2
  3
X-Ray
350
BFEE
  0
XRECORD
  5
C030
102
{ACAD_REACTORS
330
BBBF
102
}
330
BBBF
100
AcDbXrecord
280
     1
 90
        1
330
BFF6
  0
DICTIONARY
  5
C023
102
{ACAD_REACTORS
330
BBBF
102
}
330
BBBF
100
AcDbDictionary
281
     1
  3
CANNOSCALE
350
C028
  3
CMLEADERSTYLE
350
C025
  3
CTABLESTYLE
350
C024
  3
CVIEWDETAILSTYLE
350
C026
  3
CVIEWSECTIONSTYLE
350
C027
  3
DIMASSOC
350
C02B
  3
INDEXCTL
350
C02A
  3
SORTENTS
350
C029
  3
XCLIPFRAME
350
C02C
  0
XRECORD
  5
C031
102
{ACAD_REACTORS
330
BBBF
102
}
330
BBBF
100
AcDbXrecord
280
     1
  1
DWGPROPS COOKIE
  2

  3

  4

  6

  7

  8
Yoshitsune
  9

300
=
301
=
302
=
303
=
304
=
305
=
306
=
307
=
308
=
309
=
 40
0.0000150925925926
 41
2451303.402713195
 42
2457192.686535625
  1

 90
        0
  0
XRECORD
  5
C014
102
{ACAD_REACTORS
330
C013
102
}
330
C013
100
AcDbXrecord
280
     1
290
     1
  0
XRECORD
  5
C016
102
{ACAD_REACTORS
330
C015
102
}
330
C015
100
AcDbXrecord
280
     1
290
     1
  0
XRECORD
  5
C018
102
{ACAD_REACTORS
330
C017
102
}
330
C017
100
AcDbXrecord
280
     1
290
     1
  0
XRECORD
  5
C01A
102
{ACAD_REACTORS
330
C019
102
}
330
C019
100
AcDbXrecord
280
     1
290
     1
  0
XRECORD
  5
C01C
102
{ACAD_REACTORS
330
C01B
102
}
330
C01B
100
AcDbXrecord
280
     1
290
     1
  0
XRECORD
  5
C01E
102
{ACAD_REACTORS
330
C01D
102
}
330
C01D
100
AcDbXrecord
280
     1
290
     1
  0
XRECORD
  5
C020
102
{ACAD_REACTORS
330
C01F
102
}
330
C01F
100
AcDbXrecord
280
     1
290
     1
  0
XRECORD
  5
C022
102
{ACAD_REACTORS
330
C021
102
}
330
C021
100
AcDbXrecord
280
     1
290
     1
  0
XRECORD
  5
BFBC
102
{ACAD_REACTORS
330
BFBB
102
}
330
BFBB
100
AcDbXrecord
280
     1
340
BBD1
  0
XRECORD
  5
BFBA
102
{ACAD_REACTORS
330
BFB9
102
}
330
BFB9
100
AcDbXrecord
280
     1
340
BBCD
  0
ACDBDETAILVIEWSTYLE
  5
C00E
102
{ACAD_XDICTIONARY
360
C069
102
}
102
{ACAD_REACTORS
330
C00D
102
}
330
C00D
100
AcDbModelDocViewStyle
 70
     0
  3
Imperial24
290
     0
100
AcDbDetailViewStyle
 70
     0
 71
     0
 90
        3
 71
     1
340
BBC4
 40
0.24
340
0
 40
0.24
300

 40
0.36
280
     3
 71
     2
340
BBC8
 90
       25
 71
     3
340
BBC4
 40
0.24
 90
        1
 40
0.75
 90
        1
300
%<\AcVar ViewType \f "%tc1">% %<\AcVar ViewDetailId>%\PSCALE %<\AcVar ViewScale \f "%sn">%
 71
     4
340
BBC8
 90
       25
340
BBC8
 90
       25
280
     0
  0
LAYOUT
  5
C00F
102
{ACAD_XDICTIONARY
360
C06B
102
}
102
{ACAD_REACTORS
330
BBCC
102
}
330
BBCC
100
AcDbPlotSettings
  1

  2
Canon LBP9100C
  4

  6

 40
0.0
 41
0.0
 42
0.0
 43
0.0
 44
0.0
 45
0.0
 46
0.0
 47
0.0
 48
0.0
 49
0.0
140
0.0
141
0.0
142
1.0
143
1.0
 70
  1712
 72
     0
 73
     0
 74
     0
  7

 75
     0
147
1.0
148
0.0
149
0.0
100
AcDbLayout
  1
Model
 70
     1
 71
     0
 10
0.0
 20
0.0
 11
12.0
 21
9.0
 12
0.0
 22
0.0
 32
0.0
 14
0.0
 24
0.0
 34
0.0
 15
0.0
 25
0.0
 35
0.0
146
0.0
 13
0.0
 23
0.0
 33
0.0
 16
1.0
 26
0.0
 36
0.0
 17
0.0
 27
1.0
 37
0.0
 76
     0
330
BBD1
331
BFB8
  0
LAYOUT
  5
C010
102
{ACAD_XDICTIONARY
360
C06D
102
}
102
{ACAD_REACTORS
330
BBCC
102
}
330
BBCC
100
AcDbPlotSettings
  1

  2
Canon LBP9100C
  4

  6

 40
0.0
 41
0.0
 42
0.0
 43
0.0
 44
0.0
 45
0.0
 46
0.0
 47
0.0
 48
0.0
 49
0.0
140
0.0
141
0.0
142
1.0
143
1.0
 70
   688
 72
     0
 73
     0
 74
     5
  7

 75
    16
147
1.0
148
0.0
149
0.0
100
AcDbLayout
  1
レイアウト1
 70
     0
 71
     1
 10
0.0
 20
0.0
 11
420.0
 21
297.0
 12
0.0
 22
0.0
 32
0.0
 14
1.000000000000000E+20
 24
1.000000000000000E+20
 34
1.000000000000000E+20
 15
-1.000000000000000E+20
 25
-1.000000000000000E+20
 35
-1.000000000000000E+20
146
0.0
 13
0.0
 23
0.0
 33
0.0
 16
1.0
 26
0.0
 36
0.0
 17
0.0
 27
1.0
 37
0.0
 76
     0
330
BBCD
  0
MATERIAL
  5
BFCB
102
{ACAD_XDICTIONARY
360
BFCC
102
}
102
{ACAD_REACTORS
330
BFC2
102
}
330
BFC2
100
AcDbMaterial
  1
ByBlock
 72
     0
 43
0.0208333333333333
 43
0.0
 43
0.0
 43
0.0
 43
0.0
 43
0.0208333333333333
 43
0.0
 43
0.0
 43
0.0
 43
0.0
 43
1.0
 43
0.0
 43
0.0
 43
0.0
 43
0.0
 43
1.0
 77
     0
 47
0.0208333333333333
 47
0.0
 47
0.0
 47
0.0
 47
0.0
 47
0.0208333333333333
 47
0.0
 47
0.0
 47
0.0
 47
0.0
 47
1.0
 47
0.0
 47
0.0
 47
0.0
 47
0.0
 47
1.0
171
     0
 49
0.0208333333333333
 49
0.0
 49
0.0
 49
0.0
 49
0.0
 49
0.0208333333333333
 49
0.0
 49
0.0
 49
0.0
 49
0.0
 49
1.0
 49
0.0
 49
0.0
 49
0.0
 49
0.0
 49
1.0
175
     0
142
0.0208333333333333
142
0.0
142
0.0
142
0.0
142
0.0
142
0.0208333333333333
142
0.0
142
0.0
142
0.0
142
0.0
142
1.0
142
0.0
142
0.0
142
0.0
142
0.0
142
1.0
179
     0
144
0.0208333333333333
144
0.0
144
0.0
144
0.0
144
0.0
144
0.0208333333333333
144
0.0
144
0.0
144
0.0
144
0.0
144
1.0
144
0.0
144
0.0
144
0.0
144
0.0
144
1.0
147
0.0208333333333333
147
0.0
147
0.0
147
0.0
147
0.0
147
0.0208333333333333
147
0.0
147
0.0
147
0.0
147
0.0
147
1.0
147
0.0
147
0.0
147
0.0
147
0.0
147
1.0
  0
MATERIAL
  5
BFC3
102
{ACAD_XDICTIONARY
360
BFC4
102
}
102
{ACAD_REACTORS
330
BFC2
102
}
330
BFC2
100
AcDbMaterial
  1
ByLayer
 72
     0
 43
0.0208333333333333
 43
0.0
 43
0.0
 43
0.0
 43
0.0
 43
0.0208333333333333
 43
0.0
 43
0.0
 43
0.0
 43
0.0
 43
1.0
 43
0.0
 43
0.0
 43
0.0
 43
0.0
 43
1.0
 77
     0
 47
0.0208333333333333
 47
0.0
 47
0.0
 47
0.0
 47
0.0
 47
0.0208333333333333
 47
0.0
 47
0.0
 47
0.0
 47
0.0
 47
1.0
 47
0.0
 47
0.0
 47
0.0
 47
0.0
 47
1.0
171
     0
 49
0.0208333333333333
 49
0.0
 49
0.0
 49
0.0
 49
0.0
 49
0.0208333333333333
 49
0.0
 49
0.0
 49
0.0
 49
0.0
 49
1.0
 49
0.0
 49
0.0
 49
0.0
 49
0.0
 49
1.0
175
     0
142
0.0208333333333333
142
0.0
142
0.0
142
0.0
142
0.0
142
0.0208333333333333
142
0.0
142
0.0
142
0.0
142
0.0
142
1.0
142
0.0
142
0.0
142
0.0
142
0.0
142
1.0
179
     0
144
0.0208333333333333
144
0.0
144
0.0
144
0.0
144
0.0
144
0.0208333333333333
144
0.0
144
0.0
144
0.0
144
0.0
144
1.0
144
0.0
144
0.0
144
0.0
144
0.0
144
1.0
147
0.0208333333333333
147
0.0
147
0.0
147
0.0
147
0.0
147
0.0208333333333333
147
0.0
147
0.0
147
0.0
147
0.0
147
1.0
147
0.0
147
0.0
147
0.0
147
0.0
147
1.0
  0
MATERIAL
  5
BFD3
102
{ACAD_XDICTIONARY
360
BFD4
102
}
102
{ACAD_REACTORS
330
BFC2
102
}
330
BFC2
100
AcDbMaterial
  1
Global
 72
     0
 43
0.0208333333333333
 43
0.0
 43
0.0
 43
0.0
 43
0.0
 43
0.0208333333333333
 43
0.0
 43
0.0
 43
0.0
 43
0.0
 43
1.0
 43
0.0
 43
0.0
 43
0.0
 43
0.0
 43
1.0
 77
     0
 47
0.0208333333333333
 47
0.0
 47
0.0
 47
0.0
 47
0.0
 47
0.0208333333333333
 47
0.0
 47
0.0
 47
0.0
 47
0.0
 47
1.0
 47
0.0
 47
0.0
 47
0.0
 47
0.0
 47
1.0
171
     0
 49
0.0208333333333333
 49
0.0
 49
0.0
 49
0.0
 49
0.0
 49
0.0208333333333333
 49
0.0
 49
0.0
 49
0.0
 49
0.0
 49
1.0
 49
0.0
 49
0.0
 49
0.0
 49
0.0
 49
1.0
175
     0
142
0.0208333333333333
142
0.0
142
0.0
142
0.0
142
0.0
142
0.0208333333333333
142
0.0
142
0.0
142
0.0
142
0.0
142
1.0
142
0.0
142
0.0
142
0.0
142
0.0
142
1.0
179
     0
144
0.0208333333333333
144
0.0
144
0.0
144
0.0
144
0.0
144
0.0208333333333333
144
0.0
144
0.0
144
0.0
144
0.0
144
1.0
144
0.0
144
0.0
144
0.0
144
0.0
144
1.0
147
0.0208333333333333
147
0.0
147
0.0
147
0.0
147
0.0
147
0.0208333333333333
147
0.0
147
0.0
147
0.0
147
0.0
147
1.0
147
0.0
147
0.0
147
0.0
147
0.0
147
1.0
  0
MLEADERSTYLE
  5
C00A
102
{ACAD_REACTORS
330
C009
102
}
330
C009
100
AcDbMLeaderStyle
170
     2
171
     1
172
     0
 90
        2
 40
0.0
 41
0.0
173
     1
 91
-1056964608
340
BBC6
 92
       -2
290
     1
 42
0.09
291
     1
 43
0.36
  3
Standard
 44
0.18
300

342
BBC4
174
     1
178
     6
175
     1
176
     0
 93
-1056964608
 45
0.18
292
     0
297
     0
 46
0.18
 94
-1056964608
 47
1.0
 49
1.0
140
1.0
293
     1
141
0.0
294
     1
177
     0
142
1.0
295
     0
296
     0
143
0.125
1001
ACAD_MLEADERVER
1070
     2
  0
MLINESTYLE
  5
BBCA
102
{ACAD_REACTORS
330
BBC9
102
}
330
BBC9
100
AcDbMlineStyle
  2
STANDARD
 70
     0
  3

 62
   256
 51
90.0
 52
90.0
 71
     2
 49
0.5
 62
   256
  6
BYLAYER
 49
-0.5
 62
   256
  6
BYLAYER
  0
ACDBPLACEHOLDER
  5
BFC1
102
{ACAD_REACTORS
330
BFC0
102
}
330
BFC0
  0
SCALE
  5
BFF8
102
{ACAD_REACTORS
330
BFF7
102
}
330
BFF7
100
AcDbScale
 70
     0
300
1:1
140
1.0
141
1.0
290
     1
  0
SCALE
  5
BFF9
102
{ACAD_REACTORS
330
BFF7
102
}
330
BFF7
100
AcDbScale
 70
     0
300
1/128" = 1'-0"
140
0.0078125
141
12.0
290
     0
  0
SCALE
  5
BFFA
102
{ACAD_REACTORS
330
BFF7
102
}
330
BFF7
100
AcDbScale
 70
     0
300
1/64" = 1'-0"
140
0.015625
141
12.0
290
     0
  0
SCALE
  5
BFFB
102
{ACAD_REACTORS
330
BFF7
102
}
330
BFF7
100
AcDbScale
 70
     0
300
1/32" = 1'-0"
140
0.03125
141
12.0
290
     0
  0
SCALE
  5
BFFC
102
{ACAD_REACTORS
330
BFF7
102
}
330
BFF7
100
AcDbScale
 70
     0
300
1/16" = 1'-0"
140
0.0625
141
12.0
290
     0
  0
SCALE
  5
BFFD
102
{ACAD_REACTORS
330
BFF7
102
}
330
BFF7
100
AcDbScale
 70
     0
300
3/32" = 1'-0"
140
0.09375
141
12.0
290
     0
  0
SCALE
  5
BFFE
102
{ACAD_REACTORS
330
BFF7
102
}
330
BFF7
100
AcDbScale
 70
     0
300
1/8" = 1'-0"
140
0.125
141
12.0
290
     0
  0
SCALE
  5
BFFF
102
{ACAD_REACTORS
330
BFF7
102
}
330
BFF7
100
AcDbScale
 70
     0
300
3/16" = 1'-0"
140
0.1875
141
12.0
290
     0
  0
SCALE
  5
C000
102
{ACAD_REACTORS
330
BFF7
102
}
330
BFF7
100
AcDbScale
 70
     0
300
1/4" = 1'-0"
140
0.25
141
12.0
290
     0
  0
SCALE
  5
C001
102
{ACAD_REACTORS
330
BFF7
102
}
330
BFF7
100
AcDbScale
 70
     0
300
3/8" = 1'-0"
140
0.375
141
12.0
290
     0
  0
SCALE
  5
C002
102
{ACAD_REACTORS
330
BFF7
102
}
330
BFF7
100
AcDbScale
 70
     0
300
1/2" = 1'-0"
140
0.5
141
12.0
290
     0
  0
SCALE
  5
C003
102
{ACAD_REACTORS
330
BFF7
102
}
330
BFF7
100
AcDbScale
 70
     0
300
3/4" = 1'-0"
140
0.75
141
12.0
290
     0
  0
SCALE
  5
C004
102
{ACAD_REACTORS
330
BFF7
102
}
330
BFF7
100
AcDbScale
 70
     0
300
1" = 1'-0"
140
1.0
141
12.0
290
     0
  0
SCALE
  5
C005
102
{ACAD_REACTORS
330
BFF7
102
}
330
BFF7
100
AcDbScale
 70
     0
300
1-1/2" = 1'-0"
140
1.5
141
12.0
290
     0
  0
SCALE
  5
C006
102
{ACAD_REACTORS
330
BFF7
102
}
330
BFF7
100
AcDbScale
 70
     0
300
3" = 1'-0"
140
3.0
141
12.0
290
     0
  0
SCALE
  5
C007
102
{ACAD_REACTORS
330
BFF7
102
}
330
BFF7
100
AcDbScale
 70
     0
300
6" = 1'-0"
140
6.0
141
12.0
290
     0
  0
SCALE
  5
C008
102
{ACAD_REACTORS
330
BFF7
102
}
330
BFF7
100
AcDbScale
 70
     0
300
1'-0" = 1'-0"
140
12.0
141
12.0
290
     0
  0
ACDBSECTIONVIEWSTYLE
  5
C00C
102
{ACAD_XDICTIONARY
360
C067
102
}
102
{ACAD_REACTORS
330
C00B
102
}
330
C00B
100
AcDbModelDocViewStyle
 70
     0
  3
Imperial24
290
     0
100
AcDbSectionViewStyle
 70
     0
 71
     0
 90
       78
 71
     1
340
BBC4
 40
0.24
340
0
340
0
 40
0.24
300
I, O, Q, S, X, Z
 40
0.48
 90
        3
 40
0.18
 90
        1
 71
     2
340
BBC8
 90
       25
340
BBC8
 90
       50
 40
0.24
 40
0.0
 40
0.24
 71
     3
340
BBC4
 40
0.24
 90
        1
 40
0.75
 90
        1
300
%<\AcVar ViewType \f "%tc1">% %<\AcVar ViewSectionStartId>%-%<\AcVar ViewSectionEndId>%\PSCALE %<\AcVar ViewScale \f "%sn">%
 71
     4
300
ANSI31
 40
1.0
 90
        0
290
     0
290
     0
 90
        6
 40
0.0
 40
1.570796326794896
 40
0.2617993877991494
 40
1.308996938995747
 40
-0.2617993877991494
 40
1.832595714594046
  0
TABLESTYLE
  5
BFF6
102
{ACAD_XDICTIONARY
360
C02E
102
}
102
{ACAD_REACTORS
330
BFF5
102
}
330
BFF5
100
AcDbTableStyle
  3
Standard
 70
     0
 71
     0
 40
0.06
 41
0.06
280
     0
281
     0
  7
STANDARD
140
0.18
170
     2
 62
     0
 63
     7
283
     0
274
    -2
284
     1
 64
     0
275
    -2
285
     1
 65
     0
276
    -2
286
     1
 66
     0
277
    -2
287
     1
 67
     0
278
    -2
288
     1
 68
     0
279
    -2
289
     1
 69
     0
  7
STANDARD
140
0.25
170
     5
 62
     0
 63
     7
283
     0
274
    -2
284
     1
 64
     0
275
    -2
285
     1
 65
     0
276
    -2
286
     1
 66
     0
277
    -2
287
     1
 67
     0
278
    -2
288
     1
 68
     0
279
    -2
289
     1
 69
     0
  7
STANDARD
140
0.18
170
     5
 62
     0
 63
     7
283
     0
274
    -2
284
     1
 64
     0
275
    -2
285
     1
 65
     0
276
    -2
286
     1
 66
     0
277
    -2
287
     1
 67
     0
278
    -2
288
     1
 68
     0
279
    -2
289
     1
 69
     0
  0
VISUALSTYLE
  5
BFE1
102
{ACAD_XDICTIONARY
360
C03F
102
}
102
{ACAD_REACTORS
330
BFDB
102
}
330
BFDB
100
AcDbVisualStyle
  2
2dWireframe
 70
     4
 71
     0
 72
     2
 73
     0
 90
        0
 40
-0.6
 41
-30.0
 62
     5
 63
     7
 74
     1
 91
        4
 64
     7
 65
   257
 75
     1
175
     1
 42
1.0
 92
        0
 66
   257
 43
1.0
 76
     1
 77
     6
 78
     2
 67
     7
 79
     5
170
     0
171
     0
290
     0
174
     0
 93
        1
 44
0.0
173
     0
291
     0
 45
0.0
1001
ACAD
1000
AcDbSavedByObjectVersion
1070
     0
  0
VISUALSTYLE
  5
BFE0
102
{ACAD_XDICTIONARY
360
C03D
102
}
102
{ACAD_REACTORS
330
BFDB
102
}
330
BFDB
100
AcDbVisualStyle
  2
Basic
 70
     7
 71
     1
 72
     0
 73
     1
 90
        0
 40
-0.6
 41
-30.0
 62
     5
 63
     7
 74
     0
 91
        4
 64
     7
 65
   257
 75
     1
175
     1
 42
1.0
 92
        8
 66
     7
 43
1.0
 76
     1
 77
     6
 78
     2
 67
     7
 79
     5
170
     0
171
     0
290
     0
174
     0
 93
        1
 44
0.0
173
     0
291
     1
 45
0.0
1001
ACAD
1000
AcDbSavedByObjectVersion
1070
     0
  0
VISUALSTYLE
  5
BFE7
102
{ACAD_XDICTIONARY
360
C04B
102
}
102
{ACAD_REACTORS
330
BFDB
102
}
330
BFDB
100
AcDbVisualStyle
  2
Brighten
 70
    12
 71
     2
 72
     2
 73
     0
 90
        0
 40
-0.6
 41
-30.0
 62
     5
 63
     7
 74
     1
 91
        4
 64
     7
 65
   257
 75
     1
175
     1
 42
1.0
 92
        8
 66
     7
 43
1.0
 76
     1
 77
     6
 78
     2
 67
     7
 79
     5
170
     0
171
     0
290
     0
174
     0
 93
        1
 44
50.0
173
     0
291
     1
 45
0.0
1001
ACAD
1000
AcDbSavedByObjectVersion
1070
     0
  0
VISUALSTYLE
  5
BFEB
102
{ACAD_XDICTIONARY
360
C053
102
}
102
{ACAD_REACTORS
330
BFDB
102
}
330
BFDB
100
AcDbVisualStyle
  2
ColorChange
 70
    16
 71
     2
 72
     2
 73
     3
 90
        0
 40
-0.6
 41
-30.0
 62
     5
 63
     8
 74
     1
 91
        4
 64
     7
 65
   257
 75
     1
175
     1
 42
1.0
 92
        8
 66
     8
 43
1.0
 76
     1
 77
     6
 78
     2
 67
     7
 79
     5
170
     0
171
     0
290
     0
174
     0
 93
        1
 44
0.0
173
     0
291
     1
 45
0.0
1001
ACAD
1000
AcDbSavedByObjectVersion
1070
     0
  0
VISUALSTYLE
  5
BFE4
102
{ACAD_XDICTIONARY
360
C045
102
}
102
{ACAD_REACTORS
330
BFDB
102
}
330
BFDB
100
AcDbVisualStyle
  2
Conceptual
 70
     9
 71
     3
 72
     2
 73
     0
 90
        0
 40
-0.6
 41
-30.0
 62
     5
 63
     7
 74
     2
 91
        2
 64
     7
 65
   257
 75
     1
175
     1
 42
179.0
 92
        8
 66
     7
 43
1.0
 76
     1
 77
     6
 78
     2
 67
     7
 79
     3
170
     0
171
     0
290
     0
174
     0
 93
        1
 44
0.0
173
     0
291
     0
 45
0.0
1001
ACAD
1000
AcDbSavedByObjectVersion
1070
     0
  0
VISUALSTYLE
  5
BFE6
102
{ACAD_XDICTIONARY
360
C049
102
}
102
{ACAD_REACTORS
330
BFDB
102
}
330
BFDB
100
AcDbVisualStyle
  2
Dim
 70
    11
 71
     2
 72
     2
 73
     0
 90
        0
 40
-0.6
 41
-30.0
 62
     5
 63
     7
 74
     1
 91
        4
 64
     7
 65
   257
 75
     1
175
     1
 42
1.0
 92
        8
 66
     7
 43
1.0
 76
     1
 77
     6
 78
     2
 67
     7
 79
     5
170
     0
171
     0
290
     0
174
     0
 93
        1
 44
-50.0
173
     0
291
     1
 45
0.0
1001
ACAD
1000
AcDbSavedByObjectVersion
1070
     0
  0
VISUALSTYLE
  5
BFF3
102
{ACAD_XDICTIONARY
360
C063
102
}
102
{ACAD_REACTORS
330
BFDB
102
}
330
BFDB
100
AcDbVisualStyle
  2
EdgeColorOff
 70
    22
 71
     2
 72
     2
 73
     0
 90
        0
 40
-0.6
 41
-30.0
 62
     5
 63
     7
 74
     1
 91
        4
 64
     7
 65
   257
 75
     1
175
     1
 42
1.0
 92
        8
 66
     7
 43
1.0
 76
     1
 77
     6
 78
     2
 67
     7
 79
     5
170
     0
171
     0
290
     0
174
     0
 93
        1
 44
0.0
173
     0
291
     1
 45
0.0
1001
ACAD
1000
AcDbSavedByObjectVersion
1070
     0
  0
VISUALSTYLE
  5
BFEA
102
{ACAD_XDICTIONARY
360
C051
102
}
102
{ACAD_REACTORS
330
BFDB
102
}
330
BFDB
100
AcDbVisualStyle
  2
Facepattern
 70
    15
 71
     2
 72
     2
 73
     0
 90
        0
 40
-0.6
 41
-30.0
 62
     5
 63
     7
 74
     1
 91
        4
 64
     7
 65
   257
 75
     1
175
     1
 42
1.0
 92
        8
 66
     7
 43
1.0
 76
     1
 77
     6
 78
     2
 67
     7
 79
     5
170
     0
171
     0
290
     0
174
     0
 93
        1
 44
0.0
173
     0
291
     1
 45
0.0
1001
ACAD
1000
AcDbSavedByObjectVersion
1070
     0
  0
VISUALSTYLE
  5
BFDC
102
{ACAD_XDICTIONARY
360
C035
102
}
102
{ACAD_REACTORS
330
BFDB
102
}
330
BFDB
100
AcDbVisualStyle
  2
Flat
 70
     0
 71
     2
 72
     1
 73
     1
 90
        2
 40
-0.6
 41
30.0
 62
     5
 63
     7
 74
     0
 91
        0
 64
     7
 65
   257
 75
     1
175
     1
 42
1.0
 92
        8
 66
     7
 43
1.0
 76
     1
 77
     6
 78
     2
 67
     7
 79
     5
170
     0
171
     0
290
     0
174
     0
 93
       13
 44
0.0
173
     0
291
     1
 45
0.0
1001
ACAD
1000
AcDbSavedByObjectVersion
1070
     0
  0
VISUALSTYLE
  5
BFDD
102
{ACAD_XDICTIONARY
360
C037
102
}
102
{ACAD_REACTORS
330
BFDB
102
}
330
BFDB
100
AcDbVisualStyle
  2
FlatWithEdges
 70
     1
 71
     2
 72
     1
 73
     1
 90
        2
 40
-0.6
 41
30.0
 62
     5
 63
     7
 74
     1
 91
        0
 64
     7
 65
   257
 75
     1
175
     1
 42
1.0
 92
        0
 66
   257
 43
1.0
 76
     1
 77
     6
 78
     2
 67
     7
 79
     5
170
     0
171
     0
290
     0
174
     0
 93
       13
 44
0.0
173
     0
291
     1
 45
0.0
1001
ACAD
1000
AcDbSavedByObjectVersion
1070
     0
  0
VISUALSTYLE
  5
BFDE
102
{ACAD_XDICTIONARY
360
C039
102
}
102
{ACAD_REACTORS
330
BFDB
102
}
330
BFDB
100
AcDbVisualStyle
  2
Gouraud
 70
     2
 71
     2
 72
     2
 73
     1
 90
        2
 40
-0.6
 41
30.0
 62
     5
 63
     7
 74
     0
 91
        0
 64
     7
 65
   257
 75
     1
175
     1
 42
1.0
 92
        0
 66
     7
 43
1.0
 76
     1
 77
     6
 78
     2
 67
     7
 79
     5
170
     0
171
     0
290
     0
174
     0
 93
       13
 44
0.0
173
     0
291
     1
 45
0.0
1001
ACAD
1000
AcDbSavedByObjectVersion
1070
     0
  0
VISUALSTYLE
  5
BFDF
102
{ACAD_XDICTIONARY
360
C03B
102
}
102
{ACAD_REACTORS
330
BFDB
102
}
330
BFDB
100
AcDbVisualStyle
  2
GouraudWithEdges
 70
     3
 71
     2
 72
     2
 73
     1
 90
        2
 40
-0.6
 41
30.0
 62
     5
 63
     7
 74
     1
 91
        0
 64
     7
 65
   257
 75
     1
175
     1
 42
1.0
 92
        0
 66
   257
 43
1.0
 76
     1
 77
     6
 78
     2
 67
     7
 79
     5
170
     0
171
     0
290
     0
174
     0
 93
       13
 44
0.0
173
     0
291
     1
 45
0.0
1001
ACAD
1000
AcDbSavedByObjectVersion
1070
     0
  0
VISUALSTYLE
  5
BFE3
102
{ACAD_XDICTIONARY
360
C043
102
}
102
{ACAD_REACTORS
330
BFDB
102
}
330
BFDB
100
AcDbVisualStyle
  2
Hidden
 70
     6
 71
     1
 72
     2
 73
     2
 90
        0
 40
-0.6
 41
-30.0
 62
     5
 63
     7
 74
     2
 91
        2
 64
     7
 65
   257
 75
     2
175
     1
 42
40.0
 92
        0
 66
   257
 43
1.0
 76
     1
 77
     6
 78
     2
 67
     7
 79
     3
170
     0
171
     0
290
     0
174
     0
 93
        1
 44
0.0
173
     0
291
     0
 45
0.0
1001
ACAD
1000
AcDbSavedByObjectVersion
1070
     0
  0
VISUALSTYLE
  5
BFF1
102
{ACAD_XDICTIONARY
360
C05F
102
}
102
{ACAD_REACTORS
330
BFDB
102
}
330
BFDB
100
AcDbVisualStyle
  2
JitterOff
 70
    20
 71
     2
 72
     2
 73
     0
 90
        0
 40
-0.6
 41
-30.0
 62
     5
 63
     7
 74
     1
 91
        4
 64
     7
 65
   257
 75
     1
175
     1
 42
1.0
 92
       10
 66
     7
 43
1.0
 76
     1
 77
     6
 78
     2
 67
     7
 79
     5
170
     0
171
     0
290
     0
174
     0
 93
        1
 44
0.0
173
     0
291
     1
 45
0.0
1001
ACAD
1000
AcDbSavedByObjectVersion
1070
     0
  0
VISUALSTYLE
  5
BFE9
102
{ACAD_XDICTIONARY
360
C04F
102
}
102
{ACAD_REACTORS
330
BFDB
102
}
330
BFDB
100
AcDbVisualStyle
  2
Linepattern
 70
    14
 71
     2
 72
     2
 73
     0
 90
        0
 40
-0.6
 41
-30.0
 62
     5
 63
     7
 74
     1
 91
        4
 64
     7
 65
   257
 75
     7
175
     7
 42
1.0
 92
        8
 66
     7
 43
1.0
 76
     1
 77
     6
 78
     2
 67
     7
 79
     5
170
     0
171
     0
290
     0
174
     0
 93
        1
 44
0.0
173
     0
291
     1
 45
0.0
1001
ACAD
1000
AcDbSavedByObjectVersion
1070
     0
  0
VISUALSTYLE
  5
BFF2
102
{ACAD_XDICTIONARY
360
C061
102
}
102
{ACAD_REACTORS
330
BFDB
102
}
330
BFDB
100
AcDbVisualStyle
  2
OverhangOff
 70
    21
 71
     2
 72
     2
 73
     0
 90
        0
 40
-0.6
 41
-30.0
 62
     5
 63
     7
 74
     1
 91
        4
 64
     7
 65
   257
 75
     1
175
     1
 42
1.0
 92
        9
 66
     7
 43
1.0
 76
     1
 77
     6
 78
     2
 67
     7
 79
     5
170
     0
171
     0
290
     0
174
     0
 93
        1
 44
0.0
173
     0
291
     1
 45
0.0
1001
ACAD
1000
AcDbSavedByObjectVersion
1070
     0
  0
VISUALSTYLE
  5
BFE5
102
{ACAD_XDICTIONARY
360
C047
102
}
102
{ACAD_REACTORS
330
BFDB
102
}
330
BFDB
100
AcDbVisualStyle
  2
Realistic
 70
     8
 71
     2
 72
     3
 73
     0
 90
        2
 40
-0.6
 41
30.0
 62
     5
 63
     7
 74
     0
 91
        0
 64
     7
 65
   257
 75
     1
175
     1
 42
1.0
 92
        8
 66
   257
 43
1.0
 76
     1
 77
     6
 78
     2
 67
     7
 79
     3
170
     0
171
     0
290
     0
174
     0
 93
       13
 44
0.0
173
     0
291
     0
 45
0.0
1001
ACAD
1000
AcDbSavedByObjectVersion
1070
     0
  0
VISUALSTYLE
  5
BFF0
102
{ACAD_XDICTIONARY
360
C05D
102
}
102
{ACAD_REACTORS
330
BFDB
102
}
330
BFDB
100
AcDbVisualStyle
  2
Shaded
 70
    27
 71
     2
 72
     2
 73
     1
 90
        2
 40
-0.6
 41
30.0
 62
     5
 63
     7
 74
     0
 91
        4
 64
     7
 65
   257
 75
     1
175
     1
 42
1.0
 92
        8
 66
   257
 43
1.0
 76
     1
 77
     6
 78
     2
 67
     8
 79
     3
170
     0
171
     0
290
     0
174
     0
 93
        5
 44
0.0
173
     0
291
     0
 45
0.0
1001
ACAD
1000
AcDbSavedByObjectVersion
1070
     0
  0
VISUALSTYLE
  5
BFEF
102
{ACAD_XDICTIONARY
360
C05B
102
}
102
{ACAD_REACTORS
330
BFDB
102
}
330
BFDB
100
AcDbVisualStyle
  2
Shaded with edges
 70
    26
 71
     2
 72
     2
 73
     1
 90
        2
 40
-0.6
 41
30.0
 62
     5
 63
     7
 74
     1
 91
       10
 64
     7
 65
   257
 75
     2
175
     1
 42
1.0
 92
        8
 66
   257
 43
1.0
 76
     1
 77
     6
 78
     2
 67
     7
 79
     3
170
     0
171
     0
290
     0
174
     0
 93
        5
 44
0.0
173
     0
291
     0
 45
0.0
1001
ACAD
1000
AcDbSavedByObjectVersion
1070
     0
  0
VISUALSTYLE
  5
BFEC
102
{ACAD_XDICTIONARY
360
C055
102
}
102
{ACAD_REACTORS
330
BFDB
102
}
330
BFDB
100
AcDbVisualStyle
  2
Shades of Gray
 70
    23
 71
     2
 72
     2
 73
     3
 90
        0
 40
-0.6
 41
-30.0
 62
     5
 63
     7
 74
     2
 91
        2
 64
     7
 65
     7
 75
     1
175
     1
 42
40.0
 92
        8
 66
     7
 43
1.0
 76
     1
 77
     6
 78
     2
 67
     7
 79
     3
170
     0
171
     0
290
     0
174
     0
 93
        1
 44
0.0
173
     0
291
     0
 45
0.0
1001
ACAD
1000
AcDbSavedByObjectVersion
1070
     0
  0
VISUALSTYLE
  5
BFED
102
{ACAD_XDICTIONARY
360
C057
102
}
102
{ACAD_REACTORS
330
BFDB
102
}
330
BFDB
100
AcDbVisualStyle
  2
Sketchy
 70
    24
 71
     1
 72
     2
 73
     2
 90
        0
 40
-0.6
 41
-30.0
 62
     5
 63
     7
 74
     2
 91
        2
 64
     7
 65
     7
 75
     1
175
     1
 42
40.0
 92
       11
 66
     7
 43
1.0
 76
     1
 77
     6
 78
     2
 67
     7
 79
     6
170
     0
171
     0
290
     0
174
     0
 93
        1
 44
0.0
173
     0
291
     0
 45
0.0
1001
ACAD
1000
AcDbSavedByObjectVersion
1070
     0
  0
VISUALSTYLE
  5
BFE8
102
{ACAD_XDICTIONARY
360
C04D
102
}
102
{ACAD_REACTORS
330
BFDB
102
}
330
BFDB
100
AcDbVisualStyle
  2
Thicken
 70
    13
 71
     2
 72
     2
 73
     0
 90
        0
 40
-0.6
 41
-30.0
 62
     5
 63
     7
 74
     1
 91
        4
 64
     7
 65
   257
 75
     1
175
     1
 42
1.0
 92
       12
 66
     7
 43
1.0
 76
     1
 77
     6
 78
     2
 67
     7
 79
     5
170
     0
171
     0
290
     0
174
     0
 93
        1
 44
0.0
173
     0
291
     1
 45
0.0
1001
ACAD
1000
AcDbSavedByObjectVersion
1070
     0
  0
VISUALSTYLE
  5
BFE2
102
{ACAD_XDICTIONARY
360
C041
102
}
102
{ACAD_REACTORS
330
BFDB
102
}
330
BFDB
100
AcDbVisualStyle
  2
Wireframe
 70
     5
 71
     0
 72
     2
 73
     0
 90
        0
 40
-0.6
 41
-30.0
 62
     5
 63
     7
 74
     1
 91
        4
 64
     7
 65
   257
 75
     1
175
     1
 42
1.0
 92
        0
 66
   257
 43
1.0
 76
     1
 77
     6
 78
     2
 67
     7
 79
     3
170
     0
171
     0
290
     0
174
     0
 93
        1
 44
0.0
173
     0
291
     0
 45
0.0
1001
ACAD
1000
AcDbSavedByObjectVersion
1070
     0
  0
VISUALSTYLE
  5
BFEE
102
{ACAD_XDICTIONARY
360
C059
102
}
102
{ACAD_REACTORS
330
BFDB
102
}
330
BFDB
100
AcDbVisualStyle
  2
X-Ray
 70
    25
 71
     2
 72
     2
 73
     1
 90
        1
 40
0.5
 41
-30.0
 62
     5
 63
     7
 74
     1
 91
        0
 64
     7
 65
   257
 75
     1
175
     1
 42
1.0
 92
        8
 66
     7
 43
1.0
 76
     1
 77
     6
 78
     2
 67
     7
 79
     3
170
     0
171
     0
290
     0
174
     0
 93
       13
 44
0.0
173
     0
291
     0
 45
0.0
1001
ACAD
1000
AcDbSavedByObjectVersion
1070
     0
  0
DICTIONARYVAR
  5
C028
102
{ACAD_REACTORS
330
C023
102
}
330
C023
100
DictionaryVariables
280
     0
  1
1:1
  0
DICTIONARYVAR
  5
C025
102
{ACAD_REACTORS
330
C023
102
}
330
C023
100
DictionaryVariables
280
     0
  1
STANDARD
  0
DICTIONARYVAR
  5
C024
102
{ACAD_REACTORS
330
C023
102
}
330
C023
100
DictionaryVariables
280
     0
  1
STANDARD
  0
DICTIONARYVAR
  5
C026
102
{ACAD_REACTORS
330
C023
102
}
330
C023
100
DictionaryVariables
280
     0
  1
Imperial24
  0
DICTIONARYVAR
  5
C027
102
{ACAD_REACTORS
330
C023
102
}
330
C023
100
DictionaryVariables
280
     0
  1
Imperial24
  0
DICTIONARYVAR
  5
C02B
102
{ACAD_REACTORS
330
C023
102
}
330
C023
100
DictionaryVariables
280
     0
  1
1
  0
DICTIONARYVAR
  5
C02A
102
{ACAD_REACTORS
330
C023
102
}
330
C023
100
DictionaryVariables
280
     0
  1
0
  0
DICTIONARYVAR
  5
C029
102
{ACAD_REACTORS
330
C023
102
}
330
C023
100
DictionaryVariables
280
     0
  1
127
  0
DICTIONARYVAR
  5
C02C
102
{ACAD_REACTORS
330
C023
102
}
330
C023
100
DictionaryVariables
280
     0
  1
2
  0
DICTIONARY
  5
C069
330
C00E
100
AcDbDictionary
280
     1
281
     1
  3
ACAD_XREC_ROUNDTRIP
360
C06A
  0
DICTIONARY
  5
C06B
330
C00F
100
AcDbDictionary
280
     1
281
     1
  3
ACAD_XREC_ROUNDTRIP
360
C06C
  0
DICTIONARY
  5
C06D
330
C010
100
AcDbDictionary
280
     1
281
     1
  3
ACAD_XREC_ROUNDTRIP
360
C06E
  0
DICTIONARY
  5
BFCC
330
BFCB
100
AcDbDictionary
280
     1
281
     1
  3
ACAD_XREC_ROUNDTRIP
360
C033
  3
BUMPTILE
360
BFCE
  3
DIFFUSETILE
360
BFCD
  3
OPACITYTILE
360
BFD1
  3
REFLECTIONTILE
360
BFD0
  3
REFRACTIONTILE
360
BFD2
  3
SPECULARTILE
360
BFCF
  0
DICTIONARY
  5
BFC4
330
BFC3
100
AcDbDictionary
280
     1
281
     1
  3
ACAD_XREC_ROUNDTRIP
360
C032
  3
BUMPTILE
360
BFC6
  3
DIFFUSETILE
360
BFC5
  3
OPACITYTILE
360
BFC9
  3
REFLECTIONTILE
360
BFC8
  3
REFRACTIONTILE
360
BFCA
  3
SPECULARTILE
360
BFC7
  0
DICTIONARY
  5
BFD4
330
BFD3
100
AcDbDictionary
280
     1
281
     1
  3
ACAD_XREC_ROUNDTRIP
360
C034
  3
BUMPTILE
360
BFD6
  3
DIFFUSETILE
360
BFD5
  3
OPACITYTILE
360
BFD9
  3
REFLECTIONTILE
360
BFD8
  3
REFRACTIONTILE
360
BFDA
  3
SPECULARTILE
360
BFD7
  0
DICTIONARY
  5
C067
330
C00C
100
AcDbDictionary
280
     1
281
     1
  3
ACAD_XREC_ROUNDTRIP
360
C068
  0
DICTIONARY
  5
C02E
330
BFF6
100
AcDbDictionary
280
     1
281
     1
  3
ACAD_ROUNDTRIP_2008_TABLESTYLE_CELLSTYLEMAP
360
C02F
  3
ACAD_XREC_ROUNDTRIP
360
C065
  0
DICTIONARY
  5
C03F
330
BFE1
100
AcDbDictionary
280
     1
281
     1
  3
ACAD_XREC_ROUNDTRIP
360
C040
  0
DICTIONARY
  5
C03D
330
BFE0
100
AcDbDictionary
280
     1
281
     1
  3
ACAD_XREC_ROUNDTRIP
360
C03E
  0
DICTIONARY
  5
C04B
330
BFE7
100
AcDbDictionary
280
     1
281
     1
  3
ACAD_XREC_ROUNDTRIP
360
C04C
  0
DICTIONARY
  5
C053
330
BFEB
100
AcDbDictionary
280
     1
281
     1
  3
ACAD_XREC_ROUNDTRIP
360
C054
  0
DICTIONARY
  5
C045
330
BFE4
100
AcDbDictionary
280
     1
281
     1
  3
ACAD_XREC_ROUNDTRIP
360
C046
  0
DICTIONARY
  5
C049
330
BFE6
100
AcDbDictionary
280
     1
281
     1
  3
ACAD_XREC_ROUNDTRIP
360
C04A
  0
DICTIONARY
  5
C063
330
BFF3
100
AcDbDictionary
280
     1
281
     1
  3
ACAD_XREC_ROUNDTRIP
360
C064
  0
DICTIONARY
  5
C051
330
BFEA
100
AcDbDictionary
280
     1
281
     1
  3
ACAD_XREC_ROUNDTRIP
360
C052
  0
DICTIONARY
  5
C035
330
BFDC
100
AcDbDictionary
280
     1
281
     1
  3
ACAD_XREC_ROUNDTRIP
360
C036
  0
DICTIONARY
  5
C037
330
BFDD
100
AcDbDictionary
280
     1
281
     1
  3
ACAD_XREC_ROUNDTRIP
360
C038
  0
DICTIONARY
  5
C039
330
BFDE
100
AcDbDictionary
280
     1
281
     1
  3
ACAD_XREC_ROUNDTRIP
360
C03A
  0
DICTIONARY
  5
C03B
330
BFDF
100
AcDbDictionary
280
     1
281
     1
  3
ACAD_XREC_ROUNDTRIP
360
C03C
  0
DICTIONARY
  5
C043
330
BFE3
100
AcDbDictionary
280
     1
281
     1
  3
ACAD_XREC_ROUNDTRIP
360
C044
  0
DICTIONARY
  5
C05F
330
BFF1
100
AcDbDictionary
280
     1
281
     1
  3
ACAD_XREC_ROUNDTRIP
360
C060
  0
DICTIONARY
  5
C04F
330
BFE9
100
AcDbDictionary
280
     1
281
     1
  3
ACAD_XREC_ROUNDTRIP
360
C050
  0
DICTIONARY
  5
C061
330
BFF2
100
AcDbDictionary
280
     1
281
     1
  3
ACAD_XREC_ROUNDTRIP
360
C062
  0
DICTIONARY
  5
C047
330
BFE5
100
AcDbDictionary
280
     1
281
     1
  3
ACAD_XREC_ROUNDTRIP
360
C048
  0
DICTIONARY
  5
C05D
330
BFF0
100
AcDbDictionary
280
     1
281
     1
  3
ACAD_XREC_ROUNDTRIP
360
C05E
  0
DICTIONARY
  5
C05B
330
BFEF
100
AcDbDictionary
280
     1
281
     1
  3
ACAD_XREC_ROUNDTRIP
360
C05C
  0
DICTIONARY
  5
C055
330
BFEC
100
AcDbDictionary
280
     1
281
     1
  3
ACAD_XREC_ROUNDTRIP
360
C056
  0
DICTIONARY
  5
C057
330
BFED
100
AcDbDictionary
280
     1
281
     1
  3
ACAD_XREC_ROUNDTRIP
360
C058
  0
DICTIONARY
  5
C04D
330
BFE8
100
AcDbDictionary
280
     1
281
     1
  3
ACAD_XREC_ROUNDTRIP
360
C04E
  0
DICTIONARY
  5
C041
330
BFE2
100
AcDbDictionary
280
     1
281
     1
  3
ACAD_XREC_ROUNDTRIP
360
C042
  0
DICTIONARY
  5
C059
330
BFEE
100
AcDbDictionary
280
     1
281
     1
  3
ACAD_XREC_ROUNDTRIP
360
C05A
  0
XRECORD
  5
C06A
102
{ACAD_REACTORS
330
C069
102
}
330
C069
100
AcDbXrecord
280
     1
102
DISPLAYNAME
  1
Imperial24
102
FLAGS
 90
        0
  0
XRECORD
  5
C06C
102
{ACAD_REACTORS
330
C06B
102
}
330
C06B
100
AcDbXrecord
280
     1
102
SHADEPLOT
 70
     0
102
SHADEPLOTRESLEVEL
 70
     2
102
SHADEPLOTCUSTOMDPI
 70
   300
  0
XRECORD
  5
C06E
102
{ACAD_REACTORS
330
C06D
102
}
330
C06D
100
AcDbXrecord
280
     1
102
SHADEPLOT
 70
     0
102
SHADEPLOTRESLEVEL
 70
     2
102
SHADEPLOTCUSTOMDPI
 70
   300
  0
XRECORD
  5
C033
102
{ACAD_REACTORS
330
BFCC
102
}
330
BFCC
100
AcDbXrecord
280
     1
102
MATERIAL
148
0.0
149
0.0
149
0.0
 93
        0
 94
      127
282
     0
 72
     0
 77
     0
171
     0
175
     0
179
     0
273
     0
  0
XRECORD
  5
BFCE
102
{ACAD_REACTORS
330
BFCC
102
}
330
BFCC
100
AcDbXrecord
280
     1
270
     1
271
     1
  0
XRECORD
  5
BFCD
102
{ACAD_REACTORS
330
BFCC
102
}
330
BFCC
100
AcDbXrecord
280
     1
270
     1
271
     1
  0
XRECORD
  5
BFD1
102
{ACAD_REACTORS
330
BFCC
102
}
330
BFCC
100
AcDbXrecord
280
     1
270
     1
271
     1
  0
XRECORD
  5
BFD0
102
{ACAD_REACTORS
330
BFCC
102
}
330
BFCC
100
AcDbXrecord
280
     1
270
     1
271
     1
  0
XRECORD
  5
BFD2
102
{ACAD_REACTORS
330
BFCC
102
}
330
BFCC
100
AcDbXrecord
280
     1
270
     1
271
     1
  0
XRECORD
  5
BFCF
102
{ACAD_REACTORS
330
BFCC
102
}
330
BFCC
100
AcDbXrecord
280
     1
270
     1
271
     1
  0
XRECORD
  5
C032
102
{ACAD_REACTORS
330
BFC4
102
}
330
BFC4
100
AcDbXrecord
280
     1
102
MATERIAL
148
0.0
149
0.0
149
0.0
 93
        0
 94
      127
282
     0
 72
     0
 77
     0
171
     0
175
     0
179
     0
273
     0
  0
XRECORD
  5
BFC6
102
{ACAD_REACTORS
330
BFC4
102
}
330
BFC4
100
AcDbXrecord
280
     1
270
     1
271
     1
  0
XRECORD
  5
BFC5
102
{ACAD_REACTORS
330
BFC4
102
}
330
BFC4
100
AcDbXrecord
280
     1
270
     1
271
     1
  0
XRECORD
  5
BFC9
102
{ACAD_REACTORS
330
BFC4
102
}
330
BFC4
100
AcDbXrecord
280
     1
270
     1
271
     1
  0
XRECORD
  5
BFC8
102
{ACAD_REACTORS
330
BFC4
102
}
330
BFC4
100
AcDbXrecord
280
     1
270
     1
271
     1
  0
XRECORD
  5
BFCA
102
{ACAD_REACTORS
330
BFC4
102
}
330
BFC4
100
AcDbXrecord
280
     1
270
     1
271
     1
  0
XRECORD
  5
BFC7
102
{ACAD_REACTORS
330
BFC4
102
}
330
BFC4
100
AcDbXrecord
280
     1
270
     1
271
     1
  0
XRECORD
  5
C034
102
{ACAD_REACTORS
330
BFD4
102
}
330
BFD4
100
AcDbXrecord
280
     1
102
MATERIAL
148
0.0
149
0.0
149
0.0
 93
        0
 94
      127
282
     0
 72
     0
 77
     0
171
     0
175
     0
179
     0
273
     0
  0
XRECORD
  5
BFD6
102
{ACAD_REACTORS
330
BFD4
102
}
330
BFD4
100
AcDbXrecord
280
     1
270
     1
271
     1
  0
XRECORD
  5
BFD5
102
{ACAD_REACTORS
330
BFD4
102
}
330
BFD4
100
AcDbXrecord
280
     1
270
     1
271
     1
  0
XRECORD
  5
BFD9
102
{ACAD_REACTORS
330
BFD4
102
}
330
BFD4
100
AcDbXrecord
280
     1
270
     1
271
     1
  0
XRECORD
  5
BFD8
102
{ACAD_REACTORS
330
BFD4
102
}
330
BFD4
100
AcDbXrecord
280
     1
270
     1
271
     1
  0
XRECORD
  5
BFDA
102
{ACAD_REACTORS
330
BFD4
102
}
330
BFD4
100
AcDbXrecord
280
     1
270
     1
271
     1
  0
XRECORD
  5
BFD7
102
{ACAD_REACTORS
330
BFD4
102
}
330
BFD4
100
AcDbXrecord
280
     1
270
     1
271
     1
  0
XRECORD
  5
C068
102
{ACAD_REACTORS
330
C067
102
}
330
C067
100
AcDbXrecord
280
     1
102
DISPLAYNAME
  1
Imperial24
102
FLAGS
 90
        0
  0
CELLSTYLEMAP
  5
C02F
102
{ACAD_REACTORS
330
C02E
102
}
330
C02E
100
AcDbCellStyleMap
 90
        3
300
CELLSTYLE
  1
TABLEFORMAT_BEGIN
 90
        5
170
     1
 91
        0
 92
    32768
 62
   257
 93
        1
300
CONTENTFORMAT
  1
CONTENTFORMAT_BEGIN
 90
        0
 91
        0
 92
      512
 93
        0
300

 40
0.0
140
1.0
 94
        5
 62
     0
340
BBC4
144
0.25
309
CONTENTFORMAT_END
171
     0
 94
        0
309
TABLEFORMAT_END
  1
CELLSTYLE_BEGIN
 90
        1
 91
        1
300
_TITLE
309
CELLSTYLE_END
300
CELLSTYLE
  1
TABLEFORMAT_BEGIN
 90
        5
170
     1
 91
        0
 92
        0
 62
   257
 93
        1
300
CONTENTFORMAT
  1
CONTENTFORMAT_BEGIN
 90
        0
 91
        0
 92
      512
 93
        0
300

 40
0.0
140
1.0
 94
        5
 62
     0
340
BBC4
144
0.18
309
CONTENTFORMAT_END
171
     0
 94
        0
309
TABLEFORMAT_END
  1
CELLSTYLE_BEGIN
 90
        2
 91
        1
300
_HEADER
309
CELLSTYLE_END
300
CELLSTYLE
  1
TABLEFORMAT_BEGIN
 90
        5
170
     1
 91
        0
 92
        0
 62
   257
 93
        1
300
CONTENTFORMAT
  1
CONTENTFORMAT_BEGIN
 90
        0
 91
        0
 92
      512
 93
        0
300

 40
0.0
140
1.0
 94
        2
 62
     0
340
BBC4
144
0.18
309
CONTENTFORMAT_END
171
     0
 94
        0
309
TABLEFORMAT_END
  1
CELLSTYLE_BEGIN
 90
        3
 91
        2
300
_DATA
309
CELLSTYLE_END
  0
XRECORD
  5
C065
102
{ACAD_REACTORS
330
C02E
102
}
330
C02E
100
AcDbXrecord
280
     1
102
ACAD_ROUNDTRIP_PRE2007_TABLESTYLE
 90
      512
 91
        0
  1

 92
      512
 93
        0
  2

 94
      512
 95
        0
  3

  0
XRECORD
  5
C040
102
{ACAD_REACTORS
330
C03F
102
}
330
C03F
100
AcDbXrecord
280
     1
102
RTVSPost2010Prop28
280
     1
102
RTVSPost2010PropOp28
 70
     1
102
RTVSPost2010Prop29
280
     1
102
RTVSPost2010PropOp29
 70
     1
102
RTVSPost2010Prop30
280
     0
102
RTVSPost2010PropOp30
 70
     1
102
RTVSPost2010Prop31
280
     0
102
RTVSPost2010PropOp31
 70
     1
102
RTVSPost2010Prop32
280
     0
102
RTVSPost2010PropOp32
 70
     1
102
RTVSPost2010Prop33
280
     0
102
RTVSPost2010PropOp33
 70
     1
102
RTVSPost2010Prop34
280
     0
102
RTVSPost2010PropOp34
 70
     1
102
RTVSPost2010Prop35
280
     0
102
RTVSPost2010PropOp35
 70
     1
102
RTVSPost2010Prop36
280
     0
102
RTVSPost2010PropOp36
 70
     1
102
RTVSPost2010Prop37
 90
       50
102
RTVSPost2010PropOp37
 70
     1
102
RTVSPost2010Prop38
140
0.0
102
RTVSPost2010PropOp38
 70
     1
102
RTVSPost2010Prop39
140
1.0
102
RTVSPost2010PropOp39
 70
     1
102
RTVSPost2010Prop40
 90
        0
102
RTVSPost2010PropOp40
 70
     1
102
RTVSPost2010Prop41ColorIndex
 90
       18
102
RTVSPost2010Prop41ColorRGB
 90
        0
102
RTVSPost2010PropOp41
 70
     1
102
RTVSPost2010Prop42
 90
       50
102
RTVSPost2010PropOp42
 70
     1
102
RTVSPost2010Prop43
 90
        3
102
RTVSPost2010PropOp43
 70
     1
102
RTVSPost2010Prop44ColorIndex
 90
        5
102
RTVSPost2010Prop44ColorRGB
 90
      255
102
RTVSPost2010PropOp44
 70
     1
102
RTVSPost2010Prop45
280
     0
102
RTVSPost2010PropOp45
 70
     1
102
RTVSPost2010Prop46
 90
       50
102
RTVSPost2010PropOp46
 70
     1
102
RTVSPost2010Prop47
 90
       50
102
RTVSPost2010PropOp47
 70
     1
102
RTVSPost2010Prop48
 90
       50
102
RTVSPost2010PropOp48
 70
     1
102
RTVSPost2010Prop49
280
     0
102
RTVSPost2010PropOp49
 70
     1
102
RTVSPost2010Prop50
 90
       50
102
RTVSPost2010PropOp50
 70
     1
102
RTVSPost2010Prop51ColorIndex
 90
      256
102
RTVSPost2010Prop51ColorRGB
 90
-16777216
102
RTVSPost2010PropOp51
 70
     0
102
RTVSPost2010Prop52
140
1.0
102
RTVSPost2010PropOp52
 70
     0
102
RTVSPost2010Prop53
 90
        2
102
RTVSPost2010PropOp53
 70
     1
102
RTVSPost2010Prop54
  1
strokes_ogs.tif
102
RTVSPost2010PropOp54
 70
     1
102
RTVSPost2010Prop55
280
     0
102
RTVSPost2010PropOp55
 70
     1
102
RTVSPost2010Prop56
140
1.0
102
RTVSPost2010PropOp56
 70
     1
102
RTVSPost2010Prop57
140
1.0
102
RTVSPost2010PropOp57
 70
     1
102
RTVSPropertyOp0
 70
     1
102
RTVSPropertyOp1
 70
     1
102
RTVSPropertyOp2
 70
     1
102
RTVSPropertyOp3
 70
     1
102
RTVSPropertyOp4
 70
     1
102
RTVSPropertyOp5
 70
     1
102
RTVSPropertyOp6
 70
     1
102
RTVSPropertyOp7
 70
     1
102
RTVSPropertyOp8
 70
     1
102
RTVSPropertyOp9
 70
     1
102
RTVSPropertyOp10
 70
     1
102
RTVSPropertyOp11
 70
     1
102
RTVSPropertyOp12
 70
     1
102
RTVSPropertyOp13
 70
     1
102
RTVSPropertyOp14
 70
     1
102
RTVSPropertyOp15
 70
     1
102
RTVSPropertyOp16
 70
     1
102
RTVSPropertyOp17
 70
     1
102
RTVSPropertyOp18
 70
     1
102
RTVSPropertyOp19
 70
     1
102
RTVSPropertyOp20
 70
     1
102
RTVSPropertyOp21
 70
     1
102
RTVSPropertyOp22
 70
     1
102
RTVSPropertyOp23
 70
     1
102
RTVSPropertyOp24
 70
     1
102
RTVSPropertyOp25
 70
     1
102
RTVSPropertyOp26
 70
     1
102
RTVSPropertyOp27
 70
     1
102
RTVSPropertyOp28
 70
     1
102
RTVSPropertyOp29
 70
     1
102
RTVSPropertyOp30
 70
     1
102
RTVSPropertyOp31
 70
     1
102
RTVSPropertyOp32
 70
     1
102
RTVSPropertyOp33
 70
     1
102
RTVSPropertyOp34
 70
     1
102
RTVSPropertyOp35
 70
     1
102
RTVSPropertyOp36
 70
     1
102
RTVSPropertyOp37
 70
     1
102
RTVSPropertyOp38
 70
     1
102
RTVSPropertyOp39
 70
     1
102
RTVSPropertyOp40
 70
     1
102
RTVSPropertyOp41
 70
     1
102
RTVSPropertyOp42
 70
     1
102
RTVSPropertyOp43
 70
     1
102
RTVSPropertyOp44
 70
     1
102
RTVSPropertyOp45
 70
     1
102
RTVSPropertyOp46
 70
     1
102
RTVSPropertyOp47
 70
     1
102
RTVSPropertyOp48
 70
     1
102
RTVSPropertyOp49
 70
     1
102
RTVSPropertyOp50
 70
     1
102
RTVSPropertyOp51
 70
     0
102
RTVSPropertyOp52
 70
     0
102
RTVSPropertyOp53
 70
     1
102
RTVSPropertyOp54
 70
     1
102
RTVSPropertyOp55
 70
     1
102
RTVSPropertyOp56
 70
     1
102
RTVSPropertyOp57
 70
     1
102
RTVSPropertyOp58
 70
     1
102
RTVSPropertyOp59
 70
     1
102
RTVSPropertyOp60
 70
     1
102
RTVSPropertyOp61
 70
     1
102
RTVSPropertyOp62
 70
     1
  0
XRECORD
  5
C03E
102
{ACAD_REACTORS
330
C03D
102
}
330
C03D
100
AcDbXrecord
280
     1
102
RTVSPost2010Prop28
280
     0
102
RTVSPost2010PropOp28
 70
     1
102
RTVSPost2010Prop29
280
     1
102
RTVSPost2010PropOp29
 70
     1
102
RTVSPost2010Prop30
280
     1
102
RTVSPost2010PropOp30
 70
     1
102
RTVSPost2010Prop31
280
     0
102
RTVSPost2010PropOp31
 70
     1
102
RTVSPost2010Prop32
280
     0
102
RTVSPost2010PropOp32
 70
     1
102
RTVSPost2010Prop33
280
     0
102
RTVSPost2010PropOp33
 70
     1
102
RTVSPost2010Prop34
280
     0
102
RTVSPost2010PropOp34
 70
     1
102
RTVSPost2010Prop35
280
     0
102
RTVSPost2010PropOp35
 70
     1
102
RTVSPost2010Prop36
280
     0
102
RTVSPost2010PropOp36
 70
     1
102
RTVSPost2010Prop37
 90
       50
102
RTVSPost2010PropOp37
 70
     1
102
RTVSPost2010Prop38
140
0.0
102
RTVSPost2010PropOp38
 70
     1
102
RTVSPost2010Prop39
140
1.0
102
RTVSPost2010PropOp39
 70
     1
102
RTVSPost2010Prop40
 90
        0
102
RTVSPost2010PropOp40
 70
     1
102
RTVSPost2010Prop41ColorIndex
 90
       18
102
RTVSPost2010Prop41ColorRGB
 90
        0
102
RTVSPost2010PropOp41
 70
     1
102
RTVSPost2010Prop42
 90
       50
102
RTVSPost2010PropOp42
 70
     1
102
RTVSPost2010Prop43
 90
        3
102
RTVSPost2010PropOp43
 70
     1
102
RTVSPost2010Prop44ColorIndex
 90
        5
102
RTVSPost2010Prop44ColorRGB
 90
      255
102
RTVSPost2010PropOp44
 70
     1
102
RTVSPost2010Prop45
280
     0
102
RTVSPost2010PropOp45
 70
     1
102
RTVSPost2010Prop46
 90
       50
102
RTVSPost2010PropOp46
 70
     1
102
RTVSPost2010Prop47
 90
       50
102
RTVSPost2010PropOp47
 70
     1
102
RTVSPost2010Prop48
 90
       50
102
RTVSPost2010PropOp48
 70
     1
102
RTVSPost2010Prop49
280
     0
102
RTVSPost2010PropOp49
 70
     1
102
RTVSPost2010Prop50
 90
       50
102
RTVSPost2010PropOp50
 70
     1
102
RTVSPost2010Prop51ColorIndex
 90
      256
102
RTVSPost2010Prop51ColorRGB
 90
-16777216
102
RTVSPost2010PropOp51
 70
     0
102
RTVSPost2010Prop52
140
1.0
102
RTVSPost2010PropOp52
 70
     0
102
RTVSPost2010Prop53
 90
        2
102
RTVSPost2010PropOp53
 70
     1
102
RTVSPost2010Prop54
  1
strokes_ogs.tif
102
RTVSPost2010PropOp54
 70
     1
102
RTVSPost2010Prop55
280
     0
102
RTVSPost2010PropOp55
 70
     1
102
RTVSPost2010Prop56
140
1.0
102
RTVSPost2010PropOp56
 70
     1
102
RTVSPost2010Prop57
140
1.0
102
RTVSPost2010PropOp57
 70
     1
102
RTVSPropertyOp0
 70
     1
102
RTVSPropertyOp1
 70
     1
102
RTVSPropertyOp2
 70
     1
102
RTVSPropertyOp3
 70
     1
102
RTVSPropertyOp4
 70
     1
102
RTVSPropertyOp5
 70
     1
102
RTVSPropertyOp6
 70
     1
102
RTVSPropertyOp7
 70
     1
102
RTVSPropertyOp8
 70
     1
102
RTVSPropertyOp9
 70
     1
102
RTVSPropertyOp10
 70
     1
102
RTVSPropertyOp11
 70
     1
102
RTVSPropertyOp12
 70
     1
102
RTVSPropertyOp13
 70
     1
102
RTVSPropertyOp14
 70
     1
102
RTVSPropertyOp15
 70
     1
102
RTVSPropertyOp16
 70
     1
102
RTVSPropertyOp17
 70
     1
102
RTVSPropertyOp18
 70
     1
102
RTVSPropertyOp19
 70
     1
102
RTVSPropertyOp20
 70
     1
102
RTVSPropertyOp21
 70
     1
102
RTVSPropertyOp22
 70
     1
102
RTVSPropertyOp23
 70
     1
102
RTVSPropertyOp24
 70
     1
102
RTVSPropertyOp25
 70
     1
102
RTVSPropertyOp26
 70
     1
102
RTVSPropertyOp27
 70
     1
102
RTVSPropertyOp28
 70
     1
102
RTVSPropertyOp29
 70
     1
102
RTVSPropertyOp30
 70
     1
102
RTVSPropertyOp31
 70
     1
102
RTVSPropertyOp32
 70
     1
102
RTVSPropertyOp33
 70
     1
102
RTVSPropertyOp34
 70
     1
102
RTVSPropertyOp35
 70
     1
102
RTVSPropertyOp36
 70
     1
102
RTVSPropertyOp37
 70
     1
102
RTVSPropertyOp38
 70
     1
102
RTVSPropertyOp39
 70
     1
102
RTVSPropertyOp40
 70
     1
102
RTVSPropertyOp41
 70
     1
102
RTVSPropertyOp42
 70
     1
102
RTVSPropertyOp43
 70
     1
102
RTVSPropertyOp44
 70
     1
102
RTVSPropertyOp45
 70
     1
102
RTVSPropertyOp46
 70
     1
102
RTVSPropertyOp47
 70
     1
102
RTVSPropertyOp48
 70
     1
102
RTVSPropertyOp49
 70
     1
102
RTVSPropertyOp50
 70
     1
102
RTVSPropertyOp51
 70
     0
102
RTVSPropertyOp52
 70
     0
102
RTVSPropertyOp53
 70
     1
102
RTVSPropertyOp54
 70
     1
102
RTVSPropertyOp55
 70
     1
102
RTVSPropertyOp56
 70
     1
102
RTVSPropertyOp57
 70
     1
102
RTVSPropertyOp58
 70
     1
102
RTVSPropertyOp59
 70
     1
102
RTVSPropertyOp60
 70
     1
102
RTVSPropertyOp61
 70
     1
102
RTVSPropertyOp62
 70
     1
  0
XRECORD
  5
C04C
102
{ACAD_REACTORS
330
C04B
102
}
330
C04B
100
AcDbXrecord
280
     1
102
RTVSPost2010Prop28
280
     0
102
RTVSPost2010PropOp28
 70
     1
102
RTVSPost2010Prop29
280
     1
102
RTVSPost2010PropOp29
 70
     1
102
RTVSPost2010Prop30
280
     1
102
RTVSPost2010PropOp30
 70
     1
102
RTVSPost2010Prop31
280
     0
102
RTVSPost2010PropOp31
 70
     1
102
RTVSPost2010Prop32
280
     0
102
RTVSPost2010PropOp32
 70
     1
102
RTVSPost2010Prop33
280
     0
102
RTVSPost2010PropOp33
 70
     1
102
RTVSPost2010Prop34
280
     0
102
RTVSPost2010PropOp34
 70
     1
102
RTVSPost2010Prop35
280
     0
102
RTVSPost2010PropOp35
 70
     1
102
RTVSPost2010Prop36
280
     0
102
RTVSPost2010PropOp36
 70
     1
102
RTVSPost2010Prop37
 90
       50
102
RTVSPost2010PropOp37
 70
     1
102
RTVSPost2010Prop38
140
0.0
102
RTVSPost2010PropOp38
 70
     1
102
RTVSPost2010Prop39
140
1.0
102
RTVSPost2010PropOp39
 70
     1
102
RTVSPost2010Prop40
 90
        0
102
RTVSPost2010PropOp40
 70
     1
102
RTVSPost2010Prop41ColorIndex
 90
       18
102
RTVSPost2010Prop41ColorRGB
 90
        0
102
RTVSPost2010PropOp41
 70
     1
102
RTVSPost2010Prop42
 90
       50
102
RTVSPost2010PropOp42
 70
     1
102
RTVSPost2010Prop43
 90
        3
102
RTVSPost2010PropOp43
 70
     1
102
RTVSPost2010Prop44ColorIndex
 90
        5
102
RTVSPost2010Prop44ColorRGB
 90
      255
102
RTVSPost2010PropOp44
 70
     1
102
RTVSPost2010Prop45
280
     0
102
RTVSPost2010PropOp45
 70
     1
102
RTVSPost2010Prop46
 90
       50
102
RTVSPost2010PropOp46
 70
     1
102
RTVSPost2010Prop47
 90
       50
102
RTVSPost2010PropOp47
 70
     1
102
RTVSPost2010Prop48
 90
       50
102
RTVSPost2010PropOp48
 70
     1
102
RTVSPost2010Prop49
280
     0
102
RTVSPost2010PropOp49
 70
     1
102
RTVSPost2010Prop50
 90
       50
102
RTVSPost2010PropOp50
 70
     1
102
RTVSPost2010Prop51ColorIndex
 90
      256
102
RTVSPost2010Prop51ColorRGB
 90
-16777216
102
RTVSPost2010PropOp51
 70
     0
102
RTVSPost2010Prop52
140
1.0
102
RTVSPost2010PropOp52
 70
     0
102
RTVSPost2010Prop53
 90
        2
102
RTVSPost2010PropOp53
 70
     1
102
RTVSPost2010Prop54
  1
strokes_ogs.tif
102
RTVSPost2010PropOp54
 70
     1
102
RTVSPost2010Prop55
280
     0
102
RTVSPost2010PropOp55
 70
     1
102
RTVSPost2010Prop56
140
1.0
102
RTVSPost2010PropOp56
 70
     1
102
RTVSPost2010Prop57
140
1.0
102
RTVSPost2010PropOp57
 70
     1
102
RTVSPropertyOp0
 70
     1
102
RTVSPropertyOp1
 70
     1
102
RTVSPropertyOp2
 70
     1
102
RTVSPropertyOp3
 70
     1
102
RTVSPropertyOp4
 70
     1
102
RTVSPropertyOp5
 70
     1
102
RTVSPropertyOp6
 70
     1
102
RTVSPropertyOp7
 70
     1
102
RTVSPropertyOp8
 70
     1
102
RTVSPropertyOp9
 70
     1
102
RTVSPropertyOp10
 70
     1
102
RTVSPropertyOp11
 70
     1
102
RTVSPropertyOp12
 70
     1
102
RTVSPropertyOp13
 70
     1
102
RTVSPropertyOp14
 70
     1
102
RTVSPropertyOp15
 70
     1
102
RTVSPropertyOp16
 70
     1
102
RTVSPropertyOp17
 70
     1
102
RTVSPropertyOp18
 70
     1
102
RTVSPropertyOp19
 70
     1
102
RTVSPropertyOp20
 70
     1
102
RTVSPropertyOp21
 70
     1
102
RTVSPropertyOp22
 70
     1
102
RTVSPropertyOp23
 70
     1
102
RTVSPropertyOp24
 70
     1
102
RTVSPropertyOp25
 70
     1
102
RTVSPropertyOp26
 70
     1
102
RTVSPropertyOp27
 70
     1
102
RTVSPropertyOp28
 70
     1
102
RTVSPropertyOp29
 70
     1
102
RTVSPropertyOp30
 70
     1
102
RTVSPropertyOp31
 70
     1
102
RTVSPropertyOp32
 70
     1
102
RTVSPropertyOp33
 70
     1
102
RTVSPropertyOp34
 70
     1
102
RTVSPropertyOp35
 70
     1
102
RTVSPropertyOp36
 70
     1
102
RTVSPropertyOp37
 70
     1
102
RTVSPropertyOp38
 70
     1
102
RTVSPropertyOp39
 70
     1
102
RTVSPropertyOp40
 70
     1
102
RTVSPropertyOp41
 70
     1
102
RTVSPropertyOp42
 70
     1
102
RTVSPropertyOp43
 70
     1
102
RTVSPropertyOp44
 70
     1
102
RTVSPropertyOp45
 70
     1
102
RTVSPropertyOp46
 70
     1
102
RTVSPropertyOp47
 70
     1
102
RTVSPropertyOp48
 70
     1
102
RTVSPropertyOp49
 70
     1
102
RTVSPropertyOp50
 70
     1
102
RTVSPropertyOp51
 70
     0
102
RTVSPropertyOp52
 70
     0
102
RTVSPropertyOp53
 70
     1
102
RTVSPropertyOp54
 70
     1
102
RTVSPropertyOp55
 70
     1
102
RTVSPropertyOp56
 70
     1
102
RTVSPropertyOp57
 70
     1
102
RTVSPropertyOp58
 70
     1
102
RTVSPropertyOp59
 70
     1
102
RTVSPropertyOp60
 70
     1
102
RTVSPropertyOp61
 70
     1
102
RTVSPropertyOp62
 70
     1
  0
XRECORD
  5
C054
102
{ACAD_REACTORS
330
C053
102
}
330
C053
100
AcDbXrecord
280
     1
102
RTVSPost2010Prop28
280
     0
102
RTVSPost2010PropOp28
 70
     1
102
RTVSPost2010Prop29
280
     1
102
RTVSPost2010PropOp29
 70
     1
102
RTVSPost2010Prop30
280
     1
102
RTVSPost2010PropOp30
 70
     1
102
RTVSPost2010Prop31
280
     0
102
RTVSPost2010PropOp31
 70
     1
102
RTVSPost2010Prop32
280
     0
102
RTVSPost2010PropOp32
 70
     1
102
RTVSPost2010Prop33
280
     0
102
RTVSPost2010PropOp33
 70
     1
102
RTVSPost2010Prop34
280
     0
102
RTVSPost2010PropOp34
 70
     1
102
RTVSPost2010Prop35
280
     0
102
RTVSPost2010PropOp35
 70
     1
102
RTVSPost2010Prop36
280
     0
102
RTVSPost2010PropOp36
 70
     1
102
RTVSPost2010Prop37
 90
       50
102
RTVSPost2010PropOp37
 70
     1
102
RTVSPost2010Prop38
140
0.0
102
RTVSPost2010PropOp38
 70
     1
102
RTVSPost2010Prop39
140
1.0
102
RTVSPost2010PropOp39
 70
     1
102
RTVSPost2010Prop40
 90
        0
102
RTVSPost2010PropOp40
 70
     1
102
RTVSPost2010Prop41ColorIndex
 90
       18
102
RTVSPost2010Prop41ColorRGB
 90
        0
102
RTVSPost2010PropOp41
 70
     1
102
RTVSPost2010Prop42
 90
       50
102
RTVSPost2010PropOp42
 70
     1
102
RTVSPost2010Prop43
 90
        3
102
RTVSPost2010PropOp43
 70
     1
102
RTVSPost2010Prop44ColorIndex
 90
        5
102
RTVSPost2010Prop44ColorRGB
 90
      255
102
RTVSPost2010PropOp44
 70
     1
102
RTVSPost2010Prop45
280
     0
102
RTVSPost2010PropOp45
 70
     1
102
RTVSPost2010Prop46
 90
       50
102
RTVSPost2010PropOp46
 70
     1
102
RTVSPost2010Prop47
 90
       50
102
RTVSPost2010PropOp47
 70
     1
102
RTVSPost2010Prop48
 90
       50
102
RTVSPost2010PropOp48
 70
     1
102
RTVSPost2010Prop49
280
     0
102
RTVSPost2010PropOp49
 70
     1
102
RTVSPost2010Prop50
 90
       50
102
RTVSPost2010PropOp50
 70
     1
102
RTVSPost2010Prop51ColorIndex
 90
      256
102
RTVSPost2010Prop51ColorRGB
 90
-16777216
102
RTVSPost2010PropOp51
 70
     0
102
RTVSPost2010Prop52
140
1.0
102
RTVSPost2010PropOp52
 70
     0
102
RTVSPost2010Prop53
 90
        2
102
RTVSPost2010PropOp53
 70
     1
102
RTVSPost2010Prop54
  1
strokes_ogs.tif
102
RTVSPost2010PropOp54
 70
     1
102
RTVSPost2010Prop55
280
     0
102
RTVSPost2010PropOp55
 70
     1
102
RTVSPost2010Prop56
140
1.0
102
RTVSPost2010PropOp56
 70
     1
102
RTVSPost2010Prop57
140
1.0
102
RTVSPost2010PropOp57
 70
     1
102
RTVSPropertyOp0
 70
     1
102
RTVSPropertyOp1
 70
     1
102
RTVSPropertyOp2
 70
     1
102
RTVSPropertyOp3
 70
     1
102
RTVSPropertyOp4
 70
     1
102
RTVSPropertyOp5
 70
     1
102
RTVSPropertyOp6
 70
     1
102
RTVSPropertyOp7
 70
     1
102
RTVSPropertyOp8
 70
     1
102
RTVSPropertyOp9
 70
     1
102
RTVSPropertyOp10
 70
     1
102
RTVSPropertyOp11
 70
     1
102
RTVSPropertyOp12
 70
     1
102
RTVSPropertyOp13
 70
     1
102
RTVSPropertyOp14
 70
     1
102
RTVSPropertyOp15
 70
     1
102
RTVSPropertyOp16
 70
     1
102
RTVSPropertyOp17
 70
     1
102
RTVSPropertyOp18
 70
     1
102
RTVSPropertyOp19
 70
     1
102
RTVSPropertyOp20
 70
     1
102
RTVSPropertyOp21
 70
     1
102
RTVSPropertyOp22
 70
     1
102
RTVSPropertyOp23
 70
     1
102
RTVSPropertyOp24
 70
     1
102
RTVSPropertyOp25
 70
     1
102
RTVSPropertyOp26
 70
     1
102
RTVSPropertyOp27
 70
     1
102
RTVSPropertyOp28
 70
     1
102
RTVSPropertyOp29
 70
     1
102
RTVSPropertyOp30
 70
     1
102
RTVSPropertyOp31
 70
     1
102
RTVSPropertyOp32
 70
     1
102
RTVSPropertyOp33
 70
     1
102
RTVSPropertyOp34
 70
     1
102
RTVSPropertyOp35
 70
     1
102
RTVSPropertyOp36
 70
     1
102
RTVSPropertyOp37
 70
     1
102
RTVSPropertyOp38
 70
     1
102
RTVSPropertyOp39
 70
     1
102
RTVSPropertyOp40
 70
     1
102
RTVSPropertyOp41
 70
     1
102
RTVSPropertyOp42
 70
     1
102
RTVSPropertyOp43
 70
     1
102
RTVSPropertyOp44
 70
     1
102
RTVSPropertyOp45
 70
     1
102
RTVSPropertyOp46
 70
     1
102
RTVSPropertyOp47
 70
     1
102
RTVSPropertyOp48
 70
     1
102
RTVSPropertyOp49
 70
     1
102
RTVSPropertyOp50
 70
     1
102
RTVSPropertyOp51
 70
     0
102
RTVSPropertyOp52
 70
     0
102
RTVSPropertyOp53
 70
     1
102
RTVSPropertyOp54
 70
     1
102
RTVSPropertyOp55
 70
     1
102
RTVSPropertyOp56
 70
     1
102
RTVSPropertyOp57
 70
     1
102
RTVSPropertyOp58
 70
     1
102
RTVSPropertyOp59
 70
     1
102
RTVSPropertyOp60
 70
     1
102
RTVSPropertyOp61
 70
     1
102
RTVSPropertyOp62
 70
     1
  0
XRECORD
  5
C046
102
{ACAD_REACTORS
330
C045
102
}
330
C045
100
AcDbXrecord
280
     1
102
RTVSPost2010Prop28
280
     0
102
RTVSPost2010PropOp28
 70
     1
102
RTVSPost2010Prop29
280
     1
102
RTVSPost2010PropOp29
 70
     1
102
RTVSPost2010Prop30
280
     1
102
RTVSPost2010PropOp30
 70
     1
102
RTVSPost2010Prop31
280
     0
102
RTVSPost2010PropOp31
 70
     1
102
RTVSPost2010Prop32
280
     0
102
RTVSPost2010PropOp32
 70
     1
102
RTVSPost2010Prop33
280
     0
102
RTVSPost2010PropOp33
 70
     1
102
RTVSPost2010Prop34
280
     0
102
RTVSPost2010PropOp34
 70
     1
102
RTVSPost2010Prop35
280
     0
102
RTVSPost2010PropOp35
 70
     1
102
RTVSPost2010Prop36
280
     0
102
RTVSPost2010PropOp36
 70
     1
102
RTVSPost2010Prop37
 90
       50
102
RTVSPost2010PropOp37
 70
     1
102
RTVSPost2010Prop38
140
0.0
102
RTVSPost2010PropOp38
 70
     1
102
RTVSPost2010Prop39
140
1.0
102
RTVSPost2010PropOp39
 70
     1
102
RTVSPost2010Prop40
 90
        0
102
RTVSPost2010PropOp40
 70
     1
102
RTVSPost2010Prop41ColorIndex
 90
       18
102
RTVSPost2010Prop41ColorRGB
 90
        0
102
RTVSPost2010PropOp41
 70
     1
102
RTVSPost2010Prop42
 90
       50
102
RTVSPost2010PropOp42
 70
     1
102
RTVSPost2010Prop43
 90
        3
102
RTVSPost2010PropOp43
 70
     1
102
RTVSPost2010Prop44ColorIndex
 90
        5
102
RTVSPost2010Prop44ColorRGB
 90
      255
102
RTVSPost2010PropOp44
 70
     1
102
RTVSPost2010Prop45
280
     0
102
RTVSPost2010PropOp45
 70
     1
102
RTVSPost2010Prop46
 90
       50
102
RTVSPost2010PropOp46
 70
     1
102
RTVSPost2010Prop47
 90
       50
102
RTVSPost2010PropOp47
 70
     1
102
RTVSPost2010Prop48
 90
       50
102
RTVSPost2010PropOp48
 70
     1
102
RTVSPost2010Prop49
280
     0
102
RTVSPost2010PropOp49
 70
     1
102
RTVSPost2010Prop50
 90
       50
102
RTVSPost2010PropOp50
 70
     1
102
RTVSPost2010Prop51ColorIndex
 90
      256
102
RTVSPost2010Prop51ColorRGB
 90
-16777216
102
RTVSPost2010PropOp51
 70
     0
102
RTVSPost2010Prop52
140
1.0
102
RTVSPost2010PropOp52
 70
     0
102
RTVSPost2010Prop53
 90
        2
102
RTVSPost2010PropOp53
 70
     1
102
RTVSPost2010Prop54
  1
strokes_ogs.tif
102
RTVSPost2010PropOp54
 70
     1
102
RTVSPost2010Prop55
280
     0
102
RTVSPost2010PropOp55
 70
     1
102
RTVSPost2010Prop56
140
1.0
102
RTVSPost2010PropOp56
 70
     1
102
RTVSPost2010Prop57
140
1.0
102
RTVSPost2010PropOp57
 70
     1
102
RTVSPropertyOp0
 70
     1
102
RTVSPropertyOp1
 70
     1
102
RTVSPropertyOp2
 70
     1
102
RTVSPropertyOp3
 70
     1
102
RTVSPropertyOp4
 70
     1
102
RTVSPropertyOp5
 70
     1
102
RTVSPropertyOp6
 70
     1
102
RTVSPropertyOp7
 70
     1
102
RTVSPropertyOp8
 70
     1
102
RTVSPropertyOp9
 70
     1
102
RTVSPropertyOp10
 70
     1
102
RTVSPropertyOp11
 70
     1
102
RTVSPropertyOp12
 70
     1
102
RTVSPropertyOp13
 70
     1
102
RTVSPropertyOp14
 70
     1
102
RTVSPropertyOp15
 70
     1
102
RTVSPropertyOp16
 70
     1
102
RTVSPropertyOp17
 70
     1
102
RTVSPropertyOp18
 70
     1
102
RTVSPropertyOp19
 70
     1
102
RTVSPropertyOp20
 70
     1
102
RTVSPropertyOp21
 70
     1
102
RTVSPropertyOp22
 70
     1
102
RTVSPropertyOp23
 70
     1
102
RTVSPropertyOp24
 70
     1
102
RTVSPropertyOp25
 70
     1
102
RTVSPropertyOp26
 70
     1
102
RTVSPropertyOp27
 70
     1
102
RTVSPropertyOp28
 70
     1
102
RTVSPropertyOp29
 70
     1
102
RTVSPropertyOp30
 70
     1
102
RTVSPropertyOp31
 70
     1
102
RTVSPropertyOp32
 70
     1
102
RTVSPropertyOp33
 70
     1
102
RTVSPropertyOp34
 70
     1
102
RTVSPropertyOp35
 70
     1
102
RTVSPropertyOp36
 70
     1
102
RTVSPropertyOp37
 70
     1
102
RTVSPropertyOp38
 70
     1
102
RTVSPropertyOp39
 70
     1
102
RTVSPropertyOp40
 70
     1
102
RTVSPropertyOp41
 70
     1
102
RTVSPropertyOp42
 70
     1
102
RTVSPropertyOp43
 70
     1
102
RTVSPropertyOp44
 70
     1
102
RTVSPropertyOp45
 70
     1
102
RTVSPropertyOp46
 70
     1
102
RTVSPropertyOp47
 70
     1
102
RTVSPropertyOp48
 70
     1
102
RTVSPropertyOp49
 70
     1
102
RTVSPropertyOp50
 70
     1
102
RTVSPropertyOp51
 70
     0
102
RTVSPropertyOp52
 70
     0
102
RTVSPropertyOp53
 70
     1
102
RTVSPropertyOp54
 70
     1
102
RTVSPropertyOp55
 70
     1
102
RTVSPropertyOp56
 70
     1
102
RTVSPropertyOp57
 70
     1
102
RTVSPropertyOp58
 70
     1
102
RTVSPropertyOp59
 70
     1
102
RTVSPropertyOp60
 70
     1
102
RTVSPropertyOp61
 70
     1
102
RTVSPropertyOp62
 70
     1
  0
XRECORD
  5
C04A
102
{ACAD_REACTORS
330
C049
102
}
330
C049
100
AcDbXrecord
280
     1
102
RTVSPost2010Prop28
280
     0
102
RTVSPost2010PropOp28
 70
     1
102
RTVSPost2010Prop29
280
     1
102
RTVSPost2010PropOp29
 70
     1
102
RTVSPost2010Prop30
280
     1
102
RTVSPost2010PropOp30
 70
     1
102
RTVSPost2010Prop31
280
     0
102
RTVSPost2010PropOp31
 70
     1
102
RTVSPost2010Prop32
280
     0
102
RTVSPost2010PropOp32
 70
     1
102
RTVSPost2010Prop33
280
     0
102
RTVSPost2010PropOp33
 70
     1
102
RTVSPost2010Prop34
280
     0
102
RTVSPost2010PropOp34
 70
     1
102
RTVSPost2010Prop35
280
     0
102
RTVSPost2010PropOp35
 70
     1
102
RTVSPost2010Prop36
280
     0
102
RTVSPost2010PropOp36
 70
     1
102
RTVSPost2010Prop37
 90
       50
102
RTVSPost2010PropOp37
 70
     1
102
RTVSPost2010Prop38
140
0.0
102
RTVSPost2010PropOp38
 70
     1
102
RTVSPost2010Prop39
140
1.0
102
RTVSPost2010PropOp39
 70
     1
102
RTVSPost2010Prop40
 90
        0
102
RTVSPost2010PropOp40
 70
     1
102
RTVSPost2010Prop41ColorIndex
 90
       18
102
RTVSPost2010Prop41ColorRGB
 90
        0
102
RTVSPost2010PropOp41
 70
     1
102
RTVSPost2010Prop42
 90
       50
102
RTVSPost2010PropOp42
 70
     1
102
RTVSPost2010Prop43
 90
        3
102
RTVSPost2010PropOp43
 70
     1
102
RTVSPost2010Prop44ColorIndex
 90
        5
102
RTVSPost2010Prop44ColorRGB
 90
      255
102
RTVSPost2010PropOp44
 70
     1
102
RTVSPost2010Prop45
280
     0
102
RTVSPost2010PropOp45
 70
     1
102
RTVSPost2010Prop46
 90
       50
102
RTVSPost2010PropOp46
 70
     1
102
RTVSPost2010Prop47
 90
       50
102
RTVSPost2010PropOp47
 70
     1
102
RTVSPost2010Prop48
 90
       50
102
RTVSPost2010PropOp48
 70
     1
102
RTVSPost2010Prop49
280
     0
102
RTVSPost2010PropOp49
 70
     1
102
RTVSPost2010Prop50
 90
       50
102
RTVSPost2010PropOp50
 70
     1
102
RTVSPost2010Prop51ColorIndex
 90
      256
102
RTVSPost2010Prop51ColorRGB
 90
-16777216
102
RTVSPost2010PropOp51
 70
     0
102
RTVSPost2010Prop52
140
1.0
102
RTVSPost2010PropOp52
 70
     0
102
RTVSPost2010Prop53
 90
        2
102
RTVSPost2010PropOp53
 70
     1
102
RTVSPost2010Prop54
  1
strokes_ogs.tif
102
RTVSPost2010PropOp54
 70
     1
102
RTVSPost2010Prop55
280
     0
102
RTVSPost2010PropOp55
 70
     1
102
RTVSPost2010Prop56
140
1.0
102
RTVSPost2010PropOp56
 70
     1
102
RTVSPost2010Prop57
140
1.0
102
RTVSPost2010PropOp57
 70
     1
102
RTVSPropertyOp0
 70
     1
102
RTVSPropertyOp1
 70
     1
102
RTVSPropertyOp2
 70
     1
102
RTVSPropertyOp3
 70
     1
102
RTVSPropertyOp4
 70
     1
102
RTVSPropertyOp5
 70
     1
102
RTVSPropertyOp6
 70
     1
102
RTVSPropertyOp7
 70
     1
102
RTVSPropertyOp8
 70
     1
102
RTVSPropertyOp9
 70
     1
102
RTVSPropertyOp10
 70
     1
102
RTVSPropertyOp11
 70
     1
102
RTVSPropertyOp12
 70
     1
102
RTVSPropertyOp13
 70
     1
102
RTVSPropertyOp14
 70
     1
102
RTVSPropertyOp15
 70
     1
102
RTVSPropertyOp16
 70
     1
102
RTVSPropertyOp17
 70
     1
102
RTVSPropertyOp18
 70
     1
102
RTVSPropertyOp19
 70
     1
102
RTVSPropertyOp20
 70
     1
102
RTVSPropertyOp21
 70
     1
102
RTVSPropertyOp22
 70
     1
102
RTVSPropertyOp23
 70
     1
102
RTVSPropertyOp24
 70
     1
102
RTVSPropertyOp25
 70
     1
102
RTVSPropertyOp26
 70
     1
102
RTVSPropertyOp27
 70
     1
102
RTVSPropertyOp28
 70
     1
102
RTVSPropertyOp29
 70
     1
102
RTVSPropertyOp30
 70
     1
102
RTVSPropertyOp31
 70
     1
102
RTVSPropertyOp32
 70
     1
102
RTVSPropertyOp33
 70
     1
102
RTVSPropertyOp34
 70
     1
102
RTVSPropertyOp35
 70
     1
102
RTVSPropertyOp36
 70
     1
102
RTVSPropertyOp37
 70
     1
102
RTVSPropertyOp38
 70
     1
102
RTVSPropertyOp39
 70
     1
102
RTVSPropertyOp40
 70
     1
102
RTVSPropertyOp41
 70
     1
102
RTVSPropertyOp42
 70
     1
102
RTVSPropertyOp43
 70
     1
102
RTVSPropertyOp44
 70
     1
102
RTVSPropertyOp45
 70
     1
102
RTVSPropertyOp46
 70
     1
102
RTVSPropertyOp47
 70
     1
102
RTVSPropertyOp48
 70
     1
102
RTVSPropertyOp49
 70
     1
102
RTVSPropertyOp50
 70
     1
102
RTVSPropertyOp51
 70
     0
102
RTVSPropertyOp52
 70
     0
102
RTVSPropertyOp53
 70
     1
102
RTVSPropertyOp54
 70
     1
102
RTVSPropertyOp55
 70
     1
102
RTVSPropertyOp56
 70
     1
102
RTVSPropertyOp57
 70
     1
102
RTVSPropertyOp58
 70
     1
102
RTVSPropertyOp59
 70
     1
102
RTVSPropertyOp60
 70
     1
102
RTVSPropertyOp61
 70
     1
102
RTVSPropertyOp62
 70
     1
  0
XRECORD
  5
C064
102
{ACAD_REACTORS
330
C063
102
}
330
C063
100
AcDbXrecord
280
     1
102
RTVSPost2010Prop28
280
     0
102
RTVSPost2010PropOp28
 70
     1
102
RTVSPost2010Prop29
280
     1
102
RTVSPost2010PropOp29
 70
     1
102
RTVSPost2010Prop30
280
     1
102
RTVSPost2010PropOp30
 70
     1
102
RTVSPost2010Prop31
280
     0
102
RTVSPost2010PropOp31
 70
     1
102
RTVSPost2010Prop32
280
     0
102
RTVSPost2010PropOp32
 70
     1
102
RTVSPost2010Prop33
280
     0
102
RTVSPost2010PropOp33
 70
     1
102
RTVSPost2010Prop34
280
     0
102
RTVSPost2010PropOp34
 70
     1
102
RTVSPost2010Prop35
280
     0
102
RTVSPost2010PropOp35
 70
     1
102
RTVSPost2010Prop36
280
     0
102
RTVSPost2010PropOp36
 70
     1
102
RTVSPost2010Prop37
 90
       50
102
RTVSPost2010PropOp37
 70
     0
102
RTVSPost2010Prop38
140
0.0
102
RTVSPost2010PropOp38
 70
     0
102
RTVSPost2010Prop39
140
1.0
102
RTVSPost2010PropOp39
 70
     0
102
RTVSPost2010Prop40
 90
        0
102
RTVSPost2010PropOp40
 70
     0
102
RTVSPost2010Prop41ColorIndex
 90
       18
102
RTVSPost2010Prop41ColorRGB
 90
        0
102
RTVSPost2010PropOp41
 70
     0
102
RTVSPost2010Prop42
 90
       50
102
RTVSPost2010PropOp42
 70
     0
102
RTVSPost2010Prop43
 90
        3
102
RTVSPost2010PropOp43
 70
     0
102
RTVSPost2010Prop44ColorIndex
 90
        5
102
RTVSPost2010Prop44ColorRGB
 90
      255
102
RTVSPost2010PropOp44
 70
     0
102
RTVSPost2010Prop45
280
     0
102
RTVSPost2010PropOp45
 70
     1
102
RTVSPost2010Prop46
 90
       50
102
RTVSPost2010PropOp46
 70
     0
102
RTVSPost2010Prop47
 90
       50
102
RTVSPost2010PropOp47
 70
     0
102
RTVSPost2010Prop48
 90
       50
102
RTVSPost2010PropOp48
 70
     0
102
RTVSPost2010Prop49
280
     0
102
RTVSPost2010PropOp49
 70
     1
102
RTVSPost2010Prop50
 90
       50
102
RTVSPost2010PropOp50
 70
     0
102
RTVSPost2010Prop51ColorIndex
 90
      256
102
RTVSPost2010Prop51ColorRGB
 90
-16777216
102
RTVSPost2010PropOp51
 70
     0
102
RTVSPost2010Prop52
140
1.0
102
RTVSPost2010PropOp52
 70
     0
102
RTVSPost2010Prop53
 90
        2
102
RTVSPost2010PropOp53
 70
     0
102
RTVSPost2010Prop54
  1
strokes_ogs.tif
102
RTVSPost2010PropOp54
 70
     0
102
RTVSPost2010Prop55
280
     0
102
RTVSPost2010PropOp55
 70
     1
102
RTVSPost2010Prop56
140
1.0
102
RTVSPost2010PropOp56
 70
     0
102
RTVSPost2010Prop57
140
1.0
102
RTVSPost2010PropOp57
 70
     0
102
RTVSPropertyOp0
 70
     0
102
RTVSPropertyOp1
 70
     0
102
RTVSPropertyOp2
 70
     0
102
RTVSPropertyOp3
 70
     0
102
RTVSPropertyOp4
 70
     0
102
RTVSPropertyOp5
 70
     0
102
RTVSPropertyOp6
 70
     0
102
RTVSPropertyOp7
 70
     0
102
RTVSPropertyOp8
 70
     0
102
RTVSPropertyOp9
 70
     0
102
RTVSPropertyOp10
 70
     0
102
RTVSPropertyOp11
 70
     0
102
RTVSPropertyOp12
 70
     0
102
RTVSPropertyOp13
 70
     0
102
RTVSPropertyOp14
 70
     2
102
RTVSPropertyOp15
 70
     0
102
RTVSPropertyOp16
 70
     0
102
RTVSPropertyOp17
 70
     0
102
RTVSPropertyOp18
 70
     0
102
RTVSPropertyOp19
 70
     0
102
RTVSPropertyOp20
 70
     0
102
RTVSPropertyOp21
 70
     0
102
RTVSPropertyOp22
 70
     0
102
RTVSPropertyOp23
 70
     0
102
RTVSPropertyOp24
 70
     0
102
RTVSPropertyOp25
 70
     0
102
RTVSPropertyOp26
 70
     0
102
RTVSPropertyOp27
 70
     0
102
RTVSPropertyOp28
 70
     1
102
RTVSPropertyOp29
 70
     1
102
RTVSPropertyOp30
 70
     1
102
RTVSPropertyOp31
 70
     1
102
RTVSPropertyOp32
 70
     1
102
RTVSPropertyOp33
 70
     1
102
RTVSPropertyOp34
 70
     1
102
RTVSPropertyOp35
 70
     1
102
RTVSPropertyOp36
 70
     1
102
RTVSPropertyOp37
 70
     0
102
RTVSPropertyOp38
 70
     0
102
RTVSPropertyOp39
 70
     0
102
RTVSPropertyOp40
 70
     0
102
RTVSPropertyOp41
 70
     0
102
RTVSPropertyOp42
 70
     0
102
RTVSPropertyOp43
 70
     0
102
RTVSPropertyOp44
 70
     0
102
RTVSPropertyOp45
 70
     1
102
RTVSPropertyOp46
 70
     0
102
RTVSPropertyOp47
 70
     0
102
RTVSPropertyOp48
 70
     0
102
RTVSPropertyOp49
 70
     1
102
RTVSPropertyOp50
 70
     0
102
RTVSPropertyOp51
 70
     0
102
RTVSPropertyOp52
 70
     0
102
RTVSPropertyOp53
 70
     0
102
RTVSPropertyOp54
 70
     0
102
RTVSPropertyOp55
 70
     1
102
RTVSPropertyOp56
 70
     0
102
RTVSPropertyOp57
 70
     0
102
RTVSPropertyOp58
 70
     0
102
RTVSPropertyOp59
 70
     0
102
RTVSPropertyOp60
 70
     0
102
RTVSPropertyOp61
 70
     0
102
RTVSPropertyOp62
 70
     0
  0
XRECORD
  5
C052
102
{ACAD_REACTORS
330
C051
102
}
330
C051
100
AcDbXrecord
280
     1
102
RTVSPost2010Prop28
280
     0
102
RTVSPost2010PropOp28
 70
     1
102
RTVSPost2010Prop29
280
     1
102
RTVSPost2010PropOp29
 70
     1
102
RTVSPost2010Prop30
280
     1
102
RTVSPost2010PropOp30
 70
     1
102
RTVSPost2010Prop31
280
     0
102
RTVSPost2010PropOp31
 70
     1
102
RTVSPost2010Prop32
280
     0
102
RTVSPost2010PropOp32
 70
     1
102
RTVSPost2010Prop33
280
     0
102
RTVSPost2010PropOp33
 70
     1
102
RTVSPost2010Prop34
280
     0
102
RTVSPost2010PropOp34
 70
     1
102
RTVSPost2010Prop35
280
     0
102
RTVSPost2010PropOp35
 70
     1
102
RTVSPost2010Prop36
280
     0
102
RTVSPost2010PropOp36
 70
     1
102
RTVSPost2010Prop37
 90
       50
102
RTVSPost2010PropOp37
 70
     1
102
RTVSPost2010Prop38
140
0.0
102
RTVSPost2010PropOp38
 70
     1
102
RTVSPost2010Prop39
140
1.0
102
RTVSPost2010PropOp39
 70
     1
102
RTVSPost2010Prop40
 90
        0
102
RTVSPost2010PropOp40
 70
     1
102
RTVSPost2010Prop41ColorIndex
 90
       18
102
RTVSPost2010Prop41ColorRGB
 90
        0
102
RTVSPost2010PropOp41
 70
     1
102
RTVSPost2010Prop42
 90
       50
102
RTVSPost2010PropOp42
 70
     1
102
RTVSPost2010Prop43
 90
        3
102
RTVSPost2010PropOp43
 70
     1
102
RTVSPost2010Prop44ColorIndex
 90
        5
102
RTVSPost2010Prop44ColorRGB
 90
      255
102
RTVSPost2010PropOp44
 70
     1
102
RTVSPost2010Prop45
280
     0
102
RTVSPost2010PropOp45
 70
     1
102
RTVSPost2010Prop46
 90
       50
102
RTVSPost2010PropOp46
 70
     1
102
RTVSPost2010Prop47
 90
       50
102
RTVSPost2010PropOp47
 70
     1
102
RTVSPost2010Prop48
 90
       50
102
RTVSPost2010PropOp48
 70
     1
102
RTVSPost2010Prop49
280
     0
102
RTVSPost2010PropOp49
 70
     1
102
RTVSPost2010Prop50
 90
       50
102
RTVSPost2010PropOp50
 70
     1
102
RTVSPost2010Prop51ColorIndex
 90
      256
102
RTVSPost2010Prop51ColorRGB
 90
-16777216
102
RTVSPost2010PropOp51
 70
     0
102
RTVSPost2010Prop52
140
1.0
102
RTVSPost2010PropOp52
 70
     0
102
RTVSPost2010Prop53
 90
        2
102
RTVSPost2010PropOp53
 70
     1
102
RTVSPost2010Prop54
  1
strokes_ogs.tif
102
RTVSPost2010PropOp54
 70
     1
102
RTVSPost2010Prop55
280
     0
102
RTVSPost2010PropOp55
 70
     1
102
RTVSPost2010Prop56
140
1.0
102
RTVSPost2010PropOp56
 70
     1
102
RTVSPost2010Prop57
140
1.0
102
RTVSPost2010PropOp57
 70
     1
102
RTVSPropertyOp0
 70
     1
102
RTVSPropertyOp1
 70
     1
102
RTVSPropertyOp2
 70
     1
102
RTVSPropertyOp3
 70
     1
102
RTVSPropertyOp4
 70
     1
102
RTVSPropertyOp5
 70
     1
102
RTVSPropertyOp6
 70
     1
102
RTVSPropertyOp7
 70
     1
102
RTVSPropertyOp8
 70
     1
102
RTVSPropertyOp9
 70
     1
102
RTVSPropertyOp10
 70
     1
102
RTVSPropertyOp11
 70
     1
102
RTVSPropertyOp12
 70
     1
102
RTVSPropertyOp13
 70
     1
102
RTVSPropertyOp14
 70
     1
102
RTVSPropertyOp15
 70
     1
102
RTVSPropertyOp16
 70
     1
102
RTVSPropertyOp17
 70
     1
102
RTVSPropertyOp18
 70
     1
102
RTVSPropertyOp19
 70
     1
102
RTVSPropertyOp20
 70
     1
102
RTVSPropertyOp21
 70
     1
102
RTVSPropertyOp22
 70
     1
102
RTVSPropertyOp23
 70
     1
102
RTVSPropertyOp24
 70
     1
102
RTVSPropertyOp25
 70
     1
102
RTVSPropertyOp26
 70
     1
102
RTVSPropertyOp27
 70
     1
102
RTVSPropertyOp28
 70
     1
102
RTVSPropertyOp29
 70
     1
102
RTVSPropertyOp30
 70
     1
102
RTVSPropertyOp31
 70
     1
102
RTVSPropertyOp32
 70
     1
102
RTVSPropertyOp33
 70
     1
102
RTVSPropertyOp34
 70
     1
102
RTVSPropertyOp35
 70
     1
102
RTVSPropertyOp36
 70
     1
102
RTVSPropertyOp37
 70
     1
102
RTVSPropertyOp38
 70
     1
102
RTVSPropertyOp39
 70
     1
102
RTVSPropertyOp40
 70
     1
102
RTVSPropertyOp41
 70
     1
102
RTVSPropertyOp42
 70
     1
102
RTVSPropertyOp43
 70
     1
102
RTVSPropertyOp44
 70
     1
102
RTVSPropertyOp45
 70
     1
102
RTVSPropertyOp46
 70
     1
102
RTVSPropertyOp47
 70
     1
102
RTVSPropertyOp48
 70
     1
102
RTVSPropertyOp49
 70
     1
102
RTVSPropertyOp50
 70
     1
102
RTVSPropertyOp51
 70
     0
102
RTVSPropertyOp52
 70
     0
102
RTVSPropertyOp53
 70
     1
102
RTVSPropertyOp54
 70
     1
102
RTVSPropertyOp55
 70
     1
102
RTVSPropertyOp56
 70
     1
102
RTVSPropertyOp57
 70
     1
102
RTVSPropertyOp58
 70
     1
102
RTVSPropertyOp59
 70
     1
102
RTVSPropertyOp60
 70
     1
102
RTVSPropertyOp61
 70
     1
102
RTVSPropertyOp62
 70
     1
  0
XRECORD
  5
C036
102
{ACAD_REACTORS
330
C035
102
}
330
C035
100
AcDbXrecord
280
     1
102
RTVSPost2010Prop28
280
     0
102
RTVSPost2010PropOp28
 70
     1
102
RTVSPost2010Prop29
280
     1
102
RTVSPost2010PropOp29
 70
     1
102
RTVSPost2010Prop30
280
     1
102
RTVSPost2010PropOp30
 70
     1
102
RTVSPost2010Prop31
280
     0
102
RTVSPost2010PropOp31
 70
     1
102
RTVSPost2010Prop32
280
     0
102
RTVSPost2010PropOp32
 70
     1
102
RTVSPost2010Prop33
280
     0
102
RTVSPost2010PropOp33
 70
     1
102
RTVSPost2010Prop34
280
     0
102
RTVSPost2010PropOp34
 70
     1
102
RTVSPost2010Prop35
280
     0
102
RTVSPost2010PropOp35
 70
     1
102
RTVSPost2010Prop36
280
     0
102
RTVSPost2010PropOp36
 70
     1
102
RTVSPost2010Prop37
 90
       50
102
RTVSPost2010PropOp37
 70
     1
102
RTVSPost2010Prop38
140
0.0
102
RTVSPost2010PropOp38
 70
     1
102
RTVSPost2010Prop39
140
1.0
102
RTVSPost2010PropOp39
 70
     1
102
RTVSPost2010Prop40
 90
        0
102
RTVSPost2010PropOp40
 70
     1
102
RTVSPost2010Prop41ColorIndex
 90
       18
102
RTVSPost2010Prop41ColorRGB
 90
        0
102
RTVSPost2010PropOp41
 70
     1
102
RTVSPost2010Prop42
 90
       50
102
RTVSPost2010PropOp42
 70
     1
102
RTVSPost2010Prop43
 90
        3
102
RTVSPost2010PropOp43
 70
     1
102
RTVSPost2010Prop44ColorIndex
 90
        5
102
RTVSPost2010Prop44ColorRGB
 90
      255
102
RTVSPost2010PropOp44
 70
     1
102
RTVSPost2010Prop45
280
     0
102
RTVSPost2010PropOp45
 70
     1
102
RTVSPost2010Prop46
 90
       50
102
RTVSPost2010PropOp46
 70
     1
102
RTVSPost2010Prop47
 90
       50
102
RTVSPost2010PropOp47
 70
     1
102
RTVSPost2010Prop48
 90
       50
102
RTVSPost2010PropOp48
 70
     1
102
RTVSPost2010Prop49
280
     0
102
RTVSPost2010PropOp49
 70
     1
102
RTVSPost2010Prop50
 90
       50
102
RTVSPost2010PropOp50
 70
     1
102
RTVSPost2010Prop51ColorIndex
 90
      256
102
RTVSPost2010Prop51ColorRGB
 90
-16777216
102
RTVSPost2010PropOp51
 70
     0
102
RTVSPost2010Prop52
140
1.0
102
RTVSPost2010PropOp52
 70
     0
102
RTVSPost2010Prop53
 90
        2
102
RTVSPost2010PropOp53
 70
     1
102
RTVSPost2010Prop54
  1
strokes_ogs.tif
102
RTVSPost2010PropOp54
 70
     1
102
RTVSPost2010Prop55
280
     0
102
RTVSPost2010PropOp55
 70
     1
102
RTVSPost2010Prop56
140
1.0
102
RTVSPost2010PropOp56
 70
     1
102
RTVSPost2010Prop57
140
1.0
102
RTVSPost2010PropOp57
 70
     1
102
RTVSPropertyOp0
 70
     1
102
RTVSPropertyOp1
 70
     1
102
RTVSPropertyOp2
 70
     1
102
RTVSPropertyOp3
 70
     1
102
RTVSPropertyOp4
 70
     1
102
RTVSPropertyOp5
 70
     1
102
RTVSPropertyOp6
 70
     1
102
RTVSPropertyOp7
 70
     1
102
RTVSPropertyOp8
 70
     1
102
RTVSPropertyOp9
 70
     1
102
RTVSPropertyOp10
 70
     1
102
RTVSPropertyOp11
 70
     1
102
RTVSPropertyOp12
 70
     1
102
RTVSPropertyOp13
 70
     1
102
RTVSPropertyOp14
 70
     1
102
RTVSPropertyOp15
 70
     1
102
RTVSPropertyOp16
 70
     1
102
RTVSPropertyOp17
 70
     1
102
RTVSPropertyOp18
 70
     1
102
RTVSPropertyOp19
 70
     1
102
RTVSPropertyOp20
 70
     1
102
RTVSPropertyOp21
 70
     1
102
RTVSPropertyOp22
 70
     1
102
RTVSPropertyOp23
 70
     1
102
RTVSPropertyOp24
 70
     1
102
RTVSPropertyOp25
 70
     1
102
RTVSPropertyOp26
 70
     1
102
RTVSPropertyOp27
 70
     1
102
RTVSPropertyOp28
 70
     1
102
RTVSPropertyOp29
 70
     1
102
RTVSPropertyOp30
 70
     1
102
RTVSPropertyOp31
 70
     1
102
RTVSPropertyOp32
 70
     1
102
RTVSPropertyOp33
 70
     1
102
RTVSPropertyOp34
 70
     1
102
RTVSPropertyOp35
 70
     1
102
RTVSPropertyOp36
 70
     1
102
RTVSPropertyOp37
 70
     1
102
RTVSPropertyOp38
 70
     1
102
RTVSPropertyOp39
 70
     1
102
RTVSPropertyOp40
 70
     1
102
RTVSPropertyOp41
 70
     1
102
RTVSPropertyOp42
 70
     1
102
RTVSPropertyOp43
 70
     1
102
RTVSPropertyOp44
 70
     1
102
RTVSPropertyOp45
 70
     1
102
RTVSPropertyOp46
 70
     1
102
RTVSPropertyOp47
 70
     1
102
RTVSPropertyOp48
 70
     1
102
RTVSPropertyOp49
 70
     1
102
RTVSPropertyOp50
 70
     1
102
RTVSPropertyOp51
 70
     0
102
RTVSPropertyOp52
 70
     0
102
RTVSPropertyOp53
 70
     1
102
RTVSPropertyOp54
 70
     1
102
RTVSPropertyOp55
 70
     1
102
RTVSPropertyOp56
 70
     1
102
RTVSPropertyOp57
 70
     1
102
RTVSPropertyOp58
 70
     1
102
RTVSPropertyOp59
 70
     1
102
RTVSPropertyOp60
 70
     1
102
RTVSPropertyOp61
 70
     1
102
RTVSPropertyOp62
 70
     1
  0
XRECORD
  5
C038
102
{ACAD_REACTORS
330
C037
102
}
330
C037
100
AcDbXrecord
280
     1
102
RTVSPost2010Prop28
280
     0
102
RTVSPost2010PropOp28
 70
     1
102
RTVSPost2010Prop29
280
     1
102
RTVSPost2010PropOp29
 70
     1
102
RTVSPost2010Prop30
280
     1
102
RTVSPost2010PropOp30
 70
     1
102
RTVSPost2010Prop31
280
     0
102
RTVSPost2010PropOp31
 70
     1
102
RTVSPost2010Prop32
280
     0
102
RTVSPost2010PropOp32
 70
     1
102
RTVSPost2010Prop33
280
     0
102
RTVSPost2010PropOp33
 70
     1
102
RTVSPost2010Prop34
280
     0
102
RTVSPost2010PropOp34
 70
     1
102
RTVSPost2010Prop35
280
     0
102
RTVSPost2010PropOp35
 70
     1
102
RTVSPost2010Prop36
280
     0
102
RTVSPost2010PropOp36
 70
     1
102
RTVSPost2010Prop37
 90
       50
102
RTVSPost2010PropOp37
 70
     1
102
RTVSPost2010Prop38
140
0.0
102
RTVSPost2010PropOp38
 70
     1
102
RTVSPost2010Prop39
140
1.0
102
RTVSPost2010PropOp39
 70
     1
102
RTVSPost2010Prop40
 90
        0
102
RTVSPost2010PropOp40
 70
     1
102
RTVSPost2010Prop41ColorIndex
 90
       18
102
RTVSPost2010Prop41ColorRGB
 90
        0
102
RTVSPost2010PropOp41
 70
     1
102
RTVSPost2010Prop42
 90
       50
102
RTVSPost2010PropOp42
 70
     1
102
RTVSPost2010Prop43
 90
        3
102
RTVSPost2010PropOp43
 70
     1
102
RTVSPost2010Prop44ColorIndex
 90
        5
102
RTVSPost2010Prop44ColorRGB
 90
      255
102
RTVSPost2010PropOp44
 70
     1
102
RTVSPost2010Prop45
280
     0
102
RTVSPost2010PropOp45
 70
     1
102
RTVSPost2010Prop46
 90
       50
102
RTVSPost2010PropOp46
 70
     1
102
RTVSPost2010Prop47
 90
       50
102
RTVSPost2010PropOp47
 70
     1
102
RTVSPost2010Prop48
 90
       50
102
RTVSPost2010PropOp48
 70
     1
102
RTVSPost2010Prop49
280
     0
102
RTVSPost2010PropOp49
 70
     1
102
RTVSPost2010Prop50
 90
       50
102
RTVSPost2010PropOp50
 70
     1
102
RTVSPost2010Prop51ColorIndex
 90
      256
102
RTVSPost2010Prop51ColorRGB
 90
-16777216
102
RTVSPost2010PropOp51
 70
     0
102
RTVSPost2010Prop52
140
1.0
102
RTVSPost2010PropOp52
 70
     0
102
RTVSPost2010Prop53
 90
        2
102
RTVSPost2010PropOp53
 70
     1
102
RTVSPost2010Prop54
  1
strokes_ogs.tif
102
RTVSPost2010PropOp54
 70
     1
102
RTVSPost2010Prop55
280
     0
102
RTVSPost2010PropOp55
 70
     1
102
RTVSPost2010Prop56
140
1.0
102
RTVSPost2010PropOp56
 70
     1
102
RTVSPost2010Prop57
140
1.0
102
RTVSPost2010PropOp57
 70
     1
102
RTVSPropertyOp0
 70
     1
102
RTVSPropertyOp1
 70
     1
102
RTVSPropertyOp2
 70
     1
102
RTVSPropertyOp3
 70
     1
102
RTVSPropertyOp4
 70
     1
102
RTVSPropertyOp5
 70
     1
102
RTVSPropertyOp6
 70
     1
102
RTVSPropertyOp7
 70
     1
102
RTVSPropertyOp8
 70
     1
102
RTVSPropertyOp9
 70
     1
102
RTVSPropertyOp10
 70
     1
102
RTVSPropertyOp11
 70
     1
102
RTVSPropertyOp12
 70
     1
102
RTVSPropertyOp13
 70
     1
102
RTVSPropertyOp14
 70
     1
102
RTVSPropertyOp15
 70
     1
102
RTVSPropertyOp16
 70
     1
102
RTVSPropertyOp17
 70
     1
102
RTVSPropertyOp18
 70
     1
102
RTVSPropertyOp19
 70
     1
102
RTVSPropertyOp20
 70
     1
102
RTVSPropertyOp21
 70
     1
102
RTVSPropertyOp22
 70
     1
102
RTVSPropertyOp23
 70
     1
102
RTVSPropertyOp24
 70
     1
102
RTVSPropertyOp25
 70
     1
102
RTVSPropertyOp26
 70
     1
102
RTVSPropertyOp27
 70
     1
102
RTVSPropertyOp28
 70
     1
102
RTVSPropertyOp29
 70
     1
102
RTVSPropertyOp30
 70
     1
102
RTVSPropertyOp31
 70
     1
102
RTVSPropertyOp32
 70
     1
102
RTVSPropertyOp33
 70
     1
102
RTVSPropertyOp34
 70
     1
102
RTVSPropertyOp35
 70
     1
102
RTVSPropertyOp36
 70
     1
102
RTVSPropertyOp37
 70
     1
102
RTVSPropertyOp38
 70
     1
102
RTVSPropertyOp39
 70
     1
102
RTVSPropertyOp40
 70
     1
102
RTVSPropertyOp41
 70
     1
102
RTVSPropertyOp42
 70
     1
102
RTVSPropertyOp43
 70
     1
102
RTVSPropertyOp44
 70
     1
102
RTVSPropertyOp45
 70
     1
102
RTVSPropertyOp46
 70
     1
102
RTVSPropertyOp47
 70
     1
102
RTVSPropertyOp48
 70
     1
102
RTVSPropertyOp49
 70
     1
102
RTVSPropertyOp50
 70
     1
102
RTVSPropertyOp51
 70
     0
102
RTVSPropertyOp52
 70
     0
102
RTVSPropertyOp53
 70
     1
102
RTVSPropertyOp54
 70
     1
102
RTVSPropertyOp55
 70
     1
102
RTVSPropertyOp56
 70
     1
102
RTVSPropertyOp57
 70
     1
102
RTVSPropertyOp58
 70
     1
102
RTVSPropertyOp59
 70
     1
102
RTVSPropertyOp60
 70
     1
102
RTVSPropertyOp61
 70
     1
102
RTVSPropertyOp62
 70
     1
  0
XRECORD
  5
C03A
102
{ACAD_REACTORS
330
C039
102
}
330
C039
100
AcDbXrecord
280
     1
102
RTVSPost2010Prop28
280
     0
102
RTVSPost2010PropOp28
 70
     1
102
RTVSPost2010Prop29
280
     1
102
RTVSPost2010PropOp29
 70
     1
102
RTVSPost2010Prop30
280
     1
102
RTVSPost2010PropOp30
 70
     1
102
RTVSPost2010Prop31
280
     0
102
RTVSPost2010PropOp31
 70
     1
102
RTVSPost2010Prop32
280
     0
102
RTVSPost2010PropOp32
 70
     1
102
RTVSPost2010Prop33
280
     0
102
RTVSPost2010PropOp33
 70
     1
102
RTVSPost2010Prop34
280
     0
102
RTVSPost2010PropOp34
 70
     1
102
RTVSPost2010Prop35
280
     0
102
RTVSPost2010PropOp35
 70
     1
102
RTVSPost2010Prop36
280
     0
102
RTVSPost2010PropOp36
 70
     1
102
RTVSPost2010Prop37
 90
       50
102
RTVSPost2010PropOp37
 70
     1
102
RTVSPost2010Prop38
140
0.0
102
RTVSPost2010PropOp38
 70
     1
102
RTVSPost2010Prop39
140
1.0
102
RTVSPost2010PropOp39
 70
     1
102
RTVSPost2010Prop40
 90
        0
102
RTVSPost2010PropOp40
 70
     1
102
RTVSPost2010Prop41ColorIndex
 90
       18
102
RTVSPost2010Prop41ColorRGB
 90
        0
102
RTVSPost2010PropOp41
 70
     1
102
RTVSPost2010Prop42
 90
       50
102
RTVSPost2010PropOp42
 70
     1
102
RTVSPost2010Prop43
 90
        3
102
RTVSPost2010PropOp43
 70
     1
102
RTVSPost2010Prop44ColorIndex
 90
        5
102
RTVSPost2010Prop44ColorRGB
 90
      255
102
RTVSPost2010PropOp44
 70
     1
102
RTVSPost2010Prop45
280
     0
102
RTVSPost2010PropOp45
 70
     1
102
RTVSPost2010Prop46
 90
       50
102
RTVSPost2010PropOp46
 70
     1
102
RTVSPost2010Prop47
 90
       50
102
RTVSPost2010PropOp47
 70
     1
102
RTVSPost2010Prop48
 90
       50
102
RTVSPost2010PropOp48
 70
     1
102
RTVSPost2010Prop49
280
     0
102
RTVSPost2010PropOp49
 70
     1
102
RTVSPost2010Prop50
 90
       50
102
RTVSPost2010PropOp50
 70
     1
102
RTVSPost2010Prop51ColorIndex
 90
      256
102
RTVSPost2010Prop51ColorRGB
 90
-16777216
102
RTVSPost2010PropOp51
 70
     0
102
RTVSPost2010Prop52
140
1.0
102
RTVSPost2010PropOp52
 70
     0
102
RTVSPost2010Prop53
 90
        2
102
RTVSPost2010PropOp53
 70
     1
102
RTVSPost2010Prop54
  1
strokes_ogs.tif
102
RTVSPost2010PropOp54
 70
     1
102
RTVSPost2010Prop55
280
     0
102
RTVSPost2010PropOp55
 70
     1
102
RTVSPost2010Prop56
140
1.0
102
RTVSPost2010PropOp56
 70
     1
102
RTVSPost2010Prop57
140
1.0
102
RTVSPost2010PropOp57
 70
     1
102
RTVSPropertyOp0
 70
     1
102
RTVSPropertyOp1
 70
     1
102
RTVSPropertyOp2
 70
     1
102
RTVSPropertyOp3
 70
     1
102
RTVSPropertyOp4
 70
     1
102
RTVSPropertyOp5
 70
     1
102
RTVSPropertyOp6
 70
     1
102
RTVSPropertyOp7
 70
     1
102
RTVSPropertyOp8
 70
     1
102
RTVSPropertyOp9
 70
     1
102
RTVSPropertyOp10
 70
     1
102
RTVSPropertyOp11
 70
     1
102
RTVSPropertyOp12
 70
     1
102
RTVSPropertyOp13
 70
     1
102
RTVSPropertyOp14
 70
     1
102
RTVSPropertyOp15
 70
     1
102
RTVSPropertyOp16
 70
     1
102
RTVSPropertyOp17
 70
     1
102
RTVSPropertyOp18
 70
     1
102
RTVSPropertyOp19
 70
     1
102
RTVSPropertyOp20
 70
     1
102
RTVSPropertyOp21
 70
     1
102
RTVSPropertyOp22
 70
     1
102
RTVSPropertyOp23
 70
     1
102
RTVSPropertyOp24
 70
     1
102
RTVSPropertyOp25
 70
     1
102
RTVSPropertyOp26
 70
     1
102
RTVSPropertyOp27
 70
     1
102
RTVSPropertyOp28
 70
     1
102
RTVSPropertyOp29
 70
     1
102
RTVSPropertyOp30
 70
     1
102
RTVSPropertyOp31
 70
     1
102
RTVSPropertyOp32
 70
     1
102
RTVSPropertyOp33
 70
     1
102
RTVSPropertyOp34
 70
     1
102
RTVSPropertyOp35
 70
     1
102
RTVSPropertyOp36
 70
     1
102
RTVSPropertyOp37
 70
     1
102
RTVSPropertyOp38
 70
     1
102
RTVSPropertyOp39
 70
     1
102
RTVSPropertyOp40
 70
     1
102
RTVSPropertyOp41
 70
     1
102
RTVSPropertyOp42
 70
     1
102
RTVSPropertyOp43
 70
     1
102
RTVSPropertyOp44
 70
     1
102
RTVSPropertyOp45
 70
     1
102
RTVSPropertyOp46
 70
     1
102
RTVSPropertyOp47
 70
     1
102
RTVSPropertyOp48
 70
     1
102
RTVSPropertyOp49
 70
     1
102
RTVSPropertyOp50
 70
     1
102
RTVSPropertyOp51
 70
     0
102
RTVSPropertyOp52
 70
     0
102
RTVSPropertyOp53
 70
     1
102
RTVSPropertyOp54
 70
     1
102
RTVSPropertyOp55
 70
     1
102
RTVSPropertyOp56
 70
     1
102
RTVSPropertyOp57
 70
     1
102
RTVSPropertyOp58
 70
     1
102
RTVSPropertyOp59
 70
     1
102
RTVSPropertyOp60
 70
     1
102
RTVSPropertyOp61
 70
     1
102
RTVSPropertyOp62
 70
     1
  0
XRECORD
  5
C03C
102
{ACAD_REACTORS
330
C03B
102
}
330
C03B
100
AcDbXrecord
280
     1
102
RTVSPost2010Prop28
280
     0
102
RTVSPost2010PropOp28
 70
     1
102
RTVSPost2010Prop29
280
     1
102
RTVSPost2010PropOp29
 70
     1
102
RTVSPost2010Prop30
280
     1
102
RTVSPost2010PropOp30
 70
     1
102
RTVSPost2010Prop31
280
     0
102
RTVSPost2010PropOp31
 70
     1
102
RTVSPost2010Prop32
280
     0
102
RTVSPost2010PropOp32
 70
     1
102
RTVSPost2010Prop33
280
     0
102
RTVSPost2010PropOp33
 70
     1
102
RTVSPost2010Prop34
280
     0
102
RTVSPost2010PropOp34
 70
     1
102
RTVSPost2010Prop35
280
     0
102
RTVSPost2010PropOp35
 70
     1
102
RTVSPost2010Prop36
280
     0
102
RTVSPost2010PropOp36
 70
     1
102
RTVSPost2010Prop37
 90
       50
102
RTVSPost2010PropOp37
 70
     1
102
RTVSPost2010Prop38
140
0.0
102
RTVSPost2010PropOp38
 70
     1
102
RTVSPost2010Prop39
140
1.0
102
RTVSPost2010PropOp39
 70
     1
102
RTVSPost2010Prop40
 90
        0
102
RTVSPost2010PropOp40
 70
     1
102
RTVSPost2010Prop41ColorIndex
 90
       18
102
RTVSPost2010Prop41ColorRGB
 90
        0
102
RTVSPost2010PropOp41
 70
     1
102
RTVSPost2010Prop42
 90
       50
102
RTVSPost2010PropOp42
 70
     1
102
RTVSPost2010Prop43
 90
        3
102
RTVSPost2010PropOp43
 70
     1
102
RTVSPost2010Prop44ColorIndex
 90
        5
102
RTVSPost2010Prop44ColorRGB
 90
      255
102
RTVSPost2010PropOp44
 70
     1
102
RTVSPost2010Prop45
280
     0
102
RTVSPost2010PropOp45
 70
     1
102
RTVSPost2010Prop46
 90
       50
102
RTVSPost2010PropOp46
 70
     1
102
RTVSPost2010Prop47
 90
       50
102
RTVSPost2010PropOp47
 70
     1
102
RTVSPost2010Prop48
 90
       50
102
RTVSPost2010PropOp48
 70
     1
102
RTVSPost2010Prop49
280
     0
102
RTVSPost2010PropOp49
 70
     1
102
RTVSPost2010Prop50
 90
       50
102
RTVSPost2010PropOp50
 70
     1
102
RTVSPost2010Prop51ColorIndex
 90
      256
102
RTVSPost2010Prop51ColorRGB
 90
-16777216
102
RTVSPost2010PropOp51
 70
     0
102
RTVSPost2010Prop52
140
1.0
102
RTVSPost2010PropOp52
 70
     0
102
RTVSPost2010Prop53
 90
        2
102
RTVSPost2010PropOp53
 70
     1
102
RTVSPost2010Prop54
  1
strokes_ogs.tif
102
RTVSPost2010PropOp54
 70
     1
102
RTVSPost2010Prop55
280
     0
102
RTVSPost2010PropOp55
 70
     1
102
RTVSPost2010Prop56
140
1.0
102
RTVSPost2010PropOp56
 70
     1
102
RTVSPost2010Prop57
140
1.0
102
RTVSPost2010PropOp57
 70
     1
102
RTVSPropertyOp0
 70
     1
102
RTVSPropertyOp1
 70
     1
102
RTVSPropertyOp2
 70
     1
102
RTVSPropertyOp3
 70
     1
102
RTVSPropertyOp4
 70
     1
102
RTVSPropertyOp5
 70
     1
102
RTVSPropertyOp6
 70
     1
102
RTVSPropertyOp7
 70
     1
102
RTVSPropertyOp8
 70
     1
102
RTVSPropertyOp9
 70
     1
102
RTVSPropertyOp10
 70
     1
102
RTVSPropertyOp11
 70
     1
102
RTVSPropertyOp12
 70
     1
102
RTVSPropertyOp13
 70
     1
102
RTVSPropertyOp14
 70
     1
102
RTVSPropertyOp15
 70
     1
102
RTVSPropertyOp16
 70
     1
102
RTVSPropertyOp17
 70
     1
102
RTVSPropertyOp18
 70
     1
102
RTVSPropertyOp19
 70
     1
102
RTVSPropertyOp20
 70
     1
102
RTVSPropertyOp21
 70
     1
102
RTVSPropertyOp22
 70
     1
102
RTVSPropertyOp23
 70
     1
102
RTVSPropertyOp24
 70
     1
102
RTVSPropertyOp25
 70
     1
102
RTVSPropertyOp26
 70
     1
102
RTVSPropertyOp27
 70
     1
102
RTVSPropertyOp28
 70
     1
102
RTVSPropertyOp29
 70
     1
102
RTVSPropertyOp30
 70
     1
102
RTVSPropertyOp31
 70
     1
102
RTVSPropertyOp32
 70
     1
102
RTVSPropertyOp33
 70
     1
102
RTVSPropertyOp34
 70
     1
102
RTVSPropertyOp35
 70
     1
102
RTVSPropertyOp36
 70
     1
102
RTVSPropertyOp37
 70
     1
102
RTVSPropertyOp38
 70
     1
102
RTVSPropertyOp39
 70
     1
102
RTVSPropertyOp40
 70
     1
102
RTVSPropertyOp41
 70
     1
102
RTVSPropertyOp42
 70
     1
102
RTVSPropertyOp43
 70
     1
102
RTVSPropertyOp44
 70
     1
102
RTVSPropertyOp45
 70
     1
102
RTVSPropertyOp46
 70
     1
102
RTVSPropertyOp47
 70
     1
102
RTVSPropertyOp48
 70
     1
102
RTVSPropertyOp49
 70
     1
102
RTVSPropertyOp50
 70
     1
102
RTVSPropertyOp51
 70
     0
102
RTVSPropertyOp52
 70
     0
102
RTVSPropertyOp53
 70
     1
102
RTVSPropertyOp54
 70
     1
102
RTVSPropertyOp55
 70
     1
102
RTVSPropertyOp56
 70
     1
102
RTVSPropertyOp57
 70
     1
102
RTVSPropertyOp58
 70
     1
102
RTVSPropertyOp59
 70
     1
102
RTVSPropertyOp60
 70
     1
102
RTVSPropertyOp61
 70
     1
102
RTVSPropertyOp62
 70
     1
  0
XRECORD
  5
C044
102
{ACAD_REACTORS
330
C043
102
}
330
C043
100
AcDbXrecord
280
     1
102
RTVSPost2010Prop28
280
     0
102
RTVSPost2010PropOp28
 70
     1
102
RTVSPost2010Prop29
280
     1
102
RTVSPost2010PropOp29
 70
     1
102
RTVSPost2010Prop30
280
     1
102
RTVSPost2010PropOp30
 70
     1
102
RTVSPost2010Prop31
280
     0
102
RTVSPost2010PropOp31
 70
     1
102
RTVSPost2010Prop32
280
     0
102
RTVSPost2010PropOp32
 70
     1
102
RTVSPost2010Prop33
280
     0
102
RTVSPost2010PropOp33
 70
     1
102
RTVSPost2010Prop34
280
     0
102
RTVSPost2010PropOp34
 70
     1
102
RTVSPost2010Prop35
280
     0
102
RTVSPost2010PropOp35
 70
     1
102
RTVSPost2010Prop36
280
     0
102
RTVSPost2010PropOp36
 70
     1
102
RTVSPost2010Prop37
 90
       50
102
RTVSPost2010PropOp37
 70
     1
102
RTVSPost2010Prop38
140
0.0
102
RTVSPost2010PropOp38
 70
     1
102
RTVSPost2010Prop39
140
1.0
102
RTVSPost2010PropOp39
 70
     1
102
RTVSPost2010Prop40
 90
        0
102
RTVSPost2010PropOp40
 70
     1
102
RTVSPost2010Prop41ColorIndex
 90
       18
102
RTVSPost2010Prop41ColorRGB
 90
        0
102
RTVSPost2010PropOp41
 70
     1
102
RTVSPost2010Prop42
 90
       50
102
RTVSPost2010PropOp42
 70
     1
102
RTVSPost2010Prop43
 90
        3
102
RTVSPost2010PropOp43
 70
     1
102
RTVSPost2010Prop44ColorIndex
 90
        5
102
RTVSPost2010Prop44ColorRGB
 90
      255
102
RTVSPost2010PropOp44
 70
     1
102
RTVSPost2010Prop45
280
     0
102
RTVSPost2010PropOp45
 70
     1
102
RTVSPost2010Prop46
 90
       50
102
RTVSPost2010PropOp46
 70
     1
102
RTVSPost2010Prop47
 90
       50
102
RTVSPost2010PropOp47
 70
     1
102
RTVSPost2010Prop48
 90
       50
102
RTVSPost2010PropOp48
 70
     1
102
RTVSPost2010Prop49
280
     0
102
RTVSPost2010PropOp49
 70
     1
102
RTVSPost2010Prop50
 90
       50
102
RTVSPost2010PropOp50
 70
     1
102
RTVSPost2010Prop51ColorIndex
 90
      256
102
RTVSPost2010Prop51ColorRGB
 90
-16777216
102
RTVSPost2010PropOp51
 70
     0
102
RTVSPost2010Prop52
140
1.0
102
RTVSPost2010PropOp52
 70
     0
102
RTVSPost2010Prop53
 90
        2
102
RTVSPost2010PropOp53
 70
     1
102
RTVSPost2010Prop54
  1
strokes_ogs.tif
102
RTVSPost2010PropOp54
 70
     1
102
RTVSPost2010Prop55
280
     0
102
RTVSPost2010PropOp55
 70
     1
102
RTVSPost2010Prop56
140
1.0
102
RTVSPost2010PropOp56
 70
     1
102
RTVSPost2010Prop57
140
1.0
102
RTVSPost2010PropOp57
 70
     1
102
RTVSPropertyOp0
 70
     1
102
RTVSPropertyOp1
 70
     1
102
RTVSPropertyOp2
 70
     1
102
RTVSPropertyOp3
 70
     1
102
RTVSPropertyOp4
 70
     1
102
RTVSPropertyOp5
 70
     1
102
RTVSPropertyOp6
 70
     1
102
RTVSPropertyOp7
 70
     1
102
RTVSPropertyOp8
 70
     1
102
RTVSPropertyOp9
 70
     1
102
RTVSPropertyOp10
 70
     1
102
RTVSPropertyOp11
 70
     1
102
RTVSPropertyOp12
 70
     1
102
RTVSPropertyOp13
 70
     1
102
RTVSPropertyOp14
 70
     1
102
RTVSPropertyOp15
 70
     1
102
RTVSPropertyOp16
 70
     1
102
RTVSPropertyOp17
 70
     1
102
RTVSPropertyOp18
 70
     1
102
RTVSPropertyOp19
 70
     1
102
RTVSPropertyOp20
 70
     1
102
RTVSPropertyOp21
 70
     1
102
RTVSPropertyOp22
 70
     1
102
RTVSPropertyOp23
 70
     1
102
RTVSPropertyOp24
 70
     1
102
RTVSPropertyOp25
 70
     1
102
RTVSPropertyOp26
 70
     1
102
RTVSPropertyOp27
 70
     1
102
RTVSPropertyOp28
 70
     1
102
RTVSPropertyOp29
 70
     1
102
RTVSPropertyOp30
 70
     1
102
RTVSPropertyOp31
 70
     1
102
RTVSPropertyOp32
 70
     1
102
RTVSPropertyOp33
 70
     1
102
RTVSPropertyOp34
 70
     1
102
RTVSPropertyOp35
 70
     1
102
RTVSPropertyOp36
 70
     1
102
RTVSPropertyOp37
 70
     1
102
RTVSPropertyOp38
 70
     1
102
RTVSPropertyOp39
 70
     1
102
RTVSPropertyOp40
 70
     1
102
RTVSPropertyOp41
 70
     1
102
RTVSPropertyOp42
 70
     1
102
RTVSPropertyOp43
 70
     1
102
RTVSPropertyOp44
 70
     1
102
RTVSPropertyOp45
 70
     1
102
RTVSPropertyOp46
 70
     1
102
RTVSPropertyOp47
 70
     1
102
RTVSPropertyOp48
 70
     1
102
RTVSPropertyOp49
 70
     1
102
RTVSPropertyOp50
 70
     1
102
RTVSPropertyOp51
 70
     0
102
RTVSPropertyOp52
 70
     0
102
RTVSPropertyOp53
 70
     1
102
RTVSPropertyOp54
 70
     1
102
RTVSPropertyOp55
 70
     1
102
RTVSPropertyOp56
 70
     1
102
RTVSPropertyOp57
 70
     1
102
RTVSPropertyOp58
 70
     1
102
RTVSPropertyOp59
 70
     1
102
RTVSPropertyOp60
 70
     1
102
RTVSPropertyOp61
 70
     1
102
RTVSPropertyOp62
 70
     1
  0
XRECORD
  5
C060
102
{ACAD_REACTORS
330
C05F
102
}
330
C05F
100
AcDbXrecord
280
     1
102
RTVSPost2010Prop28
280
     0
102
RTVSPost2010PropOp28
 70
     1
102
RTVSPost2010Prop29
280
     1
102
RTVSPost2010PropOp29
 70
     1
102
RTVSPost2010Prop30
280
     1
102
RTVSPost2010PropOp30
 70
     1
102
RTVSPost2010Prop31
280
     0
102
RTVSPost2010PropOp31
 70
     1
102
RTVSPost2010Prop32
280
     0
102
RTVSPost2010PropOp32
 70
     1
102
RTVSPost2010Prop33
280
     0
102
RTVSPost2010PropOp33
 70
     1
102
RTVSPost2010Prop34
280
     0
102
RTVSPost2010PropOp34
 70
     1
102
RTVSPost2010Prop35
280
     0
102
RTVSPost2010PropOp35
 70
     1
102
RTVSPost2010Prop36
280
     0
102
RTVSPost2010PropOp36
 70
     1
102
RTVSPost2010Prop37
 90
       50
102
RTVSPost2010PropOp37
 70
     0
102
RTVSPost2010Prop38
140
0.0
102
RTVSPost2010PropOp38
 70
     0
102
RTVSPost2010Prop39
140
1.0
102
RTVSPost2010PropOp39
 70
     0
102
RTVSPost2010Prop40
 90
        0
102
RTVSPost2010PropOp40
 70
     0
102
RTVSPost2010Prop41ColorIndex
 90
       18
102
RTVSPost2010Prop41ColorRGB
 90
        0
102
RTVSPost2010PropOp41
 70
     0
102
RTVSPost2010Prop42
 90
       50
102
RTVSPost2010PropOp42
 70
     0
102
RTVSPost2010Prop43
 90
        3
102
RTVSPost2010PropOp43
 70
     0
102
RTVSPost2010Prop44ColorIndex
 90
        5
102
RTVSPost2010Prop44ColorRGB
 90
      255
102
RTVSPost2010PropOp44
 70
     0
102
RTVSPost2010Prop45
280
     0
102
RTVSPost2010PropOp45
 70
     1
102
RTVSPost2010Prop46
 90
       50
102
RTVSPost2010PropOp46
 70
     0
102
RTVSPost2010Prop47
 90
       50
102
RTVSPost2010PropOp47
 70
     0
102
RTVSPost2010Prop48
 90
       50
102
RTVSPost2010PropOp48
 70
     0
102
RTVSPost2010Prop49
280
     0
102
RTVSPost2010PropOp49
 70
     1
102
RTVSPost2010Prop50
 90
       50
102
RTVSPost2010PropOp50
 70
     0
102
RTVSPost2010Prop51ColorIndex
 90
      256
102
RTVSPost2010Prop51ColorRGB
 90
-16777216
102
RTVSPost2010PropOp51
 70
     0
102
RTVSPost2010Prop52
140
1.0
102
RTVSPost2010PropOp52
 70
     0
102
RTVSPost2010Prop53
 90
        2
102
RTVSPost2010PropOp53
 70
     0
102
RTVSPost2010Prop54
  1
strokes_ogs.tif
102
RTVSPost2010PropOp54
 70
     0
102
RTVSPost2010Prop55
280
     0
102
RTVSPost2010PropOp55
 70
     1
102
RTVSPost2010Prop56
140
1.0
102
RTVSPost2010PropOp56
 70
     0
102
RTVSPost2010Prop57
140
1.0
102
RTVSPost2010PropOp57
 70
     0
102
RTVSPropertyOp0
 70
     0
102
RTVSPropertyOp1
 70
     0
102
RTVSPropertyOp2
 70
     0
102
RTVSPropertyOp3
 70
     0
102
RTVSPropertyOp4
 70
     0
102
RTVSPropertyOp5
 70
     0
102
RTVSPropertyOp6
 70
     0
102
RTVSPropertyOp7
 70
     0
102
RTVSPropertyOp8
 70
     0
102
RTVSPropertyOp9
 70
     0
102
RTVSPropertyOp10
 70
     0
102
RTVSPropertyOp11
 70
     0
102
RTVSPropertyOp12
 70
     0
102
RTVSPropertyOp13
 70
     0
102
RTVSPropertyOp14
 70
     2
102
RTVSPropertyOp15
 70
     0
102
RTVSPropertyOp16
 70
     0
102
RTVSPropertyOp17
 70
     0
102
RTVSPropertyOp18
 70
     0
102
RTVSPropertyOp19
 70
     0
102
RTVSPropertyOp20
 70
     0
102
RTVSPropertyOp21
 70
     0
102
RTVSPropertyOp22
 70
     0
102
RTVSPropertyOp23
 70
     0
102
RTVSPropertyOp24
 70
     0
102
RTVSPropertyOp25
 70
     0
102
RTVSPropertyOp26
 70
     0
102
RTVSPropertyOp27
 70
     0
102
RTVSPropertyOp28
 70
     1
102
RTVSPropertyOp29
 70
     1
102
RTVSPropertyOp30
 70
     1
102
RTVSPropertyOp31
 70
     1
102
RTVSPropertyOp32
 70
     1
102
RTVSPropertyOp33
 70
     1
102
RTVSPropertyOp34
 70
     1
102
RTVSPropertyOp35
 70
     1
102
RTVSPropertyOp36
 70
     1
102
RTVSPropertyOp37
 70
     0
102
RTVSPropertyOp38
 70
     0
102
RTVSPropertyOp39
 70
     0
102
RTVSPropertyOp40
 70
     0
102
RTVSPropertyOp41
 70
     0
102
RTVSPropertyOp42
 70
     0
102
RTVSPropertyOp43
 70
     0
102
RTVSPropertyOp44
 70
     0
102
RTVSPropertyOp45
 70
     1
102
RTVSPropertyOp46
 70
     0
102
RTVSPropertyOp47
 70
     0
102
RTVSPropertyOp48
 70
     0
102
RTVSPropertyOp49
 70
     1
102
RTVSPropertyOp50
 70
     0
102
RTVSPropertyOp51
 70
     0
102
RTVSPropertyOp52
 70
     0
102
RTVSPropertyOp53
 70
     0
102
RTVSPropertyOp54
 70
     0
102
RTVSPropertyOp55
 70
     1
102
RTVSPropertyOp56
 70
     0
102
RTVSPropertyOp57
 70
     0
102
RTVSPropertyOp58
 70
     0
102
RTVSPropertyOp59
 70
     0
102
RTVSPropertyOp60
 70
     0
102
RTVSPropertyOp61
 70
     0
102
RTVSPropertyOp62
 70
     0
  0
XRECORD
  5
C050
102
{ACAD_REACTORS
330
C04F
102
}
330
C04F
100
AcDbXrecord
280
     1
102
RTVSPost2010Prop28
280
     0
102
RTVSPost2010PropOp28
 70
     1
102
RTVSPost2010Prop29
280
     1
102
RTVSPost2010PropOp29
 70
     1
102
RTVSPost2010Prop30
280
     1
102
RTVSPost2010PropOp30
 70
     1
102
RTVSPost2010Prop31
280
     0
102
RTVSPost2010PropOp31
 70
     1
102
RTVSPost2010Prop32
280
     0
102
RTVSPost2010PropOp32
 70
     1
102
RTVSPost2010Prop33
280
     0
102
RTVSPost2010PropOp33
 70
     1
102
RTVSPost2010Prop34
280
     0
102
RTVSPost2010PropOp34
 70
     1
102
RTVSPost2010Prop35
280
     0
102
RTVSPost2010PropOp35
 70
     1
102
RTVSPost2010Prop36
280
     0
102
RTVSPost2010PropOp36
 70
     1
102
RTVSPost2010Prop37
 90
       50
102
RTVSPost2010PropOp37
 70
     1
102
RTVSPost2010Prop38
140
0.0
102
RTVSPost2010PropOp38
 70
     1
102
RTVSPost2010Prop39
140
1.0
102
RTVSPost2010PropOp39
 70
     1
102
RTVSPost2010Prop40
 90
        0
102
RTVSPost2010PropOp40
 70
     1
102
RTVSPost2010Prop41ColorIndex
 90
       18
102
RTVSPost2010Prop41ColorRGB
 90
        0
102
RTVSPost2010PropOp41
 70
     1
102
RTVSPost2010Prop42
 90
       50
102
RTVSPost2010PropOp42
 70
     1
102
RTVSPost2010Prop43
 90
        3
102
RTVSPost2010PropOp43
 70
     1
102
RTVSPost2010Prop44ColorIndex
 90
        5
102
RTVSPost2010Prop44ColorRGB
 90
      255
102
RTVSPost2010PropOp44
 70
     1
102
RTVSPost2010Prop45
280
     0
102
RTVSPost2010PropOp45
 70
     1
102
RTVSPost2010Prop46
 90
       50
102
RTVSPost2010PropOp46
 70
     1
102
RTVSPost2010Prop47
 90
       50
102
RTVSPost2010PropOp47
 70
     1
102
RTVSPost2010Prop48
 90
       50
102
RTVSPost2010PropOp48
 70
     1
102
RTVSPost2010Prop49
280
     0
102
RTVSPost2010PropOp49
 70
     1
102
RTVSPost2010Prop50
 90
       50
102
RTVSPost2010PropOp50
 70
     1
102
RTVSPost2010Prop51ColorIndex
 90
      256
102
RTVSPost2010Prop51ColorRGB
 90
-16777216
102
RTVSPost2010PropOp51
 70
     0
102
RTVSPost2010Prop52
140
1.0
102
RTVSPost2010PropOp52
 70
     0
102
RTVSPost2010Prop53
 90
        2
102
RTVSPost2010PropOp53
 70
     1
102
RTVSPost2010Prop54
  1
strokes_ogs.tif
102
RTVSPost2010PropOp54
 70
     1
102
RTVSPost2010Prop55
280
     0
102
RTVSPost2010PropOp55
 70
     1
102
RTVSPost2010Prop56
140
1.0
102
RTVSPost2010PropOp56
 70
     1
102
RTVSPost2010Prop57
140
1.0
102
RTVSPost2010PropOp57
 70
     1
102
RTVSPropertyOp0
 70
     1
102
RTVSPropertyOp1
 70
     1
102
RTVSPropertyOp2
 70
     1
102
RTVSPropertyOp3
 70
     1
102
RTVSPropertyOp4
 70
     1
102
RTVSPropertyOp5
 70
     1
102
RTVSPropertyOp6
 70
     1
102
RTVSPropertyOp7
 70
     1
102
RTVSPropertyOp8
 70
     1
102
RTVSPropertyOp9
 70
     1
102
RTVSPropertyOp10
 70
     1
102
RTVSPropertyOp11
 70
     1
102
RTVSPropertyOp12
 70
     1
102
RTVSPropertyOp13
 70
     1
102
RTVSPropertyOp14
 70
     1
102
RTVSPropertyOp15
 70
     1
102
RTVSPropertyOp16
 70
     1
102
RTVSPropertyOp17
 70
     1
102
RTVSPropertyOp18
 70
     1
102
RTVSPropertyOp19
 70
     1
102
RTVSPropertyOp20
 70
     1
102
RTVSPropertyOp21
 70
     1
102
RTVSPropertyOp22
 70
     1
102
RTVSPropertyOp23
 70
     1
102
RTVSPropertyOp24
 70
     1
102
RTVSPropertyOp25
 70
     1
102
RTVSPropertyOp26
 70
     1
102
RTVSPropertyOp27
 70
     1
102
RTVSPropertyOp28
 70
     1
102
RTVSPropertyOp29
 70
     1
102
RTVSPropertyOp30
 70
     1
102
RTVSPropertyOp31
 70
     1
102
RTVSPropertyOp32
 70
     1
102
RTVSPropertyOp33
 70
     1
102
RTVSPropertyOp34
 70
     1
102
RTVSPropertyOp35
 70
     1
102
RTVSPropertyOp36
 70
     1
102
RTVSPropertyOp37
 70
     1
102
RTVSPropertyOp38
 70
     1
102
RTVSPropertyOp39
 70
     1
102
RTVSPropertyOp40
 70
     1
102
RTVSPropertyOp41
 70
     1
102
RTVSPropertyOp42
 70
     1
102
RTVSPropertyOp43
 70
     1
102
RTVSPropertyOp44
 70
     1
102
RTVSPropertyOp45
 70
     1
102
RTVSPropertyOp46
 70
     1
102
RTVSPropertyOp47
 70
     1
102
RTVSPropertyOp48
 70
     1
102
RTVSPropertyOp49
 70
     1
102
RTVSPropertyOp50
 70
     1
102
RTVSPropertyOp51
 70
     0
102
RTVSPropertyOp52
 70
     0
102
RTVSPropertyOp53
 70
     1
102
RTVSPropertyOp54
 70
     1
102
RTVSPropertyOp55
 70
     1
102
RTVSPropertyOp56
 70
     1
102
RTVSPropertyOp57
 70
     1
102
RTVSPropertyOp58
 70
     1
102
RTVSPropertyOp59
 70
     1
102
RTVSPropertyOp60
 70
     1
102
RTVSPropertyOp61
 70
     1
102
RTVSPropertyOp62
 70
     1
  0
XRECORD
  5
C062
102
{ACAD_REACTORS
330
C061
102
}
330
C061
100
AcDbXrecord
280
     1
102
RTVSPost2010Prop28
280
     0
102
RTVSPost2010PropOp28
 70
     1
102
RTVSPost2010Prop29
280
     1
102
RTVSPost2010PropOp29
 70
     1
102
RTVSPost2010Prop30
280
     1
102
RTVSPost2010PropOp30
 70
     1
102
RTVSPost2010Prop31
280
     0
102
RTVSPost2010PropOp31
 70
     1
102
RTVSPost2010Prop32
280
     0
102
RTVSPost2010PropOp32
 70
     1
102
RTVSPost2010Prop33
280
     0
102
RTVSPost2010PropOp33
 70
     1
102
RTVSPost2010Prop34
280
     0
102
RTVSPost2010PropOp34
 70
     1
102
RTVSPost2010Prop35
280
     0
102
RTVSPost2010PropOp35
 70
     1
102
RTVSPost2010Prop36
280
     0
102
RTVSPost2010PropOp36
 70
     1
102
RTVSPost2010Prop37
 90
       50
102
RTVSPost2010PropOp37
 70
     0
102
RTVSPost2010Prop38
140
0.0
102
RTVSPost2010PropOp38
 70
     0
102
RTVSPost2010Prop39
140
1.0
102
RTVSPost2010PropOp39
 70
     0
102
RTVSPost2010Prop40
 90
        0
102
RTVSPost2010PropOp40
 70
     0
102
RTVSPost2010Prop41ColorIndex
 90
       18
102
RTVSPost2010Prop41ColorRGB
 90
        0
102
RTVSPost2010PropOp41
 70
     0
102
RTVSPost2010Prop42
 90
       50
102
RTVSPost2010PropOp42
 70
     0
102
RTVSPost2010Prop43
 90
        3
102
RTVSPost2010PropOp43
 70
     0
102
RTVSPost2010Prop44ColorIndex
 90
        5
102
RTVSPost2010Prop44ColorRGB
 90
      255
102
RTVSPost2010PropOp44
 70
     0
102
RTVSPost2010Prop45
280
     0
102
RTVSPost2010PropOp45
 70
     1
102
RTVSPost2010Prop46
 90
       50
102
RTVSPost2010PropOp46
 70
     0
102
RTVSPost2010Prop47
 90
       50
102
RTVSPost2010PropOp47
 70
     0
102
RTVSPost2010Prop48
 90
       50
102
RTVSPost2010PropOp48
 70
     0
102
RTVSPost2010Prop49
280
     0
102
RTVSPost2010PropOp49
 70
     1
102
RTVSPost2010Prop50
 90
       50
102
RTVSPost2010PropOp50
 70
     0
102
RTVSPost2010Prop51ColorIndex
 90
      256
102
RTVSPost2010Prop51ColorRGB
 90
-16777216
102
RTVSPost2010PropOp51
 70
     0
102
RTVSPost2010Prop52
140
1.0
102
RTVSPost2010PropOp52
 70
     0
102
RTVSPost2010Prop53
 90
        2
102
RTVSPost2010PropOp53
 70
     0
102
RTVSPost2010Prop54
  1
strokes_ogs.tif
102
RTVSPost2010PropOp54
 70
     0
102
RTVSPost2010Prop55
280
     0
102
RTVSPost2010PropOp55
 70
     1
102
RTVSPost2010Prop56
140
1.0
102
RTVSPost2010PropOp56
 70
     0
102
RTVSPost2010Prop57
140
1.0
102
RTVSPost2010PropOp57
 70
     0
102
RTVSPropertyOp0
 70
     0
102
RTVSPropertyOp1
 70
     0
102
RTVSPropertyOp2
 70
     0
102
RTVSPropertyOp3
 70
     0
102
RTVSPropertyOp4
 70
     0
102
RTVSPropertyOp5
 70
     0
102
RTVSPropertyOp6
 70
     0
102
RTVSPropertyOp7
 70
     0
102
RTVSPropertyOp8
 70
     0
102
RTVSPropertyOp9
 70
     0
102
RTVSPropertyOp10
 70
     0
102
RTVSPropertyOp11
 70
     0
102
RTVSPropertyOp12
 70
     0
102
RTVSPropertyOp13
 70
     0
102
RTVSPropertyOp14
 70
     2
102
RTVSPropertyOp15
 70
     0
102
RTVSPropertyOp16
 70
     0
102
RTVSPropertyOp17
 70
     0
102
RTVSPropertyOp18
 70
     0
102
RTVSPropertyOp19
 70
     0
102
RTVSPropertyOp20
 70
     0
102
RTVSPropertyOp21
 70
     0
102
RTVSPropertyOp22
 70
     0
102
RTVSPropertyOp23
 70
     0
102
RTVSPropertyOp24
 70
     0
102
RTVSPropertyOp25
 70
     0
102
RTVSPropertyOp26
 70
     0
102
RTVSPropertyOp27
 70
     0
102
RTVSPropertyOp28
 70
     1
102
RTVSPropertyOp29
 70
     1
102
RTVSPropertyOp30
 70
     1
102
RTVSPropertyOp31
 70
     1
102
RTVSPropertyOp32
 70
     1
102
RTVSPropertyOp33
 70
     1
102
RTVSPropertyOp34
 70
     1
102
RTVSPropertyOp35
 70
     1
102
RTVSPropertyOp36
 70
     1
102
RTVSPropertyOp37
 70
     0
102
RTVSPropertyOp38
 70
     0
102
RTVSPropertyOp39
 70
     0
102
RTVSPropertyOp40
 70
     0
102
RTVSPropertyOp41
 70
     0
102
RTVSPropertyOp42
 70
     0
102
RTVSPropertyOp43
 70
     0
102
RTVSPropertyOp44
 70
     0
102
RTVSPropertyOp45
 70
     1
102
RTVSPropertyOp46
 70
     0
102
RTVSPropertyOp47
 70
     0
102
RTVSPropertyOp48
 70
     0
102
RTVSPropertyOp49
 70
     1
102
RTVSPropertyOp50
 70
     0
102
RTVSPropertyOp51
 70
     0
102
RTVSPropertyOp52
 70
     0
102
RTVSPropertyOp53
 70
     0
102
RTVSPropertyOp54
 70
     0
102
RTVSPropertyOp55
 70
     1
102
RTVSPropertyOp56
 70
     0
102
RTVSPropertyOp57
 70
     0
102
RTVSPropertyOp58
 70
     0
102
RTVSPropertyOp59
 70
     0
102
RTVSPropertyOp60
 70
     0
102
RTVSPropertyOp61
 70
     0
102
RTVSPropertyOp62
 70
     0
  0
XRECORD
  5
C048
102
{ACAD_REACTORS
330
C047
102
}
330
C047
100
AcDbXrecord
280
     1
102
RTVSPost2010Prop28
280
     0
102
RTVSPost2010PropOp28
 70
     1
102
RTVSPost2010Prop29
280
     1
102
RTVSPost2010PropOp29
 70
     1
102
RTVSPost2010Prop30
280
     1
102
RTVSPost2010PropOp30
 70
     1
102
RTVSPost2010Prop31
280
     0
102
RTVSPost2010PropOp31
 70
     1
102
RTVSPost2010Prop32
280
     0
102
RTVSPost2010PropOp32
 70
     1
102
RTVSPost2010Prop33
280
     0
102
RTVSPost2010PropOp33
 70
     1
102
RTVSPost2010Prop34
280
     0
102
RTVSPost2010PropOp34
 70
     1
102
RTVSPost2010Prop35
280
     0
102
RTVSPost2010PropOp35
 70
     1
102
RTVSPost2010Prop36
280
     0
102
RTVSPost2010PropOp36
 70
     1
102
RTVSPost2010Prop37
 90
       50
102
RTVSPost2010PropOp37
 70
     1
102
RTVSPost2010Prop38
140
0.0
102
RTVSPost2010PropOp38
 70
     1
102
RTVSPost2010Prop39
140
1.0
102
RTVSPost2010PropOp39
 70
     1
102
RTVSPost2010Prop40
 90
        0
102
RTVSPost2010PropOp40
 70
     1
102
RTVSPost2010Prop41ColorIndex
 90
       18
102
RTVSPost2010Prop41ColorRGB
 90
        0
102
RTVSPost2010PropOp41
 70
     1
102
RTVSPost2010Prop42
 90
       50
102
RTVSPost2010PropOp42
 70
     1
102
RTVSPost2010Prop43
 90
        3
102
RTVSPost2010PropOp43
 70
     1
102
RTVSPost2010Prop44ColorIndex
 90
        5
102
RTVSPost2010Prop44ColorRGB
 90
      255
102
RTVSPost2010PropOp44
 70
     1
102
RTVSPost2010Prop45
280
     0
102
RTVSPost2010PropOp45
 70
     1
102
RTVSPost2010Prop46
 90
       50
102
RTVSPost2010PropOp46
 70
     1
102
RTVSPost2010Prop47
 90
       50
102
RTVSPost2010PropOp47
 70
     1
102
RTVSPost2010Prop48
 90
       50
102
RTVSPost2010PropOp48
 70
     1
102
RTVSPost2010Prop49
280
     0
102
RTVSPost2010PropOp49
 70
     1
102
RTVSPost2010Prop50
 90
       50
102
RTVSPost2010PropOp50
 70
     1
102
RTVSPost2010Prop51ColorIndex
 90
      256
102
RTVSPost2010Prop51ColorRGB
 90
-16777216
102
RTVSPost2010PropOp51
 70
     0
102
RTVSPost2010Prop52
140
1.0
102
RTVSPost2010PropOp52
 70
     0
102
RTVSPost2010Prop53
 90
        2
102
RTVSPost2010PropOp53
 70
     1
102
RTVSPost2010Prop54
  1
strokes_ogs.tif
102
RTVSPost2010PropOp54
 70
     1
102
RTVSPost2010Prop55
280
     0
102
RTVSPost2010PropOp55
 70
     1
102
RTVSPost2010Prop56
140
1.0
102
RTVSPost2010PropOp56
 70
     1
102
RTVSPost2010Prop57
140
1.0
102
RTVSPost2010PropOp57
 70
     1
102
RTVSPropertyOp0
 70
     1
102
RTVSPropertyOp1
 70
     1
102
RTVSPropertyOp2
 70
     1
102
RTVSPropertyOp3
 70
     1
102
RTVSPropertyOp4
 70
     1
102
RTVSPropertyOp5
 70
     1
102
RTVSPropertyOp6
 70
     1
102
RTVSPropertyOp7
 70
     1
102
RTVSPropertyOp8
 70
     1
102
RTVSPropertyOp9
 70
     1
102
RTVSPropertyOp10
 70
     1
102
RTVSPropertyOp11
 70
     1
102
RTVSPropertyOp12
 70
     1
102
RTVSPropertyOp13
 70
     1
102
RTVSPropertyOp14
 70
     1
102
RTVSPropertyOp15
 70
     1
102
RTVSPropertyOp16
 70
     1
102
RTVSPropertyOp17
 70
     1
102
RTVSPropertyOp18
 70
     1
102
RTVSPropertyOp19
 70
     1
102
RTVSPropertyOp20
 70
     1
102
RTVSPropertyOp21
 70
     1
102
RTVSPropertyOp22
 70
     1
102
RTVSPropertyOp23
 70
     1
102
RTVSPropertyOp24
 70
     1
102
RTVSPropertyOp25
 70
     1
102
RTVSPropertyOp26
 70
     1
102
RTVSPropertyOp27
 70
     1
102
RTVSPropertyOp28
 70
     1
102
RTVSPropertyOp29
 70
     1
102
RTVSPropertyOp30
 70
     1
102
RTVSPropertyOp31
 70
     1
102
RTVSPropertyOp32
 70
     1
102
RTVSPropertyOp33
 70
     1
102
RTVSPropertyOp34
 70
     1
102
RTVSPropertyOp35
 70
     1
102
RTVSPropertyOp36
 70
     1
102
RTVSPropertyOp37
 70
     1
102
RTVSPropertyOp38
 70
     1
102
RTVSPropertyOp39
 70
     1
102
RTVSPropertyOp40
 70
     1
102
RTVSPropertyOp41
 70
     1
102
RTVSPropertyOp42
 70
     1
102
RTVSPropertyOp43
 70
     1
102
RTVSPropertyOp44
 70
     1
102
RTVSPropertyOp45
 70
     1
102
RTVSPropertyOp46
 70
     1
102
RTVSPropertyOp47
 70
     1
102
RTVSPropertyOp48
 70
     1
102
RTVSPropertyOp49
 70
     1
102
RTVSPropertyOp50
 70
     1
102
RTVSPropertyOp51
 70
     0
102
RTVSPropertyOp52
 70
     0
102
RTVSPropertyOp53
 70
     1
102
RTVSPropertyOp54
 70
     1
102
RTVSPropertyOp55
 70
     1
102
RTVSPropertyOp56
 70
     1
102
RTVSPropertyOp57
 70
     1
102
RTVSPropertyOp58
 70
     1
102
RTVSPropertyOp59
 70
     1
102
RTVSPropertyOp60
 70
     1
102
RTVSPropertyOp61
 70
     1
102
RTVSPropertyOp62
 70
     1
  0
XRECORD
  5
C05E
102
{ACAD_REACTORS
330
C05D
102
}
330
C05D
100
AcDbXrecord
280
     1
102
RTVSPost2010Prop28
280
     0
102
RTVSPost2010PropOp28
 70
     1
102
RTVSPost2010Prop29
280
     1
102
RTVSPost2010PropOp29
 70
     1
102
RTVSPost2010Prop30
280
     1
102
RTVSPost2010PropOp30
 70
     1
102
RTVSPost2010Prop31
280
     0
102
RTVSPost2010PropOp31
 70
     1
102
RTVSPost2010Prop32
280
     0
102
RTVSPost2010PropOp32
 70
     1
102
RTVSPost2010Prop33
280
     0
102
RTVSPost2010PropOp33
 70
     1
102
RTVSPost2010Prop34
280
     0
102
RTVSPost2010PropOp34
 70
     1
102
RTVSPost2010Prop35
280
     0
102
RTVSPost2010PropOp35
 70
     1
102
RTVSPost2010Prop36
280
     0
102
RTVSPost2010PropOp36
 70
     1
102
RTVSPost2010Prop37
 90
       50
102
RTVSPost2010PropOp37
 70
     1
102
RTVSPost2010Prop38
140
0.0
102
RTVSPost2010PropOp38
 70
     1
102
RTVSPost2010Prop39
140
1.0
102
RTVSPost2010PropOp39
 70
     1
102
RTVSPost2010Prop40
 90
        0
102
RTVSPost2010PropOp40
 70
     1
102
RTVSPost2010Prop41ColorIndex
 90
       18
102
RTVSPost2010Prop41ColorRGB
 90
        0
102
RTVSPost2010PropOp41
 70
     1
102
RTVSPost2010Prop42
 90
       50
102
RTVSPost2010PropOp42
 70
     1
102
RTVSPost2010Prop43
 90
        3
102
RTVSPost2010PropOp43
 70
     1
102
RTVSPost2010Prop44ColorIndex
 90
        5
102
RTVSPost2010Prop44ColorRGB
 90
      255
102
RTVSPost2010PropOp44
 70
     1
102
RTVSPost2010Prop45
280
     0
102
RTVSPost2010PropOp45
 70
     1
102
RTVSPost2010Prop46
 90
       50
102
RTVSPost2010PropOp46
 70
     1
102
RTVSPost2010Prop47
 90
       50
102
RTVSPost2010PropOp47
 70
     1
102
RTVSPost2010Prop48
 90
       50
102
RTVSPost2010PropOp48
 70
     1
102
RTVSPost2010Prop49
280
     0
102
RTVSPost2010PropOp49
 70
     1
102
RTVSPost2010Prop50
 90
       50
102
RTVSPost2010PropOp50
 70
     1
102
RTVSPost2010Prop51ColorIndex
 90
      256
102
RTVSPost2010Prop51ColorRGB
 90
-16777216
102
RTVSPost2010PropOp51
 70
     0
102
RTVSPost2010Prop52
140
1.0
102
RTVSPost2010PropOp52
 70
     0
102
RTVSPost2010Prop53
 90
        2
102
RTVSPost2010PropOp53
 70
     1
102
RTVSPost2010Prop54
  1
strokes_ogs.tif
102
RTVSPost2010PropOp54
 70
     1
102
RTVSPost2010Prop55
280
     0
102
RTVSPost2010PropOp55
 70
     1
102
RTVSPost2010Prop56
140
1.0
102
RTVSPost2010PropOp56
 70
     1
102
RTVSPost2010Prop57
140
1.0
102
RTVSPost2010PropOp57
 70
     1
102
RTVSPropertyOp0
 70
     1
102
RTVSPropertyOp1
 70
     1
102
RTVSPropertyOp2
 70
     1
102
RTVSPropertyOp3
 70
     1
102
RTVSPropertyOp4
 70
     1
102
RTVSPropertyOp5
 70
     1
102
RTVSPropertyOp6
 70
     1
102
RTVSPropertyOp7
 70
     1
102
RTVSPropertyOp8
 70
     1
102
RTVSPropertyOp9
 70
     1
102
RTVSPropertyOp10
 70
     1
102
RTVSPropertyOp11
 70
     1
102
RTVSPropertyOp12
 70
     1
102
RTVSPropertyOp13
 70
     1
102
RTVSPropertyOp14
 70
     1
102
RTVSPropertyOp15
 70
     1
102
RTVSPropertyOp16
 70
     1
102
RTVSPropertyOp17
 70
     1
102
RTVSPropertyOp18
 70
     1
102
RTVSPropertyOp19
 70
     1
102
RTVSPropertyOp20
 70
     1
102
RTVSPropertyOp21
 70
     1
102
RTVSPropertyOp22
 70
     1
102
RTVSPropertyOp23
 70
     1
102
RTVSPropertyOp24
 70
     1
102
RTVSPropertyOp25
 70
     1
102
RTVSPropertyOp26
 70
     1
102
RTVSPropertyOp27
 70
     1
102
RTVSPropertyOp28
 70
     1
102
RTVSPropertyOp29
 70
     1
102
RTVSPropertyOp30
 70
     1
102
RTVSPropertyOp31
 70
     1
102
RTVSPropertyOp32
 70
     1
102
RTVSPropertyOp33
 70
     1
102
RTVSPropertyOp34
 70
     1
102
RTVSPropertyOp35
 70
     1
102
RTVSPropertyOp36
 70
     1
102
RTVSPropertyOp37
 70
     1
102
RTVSPropertyOp38
 70
     1
102
RTVSPropertyOp39
 70
     1
102
RTVSPropertyOp40
 70
     1
102
RTVSPropertyOp41
 70
     1
102
RTVSPropertyOp42
 70
     1
102
RTVSPropertyOp43
 70
     1
102
RTVSPropertyOp44
 70
     1
102
RTVSPropertyOp45
 70
     1
102
RTVSPropertyOp46
 70
     1
102
RTVSPropertyOp47
 70
     1
102
RTVSPropertyOp48
 70
     1
102
RTVSPropertyOp49
 70
     1
102
RTVSPropertyOp50
 70
     1
102
RTVSPropertyOp51
 70
     0
102
RTVSPropertyOp52
 70
     0
102
RTVSPropertyOp53
 70
     1
102
RTVSPropertyOp54
 70
     1
102
RTVSPropertyOp55
 70
     1
102
RTVSPropertyOp56
 70
     1
102
RTVSPropertyOp57
 70
     1
102
RTVSPropertyOp58
 70
     1
102
RTVSPropertyOp59
 70
     1
102
RTVSPropertyOp60
 70
     1
102
RTVSPropertyOp61
 70
     1
102
RTVSPropertyOp62
 70
     1
  0
XRECORD
  5
C05C
102
{ACAD_REACTORS
330
C05B
102
}
330
C05B
100
AcDbXrecord
280
     1
102
RTVSPost2010Prop28
280
     0
102
RTVSPost2010PropOp28
 70
     1
102
RTVSPost2010Prop29
280
     1
102
RTVSPost2010PropOp29
 70
     1
102
RTVSPost2010Prop30
280
     1
102
RTVSPost2010PropOp30
 70
     1
102
RTVSPost2010Prop31
280
     0
102
RTVSPost2010PropOp31
 70
     1
102
RTVSPost2010Prop32
280
     0
102
RTVSPost2010PropOp32
 70
     1
102
RTVSPost2010Prop33
280
     0
102
RTVSPost2010PropOp33
 70
     1
102
RTVSPost2010Prop34
280
     0
102
RTVSPost2010PropOp34
 70
     1
102
RTVSPost2010Prop35
280
     0
102
RTVSPost2010PropOp35
 70
     1
102
RTVSPost2010Prop36
280
     0
102
RTVSPost2010PropOp36
 70
     1
102
RTVSPost2010Prop37
 90
       50
102
RTVSPost2010PropOp37
 70
     1
102
RTVSPost2010Prop38
140
0.0
102
RTVSPost2010PropOp38
 70
     1
102
RTVSPost2010Prop39
140
1.0
102
RTVSPost2010PropOp39
 70
     1
102
RTVSPost2010Prop40
 90
        0
102
RTVSPost2010PropOp40
 70
     1
102
RTVSPost2010Prop41ColorIndex
 90
       18
102
RTVSPost2010Prop41ColorRGB
 90
        0
102
RTVSPost2010PropOp41
 70
     1
102
RTVSPost2010Prop42
 90
       50
102
RTVSPost2010PropOp42
 70
     1
102
RTVSPost2010Prop43
 90
        3
102
RTVSPost2010PropOp43
 70
     1
102
RTVSPost2010Prop44ColorIndex
 90
        5
102
RTVSPost2010Prop44ColorRGB
 90
      255
102
RTVSPost2010PropOp44
 70
     1
102
RTVSPost2010Prop45
280
     0
102
RTVSPost2010PropOp45
 70
     1
102
RTVSPost2010Prop46
 90
       50
102
RTVSPost2010PropOp46
 70
     1
102
RTVSPost2010Prop47
 90
       50
102
RTVSPost2010PropOp47
 70
     1
102
RTVSPost2010Prop48
 90
       50
102
RTVSPost2010PropOp48
 70
     1
102
RTVSPost2010Prop49
280
     0
102
RTVSPost2010PropOp49
 70
     1
102
RTVSPost2010Prop50
 90
       50
102
RTVSPost2010PropOp50
 70
     1
102
RTVSPost2010Prop51ColorIndex
 90
      256
102
RTVSPost2010Prop51ColorRGB
 90
-16777216
102
RTVSPost2010PropOp51
 70
     0
102
RTVSPost2010Prop52
140
1.0
102
RTVSPost2010PropOp52
 70
     0
102
RTVSPost2010Prop53
 90
        2
102
RTVSPost2010PropOp53
 70
     1
102
RTVSPost2010Prop54
  1
strokes_ogs.tif
102
RTVSPost2010PropOp54
 70
     1
102
RTVSPost2010Prop55
280
     0
102
RTVSPost2010PropOp55
 70
     1
102
RTVSPost2010Prop56
140
1.0
102
RTVSPost2010PropOp56
 70
     1
102
RTVSPost2010Prop57
140
1.0
102
RTVSPost2010PropOp57
 70
     1
102
RTVSPropertyOp0
 70
     1
102
RTVSPropertyOp1
 70
     1
102
RTVSPropertyOp2
 70
     1
102
RTVSPropertyOp3
 70
     1
102
RTVSPropertyOp4
 70
     1
102
RTVSPropertyOp5
 70
     1
102
RTVSPropertyOp6
 70
     1
102
RTVSPropertyOp7
 70
     1
102
RTVSPropertyOp8
 70
     1
102
RTVSPropertyOp9
 70
     1
102
RTVSPropertyOp10
 70
     1
102
RTVSPropertyOp11
 70
     1
102
RTVSPropertyOp12
 70
     1
102
RTVSPropertyOp13
 70
     1
102
RTVSPropertyOp14
 70
     1
102
RTVSPropertyOp15
 70
     1
102
RTVSPropertyOp16
 70
     1
102
RTVSPropertyOp17
 70
     1
102
RTVSPropertyOp18
 70
     1
102
RTVSPropertyOp19
 70
     1
102
RTVSPropertyOp20
 70
     1
102
RTVSPropertyOp21
 70
     1
102
RTVSPropertyOp22
 70
     1
102
RTVSPropertyOp23
 70
     1
102
RTVSPropertyOp24
 70
     1
102
RTVSPropertyOp25
 70
     1
102
RTVSPropertyOp26
 70
     1
102
RTVSPropertyOp27
 70
     1
102
RTVSPropertyOp28
 70
     1
102
RTVSPropertyOp29
 70
     1
102
RTVSPropertyOp30
 70
     1
102
RTVSPropertyOp31
 70
     1
102
RTVSPropertyOp32
 70
     1
102
RTVSPropertyOp33
 70
     1
102
RTVSPropertyOp34
 70
     1
102
RTVSPropertyOp35
 70
     1
102
RTVSPropertyOp36
 70
     1
102
RTVSPropertyOp37
 70
     1
102
RTVSPropertyOp38
 70
     1
102
RTVSPropertyOp39
 70
     1
102
RTVSPropertyOp40
 70
     1
102
RTVSPropertyOp41
 70
     1
102
RTVSPropertyOp42
 70
     1
102
RTVSPropertyOp43
 70
     1
102
RTVSPropertyOp44
 70
     1
102
RTVSPropertyOp45
 70
     1
102
RTVSPropertyOp46
 70
     1
102
RTVSPropertyOp47
 70
     1
102
RTVSPropertyOp48
 70
     1
102
RTVSPropertyOp49
 70
     1
102
RTVSPropertyOp50
 70
     1
102
RTVSPropertyOp51
 70
     0
102
RTVSPropertyOp52
 70
     0
102
RTVSPropertyOp53
 70
     1
102
RTVSPropertyOp54
 70
     1
102
RTVSPropertyOp55
 70
     1
102
RTVSPropertyOp56
 70
     1
102
RTVSPropertyOp57
 70
     1
102
RTVSPropertyOp58
 70
     1
102
RTVSPropertyOp59
 70
     1
102
RTVSPropertyOp60
 70
     1
102
RTVSPropertyOp61
 70
     1
102
RTVSPropertyOp62
 70
     1
  0
XRECORD
  5
C056
102
{ACAD_REACTORS
330
C055
102
}
330
C055
100
AcDbXrecord
280
     1
102
RTVSPost2010Prop28
280
     0
102
RTVSPost2010PropOp28
 70
     1
102
RTVSPost2010Prop29
280
     1
102
RTVSPost2010PropOp29
 70
     1
102
RTVSPost2010Prop30
280
     1
102
RTVSPost2010PropOp30
 70
     1
102
RTVSPost2010Prop31
280
     0
102
RTVSPost2010PropOp31
 70
     1
102
RTVSPost2010Prop32
280
     0
102
RTVSPost2010PropOp32
 70
     1
102
RTVSPost2010Prop33
280
     0
102
RTVSPost2010PropOp33
 70
     1
102
RTVSPost2010Prop34
280
     0
102
RTVSPost2010PropOp34
 70
     1
102
RTVSPost2010Prop35
280
     0
102
RTVSPost2010PropOp35
 70
     1
102
RTVSPost2010Prop36
280
     0
102
RTVSPost2010PropOp36
 70
     1
102
RTVSPost2010Prop37
 90
       50
102
RTVSPost2010PropOp37
 70
     1
102
RTVSPost2010Prop38
140
0.0
102
RTVSPost2010PropOp38
 70
     1
102
RTVSPost2010Prop39
140
1.0
102
RTVSPost2010PropOp39
 70
     1
102
RTVSPost2010Prop40
 90
        0
102
RTVSPost2010PropOp40
 70
     1
102
RTVSPost2010Prop41ColorIndex
 90
       18
102
RTVSPost2010Prop41ColorRGB
 90
        0
102
RTVSPost2010PropOp41
 70
     1
102
RTVSPost2010Prop42
 90
       50
102
RTVSPost2010PropOp42
 70
     1
102
RTVSPost2010Prop43
 90
        3
102
RTVSPost2010PropOp43
 70
     1
102
RTVSPost2010Prop44ColorIndex
 90
        5
102
RTVSPost2010Prop44ColorRGB
 90
      255
102
RTVSPost2010PropOp44
 70
     1
102
RTVSPost2010Prop45
280
     0
102
RTVSPost2010PropOp45
 70
     1
102
RTVSPost2010Prop46
 90
       50
102
RTVSPost2010PropOp46
 70
     1
102
RTVSPost2010Prop47
 90
       50
102
RTVSPost2010PropOp47
 70
     1
102
RTVSPost2010Prop48
 90
       50
102
RTVSPost2010PropOp48
 70
     1
102
RTVSPost2010Prop49
280
     0
102
RTVSPost2010PropOp49
 70
     1
102
RTVSPost2010Prop50
 90
       50
102
RTVSPost2010PropOp50
 70
     1
102
RTVSPost2010Prop51ColorIndex
 90
      256
102
RTVSPost2010Prop51ColorRGB
 90
-16777216
102
RTVSPost2010PropOp51
 70
     0
102
RTVSPost2010Prop52
140
1.0
102
RTVSPost2010PropOp52
 70
     0
102
RTVSPost2010Prop53
 90
        2
102
RTVSPost2010PropOp53
 70
     1
102
RTVSPost2010Prop54
  1
strokes_ogs.tif
102
RTVSPost2010PropOp54
 70
     1
102
RTVSPost2010Prop55
280
     0
102
RTVSPost2010PropOp55
 70
     1
102
RTVSPost2010Prop56
140
1.0
102
RTVSPost2010PropOp56
 70
     1
102
RTVSPost2010Prop57
140
1.0
102
RTVSPost2010PropOp57
 70
     1
102
RTVSPropertyOp0
 70
     1
102
RTVSPropertyOp1
 70
     1
102
RTVSPropertyOp2
 70
     1
102
RTVSPropertyOp3
 70
     1
102
RTVSPropertyOp4
 70
     1
102
RTVSPropertyOp5
 70
     1
102
RTVSPropertyOp6
 70
     1
102
RTVSPropertyOp7
 70
     1
102
RTVSPropertyOp8
 70
     1
102
RTVSPropertyOp9
 70
     1
102
RTVSPropertyOp10
 70
     1
102
RTVSPropertyOp11
 70
     1
102
RTVSPropertyOp12
 70
     1
102
RTVSPropertyOp13
 70
     1
102
RTVSPropertyOp14
 70
     1
102
RTVSPropertyOp15
 70
     1
102
RTVSPropertyOp16
 70
     1
102
RTVSPropertyOp17
 70
     1
102
RTVSPropertyOp18
 70
     1
102
RTVSPropertyOp19
 70
     1
102
RTVSPropertyOp20
 70
     1
102
RTVSPropertyOp21
 70
     1
102
RTVSPropertyOp22
 70
     1
102
RTVSPropertyOp23
 70
     1
102
RTVSPropertyOp24
 70
     1
102
RTVSPropertyOp25
 70
     1
102
RTVSPropertyOp26
 70
     1
102
RTVSPropertyOp27
 70
     1
102
RTVSPropertyOp28
 70
     1
102
RTVSPropertyOp29
 70
     1
102
RTVSPropertyOp30
 70
     1
102
RTVSPropertyOp31
 70
     1
102
RTVSPropertyOp32
 70
     1
102
RTVSPropertyOp33
 70
     1
102
RTVSPropertyOp34
 70
     1
102
RTVSPropertyOp35
 70
     1
102
RTVSPropertyOp36
 70
     1
102
RTVSPropertyOp37
 70
     1
102
RTVSPropertyOp38
 70
     1
102
RTVSPropertyOp39
 70
     1
102
RTVSPropertyOp40
 70
     1
102
RTVSPropertyOp41
 70
     1
102
RTVSPropertyOp42
 70
     1
102
RTVSPropertyOp43
 70
     1
102
RTVSPropertyOp44
 70
     1
102
RTVSPropertyOp45
 70
     1
102
RTVSPropertyOp46
 70
     1
102
RTVSPropertyOp47
 70
     1
102
RTVSPropertyOp48
 70
     1
102
RTVSPropertyOp49
 70
     1
102
RTVSPropertyOp50
 70
     1
102
RTVSPropertyOp51
 70
     0
102
RTVSPropertyOp52
 70
     0
102
RTVSPropertyOp53
 70
     1
102
RTVSPropertyOp54
 70
     1
102
RTVSPropertyOp55
 70
     1
102
RTVSPropertyOp56
 70
     1
102
RTVSPropertyOp57
 70
     1
102
RTVSPropertyOp58
 70
     1
102
RTVSPropertyOp59
 70
     1
102
RTVSPropertyOp60
 70
     1
102
RTVSPropertyOp61
 70
     1
102
RTVSPropertyOp62
 70
     1
  0
XRECORD
  5
C058
102
{ACAD_REACTORS
330
C057
102
}
330
C057
100
AcDbXrecord
280
     1
102
RTVSPost2010Prop28
280
     0
102
RTVSPost2010PropOp28
 70
     1
102
RTVSPost2010Prop29
280
     1
102
RTVSPost2010PropOp29
 70
     1
102
RTVSPost2010Prop30
280
     1
102
RTVSPost2010PropOp30
 70
     1
102
RTVSPost2010Prop31
280
     0
102
RTVSPost2010PropOp31
 70
     1
102
RTVSPost2010Prop32
280
     0
102
RTVSPost2010PropOp32
 70
     1
102
RTVSPost2010Prop33
280
     0
102
RTVSPost2010PropOp33
 70
     1
102
RTVSPost2010Prop34
280
     0
102
RTVSPost2010PropOp34
 70
     1
102
RTVSPost2010Prop35
280
     0
102
RTVSPost2010PropOp35
 70
     1
102
RTVSPost2010Prop36
280
     0
102
RTVSPost2010PropOp36
 70
     1
102
RTVSPost2010Prop37
 90
       50
102
RTVSPost2010PropOp37
 70
     1
102
RTVSPost2010Prop38
140
0.0
102
RTVSPost2010PropOp38
 70
     1
102
RTVSPost2010Prop39
140
1.0
102
RTVSPost2010PropOp39
 70
     1
102
RTVSPost2010Prop40
 90
        0
102
RTVSPost2010PropOp40
 70
     1
102
RTVSPost2010Prop41ColorIndex
 90
       18
102
RTVSPost2010Prop41ColorRGB
 90
        0
102
RTVSPost2010PropOp41
 70
     1
102
RTVSPost2010Prop42
 90
       50
102
RTVSPost2010PropOp42
 70
     1
102
RTVSPost2010Prop43
 90
        3
102
RTVSPost2010PropOp43
 70
     1
102
RTVSPost2010Prop44ColorIndex
 90
        5
102
RTVSPost2010Prop44ColorRGB
 90
      255
102
RTVSPost2010PropOp44
 70
     1
102
RTVSPost2010Prop45
280
     0
102
RTVSPost2010PropOp45
 70
     1
102
RTVSPost2010Prop46
 90
       50
102
RTVSPost2010PropOp46
 70
     1
102
RTVSPost2010Prop47
 90
       50
102
RTVSPost2010PropOp47
 70
     1
102
RTVSPost2010Prop48
 90
       50
102
RTVSPost2010PropOp48
 70
     1
102
RTVSPost2010Prop49
280
     0
102
RTVSPost2010PropOp49
 70
     1
102
RTVSPost2010Prop50
 90
       50
102
RTVSPost2010PropOp50
 70
     1
102
RTVSPost2010Prop51ColorIndex
 90
      256
102
RTVSPost2010Prop51ColorRGB
 90
-16777216
102
RTVSPost2010PropOp51
 70
     0
102
RTVSPost2010Prop52
140
1.0
102
RTVSPost2010PropOp52
 70
     0
102
RTVSPost2010Prop53
 90
        2
102
RTVSPost2010PropOp53
 70
     1
102
RTVSPost2010Prop54
  1
strokes_ogs.tif
102
RTVSPost2010PropOp54
 70
     1
102
RTVSPost2010Prop55
280
     0
102
RTVSPost2010PropOp55
 70
     1
102
RTVSPost2010Prop56
140
1.0
102
RTVSPost2010PropOp56
 70
     1
102
RTVSPost2010Prop57
140
1.0
102
RTVSPost2010PropOp57
 70
     1
102
RTVSPropertyOp0
 70
     1
102
RTVSPropertyOp1
 70
     1
102
RTVSPropertyOp2
 70
     1
102
RTVSPropertyOp3
 70
     1
102
RTVSPropertyOp4
 70
     1
102
RTVSPropertyOp5
 70
     1
102
RTVSPropertyOp6
 70
     1
102
RTVSPropertyOp7
 70
     1
102
RTVSPropertyOp8
 70
     1
102
RTVSPropertyOp9
 70
     1
102
RTVSPropertyOp10
 70
     1
102
RTVSPropertyOp11
 70
     1
102
RTVSPropertyOp12
 70
     1
102
RTVSPropertyOp13
 70
     1
102
RTVSPropertyOp14
 70
     1
102
RTVSPropertyOp15
 70
     1
102
RTVSPropertyOp16
 70
     1
102
RTVSPropertyOp17
 70
     1
102
RTVSPropertyOp18
 70
     1
102
RTVSPropertyOp19
 70
     1
102
RTVSPropertyOp20
 70
     1
102
RTVSPropertyOp21
 70
     1
102
RTVSPropertyOp22
 70
     1
102
RTVSPropertyOp23
 70
     1
102
RTVSPropertyOp24
 70
     1
102
RTVSPropertyOp25
 70
     1
102
RTVSPropertyOp26
 70
     1
102
RTVSPropertyOp27
 70
     1
102
RTVSPropertyOp28
 70
     1
102
RTVSPropertyOp29
 70
     1
102
RTVSPropertyOp30
 70
     1
102
RTVSPropertyOp31
 70
     1
102
RTVSPropertyOp32
 70
     1
102
RTVSPropertyOp33
 70
     1
102
RTVSPropertyOp34
 70
     1
102
RTVSPropertyOp35
 70
     1
102
RTVSPropertyOp36
 70
     1
102
RTVSPropertyOp37
 70
     1
102
RTVSPropertyOp38
 70
     1
102
RTVSPropertyOp39
 70
     1
102
RTVSPropertyOp40
 70
     1
102
RTVSPropertyOp41
 70
     1
102
RTVSPropertyOp42
 70
     1
102
RTVSPropertyOp43
 70
     1
102
RTVSPropertyOp44
 70
     1
102
RTVSPropertyOp45
 70
     1
102
RTVSPropertyOp46
 70
     1
102
RTVSPropertyOp47
 70
     1
102
RTVSPropertyOp48
 70
     1
102
RTVSPropertyOp49
 70
     1
102
RTVSPropertyOp50
 70
     1
102
RTVSPropertyOp51
 70
     0
102
RTVSPropertyOp52
 70
     0
102
RTVSPropertyOp53
 70
     1
102
RTVSPropertyOp54
 70
     1
102
RTVSPropertyOp55
 70
     1
102
RTVSPropertyOp56
 70
     1
102
RTVSPropertyOp57
 70
     1
102
RTVSPropertyOp58
 70
     1
102
RTVSPropertyOp59
 70
     1
102
RTVSPropertyOp60
 70
     1
102
RTVSPropertyOp61
 70
     1
102
RTVSPropertyOp62
 70
     1
  0
XRECORD
  5
C04E
102
{ACAD_REACTORS
330
C04D
102
}
330
C04D
100
AcDbXrecord
280
     1
102
RTVSPost2010Prop28
280
     0
102
RTVSPost2010PropOp28
 70
     1
102
RTVSPost2010Prop29
280
     1
102
RTVSPost2010PropOp29
 70
     1
102
RTVSPost2010Prop30
280
     1
102
RTVSPost2010PropOp30
 70
     1
102
RTVSPost2010Prop31
280
     0
102
RTVSPost2010PropOp31
 70
     1
102
RTVSPost2010Prop32
280
     0
102
RTVSPost2010PropOp32
 70
     1
102
RTVSPost2010Prop33
280
     0
102
RTVSPost2010PropOp33
 70
     1
102
RTVSPost2010Prop34
280
     0
102
RTVSPost2010PropOp34
 70
     1
102
RTVSPost2010Prop35
280
     0
102
RTVSPost2010PropOp35
 70
     1
102
RTVSPost2010Prop36
280
     0
102
RTVSPost2010PropOp36
 70
     1
102
RTVSPost2010Prop37
 90
       50
102
RTVSPost2010PropOp37
 70
     1
102
RTVSPost2010Prop38
140
0.0
102
RTVSPost2010PropOp38
 70
     1
102
RTVSPost2010Prop39
140
1.0
102
RTVSPost2010PropOp39
 70
     1
102
RTVSPost2010Prop40
 90
        0
102
RTVSPost2010PropOp40
 70
     1
102
RTVSPost2010Prop41ColorIndex
 90
       18
102
RTVSPost2010Prop41ColorRGB
 90
        0
102
RTVSPost2010PropOp41
 70
     1
102
RTVSPost2010Prop42
 90
       50
102
RTVSPost2010PropOp42
 70
     1
102
RTVSPost2010Prop43
 90
        3
102
RTVSPost2010PropOp43
 70
     1
102
RTVSPost2010Prop44ColorIndex
 90
        5
102
RTVSPost2010Prop44ColorRGB
 90
      255
102
RTVSPost2010PropOp44
 70
     1
102
RTVSPost2010Prop45
280
     0
102
RTVSPost2010PropOp45
 70
     1
102
RTVSPost2010Prop46
 90
       50
102
RTVSPost2010PropOp46
 70
     1
102
RTVSPost2010Prop47
 90
       50
102
RTVSPost2010PropOp47
 70
     1
102
RTVSPost2010Prop48
 90
       50
102
RTVSPost2010PropOp48
 70
     1
102
RTVSPost2010Prop49
280
     0
102
RTVSPost2010PropOp49
 70
     1
102
RTVSPost2010Prop50
 90
       50
102
RTVSPost2010PropOp50
 70
     1
102
RTVSPost2010Prop51ColorIndex
 90
      256
102
RTVSPost2010Prop51ColorRGB
 90
-16777216
102
RTVSPost2010PropOp51
 70
     0
102
RTVSPost2010Prop52
140
1.0
102
RTVSPost2010PropOp52
 70
     0
102
RTVSPost2010Prop53
 90
        2
102
RTVSPost2010PropOp53
 70
     1
102
RTVSPost2010Prop54
  1
strokes_ogs.tif
102
RTVSPost2010PropOp54
 70
     1
102
RTVSPost2010Prop55
280
     0
102
RTVSPost2010PropOp55
 70
     1
102
RTVSPost2010Prop56
140
1.0
102
RTVSPost2010PropOp56
 70
     1
102
RTVSPost2010Prop57
140
1.0
102
RTVSPost2010PropOp57
 70
     1
102
RTVSPropertyOp0
 70
     1
102
RTVSPropertyOp1
 70
     1
102
RTVSPropertyOp2
 70
     1
102
RTVSPropertyOp3
 70
     1
102
RTVSPropertyOp4
 70
     1
102
RTVSPropertyOp5
 70
     1
102
RTVSPropertyOp6
 70
     1
102
RTVSPropertyOp7
 70
     1
102
RTVSPropertyOp8
 70
     1
102
RTVSPropertyOp9
 70
     1
102
RTVSPropertyOp10
 70
     1
102
RTVSPropertyOp11
 70
     1
102
RTVSPropertyOp12
 70
     1
102
RTVSPropertyOp13
 70
     1
102
RTVSPropertyOp14
 70
     1
102
RTVSPropertyOp15
 70
     1
102
RTVSPropertyOp16
 70
     1
102
RTVSPropertyOp17
 70
     1
102
RTVSPropertyOp18
 70
     1
102
RTVSPropertyOp19
 70
     1
102
RTVSPropertyOp20
 70
     1
102
RTVSPropertyOp21
 70
     1
102
RTVSPropertyOp22
 70
     1
102
RTVSPropertyOp23
 70
     1
102
RTVSPropertyOp24
 70
     1
102
RTVSPropertyOp25
 70
     1
102
RTVSPropertyOp26
 70
     1
102
RTVSPropertyOp27
 70
     1
102
RTVSPropertyOp28
 70
     1
102
RTVSPropertyOp29
 70
     1
102
RTVSPropertyOp30
 70
     1
102
RTVSPropertyOp31
 70
     1
102
RTVSPropertyOp32
 70
     1
102
RTVSPropertyOp33
 70
     1
102
RTVSPropertyOp34
 70
     1
102
RTVSPropertyOp35
 70
     1
102
RTVSPropertyOp36
 70
     1
102
RTVSPropertyOp37
 70
     1
102
RTVSPropertyOp38
 70
     1
102
RTVSPropertyOp39
 70
     1
102
RTVSPropertyOp40
 70
     1
102
RTVSPropertyOp41
 70
     1
102
RTVSPropertyOp42
 70
     1
102
RTVSPropertyOp43
 70
     1
102
RTVSPropertyOp44
 70
     1
102
RTVSPropertyOp45
 70
     1
102
RTVSPropertyOp46
 70
     1
102
RTVSPropertyOp47
 70
     1
102
RTVSPropertyOp48
 70
     1
102
RTVSPropertyOp49
 70
     1
102
RTVSPropertyOp50
 70
     1
102
RTVSPropertyOp51
 70
     0
102
RTVSPropertyOp52
 70
     0
102
RTVSPropertyOp53
 70
     1
102
RTVSPropertyOp54
 70
     1
102
RTVSPropertyOp55
 70
     1
102
RTVSPropertyOp56
 70
     1
102
RTVSPropertyOp57
 70
     1
102
RTVSPropertyOp58
 70
     1
102
RTVSPropertyOp59
 70
     1
102
RTVSPropertyOp60
 70
     1
102
RTVSPropertyOp61
 70
     1
102
RTVSPropertyOp62
 70
     1
  0
XRECORD
  5
C042
102
{ACAD_REACTORS
330
C041
102
}
330
C041
100
AcDbXrecord
280
     1
102
RTVSPost2010Prop28
280
     0
102
RTVSPost2010PropOp28
 70
     1
102
RTVSPost2010Prop29
280
     1
102
RTVSPost2010PropOp29
 70
     1
102
RTVSPost2010Prop30
280
     1
102
RTVSPost2010PropOp30
 70
     1
102
RTVSPost2010Prop31
280
     0
102
RTVSPost2010PropOp31
 70
     1
102
RTVSPost2010Prop32
280
     0
102
RTVSPost2010PropOp32
 70
     1
102
RTVSPost2010Prop33
280
     0
102
RTVSPost2010PropOp33
 70
     1
102
RTVSPost2010Prop34
280
     0
102
RTVSPost2010PropOp34
 70
     1
102
RTVSPost2010Prop35
280
     0
102
RTVSPost2010PropOp35
 70
     1
102
RTVSPost2010Prop36
280
     0
102
RTVSPost2010PropOp36
 70
     1
102
RTVSPost2010Prop37
 90
       50
102
RTVSPost2010PropOp37
 70
     1
102
RTVSPost2010Prop38
140
0.0
102
RTVSPost2010PropOp38
 70
     1
102
RTVSPost2010Prop39
140
1.0
102
RTVSPost2010PropOp39
 70
     1
102
RTVSPost2010Prop40
 90
        0
102
RTVSPost2010PropOp40
 70
     1
102
RTVSPost2010Prop41ColorIndex
 90
       18
102
RTVSPost2010Prop41ColorRGB
 90
        0
102
RTVSPost2010PropOp41
 70
     1
102
RTVSPost2010Prop42
 90
       50
102
RTVSPost2010PropOp42
 70
     1
102
RTVSPost2010Prop43
 90
        3
102
RTVSPost2010PropOp43
 70
     1
102
RTVSPost2010Prop44ColorIndex
 90
        5
102
RTVSPost2010Prop44ColorRGB
 90
      255
102
RTVSPost2010PropOp44
 70
     1
102
RTVSPost2010Prop45
280
     0
102
RTVSPost2010PropOp45
 70
     1
102
RTVSPost2010Prop46
 90
       50
102
RTVSPost2010PropOp46
 70
     1
102
RTVSPost2010Prop47
 90
       50
102
RTVSPost2010PropOp47
 70
     1
102
RTVSPost2010Prop48
 90
       50
102
RTVSPost2010PropOp48
 70
     1
102
RTVSPost2010Prop49
280
     0
102
RTVSPost2010PropOp49
 70
     1
102
RTVSPost2010Prop50
 90
       50
102
RTVSPost2010PropOp50
 70
     1
102
RTVSPost2010Prop51ColorIndex
 90
      256
102
RTVSPost2010Prop51ColorRGB
 90
-16777216
102
RTVSPost2010PropOp51
 70
     0
102
RTVSPost2010Prop52
140
1.0
102
RTVSPost2010PropOp52
 70
     0
102
RTVSPost2010Prop53
 90
        2
102
RTVSPost2010PropOp53
 70
     1
102
RTVSPost2010Prop54
  1
strokes_ogs.tif
102
RTVSPost2010PropOp54
 70
     1
102
RTVSPost2010Prop55
280
     0
102
RTVSPost2010PropOp55
 70
     1
102
RTVSPost2010Prop56
140
1.0
102
RTVSPost2010PropOp56
 70
     1
102
RTVSPost2010Prop57
140
1.0
102
RTVSPost2010PropOp57
 70
     1
102
RTVSPropertyOp0
 70
     1
102
RTVSPropertyOp1
 70
     1
102
RTVSPropertyOp2
 70
     1
102
RTVSPropertyOp3
 70
     1
102
RTVSPropertyOp4
 70
     1
102
RTVSPropertyOp5
 70
     1
102
RTVSPropertyOp6
 70
     1
102
RTVSPropertyOp7
 70
     1
102
RTVSPropertyOp8
 70
     1
102
RTVSPropertyOp9
 70
     1
102
RTVSPropertyOp10
 70
     1
102
RTVSPropertyOp11
 70
     1
102
RTVSPropertyOp12
 70
     1
102
RTVSPropertyOp13
 70
     1
102
RTVSPropertyOp14
 70
     1
102
RTVSPropertyOp15
 70
     1
102
RTVSPropertyOp16
 70
     1
102
RTVSPropertyOp17
 70
     1
102
RTVSPropertyOp18
 70
     1
102
RTVSPropertyOp19
 70
     1
102
RTVSPropertyOp20
 70
     1
102
RTVSPropertyOp21
 70
     1
102
RTVSPropertyOp22
 70
     1
102
RTVSPropertyOp23
 70
     1
102
RTVSPropertyOp24
 70
     1
102
RTVSPropertyOp25
 70
     1
102
RTVSPropertyOp26
 70
     1
102
RTVSPropertyOp27
 70
     1
102
RTVSPropertyOp28
 70
     1
102
RTVSPropertyOp29
 70
     1
102
RTVSPropertyOp30
 70
     1
102
RTVSPropertyOp31
 70
     1
102
RTVSPropertyOp32
 70
     1
102
RTVSPropertyOp33
 70
     1
102
RTVSPropertyOp34
 70
     1
102
RTVSPropertyOp35
 70
     1
102
RTVSPropertyOp36
 70
     1
102
RTVSPropertyOp37
 70
     1
102
RTVSPropertyOp38
 70
     1
102
RTVSPropertyOp39
 70
     1
102
RTVSPropertyOp40
 70
     1
102
RTVSPropertyOp41
 70
     1
102
RTVSPropertyOp42
 70
     1
102
RTVSPropertyOp43
 70
     1
102
RTVSPropertyOp44
 70
     1
102
RTVSPropertyOp45
 70
     1
102
RTVSPropertyOp46
 70
     1
102
RTVSPropertyOp47
 70
     1
102
RTVSPropertyOp48
 70
     1
102
RTVSPropertyOp49
 70
     1
102
RTVSPropertyOp50
 70
     1
102
RTVSPropertyOp51
 70
     0
102
RTVSPropertyOp52
 70
     0
102
RTVSPropertyOp53
 70
     1
102
RTVSPropertyOp54
 70
     1
102
RTVSPropertyOp55
 70
     1
102
RTVSPropertyOp56
 70
     1
102
RTVSPropertyOp57
 70
     1
102
RTVSPropertyOp58
 70
     1
102
RTVSPropertyOp59
 70
     1
102
RTVSPropertyOp60
 70
     1
102
RTVSPropertyOp61
 70
     1
102
RTVSPropertyOp62
 70
     1
  0
XRECORD
  5
C05A
102
{ACAD_REACTORS
330
C059
102
}
330
C059
100
AcDbXrecord
280
     1
102
RTVSPost2010Prop28
280
     0
102
RTVSPost2010PropOp28
 70
     1
102
RTVSPost2010Prop29
280
     1
102
RTVSPost2010PropOp29
 70
     1
102
RTVSPost2010Prop30
280
     1
102
RTVSPost2010PropOp30
 70
     1
102
RTVSPost2010Prop31
280
     0
102
RTVSPost2010PropOp31
 70
     1
102
RTVSPost2010Prop32
280
     0
102
RTVSPost2010PropOp32
 70
     1
102
RTVSPost2010Prop33
280
     0
102
RTVSPost2010PropOp33
 70
     1
102
RTVSPost2010Prop34
280
     0
102
RTVSPost2010PropOp34
 70
     1
102
RTVSPost2010Prop35
280
     0
102
RTVSPost2010PropOp35
 70
     1
102
RTVSPost2010Prop36
280
     0
102
RTVSPost2010PropOp36
 70
     1
102
RTVSPost2010Prop37
 90
       50
102
RTVSPost2010PropOp37
 70
     1
102
RTVSPost2010Prop38
140
0.0
102
RTVSPost2010PropOp38
 70
     1
102
RTVSPost2010Prop39
140
1.0
102
RTVSPost2010PropOp39
 70
     1
102
RTVSPost2010Prop40
 90
        0
102
RTVSPost2010PropOp40
 70
     1
102
RTVSPost2010Prop41ColorIndex
 90
       18
102
RTVSPost2010Prop41ColorRGB
 90
        0
102
RTVSPost2010PropOp41
 70
     1
102
RTVSPost2010Prop42
 90
       50
102
RTVSPost2010PropOp42
 70
     1
102
RTVSPost2010Prop43
 90
        3
102
RTVSPost2010PropOp43
 70
     1
102
RTVSPost2010Prop44ColorIndex
 90
        5
102
RTVSPost2010Prop44ColorRGB
 90
      255
102
RTVSPost2010PropOp44
 70
     1
102
RTVSPost2010Prop45
280
     0
102
RTVSPost2010PropOp45
 70
     1
102
RTVSPost2010Prop46
 90
       50
102
RTVSPost2010PropOp46
 70
     1
102
RTVSPost2010Prop47
 90
       50
102
RTVSPost2010PropOp47
 70
     1
102
RTVSPost2010Prop48
 90
       50
102
RTVSPost2010PropOp48
 70
     1
102
RTVSPost2010Prop49
280
     0
102
RTVSPost2010PropOp49
 70
     1
102
RTVSPost2010Prop50
 90
       50
102
RTVSPost2010PropOp50
 70
     1
102
RTVSPost2010Prop51ColorIndex
 90
      256
102
RTVSPost2010Prop51ColorRGB
 90
-16777216
102
RTVSPost2010PropOp51
 70
     0
102
RTVSPost2010Prop52
140
1.0
102
RTVSPost2010PropOp52
 70
     0
102
RTVSPost2010Prop53
 90
        2
102
RTVSPost2010PropOp53
 70
     1
102
RTVSPost2010Prop54
  1
strokes_ogs.tif
102
RTVSPost2010PropOp54
 70
     1
102
RTVSPost2010Prop55
280
     0
102
RTVSPost2010PropOp55
 70
     1
102
RTVSPost2010Prop56
140
1.0
102
RTVSPost2010PropOp56
 70
     1
102
RTVSPost2010Prop57
140
1.0
102
RTVSPost2010PropOp57
 70
     1
102
RTVSPropertyOp0
 70
     1
102
RTVSPropertyOp1
 70
     1
102
RTVSPropertyOp2
 70
     1
102
RTVSPropertyOp3
 70
     1
102
RTVSPropertyOp4
 70
     1
102
RTVSPropertyOp5
 70
     1
102
RTVSPropertyOp6
 70
     1
102
RTVSPropertyOp7
 70
     1
102
RTVSPropertyOp8
 70
     1
102
RTVSPropertyOp9
 70
     1
102
RTVSPropertyOp10
 70
     1
102
RTVSPropertyOp11
 70
     1
102
RTVSPropertyOp12
 70
     1
102
RTVSPropertyOp13
 70
     1
102
RTVSPropertyOp14
 70
     1
102
RTVSPropertyOp15
 70
     1
102
RTVSPropertyOp16
 70
     1
102
RTVSPropertyOp17
 70
     1
102
RTVSPropertyOp18
 70
     1
102
RTVSPropertyOp19
 70
     1
102
RTVSPropertyOp20
 70
     1
102
RTVSPropertyOp21
 70
     1
102
RTVSPropertyOp22
 70
     1
102
RTVSPropertyOp23
 70
     1
102
RTVSPropertyOp24
 70
     1
102
RTVSPropertyOp25
 70
     1
102
RTVSPropertyOp26
 70
     1
102
RTVSPropertyOp27
 70
     1
102
RTVSPropertyOp28
 70
     1
102
RTVSPropertyOp29
 70
     1
102
RTVSPropertyOp30
 70
     1
102
RTVSPropertyOp31
 70
     1
102
RTVSPropertyOp32
 70
     1
102
RTVSPropertyOp33
 70
     1
102
RTVSPropertyOp34
 70
     1
102
RTVSPropertyOp35
 70
     1
102
RTVSPropertyOp36
 70
     1
102
RTVSPropertyOp37
 70
     1
102
RTVSPropertyOp38
 70
     1
102
RTVSPropertyOp39
 70
     1
102
RTVSPropertyOp40
 70
     1
102
RTVSPropertyOp41
 70
     1
102
RTVSPropertyOp42
 70
     1
102
RTVSPropertyOp43
 70
     1
102
RTVSPropertyOp44
 70
     1
102
RTVSPropertyOp45
 70
     1
102
RTVSPropertyOp46
 70
     1
102
RTVSPropertyOp47
 70
     1
102
RTVSPropertyOp48
 70
     1
102
RTVSPropertyOp49
 70
     1
102
RTVSPropertyOp50
 70
     1
102
RTVSPropertyOp51
 70
     0
102
RTVSPropertyOp52
 70
     0
102
RTVSPropertyOp53
 70
     1
102
RTVSPropertyOp54
 70
     1
102
RTVSPropertyOp55
 70
     1
102
RTVSPropertyOp56
 70
     1
102
RTVSPropertyOp57
 70
     1
102
RTVSPropertyOp58
 70
     1
102
RTVSPropertyOp59
 70
     1
102
RTVSPropertyOp60
 70
     1
102
RTVSPropertyOp61
 70
     1
102
RTVSPropertyOp62
 70
     1
  0
ENDSEC
  0
EOF
