  0
SECTION
  2
HEADER
  9
$ACADVER
  1
AC1015
  9
$ACADMAINTVER
 70
    20
  9
$DWGCODEPAGE
  3
ANSI_932
  9
$INSBASE
 10
0.0
 20
0.0
 30
0.0
  9
$EXTMIN
 10
10.0
 20
9.999999999999998
 30
0.0
  9
$EXTMAX
 10
385.56178
 20
285.2174619999999
 30
0.0
  9
$LIMMIN
 10
0.0
 20
0.0
  9
$LIMMAX
 10
495.0
 20
341.25
  9
$ORTHOMODE
 70
     1
  9
$REGENMODE
 70
     1
  9
$FILLMODE
 70
     1
  9
$QTEXTMODE
 70
     0
  9
$MIRRTEXT
 70
     1
  9
$LTSCALE
 40
20.0
  9
$ATTMODE
 70
     1
  9
$TEXTSIZE
 40
5.0
  9
$TRACEWID
 40
1.0
  9
$TEXTSTYLE
  7
STANDARD
  9
$CLAYER
  8
0
  9
$CELTYPE
  6
BYLAYER
  9
$CECOLOR
 62
   256
  9
$CELTSCALE
 40
1.0
  9
$DISPSILH
 70
     0
  9
$DIMSCALE
 40
1.0
  9
$DIMASZ
 40
3.0
  9
$DIMEXO
 40
1.0
  9
$DIMDLI
 40
10.0
  9
$DIMRND
 40
0.0
  9
$DIMDLE
 40
0.0
  9
$DIMEXE
 40
1.0
  9
$DIMTP
 40
0.0
  9
$DIMTM
 40
0.0
  9
$DIMTXT
 40
3.2
  9
$DIMCEN
 40
0.0
  9
$DIMTSZ
 40
0.0
  9
$DIMTOL
 70
     0
  9
$DIMLIM
 70
     0
  9
$DIMTIH
 70
     0
  9
$DIMTOH
 70
     0
  9
$DIMSE1
 70
     0
  9
$DIMSE2
 70
     0
  9
$DIMTAD
 70
     3
  9
$DIMZIN
 70
     8
  9
$DIMBLK
  1

  9
$DIMASO
 70
     1
  9
$DIMSHO
 70
     1
  9
$DIMPOST
  1

  9
$DIMAPOST
  1

  9
$DIMALT
 70
     0
  9
$DIMALTD
 70
     2
  9
$DIMALTF
 40
25.4
  9
$DIMLFAC
 40
1.0
  9
$DIMTOFL
 70
     1
  9
$DIMTVP
 40
0.0
  9
$DIMTIX
 70
     0
  9
$DIMSOXD
 70
     0
  9
$DIMSAH
 70
     1
  9
$DIMBLK1
  1
OPEN
  9
$DIMBLK2
  1
OPEN
  9
$DIMSTYLE
  2
STANDARD
  9
$DIMCLRD
 70
     0
  9
$DIMCLRE
 70
     0
  9
$DIMCLRT
 70
     0
  9
$DIMTFAC
 40
1.0
  9
$DIMGAP
 40
1.0
  9
$DIMJUST
 70
     0
  9
$DIMSD1
 70
     0
  9
$DIMSD2
 70
     0
  9
$DIMTOLJ
 70
     1
  9
$DIMTZIN
 70
     0
  9
$DIMALTZ
 70
     0
  9
$DIMALTTZ
 70
     0
  9
$DIMUPT
 70
     0
  9
$DIMDEC
 70
     4
  9
$DIMTDEC
 70
     4
  9
$DIMALTU
 70
     2
  9
$DIMALTTD
 70
     2
  9
$DIMTXSTY
  7
STANDARD
  9
$DIMAUNIT
 70
     0
  9
$DIMADEC
 70
     0
  9
$DIMALTRND
 40
0.0
  9
$DIMAZIN
 70
     0
  9
$DIMDSEP
 70
    46
  9
$DIMATFIT
 70
     3
  9
$DIMFRAC
 70
     0
  9
$DIMLDRBLK
  1
OPEN
  9
$DIMLUNIT
 70
     2
  9
$DIMLWD
 70
    -2
  9
$DIMLWE
 70
    -2
  9
$DIMTMOVE
 70
     0
  9
$LUNITS
 70
     2
  9
$LUPREC
 70
     4
  9
$SKETCHINC
 40
1.0
  9
$FILLETRAD
 40
0.0
  9
$AUNITS
 70
     0
  9
$AUPREC
 70
     2
  9
$MENU
  1
.
  9
$ELEVATION
 40
0.0
  9
$PELEVATION
 40
0.0
  9
$THICKNESS
 40
0.0
  9
$LIMCHECK
 70
     0
  9
$CHAMFERA
 40
10.0
  9
$CHAMFERB
 40
10.0
  9
$CHAMFERC
 40
0.0
  9
$CHAMFERD
 40
0.0
  9
$SKPOLY
 70
     0
  9
$TDCREATE
 40
2451302.640236690
  9
$TDUCREATE
 40
2451302.265236690
  9
$TDUPDATE
 40
2457192.686545880
  9
$TDUUPDATE
 40
2457192.311545880
  9
$TDINDWG
 40
0.0000113079
  9
$TDUSRTIMER
 40
0.0000108218
  9
$USRTIMER
 70
     1
  9
$ANGBASE
 50
0.0
  9
$ANGDIR
 70
     0
  9
$PDMODE
 70
     0
  9
$PDSIZE
 40
0.0
  9
$PLINEWID
 40
0.0
  9
$SPLFRAME
 70
     0
  9
$SPLINETYPE
 70
     6
  9
$SPLINESEGS
 70
     8
  9
$HANDSEED
  5
AC36
  9
$SURFTAB1
 70
     6
  9
$SURFTAB2
 70
     6
  9
$SURFTYPE
 70
     6
  9
$SURFU
 70
     6
  9
$SURFV
 70
     6
  9
$UCSBASE
  2

  9
$UCSNAME
  2

  9
$UCSORG
 10
0.0
 20
0.0
 30
0.0
  9
$UCSXDIR
 10
1.0
 20
0.0
 30
0.0
  9
$UCSYDIR
 10
0.0
 20
1.0
 30
0.0
  9
$UCSORTHOREF
  2

  9
$UCSORTHOVIEW
 70
     0
  9
$UCSORGTOP
 10
0.0
 20
0.0
 30
0.0
  9
$UCSORGBOTTOM
 10
0.0
 20
0.0
 30
0.0
  9
$UCSORGLEFT
 10
0.0
 20
0.0
 30
0.0
  9
$UCSORGRIGHT
 10
0.0
 20
0.0
 30
0.0
  9
$UCSORGFRONT
 10
0.0
 20
0.0
 30
0.0
  9
$UCSORGBACK
 10
0.0
 20
0.0
 30
0.0
  9
$PUCSBASE
  2

  9
$PUCSNAME
  2

  9
$PUCSORG
 10
0.0
 20
0.0
 30
0.0
  9
$PUCSXDIR
 10
1.0
 20
0.0
 30
0.0
  9
$PUCSYDIR
 10
0.0
 20
1.0
 30
0.0
  9
$PUCSORTHOREF
  2

  9
$PUCSORTHOVIEW
 70
     0
  9
$PUCSORGTOP
 10
0.0
 20
0.0
 30
0.0
  9
$PUCSORGBOTTOM
 10
0.0
 20
0.0
 30
0.0
  9
$PUCSORGLEFT
 10
0.0
 20
0.0
 30
0.0
  9
$PUCSORGRIGHT
 10
0.0
 20
0.0
 30
0.0
  9
$PUCSORGFRONT
 10
0.0
 20
0.0
 30
0.0
  9
$PUCSORGBACK
 10
0.0
 20
0.0
 30
0.0
  9
$USERI1
 70
     0
  9
$USERI2
 70
     0
  9
$USERI3
 70
     0
  9
$USERI4
 70
     0
  9
$USERI5
 70
     0
  9
$USERR1
 40
0.0
  9
$USERR2
 40
0.0
  9
$USERR3
 40
0.0
  9
$USERR4
 40
0.0
  9
$USERR5
 40
0.0
  9
$WORLDVIEW
 70
     1
  9
$SHADEDGE
 70
     3
  9
$SHADEDIF
 70
    70
  9
$TILEMODE
 70
     1
  9
$MAXACTVP
 70
    16
  9
$PINSBASE
 10
0.0
 20
0.0
 30
0.0
  9
$PLIMCHECK
 70
     0
  9
$PEXTMIN
 10
1.000000000000000E+20
 20
1.000000000000000E+20
 30
1.000000000000000E+20
  9
$PEXTMAX
 10
-1.000000000000000E+20
 20
-1.000000000000000E+20
 30
-1.000000000000000E+20
  9
$PLIMMIN
 10
0.0
 20
0.0
  9
$PLIMMAX
 10
420.0
 20
297.0
  9
$UNITMODE
 70
     0
  9
$VISRETAIN
 70
     0
  9
$PLINEGEN
 70
     0
  9
$PSLTSCALE
 70
     0
  9
$TREEDEPTH
 70
  3020
  9
$CMLSTYLE
  2
STANDARD
  9
$CMLJUST
 70
     0
  9
$CMLSCALE
 40
1.0
  9
$PROXYGRAPHICS
 70
     1
  9
$MEASUREMENT
 70
     0
  9
$CELWEIGHT
370
    -1
  9
$ENDCAPS
280
     0
  9
$JOINSTYLE
280
     0
  9
$LWDISPLAY
290
     0
  9
$INSUNITS
 70
     0
  9
$HYPERLINKBASE
  1

  9
$STYLESHEET
  1

  9
$XEDIT
290
     1
  9
$CEPSNTYPE
380
     0
  9
$PSTYLEMODE
290
     1
  9
$FINGERPRINTGUID
  2
{FEA5B7D9-968F-48E0-B965-5B529353D743}
  9
$VERSIONGUID
  2
{9DC0888E-D8FC-4B89-B667-DF024ED0F8E7}
  9
$EXTNAMES
290
     1
  9
$PSVPSCALE
 40
0.0
  9
$OLESTARTUP
290
     0
  0
ENDSEC
  0
SECTION
  2
CLASSES
  0
CLASS
  1
ACDBDICTIONARYWDFLT
  2
AcDbDictionaryWithDefault
  3
ObjectDBX Classes
 90
        0
280
     0
281
     0
  0
CLASS
  1
ACDBPLACEHOLDER
  2
AcDbPlaceHolder
  3
ObjectDBX Classes
 90
        0
280
     0
281
     0
  0
CLASS
  1
LAYOUT
  2
AcDbLayout
  3
ObjectDBX Classes
 90
        0
280
     0
281
     0
  0
CLASS
  1
DICTIONARYVAR
  2
AcDbDictionaryVar
  3
ObjectDBX Classes
 90
        0
280
     0
281
     0
  0
CLASS
  1
MATERIAL
  2
AcDbMaterial
  3
ObjectDBX Classes
 90
     1153
280
     0
281
     0
  0
CLASS
  1
VISUALSTYLE
  2
AcDbVisualStyle
  3
ObjectDBX Classes
 90
     4095
280
     0
281
     0
  0
CLASS
  1
TABLESTYLE
  2
AcDbTableStyle
  3
ObjectDBX Classes
 90
     4095
280
     0
281
     0
  0
CLASS
  1
SCALE
  2
AcDbScale
  3
ObjectDBX Classes
 90
     1153
280
     0
281
     0
  0
CLASS
  1
MLEADERSTYLE
  2
AcDbMLeaderStyle
  3
ACDB_MLEADERSTYLE_CLASS
 90
     4095
280
     0
281
     0
  0
CLASS
  1
ACDBSECTIONVIEWSTYLE
  2
AcDbSectionViewStyle
  3
ObjectDBX Classes
 90
     1025
280
     0
281
     0
  0
CLASS
  1
ACDBDETAILVIEWSTYLE
  2
AcDbDetailViewStyle
  3
ObjectDBX Classes
 90
     1025
280
     0
281
     0
  0
CLASS
  1
CELLSTYLEMAP
  2
AcDbCellStyleMap
  3
ObjectDBX Classes
 90
     1152
280
     0
281
     0
  0
ENDSEC
  0
SECTION
  2
TABLES
  0
TABLE
  2
VPORT
  5
A912
330
0
100
AcDbSymbolTable
 70
     1
  0
VPORT
  5
AB7F
330
A912
100
AcDbSymbolTableRecord
100
AcDbViewportTableRecord
  2
*ACTIVE
 70
     0
 10
0.0
 20
0.0
 11
1.0
 21
1.0
 12
281.1485467191423
 22
147.609787755046
 13
0.0
 23
0.0
 14
10.0
 24
10.0
 15
10.0
 25
10.0
 16
0.0
 26
0.0
 36
1.0
 17
0.0
 27
0.0
 37
0.0
 40
278.2866693215096
 41
2.35006605019815
 42
50.0
 43
0.0
 44
0.0
 50
0.0
 51
0.0
 71
     0
 72
   100
 73
     1
 74
     0
 75
     0
 76
     0
 77
     0
 78
     0
281
     0
 65
     1
110
0.0
120
0.0
130
0.0
111
1.0
121
0.0
131
0.0
112
0.0
122
1.0
132
0.0
 79
     0
146
0.0
1001
ACAD_NAV_VCDISPLAY
1070
     3
  0
ENDTAB
  0
TABLE
  2
LTYPE
  5
A90F
330
0
100
AcDbSymbolTable
 70
     4
  0
LTYPE
  5
A91D
330
A90F
100
AcDbSymbolTableRecord
100
AcDbLinetypeTableRecord
  2
BYBLOCK
 70
     0
  3

 72
    65
 73
     0
 40
0.0
  0
LTYPE
  5
A91E
330
A90F
100
AcDbSymbolTableRecord
100
AcDbLinetypeTableRecord
  2
BYLAYER
 70
     0
  3

 72
    65
 73
     0
 40
0.0
  0
LTYPE
  5
A91F
330
A90F
100
AcDbSymbolTableRecord
100
AcDbLinetypeTableRecord
  2
CONTINUOUS
 70
     0
  3
Solid line
 72
    65
 73
     0
 40
0.0
  0
LTYPE
  5
A92D
330
A90F
100
AcDbSymbolTableRecord
100
AcDbLinetypeTableRecord
  2
DASHED
 70
     0
  3
__ __ __ __ __ __ __ __ __ __ __ __ __ __ __ __
 72
    65
 73
     2
 40
0.75
 49
0.5
 74
     0
 49
-0.25
 74
     0
  0
LTYPE
  5
A92E
330
A90F
100
AcDbSymbolTableRecord
100
AcDbLinetypeTableRecord
  2
CENTER
 70
     0
  3
____ _ ____ _ ____ _ ____ _ ____ _ ____ _ ____ 
 72
    65
 73
     4
 40
2.0
 49
1.25
 74
     0
 49
-0.25
 74
     0
 49
0.25
 74
     0
 49
-0.25
 74
     0
  0
LTYPE
  5
A92F
330
A90F
100
AcDbSymbolTableRecord
100
AcDbLinetypeTableRecord
  2
PHANTOM
 70
     0
  3
______  __  __  ______  __  __  ______  __  __ 
 72
    65
 73
     6
 40
2.5
 49
1.25
 74
     0
 49
-0.25
 74
     0
 49
0.25
 74
     0
 49
-0.25
 74
     0
 49
0.25
 74
     0
 49
-0.25
 74
     0
  0
ENDTAB
  0
TABLE
  2
LAYER
  5
A90C
330
0
100
AcDbSymbolTable
 70
     8
  0
LAYER
  5
A91A
102
{ACAD_XDICTIONARY
360
ABDA
102
}
330
A90C
100
AcDbSymbolTableRecord
100
AcDbLayerTableRecord
  2
0
 70
     0
 62
     7
  6
CONTINUOUS
370
    -3
390
AB88
  0
LAYER
  5
A930
102
{ACAD_XDICTIONARY
360
ABDC
102
}
330
A90C
100
AcDbSymbolTableRecord
100
AcDbLayerTableRecord
  2
4
 70
     0
 62
     1
  6
CENTER
370
    -3
390
AB88
  0
LAYER
  5
A931
102
{ACAD_XDICTIONARY
360
ABDE
102
}
330
A90C
100
AcDbSymbolTableRecord
100
AcDbLayerTableRecord
  2
5
 70
     0
 62
     6
  6
PHANTOM
370
    -3
390
AB88
  0
LAYER
  5
A932
102
{ACAD_XDICTIONARY
360
ABE0
102
}
330
A90C
100
AcDbSymbolTableRecord
100
AcDbLayerTableRecord
  2
1
 70
     0
 62
     7
  6
CONTINUOUS
370
    -3
390
AB88
  0
LAYER
  5
A933
102
{ACAD_XDICTIONARY
360
ABE2
102
}
330
A90C
100
AcDbSymbolTableRecord
100
AcDbLayerTableRecord
  2
2
 70
     0
 62
     4
  6
CONTINUOUS
370
    -3
390
AB88
  0
LAYER
  5
A934
102
{ACAD_XDICTIONARY
360
ABE4
102
}
330
A90C
100
AcDbSymbolTableRecord
100
AcDbLayerTableRecord
  2
3
 70
     0
 62
     2
  6
DASHED
370
    -3
390
AB88
  0
LAYER
  5
A935
102
{ACAD_XDICTIONARY
360
ABE6
102
}
330
A90C
100
AcDbSymbolTableRecord
100
AcDbLayerTableRecord
  2
6
 70
     0
 62
     5
  6
CONTINUOUS
370
    -3
390
AB88
  0
LAYER
  5
A936
102
{ACAD_XDICTIONARY
360
ABE8
102
}
330
A90C
100
AcDbSymbolTableRecord
100
AcDbLayerTableRecord
  2
7
 70
     0
 62
     3
  6
CONTINUOUS
370
    -3
390
AB88
  0
ENDTAB
  0
TABLE
  2
STYLE
  5
A90D
330
0
100
AcDbSymbolTable
 70
     1
  0
STYLE
  5
A91B
330
A90D
100
AcDbSymbolTableRecord
100
AcDbTextStyleTableRecord
  2
STANDARD
 70
     0
 40
0.0
 41
1.0
 50
0.0
 71
     0
 42
5.0
  3
txt
  4

  0
ENDTAB
  0
TABLE
  2
VIEW
  5
A910
330
0
100
AcDbSymbolTable
 70
     0
  0
ENDTAB
  0
TABLE
  2
UCS
  5
A911
330
0
100
AcDbSymbolTable
 70
     0
  0
ENDTAB
  0
TABLE
  2
APPID
  5
A913
330
0
100
AcDbSymbolTable
 70
     3
  0
APPID
  5
A91C
330
A913
100
AcDbSymbolTableRecord
100
AcDbRegAppTableRecord
  2
ACAD
 70
     0
  0
APPID
  5
ABF4
330
A913
100
AcDbSymbolTableRecord
100
AcDbRegAppTableRecord
  2
ACAD_NAV_VCDISPLAY
 70
     0
  0
APPID
  5
AC2D
330
A913
100
AcDbSymbolTableRecord
100
AcDbRegAppTableRecord
  2
ACAD_MLEADERVER
 70
     0
  0
ENDTAB
  0
TABLE
  2
DIMSTYLE
  5
A914
330
0
100
AcDbSymbolTable
 70
     1
100
AcDbDimStyleTable
 71
     0
  0
DIMSTYLE
105
A938
330
A914
100
AcDbSymbolTableRecord
100
AcDbDimStyleTableRecord
  2
STANDARD
 70
     0
 41
3.0
 42
1.0
 43
10.0
 44
1.0
 73
     0
 74
     0
 77
     3
 78
     8
140
3.2
141
0.0
147
1.0
172
     1
173
     1
284
     8
285
     8
286
     8
340
A91B
  0
ENDTAB
  0
TABLE
  2
BLOCK_RECORD
  5
A90B
330
0
100
AcDbSymbolTable
 70
     1
  0
BLOCK_RECORD
  5
A928
102
{ACAD_XDICTIONARY
360
AB82
102
}
330
A90B
100
AcDbSymbolTableRecord
100
AcDbBlockTableRecord
  2
*MODEL_SPACE
340
ABD6
  0
BLOCK_RECORD
  5
A924
102
{ACAD_XDICTIONARY
360
AB80
102
}
330
A90B
100
AcDbSymbolTableRecord
100
AcDbBlockTableRecord
  2
*PAPER_SPACE
340
ABD7
  0
BLOCK_RECORD
  5
A940
330
A90B
100
AcDbSymbolTableRecord
100
AcDbBlockTableRecord
  2
_OPEN
340
0
  0
ENDTAB
  0
ENDSEC
  0
SECTION
  2
BLOCKS
  0
BLOCK
  5
A929
330
A928
100
AcDbEntity
  8
0
100
AcDbBlockBegin
  2
*MODEL_SPACE
 70
     0
 10
0.0
 20
0.0
 30
0.0
  3
*MODEL_SPACE
  1

  0
ENDBLK
  5
A92A
330
A928
100
AcDbEntity
  8
0
100
AcDbBlockEnd
  0
BLOCK
  5
A925
330
A924
100
AcDbEntity
 67
     1
  8
0
100
AcDbBlockBegin
  2
*PAPER_SPACE
 70
     0
 10
0.0
 20
0.0
 30
0.0
  3
*PAPER_SPACE
  1

  0
ENDBLK
  5
A926
330
A924
100
AcDbEntity
 67
     1
  8
0
100
AcDbBlockEnd
  0
BLOCK
  5
A941
330
A940
100
AcDbEntity
  8
0
100
AcDbBlockBegin
  2
_OPEN
 70
     0
 10
0.0
 20
0.0
 30
0.0
  3
_OPEN
  1

  0
LINE
  5
A942
330
A940
100
AcDbEntity
  8
0
  6
ByBlock
 62
     0
100
AcDbLine
 10
-1.0
 20
0.166667
 30
0.0
 11
0.0
 21
0.0
 31
0.0
  0
LINE
  5
A943
330
A940
100
AcDbEntity
  8
0
  6
ByBlock
 62
     0
100
AcDbLine
 10
0.0
 20
0.0
 30
0.0
 11
-1.0
 21
-0.166667
 31
0.0
  0
LINE
  5
A944
330
A940
100
AcDbEntity
  8
0
  6
ByBlock
 62
     0
100
AcDbLine
 10
0.0
 20
0.0
 30
0.0
 11
-1.0
 21
0.0
 31
0.0
  0
ENDBLK
  5
A945
330
A940
100
AcDbEntity
  8
0
100
AcDbBlockEnd
  0
ENDSEC
  0
SECTION
  2
ENTITIES
  0
TEXT
  5
A946
330
A928
100
AcDbEntity
  8
7
  6
Continuous
100
AcDbText
 10
10.0
 20
18.0
 30
0.0
 40
3.0
  1
TYPE No.103-Fe
100
AcDbText
  0
TEXT
  5
A947
330
A928
100
AcDbEntity
  8
7
  6
Continuous
100
AcDbText
 10
10.0
 20
26.0
 30
0.0
 40
3.0
  1
CODE No.9068
100
AcDbText
  0
TEXT
  5
A948
330
A928
100
AcDbEntity
  8
1
  6
Continuous
100
AcDbText
 10
10.0
 20
10.0
 30
0.0
 40
1.399999999999999
  1
LAYER
100
AcDbText
  0
TEXT
  5
A949
330
A928
100
AcDbEntity
  8
1
  6
Continuous
100
AcDbText
 10
17.97951099999998
 20
10.04873699999998
 30
0.0
 40
1.399999999999999
  1
1
100
AcDbText
  0
TEXT
  5
A94A
330
A928
100
AcDbEntity
  8
7
  6
Continuous
100
AcDbText
 10
29.97951099999999
 20
10.04873699999998
 30
0.0
 40
1.399999999999999
  1
7
100
AcDbText
  0
TEXT
  5
A94B
330
A928
100
AcDbEntity
  8
4
  6
CENTER
100
AcDbText
 10
23.97951099999999
 20
10.04873699999998
 30
0.0
 40
1.399999999999999
  1
4
100
AcDbText
  0
TEXT
  5
A94C
330
A928
100
AcDbEntity
  8
3
  6
DASHED
100
AcDbText
 10
21.979511
 20
10.04873699999998
 30
0.0
 40
1.399999999999999
  1
3
100
AcDbText
  0
TEXT
  5
A94D
330
A928
100
AcDbEntity
  8
2
  6
Continuous
100
AcDbText
 10
19.97951099999999
 20
10.04873699999998
 30
0.0
 40
1.399999999999999
  1
2
100
AcDbText
  0
TEXT
  5
A94E
330
A928
100
AcDbEntity
  8
6
  6
Continuous
100
AcDbText
 10
27.979511
 20
10.04873699999998
 30
0.0
 40
1.399999999999999
  1
6
100
AcDbText
  0
TEXT
  5
A94F
330
A928
100
AcDbEntity
  8
5
  6
PHANTOM
100
AcDbText
 10
25.97951099999999
 20
10.04873699999998
 30
0.0
 40
1.399999999999999
  1
5
100
AcDbText
  0
LINE
  5
A950
330
A928
100
AcDbEntity
  8
1
  6
Continuous
100
AcDbLine
 10
179.6646189999999
 20
238.217462
 30
0.0
 11
124.6646189999998
 21
238.217462
 31
0.0
  0
LINE
  5
A951
330
A928
100
AcDbEntity
  8
1
  6
Continuous
100
AcDbLine
 10
122.1646189999999
 20
240.717462
 30
0.0
 11
122.1646189999999
 21
277.717462
 31
0.0
  0
LINE
  5
A952
330
A928
100
AcDbEntity
  8
1
  6
Continuous
100
AcDbLine
 10
124.6646189999998
 20
280.217462
 30
0.0
 11
179.6646189999999
 21
280.217462
 31
0.0
  0
LINE
  5
A953
330
A928
100
AcDbEntity
  8
1
  6
Continuous
100
AcDbLine
 10
182.1646189999999
 20
277.717462
 30
0.0
 11
182.1646189999999
 21
240.717462
 31
0.0
  0
CIRCLE
  5
A954
330
A928
100
AcDbEntity
  8
1
  6
Continuous
100
AcDbCircle
 10
152.164619
 20
259.217462
 30
0.0
 40
8.5
  0
CIRCLE
  5
A955
330
A928
100
AcDbEntity
  8
1
  6
Continuous
100
AcDbCircle
 10
175.6646189999999
 20
273.717462
 30
0.0
 40
3.25
  0
CIRCLE
  5
A956
330
A928
100
AcDbEntity
  8
1
  6
Continuous
100
AcDbCircle
 10
175.6646189999999
 20
244.717462
 30
0.0
 40
3.25
  0
CIRCLE
  5
A957
330
A928
100
AcDbEntity
  8
1
  6
Continuous
100
AcDbCircle
 10
128.6646189999999
 20
244.717462
 30
0.0
 40
3.25
  0
CIRCLE
  5
A958
330
A928
100
AcDbEntity
  8
1
  6
Continuous
100
AcDbCircle
 10
128.6646189999999
 20
273.717462
 30
0.0
 40
3.25
  0
ARC
  5
A959
330
A928
100
AcDbEntity
  8
1
  6
Continuous
100
AcDbCircle
 10
179.6646189999999
 20
277.717462
 30
0.0
 40
2.5
100
AcDbArc
 50
0.0
 51
90.0
  0
ARC
  5
A95A
330
A928
100
AcDbEntity
  8
1
  6
Continuous
100
AcDbCircle
 10
179.6646189999999
 20
240.717462
 30
0.0
 40
2.5
100
AcDbArc
 50
270.0
 51
0.0
  0
ARC
  5
A95B
330
A928
100
AcDbEntity
  8
1
  6
Continuous
100
AcDbCircle
 10
124.6646189999998
 20
277.717462
 30
0.0
 40
2.5
100
AcDbArc
 50
90.0
 51
180.0
  0
ARC
  5
A95C
330
A928
100
AcDbEntity
  8
1
  6
Continuous
100
AcDbCircle
 10
124.6646189999998
 20
240.717462
 30
0.0
 40
2.5
100
AcDbArc
 50
180.0
 51
270.0
  0
LINE
  5
A95D
330
A928
100
AcDbEntity
  8
1
  6
Continuous
100
AcDbLine
 10
263.2132029999999
 20
186.8011789999999
 30
0.0
 11
263.2132029999999
 21
165.901179
 31
0.0
  0
ARC
  5
A95E
330
A928
100
AcDbEntity
  8
1
  6
Continuous
100
AcDbCircle
 10
228.5132029999998
 20
186.8011789999999
 30
0.0
 40
3.0
100
AcDbArc
 50
90.0
 51
180.0
  0
ARC
  5
A95F
330
A928
100
AcDbEntity
  8
1
  6
Continuous
100
AcDbCircle
 10
260.2132029999999
 20
186.8011789999999
 30
0.0
 40
3.0
100
AcDbArc
 50
0.0
 51
90.0
  0
LINE
  5
A960
330
A928
100
AcDbEntity
  8
1
  6
Continuous
100
AcDbLine
 10
228.1362479999998
 20
193.145533
 30
0.0
 11
260.5899609999998
 21
193.145533
 31
0.0
  0
ARC
  5
A961
330
A928
100
AcDbEntity
  8
1
  6
Continuous
100
AcDbCircle
 10
228.1362479999998
 20
196.324106
 30
0.0
 40
3.178573
100
AcDbArc
 50
236.7899089999999
 51
270.0
  0
LINE
  5
A962
330
A928
100
AcDbEntity
  8
1
  6
Continuous
100
AcDbLine
 10
224.5976069999999
 20
194.865533
 30
0.0
 11
224.4094409999999
 21
195.113571
 31
0.0
  0
LINE
  5
A963
330
A928
100
AcDbEntity
  8
1
  6
Continuous
100
AcDbLine
 10
223.3632029999998
 20
197.1135329999999
 30
0.0
 11
265.363203
 21
197.1135329999999
 31
0.0
  0
ARC
  5
A964
330
A928
100
AcDbEntity
  8
1
  6
Continuous
100
AcDbCircle
 10
290.1340339999998
 20
291.0302449999999
 30
0.0
 40
116.3729999999999
100
AcDbArc
 50
235.7254979999999
 51
236.7899089999999
  0
ARC
  5
A965
330
A928
100
AcDbEntity
  8
1
  6
Continuous
100
AcDbCircle
 10
230.6688359999998
 20
192.7040129999998
 30
0.0
 40
2.371570999999998
100
AcDbArc
 50
188.020211
 51
218.050809
  0
ARC
  5
A966
330
A928
100
AcDbEntity
  8
1
  6
Continuous
100
AcDbCircle
 10
229.350973
 20
191.991802
 30
0.0
 40
1.098799999999998
100
AcDbArc
 50
121.214655
 51
159.693839
  0
LINE
  5
A967
330
A928
100
AcDbEntity
  8
1
  6
Continuous
100
AcDbLine
 10
228.1131039999999
 20
189.801237
 30
0.0
 11
260.613104
 21
189.801043
 31
0.0
  0
LINE
  5
A968
330
A928
100
AcDbEntity
  8
1
  6
Continuous
100
AcDbLine
 10
223.3632029999998
 20
195.113571
 30
0.0
 11
265.363203
 21
195.113571
 31
0.0
  0
LINE
  5
A969
330
A928
100
AcDbEntity
  8
1
  6
Continuous
100
AcDbLine
 10
260.613104
 20
191.2421929999999
 30
0.0
 11
228.1131039999999
 21
191.242273
 31
0.0
  0
LINE
  5
A96A
330
A928
100
AcDbEntity
  8
1
  6
Continuous
100
AcDbLine
 10
228.1131039999999
 20
191.242233
 30
0.0
 11
228.1131039999999
 21
189.801237
 31
0.0
  0
LINE
  5
A96B
330
A928
100
AcDbEntity
  8
1
  6
Continuous
100
AcDbLine
 10
228.781524
 20
192.93153
 30
0.0
 11
229.1346809999998
 21
193.145533
 31
0.0
  0
ARC
  5
A96C
330
A928
100
AcDbEntity
  8
1
  6
Continuous
100
AcDbCircle
 10
260.5899609999998
 20
196.324106
 30
0.0
 40
3.178573
100
AcDbArc
 50
270.0
 51
303.210091
  0
LINE
  5
A96D
330
A928
100
AcDbEntity
  8
1
  6
Continuous
100
AcDbLine
 10
264.1286009999999
 20
194.865533
 30
0.0
 11
264.316768
 21
195.113571
 31
0.0
  0
ARC
  5
A96E
330
A928
100
AcDbEntity
  8
1
  6
Continuous
100
AcDbCircle
 10
198.592174
 20
291.0302449999999
 30
0.0
 40
116.3729999999999
100
AcDbArc
 50
303.210091
 51
304.2745019999999
  0
ARC
  5
A96F
330
A928
100
AcDbEntity
  8
1
  6
Continuous
100
AcDbCircle
 10
258.0573719999999
 20
192.7040129999998
 30
0.0
 40
2.371570999999998
100
AcDbArc
 50
321.9491909999999
 51
351.9797889999999
  0
ARC
  5
A970
330
A928
100
AcDbEntity
  8
1
  6
Continuous
100
AcDbCircle
 10
259.3752359999999
 20
191.991802
 30
0.0
 40
1.098799999999998
100
AcDbArc
 50
20.306161
 51
58.785345
  0
LINE
  5
A971
330
A928
100
AcDbEntity
  8
1
  6
Continuous
100
AcDbLine
 10
260.613104
 20
191.242233
 30
0.0
 11
260.613104
 21
189.801237
 31
0.0
  0
LINE
  5
A972
330
A928
100
AcDbEntity
  8
1
  6
Continuous
100
AcDbLine
 10
259.944684
 20
192.93153
 30
0.0
 11
259.5915279999999
 21
193.145533
 31
0.0
  0
LINE
  5
A973
330
A928
100
AcDbEntity
  8
1
  6
Continuous
100
AcDbLine
 10
223.3632029999998
 20
197.1135329999999
 30
0.0
 11
223.3632029999998
 21
195.113571
 31
0.0
  0
LINE
  5
A974
330
A928
100
AcDbEntity
  8
1
  6
Continuous
100
AcDbLine
 10
265.363203
 20
197.1135329999999
 30
0.0
 11
265.363203
 21
195.113571
 31
0.0
  0
LINE
  5
A975
330
A928
100
AcDbEntity
  8
1
  6
Continuous
100
AcDbLine
 10
231.1158789999999
 20
183.097428
 30
0.0
 11
257.6105279999998
 21
183.097428
 31
0.0
  0
ARC
  5
A976
330
A928
100
AcDbEntity
  8
1
  6
Continuous
100
AcDbCircle
 10
256.98174
 20
178.6575819999999
 30
0.0
 40
4.484150999999997
100
AcDbArc
 50
28.645773
 51
81.939153
  0
ARC
  5
A977
330
A928
100
AcDbEntity
  8
1
  6
Continuous
100
AcDbCircle
 10
249.094448
 20
173.0893659999999
 30
0.0
 40
14.11875499999999
100
AcDbArc
 50
0.0
 51
33.136856
  0
ARC
  5
A978
330
A928
100
AcDbEntity
  8
1
  6
Continuous
100
AcDbCircle
 10
246.7005939999999
 20
172.986487
 30
0.0
 40
14.51390899999998
100
AcDbArc
 50
3.903843
 51
44.157888
  0
ARC
  5
A979
330
A928
100
AcDbEntity
  8
1
  6
Continuous
100
AcDbCircle
 10
231.7446679999999
 20
178.6575819999999
 30
0.0
 40
4.484150999999997
100
AcDbArc
 50
98.06084699999999
 51
151.354227
  0
ARC
  5
A97A
330
A928
100
AcDbEntity
  8
1
  6
Continuous
100
AcDbCircle
 10
239.631959
 20
173.0893659999999
 30
0.0
 40
14.11875499999999
100
AcDbArc
 50
146.863144
 51
180.0
  0
CIRCLE
  5
A97B
330
A928
100
AcDbEntity
  8
1
  6
Continuous
100
AcDbCircle
 10
152.164619
 20
259.217462
 30
0.0
 40
16.89999999999999
  0
CIRCLE
  5
A97C
330
A928
100
AcDbEntity
  8
1
  6
Continuous
100
AcDbCircle
 10
152.164619
 20
259.217462
 30
0.0
 40
15.25
  0
LINE
  5
A97D
330
A928
100
AcDbEntity
  8
1
  6
Continuous
100
AcDbLine
 10
231.8632029999999
 20
159.6130379999999
 30
0.0
 11
232.8632029999999
 21
159.6130379999999
 31
0.0
  0
LINE
  5
A97E
330
A928
100
AcDbEntity
  8
1
  6
Continuous
100
AcDbLine
 10
255.8632029999999
 20
159.6130379999999
 30
0.0
 11
256.8632029999998
 21
159.6130379999999
 31
0.0
  0
LINE
  5
A97F
330
A928
100
AcDbEntity
  8
1
  6
Continuous
100
AcDbLine
 10
231.8632029999999
 20
153.6130379999999
 30
0.0
 11
232.8632029999999
 21
153.6130379999999
 31
0.0
  0
LINE
  5
A980
330
A928
100
AcDbEntity
  8
1
  6
Continuous
100
AcDbLine
 10
255.8632029999999
 20
153.6130379999999
 30
0.0
 11
256.8632029999998
 21
153.6130379999999
 31
0.0
  0
LINE
  5
A981
330
A928
100
AcDbEntity
  8
1
  6
Continuous
100
AcDbLine
 10
229.1131029999998
 20
191.242233
 30
0.0
 11
228.1131039999999
 21
190.2422349999999
 31
0.0
  0
LINE
  5
A982
330
A928
100
AcDbEntity
  8
1
  6
Continuous
100
AcDbLine
 10
230.527316
 20
191.242233
 30
0.0
 11
228.52732
 21
189.801237
 31
0.0
  0
LINE
  5
A983
330
A928
100
AcDbEntity
  8
1
  6
Continuous
100
AcDbLine
 10
231.9415299999998
 20
191.242233
 30
0.0
 11
229.9415329999999
 21
189.801237
 31
0.0
  0
LINE
  5
A984
330
A928
100
AcDbEntity
  8
1
  6
Continuous
100
AcDbLine
 10
233.3557429999999
 20
191.242233
 30
0.0
 11
231.355747
 21
189.801237
 31
0.0
  0
LINE
  5
A985
330
A928
100
AcDbEntity
  8
1
  6
Continuous
100
AcDbLine
 10
234.7699569999999
 20
191.242233
 30
0.0
 11
232.7699599999998
 21
189.801237
 31
0.0
  0
LINE
  5
A986
330
A928
100
AcDbEntity
  8
1
  6
Continuous
100
AcDbLine
 10
236.1841699999999
 20
191.242233
 30
0.0
 11
234.184174
 21
189.801237
 31
0.0
  0
LINE
  5
A987
330
A928
100
AcDbEntity
  8
1
  6
Continuous
100
AcDbLine
 10
237.5983839999999
 20
191.242233
 30
0.0
 11
235.598387
 21
189.801237
 31
0.0
  0
LINE
  5
A988
330
A928
100
AcDbEntity
  8
1
  6
Continuous
100
AcDbLine
 10
239.012597
 20
191.242233
 30
0.0
 11
237.0126009999999
 21
189.801237
 31
0.0
  0
LINE
  5
A989
330
A928
100
AcDbEntity
  8
1
  6
Continuous
100
AcDbLine
 10
240.4268109999999
 20
191.242233
 30
0.0
 11
238.426815
 21
189.801237
 31
0.0
  0
LINE
  5
A98A
330
A928
100
AcDbEntity
  8
1
  6
Continuous
100
AcDbLine
 10
241.8410249999999
 20
191.242233
 30
0.0
 11
239.8410279999999
 21
189.801237
 31
0.0
  0
LINE
  5
A98B
330
A928
100
AcDbEntity
  8
1
  6
Continuous
100
AcDbLine
 10
243.255238
 20
191.242233
 30
0.0
 11
241.2552419999999
 21
189.801237
 31
0.0
  0
LINE
  5
A98C
330
A928
100
AcDbEntity
  8
1
  6
Continuous
100
AcDbLine
 10
244.669452
 20
191.242233
 30
0.0
 11
242.6694549999999
 21
189.801237
 31
0.0
  0
LINE
  5
A98D
330
A928
100
AcDbEntity
  8
1
  6
Continuous
100
AcDbLine
 10
246.083665
 20
191.242233
 30
0.0
 11
244.0836689999999
 21
189.801237
 31
0.0
  0
LINE
  5
A98E
330
A928
100
AcDbEntity
  8
1
  6
Continuous
100
AcDbLine
 10
247.497879
 20
191.242233
 30
0.0
 11
245.497882
 21
189.801237
 31
0.0
  0
LINE
  5
A98F
330
A928
100
AcDbEntity
  8
1
  6
Continuous
100
AcDbLine
 10
248.9120919999999
 20
191.242233
 30
0.0
 11
246.912096
 21
189.801237
 31
0.0
  0
LINE
  5
A990
330
A928
100
AcDbEntity
  8
1
  6
Continuous
100
AcDbLine
 10
250.326306
 20
191.242233
 30
0.0
 11
248.32631
 21
189.801237
 31
0.0
  0
LINE
  5
A991
330
A928
100
AcDbEntity
  8
1
  6
Continuous
100
AcDbLine
 10
251.74052
 20
191.242233
 30
0.0
 11
249.740523
 21
189.801237
 31
0.0
  0
LINE
  5
A992
330
A928
100
AcDbEntity
  8
1
  6
Continuous
100
AcDbLine
 10
253.1547329999999
 20
191.242233
 30
0.0
 11
251.154737
 21
189.801237
 31
0.0
  0
LINE
  5
A993
330
A928
100
AcDbEntity
  8
1
  6
Continuous
100
AcDbLine
 10
254.568947
 20
191.242233
 30
0.0
 11
252.5689499999999
 21
189.801237
 31
0.0
  0
LINE
  5
A994
330
A928
100
AcDbEntity
  8
1
  6
Continuous
100
AcDbLine
 10
255.9831599999998
 20
191.242233
 30
0.0
 11
253.983164
 21
189.801237
 31
0.0
  0
LINE
  5
A995
330
A928
100
AcDbEntity
  8
1
  6
Continuous
100
AcDbLine
 10
257.397374
 20
191.242233
 30
0.0
 11
255.397377
 21
189.801237
 31
0.0
  0
LINE
  5
A996
330
A928
100
AcDbEntity
  8
1
  6
Continuous
100
AcDbLine
 10
258.8115869999999
 20
191.242233
 30
0.0
 11
256.811591
 21
189.801237
 31
0.0
  0
LINE
  5
A997
330
A928
100
AcDbEntity
  8
1
  6
Continuous
100
AcDbLine
 10
260.2258009999999
 20
191.242233
 30
0.0
 11
258.2258039999999
 21
189.801237
 31
0.0
  0
LINE
  5
A998
330
A928
100
AcDbEntity
  8
1
  6
Continuous
100
AcDbLine
 10
260.613104
 20
190.215323
 30
0.0
 11
259.6400179999998
 21
189.801237
 31
0.0
  0
LINE
  5
A999
330
A928
100
AcDbEntity
  8
1
  6
Continuous
100
AcDbLine
 10
229.1131029999998
 20
189.801237
 30
0.0
 11
228.1131039999999
 21
190.2422349999999
 31
0.0
  0
LINE
  5
A99A
330
A928
100
AcDbEntity
  8
1
  6
Continuous
100
AcDbLine
 10
229.9415329999999
 20
191.242233
 30
0.0
 11
231.9415299999998
 21
189.801237
 31
0.0
  0
LINE
  5
A99B
330
A928
100
AcDbEntity
  8
1
  6
Continuous
100
AcDbLine
 10
232.7699599999998
 20
191.242233
 30
0.0
 11
234.7699569999999
 21
189.801237
 31
0.0
  0
LINE
  5
A99C
330
A928
100
AcDbEntity
  8
1
  6
Continuous
100
AcDbLine
 10
235.598387
 20
191.242233
 30
0.0
 11
237.5983839999999
 21
189.801237
 31
0.0
  0
LINE
  5
A99D
330
A928
100
AcDbEntity
  8
1
  6
Continuous
100
AcDbLine
 10
238.426815
 20
191.242233
 30
0.0
 11
240.4268109999999
 21
189.801237
 31
0.0
  0
LINE
  5
A99E
330
A928
100
AcDbEntity
  8
1
  6
Continuous
100
AcDbLine
 10
241.2552419999999
 20
191.242233
 30
0.0
 11
243.255238
 21
189.801237
 31
0.0
  0
LINE
  5
A99F
330
A928
100
AcDbEntity
  8
1
  6
Continuous
100
AcDbLine
 10
244.0836689999999
 20
191.242233
 30
0.0
 11
246.083665
 21
189.801237
 31
0.0
  0
LINE
  5
A9A0
330
A928
100
AcDbEntity
  8
1
  6
Continuous
100
AcDbLine
 10
246.912096
 20
191.242233
 30
0.0
 11
248.9120919999999
 21
189.801237
 31
0.0
  0
LINE
  5
A9A1
330
A928
100
AcDbEntity
  8
1
  6
Continuous
100
AcDbLine
 10
249.740523
 20
191.242233
 30
0.0
 11
251.74052
 21
189.801237
 31
0.0
  0
LINE
  5
A9A2
330
A928
100
AcDbEntity
  8
1
  6
Continuous
100
AcDbLine
 10
252.5689499999999
 20
191.242233
 30
0.0
 11
254.568947
 21
189.801237
 31
0.0
  0
LINE
  5
A9A3
330
A928
100
AcDbEntity
  8
1
  6
Continuous
100
AcDbLine
 10
255.397377
 20
191.242233
 30
0.0
 11
257.397374
 21
189.801237
 31
0.0
  0
LINE
  5
A9A4
330
A928
100
AcDbEntity
  8
1
  6
Continuous
100
AcDbLine
 10
258.2258039999999
 20
191.242233
 30
0.0
 11
260.2258009999999
 21
189.801237
 31
0.0
  0
LINE
  5
A9A5
330
A928
100
AcDbEntity
  8
4
  6
CENTER
100
AcDbLine
 10
187.1646189999999
 20
259.217462
 30
0.0
 11
103.164626
 21
259.217462
 31
0.0
  0
LINE
  5
A9A6
330
A928
100
AcDbEntity
  8
4
  6
CENTER
100
AcDbLine
 10
152.164619
 20
285.2174619999999
 30
0.0
 11
152.164619
 21
233.2174619999999
 31
0.0
  0
LINE
  5
A9A7
330
A928
100
AcDbEntity
  8
4
  6
CENTER
100
AcDbLine
 10
181.9146189999999
 20
273.717462
 30
0.0
 11
169.4146189999998
 21
273.717462
 31
0.0
  0
LINE
  5
A9A8
330
A928
100
AcDbEntity
  8
4
  6
CENTER
100
AcDbLine
 10
175.6646189999999
 20
267.467462
 30
0.0
 11
175.6646189999999
 21
279.967462
 31
0.0
  0
LINE
  5
A9A9
330
A928
100
AcDbEntity
  8
4
  6
CENTER
100
AcDbLine
 10
181.9146189999999
 20
244.717462
 30
0.0
 11
169.4146189999998
 21
244.717462
 31
0.0
  0
LINE
  5
A9AA
330
A928
100
AcDbEntity
  8
4
  6
CENTER
100
AcDbLine
 10
175.6646189999999
 20
238.467462
 30
0.0
 11
175.6646189999999
 21
250.967462
 31
0.0
  0
LINE
  5
A9AB
330
A928
100
AcDbEntity
  8
4
  6
CENTER
100
AcDbLine
 10
134.9146189999999
 20
244.717462
 30
0.0
 11
122.4146189999999
 21
244.717462
 31
0.0
  0
LINE
  5
A9AC
330
A928
100
AcDbEntity
  8
4
  6
CENTER
100
AcDbLine
 10
128.6646189999999
 20
238.467462
 30
0.0
 11
128.6646189999999
 21
250.967462
 31
0.0
  0
LINE
  5
A9AD
330
A928
100
AcDbEntity
  8
4
  6
CENTER
100
AcDbLine
 10
134.9146189999999
 20
273.717462
 30
0.0
 11
122.4146189999999
 21
273.717462
 31
0.0
  0
LINE
  5
A9AE
330
A928
100
AcDbEntity
  8
4
  6
CENTER
100
AcDbLine
 10
128.6646189999999
 20
267.467462
 30
0.0
 11
128.6646189999999
 21
279.967462
 31
0.0
  0
LINE
  5
A9AF
330
A928
100
AcDbEntity
  8
4
  6
CENTER
100
AcDbLine
 10
244.3632029999999
 20
202.113537
 30
0.0
 11
244.3632029999999
 21
126.6130379999999
 31
0.0
  0
LINE
  5
A9B0
330
A928
100
AcDbEntity
  8
4
  6
CENTER
100
AcDbLine
 10
222.6129629999999
 20
156.6130379999999
 30
0.0
 11
265.863443
 21
156.6130379999999
 31
0.0
  0
LINE
  5
A9B1
330
A928
100
AcDbEntity
  8
4
  6
CENTER
100
AcDbLine
 10
103.164626
 20
156.613237
 30
0.0
 11
163.164626
 21
156.613237
 31
0.0
  0
LINE
  5
A9B2
330
A928
100
AcDbEntity
  8
1
  6
Continuous
100
AcDbLine
 10
122.1646259999999
 20
197.113537
 30
0.0
 11
182.1646259999999
 21
197.113537
 31
0.0
  0
LINE
  5
A9B3
330
A928
100
AcDbEntity
  8
1
  6
Continuous
100
AcDbLine
 10
135.717126
 20
186.9818379999999
 30
0.0
 11
132.0371259999998
 21
186.938028
 31
0.0
  0
ARC
  5
A9B4
330
A928
100
AcDbEntity
  8
1
  6
Continuous
100
AcDbCircle
 10
197.9355559999999
 20
291.030249
 30
0.0
 40
116.3729999999999
100
AcDbArc
 50
235.7254979999999
 51
236.7899089999999
  0
LINE
  5
A9B5
330
A928
100
AcDbEntity
  8
1
  6
Continuous
100
AcDbLine
 10
122.1646259999999
 20
195.1135739999998
 30
0.0
 11
182.1646259999999
 21
195.1135739999998
 31
0.0
  0
ARC
  5
A9B6
330
A928
100
AcDbEntity
  8
1
  6
Continuous
100
AcDbCircle
 10
133.5146259999999
 20
155.663237
 30
0.0
 40
7.5
100
AcDbArc
 50
174.673297
 51
295.9209009999998
  0
LINE
  5
A9B7
330
A928
100
AcDbEntity
  8
1
  6
Continuous
100
AcDbLine
 10
141.0146259999999
 20
186.064782
 30
0.0
 11
141.0146259999999
 21
155.3804749999999
 31
0.0
  0
ARC
  5
A9B8
330
A928
100
AcDbEntity
  8
1
  6
Continuous
100
AcDbCircle
 10
205.7691629999999
 20
135.489325
 30
0.0
 40
63.35981999999999
100
AcDbArc
 50
134.0470019999999
 51
143.333821
  0
LINE
  5
A9B9
330
A928
100
AcDbEntity
  8
4
  6
CENTER
100
AcDbLine
 10
152.1646259999999
 20
202.113537
 30
0.0
 11
152.1646259999999
 21
166.07326
 31
0.0
  0
ARC
  5
A9BA
330
A928
100
AcDbEntity
  8
1
  6
Continuous
100
AcDbCircle
 10
91.122744
 20
191.3223939999998
 30
0.0
 40
63.31738699999998
100
AcDbArc
 50
321.97488
 51
329.982574
  0
ARC
  5
A9BB
330
A928
100
AcDbEntity
  8
1
  6
Continuous
100
AcDbCircle
 10
268.1828499999999
 20
89.02488199999996
 30
0.0
 40
141.169928
100
AcDbArc
 50
143.333821
 51
149.982574
  0
ARC
  5
A9BC
330
A928
100
AcDbEntity
  8
1
  6
Continuous
100
AcDbCircle
 10
166.302495
 20
177.0631459999999
 30
0.0
 40
6.062488
100
AcDbArc
 50
97.18493399999999
 51
139.125743
  0
LINE
  5
A9BD
330
A928
100
AcDbEntity
  8
1
  6
Continuous
100
AcDbLine
 10
163.1719869999998
 20
191.2422369999999
 30
0.0
 11
165.40813
 21
189.801044
 31
0.0
  0
LINE
  5
A9BE
330
A928
100
AcDbEntity
  8
1
  6
Continuous
100
AcDbLine
 10
182.1646259999999
 20
197.113537
 30
0.0
 11
182.1646259999999
 21
195.1135739999998
 31
0.0
  0
ARC
  5
A9BF
330
A928
100
AcDbEntity
  8
1
  6
Continuous
100
AcDbCircle
 10
165.858894
 20
192.7040159999999
 30
0.0
 40
2.371570999999998
100
AcDbArc
 50
321.9491909999999
 51
351.9797889999999
  0
ARC
  5
A9C0
330
A928
100
AcDbEntity
  8
1
  6
Continuous
100
AcDbCircle
 10
167.176758
 20
191.9918049999999
 30
0.0
 40
1.098799999999998
100
AcDbArc
 50
20.306161
 51
58.785345
  0
LINE
  5
A9C1
330
A928
100
AcDbEntity
  8
1
  6
Continuous
100
AcDbLine
 10
169.3501259999998
 20
183.018028
 30
0.0
 11
169.127126
 21
183.0780279999999
 31
0.0
  0
LINE
  5
A9C2
330
A928
100
AcDbEntity
  8
1
  6
Continuous
100
AcDbLine
 10
169.127126
 20
183.0780279999999
 30
0.0
 11
165.5442449999999
 21
183.0780279999999
 31
0.0
  0
LINE
  5
A9C3
330
A928
100
AcDbEntity
  8
1
  6
Continuous
100
AcDbLine
 10
168.414626
 20
191.2422369999999
 30
0.0
 11
168.414626
 21
189.801044
 31
0.0
  0
LINE
  5
A9C4
330
A928
100
AcDbEntity
  8
1
  6
Continuous
100
AcDbLine
 10
167.746206
 20
192.931534
 30
0.0
 11
167.393049
 21
193.1455369999999
 31
0.0
  0
LINE
  5
A9C5
330
A928
100
AcDbEntity
  8
1
  6
Continuous
100
AcDbLine
 10
167.4146279999999
 20
191.2422369999999
 30
0.0
 11
168.414626
 21
190.2422389999999
 31
0.0
  0
LINE
  5
A9C6
330
A928
100
AcDbEntity
  8
1
  6
Continuous
100
AcDbLine
 10
166.0004139999998
 20
191.2422369999999
 30
0.0
 11
168.2365569999998
 21
189.801044
 31
0.0
  0
LINE
  5
A9C7
330
A928
100
AcDbEntity
  8
1
  6
Continuous
100
AcDbLine
 10
164.5862009999999
 20
191.2422369999999
 30
0.0
 11
166.8223429999999
 21
189.801044
 31
0.0
  0
LINE
  5
A9C8
330
A928
100
AcDbEntity
  8
1
  6
Continuous
100
AcDbLine
 10
166.888
 20
189.801044
 30
0.0
 11
168.414626
 21
190.2422389999999
 31
0.0
  0
LINE
  5
A9C9
330
A928
100
AcDbEntity
  8
1
  6
Continuous
100
AcDbLine
 10
166.5861969999999
 20
191.2422369999999
 30
0.0
 11
164.3500559999999
 21
189.801044
 31
0.0
  0
LINE
  5
A9CA
330
A928
100
AcDbEntity
  8
1
  6
Continuous
100
AcDbLine
 10
171.930123
 20
194.8655369999999
 30
0.0
 11
172.11829
 21
195.1135739999998
 31
0.0
  0
ARC
  5
A9CB
330
A928
100
AcDbEntity
  8
1
  6
Continuous
100
AcDbCircle
 10
106.3936959999999
 20
291.030249
 30
0.0
 40
116.3729999999999
100
AcDbArc
 50
303.210091
 51
304.2745019999999
  0
LINE
  5
A9CC
330
A928
100
AcDbEntity
  8
1
  6
Continuous
100
AcDbLine
 10
170.764126
 20
183.105367
 30
0.0
 11
170.015126
 21
183.063028
 31
0.0
  0
ARC
  5
A9CD
330
A928
100
AcDbEntity
  8
1
  6
Continuous
100
AcDbCircle
 10
168.391482
 20
196.3241099999999
 30
0.0
 40
3.178573
100
AcDbArc
 50
270.0
 51
303.210091
  0
ARC
  5
A9CE
330
A928
100
AcDbEntity
  8
1
  6
Continuous
100
AcDbCircle
 10
167.9451409999998
 20
187.2199979999998
 30
0.0
 40
2.732905
100
AcDbArc
 50
0.0
 51
70.80987799999999
  0
LINE
  5
A9CF
330
A928
100
AcDbEntity
  8
1
  6
Continuous
100
AcDbLine
 10
170.015126
 20
183.063028
 30
0.0
 11
169.3501259999998
 21
183.018028
 31
0.0
  0
LINE
  5
A9D0
330
A928
100
AcDbEntity
  8
1
  6
Continuous
100
AcDbLine
 10
147.6156379999999
 20
191.2422369999999
 30
0.0
 11
149.8517799999999
 21
189.801044
 31
0.0
  0
LINE
  5
A9D1
330
A928
100
AcDbEntity
  8
1
  6
Continuous
100
AcDbLine
 10
149.6156339999998
 20
191.2422369999999
 30
0.0
 11
147.3794929999999
 21
189.801044
 31
0.0
  0
LINE
  5
A9D2
330
A928
100
AcDbEntity
  8
1
  6
Continuous
100
AcDbLine
 10
135.93777
 20
193.1455369999999
 30
0.0
 11
168.391482
 21
193.1455369999999
 31
0.0
  0
LINE
  5
A9D3
330
A928
100
AcDbEntity
  8
1
  6
Continuous
100
AcDbLine
 10
168.414626
 20
191.2421979999998
 30
0.0
 11
135.9146259999999
 21
191.242276
 31
0.0
  0
LINE
  5
A9D4
330
A928
100
AcDbEntity
  8
1
  6
Continuous
100
AcDbLine
 10
151.858279
 20
191.2422369999999
 30
0.0
 11
154.0944209999999
 21
189.801044
 31
0.0
  0
LINE
  5
A9D5
330
A928
100
AcDbEntity
  8
1
  6
Continuous
100
AcDbLine
 10
150.444065
 20
191.2422369999999
 30
0.0
 11
152.680207
 21
189.801044
 31
0.0
  0
LINE
  5
A9D6
330
A928
100
AcDbEntity
  8
1
  6
Continuous
100
AcDbLine
 10
149.029852
 20
191.2422369999999
 30
0.0
 11
151.2659939999998
 21
189.801044
 31
0.0
  0
LINE
  5
A9D7
330
A928
100
AcDbEntity
  8
1
  6
Continuous
100
AcDbLine
 10
152.444061
 20
191.2422369999999
 30
0.0
 11
150.20792
 21
189.801044
 31
0.0
  0
LINE
  5
A9D8
330
A928
100
AcDbEntity
  8
1
  6
Continuous
100
AcDbLine
 10
161.757774
 20
191.2422369999999
 30
0.0
 11
163.9939159999999
 21
189.801044
 31
0.0
  0
LINE
  5
A9D9
330
A928
100
AcDbEntity
  8
1
  6
Continuous
100
AcDbLine
 10
160.34356
 20
191.2422369999999
 30
0.0
 11
162.579702
 21
189.801044
 31
0.0
  0
LINE
  5
A9DA
330
A928
100
AcDbEntity
  8
1
  6
Continuous
100
AcDbLine
 10
158.929346
 20
191.2422369999999
 30
0.0
 11
161.1654889999998
 21
189.801044
 31
0.0
  0
LINE
  5
A9DB
330
A928
100
AcDbEntity
  8
1
  6
Continuous
100
AcDbLine
 10
157.5151329999999
 20
191.2422369999999
 30
0.0
 11
159.7512749999999
 21
189.801044
 31
0.0
  0
LINE
  5
A9DC
330
A928
100
AcDbEntity
  8
1
  6
Continuous
100
AcDbLine
 10
156.100919
 20
191.2422369999999
 30
0.0
 11
158.337062
 21
189.801044
 31
0.0
  0
LINE
  5
A9DD
330
A928
100
AcDbEntity
  8
1
  6
Continuous
100
AcDbLine
 10
154.6867059999999
 20
191.2422369999999
 30
0.0
 11
156.9228479999999
 21
189.801044
 31
0.0
  0
LINE
  5
A9DE
330
A928
100
AcDbEntity
  8
1
  6
Continuous
100
AcDbLine
 10
163.75777
 20
191.2422369999999
 30
0.0
 11
161.521629
 21
189.801044
 31
0.0
  0
LINE
  5
A9DF
330
A928
100
AcDbEntity
  8
1
  6
Continuous
100
AcDbLine
 10
160.9293429999999
 20
191.2422369999999
 30
0.0
 11
158.6932009999999
 21
189.801044
 31
0.0
  0
LINE
  5
A9E0
330
A928
100
AcDbEntity
  8
1
  6
Continuous
100
AcDbLine
 10
158.1009159999998
 20
191.2422369999999
 30
0.0
 11
155.864774
 21
189.801044
 31
0.0
  0
LINE
  5
A9E1
330
A928
100
AcDbEntity
  8
1
  6
Continuous
100
AcDbLine
 10
153.2724919999998
 20
191.2422369999999
 30
0.0
 11
155.508635
 21
189.801044
 31
0.0
  0
LINE
  5
A9E2
330
A928
100
AcDbEntity
  8
1
  6
Continuous
100
AcDbLine
 10
155.2724889999998
 20
191.2422369999999
 30
0.0
 11
153.036347
 21
189.801044
 31
0.0
  0
ARC
  5
A9E3
330
A928
100
AcDbEntity
  8
1
  6
Continuous
100
AcDbCircle
 10
136.8794169999999
 20
186.686869
 30
0.0
 40
3.266183999999998
100
AcDbArc
 50
107.548911
 51
141.743298
  0
ARC
  5
A9E4
330
A928
100
AcDbEntity
  8
1
  6
Continuous
100
AcDbCircle
 10
137.810311
 20
185.9528349999999
 30
0.0
 40
4.451666999999998
100
AcDbArc
 50
141.743298
 51
156.849068
  0
LINE
  5
A9E5
330
A928
100
AcDbEntity
  8
1
  6
Continuous
100
AcDbLine
 10
133.717126
 20
187.7030279999999
 30
0.0
 11
133.5721259999999
 21
187.2680279999999
 31
0.0
  0
LINE
  5
A9E6
330
A928
100
AcDbEntity
  8
1
  6
Continuous
100
AcDbLine
 10
133.5721259999999
 20
187.2680279999999
 30
0.0
 11
133.232126
 21
187.068028
 31
0.0
  0
LINE
  5
A9E7
330
A928
100
AcDbEntity
  8
1
  6
Continuous
100
AcDbLine
 10
133.232126
 20
187.068028
 30
0.0
 11
133.062126
 21
186.983028
 31
0.0
  0
LINE
  5
A9E8
330
A928
100
AcDbEntity
  8
1
  6
Continuous
100
AcDbLine
 10
133.062126
 20
186.983028
 30
0.0
 11
132.877126
 21
186.9480279999999
 31
0.0
  0
ARC
  5
A9E9
330
A928
100
AcDbEntity
  8
1
  6
Continuous
100
AcDbCircle
 10
135.93777
 20
196.3241099999999
 30
0.0
 40
3.178573
100
AcDbArc
 50
236.7899089999999
 51
270.0
  0
ARC
  5
A9EA
330
A928
100
AcDbEntity
  8
1
  6
Continuous
100
AcDbCircle
 10
138.470358
 20
192.7040159999999
 30
0.0
 40
2.371570999999998
100
AcDbArc
 50
188.020211
 51
218.050809
  0
ARC
  5
A9EB
330
A928
100
AcDbEntity
  8
1
  6
Continuous
100
AcDbCircle
 10
137.152494
 20
191.9918049999999
 30
0.0
 40
1.098799999999998
100
AcDbArc
 50
121.214655
 51
159.693839
  0
LINE
  5
A9EC
330
A928
100
AcDbEntity
  8
1
  6
Continuous
100
AcDbLine
 10
135.9146259999999
 20
191.2422369999999
 30
0.0
 11
135.9146259999999
 21
189.801044
 31
0.0
  0
LINE
  5
A9ED
330
A928
100
AcDbEntity
  8
1
  6
Continuous
100
AcDbLine
 10
136.5830459999999
 20
192.931534
 30
0.0
 11
136.936203
 21
193.1455369999999
 31
0.0
  0
ARC
  5
A9EE
330
A928
100
AcDbEntity
  8
1
  6
Continuous
100
AcDbCircle
 10
135.6928139999999
 20
189.0240619999999
 30
0.0
 40
2.042368999999998
100
AcDbArc
 50
270.6820599999999
 51
340.178191
  0
LINE
  5
A9EF
330
A928
100
AcDbEntity
  8
1
  6
Continuous
100
AcDbLine
 10
135.9146259999999
 20
190.215327
 30
0.0
 11
137.4527889999999
 21
189.801044
 31
0.0
  0
LINE
  5
A9F0
330
A928
100
AcDbEntity
  8
1
  6
Continuous
100
AcDbLine
 10
146.201424
 20
191.2422369999999
 30
0.0
 11
148.437567
 21
189.801044
 31
0.0
  0
LINE
  5
A9F1
330
A928
100
AcDbEntity
  8
1
  6
Continuous
100
AcDbLine
 10
144.787211
 20
191.2422369999999
 30
0.0
 11
147.0233529999999
 21
189.801044
 31
0.0
  0
LINE
  5
A9F2
330
A928
100
AcDbEntity
  8
1
  6
Continuous
100
AcDbLine
 10
143.3729969999999
 20
191.2422369999999
 30
0.0
 11
145.60914
 21
189.801044
 31
0.0
  0
LINE
  5
A9F3
330
A928
100
AcDbEntity
  8
1
  6
Continuous
100
AcDbLine
 10
141.958784
 20
191.2422369999999
 30
0.0
 11
144.194926
 21
189.801044
 31
0.0
  0
LINE
  5
A9F4
330
A928
100
AcDbEntity
  8
1
  6
Continuous
100
AcDbLine
 10
140.54457
 20
191.2422369999999
 30
0.0
 11
142.7807129999998
 21
189.801044
 31
0.0
  0
LINE
  5
A9F5
330
A928
100
AcDbEntity
  8
1
  6
Continuous
100
AcDbLine
 10
139.130357
 20
191.2422369999999
 30
0.0
 11
141.366499
 21
189.801044
 31
0.0
  0
LINE
  5
A9F6
330
A928
100
AcDbEntity
  8
1
  6
Continuous
100
AcDbLine
 10
146.787207
 20
191.2422369999999
 30
0.0
 11
144.5510659999999
 21
189.801044
 31
0.0
  0
LINE
  5
A9F7
330
A928
100
AcDbEntity
  8
1
  6
Continuous
100
AcDbLine
 10
143.9587799999999
 20
191.2422369999999
 30
0.0
 11
141.7226389999999
 21
189.801044
 31
0.0
  0
LINE
  5
A9F8
330
A928
100
AcDbEntity
  8
1
  6
Continuous
100
AcDbLine
 10
141.130353
 20
191.2422369999999
 30
0.0
 11
138.894212
 21
189.801044
 31
0.0
  0
LINE
  5
A9F9
330
A928
100
AcDbEntity
  8
1
  6
Continuous
100
AcDbLine
 10
137.7161429999999
 20
191.2422369999999
 30
0.0
 11
139.9522849999999
 21
189.801044
 31
0.0
  0
LINE
  5
A9FA
330
A928
100
AcDbEntity
  8
1
  6
Continuous
100
AcDbLine
 10
136.3019289999998
 20
191.2422369999999
 30
0.0
 11
138.538072
 21
189.801044
 31
0.0
  0
LINE
  5
A9FB
330
A928
100
AcDbEntity
  8
1
  6
Continuous
100
AcDbLine
 10
138.301926
 20
191.2422369999999
 30
0.0
 11
136.065784
 21
189.801044
 31
0.0
  0
LINE
  5
A9FC
330
A928
100
AcDbEntity
  8
1
  6
Continuous
100
AcDbLine
 10
130.877126
 20
186.928028
 30
0.0
 11
127.658798
 21
186.992395
 31
0.0
  0
LINE
  5
A9FD
330
A928
100
AcDbEntity
  8
1
  6
Continuous
100
AcDbLine
 10
132.0371259999998
 20
186.938028
 30
0.0
 11
131.442126
 21
186.9180279999999
 31
0.0
  0
LINE
  5
A9FE
330
A928
100
AcDbEntity
  8
1
  6
Continuous
100
AcDbLine
 10
131.442126
 20
186.9180279999999
 30
0.0
 11
130.877126
 21
186.928028
 31
0.0
  0
ARC
  5
A9FF
330
A928
100
AcDbEntity
  8
1
  6
Continuous
100
AcDbCircle
 10
127.631779
 20
185.6414879999999
 30
0.0
 40
1.351175999999999
100
AcDbArc
 50
88.85423700000002
 51
129.236686
  0
LINE
  5
AA00
330
A928
100
AcDbEntity
  8
1
  6
Continuous
100
AcDbLine
 10
129.217126
 20
184.961041
 30
0.0
 11
126.9481689999998
 21
184.9947979999998
 31
0.0
  0
LINE
  5
AA01
330
A928
100
AcDbEntity
  8
1
  6
Continuous
100
AcDbLine
 10
126.7771259999999
 20
186.688028
 30
0.0
 11
126.717126
 21
185.773028
 31
0.0
  0
LINE
  5
AA02
330
A928
100
AcDbEntity
  8
1
  6
Continuous
100
AcDbLine
 10
126.717126
 20
185.773028
 30
0.0
 11
126.717126
 21
185.088028
 31
0.0
  0
ARC
  5
AA03
330
A928
100
AcDbEntity
  8
1
  6
Continuous
100
AcDbCircle
 10
126.953311
 20
185.340442
 30
0.0
 40
0.345682
100
AcDbArc
 50
226.9023309999998
 51
269.1476279999998
  0
LINE
  5
AA04
330
A928
100
AcDbEntity
  8
1
  6
Continuous
100
AcDbLine
 10
132.3991289999999
 20
194.8655369999999
 30
0.0
 11
132.2109619999999
 21
195.1135739999998
 31
0.0
  0
LINE
  5
AA05
330
A928
100
AcDbEntity
  8
1
  6
Continuous
100
AcDbLine
 10
122.1646259999999
 20
197.113537
 30
0.0
 11
122.1646259999999
 21
195.1135739999998
 31
0.0
  0
LINE
  5
AA06
330
A928
100
AcDbEntity
  8
1
  6
Continuous
100
AcDbLine
 10
225.5132029999999
 20
186.8011789999999
 30
0.0
 11
225.5132029999999
 21
165.901179
 31
0.0
  0
LINE
  5
AA07
330
A928
100
AcDbEntity
  8
4
  6
CENTER
100
AcDbLine
 10
68.822001
 20
156.6130379999999
 30
0.0
 11
26.365809
 21
156.6130379999999
 31
0.0
  0
LINE
  5
AA08
330
A928
100
AcDbEntity
  8
1
  6
Continuous
100
AcDbLine
 10
59.86604899999999
 20
153.6130379999999
 30
0.0
 11
59.36604899999998
 21
153.6130379999999
 31
0.0
  0
LINE
  5
AA09
330
A928
100
AcDbEntity
  8
1
  6
Continuous
100
AcDbLine
 10
59.96955299999999
 20
159.6130379999999
 30
0.0
 11
59.36604899999998
 21
159.6130379999999
 31
0.0
  0
LINE
  5
AA0A
330
A928
100
AcDbEntity
  8
1
  6
Continuous
100
AcDbLine
 10
36.366049
 20
153.6130379999999
 30
0.0
 11
36.266049
 21
153.6130379999999
 31
0.0
  0
LINE
  5
AA0B
330
A928
100
AcDbEntity
  8
1
  6
Continuous
100
AcDbLine
 10
36.366049
 20
159.6130379999999
 30
0.0
 11
36.162545
 21
159.6130379999999
 31
0.0
  0
LINE
  5
AA0C
330
A928
100
AcDbEntity
  8
1
  6
Continuous
100
AcDbLine
 10
26.866049
 20
197.1135329999999
 30
0.0
 11
68.866049
 21
197.1135329999999
 31
0.0
  0
LINE
  5
AA0D
330
A928
100
AcDbEntity
  8
4
  6
CENTER
100
AcDbLine
 10
47.86604899999999
 20
202.113537
 30
0.0
 11
47.86604899999999
 21
126.6130379999999
 31
0.0
  0
LINE
  5
AA0E
330
A928
100
AcDbEntity
  8
1
  6
Continuous
100
AcDbLine
 10
31.61595
 20
189.801237
 30
0.0
 11
64.11595
 21
189.801044
 31
0.0
  0
ARC
  5
AA0F
330
A928
100
AcDbEntity
  8
1
  6
Continuous
100
AcDbCircle
 10
37.57046499999999
 20
182.5814399999999
 30
0.0
 40
4.205227999999999
100
AcDbArc
 50
96.20676299999999
 51
180.945906
  0
LINE
  5
AA10
330
A928
100
AcDbEntity
  8
1
  6
Continuous
100
AcDbLine
 10
35.444376
 20
191.242233
 30
0.0
 11
33.44437899999999
 21
189.801237
 31
0.0
  0
LINE
  5
AA11
330
A928
100
AcDbEntity
  8
1
  6
Continuous
100
AcDbLine
 10
36.858589
 20
191.242233
 30
0.0
 11
34.85859299999999
 21
189.801237
 31
0.0
  0
LINE
  5
AA12
330
A928
100
AcDbEntity
  8
1
  6
Continuous
100
AcDbLine
 10
33.44437899999999
 20
191.242233
 30
0.0
 11
35.444376
 21
189.801237
 31
0.0
  0
LINE
  5
AA13
330
A928
100
AcDbEntity
  8
1
  6
Continuous
100
AcDbLine
 10
33.36580899999999
 20
148.1763159999998
 30
0.0
 11
35.36604899999999
 21
148.1763159999998
 31
0.0
  0
LINE
  5
AA14
330
A928
100
AcDbEntity
  8
1
  6
Continuous
100
AcDbLine
 10
26.866049
 20
195.113571
 30
0.0
 11
68.866049
 21
195.113571
 31
0.0
  0
LINE
  5
AA15
330
A928
100
AcDbEntity
  8
1
  6
Continuous
100
AcDbLine
 10
31.639094
 20
193.145533
 30
0.0
 11
64.092807
 21
193.145533
 31
0.0
  0
LINE
  5
AA16
330
A928
100
AcDbEntity
  8
1
  6
Continuous
100
AcDbLine
 10
64.11595
 20
191.2421929999999
 30
0.0
 11
31.61595
 21
191.242273
 31
0.0
  0
ARC
  5
AA17
330
A928
100
AcDbEntity
  8
1
  6
Continuous
100
AcDbCircle
 10
55.731462
 20
166.53323
 30
0.0
 40
26.722888
100
AcDbArc
 50
181.355289
 51
204.692905
  0
LINE
  5
AA18
330
A928
100
AcDbEntity
  8
1
  6
Continuous
100
AcDbLine
 10
33.36580899999999
 20
182.5120179999999
 30
0.0
 11
33.36580899999999
 21
148.1763159999998
 31
0.0
  0
LINE
  5
AA19
330
A928
100
AcDbEntity
  8
1
  6
Continuous
100
AcDbLine
 10
32.432493
 20
160.8630379999999
 30
0.0
 11
32.432493
 21
152.3630379999999
 31
0.0
  0
ARC
  5
AA1A
330
A928
100
AcDbEntity
  8
1
  6
Continuous
100
AcDbCircle
 10
40.36580899999999
 20
156.6130379999999
 30
0.0
 40
9.0
100
AcDbArc
 50
151.821357
 51
208.178643
  0
LINE
  5
AA1B
330
A928
100
AcDbEntity
  8
1
  6
Continuous
100
AcDbLine
 10
33.36580899999999
 20
152.3630379999999
 30
0.0
 11
32.432493
 21
152.3630379999999
 31
0.0
  0
LINE
  5
AA1C
330
A928
100
AcDbEntity
  8
1
  6
Continuous
100
AcDbLine
 10
29.016049
 20
186.8011789999999
 30
0.0
 11
29.016049
 21
165.901179
 31
0.0
  0
LINE
  5
AA1D
330
A928
100
AcDbEntity
  8
1
  6
Continuous
100
AcDbLine
 10
33.36580899999999
 20
160.8630379999999
 30
0.0
 11
32.432493
 21
160.8630379999999
 31
0.0
  0
LINE
  5
AA1E
330
A928
100
AcDbEntity
  8
1
  6
Continuous
100
AcDbLine
 10
34.03016199999999
 20
191.242233
 30
0.0
 11
32.03016599999998
 21
189.801237
 31
0.0
  0
ARC
  5
AA1F
330
A928
100
AcDbEntity
  8
1
  6
Continuous
100
AcDbCircle
 10
32.23066699999999
 20
186.579094
 30
0.0
 40
3.22228
100
AcDbArc
 50
89.37084
 51
176.0479389999999
  0
LINE
  5
AA20
330
A928
100
AcDbEntity
  8
1
  6
Continuous
100
AcDbLine
 10
31.61595
 20
191.242233
 30
0.0
 11
31.61595
 21
189.801237
 31
0.0
  0
LINE
  5
AA21
330
A928
100
AcDbEntity
  8
1
  6
Continuous
100
AcDbLine
 10
32.615949
 20
191.242233
 30
0.0
 11
31.61595
 21
190.8012349999999
 31
0.0
  0
LINE
  5
AA22
330
A928
100
AcDbEntity
  8
1
  6
Continuous
100
AcDbLine
 10
32.615949
 20
189.801237
 30
0.0
 11
31.61595
 21
190.8012349999999
 31
0.0
  0
LINE
  5
AA23
330
A928
100
AcDbEntity
  8
1
  6
Continuous
100
AcDbLine
 10
26.866049
 20
197.1135329999999
 30
0.0
 11
26.866049
 21
195.113571
 31
0.0
  0
LINE
  5
AA24
330
A928
100
AcDbEntity
  8
1
  6
Continuous
100
AcDbLine
 10
32.28437
 20
192.93153
 30
0.0
 11
32.63752699999999
 21
193.145533
 31
0.0
  0
ARC
  5
AA25
330
A928
100
AcDbEntity
  8
1
  6
Continuous
100
AcDbCircle
 10
32.853819
 20
191.991802
 30
0.0
 40
1.098799999999998
100
AcDbArc
 50
121.214655
 51
159.693839
  0
ARC
  5
AA26
330
A928
100
AcDbEntity
  8
1
  6
Continuous
100
AcDbCircle
 10
34.17168199999999
 20
192.7040129999998
 30
0.0
 40
2.371570999999998
100
AcDbArc
 50
188.020211
 51
218.050809
  0
ARC
  5
AA27
330
A928
100
AcDbEntity
  8
1
  6
Continuous
100
AcDbCircle
 10
93.63688000000001
 20
291.0302449999999
 30
0.0
 40
116.3729999999999
100
AcDbArc
 50
235.7254979999999
 51
236.7899089999999
  0
LINE
  5
AA28
330
A928
100
AcDbEntity
  8
1
  6
Continuous
100
AcDbLine
 10
28.100453
 20
194.865533
 30
0.0
 11
27.912287
 21
195.113571
 31
0.0
  0
ARC
  5
AA29
330
A928
100
AcDbEntity
  8
1
  6
Continuous
100
AcDbCircle
 10
31.639094
 20
196.324106
 30
0.0
 40
3.178573
100
AcDbArc
 50
236.7899089999999
 51
270.0
  0
ARC
  5
AA2A
330
A928
100
AcDbEntity
  8
1
  6
Continuous
100
AcDbCircle
 10
40.006289
 20
166.370484
 30
0.0
 40
26.713884
100
AcDbArc
 50
326.8265529999998
 51
358.9933849999999
  0
LINE
  5
AA2B
330
A928
100
AcDbEntity
  8
1
  6
Continuous
100
AcDbLine
 10
35.36604899999999
 20
182.5204239999999
 30
0.0
 11
35.36604899999999
 21
148.1763159999998
 31
0.0
  0
LINE
  5
AA2C
330
A928
100
AcDbEntity
  8
1
  6
Continuous
100
AcDbLine
 10
60.366049
 20
182.5204239999999
 30
0.0
 11
60.366049
 21
148.1763159999998
 31
0.0
  0
LINE
  5
AA2D
330
A928
100
AcDbEntity
  8
1
  6
Continuous
100
AcDbLine
 10
62.366289
 20
182.5120179999999
 30
0.0
 11
62.366289
 21
148.1763159999998
 31
0.0
  0
LINE
  5
AA2E
330
A928
100
AcDbEntity
  8
1
  6
Continuous
100
AcDbLine
 10
35.36604899999999
 20
153.6130379999999
 30
0.0
 11
36.366049
 21
153.6130379999999
 31
0.0
  0
LINE
  5
AA2F
330
A928
100
AcDbEntity
  8
1
  6
Continuous
100
AcDbLine
 10
60.366049
 20
148.1763159999998
 30
0.0
 11
62.366289
 21
148.1763159999998
 31
0.0
  0
LINE
  5
AA30
330
A928
100
AcDbEntity
  8
1
  6
Continuous
100
AcDbLine
 10
60.366049
 20
153.6130379999999
 30
0.0
 11
59.36604899999998
 21
153.6130379999999
 31
0.0
  0
ARC
  5
AA31
330
A928
100
AcDbEntity
  8
1
  6
Continuous
100
AcDbCircle
 10
63.50143199999997
 20
186.579094
 30
0.0
 40
3.22228
100
AcDbArc
 50
3.952061
 51
90.62915999999999
  0
ARC
  5
AA32
330
A928
100
AcDbEntity
  8
1
  6
Continuous
100
AcDbCircle
 10
2.095019999999998
 20
291.0302449999999
 30
0.0
 40
116.3729999999999
100
AcDbArc
 50
303.210091
 51
304.2745019999999
  0
LINE
  5
AA33
330
A928
100
AcDbEntity
  8
1
  6
Continuous
100
AcDbLine
 10
66.716049
 20
186.8011789999999
 30
0.0
 11
66.716049
 21
165.901179
 31
0.0
  0
LINE
  5
AA34
330
A928
100
AcDbEntity
  8
1
  6
Continuous
100
AcDbLine
 10
35.36604899999999
 20
159.6130379999999
 30
0.0
 11
36.366049
 21
159.6130379999999
 31
0.0
  0
LINE
  5
AA35
330
A928
100
AcDbEntity
  8
1
  6
Continuous
100
AcDbLine
 10
59.36604899999998
 20
159.6130379999999
 30
0.0
 11
60.366049
 21
159.6130379999999
 31
0.0
  0
LINE
  5
AA36
330
A928
100
AcDbEntity
  8
1
  6
Continuous
100
AcDbLine
 10
37.11604899999999
 20
184.7704239999999
 30
0.0
 11
58.61604899999999
 21
184.7704239999999
 31
0.0
  0
LINE
  5
AA37
330
A928
100
AcDbEntity
  8
1
  6
Continuous
100
AcDbLine
 10
37.11580899999999
 20
186.7620179999999
 30
0.0
 11
58.616289
 21
186.7620179999999
 31
0.0
  0
LINE
  5
AA38
330
A928
100
AcDbEntity
  8
1
  6
Continuous
100
AcDbLine
 10
51.000725
 20
191.242233
 30
0.0
 11
49.000728
 21
189.801237
 31
0.0
  0
LINE
  5
AA39
330
A928
100
AcDbEntity
  8
1
  6
Continuous
100
AcDbLine
 10
52.414938
 20
191.242233
 30
0.0
 11
50.41494199999998
 21
189.801237
 31
0.0
  0
LINE
  5
AA3A
330
A928
100
AcDbEntity
  8
1
  6
Continuous
100
AcDbLine
 10
50.41494199999998
 20
191.242233
 30
0.0
 11
52.414938
 21
189.801237
 31
0.0
  0
LINE
  5
AA3B
330
A928
100
AcDbEntity
  8
1
  6
Continuous
100
AcDbLine
 10
49.586511
 20
191.242233
 30
0.0
 11
47.586515
 21
189.801237
 31
0.0
  0
LINE
  5
AA3C
330
A928
100
AcDbEntity
  8
1
  6
Continuous
100
AcDbLine
 10
47.586515
 20
191.242233
 30
0.0
 11
49.586511
 21
189.801237
 31
0.0
  0
ARC
  5
AA3D
330
A928
100
AcDbEntity
  8
1
  6
Continuous
100
AcDbCircle
 10
37.60282500000001
 20
182.5862649999999
 30
0.0
 40
2.237744999999998
100
AcDbArc
 50
102.5639819999998
 51
181.6860509999999
  0
LINE
  5
AA3E
330
A928
100
AcDbEntity
  8
1
  6
Continuous
100
AcDbLine
 10
39.687016
 20
191.242233
 30
0.0
 11
37.68701999999999
 21
189.801237
 31
0.0
  0
LINE
  5
AA3F
330
A928
100
AcDbEntity
  8
1
  6
Continuous
100
AcDbLine
 10
41.10123
 20
191.242233
 30
0.0
 11
39.101233
 21
189.801237
 31
0.0
  0
LINE
  5
AA40
330
A928
100
AcDbEntity
  8
1
  6
Continuous
100
AcDbLine
 10
42.51544299999999
 20
191.242233
 30
0.0
 11
40.51544699999999
 21
189.801237
 31
0.0
  0
LINE
  5
AA41
330
A928
100
AcDbEntity
  8
1
  6
Continuous
100
AcDbLine
 10
43.929657
 20
191.242233
 30
0.0
 11
41.92966099999997
 21
189.801237
 31
0.0
  0
LINE
  5
AA42
330
A928
100
AcDbEntity
  8
1
  6
Continuous
100
AcDbLine
 10
45.343871
 20
191.242233
 30
0.0
 11
43.34387399999999
 21
189.801237
 31
0.0
  0
LINE
  5
AA43
330
A928
100
AcDbEntity
  8
1
  6
Continuous
100
AcDbLine
 10
46.758084
 20
191.242233
 30
0.0
 11
44.758088
 21
189.801237
 31
0.0
  0
LINE
  5
AA44
330
A928
100
AcDbEntity
  8
1
  6
Continuous
100
AcDbLine
 10
48.17229799999999
 20
191.242233
 30
0.0
 11
46.17230099999999
 21
189.801237
 31
0.0
  0
LINE
  5
AA45
330
A928
100
AcDbEntity
  8
1
  6
Continuous
100
AcDbLine
 10
39.101233
 20
191.242233
 30
0.0
 11
41.10123
 21
189.801237
 31
0.0
  0
LINE
  5
AA46
330
A928
100
AcDbEntity
  8
1
  6
Continuous
100
AcDbLine
 10
41.92966099999997
 20
191.242233
 30
0.0
 11
43.929657
 21
189.801237
 31
0.0
  0
LINE
  5
AA47
330
A928
100
AcDbEntity
  8
1
  6
Continuous
100
AcDbLine
 10
44.758088
 20
191.242233
 30
0.0
 11
46.758084
 21
189.801237
 31
0.0
  0
LINE
  5
AA48
330
A928
100
AcDbEntity
  8
1
  6
Continuous
100
AcDbLine
 10
38.272803
 20
191.242233
 30
0.0
 11
36.27280600000001
 21
189.801237
 31
0.0
  0
LINE
  5
AA49
330
A928
100
AcDbEntity
  8
1
  6
Continuous
100
AcDbLine
 10
36.27280600000001
 20
191.242233
 30
0.0
 11
38.272803
 21
189.801237
 31
0.0
  0
ARC
  5
AA4A
330
A928
100
AcDbEntity
  8
1
  6
Continuous
100
AcDbCircle
 10
58.161634
 20
182.5814399999999
 30
0.0
 40
4.205227999999999
100
AcDbArc
 50
359.054094
 51
83.793237
  0
ARC
  5
AA4B
330
A928
100
AcDbEntity
  8
1
  6
Continuous
100
AcDbCircle
 10
58.129273
 20
182.5862649999999
 30
0.0
 40
2.237744999999998
100
AcDbArc
 50
358.3139489999999
 51
77.436018
  0
LINE
  5
AA4C
330
A928
100
AcDbEntity
  8
1
  6
Continuous
100
AcDbLine
 10
64.11595
 20
191.2421929999999
 30
0.0
 11
64.11595
 21
189.801044
 31
0.0
  0
LINE
  5
AA4D
330
A928
100
AcDbEntity
  8
1
  6
Continuous
100
AcDbLine
 10
56.657579
 20
191.242233
 30
0.0
 11
54.657583
 21
189.801237
 31
0.0
  0
LINE
  5
AA4E
330
A928
100
AcDbEntity
  8
1
  6
Continuous
100
AcDbLine
 10
58.07179300000001
 20
191.242233
 30
0.0
 11
56.071796
 21
189.801237
 31
0.0
  0
LINE
  5
AA4F
330
A928
100
AcDbEntity
  8
1
  6
Continuous
100
AcDbLine
 10
59.486006
 20
191.242233
 30
0.0
 11
57.48601
 21
189.801237
 31
0.0
  0
LINE
  5
AA50
330
A928
100
AcDbEntity
  8
1
  6
Continuous
100
AcDbLine
 10
60.90022
 20
191.242233
 30
0.0
 11
58.900223
 21
189.801237
 31
0.0
  0
LINE
  5
AA51
330
A928
100
AcDbEntity
  8
1
  6
Continuous
100
AcDbLine
 10
62.31443299999999
 20
191.242233
 30
0.0
 11
60.314437
 21
189.801237
 31
0.0
  0
LINE
  5
AA52
330
A928
100
AcDbEntity
  8
1
  6
Continuous
100
AcDbLine
 10
63.728647
 20
191.242233
 30
0.0
 11
61.72865
 21
189.801237
 31
0.0
  0
LINE
  5
AA53
330
A928
100
AcDbEntity
  8
1
  6
Continuous
100
AcDbLine
 10
64.11595
 20
190.774323
 30
0.0
 11
63.142864
 21
189.801237
 31
0.0
  0
LINE
  5
AA54
330
A928
100
AcDbEntity
  8
1
  6
Continuous
100
AcDbLine
 10
56.071796
 20
191.242233
 30
0.0
 11
58.07179300000001
 21
189.801237
 31
0.0
  0
LINE
  5
AA55
330
A928
100
AcDbEntity
  8
1
  6
Continuous
100
AcDbLine
 10
58.900223
 20
191.242233
 30
0.0
 11
60.90022
 21
189.801237
 31
0.0
  0
LINE
  5
AA56
330
A928
100
AcDbEntity
  8
1
  6
Continuous
100
AcDbLine
 10
61.72865
 20
191.242233
 30
0.0
 11
63.728647
 21
189.801237
 31
0.0
  0
LINE
  5
AA57
330
A928
100
AcDbEntity
  8
1
  6
Continuous
100
AcDbLine
 10
55.243366
 20
191.242233
 30
0.0
 11
53.24336899999998
 21
189.801237
 31
0.0
  0
LINE
  5
AA58
330
A928
100
AcDbEntity
  8
1
  6
Continuous
100
AcDbLine
 10
53.24336899999998
 20
191.242233
 30
0.0
 11
55.243366
 21
189.801237
 31
0.0
  0
LINE
  5
AA59
330
A928
100
AcDbEntity
  8
1
  6
Continuous
100
AcDbLine
 10
53.829152
 20
191.242233
 30
0.0
 11
51.829156
 21
189.801237
 31
0.0
  0
LINE
  5
AA5A
330
A928
100
AcDbEntity
  8
1
  6
Continuous
100
AcDbLine
 10
63.44753
 20
192.93153
 30
0.0
 11
63.094374
 21
193.145533
 31
0.0
  0
ARC
  5
AA5B
330
A928
100
AcDbEntity
  8
1
  6
Continuous
100
AcDbCircle
 10
62.87808199999999
 20
191.991802
 30
0.0
 40
1.098799999999998
100
AcDbArc
 50
20.306161
 51
58.785345
  0
ARC
  5
AA5C
330
A928
100
AcDbEntity
  8
1
  6
Continuous
100
AcDbCircle
 10
61.56021800000001
 20
192.7040129999998
 30
0.0
 40
2.371570999999998
100
AcDbArc
 50
321.9491909999999
 51
351.9797889999999
  0
ARC
  5
AA5D
330
A928
100
AcDbEntity
  8
1
  6
Continuous
100
AcDbCircle
 10
64.092807
 20
196.324106
 30
0.0
 40
3.178573
100
AcDbArc
 50
270.0
 51
303.210091
  0
LINE
  5
AA5E
330
A928
100
AcDbEntity
  8
1
  6
Continuous
100
AcDbLine
 10
68.866049
 20
197.1135329999999
 30
0.0
 11
68.866049
 21
195.113571
 31
0.0
  0
LINE
  5
AA5F
330
A928
100
AcDbEntity
  8
1
  6
Continuous
100
AcDbLine
 10
67.63144699999999
 20
194.865533
 30
0.0
 11
67.819614
 21
195.113571
 31
0.0
  0
LINE
  5
AA60
330
A928
100
AcDbEntity
  8
1
  6
Continuous
100
AcDbLine
 10
256.8632029999998
 20
183.020424
 30
0.0
 11
256.8632029999998
 21
148.1763159999998
 31
0.0
  0
LINE
  5
AA61
330
A928
100
AcDbEntity
  8
1
  6
Continuous
100
AcDbLine
 10
231.8632029999999
 20
183.020424
 30
0.0
 11
231.8632029999999
 21
148.1763159999998
 31
0.0
  0
LINE
  5
AA62
330
A928
100
AcDbEntity
  8
4
  6
CENTER
100
AcDbLine
 10
33.36604899999999
 20
202.113537
 30
0.0
 11
33.36604899999999
 21
190.1135739999998
 31
0.0
  0
LINE
  5
AA63
330
A928
100
AcDbEntity
  8
4
  6
CENTER
100
AcDbLine
 10
62.36604899999999
 20
202.113537
 30
0.0
 11
62.36604899999999
 21
190.1135739999998
 31
0.0
  0
LINE
  5
AA64
330
A928
100
AcDbEntity
  8
4
  6
CENTER
100
AcDbLine
 10
229.8632029999999
 20
202.113537
 30
0.0
 11
229.8632029999999
 21
190.1135739999998
 31
0.0
  0
LINE
  5
AA65
330
A928
100
AcDbEntity
  8
4
  6
CENTER
100
AcDbLine
 10
258.8632029999998
 20
202.113537
 30
0.0
 11
258.8632029999998
 21
190.1135739999998
 31
0.0
  0
ARC
  5
AA66
330
A928
100
AcDbEntity
  8
1
  6
Continuous
100
AcDbCircle
 10
252.113443
 20
156.6130379999999
 30
0.0
 40
9.0
100
AcDbArc
 50
331.8213569999999
 51
355.5531859999998
  0
LINE
  5
AA67
330
A928
100
AcDbEntity
  8
1
  6
Continuous
100
AcDbLine
 10
260.046759
 20
153.7473369999999
 30
0.0
 11
260.046759
 21
152.3630379999999
 31
0.0
  0
LINE
  5
AA68
330
A928
100
AcDbEntity
  8
1
  6
Continuous
100
AcDbLine
 10
259.4357299999999
 20
152.3630379999999
 30
0.0
 11
260.046759
 21
152.3630379999999
 31
0.0
  0
LINE
  5
AA69
330
A928
100
AcDbEntity
  8
1
  6
Continuous
100
AcDbLine
 10
129.4032709999999
 20
186.9575049999999
 30
0.0
 11
126.0470149999999
 21
156.359497
 31
0.0
  0
ARC
  5
AA6A
330
A928
100
AcDbEntity
  8
1
  6
Continuous
100
AcDbCircle
 10
131.547542
 20
159.71053
 30
0.0
 40
12.0
100
AcDbArc
 50
295.9209009999998
 51
321.97488
  0
LINE
  5
AA6B
330
A928
100
AcDbEntity
  8
4
  6
CENTER
100
AcDbLine
 10
128.6646259999999
 20
202.113537
 30
0.0
 11
128.6646259999999
 21
190.1135739999998
 31
0.0
  0
LINE
  5
AA6C
330
A928
100
AcDbEntity
  8
4
  6
CENTER
100
AcDbLine
 10
175.664626
 20
202.113537
 30
0.0
 11
175.664626
 21
190.1135739999998
 31
0.0
  0
LINE
  5
AA6D
330
A928
100
AcDbEntity
  8
4
  6
CENTER
100
AcDbLine
 10
181.9146189999999
 20
55.50961199999999
 30
0.0
 11
169.4146189999998
 21
55.50961199999999
 31
0.0
  0
LINE
  5
AA6E
330
A928
100
AcDbEntity
  8
4
  6
CENTER
100
AcDbLine
 10
181.9146189999999
 20
84.509612
 30
0.0
 11
169.4146189999998
 21
84.509612
 31
0.0
  0
LINE
  5
AA6F
330
A928
100
AcDbEntity
  8
4
  6
CENTER
100
AcDbLine
 10
187.1646189999999
 20
70.009612
 30
0.0
 11
103.164626
 21
70.009612
 31
0.0
  0
LINE
  5
AA70
330
A928
100
AcDbEntity
  8
1
  6
Continuous
100
AcDbLine
 10
124.6646189999998
 20
49.009612
 30
0.0
 11
179.6646189999999
 21
49.009612
 31
0.0
  0
LINE
  5
AA71
330
A928
100
AcDbEntity
  8
1
  6
Continuous
100
AcDbLine
 10
179.6646189999999
 20
91.009612
 30
0.0
 11
124.6646189999998
 21
91.009612
 31
0.0
  0
LINE
  5
AA72
330
A928
100
AcDbEntity
  8
4
  6
CENTER
100
AcDbLine
 10
152.164619
 20
44.009612
 30
0.0
 11
152.164619
 21
96.009612
 31
0.0
  0
LINE
  5
AA73
330
A928
100
AcDbEntity
  8
4
  6
CENTER
100
AcDbLine
 10
128.6646189999999
 20
61.75961199999999
 30
0.0
 11
128.6646189999999
 21
49.25961199999999
 31
0.0
  0
LINE
  5
AA74
330
A928
100
AcDbEntity
  8
1
  6
Continuous
100
AcDbLine
 10
122.1646189999999
 20
88.509612
 30
0.0
 11
122.1646189999999
 21
80.009612
 31
0.0
  0
LINE
  5
AA75
330
A928
100
AcDbEntity
  8
4
  6
CENTER
100
AcDbLine
 10
128.6646189999999
 20
90.759612
 30
0.0
 11
128.6646189999999
 21
78.259612
 31
0.0
  0
ARC
  5
AA76
330
A928
100
AcDbEntity
  8
1
  6
Continuous
100
AcDbCircle
 10
128.6646189999999
 20
84.509612
 30
0.0
 40
3.25
100
AcDbArc
 50
23.57455199999999
 51
217.182865
  0
ARC
  5
AA77
330
A928
100
AcDbEntity
  8
1
  6
Continuous
100
AcDbCircle
 10
124.6646189999998
 20
88.509612
 30
0.0
 40
2.5
100
AcDbArc
 50
90.0
 51
180.0
  0
LINE
  5
AA78
330
A928
100
AcDbEntity
  8
4
  6
CENTER
100
AcDbLine
 10
134.9146189999999
 20
84.509612
 30
0.0
 11
122.4146189999999
 21
84.509612
 31
0.0
  0
ARC
  5
AA79
330
A928
100
AcDbEntity
  8
1
  6
Continuous
100
AcDbCircle
 10
124.6646189999998
 20
51.509612
 30
0.0
 40
2.5
100
AcDbArc
 50
180.0
 51
270.0
  0
LINE
  5
AA7A
330
A928
100
AcDbEntity
  8
4
  6
CENTER
100
AcDbLine
 10
134.9146189999999
 20
55.50961199999999
 30
0.0
 11
122.4146189999999
 21
55.50961199999999
 31
0.0
  0
LINE
  5
AA7B
330
A928
100
AcDbEntity
  8
4
  6
CENTER
100
AcDbLine
 10
175.6646189999999
 20
61.75961199999999
 30
0.0
 11
175.6646189999999
 21
49.25961199999999
 31
0.0
  0
LINE
  5
AA7C
330
A928
100
AcDbEntity
  8
1
  6
Continuous
100
AcDbLine
 10
182.1646189999999
 20
51.509612
 30
0.0
 11
182.1646189999999
 21
88.509612
 31
0.0
  0
LINE
  5
AA7D
330
A928
100
AcDbEntity
  8
4
  6
CENTER
100
AcDbLine
 10
175.6646189999999
 20
90.759612
 30
0.0
 11
175.6646189999999
 21
78.259612
 31
0.0
  0
CIRCLE
  5
AA7E
330
A928
100
AcDbEntity
  8
1
  6
Continuous
100
AcDbCircle
 10
175.6646189999999
 20
84.509612
 30
0.0
 40
3.25
  0
ARC
  5
AA7F
330
A928
100
AcDbEntity
  8
1
  6
Continuous
100
AcDbCircle
 10
179.6646189999999
 20
88.509612
 30
0.0
 40
2.5
100
AcDbArc
 50
0.0
 51
90.0
  0
ARC
  5
AA80
330
A928
100
AcDbEntity
  8
1
  6
Continuous
100
AcDbCircle
 10
179.6646189999999
 20
51.509612
 30
0.0
 40
2.5
100
AcDbArc
 50
270.0
 51
0.0
  0
CIRCLE
  5
AA81
330
A928
100
AcDbEntity
  8
1
  6
Continuous
100
AcDbCircle
 10
175.6646189999999
 20
55.50961199999999
 30
0.0
 40
3.25
  0
LINE
  5
AA82
330
A928
100
AcDbEntity
  8
1
  6
Continuous
100
AcDbLine
 10
137.5129129999999
 20
57.50961199999998
 30
0.0
 11
126.07531
 21
57.50961199999998
 31
0.0
  0
LINE
  5
AA83
330
A928
100
AcDbEntity
  8
1
  6
Continuous
100
AcDbLine
 10
136.931079
 20
55.50937199999999
 30
0.0
 11
126.07531
 21
55.50937199999999
 31
0.0
  0
LINE
  5
AA84
330
A928
100
AcDbEntity
  8
1
  6
Continuous
100
AcDbLine
 10
136.931079
 20
84.50985199999998
 30
0.0
 11
126.07531
 21
84.50985199999998
 31
0.0
  0
LINE
  5
AA85
330
A928
100
AcDbEntity
  8
1
  6
Continuous
100
AcDbLine
 10
137.5129129999999
 20
82.509612
 30
0.0
 11
126.07531
 21
82.509612
 31
0.0
  0
LINE
  5
AA86
330
A928
100
AcDbEntity
  8
1
  6
Continuous
100
AcDbLine
 10
130.164626
 20
81.70961199999998
 30
0.0
 11
130.164626
 21
81.50961200000002
 31
0.0
  0
LINE
  5
AA87
330
A928
100
AcDbEntity
  8
1
  6
Continuous
100
AcDbLine
 10
122.1646189999999
 20
60.00961199999998
 30
0.0
 11
122.1646189999999
 21
51.509612
 31
0.0
  0
ARC
  5
AA88
330
A928
100
AcDbEntity
  8
1
  6
Continuous
100
AcDbCircle
 10
128.6646189999999
 20
55.50961199999999
 30
0.0
 40
3.25
100
AcDbArc
 50
112.6198649999998
 51
142.020128
  0
LINE
  5
AA89
330
A928
100
AcDbEntity
  8
4
  6
CENTER
100
AcDbLine
 10
133.164626
 20
127.113237
 30
0.0
 11
133.164626
 21
185.113237
 31
0.0
  0
LINE
  5
AA8A
330
A928
100
AcDbEntity
  8
1
  6
Continuous
100
AcDbLine
 10
126.07531
 20
55.50937199999999
 30
0.0
 11
126.07531
 21
57.50961199999998
 31
0.0
  0
LINE
  5
AA8B
330
A928
100
AcDbEntity
  8
1
  6
Continuous
100
AcDbLine
 10
126.07531
 20
82.509612
 30
0.0
 11
126.07531
 21
84.50985199999998
 31
0.0
  0
ARC
  5
AA8C
330
A928
100
AcDbEntity
  8
1
  6
Continuous
100
AcDbCircle
 10
152.164619
 20
70.009612
 30
0.0
 40
19.953671
100
AcDbArc
 50
227.2057859999999
 51
132.7942139999999
  0
ARC
  5
AA8D
330
A928
100
AcDbEntity
  8
1
  6
Continuous
100
AcDbCircle
 10
152.164619
 20
70.009612
 30
0.0
 40
13.6
100
AcDbArc
 50
227.332075
 51
132.6679249999999
  0
ARC
  5
AA8E
330
A928
100
AcDbEntity
  8
1
  6
Continuous
100
AcDbCircle
 10
152.164619
 20
70.009612
 30
0.0
 40
12.0
100
AcDbArc
 50
236.44269
 51
123.55731
  0
LINE
  5
AA8F
330
A928
100
AcDbEntity
  8
4
  6
CENTER
100
AcDbLine
 10
133.164626
 20
95.81078899999999
 30
0.0
 11
133.164626
 21
44.009612
 31
0.0
  0
ARC
  5
AA90
330
A928
100
AcDbEntity
  8
1
  6
Continuous
100
AcDbCircle
 10
133.164626
 20
62.509372
 30
0.0
 40
9.0
100
AcDbArc
 50
241.8213569999999
 51
298.178643
  0
LINE
  5
AA91
330
A928
100
AcDbEntity
  8
1
  6
Continuous
100
AcDbLine
 10
128.914626
 20
54.576056
 30
0.0
 11
137.414626
 21
54.576056
 31
0.0
  0
LINE
  5
AA92
330
A928
100
AcDbEntity
  8
1
  6
Continuous
100
AcDbLine
 10
136.164626
 20
57.50961199999998
 30
0.0
 11
136.164626
 21
58.109612
 31
0.0
  0
LINE
  5
AA93
330
A928
100
AcDbEntity
  8
1
  6
Continuous
100
AcDbLine
 10
137.414626
 20
55.50937199999999
 30
0.0
 11
137.414626
 21
54.576056
 31
0.0
  0
LINE
  5
AA94
330
A928
100
AcDbEntity
  8
1
  6
Continuous
100
AcDbLine
 10
136.164626
 20
58.509612
 30
0.0
 11
136.164626
 21
58.00961199999999
 31
0.0
  0
LINE
  5
AA95
330
A928
100
AcDbEntity
  8
1
  6
Continuous
100
AcDbLine
 10
136.164626
 20
81.70961199999998
 30
0.0
 11
136.164626
 21
81.50961200000002
 31
0.0
  0
LINE
  5
AA96
330
A928
100
AcDbEntity
  8
1
  6
Continuous
100
AcDbLine
 10
136.164626
 20
82.509612
 30
0.0
 11
136.164626
 21
81.50961200000002
 31
0.0
  0
LINE
  5
AA97
330
A928
100
AcDbEntity
  8
1
  6
Continuous
100
AcDbLine
 10
130.164626
 20
57.50961199999998
 30
0.0
 11
130.164626
 21
58.109612
 31
0.0
  0
LINE
  5
AA98
330
A928
100
AcDbEntity
  8
1
  6
Continuous
100
AcDbLine
 10
128.914626
 20
55.50937199999999
 30
0.0
 11
128.914626
 21
54.576056
 31
0.0
  0
LINE
  5
AA99
330
A928
100
AcDbEntity
  8
1
  6
Continuous
100
AcDbLine
 10
130.164626
 20
58.509612
 30
0.0
 11
130.164626
 21
57.90610799999999
 31
0.0
  0
LINE
  5
AA9A
330
A928
100
AcDbEntity
  8
1
  6
Continuous
100
AcDbLine
 10
130.164626
 20
81.50961200000002
 30
0.0
 11
130.164626
 21
81.70961199999998
 31
0.0
  0
LINE
  5
AA9B
330
A928
100
AcDbEntity
  8
1
  6
Continuous
100
AcDbLine
 10
130.164626
 20
82.509612
 30
0.0
 11
130.164626
 21
81.50961200000002
 31
0.0
  0
ARC
  5
AA9C
330
A928
100
AcDbEntity
  8
1
  6
Continuous
100
AcDbCircle
 10
128.6646189999999
 20
55.50961199999999
 30
0.0
 40
3.25
100
AcDbArc
 50
142.817135
 51
326.0023529999998
  0
LINE
  5
AA9D
330
A928
100
AcDbEntity
  8
1
  6
Continuous
100
AcDbLine
 10
126.07531
 20
246.681635
 30
0.0
 11
126.07531
 21
244.717222
 31
0.0
  0
LINE
  5
AA9E
330
A928
100
AcDbEntity
  8
1
  6
Continuous
100
AcDbLine
 10
128.694865
 20
246.717462
 30
0.0
 11
126.1028819999999
 21
246.717462
 31
0.0
  0
LINE
  5
AA9F
330
A928
100
AcDbEntity
  8
1
  6
Continuous
100
AcDbLine
 10
131.9146189999998
 20
244.717222
 30
0.0
 11
126.07531
 21
244.717222
 31
0.0
  0
LINE
  5
AAA0
330
A928
100
AcDbEntity
  8
1
  6
Continuous
100
AcDbLine
 10
126.07531
 20
273.7177019999999
 30
0.0
 11
126.07531
 21
271.753289
 31
0.0
  0
LINE
  5
AAA1
330
A928
100
AcDbEntity
  8
1
  6
Continuous
100
AcDbLine
 10
128.914626
 20
273.7177019999999
 30
0.0
 11
128.914626
 21
274.651018
 31
0.0
  0
LINE
  5
AAA2
330
A928
100
AcDbEntity
  8
1
  6
Continuous
100
AcDbLine
 10
131.9146189999998
 20
273.7177019999999
 30
0.0
 11
126.07531
 21
273.7177019999999
 31
0.0
  0
LINE
  5
AAA3
330
A928
100
AcDbEntity
  8
1
  6
Continuous
100
AcDbLine
 10
128.694865
 20
271.717462
 30
0.0
 11
126.1028819999999
 21
271.717462
 31
0.0
  0
LINE
  5
AAA4
330
A928
100
AcDbEntity
  8
1
  6
Continuous
100
AcDbLine
 10
128.914626
 20
274.651018
 30
0.0
 11
131.777652
 21
274.651018
 31
0.0
  0
ARC
  5
AAA5
330
A928
100
AcDbEntity
  8
1
  6
Continuous
100
AcDbCircle
 10
133.164626
 20
266.717702
 30
0.0
 40
9.0
100
AcDbArc
 50
101.5730889999999
 51
118.178643
  0
ARC
  5
AAA6
330
A928
100
AcDbEntity
  8
1
  6
Continuous
100
AcDbCircle
 10
167.167723
 20
70.009612
 30
0.0
 40
40.45257399999999
100
AcDbArc
 50
162.0007939999998
 51
163.4839739999998
  0
ARC
  5
AAA7
330
A928
100
AcDbEntity
  8
1
  6
Continuous
100
AcDbCircle
 10
167.167723
 20
70.009612
 30
0.0
 40
40.45257399999999
100
AcDbArc
 50
196.516026
 51
197.9992059999999
  0
ARC
  5
AAA8
330
A928
100
AcDbEntity
  8
1
  6
Continuous
100
AcDbCircle
 10
167.167723
 20
259.217462
 30
0.0
 40
40.45257399999999
100
AcDbArc
 50
196.174637
 51
201.005058
  0
ARC
  5
AAA9
330
A928
100
AcDbEntity
  8
1
  6
Continuous
100
AcDbCircle
 10
167.167723
 20
259.217462
 30
0.0
 40
40.45257399999999
100
AcDbArc
 50
158.9949419999999
 51
163.8253629999999
  0
LINE
  5
AAAA
330
A928
100
AcDbEntity
  8
1
  6
Continuous
100
AcDbLine
 10
170.764126
 20
183.105367
 30
0.0
 11
171.0146259999999
 21
183.105367
 31
0.0
  0
LINE
  5
AAAB
330
A928
100
AcDbEntity
  8
1
  6
Continuous
100
AcDbLine
 10
171.0146259999999
 20
183.105367
 30
0.0
 11
170.6780469999999
 21
187.2199979999998
 31
0.0
  0
ARC
  5
AAAC
330
A928
100
AcDbEntity
  8
1
  6
Continuous
100
AcDbCircle
 10
152.164619
 20
70.009612
 30
0.0
 40
18.85
100
AcDbArc
 50
238.127847
 51
121.872153
  0
ARC
  5
AAAD
330
A928
100
AcDbEntity
  8
1
  6
Continuous
100
AcDbCircle
 10
152.164619
 20
70.009612
 30
0.0
 40
16.85
100
AcDbArc
 50
236.92835
 51
123.07165
  0
ARC
  5
AAAE
330
A928
100
AcDbEntity
  8
1
  6
Continuous
100
AcDbCircle
 10
136.931079
 20
94.50985199999999
 30
0.0
 40
10.0
100
AcDbArc
 50
270.0
 51
301.8721529999999
  0
ARC
  5
AAAF
330
A928
100
AcDbEntity
  8
1
  6
Continuous
100
AcDbCircle
 10
137.5129129999999
 20
92.509612
 30
0.0
 40
10.0
100
AcDbArc
 50
270.0
 51
303.07165
  0
ARC
  5
AAB0
330
A928
100
AcDbEntity
  8
1
  6
Continuous
100
AcDbCircle
 10
137.5129129999999
 20
47.50961199999998
 30
0.0
 40
10.0
100
AcDbArc
 50
56.92835
 51
90.0
  0
ARC
  5
AAB1
330
A928
100
AcDbEntity
  8
1
  6
Continuous
100
AcDbCircle
 10
136.931079
 20
45.50937199999999
 30
0.0
 40
10.0
100
AcDbArc
 50
58.12784699999998
 51
90.0
  0
ARC
  5
AAB2
330
A928
100
AcDbEntity
  8
1
  6
Continuous
100
AcDbCircle
 10
133.164626
 20
250.76175
 30
0.0
 40
7.5
100
AcDbArc
 50
237.769047
 51
258.297302
  0
LINE
  5
AAB3
330
A928
100
AcDbEntity
  8
1
  6
Continuous
100
AcDbLine
 10
131.900744
 20
244.417462
 30
0.0
 11
129.164626
 21
244.417462
 31
0.0
  0
LINE
  5
AAB4
330
A928
100
AcDbEntity
  8
1
  6
Continuous
100
AcDbLine
 10
129.164626
 20
244.417462
 30
0.0
 11
129.164626
 21
244.717462
 31
0.0
  0
LINE
  5
AAB5
330
A928
100
AcDbEntity
  8
1
  6
Continuous
100
AcDbLine
 10
62.666289
 20
160.6130379999999
 30
0.0
 11
62.666289
 21
152.6130379999998
 31
0.0
  0
ARC
  5
AAB6
330
A928
100
AcDbEntity
  8
1
  6
Continuous
100
AcDbCircle
 10
56.322001
 20
156.6130379999999
 30
0.0
 40
7.5
100
AcDbArc
 50
327.769047
 51
32.230953
  0
LINE
  5
AAB7
330
A928
100
AcDbEntity
  8
1
  6
Continuous
100
AcDbLine
 10
62.666289
 20
152.6130379999998
 30
0.0
 11
62.366289
 21
152.6130379999998
 31
0.0
  0
LINE
  5
AAB8
330
A928
100
AcDbEntity
  8
1
  6
Continuous
100
AcDbLine
 10
62.666289
 20
160.6130379999999
 30
0.0
 11
62.366289
 21
160.6130379999999
 31
0.0
  0
CIRCLE
  5
AAB9
330
A928
100
AcDbEntity
  8
1
  6
Continuous
100
AcDbCircle
 10
133.164626
 20
156.613237
 30
0.0
 40
4.0
  0
LINE
  5
AABA
330
A928
100
AcDbEntity
  8
1
  6
Continuous
100
AcDbLine
 10
137.164626
 20
84.80961200000001
 30
0.0
 11
137.164626
 21
84.509612
 31
0.0
  0
LINE
  5
AABB
330
A928
100
AcDbEntity
  8
1
  6
Continuous
100
AcDbLine
 10
129.164626
 20
84.80961200000001
 30
0.0
 11
129.164626
 21
84.509612
 31
0.0
  0
LINE
  5
AABC
330
A928
100
AcDbEntity
  8
1
  6
Continuous
100
AcDbLine
 10
137.164626
 20
84.80961200000001
 30
0.0
 11
129.164626
 21
84.80961200000001
 31
0.0
  0
ARC
  5
AABD
330
A928
100
AcDbEntity
  8
1
  6
Continuous
100
AcDbCircle
 10
133.164626
 20
78.46532399999998
 30
0.0
 40
7.5
100
AcDbArc
 50
57.76904700000001
 51
122.230953
  0
ARC
  5
AABE
330
A928
100
AcDbEntity
  8
1
  6
Continuous
100
AcDbCircle
 10
128.6646189999999
 20
84.509612
 30
0.0
 40
3.25
100
AcDbArc
 50
217.9798719999999
 51
247.380135
  0
ARC
  5
AABF
330
A928
100
AcDbEntity
  8
1
  6
Continuous
100
AcDbCircle
 10
55.731462
 20
166.53323
 30
0.0
 40
26.722888
100
AcDbArc
 50
212.0233099999999
 51
213.180835
  0
LINE
  5
AAC0
330
A928
100
AcDbEntity
  8
1
  6
Continuous
100
AcDbLine
 10
258.863443
 20
149.0286369999998
 30
0.0
 11
258.863443
 21
148.1763159999998
 31
0.0
  0
ARC
  5
AAC1
330
A928
100
AcDbEntity
  8
1
  6
Continuous
100
AcDbCircle
 10
236.503443
 20
166.370484
 30
0.0
 40
26.713884
100
AcDbArc
 50
331.812974
 51
358.9933849999999
  0
LINE
  5
AAC2
330
A928
100
AcDbEntity
  8
1
  6
Continuous
100
AcDbLine
 10
256.8632029999998
 20
148.1763159999998
 30
0.0
 11
258.863443
 21
148.1763159999998
 31
0.0
  0
ARC
  5
AAC3
330
A928
100
AcDbEntity
  8
1
  6
Continuous
100
AcDbCircle
 10
268.863443
 20
149.0286369999998
 30
0.0
 40
10.0
100
AcDbArc
 50
151.812974
 51
180.0
  0
LINE
  5
AAC4
330
A928
100
AcDbEntity
  8
1
  6
Continuous
100
AcDbLine
 10
261.180827
 20
173.974628
 30
0.0
 11
261.180827
 21
166.786439
 31
0.0
  0
ARC
  5
AAC5
330
A928
100
AcDbEntity
  8
1
  6
Continuous
100
AcDbCircle
 10
234.4710669999999
 20
167.255744
 30
0.0
 40
26.713884
100
AcDbArc
 50
331.812974
 51
358.9933849999999
  0
ARC
  5
AAC6
330
A928
100
AcDbEntity
  8
1
  6
Continuous
100
AcDbCircle
 10
266.831067
 20
149.9138979999998
 30
0.0
 40
10.0
100
AcDbArc
 50
151.812974
 51
175.405317
  0
ARC
  5
AAC7
330
A928
100
AcDbEntity
  8
1
  6
Continuous
100
AcDbCircle
 10
252.222963
 20
166.370484
 30
0.0
 40
26.713884
100
AcDbArc
 50
181.006615
 51
208.187026
  0
ARC
  5
AAC8
330
A928
100
AcDbEntity
  8
1
  6
Continuous
100
AcDbCircle
 10
219.8629629999998
 20
149.0286369999998
 30
0.0
 40
10.0
100
AcDbArc
 50
0.0
 51
28.18702599999999
  0
LINE
  5
AAC9
330
A928
100
AcDbEntity
  8
1
  6
Continuous
100
AcDbLine
 10
231.8632029999999
 20
148.1763159999998
 30
0.0
 11
229.8629629999998
 21
148.1763159999998
 31
0.0
  0
LINE
  5
AACA
330
A928
100
AcDbEntity
  8
1
  6
Continuous
100
AcDbLine
 10
229.8629629999998
 20
149.0286369999998
 30
0.0
 11
229.8629629999998
 21
148.1763159999998
 31
0.0
  0
ARC
  5
AACB
330
A928
100
AcDbEntity
  8
1
  6
Continuous
100
AcDbCircle
 10
221.89534
 20
149.9138979999998
 30
0.0
 40
10.0
100
AcDbArc
 50
4.594682999999998
 51
28.18702599999999
  0
ARC
  5
AACC
330
A928
100
AcDbEntity
  8
1
  6
Continuous
100
AcDbCircle
 10
254.25534
 20
167.255744
 30
0.0
 40
26.713884
100
AcDbArc
 50
181.006615
 51
208.187026
  0
LINE
  5
AACD
330
A928
100
AcDbEntity
  8
1
  6
Continuous
100
AcDbLine
 10
227.5455799999999
 20
173.974628
 30
0.0
 11
227.5455799999999
 21
166.786439
 31
0.0
  0
ARC
  5
AACE
330
A928
100
AcDbEntity
  8
1
  6
Continuous
100
AcDbCircle
 10
242.025812
 20
172.986487
 30
0.0
 40
14.51390899999998
100
AcDbArc
 50
135.8421119999999
 51
176.096157
  0
LINE
  5
AACF
330
A928
100
AcDbEntity
  8
1
  6
Continuous
100
AcDbLine
 10
127.4146189999999
 20
247.7174619999999
 30
0.0
 11
128.3842109999999
 21
247.7174619999999
 31
0.0
  0
LINE
  5
AAD0
330
A928
100
AcDbEntity
  8
1
  6
Continuous
100
AcDbLine
 10
127.4146189999999
 20
270.7174619999999
 30
0.0
 11
128.3842109999999
 21
270.7174619999999
 31
0.0
  0
ARC
  5
AAD1
330
A928
100
AcDbEntity
  8
1
  6
Continuous
100
AcDbCircle
 10
133.164626
 20
156.613237
 30
0.0
 40
10.3
100
AcDbArc
 50
126.797603
 51
354.486333
  0
ARC
  5
AAD2
330
A928
100
AcDbEntity
  8
1
  6
Continuous
100
AcDbCircle
 10
133.164626
 20
156.613237
 30
0.0
 40
17.4
100
AcDbArc
 50
107.523435
 51
26.275484
  0
ARC
  5
AAD3
330
A928
100
AcDbEntity
  8
1
  6
Continuous
100
AcDbCircle
 10
133.164626
 20
156.613237
 30
0.0
 40
25.5
100
AcDbArc
 50
99.67667500000001
 51
36.212067
  0
LINE
  5
AAD4
330
A928
100
AcDbEntity
  8
1
  6
Continuous
100
AcDbLine
 10
112.8173
 20
249.217462
 30
0.0
 11
122.1646189999999
 21
249.217462
 31
0.0
  0
LINE
  5
AAD5
330
A928
100
AcDbEntity
  8
1
  6
Continuous
100
AcDbLine
 10
112.8173
 20
269.217462
 30
0.0
 11
122.1646189999999
 21
269.217462
 31
0.0
  0
ARC
  5
AAD6
330
A928
100
AcDbEntity
  8
1
  6
Continuous
100
AcDbCircle
 10
135.6646189999999
 20
259.217462
 30
0.0
 40
28.0
100
AcDbArc
 50
166.464809
 51
193.5351909999999
  0
ARC
  5
AAD7
330
A928
100
AcDbEntity
  8
1
  6
Continuous
100
AcDbCircle
 10
112.8173
 20
264.717462
 30
0.0
 40
4.5
100
AcDbArc
 50
90.0
 51
166.464809
  0
ARC
  5
AAD8
330
A928
100
AcDbEntity
  8
1
  6
Continuous
100
AcDbCircle
 10
112.8173
 20
253.717462
 30
0.0
 40
4.5
100
AcDbArc
 50
193.5351909999999
 51
270.0
  0
LINE
  5
AAD9
330
A928
100
AcDbEntity
  8
1
  6
Continuous
100
AcDbLine
 10
57.866049
 20
176.9603569999999
 30
0.0
 11
57.866049
 21
136.265718
 31
0.0
  0
LINE
  5
AADA
330
A928
100
AcDbEntity
  8
1
  6
Continuous
100
AcDbLine
 10
37.86604899999999
 20
176.9603569999999
 30
0.0
 11
37.86604899999999
 21
136.265718
 31
0.0
  0
ARC
  5
AADB
330
A928
100
AcDbEntity
  8
1
  6
Continuous
100
AcDbCircle
 10
42.36604899999997
 20
136.2657189999999
 30
0.0
 40
4.5
100
AcDbArc
 50
180.0
 51
256.4648089999999
  0
ARC
  5
AADC
330
A928
100
AcDbEntity
  8
1
  6
Continuous
100
AcDbCircle
 10
44.62500699999998
 20
151.5130379999999
 30
0.0
 40
7.758956999999997
100
AcDbArc
 50
180.0
 51
209.411332
  0
LINE
  5
AADD
330
A928
100
AcDbEntity
  8
1
  6
Continuous
100
AcDbLine
 10
36.366049
 20
150.8737189999999
 30
0.0
 11
36.366049
 21
162.3523559999999
 31
0.0
  0
LINE
  5
AADE
330
A928
100
AcDbEntity
  8
1
  6
Continuous
100
AcDbLine
 10
36.86604899999998
 20
149.6130379999998
 30
0.0
 11
36.86604899999998
 21
163.613037
 31
0.0
  0
ARC
  5
AADF
330
A928
100
AcDbEntity
  8
1
  6
Continuous
100
AcDbCircle
 10
44.62500699999998
 20
161.7130379999998
 30
0.0
 40
7.758956999999997
100
AcDbArc
 50
150.5886679999998
 51
180.0
  0
ARC
  5
AAE0
330
A928
100
AcDbEntity
  8
1
  6
Continuous
100
AcDbCircle
 10
38.20536699999999
 20
162.3523559999999
 30
0.0
 40
1.839318
100
AcDbArc
 50
136.7323749999999
 51
180.0
  0
ARC
  5
AAE1
330
A928
100
AcDbEntity
  8
1
  6
Continuous
100
AcDbCircle
 10
38.20536699999999
 20
150.8737189999999
 30
0.0
 40
1.839318
100
AcDbArc
 50
180.0
 51
223.267625
  0
ARC
  5
AAE2
330
A928
100
AcDbEntity
  8
1
  6
Continuous
100
AcDbCircle
 10
51.107092
 20
151.5130379999999
 30
0.0
 40
7.758956999999997
100
AcDbArc
 50
330.5886679999999
 51
0.0
  0
ARC
  5
AAE3
330
A928
100
AcDbEntity
  8
1
  6
Continuous
100
AcDbCircle
 10
53.366049
 20
136.2657189999999
 30
0.0
 40
4.5
100
AcDbArc
 50
283.5351909999999
 51
0.0
  0
ARC
  5
AAE4
330
A928
100
AcDbEntity
  8
1
  6
Continuous
100
AcDbCircle
 10
47.86604899999999
 20
159.1130379999999
 30
0.0
 40
28.0
100
AcDbArc
 50
256.4648089999999
 51
283.5351909999999
  0
LINE
  5
AAE5
330
A928
100
AcDbEntity
  8
1
  6
Continuous
100
AcDbLine
 10
58.866049
 20
149.6130379999998
 30
0.0
 11
58.866049
 21
163.6130379999999
 31
0.0
  0
LINE
  5
AAE6
330
A928
100
AcDbEntity
  8
1
  6
Continuous
100
AcDbLine
 10
59.36604899999998
 20
150.8737189999999
 30
0.0
 11
59.36604899999998
 21
162.3523559999999
 31
0.0
  0
ARC
  5
AAE7
330
A928
100
AcDbEntity
  8
1
  6
Continuous
100
AcDbCircle
 10
57.52673099999999
 20
162.3523559999999
 30
0.0
 40
1.839318
100
AcDbArc
 50
0.0
 51
43.267625
  0
ARC
  5
AAE8
330
A928
100
AcDbEntity
  8
1
  6
Continuous
100
AcDbCircle
 10
51.107092
 20
161.7130379999998
 30
0.0
 40
7.758956999999997
100
AcDbArc
 50
0.0
 51
29.411332
  0
ARC
  5
AAE9
330
A928
100
AcDbEntity
  8
1
  6
Continuous
100
AcDbCircle
 10
57.52673099999999
 20
150.8737189999999
 30
0.0
 40
1.839318
100
AcDbArc
 50
316.7323749999998
 51
0.0
  0
ARC
  5
AAEA
330
A928
100
AcDbEntity
  8
1
  6
Continuous
100
AcDbCircle
 10
42.36604899999997
 20
176.9603569999999
 30
0.0
 40
4.5
100
AcDbArc
 50
103.5351909999999
 51
180.0
  0
ARC
  5
AAEB
330
A928
100
AcDbEntity
  8
1
  6
Continuous
100
AcDbCircle
 10
53.366049
 20
176.9603569999999
 30
0.0
 40
4.5
100
AcDbArc
 50
0.0
 51
76.46480900000002
  0
ARC
  5
AAEC
330
A928
100
AcDbEntity
  8
1
  6
Continuous
100
AcDbCircle
 10
47.86604899999999
 20
154.113038
 30
0.0
 40
28.0
100
AcDbArc
 50
76.46480900000002
 51
103.5351909999999
  0
LINE
  5
AAED
330
A928
100
AcDbEntity
  8
1
  6
Continuous
100
AcDbLine
 10
234.3632029999999
 20
176.9603569999999
 30
0.0
 11
234.3632029999999
 21
136.265718
 31
0.0
  0
LINE
  5
AAEE
330
A928
100
AcDbEntity
  8
1
  6
Continuous
100
AcDbLine
 10
254.3632029999999
 20
176.9603569999999
 30
0.0
 11
254.3632029999999
 21
136.265718
 31
0.0
  0
ARC
  5
AAEF
330
A928
100
AcDbEntity
  8
1
  6
Continuous
100
AcDbCircle
 10
234.7025209999999
 20
150.8737189999999
 30
0.0
 40
1.839318
100
AcDbArc
 50
180.0
 51
223.267625
  0
ARC
  5
AAF0
330
A928
100
AcDbEntity
  8
1
  6
Continuous
100
AcDbCircle
 10
234.7025209999999
 20
162.3523559999999
 30
0.0
 40
1.839318
100
AcDbArc
 50
136.7323749999999
 51
180.0
  0
ARC
  5
AAF1
330
A928
100
AcDbEntity
  8
1
  6
Continuous
100
AcDbCircle
 10
241.1221609999998
 20
161.7130379999998
 30
0.0
 40
7.758956999999997
100
AcDbArc
 50
150.5886679999998
 51
180.0
  0
ARC
  5
AAF2
330
A928
100
AcDbEntity
  8
1
  6
Continuous
100
AcDbCircle
 10
241.1221609999998
 20
151.5130379999999
 30
0.0
 40
7.758956999999997
100
AcDbArc
 50
180.0
 51
209.411332
  0
LINE
  5
AAF3
330
A928
100
AcDbEntity
  8
1
  6
Continuous
100
AcDbLine
 10
232.8632029999999
 20
150.8737189999999
 30
0.0
 11
232.8632029999999
 21
162.3523559999999
 31
0.0
  0
LINE
  5
AAF4
330
A928
100
AcDbEntity
  8
1
  6
Continuous
100
AcDbLine
 10
255.8632029999999
 20
150.8737189999999
 30
0.0
 11
255.8632029999999
 21
162.3523559999999
 31
0.0
  0
LINE
  5
AAF5
330
A928
100
AcDbEntity
  8
1
  6
Continuous
100
AcDbLine
 10
255.3632029999999
 20
149.6130379999998
 30
0.0
 11
255.3632029999999
 21
163.6130379999999
 31
0.0
  0
LINE
  5
AAF6
330
A928
100
AcDbEntity
  8
1
  6
Continuous
100
AcDbLine
 10
233.3632029999999
 20
149.6130379999998
 30
0.0
 11
233.3632029999999
 21
163.613037
 31
0.0
  0
ARC
  5
AAF7
330
A928
100
AcDbEntity
  8
1
  6
Continuous
100
AcDbCircle
 10
244.3632029999999
 20
159.1130379999999
 30
0.0
 40
28.0
100
AcDbArc
 50
256.4648089999999
 51
283.5351909999999
  0
ARC
  5
AAF8
330
A928
100
AcDbEntity
  8
1
  6
Continuous
100
AcDbCircle
 10
238.8632029999999
 20
136.2657189999999
 30
0.0
 40
4.5
100
AcDbArc
 50
180.0
 51
256.4648089999999
  0
ARC
  5
AAF9
330
A928
100
AcDbEntity
  8
1
  6
Continuous
100
AcDbCircle
 10
254.023885
 20
150.8737189999999
 30
0.0
 40
1.839318
100
AcDbArc
 50
316.7323749999998
 51
0.0
  0
ARC
  5
AAFA
330
A928
100
AcDbEntity
  8
1
  6
Continuous
100
AcDbCircle
 10
249.8632029999999
 20
136.2657189999999
 30
0.0
 40
4.5
100
AcDbArc
 50
283.5351909999999
 51
0.0
  0
ARC
  5
AAFB
330
A928
100
AcDbEntity
  8
1
  6
Continuous
100
AcDbCircle
 10
247.6042459999999
 20
151.5130379999999
 30
0.0
 40
7.758956999999997
100
AcDbArc
 50
330.5886679999999
 51
0.0
  0
ARC
  5
AAFC
330
A928
100
AcDbEntity
  8
1
  6
Continuous
100
AcDbCircle
 10
247.6042459999999
 20
161.7130379999998
 30
0.0
 40
7.758956999999997
100
AcDbArc
 50
0.0
 51
29.411332
  0
ARC
  5
AAFD
330
A928
100
AcDbEntity
  8
1
  6
Continuous
100
AcDbCircle
 10
254.023885
 20
162.3523559999999
 30
0.0
 40
1.839318
100
AcDbArc
 50
0.0
 51
43.267625
  0
ARC
  5
AAFE
330
A928
100
AcDbEntity
  8
1
  6
Continuous
100
AcDbCircle
 10
244.3632029999999
 20
154.113038
 30
0.0
 40
28.0
100
AcDbArc
 50
76.46480900000002
 51
103.5351909999999
  0
ARC
  5
AAFF
330
A928
100
AcDbEntity
  8
1
  6
Continuous
100
AcDbCircle
 10
238.8632029999999
 20
176.9603569999999
 30
0.0
 40
4.5
100
AcDbArc
 50
103.5351909999999
 51
180.0
  0
ARC
  5
AB00
330
A928
100
AcDbEntity
  8
1
  6
Continuous
100
AcDbCircle
 10
249.8632029999999
 20
176.9603569999999
 30
0.0
 40
4.5
100
AcDbArc
 50
0.0
 51
76.46480900000002
  0
ARC
  5
AB01
330
A928
100
AcDbEntity
  8
1
  6
Continuous
100
AcDbCircle
 10
135.6646259999999
 20
70.009612
 30
0.0
 40
28.0
100
AcDbArc
 50
166.464809
 51
193.5351909999999
  0
ARC
  5
AB02
330
A928
100
AcDbEntity
  8
1
  6
Continuous
100
AcDbCircle
 10
130.6646259999999
 20
70.009612
 30
0.0
 40
28.0
100
AcDbArc
 50
346.464809
 51
13.53519099999999
  0
ARC
  5
AB03
330
A928
100
AcDbEntity
  8
1
  6
Continuous
100
AcDbCircle
 10
138.903945
 20
60.34893
 30
0.0
 40
1.839318
100
AcDbArc
 50
270.0
 51
313.267625
  0
ARC
  5
AB04
330
A928
100
AcDbEntity
  8
1
  6
Continuous
100
AcDbCircle
 10
138.264626
 20
66.76857
 30
0.0
 40
7.758956999999997
100
AcDbArc
 50
270.0
 51
299.4113319999998
  0
LINE
  5
AB05
330
A928
100
AcDbEntity
  8
1
  6
Continuous
100
AcDbLine
 10
112.817307
 20
60.00961199999998
 30
0.0
 11
153.5119459999999
 21
60.00961199999998
 31
0.0
  0
LINE
  5
AB06
330
A928
100
AcDbEntity
  8
1
  6
Continuous
100
AcDbLine
 10
140.1646259999999
 20
59.009612
 30
0.0
 11
126.1646279999999
 21
59.009612
 31
0.0
  0
ARC
  5
AB07
330
A928
100
AcDbEntity
  8
1
  6
Continuous
100
AcDbCircle
 10
112.817307
 20
64.509612
 30
0.0
 40
4.5
100
AcDbArc
 50
193.5351909999999
 51
270.0
  0
ARC
  5
AB08
330
A928
100
AcDbEntity
  8
1
  6
Continuous
100
AcDbCircle
 10
127.425308
 20
60.34893
 30
0.0
 40
1.839318
100
AcDbArc
 50
226.732375
 51
270.0
  0
ARC
  5
AB09
330
A928
100
AcDbEntity
  8
1
  6
Continuous
100
AcDbCircle
 10
128.064626
 20
66.76857
 30
0.0
 40
7.758956999999997
100
AcDbArc
 50
240.588668
 51
270.0
  0
LINE
  5
AB0A
330
A928
100
AcDbEntity
  8
1
  6
Continuous
100
AcDbLine
 10
138.903945
 20
58.509612
 30
0.0
 11
127.425308
 21
58.509612
 31
0.0
  0
ARC
  5
AB0B
330
A928
100
AcDbEntity
  8
1
  6
Continuous
100
AcDbCircle
 10
153.5119459999999
 20
64.509612
 30
0.0
 40
4.5
100
AcDbArc
 50
270.0
 51
346.464809
  0
ARC
  5
AB0C
330
A928
100
AcDbEntity
  8
1
  6
Continuous
100
AcDbCircle
 10
138.903945
 20
79.670294
 30
0.0
 40
1.839318
100
AcDbArc
 50
46.73237499999999
 51
90.0
  0
ARC
  5
AB0D
330
A928
100
AcDbEntity
  8
1
  6
Continuous
100
AcDbCircle
 10
138.264626
 20
73.25065499999998
 30
0.0
 40
7.758956999999997
100
AcDbArc
 50
60.58866800000001
 51
90.0
  0
LINE
  5
AB0E
330
A928
100
AcDbEntity
  8
1
  6
Continuous
100
AcDbLine
 10
112.817307
 20
80.009612
 30
0.0
 11
153.5119459999999
 21
80.009612
 31
0.0
  0
LINE
  5
AB0F
330
A928
100
AcDbEntity
  8
1
  6
Continuous
100
AcDbLine
 10
140.1646259999999
 20
81.009612
 30
0.0
 11
126.1646269999999
 21
81.009612
 31
0.0
  0
ARC
  5
AB10
330
A928
100
AcDbEntity
  8
1
  6
Continuous
100
AcDbCircle
 10
112.817307
 20
75.509612
 30
0.0
 40
4.5
100
AcDbArc
 50
90.0
 51
166.464809
  0
ARC
  5
AB11
330
A928
100
AcDbEntity
  8
1
  6
Continuous
100
AcDbCircle
 10
128.064626
 20
73.25065499999998
 30
0.0
 40
7.758956999999997
100
AcDbArc
 50
90.0
 51
119.411332
  0
ARC
  5
AB12
330
A928
100
AcDbEntity
  8
1
  6
Continuous
100
AcDbCircle
 10
127.425308
 20
79.670294
 30
0.0
 40
1.839318
100
AcDbArc
 50
90.0
 51
133.267625
  0
LINE
  5
AB13
330
A928
100
AcDbEntity
  8
1
  6
Continuous
100
AcDbLine
 10
138.903945
 20
81.50961200000002
 30
0.0
 11
127.425308
 21
81.50961200000002
 31
0.0
  0
ARC
  5
AB14
330
A928
100
AcDbEntity
  8
1
  6
Continuous
100
AcDbCircle
 10
153.5119459999999
 20
75.509612
 30
0.0
 40
4.5
100
AcDbArc
 50
13.53519099999999
 51
90.0
  0
LINE
  5
AB15
330
A928
100
AcDbEntity
  8
1
  6
Continuous
100
AcDbLine
 10
135.894598
 20
189.801044
 30
0.0
 11
168.843458
 21
189.801044
 31
0.0
  0
ARC
  5
AB16
330
A928
100
AcDbEntity
  8
1
  6
Continuous
100
AcDbCircle
 10
355.56178
 20
156.613237
 30
0.0
 40
25.5
100
AcDbArc
 50
143.787933
 51
80.32332499999998
  0
LINE
  5
AB17
330
A928
100
AcDbEntity
  8
4
  6
CENTER
100
AcDbLine
 10
355.56178
 20
127.113237
 30
0.0
 11
355.56178
 21
185.113237
 31
0.0
  0
LINE
  5
AB18
330
A928
100
AcDbEntity
  8
1
  6
Continuous
100
AcDbLine
 10
359.3231349999999
 20
186.9575049999999
 30
0.0
 11
362.679392
 21
156.359497
 31
0.0
  0
LINE
  5
AB19
330
A928
100
AcDbEntity
  8
4
  6
CENTER
100
AcDbLine
 10
336.5617799999998
 20
202.113537
 30
0.0
 11
336.5617799999998
 21
166.07326
 31
0.0
  0
ARC
  5
AB1A
330
A928
100
AcDbEntity
  8
1
  6
Continuous
100
AcDbCircle
 10
282.957243
 20
135.489325
 30
0.0
 40
63.35981999999999
100
AcDbArc
 50
36.666179
 51
45.952998
  0
LINE
  5
AB1B
330
A928
100
AcDbEntity
  8
1
  6
Continuous
100
AcDbLine
 10
347.7117799999998
 20
186.064782
 30
0.0
 11
347.7117799999998
 21
155.3804749999999
 31
0.0
  0
ARC
  5
AB1C
330
A928
100
AcDbEntity
  8
1
  6
Continuous
100
AcDbCircle
 10
355.56178
 20
156.613237
 30
0.0
 40
17.4
100
AcDbArc
 50
153.7245159999999
 51
72.47656499999997
  0
ARC
  5
AB1D
330
A928
100
AcDbEntity
  8
1
  6
Continuous
100
AcDbCircle
 10
355.56178
 20
156.613237
 30
0.0
 40
10.3
100
AcDbArc
 50
185.513667
 51
53.202397
  0
ARC
  5
AB1E
330
A928
100
AcDbEntity
  8
1
  6
Continuous
100
AcDbCircle
 10
355.2117799999999
 20
155.663237
 30
0.0
 40
7.5
100
AcDbArc
 50
244.0790989999999
 51
5.326703
  0
LINE
  5
AB1F
330
A928
100
AcDbEntity
  8
4
  6
CENTER
100
AcDbLine
 10
385.56178
 20
156.613237
 30
0.0
 11
325.56178
 21
156.613237
 31
0.0
  0
ARC
  5
AB20
330
A928
100
AcDbEntity
  8
1
  6
Continuous
100
AcDbCircle
 10
397.6036619999999
 20
191.3223939999998
 30
0.0
 40
63.31738699999998
100
AcDbArc
 50
210.0174259999998
 51
218.02512
  0
ARC
  5
AB21
330
A928
100
AcDbEntity
  8
1
  6
Continuous
100
AcDbCircle
 10
357.1788649999998
 20
159.71053
 30
0.0
 40
12.0
100
AcDbArc
 50
218.02512
 51
244.0790989999999
  0
ARC
  5
AB22
330
A928
100
AcDbEntity
  8
1
  6
Continuous
100
AcDbCircle
 10
220.543556
 20
89.02488199999996
 30
0.0
 40
141.169928
100
AcDbArc
 50
30.017426
 51
36.666179
  0
LINE
  5
AB23
330
A928
100
AcDbEntity
  8
1
  6
Continuous
100
AcDbLine
 10
359.5092799999998
 20
184.961041
 30
0.0
 11
361.778237
 21
184.9947979999998
 31
0.0
  0
ARC
  5
AB24
330
A928
100
AcDbEntity
  8
1
  6
Continuous
100
AcDbCircle
 10
361.0946269999999
 20
185.6414879999999
 30
0.0
 40
1.351175999999999
100
AcDbArc
 50
50.763314
 51
91.14576300000001
  0
LINE
  5
AB25
330
A928
100
AcDbEntity
  8
1
  6
Continuous
100
AcDbLine
 10
366.56178
 20
195.1135739999998
 30
0.0
 11
306.56178
 21
195.1135739999998
 31
0.0
  0
LINE
  5
AB26
330
A928
100
AcDbEntity
  8
1
  6
Continuous
100
AcDbLine
 10
366.56178
 20
197.113537
 30
0.0
 11
306.56178
 21
197.113537
 31
0.0
  0
LINE
  5
AB27
330
A928
100
AcDbEntity
  8
1
  6
Continuous
100
AcDbLine
 10
366.56178
 20
197.113537
 30
0.0
 11
366.56178
 21
195.1135739999998
 31
0.0
  0
ARC
  5
AB28
330
A928
100
AcDbEntity
  8
1
  6
Continuous
100
AcDbCircle
 10
361.773095
 20
185.340442
 30
0.0
 40
0.345682
100
AcDbArc
 50
270.852372
 51
313.097669
  0
LINE
  5
AB29
330
A928
100
AcDbEntity
  8
1
  6
Continuous
100
AcDbLine
 10
362.00928
 20
185.773028
 30
0.0
 11
362.00928
 21
185.088028
 31
0.0
  0
LINE
  5
AB2A
330
A928
100
AcDbEntity
  8
1
  6
Continuous
100
AcDbLine
 10
361.9492799999999
 20
186.688028
 30
0.0
 11
362.00928
 21
185.773028
 31
0.0
  0
LINE
  5
AB2B
330
A928
100
AcDbEntity
  8
1
  6
Continuous
100
AcDbLine
 10
352.8318089999999
 20
189.801044
 30
0.0
 11
319.882949
 21
189.801044
 31
0.0
  0
LINE
  5
AB2C
330
A928
100
AcDbEntity
  8
1
  6
Continuous
100
AcDbLine
 10
329.7970599999998
 20
191.2422369999999
 30
0.0
 11
327.560918
 21
189.801044
 31
0.0
  0
LINE
  5
AB2D
330
A928
100
AcDbEntity
  8
1
  6
Continuous
100
AcDbLine
 10
331.2112729999999
 20
191.2422369999999
 30
0.0
 11
328.9751319999999
 21
189.801044
 31
0.0
  0
LINE
  5
AB2E
330
A928
100
AcDbEntity
  8
1
  6
Continuous
100
AcDbLine
 10
327.7970629999999
 20
191.2422369999999
 30
0.0
 11
330.033206
 21
189.801044
 31
0.0
  0
LINE
  5
AB2F
330
A928
100
AcDbEntity
  8
1
  6
Continuous
100
AcDbLine
 10
320.31178
 20
191.2421979999998
 30
0.0
 11
352.8117799999998
 21
191.242276
 31
0.0
  0
LINE
  5
AB30
330
A928
100
AcDbEntity
  8
1
  6
Continuous
100
AcDbLine
 10
352.788636
 20
193.1455369999999
 30
0.0
 11
320.334924
 21
193.1455369999999
 31
0.0
  0
LINE
  5
AB31
330
A928
100
AcDbEntity
  8
4
  6
CENTER
100
AcDbLine
 10
360.06178
 20
202.113537
 30
0.0
 11
360.06178
 21
190.1135739999998
 31
0.0
  0
LINE
  5
AB32
330
A928
100
AcDbEntity
  8
1
  6
Continuous
100
AcDbLine
 10
345.353409
 20
191.2422369999999
 30
0.0
 11
343.1172669999999
 21
189.801044
 31
0.0
  0
LINE
  5
AB33
330
A928
100
AcDbEntity
  8
1
  6
Continuous
100
AcDbLine
 10
346.767622
 20
191.2422369999999
 30
0.0
 11
344.5314809999999
 21
189.801044
 31
0.0
  0
LINE
  5
AB34
330
A928
100
AcDbEntity
  8
1
  6
Continuous
100
AcDbLine
 10
344.7676259999998
 20
191.2422369999999
 30
0.0
 11
347.0037679999999
 21
189.801044
 31
0.0
  0
LINE
  5
AB35
330
A928
100
AcDbEntity
  8
1
  6
Continuous
100
AcDbLine
 10
348.1818359999999
 20
191.2422369999999
 30
0.0
 11
345.9456939999999
 21
189.801044
 31
0.0
  0
LINE
  5
AB36
330
A928
100
AcDbEntity
  8
1
  6
Continuous
100
AcDbLine
 10
349.5960489999998
 20
191.2422369999999
 30
0.0
 11
347.359908
 21
189.801044
 31
0.0
  0
LINE
  5
AB37
330
A928
100
AcDbEntity
  8
1
  6
Continuous
100
AcDbLine
 10
351.010263
 20
191.2422369999999
 30
0.0
 11
348.7741219999999
 21
189.801044
 31
0.0
  0
LINE
  5
AB38
330
A928
100
AcDbEntity
  8
1
  6
Continuous
100
AcDbLine
 10
347.596053
 20
191.2422369999999
 30
0.0
 11
349.832195
 21
189.801044
 31
0.0
  0
LINE
  5
AB39
330
A928
100
AcDbEntity
  8
1
  6
Continuous
100
AcDbLine
 10
352.424477
 20
191.2422369999999
 30
0.0
 11
350.1883349999998
 21
189.801044
 31
0.0
  0
LINE
  5
AB3A
330
A928
100
AcDbEntity
  8
1
  6
Continuous
100
AcDbLine
 10
350.4244799999999
 20
191.2422369999999
 30
0.0
 11
352.660623
 21
189.801044
 31
0.0
  0
LINE
  5
AB3B
330
A928
100
AcDbEntity
  8
1
  6
Continuous
100
AcDbLine
 10
352.8117799999998
 20
190.215327
 30
0.0
 11
351.273617
 21
189.801044
 31
0.0
  0
ARC
  5
AB3C
330
A928
100
AcDbEntity
  8
1
  6
Continuous
100
AcDbCircle
 10
351.8469889999999
 20
186.686869
 30
0.0
 40
3.266183999999998
100
AcDbArc
 50
38.25670199999999
 51
72.45108899999998
  0
LINE
  5
AB3D
330
A928
100
AcDbEntity
  8
1
  6
Continuous
100
AcDbLine
 10
352.8117799999998
 20
191.2422369999999
 30
0.0
 11
352.8117799999998
 21
189.801044
 31
0.0
  0
LINE
  5
AB3E
330
A928
100
AcDbEntity
  8
1
  6
Continuous
100
AcDbLine
 10
356.3272769999999
 20
194.8655369999999
 30
0.0
 11
356.515444
 21
195.1135739999998
 31
0.0
  0
LINE
  5
AB3F
330
A928
100
AcDbEntity
  8
1
  6
Continuous
100
AcDbLine
 10
357.2842799999999
 20
186.9180279999999
 30
0.0
 11
357.8492799999998
 21
186.928028
 31
0.0
  0
LINE
  5
AB40
330
A928
100
AcDbEntity
  8
1
  6
Continuous
100
AcDbLine
 10
356.68928
 20
186.938028
 30
0.0
 11
357.2842799999999
 21
186.9180279999999
 31
0.0
  0
LINE
  5
AB41
330
A928
100
AcDbEntity
  8
1
  6
Continuous
100
AcDbLine
 10
357.8492799999998
 20
186.928028
 30
0.0
 11
361.067608
 21
186.992395
 31
0.0
  0
ARC
  5
AB42
330
A928
100
AcDbEntity
  8
1
  6
Continuous
100
AcDbCircle
 10
353.033592
 20
189.0240619999999
 30
0.0
 40
2.042368999999998
100
AcDbArc
 50
199.821809
 51
269.3179399999999
  0
LINE
  5
AB43
330
A928
100
AcDbEntity
  8
1
  6
Continuous
100
AcDbLine
 10
352.1433599999999
 20
192.931534
 30
0.0
 11
351.7902029999998
 21
193.1455369999999
 31
0.0
  0
ARC
  5
AB44
330
A928
100
AcDbEntity
  8
1
  6
Continuous
100
AcDbCircle
 10
351.573912
 20
191.9918049999999
 30
0.0
 40
1.098799999999998
100
AcDbArc
 50
20.306161
 51
58.785345
  0
ARC
  5
AB45
330
A928
100
AcDbEntity
  8
1
  6
Continuous
100
AcDbCircle
 10
350.256048
 20
192.7040159999999
 30
0.0
 40
2.371570999999998
100
AcDbArc
 50
321.9491909999999
 51
351.9797889999999
  0
ARC
  5
AB46
330
A928
100
AcDbEntity
  8
1
  6
Continuous
100
AcDbCircle
 10
352.788636
 20
196.3241099999999
 30
0.0
 40
3.178573
100
AcDbArc
 50
270.0
 51
303.210091
  0
LINE
  5
AB47
330
A928
100
AcDbEntity
  8
1
  6
Continuous
100
AcDbLine
 10
355.6642799999999
 20
186.983028
 30
0.0
 11
355.8492799999998
 21
186.9480279999999
 31
0.0
  0
LINE
  5
AB48
330
A928
100
AcDbEntity
  8
1
  6
Continuous
100
AcDbLine
 10
355.49428
 20
187.068028
 30
0.0
 11
355.6642799999999
 21
186.983028
 31
0.0
  0
LINE
  5
AB49
330
A928
100
AcDbEntity
  8
1
  6
Continuous
100
AcDbLine
 10
355.1542799999999
 20
187.2680279999999
 30
0.0
 11
355.49428
 21
187.068028
 31
0.0
  0
LINE
  5
AB4A
330
A928
100
AcDbEntity
  8
1
  6
Continuous
100
AcDbLine
 10
355.0092799999998
 20
187.7030279999999
 30
0.0
 11
355.1542799999999
 21
187.2680279999999
 31
0.0
  0
ARC
  5
AB4B
330
A928
100
AcDbEntity
  8
1
  6
Continuous
100
AcDbCircle
 10
350.916095
 20
185.9528349999999
 30
0.0
 40
4.451666999999998
100
AcDbArc
 50
23.150932
 51
38.25670199999999
  0
ARC
  5
AB4C
330
A928
100
AcDbEntity
  8
1
  6
Continuous
100
AcDbCircle
 10
290.7908499999999
 20
291.030249
 30
0.0
 40
116.3729999999999
100
AcDbArc
 50
303.210091
 51
304.2745019999999
  0
LINE
  5
AB4D
330
A928
100
AcDbEntity
  8
1
  6
Continuous
100
AcDbLine
 10
353.0092799999998
 20
186.9818379999999
 30
0.0
 11
356.68928
 21
186.938028
 31
0.0
  0
LINE
  5
AB4E
330
A928
100
AcDbEntity
  8
1
  6
Continuous
100
AcDbLine
 10
332.625487
 20
191.2422369999999
 30
0.0
 11
330.3893449999999
 21
189.801044
 31
0.0
  0
LINE
  5
AB4F
330
A928
100
AcDbEntity
  8
1
  6
Continuous
100
AcDbLine
 10
335.4539139999999
 20
191.2422369999999
 30
0.0
 11
333.217772
 21
189.801044
 31
0.0
  0
LINE
  5
AB50
330
A928
100
AcDbEntity
  8
1
  6
Continuous
100
AcDbLine
 10
334.0396999999999
 20
191.2422369999999
 30
0.0
 11
331.803559
 21
189.801044
 31
0.0
  0
LINE
  5
AB51
330
A928
100
AcDbEntity
  8
1
  6
Continuous
100
AcDbLine
 10
330.62549
 20
191.2422369999999
 30
0.0
 11
332.861633
 21
189.801044
 31
0.0
  0
LINE
  5
AB52
330
A928
100
AcDbEntity
  8
1
  6
Continuous
100
AcDbLine
 10
333.4539169999998
 20
191.2422369999999
 30
0.0
 11
335.69006
 21
189.801044
 31
0.0
  0
LINE
  5
AB53
330
A928
100
AcDbEntity
  8
1
  6
Continuous
100
AcDbLine
 10
336.868127
 20
191.2422369999999
 30
0.0
 11
334.6319859999999
 21
189.801044
 31
0.0
  0
LINE
  5
AB54
330
A928
100
AcDbEntity
  8
1
  6
Continuous
100
AcDbLine
 10
338.2823409999998
 20
191.2422369999999
 30
0.0
 11
336.0462
 21
189.801044
 31
0.0
  0
LINE
  5
AB55
330
A928
100
AcDbEntity
  8
1
  6
Continuous
100
AcDbLine
 10
336.282345
 20
191.2422369999999
 30
0.0
 11
338.5184869999998
 21
189.801044
 31
0.0
  0
LINE
  5
AB56
330
A928
100
AcDbEntity
  8
1
  6
Continuous
100
AcDbLine
 10
339.696554
 20
191.2422369999999
 30
0.0
 11
337.460413
 21
189.801044
 31
0.0
  0
LINE
  5
AB57
330
A928
100
AcDbEntity
  8
1
  6
Continuous
100
AcDbLine
 10
341.110768
 20
191.2422369999999
 30
0.0
 11
338.8746269999999
 21
189.801044
 31
0.0
  0
LINE
  5
AB58
330
A928
100
AcDbEntity
  8
1
  6
Continuous
100
AcDbLine
 10
342.5249819999999
 20
191.2422369999999
 30
0.0
 11
340.28884
 21
189.801044
 31
0.0
  0
LINE
  5
AB59
330
A928
100
AcDbEntity
  8
1
  6
Continuous
100
AcDbLine
 10
339.1107719999999
 20
191.2422369999999
 30
0.0
 11
341.3469140000001
 21
189.801044
 31
0.0
  0
LINE
  5
AB5A
330
A928
100
AcDbEntity
  8
1
  6
Continuous
100
AcDbLine
 10
343.939195
 20
191.2422369999999
 30
0.0
 11
341.703054
 21
189.801044
 31
0.0
  0
LINE
  5
AB5B
330
A928
100
AcDbEntity
  8
1
  6
Continuous
100
AcDbLine
 10
341.9391989999998
 20
191.2422369999999
 30
0.0
 11
344.175341
 21
189.801044
 31
0.0
  0
LINE
  5
AB5C
330
A928
100
AcDbEntity
  8
4
  6
CENTER
100
AcDbLine
 10
313.06178
 20
202.113537
 30
0.0
 11
313.06178
 21
190.1135739999998
 31
0.0
  0
ARC
  5
AB5D
330
A928
100
AcDbEntity
  8
1
  6
Continuous
100
AcDbCircle
 10
320.781266
 20
187.2199979999998
 30
0.0
 40
2.732905
100
AcDbArc
 50
109.190122
 51
180.0
  0
LINE
  5
AB5E
330
A928
100
AcDbEntity
  8
1
  6
Continuous
100
AcDbLine
 10
322.725992
 20
191.2422369999999
 30
0.0
 11
320.48985
 21
189.801044
 31
0.0
  0
LINE
  5
AB5F
330
A928
100
AcDbEntity
  8
1
  6
Continuous
100
AcDbLine
 10
320.31178
 20
191.2422369999999
 30
0.0
 11
320.31178
 21
189.801044
 31
0.0
  0
LINE
  5
AB60
330
A928
100
AcDbEntity
  8
1
  6
Continuous
100
AcDbLine
 10
321.8384069999999
 20
189.801044
 30
0.0
 11
320.31178
 21
190.2422389999999
 31
0.0
  0
LINE
  5
AB61
330
A928
100
AcDbEntity
  8
1
  6
Continuous
100
AcDbLine
 10
324.140205
 20
191.2422369999999
 30
0.0
 11
321.904064
 21
189.801044
 31
0.0
  0
LINE
  5
AB62
330
A928
100
AcDbEntity
  8
1
  6
Continuous
100
AcDbLine
 10
325.554419
 20
191.2422369999999
 30
0.0
 11
323.318277
 21
189.801044
 31
0.0
  0
LINE
  5
AB63
330
A928
100
AcDbEntity
  8
1
  6
Continuous
100
AcDbLine
 10
322.1402089999999
 20
191.2422369999999
 30
0.0
 11
324.3763509999999
 21
189.801044
 31
0.0
  0
LINE
  5
AB64
330
A928
100
AcDbEntity
  8
1
  6
Continuous
100
AcDbLine
 10
326.9686319999999
 20
191.2422369999999
 30
0.0
 11
324.7324909999999
 21
189.801044
 31
0.0
  0
LINE
  5
AB65
330
A928
100
AcDbEntity
  8
1
  6
Continuous
100
AcDbLine
 10
328.3828459999999
 20
191.2422369999999
 30
0.0
 11
326.146705
 21
189.801044
 31
0.0
  0
LINE
  5
AB66
330
A928
100
AcDbEntity
  8
1
  6
Continuous
100
AcDbLine
 10
324.968636
 20
191.2422369999999
 30
0.0
 11
327.2047779999998
 21
189.801044
 31
0.0
  0
LINE
  5
AB67
330
A928
100
AcDbEntity
  8
1
  6
Continuous
100
AcDbLine
 10
317.7117799999999
 20
183.105367
 30
0.0
 11
318.04836
 21
187.2199979999998
 31
0.0
  0
LINE
  5
AB68
330
A928
100
AcDbEntity
  8
1
  6
Continuous
100
AcDbLine
 10
317.9622799999999
 20
183.105367
 30
0.0
 11
317.7117799999999
 21
183.105367
 31
0.0
  0
LINE
  5
AB69
330
A928
100
AcDbEntity
  8
1
  6
Continuous
100
AcDbLine
 10
318.7112799999998
 20
183.063028
 30
0.0
 11
319.37628
 21
183.018028
 31
0.0
  0
ARC
  5
AB6A
330
A928
100
AcDbEntity
  8
1
  6
Continuous
100
AcDbCircle
 10
320.334924
 20
196.3241099999999
 30
0.0
 40
3.178573
100
AcDbArc
 50
236.7899089999999
 51
270.0
  0
LINE
  5
AB6B
330
A928
100
AcDbEntity
  8
1
  6
Continuous
100
AcDbLine
 10
317.9622799999999
 20
183.105367
 30
0.0
 11
318.7112799999998
 21
183.063028
 31
0.0
  0
ARC
  5
AB6C
330
A928
100
AcDbEntity
  8
1
  6
Continuous
100
AcDbCircle
 10
382.33271
 20
291.030249
 30
0.0
 40
116.3729999999999
100
AcDbArc
 50
235.7254979999999
 51
236.7899089999999
  0
LINE
  5
AB6D
330
A928
100
AcDbEntity
  8
1
  6
Continuous
100
AcDbLine
 10
316.796283
 20
194.8655369999999
 30
0.0
 11
316.608116
 21
195.1135739999998
 31
0.0
  0
LINE
  5
AB6E
330
A928
100
AcDbEntity
  8
1
  6
Continuous
100
AcDbLine
 10
321.311778
 20
191.2422369999999
 30
0.0
 11
320.31178
 21
190.2422389999999
 31
0.0
  0
LINE
  5
AB6F
330
A928
100
AcDbEntity
  8
1
  6
Continuous
100
AcDbLine
 10
320.9802
 20
192.931534
 30
0.0
 11
321.3333569999999
 21
193.1455369999999
 31
0.0
  0
LINE
  5
AB70
330
A928
100
AcDbEntity
  8
1
  6
Continuous
100
AcDbLine
 10
319.5992799999999
 20
183.0780279999999
 30
0.0
 11
323.182161
 21
183.0780279999999
 31
0.0
  0
LINE
  5
AB71
330
A928
100
AcDbEntity
  8
1
  6
Continuous
100
AcDbLine
 10
319.37628
 20
183.018028
 30
0.0
 11
319.5992799999999
 21
183.0780279999999
 31
0.0
  0
ARC
  5
AB72
330
A928
100
AcDbEntity
  8
1
  6
Continuous
100
AcDbCircle
 10
321.549648
 20
191.9918049999999
 30
0.0
 40
1.098799999999998
100
AcDbArc
 50
121.214655
 51
159.693839
  0
ARC
  5
AB73
330
A928
100
AcDbEntity
  8
1
  6
Continuous
100
AcDbCircle
 10
322.8675119999999
 20
192.7040159999999
 30
0.0
 40
2.371570999999998
100
AcDbArc
 50
188.020211
 51
218.050809
  0
ARC
  5
AB74
330
A928
100
AcDbEntity
  8
1
  6
Continuous
100
AcDbCircle
 10
322.423912
 20
177.0631459999999
 30
0.0
 40
6.062488
100
AcDbArc
 50
40.87425699999999
 51
82.815066
  0
LINE
  5
AB75
330
A928
100
AcDbEntity
  8
1
  6
Continuous
100
AcDbLine
 10
306.56178
 20
197.113537
 30
0.0
 11
306.56178
 21
195.1135739999998
 31
0.0
  0
CIRCLE
  5
AB76
330
A928
100
AcDbEntity
  8
1
  6
Continuous
100
AcDbCircle
 10
355.56178
 20
156.613237
 30
0.0
 40
4.25
  0
LINE
  5
AB77
330
A928
100
AcDbEntity
  8
4
  6
CENTER
100
AcDbLine
 10
133.1646189999998
 20
285.2174619999999
 30
0.0
 11
133.1646189999998
 21
233.2174619999999
 31
0.0
  0
ENDSEC
  0
SECTION
  2
OBJECTS
  0
DICTIONARY
  5
A916
330
0
100
AcDbDictionary
281
     1
  3
ACAD_CIP_PREVIOUS_PRODUCT_INFO
350
ABD9
  3
ACAD_COLOR
350
ABBB
  3
ACAD_DETAILVIEWSTYLE
350
ABD4
  3
ACAD_GROUP
350
A917
  3
ACAD_LAYOUT
350
A923
  3
ACAD_MATERIAL
350
AB89
  3
ACAD_MLEADERSTYLE
350
ABD0
  3
ACAD_MLINESTYLE
350
A920
  3
ACAD_PLOTSETTINGS
350
A922
  3
ACAD_PLOTSTYLENAME
350
AB87
  3
ACAD_SCALELIST
350
ABBE
  3
ACAD_SECTIONVIEWSTYLE
350
ABD2
  3
ACAD_TABLESTYLE
350
ABBC
  3
ACAD_VISUALSTYLE
350
ABA2
  3
ACDB_RECOMPOSE_DATA
350
ABF7
  3
AcDbVariableDictionary
350
ABEA
  3
DWGPROPS
350
ABF8
  0
DICTIONARY
  5
ABDA
330
A91A
100
AcDbDictionary
280
     1
281
     1
  3
ADSK_XREC_LAYER_RECONCILED
360
ABDB
  0
DICTIONARY
  5
ABDC
330
A930
100
AcDbDictionary
280
     1
281
     1
  3
ADSK_XREC_LAYER_RECONCILED
360
ABDD
  0
DICTIONARY
  5
ABDE
330
A931
100
AcDbDictionary
280
     1
281
     1
  3
ADSK_XREC_LAYER_RECONCILED
360
ABDF
  0
DICTIONARY
  5
ABE0
330
A932
100
AcDbDictionary
280
     1
281
     1
  3
ADSK_XREC_LAYER_RECONCILED
360
ABE1
  0
DICTIONARY
  5
ABE2
330
A933
100
AcDbDictionary
280
     1
281
     1
  3
ADSK_XREC_LAYER_RECONCILED
360
ABE3
  0
DICTIONARY
  5
ABE4
330
A934
100
AcDbDictionary
280
     1
281
     1
  3
ADSK_XREC_LAYER_RECONCILED
360
ABE5
  0
DICTIONARY
  5
ABE6
330
A935
100
AcDbDictionary
280
     1
281
     1
  3
ADSK_XREC_LAYER_RECONCILED
360
ABE7
  0
DICTIONARY
  5
ABE8
330
A936
100
AcDbDictionary
280
     1
281
     1
  3
ADSK_XREC_LAYER_RECONCILED
360
ABE9
  0
DICTIONARY
  5
AB82
330
A928
100
AcDbDictionary
281
     1
  3
ACAD_LAYOUTSELFREF
350
AB83
  0
DICTIONARY
  5
AB80
330
A924
100
AcDbDictionary
281
     1
  3
ACAD_LAYOUTSELFREF
350
AB81
  0
XRECORD
  5
ABD9
102
{ACAD_REACTORS
330
A916
102
}
330
A916
100
AcDbXrecord
280
     1
300
ACDLT
300
2014
300
ACDLT_F_S
  0
DICTIONARY
  5
ABBB
102
{ACAD_REACTORS
330
A916
102
}
330
A916
100
AcDbDictionary
281
     1
  0
DICTIONARY
  5
ABD4
102
{ACAD_REACTORS
330
A916
102
}
330
A916
100
AcDbDictionary
281
     1
  3
Imperial24
350
ABD5
  0
DICTIONARY
  5
A917
102
{ACAD_REACTORS
330
A916
102
}
330
A916
100
AcDbDictionary
281
     1
  0
DICTIONARY
  5
A923
102
{ACAD_REACTORS
330
A916
102
}
330
A916
100
AcDbDictionary
281
     1
  3
Model
350
ABD6
  3
レイアウト1
350
ABD7
  0
DICTIONARY
  5
AB89
102
{ACAD_REACTORS
330
A916
102
}
330
A916
100
AcDbDictionary
281
     1
  3
ByBlock
350
AB92
  3
ByLayer
350
AB8A
  3
Global
350
AB9A
  0
DICTIONARY
  5
ABD0
102
{ACAD_REACTORS
330
A916
102
}
330
A916
100
AcDbDictionary
281
     1
  3
Standard
350
ABD1
  0
DICTIONARY
  5
A920
102
{ACAD_REACTORS
330
A916
102
}
330
A916
100
AcDbDictionary
281
     1
  3
STANDARD
350
A921
  0
DICTIONARY
  5
A922
102
{ACAD_REACTORS
330
A916
102
}
330
A916
100
AcDbDictionary
281
     1
  0
ACDBDICTIONARYWDFLT
  5
AB87
102
{ACAD_REACTORS
330
A916
102
}
330
A916
100
AcDbDictionary
281
     1
  3
Normal
350
AB88
100
AcDbDictionaryWithDefault
340
AB88
  0
DICTIONARY
  5
ABBE
102
{ACAD_REACTORS
330
A916
102
}
330
A916
100
AcDbDictionary
281
     1
  3
A0
350
ABBF
  3
A1
350
ABC0
  3
A2
350
ABC1
  3
A3
350
ABC2
  3
A4
350
ABC3
  3
A5
350
ABC4
  3
A6
350
ABC5
  3
A7
350
ABC6
  3
A8
350
ABC7
  3
A9
350
ABC8
  3
B0
350
ABC9
  3
B1
350
ABCA
  3
B2
350
ABCB
  3
B3
350
ABCC
  3
B4
350
ABCD
  3
B5
350
ABCE
  3
B6
350
ABCF
  0
DICTIONARY
  5
ABD2
102
{ACAD_REACTORS
330
A916
102
}
330
A916
100
AcDbDictionary
281
     1
  3
Imperial24
350
ABD3
  0
DICTIONARY
  5
ABBC
102
{ACAD_REACTORS
330
A916
102
}
330
A916
100
AcDbDictionary
281
     1
  3
Standard
350
ABBD
  0
DICTIONARY
  5
ABA2
102
{ACAD_REACTORS
330
A916
102
}
330
A916
100
AcDbDictionary
281
     1
  3
2dWireframe
350
ABA8
  3
Basic
350
ABA7
  3
Brighten
350
ABAE
  3
ColorChange
350
ABB2
  3
Conceptual
350
ABAB
  3
Dim
350
ABAD
  3
EdgeColorOff
350
ABBA
  3
Facepattern
350
ABB1
  3
Flat
350
ABA3
  3
FlatWithEdges
350
ABA4
  3
Gouraud
350
ABA5
  3
GouraudWithEdges
350
ABA6
  3
Hidden
350
ABAA
  3
JitterOff
350
ABB8
  3
Linepattern
350
ABB0
  3
OverhangOff
350
ABB9
  3
Realistic
350
ABAC
  3
Shaded
350
ABB7
  3
Shaded with edges
350
ABB6
  3
Shades of Gray
350
ABB3
  3
Sketchy
350
ABB4
  3
Thicken
350
ABAF
  3
Wireframe
350
ABA9
  3
X-Ray
350
ABB5
  0
XRECORD
  5
ABF7
102
{ACAD_REACTORS
330
A916
102
}
330
A916
100
AcDbXrecord
280
     1
 90
        1
330
ABBD
  0
DICTIONARY
  5
ABEA
102
{ACAD_REACTORS
330
A916
102
}
330
A916
100
AcDbDictionary
281
     1
  3
CANNOSCALE
350
ABEF
  3
CMLEADERSTYLE
350
ABEC
  3
CTABLESTYLE
350
ABEB
  3
CVIEWDETAILSTYLE
350
ABED
  3
CVIEWSECTIONSTYLE
350
ABEE
  3
DIMASSOC
350
ABF2
  3
INDEXCTL
350
ABF1
  3
SORTENTS
350
ABF0
  3
XCLIPFRAME
350
ABF3
  0
XRECORD
  5
ABF8
102
{ACAD_REACTORS
330
A916
102
}
330
A916
100
AcDbXrecord
280
     1
  1
DWGPROPS COOKIE
  2

  3

  4

  6

  7

  8
Yoshitsune
  9

300
=
301
=
302
=
303
=
304
=
305
=
306
=
307
=
308
=
309
=
 40
0.0000106365740741
 41
2451302.64023669
 42
2457192.68654588
  1

 90
        0
  0
XRECORD
  5
ABDB
102
{ACAD_REACTORS
330
ABDA
102
}
330
ABDA
100
AcDbXrecord
280
     1
290
     1
  0
XRECORD
  5
ABDD
102
{ACAD_REACTORS
330
ABDC
102
}
330
ABDC
100
AcDbXrecord
280
     1
290
     1
  0
XRECORD
  5
ABDF
102
{ACAD_REACTORS
330
ABDE
102
}
330
ABDE
100
AcDbXrecord
280
     1
290
     1
  0
XRECORD
  5
ABE1
102
{ACAD_REACTORS
330
ABE0
102
}
330
ABE0
100
AcDbXrecord
280
     1
290
     1
  0
XRECORD
  5
ABE3
102
{ACAD_REACTORS
330
ABE2
102
}
330
ABE2
100
AcDbXrecord
280
     1
290
     1
  0
XRECORD
  5
ABE5
102
{ACAD_REACTORS
330
ABE4
102
}
330
ABE4
100
AcDbXrecord
280
     1
290
     1
  0
XRECORD
  5
ABE7
102
{ACAD_REACTORS
330
ABE6
102
}
330
ABE6
100
AcDbXrecord
280
     1
290
     1
  0
XRECORD
  5
ABE9
102
{ACAD_REACTORS
330
ABE8
102
}
330
ABE8
100
AcDbXrecord
280
     1
290
     1
  0
XRECORD
  5
AB83
102
{ACAD_REACTORS
330
AB82
102
}
330
AB82
100
AcDbXrecord
280
     1
340
A928
  0
XRECORD
  5
AB81
102
{ACAD_REACTORS
330
AB80
102
}
330
AB80
100
AcDbXrecord
280
     1
340
A924
  0
ACDBDETAILVIEWSTYLE
  5
ABD5
102
{ACAD_XDICTIONARY
360
AC30
102
}
102
{ACAD_REACTORS
330
ABD4
102
}
330
ABD4
100
AcDbModelDocViewStyle
 70
     0
  3
Imperial24
290
     0
100
AcDbDetailViewStyle
 70
     0
 71
     0
 90
        3
 71
     1
340
A91B
 40
0.24
340
0
 40
0.24
300

 40
0.36
280
     3
 71
     2
340
A91F
 90
       25
 71
     3
340
A91B
 40
0.24
 90
        1
 40
0.75
 90
        1
300
%<\AcVar ViewType \f "%tc1">% %<\AcVar ViewDetailId>%\PSCALE %<\AcVar ViewScale \f "%sn">%
 71
     4
340
A91F
 90
       25
340
A91F
 90
       25
280
     0
  0
LAYOUT
  5
ABD6
102
{ACAD_XDICTIONARY
360
AC32
102
}
102
{ACAD_REACTORS
330
A923
102
}
330
A923
100
AcDbPlotSettings
  1

  2
Canon LBP9100C
  4

  6

 40
0.0
 41
0.0
 42
0.0
 43
0.0
 44
0.0
 45
0.0
 46
0.0
 47
0.0
 48
0.0
 49
0.0
140
0.0
141
0.0
142
1.0
143
1.0
 70
  1712
 72
     0
 73
     0
 74
     0
  7

 75
     0
147
1.0
148
0.0
149
0.0
100
AcDbLayout
  1
Model
 70
     1
 71
     0
 10
0.0
 20
0.0
 11
12.0
 21
9.0
 12
0.0
 22
0.0
 32
0.0
 14
0.0
 24
0.0
 34
0.0
 15
0.0
 25
0.0
 35
0.0
146
0.0
 13
0.0
 23
0.0
 33
0.0
 16
1.0
 26
0.0
 36
0.0
 17
0.0
 27
1.0
 37
0.0
 76
     0
330
A928
331
AB7F
  0
LAYOUT
  5
ABD7
102
{ACAD_XDICTIONARY
360
AC34
102
}
102
{ACAD_REACTORS
330
A923
102
}
330
A923
100
AcDbPlotSettings
  1

  2
Canon LBP9100C
  4

  6

 40
0.0
 41
0.0
 42
0.0
 43
0.0
 44
0.0
 45
0.0
 46
0.0
 47
0.0
 48
0.0
 49
0.0
140
0.0
141
0.0
142
1.0
143
1.0
 70
   688
 72
     0
 73
     0
 74
     5
  7

 75
    16
147
1.0
148
0.0
149
0.0
100
AcDbLayout
  1
レイアウト1
 70
     0
 71
     1
 10
0.0
 20
0.0
 11
420.0
 21
297.0
 12
0.0
 22
0.0
 32
0.0
 14
1.000000000000000E+20
 24
1.000000000000000E+20
 34
1.000000000000000E+20
 15
-1.000000000000000E+20
 25
-1.000000000000000E+20
 35
-1.000000000000000E+20
146
0.0
 13
0.0
 23
0.0
 33
0.0
 16
1.0
 26
0.0
 36
0.0
 17
0.0
 27
1.0
 37
0.0
 76
     0
330
A924
  0
MATERIAL
  5
AB92
102
{ACAD_XDICTIONARY
360
AB93
102
}
102
{ACAD_REACTORS
330
AB89
102
}
330
AB89
100
AcDbMaterial
  1
ByBlock
 72
     0
 43
0.0208333333333333
 43
0.0
 43
0.0
 43
0.0
 43
0.0
 43
0.0208333333333333
 43
0.0
 43
0.0
 43
0.0
 43
0.0
 43
1.0
 43
0.0
 43
0.0
 43
0.0
 43
0.0
 43
1.0
 77
     0
 47
0.0208333333333333
 47
0.0
 47
0.0
 47
0.0
 47
0.0
 47
0.0208333333333333
 47
0.0
 47
0.0
 47
0.0
 47
0.0
 47
1.0
 47
0.0
 47
0.0
 47
0.0
 47
0.0
 47
1.0
171
     0
 49
0.0208333333333333
 49
0.0
 49
0.0
 49
0.0
 49
0.0
 49
0.0208333333333333
 49
0.0
 49
0.0
 49
0.0
 49
0.0
 49
1.0
 49
0.0
 49
0.0
 49
0.0
 49
0.0
 49
1.0
175
     0
142
0.0208333333333333
142
0.0
142
0.0
142
0.0
142
0.0
142
0.0208333333333333
142
0.0
142
0.0
142
0.0
142
0.0
142
1.0
142
0.0
142
0.0
142
0.0
142
0.0
142
1.0
179
     0
144
0.0208333333333333
144
0.0
144
0.0
144
0.0
144
0.0
144
0.0208333333333333
144
0.0
144
0.0
144
0.0
144
0.0
144
1.0
144
0.0
144
0.0
144
0.0
144
0.0
144
1.0
147
0.0208333333333333
147
0.0
147
0.0
147
0.0
147
0.0
147
0.0208333333333333
147
0.0
147
0.0
147
0.0
147
0.0
147
1.0
147
0.0
147
0.0
147
0.0
147
0.0
147
1.0
  0
MATERIAL
  5
AB8A
102
{ACAD_XDICTIONARY
360
AB8B
102
}
102
{ACAD_REACTORS
330
AB89
102
}
330
AB89
100
AcDbMaterial
  1
ByLayer
 72
     0
 43
0.0208333333333333
 43
0.0
 43
0.0
 43
0.0
 43
0.0
 43
0.0208333333333333
 43
0.0
 43
0.0
 43
0.0
 43
0.0
 43
1.0
 43
0.0
 43
0.0
 43
0.0
 43
0.0
 43
1.0
 77
     0
 47
0.0208333333333333
 47
0.0
 47
0.0
 47
0.0
 47
0.0
 47
0.0208333333333333
 47
0.0
 47
0.0
 47
0.0
 47
0.0
 47
1.0
 47
0.0
 47
0.0
 47
0.0
 47
0.0
 47
1.0
171
     0
 49
0.0208333333333333
 49
0.0
 49
0.0
 49
0.0
 49
0.0
 49
0.0208333333333333
 49
0.0
 49
0.0
 49
0.0
 49
0.0
 49
1.0
 49
0.0
 49
0.0
 49
0.0
 49
0.0
 49
1.0
175
     0
142
0.0208333333333333
142
0.0
142
0.0
142
0.0
142
0.0
142
0.0208333333333333
142
0.0
142
0.0
142
0.0
142
0.0
142
1.0
142
0.0
142
0.0
142
0.0
142
0.0
142
1.0
179
     0
144
0.0208333333333333
144
0.0
144
0.0
144
0.0
144
0.0
144
0.0208333333333333
144
0.0
144
0.0
144
0.0
144
0.0
144
1.0
144
0.0
144
0.0
144
0.0
144
0.0
144
1.0
147
0.0208333333333333
147
0.0
147
0.0
147
0.0
147
0.0
147
0.0208333333333333
147
0.0
147
0.0
147
0.0
147
0.0
147
1.0
147
0.0
147
0.0
147
0.0
147
0.0
147
1.0
  0
MATERIAL
  5
AB9A
102
{ACAD_XDICTIONARY
360
AB9B
102
}
102
{ACAD_REACTORS
330
AB89
102
}
330
AB89
100
AcDbMaterial
  1
Global
 72
     0
 43
0.0208333333333333
 43
0.0
 43
0.0
 43
0.0
 43
0.0
 43
0.0208333333333333
 43
0.0
 43
0.0
 43
0.0
 43
0.0
 43
1.0
 43
0.0
 43
0.0
 43
0.0
 43
0.0
 43
1.0
 77
     0
 47
0.0208333333333333
 47
0.0
 47
0.0
 47
0.0
 47
0.0
 47
0.0208333333333333
 47
0.0
 47
0.0
 47
0.0
 47
0.0
 47
1.0
 47
0.0
 47
0.0
 47
0.0
 47
0.0
 47
1.0
171
     0
 49
0.0208333333333333
 49
0.0
 49
0.0
 49
0.0
 49
0.0
 49
0.0208333333333333
 49
0.0
 49
0.0
 49
0.0
 49
0.0
 49
1.0
 49
0.0
 49
0.0
 49
0.0
 49
0.0
 49
1.0
175
     0
142
0.0208333333333333
142
0.0
142
0.0
142
0.0
142
0.0
142
0.0208333333333333
142
0.0
142
0.0
142
0.0
142
0.0
142
1.0
142
0.0
142
0.0
142
0.0
142
0.0
142
1.0
179
     0
144
0.0208333333333333
144
0.0
144
0.0
144
0.0
144
0.0
144
0.0208333333333333
144
0.0
144
0.0
144
0.0
144
0.0
144
1.0
144
0.0
144
0.0
144
0.0
144
0.0
144
1.0
147
0.0208333333333333
147
0.0
147
0.0
147
0.0
147
0.0
147
0.0208333333333333
147
0.0
147
0.0
147
0.0
147
0.0
147
1.0
147
0.0
147
0.0
147
0.0
147
0.0
147
1.0
  0
MLEADERSTYLE
  5
ABD1
102
{ACAD_REACTORS
330
ABD0
102
}
330
ABD0
100
AcDbMLeaderStyle
170
     2
171
     1
172
     0
 90
        2
 40
0.0
 41
0.0
173
     1
 91
-1056964608
340
A91D
 92
       -2
290
     1
 42
0.09
291
     1
 43
0.36
  3
Standard
 44
0.18
300

342
A91B
174
     1
178
     6
175
     1
176
     0
 93
-1056964608
 45
0.18
292
     0
297
     0
 46
0.18
 94
-1056964608
 47
1.0
 49
1.0
140
1.0
293
     1
141
0.0
294
     1
177
     0
142
1.0
295
     0
296
     0
143
0.125
1001
ACAD_MLEADERVER
1070
     2
  0
MLINESTYLE
  5
A921
102
{ACAD_REACTORS
330
A920
102
}
330
A920
100
AcDbMlineStyle
  2
STANDARD
 70
     0
  3

 62
   256
 51
90.0
 52
90.0
 71
     2
 49
0.5
 62
   256
  6
BYLAYER
 49
-0.5
 62
   256
  6
BYLAYER
  0
ACDBPLACEHOLDER
  5
AB88
102
{ACAD_REACTORS
330
AB87
102
}
330
AB87
  0
SCALE
  5
ABBF
102
{ACAD_REACTORS
330
ABBE
102
}
330
ABBE
100
AcDbScale
 70
     0
300
1:1
140
1.0
141
1.0
290
     1
  0
SCALE
  5
ABC0
102
{ACAD_REACTORS
330
ABBE
102
}
330
ABBE
100
AcDbScale
 70
     0
300
1/128" = 1'-0"
140
0.0078125
141
12.0
290
     0
  0
SCALE
  5
ABC1
102
{ACAD_REACTORS
330
ABBE
102
}
330
ABBE
100
AcDbScale
 70
     0
300
1/64" = 1'-0"
140
0.015625
141
12.0
290
     0
  0
SCALE
  5
ABC2
102
{ACAD_REACTORS
330
ABBE
102
}
330
ABBE
100
AcDbScale
 70
     0
300
1/32" = 1'-0"
140
0.03125
141
12.0
290
     0
  0
SCALE
  5
ABC3
102
{ACAD_REACTORS
330
ABBE
102
}
330
ABBE
100
AcDbScale
 70
     0
300
1/16" = 1'-0"
140
0.0625
141
12.0
290
     0
  0
SCALE
  5
ABC4
102
{ACAD_REACTORS
330
ABBE
102
}
330
ABBE
100
AcDbScale
 70
     0
300
3/32" = 1'-0"
140
0.09375
141
12.0
290
     0
  0
SCALE
  5
ABC5
102
{ACAD_REACTORS
330
ABBE
102
}
330
ABBE
100
AcDbScale
 70
     0
300
1/8" = 1'-0"
140
0.125
141
12.0
290
     0
  0
SCALE
  5
ABC6
102
{ACAD_REACTORS
330
ABBE
102
}
330
ABBE
100
AcDbScale
 70
     0
300
3/16" = 1'-0"
140
0.1875
141
12.0
290
     0
  0
SCALE
  5
ABC7
102
{ACAD_REACTORS
330
ABBE
102
}
330
ABBE
100
AcDbScale
 70
     0
300
1/4" = 1'-0"
140
0.25
141
12.0
290
     0
  0
SCALE
  5
ABC8
102
{ACAD_REACTORS
330
ABBE
102
}
330
ABBE
100
AcDbScale
 70
     0
300
3/8" = 1'-0"
140
0.375
141
12.0
290
     0
  0
SCALE
  5
ABC9
102
{ACAD_REACTORS
330
ABBE
102
}
330
ABBE
100
AcDbScale
 70
     0
300
1/2" = 1'-0"
140
0.5
141
12.0
290
     0
  0
SCALE
  5
ABCA
102
{ACAD_REACTORS
330
ABBE
102
}
330
ABBE
100
AcDbScale
 70
     0
300
3/4" = 1'-0"
140
0.75
141
12.0
290
     0
  0
SCALE
  5
ABCB
102
{ACAD_REACTORS
330
ABBE
102
}
330
ABBE
100
AcDbScale
 70
     0
300
1" = 1'-0"
140
1.0
141
12.0
290
     0
  0
SCALE
  5
ABCC
102
{ACAD_REACTORS
330
ABBE
102
}
330
ABBE
100
AcDbScale
 70
     0
300
1-1/2" = 1'-0"
140
1.5
141
12.0
290
     0
  0
SCALE
  5
ABCD
102
{ACAD_REACTORS
330
ABBE
102
}
330
ABBE
100
AcDbScale
 70
     0
300
3" = 1'-0"
140
3.0
141
12.0
290
     0
  0
SCALE
  5
ABCE
102
{ACAD_REACTORS
330
ABBE
102
}
330
ABBE
100
AcDbScale
 70
     0
300
6" = 1'-0"
140
6.0
141
12.0
290
     0
  0
SCALE
  5
ABCF
102
{ACAD_REACTORS
330
ABBE
102
}
330
ABBE
100
AcDbScale
 70
     0
300
1'-0" = 1'-0"
140
12.0
141
12.0
290
     0
  0
ACDBSECTIONVIEWSTYLE
  5
ABD3
102
{ACAD_XDICTIONARY
360
AC2E
102
}
102
{ACAD_REACTORS
330
ABD2
102
}
330
ABD2
100
AcDbModelDocViewStyle
 70
     0
  3
Imperial24
290
     0
100
AcDbSectionViewStyle
 70
     0
 71
     0
 90
       78
 71
     1
340
A91B
 40
0.24
340
0
340
0
 40
0.24
300
I, O, Q, S, X, Z
 40
0.48
 90
        3
 40
0.18
 90
        1
 71
     2
340
A91F
 90
       25
340
A91F
 90
       50
 40
0.24
 40
0.0
 40
0.24
 71
     3
340
A91B
 40
0.24
 90
        1
 40
0.75
 90
        1
300
%<\AcVar ViewType \f "%tc1">% %<\AcVar ViewSectionStartId>%-%<\AcVar ViewSectionEndId>%\PSCALE %<\AcVar ViewScale \f "%sn">%
 71
     4
300
ANSI31
 40
1.0
 90
        0
290
     0
290
     0
 90
        6
 40
0.0
 40
1.570796326794896
 40
0.2617993877991494
 40
1.308996938995747
 40
-0.2617993877991494
 40
1.832595714594046
  0
TABLESTYLE
  5
ABBD
102
{ACAD_XDICTIONARY
360
ABF5
102
}
102
{ACAD_REACTORS
330
ABBC
102
}
330
ABBC
100
AcDbTableStyle
  3
Standard
 70
     0
 71
     0
 40
0.06
 41
0.06
280
     0
281
     0
  7
STANDARD
140
0.18
170
     2
 62
     0
 63
     7
283
     0
274
    -2
284
     1
 64
     0
275
    -2
285
     1
 65
     0
276
    -2
286
     1
 66
     0
277
    -2
287
     1
 67
     0
278
    -2
288
     1
 68
     0
279
    -2
289
     1
 69
     0
  7
STANDARD
140
0.25
170
     5
 62
     0
 63
     7
283
     0
274
    -2
284
     1
 64
     0
275
    -2
285
     1
 65
     0
276
    -2
286
     1
 66
     0
277
    -2
287
     1
 67
     0
278
    -2
288
     1
 68
     0
279
    -2
289
     1
 69
     0
  7
STANDARD
140
0.18
170
     5
 62
     0
 63
     7
283
     0
274
    -2
284
     1
 64
     0
275
    -2
285
     1
 65
     0
276
    -2
286
     1
 66
     0
277
    -2
287
     1
 67
     0
278
    -2
288
     1
 68
     0
279
    -2
289
     1
 69
     0
  0
VISUALSTYLE
  5
ABA8
102
{ACAD_XDICTIONARY
360
AC06
102
}
102
{ACAD_REACTORS
330
ABA2
102
}
330
ABA2
100
AcDbVisualStyle
  2
2dWireframe
 70
     4
 71
     0
 72
     2
 73
     0
 90
        0
 40
-0.6
 41
-30.0
 62
     5
 63
     7
 74
     1
 91
        4
 64
     7
 65
   257
 75
     1
175
     1
 42
1.0
 92
        0
 66
   257
 43
1.0
 76
     1
 77
     6
 78
     2
 67
     7
 79
     5
170
     0
171
     0
290
     0
174
     0
 93
        1
 44
0.0
173
     0
291
     0
 45
0.0
1001
ACAD
1000
AcDbSavedByObjectVersion
1070
     0
  0
VISUALSTYLE
  5
ABA7
102
{ACAD_XDICTIONARY
360
AC04
102
}
102
{ACAD_REACTORS
330
ABA2
102
}
330
ABA2
100
AcDbVisualStyle
  2
Basic
 70
     7
 71
     1
 72
     0
 73
     1
 90
        0
 40
-0.6
 41
-30.0
 62
     5
 63
     7
 74
     0
 91
        4
 64
     7
 65
   257
 75
     1
175
     1
 42
1.0
 92
        8
 66
     7
 43
1.0
 76
     1
 77
     6
 78
     2
 67
     7
 79
     5
170
     0
171
     0
290
     0
174
     0
 93
        1
 44
0.0
173
     0
291
     1
 45
0.0
1001
ACAD
1000
AcDbSavedByObjectVersion
1070
     0
  0
VISUALSTYLE
  5
ABAE
102
{ACAD_XDICTIONARY
360
AC12
102
}
102
{ACAD_REACTORS
330
ABA2
102
}
330
ABA2
100
AcDbVisualStyle
  2
Brighten
 70
    12
 71
     2
 72
     2
 73
     0
 90
        0
 40
-0.6
 41
-30.0
 62
     5
 63
     7
 74
     1
 91
        4
 64
     7
 65
   257
 75
     1
175
     1
 42
1.0
 92
        8
 66
     7
 43
1.0
 76
     1
 77
     6
 78
     2
 67
     7
 79
     5
170
     0
171
     0
290
     0
174
     0
 93
        1
 44
50.0
173
     0
291
     1
 45
0.0
1001
ACAD
1000
AcDbSavedByObjectVersion
1070
     0
  0
VISUALSTYLE
  5
ABB2
102
{ACAD_XDICTIONARY
360
AC1A
102
}
102
{ACAD_REACTORS
330
ABA2
102
}
330
ABA2
100
AcDbVisualStyle
  2
ColorChange
 70
    16
 71
     2
 72
     2
 73
     3
 90
        0
 40
-0.6
 41
-30.0
 62
     5
 63
     8
 74
     1
 91
        4
 64
     7
 65
   257
 75
     1
175
     1
 42
1.0
 92
        8
 66
     8
 43
1.0
 76
     1
 77
     6
 78
     2
 67
     7
 79
     5
170
     0
171
     0
290
     0
174
     0
 93
        1
 44
0.0
173
     0
291
     1
 45
0.0
1001
ACAD
1000
AcDbSavedByObjectVersion
1070
     0
  0
VISUALSTYLE
  5
ABAB
102
{ACAD_XDICTIONARY
360
AC0C
102
}
102
{ACAD_REACTORS
330
ABA2
102
}
330
ABA2
100
AcDbVisualStyle
  2
Conceptual
 70
     9
 71
     3
 72
     2
 73
     0
 90
        0
 40
-0.6
 41
-30.0
 62
     5
 63
     7
 74
     2
 91
        2
 64
     7
 65
   257
 75
     1
175
     1
 42
179.0
 92
        8
 66
     7
 43
1.0
 76
     1
 77
     6
 78
     2
 67
     7
 79
     3
170
     0
171
     0
290
     0
174
     0
 93
        1
 44
0.0
173
     0
291
     0
 45
0.0
1001
ACAD
1000
AcDbSavedByObjectVersion
1070
     0
  0
VISUALSTYLE
  5
ABAD
102
{ACAD_XDICTIONARY
360
AC10
102
}
102
{ACAD_REACTORS
330
ABA2
102
}
330
ABA2
100
AcDbVisualStyle
  2
Dim
 70
    11
 71
     2
 72
     2
 73
     0
 90
        0
 40
-0.6
 41
-30.0
 62
     5
 63
     7
 74
     1
 91
        4
 64
     7
 65
   257
 75
     1
175
     1
 42
1.0
 92
        8
 66
     7
 43
1.0
 76
     1
 77
     6
 78
     2
 67
     7
 79
     5
170
     0
171
     0
290
     0
174
     0
 93
        1
 44
-50.0
173
     0
291
     1
 45
0.0
1001
ACAD
1000
AcDbSavedByObjectVersion
1070
     0
  0
VISUALSTYLE
  5
ABBA
102
{ACAD_XDICTIONARY
360
AC2A
102
}
102
{ACAD_REACTORS
330
ABA2
102
}
330
ABA2
100
AcDbVisualStyle
  2
EdgeColorOff
 70
    22
 71
     2
 72
     2
 73
     0
 90
        0
 40
-0.6
 41
-30.0
 62
     5
 63
     7
 74
     1
 91
        4
 64
     7
 65
   257
 75
     1
175
     1
 42
1.0
 92
        8
 66
     7
 43
1.0
 76
     1
 77
     6
 78
     2
 67
     7
 79
     5
170
     0
171
     0
290
     0
174
     0
 93
        1
 44
0.0
173
     0
291
     1
 45
0.0
1001
ACAD
1000
AcDbSavedByObjectVersion
1070
     0
  0
VISUALSTYLE
  5
ABB1
102
{ACAD_XDICTIONARY
360
AC18
102
}
102
{ACAD_REACTORS
330
ABA2
102
}
330
ABA2
100
AcDbVisualStyle
  2
Facepattern
 70
    15
 71
     2
 72
     2
 73
     0
 90
        0
 40
-0.6
 41
-30.0
 62
     5
 63
     7
 74
     1
 91
        4
 64
     7
 65
   257
 75
     1
175
     1
 42
1.0
 92
        8
 66
     7
 43
1.0
 76
     1
 77
     6
 78
     2
 67
     7
 79
     5
170
     0
171
     0
290
     0
174
     0
 93
        1
 44
0.0
173
     0
291
     1
 45
0.0
1001
ACAD
1000
AcDbSavedByObjectVersion
1070
     0
  0
VISUALSTYLE
  5
ABA3
102
{ACAD_XDICTIONARY
360
ABFC
102
}
102
{ACAD_REACTORS
330
ABA2
102
}
330
ABA2
100
AcDbVisualStyle
  2
Flat
 70
     0
 71
     2
 72
     1
 73
     1
 90
        2
 40
-0.6
 41
30.0
 62
     5
 63
     7
 74
     0
 91
        0
 64
     7
 65
   257
 75
     1
175
     1
 42
1.0
 92
        8
 66
     7
 43
1.0
 76
     1
 77
     6
 78
     2
 67
     7
 79
     5
170
     0
171
     0
290
     0
174
     0
 93
       13
 44
0.0
173
     0
291
     1
 45
0.0
1001
ACAD
1000
AcDbSavedByObjectVersion
1070
     0
  0
VISUALSTYLE
  5
ABA4
102
{ACAD_XDICTIONARY
360
ABFE
102
}
102
{ACAD_REACTORS
330
ABA2
102
}
330
ABA2
100
AcDbVisualStyle
  2
FlatWithEdges
 70
     1
 71
     2
 72
     1
 73
     1
 90
        2
 40
-0.6
 41
30.0
 62
     5
 63
     7
 74
     1
 91
        0
 64
     7
 65
   257
 75
     1
175
     1
 42
1.0
 92
        0
 66
   257
 43
1.0
 76
     1
 77
     6
 78
     2
 67
     7
 79
     5
170
     0
171
     0
290
     0
174
     0
 93
       13
 44
0.0
173
     0
291
     1
 45
0.0
1001
ACAD
1000
AcDbSavedByObjectVersion
1070
     0
  0
VISUALSTYLE
  5
ABA5
102
{ACAD_XDICTIONARY
360
AC00
102
}
102
{ACAD_REACTORS
330
ABA2
102
}
330
ABA2
100
AcDbVisualStyle
  2
Gouraud
 70
     2
 71
     2
 72
     2
 73
     1
 90
        2
 40
-0.6
 41
30.0
 62
     5
 63
     7
 74
     0
 91
        0
 64
     7
 65
   257
 75
     1
175
     1
 42
1.0
 92
        0
 66
     7
 43
1.0
 76
     1
 77
     6
 78
     2
 67
     7
 79
     5
170
     0
171
     0
290
     0
174
     0
 93
       13
 44
0.0
173
     0
291
     1
 45
0.0
1001
ACAD
1000
AcDbSavedByObjectVersion
1070
     0
  0
VISUALSTYLE
  5
ABA6
102
{ACAD_XDICTIONARY
360
AC02
102
}
102
{ACAD_REACTORS
330
ABA2
102
}
330
ABA2
100
AcDbVisualStyle
  2
GouraudWithEdges
 70
     3
 71
     2
 72
     2
 73
     1
 90
        2
 40
-0.6
 41
30.0
 62
     5
 63
     7
 74
     1
 91
        0
 64
     7
 65
   257
 75
     1
175
     1
 42
1.0
 92
        0
 66
   257
 43
1.0
 76
     1
 77
     6
 78
     2
 67
     7
 79
     5
170
     0
171
     0
290
     0
174
     0
 93
       13
 44
0.0
173
     0
291
     1
 45
0.0
1001
ACAD
1000
AcDbSavedByObjectVersion
1070
     0
  0
VISUALSTYLE
  5
ABAA
102
{ACAD_XDICTIONARY
360
AC0A
102
}
102
{ACAD_REACTORS
330
ABA2
102
}
330
ABA2
100
AcDbVisualStyle
  2
Hidden
 70
     6
 71
     1
 72
     2
 73
     2
 90
        0
 40
-0.6
 41
-30.0
 62
     5
 63
     7
 74
     2
 91
        2
 64
     7
 65
   257
 75
     2
175
     1
 42
40.0
 92
        0
 66
   257
 43
1.0
 76
     1
 77
     6
 78
     2
 67
     7
 79
     3
170
     0
171
     0
290
     0
174
     0
 93
        1
 44
0.0
173
     0
291
     0
 45
0.0
1001
ACAD
1000
AcDbSavedByObjectVersion
1070
     0
  0
VISUALSTYLE
  5
ABB8
102
{ACAD_XDICTIONARY
360
AC26
102
}
102
{ACAD_REACTORS
330
ABA2
102
}
330
ABA2
100
AcDbVisualStyle
  2
JitterOff
 70
    20
 71
     2
 72
     2
 73
     0
 90
        0
 40
-0.6
 41
-30.0
 62
     5
 63
     7
 74
     1
 91
        4
 64
     7
 65
   257
 75
     1
175
     1
 42
1.0
 92
       10
 66
     7
 43
1.0
 76
     1
 77
     6
 78
     2
 67
     7
 79
     5
170
     0
171
     0
290
     0
174
     0
 93
        1
 44
0.0
173
     0
291
     1
 45
0.0
1001
ACAD
1000
AcDbSavedByObjectVersion
1070
     0
  0
VISUALSTYLE
  5
ABB0
102
{ACAD_XDICTIONARY
360
AC16
102
}
102
{ACAD_REACTORS
330
ABA2
102
}
330
ABA2
100
AcDbVisualStyle
  2
Linepattern
 70
    14
 71
     2
 72
     2
 73
     0
 90
        0
 40
-0.6
 41
-30.0
 62
     5
 63
     7
 74
     1
 91
        4
 64
     7
 65
   257
 75
     7
175
     7
 42
1.0
 92
        8
 66
     7
 43
1.0
 76
     1
 77
     6
 78
     2
 67
     7
 79
     5
170
     0
171
     0
290
     0
174
     0
 93
        1
 44
0.0
173
     0
291
     1
 45
0.0
1001
ACAD
1000
AcDbSavedByObjectVersion
1070
     0
  0
VISUALSTYLE
  5
ABB9
102
{ACAD_XDICTIONARY
360
AC28
102
}
102
{ACAD_REACTORS
330
ABA2
102
}
330
ABA2
100
AcDbVisualStyle
  2
OverhangOff
 70
    21
 71
     2
 72
     2
 73
     0
 90
        0
 40
-0.6
 41
-30.0
 62
     5
 63
     7
 74
     1
 91
        4
 64
     7
 65
   257
 75
     1
175
     1
 42
1.0
 92
        9
 66
     7
 43
1.0
 76
     1
 77
     6
 78
     2
 67
     7
 79
     5
170
     0
171
     0
290
     0
174
     0
 93
        1
 44
0.0
173
     0
291
     1
 45
0.0
1001
ACAD
1000
AcDbSavedByObjectVersion
1070
     0
  0
VISUALSTYLE
  5
ABAC
102
{ACAD_XDICTIONARY
360
AC0E
102
}
102
{ACAD_REACTORS
330
ABA2
102
}
330
ABA2
100
AcDbVisualStyle
  2
Realistic
 70
     8
 71
     2
 72
     3
 73
     0
 90
        2
 40
-0.6
 41
30.0
 62
     5
 63
     7
 74
     0
 91
        0
 64
     7
 65
   257
 75
     1
175
     1
 42
1.0
 92
        8
 66
   257
 43
1.0
 76
     1
 77
     6
 78
     2
 67
     7
 79
     3
170
     0
171
     0
290
     0
174
     0
 93
       13
 44
0.0
173
     0
291
     0
 45
0.0
1001
ACAD
1000
AcDbSavedByObjectVersion
1070
     0
  0
VISUALSTYLE
  5
ABB7
102
{ACAD_XDICTIONARY
360
AC24
102
}
102
{ACAD_REACTORS
330
ABA2
102
}
330
ABA2
100
AcDbVisualStyle
  2
Shaded
 70
    27
 71
     2
 72
     2
 73
     1
 90
        2
 40
-0.6
 41
30.0
 62
     5
 63
     7
 74
     0
 91
        4
 64
     7
 65
   257
 75
     1
175
     1
 42
1.0
 92
        8
 66
   257
 43
1.0
 76
     1
 77
     6
 78
     2
 67
     8
 79
     3
170
     0
171
     0
290
     0
174
     0
 93
        5
 44
0.0
173
     0
291
     0
 45
0.0
1001
ACAD
1000
AcDbSavedByObjectVersion
1070
     0
  0
VISUALSTYLE
  5
ABB6
102
{ACAD_XDICTIONARY
360
AC22
102
}
102
{ACAD_REACTORS
330
ABA2
102
}
330
ABA2
100
AcDbVisualStyle
  2
Shaded with edges
 70
    26
 71
     2
 72
     2
 73
     1
 90
        2
 40
-0.6
 41
30.0
 62
     5
 63
     7
 74
     1
 91
       10
 64
     7
 65
   257
 75
     2
175
     1
 42
1.0
 92
        8
 66
   257
 43
1.0
 76
     1
 77
     6
 78
     2
 67
     7
 79
     3
170
     0
171
     0
290
     0
174
     0
 93
        5
 44
0.0
173
     0
291
     0
 45
0.0
1001
ACAD
1000
AcDbSavedByObjectVersion
1070
     0
  0
VISUALSTYLE
  5
ABB3
102
{ACAD_XDICTIONARY
360
AC1C
102
}
102
{ACAD_REACTORS
330
ABA2
102
}
330
ABA2
100
AcDbVisualStyle
  2
Shades of Gray
 70
    23
 71
     2
 72
     2
 73
     3
 90
        0
 40
-0.6
 41
-30.0
 62
     5
 63
     7
 74
     2
 91
        2
 64
     7
 65
     7
 75
     1
175
     1
 42
40.0
 92
        8
 66
     7
 43
1.0
 76
     1
 77
     6
 78
     2
 67
     7
 79
     3
170
     0
171
     0
290
     0
174
     0
 93
        1
 44
0.0
173
     0
291
     0
 45
0.0
1001
ACAD
1000
AcDbSavedByObjectVersion
1070
     0
  0
VISUALSTYLE
  5
ABB4
102
{ACAD_XDICTIONARY
360
AC1E
102
}
102
{ACAD_REACTORS
330
ABA2
102
}
330
ABA2
100
AcDbVisualStyle
  2
Sketchy
 70
    24
 71
     1
 72
     2
 73
     2
 90
        0
 40
-0.6
 41
-30.0
 62
     5
 63
     7
 74
     2
 91
        2
 64
     7
 65
     7
 75
     1
175
     1
 42
40.0
 92
       11
 66
     7
 43
1.0
 76
     1
 77
     6
 78
     2
 67
     7
 79
     6
170
     0
171
     0
290
     0
174
     0
 93
        1
 44
0.0
173
     0
291
     0
 45
0.0
1001
ACAD
1000
AcDbSavedByObjectVersion
1070
     0
  0
VISUALSTYLE
  5
ABAF
102
{ACAD_XDICTIONARY
360
AC14
102
}
102
{ACAD_REACTORS
330
ABA2
102
}
330
ABA2
100
AcDbVisualStyle
  2
Thicken
 70
    13
 71
     2
 72
     2
 73
     0
 90
        0
 40
-0.6
 41
-30.0
 62
     5
 63
     7
 74
     1
 91
        4
 64
     7
 65
   257
 75
     1
175
     1
 42
1.0
 92
       12
 66
     7
 43
1.0
 76
     1
 77
     6
 78
     2
 67
     7
 79
     5
170
     0
171
     0
290
     0
174
     0
 93
        1
 44
0.0
173
     0
291
     1
 45
0.0
1001
ACAD
1000
AcDbSavedByObjectVersion
1070
     0
  0
VISUALSTYLE
  5
ABA9
102
{ACAD_XDICTIONARY
360
AC08
102
}
102
{ACAD_REACTORS
330
ABA2
102
}
330
ABA2
100
AcDbVisualStyle
  2
Wireframe
 70
     5
 71
     0
 72
     2
 73
     0
 90
        0
 40
-0.6
 41
-30.0
 62
     5
 63
     7
 74
     1
 91
        4
 64
     7
 65
   257
 75
     1
175
     1
 42
1.0
 92
        0
 66
   257
 43
1.0
 76
     1
 77
     6
 78
     2
 67
     7
 79
     3
170
     0
171
     0
290
     0
174
     0
 93
        1
 44
0.0
173
     0
291
     0
 45
0.0
1001
ACAD
1000
AcDbSavedByObjectVersion
1070
     0
  0
VISUALSTYLE
  5
ABB5
102
{ACAD_XDICTIONARY
360
AC20
102
}
102
{ACAD_REACTORS
330
ABA2
102
}
330
ABA2
100
AcDbVisualStyle
  2
X-Ray
 70
    25
 71
     2
 72
     2
 73
     1
 90
        1
 40
0.5
 41
-30.0
 62
     5
 63
     7
 74
     1
 91
        0
 64
     7
 65
   257
 75
     1
175
     1
 42
1.0
 92
        8
 66
     7
 43
1.0
 76
     1
 77
     6
 78
     2
 67
     7
 79
     3
170
     0
171
     0
290
     0
174
     0
 93
       13
 44
0.0
173
     0
291
     0
 45
0.0
1001
ACAD
1000
AcDbSavedByObjectVersion
1070
     0
  0
DICTIONARYVAR
  5
ABEF
102
{ACAD_REACTORS
330
ABEA
102
}
330
ABEA
100
DictionaryVariables
280
     0
  1
1:1
  0
DICTIONARYVAR
  5
ABEC
102
{ACAD_REACTORS
330
ABEA
102
}
330
ABEA
100
DictionaryVariables
280
     0
  1
STANDARD
  0
DICTIONARYVAR
  5
ABEB
102
{ACAD_REACTORS
330
ABEA
102
}
330
ABEA
100
DictionaryVariables
280
     0
  1
STANDARD
  0
DICTIONARYVAR
  5
ABED
102
{ACAD_REACTORS
330
ABEA
102
}
330
ABEA
100
DictionaryVariables
280
     0
  1
Imperial24
  0
DICTIONARYVAR
  5
ABEE
102
{ACAD_REACTORS
330
ABEA
102
}
330
ABEA
100
DictionaryVariables
280
     0
  1
Imperial24
  0
DICTIONARYVAR
  5
ABF2
102
{ACAD_REACTORS
330
ABEA
102
}
330
ABEA
100
DictionaryVariables
280
     0
  1
1
  0
DICTIONARYVAR
  5
ABF1
102
{ACAD_REACTORS
330
ABEA
102
}
330
ABEA
100
DictionaryVariables
280
     0
  1
0
  0
DICTIONARYVAR
  5
ABF0
102
{ACAD_REACTORS
330
ABEA
102
}
330
ABEA
100
DictionaryVariables
280
     0
  1
127
  0
DICTIONARYVAR
  5
ABF3
102
{ACAD_REACTORS
330
ABEA
102
}
330
ABEA
100
DictionaryVariables
280
     0
  1
2
  0
DICTIONARY
  5
AC30
330
ABD5
100
AcDbDictionary
280
     1
281
     1
  3
ACAD_XREC_ROUNDTRIP
360
AC31
  0
DICTIONARY
  5
AC32
330
ABD6
100
AcDbDictionary
280
     1
281
     1
  3
ACAD_XREC_ROUNDTRIP
360
AC33
  0
DICTIONARY
  5
AC34
330
ABD7
100
AcDbDictionary
280
     1
281
     1
  3
ACAD_XREC_ROUNDTRIP
360
AC35
  0
DICTIONARY
  5
AB93
330
AB92
100
AcDbDictionary
280
     1
281
     1
  3
ACAD_XREC_ROUNDTRIP
360
ABFA
  3
BUMPTILE
360
AB95
  3
DIFFUSETILE
360
AB94
  3
OPACITYTILE
360
AB98
  3
REFLECTIONTILE
360
AB97
  3
REFRACTIONTILE
360
AB99
  3
SPECULARTILE
360
AB96
  0
DICTIONARY
  5
AB8B
330
AB8A
100
AcDbDictionary
280
     1
281
     1
  3
ACAD_XREC_ROUNDTRIP
360
ABF9
  3
BUMPTILE
360
AB8D
  3
DIFFUSETILE
360
AB8C
  3
OPACITYTILE
360
AB90
  3
REFLECTIONTILE
360
AB8F
  3
REFRACTIONTILE
360
AB91
  3
SPECULARTILE
360
AB8E
  0
DICTIONARY
  5
AB9B
330
AB9A
100
AcDbDictionary
280
     1
281
     1
  3
ACAD_XREC_ROUNDTRIP
360
ABFB
  3
BUMPTILE
360
AB9D
  3
DIFFUSETILE
360
AB9C
  3
OPACITYTILE
360
ABA0
  3
REFLECTIONTILE
360
AB9F
  3
REFRACTIONTILE
360
ABA1
  3
SPECULARTILE
360
AB9E
  0
DICTIONARY
  5
AC2E
330
ABD3
100
AcDbDictionary
280
     1
281
     1
  3
ACAD_XREC_ROUNDTRIP
360
AC2F
  0
DICTIONARY
  5
ABF5
330
ABBD
100
AcDbDictionary
280
     1
281
     1
  3
ACAD_ROUNDTRIP_2008_TABLESTYLE_CELLSTYLEMAP
360
ABF6
  3
ACAD_XREC_ROUNDTRIP
360
AC2C
  0
DICTIONARY
  5
AC06
330
ABA8
100
AcDbDictionary
280
     1
281
     1
  3
ACAD_XREC_ROUNDTRIP
360
AC07
  0
DICTIONARY
  5
AC04
330
ABA7
100
AcDbDictionary
280
     1
281
     1
  3
ACAD_XREC_ROUNDTRIP
360
AC05
  0
DICTIONARY
  5
AC12
330
ABAE
100
AcDbDictionary
280
     1
281
     1
  3
ACAD_XREC_ROUNDTRIP
360
AC13
  0
DICTIONARY
  5
AC1A
330
ABB2
100
AcDbDictionary
280
     1
281
     1
  3
ACAD_XREC_ROUNDTRIP
360
AC1B
  0
DICTIONARY
  5
AC0C
330
ABAB
100
AcDbDictionary
280
     1
281
     1
  3
ACAD_XREC_ROUNDTRIP
360
AC0D
  0
DICTIONARY
  5
AC10
330
ABAD
100
AcDbDictionary
280
     1
281
     1
  3
ACAD_XREC_ROUNDTRIP
360
AC11
  0
DICTIONARY
  5
AC2A
330
ABBA
100
AcDbDictionary
280
     1
281
     1
  3
ACAD_XREC_ROUNDTRIP
360
AC2B
  0
DICTIONARY
  5
AC18
330
ABB1
100
AcDbDictionary
280
     1
281
     1
  3
ACAD_XREC_ROUNDTRIP
360
AC19
  0
DICTIONARY
  5
ABFC
330
ABA3
100
AcDbDictionary
280
     1
281
     1
  3
ACAD_XREC_ROUNDTRIP
360
ABFD
  0
DICTIONARY
  5
ABFE
330
ABA4
100
AcDbDictionary
280
     1
281
     1
  3
ACAD_XREC_ROUNDTRIP
360
ABFF
  0
DICTIONARY
  5
AC00
330
ABA5
100
AcDbDictionary
280
     1
281
     1
  3
ACAD_XREC_ROUNDTRIP
360
AC01
  0
DICTIONARY
  5
AC02
330
ABA6
100
AcDbDictionary
280
     1
281
     1
  3
ACAD_XREC_ROUNDTRIP
360
AC03
  0
DICTIONARY
  5
AC0A
330
ABAA
100
AcDbDictionary
280
     1
281
     1
  3
ACAD_XREC_ROUNDTRIP
360
AC0B
  0
DICTIONARY
  5
AC26
330
ABB8
100
AcDbDictionary
280
     1
281
     1
  3
ACAD_XREC_ROUNDTRIP
360
AC27
  0
DICTIONARY
  5
AC16
330
ABB0
100
AcDbDictionary
280
     1
281
     1
  3
ACAD_XREC_ROUNDTRIP
360
AC17
  0
DICTIONARY
  5
AC28
330
ABB9
100
AcDbDictionary
280
     1
281
     1
  3
ACAD_XREC_ROUNDTRIP
360
AC29
  0
DICTIONARY
  5
AC0E
330
ABAC
100
AcDbDictionary
280
     1
281
     1
  3
ACAD_XREC_ROUNDTRIP
360
AC0F
  0
DICTIONARY
  5
AC24
330
ABB7
100
AcDbDictionary
280
     1
281
     1
  3
ACAD_XREC_ROUNDTRIP
360
AC25
  0
DICTIONARY
  5
AC22
330
ABB6
100
AcDbDictionary
280
     1
281
     1
  3
ACAD_XREC_ROUNDTRIP
360
AC23
  0
DICTIONARY
  5
AC1C
330
ABB3
100
AcDbDictionary
280
     1
281
     1
  3
ACAD_XREC_ROUNDTRIP
360
AC1D
  0
DICTIONARY
  5
AC1E
330
ABB4
100
AcDbDictionary
280
     1
281
     1
  3
ACAD_XREC_ROUNDTRIP
360
AC1F
  0
DICTIONARY
  5
AC14
330
ABAF
100
AcDbDictionary
280
     1
281
     1
  3
ACAD_XREC_ROUNDTRIP
360
AC15
  0
DICTIONARY
  5
AC08
330
ABA9
100
AcDbDictionary
280
     1
281
     1
  3
ACAD_XREC_ROUNDTRIP
360
AC09
  0
DICTIONARY
  5
AC20
330
ABB5
100
AcDbDictionary
280
     1
281
     1
  3
ACAD_XREC_ROUNDTRIP
360
AC21
  0
XRECORD
  5
AC31
102
{ACAD_REACTORS
330
AC30
102
}
330
AC30
100
AcDbXrecord
280
     1
102
DISPLAYNAME
  1
Imperial24
102
FLAGS
 90
        0
  0
XRECORD
  5
AC33
102
{ACAD_REACTORS
330
AC32
102
}
330
AC32
100
AcDbXrecord
280
     1
102
SHADEPLOT
 70
     0
102
SHADEPLOTRESLEVEL
 70
     2
102
SHADEPLOTCUSTOMDPI
 70
   300
  0
XRECORD
  5
AC35
102
{ACAD_REACTORS
330
AC34
102
}
330
AC34
100
AcDbXrecord
280
     1
102
SHADEPLOT
 70
     0
102
SHADEPLOTRESLEVEL
 70
     2
102
SHADEPLOTCUSTOMDPI
 70
   300
  0
XRECORD
  5
ABFA
102
{ACAD_REACTORS
330
AB93
102
}
330
AB93
100
AcDbXrecord
280
     1
102
MATERIAL
148
0.0
149
0.0
149
0.0
 93
        0
 94
      127
282
     0
 72
     0
 77
     0
171
     0
175
     0
179
     0
273
     0
  0
XRECORD
  5
AB95
102
{ACAD_REACTORS
330
AB93
102
}
330
AB93
100
AcDbXrecord
280
     1
270
     1
271
     1
  0
XRECORD
  5
AB94
102
{ACAD_REACTORS
330
AB93
102
}
330
AB93
100
AcDbXrecord
280
     1
270
     1
271
     1
  0
XRECORD
  5
AB98
102
{ACAD_REACTORS
330
AB93
102
}
330
AB93
100
AcDbXrecord
280
     1
270
     1
271
     1
  0
XRECORD
  5
AB97
102
{ACAD_REACTORS
330
AB93
102
}
330
AB93
100
AcDbXrecord
280
     1
270
     1
271
     1
  0
XRECORD
  5
AB99
102
{ACAD_REACTORS
330
AB93
102
}
330
AB93
100
AcDbXrecord
280
     1
270
     1
271
     1
  0
XRECORD
  5
AB96
102
{ACAD_REACTORS
330
AB93
102
}
330
AB93
100
AcDbXrecord
280
     1
270
     1
271
     1
  0
XRECORD
  5
ABF9
102
{ACAD_REACTORS
330
AB8B
102
}
330
AB8B
100
AcDbXrecord
280
     1
102
MATERIAL
148
0.0
149
0.0
149
0.0
 93
        0
 94
      127
282
     0
 72
     0
 77
     0
171
     0
175
     0
179
     0
273
     0
  0
XRECORD
  5
AB8D
102
{ACAD_REACTORS
330
AB8B
102
}
330
AB8B
100
AcDbXrecord
280
     1
270
     1
271
     1
  0
XRECORD
  5
AB8C
102
{ACAD_REACTORS
330
AB8B
102
}
330
AB8B
100
AcDbXrecord
280
     1
270
     1
271
     1
  0
XRECORD
  5
AB90
102
{ACAD_REACTORS
330
AB8B
102
}
330
AB8B
100
AcDbXrecord
280
     1
270
     1
271
     1
  0
XRECORD
  5
AB8F
102
{ACAD_REACTORS
330
AB8B
102
}
330
AB8B
100
AcDbXrecord
280
     1
270
     1
271
     1
  0
XRECORD
  5
AB91
102
{ACAD_REACTORS
330
AB8B
102
}
330
AB8B
100
AcDbXrecord
280
     1
270
     1
271
     1
  0
XRECORD
  5
AB8E
102
{ACAD_REACTORS
330
AB8B
102
}
330
AB8B
100
AcDbXrecord
280
     1
270
     1
271
     1
  0
XRECORD
  5
ABFB
102
{ACAD_REACTORS
330
AB9B
102
}
330
AB9B
100
AcDbXrecord
280
     1
102
MATERIAL
148
0.0
149
0.0
149
0.0
 93
        0
 94
      127
282
     0
 72
     0
 77
     0
171
     0
175
     0
179
     0
273
     0
  0
XRECORD
  5
AB9D
102
{ACAD_REACTORS
330
AB9B
102
}
330
AB9B
100
AcDbXrecord
280
     1
270
     1
271
     1
  0
XRECORD
  5
AB9C
102
{ACAD_REACTORS
330
AB9B
102
}
330
AB9B
100
AcDbXrecord
280
     1
270
     1
271
     1
  0
XRECORD
  5
ABA0
102
{ACAD_REACTORS
330
AB9B
102
}
330
AB9B
100
AcDbXrecord
280
     1
270
     1
271
     1
  0
XRECORD
  5
AB9F
102
{ACAD_REACTORS
330
AB9B
102
}
330
AB9B
100
AcDbXrecord
280
     1
270
     1
271
     1
  0
XRECORD
  5
ABA1
102
{ACAD_REACTORS
330
AB9B
102
}
330
AB9B
100
AcDbXrecord
280
     1
270
     1
271
     1
  0
XRECORD
  5
AB9E
102
{ACAD_REACTORS
330
AB9B
102
}
330
AB9B
100
AcDbXrecord
280
     1
270
     1
271
     1
  0
XRECORD
  5
AC2F
102
{ACAD_REACTORS
330
AC2E
102
}
330
AC2E
100
AcDbXrecord
280
     1
102
DISPLAYNAME
  1
Imperial24
102
FLAGS
 90
        0
  0
CELLSTYLEMAP
  5
ABF6
102
{ACAD_REACTORS
330
ABF5
102
}
330
ABF5
100
AcDbCellStyleMap
 90
        3
300
CELLSTYLE
  1
TABLEFORMAT_BEGIN
 90
        5
170
     1
 91
        0
 92
    32768
 62
   257
 93
        1
300
CONTENTFORMAT
  1
CONTENTFORMAT_BEGIN
 90
        0
 91
        0
 92
      512
 93
        0
300

 40
0.0
140
1.0
 94
        5
 62
     0
340
A91B
144
0.25
309
CONTENTFORMAT_END
171
     0
 94
        0
309
TABLEFORMAT_END
  1
CELLSTYLE_BEGIN
 90
        1
 91
        1
300
_TITLE
309
CELLSTYLE_END
300
CELLSTYLE
  1
TABLEFORMAT_BEGIN
 90
        5
170
     1
 91
        0
 92
        0
 62
   257
 93
        1
300
CONTENTFORMAT
  1
CONTENTFORMAT_BEGIN
 90
        0
 91
        0
 92
      512
 93
        0
300

 40
0.0
140
1.0
 94
        5
 62
     0
340
A91B
144
0.18
309
CONTENTFORMAT_END
171
     0
 94
        0
309
TABLEFORMAT_END
  1
CELLSTYLE_BEGIN
 90
        2
 91
        1
300
_HEADER
309
CELLSTYLE_END
300
CELLSTYLE
  1
TABLEFORMAT_BEGIN
 90
        5
170
     1
 91
        0
 92
        0
 62
   257
 93
        1
300
CONTENTFORMAT
  1
CONTENTFORMAT_BEGIN
 90
        0
 91
        0
 92
      512
 93
        0
300

 40
0.0
140
1.0
 94
        2
 62
     0
340
A91B
144
0.18
309
CONTENTFORMAT_END
171
     0
 94
        0
309
TABLEFORMAT_END
  1
CELLSTYLE_BEGIN
 90
        3
 91
        2
300
_DATA
309
CELLSTYLE_END
  0
XRECORD
  5
AC2C
102
{ACAD_REACTORS
330
ABF5
102
}
330
ABF5
100
AcDbXrecord
280
     1
102
ACAD_ROUNDTRIP_PRE2007_TABLESTYLE
 90
      512
 91
        0
  1

 92
      512
 93
        0
  2

 94
      512
 95
        0
  3

  0
XRECORD
  5
AC07
102
{ACAD_REACTORS
330
AC06
102
}
330
AC06
100
AcDbXrecord
280
     1
102
RTVSPost2010Prop28
280
     1
102
RTVSPost2010PropOp28
 70
     1
102
RTVSPost2010Prop29
280
     1
102
RTVSPost2010PropOp29
 70
     1
102
RTVSPost2010Prop30
280
     0
102
RTVSPost2010PropOp30
 70
     1
102
RTVSPost2010Prop31
280
     0
102
RTVSPost2010PropOp31
 70
     1
102
RTVSPost2010Prop32
280
     0
102
RTVSPost2010PropOp32
 70
     1
102
RTVSPost2010Prop33
280
     0
102
RTVSPost2010PropOp33
 70
     1
102
RTVSPost2010Prop34
280
     0
102
RTVSPost2010PropOp34
 70
     1
102
RTVSPost2010Prop35
280
     0
102
RTVSPost2010PropOp35
 70
     1
102
RTVSPost2010Prop36
280
     0
102
RTVSPost2010PropOp36
 70
     1
102
RTVSPost2010Prop37
 90
       50
102
RTVSPost2010PropOp37
 70
     1
102
RTVSPost2010Prop38
140
0.0
102
RTVSPost2010PropOp38
 70
     1
102
RTVSPost2010Prop39
140
1.0
102
RTVSPost2010PropOp39
 70
     1
102
RTVSPost2010Prop40
 90
        0
102
RTVSPost2010PropOp40
 70
     1
102
RTVSPost2010Prop41ColorIndex
 90
       18
102
RTVSPost2010Prop41ColorRGB
 90
        0
102
RTVSPost2010PropOp41
 70
     1
102
RTVSPost2010Prop42
 90
       50
102
RTVSPost2010PropOp42
 70
     1
102
RTVSPost2010Prop43
 90
        3
102
RTVSPost2010PropOp43
 70
     1
102
RTVSPost2010Prop44ColorIndex
 90
        5
102
RTVSPost2010Prop44ColorRGB
 90
      255
102
RTVSPost2010PropOp44
 70
     1
102
RTVSPost2010Prop45
280
     0
102
RTVSPost2010PropOp45
 70
     1
102
RTVSPost2010Prop46
 90
       50
102
RTVSPost2010PropOp46
 70
     1
102
RTVSPost2010Prop47
 90
       50
102
RTVSPost2010PropOp47
 70
     1
102
RTVSPost2010Prop48
 90
       50
102
RTVSPost2010PropOp48
 70
     1
102
RTVSPost2010Prop49
280
     0
102
RTVSPost2010PropOp49
 70
     1
102
RTVSPost2010Prop50
 90
       50
102
RTVSPost2010PropOp50
 70
     1
102
RTVSPost2010Prop51ColorIndex
 90
      256
102
RTVSPost2010Prop51ColorRGB
 90
-16777216
102
RTVSPost2010PropOp51
 70
     0
102
RTVSPost2010Prop52
140
1.0
102
RTVSPost2010PropOp52
 70
     0
102
RTVSPost2010Prop53
 90
        2
102
RTVSPost2010PropOp53
 70
     1
102
RTVSPost2010Prop54
  1
strokes_ogs.tif
102
RTVSPost2010PropOp54
 70
     1
102
RTVSPost2010Prop55
280
     0
102
RTVSPost2010PropOp55
 70
     1
102
RTVSPost2010Prop56
140
1.0
102
RTVSPost2010PropOp56
 70
     1
102
RTVSPost2010Prop57
140
1.0
102
RTVSPost2010PropOp57
 70
     1
102
RTVSPropertyOp0
 70
     1
102
RTVSPropertyOp1
 70
     1
102
RTVSPropertyOp2
 70
     1
102
RTVSPropertyOp3
 70
     1
102
RTVSPropertyOp4
 70
     1
102
RTVSPropertyOp5
 70
     1
102
RTVSPropertyOp6
 70
     1
102
RTVSPropertyOp7
 70
     1
102
RTVSPropertyOp8
 70
     1
102
RTVSPropertyOp9
 70
     1
102
RTVSPropertyOp10
 70
     1
102
RTVSPropertyOp11
 70
     1
102
RTVSPropertyOp12
 70
     1
102
RTVSPropertyOp13
 70
     1
102
RTVSPropertyOp14
 70
     1
102
RTVSPropertyOp15
 70
     1
102
RTVSPropertyOp16
 70
     1
102
RTVSPropertyOp17
 70
     1
102
RTVSPropertyOp18
 70
     1
102
RTVSPropertyOp19
 70
     1
102
RTVSPropertyOp20
 70
     1
102
RTVSPropertyOp21
 70
     1
102
RTVSPropertyOp22
 70
     1
102
RTVSPropertyOp23
 70
     1
102
RTVSPropertyOp24
 70
     1
102
RTVSPropertyOp25
 70
     1
102
RTVSPropertyOp26
 70
     1
102
RTVSPropertyOp27
 70
     1
102
RTVSPropertyOp28
 70
     1
102
RTVSPropertyOp29
 70
     1
102
RTVSPropertyOp30
 70
     1
102
RTVSPropertyOp31
 70
     1
102
RTVSPropertyOp32
 70
     1
102
RTVSPropertyOp33
 70
     1
102
RTVSPropertyOp34
 70
     1
102
RTVSPropertyOp35
 70
     1
102
RTVSPropertyOp36
 70
     1
102
RTVSPropertyOp37
 70
     1
102
RTVSPropertyOp38
 70
     1
102
RTVSPropertyOp39
 70
     1
102
RTVSPropertyOp40
 70
     1
102
RTVSPropertyOp41
 70
     1
102
RTVSPropertyOp42
 70
     1
102
RTVSPropertyOp43
 70
     1
102
RTVSPropertyOp44
 70
     1
102
RTVSPropertyOp45
 70
     1
102
RTVSPropertyOp46
 70
     1
102
RTVSPropertyOp47
 70
     1
102
RTVSPropertyOp48
 70
     1
102
RTVSPropertyOp49
 70
     1
102
RTVSPropertyOp50
 70
     1
102
RTVSPropertyOp51
 70
     0
102
RTVSPropertyOp52
 70
     0
102
RTVSPropertyOp53
 70
     1
102
RTVSPropertyOp54
 70
     1
102
RTVSPropertyOp55
 70
     1
102
RTVSPropertyOp56
 70
     1
102
RTVSPropertyOp57
 70
     1
102
RTVSPropertyOp58
 70
     1
102
RTVSPropertyOp59
 70
     1
102
RTVSPropertyOp60
 70
     1
102
RTVSPropertyOp61
 70
     1
102
RTVSPropertyOp62
 70
     1
  0
XRECORD
  5
AC05
102
{ACAD_REACTORS
330
AC04
102
}
330
AC04
100
AcDbXrecord
280
     1
102
RTVSPost2010Prop28
280
     0
102
RTVSPost2010PropOp28
 70
     1
102
RTVSPost2010Prop29
280
     1
102
RTVSPost2010PropOp29
 70
     1
102
RTVSPost2010Prop30
280
     1
102
RTVSPost2010PropOp30
 70
     1
102
RTVSPost2010Prop31
280
     0
102
RTVSPost2010PropOp31
 70
     1
102
RTVSPost2010Prop32
280
     0
102
RTVSPost2010PropOp32
 70
     1
102
RTVSPost2010Prop33
280
     0
102
RTVSPost2010PropOp33
 70
     1
102
RTVSPost2010Prop34
280
     0
102
RTVSPost2010PropOp34
 70
     1
102
RTVSPost2010Prop35
280
     0
102
RTVSPost2010PropOp35
 70
     1
102
RTVSPost2010Prop36
280
     0
102
RTVSPost2010PropOp36
 70
     1
102
RTVSPost2010Prop37
 90
       50
102
RTVSPost2010PropOp37
 70
     1
102
RTVSPost2010Prop38
140
0.0
102
RTVSPost2010PropOp38
 70
     1
102
RTVSPost2010Prop39
140
1.0
102
RTVSPost2010PropOp39
 70
     1
102
RTVSPost2010Prop40
 90
        0
102
RTVSPost2010PropOp40
 70
     1
102
RTVSPost2010Prop41ColorIndex
 90
       18
102
RTVSPost2010Prop41ColorRGB
 90
        0
102
RTVSPost2010PropOp41
 70
     1
102
RTVSPost2010Prop42
 90
       50
102
RTVSPost2010PropOp42
 70
     1
102
RTVSPost2010Prop43
 90
        3
102
RTVSPost2010PropOp43
 70
     1
102
RTVSPost2010Prop44ColorIndex
 90
        5
102
RTVSPost2010Prop44ColorRGB
 90
      255
102
RTVSPost2010PropOp44
 70
     1
102
RTVSPost2010Prop45
280
     0
102
RTVSPost2010PropOp45
 70
     1
102
RTVSPost2010Prop46
 90
       50
102
RTVSPost2010PropOp46
 70
     1
102
RTVSPost2010Prop47
 90
       50
102
RTVSPost2010PropOp47
 70
     1
102
RTVSPost2010Prop48
 90
       50
102
RTVSPost2010PropOp48
 70
     1
102
RTVSPost2010Prop49
280
     0
102
RTVSPost2010PropOp49
 70
     1
102
RTVSPost2010Prop50
 90
       50
102
RTVSPost2010PropOp50
 70
     1
102
RTVSPost2010Prop51ColorIndex
 90
      256
102
RTVSPost2010Prop51ColorRGB
 90
-16777216
102
RTVSPost2010PropOp51
 70
     0
102
RTVSPost2010Prop52
140
1.0
102
RTVSPost2010PropOp52
 70
     0
102
RTVSPost2010Prop53
 90
        2
102
RTVSPost2010PropOp53
 70
     1
102
RTVSPost2010Prop54
  1
strokes_ogs.tif
102
RTVSPost2010PropOp54
 70
     1
102
RTVSPost2010Prop55
280
     0
102
RTVSPost2010PropOp55
 70
     1
102
RTVSPost2010Prop56
140
1.0
102
RTVSPost2010PropOp56
 70
     1
102
RTVSPost2010Prop57
140
1.0
102
RTVSPost2010PropOp57
 70
     1
102
RTVSPropertyOp0
 70
     1
102
RTVSPropertyOp1
 70
     1
102
RTVSPropertyOp2
 70
     1
102
RTVSPropertyOp3
 70
     1
102
RTVSPropertyOp4
 70
     1
102
RTVSPropertyOp5
 70
     1
102
RTVSPropertyOp6
 70
     1
102
RTVSPropertyOp7
 70
     1
102
RTVSPropertyOp8
 70
     1
102
RTVSPropertyOp9
 70
     1
102
RTVSPropertyOp10
 70
     1
102
RTVSPropertyOp11
 70
     1
102
RTVSPropertyOp12
 70
     1
102
RTVSPropertyOp13
 70
     1
102
RTVSPropertyOp14
 70
     1
102
RTVSPropertyOp15
 70
     1
102
RTVSPropertyOp16
 70
     1
102
RTVSPropertyOp17
 70
     1
102
RTVSPropertyOp18
 70
     1
102
RTVSPropertyOp19
 70
     1
102
RTVSPropertyOp20
 70
     1
102
RTVSPropertyOp21
 70
     1
102
RTVSPropertyOp22
 70
     1
102
RTVSPropertyOp23
 70
     1
102
RTVSPropertyOp24
 70
     1
102
RTVSPropertyOp25
 70
     1
102
RTVSPropertyOp26
 70
     1
102
RTVSPropertyOp27
 70
     1
102
RTVSPropertyOp28
 70
     1
102
RTVSPropertyOp29
 70
     1
102
RTVSPropertyOp30
 70
     1
102
RTVSPropertyOp31
 70
     1
102
RTVSPropertyOp32
 70
     1
102
RTVSPropertyOp33
 70
     1
102
RTVSPropertyOp34
 70
     1
102
RTVSPropertyOp35
 70
     1
102
RTVSPropertyOp36
 70
     1
102
RTVSPropertyOp37
 70
     1
102
RTVSPropertyOp38
 70
     1
102
RTVSPropertyOp39
 70
     1
102
RTVSPropertyOp40
 70
     1
102
RTVSPropertyOp41
 70
     1
102
RTVSPropertyOp42
 70
     1
102
RTVSPropertyOp43
 70
     1
102
RTVSPropertyOp44
 70
     1
102
RTVSPropertyOp45
 70
     1
102
RTVSPropertyOp46
 70
     1
102
RTVSPropertyOp47
 70
     1
102
RTVSPropertyOp48
 70
     1
102
RTVSPropertyOp49
 70
     1
102
RTVSPropertyOp50
 70
     1
102
RTVSPropertyOp51
 70
     0
102
RTVSPropertyOp52
 70
     0
102
RTVSPropertyOp53
 70
     1
102
RTVSPropertyOp54
 70
     1
102
RTVSPropertyOp55
 70
     1
102
RTVSPropertyOp56
 70
     1
102
RTVSPropertyOp57
 70
     1
102
RTVSPropertyOp58
 70
     1
102
RTVSPropertyOp59
 70
     1
102
RTVSPropertyOp60
 70
     1
102
RTVSPropertyOp61
 70
     1
102
RTVSPropertyOp62
 70
     1
  0
XRECORD
  5
AC13
102
{ACAD_REACTORS
330
AC12
102
}
330
AC12
100
AcDbXrecord
280
     1
102
RTVSPost2010Prop28
280
     0
102
RTVSPost2010PropOp28
 70
     1
102
RTVSPost2010Prop29
280
     1
102
RTVSPost2010PropOp29
 70
     1
102
RTVSPost2010Prop30
280
     1
102
RTVSPost2010PropOp30
 70
     1
102
RTVSPost2010Prop31
280
     0
102
RTVSPost2010PropOp31
 70
     1
102
RTVSPost2010Prop32
280
     0
102
RTVSPost2010PropOp32
 70
     1
102
RTVSPost2010Prop33
280
     0
102
RTVSPost2010PropOp33
 70
     1
102
RTVSPost2010Prop34
280
     0
102
RTVSPost2010PropOp34
 70
     1
102
RTVSPost2010Prop35
280
     0
102
RTVSPost2010PropOp35
 70
     1
102
RTVSPost2010Prop36
280
     0
102
RTVSPost2010PropOp36
 70
     1
102
RTVSPost2010Prop37
 90
       50
102
RTVSPost2010PropOp37
 70
     1
102
RTVSPost2010Prop38
140
0.0
102
RTVSPost2010PropOp38
 70
     1
102
RTVSPost2010Prop39
140
1.0
102
RTVSPost2010PropOp39
 70
     1
102
RTVSPost2010Prop40
 90
        0
102
RTVSPost2010PropOp40
 70
     1
102
RTVSPost2010Prop41ColorIndex
 90
       18
102
RTVSPost2010Prop41ColorRGB
 90
        0
102
RTVSPost2010PropOp41
 70
     1
102
RTVSPost2010Prop42
 90
       50
102
RTVSPost2010PropOp42
 70
     1
102
RTVSPost2010Prop43
 90
        3
102
RTVSPost2010PropOp43
 70
     1
102
RTVSPost2010Prop44ColorIndex
 90
        5
102
RTVSPost2010Prop44ColorRGB
 90
      255
102
RTVSPost2010PropOp44
 70
     1
102
RTVSPost2010Prop45
280
     0
102
RTVSPost2010PropOp45
 70
     1
102
RTVSPost2010Prop46
 90
       50
102
RTVSPost2010PropOp46
 70
     1
102
RTVSPost2010Prop47
 90
       50
102
RTVSPost2010PropOp47
 70
     1
102
RTVSPost2010Prop48
 90
       50
102
RTVSPost2010PropOp48
 70
     1
102
RTVSPost2010Prop49
280
     0
102
RTVSPost2010PropOp49
 70
     1
102
RTVSPost2010Prop50
 90
       50
102
RTVSPost2010PropOp50
 70
     1
102
RTVSPost2010Prop51ColorIndex
 90
      256
102
RTVSPost2010Prop51ColorRGB
 90
-16777216
102
RTVSPost2010PropOp51
 70
     0
102
RTVSPost2010Prop52
140
1.0
102
RTVSPost2010PropOp52
 70
     0
102
RTVSPost2010Prop53
 90
        2
102
RTVSPost2010PropOp53
 70
     1
102
RTVSPost2010Prop54
  1
strokes_ogs.tif
102
RTVSPost2010PropOp54
 70
     1
102
RTVSPost2010Prop55
280
     0
102
RTVSPost2010PropOp55
 70
     1
102
RTVSPost2010Prop56
140
1.0
102
RTVSPost2010PropOp56
 70
     1
102
RTVSPost2010Prop57
140
1.0
102
RTVSPost2010PropOp57
 70
     1
102
RTVSPropertyOp0
 70
     1
102
RTVSPropertyOp1
 70
     1
102
RTVSPropertyOp2
 70
     1
102
RTVSPropertyOp3
 70
     1
102
RTVSPropertyOp4
 70
     1
102
RTVSPropertyOp5
 70
     1
102
RTVSPropertyOp6
 70
     1
102
RTVSPropertyOp7
 70
     1
102
RTVSPropertyOp8
 70
     1
102
RTVSPropertyOp9
 70
     1
102
RTVSPropertyOp10
 70
     1
102
RTVSPropertyOp11
 70
     1
102
RTVSPropertyOp12
 70
     1
102
RTVSPropertyOp13
 70
     1
102
RTVSPropertyOp14
 70
     1
102
RTVSPropertyOp15
 70
     1
102
RTVSPropertyOp16
 70
     1
102
RTVSPropertyOp17
 70
     1
102
RTVSPropertyOp18
 70
     1
102
RTVSPropertyOp19
 70
     1
102
RTVSPropertyOp20
 70
     1
102
RTVSPropertyOp21
 70
     1
102
RTVSPropertyOp22
 70
     1
102
RTVSPropertyOp23
 70
     1
102
RTVSPropertyOp24
 70
     1
102
RTVSPropertyOp25
 70
     1
102
RTVSPropertyOp26
 70
     1
102
RTVSPropertyOp27
 70
     1
102
RTVSPropertyOp28
 70
     1
102
RTVSPropertyOp29
 70
     1
102
RTVSPropertyOp30
 70
     1
102
RTVSPropertyOp31
 70
     1
102
RTVSPropertyOp32
 70
     1
102
RTVSPropertyOp33
 70
     1
102
RTVSPropertyOp34
 70
     1
102
RTVSPropertyOp35
 70
     1
102
RTVSPropertyOp36
 70
     1
102
RTVSPropertyOp37
 70
     1
102
RTVSPropertyOp38
 70
     1
102
RTVSPropertyOp39
 70
     1
102
RTVSPropertyOp40
 70
     1
102
RTVSPropertyOp41
 70
     1
102
RTVSPropertyOp42
 70
     1
102
RTVSPropertyOp43
 70
     1
102
RTVSPropertyOp44
 70
     1
102
RTVSPropertyOp45
 70
     1
102
RTVSPropertyOp46
 70
     1
102
RTVSPropertyOp47
 70
     1
102
RTVSPropertyOp48
 70
     1
102
RTVSPropertyOp49
 70
     1
102
RTVSPropertyOp50
 70
     1
102
RTVSPropertyOp51
 70
     0
102
RTVSPropertyOp52
 70
     0
102
RTVSPropertyOp53
 70
     1
102
RTVSPropertyOp54
 70
     1
102
RTVSPropertyOp55
 70
     1
102
RTVSPropertyOp56
 70
     1
102
RTVSPropertyOp57
 70
     1
102
RTVSPropertyOp58
 70
     1
102
RTVSPropertyOp59
 70
     1
102
RTVSPropertyOp60
 70
     1
102
RTVSPropertyOp61
 70
     1
102
RTVSPropertyOp62
 70
     1
  0
XRECORD
  5
AC1B
102
{ACAD_REACTORS
330
AC1A
102
}
330
AC1A
100
AcDbXrecord
280
     1
102
RTVSPost2010Prop28
280
     0
102
RTVSPost2010PropOp28
 70
     1
102
RTVSPost2010Prop29
280
     1
102
RTVSPost2010PropOp29
 70
     1
102
RTVSPost2010Prop30
280
     1
102
RTVSPost2010PropOp30
 70
     1
102
RTVSPost2010Prop31
280
     0
102
RTVSPost2010PropOp31
 70
     1
102
RTVSPost2010Prop32
280
     0
102
RTVSPost2010PropOp32
 70
     1
102
RTVSPost2010Prop33
280
     0
102
RTVSPost2010PropOp33
 70
     1
102
RTVSPost2010Prop34
280
     0
102
RTVSPost2010PropOp34
 70
     1
102
RTVSPost2010Prop35
280
     0
102
RTVSPost2010PropOp35
 70
     1
102
RTVSPost2010Prop36
280
     0
102
RTVSPost2010PropOp36
 70
     1
102
RTVSPost2010Prop37
 90
       50
102
RTVSPost2010PropOp37
 70
     1
102
RTVSPost2010Prop38
140
0.0
102
RTVSPost2010PropOp38
 70
     1
102
RTVSPost2010Prop39
140
1.0
102
RTVSPost2010PropOp39
 70
     1
102
RTVSPost2010Prop40
 90
        0
102
RTVSPost2010PropOp40
 70
     1
102
RTVSPost2010Prop41ColorIndex
 90
       18
102
RTVSPost2010Prop41ColorRGB
 90
        0
102
RTVSPost2010PropOp41
 70
     1
102
RTVSPost2010Prop42
 90
       50
102
RTVSPost2010PropOp42
 70
     1
102
RTVSPost2010Prop43
 90
        3
102
RTVSPost2010PropOp43
 70
     1
102
RTVSPost2010Prop44ColorIndex
 90
        5
102
RTVSPost2010Prop44ColorRGB
 90
      255
102
RTVSPost2010PropOp44
 70
     1
102
RTVSPost2010Prop45
280
     0
102
RTVSPost2010PropOp45
 70
     1
102
RTVSPost2010Prop46
 90
       50
102
RTVSPost2010PropOp46
 70
     1
102
RTVSPost2010Prop47
 90
       50
102
RTVSPost2010PropOp47
 70
     1
102
RTVSPost2010Prop48
 90
       50
102
RTVSPost2010PropOp48
 70
     1
102
RTVSPost2010Prop49
280
     0
102
RTVSPost2010PropOp49
 70
     1
102
RTVSPost2010Prop50
 90
       50
102
RTVSPost2010PropOp50
 70
     1
102
RTVSPost2010Prop51ColorIndex
 90
      256
102
RTVSPost2010Prop51ColorRGB
 90
-16777216
102
RTVSPost2010PropOp51
 70
     0
102
RTVSPost2010Prop52
140
1.0
102
RTVSPost2010PropOp52
 70
     0
102
RTVSPost2010Prop53
 90
        2
102
RTVSPost2010PropOp53
 70
     1
102
RTVSPost2010Prop54
  1
strokes_ogs.tif
102
RTVSPost2010PropOp54
 70
     1
102
RTVSPost2010Prop55
280
     0
102
RTVSPost2010PropOp55
 70
     1
102
RTVSPost2010Prop56
140
1.0
102
RTVSPost2010PropOp56
 70
     1
102
RTVSPost2010Prop57
140
1.0
102
RTVSPost2010PropOp57
 70
     1
102
RTVSPropertyOp0
 70
     1
102
RTVSPropertyOp1
 70
     1
102
RTVSPropertyOp2
 70
     1
102
RTVSPropertyOp3
 70
     1
102
RTVSPropertyOp4
 70
     1
102
RTVSPropertyOp5
 70
     1
102
RTVSPropertyOp6
 70
     1
102
RTVSPropertyOp7
 70
     1
102
RTVSPropertyOp8
 70
     1
102
RTVSPropertyOp9
 70
     1
102
RTVSPropertyOp10
 70
     1
102
RTVSPropertyOp11
 70
     1
102
RTVSPropertyOp12
 70
     1
102
RTVSPropertyOp13
 70
     1
102
RTVSPropertyOp14
 70
     1
102
RTVSPropertyOp15
 70
     1
102
RTVSPropertyOp16
 70
     1
102
RTVSPropertyOp17
 70
     1
102
RTVSPropertyOp18
 70
     1
102
RTVSPropertyOp19
 70
     1
102
RTVSPropertyOp20
 70
     1
102
RTVSPropertyOp21
 70
     1
102
RTVSPropertyOp22
 70
     1
102
RTVSPropertyOp23
 70
     1
102
RTVSPropertyOp24
 70
     1
102
RTVSPropertyOp25
 70
     1
102
RTVSPropertyOp26
 70
     1
102
RTVSPropertyOp27
 70
     1
102
RTVSPropertyOp28
 70
     1
102
RTVSPropertyOp29
 70
     1
102
RTVSPropertyOp30
 70
     1
102
RTVSPropertyOp31
 70
     1
102
RTVSPropertyOp32
 70
     1
102
RTVSPropertyOp33
 70
     1
102
RTVSPropertyOp34
 70
     1
102
RTVSPropertyOp35
 70
     1
102
RTVSPropertyOp36
 70
     1
102
RTVSPropertyOp37
 70
     1
102
RTVSPropertyOp38
 70
     1
102
RTVSPropertyOp39
 70
     1
102
RTVSPropertyOp40
 70
     1
102
RTVSPropertyOp41
 70
     1
102
RTVSPropertyOp42
 70
     1
102
RTVSPropertyOp43
 70
     1
102
RTVSPropertyOp44
 70
     1
102
RTVSPropertyOp45
 70
     1
102
RTVSPropertyOp46
 70
     1
102
RTVSPropertyOp47
 70
     1
102
RTVSPropertyOp48
 70
     1
102
RTVSPropertyOp49
 70
     1
102
RTVSPropertyOp50
 70
     1
102
RTVSPropertyOp51
 70
     0
102
RTVSPropertyOp52
 70
     0
102
RTVSPropertyOp53
 70
     1
102
RTVSPropertyOp54
 70
     1
102
RTVSPropertyOp55
 70
     1
102
RTVSPropertyOp56
 70
     1
102
RTVSPropertyOp57
 70
     1
102
RTVSPropertyOp58
 70
     1
102
RTVSPropertyOp59
 70
     1
102
RTVSPropertyOp60
 70
     1
102
RTVSPropertyOp61
 70
     1
102
RTVSPropertyOp62
 70
     1
  0
XRECORD
  5
AC0D
102
{ACAD_REACTORS
330
AC0C
102
}
330
AC0C
100
AcDbXrecord
280
     1
102
RTVSPost2010Prop28
280
     0
102
RTVSPost2010PropOp28
 70
     1
102
RTVSPost2010Prop29
280
     1
102
RTVSPost2010PropOp29
 70
     1
102
RTVSPost2010Prop30
280
     1
102
RTVSPost2010PropOp30
 70
     1
102
RTVSPost2010Prop31
280
     0
102
RTVSPost2010PropOp31
 70
     1
102
RTVSPost2010Prop32
280
     0
102
RTVSPost2010PropOp32
 70
     1
102
RTVSPost2010Prop33
280
     0
102
RTVSPost2010PropOp33
 70
     1
102
RTVSPost2010Prop34
280
     0
102
RTVSPost2010PropOp34
 70
     1
102
RTVSPost2010Prop35
280
     0
102
RTVSPost2010PropOp35
 70
     1
102
RTVSPost2010Prop36
280
     0
102
RTVSPost2010PropOp36
 70
     1
102
RTVSPost2010Prop37
 90
       50
102
RTVSPost2010PropOp37
 70
     1
102
RTVSPost2010Prop38
140
0.0
102
RTVSPost2010PropOp38
 70
     1
102
RTVSPost2010Prop39
140
1.0
102
RTVSPost2010PropOp39
 70
     1
102
RTVSPost2010Prop40
 90
        0
102
RTVSPost2010PropOp40
 70
     1
102
RTVSPost2010Prop41ColorIndex
 90
       18
102
RTVSPost2010Prop41ColorRGB
 90
        0
102
RTVSPost2010PropOp41
 70
     1
102
RTVSPost2010Prop42
 90
       50
102
RTVSPost2010PropOp42
 70
     1
102
RTVSPost2010Prop43
 90
        3
102
RTVSPost2010PropOp43
 70
     1
102
RTVSPost2010Prop44ColorIndex
 90
        5
102
RTVSPost2010Prop44ColorRGB
 90
      255
102
RTVSPost2010PropOp44
 70
     1
102
RTVSPost2010Prop45
280
     0
102
RTVSPost2010PropOp45
 70
     1
102
RTVSPost2010Prop46
 90
       50
102
RTVSPost2010PropOp46
 70
     1
102
RTVSPost2010Prop47
 90
       50
102
RTVSPost2010PropOp47
 70
     1
102
RTVSPost2010Prop48
 90
       50
102
RTVSPost2010PropOp48
 70
     1
102
RTVSPost2010Prop49
280
     0
102
RTVSPost2010PropOp49
 70
     1
102
RTVSPost2010Prop50
 90
       50
102
RTVSPost2010PropOp50
 70
     1
102
RTVSPost2010Prop51ColorIndex
 90
      256
102
RTVSPost2010Prop51ColorRGB
 90
-16777216
102
RTVSPost2010PropOp51
 70
     0
102
RTVSPost2010Prop52
140
1.0
102
RTVSPost2010PropOp52
 70
     0
102
RTVSPost2010Prop53
 90
        2
102
RTVSPost2010PropOp53
 70
     1
102
RTVSPost2010Prop54
  1
strokes_ogs.tif
102
RTVSPost2010PropOp54
 70
     1
102
RTVSPost2010Prop55
280
     0
102
RTVSPost2010PropOp55
 70
     1
102
RTVSPost2010Prop56
140
1.0
102
RTVSPost2010PropOp56
 70
     1
102
RTVSPost2010Prop57
140
1.0
102
RTVSPost2010PropOp57
 70
     1
102
RTVSPropertyOp0
 70
     1
102
RTVSPropertyOp1
 70
     1
102
RTVSPropertyOp2
 70
     1
102
RTVSPropertyOp3
 70
     1
102
RTVSPropertyOp4
 70
     1
102
RTVSPropertyOp5
 70
     1
102
RTVSPropertyOp6
 70
     1
102
RTVSPropertyOp7
 70
     1
102
RTVSPropertyOp8
 70
     1
102
RTVSPropertyOp9
 70
     1
102
RTVSPropertyOp10
 70
     1
102
RTVSPropertyOp11
 70
     1
102
RTVSPropertyOp12
 70
     1
102
RTVSPropertyOp13
 70
     1
102
RTVSPropertyOp14
 70
     1
102
RTVSPropertyOp15
 70
     1
102
RTVSPropertyOp16
 70
     1
102
RTVSPropertyOp17
 70
     1
102
RTVSPropertyOp18
 70
     1
102
RTVSPropertyOp19
 70
     1
102
RTVSPropertyOp20
 70
     1
102
RTVSPropertyOp21
 70
     1
102
RTVSPropertyOp22
 70
     1
102
RTVSPropertyOp23
 70
     1
102
RTVSPropertyOp24
 70
     1
102
RTVSPropertyOp25
 70
     1
102
RTVSPropertyOp26
 70
     1
102
RTVSPropertyOp27
 70
     1
102
RTVSPropertyOp28
 70
     1
102
RTVSPropertyOp29
 70
     1
102
RTVSPropertyOp30
 70
     1
102
RTVSPropertyOp31
 70
     1
102
RTVSPropertyOp32
 70
     1
102
RTVSPropertyOp33
 70
     1
102
RTVSPropertyOp34
 70
     1
102
RTVSPropertyOp35
 70
     1
102
RTVSPropertyOp36
 70
     1
102
RTVSPropertyOp37
 70
     1
102
RTVSPropertyOp38
 70
     1
102
RTVSPropertyOp39
 70
     1
102
RTVSPropertyOp40
 70
     1
102
RTVSPropertyOp41
 70
     1
102
RTVSPropertyOp42
 70
     1
102
RTVSPropertyOp43
 70
     1
102
RTVSPropertyOp44
 70
     1
102
RTVSPropertyOp45
 70
     1
102
RTVSPropertyOp46
 70
     1
102
RTVSPropertyOp47
 70
     1
102
RTVSPropertyOp48
 70
     1
102
RTVSPropertyOp49
 70
     1
102
RTVSPropertyOp50
 70
     1
102
RTVSPropertyOp51
 70
     0
102
RTVSPropertyOp52
 70
     0
102
RTVSPropertyOp53
 70
     1
102
RTVSPropertyOp54
 70
     1
102
RTVSPropertyOp55
 70
     1
102
RTVSPropertyOp56
 70
     1
102
RTVSPropertyOp57
 70
     1
102
RTVSPropertyOp58
 70
     1
102
RTVSPropertyOp59
 70
     1
102
RTVSPropertyOp60
 70
     1
102
RTVSPropertyOp61
 70
     1
102
RTVSPropertyOp62
 70
     1
  0
XRECORD
  5
AC11
102
{ACAD_REACTORS
330
AC10
102
}
330
AC10
100
AcDbXrecord
280
     1
102
RTVSPost2010Prop28
280
     0
102
RTVSPost2010PropOp28
 70
     1
102
RTVSPost2010Prop29
280
     1
102
RTVSPost2010PropOp29
 70
     1
102
RTVSPost2010Prop30
280
     1
102
RTVSPost2010PropOp30
 70
     1
102
RTVSPost2010Prop31
280
     0
102
RTVSPost2010PropOp31
 70
     1
102
RTVSPost2010Prop32
280
     0
102
RTVSPost2010PropOp32
 70
     1
102
RTVSPost2010Prop33
280
     0
102
RTVSPost2010PropOp33
 70
     1
102
RTVSPost2010Prop34
280
     0
102
RTVSPost2010PropOp34
 70
     1
102
RTVSPost2010Prop35
280
     0
102
RTVSPost2010PropOp35
 70
     1
102
RTVSPost2010Prop36
280
     0
102
RTVSPost2010PropOp36
 70
     1
102
RTVSPost2010Prop37
 90
       50
102
RTVSPost2010PropOp37
 70
     1
102
RTVSPost2010Prop38
140
0.0
102
RTVSPost2010PropOp38
 70
     1
102
RTVSPost2010Prop39
140
1.0
102
RTVSPost2010PropOp39
 70
     1
102
RTVSPost2010Prop40
 90
        0
102
RTVSPost2010PropOp40
 70
     1
102
RTVSPost2010Prop41ColorIndex
 90
       18
102
RTVSPost2010Prop41ColorRGB
 90
        0
102
RTVSPost2010PropOp41
 70
     1
102
RTVSPost2010Prop42
 90
       50
102
RTVSPost2010PropOp42
 70
     1
102
RTVSPost2010Prop43
 90
        3
102
RTVSPost2010PropOp43
 70
     1
102
RTVSPost2010Prop44ColorIndex
 90
        5
102
RTVSPost2010Prop44ColorRGB
 90
      255
102
RTVSPost2010PropOp44
 70
     1
102
RTVSPost2010Prop45
280
     0
102
RTVSPost2010PropOp45
 70
     1
102
RTVSPost2010Prop46
 90
       50
102
RTVSPost2010PropOp46
 70
     1
102
RTVSPost2010Prop47
 90
       50
102
RTVSPost2010PropOp47
 70
     1
102
RTVSPost2010Prop48
 90
       50
102
RTVSPost2010PropOp48
 70
     1
102
RTVSPost2010Prop49
280
     0
102
RTVSPost2010PropOp49
 70
     1
102
RTVSPost2010Prop50
 90
       50
102
RTVSPost2010PropOp50
 70
     1
102
RTVSPost2010Prop51ColorIndex
 90
      256
102
RTVSPost2010Prop51ColorRGB
 90
-16777216
102
RTVSPost2010PropOp51
 70
     0
102
RTVSPost2010Prop52
140
1.0
102
RTVSPost2010PropOp52
 70
     0
102
RTVSPost2010Prop53
 90
        2
102
RTVSPost2010PropOp53
 70
     1
102
RTVSPost2010Prop54
  1
strokes_ogs.tif
102
RTVSPost2010PropOp54
 70
     1
102
RTVSPost2010Prop55
280
     0
102
RTVSPost2010PropOp55
 70
     1
102
RTVSPost2010Prop56
140
1.0
102
RTVSPost2010PropOp56
 70
     1
102
RTVSPost2010Prop57
140
1.0
102
RTVSPost2010PropOp57
 70
     1
102
RTVSPropertyOp0
 70
     1
102
RTVSPropertyOp1
 70
     1
102
RTVSPropertyOp2
 70
     1
102
RTVSPropertyOp3
 70
     1
102
RTVSPropertyOp4
 70
     1
102
RTVSPropertyOp5
 70
     1
102
RTVSPropertyOp6
 70
     1
102
RTVSPropertyOp7
 70
     1
102
RTVSPropertyOp8
 70
     1
102
RTVSPropertyOp9
 70
     1
102
RTVSPropertyOp10
 70
     1
102
RTVSPropertyOp11
 70
     1
102
RTVSPropertyOp12
 70
     1
102
RTVSPropertyOp13
 70
     1
102
RTVSPropertyOp14
 70
     1
102
RTVSPropertyOp15
 70
     1
102
RTVSPropertyOp16
 70
     1
102
RTVSPropertyOp17
 70
     1
102
RTVSPropertyOp18
 70
     1
102
RTVSPropertyOp19
 70
     1
102
RTVSPropertyOp20
 70
     1
102
RTVSPropertyOp21
 70
     1
102
RTVSPropertyOp22
 70
     1
102
RTVSPropertyOp23
 70
     1
102
RTVSPropertyOp24
 70
     1
102
RTVSPropertyOp25
 70
     1
102
RTVSPropertyOp26
 70
     1
102
RTVSPropertyOp27
 70
     1
102
RTVSPropertyOp28
 70
     1
102
RTVSPropertyOp29
 70
     1
102
RTVSPropertyOp30
 70
     1
102
RTVSPropertyOp31
 70
     1
102
RTVSPropertyOp32
 70
     1
102
RTVSPropertyOp33
 70
     1
102
RTVSPropertyOp34
 70
     1
102
RTVSPropertyOp35
 70
     1
102
RTVSPropertyOp36
 70
     1
102
RTVSPropertyOp37
 70
     1
102
RTVSPropertyOp38
 70
     1
102
RTVSPropertyOp39
 70
     1
102
RTVSPropertyOp40
 70
     1
102
RTVSPropertyOp41
 70
     1
102
RTVSPropertyOp42
 70
     1
102
RTVSPropertyOp43
 70
     1
102
RTVSPropertyOp44
 70
     1
102
RTVSPropertyOp45
 70
     1
102
RTVSPropertyOp46
 70
     1
102
RTVSPropertyOp47
 70
     1
102
RTVSPropertyOp48
 70
     1
102
RTVSPropertyOp49
 70
     1
102
RTVSPropertyOp50
 70
     1
102
RTVSPropertyOp51
 70
     0
102
RTVSPropertyOp52
 70
     0
102
RTVSPropertyOp53
 70
     1
102
RTVSPropertyOp54
 70
     1
102
RTVSPropertyOp55
 70
     1
102
RTVSPropertyOp56
 70
     1
102
RTVSPropertyOp57
 70
     1
102
RTVSPropertyOp58
 70
     1
102
RTVSPropertyOp59
 70
     1
102
RTVSPropertyOp60
 70
     1
102
RTVSPropertyOp61
 70
     1
102
RTVSPropertyOp62
 70
     1
  0
XRECORD
  5
AC2B
102
{ACAD_REACTORS
330
AC2A
102
}
330
AC2A
100
AcDbXrecord
280
     1
102
RTVSPost2010Prop28
280
     0
102
RTVSPost2010PropOp28
 70
     1
102
RTVSPost2010Prop29
280
     1
102
RTVSPost2010PropOp29
 70
     1
102
RTVSPost2010Prop30
280
     1
102
RTVSPost2010PropOp30
 70
     1
102
RTVSPost2010Prop31
280
     0
102
RTVSPost2010PropOp31
 70
     1
102
RTVSPost2010Prop32
280
     0
102
RTVSPost2010PropOp32
 70
     1
102
RTVSPost2010Prop33
280
     0
102
RTVSPost2010PropOp33
 70
     1
102
RTVSPost2010Prop34
280
     0
102
RTVSPost2010PropOp34
 70
     1
102
RTVSPost2010Prop35
280
     0
102
RTVSPost2010PropOp35
 70
     1
102
RTVSPost2010Prop36
280
     0
102
RTVSPost2010PropOp36
 70
     1
102
RTVSPost2010Prop37
 90
       50
102
RTVSPost2010PropOp37
 70
     0
102
RTVSPost2010Prop38
140
0.0
102
RTVSPost2010PropOp38
 70
     0
102
RTVSPost2010Prop39
140
1.0
102
RTVSPost2010PropOp39
 70
     0
102
RTVSPost2010Prop40
 90
        0
102
RTVSPost2010PropOp40
 70
     0
102
RTVSPost2010Prop41ColorIndex
 90
       18
102
RTVSPost2010Prop41ColorRGB
 90
        0
102
RTVSPost2010PropOp41
 70
     0
102
RTVSPost2010Prop42
 90
       50
102
RTVSPost2010PropOp42
 70
     0
102
RTVSPost2010Prop43
 90
        3
102
RTVSPost2010PropOp43
 70
     0
102
RTVSPost2010Prop44ColorIndex
 90
        5
102
RTVSPost2010Prop44ColorRGB
 90
      255
102
RTVSPost2010PropOp44
 70
     0
102
RTVSPost2010Prop45
280
     0
102
RTVSPost2010PropOp45
 70
     1
102
RTVSPost2010Prop46
 90
       50
102
RTVSPost2010PropOp46
 70
     0
102
RTVSPost2010Prop47
 90
       50
102
RTVSPost2010PropOp47
 70
     0
102
RTVSPost2010Prop48
 90
       50
102
RTVSPost2010PropOp48
 70
     0
102
RTVSPost2010Prop49
280
     0
102
RTVSPost2010PropOp49
 70
     1
102
RTVSPost2010Prop50
 90
       50
102
RTVSPost2010PropOp50
 70
     0
102
RTVSPost2010Prop51ColorIndex
 90
      256
102
RTVSPost2010Prop51ColorRGB
 90
-16777216
102
RTVSPost2010PropOp51
 70
     0
102
RTVSPost2010Prop52
140
1.0
102
RTVSPost2010PropOp52
 70
     0
102
RTVSPost2010Prop53
 90
        2
102
RTVSPost2010PropOp53
 70
     0
102
RTVSPost2010Prop54
  1
strokes_ogs.tif
102
RTVSPost2010PropOp54
 70
     0
102
RTVSPost2010Prop55
280
     0
102
RTVSPost2010PropOp55
 70
     1
102
RTVSPost2010Prop56
140
1.0
102
RTVSPost2010PropOp56
 70
     0
102
RTVSPost2010Prop57
140
1.0
102
RTVSPost2010PropOp57
 70
     0
102
RTVSPropertyOp0
 70
     0
102
RTVSPropertyOp1
 70
     0
102
RTVSPropertyOp2
 70
     0
102
RTVSPropertyOp3
 70
     0
102
RTVSPropertyOp4
 70
     0
102
RTVSPropertyOp5
 70
     0
102
RTVSPropertyOp6
 70
     0
102
RTVSPropertyOp7
 70
     0
102
RTVSPropertyOp8
 70
     0
102
RTVSPropertyOp9
 70
     0
102
RTVSPropertyOp10
 70
     0
102
RTVSPropertyOp11
 70
     0
102
RTVSPropertyOp12
 70
     0
102
RTVSPropertyOp13
 70
     0
102
RTVSPropertyOp14
 70
     2
102
RTVSPropertyOp15
 70
     0
102
RTVSPropertyOp16
 70
     0
102
RTVSPropertyOp17
 70
     0
102
RTVSPropertyOp18
 70
     0
102
RTVSPropertyOp19
 70
     0
102
RTVSPropertyOp20
 70
     0
102
RTVSPropertyOp21
 70
     0
102
RTVSPropertyOp22
 70
     0
102
RTVSPropertyOp23
 70
     0
102
RTVSPropertyOp24
 70
     0
102
RTVSPropertyOp25
 70
     0
102
RTVSPropertyOp26
 70
     0
102
RTVSPropertyOp27
 70
     0
102
RTVSPropertyOp28
 70
     1
102
RTVSPropertyOp29
 70
     1
102
RTVSPropertyOp30
 70
     1
102
RTVSPropertyOp31
 70
     1
102
RTVSPropertyOp32
 70
     1
102
RTVSPropertyOp33
 70
     1
102
RTVSPropertyOp34
 70
     1
102
RTVSPropertyOp35
 70
     1
102
RTVSPropertyOp36
 70
     1
102
RTVSPropertyOp37
 70
     0
102
RTVSPropertyOp38
 70
     0
102
RTVSPropertyOp39
 70
     0
102
RTVSPropertyOp40
 70
     0
102
RTVSPropertyOp41
 70
     0
102
RTVSPropertyOp42
 70
     0
102
RTVSPropertyOp43
 70
     0
102
RTVSPropertyOp44
 70
     0
102
RTVSPropertyOp45
 70
     1
102
RTVSPropertyOp46
 70
     0
102
RTVSPropertyOp47
 70
     0
102
RTVSPropertyOp48
 70
     0
102
RTVSPropertyOp49
 70
     1
102
RTVSPropertyOp50
 70
     0
102
RTVSPropertyOp51
 70
     0
102
RTVSPropertyOp52
 70
     0
102
RTVSPropertyOp53
 70
     0
102
RTVSPropertyOp54
 70
     0
102
RTVSPropertyOp55
 70
     1
102
RTVSPropertyOp56
 70
     0
102
RTVSPropertyOp57
 70
     0
102
RTVSPropertyOp58
 70
     0
102
RTVSPropertyOp59
 70
     0
102
RTVSPropertyOp60
 70
     0
102
RTVSPropertyOp61
 70
     0
102
RTVSPropertyOp62
 70
     0
  0
XRECORD
  5
AC19
102
{ACAD_REACTORS
330
AC18
102
}
330
AC18
100
AcDbXrecord
280
     1
102
RTVSPost2010Prop28
280
     0
102
RTVSPost2010PropOp28
 70
     1
102
RTVSPost2010Prop29
280
     1
102
RTVSPost2010PropOp29
 70
     1
102
RTVSPost2010Prop30
280
     1
102
RTVSPost2010PropOp30
 70
     1
102
RTVSPost2010Prop31
280
     0
102
RTVSPost2010PropOp31
 70
     1
102
RTVSPost2010Prop32
280
     0
102
RTVSPost2010PropOp32
 70
     1
102
RTVSPost2010Prop33
280
     0
102
RTVSPost2010PropOp33
 70
     1
102
RTVSPost2010Prop34
280
     0
102
RTVSPost2010PropOp34
 70
     1
102
RTVSPost2010Prop35
280
     0
102
RTVSPost2010PropOp35
 70
     1
102
RTVSPost2010Prop36
280
     0
102
RTVSPost2010PropOp36
 70
     1
102
RTVSPost2010Prop37
 90
       50
102
RTVSPost2010PropOp37
 70
     1
102
RTVSPost2010Prop38
140
0.0
102
RTVSPost2010PropOp38
 70
     1
102
RTVSPost2010Prop39
140
1.0
102
RTVSPost2010PropOp39
 70
     1
102
RTVSPost2010Prop40
 90
        0
102
RTVSPost2010PropOp40
 70
     1
102
RTVSPost2010Prop41ColorIndex
 90
       18
102
RTVSPost2010Prop41ColorRGB
 90
        0
102
RTVSPost2010PropOp41
 70
     1
102
RTVSPost2010Prop42
 90
       50
102
RTVSPost2010PropOp42
 70
     1
102
RTVSPost2010Prop43
 90
        3
102
RTVSPost2010PropOp43
 70
     1
102
RTVSPost2010Prop44ColorIndex
 90
        5
102
RTVSPost2010Prop44ColorRGB
 90
      255
102
RTVSPost2010PropOp44
 70
     1
102
RTVSPost2010Prop45
280
     0
102
RTVSPost2010PropOp45
 70
     1
102
RTVSPost2010Prop46
 90
       50
102
RTVSPost2010PropOp46
 70
     1
102
RTVSPost2010Prop47
 90
       50
102
RTVSPost2010PropOp47
 70
     1
102
RTVSPost2010Prop48
 90
       50
102
RTVSPost2010PropOp48
 70
     1
102
RTVSPost2010Prop49
280
     0
102
RTVSPost2010PropOp49
 70
     1
102
RTVSPost2010Prop50
 90
       50
102
RTVSPost2010PropOp50
 70
     1
102
RTVSPost2010Prop51ColorIndex
 90
      256
102
RTVSPost2010Prop51ColorRGB
 90
-16777216
102
RTVSPost2010PropOp51
 70
     0
102
RTVSPost2010Prop52
140
1.0
102
RTVSPost2010PropOp52
 70
     0
102
RTVSPost2010Prop53
 90
        2
102
RTVSPost2010PropOp53
 70
     1
102
RTVSPost2010Prop54
  1
strokes_ogs.tif
102
RTVSPost2010PropOp54
 70
     1
102
RTVSPost2010Prop55
280
     0
102
RTVSPost2010PropOp55
 70
     1
102
RTVSPost2010Prop56
140
1.0
102
RTVSPost2010PropOp56
 70
     1
102
RTVSPost2010Prop57
140
1.0
102
RTVSPost2010PropOp57
 70
     1
102
RTVSPropertyOp0
 70
     1
102
RTVSPropertyOp1
 70
     1
102
RTVSPropertyOp2
 70
     1
102
RTVSPropertyOp3
 70
     1
102
RTVSPropertyOp4
 70
     1
102
RTVSPropertyOp5
 70
     1
102
RTVSPropertyOp6
 70
     1
102
RTVSPropertyOp7
 70
     1
102
RTVSPropertyOp8
 70
     1
102
RTVSPropertyOp9
 70
     1
102
RTVSPropertyOp10
 70
     1
102
RTVSPropertyOp11
 70
     1
102
RTVSPropertyOp12
 70
     1
102
RTVSPropertyOp13
 70
     1
102
RTVSPropertyOp14
 70
     1
102
RTVSPropertyOp15
 70
     1
102
RTVSPropertyOp16
 70
     1
102
RTVSPropertyOp17
 70
     1
102
RTVSPropertyOp18
 70
     1
102
RTVSPropertyOp19
 70
     1
102
RTVSPropertyOp20
 70
     1
102
RTVSPropertyOp21
 70
     1
102
RTVSPropertyOp22
 70
     1
102
RTVSPropertyOp23
 70
     1
102
RTVSPropertyOp24
 70
     1
102
RTVSPropertyOp25
 70
     1
102
RTVSPropertyOp26
 70
     1
102
RTVSPropertyOp27
 70
     1
102
RTVSPropertyOp28
 70
     1
102
RTVSPropertyOp29
 70
     1
102
RTVSPropertyOp30
 70
     1
102
RTVSPropertyOp31
 70
     1
102
RTVSPropertyOp32
 70
     1
102
RTVSPropertyOp33
 70
     1
102
RTVSPropertyOp34
 70
     1
102
RTVSPropertyOp35
 70
     1
102
RTVSPropertyOp36
 70
     1
102
RTVSPropertyOp37
 70
     1
102
RTVSPropertyOp38
 70
     1
102
RTVSPropertyOp39
 70
     1
102
RTVSPropertyOp40
 70
     1
102
RTVSPropertyOp41
 70
     1
102
RTVSPropertyOp42
 70
     1
102
RTVSPropertyOp43
 70
     1
102
RTVSPropertyOp44
 70
     1
102
RTVSPropertyOp45
 70
     1
102
RTVSPropertyOp46
 70
     1
102
RTVSPropertyOp47
 70
     1
102
RTVSPropertyOp48
 70
     1
102
RTVSPropertyOp49
 70
     1
102
RTVSPropertyOp50
 70
     1
102
RTVSPropertyOp51
 70
     0
102
RTVSPropertyOp52
 70
     0
102
RTVSPropertyOp53
 70
     1
102
RTVSPropertyOp54
 70
     1
102
RTVSPropertyOp55
 70
     1
102
RTVSPropertyOp56
 70
     1
102
RTVSPropertyOp57
 70
     1
102
RTVSPropertyOp58
 70
     1
102
RTVSPropertyOp59
 70
     1
102
RTVSPropertyOp60
 70
     1
102
RTVSPropertyOp61
 70
     1
102
RTVSPropertyOp62
 70
     1
  0
XRECORD
  5
ABFD
102
{ACAD_REACTORS
330
ABFC
102
}
330
ABFC
100
AcDbXrecord
280
     1
102
RTVSPost2010Prop28
280
     0
102
RTVSPost2010PropOp28
 70
     1
102
RTVSPost2010Prop29
280
     1
102
RTVSPost2010PropOp29
 70
     1
102
RTVSPost2010Prop30
280
     1
102
RTVSPost2010PropOp30
 70
     1
102
RTVSPost2010Prop31
280
     0
102
RTVSPost2010PropOp31
 70
     1
102
RTVSPost2010Prop32
280
     0
102
RTVSPost2010PropOp32
 70
     1
102
RTVSPost2010Prop33
280
     0
102
RTVSPost2010PropOp33
 70
     1
102
RTVSPost2010Prop34
280
     0
102
RTVSPost2010PropOp34
 70
     1
102
RTVSPost2010Prop35
280
     0
102
RTVSPost2010PropOp35
 70
     1
102
RTVSPost2010Prop36
280
     0
102
RTVSPost2010PropOp36
 70
     1
102
RTVSPost2010Prop37
 90
       50
102
RTVSPost2010PropOp37
 70
     1
102
RTVSPost2010Prop38
140
0.0
102
RTVSPost2010PropOp38
 70
     1
102
RTVSPost2010Prop39
140
1.0
102
RTVSPost2010PropOp39
 70
     1
102
RTVSPost2010Prop40
 90
        0
102
RTVSPost2010PropOp40
 70
     1
102
RTVSPost2010Prop41ColorIndex
 90
       18
102
RTVSPost2010Prop41ColorRGB
 90
        0
102
RTVSPost2010PropOp41
 70
     1
102
RTVSPost2010Prop42
 90
       50
102
RTVSPost2010PropOp42
 70
     1
102
RTVSPost2010Prop43
 90
        3
102
RTVSPost2010PropOp43
 70
     1
102
RTVSPost2010Prop44ColorIndex
 90
        5
102
RTVSPost2010Prop44ColorRGB
 90
      255
102
RTVSPost2010PropOp44
 70
     1
102
RTVSPost2010Prop45
280
     0
102
RTVSPost2010PropOp45
 70
     1
102
RTVSPost2010Prop46
 90
       50
102
RTVSPost2010PropOp46
 70
     1
102
RTVSPost2010Prop47
 90
       50
102
RTVSPost2010PropOp47
 70
     1
102
RTVSPost2010Prop48
 90
       50
102
RTVSPost2010PropOp48
 70
     1
102
RTVSPost2010Prop49
280
     0
102
RTVSPost2010PropOp49
 70
     1
102
RTVSPost2010Prop50
 90
       50
102
RTVSPost2010PropOp50
 70
     1
102
RTVSPost2010Prop51ColorIndex
 90
      256
102
RTVSPost2010Prop51ColorRGB
 90
-16777216
102
RTVSPost2010PropOp51
 70
     0
102
RTVSPost2010Prop52
140
1.0
102
RTVSPost2010PropOp52
 70
     0
102
RTVSPost2010Prop53
 90
        2
102
RTVSPost2010PropOp53
 70
     1
102
RTVSPost2010Prop54
  1
strokes_ogs.tif
102
RTVSPost2010PropOp54
 70
     1
102
RTVSPost2010Prop55
280
     0
102
RTVSPost2010PropOp55
 70
     1
102
RTVSPost2010Prop56
140
1.0
102
RTVSPost2010PropOp56
 70
     1
102
RTVSPost2010Prop57
140
1.0
102
RTVSPost2010PropOp57
 70
     1
102
RTVSPropertyOp0
 70
     1
102
RTVSPropertyOp1
 70
     1
102
RTVSPropertyOp2
 70
     1
102
RTVSPropertyOp3
 70
     1
102
RTVSPropertyOp4
 70
     1
102
RTVSPropertyOp5
 70
     1
102
RTVSPropertyOp6
 70
     1
102
RTVSPropertyOp7
 70
     1
102
RTVSPropertyOp8
 70
     1
102
RTVSPropertyOp9
 70
     1
102
RTVSPropertyOp10
 70
     1
102
RTVSPropertyOp11
 70
     1
102
RTVSPropertyOp12
 70
     1
102
RTVSPropertyOp13
 70
     1
102
RTVSPropertyOp14
 70
     1
102
RTVSPropertyOp15
 70
     1
102
RTVSPropertyOp16
 70
     1
102
RTVSPropertyOp17
 70
     1
102
RTVSPropertyOp18
 70
     1
102
RTVSPropertyOp19
 70
     1
102
RTVSPropertyOp20
 70
     1
102
RTVSPropertyOp21
 70
     1
102
RTVSPropertyOp22
 70
     1
102
RTVSPropertyOp23
 70
     1
102
RTVSPropertyOp24
 70
     1
102
RTVSPropertyOp25
 70
     1
102
RTVSPropertyOp26
 70
     1
102
RTVSPropertyOp27
 70
     1
102
RTVSPropertyOp28
 70
     1
102
RTVSPropertyOp29
 70
     1
102
RTVSPropertyOp30
 70
     1
102
RTVSPropertyOp31
 70
     1
102
RTVSPropertyOp32
 70
     1
102
RTVSPropertyOp33
 70
     1
102
RTVSPropertyOp34
 70
     1
102
RTVSPropertyOp35
 70
     1
102
RTVSPropertyOp36
 70
     1
102
RTVSPropertyOp37
 70
     1
102
RTVSPropertyOp38
 70
     1
102
RTVSPropertyOp39
 70
     1
102
RTVSPropertyOp40
 70
     1
102
RTVSPropertyOp41
 70
     1
102
RTVSPropertyOp42
 70
     1
102
RTVSPropertyOp43
 70
     1
102
RTVSPropertyOp44
 70
     1
102
RTVSPropertyOp45
 70
     1
102
RTVSPropertyOp46
 70
     1
102
RTVSPropertyOp47
 70
     1
102
RTVSPropertyOp48
 70
     1
102
RTVSPropertyOp49
 70
     1
102
RTVSPropertyOp50
 70
     1
102
RTVSPropertyOp51
 70
     0
102
RTVSPropertyOp52
 70
     0
102
RTVSPropertyOp53
 70
     1
102
RTVSPropertyOp54
 70
     1
102
RTVSPropertyOp55
 70
     1
102
RTVSPropertyOp56
 70
     1
102
RTVSPropertyOp57
 70
     1
102
RTVSPropertyOp58
 70
     1
102
RTVSPropertyOp59
 70
     1
102
RTVSPropertyOp60
 70
     1
102
RTVSPropertyOp61
 70
     1
102
RTVSPropertyOp62
 70
     1
  0
XRECORD
  5
ABFF
102
{ACAD_REACTORS
330
ABFE
102
}
330
ABFE
100
AcDbXrecord
280
     1
102
RTVSPost2010Prop28
280
     0
102
RTVSPost2010PropOp28
 70
     1
102
RTVSPost2010Prop29
280
     1
102
RTVSPost2010PropOp29
 70
     1
102
RTVSPost2010Prop30
280
     1
102
RTVSPost2010PropOp30
 70
     1
102
RTVSPost2010Prop31
280
     0
102
RTVSPost2010PropOp31
 70
     1
102
RTVSPost2010Prop32
280
     0
102
RTVSPost2010PropOp32
 70
     1
102
RTVSPost2010Prop33
280
     0
102
RTVSPost2010PropOp33
 70
     1
102
RTVSPost2010Prop34
280
     0
102
RTVSPost2010PropOp34
 70
     1
102
RTVSPost2010Prop35
280
     0
102
RTVSPost2010PropOp35
 70
     1
102
RTVSPost2010Prop36
280
     0
102
RTVSPost2010PropOp36
 70
     1
102
RTVSPost2010Prop37
 90
       50
102
RTVSPost2010PropOp37
 70
     1
102
RTVSPost2010Prop38
140
0.0
102
RTVSPost2010PropOp38
 70
     1
102
RTVSPost2010Prop39
140
1.0
102
RTVSPost2010PropOp39
 70
     1
102
RTVSPost2010Prop40
 90
        0
102
RTVSPost2010PropOp40
 70
     1
102
RTVSPost2010Prop41ColorIndex
 90
       18
102
RTVSPost2010Prop41ColorRGB
 90
        0
102
RTVSPost2010PropOp41
 70
     1
102
RTVSPost2010Prop42
 90
       50
102
RTVSPost2010PropOp42
 70
     1
102
RTVSPost2010Prop43
 90
        3
102
RTVSPost2010PropOp43
 70
     1
102
RTVSPost2010Prop44ColorIndex
 90
        5
102
RTVSPost2010Prop44ColorRGB
 90
      255
102
RTVSPost2010PropOp44
 70
     1
102
RTVSPost2010Prop45
280
     0
102
RTVSPost2010PropOp45
 70
     1
102
RTVSPost2010Prop46
 90
       50
102
RTVSPost2010PropOp46
 70
     1
102
RTVSPost2010Prop47
 90
       50
102
RTVSPost2010PropOp47
 70
     1
102
RTVSPost2010Prop48
 90
       50
102
RTVSPost2010PropOp48
 70
     1
102
RTVSPost2010Prop49
280
     0
102
RTVSPost2010PropOp49
 70
     1
102
RTVSPost2010Prop50
 90
       50
102
RTVSPost2010PropOp50
 70
     1
102
RTVSPost2010Prop51ColorIndex
 90
      256
102
RTVSPost2010Prop51ColorRGB
 90
-16777216
102
RTVSPost2010PropOp51
 70
     0
102
RTVSPost2010Prop52
140
1.0
102
RTVSPost2010PropOp52
 70
     0
102
RTVSPost2010Prop53
 90
        2
102
RTVSPost2010PropOp53
 70
     1
102
RTVSPost2010Prop54
  1
strokes_ogs.tif
102
RTVSPost2010PropOp54
 70
     1
102
RTVSPost2010Prop55
280
     0
102
RTVSPost2010PropOp55
 70
     1
102
RTVSPost2010Prop56
140
1.0
102
RTVSPost2010PropOp56
 70
     1
102
RTVSPost2010Prop57
140
1.0
102
RTVSPost2010PropOp57
 70
     1
102
RTVSPropertyOp0
 70
     1
102
RTVSPropertyOp1
 70
     1
102
RTVSPropertyOp2
 70
     1
102
RTVSPropertyOp3
 70
     1
102
RTVSPropertyOp4
 70
     1
102
RTVSPropertyOp5
 70
     1
102
RTVSPropertyOp6
 70
     1
102
RTVSPropertyOp7
 70
     1
102
RTVSPropertyOp8
 70
     1
102
RTVSPropertyOp9
 70
     1
102
RTVSPropertyOp10
 70
     1
102
RTVSPropertyOp11
 70
     1
102
RTVSPropertyOp12
 70
     1
102
RTVSPropertyOp13
 70
     1
102
RTVSPropertyOp14
 70
     1
102
RTVSPropertyOp15
 70
     1
102
RTVSPropertyOp16
 70
     1
102
RTVSPropertyOp17
 70
     1
102
RTVSPropertyOp18
 70
     1
102
RTVSPropertyOp19
 70
     1
102
RTVSPropertyOp20
 70
     1
102
RTVSPropertyOp21
 70
     1
102
RTVSPropertyOp22
 70
     1
102
RTVSPropertyOp23
 70
     1
102
RTVSPropertyOp24
 70
     1
102
RTVSPropertyOp25
 70
     1
102
RTVSPropertyOp26
 70
     1
102
RTVSPropertyOp27
 70
     1
102
RTVSPropertyOp28
 70
     1
102
RTVSPropertyOp29
 70
     1
102
RTVSPropertyOp30
 70
     1
102
RTVSPropertyOp31
 70
     1
102
RTVSPropertyOp32
 70
     1
102
RTVSPropertyOp33
 70
     1
102
RTVSPropertyOp34
 70
     1
102
RTVSPropertyOp35
 70
     1
102
RTVSPropertyOp36
 70
     1
102
RTVSPropertyOp37
 70
     1
102
RTVSPropertyOp38
 70
     1
102
RTVSPropertyOp39
 70
     1
102
RTVSPropertyOp40
 70
     1
102
RTVSPropertyOp41
 70
     1
102
RTVSPropertyOp42
 70
     1
102
RTVSPropertyOp43
 70
     1
102
RTVSPropertyOp44
 70
     1
102
RTVSPropertyOp45
 70
     1
102
RTVSPropertyOp46
 70
     1
102
RTVSPropertyOp47
 70
     1
102
RTVSPropertyOp48
 70
     1
102
RTVSPropertyOp49
 70
     1
102
RTVSPropertyOp50
 70
     1
102
RTVSPropertyOp51
 70
     0
102
RTVSPropertyOp52
 70
     0
102
RTVSPropertyOp53
 70
     1
102
RTVSPropertyOp54
 70
     1
102
RTVSPropertyOp55
 70
     1
102
RTVSPropertyOp56
 70
     1
102
RTVSPropertyOp57
 70
     1
102
RTVSPropertyOp58
 70
     1
102
RTVSPropertyOp59
 70
     1
102
RTVSPropertyOp60
 70
     1
102
RTVSPropertyOp61
 70
     1
102
RTVSPropertyOp62
 70
     1
  0
XRECORD
  5
AC01
102
{ACAD_REACTORS
330
AC00
102
}
330
AC00
100
AcDbXrecord
280
     1
102
RTVSPost2010Prop28
280
     0
102
RTVSPost2010PropOp28
 70
     1
102
RTVSPost2010Prop29
280
     1
102
RTVSPost2010PropOp29
 70
     1
102
RTVSPost2010Prop30
280
     1
102
RTVSPost2010PropOp30
 70
     1
102
RTVSPost2010Prop31
280
     0
102
RTVSPost2010PropOp31
 70
     1
102
RTVSPost2010Prop32
280
     0
102
RTVSPost2010PropOp32
 70
     1
102
RTVSPost2010Prop33
280
     0
102
RTVSPost2010PropOp33
 70
     1
102
RTVSPost2010Prop34
280
     0
102
RTVSPost2010PropOp34
 70
     1
102
RTVSPost2010Prop35
280
     0
102
RTVSPost2010PropOp35
 70
     1
102
RTVSPost2010Prop36
280
     0
102
RTVSPost2010PropOp36
 70
     1
102
RTVSPost2010Prop37
 90
       50
102
RTVSPost2010PropOp37
 70
     1
102
RTVSPost2010Prop38
140
0.0
102
RTVSPost2010PropOp38
 70
     1
102
RTVSPost2010Prop39
140
1.0
102
RTVSPost2010PropOp39
 70
     1
102
RTVSPost2010Prop40
 90
        0
102
RTVSPost2010PropOp40
 70
     1
102
RTVSPost2010Prop41ColorIndex
 90
       18
102
RTVSPost2010Prop41ColorRGB
 90
        0
102
RTVSPost2010PropOp41
 70
     1
102
RTVSPost2010Prop42
 90
       50
102
RTVSPost2010PropOp42
 70
     1
102
RTVSPost2010Prop43
 90
        3
102
RTVSPost2010PropOp43
 70
     1
102
RTVSPost2010Prop44ColorIndex
 90
        5
102
RTVSPost2010Prop44ColorRGB
 90
      255
102
RTVSPost2010PropOp44
 70
     1
102
RTVSPost2010Prop45
280
     0
102
RTVSPost2010PropOp45
 70
     1
102
RTVSPost2010Prop46
 90
       50
102
RTVSPost2010PropOp46
 70
     1
102
RTVSPost2010Prop47
 90
       50
102
RTVSPost2010PropOp47
 70
     1
102
RTVSPost2010Prop48
 90
       50
102
RTVSPost2010PropOp48
 70
     1
102
RTVSPost2010Prop49
280
     0
102
RTVSPost2010PropOp49
 70
     1
102
RTVSPost2010Prop50
 90
       50
102
RTVSPost2010PropOp50
 70
     1
102
RTVSPost2010Prop51ColorIndex
 90
      256
102
RTVSPost2010Prop51ColorRGB
 90
-16777216
102
RTVSPost2010PropOp51
 70
     0
102
RTVSPost2010Prop52
140
1.0
102
RTVSPost2010PropOp52
 70
     0
102
RTVSPost2010Prop53
 90
        2
102
RTVSPost2010PropOp53
 70
     1
102
RTVSPost2010Prop54
  1
strokes_ogs.tif
102
RTVSPost2010PropOp54
 70
     1
102
RTVSPost2010Prop55
280
     0
102
RTVSPost2010PropOp55
 70
     1
102
RTVSPost2010Prop56
140
1.0
102
RTVSPost2010PropOp56
 70
     1
102
RTVSPost2010Prop57
140
1.0
102
RTVSPost2010PropOp57
 70
     1
102
RTVSPropertyOp0
 70
     1
102
RTVSPropertyOp1
 70
     1
102
RTVSPropertyOp2
 70
     1
102
RTVSPropertyOp3
 70
     1
102
RTVSPropertyOp4
 70
     1
102
RTVSPropertyOp5
 70
     1
102
RTVSPropertyOp6
 70
     1
102
RTVSPropertyOp7
 70
     1
102
RTVSPropertyOp8
 70
     1
102
RTVSPropertyOp9
 70
     1
102
RTVSPropertyOp10
 70
     1
102
RTVSPropertyOp11
 70
     1
102
RTVSPropertyOp12
 70
     1
102
RTVSPropertyOp13
 70
     1
102
RTVSPropertyOp14
 70
     1
102
RTVSPropertyOp15
 70
     1
102
RTVSPropertyOp16
 70
     1
102
RTVSPropertyOp17
 70
     1
102
RTVSPropertyOp18
 70
     1
102
RTVSPropertyOp19
 70
     1
102
RTVSPropertyOp20
 70
     1
102
RTVSPropertyOp21
 70
     1
102
RTVSPropertyOp22
 70
     1
102
RTVSPropertyOp23
 70
     1
102
RTVSPropertyOp24
 70
     1
102
RTVSPropertyOp25
 70
     1
102
RTVSPropertyOp26
 70
     1
102
RTVSPropertyOp27
 70
     1
102
RTVSPropertyOp28
 70
     1
102
RTVSPropertyOp29
 70
     1
102
RTVSPropertyOp30
 70
     1
102
RTVSPropertyOp31
 70
     1
102
RTVSPropertyOp32
 70
     1
102
RTVSPropertyOp33
 70
     1
102
RTVSPropertyOp34
 70
     1
102
RTVSPropertyOp35
 70
     1
102
RTVSPropertyOp36
 70
     1
102
RTVSPropertyOp37
 70
     1
102
RTVSPropertyOp38
 70
     1
102
RTVSPropertyOp39
 70
     1
102
RTVSPropertyOp40
 70
     1
102
RTVSPropertyOp41
 70
     1
102
RTVSPropertyOp42
 70
     1
102
RTVSPropertyOp43
 70
     1
102
RTVSPropertyOp44
 70
     1
102
RTVSPropertyOp45
 70
     1
102
RTVSPropertyOp46
 70
     1
102
RTVSPropertyOp47
 70
     1
102
RTVSPropertyOp48
 70
     1
102
RTVSPropertyOp49
 70
     1
102
RTVSPropertyOp50
 70
     1
102
RTVSPropertyOp51
 70
     0
102
RTVSPropertyOp52
 70
     0
102
RTVSPropertyOp53
 70
     1
102
RTVSPropertyOp54
 70
     1
102
RTVSPropertyOp55
 70
     1
102
RTVSPropertyOp56
 70
     1
102
RTVSPropertyOp57
 70
     1
102
RTVSPropertyOp58
 70
     1
102
RTVSPropertyOp59
 70
     1
102
RTVSPropertyOp60
 70
     1
102
RTVSPropertyOp61
 70
     1
102
RTVSPropertyOp62
 70
     1
  0
XRECORD
  5
AC03
102
{ACAD_REACTORS
330
AC02
102
}
330
AC02
100
AcDbXrecord
280
     1
102
RTVSPost2010Prop28
280
     0
102
RTVSPost2010PropOp28
 70
     1
102
RTVSPost2010Prop29
280
     1
102
RTVSPost2010PropOp29
 70
     1
102
RTVSPost2010Prop30
280
     1
102
RTVSPost2010PropOp30
 70
     1
102
RTVSPost2010Prop31
280
     0
102
RTVSPost2010PropOp31
 70
     1
102
RTVSPost2010Prop32
280
     0
102
RTVSPost2010PropOp32
 70
     1
102
RTVSPost2010Prop33
280
     0
102
RTVSPost2010PropOp33
 70
     1
102
RTVSPost2010Prop34
280
     0
102
RTVSPost2010PropOp34
 70
     1
102
RTVSPost2010Prop35
280
     0
102
RTVSPost2010PropOp35
 70
     1
102
RTVSPost2010Prop36
280
     0
102
RTVSPost2010PropOp36
 70
     1
102
RTVSPost2010Prop37
 90
       50
102
RTVSPost2010PropOp37
 70
     1
102
RTVSPost2010Prop38
140
0.0
102
RTVSPost2010PropOp38
 70
     1
102
RTVSPost2010Prop39
140
1.0
102
RTVSPost2010PropOp39
 70
     1
102
RTVSPost2010Prop40
 90
        0
102
RTVSPost2010PropOp40
 70
     1
102
RTVSPost2010Prop41ColorIndex
 90
       18
102
RTVSPost2010Prop41ColorRGB
 90
        0
102
RTVSPost2010PropOp41
 70
     1
102
RTVSPost2010Prop42
 90
       50
102
RTVSPost2010PropOp42
 70
     1
102
RTVSPost2010Prop43
 90
        3
102
RTVSPost2010PropOp43
 70
     1
102
RTVSPost2010Prop44ColorIndex
 90
        5
102
RTVSPost2010Prop44ColorRGB
 90
      255
102
RTVSPost2010PropOp44
 70
     1
102
RTVSPost2010Prop45
280
     0
102
RTVSPost2010PropOp45
 70
     1
102
RTVSPost2010Prop46
 90
       50
102
RTVSPost2010PropOp46
 70
     1
102
RTVSPost2010Prop47
 90
       50
102
RTVSPost2010PropOp47
 70
     1
102
RTVSPost2010Prop48
 90
       50
102
RTVSPost2010PropOp48
 70
     1
102
RTVSPost2010Prop49
280
     0
102
RTVSPost2010PropOp49
 70
     1
102
RTVSPost2010Prop50
 90
       50
102
RTVSPost2010PropOp50
 70
     1
102
RTVSPost2010Prop51ColorIndex
 90
      256
102
RTVSPost2010Prop51ColorRGB
 90
-16777216
102
RTVSPost2010PropOp51
 70
     0
102
RTVSPost2010Prop52
140
1.0
102
RTVSPost2010PropOp52
 70
     0
102
RTVSPost2010Prop53
 90
        2
102
RTVSPost2010PropOp53
 70
     1
102
RTVSPost2010Prop54
  1
strokes_ogs.tif
102
RTVSPost2010PropOp54
 70
     1
102
RTVSPost2010Prop55
280
     0
102
RTVSPost2010PropOp55
 70
     1
102
RTVSPost2010Prop56
140
1.0
102
RTVSPost2010PropOp56
 70
     1
102
RTVSPost2010Prop57
140
1.0
102
RTVSPost2010PropOp57
 70
     1
102
RTVSPropertyOp0
 70
     1
102
RTVSPropertyOp1
 70
     1
102
RTVSPropertyOp2
 70
     1
102
RTVSPropertyOp3
 70
     1
102
RTVSPropertyOp4
 70
     1
102
RTVSPropertyOp5
 70
     1
102
RTVSPropertyOp6
 70
     1
102
RTVSPropertyOp7
 70
     1
102
RTVSPropertyOp8
 70
     1
102
RTVSPropertyOp9
 70
     1
102
RTVSPropertyOp10
 70
     1
102
RTVSPropertyOp11
 70
     1
102
RTVSPropertyOp12
 70
     1
102
RTVSPropertyOp13
 70
     1
102
RTVSPropertyOp14
 70
     1
102
RTVSPropertyOp15
 70
     1
102
RTVSPropertyOp16
 70
     1
102
RTVSPropertyOp17
 70
     1
102
RTVSPropertyOp18
 70
     1
102
RTVSPropertyOp19
 70
     1
102
RTVSPropertyOp20
 70
     1
102
RTVSPropertyOp21
 70
     1
102
RTVSPropertyOp22
 70
     1
102
RTVSPropertyOp23
 70
     1
102
RTVSPropertyOp24
 70
     1
102
RTVSPropertyOp25
 70
     1
102
RTVSPropertyOp26
 70
     1
102
RTVSPropertyOp27
 70
     1
102
RTVSPropertyOp28
 70
     1
102
RTVSPropertyOp29
 70
     1
102
RTVSPropertyOp30
 70
     1
102
RTVSPropertyOp31
 70
     1
102
RTVSPropertyOp32
 70
     1
102
RTVSPropertyOp33
 70
     1
102
RTVSPropertyOp34
 70
     1
102
RTVSPropertyOp35
 70
     1
102
RTVSPropertyOp36
 70
     1
102
RTVSPropertyOp37
 70
     1
102
RTVSPropertyOp38
 70
     1
102
RTVSPropertyOp39
 70
     1
102
RTVSPropertyOp40
 70
     1
102
RTVSPropertyOp41
 70
     1
102
RTVSPropertyOp42
 70
     1
102
RTVSPropertyOp43
 70
     1
102
RTVSPropertyOp44
 70
     1
102
RTVSPropertyOp45
 70
     1
102
RTVSPropertyOp46
 70
     1
102
RTVSPropertyOp47
 70
     1
102
RTVSPropertyOp48
 70
     1
102
RTVSPropertyOp49
 70
     1
102
RTVSPropertyOp50
 70
     1
102
RTVSPropertyOp51
 70
     0
102
RTVSPropertyOp52
 70
     0
102
RTVSPropertyOp53
 70
     1
102
RTVSPropertyOp54
 70
     1
102
RTVSPropertyOp55
 70
     1
102
RTVSPropertyOp56
 70
     1
102
RTVSPropertyOp57
 70
     1
102
RTVSPropertyOp58
 70
     1
102
RTVSPropertyOp59
 70
     1
102
RTVSPropertyOp60
 70
     1
102
RTVSPropertyOp61
 70
     1
102
RTVSPropertyOp62
 70
     1
  0
XRECORD
  5
AC0B
102
{ACAD_REACTORS
330
AC0A
102
}
330
AC0A
100
AcDbXrecord
280
     1
102
RTVSPost2010Prop28
280
     0
102
RTVSPost2010PropOp28
 70
     1
102
RTVSPost2010Prop29
280
     1
102
RTVSPost2010PropOp29
 70
     1
102
RTVSPost2010Prop30
280
     1
102
RTVSPost2010PropOp30
 70
     1
102
RTVSPost2010Prop31
280
     0
102
RTVSPost2010PropOp31
 70
     1
102
RTVSPost2010Prop32
280
     0
102
RTVSPost2010PropOp32
 70
     1
102
RTVSPost2010Prop33
280
     0
102
RTVSPost2010PropOp33
 70
     1
102
RTVSPost2010Prop34
280
     0
102
RTVSPost2010PropOp34
 70
     1
102
RTVSPost2010Prop35
280
     0
102
RTVSPost2010PropOp35
 70
     1
102
RTVSPost2010Prop36
280
     0
102
RTVSPost2010PropOp36
 70
     1
102
RTVSPost2010Prop37
 90
       50
102
RTVSPost2010PropOp37
 70
     1
102
RTVSPost2010Prop38
140
0.0
102
RTVSPost2010PropOp38
 70
     1
102
RTVSPost2010Prop39
140
1.0
102
RTVSPost2010PropOp39
 70
     1
102
RTVSPost2010Prop40
 90
        0
102
RTVSPost2010PropOp40
 70
     1
102
RTVSPost2010Prop41ColorIndex
 90
       18
102
RTVSPost2010Prop41ColorRGB
 90
        0
102
RTVSPost2010PropOp41
 70
     1
102
RTVSPost2010Prop42
 90
       50
102
RTVSPost2010PropOp42
 70
     1
102
RTVSPost2010Prop43
 90
        3
102
RTVSPost2010PropOp43
 70
     1
102
RTVSPost2010Prop44ColorIndex
 90
        5
102
RTVSPost2010Prop44ColorRGB
 90
      255
102
RTVSPost2010PropOp44
 70
     1
102
RTVSPost2010Prop45
280
     0
102
RTVSPost2010PropOp45
 70
     1
102
RTVSPost2010Prop46
 90
       50
102
RTVSPost2010PropOp46
 70
     1
102
RTVSPost2010Prop47
 90
       50
102
RTVSPost2010PropOp47
 70
     1
102
RTVSPost2010Prop48
 90
       50
102
RTVSPost2010PropOp48
 70
     1
102
RTVSPost2010Prop49
280
     0
102
RTVSPost2010PropOp49
 70
     1
102
RTVSPost2010Prop50
 90
       50
102
RTVSPost2010PropOp50
 70
     1
102
RTVSPost2010Prop51ColorIndex
 90
      256
102
RTVSPost2010Prop51ColorRGB
 90
-16777216
102
RTVSPost2010PropOp51
 70
     0
102
RTVSPost2010Prop52
140
1.0
102
RTVSPost2010PropOp52
 70
     0
102
RTVSPost2010Prop53
 90
        2
102
RTVSPost2010PropOp53
 70
     1
102
RTVSPost2010Prop54
  1
strokes_ogs.tif
102
RTVSPost2010PropOp54
 70
     1
102
RTVSPost2010Prop55
280
     0
102
RTVSPost2010PropOp55
 70
     1
102
RTVSPost2010Prop56
140
1.0
102
RTVSPost2010PropOp56
 70
     1
102
RTVSPost2010Prop57
140
1.0
102
RTVSPost2010PropOp57
 70
     1
102
RTVSPropertyOp0
 70
     1
102
RTVSPropertyOp1
 70
     1
102
RTVSPropertyOp2
 70
     1
102
RTVSPropertyOp3
 70
     1
102
RTVSPropertyOp4
 70
     1
102
RTVSPropertyOp5
 70
     1
102
RTVSPropertyOp6
 70
     1
102
RTVSPropertyOp7
 70
     1
102
RTVSPropertyOp8
 70
     1
102
RTVSPropertyOp9
 70
     1
102
RTVSPropertyOp10
 70
     1
102
RTVSPropertyOp11
 70
     1
102
RTVSPropertyOp12
 70
     1
102
RTVSPropertyOp13
 70
     1
102
RTVSPropertyOp14
 70
     1
102
RTVSPropertyOp15
 70
     1
102
RTVSPropertyOp16
 70
     1
102
RTVSPropertyOp17
 70
     1
102
RTVSPropertyOp18
 70
     1
102
RTVSPropertyOp19
 70
     1
102
RTVSPropertyOp20
 70
     1
102
RTVSPropertyOp21
 70
     1
102
RTVSPropertyOp22
 70
     1
102
RTVSPropertyOp23
 70
     1
102
RTVSPropertyOp24
 70
     1
102
RTVSPropertyOp25
 70
     1
102
RTVSPropertyOp26
 70
     1
102
RTVSPropertyOp27
 70
     1
102
RTVSPropertyOp28
 70
     1
102
RTVSPropertyOp29
 70
     1
102
RTVSPropertyOp30
 70
     1
102
RTVSPropertyOp31
 70
     1
102
RTVSPropertyOp32
 70
     1
102
RTVSPropertyOp33
 70
     1
102
RTVSPropertyOp34
 70
     1
102
RTVSPropertyOp35
 70
     1
102
RTVSPropertyOp36
 70
     1
102
RTVSPropertyOp37
 70
     1
102
RTVSPropertyOp38
 70
     1
102
RTVSPropertyOp39
 70
     1
102
RTVSPropertyOp40
 70
     1
102
RTVSPropertyOp41
 70
     1
102
RTVSPropertyOp42
 70
     1
102
RTVSPropertyOp43
 70
     1
102
RTVSPropertyOp44
 70
     1
102
RTVSPropertyOp45
 70
     1
102
RTVSPropertyOp46
 70
     1
102
RTVSPropertyOp47
 70
     1
102
RTVSPropertyOp48
 70
     1
102
RTVSPropertyOp49
 70
     1
102
RTVSPropertyOp50
 70
     1
102
RTVSPropertyOp51
 70
     0
102
RTVSPropertyOp52
 70
     0
102
RTVSPropertyOp53
 70
     1
102
RTVSPropertyOp54
 70
     1
102
RTVSPropertyOp55
 70
     1
102
RTVSPropertyOp56
 70
     1
102
RTVSPropertyOp57
 70
     1
102
RTVSPropertyOp58
 70
     1
102
RTVSPropertyOp59
 70
     1
102
RTVSPropertyOp60
 70
     1
102
RTVSPropertyOp61
 70
     1
102
RTVSPropertyOp62
 70
     1
  0
XRECORD
  5
AC27
102
{ACAD_REACTORS
330
AC26
102
}
330
AC26
100
AcDbXrecord
280
     1
102
RTVSPost2010Prop28
280
     0
102
RTVSPost2010PropOp28
 70
     1
102
RTVSPost2010Prop29
280
     1
102
RTVSPost2010PropOp29
 70
     1
102
RTVSPost2010Prop30
280
     1
102
RTVSPost2010PropOp30
 70
     1
102
RTVSPost2010Prop31
280
     0
102
RTVSPost2010PropOp31
 70
     1
102
RTVSPost2010Prop32
280
     0
102
RTVSPost2010PropOp32
 70
     1
102
RTVSPost2010Prop33
280
     0
102
RTVSPost2010PropOp33
 70
     1
102
RTVSPost2010Prop34
280
     0
102
RTVSPost2010PropOp34
 70
     1
102
RTVSPost2010Prop35
280
     0
102
RTVSPost2010PropOp35
 70
     1
102
RTVSPost2010Prop36
280
     0
102
RTVSPost2010PropOp36
 70
     1
102
RTVSPost2010Prop37
 90
       50
102
RTVSPost2010PropOp37
 70
     0
102
RTVSPost2010Prop38
140
0.0
102
RTVSPost2010PropOp38
 70
     0
102
RTVSPost2010Prop39
140
1.0
102
RTVSPost2010PropOp39
 70
     0
102
RTVSPost2010Prop40
 90
        0
102
RTVSPost2010PropOp40
 70
     0
102
RTVSPost2010Prop41ColorIndex
 90
       18
102
RTVSPost2010Prop41ColorRGB
 90
        0
102
RTVSPost2010PropOp41
 70
     0
102
RTVSPost2010Prop42
 90
       50
102
RTVSPost2010PropOp42
 70
     0
102
RTVSPost2010Prop43
 90
        3
102
RTVSPost2010PropOp43
 70
     0
102
RTVSPost2010Prop44ColorIndex
 90
        5
102
RTVSPost2010Prop44ColorRGB
 90
      255
102
RTVSPost2010PropOp44
 70
     0
102
RTVSPost2010Prop45
280
     0
102
RTVSPost2010PropOp45
 70
     1
102
RTVSPost2010Prop46
 90
       50
102
RTVSPost2010PropOp46
 70
     0
102
RTVSPost2010Prop47
 90
       50
102
RTVSPost2010PropOp47
 70
     0
102
RTVSPost2010Prop48
 90
       50
102
RTVSPost2010PropOp48
 70
     0
102
RTVSPost2010Prop49
280
     0
102
RTVSPost2010PropOp49
 70
     1
102
RTVSPost2010Prop50
 90
       50
102
RTVSPost2010PropOp50
 70
     0
102
RTVSPost2010Prop51ColorIndex
 90
      256
102
RTVSPost2010Prop51ColorRGB
 90
-16777216
102
RTVSPost2010PropOp51
 70
     0
102
RTVSPost2010Prop52
140
1.0
102
RTVSPost2010PropOp52
 70
     0
102
RTVSPost2010Prop53
 90
        2
102
RTVSPost2010PropOp53
 70
     0
102
RTVSPost2010Prop54
  1
strokes_ogs.tif
102
RTVSPost2010PropOp54
 70
     0
102
RTVSPost2010Prop55
280
     0
102
RTVSPost2010PropOp55
 70
     1
102
RTVSPost2010Prop56
140
1.0
102
RTVSPost2010PropOp56
 70
     0
102
RTVSPost2010Prop57
140
1.0
102
RTVSPost2010PropOp57
 70
     0
102
RTVSPropertyOp0
 70
     0
102
RTVSPropertyOp1
 70
     0
102
RTVSPropertyOp2
 70
     0
102
RTVSPropertyOp3
 70
     0
102
RTVSPropertyOp4
 70
     0
102
RTVSPropertyOp5
 70
     0
102
RTVSPropertyOp6
 70
     0
102
RTVSPropertyOp7
 70
     0
102
RTVSPropertyOp8
 70
     0
102
RTVSPropertyOp9
 70
     0
102
RTVSPropertyOp10
 70
     0
102
RTVSPropertyOp11
 70
     0
102
RTVSPropertyOp12
 70
     0
102
RTVSPropertyOp13
 70
     0
102
RTVSPropertyOp14
 70
     2
102
RTVSPropertyOp15
 70
     0
102
RTVSPropertyOp16
 70
     0
102
RTVSPropertyOp17
 70
     0
102
RTVSPropertyOp18
 70
     0
102
RTVSPropertyOp19
 70
     0
102
RTVSPropertyOp20
 70
     0
102
RTVSPropertyOp21
 70
     0
102
RTVSPropertyOp22
 70
     0
102
RTVSPropertyOp23
 70
     0
102
RTVSPropertyOp24
 70
     0
102
RTVSPropertyOp25
 70
     0
102
RTVSPropertyOp26
 70
     0
102
RTVSPropertyOp27
 70
     0
102
RTVSPropertyOp28
 70
     1
102
RTVSPropertyOp29
 70
     1
102
RTVSPropertyOp30
 70
     1
102
RTVSPropertyOp31
 70
     1
102
RTVSPropertyOp32
 70
     1
102
RTVSPropertyOp33
 70
     1
102
RTVSPropertyOp34
 70
     1
102
RTVSPropertyOp35
 70
     1
102
RTVSPropertyOp36
 70
     1
102
RTVSPropertyOp37
 70
     0
102
RTVSPropertyOp38
 70
     0
102
RTVSPropertyOp39
 70
     0
102
RTVSPropertyOp40
 70
     0
102
RTVSPropertyOp41
 70
     0
102
RTVSPropertyOp42
 70
     0
102
RTVSPropertyOp43
 70
     0
102
RTVSPropertyOp44
 70
     0
102
RTVSPropertyOp45
 70
     1
102
RTVSPropertyOp46
 70
     0
102
RTVSPropertyOp47
 70
     0
102
RTVSPropertyOp48
 70
     0
102
RTVSPropertyOp49
 70
     1
102
RTVSPropertyOp50
 70
     0
102
RTVSPropertyOp51
 70
     0
102
RTVSPropertyOp52
 70
     0
102
RTVSPropertyOp53
 70
     0
102
RTVSPropertyOp54
 70
     0
102
RTVSPropertyOp55
 70
     1
102
RTVSPropertyOp56
 70
     0
102
RTVSPropertyOp57
 70
     0
102
RTVSPropertyOp58
 70
     0
102
RTVSPropertyOp59
 70
     0
102
RTVSPropertyOp60
 70
     0
102
RTVSPropertyOp61
 70
     0
102
RTVSPropertyOp62
 70
     0
  0
XRECORD
  5
AC17
102
{ACAD_REACTORS
330
AC16
102
}
330
AC16
100
AcDbXrecord
280
     1
102
RTVSPost2010Prop28
280
     0
102
RTVSPost2010PropOp28
 70
     1
102
RTVSPost2010Prop29
280
     1
102
RTVSPost2010PropOp29
 70
     1
102
RTVSPost2010Prop30
280
     1
102
RTVSPost2010PropOp30
 70
     1
102
RTVSPost2010Prop31
280
     0
102
RTVSPost2010PropOp31
 70
     1
102
RTVSPost2010Prop32
280
     0
102
RTVSPost2010PropOp32
 70
     1
102
RTVSPost2010Prop33
280
     0
102
RTVSPost2010PropOp33
 70
     1
102
RTVSPost2010Prop34
280
     0
102
RTVSPost2010PropOp34
 70
     1
102
RTVSPost2010Prop35
280
     0
102
RTVSPost2010PropOp35
 70
     1
102
RTVSPost2010Prop36
280
     0
102
RTVSPost2010PropOp36
 70
     1
102
RTVSPost2010Prop37
 90
       50
102
RTVSPost2010PropOp37
 70
     1
102
RTVSPost2010Prop38
140
0.0
102
RTVSPost2010PropOp38
 70
     1
102
RTVSPost2010Prop39
140
1.0
102
RTVSPost2010PropOp39
 70
     1
102
RTVSPost2010Prop40
 90
        0
102
RTVSPost2010PropOp40
 70
     1
102
RTVSPost2010Prop41ColorIndex
 90
       18
102
RTVSPost2010Prop41ColorRGB
 90
        0
102
RTVSPost2010PropOp41
 70
     1
102
RTVSPost2010Prop42
 90
       50
102
RTVSPost2010PropOp42
 70
     1
102
RTVSPost2010Prop43
 90
        3
102
RTVSPost2010PropOp43
 70
     1
102
RTVSPost2010Prop44ColorIndex
 90
        5
102
RTVSPost2010Prop44ColorRGB
 90
      255
102
RTVSPost2010PropOp44
 70
     1
102
RTVSPost2010Prop45
280
     0
102
RTVSPost2010PropOp45
 70
     1
102
RTVSPost2010Prop46
 90
       50
102
RTVSPost2010PropOp46
 70
     1
102
RTVSPost2010Prop47
 90
       50
102
RTVSPost2010PropOp47
 70
     1
102
RTVSPost2010Prop48
 90
       50
102
RTVSPost2010PropOp48
 70
     1
102
RTVSPost2010Prop49
280
     0
102
RTVSPost2010PropOp49
 70
     1
102
RTVSPost2010Prop50
 90
       50
102
RTVSPost2010PropOp50
 70
     1
102
RTVSPost2010Prop51ColorIndex
 90
      256
102
RTVSPost2010Prop51ColorRGB
 90
-16777216
102
RTVSPost2010PropOp51
 70
     0
102
RTVSPost2010Prop52
140
1.0
102
RTVSPost2010PropOp52
 70
     0
102
RTVSPost2010Prop53
 90
        2
102
RTVSPost2010PropOp53
 70
     1
102
RTVSPost2010Prop54
  1
strokes_ogs.tif
102
RTVSPost2010PropOp54
 70
     1
102
RTVSPost2010Prop55
280
     0
102
RTVSPost2010PropOp55
 70
     1
102
RTVSPost2010Prop56
140
1.0
102
RTVSPost2010PropOp56
 70
     1
102
RTVSPost2010Prop57
140
1.0
102
RTVSPost2010PropOp57
 70
     1
102
RTVSPropertyOp0
 70
     1
102
RTVSPropertyOp1
 70
     1
102
RTVSPropertyOp2
 70
     1
102
RTVSPropertyOp3
 70
     1
102
RTVSPropertyOp4
 70
     1
102
RTVSPropertyOp5
 70
     1
102
RTVSPropertyOp6
 70
     1
102
RTVSPropertyOp7
 70
     1
102
RTVSPropertyOp8
 70
     1
102
RTVSPropertyOp9
 70
     1
102
RTVSPropertyOp10
 70
     1
102
RTVSPropertyOp11
 70
     1
102
RTVSPropertyOp12
 70
     1
102
RTVSPropertyOp13
 70
     1
102
RTVSPropertyOp14
 70
     1
102
RTVSPropertyOp15
 70
     1
102
RTVSPropertyOp16
 70
     1
102
RTVSPropertyOp17
 70
     1
102
RTVSPropertyOp18
 70
     1
102
RTVSPropertyOp19
 70
     1
102
RTVSPropertyOp20
 70
     1
102
RTVSPropertyOp21
 70
     1
102
RTVSPropertyOp22
 70
     1
102
RTVSPropertyOp23
 70
     1
102
RTVSPropertyOp24
 70
     1
102
RTVSPropertyOp25
 70
     1
102
RTVSPropertyOp26
 70
     1
102
RTVSPropertyOp27
 70
     1
102
RTVSPropertyOp28
 70
     1
102
RTVSPropertyOp29
 70
     1
102
RTVSPropertyOp30
 70
     1
102
RTVSPropertyOp31
 70
     1
102
RTVSPropertyOp32
 70
     1
102
RTVSPropertyOp33
 70
     1
102
RTVSPropertyOp34
 70
     1
102
RTVSPropertyOp35
 70
     1
102
RTVSPropertyOp36
 70
     1
102
RTVSPropertyOp37
 70
     1
102
RTVSPropertyOp38
 70
     1
102
RTVSPropertyOp39
 70
     1
102
RTVSPropertyOp40
 70
     1
102
RTVSPropertyOp41
 70
     1
102
RTVSPropertyOp42
 70
     1
102
RTVSPropertyOp43
 70
     1
102
RTVSPropertyOp44
 70
     1
102
RTVSPropertyOp45
 70
     1
102
RTVSPropertyOp46
 70
     1
102
RTVSPropertyOp47
 70
     1
102
RTVSPropertyOp48
 70
     1
102
RTVSPropertyOp49
 70
     1
102
RTVSPropertyOp50
 70
     1
102
RTVSPropertyOp51
 70
     0
102
RTVSPropertyOp52
 70
     0
102
RTVSPropertyOp53
 70
     1
102
RTVSPropertyOp54
 70
     1
102
RTVSPropertyOp55
 70
     1
102
RTVSPropertyOp56
 70
     1
102
RTVSPropertyOp57
 70
     1
102
RTVSPropertyOp58
 70
     1
102
RTVSPropertyOp59
 70
     1
102
RTVSPropertyOp60
 70
     1
102
RTVSPropertyOp61
 70
     1
102
RTVSPropertyOp62
 70
     1
  0
XRECORD
  5
AC29
102
{ACAD_REACTORS
330
AC28
102
}
330
AC28
100
AcDbXrecord
280
     1
102
RTVSPost2010Prop28
280
     0
102
RTVSPost2010PropOp28
 70
     1
102
RTVSPost2010Prop29
280
     1
102
RTVSPost2010PropOp29
 70
     1
102
RTVSPost2010Prop30
280
     1
102
RTVSPost2010PropOp30
 70
     1
102
RTVSPost2010Prop31
280
     0
102
RTVSPost2010PropOp31
 70
     1
102
RTVSPost2010Prop32
280
     0
102
RTVSPost2010PropOp32
 70
     1
102
RTVSPost2010Prop33
280
     0
102
RTVSPost2010PropOp33
 70
     1
102
RTVSPost2010Prop34
280
     0
102
RTVSPost2010PropOp34
 70
     1
102
RTVSPost2010Prop35
280
     0
102
RTVSPost2010PropOp35
 70
     1
102
RTVSPost2010Prop36
280
     0
102
RTVSPost2010PropOp36
 70
     1
102
RTVSPost2010Prop37
 90
       50
102
RTVSPost2010PropOp37
 70
     0
102
RTVSPost2010Prop38
140
0.0
102
RTVSPost2010PropOp38
 70
     0
102
RTVSPost2010Prop39
140
1.0
102
RTVSPost2010PropOp39
 70
     0
102
RTVSPost2010Prop40
 90
        0
102
RTVSPost2010PropOp40
 70
     0
102
RTVSPost2010Prop41ColorIndex
 90
       18
102
RTVSPost2010Prop41ColorRGB
 90
        0
102
RTVSPost2010PropOp41
 70
     0
102
RTVSPost2010Prop42
 90
       50
102
RTVSPost2010PropOp42
 70
     0
102
RTVSPost2010Prop43
 90
        3
102
RTVSPost2010PropOp43
 70
     0
102
RTVSPost2010Prop44ColorIndex
 90
        5
102
RTVSPost2010Prop44ColorRGB
 90
      255
102
RTVSPost2010PropOp44
 70
     0
102
RTVSPost2010Prop45
280
     0
102
RTVSPost2010PropOp45
 70
     1
102
RTVSPost2010Prop46
 90
       50
102
RTVSPost2010PropOp46
 70
     0
102
RTVSPost2010Prop47
 90
       50
102
RTVSPost2010PropOp47
 70
     0
102
RTVSPost2010Prop48
 90
       50
102
RTVSPost2010PropOp48
 70
     0
102
RTVSPost2010Prop49
280
     0
102
RTVSPost2010PropOp49
 70
     1
102
RTVSPost2010Prop50
 90
       50
102
RTVSPost2010PropOp50
 70
     0
102
RTVSPost2010Prop51ColorIndex
 90
      256
102
RTVSPost2010Prop51ColorRGB
 90
-16777216
102
RTVSPost2010PropOp51
 70
     0
102
RTVSPost2010Prop52
140
1.0
102
RTVSPost2010PropOp52
 70
     0
102
RTVSPost2010Prop53
 90
        2
102
RTVSPost2010PropOp53
 70
     0
102
RTVSPost2010Prop54
  1
strokes_ogs.tif
102
RTVSPost2010PropOp54
 70
     0
102
RTVSPost2010Prop55
280
     0
102
RTVSPost2010PropOp55
 70
     1
102
RTVSPost2010Prop56
140
1.0
102
RTVSPost2010PropOp56
 70
     0
102
RTVSPost2010Prop57
140
1.0
102
RTVSPost2010PropOp57
 70
     0
102
RTVSPropertyOp0
 70
     0
102
RTVSPropertyOp1
 70
     0
102
RTVSPropertyOp2
 70
     0
102
RTVSPropertyOp3
 70
     0
102
RTVSPropertyOp4
 70
     0
102
RTVSPropertyOp5
 70
     0
102
RTVSPropertyOp6
 70
     0
102
RTVSPropertyOp7
 70
     0
102
RTVSPropertyOp8
 70
     0
102
RTVSPropertyOp9
 70
     0
102
RTVSPropertyOp10
 70
     0
102
RTVSPropertyOp11
 70
     0
102
RTVSPropertyOp12
 70
     0
102
RTVSPropertyOp13
 70
     0
102
RTVSPropertyOp14
 70
     2
102
RTVSPropertyOp15
 70
     0
102
RTVSPropertyOp16
 70
     0
102
RTVSPropertyOp17
 70
     0
102
RTVSPropertyOp18
 70
     0
102
RTVSPropertyOp19
 70
     0
102
RTVSPropertyOp20
 70
     0
102
RTVSPropertyOp21
 70
     0
102
RTVSPropertyOp22
 70
     0
102
RTVSPropertyOp23
 70
     0
102
RTVSPropertyOp24
 70
     0
102
RTVSPropertyOp25
 70
     0
102
RTVSPropertyOp26
 70
     0
102
RTVSPropertyOp27
 70
     0
102
RTVSPropertyOp28
 70
     1
102
RTVSPropertyOp29
 70
     1
102
RTVSPropertyOp30
 70
     1
102
RTVSPropertyOp31
 70
     1
102
RTVSPropertyOp32
 70
     1
102
RTVSPropertyOp33
 70
     1
102
RTVSPropertyOp34
 70
     1
102
RTVSPropertyOp35
 70
     1
102
RTVSPropertyOp36
 70
     1
102
RTVSPropertyOp37
 70
     0
102
RTVSPropertyOp38
 70
     0
102
RTVSPropertyOp39
 70
     0
102
RTVSPropertyOp40
 70
     0
102
RTVSPropertyOp41
 70
     0
102
RTVSPropertyOp42
 70
     0
102
RTVSPropertyOp43
 70
     0
102
RTVSPropertyOp44
 70
     0
102
RTVSPropertyOp45
 70
     1
102
RTVSPropertyOp46
 70
     0
102
RTVSPropertyOp47
 70
     0
102
RTVSPropertyOp48
 70
     0
102
RTVSPropertyOp49
 70
     1
102
RTVSPropertyOp50
 70
     0
102
RTVSPropertyOp51
 70
     0
102
RTVSPropertyOp52
 70
     0
102
RTVSPropertyOp53
 70
     0
102
RTVSPropertyOp54
 70
     0
102
RTVSPropertyOp55
 70
     1
102
RTVSPropertyOp56
 70
     0
102
RTVSPropertyOp57
 70
     0
102
RTVSPropertyOp58
 70
     0
102
RTVSPropertyOp59
 70
     0
102
RTVSPropertyOp60
 70
     0
102
RTVSPropertyOp61
 70
     0
102
RTVSPropertyOp62
 70
     0
  0
XRECORD
  5
AC0F
102
{ACAD_REACTORS
330
AC0E
102
}
330
AC0E
100
AcDbXrecord
280
     1
102
RTVSPost2010Prop28
280
     0
102
RTVSPost2010PropOp28
 70
     1
102
RTVSPost2010Prop29
280
     1
102
RTVSPost2010PropOp29
 70
     1
102
RTVSPost2010Prop30
280
     1
102
RTVSPost2010PropOp30
 70
     1
102
RTVSPost2010Prop31
280
     0
102
RTVSPost2010PropOp31
 70
     1
102
RTVSPost2010Prop32
280
     0
102
RTVSPost2010PropOp32
 70
     1
102
RTVSPost2010Prop33
280
     0
102
RTVSPost2010PropOp33
 70
     1
102
RTVSPost2010Prop34
280
     0
102
RTVSPost2010PropOp34
 70
     1
102
RTVSPost2010Prop35
280
     0
102
RTVSPost2010PropOp35
 70
     1
102
RTVSPost2010Prop36
280
     0
102
RTVSPost2010PropOp36
 70
     1
102
RTVSPost2010Prop37
 90
       50
102
RTVSPost2010PropOp37
 70
     1
102
RTVSPost2010Prop38
140
0.0
102
RTVSPost2010PropOp38
 70
     1
102
RTVSPost2010Prop39
140
1.0
102
RTVSPost2010PropOp39
 70
     1
102
RTVSPost2010Prop40
 90
        0
102
RTVSPost2010PropOp40
 70
     1
102
RTVSPost2010Prop41ColorIndex
 90
       18
102
RTVSPost2010Prop41ColorRGB
 90
        0
102
RTVSPost2010PropOp41
 70
     1
102
RTVSPost2010Prop42
 90
       50
102
RTVSPost2010PropOp42
 70
     1
102
RTVSPost2010Prop43
 90
        3
102
RTVSPost2010PropOp43
 70
     1
102
RTVSPost2010Prop44ColorIndex
 90
        5
102
RTVSPost2010Prop44ColorRGB
 90
      255
102
RTVSPost2010PropOp44
 70
     1
102
RTVSPost2010Prop45
280
     0
102
RTVSPost2010PropOp45
 70
     1
102
RTVSPost2010Prop46
 90
       50
102
RTVSPost2010PropOp46
 70
     1
102
RTVSPost2010Prop47
 90
       50
102
RTVSPost2010PropOp47
 70
     1
102
RTVSPost2010Prop48
 90
       50
102
RTVSPost2010PropOp48
 70
     1
102
RTVSPost2010Prop49
280
     0
102
RTVSPost2010PropOp49
 70
     1
102
RTVSPost2010Prop50
 90
       50
102
RTVSPost2010PropOp50
 70
     1
102
RTVSPost2010Prop51ColorIndex
 90
      256
102
RTVSPost2010Prop51ColorRGB
 90
-16777216
102
RTVSPost2010PropOp51
 70
     0
102
RTVSPost2010Prop52
140
1.0
102
RTVSPost2010PropOp52
 70
     0
102
RTVSPost2010Prop53
 90
        2
102
RTVSPost2010PropOp53
 70
     1
102
RTVSPost2010Prop54
  1
strokes_ogs.tif
102
RTVSPost2010PropOp54
 70
     1
102
RTVSPost2010Prop55
280
     0
102
RTVSPost2010PropOp55
 70
     1
102
RTVSPost2010Prop56
140
1.0
102
RTVSPost2010PropOp56
 70
     1
102
RTVSPost2010Prop57
140
1.0
102
RTVSPost2010PropOp57
 70
     1
102
RTVSPropertyOp0
 70
     1
102
RTVSPropertyOp1
 70
     1
102
RTVSPropertyOp2
 70
     1
102
RTVSPropertyOp3
 70
     1
102
RTVSPropertyOp4
 70
     1
102
RTVSPropertyOp5
 70
     1
102
RTVSPropertyOp6
 70
     1
102
RTVSPropertyOp7
 70
     1
102
RTVSPropertyOp8
 70
     1
102
RTVSPropertyOp9
 70
     1
102
RTVSPropertyOp10
 70
     1
102
RTVSPropertyOp11
 70
     1
102
RTVSPropertyOp12
 70
     1
102
RTVSPropertyOp13
 70
     1
102
RTVSPropertyOp14
 70
     1
102
RTVSPropertyOp15
 70
     1
102
RTVSPropertyOp16
 70
     1
102
RTVSPropertyOp17
 70
     1
102
RTVSPropertyOp18
 70
     1
102
RTVSPropertyOp19
 70
     1
102
RTVSPropertyOp20
 70
     1
102
RTVSPropertyOp21
 70
     1
102
RTVSPropertyOp22
 70
     1
102
RTVSPropertyOp23
 70
     1
102
RTVSPropertyOp24
 70
     1
102
RTVSPropertyOp25
 70
     1
102
RTVSPropertyOp26
 70
     1
102
RTVSPropertyOp27
 70
     1
102
RTVSPropertyOp28
 70
     1
102
RTVSPropertyOp29
 70
     1
102
RTVSPropertyOp30
 70
     1
102
RTVSPropertyOp31
 70
     1
102
RTVSPropertyOp32
 70
     1
102
RTVSPropertyOp33
 70
     1
102
RTVSPropertyOp34
 70
     1
102
RTVSPropertyOp35
 70
     1
102
RTVSPropertyOp36
 70
     1
102
RTVSPropertyOp37
 70
     1
102
RTVSPropertyOp38
 70
     1
102
RTVSPropertyOp39
 70
     1
102
RTVSPropertyOp40
 70
     1
102
RTVSPropertyOp41
 70
     1
102
RTVSPropertyOp42
 70
     1
102
RTVSPropertyOp43
 70
     1
102
RTVSPropertyOp44
 70
     1
102
RTVSPropertyOp45
 70
     1
102
RTVSPropertyOp46
 70
     1
102
RTVSPropertyOp47
 70
     1
102
RTVSPropertyOp48
 70
     1
102
RTVSPropertyOp49
 70
     1
102
RTVSPropertyOp50
 70
     1
102
RTVSPropertyOp51
 70
     0
102
RTVSPropertyOp52
 70
     0
102
RTVSPropertyOp53
 70
     1
102
RTVSPropertyOp54
 70
     1
102
RTVSPropertyOp55
 70
     1
102
RTVSPropertyOp56
 70
     1
102
RTVSPropertyOp57
 70
     1
102
RTVSPropertyOp58
 70
     1
102
RTVSPropertyOp59
 70
     1
102
RTVSPropertyOp60
 70
     1
102
RTVSPropertyOp61
 70
     1
102
RTVSPropertyOp62
 70
     1
  0
XRECORD
  5
AC25
102
{ACAD_REACTORS
330
AC24
102
}
330
AC24
100
AcDbXrecord
280
     1
102
RTVSPost2010Prop28
280
     0
102
RTVSPost2010PropOp28
 70
     1
102
RTVSPost2010Prop29
280
     1
102
RTVSPost2010PropOp29
 70
     1
102
RTVSPost2010Prop30
280
     1
102
RTVSPost2010PropOp30
 70
     1
102
RTVSPost2010Prop31
280
     0
102
RTVSPost2010PropOp31
 70
     1
102
RTVSPost2010Prop32
280
     0
102
RTVSPost2010PropOp32
 70
     1
102
RTVSPost2010Prop33
280
     0
102
RTVSPost2010PropOp33
 70
     1
102
RTVSPost2010Prop34
280
     0
102
RTVSPost2010PropOp34
 70
     1
102
RTVSPost2010Prop35
280
     0
102
RTVSPost2010PropOp35
 70
     1
102
RTVSPost2010Prop36
280
     0
102
RTVSPost2010PropOp36
 70
     1
102
RTVSPost2010Prop37
 90
       50
102
RTVSPost2010PropOp37
 70
     1
102
RTVSPost2010Prop38
140
0.0
102
RTVSPost2010PropOp38
 70
     1
102
RTVSPost2010Prop39
140
1.0
102
RTVSPost2010PropOp39
 70
     1
102
RTVSPost2010Prop40
 90
        0
102
RTVSPost2010PropOp40
 70
     1
102
RTVSPost2010Prop41ColorIndex
 90
       18
102
RTVSPost2010Prop41ColorRGB
 90
        0
102
RTVSPost2010PropOp41
 70
     1
102
RTVSPost2010Prop42
 90
       50
102
RTVSPost2010PropOp42
 70
     1
102
RTVSPost2010Prop43
 90
        3
102
RTVSPost2010PropOp43
 70
     1
102
RTVSPost2010Prop44ColorIndex
 90
        5
102
RTVSPost2010Prop44ColorRGB
 90
      255
102
RTVSPost2010PropOp44
 70
     1
102
RTVSPost2010Prop45
280
     0
102
RTVSPost2010PropOp45
 70
     1
102
RTVSPost2010Prop46
 90
       50
102
RTVSPost2010PropOp46
 70
     1
102
RTVSPost2010Prop47
 90
       50
102
RTVSPost2010PropOp47
 70
     1
102
RTVSPost2010Prop48
 90
       50
102
RTVSPost2010PropOp48
 70
     1
102
RTVSPost2010Prop49
280
     0
102
RTVSPost2010PropOp49
 70
     1
102
RTVSPost2010Prop50
 90
       50
102
RTVSPost2010PropOp50
 70
     1
102
RTVSPost2010Prop51ColorIndex
 90
      256
102
RTVSPost2010Prop51ColorRGB
 90
-16777216
102
RTVSPost2010PropOp51
 70
     0
102
RTVSPost2010Prop52
140
1.0
102
RTVSPost2010PropOp52
 70
     0
102
RTVSPost2010Prop53
 90
        2
102
RTVSPost2010PropOp53
 70
     1
102
RTVSPost2010Prop54
  1
strokes_ogs.tif
102
RTVSPost2010PropOp54
 70
     1
102
RTVSPost2010Prop55
280
     0
102
RTVSPost2010PropOp55
 70
     1
102
RTVSPost2010Prop56
140
1.0
102
RTVSPost2010PropOp56
 70
     1
102
RTVSPost2010Prop57
140
1.0
102
RTVSPost2010PropOp57
 70
     1
102
RTVSPropertyOp0
 70
     1
102
RTVSPropertyOp1
 70
     1
102
RTVSPropertyOp2
 70
     1
102
RTVSPropertyOp3
 70
     1
102
RTVSPropertyOp4
 70
     1
102
RTVSPropertyOp5
 70
     1
102
RTVSPropertyOp6
 70
     1
102
RTVSPropertyOp7
 70
     1
102
RTVSPropertyOp8
 70
     1
102
RTVSPropertyOp9
 70
     1
102
RTVSPropertyOp10
 70
     1
102
RTVSPropertyOp11
 70
     1
102
RTVSPropertyOp12
 70
     1
102
RTVSPropertyOp13
 70
     1
102
RTVSPropertyOp14
 70
     1
102
RTVSPropertyOp15
 70
     1
102
RTVSPropertyOp16
 70
     1
102
RTVSPropertyOp17
 70
     1
102
RTVSPropertyOp18
 70
     1
102
RTVSPropertyOp19
 70
     1
102
RTVSPropertyOp20
 70
     1
102
RTVSPropertyOp21
 70
     1
102
RTVSPropertyOp22
 70
     1
102
RTVSPropertyOp23
 70
     1
102
RTVSPropertyOp24
 70
     1
102
RTVSPropertyOp25
 70
     1
102
RTVSPropertyOp26
 70
     1
102
RTVSPropertyOp27
 70
     1
102
RTVSPropertyOp28
 70
     1
102
RTVSPropertyOp29
 70
     1
102
RTVSPropertyOp30
 70
     1
102
RTVSPropertyOp31
 70
     1
102
RTVSPropertyOp32
 70
     1
102
RTVSPropertyOp33
 70
     1
102
RTVSPropertyOp34
 70
     1
102
RTVSPropertyOp35
 70
     1
102
RTVSPropertyOp36
 70
     1
102
RTVSPropertyOp37
 70
     1
102
RTVSPropertyOp38
 70
     1
102
RTVSPropertyOp39
 70
     1
102
RTVSPropertyOp40
 70
     1
102
RTVSPropertyOp41
 70
     1
102
RTVSPropertyOp42
 70
     1
102
RTVSPropertyOp43
 70
     1
102
RTVSPropertyOp44
 70
     1
102
RTVSPropertyOp45
 70
     1
102
RTVSPropertyOp46
 70
     1
102
RTVSPropertyOp47
 70
     1
102
RTVSPropertyOp48
 70
     1
102
RTVSPropertyOp49
 70
     1
102
RTVSPropertyOp50
 70
     1
102
RTVSPropertyOp51
 70
     0
102
RTVSPropertyOp52
 70
     0
102
RTVSPropertyOp53
 70
     1
102
RTVSPropertyOp54
 70
     1
102
RTVSPropertyOp55
 70
     1
102
RTVSPropertyOp56
 70
     1
102
RTVSPropertyOp57
 70
     1
102
RTVSPropertyOp58
 70
     1
102
RTVSPropertyOp59
 70
     1
102
RTVSPropertyOp60
 70
     1
102
RTVSPropertyOp61
 70
     1
102
RTVSPropertyOp62
 70
     1
  0
XRECORD
  5
AC23
102
{ACAD_REACTORS
330
AC22
102
}
330
AC22
100
AcDbXrecord
280
     1
102
RTVSPost2010Prop28
280
     0
102
RTVSPost2010PropOp28
 70
     1
102
RTVSPost2010Prop29
280
     1
102
RTVSPost2010PropOp29
 70
     1
102
RTVSPost2010Prop30
280
     1
102
RTVSPost2010PropOp30
 70
     1
102
RTVSPost2010Prop31
280
     0
102
RTVSPost2010PropOp31
 70
     1
102
RTVSPost2010Prop32
280
     0
102
RTVSPost2010PropOp32
 70
     1
102
RTVSPost2010Prop33
280
     0
102
RTVSPost2010PropOp33
 70
     1
102
RTVSPost2010Prop34
280
     0
102
RTVSPost2010PropOp34
 70
     1
102
RTVSPost2010Prop35
280
     0
102
RTVSPost2010PropOp35
 70
     1
102
RTVSPost2010Prop36
280
     0
102
RTVSPost2010PropOp36
 70
     1
102
RTVSPost2010Prop37
 90
       50
102
RTVSPost2010PropOp37
 70
     1
102
RTVSPost2010Prop38
140
0.0
102
RTVSPost2010PropOp38
 70
     1
102
RTVSPost2010Prop39
140
1.0
102
RTVSPost2010PropOp39
 70
     1
102
RTVSPost2010Prop40
 90
        0
102
RTVSPost2010PropOp40
 70
     1
102
RTVSPost2010Prop41ColorIndex
 90
       18
102
RTVSPost2010Prop41ColorRGB
 90
        0
102
RTVSPost2010PropOp41
 70
     1
102
RTVSPost2010Prop42
 90
       50
102
RTVSPost2010PropOp42
 70
     1
102
RTVSPost2010Prop43
 90
        3
102
RTVSPost2010PropOp43
 70
     1
102
RTVSPost2010Prop44ColorIndex
 90
        5
102
RTVSPost2010Prop44ColorRGB
 90
      255
102
RTVSPost2010PropOp44
 70
     1
102
RTVSPost2010Prop45
280
     0
102
RTVSPost2010PropOp45
 70
     1
102
RTVSPost2010Prop46
 90
       50
102
RTVSPost2010PropOp46
 70
     1
102
RTVSPost2010Prop47
 90
       50
102
RTVSPost2010PropOp47
 70
     1
102
RTVSPost2010Prop48
 90
       50
102
RTVSPost2010PropOp48
 70
     1
102
RTVSPost2010Prop49
280
     0
102
RTVSPost2010PropOp49
 70
     1
102
RTVSPost2010Prop50
 90
       50
102
RTVSPost2010PropOp50
 70
     1
102
RTVSPost2010Prop51ColorIndex
 90
      256
102
RTVSPost2010Prop51ColorRGB
 90
-16777216
102
RTVSPost2010PropOp51
 70
     0
102
RTVSPost2010Prop52
140
1.0
102
RTVSPost2010PropOp52
 70
     0
102
RTVSPost2010Prop53
 90
        2
102
RTVSPost2010PropOp53
 70
     1
102
RTVSPost2010Prop54
  1
strokes_ogs.tif
102
RTVSPost2010PropOp54
 70
     1
102
RTVSPost2010Prop55
280
     0
102
RTVSPost2010PropOp55
 70
     1
102
RTVSPost2010Prop56
140
1.0
102
RTVSPost2010PropOp56
 70
     1
102
RTVSPost2010Prop57
140
1.0
102
RTVSPost2010PropOp57
 70
     1
102
RTVSPropertyOp0
 70
     1
102
RTVSPropertyOp1
 70
     1
102
RTVSPropertyOp2
 70
     1
102
RTVSPropertyOp3
 70
     1
102
RTVSPropertyOp4
 70
     1
102
RTVSPropertyOp5
 70
     1
102
RTVSPropertyOp6
 70
     1
102
RTVSPropertyOp7
 70
     1
102
RTVSPropertyOp8
 70
     1
102
RTVSPropertyOp9
 70
     1
102
RTVSPropertyOp10
 70
     1
102
RTVSPropertyOp11
 70
     1
102
RTVSPropertyOp12
 70
     1
102
RTVSPropertyOp13
 70
     1
102
RTVSPropertyOp14
 70
     1
102
RTVSPropertyOp15
 70
     1
102
RTVSPropertyOp16
 70
     1
102
RTVSPropertyOp17
 70
     1
102
RTVSPropertyOp18
 70
     1
102
RTVSPropertyOp19
 70
     1
102
RTVSPropertyOp20
 70
     1
102
RTVSPropertyOp21
 70
     1
102
RTVSPropertyOp22
 70
     1
102
RTVSPropertyOp23
 70
     1
102
RTVSPropertyOp24
 70
     1
102
RTVSPropertyOp25
 70
     1
102
RTVSPropertyOp26
 70
     1
102
RTVSPropertyOp27
 70
     1
102
RTVSPropertyOp28
 70
     1
102
RTVSPropertyOp29
 70
     1
102
RTVSPropertyOp30
 70
     1
102
RTVSPropertyOp31
 70
     1
102
RTVSPropertyOp32
 70
     1
102
RTVSPropertyOp33
 70
     1
102
RTVSPropertyOp34
 70
     1
102
RTVSPropertyOp35
 70
     1
102
RTVSPropertyOp36
 70
     1
102
RTVSPropertyOp37
 70
     1
102
RTVSPropertyOp38
 70
     1
102
RTVSPropertyOp39
 70
     1
102
RTVSPropertyOp40
 70
     1
102
RTVSPropertyOp41
 70
     1
102
RTVSPropertyOp42
 70
     1
102
RTVSPropertyOp43
 70
     1
102
RTVSPropertyOp44
 70
     1
102
RTVSPropertyOp45
 70
     1
102
RTVSPropertyOp46
 70
     1
102
RTVSPropertyOp47
 70
     1
102
RTVSPropertyOp48
 70
     1
102
RTVSPropertyOp49
 70
     1
102
RTVSPropertyOp50
 70
     1
102
RTVSPropertyOp51
 70
     0
102
RTVSPropertyOp52
 70
     0
102
RTVSPropertyOp53
 70
     1
102
RTVSPropertyOp54
 70
     1
102
RTVSPropertyOp55
 70
     1
102
RTVSPropertyOp56
 70
     1
102
RTVSPropertyOp57
 70
     1
102
RTVSPropertyOp58
 70
     1
102
RTVSPropertyOp59
 70
     1
102
RTVSPropertyOp60
 70
     1
102
RTVSPropertyOp61
 70
     1
102
RTVSPropertyOp62
 70
     1
  0
XRECORD
  5
AC1D
102
{ACAD_REACTORS
330
AC1C
102
}
330
AC1C
100
AcDbXrecord
280
     1
102
RTVSPost2010Prop28
280
     0
102
RTVSPost2010PropOp28
 70
     1
102
RTVSPost2010Prop29
280
     1
102
RTVSPost2010PropOp29
 70
     1
102
RTVSPost2010Prop30
280
     1
102
RTVSPost2010PropOp30
 70
     1
102
RTVSPost2010Prop31
280
     0
102
RTVSPost2010PropOp31
 70
     1
102
RTVSPost2010Prop32
280
     0
102
RTVSPost2010PropOp32
 70
     1
102
RTVSPost2010Prop33
280
     0
102
RTVSPost2010PropOp33
 70
     1
102
RTVSPost2010Prop34
280
     0
102
RTVSPost2010PropOp34
 70
     1
102
RTVSPost2010Prop35
280
     0
102
RTVSPost2010PropOp35
 70
     1
102
RTVSPost2010Prop36
280
     0
102
RTVSPost2010PropOp36
 70
     1
102
RTVSPost2010Prop37
 90
       50
102
RTVSPost2010PropOp37
 70
     1
102
RTVSPost2010Prop38
140
0.0
102
RTVSPost2010PropOp38
 70
     1
102
RTVSPost2010Prop39
140
1.0
102
RTVSPost2010PropOp39
 70
     1
102
RTVSPost2010Prop40
 90
        0
102
RTVSPost2010PropOp40
 70
     1
102
RTVSPost2010Prop41ColorIndex
 90
       18
102
RTVSPost2010Prop41ColorRGB
 90
        0
102
RTVSPost2010PropOp41
 70
     1
102
RTVSPost2010Prop42
 90
       50
102
RTVSPost2010PropOp42
 70
     1
102
RTVSPost2010Prop43
 90
        3
102
RTVSPost2010PropOp43
 70
     1
102
RTVSPost2010Prop44ColorIndex
 90
        5
102
RTVSPost2010Prop44ColorRGB
 90
      255
102
RTVSPost2010PropOp44
 70
     1
102
RTVSPost2010Prop45
280
     0
102
RTVSPost2010PropOp45
 70
     1
102
RTVSPost2010Prop46
 90
       50
102
RTVSPost2010PropOp46
 70
     1
102
RTVSPost2010Prop47
 90
       50
102
RTVSPost2010PropOp47
 70
     1
102
RTVSPost2010Prop48
 90
       50
102
RTVSPost2010PropOp48
 70
     1
102
RTVSPost2010Prop49
280
     0
102
RTVSPost2010PropOp49
 70
     1
102
RTVSPost2010Prop50
 90
       50
102
RTVSPost2010PropOp50
 70
     1
102
RTVSPost2010Prop51ColorIndex
 90
      256
102
RTVSPost2010Prop51ColorRGB
 90
-16777216
102
RTVSPost2010PropOp51
 70
     0
102
RTVSPost2010Prop52
140
1.0
102
RTVSPost2010PropOp52
 70
     0
102
RTVSPost2010Prop53
 90
        2
102
RTVSPost2010PropOp53
 70
     1
102
RTVSPost2010Prop54
  1
strokes_ogs.tif
102
RTVSPost2010PropOp54
 70
     1
102
RTVSPost2010Prop55
280
     0
102
RTVSPost2010PropOp55
 70
     1
102
RTVSPost2010Prop56
140
1.0
102
RTVSPost2010PropOp56
 70
     1
102
RTVSPost2010Prop57
140
1.0
102
RTVSPost2010PropOp57
 70
     1
102
RTVSPropertyOp0
 70
     1
102
RTVSPropertyOp1
 70
     1
102
RTVSPropertyOp2
 70
     1
102
RTVSPropertyOp3
 70
     1
102
RTVSPropertyOp4
 70
     1
102
RTVSPropertyOp5
 70
     1
102
RTVSPropertyOp6
 70
     1
102
RTVSPropertyOp7
 70
     1
102
RTVSPropertyOp8
 70
     1
102
RTVSPropertyOp9
 70
     1
102
RTVSPropertyOp10
 70
     1
102
RTVSPropertyOp11
 70
     1
102
RTVSPropertyOp12
 70
     1
102
RTVSPropertyOp13
 70
     1
102
RTVSPropertyOp14
 70
     1
102
RTVSPropertyOp15
 70
     1
102
RTVSPropertyOp16
 70
     1
102
RTVSPropertyOp17
 70
     1
102
RTVSPropertyOp18
 70
     1
102
RTVSPropertyOp19
 70
     1
102
RTVSPropertyOp20
 70
     1
102
RTVSPropertyOp21
 70
     1
102
RTVSPropertyOp22
 70
     1
102
RTVSPropertyOp23
 70
     1
102
RTVSPropertyOp24
 70
     1
102
RTVSPropertyOp25
 70
     1
102
RTVSPropertyOp26
 70
     1
102
RTVSPropertyOp27
 70
     1
102
RTVSPropertyOp28
 70
     1
102
RTVSPropertyOp29
 70
     1
102
RTVSPropertyOp30
 70
     1
102
RTVSPropertyOp31
 70
     1
102
RTVSPropertyOp32
 70
     1
102
RTVSPropertyOp33
 70
     1
102
RTVSPropertyOp34
 70
     1
102
RTVSPropertyOp35
 70
     1
102
RTVSPropertyOp36
 70
     1
102
RTVSPropertyOp37
 70
     1
102
RTVSPropertyOp38
 70
     1
102
RTVSPropertyOp39
 70
     1
102
RTVSPropertyOp40
 70
     1
102
RTVSPropertyOp41
 70
     1
102
RTVSPropertyOp42
 70
     1
102
RTVSPropertyOp43
 70
     1
102
RTVSPropertyOp44
 70
     1
102
RTVSPropertyOp45
 70
     1
102
RTVSPropertyOp46
 70
     1
102
RTVSPropertyOp47
 70
     1
102
RTVSPropertyOp48
 70
     1
102
RTVSPropertyOp49
 70
     1
102
RTVSPropertyOp50
 70
     1
102
RTVSPropertyOp51
 70
     0
102
RTVSPropertyOp52
 70
     0
102
RTVSPropertyOp53
 70
     1
102
RTVSPropertyOp54
 70
     1
102
RTVSPropertyOp55
 70
     1
102
RTVSPropertyOp56
 70
     1
102
RTVSPropertyOp57
 70
     1
102
RTVSPropertyOp58
 70
     1
102
RTVSPropertyOp59
 70
     1
102
RTVSPropertyOp60
 70
     1
102
RTVSPropertyOp61
 70
     1
102
RTVSPropertyOp62
 70
     1
  0
XRECORD
  5
AC1F
102
{ACAD_REACTORS
330
AC1E
102
}
330
AC1E
100
AcDbXrecord
280
     1
102
RTVSPost2010Prop28
280
     0
102
RTVSPost2010PropOp28
 70
     1
102
RTVSPost2010Prop29
280
     1
102
RTVSPost2010PropOp29
 70
     1
102
RTVSPost2010Prop30
280
     1
102
RTVSPost2010PropOp30
 70
     1
102
RTVSPost2010Prop31
280
     0
102
RTVSPost2010PropOp31
 70
     1
102
RTVSPost2010Prop32
280
     0
102
RTVSPost2010PropOp32
 70
     1
102
RTVSPost2010Prop33
280
     0
102
RTVSPost2010PropOp33
 70
     1
102
RTVSPost2010Prop34
280
     0
102
RTVSPost2010PropOp34
 70
     1
102
RTVSPost2010Prop35
280
     0
102
RTVSPost2010PropOp35
 70
     1
102
RTVSPost2010Prop36
280
     0
102
RTVSPost2010PropOp36
 70
     1
102
RTVSPost2010Prop37
 90
       50
102
RTVSPost2010PropOp37
 70
     1
102
RTVSPost2010Prop38
140
0.0
102
RTVSPost2010PropOp38
 70
     1
102
RTVSPost2010Prop39
140
1.0
102
RTVSPost2010PropOp39
 70
     1
102
RTVSPost2010Prop40
 90
        0
102
RTVSPost2010PropOp40
 70
     1
102
RTVSPost2010Prop41ColorIndex
 90
       18
102
RTVSPost2010Prop41ColorRGB
 90
        0
102
RTVSPost2010PropOp41
 70
     1
102
RTVSPost2010Prop42
 90
       50
102
RTVSPost2010PropOp42
 70
     1
102
RTVSPost2010Prop43
 90
        3
102
RTVSPost2010PropOp43
 70
     1
102
RTVSPost2010Prop44ColorIndex
 90
        5
102
RTVSPost2010Prop44ColorRGB
 90
      255
102
RTVSPost2010PropOp44
 70
     1
102
RTVSPost2010Prop45
280
     0
102
RTVSPost2010PropOp45
 70
     1
102
RTVSPost2010Prop46
 90
       50
102
RTVSPost2010PropOp46
 70
     1
102
RTVSPost2010Prop47
 90
       50
102
RTVSPost2010PropOp47
 70
     1
102
RTVSPost2010Prop48
 90
       50
102
RTVSPost2010PropOp48
 70
     1
102
RTVSPost2010Prop49
280
     0
102
RTVSPost2010PropOp49
 70
     1
102
RTVSPost2010Prop50
 90
       50
102
RTVSPost2010PropOp50
 70
     1
102
RTVSPost2010Prop51ColorIndex
 90
      256
102
RTVSPost2010Prop51ColorRGB
 90
-16777216
102
RTVSPost2010PropOp51
 70
     0
102
RTVSPost2010Prop52
140
1.0
102
RTVSPost2010PropOp52
 70
     0
102
RTVSPost2010Prop53
 90
        2
102
RTVSPost2010PropOp53
 70
     1
102
RTVSPost2010Prop54
  1
strokes_ogs.tif
102
RTVSPost2010PropOp54
 70
     1
102
RTVSPost2010Prop55
280
     0
102
RTVSPost2010PropOp55
 70
     1
102
RTVSPost2010Prop56
140
1.0
102
RTVSPost2010PropOp56
 70
     1
102
RTVSPost2010Prop57
140
1.0
102
RTVSPost2010PropOp57
 70
     1
102
RTVSPropertyOp0
 70
     1
102
RTVSPropertyOp1
 70
     1
102
RTVSPropertyOp2
 70
     1
102
RTVSPropertyOp3
 70
     1
102
RTVSPropertyOp4
 70
     1
102
RTVSPropertyOp5
 70
     1
102
RTVSPropertyOp6
 70
     1
102
RTVSPropertyOp7
 70
     1
102
RTVSPropertyOp8
 70
     1
102
RTVSPropertyOp9
 70
     1
102
RTVSPropertyOp10
 70
     1
102
RTVSPropertyOp11
 70
     1
102
RTVSPropertyOp12
 70
     1
102
RTVSPropertyOp13
 70
     1
102
RTVSPropertyOp14
 70
     1
102
RTVSPropertyOp15
 70
     1
102
RTVSPropertyOp16
 70
     1
102
RTVSPropertyOp17
 70
     1
102
RTVSPropertyOp18
 70
     1
102
RTVSPropertyOp19
 70
     1
102
RTVSPropertyOp20
 70
     1
102
RTVSPropertyOp21
 70
     1
102
RTVSPropertyOp22
 70
     1
102
RTVSPropertyOp23
 70
     1
102
RTVSPropertyOp24
 70
     1
102
RTVSPropertyOp25
 70
     1
102
RTVSPropertyOp26
 70
     1
102
RTVSPropertyOp27
 70
     1
102
RTVSPropertyOp28
 70
     1
102
RTVSPropertyOp29
 70
     1
102
RTVSPropertyOp30
 70
     1
102
RTVSPropertyOp31
 70
     1
102
RTVSPropertyOp32
 70
     1
102
RTVSPropertyOp33
 70
     1
102
RTVSPropertyOp34
 70
     1
102
RTVSPropertyOp35
 70
     1
102
RTVSPropertyOp36
 70
     1
102
RTVSPropertyOp37
 70
     1
102
RTVSPropertyOp38
 70
     1
102
RTVSPropertyOp39
 70
     1
102
RTVSPropertyOp40
 70
     1
102
RTVSPropertyOp41
 70
     1
102
RTVSPropertyOp42
 70
     1
102
RTVSPropertyOp43
 70
     1
102
RTVSPropertyOp44
 70
     1
102
RTVSPropertyOp45
 70
     1
102
RTVSPropertyOp46
 70
     1
102
RTVSPropertyOp47
 70
     1
102
RTVSPropertyOp48
 70
     1
102
RTVSPropertyOp49
 70
     1
102
RTVSPropertyOp50
 70
     1
102
RTVSPropertyOp51
 70
     0
102
RTVSPropertyOp52
 70
     0
102
RTVSPropertyOp53
 70
     1
102
RTVSPropertyOp54
 70
     1
102
RTVSPropertyOp55
 70
     1
102
RTVSPropertyOp56
 70
     1
102
RTVSPropertyOp57
 70
     1
102
RTVSPropertyOp58
 70
     1
102
RTVSPropertyOp59
 70
     1
102
RTVSPropertyOp60
 70
     1
102
RTVSPropertyOp61
 70
     1
102
RTVSPropertyOp62
 70
     1
  0
XRECORD
  5
AC15
102
{ACAD_REACTORS
330
AC14
102
}
330
AC14
100
AcDbXrecord
280
     1
102
RTVSPost2010Prop28
280
     0
102
RTVSPost2010PropOp28
 70
     1
102
RTVSPost2010Prop29
280
     1
102
RTVSPost2010PropOp29
 70
     1
102
RTVSPost2010Prop30
280
     1
102
RTVSPost2010PropOp30
 70
     1
102
RTVSPost2010Prop31
280
     0
102
RTVSPost2010PropOp31
 70
     1
102
RTVSPost2010Prop32
280
     0
102
RTVSPost2010PropOp32
 70
     1
102
RTVSPost2010Prop33
280
     0
102
RTVSPost2010PropOp33
 70
     1
102
RTVSPost2010Prop34
280
     0
102
RTVSPost2010PropOp34
 70
     1
102
RTVSPost2010Prop35
280
     0
102
RTVSPost2010PropOp35
 70
     1
102
RTVSPost2010Prop36
280
     0
102
RTVSPost2010PropOp36
 70
     1
102
RTVSPost2010Prop37
 90
       50
102
RTVSPost2010PropOp37
 70
     1
102
RTVSPost2010Prop38
140
0.0
102
RTVSPost2010PropOp38
 70
     1
102
RTVSPost2010Prop39
140
1.0
102
RTVSPost2010PropOp39
 70
     1
102
RTVSPost2010Prop40
 90
        0
102
RTVSPost2010PropOp40
 70
     1
102
RTVSPost2010Prop41ColorIndex
 90
       18
102
RTVSPost2010Prop41ColorRGB
 90
        0
102
RTVSPost2010PropOp41
 70
     1
102
RTVSPost2010Prop42
 90
       50
102
RTVSPost2010PropOp42
 70
     1
102
RTVSPost2010Prop43
 90
        3
102
RTVSPost2010PropOp43
 70
     1
102
RTVSPost2010Prop44ColorIndex
 90
        5
102
RTVSPost2010Prop44ColorRGB
 90
      255
102
RTVSPost2010PropOp44
 70
     1
102
RTVSPost2010Prop45
280
     0
102
RTVSPost2010PropOp45
 70
     1
102
RTVSPost2010Prop46
 90
       50
102
RTVSPost2010PropOp46
 70
     1
102
RTVSPost2010Prop47
 90
       50
102
RTVSPost2010PropOp47
 70
     1
102
RTVSPost2010Prop48
 90
       50
102
RTVSPost2010PropOp48
 70
     1
102
RTVSPost2010Prop49
280
     0
102
RTVSPost2010PropOp49
 70
     1
102
RTVSPost2010Prop50
 90
       50
102
RTVSPost2010PropOp50
 70
     1
102
RTVSPost2010Prop51ColorIndex
 90
      256
102
RTVSPost2010Prop51ColorRGB
 90
-16777216
102
RTVSPost2010PropOp51
 70
     0
102
RTVSPost2010Prop52
140
1.0
102
RTVSPost2010PropOp52
 70
     0
102
RTVSPost2010Prop53
 90
        2
102
RTVSPost2010PropOp53
 70
     1
102
RTVSPost2010Prop54
  1
strokes_ogs.tif
102
RTVSPost2010PropOp54
 70
     1
102
RTVSPost2010Prop55
280
     0
102
RTVSPost2010PropOp55
 70
     1
102
RTVSPost2010Prop56
140
1.0
102
RTVSPost2010PropOp56
 70
     1
102
RTVSPost2010Prop57
140
1.0
102
RTVSPost2010PropOp57
 70
     1
102
RTVSPropertyOp0
 70
     1
102
RTVSPropertyOp1
 70
     1
102
RTVSPropertyOp2
 70
     1
102
RTVSPropertyOp3
 70
     1
102
RTVSPropertyOp4
 70
     1
102
RTVSPropertyOp5
 70
     1
102
RTVSPropertyOp6
 70
     1
102
RTVSPropertyOp7
 70
     1
102
RTVSPropertyOp8
 70
     1
102
RTVSPropertyOp9
 70
     1
102
RTVSPropertyOp10
 70
     1
102
RTVSPropertyOp11
 70
     1
102
RTVSPropertyOp12
 70
     1
102
RTVSPropertyOp13
 70
     1
102
RTVSPropertyOp14
 70
     1
102
RTVSPropertyOp15
 70
     1
102
RTVSPropertyOp16
 70
     1
102
RTVSPropertyOp17
 70
     1
102
RTVSPropertyOp18
 70
     1
102
RTVSPropertyOp19
 70
     1
102
RTVSPropertyOp20
 70
     1
102
RTVSPropertyOp21
 70
     1
102
RTVSPropertyOp22
 70
     1
102
RTVSPropertyOp23
 70
     1
102
RTVSPropertyOp24
 70
     1
102
RTVSPropertyOp25
 70
     1
102
RTVSPropertyOp26
 70
     1
102
RTVSPropertyOp27
 70
     1
102
RTVSPropertyOp28
 70
     1
102
RTVSPropertyOp29
 70
     1
102
RTVSPropertyOp30
 70
     1
102
RTVSPropertyOp31
 70
     1
102
RTVSPropertyOp32
 70
     1
102
RTVSPropertyOp33
 70
     1
102
RTVSPropertyOp34
 70
     1
102
RTVSPropertyOp35
 70
     1
102
RTVSPropertyOp36
 70
     1
102
RTVSPropertyOp37
 70
     1
102
RTVSPropertyOp38
 70
     1
102
RTVSPropertyOp39
 70
     1
102
RTVSPropertyOp40
 70
     1
102
RTVSPropertyOp41
 70
     1
102
RTVSPropertyOp42
 70
     1
102
RTVSPropertyOp43
 70
     1
102
RTVSPropertyOp44
 70
     1
102
RTVSPropertyOp45
 70
     1
102
RTVSPropertyOp46
 70
     1
102
RTVSPropertyOp47
 70
     1
102
RTVSPropertyOp48
 70
     1
102
RTVSPropertyOp49
 70
     1
102
RTVSPropertyOp50
 70
     1
102
RTVSPropertyOp51
 70
     0
102
RTVSPropertyOp52
 70
     0
102
RTVSPropertyOp53
 70
     1
102
RTVSPropertyOp54
 70
     1
102
RTVSPropertyOp55
 70
     1
102
RTVSPropertyOp56
 70
     1
102
RTVSPropertyOp57
 70
     1
102
RTVSPropertyOp58
 70
     1
102
RTVSPropertyOp59
 70
     1
102
RTVSPropertyOp60
 70
     1
102
RTVSPropertyOp61
 70
     1
102
RTVSPropertyOp62
 70
     1
  0
XRECORD
  5
AC09
102
{ACAD_REACTORS
330
AC08
102
}
330
AC08
100
AcDbXrecord
280
     1
102
RTVSPost2010Prop28
280
     0
102
RTVSPost2010PropOp28
 70
     1
102
RTVSPost2010Prop29
280
     1
102
RTVSPost2010PropOp29
 70
     1
102
RTVSPost2010Prop30
280
     1
102
RTVSPost2010PropOp30
 70
     1
102
RTVSPost2010Prop31
280
     0
102
RTVSPost2010PropOp31
 70
     1
102
RTVSPost2010Prop32
280
     0
102
RTVSPost2010PropOp32
 70
     1
102
RTVSPost2010Prop33
280
     0
102
RTVSPost2010PropOp33
 70
     1
102
RTVSPost2010Prop34
280
     0
102
RTVSPost2010PropOp34
 70
     1
102
RTVSPost2010Prop35
280
     0
102
RTVSPost2010PropOp35
 70
     1
102
RTVSPost2010Prop36
280
     0
102
RTVSPost2010PropOp36
 70
     1
102
RTVSPost2010Prop37
 90
       50
102
RTVSPost2010PropOp37
 70
     1
102
RTVSPost2010Prop38
140
0.0
102
RTVSPost2010PropOp38
 70
     1
102
RTVSPost2010Prop39
140
1.0
102
RTVSPost2010PropOp39
 70
     1
102
RTVSPost2010Prop40
 90
        0
102
RTVSPost2010PropOp40
 70
     1
102
RTVSPost2010Prop41ColorIndex
 90
       18
102
RTVSPost2010Prop41ColorRGB
 90
        0
102
RTVSPost2010PropOp41
 70
     1
102
RTVSPost2010Prop42
 90
       50
102
RTVSPost2010PropOp42
 70
     1
102
RTVSPost2010Prop43
 90
        3
102
RTVSPost2010PropOp43
 70
     1
102
RTVSPost2010Prop44ColorIndex
 90
        5
102
RTVSPost2010Prop44ColorRGB
 90
      255
102
RTVSPost2010PropOp44
 70
     1
102
RTVSPost2010Prop45
280
     0
102
RTVSPost2010PropOp45
 70
     1
102
RTVSPost2010Prop46
 90
       50
102
RTVSPost2010PropOp46
 70
     1
102
RTVSPost2010Prop47
 90
       50
102
RTVSPost2010PropOp47
 70
     1
102
RTVSPost2010Prop48
 90
       50
102
RTVSPost2010PropOp48
 70
     1
102
RTVSPost2010Prop49
280
     0
102
RTVSPost2010PropOp49
 70
     1
102
RTVSPost2010Prop50
 90
       50
102
RTVSPost2010PropOp50
 70
     1
102
RTVSPost2010Prop51ColorIndex
 90
      256
102
RTVSPost2010Prop51ColorRGB
 90
-16777216
102
RTVSPost2010PropOp51
 70
     0
102
RTVSPost2010Prop52
140
1.0
102
RTVSPost2010PropOp52
 70
     0
102
RTVSPost2010Prop53
 90
        2
102
RTVSPost2010PropOp53
 70
     1
102
RTVSPost2010Prop54
  1
strokes_ogs.tif
102
RTVSPost2010PropOp54
 70
     1
102
RTVSPost2010Prop55
280
     0
102
RTVSPost2010PropOp55
 70
     1
102
RTVSPost2010Prop56
140
1.0
102
RTVSPost2010PropOp56
 70
     1
102
RTVSPost2010Prop57
140
1.0
102
RTVSPost2010PropOp57
 70
     1
102
RTVSPropertyOp0
 70
     1
102
RTVSPropertyOp1
 70
     1
102
RTVSPropertyOp2
 70
     1
102
RTVSPropertyOp3
 70
     1
102
RTVSPropertyOp4
 70
     1
102
RTVSPropertyOp5
 70
     1
102
RTVSPropertyOp6
 70
     1
102
RTVSPropertyOp7
 70
     1
102
RTVSPropertyOp8
 70
     1
102
RTVSPropertyOp9
 70
     1
102
RTVSPropertyOp10
 70
     1
102
RTVSPropertyOp11
 70
     1
102
RTVSPropertyOp12
 70
     1
102
RTVSPropertyOp13
 70
     1
102
RTVSPropertyOp14
 70
     1
102
RTVSPropertyOp15
 70
     1
102
RTVSPropertyOp16
 70
     1
102
RTVSPropertyOp17
 70
     1
102
RTVSPropertyOp18
 70
     1
102
RTVSPropertyOp19
 70
     1
102
RTVSPropertyOp20
 70
     1
102
RTVSPropertyOp21
 70
     1
102
RTVSPropertyOp22
 70
     1
102
RTVSPropertyOp23
 70
     1
102
RTVSPropertyOp24
 70
     1
102
RTVSPropertyOp25
 70
     1
102
RTVSPropertyOp26
 70
     1
102
RTVSPropertyOp27
 70
     1
102
RTVSPropertyOp28
 70
     1
102
RTVSPropertyOp29
 70
     1
102
RTVSPropertyOp30
 70
     1
102
RTVSPropertyOp31
 70
     1
102
RTVSPropertyOp32
 70
     1
102
RTVSPropertyOp33
 70
     1
102
RTVSPropertyOp34
 70
     1
102
RTVSPropertyOp35
 70
     1
102
RTVSPropertyOp36
 70
     1
102
RTVSPropertyOp37
 70
     1
102
RTVSPropertyOp38
 70
     1
102
RTVSPropertyOp39
 70
     1
102
RTVSPropertyOp40
 70
     1
102
RTVSPropertyOp41
 70
     1
102
RTVSPropertyOp42
 70
     1
102
RTVSPropertyOp43
 70
     1
102
RTVSPropertyOp44
 70
     1
102
RTVSPropertyOp45
 70
     1
102
RTVSPropertyOp46
 70
     1
102
RTVSPropertyOp47
 70
     1
102
RTVSPropertyOp48
 70
     1
102
RTVSPropertyOp49
 70
     1
102
RTVSPropertyOp50
 70
     1
102
RTVSPropertyOp51
 70
     0
102
RTVSPropertyOp52
 70
     0
102
RTVSPropertyOp53
 70
     1
102
RTVSPropertyOp54
 70
     1
102
RTVSPropertyOp55
 70
     1
102
RTVSPropertyOp56
 70
     1
102
RTVSPropertyOp57
 70
     1
102
RTVSPropertyOp58
 70
     1
102
RTVSPropertyOp59
 70
     1
102
RTVSPropertyOp60
 70
     1
102
RTVSPropertyOp61
 70
     1
102
RTVSPropertyOp62
 70
     1
  0
XRECORD
  5
AC21
102
{ACAD_REACTORS
330
AC20
102
}
330
AC20
100
AcDbXrecord
280
     1
102
RTVSPost2010Prop28
280
     0
102
RTVSPost2010PropOp28
 70
     1
102
RTVSPost2010Prop29
280
     1
102
RTVSPost2010PropOp29
 70
     1
102
RTVSPost2010Prop30
280
     1
102
RTVSPost2010PropOp30
 70
     1
102
RTVSPost2010Prop31
280
     0
102
RTVSPost2010PropOp31
 70
     1
102
RTVSPost2010Prop32
280
     0
102
RTVSPost2010PropOp32
 70
     1
102
RTVSPost2010Prop33
280
     0
102
RTVSPost2010PropOp33
 70
     1
102
RTVSPost2010Prop34
280
     0
102
RTVSPost2010PropOp34
 70
     1
102
RTVSPost2010Prop35
280
     0
102
RTVSPost2010PropOp35
 70
     1
102
RTVSPost2010Prop36
280
     0
102
RTVSPost2010PropOp36
 70
     1
102
RTVSPost2010Prop37
 90
       50
102
RTVSPost2010PropOp37
 70
     1
102
RTVSPost2010Prop38
140
0.0
102
RTVSPost2010PropOp38
 70
     1
102
RTVSPost2010Prop39
140
1.0
102
RTVSPost2010PropOp39
 70
     1
102
RTVSPost2010Prop40
 90
        0
102
RTVSPost2010PropOp40
 70
     1
102
RTVSPost2010Prop41ColorIndex
 90
       18
102
RTVSPost2010Prop41ColorRGB
 90
        0
102
RTVSPost2010PropOp41
 70
     1
102
RTVSPost2010Prop42
 90
       50
102
RTVSPost2010PropOp42
 70
     1
102
RTVSPost2010Prop43
 90
        3
102
RTVSPost2010PropOp43
 70
     1
102
RTVSPost2010Prop44ColorIndex
 90
        5
102
RTVSPost2010Prop44ColorRGB
 90
      255
102
RTVSPost2010PropOp44
 70
     1
102
RTVSPost2010Prop45
280
     0
102
RTVSPost2010PropOp45
 70
     1
102
RTVSPost2010Prop46
 90
       50
102
RTVSPost2010PropOp46
 70
     1
102
RTVSPost2010Prop47
 90
       50
102
RTVSPost2010PropOp47
 70
     1
102
RTVSPost2010Prop48
 90
       50
102
RTVSPost2010PropOp48
 70
     1
102
RTVSPost2010Prop49
280
     0
102
RTVSPost2010PropOp49
 70
     1
102
RTVSPost2010Prop50
 90
       50
102
RTVSPost2010PropOp50
 70
     1
102
RTVSPost2010Prop51ColorIndex
 90
      256
102
RTVSPost2010Prop51ColorRGB
 90
-16777216
102
RTVSPost2010PropOp51
 70
     0
102
RTVSPost2010Prop52
140
1.0
102
RTVSPost2010PropOp52
 70
     0
102
RTVSPost2010Prop53
 90
        2
102
RTVSPost2010PropOp53
 70
     1
102
RTVSPost2010Prop54
  1
strokes_ogs.tif
102
RTVSPost2010PropOp54
 70
     1
102
RTVSPost2010Prop55
280
     0
102
RTVSPost2010PropOp55
 70
     1
102
RTVSPost2010Prop56
140
1.0
102
RTVSPost2010PropOp56
 70
     1
102
RTVSPost2010Prop57
140
1.0
102
RTVSPost2010PropOp57
 70
     1
102
RTVSPropertyOp0
 70
     1
102
RTVSPropertyOp1
 70
     1
102
RTVSPropertyOp2
 70
     1
102
RTVSPropertyOp3
 70
     1
102
RTVSPropertyOp4
 70
     1
102
RTVSPropertyOp5
 70
     1
102
RTVSPropertyOp6
 70
     1
102
RTVSPropertyOp7
 70
     1
102
RTVSPropertyOp8
 70
     1
102
RTVSPropertyOp9
 70
     1
102
RTVSPropertyOp10
 70
     1
102
RTVSPropertyOp11
 70
     1
102
RTVSPropertyOp12
 70
     1
102
RTVSPropertyOp13
 70
     1
102
RTVSPropertyOp14
 70
     1
102
RTVSPropertyOp15
 70
     1
102
RTVSPropertyOp16
 70
     1
102
RTVSPropertyOp17
 70
     1
102
RTVSPropertyOp18
 70
     1
102
RTVSPropertyOp19
 70
     1
102
RTVSPropertyOp20
 70
     1
102
RTVSPropertyOp21
 70
     1
102
RTVSPropertyOp22
 70
     1
102
RTVSPropertyOp23
 70
     1
102
RTVSPropertyOp24
 70
     1
102
RTVSPropertyOp25
 70
     1
102
RTVSPropertyOp26
 70
     1
102
RTVSPropertyOp27
 70
     1
102
RTVSPropertyOp28
 70
     1
102
RTVSPropertyOp29
 70
     1
102
RTVSPropertyOp30
 70
     1
102
RTVSPropertyOp31
 70
     1
102
RTVSPropertyOp32
 70
     1
102
RTVSPropertyOp33
 70
     1
102
RTVSPropertyOp34
 70
     1
102
RTVSPropertyOp35
 70
     1
102
RTVSPropertyOp36
 70
     1
102
RTVSPropertyOp37
 70
     1
102
RTVSPropertyOp38
 70
     1
102
RTVSPropertyOp39
 70
     1
102
RTVSPropertyOp40
 70
     1
102
RTVSPropertyOp41
 70
     1
102
RTVSPropertyOp42
 70
     1
102
RTVSPropertyOp43
 70
     1
102
RTVSPropertyOp44
 70
     1
102
RTVSPropertyOp45
 70
     1
102
RTVSPropertyOp46
 70
     1
102
RTVSPropertyOp47
 70
     1
102
RTVSPropertyOp48
 70
     1
102
RTVSPropertyOp49
 70
     1
102
RTVSPropertyOp50
 70
     1
102
RTVSPropertyOp51
 70
     0
102
RTVSPropertyOp52
 70
     0
102
RTVSPropertyOp53
 70
     1
102
RTVSPropertyOp54
 70
     1
102
RTVSPropertyOp55
 70
     1
102
RTVSPropertyOp56
 70
     1
102
RTVSPropertyOp57
 70
     1
102
RTVSPropertyOp58
 70
     1
102
RTVSPropertyOp59
 70
     1
102
RTVSPropertyOp60
 70
     1
102
RTVSPropertyOp61
 70
     1
102
RTVSPropertyOp62
 70
     1
  0
ENDSEC
  0
EOF
