  0
SECTION
  2
HEADER
  9
$ACADVER
  1
AC1015
  9
$ACADMAINTVER
 70
    20
  9
$DWGCODEPAGE
  3
ANSI_932
  9
$INSBASE
 10
0.0
 20
0.0
 30
0.0
  9
$EXTMIN
 10
10.0
 20
9.999999999999998
 30
0.0
  9
$EXTMAX
 10
369.6256169999998
 20
272.654083
 30
0.0
  9
$LIMMIN
 10
0.0
 20
0.0
  9
$LIMMAX
 10
495.0
 20
341.25
  9
$ORTHOMODE
 70
     1
  9
$REGENMODE
 70
     1
  9
$FILLMODE
 70
     1
  9
$QTEXTMODE
 70
     0
  9
$MIRRTEXT
 70
     1
  9
$LTSCALE
 40
20.0
  9
$ATTMODE
 70
     1
  9
$TEXTSIZE
 40
5.0
  9
$TRACEWID
 40
1.0
  9
$TEXTSTYLE
  7
STANDARD
  9
$CLAYER
  8
0
  9
$CELTYPE
  6
BYLAYER
  9
$CECOLOR
 62
   256
  9
$CELTSCALE
 40
1.0
  9
$DISPSILH
 70
     0
  9
$DIMSCALE
 40
1.0
  9
$DIMASZ
 40
3.0
  9
$DIMEXO
 40
1.0
  9
$DIMDLI
 40
10.0
  9
$DIMRND
 40
0.0
  9
$DIMDLE
 40
0.0
  9
$DIMEXE
 40
1.0
  9
$DIMTP
 40
0.0
  9
$DIMTM
 40
0.0
  9
$DIMTXT
 40
3.2
  9
$DIMCEN
 40
0.0
  9
$DIMTSZ
 40
0.0
  9
$DIMTOL
 70
     0
  9
$DIMLIM
 70
     0
  9
$DIMTIH
 70
     0
  9
$DIMTOH
 70
     0
  9
$DIMSE1
 70
     0
  9
$DIMSE2
 70
     0
  9
$DIMTAD
 70
     3
  9
$DIMZIN
 70
     8
  9
$DIMBLK
  1

  9
$DIMASO
 70
     1
  9
$DIMSHO
 70
     1
  9
$DIMPOST
  1

  9
$DIMAPOST
  1

  9
$DIMALT
 70
     0
  9
$DIMALTD
 70
     2
  9
$DIMALTF
 40
25.4
  9
$DIMLFAC
 40
1.0
  9
$DIMTOFL
 70
     1
  9
$DIMTVP
 40
0.0
  9
$DIMTIX
 70
     0
  9
$DIMSOXD
 70
     0
  9
$DIMSAH
 70
     1
  9
$DIMBLK1
  1
OPEN
  9
$DIMBLK2
  1
OPEN
  9
$DIMSTYLE
  2
STANDARD
  9
$DIMCLRD
 70
     0
  9
$DIMCLRE
 70
     0
  9
$DIMCLRT
 70
     0
  9
$DIMTFAC
 40
1.0
  9
$DIMGAP
 40
1.0
  9
$DIMJUST
 70
     0
  9
$DIMSD1
 70
     0
  9
$DIMSD2
 70
     0
  9
$DIMTOLJ
 70
     1
  9
$DIMTZIN
 70
     0
  9
$DIMALTZ
 70
     0
  9
$DIMALTTZ
 70
     0
  9
$DIMUPT
 70
     0
  9
$DIMDEC
 70
     4
  9
$DIMTDEC
 70
     4
  9
$DIMALTU
 70
     2
  9
$DIMALTTD
 70
     2
  9
$DIMTXSTY
  7
STANDARD
  9
$DIMAUNIT
 70
     0
  9
$DIMADEC
 70
     0
  9
$DIMALTRND
 40
0.0
  9
$DIMAZIN
 70
     0
  9
$DIMDSEP
 70
    46
  9
$DIMATFIT
 70
     3
  9
$DIMFRAC
 70
     0
  9
$DIMLDRBLK
  1
OPEN
  9
$DIMLUNIT
 70
     2
  9
$DIMLWD
 70
    -2
  9
$DIMLWE
 70
    -2
  9
$DIMTMOVE
 70
     0
  9
$LUNITS
 70
     2
  9
$LUPREC
 70
     4
  9
$SKETCHINC
 40
1.0
  9
$FILLETRAD
 40
12.0
  9
$AUNITS
 70
     0
  9
$AUPREC
 70
     2
  9
$MENU
  1
.
  9
$ELEVATION
 40
0.0
  9
$PELEVATION
 40
0.0
  9
$THICKNESS
 40
0.0
  9
$LIMCHECK
 70
     0
  9
$CHAMFERA
 40
10.0
  9
$CHAMFERB
 40
10.0
  9
$CHAMFERC
 40
0.0
  9
$CHAMFERD
 40
0.0
  9
$SKPOLY
 70
     0
  9
$TDCREATE
 40
2451301.401116898
  9
$TDUCREATE
 40
2451301.026116898
  9
$TDUPDATE
 40
2457192.686571528
  9
$TDUUPDATE
 40
2457192.311571528
  9
$TDINDWG
 40
0.0000105671
  9
$TDUSRTIMER
 40
0.0000103819
  9
$USRTIMER
 70
     1
  9
$ANGBASE
 50
0.0
  9
$ANGDIR
 70
     0
  9
$PDMODE
 70
     0
  9
$PDSIZE
 40
0.0
  9
$PLINEWID
 40
0.0
  9
$SPLFRAME
 70
     0
  9
$SPLINETYPE
 70
     6
  9
$SPLINESEGS
 70
     8
  9
$HANDSEED
  5
B4AD
  9
$SURFTAB1
 70
     6
  9
$SURFTAB2
 70
     6
  9
$SURFTYPE
 70
     6
  9
$SURFU
 70
     6
  9
$SURFV
 70
     6
  9
$UCSBASE
  2

  9
$UCSNAME
  2

  9
$UCSORG
 10
0.0
 20
0.0
 30
0.0
  9
$UCSXDIR
 10
1.0
 20
0.0
 30
0.0
  9
$UCSYDIR
 10
0.0
 20
1.0
 30
0.0
  9
$UCSORTHOREF
  2

  9
$UCSORTHOVIEW
 70
     0
  9
$UCSORGTOP
 10
0.0
 20
0.0
 30
0.0
  9
$UCSORGBOTTOM
 10
0.0
 20
0.0
 30
0.0
  9
$UCSORGLEFT
 10
0.0
 20
0.0
 30
0.0
  9
$UCSORGRIGHT
 10
0.0
 20
0.0
 30
0.0
  9
$UCSORGFRONT
 10
0.0
 20
0.0
 30
0.0
  9
$UCSORGBACK
 10
0.0
 20
0.0
 30
0.0
  9
$PUCSBASE
  2

  9
$PUCSNAME
  2

  9
$PUCSORG
 10
0.0
 20
0.0
 30
0.0
  9
$PUCSXDIR
 10
1.0
 20
0.0
 30
0.0
  9
$PUCSYDIR
 10
0.0
 20
1.0
 30
0.0
  9
$PUCSORTHOREF
  2

  9
$PUCSORTHOVIEW
 70
     0
  9
$PUCSORGTOP
 10
0.0
 20
0.0
 30
0.0
  9
$PUCSORGBOTTOM
 10
0.0
 20
0.0
 30
0.0
  9
$PUCSORGLEFT
 10
0.0
 20
0.0
 30
0.0
  9
$PUCSORGRIGHT
 10
0.0
 20
0.0
 30
0.0
  9
$PUCSORGFRONT
 10
0.0
 20
0.0
 30
0.0
  9
$PUCSORGBACK
 10
0.0
 20
0.0
 30
0.0
  9
$USERI1
 70
     0
  9
$USERI2
 70
     0
  9
$USERI3
 70
     0
  9
$USERI4
 70
     0
  9
$USERI5
 70
     0
  9
$USERR1
 40
0.0
  9
$USERR2
 40
0.0
  9
$USERR3
 40
0.0
  9
$USERR4
 40
0.0
  9
$USERR5
 40
0.0
  9
$WORLDVIEW
 70
     1
  9
$SHADEDGE
 70
     3
  9
$SHADEDIF
 70
    70
  9
$TILEMODE
 70
     1
  9
$MAXACTVP
 70
    16
  9
$PINSBASE
 10
0.0
 20
0.0
 30
0.0
  9
$PLIMCHECK
 70
     0
  9
$PEXTMIN
 10
1.000000000000000E+20
 20
1.000000000000000E+20
 30
1.000000000000000E+20
  9
$PEXTMAX
 10
-1.000000000000000E+20
 20
-1.000000000000000E+20
 30
-1.000000000000000E+20
  9
$PLIMMIN
 10
0.0
 20
0.0
  9
$PLIMMAX
 10
420.0
 20
297.0
  9
$UNITMODE
 70
     0
  9
$VISRETAIN
 70
     0
  9
$PLINEGEN
 70
     0
  9
$PSLTSCALE
 70
     0
  9
$TREEDEPTH
 70
  3020
  9
$CMLSTYLE
  2
STANDARD
  9
$CMLJUST
 70
     0
  9
$CMLSCALE
 40
1.0
  9
$PROXYGRAPHICS
 70
     1
  9
$MEASUREMENT
 70
     0
  9
$CELWEIGHT
370
    -1
  9
$ENDCAPS
280
     0
  9
$JOINSTYLE
280
     0
  9
$LWDISPLAY
290
     0
  9
$INSUNITS
 70
     0
  9
$HYPERLINKBASE
  1

  9
$STYLESHEET
  1

  9
$XEDIT
290
     1
  9
$CEPSNTYPE
380
     0
  9
$PSTYLEMODE
290
     1
  9
$FINGERPRINTGUID
  2
{6BBF8D3E-0D05-43E1-A050-E4FE61CA604D}
  9
$VERSIONGUID
  2
{2E46838C-059B-4FAC-B81C-8FA6D9D13644}
  9
$EXTNAMES
290
     1
  9
$PSVPSCALE
 40
0.0
  9
$OLESTARTUP
290
     0
  0
ENDSEC
  0
SECTION
  2
CLASSES
  0
CLASS
  1
ACDBDICTIONARYWDFLT
  2
AcDbDictionaryWithDefault
  3
ObjectDBX Classes
 90
        0
280
     0
281
     0
  0
CLASS
  1
ACDBPLACEHOLDER
  2
AcDbPlaceHolder
  3
ObjectDBX Classes
 90
        0
280
     0
281
     0
  0
CLASS
  1
LAYOUT
  2
AcDbLayout
  3
ObjectDBX Classes
 90
        0
280
     0
281
     0
  0
CLASS
  1
DICTIONARYVAR
  2
AcDbDictionaryVar
  3
ObjectDBX Classes
 90
        0
280
     0
281
     0
  0
CLASS
  1
MATERIAL
  2
AcDbMaterial
  3
ObjectDBX Classes
 90
     1153
280
     0
281
     0
  0
CLASS
  1
VISUALSTYLE
  2
AcDbVisualStyle
  3
ObjectDBX Classes
 90
     4095
280
     0
281
     0
  0
CLASS
  1
TABLESTYLE
  2
AcDbTableStyle
  3
ObjectDBX Classes
 90
     4095
280
     0
281
     0
  0
CLASS
  1
SCALE
  2
AcDbScale
  3
ObjectDBX Classes
 90
     1153
280
     0
281
     0
  0
CLASS
  1
MLEADERSTYLE
  2
AcDbMLeaderStyle
  3
ACDB_MLEADERSTYLE_CLASS
 90
     4095
280
     0
281
     0
  0
CLASS
  1
ACDBSECTIONVIEWSTYLE
  2
AcDbSectionViewStyle
  3
ObjectDBX Classes
 90
     1025
280
     0
281
     0
  0
CLASS
  1
ACDBDETAILVIEWSTYLE
  2
AcDbDetailViewStyle
  3
ObjectDBX Classes
 90
     1025
280
     0
281
     0
  0
CLASS
  1
CELLSTYLEMAP
  2
AcDbCellStyleMap
  3
ObjectDBX Classes
 90
     1152
280
     0
281
     0
  0
ENDSEC
  0
SECTION
  2
TABLES
  0
TABLE
  2
VPORT
  5
B163
330
0
100
AcDbSymbolTable
 70
     1
  0
VPORT
  5
B3F6
330
B163
100
AcDbSymbolTableRecord
100
AcDbViewportTableRecord
  2
*ACTIVE
 70
     0
 10
0.0
 20
0.0
 11
1.0
 21
1.0
 12
269.3712685864137
 22
141.3222606633757
 13
0.0
 23
0.0
 14
10.0
 24
10.0
 15
10.0
 25
10.0
 16
0.0
 26
0.0
 36
1.0
 17
0.0
 27
0.0
 37
0.0
 40
265.572664263215
 41
2.35006605019815
 42
50.0
 43
0.0
 44
0.0
 50
0.0
 51
0.0
 71
     0
 72
   100
 73
     1
 74
     0
 75
     0
 76
     0
 77
     0
 78
     0
281
     0
 65
     1
110
0.0
120
0.0
130
0.0
111
1.0
121
0.0
131
0.0
112
0.0
122
1.0
132
0.0
 79
     0
146
0.0
1001
ACAD_NAV_VCDISPLAY
1070
     3
  0
ENDTAB
  0
TABLE
  2
LTYPE
  5
B160
330
0
100
AcDbSymbolTable
 70
     4
  0
LTYPE
  5
B16E
330
B160
100
AcDbSymbolTableRecord
100
AcDbLinetypeTableRecord
  2
BYBLOCK
 70
     0
  3

 72
    65
 73
     0
 40
0.0
  0
LTYPE
  5
B16F
330
B160
100
AcDbSymbolTableRecord
100
AcDbLinetypeTableRecord
  2
BYLAYER
 70
     0
  3

 72
    65
 73
     0
 40
0.0
  0
LTYPE
  5
B170
330
B160
100
AcDbSymbolTableRecord
100
AcDbLinetypeTableRecord
  2
CONTINUOUS
 70
     0
  3
Solid line
 72
    65
 73
     0
 40
0.0
  0
LTYPE
  5
B17E
330
B160
100
AcDbSymbolTableRecord
100
AcDbLinetypeTableRecord
  2
DASHED
 70
     0
  3
__ __ __ __ __ __ __ __ __ __ __ __ __ __ __ __
 72
    65
 73
     2
 40
0.75
 49
0.5
 74
     0
 49
-0.25
 74
     0
  0
LTYPE
  5
B17F
330
B160
100
AcDbSymbolTableRecord
100
AcDbLinetypeTableRecord
  2
CENTER
 70
     0
  3
____ _ ____ _ ____ _ ____ _ ____ _ ____ _ ____ 
 72
    65
 73
     4
 40
2.0
 49
1.25
 74
     0
 49
-0.25
 74
     0
 49
0.25
 74
     0
 49
-0.25
 74
     0
  0
LTYPE
  5
B180
330
B160
100
AcDbSymbolTableRecord
100
AcDbLinetypeTableRecord
  2
PHANTOM
 70
     0
  3
______  __  __  ______  __  __  ______  __  __ 
 72
    65
 73
     6
 40
2.5
 49
1.25
 74
     0
 49
-0.25
 74
     0
 49
0.25
 74
     0
 49
-0.25
 74
     0
 49
0.25
 74
     0
 49
-0.25
 74
     0
  0
ENDTAB
  0
TABLE
  2
LAYER
  5
B15D
330
0
100
AcDbSymbolTable
 70
     8
  0
LAYER
  5
B16B
102
{ACAD_XDICTIONARY
360
B451
102
}
330
B15D
100
AcDbSymbolTableRecord
100
AcDbLayerTableRecord
  2
0
 70
     0
 62
     7
  6
CONTINUOUS
370
    -3
390
B3FF
  0
LAYER
  5
B181
102
{ACAD_XDICTIONARY
360
B453
102
}
330
B15D
100
AcDbSymbolTableRecord
100
AcDbLayerTableRecord
  2
4
 70
     0
 62
     1
  6
CENTER
370
    -3
390
B3FF
  0
LAYER
  5
B182
102
{ACAD_XDICTIONARY
360
B455
102
}
330
B15D
100
AcDbSymbolTableRecord
100
AcDbLayerTableRecord
  2
5
 70
     0
 62
     6
  6
PHANTOM
370
    -3
390
B3FF
  0
LAYER
  5
B183
102
{ACAD_XDICTIONARY
360
B457
102
}
330
B15D
100
AcDbSymbolTableRecord
100
AcDbLayerTableRecord
  2
1
 70
     0
 62
     7
  6
CONTINUOUS
370
    -3
390
B3FF
  0
LAYER
  5
B184
102
{ACAD_XDICTIONARY
360
B459
102
}
330
B15D
100
AcDbSymbolTableRecord
100
AcDbLayerTableRecord
  2
2
 70
     0
 62
     4
  6
CONTINUOUS
370
    -3
390
B3FF
  0
LAYER
  5
B185
102
{ACAD_XDICTIONARY
360
B45B
102
}
330
B15D
100
AcDbSymbolTableRecord
100
AcDbLayerTableRecord
  2
3
 70
     0
 62
     2
  6
DASHED
370
    -3
390
B3FF
  0
LAYER
  5
B186
102
{ACAD_XDICTIONARY
360
B45D
102
}
330
B15D
100
AcDbSymbolTableRecord
100
AcDbLayerTableRecord
  2
6
 70
     0
 62
     5
  6
CONTINUOUS
370
    -3
390
B3FF
  0
LAYER
  5
B187
102
{ACAD_XDICTIONARY
360
B45F
102
}
330
B15D
100
AcDbSymbolTableRecord
100
AcDbLayerTableRecord
  2
7
 70
     0
 62
     3
  6
CONTINUOUS
370
    -3
390
B3FF
  0
ENDTAB
  0
TABLE
  2
STYLE
  5
B15E
330
0
100
AcDbSymbolTable
 70
     1
  0
STYLE
  5
B16C
330
B15E
100
AcDbSymbolTableRecord
100
AcDbTextStyleTableRecord
  2
STANDARD
 70
     0
 40
0.0
 41
1.0
 50
0.0
 71
     0
 42
5.0
  3
txt
  4

  0
ENDTAB
  0
TABLE
  2
VIEW
  5
B161
330
0
100
AcDbSymbolTable
 70
     0
  0
ENDTAB
  0
TABLE
  2
UCS
  5
B162
330
0
100
AcDbSymbolTable
 70
     0
  0
ENDTAB
  0
TABLE
  2
APPID
  5
B164
330
0
100
AcDbSymbolTable
 70
     3
  0
APPID
  5
B16D
330
B164
100
AcDbSymbolTableRecord
100
AcDbRegAppTableRecord
  2
ACAD
 70
     0
  0
APPID
  5
B46B
330
B164
100
AcDbSymbolTableRecord
100
AcDbRegAppTableRecord
  2
ACAD_NAV_VCDISPLAY
 70
     0
  0
APPID
  5
B4A4
330
B164
100
AcDbSymbolTableRecord
100
AcDbRegAppTableRecord
  2
ACAD_MLEADERVER
 70
     0
  0
ENDTAB
  0
TABLE
  2
DIMSTYLE
  5
B165
330
0
100
AcDbSymbolTable
 70
     1
100
AcDbDimStyleTable
 71
     0
  0
DIMSTYLE
105
B189
330
B165
100
AcDbSymbolTableRecord
100
AcDbDimStyleTableRecord
  2
STANDARD
 70
     0
 41
3.0
 42
1.0
 43
10.0
 44
1.0
 73
     0
 74
     0
 77
     3
 78
     8
140
3.2
141
0.0
147
1.0
172
     1
173
     1
284
     8
285
     8
286
     8
340
B16C
  0
ENDTAB
  0
TABLE
  2
BLOCK_RECORD
  5
B15C
330
0
100
AcDbSymbolTable
 70
     1
  0
BLOCK_RECORD
  5
B179
102
{ACAD_XDICTIONARY
360
B3F9
102
}
330
B15C
100
AcDbSymbolTableRecord
100
AcDbBlockTableRecord
  2
*MODEL_SPACE
340
B44D
  0
BLOCK_RECORD
  5
B175
102
{ACAD_XDICTIONARY
360
B3F7
102
}
330
B15C
100
AcDbSymbolTableRecord
100
AcDbBlockTableRecord
  2
*PAPER_SPACE
340
B44E
  0
BLOCK_RECORD
  5
B191
330
B15C
100
AcDbSymbolTableRecord
100
AcDbBlockTableRecord
  2
_OPEN
340
0
  0
ENDTAB
  0
ENDSEC
  0
SECTION
  2
BLOCKS
  0
BLOCK
  5
B17A
330
B179
100
AcDbEntity
  8
0
100
AcDbBlockBegin
  2
*MODEL_SPACE
 70
     0
 10
0.0
 20
0.0
 30
0.0
  3
*MODEL_SPACE
  1

  0
ENDBLK
  5
B17B
330
B179
100
AcDbEntity
  8
0
100
AcDbBlockEnd
  0
BLOCK
  5
B176
330
B175
100
AcDbEntity
 67
     1
  8
0
100
AcDbBlockBegin
  2
*PAPER_SPACE
 70
     0
 10
0.0
 20
0.0
 30
0.0
  3
*PAPER_SPACE
  1

  0
ENDBLK
  5
B177
330
B175
100
AcDbEntity
 67
     1
  8
0
100
AcDbBlockEnd
  0
BLOCK
  5
B192
330
B191
100
AcDbEntity
  8
0
100
AcDbBlockBegin
  2
_OPEN
 70
     0
 10
0.0
 20
0.0
 30
0.0
  3
_OPEN
  1

  0
LINE
  5
B193
330
B191
100
AcDbEntity
  8
0
  6
ByBlock
 62
     0
100
AcDbLine
 10
-1.0
 20
0.166667
 30
0.0
 11
0.0
 21
0.0
 31
0.0
  0
LINE
  5
B194
330
B191
100
AcDbEntity
  8
0
  6
ByBlock
 62
     0
100
AcDbLine
 10
0.0
 20
0.0
 30
0.0
 11
-1.0
 21
-0.166667
 31
0.0
  0
LINE
  5
B195
330
B191
100
AcDbEntity
  8
0
  6
ByBlock
 62
     0
100
AcDbLine
 10
0.0
 20
0.0
 30
0.0
 11
-1.0
 21
0.0
 31
0.0
  0
ENDBLK
  5
B196
330
B191
100
AcDbEntity
  8
0
100
AcDbBlockEnd
  0
ENDSEC
  0
SECTION
  2
ENTITIES
  0
TEXT
  5
B197
330
B179
100
AcDbEntity
  8
7
  6
Continuous
100
AcDbText
 10
10.0
 20
18.0
 30
0.0
 40
3.0
  1
TYPE No.104
100
AcDbText
  0
TEXT
  5
B198
330
B179
100
AcDbEntity
  8
7
  6
Continuous
100
AcDbText
 10
10.0
 20
26.0
 30
0.0
 40
3.0
  1
CODE No.9004
100
AcDbText
  0
TEXT
  5
B199
330
B179
100
AcDbEntity
  8
1
  6
Continuous
100
AcDbText
 10
10.0
 20
10.0
 30
0.0
 40
1.399999999999999
  1
LAYER
100
AcDbText
  0
TEXT
  5
B19A
330
B179
100
AcDbEntity
  8
1
  6
Continuous
100
AcDbText
 10
17.97951099999998
 20
10.04873699999998
 30
0.0
 40
1.399999999999999
  1
1
100
AcDbText
  0
TEXT
  5
B19B
330
B179
100
AcDbEntity
  8
7
  6
Continuous
100
AcDbText
 10
29.97951099999999
 20
10.04873699999998
 30
0.0
 40
1.399999999999999
  1
7
100
AcDbText
  0
TEXT
  5
B19C
330
B179
100
AcDbEntity
  8
4
  6
CENTER
100
AcDbText
 10
23.97951099999999
 20
10.04873699999998
 30
0.0
 40
1.399999999999999
  1
4
100
AcDbText
  0
TEXT
  5
B19D
330
B179
100
AcDbEntity
  8
3
  6
DASHED
100
AcDbText
 10
21.979511
 20
10.04873699999998
 30
0.0
 40
1.399999999999999
  1
3
100
AcDbText
  0
TEXT
  5
B19E
330
B179
100
AcDbEntity
  8
2
  6
Continuous
100
AcDbText
 10
19.97951099999999
 20
10.04873699999998
 30
0.0
 40
1.399999999999999
  1
2
100
AcDbText
  0
TEXT
  5
B19F
330
B179
100
AcDbEntity
  8
6
  6
Continuous
100
AcDbText
 10
27.979511
 20
10.04873699999998
 30
0.0
 40
1.399999999999999
  1
6
100
AcDbText
  0
TEXT
  5
B1A0
330
B179
100
AcDbEntity
  8
5
  6
PHANTOM
100
AcDbText
 10
25.97951099999999
 20
10.04873699999998
 30
0.0
 40
1.399999999999999
  1
5
100
AcDbText
  0
LINE
  5
B1A1
330
B179
100
AcDbEntity
  8
4
  6
CENTER
100
AcDbLine
 10
214.273585
 20
148.369317
 30
0.0
 11
257.7601399999999
 21
148.369317
 31
0.0
  0
LINE
  5
B1A2
330
B179
100
AcDbEntity
  8
4
  6
CENTER
100
AcDbLine
 10
129.408073
 20
120.3698759999999
 30
0.0
 11
129.408073
 21
176.369876
 31
0.0
  0
LINE
  5
B1A3
330
B179
100
AcDbEntity
  8
4
  6
CENTER
100
AcDbLine
 10
101.408073
 20
148.369876
 30
0.0
 11
157.408073
 21
148.369876
 31
0.0
  0
LINE
  5
B1A4
330
B179
100
AcDbEntity
  8
4
  6
CENTER
100
AcDbLine
 10
149.4081879999999
 20
164.545231
 30
0.0
 11
149.4081879999999
 21
194.9908529999999
 31
0.0
  0
LINE
  5
B1A5
330
B179
100
AcDbEntity
  8
4
  6
CENTER
100
AcDbLine
 10
183.908626
 20
246.654083
 30
0.0
 11
99.41836700000001
 21
246.654083
 31
0.0
  0
LINE
  5
B1A6
330
B179
100
AcDbEntity
  8
1
  6
Continuous
100
AcDbLine
 10
121.908626
 20
225.654083
 30
0.0
 11
176.9086259999999
 21
225.654083
 31
0.0
  0
LINE
  5
B1A7
330
B179
100
AcDbEntity
  8
1
  6
Continuous
100
AcDbLine
 10
121.908626
 20
267.6540829999999
 30
0.0
 11
176.9086259999999
 21
267.6540829999999
 31
0.0
  0
LINE
  5
B1A8
330
B179
100
AcDbEntity
  8
4
  6
CENTER
100
AcDbLine
 10
149.4086259999999
 20
272.654083
 30
0.0
 11
149.4086259999999
 21
220.522338
 31
0.0
  0
LINE
  5
B1A9
330
B179
100
AcDbEntity
  8
1
  6
Continuous
100
AcDbLine
 10
119.4086259999999
 20
265.154083
 30
0.0
 11
119.4086259999999
 21
228.154083
 31
0.0
  0
CIRCLE
  5
B1AA
330
B179
100
AcDbEntity
  8
1
  6
Continuous
100
AcDbCircle
 10
149.4086259999999
 20
246.654083
 30
0.0
 40
8.5
  0
LINE
  5
B1AB
330
B179
100
AcDbEntity
  8
4
  6
CENTER
100
AcDbLine
 10
132.1586259999999
 20
232.1540829999999
 30
0.0
 11
119.6586259999999
 21
232.1540829999999
 31
0.0
  0
CIRCLE
  5
B1AC
330
B179
100
AcDbEntity
  8
1
  6
Continuous
100
AcDbCircle
 10
125.9086259999999
 20
232.1540829999999
 30
0.0
 40
3.25
  0
LINE
  5
B1AD
330
B179
100
AcDbEntity
  8
4
  6
CENTER
100
AcDbLine
 10
125.9086259999999
 20
238.4040829999999
 30
0.0
 11
125.9086259999999
 21
225.9040829999999
 31
0.0
  0
ARC
  5
B1AE
330
B179
100
AcDbEntity
  8
1
  6
Continuous
100
AcDbCircle
 10
121.908626
 20
228.154083
 30
0.0
 40
2.5
100
AcDbArc
 50
180.0
 51
270.0
  0
LINE
  5
B1AF
330
B179
100
AcDbEntity
  8
4
  6
CENTER
100
AcDbLine
 10
132.1586259999999
 20
261.154083
 30
0.0
 11
119.6586259999999
 21
261.154083
 31
0.0
  0
CIRCLE
  5
B1B0
330
B179
100
AcDbEntity
  8
1
  6
Continuous
100
AcDbCircle
 10
125.9086259999999
 20
261.154083
 30
0.0
 40
3.25
  0
LINE
  5
B1B1
330
B179
100
AcDbEntity
  8
4
  6
CENTER
100
AcDbLine
 10
125.9086259999999
 20
254.904083
 30
0.0
 11
125.9086259999999
 21
267.404083
 31
0.0
  0
ARC
  5
B1B2
330
B179
100
AcDbEntity
  8
1
  6
Continuous
100
AcDbCircle
 10
121.908626
 20
265.154083
 30
0.0
 40
2.5
100
AcDbArc
 50
90.0
 51
180.0
  0
LINE
  5
B1B3
330
B179
100
AcDbEntity
  8
4
  6
CENTER
100
AcDbLine
 10
179.158626
 20
232.1540829999999
 30
0.0
 11
166.658626
 21
232.1540829999999
 31
0.0
  0
LINE
  5
B1B4
330
B179
100
AcDbEntity
  8
4
  6
CENTER
100
AcDbLine
 10
172.908626
 20
238.4040829999999
 30
0.0
 11
172.908626
 21
225.9040829999999
 31
0.0
  0
CIRCLE
  5
B1B5
330
B179
100
AcDbEntity
  8
1
  6
Continuous
100
AcDbCircle
 10
172.908626
 20
232.1540829999999
 30
0.0
 40
3.25
  0
ARC
  5
B1B6
330
B179
100
AcDbEntity
  8
1
  6
Continuous
100
AcDbCircle
 10
176.9086259999999
 20
228.154083
 30
0.0
 40
2.5
100
AcDbArc
 50
270.0
 51
0.0
  0
LINE
  5
B1B7
330
B179
100
AcDbEntity
  8
4
  6
CENTER
100
AcDbLine
 10
172.908626
 20
254.904083
 30
0.0
 11
172.908626
 21
267.404083
 31
0.0
  0
ARC
  5
B1B8
330
B179
100
AcDbEntity
  8
1
  6
Continuous
100
AcDbCircle
 10
176.9086259999999
 20
265.154083
 30
0.0
 40
2.5
100
AcDbArc
 50
0.0
 51
90.0
  0
LINE
  5
B1B9
330
B179
100
AcDbEntity
  8
4
  6
CENTER
100
AcDbLine
 10
179.158626
 20
261.154083
 30
0.0
 11
166.658626
 21
261.154083
 31
0.0
  0
CIRCLE
  5
B1BA
330
B179
100
AcDbEntity
  8
1
  6
Continuous
100
AcDbCircle
 10
172.908626
 20
261.154083
 30
0.0
 40
3.25
  0
LINE
  5
B1BB
330
B179
100
AcDbEntity
  8
1
  6
Continuous
100
AcDbLine
 10
179.408626
 20
265.154083
 30
0.0
 11
179.408626
 21
228.154083
 31
0.0
  0
LINE
  5
B1BC
330
B179
100
AcDbEntity
  8
4
  6
CENTER
100
AcDbLine
 10
235.5168449999999
 20
194.9908529999999
 30
0.0
 11
235.5168449999999
 21
118.3693169999999
 31
0.0
  0
LINE
  5
B1BD
330
B179
100
AcDbEntity
  8
1
  6
Continuous
100
AcDbLine
 10
254.5168449999999
 20
179.471458
 30
0.0
 11
254.5168449999999
 21
157.6942949999998
 31
0.0
  0
LINE
  5
B1BE
330
B179
100
AcDbEntity
  8
1
  6
Continuous
100
AcDbLine
 10
222.777577
 20
145.369317
 30
0.0
 11
224.016845
 21
145.369317
 31
0.0
  0
LINE
  5
B1BF
330
B179
100
AcDbEntity
  8
1
  6
Continuous
100
AcDbLine
 10
222.7650619999999
 20
151.3693169999999
 30
0.0
 11
224.016845
 21
151.3693169999999
 31
0.0
  0
LINE
  5
B1C0
330
B179
100
AcDbEntity
  8
1
  6
Continuous
100
AcDbLine
 10
222.1195209999999
 20
175.7677069999998
 30
0.0
 11
248.9141689999999
 21
175.7677069999998
 31
0.0
  0
LINE
  5
B1C1
330
B179
100
AcDbEntity
  8
1
  6
Continuous
100
AcDbLine
 10
217.0168449999999
 20
182.471527
 30
0.0
 11
254.0168449999999
 21
182.471312
 31
0.0
  0
ARC
  5
B1C2
330
B179
100
AcDbEntity
  8
1
  6
Continuous
100
AcDbCircle
 10
219.516845
 20
179.471458
 30
0.0
 40
3.0
100
AcDbArc
 50
90.0
 51
180.0
  0
ARC
  5
B1C3
330
B179
100
AcDbEntity
  8
1
  6
Continuous
100
AcDbCircle
 10
239.257325
 20
166.1760909999999
 30
0.0
 40
13.262575
100
AcDbArc
 50
4.189117999999997
 51
46.32007700000001
  0
ARC
  5
B1C4
330
B179
100
AcDbEntity
  8
1
  6
Continuous
100
AcDbCircle
 10
240.398089
 20
166.259645
 30
0.0
 40
14.11875499999999
100
AcDbArc
 50
0.0
 51
33.136856
  0
ARC
  5
B1C5
330
B179
100
AcDbEntity
  8
1
  6
Continuous
100
AcDbCircle
 10
240.398089
 20
166.259645
 30
0.0
 40
12.118755
100
AcDbArc
 50
3.236625
 51
4.189117999999997
  0
ARC
  5
B1C6
330
B179
100
AcDbEntity
  8
1
  6
Continuous
100
AcDbCircle
 10
248.9141689999999
 20
171.8190169999998
 30
0.0
 40
3.94869
100
AcDbArc
 50
33.136856
 51
90.0
  0
ARC
  5
B1C7
330
B179
100
AcDbEntity
  8
1
  6
Continuous
100
AcDbCircle
 10
251.5168449999999
 20
179.471458
 30
0.0
 40
3.0
100
AcDbArc
 50
0.0
 51
90.0
  0
LINE
  5
B1C8
330
B179
100
AcDbEntity
  8
1
  6
Continuous
100
AcDbLine
 10
179.408188
 20
188.369573
 30
0.0
 11
119.4081879999999
 21
188.369573
 31
0.0
  0
LINE
  5
B1C9
330
B179
100
AcDbEntity
  8
1
  6
Continuous
100
AcDbLine
 10
179.408188
 20
190.369876
 30
0.0
 11
119.4081879999999
 21
190.369876
 31
0.0
  0
LINE
  5
B1CA
330
B179
100
AcDbEntity
  8
1
  6
Continuous
100
AcDbLine
 10
165.977136
 20
182.498601
 30
0.0
 11
133.1581879999999
 21
182.498601
 31
0.0
  0
ARC
  5
B1CB
330
B179
100
AcDbEntity
  8
1
  6
Continuous
100
AcDbCircle
 10
86.23925600000005
 20
212.636803
 30
0.0
 40
81.299728
100
AcDbArc
 50
325.0367509999999
 51
326.0955629999999
  0
ARC
  5
B1CC
330
B179
100
AcDbEntity
  8
1
  6
Continuous
100
AcDbCircle
 10
158.8771219999999
 20
199.8073149999999
 30
0.0
 40
25.564794
100
AcDbArc
 50
277.268991
 51
287.097823
  0
ARC
  5
B1CD
330
B179
100
AcDbEntity
  8
1
  6
Continuous
100
AcDbCircle
 10
166.121929
 20
147.5912319999999
 30
0.0
 40
27.174347
100
AcDbArc
 50
99.24101300000003
 51
101.2621379999999
  0
ARC
  5
B1CE
330
B179
100
AcDbEntity
  8
1
  6
Continuous
100
AcDbCircle
 10
161.3085289999999
 20
180.7453689999999
 30
0.0
 40
6.348405999999997
100
AcDbArc
 50
274.060533
 51
277.268991
  0
ARC
  5
B1CF
330
B179
100
AcDbEntity
  8
1
  6
Continuous
100
AcDbCircle
 10
176.1203489999998
 20
152.2291109999999
 30
0.0
 40
26.994778
100
AcDbArc
 50
137.7128429999999
 51
146.0955629999999
  0
ARC
  5
B1D0
330
B179
100
AcDbEntity
  8
1
  6
Continuous
100
AcDbCircle
 10
112.6187849999999
 20
209.985074
 30
0.0
 40
58.84344099999999
100
AcDbArc
 50
317.712843
 51
320.298966
  0
ARC
  5
B1D1
330
B179
100
AcDbEntity
  8
1
  6
Continuous
100
AcDbCircle
 10
164.236996
 20
165.997031
 30
0.0
 40
9.035839999999996
100
AcDbArc
 50
119.5473379999999
 51
131.621551
  0
ARC
  5
B1D2
330
B179
100
AcDbEntity
  8
1
  6
Continuous
100
AcDbCircle
 10
161.492693
 20
170.838233
 30
0.0
 40
3.470911
100
AcDbArc
 50
101.2621379999999
 51
119.5473379999999
  0
ARC
  5
B1D3
330
B179
100
AcDbEntity
  8
1
  6
Continuous
100
AcDbCircle
 10
160.401972
 20
170.313251
 30
0.0
 40
3.262005999999998
100
AcDbArc
 50
131.621551
 51
140.2989659999998
  0
ARC
  5
B1D4
330
B179
100
AcDbEntity
  8
1
  6
Continuous
100
AcDbCircle
 10
163.1690709999998
 20
179.01377
 30
0.0
 40
4.757115999999999
100
AcDbArc
 50
16.00725999999999
 51
38.156408
  0
ARC
  5
B1D5
330
B179
100
AcDbEntity
  8
1
  6
Continuous
100
AcDbCircle
 10
166.509469
 20
175.8890879999999
 30
0.0
 40
0.529613
100
AcDbArc
 50
257.3263379999999
 51
291.788685
  0
ARC
  5
B1D6
330
B179
100
AcDbEntity
  8
1
  6
Continuous
100
AcDbCircle
 10
167.0381159999998
 20
185.499407
 30
0.0
 40
10.10755199999998
100
AcDbArc
 50
268.1173269999998
 51
270.623572
  0
LINE
  5
B1D7
330
B179
100
AcDbEntity
  8
1
  6
Continuous
100
AcDbLine
 10
167.206219
 20
175.3819969999999
 30
0.0
 11
167.148119
 21
175.3924529999999
 31
0.0
  0
ARC
  5
B1D8
330
B179
100
AcDbEntity
  8
1
  6
Continuous
100
AcDbCircle
 10
175.0779459999999
 20
178.5241919999999
 30
0.0
 40
6.985907
100
AcDbArc
 50
178.5787389999999
 51
186.9819969999998
  0
ARC
  5
B1D9
330
B179
100
AcDbEntity
  8
1
  6
Continuous
100
AcDbCircle
 10
163.301721
 20
178.4759019999999
 30
0.0
 40
4.797585999999999
100
AcDbArc
 50
2.646974999999998
 51
17.117355
  0
ARC
  5
B1DA
330
B179
100
AcDbEntity
  8
1
  6
Continuous
100
AcDbCircle
 10
157.549482
 20
176.704375
 30
0.0
 40
10.81643699999998
100
AcDbArc
 50
17.117355
 51
19.559647
  0
ARC
  5
B1DB
330
B179
100
AcDbEntity
  8
1
  6
Continuous
100
AcDbCircle
 10
165.337872
 20
180.3367859999999
 30
0.0
 40
2.254351999999999
100
AcDbArc
 50
45.79309799999999
 51
73.52670899999998
  0
LINE
  5
B1DC
330
B179
100
AcDbEntity
  8
1
  6
Continuous
100
AcDbLine
 10
134.864046
 20
178.2874209999999
 30
0.0
 11
134.864046
 21
149.0709879999998
 31
0.0
  0
CIRCLE
  5
B1DD
330
B179
100
AcDbEntity
  8
1
  6
Continuous
100
AcDbCircle
 10
129.408073
 20
148.369876
 30
0.0
 40
4.25
  0
ARC
  5
B1DE
330
B179
100
AcDbEntity
  8
1
  6
Continuous
100
AcDbCircle
 10
130.257608
 20
147.3515769999998
 30
0.0
 40
8.139077
100
AcDbArc
 50
172.1743569999999
 51
327.525749
  0
ARC
  5
B1DF
330
B179
100
AcDbEntity
  8
1
  6
Continuous
100
AcDbCircle
 10
141.173177
 20
174.2241459999999
 30
0.0
 40
14.267886
100
AcDbArc
 50
314.297457
 51
325.0367509999999
  0
ARC
  5
B1E0
330
B179
100
AcDbEntity
  8
1
  6
Continuous
100
AcDbCircle
 10
154.0360189999999
 20
161.041931
 30
0.0
 40
4.150134999999997
100
AcDbArc
 50
134.297457
 51
146.0310519999999
  0
LINE
  5
B1E1
330
B179
100
AcDbEntity
  8
1
  6
Continuous
100
AcDbLine
 10
128.275711
 20
179.6524039999999
 30
0.0
 11
134.8762309999999
 21
179.6524039999999
 31
0.0
  0
ARC
  5
B1E2
330
B179
100
AcDbEntity
  8
1
  6
Continuous
100
AcDbCircle
 10
128.275711
 20
185.919971
 30
0.0
 40
6.267566999999997
100
AcDbArc
 50
267.0048919999999
 51
274.398035
  0
ARC
  5
B1E3
330
B179
100
AcDbEntity
  8
1
  6
Continuous
100
AcDbCircle
 10
133.756876
 20
178.155862
 30
0.0
 40
4.359511999999998
100
AcDbArc
 50
95.027632
 51
153.6752799999999
  0
ARC
  5
B1E4
330
B179
100
AcDbEntity
  8
1
  6
Continuous
100
AcDbCircle
 10
129.485943
 20
180.1001079999998
 30
0.0
 40
0.409037
100
AcDbArc
 50
274.019213
 51
314.03143
  0
ARC
  5
B1E5
330
B179
100
AcDbEntity
  8
1
  6
Continuous
100
AcDbCircle
 10
128.884097
 20
188.665634
 30
0.0
 40
8.995680999999997
100
AcDbArc
 50
269.1862479999999
 51
274.019213
  0
ARC
  5
B1E6
330
B179
100
AcDbEntity
  8
1
  6
Continuous
100
AcDbCircle
 10
129.600515
 20
179.9815949999999
 30
0.0
 40
0.2441969999999999
100
AcDbArc
 50
314.03143
 51
351.316759
  0
ARC
  5
B1E7
330
B179
100
AcDbEntity
  8
1
  6
Continuous
100
AcDbCircle
 10
129.1209529999999
 20
180.0548349999999
 30
0.0
 40
0.72932
100
AcDbArc
 50
351.316759
 51
2.694649
  0
ARC
  5
B1E8
330
B179
100
AcDbEntity
  8
1
  6
Continuous
100
AcDbCircle
 10
123.287655
 20
178.2456399999999
 30
0.0
 40
1.132387999999999
100
AcDbArc
 50
350.4059339999998
 51
9.422450999999998
  0
ARC
  5
B1E9
330
B179
100
AcDbEntity
  8
1
  6
Continuous
100
AcDbCircle
 10
124.828965
 20
177.963741
 30
0.0
 40
0.434857
100
AcDbArc
 50
167.628646
 51
207.2064849999999
  0
ARC
  5
B1EA
330
B179
100
AcDbEntity
  8
1
  6
Continuous
100
AcDbCircle
 10
69.608378
 20
180.630882
 30
0.0
 40
54.840528
100
AcDbArc
 50
357.7010379999999
 51
358.7006819999999
  0
ARC
  5
B1EB
330
B179
100
AcDbEntity
  8
1
  6
Continuous
100
AcDbCircle
 10
124.743789
 20
178.329744
 30
0.0
 40
0.640285
100
AcDbArc
 50
241.9011839999999
 51
272.3403379999999
  0
ARC
  5
B1EC
330
B179
100
AcDbEntity
  8
1
  6
Continuous
100
AcDbCircle
 10
125.0337429999998
 20
178.744698
 30
0.0
 40
0.9207059999999998
100
AcDbArc
 50
103.0833209999999
 51
126.033477
  0
ARC
  5
B1ED
330
B179
100
AcDbEntity
  8
1
  6
Continuous
100
AcDbCircle
 10
124.5747229999999
 20
179.3757089999998
 30
0.0
 40
0.140401
100
AcDbArc
 50
126.033477
 51
175.244581
  0
ARC
  5
B1EE
330
B179
100
AcDbEntity
  8
1
  6
Continuous
100
AcDbCircle
 10
125.275484
 20
177.704509
 30
0.0
 40
1.988615
100
AcDbArc
 50
88.74659499999998
 51
103.0833209999999
  0
ARC
  5
B1EF
330
B179
100
AcDbEntity
  8
1
  6
Continuous
100
AcDbCircle
 10
126.964977
 20
160.868749
 30
0.0
 40
18.81792199999998
100
AcDbArc
 50
87.00489199999998
 51
90.39154600000001
  0
ARC
  5
B1F0
330
B179
100
AcDbEntity
  8
1
  6
Continuous
100
AcDbCircle
 10
126.3676889999999
 20
248.2698109999998
 30
0.0
 40
68.58518100000001
100
AcDbArc
 50
269.1238819999999
 51
270.391546
  0
ARC
  5
B1F1
330
B179
100
AcDbEntity
  8
1
  6
Continuous
100
AcDbCircle
 10
231.7763649999999
 20
166.1760909999999
 30
0.0
 40
13.262575
100
AcDbArc
 50
133.679923
 51
177.089232
  0
ARC
  5
B1F2
330
B179
100
AcDbEntity
  8
1
  6
Continuous
100
AcDbCircle
 10
222.1195209999999
 20
171.8190169999998
 30
0.0
 40
3.94869
100
AcDbArc
 50
90.0
 51
146.863144
  0
ARC
  5
B1F3
330
B179
100
AcDbEntity
  8
1
  6
Continuous
100
AcDbCircle
 10
230.635601
 20
166.259645
 30
0.0
 40
14.11875499999999
100
AcDbArc
 50
146.863144
 51
180.0
  0
ARC
  5
B1F4
330
B179
100
AcDbEntity
  8
1
  6
Continuous
100
AcDbCircle
 10
297.4320859999999
 20
162.4823079999999
 30
0.0
 40
79.02195899999998
100
AcDbArc
 50
176.7633749999999
 51
183.473732
  0
LINE
  5
B1F5
330
B179
100
AcDbEntity
  8
1
  6
Continuous
100
AcDbLine
 10
216.5168449999999
 20
179.471458
 30
0.0
 11
216.5168449999999
 21
157.6942949999998
 31
0.0
  0
LINE
  5
B1F6
330
B179
100
AcDbEntity
  8
1
  6
Continuous
100
AcDbLine
 10
220.793099
 20
139.2125
 30
0.0
 11
222.616845
 21
139.2125
 31
0.0
  0
ARC
  5
B1F7
330
B179
100
AcDbEntity
  8
1
  6
Continuous
100
AcDbCircle
 10
126.486768
 20
489.3778189999999
 30
0.0
 40
311.6925539999999
100
AcDbArc
 50
269.6734769999998
 51
270.0096049999999
  0
CIRCLE
  5
B1F8
330
B179
100
AcDbEntity
  8
1
  6
Continuous
100
AcDbCircle
 10
149.4086259999999
 20
246.654083
 30
0.0
 40
15.25
  0
CIRCLE
  5
B1F9
330
B179
100
AcDbEntity
  8
1
  6
Continuous
100
AcDbCircle
 10
149.4086259999999
 20
246.654083
 30
0.0
 40
16.89999999999999
  0
LINE
  5
B1FA
330
B179
100
AcDbEntity
  8
4
  6
CENTER
100
AcDbLine
 10
125.9081879999999
 20
183.369573
 30
0.0
 11
125.9081879999999
 21
194.9908529999999
 31
0.0
  0
LINE
  5
B1FB
330
B179
100
AcDbEntity
  8
4
  6
CENTER
100
AcDbLine
 10
172.908188
 20
183.369573
 30
0.0
 11
172.908188
 21
194.9908529999999
 31
0.0
  0
LINE
  5
B1FC
330
B179
100
AcDbEntity
  8
1
  6
Continuous
100
AcDbLine
 10
119.4081879999999
 20
188.369573
 30
0.0
 11
119.4081879999999
 21
190.369876
 31
0.0
  0
LINE
  5
B1FD
330
B179
100
AcDbEntity
  8
1
  6
Continuous
100
AcDbLine
 10
179.408188
 20
188.369573
 30
0.0
 11
179.408188
 21
190.369876
 31
0.0
  0
LINE
  5
B1FE
330
B179
100
AcDbEntity
  8
1
  6
Continuous
100
AcDbLine
 10
247.016845
 20
151.3693169999999
 30
0.0
 11
248.2677269999999
 21
151.3693169999999
 31
0.0
  0
LINE
  5
B1FF
330
B179
100
AcDbEntity
  8
1
  6
Continuous
100
AcDbLine
 10
247.016845
 20
145.369317
 30
0.0
 11
248.255212
 21
145.369317
 31
0.0
  0
LINE
  5
B200
330
B179
100
AcDbEntity
  8
1
  6
Continuous
100
AcDbLine
 10
126.83638
 20
179.6862319999999
 30
0.0
 11
122.182483
 21
148.369876
 31
0.0
  0
LINE
  5
B201
330
B179
100
AcDbEntity
  8
1
  6
Continuous
100
AcDbLine
 10
150.5941439999998
 20
163.360793
 30
0.0
 11
137.124
 21
142.98154
 31
0.0
  0
ARC
  5
B202
330
B179
100
AcDbEntity
  8
1
  6
Continuous
100
AcDbCircle
 10
57.762867
 20
148.38967
 30
0.0
 40
6.779940999999999
100
AcDbArc
 50
321.02474
 51
38.73053499999999
  0
ARC
  5
B203
330
B179
100
AcDbEntity
  8
1
  6
Continuous
100
AcDbCircle
 10
37.827067
 20
148.375191
 30
0.0
 40
6.770832999999998
100
AcDbArc
 50
141.11993
 51
218.8800699999999
  0
LINE
  5
B204
330
B179
100
AcDbEntity
  8
1
  6
Continuous
100
AcDbLine
 10
32.55623400000001
 20
152.625191
 30
0.0
 11
32.55623400000001
 21
144.125191
 31
0.0
  0
ARC
  5
B205
330
B179
100
AcDbEntity
  8
1
  6
Continuous
100
AcDbCircle
 10
50.227455
 20
157.7001689999999
 30
0.0
 40
17.07205599999999
100
AcDbArc
 50
326.9847009999998
 51
0.0
  0
LINE
  5
B206
330
B179
100
AcDbEntity
  8
1
  6
Continuous
100
AcDbLine
 10
63.105595
 20
178.1810189999999
 30
0.0
 11
63.02324399999999
 21
139.2125
 31
0.0
  0
LINE
  5
B207
330
B179
100
AcDbEntity
  8
1
  6
Continuous
100
AcDbLine
 10
61.101434
 20
176.213919
 30
0.0
 11
61.023239
 21
139.2125
 31
0.0
  0
ARC
  5
B208
330
B179
100
AcDbEntity
  8
1
  6
Continuous
100
AcDbCircle
 10
46.371567
 20
157.7001689999999
 30
0.0
 40
17.07205599999999
100
AcDbArc
 50
180.0
 51
207.4135329999998
  0
LINE
  5
B209
330
B179
100
AcDbEntity
  8
1
  6
Continuous
100
AcDbLine
 10
33.49342699999999
 20
178.1810189999999
 30
0.0
 11
33.575778
 21
139.2125
 31
0.0
  0
LINE
  5
B20A
330
B179
100
AcDbEntity
  8
1
  6
Continuous
100
AcDbLine
 10
35.497588
 20
176.213919
 30
0.0
 11
35.575783
 21
139.2125
 31
0.0
  0
LINE
  5
B20B
330
B179
100
AcDbEntity
  8
4
  6
CENTER
100
AcDbLine
 10
26.056234
 20
148.375191
 30
0.0
 11
69.542799
 21
148.375191
 31
0.0
  0
LINE
  5
B20C
330
B179
100
AcDbEntity
  8
1
  6
Continuous
100
AcDbLine
 10
32.55623400000001
 20
144.125191
 30
0.0
 11
33.56530999999999
 21
144.125191
 31
0.0
  0
LINE
  5
B20D
330
B179
100
AcDbEntity
  8
1
  6
Continuous
100
AcDbLine
 10
35.56264500000001
 20
145.375191
 30
0.0
 11
36.79951099999998
 21
145.375191
 31
0.0
  0
LINE
  5
B20E
330
B179
100
AcDbEntity
  8
1
  6
Continuous
100
AcDbLine
 10
35.54983099999999
 20
151.375191
 30
0.0
 11
36.79951099999998
 21
151.375191
 31
0.0
  0
LINE
  5
B20F
330
B179
100
AcDbEntity
  8
1
  6
Continuous
100
AcDbLine
 10
59.799511
 20
145.375191
 30
0.0
 11
61.036377
 21
145.375191
 31
0.0
  0
LINE
  5
B210
330
B179
100
AcDbEntity
  8
1
  6
Continuous
100
AcDbLine
 10
59.799511
 20
151.375191
 30
0.0
 11
61.049191
 21
151.375191
 31
0.0
  0
ARC
  5
B211
330
B179
100
AcDbEntity
  8
1
  6
Continuous
100
AcDbCircle
 10
73.804074
 20
142.884994
 30
0.0
 40
10.77298599999999
100
AcDbArc
 50
147.8553939999999
 51
149.280112
  0
LINE
  5
B212
330
B179
100
AcDbEntity
  8
1
  6
Continuous
100
AcDbLine
 10
34.986252
 20
184.0850069999999
 30
0.0
 11
36.986252
 21
182.4717729999999
 31
0.0
  0
LINE
  5
B213
330
B179
100
AcDbEntity
  8
1
  6
Continuous
100
AcDbLine
 10
37.57203899999999
 20
184.0850069999999
 30
0.0
 11
35.57203899999999
 21
182.4717729999999
 31
0.0
  0
LINE
  5
B214
330
B179
100
AcDbEntity
  8
1
  6
Continuous
100
AcDbLine
 10
30.57502899999999
 20
186.048113
 30
0.0
 11
66.02489300000001
 21
186.048113
 31
0.0
  0
LINE
  5
B215
330
B179
100
AcDbEntity
  8
1
  6
Continuous
100
AcDbLine
 10
29.799961
 20
184.0850069999999
 30
0.0
 11
66.799961
 21
184.0850069999999
 31
0.0
  0
LINE
  5
B216
330
B179
100
AcDbEntity
  8
1
  6
Continuous
100
AcDbLine
 10
66.799961
 20
182.4717729999999
 30
0.0
 11
29.799961
 21
182.4717729999999
 31
0.0
  0
LINE
  5
B217
330
B179
100
AcDbEntity
  8
1
  6
Continuous
100
AcDbLine
 10
30.368731
 20
186.35962
 30
0.0
 11
66.060535
 21
186.35962
 31
0.0
  0
LINE
  5
B218
330
B179
100
AcDbEntity
  8
1
  6
Continuous
100
AcDbLine
 10
27.299961
 20
188.375175
 30
0.0
 11
69.299961
 21
188.375175
 31
0.0
  0
LINE
  5
B219
330
B179
100
AcDbEntity
  8
1
  6
Continuous
100
AcDbLine
 10
27.299961
 20
190.3751749999999
 30
0.0
 11
69.299961
 21
190.3751749999999
 31
0.0
  0
LINE
  5
B21A
330
B179
100
AcDbEntity
  8
1
  6
Continuous
100
AcDbLine
 10
34.99342399999999
 20
179.684189
 30
0.0
 11
61.605598
 21
179.684189
 31
0.0
  0
LINE
  5
B21B
330
B179
100
AcDbEntity
  8
1
  6
Continuous
100
AcDbLine
 10
29.299511
 20
179.972115
 30
0.0
 11
29.299511
 21
157.7001689999999
 31
0.0
  0
LINE
  5
B21C
330
B179
100
AcDbEntity
  8
1
  6
Continuous
100
AcDbLine
 10
32.55623400000001
 20
152.625191
 30
0.0
 11
33.54715699999999
 21
152.625191
 31
0.0
  0
ARC
  5
B21D
330
B179
100
AcDbEntity
  8
1
  6
Continuous
100
AcDbCircle
 10
30.53938699999999
 20
189.9706199999999
 30
0.0
 40
3.611
100
AcDbArc
 50
206.220637
 51
270.0
  0
ARC
  5
B21E
330
B179
100
AcDbEntity
  8
1
  6
Continuous
100
AcDbCircle
 10
31.799511
 20
179.972115
 30
0.0
 40
2.5
100
AcDbArc
 50
90.0
 51
180.0
  0
LINE
  5
B21F
330
B179
100
AcDbEntity
  8
1
  6
Continuous
100
AcDbLine
 10
32.157825
 20
184.0850069999999
 30
0.0
 11
34.15782500000001
 21
182.4717729999999
 31
0.0
  0
LINE
  5
B220
330
B179
100
AcDbEntity
  8
1
  6
Continuous
100
AcDbLine
 10
33.329398
 20
184.0850069999999
 30
0.0
 11
31.32939799999999
 21
182.4717729999999
 31
0.0
  0
LINE
  5
B221
330
B179
100
AcDbEntity
  8
1
  6
Continuous
100
AcDbLine
 10
34.743612
 20
184.0850069999999
 30
0.0
 11
32.74361199999999
 21
182.4717729999999
 31
0.0
  0
LINE
  5
B222
330
B179
100
AcDbEntity
  8
1
  6
Continuous
100
AcDbLine
 10
29.799961
 20
183.6144439999999
 30
0.0
 11
31.32939799999999
 21
182.4717729999999
 31
0.0
  0
LINE
  5
B223
330
B179
100
AcDbEntity
  8
1
  6
Continuous
100
AcDbLine
 10
29.799961
 20
183.3839969999999
 30
0.0
 11
30.500971
 21
184.0850069999999
 31
0.0
  0
LINE
  5
B224
330
B179
100
AcDbEntity
  8
1
  6
Continuous
100
AcDbLine
 10
31.91518499999999
 20
184.0850069999999
 30
0.0
 11
29.91518499999999
 21
182.4717729999999
 31
0.0
  0
LINE
  5
B225
330
B179
100
AcDbEntity
  8
1
  6
Continuous
100
AcDbLine
 10
29.799961
 20
184.0850069999999
 30
0.0
 11
29.799961
 21
182.4717729999999
 31
0.0
  0
ARC
  5
B226
330
B179
100
AcDbEntity
  8
1
  6
Continuous
100
AcDbCircle
 10
30.754292
 20
185.2310759999998
 30
0.0
 40
0.8364709999999998
100
AcDbArc
 50
102.3749159999999
 51
160.6585409999999
  0
ARC
  5
B227
330
B179
100
AcDbEntity
  8
1
  6
Continuous
100
AcDbCircle
 10
36.21173499999999
 20
186.936358
 30
0.0
 40
6.407901999999999
100
AcDbArc
 50
192.8787169999999
 51
206.4216889999999
  0
LINE
  5
B228
330
B179
100
AcDbEntity
  8
1
  6
Continuous
100
AcDbLine
 10
36.157825
 20
184.0850069999999
 30
0.0
 11
34.15782500000001
 21
182.4717729999999
 31
0.0
  0
LINE
  5
B229
330
B179
100
AcDbEntity
  8
1
  6
Continuous
100
AcDbLine
 10
27.299961
 20
188.375175
 30
0.0
 11
27.299961
 21
190.3751749999999
 31
0.0
  0
LINE
  5
B22A
330
B179
100
AcDbEntity
  8
1
  6
Continuous
100
AcDbLine
 10
67.299511
 20
179.972115
 30
0.0
 11
67.299511
 21
157.7001689999999
 31
0.0
  0
LINE
  5
B22B
330
B179
100
AcDbEntity
  8
1
  6
Continuous
100
AcDbLine
 10
51.956815
 20
184.0850069999999
 30
0.0
 11
53.956815
 21
182.4717729999999
 31
0.0
  0
LINE
  5
B22C
330
B179
100
AcDbEntity
  8
1
  6
Continuous
100
AcDbLine
 10
54.542602
 20
184.0850069999999
 30
0.0
 11
52.542602
 21
182.4717729999999
 31
0.0
  0
LINE
  5
B22D
330
B179
100
AcDbEntity
  8
1
  6
Continuous
100
AcDbLine
 10
43.47153399999998
 20
184.0850069999999
 30
0.0
 11
45.471534
 21
182.4717729999999
 31
0.0
  0
LINE
  5
B22E
330
B179
100
AcDbEntity
  8
1
  6
Continuous
100
AcDbLine
 10
46.05731999999998
 20
184.0850069999999
 30
0.0
 11
44.05731999999999
 21
182.4717729999999
 31
0.0
  0
LINE
  5
B22F
330
B179
100
AcDbEntity
  8
1
  6
Continuous
100
AcDbLine
 10
37.146993
 20
179.812332
 30
0.0
 11
59.452029
 21
179.812332
 31
0.0
  0
LINE
  5
B230
330
B179
100
AcDbEntity
  8
1
  6
Continuous
100
AcDbLine
 10
40.643107
 20
184.0850069999999
 30
0.0
 11
42.643107
 21
182.4717729999999
 31
0.0
  0
LINE
  5
B231
330
B179
100
AcDbEntity
  8
1
  6
Continuous
100
AcDbLine
 10
41.81467999999997
 20
184.0850069999999
 30
0.0
 11
39.81467999999999
 21
182.4717729999999
 31
0.0
  0
LINE
  5
B232
330
B179
100
AcDbEntity
  8
1
  6
Continuous
100
AcDbLine
 10
37.81467999999998
 20
184.0850069999999
 30
0.0
 11
39.81467999999999
 21
182.4717729999999
 31
0.0
  0
LINE
  5
B233
330
B179
100
AcDbEntity
  8
1
  6
Continuous
100
AcDbLine
 10
38.986252
 20
184.0850069999999
 30
0.0
 11
36.986252
 21
182.4717729999999
 31
0.0
  0
LINE
  5
B234
330
B179
100
AcDbEntity
  8
1
  6
Continuous
100
AcDbLine
 10
40.40046599999999
 20
184.0850069999999
 30
0.0
 11
38.40046599999999
 21
182.4717729999999
 31
0.0
  0
LINE
  5
B235
330
B179
100
AcDbEntity
  8
1
  6
Continuous
100
AcDbLine
 10
43.22889299999999
 20
184.0850069999999
 30
0.0
 11
41.22889299999999
 21
182.4717729999999
 31
0.0
  0
LINE
  5
B236
330
B179
100
AcDbEntity
  8
1
  6
Continuous
100
AcDbLine
 10
44.643107
 20
184.0850069999999
 30
0.0
 11
42.643107
 21
182.4717729999999
 31
0.0
  0
LINE
  5
B237
330
B179
100
AcDbEntity
  8
1
  6
Continuous
100
AcDbLine
 10
49.128388
 20
184.0850069999999
 30
0.0
 11
51.128388
 21
182.4717729999999
 31
0.0
  0
LINE
  5
B238
330
B179
100
AcDbEntity
  8
1
  6
Continuous
100
AcDbLine
 10
50.29996099999999
 20
184.0850069999999
 30
0.0
 11
48.29996099999998
 21
182.4717729999999
 31
0.0
  0
LINE
  5
B239
330
B179
100
AcDbEntity
  8
1
  6
Continuous
100
AcDbLine
 10
46.29996099999998
 20
184.0850069999999
 30
0.0
 11
48.29996099999998
 21
182.4717729999999
 31
0.0
  0
LINE
  5
B23A
330
B179
100
AcDbEntity
  8
1
  6
Continuous
100
AcDbLine
 10
47.47153400000001
 20
184.0850069999999
 30
0.0
 11
45.471534
 21
182.4717729999999
 31
0.0
  0
LINE
  5
B23B
330
B179
100
AcDbEntity
  8
1
  6
Continuous
100
AcDbLine
 10
48.88574699999999
 20
184.0850069999999
 30
0.0
 11
46.88574699999999
 21
182.4717729999999
 31
0.0
  0
LINE
  5
B23C
330
B179
100
AcDbEntity
  8
1
  6
Continuous
100
AcDbLine
 10
53.128388
 20
184.0850069999999
 30
0.0
 11
51.128388
 21
182.4717729999999
 31
0.0
  0
LINE
  5
B23D
330
B179
100
AcDbEntity
  8
1
  6
Continuous
100
AcDbLine
 10
51.714175
 20
184.0850069999999
 30
0.0
 11
49.714175
 21
182.4717729999999
 31
0.0
  0
ARC
  5
B23E
330
B179
100
AcDbEntity
  8
1
  6
Continuous
100
AcDbCircle
 10
66.060535
 20
189.9706199999999
 30
0.0
 40
3.611
100
AcDbArc
 50
270.0
 51
333.779363
  0
LINE
  5
B23F
330
B179
100
AcDbEntity
  8
1
  6
Continuous
100
AcDbLine
 10
60.44209699999999
 20
184.0850069999999
 30
0.0
 11
62.44209699999998
 21
182.4717729999999
 31
0.0
  0
LINE
  5
B240
330
B179
100
AcDbEntity
  8
1
  6
Continuous
100
AcDbLine
 10
63.02788299999999
 20
184.0850069999999
 30
0.0
 11
61.027883
 21
182.4717729999999
 31
0.0
  0
LINE
  5
B241
330
B179
100
AcDbEntity
  8
1
  6
Continuous
100
AcDbLine
 10
61.61366899999999
 20
184.0850069999999
 30
0.0
 11
59.61366899999998
 21
182.4717729999999
 31
0.0
  0
LINE
  5
B242
330
B179
100
AcDbEntity
  8
1
  6
Continuous
100
AcDbLine
 10
58.78524200000001
 20
184.0850069999999
 30
0.0
 11
56.785242
 21
182.4717729999999
 31
0.0
  0
LINE
  5
B243
330
B179
100
AcDbEntity
  8
1
  6
Continuous
100
AcDbLine
 10
54.78524199999998
 20
184.0850069999999
 30
0.0
 11
56.785242
 21
182.4717729999999
 31
0.0
  0
LINE
  5
B244
330
B179
100
AcDbEntity
  8
1
  6
Continuous
100
AcDbLine
 10
57.371029
 20
184.0850069999999
 30
0.0
 11
55.371029
 21
182.4717729999999
 31
0.0
  0
LINE
  5
B245
330
B179
100
AcDbEntity
  8
1
  6
Continuous
100
AcDbLine
 10
55.956815
 20
184.0850069999999
 30
0.0
 11
53.956815
 21
182.4717729999999
 31
0.0
  0
LINE
  5
B246
330
B179
100
AcDbEntity
  8
1
  6
Continuous
100
AcDbLine
 10
57.61366899999998
 20
184.0850069999999
 30
0.0
 11
59.61366899999998
 21
182.4717729999999
 31
0.0
  0
LINE
  5
B247
330
B179
100
AcDbEntity
  8
1
  6
Continuous
100
AcDbLine
 10
60.19945599999999
 20
184.0850069999999
 30
0.0
 11
58.199456
 21
182.4717729999999
 31
0.0
  0
ARC
  5
B248
330
B179
100
AcDbEntity
  8
1
  6
Continuous
100
AcDbCircle
 10
64.799511
 20
179.972115
 30
0.0
 40
2.5
100
AcDbArc
 50
0.0
 51
90.0
  0
LINE
  5
B249
330
B179
100
AcDbEntity
  8
1
  6
Continuous
100
AcDbLine
 10
66.799961
 20
183.6144439999999
 30
0.0
 11
65.27052399999999
 21
182.4717729999999
 31
0.0
  0
LINE
  5
B24A
330
B179
100
AcDbEntity
  8
1
  6
Continuous
100
AcDbLine
 10
65.85630999999999
 20
184.0850069999999
 30
0.0
 11
63.85631
 21
182.4717729999999
 31
0.0
  0
LINE
  5
B24B
330
B179
100
AcDbEntity
  8
1
  6
Continuous
100
AcDbLine
 10
63.270524
 20
184.0850069999999
 30
0.0
 11
65.27052399999999
 21
182.4717729999999
 31
0.0
  0
LINE
  5
B24C
330
B179
100
AcDbEntity
  8
1
  6
Continuous
100
AcDbLine
 10
64.442097
 20
184.0850069999999
 30
0.0
 11
62.44209699999998
 21
182.4717729999999
 31
0.0
  0
LINE
  5
B24D
330
B179
100
AcDbEntity
  8
1
  6
Continuous
100
AcDbLine
 10
66.098951
 20
184.0850069999999
 30
0.0
 11
66.799961
 21
183.3839969999999
 31
0.0
  0
LINE
  5
B24E
330
B179
100
AcDbEntity
  8
1
  6
Continuous
100
AcDbLine
 10
66.799961
 20
182.586996
 30
0.0
 11
66.68473699999998
 21
182.4717729999999
 31
0.0
  0
LINE
  5
B24F
330
B179
100
AcDbEntity
  8
1
  6
Continuous
100
AcDbLine
 10
66.799961
 20
184.0850069999999
 30
0.0
 11
66.799961
 21
182.4717729999999
 31
0.0
  0
ARC
  5
B250
330
B179
100
AcDbEntity
  8
1
  6
Continuous
100
AcDbCircle
 10
65.84563
 20
185.2310759999998
 30
0.0
 40
0.8364709999999998
100
AcDbArc
 50
19.341459
 51
77.625084
  0
ARC
  5
B251
330
B179
100
AcDbEntity
  8
1
  6
Continuous
100
AcDbCircle
 10
60.388187
 20
186.936358
 30
0.0
 40
6.407901999999999
100
AcDbArc
 50
334.3555600000001
 51
347.121283
  0
LINE
  5
B252
330
B179
100
AcDbEntity
  8
1
  6
Continuous
100
AcDbLine
 10
69.299961
 20
190.3751749999999
 30
0.0
 11
69.299961
 21
188.375175
 31
0.0
  0
LINE
  5
B253
330
B179
100
AcDbEntity
  8
4
  6
CENTER
100
AcDbLine
 10
48.29951099999998
 20
195.375175
 30
0.0
 11
48.29951099999998
 21
118.3751909999999
 31
0.0
  0
LINE
  5
B254
330
B179
100
AcDbEntity
  8
1
  6
Continuous
100
AcDbLine
 10
225.031564
 20
184.084653
 30
0.0
 11
227.031564
 21
182.47142
 31
0.0
  0
LINE
  5
B255
330
B179
100
AcDbEntity
  8
1
  6
Continuous
100
AcDbLine
 10
226.2031359999999
 20
184.084653
 30
0.0
 11
224.2031359999999
 21
182.47142
 31
0.0
  0
LINE
  5
B256
330
B179
100
AcDbEntity
  8
1
  6
Continuous
100
AcDbLine
 10
227.61735
 20
184.084653
 30
0.0
 11
225.61735
 21
182.47142
 31
0.0
  0
LINE
  5
B257
330
B179
100
AcDbEntity
  8
1
  6
Continuous
100
AcDbLine
 10
217.5856149999999
 20
186.3592659999999
 30
0.0
 11
253.277419
 21
186.3592659999999
 31
0.0
  0
LINE
  5
B258
330
B179
100
AcDbEntity
  8
1
  6
Continuous
100
AcDbLine
 10
214.5168449999999
 20
190.374821
 30
0.0
 11
256.5168449999999
 21
190.374821
 31
0.0
  0
LINE
  5
B259
330
B179
100
AcDbEntity
  8
1
  6
Continuous
100
AcDbLine
 10
214.5168449999999
 20
188.374821
 30
0.0
 11
256.5168449999999
 21
188.374821
 31
0.0
  0
LINE
  5
B25A
330
B179
100
AcDbEntity
  8
1
  6
Continuous
100
AcDbLine
 10
217.0168449999999
 20
184.084653
 30
0.0
 11
254.0168449999999
 21
184.084653
 31
0.0
  0
LINE
  5
B25B
330
B179
100
AcDbEntity
  8
1
  6
Continuous
100
AcDbLine
 10
217.7919129999999
 20
186.047759
 30
0.0
 11
253.241777
 21
186.047759
 31
0.0
  0
LINE
  5
B25C
330
B179
100
AcDbEntity
  8
1
  6
Continuous
100
AcDbLine
 10
222.2031359999999
 20
184.084653
 30
0.0
 11
224.2031359999999
 21
182.47142
 31
0.0
  0
LINE
  5
B25D
330
B179
100
AcDbEntity
  8
1
  6
Continuous
100
AcDbLine
 10
223.374709
 20
184.084653
 30
0.0
 11
221.374709
 21
182.47142
 31
0.0
  0
LINE
  5
B25E
330
B179
100
AcDbEntity
  8
1
  6
Continuous
100
AcDbLine
 10
219.374709
 20
184.084653
 30
0.0
 11
221.374709
 21
182.47142
 31
0.0
  0
LINE
  5
B25F
330
B179
100
AcDbEntity
  8
1
  6
Continuous
100
AcDbLine
 10
220.546282
 20
184.084653
 30
0.0
 11
218.546282
 21
182.47142
 31
0.0
  0
LINE
  5
B260
330
B179
100
AcDbEntity
  8
1
  6
Continuous
100
AcDbLine
 10
221.960496
 20
184.084653
 30
0.0
 11
219.960496
 21
182.47142
 31
0.0
  0
LINE
  5
B261
330
B179
100
AcDbEntity
  8
1
  6
Continuous
100
AcDbLine
 10
217.0168449999999
 20
183.61409
 30
0.0
 11
218.546282
 21
182.47142
 31
0.0
  0
LINE
  5
B262
330
B179
100
AcDbEntity
  8
1
  6
Continuous
100
AcDbLine
 10
219.1320689999999
 20
184.084653
 30
0.0
 11
217.1320689999999
 21
182.47142
 31
0.0
  0
LINE
  5
B263
330
B179
100
AcDbEntity
  8
1
  6
Continuous
100
AcDbLine
 10
217.0168449999999
 20
184.084653
 30
0.0
 11
217.0168449999999
 21
182.471527
 31
0.0
  0
LINE
  5
B264
330
B179
100
AcDbEntity
  8
1
  6
Continuous
100
AcDbLine
 10
214.5168449999999
 20
188.374821
 30
0.0
 11
214.5168449999999
 21
190.374821
 31
0.0
  0
ARC
  5
B265
330
B179
100
AcDbEntity
  8
1
  6
Continuous
100
AcDbCircle
 10
223.428619
 20
186.936004
 30
0.0
 40
6.407901999999999
100
AcDbArc
 50
192.8787169999999
 51
206.4216889999999
  0
ARC
  5
B266
330
B179
100
AcDbEntity
  8
1
  6
Continuous
100
AcDbCircle
 10
217.9711759999999
 20
185.2307219999999
 30
0.0
 40
0.8364709999999998
100
AcDbArc
 50
102.3749159999999
 51
160.6585409999999
  0
LINE
  5
B267
330
B179
100
AcDbEntity
  8
1
  6
Continuous
100
AcDbLine
 10
217.0168449999999
 20
183.383643
 30
0.0
 11
217.7178549999999
 21
184.084653
 31
0.0
  0
ARC
  5
B268
330
B179
100
AcDbEntity
  8
1
  6
Continuous
100
AcDbCircle
 10
217.756271
 20
189.9702659999999
 30
0.0
 40
3.611
100
AcDbArc
 50
206.220637
 51
270.0
  0
LINE
  5
B269
330
B179
100
AcDbEntity
  8
1
  6
Continuous
100
AcDbLine
 10
224.788923
 20
184.084653
 30
0.0
 11
222.788923
 21
182.47142
 31
0.0
  0
LINE
  5
B26A
330
B179
100
AcDbEntity
  8
1
  6
Continuous
100
AcDbLine
 10
243.173699
 20
184.084653
 30
0.0
 11
241.173699
 21
182.47142
 31
0.0
  0
LINE
  5
B26B
330
B179
100
AcDbEntity
  8
1
  6
Continuous
100
AcDbLine
 10
236.345272
 20
184.084653
 30
0.0
 11
238.345272
 21
182.47142
 31
0.0
  0
LINE
  5
B26C
330
B179
100
AcDbEntity
  8
1
  6
Continuous
100
AcDbLine
 10
238.931059
 20
184.084653
 30
0.0
 11
236.9310589999999
 21
182.47142
 31
0.0
  0
LINE
  5
B26D
330
B179
100
AcDbEntity
  8
1
  6
Continuous
100
AcDbLine
 10
230.688418
 20
184.084653
 30
0.0
 11
232.6884179999999
 21
182.47142
 31
0.0
  0
LINE
  5
B26E
330
B179
100
AcDbEntity
  8
1
  6
Continuous
100
AcDbLine
 10
233.2742039999998
 20
184.084653
 30
0.0
 11
231.2742039999999
 21
182.47142
 31
0.0
  0
LINE
  5
B26F
330
B179
100
AcDbEntity
  8
1
  6
Continuous
100
AcDbLine
 10
231.859991
 20
184.084653
 30
0.0
 11
229.859991
 21
182.47142
 31
0.0
  0
LINE
  5
B270
330
B179
100
AcDbEntity
  8
1
  6
Continuous
100
AcDbLine
 10
237.5168449999999
 20
184.084653
 30
0.0
 11
235.5168449999999
 21
182.47142
 31
0.0
  0
LINE
  5
B271
330
B179
100
AcDbEntity
  8
1
  6
Continuous
100
AcDbLine
 10
233.5168449999999
 20
184.084653
 30
0.0
 11
235.5168449999999
 21
182.47142
 31
0.0
  0
LINE
  5
B272
330
B179
100
AcDbEntity
  8
1
  6
Continuous
100
AcDbLine
 10
234.6884179999999
 20
184.084653
 30
0.0
 11
232.6884179999999
 21
182.47142
 31
0.0
  0
LINE
  5
B273
330
B179
100
AcDbEntity
  8
1
  6
Continuous
100
AcDbLine
 10
236.102631
 20
184.084653
 30
0.0
 11
234.102631
 21
182.47142
 31
0.0
  0
LINE
  5
B274
330
B179
100
AcDbEntity
  8
1
  6
Continuous
100
AcDbLine
 10
239.173699
 20
184.084653
 30
0.0
 11
241.173699
 21
182.47142
 31
0.0
  0
LINE
  5
B275
330
B179
100
AcDbEntity
  8
1
  6
Continuous
100
AcDbLine
 10
241.7594859999999
 20
184.084653
 30
0.0
 11
239.7594859999999
 21
182.47142
 31
0.0
  0
LINE
  5
B276
330
B179
100
AcDbEntity
  8
1
  6
Continuous
100
AcDbLine
 10
240.345272
 20
184.084653
 30
0.0
 11
238.345272
 21
182.47142
 31
0.0
  0
LINE
  5
B277
330
B179
100
AcDbEntity
  8
1
  6
Continuous
100
AcDbLine
 10
229.031564
 20
184.084653
 30
0.0
 11
227.031564
 21
182.47142
 31
0.0
  0
LINE
  5
B278
330
B179
100
AcDbEntity
  8
1
  6
Continuous
100
AcDbLine
 10
227.859991
 20
184.084653
 30
0.0
 11
229.859991
 21
182.47142
 31
0.0
  0
LINE
  5
B279
330
B179
100
AcDbEntity
  8
1
  6
Continuous
100
AcDbLine
 10
230.4457769999999
 20
184.084653
 30
0.0
 11
228.4457769999999
 21
182.47142
 31
0.0
  0
ARC
  5
B27A
330
B179
100
AcDbEntity
  8
1
  6
Continuous
100
AcDbCircle
 10
253.277419
 20
189.9702659999999
 30
0.0
 40
3.611
100
AcDbArc
 50
270.0
 51
333.779363
  0
LINE
  5
B27B
330
B179
100
AcDbEntity
  8
1
  6
Continuous
100
AcDbLine
 10
247.658981
 20
184.084653
 30
0.0
 11
249.658981
 21
182.47142
 31
0.0
  0
LINE
  5
B27C
330
B179
100
AcDbEntity
  8
1
  6
Continuous
100
AcDbLine
 10
250.244767
 20
184.084653
 30
0.0
 11
248.2447669999999
 21
182.47142
 31
0.0
  0
LINE
  5
B27D
330
B179
100
AcDbEntity
  8
1
  6
Continuous
100
AcDbLine
 10
248.8305529999999
 20
184.084653
 30
0.0
 11
246.8305529999999
 21
182.47142
 31
0.0
  0
LINE
  5
B27E
330
B179
100
AcDbEntity
  8
1
  6
Continuous
100
AcDbLine
 10
254.0168449999999
 20
183.61409
 30
0.0
 11
252.487408
 21
182.47142
 31
0.0
  0
LINE
  5
B27F
330
B179
100
AcDbEntity
  8
1
  6
Continuous
100
AcDbLine
 10
253.0731939999999
 20
184.084653
 30
0.0
 11
251.0731939999998
 21
182.47142
 31
0.0
  0
LINE
  5
B280
330
B179
100
AcDbEntity
  8
1
  6
Continuous
100
AcDbLine
 10
250.487408
 20
184.084653
 30
0.0
 11
252.487408
 21
182.47142
 31
0.0
  0
LINE
  5
B281
330
B179
100
AcDbEntity
  8
1
  6
Continuous
100
AcDbLine
 10
251.658981
 20
184.084653
 30
0.0
 11
249.658981
 21
182.47142
 31
0.0
  0
LINE
  5
B282
330
B179
100
AcDbEntity
  8
1
  6
Continuous
100
AcDbLine
 10
254.0168449999999
 20
182.5866429999999
 30
0.0
 11
253.901621
 21
182.47142
 31
0.0
  0
LINE
  5
B283
330
B179
100
AcDbEntity
  8
1
  6
Continuous
100
AcDbLine
 10
254.0168449999999
 20
184.084653
 30
0.0
 11
254.0168449999999
 21
182.471312
 31
0.0
  0
ARC
  5
B284
330
B179
100
AcDbEntity
  8
1
  6
Continuous
100
AcDbCircle
 10
247.6050709999999
 20
186.936004
 30
0.0
 40
6.407901999999999
100
AcDbArc
 50
334.3555600000001
 51
347.121283
  0
ARC
  5
B285
330
B179
100
AcDbEntity
  8
1
  6
Continuous
100
AcDbCircle
 10
253.062514
 20
185.2307219999999
 30
0.0
 40
0.8364709999999998
100
AcDbArc
 50
19.341459
 51
77.625084
  0
LINE
  5
B286
330
B179
100
AcDbEntity
  8
1
  6
Continuous
100
AcDbLine
 10
253.3158349999999
 20
184.084653
 30
0.0
 11
254.0168449999999
 21
183.383643
 31
0.0
  0
LINE
  5
B287
330
B179
100
AcDbEntity
  8
1
  6
Continuous
100
AcDbLine
 10
256.5168449999999
 20
190.374821
 30
0.0
 11
256.5168449999999
 21
188.374821
 31
0.0
  0
LINE
  5
B288
330
B179
100
AcDbEntity
  8
1
  6
Continuous
100
AcDbLine
 10
242.0021259999999
 20
184.084653
 30
0.0
 11
244.0021259999999
 21
182.47142
 31
0.0
  0
LINE
  5
B289
330
B179
100
AcDbEntity
  8
1
  6
Continuous
100
AcDbLine
 10
244.5879129999999
 20
184.084653
 30
0.0
 11
242.5879129999999
 21
182.47142
 31
0.0
  0
LINE
  5
B28A
330
B179
100
AcDbEntity
  8
1
  6
Continuous
100
AcDbLine
 10
246.0021259999999
 20
184.084653
 30
0.0
 11
244.0021259999999
 21
182.47142
 31
0.0
  0
LINE
  5
B28B
330
B179
100
AcDbEntity
  8
1
  6
Continuous
100
AcDbLine
 10
244.8305529999999
 20
184.084653
 30
0.0
 11
246.8305529999999
 21
182.47142
 31
0.0
  0
LINE
  5
B28C
330
B179
100
AcDbEntity
  8
1
  6
Continuous
100
AcDbLine
 10
247.41634
 20
184.084653
 30
0.0
 11
245.41634
 21
182.47142
 31
0.0
  0
LINE
  5
B28D
330
B179
100
AcDbEntity
  8
1
  6
Continuous
100
AcDbLine
 10
138.922907
 20
184.111835
 30
0.0
 11
140.922907
 21
182.498601
 31
0.0
  0
LINE
  5
B28E
330
B179
100
AcDbEntity
  8
1
  6
Continuous
100
AcDbLine
 10
140.094479
 20
184.111835
 30
0.0
 11
138.094479
 21
182.498601
 31
0.0
  0
LINE
  5
B28F
330
B179
100
AcDbEntity
  8
1
  6
Continuous
100
AcDbLine
 10
141.508693
 20
184.111835
 30
0.0
 11
139.5086929999999
 21
182.498601
 31
0.0
  0
LINE
  5
B290
330
B179
100
AcDbEntity
  8
1
  6
Continuous
100
AcDbLine
 10
131.4769579999999
 20
186.386448
 30
0.0
 11
167.1687619999999
 21
186.386448
 31
0.0
  0
LINE
  5
B291
330
B179
100
AcDbEntity
  8
1
  6
Continuous
100
AcDbLine
 10
167.908188
 20
182.498601
 30
0.0
 11
130.9081879999999
 21
182.498601
 31
0.0
  0
LINE
  5
B292
330
B179
100
AcDbEntity
  8
1
  6
Continuous
100
AcDbLine
 10
130.9081879999999
 20
184.111835
 30
0.0
 11
167.908188
 21
184.111835
 31
0.0
  0
LINE
  5
B293
330
B179
100
AcDbEntity
  8
1
  6
Continuous
100
AcDbLine
 10
131.6832559999998
 20
186.074941
 30
0.0
 11
167.13312
 21
186.074941
 31
0.0
  0
LINE
  5
B294
330
B179
100
AcDbEntity
  8
1
  6
Continuous
100
AcDbLine
 10
136.094479
 20
184.111835
 30
0.0
 11
138.094479
 21
182.498601
 31
0.0
  0
LINE
  5
B295
330
B179
100
AcDbEntity
  8
1
  6
Continuous
100
AcDbLine
 10
137.2660519999998
 20
184.111835
 30
0.0
 11
135.266052
 21
182.498601
 31
0.0
  0
LINE
  5
B296
330
B179
100
AcDbEntity
  8
1
  6
Continuous
100
AcDbLine
 10
133.266052
 20
184.111835
 30
0.0
 11
135.266052
 21
182.498601
 31
0.0
  0
LINE
  5
B297
330
B179
100
AcDbEntity
  8
1
  6
Continuous
100
AcDbLine
 10
134.437625
 20
184.111835
 30
0.0
 11
132.437625
 21
182.498601
 31
0.0
  0
LINE
  5
B298
330
B179
100
AcDbEntity
  8
1
  6
Continuous
100
AcDbLine
 10
135.8518389999999
 20
184.111835
 30
0.0
 11
133.8518389999999
 21
182.498601
 31
0.0
  0
LINE
  5
B299
330
B179
100
AcDbEntity
  8
1
  6
Continuous
100
AcDbLine
 10
130.9081879999999
 20
183.641272
 30
0.0
 11
132.437625
 21
182.498601
 31
0.0
  0
LINE
  5
B29A
330
B179
100
AcDbEntity
  8
1
  6
Continuous
100
AcDbLine
 10
133.023412
 20
184.111835
 30
0.0
 11
131.023412
 21
182.498601
 31
0.0
  0
LINE
  5
B29B
330
B179
100
AcDbEntity
  8
1
  6
Continuous
100
AcDbLine
 10
130.9081879999999
 20
184.111835
 30
0.0
 11
130.9081879999999
 21
182.498601
 31
0.0
  0
ARC
  5
B29C
330
B179
100
AcDbEntity
  8
1
  6
Continuous
100
AcDbCircle
 10
137.319962
 20
186.963186
 30
0.0
 40
6.407901999999999
100
AcDbArc
 50
192.8787169999999
 51
206.4216889999999
  0
ARC
  5
B29D
330
B179
100
AcDbEntity
  8
1
  6
Continuous
100
AcDbCircle
 10
131.8625189999999
 20
185.2579039999999
 30
0.0
 40
0.8364709999999998
100
AcDbArc
 50
102.3749159999999
 51
160.6585409999999
  0
LINE
  5
B29E
330
B179
100
AcDbEntity
  8
1
  6
Continuous
100
AcDbLine
 10
130.9081879999999
 20
183.4108249999999
 30
0.0
 11
131.6091979999999
 21
184.111835
 31
0.0
  0
ARC
  5
B29F
330
B179
100
AcDbEntity
  8
1
  6
Continuous
100
AcDbCircle
 10
131.6476139999998
 20
189.997448
 30
0.0
 40
3.611
100
AcDbArc
 50
206.795657
 51
270.0
  0
LINE
  5
B2A0
330
B179
100
AcDbEntity
  8
1
  6
Continuous
100
AcDbLine
 10
138.6802659999998
 20
184.111835
 30
0.0
 11
136.6802659999999
 21
182.498601
 31
0.0
  0
LINE
  5
B2A1
330
B179
100
AcDbEntity
  8
1
  6
Continuous
100
AcDbLine
 10
157.0650419999998
 20
184.111835
 30
0.0
 11
155.065042
 21
182.498601
 31
0.0
  0
LINE
  5
B2A2
330
B179
100
AcDbEntity
  8
1
  6
Continuous
100
AcDbLine
 10
150.236615
 20
184.111835
 30
0.0
 11
152.236615
 21
182.498601
 31
0.0
  0
LINE
  5
B2A3
330
B179
100
AcDbEntity
  8
1
  6
Continuous
100
AcDbLine
 10
152.822402
 20
184.111835
 30
0.0
 11
150.822402
 21
182.498601
 31
0.0
  0
LINE
  5
B2A4
330
B179
100
AcDbEntity
  8
1
  6
Continuous
100
AcDbLine
 10
144.5797609999999
 20
184.111835
 30
0.0
 11
146.5797609999999
 21
182.498601
 31
0.0
  0
LINE
  5
B2A5
330
B179
100
AcDbEntity
  8
1
  6
Continuous
100
AcDbLine
 10
147.1655469999998
 20
184.111835
 30
0.0
 11
145.165547
 21
182.498601
 31
0.0
  0
LINE
  5
B2A6
330
B179
100
AcDbEntity
  8
1
  6
Continuous
100
AcDbLine
 10
145.751334
 20
184.111835
 30
0.0
 11
143.751334
 21
182.498601
 31
0.0
  0
LINE
  5
B2A7
330
B179
100
AcDbEntity
  8
1
  6
Continuous
100
AcDbLine
 10
151.4081879999999
 20
184.111835
 30
0.0
 11
149.4081879999999
 21
182.498601
 31
0.0
  0
LINE
  5
B2A8
330
B179
100
AcDbEntity
  8
1
  6
Continuous
100
AcDbLine
 10
147.4081879999999
 20
184.111835
 30
0.0
 11
149.4081879999999
 21
182.498601
 31
0.0
  0
LINE
  5
B2A9
330
B179
100
AcDbEntity
  8
1
  6
Continuous
100
AcDbLine
 10
148.5797609999999
 20
184.111835
 30
0.0
 11
146.5797609999999
 21
182.498601
 31
0.0
  0
LINE
  5
B2AA
330
B179
100
AcDbEntity
  8
1
  6
Continuous
100
AcDbLine
 10
149.993974
 20
184.111835
 30
0.0
 11
147.993974
 21
182.498601
 31
0.0
  0
LINE
  5
B2AB
330
B179
100
AcDbEntity
  8
1
  6
Continuous
100
AcDbLine
 10
153.065042
 20
184.111835
 30
0.0
 11
155.065042
 21
182.498601
 31
0.0
  0
LINE
  5
B2AC
330
B179
100
AcDbEntity
  8
1
  6
Continuous
100
AcDbLine
 10
155.650829
 20
184.111835
 30
0.0
 11
153.6508289999999
 21
182.498601
 31
0.0
  0
LINE
  5
B2AD
330
B179
100
AcDbEntity
  8
1
  6
Continuous
100
AcDbLine
 10
154.236615
 20
184.111835
 30
0.0
 11
152.236615
 21
182.498601
 31
0.0
  0
LINE
  5
B2AE
330
B179
100
AcDbEntity
  8
1
  6
Continuous
100
AcDbLine
 10
142.922907
 20
184.111835
 30
0.0
 11
140.922907
 21
182.498601
 31
0.0
  0
LINE
  5
B2AF
330
B179
100
AcDbEntity
  8
1
  6
Continuous
100
AcDbLine
 10
141.751334
 20
184.111835
 30
0.0
 11
143.751334
 21
182.498601
 31
0.0
  0
LINE
  5
B2B0
330
B179
100
AcDbEntity
  8
1
  6
Continuous
100
AcDbLine
 10
144.33712
 20
184.111835
 30
0.0
 11
142.33712
 21
182.498601
 31
0.0
  0
ARC
  5
B2B1
330
B179
100
AcDbEntity
  8
1
  6
Continuous
100
AcDbCircle
 10
167.1687619999999
 20
189.997448
 30
0.0
 40
3.611
100
AcDbArc
 50
270.0
 51
333.204343
  0
LINE
  5
B2B2
330
B179
100
AcDbEntity
  8
1
  6
Continuous
100
AcDbLine
 10
161.5503239999999
 20
184.111835
 30
0.0
 11
163.550324
 21
182.498601
 31
0.0
  0
LINE
  5
B2B3
330
B179
100
AcDbEntity
  8
1
  6
Continuous
100
AcDbLine
 10
164.13611
 20
184.111835
 30
0.0
 11
162.13611
 21
182.498601
 31
0.0
  0
LINE
  5
B2B4
330
B179
100
AcDbEntity
  8
1
  6
Continuous
100
AcDbLine
 10
162.7218959999999
 20
184.111835
 30
0.0
 11
160.7218959999999
 21
182.498601
 31
0.0
  0
LINE
  5
B2B5
330
B179
100
AcDbEntity
  8
1
  6
Continuous
100
AcDbLine
 10
167.908188
 20
183.641272
 30
0.0
 11
166.3787509999998
 21
182.498601
 31
0.0
  0
LINE
  5
B2B6
330
B179
100
AcDbEntity
  8
1
  6
Continuous
100
AcDbLine
 10
166.964537
 20
184.111835
 30
0.0
 11
164.9645369999998
 21
182.498601
 31
0.0
  0
LINE
  5
B2B7
330
B179
100
AcDbEntity
  8
1
  6
Continuous
100
AcDbLine
 10
164.3787509999999
 20
184.111835
 30
0.0
 11
166.3787509999998
 21
182.498601
 31
0.0
  0
LINE
  5
B2B8
330
B179
100
AcDbEntity
  8
1
  6
Continuous
100
AcDbLine
 10
165.5503239999999
 20
184.111835
 30
0.0
 11
163.550324
 21
182.498601
 31
0.0
  0
LINE
  5
B2B9
330
B179
100
AcDbEntity
  8
1
  6
Continuous
100
AcDbLine
 10
167.908188
 20
182.6138239999999
 30
0.0
 11
167.7929639999999
 21
182.498601
 31
0.0
  0
LINE
  5
B2BA
330
B179
100
AcDbEntity
  8
1
  6
Continuous
100
AcDbLine
 10
167.908188
 20
184.111835
 30
0.0
 11
167.908188
 21
182.498601
 31
0.0
  0
ARC
  5
B2BB
330
B179
100
AcDbEntity
  8
1
  6
Continuous
100
AcDbCircle
 10
161.4964139999998
 20
186.963186
 30
0.0
 40
6.407901999999999
100
AcDbArc
 50
334.3555600000001
 51
347.121283
  0
ARC
  5
B2BC
330
B179
100
AcDbEntity
  8
1
  6
Continuous
100
AcDbCircle
 10
166.953857
 20
185.2579039999999
 30
0.0
 40
0.8364709999999998
100
AcDbArc
 50
19.341459
 51
77.625084
  0
LINE
  5
B2BD
330
B179
100
AcDbEntity
  8
1
  6
Continuous
100
AcDbLine
 10
167.207178
 20
184.111835
 30
0.0
 11
167.908188
 21
183.4108249999999
 31
0.0
  0
LINE
  5
B2BE
330
B179
100
AcDbEntity
  8
1
  6
Continuous
100
AcDbLine
 10
155.8934689999999
 20
184.111835
 30
0.0
 11
157.8934689999998
 21
182.498601
 31
0.0
  0
LINE
  5
B2BF
330
B179
100
AcDbEntity
  8
1
  6
Continuous
100
AcDbLine
 10
158.4792559999999
 20
184.111835
 30
0.0
 11
156.4792559999998
 21
182.498601
 31
0.0
  0
LINE
  5
B2C0
330
B179
100
AcDbEntity
  8
1
  6
Continuous
100
AcDbLine
 10
159.8934689999999
 20
184.111835
 30
0.0
 11
157.8934689999998
 21
182.498601
 31
0.0
  0
LINE
  5
B2C1
330
B179
100
AcDbEntity
  8
1
  6
Continuous
100
AcDbLine
 10
158.7218959999999
 20
184.111835
 30
0.0
 11
160.7218959999999
 21
182.498601
 31
0.0
  0
LINE
  5
B2C2
330
B179
100
AcDbEntity
  8
1
  6
Continuous
100
AcDbLine
 10
161.3076829999999
 20
184.111835
 30
0.0
 11
159.307683
 21
182.498601
 31
0.0
  0
LINE
  5
B2C3
330
B179
100
AcDbEntity
  8
4
  6
CENTER
100
AcDbLine
 10
33.79951099999999
 20
195.375175
 30
0.0
 11
33.79951099999999
 21
181.35962
 31
0.0
  0
LINE
  5
B2C4
330
B179
100
AcDbEntity
  8
4
  6
CENTER
100
AcDbLine
 10
62.79951099999999
 20
195.375175
 30
0.0
 11
62.79951099999999
 21
181.35962
 31
0.0
  0
LINE
  5
B2C5
330
B179
100
AcDbEntity
  8
1
  6
Continuous
100
AcDbLine
 10
63.02324399999999
 20
139.2125
 30
0.0
 11
61.023239
 21
139.2125
 31
0.0
  0
LINE
  5
B2C6
330
B179
100
AcDbEntity
  8
1
  6
Continuous
100
AcDbLine
 10
35.575783
 20
139.2125
 30
0.0
 11
33.575778
 21
139.2125
 31
0.0
  0
ARC
  5
B2C7
330
B179
100
AcDbEntity
  8
1
  6
Continuous
100
AcDbCircle
 10
61.605598
 20
178.184189
 30
0.0
 40
1.5
100
AcDbArc
 50
359.87892
 51
90.0
  0
ARC
  5
B2C8
330
B179
100
AcDbEntity
  8
1
  6
Continuous
100
AcDbCircle
 10
34.99342399999999
 20
178.184189
 30
0.0
 40
1.5
100
AcDbArc
 50
90.0
 51
180.1210799999998
  0
LINE
  5
B2C9
330
B179
100
AcDbEntity
  8
1
  6
Continuous
100
AcDbLine
 10
36.997585
 20
177.7170889999999
 30
0.0
 11
59.60143699999999
 21
177.7170889999999
 31
0.0
  0
ARC
  5
B2CA
330
B179
100
AcDbEntity
  8
1
  6
Continuous
100
AcDbCircle
 10
59.60143699999999
 20
176.2170889999999
 30
0.0
 40
1.5
100
AcDbArc
 50
359.878918
 51
90.0
  0
ARC
  5
B2CB
330
B179
100
AcDbEntity
  8
1
  6
Continuous
100
AcDbCircle
 10
36.997585
 20
176.2170889999999
 30
0.0
 40
1.5
100
AcDbArc
 50
90.0
 51
180.121082
  0
LINE
  5
B2CC
330
B179
100
AcDbEntity
  8
4
  6
CENTER
100
AcDbLine
 10
221.0168449999999
 20
194.9908529999999
 30
0.0
 11
221.0168449999999
 21
181.0477589999999
 31
0.0
  0
LINE
  5
B2CD
330
B179
100
AcDbEntity
  8
4
  6
CENTER
100
AcDbLine
 10
250.0168449999999
 20
194.9908529999999
 30
0.0
 11
250.0168449999999
 21
181.0477589999999
 31
0.0
  0
LINE
  5
B2CE
330
B179
100
AcDbEntity
  8
1
  6
Continuous
100
AcDbLine
 10
58.62732499999999
 20
173.8123009999999
 30
0.0
 11
37.97169699999999
 21
173.8123009999999
 31
0.0
  0
LINE
  5
B2CF
330
B179
100
AcDbEntity
  8
1
  6
Continuous
100
AcDbLine
 10
60.569129
 20
177.363201
 30
0.0
 11
36.029893
 21
177.363201
 31
0.0
  0
LINE
  5
B2D0
330
B179
100
AcDbEntity
  8
1
  6
Continuous
100
AcDbLine
 10
35.543469
 20
176.5852549999999
 30
0.0
 11
61.102723
 21
176.5852549999999
 31
0.0
  0
LINE
  5
B2D1
330
B179
100
AcDbEntity
  8
1
  6
Continuous
100
AcDbLine
 10
42.13940899999999
 20
173.212301
 30
0.0
 11
42.54151499999998
 21
173.8123009999999
 31
0.0
  0
LINE
  5
B2D2
330
B179
100
AcDbEntity
  8
1
  6
Continuous
100
AcDbLine
 10
41.699511
 20
173.212301
 30
0.0
 11
44.926716
 21
173.212301
 31
0.0
  0
ARC
  5
B2D3
330
B179
100
AcDbEntity
  8
1
  6
Continuous
100
AcDbCircle
 10
38.46287
 20
177.729218
 30
0.0
 40
1.984499999999997
100
AcDbArc
 50
182.999869
 51
190.6283659999998
  0
ARC
  5
B2D4
330
B179
100
AcDbEntity
  8
1
  6
Continuous
100
AcDbCircle
 10
41.15549399999999
 20
177.729218
 30
0.0
 40
1.984499999999997
100
AcDbArc
 50
180.350187
 51
190.6283659999998
  0
ARC
  5
B2D5
330
B179
100
AcDbEntity
  8
1
  6
Continuous
100
AcDbCircle
 10
39.059021
 20
177.729218
 30
0.0
 40
1.984499999999997
100
AcDbArc
 50
180.350187
 51
190.6283659999998
  0
ARC
  5
B2D6
330
B179
100
AcDbEntity
  8
1
  6
Continuous
100
AcDbCircle
 10
37.07670999999999
 20
175.726355
 30
0.0
 40
1.683363999999999
100
AcDbArc
 50
217.387795
 51
241.092262
  0
ARC
  5
B2D7
330
B179
100
AcDbEntity
  8
1
  6
Continuous
100
AcDbCircle
 10
41.834391
 20
179.3622709999999
 30
0.0
 40
7.671302999999997
100
AcDbArc
 50
214.3194929999999
 51
217.387795
  0
LINE
  5
B2D8
330
B179
100
AcDbEntity
  8
1
  6
Continuous
100
AcDbLine
 10
41.699511
 20
173.8123009999999
 30
0.0
 11
41.699511
 21
173.212301
 31
0.0
  0
ARC
  5
B2D9
330
B179
100
AcDbEntity
  8
1
  6
Continuous
100
AcDbCircle
 10
37.97169699999999
 20
177.347103
 30
0.0
 40
3.534801999999998
100
AcDbArc
 50
241.092262
 51
270.0
  0
LINE
  5
B2DA
330
B179
100
AcDbEntity
  8
1
  6
Continuous
100
AcDbLine
 10
51.67230599999999
 20
173.212301
 30
0.0
 11
54.89951099999998
 21
173.212301
 31
0.0
  0
ARC
  5
B2DB
330
B179
100
AcDbEntity
  8
1
  6
Continuous
100
AcDbCircle
 10
48.29951099999998
 20
177.729218
 30
0.0
 40
1.985
100
AcDbArc
 50
349.374342
 51
359.649901
  0
ARC
  5
B2DC
330
B179
100
AcDbEntity
  8
1
  6
Continuous
100
AcDbCircle
 10
48.29951099999998
 20
177.729218
 30
0.0
 40
1.985
100
AcDbArc
 50
180.350099
 51
190.6256579999999
  0
ARC
  5
B2DD
330
B179
100
AcDbEntity
  8
1
  6
Continuous
100
AcDbCircle
 10
44.411898
 20
177.729218
 30
0.0
 40
1.984499999999997
100
AcDbArc
 50
180.350187
 51
190.6283659999998
  0
LINE
  5
B2DE
330
B179
100
AcDbEntity
  8
1
  6
Continuous
100
AcDbLine
 10
49.039022
 20
173.3724559999998
 30
0.0
 11
49.531739
 21
173.8123009999999
 31
0.0
  0
LINE
  5
B2DF
330
B179
100
AcDbEntity
  8
1
  6
Continuous
100
AcDbLine
 10
47.067283
 20
173.8123009999999
 30
0.0
 11
47.56
 21
173.3724559999998
 31
0.0
  0
ARC
  5
B2E0
330
B179
100
AcDbEntity
  8
1
  6
Continuous
100
AcDbCircle
 10
55.443528
 20
177.729218
 30
0.0
 40
1.984499999999997
100
AcDbArc
 50
349.3716339999999
 51
359.649813
  0
ARC
  5
B2E1
330
B179
100
AcDbEntity
  8
1
  6
Continuous
100
AcDbCircle
 10
52.187124
 20
177.729218
 30
0.0
 40
1.984499999999997
100
AcDbArc
 50
349.3716339999999
 51
359.649813
  0
LINE
  5
B2E2
330
B179
100
AcDbEntity
  8
1
  6
Continuous
100
AcDbLine
 10
54.89951099999998
 20
173.8123009999999
 30
0.0
 11
54.89951099999998
 21
173.212301
 31
0.0
  0
LINE
  5
B2E3
330
B179
100
AcDbEntity
  8
1
  6
Continuous
100
AcDbLine
 10
54.05750699999999
 20
173.8123009999999
 30
0.0
 11
54.459613
 21
173.212301
 31
0.0
  0
ARC
  5
B2E4
330
B179
100
AcDbEntity
  8
1
  6
Continuous
100
AcDbCircle
 10
57.54000099999998
 20
177.729218
 30
0.0
 40
1.984499999999997
100
AcDbArc
 50
349.3716339999999
 51
359.649813
  0
ARC
  5
B2E5
330
B179
100
AcDbEntity
  8
1
  6
Continuous
100
AcDbCircle
 10
58.136152
 20
177.729218
 30
0.0
 40
1.984499999999997
100
AcDbArc
 50
349.3716339999999
 51
357.000131
  0
ARC
  5
B2E6
330
B179
100
AcDbEntity
  8
1
  6
Continuous
100
AcDbCircle
 10
59.52231199999999
 20
175.726355
 30
0.0
 40
1.683363999999999
100
AcDbArc
 50
298.9077379999999
 51
322.6122049999998
  0
ARC
  5
B2E7
330
B179
100
AcDbEntity
  8
1
  6
Continuous
100
AcDbCircle
 10
58.62732499999999
 20
177.347103
 30
0.0
 40
3.534801999999998
100
AcDbArc
 50
270.0
 51
298.9077379999999
  0
ARC
  5
B2E8
330
B179
100
AcDbEntity
  8
1
  6
Continuous
100
AcDbCircle
 10
54.76463100000001
 20
179.3622709999999
 30
0.0
 40
7.671302999999997
100
AcDbArc
 50
322.6122049999998
 51
325.668552
  0
LINE
  5
B2E9
330
B179
100
AcDbEntity
  8
1
  6
Continuous
100
AcDbLine
 10
245.8446589999998
 20
173.8123009999999
 30
0.0
 11
225.1890309999998
 21
173.8123009999999
 31
0.0
  0
LINE
  5
B2EA
330
B179
100
AcDbEntity
  8
1
  6
Continuous
100
AcDbLine
 10
229.3567429999999
 20
173.212301
 30
0.0
 11
229.758849
 21
173.8123009999999
 31
0.0
  0
ARC
  5
B2EB
330
B179
100
AcDbEntity
  8
1
  6
Continuous
100
AcDbCircle
 10
224.2940439999999
 20
175.726355
 30
0.0
 40
1.683363999999999
100
AcDbArc
 50
217.387795
 51
241.092262
  0
ARC
  5
B2EC
330
B179
100
AcDbEntity
  8
1
  6
Continuous
100
AcDbCircle
 10
229.051725
 20
179.3622709999999
 30
0.0
 40
7.671302999999997
100
AcDbArc
 50
214.3194929999999
 51
217.387795
  0
LINE
  5
B2ED
330
B179
100
AcDbEntity
  8
1
  6
Continuous
100
AcDbLine
 10
228.916845
 20
173.8123009999999
 30
0.0
 11
228.916845
 21
173.212301
 31
0.0
  0
ARC
  5
B2EE
330
B179
100
AcDbEntity
  8
1
  6
Continuous
100
AcDbCircle
 10
225.1890309999998
 20
177.347103
 30
0.0
 40
3.534801999999998
100
AcDbArc
 50
241.092262
 51
270.0
  0
LINE
  5
B2EF
330
B179
100
AcDbEntity
  8
1
  6
Continuous
100
AcDbLine
 10
228.916845
 20
173.212301
 30
0.0
 11
232.2052789999999
 21
173.212301
 31
0.0
  0
LINE
  5
B2F0
330
B179
100
AcDbEntity
  8
1
  6
Continuous
100
AcDbLine
 10
234.284617
 20
173.8123009999999
 30
0.0
 11
234.7773339999999
 21
173.3724559999998
 31
0.0
  0
LINE
  5
B2F1
330
B179
100
AcDbEntity
  8
1
  6
Continuous
100
AcDbLine
 10
236.256356
 20
173.3724559999998
 30
0.0
 11
236.749073
 21
173.8123009999999
 31
0.0
  0
LINE
  5
B2F2
330
B179
100
AcDbEntity
  8
1
  6
Continuous
100
AcDbLine
 10
242.116845
 20
173.8123009999999
 30
0.0
 11
242.116845
 21
173.212301
 31
0.0
  0
LINE
  5
B2F3
330
B179
100
AcDbEntity
  8
1
  6
Continuous
100
AcDbLine
 10
241.274841
 20
173.8123009999999
 30
0.0
 11
241.676947
 21
173.212301
 31
0.0
  0
ARC
  5
B2F4
330
B179
100
AcDbEntity
  8
1
  6
Continuous
100
AcDbCircle
 10
246.7396459999999
 20
175.726355
 30
0.0
 40
1.683363999999999
100
AcDbArc
 50
298.9077379999999
 51
322.6122049999998
  0
ARC
  5
B2F5
330
B179
100
AcDbEntity
  8
1
  6
Continuous
100
AcDbCircle
 10
245.8446589999998
 20
177.347103
 30
0.0
 40
3.534801999999998
100
AcDbArc
 50
270.0
 51
298.9077379999999
  0
ARC
  5
B2F6
330
B179
100
AcDbEntity
  8
1
  6
Continuous
100
AcDbCircle
 10
241.9819649999999
 20
179.3622709999999
 30
0.0
 40
7.671302999999997
100
AcDbArc
 50
322.6122049999998
 51
325.668552
  0
LINE
  5
B2F7
330
B179
100
AcDbEntity
  8
1
  6
Continuous
100
AcDbLine
 10
238.8284099999999
 20
173.212301
 30
0.0
 11
242.116845
 21
173.212301
 31
0.0
  0
LINE
  5
B2F8
330
B179
100
AcDbEntity
  8
1
  6
Continuous
100
AcDbLine
 10
222.715852
 20
175.7677069999998
 30
0.0
 11
222.793116
 21
139.2066269999999
 31
0.0
  0
LINE
  5
B2F9
330
B179
100
AcDbEntity
  8
1
  6
Continuous
100
AcDbLine
 10
248.317837
 20
175.7677069999998
 30
0.0
 11
248.2405729999999
 21
139.2066269999999
 31
0.0
  0
LINE
  5
B2FA
330
B179
100
AcDbEntity
  8
1
  6
Continuous
100
AcDbLine
 10
222.793116
 20
139.2066269999999
 30
0.0
 11
220.793111
 21
139.2066269999999
 31
0.0
  0
LINE
  5
B2FB
330
B179
100
AcDbEntity
  8
1
  6
Continuous
100
AcDbLine
 10
250.2405779999999
 20
139.2066269999999
 30
0.0
 11
248.2405729999999
 21
139.2066269999999
 31
0.0
  0
LINE
  5
B2FC
330
B179
100
AcDbEntity
  8
1
  6
Continuous
100
AcDbLine
 10
220.786038
 20
142.5537789999999
 30
0.0
 11
220.793111
 21
139.2066269999999
 31
0.0
  0
ARC
  5
B2FD
330
B179
100
AcDbEntity
  8
1
  6
Continuous
100
AcDbCircle
 10
226.0535079999999
 20
148.38967
 30
0.0
 40
6.779940999999999
100
AcDbArc
 50
180.9908509999999
 51
213.9306609999999
  0
LINE
  5
B2FE
330
B179
100
AcDbEntity
  8
1
  6
Continuous
100
AcDbLine
 10
251.260141
 20
147.3528589999999
 30
0.0
 11
251.260141
 21
144.125191
 31
0.0
  0
ARC
  5
B2FF
330
B179
100
AcDbEntity
  8
1
  6
Continuous
100
AcDbCircle
 10
245.989308
 20
148.375191
 30
0.0
 40
6.770832999999998
100
AcDbArc
 50
321.1199299999999
 51
12.459047
  0
LINE
  5
B300
330
B179
100
AcDbEntity
  8
1
  6
Continuous
100
AcDbLine
 10
251.260141
 20
144.125191
 30
0.0
 11
250.354336
 21
144.125191
 31
0.0
  0
LINE
  5
B301
330
B179
100
AcDbEntity
  8
1
  6
Continuous
100
AcDbLine
 10
168.1584039999999
 20
177.616486
 30
0.0
 11
168.4081879999999
 21
175.762876
 31
0.0
  0
LINE
  5
B302
330
B179
100
AcDbEntity
  8
1
  6
Continuous
100
AcDbLine
 10
167.206219
 20
175.3819969999999
 30
0.0
 11
168.4081879999999
 21
175.762876
 31
0.0
  0
LINE
  5
B303
330
B179
100
AcDbEntity
  8
4
  6
CENTER
100
AcDbLine
 10
298.1255019999998
 20
183.369573
 30
0.0
 11
298.1255019999998
 21
194.9908529999999
 31
0.0
  0
LINE
  5
B304
330
B179
100
AcDbEntity
  8
4
  6
CENTER
100
AcDbLine
 10
345.125502
 20
183.369573
 30
0.0
 11
345.125502
 21
194.9908529999999
 31
0.0
  0
LINE
  5
B305
330
B179
100
AcDbEntity
  8
4
  6
CENTER
100
AcDbLine
 10
321.6255019999999
 20
164.545231
 30
0.0
 11
321.6255019999999
 21
194.9908529999999
 31
0.0
  0
LINE
  5
B306
330
B179
100
AcDbEntity
  8
4
  6
CENTER
100
AcDbLine
 10
369.6256169999998
 20
148.369876
 30
0.0
 11
313.6256169999999
 21
148.369876
 31
0.0
  0
LINE
  5
B307
330
B179
100
AcDbEntity
  8
1
  6
Continuous
100
AcDbLine
 10
291.6255019999999
 20
190.369876
 30
0.0
 11
351.625502
 21
190.369876
 31
0.0
  0
LINE
  5
B308
330
B179
100
AcDbEntity
  8
1
  6
Continuous
100
AcDbLine
 10
291.6255019999999
 20
188.369573
 30
0.0
 11
351.625502
 21
188.369573
 31
0.0
  0
ARC
  5
B309
330
B179
100
AcDbEntity
  8
1
  6
Continuous
100
AcDbCircle
 10
340.776082
 20
147.3515769999998
 30
0.0
 40
8.139077
100
AcDbArc
 50
212.4742509999999
 51
7.825642999999997
  0
CIRCLE
  5
B30A
330
B179
100
AcDbEntity
  8
1
  6
Continuous
100
AcDbCircle
 10
341.625617
 20
148.369876
 30
0.0
 40
4.25
  0
LINE
  5
B30B
330
B179
100
AcDbEntity
  8
1
  6
Continuous
100
AcDbLine
 10
320.439546
 20
163.360793
 30
0.0
 11
333.909689
 21
142.98154
 31
0.0
  0
LINE
  5
B30C
330
B179
100
AcDbEntity
  8
1
  6
Continuous
100
AcDbLine
 10
323.8681429999999
 20
184.111835
 30
0.0
 11
325.8681429999999
 21
182.498601
 31
0.0
  0
LINE
  5
B30D
330
B179
100
AcDbEntity
  8
1
  6
Continuous
100
AcDbLine
 10
322.453929
 20
184.111835
 30
0.0
 11
324.453929
 21
182.498601
 31
0.0
  0
LINE
  5
B30E
330
B179
100
AcDbEntity
  8
1
  6
Continuous
100
AcDbLine
 10
339.350434
 20
186.074941
 30
0.0
 11
303.90057
 21
186.074941
 31
0.0
  0
LINE
  5
B30F
330
B179
100
AcDbEntity
  8
1
  6
Continuous
100
AcDbLine
 10
340.1255019999999
 20
184.111835
 30
0.0
 11
303.1255019999999
 21
184.111835
 31
0.0
  0
LINE
  5
B310
330
B179
100
AcDbEntity
  8
1
  6
Continuous
100
AcDbLine
 10
303.1255019999999
 20
182.498601
 30
0.0
 11
340.1255019999999
 21
182.498601
 31
0.0
  0
LINE
  5
B311
330
B179
100
AcDbEntity
  8
1
  6
Continuous
100
AcDbLine
 10
339.556732
 20
186.386448
 30
0.0
 11
303.8649279999999
 21
186.386448
 31
0.0
  0
LINE
  5
B312
330
B179
100
AcDbEntity
  8
1
  6
Continuous
100
AcDbLine
 10
305.0565529999999
 20
182.498601
 30
0.0
 11
337.8755019999999
 21
182.498601
 31
0.0
  0
LINE
  5
B313
330
B179
100
AcDbEntity
  8
1
  6
Continuous
100
AcDbLine
 10
344.1973089999998
 20
179.6862319999999
 30
0.0
 11
348.851206
 21
148.369876
 31
0.0
  0
LINE
  5
B314
330
B179
100
AcDbEntity
  8
1
  6
Continuous
100
AcDbLine
 10
336.169644
 20
178.2874209999999
 30
0.0
 11
336.169644
 21
149.0709879999998
 31
0.0
  0
ARC
  5
B315
330
B179
100
AcDbEntity
  8
1
  6
Continuous
100
AcDbCircle
 10
337.276814
 20
178.155862
 30
0.0
 40
4.359511999999998
100
AcDbArc
 50
26.32472
 51
84.97236800000001
  0
LINE
  5
B316
330
B179
100
AcDbEntity
  8
1
  6
Continuous
100
AcDbLine
 10
342.7579789999999
 20
179.6524039999999
 30
0.0
 11
336.1574589999999
 21
179.6524039999999
 31
0.0
  0
ARC
  5
B317
330
B179
100
AcDbEntity
  8
1
  6
Continuous
100
AcDbCircle
 10
339.3860759999999
 20
189.997448
 30
0.0
 40
3.611
100
AcDbArc
 50
270.0
 51
333.779363
  0
ARC
  5
B318
330
B179
100
AcDbEntity
  8
1
  6
Continuous
100
AcDbCircle
 10
342.1495929999999
 20
188.665634
 30
0.0
 40
8.995680999999997
100
AcDbArc
 50
265.980787
 51
270.813752
  0
ARC
  5
B319
330
B179
100
AcDbEntity
  8
1
  6
Continuous
100
AcDbCircle
 10
344.546921
 20
489.3778189999999
 30
0.0
 40
311.6925539999999
100
AcDbArc
 50
269.9903949999999
 51
270.3265229999999
  0
ARC
  5
B31A
330
B179
100
AcDbEntity
  8
1
  6
Continuous
100
AcDbCircle
 10
344.6660009999998
 20
248.2698109999998
 30
0.0
 40
68.58518100000001
100
AcDbArc
 50
269.608454
 51
270.876118
  0
ARC
  5
B31B
330
B179
100
AcDbEntity
  8
1
  6
Continuous
100
AcDbCircle
 10
344.068713
 20
160.868749
 30
0.0
 40
18.81792199999998
100
AcDbArc
 50
89.60845400000003
 51
92.995108
  0
ARC
  5
B31C
330
B179
100
AcDbEntity
  8
1
  6
Continuous
100
AcDbCircle
 10
345.758206
 20
177.704509
 30
0.0
 40
1.988615
100
AcDbArc
 50
76.916679
 51
91.25340499999998
  0
ARC
  5
B31D
330
B179
100
AcDbEntity
  8
1
  6
Continuous
100
AcDbCircle
 10
346.4589669999999
 20
179.3757089999998
 30
0.0
 40
0.140401
100
AcDbArc
 50
4.755418999999998
 51
53.96652299999998
  0
ARC
  5
B31E
330
B179
100
AcDbEntity
  8
1
  6
Continuous
100
AcDbCircle
 10
345.999947
 20
178.744698
 30
0.0
 40
0.9207059999999998
100
AcDbArc
 50
53.96652299999998
 51
76.916679
  0
ARC
  5
B31F
330
B179
100
AcDbEntity
  8
1
  6
Continuous
100
AcDbCircle
 10
346.289901
 20
178.329744
 30
0.0
 40
0.640285
100
AcDbArc
 50
267.659662
 51
298.0988159999998
  0
ARC
  5
B320
330
B179
100
AcDbEntity
  8
1
  6
Continuous
100
AcDbCircle
 10
401.425312
 20
180.630882
 30
0.0
 40
54.840528
100
AcDbArc
 50
181.299318
 51
182.2989619999999
  0
ARC
  5
B321
330
B179
100
AcDbEntity
  8
1
  6
Continuous
100
AcDbCircle
 10
346.2047249999998
 20
177.963741
 30
0.0
 40
0.434857
100
AcDbArc
 50
332.793515
 51
12.371354
  0
ARC
  5
B322
330
B179
100
AcDbEntity
  8
1
  6
Continuous
100
AcDbCircle
 10
347.746034
 20
178.2456399999999
 30
0.0
 40
1.132387999999999
100
AcDbArc
 50
170.577549
 51
189.5940659999999
  0
ARC
  5
B323
330
B179
100
AcDbEntity
  8
1
  6
Continuous
100
AcDbCircle
 10
342.7579789999999
 20
185.919971
 30
0.0
 40
6.267566999999997
100
AcDbArc
 50
265.601965
 51
272.995108
  0
ARC
  5
B324
330
B179
100
AcDbEntity
  8
1
  6
Continuous
100
AcDbCircle
 10
341.9127369999998
 20
180.0548349999999
 30
0.0
 40
0.72932
100
AcDbArc
 50
177.3053509999998
 51
188.6832409999999
  0
ARC
  5
B325
330
B179
100
AcDbEntity
  8
1
  6
Continuous
100
AcDbCircle
 10
341.433175
 20
179.9815949999999
 30
0.0
 40
0.2441969999999999
100
AcDbArc
 50
188.6832409999999
 51
225.96857
  0
ARC
  5
B326
330
B179
100
AcDbEntity
  8
1
  6
Continuous
100
AcDbCircle
 10
341.547747
 20
180.1001079999998
 30
0.0
 40
0.409037
100
AcDbArc
 50
225.96857
 51
265.980787
  0
LINE
  5
B327
330
B179
100
AcDbEntity
  8
1
  6
Continuous
100
AcDbLine
 10
351.625502
 20
188.369573
 30
0.0
 11
351.625502
 21
190.369876
 31
0.0
  0
LINE
  5
B328
330
B179
100
AcDbEntity
  8
1
  6
Continuous
100
AcDbLine
 10
325.2823559999999
 20
184.111835
 30
0.0
 11
327.2823559999999
 21
182.498601
 31
0.0
  0
LINE
  5
B329
330
B179
100
AcDbEntity
  8
1
  6
Continuous
100
AcDbLine
 10
326.453929
 20
184.111835
 30
0.0
 11
324.453929
 21
182.498601
 31
0.0
  0
LINE
  5
B32A
330
B179
100
AcDbEntity
  8
1
  6
Continuous
100
AcDbLine
 10
326.69657
 20
184.111835
 30
0.0
 11
328.69657
 21
182.498601
 31
0.0
  0
LINE
  5
B32B
330
B179
100
AcDbEntity
  8
1
  6
Continuous
100
AcDbLine
 10
329.2823559999998
 20
184.111835
 30
0.0
 11
327.2823559999999
 21
182.498601
 31
0.0
  0
LINE
  5
B32C
330
B179
100
AcDbEntity
  8
1
  6
Continuous
100
AcDbLine
 10
328.110783
 20
184.111835
 30
0.0
 11
330.110783
 21
182.498601
 31
0.0
  0
LINE
  5
B32D
330
B179
100
AcDbEntity
  8
1
  6
Continuous
100
AcDbLine
 10
329.5249969999999
 20
184.111835
 30
0.0
 11
331.5249969999999
 21
182.498601
 31
0.0
  0
LINE
  5
B32E
330
B179
100
AcDbEntity
  8
1
  6
Continuous
100
AcDbLine
 10
330.939211
 20
184.111835
 30
0.0
 11
332.939211
 21
182.498601
 31
0.0
  0
LINE
  5
B32F
330
B179
100
AcDbEntity
  8
1
  6
Continuous
100
AcDbLine
 10
332.110783
 20
184.111835
 30
0.0
 11
330.110783
 21
182.498601
 31
0.0
  0
LINE
  5
B330
330
B179
100
AcDbEntity
  8
1
  6
Continuous
100
AcDbLine
 10
338.0102779999999
 20
184.111835
 30
0.0
 11
340.0102779999999
 21
182.498601
 31
0.0
  0
LINE
  5
B331
330
B179
100
AcDbEntity
  8
1
  6
Continuous
100
AcDbLine
 10
336.596065
 20
184.111835
 30
0.0
 11
338.596065
 21
182.498601
 31
0.0
  0
LINE
  5
B332
330
B179
100
AcDbEntity
  8
1
  6
Continuous
100
AcDbLine
 10
340.1255019999999
 20
183.4108249999999
 30
0.0
 11
339.4244919999998
 21
184.111835
 31
0.0
  0
ARC
  5
B333
330
B179
100
AcDbEntity
  8
1
  6
Continuous
100
AcDbCircle
 10
339.171171
 20
185.2579039999999
 30
0.0
 40
0.8364709999999998
100
AcDbArc
 50
19.341459
 51
77.625084
  0
ARC
  5
B334
330
B179
100
AcDbEntity
  8
1
  6
Continuous
100
AcDbCircle
 10
333.713728
 20
186.963186
 30
0.0
 40
6.407901999999999
100
AcDbArc
 50
333.5783109999999
 51
347.121283
  0
LINE
  5
B335
330
B179
100
AcDbEntity
  8
1
  6
Continuous
100
AcDbLine
 10
340.1255019999999
 20
184.111835
 30
0.0
 11
340.1255019999999
 21
182.498601
 31
0.0
  0
LINE
  5
B336
330
B179
100
AcDbEntity
  8
1
  6
Continuous
100
AcDbLine
 10
340.1255019999999
 20
183.641272
 30
0.0
 11
338.596065
 21
182.498601
 31
0.0
  0
LINE
  5
B337
330
B179
100
AcDbEntity
  8
1
  6
Continuous
100
AcDbLine
 10
335.181851
 20
184.111835
 30
0.0
 11
337.181851
 21
182.498601
 31
0.0
  0
LINE
  5
B338
330
B179
100
AcDbEntity
  8
1
  6
Continuous
100
AcDbLine
 10
337.767638
 20
184.111835
 30
0.0
 11
335.767638
 21
182.498601
 31
0.0
  0
LINE
  5
B339
330
B179
100
AcDbEntity
  8
1
  6
Continuous
100
AcDbLine
 10
332.353424
 20
184.111835
 30
0.0
 11
334.353424
 21
182.498601
 31
0.0
  0
LINE
  5
B33A
330
B179
100
AcDbEntity
  8
1
  6
Continuous
100
AcDbLine
 10
333.7676379999999
 20
184.111835
 30
0.0
 11
335.767638
 21
182.498601
 31
0.0
  0
LINE
  5
B33B
330
B179
100
AcDbEntity
  8
1
  6
Continuous
100
AcDbLine
 10
334.939211
 20
184.111835
 30
0.0
 11
332.939211
 21
182.498601
 31
0.0
  0
ARC
  5
B33C
330
B179
100
AcDbEntity
  8
1
  6
Continuous
100
AcDbCircle
 10
294.9133409999999
 20
152.2291109999999
 30
0.0
 40
26.994778
100
AcDbArc
 50
33.904437
 51
42.287157
  0
ARC
  5
B33D
330
B179
100
AcDbEntity
  8
1
  6
Continuous
100
AcDbCircle
 10
384.7944339999998
 20
212.636803
 30
0.0
 40
81.299728
100
AcDbArc
 50
213.904437
 51
214.9632489999999
  0
ARC
  5
B33E
330
B179
100
AcDbEntity
  8
1
  6
Continuous
100
AcDbCircle
 10
316.9976709999999
 20
161.041931
 30
0.0
 40
4.150134999999997
100
AcDbArc
 50
33.968948
 51
45.702543
  0
ARC
  5
B33F
330
B179
100
AcDbEntity
  8
1
  6
Continuous
100
AcDbCircle
 10
329.8605129999998
 20
174.2241459999999
 30
0.0
 40
14.267886
100
AcDbArc
 50
214.9632489999999
 51
225.7025429999999
  0
ARC
  5
B340
330
B179
100
AcDbEntity
  8
1
  6
Continuous
100
AcDbCircle
 10
312.1565679999998
 20
199.8073149999999
 30
0.0
 40
25.564794
100
AcDbArc
 50
252.9021769999999
 51
262.7310089999999
  0
LINE
  5
B341
330
B179
100
AcDbEntity
  8
1
  6
Continuous
100
AcDbLine
 10
308.311794
 20
184.111835
 30
0.0
 11
310.311794
 21
182.498601
 31
0.0
  0
LINE
  5
B342
330
B179
100
AcDbEntity
  8
1
  6
Continuous
100
AcDbLine
 10
306.89758
 20
184.111835
 30
0.0
 11
308.89758
 21
182.498601
 31
0.0
  0
LINE
  5
B343
330
B179
100
AcDbEntity
  8
1
  6
Continuous
100
AcDbLine
 10
309.4833659999999
 20
184.111835
 30
0.0
 11
307.4833659999999
 21
182.498601
 31
0.0
  0
ARC
  5
B344
330
B179
100
AcDbEntity
  8
1
  6
Continuous
100
AcDbCircle
 10
304.911761
 20
147.5912319999999
 30
0.0
 40
27.174347
100
AcDbArc
 50
78.73786199999997
 51
80.75898700000001
  0
LINE
  5
B345
330
B179
100
AcDbEntity
  8
1
  6
Continuous
100
AcDbLine
 10
309.7260069999999
 20
184.111835
 30
0.0
 11
311.7260069999999
 21
182.498601
 31
0.0
  0
LINE
  5
B346
330
B179
100
AcDbEntity
  8
1
  6
Continuous
100
AcDbLine
 10
312.311794
 20
184.111835
 30
0.0
 11
310.311794
 21
182.498601
 31
0.0
  0
LINE
  5
B347
330
B179
100
AcDbEntity
  8
1
  6
Continuous
100
AcDbLine
 10
311.140221
 20
184.111835
 30
0.0
 11
313.140221
 21
182.498601
 31
0.0
  0
LINE
  5
B348
330
B179
100
AcDbEntity
  8
1
  6
Continuous
100
AcDbLine
 10
312.5544339999998
 20
184.111835
 30
0.0
 11
314.5544339999998
 21
182.498601
 31
0.0
  0
LINE
  5
B349
330
B179
100
AcDbEntity
  8
1
  6
Continuous
100
AcDbLine
 10
315.140221
 20
184.111835
 30
0.0
 11
313.140221
 21
182.498601
 31
0.0
  0
LINE
  5
B34A
330
B179
100
AcDbEntity
  8
1
  6
Continuous
100
AcDbLine
 10
315.382861
 20
184.111835
 30
0.0
 11
317.382861
 21
182.498601
 31
0.0
  0
LINE
  5
B34B
330
B179
100
AcDbEntity
  8
1
  6
Continuous
100
AcDbLine
 10
317.9686479999999
 20
184.111835
 30
0.0
 11
315.9686479999999
 21
182.498601
 31
0.0
  0
LINE
  5
B34C
330
B179
100
AcDbEntity
  8
1
  6
Continuous
100
AcDbLine
 10
313.9686479999999
 20
184.111835
 30
0.0
 11
315.9686479999999
 21
182.498601
 31
0.0
  0
ARC
  5
B34D
330
B179
100
AcDbEntity
  8
1
  6
Continuous
100
AcDbCircle
 10
310.631718
 20
170.313251
 30
0.0
 40
3.262005999999998
100
AcDbArc
 50
39.701034
 51
48.378449
  0
ARC
  5
B34E
330
B179
100
AcDbEntity
  8
1
  6
Continuous
100
AcDbCircle
 10
309.5409969999999
 20
170.838233
 30
0.0
 40
3.470911
100
AcDbArc
 50
60.452662
 51
78.73786199999997
  0
ARC
  5
B34F
330
B179
100
AcDbEntity
  8
1
  6
Continuous
100
AcDbCircle
 10
306.796694
 20
165.997031
 30
0.0
 40
9.035839999999996
100
AcDbArc
 50
48.378449
 51
60.452662
  0
ARC
  5
B350
330
B179
100
AcDbEntity
  8
1
  6
Continuous
100
AcDbCircle
 10
358.4149049999999
 20
209.985074
 30
0.0
 40
58.84344099999999
100
AcDbArc
 50
219.7010339999999
 51
222.287157
  0
ARC
  5
B351
330
B179
100
AcDbEntity
  8
1
  6
Continuous
100
AcDbCircle
 10
309.725161
 20
180.7453689999999
 30
0.0
 40
6.348405999999997
100
AcDbArc
 50
262.7310089999999
 51
265.9394669999999
  0
LINE
  5
B352
330
B179
100
AcDbEntity
  8
1
  6
Continuous
100
AcDbLine
 10
321.0397159999998
 20
184.111835
 30
0.0
 11
323.0397159999998
 21
182.498601
 31
0.0
  0
LINE
  5
B353
330
B179
100
AcDbEntity
  8
1
  6
Continuous
100
AcDbLine
 10
323.6255019999999
 20
184.111835
 30
0.0
 11
321.6255019999999
 21
182.498601
 31
0.0
  0
LINE
  5
B354
330
B179
100
AcDbEntity
  8
1
  6
Continuous
100
AcDbLine
 10
319.6255019999999
 20
184.111835
 30
0.0
 11
321.6255019999999
 21
182.498601
 31
0.0
  0
LINE
  5
B355
330
B179
100
AcDbEntity
  8
1
  6
Continuous
100
AcDbLine
 10
320.797075
 20
184.111835
 30
0.0
 11
318.797075
 21
182.498601
 31
0.0
  0
LINE
  5
B356
330
B179
100
AcDbEntity
  8
1
  6
Continuous
100
AcDbLine
 10
316.797075
 20
184.111835
 30
0.0
 11
318.797075
 21
182.498601
 31
0.0
  0
LINE
  5
B357
330
B179
100
AcDbEntity
  8
1
  6
Continuous
100
AcDbLine
 10
318.2112879999999
 20
184.111835
 30
0.0
 11
320.2112879999999
 21
182.498601
 31
0.0
  0
LINE
  5
B358
330
B179
100
AcDbEntity
  8
1
  6
Continuous
100
AcDbLine
 10
305.4833659999999
 20
184.111835
 30
0.0
 11
307.4833659999999
 21
182.498601
 31
0.0
  0
LINE
  5
B359
330
B179
100
AcDbEntity
  8
1
  6
Continuous
100
AcDbLine
 10
306.654939
 20
184.111835
 30
0.0
 11
304.654939
 21
182.498601
 31
0.0
  0
LINE
  5
B35A
330
B179
100
AcDbEntity
  8
1
  6
Continuous
100
AcDbLine
 10
303.8265119999999
 20
184.111835
 30
0.0
 11
303.1255019999999
 21
183.4108249999999
 31
0.0
  0
ARC
  5
B35B
330
B179
100
AcDbEntity
  8
1
  6
Continuous
100
AcDbCircle
 10
304.079833
 20
185.2579039999999
 30
0.0
 40
0.8364709999999998
100
AcDbArc
 50
102.3749159999999
 51
160.6585409999999
  0
ARC
  5
B35C
330
B179
100
AcDbEntity
  8
1
  6
Continuous
100
AcDbCircle
 10
309.5372759999999
 20
186.963186
 30
0.0
 40
6.407901999999999
100
AcDbArc
 50
192.8787169999999
 51
205.64444
  0
LINE
  5
B35D
330
B179
100
AcDbEntity
  8
1
  6
Continuous
100
AcDbLine
 10
303.1255019999999
 20
184.111835
 30
0.0
 11
303.1255019999999
 21
182.498601
 31
0.0
  0
LINE
  5
B35E
330
B179
100
AcDbEntity
  8
1
  6
Continuous
100
AcDbLine
 10
303.1255019999999
 20
182.6138239999999
 30
0.0
 11
303.2407259999998
 21
182.498601
 31
0.0
  0
ARC
  5
B35F
330
B179
100
AcDbEntity
  8
1
  6
Continuous
100
AcDbCircle
 10
313.484208
 20
176.704375
 30
0.0
 40
10.81643699999998
100
AcDbArc
 50
160.4403529999999
 51
162.882645
  0
ARC
  5
B360
330
B179
100
AcDbEntity
  8
1
  6
Continuous
100
AcDbCircle
 10
307.7319689999999
 20
178.4759019999999
 30
0.0
 40
4.797585999999999
100
AcDbArc
 50
162.882645
 51
177.353025
  0
ARC
  5
B361
330
B179
100
AcDbEntity
  8
1
  6
Continuous
100
AcDbCircle
 10
295.9557439999999
 20
178.5241919999999
 30
0.0
 40
6.985907
100
AcDbArc
 50
353.0180029999999
 51
1.421261
  0
LINE
  5
B362
330
B179
100
AcDbEntity
  8
1
  6
Continuous
100
AcDbLine
 10
303.827471
 20
175.3819969999999
 30
0.0
 11
303.8855709999999
 21
175.3924529999999
 31
0.0
  0
ARC
  5
B363
330
B179
100
AcDbEntity
  8
1
  6
Continuous
100
AcDbCircle
 10
303.9955739999999
 20
185.499407
 30
0.0
 40
10.10755199999998
100
AcDbArc
 50
269.3764279999999
 51
271.8826729999999
  0
ARC
  5
B364
330
B179
100
AcDbEntity
  8
1
  6
Continuous
100
AcDbCircle
 10
307.864618
 20
179.01377
 30
0.0
 40
4.757115999999999
100
AcDbArc
 50
141.843592
 51
163.9927399999999
  0
LINE
  5
B365
330
B179
100
AcDbEntity
  8
1
  6
Continuous
100
AcDbLine
 10
302.875285
 20
177.616486
 30
0.0
 11
302.6255019999999
 21
175.762876
 31
0.0
  0
LINE
  5
B366
330
B179
100
AcDbEntity
  8
1
  6
Continuous
100
AcDbLine
 10
303.827471
 20
175.3819969999999
 30
0.0
 11
302.6255019999999
 21
175.762876
 31
0.0
  0
LINE
  5
B367
330
B179
100
AcDbEntity
  8
1
  6
Continuous
100
AcDbLine
 10
304.0691529999999
 20
184.111835
 30
0.0
 11
306.0691529999999
 21
182.498601
 31
0.0
  0
LINE
  5
B368
330
B179
100
AcDbEntity
  8
1
  6
Continuous
100
AcDbLine
 10
303.1255019999999
 20
183.641272
 30
0.0
 11
304.654939
 21
182.498601
 31
0.0
  0
ARC
  5
B369
330
B179
100
AcDbEntity
  8
1
  6
Continuous
100
AcDbCircle
 10
305.6958179999999
 20
180.3367859999999
 30
0.0
 40
2.254351999999999
100
AcDbArc
 50
106.473291
 51
134.206902
  0
ARC
  5
B36A
330
B179
100
AcDbEntity
  8
1
  6
Continuous
100
AcDbCircle
 10
304.524221
 20
175.8890879999999
 30
0.0
 40
0.529613
100
AcDbArc
 50
248.2113149999999
 51
282.6736619999999
  0
ARC
  5
B36B
330
B179
100
AcDbEntity
  8
1
  6
Continuous
100
AcDbCircle
 10
303.8649279999999
 20
189.997448
 30
0.0
 40
3.611
100
AcDbArc
 50
206.220637
 51
270.0
  0
LINE
  5
B36C
330
B179
100
AcDbEntity
  8
1
  6
Continuous
100
AcDbLine
 10
291.6255019999999
 20
188.369573
 30
0.0
 11
291.6255019999999
 21
190.369876
 31
0.0
  0
LINE
  5
B36D
330
B179
100
AcDbEntity
  8
4
  6
CENTER
100
AcDbLine
 10
341.625617
 20
120.3698759999999
 30
0.0
 11
341.625617
 21
176.369876
 31
0.0
  0
LINE
  5
B36E
330
B179
100
AcDbEntity
  8
4
  6
CENTER
100
AcDbLine
 10
183.908626
 20
67.085669
 30
0.0
 11
99.41836700000001
 21
67.085669
 31
0.0
  0
LINE
  5
B36F
330
B179
100
AcDbEntity
  8
4
  6
CENTER
100
AcDbLine
 10
179.158626
 20
52.58566899999999
 30
0.0
 11
166.658626
 21
52.58566899999999
 31
0.0
  0
LINE
  5
B370
330
B179
100
AcDbEntity
  8
4
  6
CENTER
100
AcDbLine
 10
179.158626
 20
81.58566899999998
 30
0.0
 11
166.658626
 21
81.58566899999998
 31
0.0
  0
ARC
  5
B371
330
B179
100
AcDbEntity
  8
1
  6
Continuous
100
AcDbCircle
 10
176.9086259999999
 20
85.58566899999998
 30
0.0
 40
2.5
100
AcDbArc
 50
0.0
 51
90.0
  0
ARC
  5
B372
330
B179
100
AcDbEntity
  8
1
  6
Continuous
100
AcDbCircle
 10
176.9086259999999
 20
48.585669
 30
0.0
 40
2.5
100
AcDbArc
 50
270.0
 51
0.0
  0
LINE
  5
B373
330
B179
100
AcDbEntity
  8
1
  6
Continuous
100
AcDbLine
 10
119.4086259999999
 20
48.585669
 30
0.0
 11
119.4086259999999
 21
57.085669
 31
0.0
  0
LINE
  5
B374
330
B179
100
AcDbEntity
  8
4
  6
CENTER
100
AcDbLine
 10
149.4086259999999
 20
41.085669
 30
0.0
 11
149.4086259999999
 21
93.217414
 31
0.0
  0
LINE
  5
B375
330
B179
100
AcDbEntity
  8
4
  6
CENTER
100
AcDbLine
 10
125.9086259999999
 20
75.33566899999998
 30
0.0
 11
125.9086259999999
 21
87.83566899999998
 31
0.0
  0
LINE
  5
B376
330
B179
100
AcDbEntity
  8
4
  6
CENTER
100
AcDbLine
 10
172.908626
 20
75.33566899999998
 30
0.0
 11
172.908626
 21
87.83566899999998
 31
0.0
  0
LINE
  5
B377
330
B179
100
AcDbEntity
  8
1
  6
Continuous
100
AcDbLine
 10
121.908626
 20
88.08566899999998
 30
0.0
 11
176.9086259999999
 21
88.08566899999998
 31
0.0
  0
LINE
  5
B378
330
B179
100
AcDbEntity
  8
4
  6
CENTER
100
AcDbLine
 10
132.1586259999999
 20
81.58566899999998
 30
0.0
 11
119.6586259999999
 21
81.58566899999998
 31
0.0
  0
ARC
  5
B379
330
B179
100
AcDbEntity
  8
1
  6
Continuous
100
AcDbCircle
 10
125.9086259999999
 20
81.58566899999998
 30
0.0
 40
3.25
100
AcDbArc
 50
31.645449
 51
175.962152
  0
ARC
  5
B37A
330
B179
100
AcDbEntity
  8
1
  6
Continuous
100
AcDbCircle
 10
121.908626
 20
85.58566899999998
 30
0.0
 40
2.5
100
AcDbArc
 50
90.0
 51
180.0
  0
CIRCLE
  5
B37B
330
B179
100
AcDbEntity
  8
1
  6
Continuous
100
AcDbCircle
 10
172.908626
 20
81.58566899999998
 30
0.0
 40
3.25
  0
LINE
  5
B37C
330
B179
100
AcDbEntity
  8
1
  6
Continuous
100
AcDbLine
 10
121.908626
 20
46.085669
 30
0.0
 11
176.9086259999999
 21
46.085669
 31
0.0
  0
ARC
  5
B37D
330
B179
100
AcDbEntity
  8
1
  6
Continuous
100
AcDbCircle
 10
125.9086259999999
 20
52.58566899999999
 30
0.0
 40
3.25
100
AcDbArc
 50
112.6198649999998
 51
147.000273
  0
LINE
  5
B37E
330
B179
100
AcDbEntity
  8
4
  6
CENTER
100
AcDbLine
 10
125.9086259999999
 20
58.83566899999999
 30
0.0
 11
125.9086259999999
 21
46.335669
 31
0.0
  0
LINE
  5
B37F
330
B179
100
AcDbEntity
  8
4
  6
CENTER
100
AcDbLine
 10
132.1586259999999
 20
52.58566899999999
 30
0.0
 11
119.6586259999999
 21
52.58566899999999
 31
0.0
  0
ARC
  5
B380
330
B179
100
AcDbEntity
  8
1
  6
Continuous
100
AcDbCircle
 10
121.908626
 20
48.585669
 30
0.0
 40
2.5
100
AcDbArc
 50
180.0
 51
270.0
  0
LINE
  5
B381
330
B179
100
AcDbEntity
  8
4
  6
CENTER
100
AcDbLine
 10
172.908626
 20
58.83566899999999
 30
0.0
 11
172.908626
 21
46.335669
 31
0.0
  0
CIRCLE
  5
B382
330
B179
100
AcDbEntity
  8
1
  6
Continuous
100
AcDbCircle
 10
172.908626
 20
52.58566899999999
 30
0.0
 40
3.25
  0
LINE
  5
B383
330
B179
100
AcDbEntity
  8
1
  6
Continuous
100
AcDbLine
 10
179.408626
 20
48.585669
 30
0.0
 11
179.408626
 21
85.58566899999998
 31
0.0
  0
ARC
  5
B384
330
B179
100
AcDbEntity
  8
1
  6
Continuous
100
AcDbCircle
 10
129.408073
 20
56.613225
 30
0.0
 40
6.770832999999998
100
AcDbArc
 50
231.11993
 51
308.8800700000001
  0
LINE
  5
B385
330
B179
100
AcDbEntity
  8
1
  6
Continuous
100
AcDbLine
 10
126.408073
 20
54.33598899999999
 30
0.0
 11
126.408073
 21
55.58566899999998
 31
0.0
  0
LINE
  5
B386
330
B179
100
AcDbEntity
  8
1
  6
Continuous
100
AcDbLine
 10
125.158073
 20
51.34239199999999
 30
0.0
 11
125.158073
 21
52.333315
 31
0.0
  0
LINE
  5
B387
330
B179
100
AcDbEntity
  8
1
  6
Continuous
100
AcDbLine
 10
132.408073
 20
54.34880299999999
 30
0.0
 11
132.408073
 21
55.58566899999998
 31
0.0
  0
LINE
  5
B388
330
B179
100
AcDbEntity
  8
1
  6
Continuous
100
AcDbLine
 10
133.658073
 20
51.34239199999999
 30
0.0
 11
133.658073
 21
52.333591
 31
0.0
  0
LINE
  5
B389
330
B179
100
AcDbEntity
  8
1
  6
Continuous
100
AcDbLine
 10
125.158073
 20
51.34239199999999
 30
0.0
 11
133.658073
 21
51.34239199999999
 31
0.0
  0
ARC
  5
B38A
330
B179
100
AcDbEntity
  8
1
  6
Continuous
100
AcDbCircle
 10
129.393594
 20
76.549025
 30
0.0
 40
6.779940999999999
100
AcDbArc
 50
51.02474
 51
128.730535
  0
LINE
  5
B38B
330
B179
100
AcDbEntity
  8
1
  6
Continuous
100
AcDbLine
 10
126.408073
 20
78.58566899999998
 30
0.0
 11
126.408073
 21
79.82242099999997
 31
0.0
  0
LINE
  5
B38C
330
B179
100
AcDbEntity
  8
1
  6
Continuous
100
AcDbLine
 10
132.408073
 20
78.58566899999998
 30
0.0
 11
132.408073
 21
79.822535
 31
0.0
  0
LINE
  5
B38D
330
B179
100
AcDbEntity
  8
1
  6
Continuous
100
AcDbLine
 10
134.3212709999999
 20
81.83914799999998
 30
0.0
 11
122.118531
 21
81.81336100000001
 31
0.0
  0
LINE
  5
B38E
330
B179
100
AcDbEntity
  8
1
  6
Continuous
100
AcDbLine
 10
134.325498
 20
79.83915299999998
 30
0.0
 11
122.118531
 21
79.813356
 31
0.0
  0
LINE
  5
B38F
330
B179
100
AcDbEntity
  8
1
  6
Continuous
100
AcDbLine
 10
134.3212709999999
 20
52.33219
 30
0.0
 11
122.118531
 21
52.35797699999999
 31
0.0
  0
LINE
  5
B390
330
B179
100
AcDbEntity
  8
1
  6
Continuous
100
AcDbLine
 10
134.325498
 20
54.332186
 30
0.0
 11
122.118531
 21
54.35798199999999
 31
0.0
  0
LINE
  5
B391
330
B179
100
AcDbEntity
  8
4
  6
CENTER
100
AcDbLine
 10
129.408073
 20
93.217414
 30
0.0
 11
129.408073
 21
41.085669
 31
0.0
  0
LINE
  5
B392
330
B179
100
AcDbEntity
  8
1
  6
Continuous
100
AcDbLine
 10
119.4086259999999
 20
77.08566899999998
 30
0.0
 11
119.4086259999999
 21
85.58566899999998
 31
0.0
  0
LINE
  5
B393
330
B179
100
AcDbEntity
  8
1
  6
Continuous
100
AcDbLine
 10
122.118531
 20
81.81336100000001
 30
0.0
 11
122.118531
 21
79.813356
 31
0.0
  0
LINE
  5
B394
330
B179
100
AcDbEntity
  8
1
  6
Continuous
100
AcDbLine
 10
122.118531
 20
54.35798199999999
 30
0.0
 11
122.118531
 21
52.35797699999999
 31
0.0
  0
ARC
  5
B395
330
B179
100
AcDbEntity
  8
1
  6
Continuous
100
AcDbCircle
 10
149.4086259999999
 20
67.085669
 30
0.0
 40
19.0
100
AcDbArc
 50
238.601835
 51
121.398165
  0
ARC
  5
B396
330
B179
100
AcDbEntity
  8
1
  6
Continuous
100
AcDbCircle
 10
149.4086259999999
 20
67.085669
 30
0.0
 40
17.0
100
AcDbArc
 50
238.601834
 51
121.3981659999999
  0
ARC
  5
B397
330
B179
100
AcDbEntity
  8
1
  6
Continuous
100
AcDbCircle
 10
134.3001389999998
 20
91.83912599999999
 30
0.0
 40
10.0
100
AcDbArc
 50
270.12108
 51
301.398165
  0
ARC
  5
B398
330
B179
100
AcDbEntity
  8
1
  6
Continuous
100
AcDbCircle
 10
134.3001389999998
 20
91.83912599999999
 30
0.0
 40
12.0
100
AcDbArc
 50
270.121082
 51
301.398166
  0
ARC
  5
B399
330
B179
100
AcDbEntity
  8
1
  6
Continuous
100
AcDbCircle
 10
134.3001389999998
 20
42.332212
 30
0.0
 40
10.0
100
AcDbArc
 50
58.60183499999998
 51
89.87891999999998
  0
ARC
  5
B39A
330
B179
100
AcDbEntity
  8
1
  6
Continuous
100
AcDbCircle
 10
134.3001389999998
 20
42.332212
 30
0.0
 40
12.0
100
AcDbArc
 50
58.601834
 51
89.87891799999998
  0
ARC
  5
B39B
330
B179
100
AcDbEntity
  8
1
  6
Continuous
100
AcDbCircle
 10
125.9086259999999
 20
81.58566899999998
 30
0.0
 40
3.25
100
AcDbArc
 50
212.999727
 51
247.380135
  0
ARC
  5
B39C
330
B179
100
AcDbEntity
  8
1
  6
Continuous
100
AcDbCircle
 10
125.9086259999999
 20
52.58566899999999
 30
0.0
 40
3.25
100
AcDbArc
 50
184.037848
 51
307.681712
  0
ARC
  5
B39D
330
B179
100
AcDbEntity
  8
1
  6
Continuous
100
AcDbCircle
 10
149.4086259999999
 20
67.085669
 30
0.0
 40
13.2
100
AcDbArc
 50
229.250946
 51
130.749054
  0
ARC
  5
B39E
330
B179
100
AcDbEntity
  8
1
  6
Continuous
100
AcDbCircle
 10
149.4086259999999
 20
67.085669
 30
0.0
 40
15.09999999999999
100
AcDbArc
 50
221.471824
 51
138.528176
  0
ARC
  5
B39F
330
B179
100
AcDbEntity
  8
1
  6
Continuous
100
AcDbCircle
 10
149.4086259999999
 20
67.085669
 30
0.0
 40
5.4
100
AcDbArc
 50
337.185281
 51
22.814719
  0
ARC
  5
B3A0
330
B179
100
AcDbEntity
  8
1
  6
Continuous
100
AcDbCircle
 10
149.4086259999999
 20
67.085669
 30
0.0
 40
20.983387
100
AcDbArc
 50
224.683268
 51
135.316732
  0
LINE
  5
B3A1
330
B179
100
AcDbEntity
  8
1
  6
Continuous
100
AcDbLine
 10
129.149562
 20
231.9115329999999
 30
0.0
 11
122.6666929999999
 21
231.9252329999999
 31
0.0
  0
ARC
  5
B3A2
330
B179
100
AcDbEntity
  8
1
  6
Continuous
100
AcDbCircle
 10
129.393594
 20
237.190727
 30
0.0
 40
6.779940999999999
100
AcDbArc
 50
231.269465
 51
263.9191809999999
  0
LINE
  5
B3A3
330
B179
100
AcDbEntity
  8
1
  6
Continuous
100
AcDbLine
 10
126.218194
 20
233.917733
 30
0.0
 11
123.1829379999998
 21
233.9241470000001
 31
0.0
  0
LINE
  5
B3A4
330
B179
100
AcDbEntity
  8
1
  6
Continuous
100
AcDbLine
 10
125.158073
 20
262.3973599999998
 30
0.0
 11
128.911418
 21
262.3973599999998
 31
0.0
  0
ARC
  5
B3A5
330
B179
100
AcDbEntity
  8
1
  6
Continuous
100
AcDbCircle
 10
129.408073
 20
257.126527
 30
0.0
 40
6.770832999999998
100
AcDbArc
 50
102.9105539999999
 51
128.8800699999999
  0
LINE
  5
B3A6
330
B179
100
AcDbEntity
  8
1
  6
Continuous
100
AcDbLine
 10
125.158073
 20
262.3973599999998
 30
0.0
 11
125.158073
 21
261.4064369999999
 31
0.0
  0
LINE
  5
B3A7
330
B179
100
AcDbEntity
  8
1
  6
Continuous
100
AcDbLine
 10
129.149562
 20
261.396633
 30
0.0
 11
122.6666929999999
 21
261.3829329999999
 31
0.0
  0
LINE
  5
B3A8
330
B179
100
AcDbEntity
  8
1
  6
Continuous
100
AcDbLine
 10
126.218194
 20
259.3904339999999
 30
0.0
 11
123.1829379999998
 21
259.3840189999998
 31
0.0
  0
ARC
  5
B3A9
330
B179
100
AcDbEntity
  8
1
  6
Continuous
100
AcDbCircle
 10
170.999358
 20
67.085669
 30
0.0
 40
46.55713999999998
100
AcDbArc
 50
164.1235529999999
 51
165.699451
  0
ARC
  5
B3AA
330
B179
100
AcDbEntity
  8
1
  6
Continuous
100
AcDbCircle
 10
170.999358
 20
67.085669
 30
0.0
 40
46.55713999999998
100
AcDbArc
 50
194.300549
 51
195.876447
  0
ARC
  5
B3AB
330
B179
100
AcDbEntity
  8
1
  6
Continuous
100
AcDbCircle
 10
170.999358
 20
246.654083
 30
0.0
 40
46.55713999999998
100
AcDbArc
 50
193.9847279999999
 51
198.45441
  0
ARC
  5
B3AC
330
B179
100
AcDbEntity
  8
1
  6
Continuous
100
AcDbCircle
 10
170.999358
 20
246.654083
 30
0.0
 40
46.55713999999998
100
AcDbArc
 50
161.54559
 51
166.015272
  0
ARC
  5
B3AD
330
B179
100
AcDbEntity
  8
1
  6
Continuous
100
AcDbCircle
 10
173.601604
 20
162.4823079999999
 30
0.0
 40
79.02195899999998
100
AcDbArc
 50
356.526268
 51
3.236625
  0
LINE
  5
B3AE
330
B179
100
AcDbEntity
  8
1
  6
Continuous
100
AcDbLine
 10
250.247651
 20
142.5537789999999
 30
0.0
 11
250.2405779999999
 21
139.2066269999999
 31
0.0
  0
ARC
  5
B3AF
330
B179
100
AcDbEntity
  8
1
  6
Continuous
100
AcDbCircle
 10
237.4447889999999
 20
157.6942949999998
 30
0.0
 40
17.07205599999999
100
AcDbArc
 50
328.555994
 51
0.0
  0
ARC
  5
B3B0
330
B179
100
AcDbEntity
  8
1
  6
Continuous
100
AcDbCircle
 10
235.406318
 20
157.6942949999998
 30
0.0
 40
17.07205599999999
100
AcDbArc
 50
328.702125
 51
0.0
  0
ARC
  5
B3B1
330
B179
100
AcDbEntity
  8
1
  6
Continuous
100
AcDbCircle
 10
262.2476239999999
 20
142.5284199999999
 30
0.0
 40
12.0
100
AcDbArc
 50
148.5559939999999
 51
179.8789199999999
  0
ARC
  5
B3B2
330
B179
100
AcDbEntity
  8
1
  6
Continuous
100
AcDbCircle
 10
260.2477529999998
 20
142.5917279999999
 30
0.0
 40
12.0
100
AcDbArc
 50
148.7021249999999
 51
179.8789179999999
  0
ARC
  5
B3B3
330
B179
100
AcDbEntity
  8
1
  6
Continuous
100
AcDbCircle
 10
235.6273709999999
 20
157.6942949999998
 30
0.0
 40
17.07205599999999
100
AcDbArc
 50
180.0
 51
211.2978749999999
  0
ARC
  5
B3B4
330
B179
100
AcDbEntity
  8
1
  6
Continuous
100
AcDbCircle
 10
233.5889009999999
 20
157.6942949999998
 30
0.0
 40
17.07205599999999
100
AcDbArc
 50
180.0
 51
211.444006
  0
ARC
  5
B3B5
330
B179
100
AcDbEntity
  8
1
  6
Continuous
100
AcDbCircle
 10
208.7860649999998
 20
142.5284199999999
 30
0.0
 40
12.0
100
AcDbArc
 50
0.12108
 51
31.44400599999999
  0
ARC
  5
B3B6
330
B179
100
AcDbEntity
  8
1
  6
Continuous
100
AcDbCircle
 10
210.7859359999999
 20
142.5917279999999
 30
0.0
 40
12.0
100
AcDbArc
 50
0.121082
 51
31.297875
  0
ARC
  5
B3B7
330
B179
100
AcDbEntity
  8
1
  6
Continuous
100
AcDbCircle
 10
129.408073
 20
148.369876
 30
0.0
 40
8.5
100
AcDbArc
 50
138.7756169999998
 51
239.981802
  0
ARC
  5
B3B8
330
B179
100
AcDbEntity
  8
1
  6
Continuous
100
AcDbCircle
 10
129.408073
 20
148.369876
 30
0.0
 40
25.0
100
AcDbArc
 50
98.15888300000001
 51
34.430256
  0
ARC
  5
B3B9
330
B179
100
AcDbEntity
  8
1
  6
Continuous
100
AcDbCircle
 10
129.408073
 20
148.369876
 30
0.0
 40
17.5
100
AcDbArc
 50
105.65191
 51
24.01566199999999
  0
LINE
  5
B3BA
330
B179
100
AcDbEntity
  8
1
  6
Continuous
100
AcDbLine
 10
107.004923
 20
256.654083
 30
0.0
 11
119.4086259999999
 21
256.654083
 31
0.0
  0
LINE
  5
B3BB
330
B179
100
AcDbEntity
  8
1
  6
Continuous
100
AcDbLine
 10
119.4086259999999
 20
236.654083
 30
0.0
 11
107.004923
 21
236.654083
 31
0.0
  0
LINE
  5
B3BC
330
B179
100
AcDbEntity
  8
1
  6
Continuous
100
AcDbLine
 10
125.8848669999999
 20
235.154083
 30
0.0
 11
124.6586259999999
 21
235.154083
 31
0.0
  0
LINE
  5
B3BD
330
B179
100
AcDbEntity
  8
1
  6
Continuous
100
AcDbLine
 10
125.8848669999999
 20
258.154083
 30
0.0
 11
124.6586259999999
 21
258.154083
 31
0.0
  0
ARC
  5
B3BE
330
B179
100
AcDbEntity
  8
1
  6
Continuous
100
AcDbCircle
 10
139.4086259999999
 20
246.654083
 30
0.0
 40
35.0
100
AcDbArc
 50
165.2995439999999
 51
194.698424
  0
ARC
  5
B3BF
330
B179
100
AcDbEntity
  8
1
  6
Continuous
100
AcDbCircle
 10
107.004922
 20
238.154083
 30
0.0
 40
1.5
100
AcDbArc
 50
194.698424
 51
270.0
  0
ARC
  5
B3C0
330
B179
100
AcDbEntity
  8
1
  6
Continuous
100
AcDbCircle
 10
107.004922
 20
255.1540829999999
 30
0.0
 40
1.5
100
AcDbArc
 50
90.0
 51
165.301576
  0
ARC
  5
B3C1
330
B179
100
AcDbEntity
  8
1
  6
Continuous
100
AcDbCircle
 10
341.625617
 20
148.369876
 30
0.0
 40
25.0
100
AcDbArc
 50
145.5697439999999
 51
81.84111699999998
  0
ARC
  5
B3C2
330
B179
100
AcDbEntity
  8
1
  6
Continuous
100
AcDbCircle
 10
341.625617
 20
148.369876
 30
0.0
 40
17.5
100
AcDbArc
 50
155.984338
 51
74.34809
  0
ARC
  5
B3C3
330
B179
100
AcDbEntity
  8
1
  6
Continuous
100
AcDbCircle
 10
341.625617
 20
148.369876
 30
0.0
 40
8.5
100
AcDbArc
 50
300.018198
 51
41.224383
  0
ARC
  5
B3C4
330
B179
100
AcDbEntity
  8
1
  6
Continuous
100
AcDbCircle
 10
48.29951099999998
 20
138.3751909999998
 30
0.0
 40
35.0
100
AcDbArc
 50
75.29954399999998
 51
104.698424
  0
ARC
  5
B3C5
330
B179
100
AcDbEntity
  8
1
  6
Continuous
100
AcDbCircle
 10
48.29951099999998
 20
158.375191
 30
0.0
 40
35.0
100
AcDbArc
 50
255.301576
 51
284.7004559999998
  0
LINE
  5
B3C6
330
B179
100
AcDbEntity
  8
1
  6
Continuous
100
AcDbLine
 10
38.29951099999997
 20
125.971487
 30
0.0
 11
38.29951099999997
 21
170.778894
 31
0.0
  0
ARC
  5
B3C7
330
B179
100
AcDbEntity
  8
1
  6
Continuous
100
AcDbCircle
 10
39.79951099999999
 20
125.971487
 30
0.0
 40
1.5
100
AcDbArc
 50
180.0
 51
255.301576
  0
LINE
  5
B3C8
330
B179
100
AcDbEntity
  8
1
  6
Continuous
100
AcDbLine
 10
36.79951099999998
 20
139.875191
 30
0.0
 11
36.79951099999998
 21
156.875191
 31
0.0
  0
LINE
  5
B3C9
330
B179
100
AcDbEntity
  8
1
  6
Continuous
100
AcDbLine
 10
36.79951099999998
 20
139.875191
 30
0.0
 11
38.29951099999997
 21
139.875191
 31
0.0
  0
LINE
  5
B3CA
330
B179
100
AcDbEntity
  8
1
  6
Continuous
100
AcDbLine
 10
36.79951099999998
 20
156.875191
 30
0.0
 11
38.29951099999997
 21
156.875191
 31
0.0
  0
ARC
  5
B3CB
330
B179
100
AcDbEntity
  8
1
  6
Continuous
100
AcDbCircle
 10
39.79951099999999
 20
170.778895
 30
0.0
 40
1.5
100
AcDbArc
 50
104.698424
 51
180.0
  0
LINE
  5
B3CC
330
B179
100
AcDbEntity
  8
1
  6
Continuous
100
AcDbLine
 10
58.29951099999998
 20
170.778894
 30
0.0
 11
58.29951099999998
 21
125.971487
 31
0.0
  0
ARC
  5
B3CD
330
B179
100
AcDbEntity
  8
1
  6
Continuous
100
AcDbCircle
 10
56.799511
 20
125.971487
 30
0.0
 40
1.5
100
AcDbArc
 50
284.6984239999999
 51
0.0
  0
LINE
  5
B3CE
330
B179
100
AcDbEntity
  8
1
  6
Continuous
100
AcDbLine
 10
59.799511
 20
139.875191
 30
0.0
 11
59.799511
 21
156.875191
 31
0.0
  0
LINE
  5
B3CF
330
B179
100
AcDbEntity
  8
1
  6
Continuous
100
AcDbLine
 10
59.799511
 20
139.875191
 30
0.0
 11
58.29951099999998
 21
139.875191
 31
0.0
  0
LINE
  5
B3D0
330
B179
100
AcDbEntity
  8
1
  6
Continuous
100
AcDbLine
 10
59.799511
 20
156.875191
 30
0.0
 11
58.29951099999998
 21
156.875191
 31
0.0
  0
ARC
  5
B3D1
330
B179
100
AcDbEntity
  8
1
  6
Continuous
100
AcDbCircle
 10
56.799511
 20
170.778895
 30
0.0
 40
1.5
100
AcDbArc
 50
0.0
 51
75.30157599999999
  0
ARC
  5
B3D2
330
B179
100
AcDbEntity
  8
1
  6
Continuous
100
AcDbCircle
 10
235.5168449999999
 20
158.369317
 30
0.0
 40
35.0
100
AcDbArc
 50
255.301576
 51
284.7004559999998
  0
ARC
  5
B3D3
330
B179
100
AcDbEntity
  8
1
  6
Continuous
100
AcDbCircle
 10
235.5168449999999
 20
138.3693169999999
 30
0.0
 40
35.0
100
AcDbArc
 50
75.29954399999998
 51
104.698424
  0
LINE
  5
B3D4
330
B179
100
AcDbEntity
  8
1
  6
Continuous
100
AcDbLine
 10
225.5168449999999
 20
125.9656129999999
 30
0.0
 11
225.5168449999999
 21
170.77302
 31
0.0
  0
ARC
  5
B3D5
330
B179
100
AcDbEntity
  8
1
  6
Continuous
100
AcDbCircle
 10
227.0168449999999
 20
125.9656129999999
 30
0.0
 40
1.5
100
AcDbArc
 50
180.0
 51
255.301576
  0
LINE
  5
B3D6
330
B179
100
AcDbEntity
  8
1
  6
Continuous
100
AcDbLine
 10
224.016845
 20
156.8693169999999
 30
0.0
 11
225.5168449999999
 21
156.8693169999999
 31
0.0
  0
LINE
  5
B3D7
330
B179
100
AcDbEntity
  8
1
  6
Continuous
100
AcDbLine
 10
224.016845
 20
139.869317
 30
0.0
 11
225.5168449999999
 21
139.869317
 31
0.0
  0
LINE
  5
B3D8
330
B179
100
AcDbEntity
  8
1
  6
Continuous
100
AcDbLine
 10
224.016845
 20
139.869317
 30
0.0
 11
224.016845
 21
156.8693169999999
 31
0.0
  0
ARC
  5
B3D9
330
B179
100
AcDbEntity
  8
1
  6
Continuous
100
AcDbCircle
 10
227.0168449999999
 20
170.773021
 30
0.0
 40
1.5
100
AcDbArc
 50
104.698424
 51
180.0
  0
LINE
  5
B3DA
330
B179
100
AcDbEntity
  8
1
  6
Continuous
100
AcDbLine
 10
245.5168449999999
 20
170.77302
 30
0.0
 11
245.5168449999999
 21
125.9656129999999
 31
0.0
  0
ARC
  5
B3DB
330
B179
100
AcDbEntity
  8
1
  6
Continuous
100
AcDbCircle
 10
244.0168449999999
 20
125.9656129999999
 30
0.0
 40
1.5
100
AcDbArc
 50
284.6984239999999
 51
0.0
  0
LINE
  5
B3DC
330
B179
100
AcDbEntity
  8
1
  6
Continuous
100
AcDbLine
 10
247.016845
 20
156.8693169999999
 30
0.0
 11
245.5168449999999
 21
156.8693169999999
 31
0.0
  0
LINE
  5
B3DD
330
B179
100
AcDbEntity
  8
1
  6
Continuous
100
AcDbLine
 10
247.016845
 20
139.869317
 30
0.0
 11
245.5168449999999
 21
139.869317
 31
0.0
  0
LINE
  5
B3DE
330
B179
100
AcDbEntity
  8
1
  6
Continuous
100
AcDbLine
 10
247.016845
 20
139.869317
 30
0.0
 11
247.016845
 21
156.8693169999999
 31
0.0
  0
ARC
  5
B3DF
330
B179
100
AcDbEntity
  8
1
  6
Continuous
100
AcDbCircle
 10
244.0168449999999
 20
170.773021
 30
0.0
 40
1.5
100
AcDbArc
 50
0.0
 51
75.30157599999999
  0
ARC
  5
B3E0
330
B179
100
AcDbEntity
  8
1
  6
Continuous
100
AcDbCircle
 10
107.004369
 20
75.58566899999998
 30
0.0
 40
1.5
100
AcDbArc
 50
90.0
 51
165.301576
  0
LINE
  5
B3E1
330
B179
100
AcDbEntity
  8
1
  6
Continuous
100
AcDbLine
 10
120.9080729999999
 20
78.58566899999998
 30
0.0
 11
120.9080729999999
 21
77.08566899999998
 31
0.0
  0
LINE
  5
B3E2
330
B179
100
AcDbEntity
  8
1
  6
Continuous
100
AcDbLine
 10
137.908073
 20
78.58566899999998
 30
0.0
 11
137.908073
 21
77.08566899999998
 31
0.0
  0
ARC
  5
B3E3
330
B179
100
AcDbEntity
  8
1
  6
Continuous
100
AcDbCircle
 10
151.811777
 20
75.58566899999998
 30
0.0
 40
1.5
100
AcDbArc
 50
14.698424
 51
90.0
  0
LINE
  5
B3E4
330
B179
100
AcDbEntity
  8
1
  6
Continuous
100
AcDbLine
 10
151.811777
 20
57.085669
 30
0.0
 11
107.00437
 21
57.085669
 31
0.0
  0
LINE
  5
B3E5
330
B179
100
AcDbEntity
  8
1
  6
Continuous
100
AcDbLine
 10
107.00437
 20
77.08566899999998
 30
0.0
 11
151.811777
 21
77.08566899999998
 31
0.0
  0
ARC
  5
B3E6
330
B179
100
AcDbEntity
  8
1
  6
Continuous
100
AcDbCircle
 10
107.004369
 20
58.58566899999999
 30
0.0
 40
1.5
100
AcDbArc
 50
194.698424
 51
270.0
  0
ARC
  5
B3E7
330
B179
100
AcDbEntity
  8
1
  6
Continuous
100
AcDbCircle
 10
139.4080729999998
 20
67.085669
 30
0.0
 40
35.0
100
AcDbArc
 50
165.2995439999999
 51
194.698424
  0
LINE
  5
B3E8
330
B179
100
AcDbEntity
  8
1
  6
Continuous
100
AcDbLine
 10
137.908073
 20
55.58566899999998
 30
0.0
 11
120.9080729999999
 21
55.58566899999998
 31
0.0
  0
LINE
  5
B3E9
330
B179
100
AcDbEntity
  8
1
  6
Continuous
100
AcDbLine
 10
120.9080729999999
 20
55.58566899999998
 30
0.0
 11
120.9080729999999
 21
57.085669
 31
0.0
  0
LINE
  5
B3EA
330
B179
100
AcDbEntity
  8
1
  6
Continuous
100
AcDbLine
 10
137.908073
 20
55.58566899999998
 30
0.0
 11
137.908073
 21
57.085669
 31
0.0
  0
ARC
  5
B3EB
330
B179
100
AcDbEntity
  8
1
  6
Continuous
100
AcDbCircle
 10
151.811777
 20
58.58566899999999
 30
0.0
 40
1.5
100
AcDbArc
 50
270.0
 51
345.3015759999999
  0
ARC
  5
B3EC
330
B179
100
AcDbEntity
  8
1
  6
Continuous
100
AcDbCircle
 10
119.408073
 20
67.085669
 30
0.0
 40
35.0
100
AcDbArc
 50
345.3015759999999
 51
14.70045599999999
  0
LINE
  5
B3ED
330
B179
100
AcDbEntity
  8
1
  6
Continuous
100
AcDbLine
 10
137.908073
 20
78.58566899999998
 30
0.0
 11
120.9080729999999
 21
78.58566899999998
 31
0.0
  0
LINE
  5
B3EE
330
B179
100
AcDbEntity
  8
4
  6
CENTER
100
AcDbLine
 10
129.408626
 20
272.654083
 30
0.0
 11
129.408626
 21
220.522338
 31
0.0
  0
ENDSEC
  0
SECTION
  2
OBJECTS
  0
DICTIONARY
  5
B167
330
0
100
AcDbDictionary
281
     1
  3
ACAD_CIP_PREVIOUS_PRODUCT_INFO
350
B450
  3
ACAD_COLOR
350
B432
  3
ACAD_DETAILVIEWSTYLE
350
B44B
  3
ACAD_GROUP
350
B168
  3
ACAD_LAYOUT
350
B174
  3
ACAD_MATERIAL
350
B400
  3
ACAD_MLEADERSTYLE
350
B447
  3
ACAD_MLINESTYLE
350
B171
  3
ACAD_PLOTSETTINGS
350
B173
  3
ACAD_PLOTSTYLENAME
350
B3FE
  3
ACAD_SCALELIST
350
B435
  3
ACAD_SECTIONVIEWSTYLE
350
B449
  3
ACAD_TABLESTYLE
350
B433
  3
ACAD_VISUALSTYLE
350
B419
  3
ACDB_RECOMPOSE_DATA
350
B46E
  3
AcDbVariableDictionary
350
B461
  3
DWGPROPS
350
B46F
  0
DICTIONARY
  5
B451
330
B16B
100
AcDbDictionary
280
     1
281
     1
  3
ADSK_XREC_LAYER_RECONCILED
360
B452
  0
DICTIONARY
  5
B453
330
B181
100
AcDbDictionary
280
     1
281
     1
  3
ADSK_XREC_LAYER_RECONCILED
360
B454
  0
DICTIONARY
  5
B455
330
B182
100
AcDbDictionary
280
     1
281
     1
  3
ADSK_XREC_LAYER_RECONCILED
360
B456
  0
DICTIONARY
  5
B457
330
B183
100
AcDbDictionary
280
     1
281
     1
  3
ADSK_XREC_LAYER_RECONCILED
360
B458
  0
DICTIONARY
  5
B459
330
B184
100
AcDbDictionary
280
     1
281
     1
  3
ADSK_XREC_LAYER_RECONCILED
360
B45A
  0
DICTIONARY
  5
B45B
330
B185
100
AcDbDictionary
280
     1
281
     1
  3
ADSK_XREC_LAYER_RECONCILED
360
B45C
  0
DICTIONARY
  5
B45D
330
B186
100
AcDbDictionary
280
     1
281
     1
  3
ADSK_XREC_LAYER_RECONCILED
360
B45E
  0
DICTIONARY
  5
B45F
330
B187
100
AcDbDictionary
280
     1
281
     1
  3
ADSK_XREC_LAYER_RECONCILED
360
B460
  0
DICTIONARY
  5
B3F9
330
B179
100
AcDbDictionary
281
     1
  3
ACAD_LAYOUTSELFREF
350
B3FA
  0
DICTIONARY
  5
B3F7
330
B175
100
AcDbDictionary
281
     1
  3
ACAD_LAYOUTSELFREF
350
B3F8
  0
XRECORD
  5
B450
102
{ACAD_REACTORS
330
B167
102
}
330
B167
100
AcDbXrecord
280
     1
300
ACDLT
300
2014
300
ACDLT_F_S
  0
DICTIONARY
  5
B432
102
{ACAD_REACTORS
330
B167
102
}
330
B167
100
AcDbDictionary
281
     1
  0
DICTIONARY
  5
B44B
102
{ACAD_REACTORS
330
B167
102
}
330
B167
100
AcDbDictionary
281
     1
  3
Imperial24
350
B44C
  0
DICTIONARY
  5
B168
102
{ACAD_REACTORS
330
B167
102
}
330
B167
100
AcDbDictionary
281
     1
  0
DICTIONARY
  5
B174
102
{ACAD_REACTORS
330
B167
102
}
330
B167
100
AcDbDictionary
281
     1
  3
Model
350
B44D
  3
レイアウト1
350
B44E
  0
DICTIONARY
  5
B400
102
{ACAD_REACTORS
330
B167
102
}
330
B167
100
AcDbDictionary
281
     1
  3
ByBlock
350
B409
  3
ByLayer
350
B401
  3
Global
350
B411
  0
DICTIONARY
  5
B447
102
{ACAD_REACTORS
330
B167
102
}
330
B167
100
AcDbDictionary
281
     1
  3
Standard
350
B448
  0
DICTIONARY
  5
B171
102
{ACAD_REACTORS
330
B167
102
}
330
B167
100
AcDbDictionary
281
     1
  3
STANDARD
350
B172
  0
DICTIONARY
  5
B173
102
{ACAD_REACTORS
330
B167
102
}
330
B167
100
AcDbDictionary
281
     1
  0
ACDBDICTIONARYWDFLT
  5
B3FE
102
{ACAD_REACTORS
330
B167
102
}
330
B167
100
AcDbDictionary
281
     1
  3
Normal
350
B3FF
100
AcDbDictionaryWithDefault
340
B3FF
  0
DICTIONARY
  5
B435
102
{ACAD_REACTORS
330
B167
102
}
330
B167
100
AcDbDictionary
281
     1
  3
A0
350
B436
  3
A1
350
B437
  3
A2
350
B438
  3
A3
350
B439
  3
A4
350
B43A
  3
A5
350
B43B
  3
A6
350
B43C
  3
A7
350
B43D
  3
A8
350
B43E
  3
A9
350
B43F
  3
B0
350
B440
  3
B1
350
B441
  3
B2
350
B442
  3
B3
350
B443
  3
B4
350
B444
  3
B5
350
B445
  3
B6
350
B446
  0
DICTIONARY
  5
B449
102
{ACAD_REACTORS
330
B167
102
}
330
B167
100
AcDbDictionary
281
     1
  3
Imperial24
350
B44A
  0
DICTIONARY
  5
B433
102
{ACAD_REACTORS
330
B167
102
}
330
B167
100
AcDbDictionary
281
     1
  3
Standard
350
B434
  0
DICTIONARY
  5
B419
102
{ACAD_REACTORS
330
B167
102
}
330
B167
100
AcDbDictionary
281
     1
  3
2dWireframe
350
B41F
  3
Basic
350
B41E
  3
Brighten
350
B425
  3
ColorChange
350
B429
  3
Conceptual
350
B422
  3
Dim
350
B424
  3
EdgeColorOff
350
B431
  3
Facepattern
350
B428
  3
Flat
350
B41A
  3
FlatWithEdges
350
B41B
  3
Gouraud
350
B41C
  3
GouraudWithEdges
350
B41D
  3
Hidden
350
B421
  3
JitterOff
350
B42F
  3
Linepattern
350
B427
  3
OverhangOff
350
B430
  3
Realistic
350
B423
  3
Shaded
350
B42E
  3
Shaded with edges
350
B42D
  3
Shades of Gray
350
B42A
  3
Sketchy
350
B42B
  3
Thicken
350
B426
  3
Wireframe
350
B420
  3
X-Ray
350
B42C
  0
XRECORD
  5
B46E
102
{ACAD_REACTORS
330
B167
102
}
330
B167
100
AcDbXrecord
280
     1
 90
        1
330
B434
  0
DICTIONARY
  5
B461
102
{ACAD_REACTORS
330
B167
102
}
330
B167
100
AcDbDictionary
281
     1
  3
CANNOSCALE
350
B466
  3
CMLEADERSTYLE
350
B463
  3
CTABLESTYLE
350
B462
  3
CVIEWDETAILSTYLE
350
B464
  3
CVIEWSECTIONSTYLE
350
B465
  3
DIMASSOC
350
B469
  3
INDEXCTL
350
B468
  3
SORTENTS
350
B467
  3
XCLIPFRAME
350
B46A
  0
XRECORD
  5
B46F
102
{ACAD_REACTORS
330
B167
102
}
330
B167
100
AcDbXrecord
280
     1
  1
DWGPROPS COOKIE
  2

  3

  4

  6

  7

  8
Yoshitsune
  9

300
=
301
=
302
=
303
=
304
=
305
=
306
=
307
=
308
=
309
=
 40
0.0000098958333333
 41
2451301.401116898
 42
2457192.686571528
  1

 90
        0
  0
XRECORD
  5
B452
102
{ACAD_REACTORS
330
B451
102
}
330
B451
100
AcDbXrecord
280
     1
290
     1
  0
XRECORD
  5
B454
102
{ACAD_REACTORS
330
B453
102
}
330
B453
100
AcDbXrecord
280
     1
290
     1
  0
XRECORD
  5
B456
102
{ACAD_REACTORS
330
B455
102
}
330
B455
100
AcDbXrecord
280
     1
290
     1
  0
XRECORD
  5
B458
102
{ACAD_REACTORS
330
B457
102
}
330
B457
100
AcDbXrecord
280
     1
290
     1
  0
XRECORD
  5
B45A
102
{ACAD_REACTORS
330
B459
102
}
330
B459
100
AcDbXrecord
280
     1
290
     1
  0
XRECORD
  5
B45C
102
{ACAD_REACTORS
330
B45B
102
}
330
B45B
100
AcDbXrecord
280
     1
290
     1
  0
XRECORD
  5
B45E
102
{ACAD_REACTORS
330
B45D
102
}
330
B45D
100
AcDbXrecord
280
     1
290
     1
  0
XRECORD
  5
B460
102
{ACAD_REACTORS
330
B45F
102
}
330
B45F
100
AcDbXrecord
280
     1
290
     1
  0
XRECORD
  5
B3FA
102
{ACAD_REACTORS
330
B3F9
102
}
330
B3F9
100
AcDbXrecord
280
     1
340
B179
  0
XRECORD
  5
B3F8
102
{ACAD_REACTORS
330
B3F7
102
}
330
B3F7
100
AcDbXrecord
280
     1
340
B175
  0
ACDBDETAILVIEWSTYLE
  5
B44C
102
{ACAD_XDICTIONARY
360
B4A7
102
}
102
{ACAD_REACTORS
330
B44B
102
}
330
B44B
100
AcDbModelDocViewStyle
 70
     0
  3
Imperial24
290
     0
100
AcDbDetailViewStyle
 70
     0
 71
     0
 90
        3
 71
     1
340
B16C
 40
0.24
340
0
 40
0.24
300

 40
0.36
280
     3
 71
     2
340
B170
 90
       25
 71
     3
340
B16C
 40
0.24
 90
        1
 40
0.75
 90
        1
300
%<\AcVar ViewType \f "%tc1">% %<\AcVar ViewDetailId>%\PSCALE %<\AcVar ViewScale \f "%sn">%
 71
     4
340
B170
 90
       25
340
B170
 90
       25
280
     0
  0
LAYOUT
  5
B44D
102
{ACAD_XDICTIONARY
360
B4A9
102
}
102
{ACAD_REACTORS
330
B174
102
}
330
B174
100
AcDbPlotSettings
  1

  2
Canon LBP9100C
  4

  6

 40
0.0
 41
0.0
 42
0.0
 43
0.0
 44
0.0
 45
0.0
 46
0.0
 47
0.0
 48
0.0
 49
0.0
140
0.0
141
0.0
142
1.0
143
1.0
 70
  1712
 72
     0
 73
     0
 74
     0
  7

 75
     0
147
1.0
148
0.0
149
0.0
100
AcDbLayout
  1
Model
 70
     1
 71
     0
 10
0.0
 20
0.0
 11
12.0
 21
9.0
 12
0.0
 22
0.0
 32
0.0
 14
0.0
 24
0.0
 34
0.0
 15
0.0
 25
0.0
 35
0.0
146
0.0
 13
0.0
 23
0.0
 33
0.0
 16
1.0
 26
0.0
 36
0.0
 17
0.0
 27
1.0
 37
0.0
 76
     0
330
B179
331
B3F6
  0
LAYOUT
  5
B44E
102
{ACAD_XDICTIONARY
360
B4AB
102
}
102
{ACAD_REACTORS
330
B174
102
}
330
B174
100
AcDbPlotSettings
  1

  2
Canon LBP9100C
  4

  6

 40
0.0
 41
0.0
 42
0.0
 43
0.0
 44
0.0
 45
0.0
 46
0.0
 47
0.0
 48
0.0
 49
0.0
140
0.0
141
0.0
142
1.0
143
1.0
 70
   688
 72
     0
 73
     0
 74
     5
  7

 75
    16
147
1.0
148
0.0
149
0.0
100
AcDbLayout
  1
レイアウト1
 70
     0
 71
     1
 10
0.0
 20
0.0
 11
420.0
 21
297.0
 12
0.0
 22
0.0
 32
0.0
 14
1.000000000000000E+20
 24
1.000000000000000E+20
 34
1.000000000000000E+20
 15
-1.000000000000000E+20
 25
-1.000000000000000E+20
 35
-1.000000000000000E+20
146
0.0
 13
0.0
 23
0.0
 33
0.0
 16
1.0
 26
0.0
 36
0.0
 17
0.0
 27
1.0
 37
0.0
 76
     0
330
B175
  0
MATERIAL
  5
B409
102
{ACAD_XDICTIONARY
360
B40A
102
}
102
{ACAD_REACTORS
330
B400
102
}
330
B400
100
AcDbMaterial
  1
ByBlock
 72
     0
 43
0.0208333333333333
 43
0.0
 43
0.0
 43
0.0
 43
0.0
 43
0.0208333333333333
 43
0.0
 43
0.0
 43
0.0
 43
0.0
 43
1.0
 43
0.0
 43
0.0
 43
0.0
 43
0.0
 43
1.0
 77
     0
 47
0.0208333333333333
 47
0.0
 47
0.0
 47
0.0
 47
0.0
 47
0.0208333333333333
 47
0.0
 47
0.0
 47
0.0
 47
0.0
 47
1.0
 47
0.0
 47
0.0
 47
0.0
 47
0.0
 47
1.0
171
     0
 49
0.0208333333333333
 49
0.0
 49
0.0
 49
0.0
 49
0.0
 49
0.0208333333333333
 49
0.0
 49
0.0
 49
0.0
 49
0.0
 49
1.0
 49
0.0
 49
0.0
 49
0.0
 49
0.0
 49
1.0
175
     0
142
0.0208333333333333
142
0.0
142
0.0
142
0.0
142
0.0
142
0.0208333333333333
142
0.0
142
0.0
142
0.0
142
0.0
142
1.0
142
0.0
142
0.0
142
0.0
142
0.0
142
1.0
179
     0
144
0.0208333333333333
144
0.0
144
0.0
144
0.0
144
0.0
144
0.0208333333333333
144
0.0
144
0.0
144
0.0
144
0.0
144
1.0
144
0.0
144
0.0
144
0.0
144
0.0
144
1.0
147
0.0208333333333333
147
0.0
147
0.0
147
0.0
147
0.0
147
0.0208333333333333
147
0.0
147
0.0
147
0.0
147
0.0
147
1.0
147
0.0
147
0.0
147
0.0
147
0.0
147
1.0
  0
MATERIAL
  5
B401
102
{ACAD_XDICTIONARY
360
B402
102
}
102
{ACAD_REACTORS
330
B400
102
}
330
B400
100
AcDbMaterial
  1
ByLayer
 72
     0
 43
0.0208333333333333
 43
0.0
 43
0.0
 43
0.0
 43
0.0
 43
0.0208333333333333
 43
0.0
 43
0.0
 43
0.0
 43
0.0
 43
1.0
 43
0.0
 43
0.0
 43
0.0
 43
0.0
 43
1.0
 77
     0
 47
0.0208333333333333
 47
0.0
 47
0.0
 47
0.0
 47
0.0
 47
0.0208333333333333
 47
0.0
 47
0.0
 47
0.0
 47
0.0
 47
1.0
 47
0.0
 47
0.0
 47
0.0
 47
0.0
 47
1.0
171
     0
 49
0.0208333333333333
 49
0.0
 49
0.0
 49
0.0
 49
0.0
 49
0.0208333333333333
 49
0.0
 49
0.0
 49
0.0
 49
0.0
 49
1.0
 49
0.0
 49
0.0
 49
0.0
 49
0.0
 49
1.0
175
     0
142
0.0208333333333333
142
0.0
142
0.0
142
0.0
142
0.0
142
0.0208333333333333
142
0.0
142
0.0
142
0.0
142
0.0
142
1.0
142
0.0
142
0.0
142
0.0
142
0.0
142
1.0
179
     0
144
0.0208333333333333
144
0.0
144
0.0
144
0.0
144
0.0
144
0.0208333333333333
144
0.0
144
0.0
144
0.0
144
0.0
144
1.0
144
0.0
144
0.0
144
0.0
144
0.0
144
1.0
147
0.0208333333333333
147
0.0
147
0.0
147
0.0
147
0.0
147
0.0208333333333333
147
0.0
147
0.0
147
0.0
147
0.0
147
1.0
147
0.0
147
0.0
147
0.0
147
0.0
147
1.0
  0
MATERIAL
  5
B411
102
{ACAD_XDICTIONARY
360
B412
102
}
102
{ACAD_REACTORS
330
B400
102
}
330
B400
100
AcDbMaterial
  1
Global
 72
     0
 43
0.0208333333333333
 43
0.0
 43
0.0
 43
0.0
 43
0.0
 43
0.0208333333333333
 43
0.0
 43
0.0
 43
0.0
 43
0.0
 43
1.0
 43
0.0
 43
0.0
 43
0.0
 43
0.0
 43
1.0
 77
     0
 47
0.0208333333333333
 47
0.0
 47
0.0
 47
0.0
 47
0.0
 47
0.0208333333333333
 47
0.0
 47
0.0
 47
0.0
 47
0.0
 47
1.0
 47
0.0
 47
0.0
 47
0.0
 47
0.0
 47
1.0
171
     0
 49
0.0208333333333333
 49
0.0
 49
0.0
 49
0.0
 49
0.0
 49
0.0208333333333333
 49
0.0
 49
0.0
 49
0.0
 49
0.0
 49
1.0
 49
0.0
 49
0.0
 49
0.0
 49
0.0
 49
1.0
175
     0
142
0.0208333333333333
142
0.0
142
0.0
142
0.0
142
0.0
142
0.0208333333333333
142
0.0
142
0.0
142
0.0
142
0.0
142
1.0
142
0.0
142
0.0
142
0.0
142
0.0
142
1.0
179
     0
144
0.0208333333333333
144
0.0
144
0.0
144
0.0
144
0.0
144
0.0208333333333333
144
0.0
144
0.0
144
0.0
144
0.0
144
1.0
144
0.0
144
0.0
144
0.0
144
0.0
144
1.0
147
0.0208333333333333
147
0.0
147
0.0
147
0.0
147
0.0
147
0.0208333333333333
147
0.0
147
0.0
147
0.0
147
0.0
147
1.0
147
0.0
147
0.0
147
0.0
147
0.0
147
1.0
  0
MLEADERSTYLE
  5
B448
102
{ACAD_REACTORS
330
B447
102
}
330
B447
100
AcDbMLeaderStyle
170
     2
171
     1
172
     0
 90
        2
 40
0.0
 41
0.0
173
     1
 91
-1056964608
340
B16E
 92
       -2
290
     1
 42
0.09
291
     1
 43
0.36
  3
Standard
 44
0.18
300

342
B16C
174
     1
178
     6
175
     1
176
     0
 93
-1056964608
 45
0.18
292
     0
297
     0
 46
0.18
 94
-1056964608
 47
1.0
 49
1.0
140
1.0
293
     1
141
0.0
294
     1
177
     0
142
1.0
295
     0
296
     0
143
0.125
1001
ACAD_MLEADERVER
1070
     2
  0
MLINESTYLE
  5
B172
102
{ACAD_REACTORS
330
B171
102
}
330
B171
100
AcDbMlineStyle
  2
STANDARD
 70
     0
  3

 62
   256
 51
90.0
 52
90.0
 71
     2
 49
0.5
 62
   256
  6
BYLAYER
 49
-0.5
 62
   256
  6
BYLAYER
  0
ACDBPLACEHOLDER
  5
B3FF
102
{ACAD_REACTORS
330
B3FE
102
}
330
B3FE
  0
SCALE
  5
B436
102
{ACAD_REACTORS
330
B435
102
}
330
B435
100
AcDbScale
 70
     0
300
1:1
140
1.0
141
1.0
290
     1
  0
SCALE
  5
B437
102
{ACAD_REACTORS
330
B435
102
}
330
B435
100
AcDbScale
 70
     0
300
1/128" = 1'-0"
140
0.0078125
141
12.0
290
     0
  0
SCALE
  5
B438
102
{ACAD_REACTORS
330
B435
102
}
330
B435
100
AcDbScale
 70
     0
300
1/64" = 1'-0"
140
0.015625
141
12.0
290
     0
  0
SCALE
  5
B439
102
{ACAD_REACTORS
330
B435
102
}
330
B435
100
AcDbScale
 70
     0
300
1/32" = 1'-0"
140
0.03125
141
12.0
290
     0
  0
SCALE
  5
B43A
102
{ACAD_REACTORS
330
B435
102
}
330
B435
100
AcDbScale
 70
     0
300
1/16" = 1'-0"
140
0.0625
141
12.0
290
     0
  0
SCALE
  5
B43B
102
{ACAD_REACTORS
330
B435
102
}
330
B435
100
AcDbScale
 70
     0
300
3/32" = 1'-0"
140
0.09375
141
12.0
290
     0
  0
SCALE
  5
B43C
102
{ACAD_REACTORS
330
B435
102
}
330
B435
100
AcDbScale
 70
     0
300
1/8" = 1'-0"
140
0.125
141
12.0
290
     0
  0
SCALE
  5
B43D
102
{ACAD_REACTORS
330
B435
102
}
330
B435
100
AcDbScale
 70
     0
300
3/16" = 1'-0"
140
0.1875
141
12.0
290
     0
  0
SCALE
  5
B43E
102
{ACAD_REACTORS
330
B435
102
}
330
B435
100
AcDbScale
 70
     0
300
1/4" = 1'-0"
140
0.25
141
12.0
290
     0
  0
SCALE
  5
B43F
102
{ACAD_REACTORS
330
B435
102
}
330
B435
100
AcDbScale
 70
     0
300
3/8" = 1'-0"
140
0.375
141
12.0
290
     0
  0
SCALE
  5
B440
102
{ACAD_REACTORS
330
B435
102
}
330
B435
100
AcDbScale
 70
     0
300
1/2" = 1'-0"
140
0.5
141
12.0
290
     0
  0
SCALE
  5
B441
102
{ACAD_REACTORS
330
B435
102
}
330
B435
100
AcDbScale
 70
     0
300
3/4" = 1'-0"
140
0.75
141
12.0
290
     0
  0
SCALE
  5
B442
102
{ACAD_REACTORS
330
B435
102
}
330
B435
100
AcDbScale
 70
     0
300
1" = 1'-0"
140
1.0
141
12.0
290
     0
  0
SCALE
  5
B443
102
{ACAD_REACTORS
330
B435
102
}
330
B435
100
AcDbScale
 70
     0
300
1-1/2" = 1'-0"
140
1.5
141
12.0
290
     0
  0
SCALE
  5
B444
102
{ACAD_REACTORS
330
B435
102
}
330
B435
100
AcDbScale
 70
     0
300
3" = 1'-0"
140
3.0
141
12.0
290
     0
  0
SCALE
  5
B445
102
{ACAD_REACTORS
330
B435
102
}
330
B435
100
AcDbScale
 70
     0
300
6" = 1'-0"
140
6.0
141
12.0
290
     0
  0
SCALE
  5
B446
102
{ACAD_REACTORS
330
B435
102
}
330
B435
100
AcDbScale
 70
     0
300
1'-0" = 1'-0"
140
12.0
141
12.0
290
     0
  0
ACDBSECTIONVIEWSTYLE
  5
B44A
102
{ACAD_XDICTIONARY
360
B4A5
102
}
102
{ACAD_REACTORS
330
B449
102
}
330
B449
100
AcDbModelDocViewStyle
 70
     0
  3
Imperial24
290
     0
100
AcDbSectionViewStyle
 70
     0
 71
     0
 90
       78
 71
     1
340
B16C
 40
0.24
340
0
340
0
 40
0.24
300
I, O, Q, S, X, Z
 40
0.48
 90
        3
 40
0.18
 90
        1
 71
     2
340
B170
 90
       25
340
B170
 90
       50
 40
0.24
 40
0.0
 40
0.24
 71
     3
340
B16C
 40
0.24
 90
        1
 40
0.75
 90
        1
300
%<\AcVar ViewType \f "%tc1">% %<\AcVar ViewSectionStartId>%-%<\AcVar ViewSectionEndId>%\PSCALE %<\AcVar ViewScale \f "%sn">%
 71
     4
300
ANSI31
 40
1.0
 90
        0
290
     0
290
     0
 90
        6
 40
0.0
 40
1.570796326794896
 40
0.2617993877991494
 40
1.308996938995747
 40
-0.2617993877991494
 40
1.832595714594046
  0
TABLESTYLE
  5
B434
102
{ACAD_XDICTIONARY
360
B46C
102
}
102
{ACAD_REACTORS
330
B433
102
}
330
B433
100
AcDbTableStyle
  3
Standard
 70
     0
 71
     0
 40
0.06
 41
0.06
280
     0
281
     0
  7
STANDARD
140
0.18
170
     2
 62
     0
 63
     7
283
     0
274
    -2
284
     1
 64
     0
275
    -2
285
     1
 65
     0
276
    -2
286
     1
 66
     0
277
    -2
287
     1
 67
     0
278
    -2
288
     1
 68
     0
279
    -2
289
     1
 69
     0
  7
STANDARD
140
0.25
170
     5
 62
     0
 63
     7
283
     0
274
    -2
284
     1
 64
     0
275
    -2
285
     1
 65
     0
276
    -2
286
     1
 66
     0
277
    -2
287
     1
 67
     0
278
    -2
288
     1
 68
     0
279
    -2
289
     1
 69
     0
  7
STANDARD
140
0.18
170
     5
 62
     0
 63
     7
283
     0
274
    -2
284
     1
 64
     0
275
    -2
285
     1
 65
     0
276
    -2
286
     1
 66
     0
277
    -2
287
     1
 67
     0
278
    -2
288
     1
 68
     0
279
    -2
289
     1
 69
     0
  0
VISUALSTYLE
  5
B41F
102
{ACAD_XDICTIONARY
360
B47D
102
}
102
{ACAD_REACTORS
330
B419
102
}
330
B419
100
AcDbVisualStyle
  2
2dWireframe
 70
     4
 71
     0
 72
     2
 73
     0
 90
        0
 40
-0.6
 41
-30.0
 62
     5
 63
     7
 74
     1
 91
        4
 64
     7
 65
   257
 75
     1
175
     1
 42
1.0
 92
        0
 66
   257
 43
1.0
 76
     1
 77
     6
 78
     2
 67
     7
 79
     5
170
     0
171
     0
290
     0
174
     0
 93
        1
 44
0.0
173
     0
291
     0
 45
0.0
1001
ACAD
1000
AcDbSavedByObjectVersion
1070
     0
  0
VISUALSTYLE
  5
B41E
102
{ACAD_XDICTIONARY
360
B47B
102
}
102
{ACAD_REACTORS
330
B419
102
}
330
B419
100
AcDbVisualStyle
  2
Basic
 70
     7
 71
     1
 72
     0
 73
     1
 90
        0
 40
-0.6
 41
-30.0
 62
     5
 63
     7
 74
     0
 91
        4
 64
     7
 65
   257
 75
     1
175
     1
 42
1.0
 92
        8
 66
     7
 43
1.0
 76
     1
 77
     6
 78
     2
 67
     7
 79
     5
170
     0
171
     0
290
     0
174
     0
 93
        1
 44
0.0
173
     0
291
     1
 45
0.0
1001
ACAD
1000
AcDbSavedByObjectVersion
1070
     0
  0
VISUALSTYLE
  5
B425
102
{ACAD_XDICTIONARY
360
B489
102
}
102
{ACAD_REACTORS
330
B419
102
}
330
B419
100
AcDbVisualStyle
  2
Brighten
 70
    12
 71
     2
 72
     2
 73
     0
 90
        0
 40
-0.6
 41
-30.0
 62
     5
 63
     7
 74
     1
 91
        4
 64
     7
 65
   257
 75
     1
175
     1
 42
1.0
 92
        8
 66
     7
 43
1.0
 76
     1
 77
     6
 78
     2
 67
     7
 79
     5
170
     0
171
     0
290
     0
174
     0
 93
        1
 44
50.0
173
     0
291
     1
 45
0.0
1001
ACAD
1000
AcDbSavedByObjectVersion
1070
     0
  0
VISUALSTYLE
  5
B429
102
{ACAD_XDICTIONARY
360
B491
102
}
102
{ACAD_REACTORS
330
B419
102
}
330
B419
100
AcDbVisualStyle
  2
ColorChange
 70
    16
 71
     2
 72
     2
 73
     3
 90
        0
 40
-0.6
 41
-30.0
 62
     5
 63
     8
 74
     1
 91
        4
 64
     7
 65
   257
 75
     1
175
     1
 42
1.0
 92
        8
 66
     8
 43
1.0
 76
     1
 77
     6
 78
     2
 67
     7
 79
     5
170
     0
171
     0
290
     0
174
     0
 93
        1
 44
0.0
173
     0
291
     1
 45
0.0
1001
ACAD
1000
AcDbSavedByObjectVersion
1070
     0
  0
VISUALSTYLE
  5
B422
102
{ACAD_XDICTIONARY
360
B483
102
}
102
{ACAD_REACTORS
330
B419
102
}
330
B419
100
AcDbVisualStyle
  2
Conceptual
 70
     9
 71
     3
 72
     2
 73
     0
 90
        0
 40
-0.6
 41
-30.0
 62
     5
 63
     7
 74
     2
 91
        2
 64
     7
 65
   257
 75
     1
175
     1
 42
179.0
 92
        8
 66
     7
 43
1.0
 76
     1
 77
     6
 78
     2
 67
     7
 79
     3
170
     0
171
     0
290
     0
174
     0
 93
        1
 44
0.0
173
     0
291
     0
 45
0.0
1001
ACAD
1000
AcDbSavedByObjectVersion
1070
     0
  0
VISUALSTYLE
  5
B424
102
{ACAD_XDICTIONARY
360
B487
102
}
102
{ACAD_REACTORS
330
B419
102
}
330
B419
100
AcDbVisualStyle
  2
Dim
 70
    11
 71
     2
 72
     2
 73
     0
 90
        0
 40
-0.6
 41
-30.0
 62
     5
 63
     7
 74
     1
 91
        4
 64
     7
 65
   257
 75
     1
175
     1
 42
1.0
 92
        8
 66
     7
 43
1.0
 76
     1
 77
     6
 78
     2
 67
     7
 79
     5
170
     0
171
     0
290
     0
174
     0
 93
        1
 44
-50.0
173
     0
291
     1
 45
0.0
1001
ACAD
1000
AcDbSavedByObjectVersion
1070
     0
  0
VISUALSTYLE
  5
B431
102
{ACAD_XDICTIONARY
360
B4A1
102
}
102
{ACAD_REACTORS
330
B419
102
}
330
B419
100
AcDbVisualStyle
  2
EdgeColorOff
 70
    22
 71
     2
 72
     2
 73
     0
 90
        0
 40
-0.6
 41
-30.0
 62
     5
 63
     7
 74
     1
 91
        4
 64
     7
 65
   257
 75
     1
175
     1
 42
1.0
 92
        8
 66
     7
 43
1.0
 76
     1
 77
     6
 78
     2
 67
     7
 79
     5
170
     0
171
     0
290
     0
174
     0
 93
        1
 44
0.0
173
     0
291
     1
 45
0.0
1001
ACAD
1000
AcDbSavedByObjectVersion
1070
     0
  0
VISUALSTYLE
  5
B428
102
{ACAD_XDICTIONARY
360
B48F
102
}
102
{ACAD_REACTORS
330
B419
102
}
330
B419
100
AcDbVisualStyle
  2
Facepattern
 70
    15
 71
     2
 72
     2
 73
     0
 90
        0
 40
-0.6
 41
-30.0
 62
     5
 63
     7
 74
     1
 91
        4
 64
     7
 65
   257
 75
     1
175
     1
 42
1.0
 92
        8
 66
     7
 43
1.0
 76
     1
 77
     6
 78
     2
 67
     7
 79
     5
170
     0
171
     0
290
     0
174
     0
 93
        1
 44
0.0
173
     0
291
     1
 45
0.0
1001
ACAD
1000
AcDbSavedByObjectVersion
1070
     0
  0
VISUALSTYLE
  5
B41A
102
{ACAD_XDICTIONARY
360
B473
102
}
102
{ACAD_REACTORS
330
B419
102
}
330
B419
100
AcDbVisualStyle
  2
Flat
 70
     0
 71
     2
 72
     1
 73
     1
 90
        2
 40
-0.6
 41
30.0
 62
     5
 63
     7
 74
     0
 91
        0
 64
     7
 65
   257
 75
     1
175
     1
 42
1.0
 92
        8
 66
     7
 43
1.0
 76
     1
 77
     6
 78
     2
 67
     7
 79
     5
170
     0
171
     0
290
     0
174
     0
 93
       13
 44
0.0
173
     0
291
     1
 45
0.0
1001
ACAD
1000
AcDbSavedByObjectVersion
1070
     0
  0
VISUALSTYLE
  5
B41B
102
{ACAD_XDICTIONARY
360
B475
102
}
102
{ACAD_REACTORS
330
B419
102
}
330
B419
100
AcDbVisualStyle
  2
FlatWithEdges
 70
     1
 71
     2
 72
     1
 73
     1
 90
        2
 40
-0.6
 41
30.0
 62
     5
 63
     7
 74
     1
 91
        0
 64
     7
 65
   257
 75
     1
175
     1
 42
1.0
 92
        0
 66
   257
 43
1.0
 76
     1
 77
     6
 78
     2
 67
     7
 79
     5
170
     0
171
     0
290
     0
174
     0
 93
       13
 44
0.0
173
     0
291
     1
 45
0.0
1001
ACAD
1000
AcDbSavedByObjectVersion
1070
     0
  0
VISUALSTYLE
  5
B41C
102
{ACAD_XDICTIONARY
360
B477
102
}
102
{ACAD_REACTORS
330
B419
102
}
330
B419
100
AcDbVisualStyle
  2
Gouraud
 70
     2
 71
     2
 72
     2
 73
     1
 90
        2
 40
-0.6
 41
30.0
 62
     5
 63
     7
 74
     0
 91
        0
 64
     7
 65
   257
 75
     1
175
     1
 42
1.0
 92
        0
 66
     7
 43
1.0
 76
     1
 77
     6
 78
     2
 67
     7
 79
     5
170
     0
171
     0
290
     0
174
     0
 93
       13
 44
0.0
173
     0
291
     1
 45
0.0
1001
ACAD
1000
AcDbSavedByObjectVersion
1070
     0
  0
VISUALSTYLE
  5
B41D
102
{ACAD_XDICTIONARY
360
B479
102
}
102
{ACAD_REACTORS
330
B419
102
}
330
B419
100
AcDbVisualStyle
  2
GouraudWithEdges
 70
     3
 71
     2
 72
     2
 73
     1
 90
        2
 40
-0.6
 41
30.0
 62
     5
 63
     7
 74
     1
 91
        0
 64
     7
 65
   257
 75
     1
175
     1
 42
1.0
 92
        0
 66
   257
 43
1.0
 76
     1
 77
     6
 78
     2
 67
     7
 79
     5
170
     0
171
     0
290
     0
174
     0
 93
       13
 44
0.0
173
     0
291
     1
 45
0.0
1001
ACAD
1000
AcDbSavedByObjectVersion
1070
     0
  0
VISUALSTYLE
  5
B421
102
{ACAD_XDICTIONARY
360
B481
102
}
102
{ACAD_REACTORS
330
B419
102
}
330
B419
100
AcDbVisualStyle
  2
Hidden
 70
     6
 71
     1
 72
     2
 73
     2
 90
        0
 40
-0.6
 41
-30.0
 62
     5
 63
     7
 74
     2
 91
        2
 64
     7
 65
   257
 75
     2
175
     1
 42
40.0
 92
        0
 66
   257
 43
1.0
 76
     1
 77
     6
 78
     2
 67
     7
 79
     3
170
     0
171
     0
290
     0
174
     0
 93
        1
 44
0.0
173
     0
291
     0
 45
0.0
1001
ACAD
1000
AcDbSavedByObjectVersion
1070
     0
  0
VISUALSTYLE
  5
B42F
102
{ACAD_XDICTIONARY
360
B49D
102
}
102
{ACAD_REACTORS
330
B419
102
}
330
B419
100
AcDbVisualStyle
  2
JitterOff
 70
    20
 71
     2
 72
     2
 73
     0
 90
        0
 40
-0.6
 41
-30.0
 62
     5
 63
     7
 74
     1
 91
        4
 64
     7
 65
   257
 75
     1
175
     1
 42
1.0
 92
       10
 66
     7
 43
1.0
 76
     1
 77
     6
 78
     2
 67
     7
 79
     5
170
     0
171
     0
290
     0
174
     0
 93
        1
 44
0.0
173
     0
291
     1
 45
0.0
1001
ACAD
1000
AcDbSavedByObjectVersion
1070
     0
  0
VISUALSTYLE
  5
B427
102
{ACAD_XDICTIONARY
360
B48D
102
}
102
{ACAD_REACTORS
330
B419
102
}
330
B419
100
AcDbVisualStyle
  2
Linepattern
 70
    14
 71
     2
 72
     2
 73
     0
 90
        0
 40
-0.6
 41
-30.0
 62
     5
 63
     7
 74
     1
 91
        4
 64
     7
 65
   257
 75
     7
175
     7
 42
1.0
 92
        8
 66
     7
 43
1.0
 76
     1
 77
     6
 78
     2
 67
     7
 79
     5
170
     0
171
     0
290
     0
174
     0
 93
        1
 44
0.0
173
     0
291
     1
 45
0.0
1001
ACAD
1000
AcDbSavedByObjectVersion
1070
     0
  0
VISUALSTYLE
  5
B430
102
{ACAD_XDICTIONARY
360
B49F
102
}
102
{ACAD_REACTORS
330
B419
102
}
330
B419
100
AcDbVisualStyle
  2
OverhangOff
 70
    21
 71
     2
 72
     2
 73
     0
 90
        0
 40
-0.6
 41
-30.0
 62
     5
 63
     7
 74
     1
 91
        4
 64
     7
 65
   257
 75
     1
175
     1
 42
1.0
 92
        9
 66
     7
 43
1.0
 76
     1
 77
     6
 78
     2
 67
     7
 79
     5
170
     0
171
     0
290
     0
174
     0
 93
        1
 44
0.0
173
     0
291
     1
 45
0.0
1001
ACAD
1000
AcDbSavedByObjectVersion
1070
     0
  0
VISUALSTYLE
  5
B423
102
{ACAD_XDICTIONARY
360
B485
102
}
102
{ACAD_REACTORS
330
B419
102
}
330
B419
100
AcDbVisualStyle
  2
Realistic
 70
     8
 71
     2
 72
     3
 73
     0
 90
        2
 40
-0.6
 41
30.0
 62
     5
 63
     7
 74
     0
 91
        0
 64
     7
 65
   257
 75
     1
175
     1
 42
1.0
 92
        8
 66
   257
 43
1.0
 76
     1
 77
     6
 78
     2
 67
     7
 79
     3
170
     0
171
     0
290
     0
174
     0
 93
       13
 44
0.0
173
     0
291
     0
 45
0.0
1001
ACAD
1000
AcDbSavedByObjectVersion
1070
     0
  0
VISUALSTYLE
  5
B42E
102
{ACAD_XDICTIONARY
360
B49B
102
}
102
{ACAD_REACTORS
330
B419
102
}
330
B419
100
AcDbVisualStyle
  2
Shaded
 70
    27
 71
     2
 72
     2
 73
     1
 90
        2
 40
-0.6
 41
30.0
 62
     5
 63
     7
 74
     0
 91
        4
 64
     7
 65
   257
 75
     1
175
     1
 42
1.0
 92
        8
 66
   257
 43
1.0
 76
     1
 77
     6
 78
     2
 67
     8
 79
     3
170
     0
171
     0
290
     0
174
     0
 93
        5
 44
0.0
173
     0
291
     0
 45
0.0
1001
ACAD
1000
AcDbSavedByObjectVersion
1070
     0
  0
VISUALSTYLE
  5
B42D
102
{ACAD_XDICTIONARY
360
B499
102
}
102
{ACAD_REACTORS
330
B419
102
}
330
B419
100
AcDbVisualStyle
  2
Shaded with edges
 70
    26
 71
     2
 72
     2
 73
     1
 90
        2
 40
-0.6
 41
30.0
 62
     5
 63
     7
 74
     1
 91
       10
 64
     7
 65
   257
 75
     2
175
     1
 42
1.0
 92
        8
 66
   257
 43
1.0
 76
     1
 77
     6
 78
     2
 67
     7
 79
     3
170
     0
171
     0
290
     0
174
     0
 93
        5
 44
0.0
173
     0
291
     0
 45
0.0
1001
ACAD
1000
AcDbSavedByObjectVersion
1070
     0
  0
VISUALSTYLE
  5
B42A
102
{ACAD_XDICTIONARY
360
B493
102
}
102
{ACAD_REACTORS
330
B419
102
}
330
B419
100
AcDbVisualStyle
  2
Shades of Gray
 70
    23
 71
     2
 72
     2
 73
     3
 90
        0
 40
-0.6
 41
-30.0
 62
     5
 63
     7
 74
     2
 91
        2
 64
     7
 65
     7
 75
     1
175
     1
 42
40.0
 92
        8
 66
     7
 43
1.0
 76
     1
 77
     6
 78
     2
 67
     7
 79
     3
170
     0
171
     0
290
     0
174
     0
 93
        1
 44
0.0
173
     0
291
     0
 45
0.0
1001
ACAD
1000
AcDbSavedByObjectVersion
1070
     0
  0
VISUALSTYLE
  5
B42B
102
{ACAD_XDICTIONARY
360
B495
102
}
102
{ACAD_REACTORS
330
B419
102
}
330
B419
100
AcDbVisualStyle
  2
Sketchy
 70
    24
 71
     1
 72
     2
 73
     2
 90
        0
 40
-0.6
 41
-30.0
 62
     5
 63
     7
 74
     2
 91
        2
 64
     7
 65
     7
 75
     1
175
     1
 42
40.0
 92
       11
 66
     7
 43
1.0
 76
     1
 77
     6
 78
     2
 67
     7
 79
     6
170
     0
171
     0
290
     0
174
     0
 93
        1
 44
0.0
173
     0
291
     0
 45
0.0
1001
ACAD
1000
AcDbSavedByObjectVersion
1070
     0
  0
VISUALSTYLE
  5
B426
102
{ACAD_XDICTIONARY
360
B48B
102
}
102
{ACAD_REACTORS
330
B419
102
}
330
B419
100
AcDbVisualStyle
  2
Thicken
 70
    13
 71
     2
 72
     2
 73
     0
 90
        0
 40
-0.6
 41
-30.0
 62
     5
 63
     7
 74
     1
 91
        4
 64
     7
 65
   257
 75
     1
175
     1
 42
1.0
 92
       12
 66
     7
 43
1.0
 76
     1
 77
     6
 78
     2
 67
     7
 79
     5
170
     0
171
     0
290
     0
174
     0
 93
        1
 44
0.0
173
     0
291
     1
 45
0.0
1001
ACAD
1000
AcDbSavedByObjectVersion
1070
     0
  0
VISUALSTYLE
  5
B420
102
{ACAD_XDICTIONARY
360
B47F
102
}
102
{ACAD_REACTORS
330
B419
102
}
330
B419
100
AcDbVisualStyle
  2
Wireframe
 70
     5
 71
     0
 72
     2
 73
     0
 90
        0
 40
-0.6
 41
-30.0
 62
     5
 63
     7
 74
     1
 91
        4
 64
     7
 65
   257
 75
     1
175
     1
 42
1.0
 92
        0
 66
   257
 43
1.0
 76
     1
 77
     6
 78
     2
 67
     7
 79
     3
170
     0
171
     0
290
     0
174
     0
 93
        1
 44
0.0
173
     0
291
     0
 45
0.0
1001
ACAD
1000
AcDbSavedByObjectVersion
1070
     0
  0
VISUALSTYLE
  5
B42C
102
{ACAD_XDICTIONARY
360
B497
102
}
102
{ACAD_REACTORS
330
B419
102
}
330
B419
100
AcDbVisualStyle
  2
X-Ray
 70
    25
 71
     2
 72
     2
 73
     1
 90
        1
 40
0.5
 41
-30.0
 62
     5
 63
     7
 74
     1
 91
        0
 64
     7
 65
   257
 75
     1
175
     1
 42
1.0
 92
        8
 66
     7
 43
1.0
 76
     1
 77
     6
 78
     2
 67
     7
 79
     3
170
     0
171
     0
290
     0
174
     0
 93
       13
 44
0.0
173
     0
291
     0
 45
0.0
1001
ACAD
1000
AcDbSavedByObjectVersion
1070
     0
  0
DICTIONARYVAR
  5
B466
102
{ACAD_REACTORS
330
B461
102
}
330
B461
100
DictionaryVariables
280
     0
  1
1:1
  0
DICTIONARYVAR
  5
B463
102
{ACAD_REACTORS
330
B461
102
}
330
B461
100
DictionaryVariables
280
     0
  1
STANDARD
  0
DICTIONARYVAR
  5
B462
102
{ACAD_REACTORS
330
B461
102
}
330
B461
100
DictionaryVariables
280
     0
  1
STANDARD
  0
DICTIONARYVAR
  5
B464
102
{ACAD_REACTORS
330
B461
102
}
330
B461
100
DictionaryVariables
280
     0
  1
Imperial24
  0
DICTIONARYVAR
  5
B465
102
{ACAD_REACTORS
330
B461
102
}
330
B461
100
DictionaryVariables
280
     0
  1
Imperial24
  0
DICTIONARYVAR
  5
B469
102
{ACAD_REACTORS
330
B461
102
}
330
B461
100
DictionaryVariables
280
     0
  1
1
  0
DICTIONARYVAR
  5
B468
102
{ACAD_REACTORS
330
B461
102
}
330
B461
100
DictionaryVariables
280
     0
  1
0
  0
DICTIONARYVAR
  5
B467
102
{ACAD_REACTORS
330
B461
102
}
330
B461
100
DictionaryVariables
280
     0
  1
127
  0
DICTIONARYVAR
  5
B46A
102
{ACAD_REACTORS
330
B461
102
}
330
B461
100
DictionaryVariables
280
     0
  1
2
  0
DICTIONARY
  5
B4A7
330
B44C
100
AcDbDictionary
280
     1
281
     1
  3
ACAD_XREC_ROUNDTRIP
360
B4A8
  0
DICTIONARY
  5
B4A9
330
B44D
100
AcDbDictionary
280
     1
281
     1
  3
ACAD_XREC_ROUNDTRIP
360
B4AA
  0
DICTIONARY
  5
B4AB
330
B44E
100
AcDbDictionary
280
     1
281
     1
  3
ACAD_XREC_ROUNDTRIP
360
B4AC
  0
DICTIONARY
  5
B40A
330
B409
100
AcDbDictionary
280
     1
281
     1
  3
ACAD_XREC_ROUNDTRIP
360
B471
  3
BUMPTILE
360
B40C
  3
DIFFUSETILE
360
B40B
  3
OPACITYTILE
360
B40F
  3
REFLECTIONTILE
360
B40E
  3
REFRACTIONTILE
360
B410
  3
SPECULARTILE
360
B40D
  0
DICTIONARY
  5
B402
330
B401
100
AcDbDictionary
280
     1
281
     1
  3
ACAD_XREC_ROUNDTRIP
360
B470
  3
BUMPTILE
360
B404
  3
DIFFUSETILE
360
B403
  3
OPACITYTILE
360
B407
  3
REFLECTIONTILE
360
B406
  3
REFRACTIONTILE
360
B408
  3
SPECULARTILE
360
B405
  0
DICTIONARY
  5
B412
330
B411
100
AcDbDictionary
280
     1
281
     1
  3
ACAD_XREC_ROUNDTRIP
360
B472
  3
BUMPTILE
360
B414
  3
DIFFUSETILE
360
B413
  3
OPACITYTILE
360
B417
  3
REFLECTIONTILE
360
B416
  3
REFRACTIONTILE
360
B418
  3
SPECULARTILE
360
B415
  0
DICTIONARY
  5
B4A5
330
B44A
100
AcDbDictionary
280
     1
281
     1
  3
ACAD_XREC_ROUNDTRIP
360
B4A6
  0
DICTIONARY
  5
B46C
330
B434
100
AcDbDictionary
280
     1
281
     1
  3
ACAD_ROUNDTRIP_2008_TABLESTYLE_CELLSTYLEMAP
360
B46D
  3
ACAD_XREC_ROUNDTRIP
360
B4A3
  0
DICTIONARY
  5
B47D
330
B41F
100
AcDbDictionary
280
     1
281
     1
  3
ACAD_XREC_ROUNDTRIP
360
B47E
  0
DICTIONARY
  5
B47B
330
B41E
100
AcDbDictionary
280
     1
281
     1
  3
ACAD_XREC_ROUNDTRIP
360
B47C
  0
DICTIONARY
  5
B489
330
B425
100
AcDbDictionary
280
     1
281
     1
  3
ACAD_XREC_ROUNDTRIP
360
B48A
  0
DICTIONARY
  5
B491
330
B429
100
AcDbDictionary
280
     1
281
     1
  3
ACAD_XREC_ROUNDTRIP
360
B492
  0
DICTIONARY
  5
B483
330
B422
100
AcDbDictionary
280
     1
281
     1
  3
ACAD_XREC_ROUNDTRIP
360
B484
  0
DICTIONARY
  5
B487
330
B424
100
AcDbDictionary
280
     1
281
     1
  3
ACAD_XREC_ROUNDTRIP
360
B488
  0
DICTIONARY
  5
B4A1
330
B431
100
AcDbDictionary
280
     1
281
     1
  3
ACAD_XREC_ROUNDTRIP
360
B4A2
  0
DICTIONARY
  5
B48F
330
B428
100
AcDbDictionary
280
     1
281
     1
  3
ACAD_XREC_ROUNDTRIP
360
B490
  0
DICTIONARY
  5
B473
330
B41A
100
AcDbDictionary
280
     1
281
     1
  3
ACAD_XREC_ROUNDTRIP
360
B474
  0
DICTIONARY
  5
B475
330
B41B
100
AcDbDictionary
280
     1
281
     1
  3
ACAD_XREC_ROUNDTRIP
360
B476
  0
DICTIONARY
  5
B477
330
B41C
100
AcDbDictionary
280
     1
281
     1
  3
ACAD_XREC_ROUNDTRIP
360
B478
  0
DICTIONARY
  5
B479
330
B41D
100
AcDbDictionary
280
     1
281
     1
  3
ACAD_XREC_ROUNDTRIP
360
B47A
  0
DICTIONARY
  5
B481
330
B421
100
AcDbDictionary
280
     1
281
     1
  3
ACAD_XREC_ROUNDTRIP
360
B482
  0
DICTIONARY
  5
B49D
330
B42F
100
AcDbDictionary
280
     1
281
     1
  3
ACAD_XREC_ROUNDTRIP
360
B49E
  0
DICTIONARY
  5
B48D
330
B427
100
AcDbDictionary
280
     1
281
     1
  3
ACAD_XREC_ROUNDTRIP
360
B48E
  0
DICTIONARY
  5
B49F
330
B430
100
AcDbDictionary
280
     1
281
     1
  3
ACAD_XREC_ROUNDTRIP
360
B4A0
  0
DICTIONARY
  5
B485
330
B423
100
AcDbDictionary
280
     1
281
     1
  3
ACAD_XREC_ROUNDTRIP
360
B486
  0
DICTIONARY
  5
B49B
330
B42E
100
AcDbDictionary
280
     1
281
     1
  3
ACAD_XREC_ROUNDTRIP
360
B49C
  0
DICTIONARY
  5
B499
330
B42D
100
AcDbDictionary
280
     1
281
     1
  3
ACAD_XREC_ROUNDTRIP
360
B49A
  0
DICTIONARY
  5
B493
330
B42A
100
AcDbDictionary
280
     1
281
     1
  3
ACAD_XREC_ROUNDTRIP
360
B494
  0
DICTIONARY
  5
B495
330
B42B
100
AcDbDictionary
280
     1
281
     1
  3
ACAD_XREC_ROUNDTRIP
360
B496
  0
DICTIONARY
  5
B48B
330
B426
100
AcDbDictionary
280
     1
281
     1
  3
ACAD_XREC_ROUNDTRIP
360
B48C
  0
DICTIONARY
  5
B47F
330
B420
100
AcDbDictionary
280
     1
281
     1
  3
ACAD_XREC_ROUNDTRIP
360
B480
  0
DICTIONARY
  5
B497
330
B42C
100
AcDbDictionary
280
     1
281
     1
  3
ACAD_XREC_ROUNDTRIP
360
B498
  0
XRECORD
  5
B4A8
102
{ACAD_REACTORS
330
B4A7
102
}
330
B4A7
100
AcDbXrecord
280
     1
102
DISPLAYNAME
  1
Imperial24
102
FLAGS
 90
        0
  0
XRECORD
  5
B4AA
102
{ACAD_REACTORS
330
B4A9
102
}
330
B4A9
100
AcDbXrecord
280
     1
102
SHADEPLOT
 70
     0
102
SHADEPLOTRESLEVEL
 70
     2
102
SHADEPLOTCUSTOMDPI
 70
   300
  0
XRECORD
  5
B4AC
102
{ACAD_REACTORS
330
B4AB
102
}
330
B4AB
100
AcDbXrecord
280
     1
102
SHADEPLOT
 70
     0
102
SHADEPLOTRESLEVEL
 70
     2
102
SHADEPLOTCUSTOMDPI
 70
   300
  0
XRECORD
  5
B471
102
{ACAD_REACTORS
330
B40A
102
}
330
B40A
100
AcDbXrecord
280
     1
102
MATERIAL
148
0.0
149
0.0
149
0.0
 93
        0
 94
      127
282
     0
 72
     0
 77
     0
171
     0
175
     0
179
     0
273
     0
  0
XRECORD
  5
B40C
102
{ACAD_REACTORS
330
B40A
102
}
330
B40A
100
AcDbXrecord
280
     1
270
     1
271
     1
  0
XRECORD
  5
B40B
102
{ACAD_REACTORS
330
B40A
102
}
330
B40A
100
AcDbXrecord
280
     1
270
     1
271
     1
  0
XRECORD
  5
B40F
102
{ACAD_REACTORS
330
B40A
102
}
330
B40A
100
AcDbXrecord
280
     1
270
     1
271
     1
  0
XRECORD
  5
B40E
102
{ACAD_REACTORS
330
B40A
102
}
330
B40A
100
AcDbXrecord
280
     1
270
     1
271
     1
  0
XRECORD
  5
B410
102
{ACAD_REACTORS
330
B40A
102
}
330
B40A
100
AcDbXrecord
280
     1
270
     1
271
     1
  0
XRECORD
  5
B40D
102
{ACAD_REACTORS
330
B40A
102
}
330
B40A
100
AcDbXrecord
280
     1
270
     1
271
     1
  0
XRECORD
  5
B470
102
{ACAD_REACTORS
330
B402
102
}
330
B402
100
AcDbXrecord
280
     1
102
MATERIAL
148
0.0
149
0.0
149
0.0
 93
        0
 94
      127
282
     0
 72
     0
 77
     0
171
     0
175
     0
179
     0
273
     0
  0
XRECORD
  5
B404
102
{ACAD_REACTORS
330
B402
102
}
330
B402
100
AcDbXrecord
280
     1
270
     1
271
     1
  0
XRECORD
  5
B403
102
{ACAD_REACTORS
330
B402
102
}
330
B402
100
AcDbXrecord
280
     1
270
     1
271
     1
  0
XRECORD
  5
B407
102
{ACAD_REACTORS
330
B402
102
}
330
B402
100
AcDbXrecord
280
     1
270
     1
271
     1
  0
XRECORD
  5
B406
102
{ACAD_REACTORS
330
B402
102
}
330
B402
100
AcDbXrecord
280
     1
270
     1
271
     1
  0
XRECORD
  5
B408
102
{ACAD_REACTORS
330
B402
102
}
330
B402
100
AcDbXrecord
280
     1
270
     1
271
     1
  0
XRECORD
  5
B405
102
{ACAD_REACTORS
330
B402
102
}
330
B402
100
AcDbXrecord
280
     1
270
     1
271
     1
  0
XRECORD
  5
B472
102
{ACAD_REACTORS
330
B412
102
}
330
B412
100
AcDbXrecord
280
     1
102
MATERIAL
148
0.0
149
0.0
149
0.0
 93
        0
 94
      127
282
     0
 72
     0
 77
     0
171
     0
175
     0
179
     0
273
     0
  0
XRECORD
  5
B414
102
{ACAD_REACTORS
330
B412
102
}
330
B412
100
AcDbXrecord
280
     1
270
     1
271
     1
  0
XRECORD
  5
B413
102
{ACAD_REACTORS
330
B412
102
}
330
B412
100
AcDbXrecord
280
     1
270
     1
271
     1
  0
XRECORD
  5
B417
102
{ACAD_REACTORS
330
B412
102
}
330
B412
100
AcDbXrecord
280
     1
270
     1
271
     1
  0
XRECORD
  5
B416
102
{ACAD_REACTORS
330
B412
102
}
330
B412
100
AcDbXrecord
280
     1
270
     1
271
     1
  0
XRECORD
  5
B418
102
{ACAD_REACTORS
330
B412
102
}
330
B412
100
AcDbXrecord
280
     1
270
     1
271
     1
  0
XRECORD
  5
B415
102
{ACAD_REACTORS
330
B412
102
}
330
B412
100
AcDbXrecord
280
     1
270
     1
271
     1
  0
XRECORD
  5
B4A6
102
{ACAD_REACTORS
330
B4A5
102
}
330
B4A5
100
AcDbXrecord
280
     1
102
DISPLAYNAME
  1
Imperial24
102
FLAGS
 90
        0
  0
CELLSTYLEMAP
  5
B46D
102
{ACAD_REACTORS
330
B46C
102
}
330
B46C
100
AcDbCellStyleMap
 90
        3
300
CELLSTYLE
  1
TABLEFORMAT_BEGIN
 90
        5
170
     1
 91
        0
 92
    32768
 62
   257
 93
        1
300
CONTENTFORMAT
  1
CONTENTFORMAT_BEGIN
 90
        0
 91
        0
 92
      512
 93
        0
300

 40
0.0
140
1.0
 94
        5
 62
     0
340
B16C
144
0.25
309
CONTENTFORMAT_END
171
     0
 94
        0
309
TABLEFORMAT_END
  1
CELLSTYLE_BEGIN
 90
        1
 91
        1
300
_TITLE
309
CELLSTYLE_END
300
CELLSTYLE
  1
TABLEFORMAT_BEGIN
 90
        5
170
     1
 91
        0
 92
        0
 62
   257
 93
        1
300
CONTENTFORMAT
  1
CONTENTFORMAT_BEGIN
 90
        0
 91
        0
 92
      512
 93
        0
300

 40
0.0
140
1.0
 94
        5
 62
     0
340
B16C
144
0.18
309
CONTENTFORMAT_END
171
     0
 94
        0
309
TABLEFORMAT_END
  1
CELLSTYLE_BEGIN
 90
        2
 91
        1
300
_HEADER
309
CELLSTYLE_END
300
CELLSTYLE
  1
TABLEFORMAT_BEGIN
 90
        5
170
     1
 91
        0
 92
        0
 62
   257
 93
        1
300
CONTENTFORMAT
  1
CONTENTFORMAT_BEGIN
 90
        0
 91
        0
 92
      512
 93
        0
300

 40
0.0
140
1.0
 94
        2
 62
     0
340
B16C
144
0.18
309
CONTENTFORMAT_END
171
     0
 94
        0
309
TABLEFORMAT_END
  1
CELLSTYLE_BEGIN
 90
        3
 91
        2
300
_DATA
309
CELLSTYLE_END
  0
XRECORD
  5
B4A3
102
{ACAD_REACTORS
330
B46C
102
}
330
B46C
100
AcDbXrecord
280
     1
102
ACAD_ROUNDTRIP_PRE2007_TABLESTYLE
 90
      512
 91
        0
  1

 92
      512
 93
        0
  2

 94
      512
 95
        0
  3

  0
XRECORD
  5
B47E
102
{ACAD_REACTORS
330
B47D
102
}
330
B47D
100
AcDbXrecord
280
     1
102
RTVSPost2010Prop28
280
     1
102
RTVSPost2010PropOp28
 70
     1
102
RTVSPost2010Prop29
280
     1
102
RTVSPost2010PropOp29
 70
     1
102
RTVSPost2010Prop30
280
     0
102
RTVSPost2010PropOp30
 70
     1
102
RTVSPost2010Prop31
280
     0
102
RTVSPost2010PropOp31
 70
     1
102
RTVSPost2010Prop32
280
     0
102
RTVSPost2010PropOp32
 70
     1
102
RTVSPost2010Prop33
280
     0
102
RTVSPost2010PropOp33
 70
     1
102
RTVSPost2010Prop34
280
     0
102
RTVSPost2010PropOp34
 70
     1
102
RTVSPost2010Prop35
280
     0
102
RTVSPost2010PropOp35
 70
     1
102
RTVSPost2010Prop36
280
     0
102
RTVSPost2010PropOp36
 70
     1
102
RTVSPost2010Prop37
 90
       50
102
RTVSPost2010PropOp37
 70
     1
102
RTVSPost2010Prop38
140
0.0
102
RTVSPost2010PropOp38
 70
     1
102
RTVSPost2010Prop39
140
1.0
102
RTVSPost2010PropOp39
 70
     1
102
RTVSPost2010Prop40
 90
        0
102
RTVSPost2010PropOp40
 70
     1
102
RTVSPost2010Prop41ColorIndex
 90
       18
102
RTVSPost2010Prop41ColorRGB
 90
        0
102
RTVSPost2010PropOp41
 70
     1
102
RTVSPost2010Prop42
 90
       50
102
RTVSPost2010PropOp42
 70
     1
102
RTVSPost2010Prop43
 90
        3
102
RTVSPost2010PropOp43
 70
     1
102
RTVSPost2010Prop44ColorIndex
 90
        5
102
RTVSPost2010Prop44ColorRGB
 90
      255
102
RTVSPost2010PropOp44
 70
     1
102
RTVSPost2010Prop45
280
     0
102
RTVSPost2010PropOp45
 70
     1
102
RTVSPost2010Prop46
 90
       50
102
RTVSPost2010PropOp46
 70
     1
102
RTVSPost2010Prop47
 90
       50
102
RTVSPost2010PropOp47
 70
     1
102
RTVSPost2010Prop48
 90
       50
102
RTVSPost2010PropOp48
 70
     1
102
RTVSPost2010Prop49
280
     0
102
RTVSPost2010PropOp49
 70
     1
102
RTVSPost2010Prop50
 90
       50
102
RTVSPost2010PropOp50
 70
     1
102
RTVSPost2010Prop51ColorIndex
 90
      256
102
RTVSPost2010Prop51ColorRGB
 90
-16777216
102
RTVSPost2010PropOp51
 70
     0
102
RTVSPost2010Prop52
140
1.0
102
RTVSPost2010PropOp52
 70
     0
102
RTVSPost2010Prop53
 90
        2
102
RTVSPost2010PropOp53
 70
     1
102
RTVSPost2010Prop54
  1
strokes_ogs.tif
102
RTVSPost2010PropOp54
 70
     1
102
RTVSPost2010Prop55
280
     0
102
RTVSPost2010PropOp55
 70
     1
102
RTVSPost2010Prop56
140
1.0
102
RTVSPost2010PropOp56
 70
     1
102
RTVSPost2010Prop57
140
1.0
102
RTVSPost2010PropOp57
 70
     1
102
RTVSPropertyOp0
 70
     1
102
RTVSPropertyOp1
 70
     1
102
RTVSPropertyOp2
 70
     1
102
RTVSPropertyOp3
 70
     1
102
RTVSPropertyOp4
 70
     1
102
RTVSPropertyOp5
 70
     1
102
RTVSPropertyOp6
 70
     1
102
RTVSPropertyOp7
 70
     1
102
RTVSPropertyOp8
 70
     1
102
RTVSPropertyOp9
 70
     1
102
RTVSPropertyOp10
 70
     1
102
RTVSPropertyOp11
 70
     1
102
RTVSPropertyOp12
 70
     1
102
RTVSPropertyOp13
 70
     1
102
RTVSPropertyOp14
 70
     1
102
RTVSPropertyOp15
 70
     1
102
RTVSPropertyOp16
 70
     1
102
RTVSPropertyOp17
 70
     1
102
RTVSPropertyOp18
 70
     1
102
RTVSPropertyOp19
 70
     1
102
RTVSPropertyOp20
 70
     1
102
RTVSPropertyOp21
 70
     1
102
RTVSPropertyOp22
 70
     1
102
RTVSPropertyOp23
 70
     1
102
RTVSPropertyOp24
 70
     1
102
RTVSPropertyOp25
 70
     1
102
RTVSPropertyOp26
 70
     1
102
RTVSPropertyOp27
 70
     1
102
RTVSPropertyOp28
 70
     1
102
RTVSPropertyOp29
 70
     1
102
RTVSPropertyOp30
 70
     1
102
RTVSPropertyOp31
 70
     1
102
RTVSPropertyOp32
 70
     1
102
RTVSPropertyOp33
 70
     1
102
RTVSPropertyOp34
 70
     1
102
RTVSPropertyOp35
 70
     1
102
RTVSPropertyOp36
 70
     1
102
RTVSPropertyOp37
 70
     1
102
RTVSPropertyOp38
 70
     1
102
RTVSPropertyOp39
 70
     1
102
RTVSPropertyOp40
 70
     1
102
RTVSPropertyOp41
 70
     1
102
RTVSPropertyOp42
 70
     1
102
RTVSPropertyOp43
 70
     1
102
RTVSPropertyOp44
 70
     1
102
RTVSPropertyOp45
 70
     1
102
RTVSPropertyOp46
 70
     1
102
RTVSPropertyOp47
 70
     1
102
RTVSPropertyOp48
 70
     1
102
RTVSPropertyOp49
 70
     1
102
RTVSPropertyOp50
 70
     1
102
RTVSPropertyOp51
 70
     0
102
RTVSPropertyOp52
 70
     0
102
RTVSPropertyOp53
 70
     1
102
RTVSPropertyOp54
 70
     1
102
RTVSPropertyOp55
 70
     1
102
RTVSPropertyOp56
 70
     1
102
RTVSPropertyOp57
 70
     1
102
RTVSPropertyOp58
 70
     1
102
RTVSPropertyOp59
 70
     1
102
RTVSPropertyOp60
 70
     1
102
RTVSPropertyOp61
 70
     1
102
RTVSPropertyOp62
 70
     1
  0
XRECORD
  5
B47C
102
{ACAD_REACTORS
330
B47B
102
}
330
B47B
100
AcDbXrecord
280
     1
102
RTVSPost2010Prop28
280
     0
102
RTVSPost2010PropOp28
 70
     1
102
RTVSPost2010Prop29
280
     1
102
RTVSPost2010PropOp29
 70
     1
102
RTVSPost2010Prop30
280
     1
102
RTVSPost2010PropOp30
 70
     1
102
RTVSPost2010Prop31
280
     0
102
RTVSPost2010PropOp31
 70
     1
102
RTVSPost2010Prop32
280
     0
102
RTVSPost2010PropOp32
 70
     1
102
RTVSPost2010Prop33
280
     0
102
RTVSPost2010PropOp33
 70
     1
102
RTVSPost2010Prop34
280
     0
102
RTVSPost2010PropOp34
 70
     1
102
RTVSPost2010Prop35
280
     0
102
RTVSPost2010PropOp35
 70
     1
102
RTVSPost2010Prop36
280
     0
102
RTVSPost2010PropOp36
 70
     1
102
RTVSPost2010Prop37
 90
       50
102
RTVSPost2010PropOp37
 70
     1
102
RTVSPost2010Prop38
140
0.0
102
RTVSPost2010PropOp38
 70
     1
102
RTVSPost2010Prop39
140
1.0
102
RTVSPost2010PropOp39
 70
     1
102
RTVSPost2010Prop40
 90
        0
102
RTVSPost2010PropOp40
 70
     1
102
RTVSPost2010Prop41ColorIndex
 90
       18
102
RTVSPost2010Prop41ColorRGB
 90
        0
102
RTVSPost2010PropOp41
 70
     1
102
RTVSPost2010Prop42
 90
       50
102
RTVSPost2010PropOp42
 70
     1
102
RTVSPost2010Prop43
 90
        3
102
RTVSPost2010PropOp43
 70
     1
102
RTVSPost2010Prop44ColorIndex
 90
        5
102
RTVSPost2010Prop44ColorRGB
 90
      255
102
RTVSPost2010PropOp44
 70
     1
102
RTVSPost2010Prop45
280
     0
102
RTVSPost2010PropOp45
 70
     1
102
RTVSPost2010Prop46
 90
       50
102
RTVSPost2010PropOp46
 70
     1
102
RTVSPost2010Prop47
 90
       50
102
RTVSPost2010PropOp47
 70
     1
102
RTVSPost2010Prop48
 90
       50
102
RTVSPost2010PropOp48
 70
     1
102
RTVSPost2010Prop49
280
     0
102
RTVSPost2010PropOp49
 70
     1
102
RTVSPost2010Prop50
 90
       50
102
RTVSPost2010PropOp50
 70
     1
102
RTVSPost2010Prop51ColorIndex
 90
      256
102
RTVSPost2010Prop51ColorRGB
 90
-16777216
102
RTVSPost2010PropOp51
 70
     0
102
RTVSPost2010Prop52
140
1.0
102
RTVSPost2010PropOp52
 70
     0
102
RTVSPost2010Prop53
 90
        2
102
RTVSPost2010PropOp53
 70
     1
102
RTVSPost2010Prop54
  1
strokes_ogs.tif
102
RTVSPost2010PropOp54
 70
     1
102
RTVSPost2010Prop55
280
     0
102
RTVSPost2010PropOp55
 70
     1
102
RTVSPost2010Prop56
140
1.0
102
RTVSPost2010PropOp56
 70
     1
102
RTVSPost2010Prop57
140
1.0
102
RTVSPost2010PropOp57
 70
     1
102
RTVSPropertyOp0
 70
     1
102
RTVSPropertyOp1
 70
     1
102
RTVSPropertyOp2
 70
     1
102
RTVSPropertyOp3
 70
     1
102
RTVSPropertyOp4
 70
     1
102
RTVSPropertyOp5
 70
     1
102
RTVSPropertyOp6
 70
     1
102
RTVSPropertyOp7
 70
     1
102
RTVSPropertyOp8
 70
     1
102
RTVSPropertyOp9
 70
     1
102
RTVSPropertyOp10
 70
     1
102
RTVSPropertyOp11
 70
     1
102
RTVSPropertyOp12
 70
     1
102
RTVSPropertyOp13
 70
     1
102
RTVSPropertyOp14
 70
     1
102
RTVSPropertyOp15
 70
     1
102
RTVSPropertyOp16
 70
     1
102
RTVSPropertyOp17
 70
     1
102
RTVSPropertyOp18
 70
     1
102
RTVSPropertyOp19
 70
     1
102
RTVSPropertyOp20
 70
     1
102
RTVSPropertyOp21
 70
     1
102
RTVSPropertyOp22
 70
     1
102
RTVSPropertyOp23
 70
     1
102
RTVSPropertyOp24
 70
     1
102
RTVSPropertyOp25
 70
     1
102
RTVSPropertyOp26
 70
     1
102
RTVSPropertyOp27
 70
     1
102
RTVSPropertyOp28
 70
     1
102
RTVSPropertyOp29
 70
     1
102
RTVSPropertyOp30
 70
     1
102
RTVSPropertyOp31
 70
     1
102
RTVSPropertyOp32
 70
     1
102
RTVSPropertyOp33
 70
     1
102
RTVSPropertyOp34
 70
     1
102
RTVSPropertyOp35
 70
     1
102
RTVSPropertyOp36
 70
     1
102
RTVSPropertyOp37
 70
     1
102
RTVSPropertyOp38
 70
     1
102
RTVSPropertyOp39
 70
     1
102
RTVSPropertyOp40
 70
     1
102
RTVSPropertyOp41
 70
     1
102
RTVSPropertyOp42
 70
     1
102
RTVSPropertyOp43
 70
     1
102
RTVSPropertyOp44
 70
     1
102
RTVSPropertyOp45
 70
     1
102
RTVSPropertyOp46
 70
     1
102
RTVSPropertyOp47
 70
     1
102
RTVSPropertyOp48
 70
     1
102
RTVSPropertyOp49
 70
     1
102
RTVSPropertyOp50
 70
     1
102
RTVSPropertyOp51
 70
     0
102
RTVSPropertyOp52
 70
     0
102
RTVSPropertyOp53
 70
     1
102
RTVSPropertyOp54
 70
     1
102
RTVSPropertyOp55
 70
     1
102
RTVSPropertyOp56
 70
     1
102
RTVSPropertyOp57
 70
     1
102
RTVSPropertyOp58
 70
     1
102
RTVSPropertyOp59
 70
     1
102
RTVSPropertyOp60
 70
     1
102
RTVSPropertyOp61
 70
     1
102
RTVSPropertyOp62
 70
     1
  0
XRECORD
  5
B48A
102
{ACAD_REACTORS
330
B489
102
}
330
B489
100
AcDbXrecord
280
     1
102
RTVSPost2010Prop28
280
     0
102
RTVSPost2010PropOp28
 70
     1
102
RTVSPost2010Prop29
280
     1
102
RTVSPost2010PropOp29
 70
     1
102
RTVSPost2010Prop30
280
     1
102
RTVSPost2010PropOp30
 70
     1
102
RTVSPost2010Prop31
280
     0
102
RTVSPost2010PropOp31
 70
     1
102
RTVSPost2010Prop32
280
     0
102
RTVSPost2010PropOp32
 70
     1
102
RTVSPost2010Prop33
280
     0
102
RTVSPost2010PropOp33
 70
     1
102
RTVSPost2010Prop34
280
     0
102
RTVSPost2010PropOp34
 70
     1
102
RTVSPost2010Prop35
280
     0
102
RTVSPost2010PropOp35
 70
     1
102
RTVSPost2010Prop36
280
     0
102
RTVSPost2010PropOp36
 70
     1
102
RTVSPost2010Prop37
 90
       50
102
RTVSPost2010PropOp37
 70
     1
102
RTVSPost2010Prop38
140
0.0
102
RTVSPost2010PropOp38
 70
     1
102
RTVSPost2010Prop39
140
1.0
102
RTVSPost2010PropOp39
 70
     1
102
RTVSPost2010Prop40
 90
        0
102
RTVSPost2010PropOp40
 70
     1
102
RTVSPost2010Prop41ColorIndex
 90
       18
102
RTVSPost2010Prop41ColorRGB
 90
        0
102
RTVSPost2010PropOp41
 70
     1
102
RTVSPost2010Prop42
 90
       50
102
RTVSPost2010PropOp42
 70
     1
102
RTVSPost2010Prop43
 90
        3
102
RTVSPost2010PropOp43
 70
     1
102
RTVSPost2010Prop44ColorIndex
 90
        5
102
RTVSPost2010Prop44ColorRGB
 90
      255
102
RTVSPost2010PropOp44
 70
     1
102
RTVSPost2010Prop45
280
     0
102
RTVSPost2010PropOp45
 70
     1
102
RTVSPost2010Prop46
 90
       50
102
RTVSPost2010PropOp46
 70
     1
102
RTVSPost2010Prop47
 90
       50
102
RTVSPost2010PropOp47
 70
     1
102
RTVSPost2010Prop48
 90
       50
102
RTVSPost2010PropOp48
 70
     1
102
RTVSPost2010Prop49
280
     0
102
RTVSPost2010PropOp49
 70
     1
102
RTVSPost2010Prop50
 90
       50
102
RTVSPost2010PropOp50
 70
     1
102
RTVSPost2010Prop51ColorIndex
 90
      256
102
RTVSPost2010Prop51ColorRGB
 90
-16777216
102
RTVSPost2010PropOp51
 70
     0
102
RTVSPost2010Prop52
140
1.0
102
RTVSPost2010PropOp52
 70
     0
102
RTVSPost2010Prop53
 90
        2
102
RTVSPost2010PropOp53
 70
     1
102
RTVSPost2010Prop54
  1
strokes_ogs.tif
102
RTVSPost2010PropOp54
 70
     1
102
RTVSPost2010Prop55
280
     0
102
RTVSPost2010PropOp55
 70
     1
102
RTVSPost2010Prop56
140
1.0
102
RTVSPost2010PropOp56
 70
     1
102
RTVSPost2010Prop57
140
1.0
102
RTVSPost2010PropOp57
 70
     1
102
RTVSPropertyOp0
 70
     1
102
RTVSPropertyOp1
 70
     1
102
RTVSPropertyOp2
 70
     1
102
RTVSPropertyOp3
 70
     1
102
RTVSPropertyOp4
 70
     1
102
RTVSPropertyOp5
 70
     1
102
RTVSPropertyOp6
 70
     1
102
RTVSPropertyOp7
 70
     1
102
RTVSPropertyOp8
 70
     1
102
RTVSPropertyOp9
 70
     1
102
RTVSPropertyOp10
 70
     1
102
RTVSPropertyOp11
 70
     1
102
RTVSPropertyOp12
 70
     1
102
RTVSPropertyOp13
 70
     1
102
RTVSPropertyOp14
 70
     1
102
RTVSPropertyOp15
 70
     1
102
RTVSPropertyOp16
 70
     1
102
RTVSPropertyOp17
 70
     1
102
RTVSPropertyOp18
 70
     1
102
RTVSPropertyOp19
 70
     1
102
RTVSPropertyOp20
 70
     1
102
RTVSPropertyOp21
 70
     1
102
RTVSPropertyOp22
 70
     1
102
RTVSPropertyOp23
 70
     1
102
RTVSPropertyOp24
 70
     1
102
RTVSPropertyOp25
 70
     1
102
RTVSPropertyOp26
 70
     1
102
RTVSPropertyOp27
 70
     1
102
RTVSPropertyOp28
 70
     1
102
RTVSPropertyOp29
 70
     1
102
RTVSPropertyOp30
 70
     1
102
RTVSPropertyOp31
 70
     1
102
RTVSPropertyOp32
 70
     1
102
RTVSPropertyOp33
 70
     1
102
RTVSPropertyOp34
 70
     1
102
RTVSPropertyOp35
 70
     1
102
RTVSPropertyOp36
 70
     1
102
RTVSPropertyOp37
 70
     1
102
RTVSPropertyOp38
 70
     1
102
RTVSPropertyOp39
 70
     1
102
RTVSPropertyOp40
 70
     1
102
RTVSPropertyOp41
 70
     1
102
RTVSPropertyOp42
 70
     1
102
RTVSPropertyOp43
 70
     1
102
RTVSPropertyOp44
 70
     1
102
RTVSPropertyOp45
 70
     1
102
RTVSPropertyOp46
 70
     1
102
RTVSPropertyOp47
 70
     1
102
RTVSPropertyOp48
 70
     1
102
RTVSPropertyOp49
 70
     1
102
RTVSPropertyOp50
 70
     1
102
RTVSPropertyOp51
 70
     0
102
RTVSPropertyOp52
 70
     0
102
RTVSPropertyOp53
 70
     1
102
RTVSPropertyOp54
 70
     1
102
RTVSPropertyOp55
 70
     1
102
RTVSPropertyOp56
 70
     1
102
RTVSPropertyOp57
 70
     1
102
RTVSPropertyOp58
 70
     1
102
RTVSPropertyOp59
 70
     1
102
RTVSPropertyOp60
 70
     1
102
RTVSPropertyOp61
 70
     1
102
RTVSPropertyOp62
 70
     1
  0
XRECORD
  5
B492
102
{ACAD_REACTORS
330
B491
102
}
330
B491
100
AcDbXrecord
280
     1
102
RTVSPost2010Prop28
280
     0
102
RTVSPost2010PropOp28
 70
     1
102
RTVSPost2010Prop29
280
     1
102
RTVSPost2010PropOp29
 70
     1
102
RTVSPost2010Prop30
280
     1
102
RTVSPost2010PropOp30
 70
     1
102
RTVSPost2010Prop31
280
     0
102
RTVSPost2010PropOp31
 70
     1
102
RTVSPost2010Prop32
280
     0
102
RTVSPost2010PropOp32
 70
     1
102
RTVSPost2010Prop33
280
     0
102
RTVSPost2010PropOp33
 70
     1
102
RTVSPost2010Prop34
280
     0
102
RTVSPost2010PropOp34
 70
     1
102
RTVSPost2010Prop35
280
     0
102
RTVSPost2010PropOp35
 70
     1
102
RTVSPost2010Prop36
280
     0
102
RTVSPost2010PropOp36
 70
     1
102
RTVSPost2010Prop37
 90
       50
102
RTVSPost2010PropOp37
 70
     1
102
RTVSPost2010Prop38
140
0.0
102
RTVSPost2010PropOp38
 70
     1
102
RTVSPost2010Prop39
140
1.0
102
RTVSPost2010PropOp39
 70
     1
102
RTVSPost2010Prop40
 90
        0
102
RTVSPost2010PropOp40
 70
     1
102
RTVSPost2010Prop41ColorIndex
 90
       18
102
RTVSPost2010Prop41ColorRGB
 90
        0
102
RTVSPost2010PropOp41
 70
     1
102
RTVSPost2010Prop42
 90
       50
102
RTVSPost2010PropOp42
 70
     1
102
RTVSPost2010Prop43
 90
        3
102
RTVSPost2010PropOp43
 70
     1
102
RTVSPost2010Prop44ColorIndex
 90
        5
102
RTVSPost2010Prop44ColorRGB
 90
      255
102
RTVSPost2010PropOp44
 70
     1
102
RTVSPost2010Prop45
280
     0
102
RTVSPost2010PropOp45
 70
     1
102
RTVSPost2010Prop46
 90
       50
102
RTVSPost2010PropOp46
 70
     1
102
RTVSPost2010Prop47
 90
       50
102
RTVSPost2010PropOp47
 70
     1
102
RTVSPost2010Prop48
 90
       50
102
RTVSPost2010PropOp48
 70
     1
102
RTVSPost2010Prop49
280
     0
102
RTVSPost2010PropOp49
 70
     1
102
RTVSPost2010Prop50
 90
       50
102
RTVSPost2010PropOp50
 70
     1
102
RTVSPost2010Prop51ColorIndex
 90
      256
102
RTVSPost2010Prop51ColorRGB
 90
-16777216
102
RTVSPost2010PropOp51
 70
     0
102
RTVSPost2010Prop52
140
1.0
102
RTVSPost2010PropOp52
 70
     0
102
RTVSPost2010Prop53
 90
        2
102
RTVSPost2010PropOp53
 70
     1
102
RTVSPost2010Prop54
  1
strokes_ogs.tif
102
RTVSPost2010PropOp54
 70
     1
102
RTVSPost2010Prop55
280
     0
102
RTVSPost2010PropOp55
 70
     1
102
RTVSPost2010Prop56
140
1.0
102
RTVSPost2010PropOp56
 70
     1
102
RTVSPost2010Prop57
140
1.0
102
RTVSPost2010PropOp57
 70
     1
102
RTVSPropertyOp0
 70
     1
102
RTVSPropertyOp1
 70
     1
102
RTVSPropertyOp2
 70
     1
102
RTVSPropertyOp3
 70
     1
102
RTVSPropertyOp4
 70
     1
102
RTVSPropertyOp5
 70
     1
102
RTVSPropertyOp6
 70
     1
102
RTVSPropertyOp7
 70
     1
102
RTVSPropertyOp8
 70
     1
102
RTVSPropertyOp9
 70
     1
102
RTVSPropertyOp10
 70
     1
102
RTVSPropertyOp11
 70
     1
102
RTVSPropertyOp12
 70
     1
102
RTVSPropertyOp13
 70
     1
102
RTVSPropertyOp14
 70
     1
102
RTVSPropertyOp15
 70
     1
102
RTVSPropertyOp16
 70
     1
102
RTVSPropertyOp17
 70
     1
102
RTVSPropertyOp18
 70
     1
102
RTVSPropertyOp19
 70
     1
102
RTVSPropertyOp20
 70
     1
102
RTVSPropertyOp21
 70
     1
102
RTVSPropertyOp22
 70
     1
102
RTVSPropertyOp23
 70
     1
102
RTVSPropertyOp24
 70
     1
102
RTVSPropertyOp25
 70
     1
102
RTVSPropertyOp26
 70
     1
102
RTVSPropertyOp27
 70
     1
102
RTVSPropertyOp28
 70
     1
102
RTVSPropertyOp29
 70
     1
102
RTVSPropertyOp30
 70
     1
102
RTVSPropertyOp31
 70
     1
102
RTVSPropertyOp32
 70
     1
102
RTVSPropertyOp33
 70
     1
102
RTVSPropertyOp34
 70
     1
102
RTVSPropertyOp35
 70
     1
102
RTVSPropertyOp36
 70
     1
102
RTVSPropertyOp37
 70
     1
102
RTVSPropertyOp38
 70
     1
102
RTVSPropertyOp39
 70
     1
102
RTVSPropertyOp40
 70
     1
102
RTVSPropertyOp41
 70
     1
102
RTVSPropertyOp42
 70
     1
102
RTVSPropertyOp43
 70
     1
102
RTVSPropertyOp44
 70
     1
102
RTVSPropertyOp45
 70
     1
102
RTVSPropertyOp46
 70
     1
102
RTVSPropertyOp47
 70
     1
102
RTVSPropertyOp48
 70
     1
102
RTVSPropertyOp49
 70
     1
102
RTVSPropertyOp50
 70
     1
102
RTVSPropertyOp51
 70
     0
102
RTVSPropertyOp52
 70
     0
102
RTVSPropertyOp53
 70
     1
102
RTVSPropertyOp54
 70
     1
102
RTVSPropertyOp55
 70
     1
102
RTVSPropertyOp56
 70
     1
102
RTVSPropertyOp57
 70
     1
102
RTVSPropertyOp58
 70
     1
102
RTVSPropertyOp59
 70
     1
102
RTVSPropertyOp60
 70
     1
102
RTVSPropertyOp61
 70
     1
102
RTVSPropertyOp62
 70
     1
  0
XRECORD
  5
B484
102
{ACAD_REACTORS
330
B483
102
}
330
B483
100
AcDbXrecord
280
     1
102
RTVSPost2010Prop28
280
     0
102
RTVSPost2010PropOp28
 70
     1
102
RTVSPost2010Prop29
280
     1
102
RTVSPost2010PropOp29
 70
     1
102
RTVSPost2010Prop30
280
     1
102
RTVSPost2010PropOp30
 70
     1
102
RTVSPost2010Prop31
280
     0
102
RTVSPost2010PropOp31
 70
     1
102
RTVSPost2010Prop32
280
     0
102
RTVSPost2010PropOp32
 70
     1
102
RTVSPost2010Prop33
280
     0
102
RTVSPost2010PropOp33
 70
     1
102
RTVSPost2010Prop34
280
     0
102
RTVSPost2010PropOp34
 70
     1
102
RTVSPost2010Prop35
280
     0
102
RTVSPost2010PropOp35
 70
     1
102
RTVSPost2010Prop36
280
     0
102
RTVSPost2010PropOp36
 70
     1
102
RTVSPost2010Prop37
 90
       50
102
RTVSPost2010PropOp37
 70
     1
102
RTVSPost2010Prop38
140
0.0
102
RTVSPost2010PropOp38
 70
     1
102
RTVSPost2010Prop39
140
1.0
102
RTVSPost2010PropOp39
 70
     1
102
RTVSPost2010Prop40
 90
        0
102
RTVSPost2010PropOp40
 70
     1
102
RTVSPost2010Prop41ColorIndex
 90
       18
102
RTVSPost2010Prop41ColorRGB
 90
        0
102
RTVSPost2010PropOp41
 70
     1
102
RTVSPost2010Prop42
 90
       50
102
RTVSPost2010PropOp42
 70
     1
102
RTVSPost2010Prop43
 90
        3
102
RTVSPost2010PropOp43
 70
     1
102
RTVSPost2010Prop44ColorIndex
 90
        5
102
RTVSPost2010Prop44ColorRGB
 90
      255
102
RTVSPost2010PropOp44
 70
     1
102
RTVSPost2010Prop45
280
     0
102
RTVSPost2010PropOp45
 70
     1
102
RTVSPost2010Prop46
 90
       50
102
RTVSPost2010PropOp46
 70
     1
102
RTVSPost2010Prop47
 90
       50
102
RTVSPost2010PropOp47
 70
     1
102
RTVSPost2010Prop48
 90
       50
102
RTVSPost2010PropOp48
 70
     1
102
RTVSPost2010Prop49
280
     0
102
RTVSPost2010PropOp49
 70
     1
102
RTVSPost2010Prop50
 90
       50
102
RTVSPost2010PropOp50
 70
     1
102
RTVSPost2010Prop51ColorIndex
 90
      256
102
RTVSPost2010Prop51ColorRGB
 90
-16777216
102
RTVSPost2010PropOp51
 70
     0
102
RTVSPost2010Prop52
140
1.0
102
RTVSPost2010PropOp52
 70
     0
102
RTVSPost2010Prop53
 90
        2
102
RTVSPost2010PropOp53
 70
     1
102
RTVSPost2010Prop54
  1
strokes_ogs.tif
102
RTVSPost2010PropOp54
 70
     1
102
RTVSPost2010Prop55
280
     0
102
RTVSPost2010PropOp55
 70
     1
102
RTVSPost2010Prop56
140
1.0
102
RTVSPost2010PropOp56
 70
     1
102
RTVSPost2010Prop57
140
1.0
102
RTVSPost2010PropOp57
 70
     1
102
RTVSPropertyOp0
 70
     1
102
RTVSPropertyOp1
 70
     1
102
RTVSPropertyOp2
 70
     1
102
RTVSPropertyOp3
 70
     1
102
RTVSPropertyOp4
 70
     1
102
RTVSPropertyOp5
 70
     1
102
RTVSPropertyOp6
 70
     1
102
RTVSPropertyOp7
 70
     1
102
RTVSPropertyOp8
 70
     1
102
RTVSPropertyOp9
 70
     1
102
RTVSPropertyOp10
 70
     1
102
RTVSPropertyOp11
 70
     1
102
RTVSPropertyOp12
 70
     1
102
RTVSPropertyOp13
 70
     1
102
RTVSPropertyOp14
 70
     1
102
RTVSPropertyOp15
 70
     1
102
RTVSPropertyOp16
 70
     1
102
RTVSPropertyOp17
 70
     1
102
RTVSPropertyOp18
 70
     1
102
RTVSPropertyOp19
 70
     1
102
RTVSPropertyOp20
 70
     1
102
RTVSPropertyOp21
 70
     1
102
RTVSPropertyOp22
 70
     1
102
RTVSPropertyOp23
 70
     1
102
RTVSPropertyOp24
 70
     1
102
RTVSPropertyOp25
 70
     1
102
RTVSPropertyOp26
 70
     1
102
RTVSPropertyOp27
 70
     1
102
RTVSPropertyOp28
 70
     1
102
RTVSPropertyOp29
 70
     1
102
RTVSPropertyOp30
 70
     1
102
RTVSPropertyOp31
 70
     1
102
RTVSPropertyOp32
 70
     1
102
RTVSPropertyOp33
 70
     1
102
RTVSPropertyOp34
 70
     1
102
RTVSPropertyOp35
 70
     1
102
RTVSPropertyOp36
 70
     1
102
RTVSPropertyOp37
 70
     1
102
RTVSPropertyOp38
 70
     1
102
RTVSPropertyOp39
 70
     1
102
RTVSPropertyOp40
 70
     1
102
RTVSPropertyOp41
 70
     1
102
RTVSPropertyOp42
 70
     1
102
RTVSPropertyOp43
 70
     1
102
RTVSPropertyOp44
 70
     1
102
RTVSPropertyOp45
 70
     1
102
RTVSPropertyOp46
 70
     1
102
RTVSPropertyOp47
 70
     1
102
RTVSPropertyOp48
 70
     1
102
RTVSPropertyOp49
 70
     1
102
RTVSPropertyOp50
 70
     1
102
RTVSPropertyOp51
 70
     0
102
RTVSPropertyOp52
 70
     0
102
RTVSPropertyOp53
 70
     1
102
RTVSPropertyOp54
 70
     1
102
RTVSPropertyOp55
 70
     1
102
RTVSPropertyOp56
 70
     1
102
RTVSPropertyOp57
 70
     1
102
RTVSPropertyOp58
 70
     1
102
RTVSPropertyOp59
 70
     1
102
RTVSPropertyOp60
 70
     1
102
RTVSPropertyOp61
 70
     1
102
RTVSPropertyOp62
 70
     1
  0
XRECORD
  5
B488
102
{ACAD_REACTORS
330
B487
102
}
330
B487
100
AcDbXrecord
280
     1
102
RTVSPost2010Prop28
280
     0
102
RTVSPost2010PropOp28
 70
     1
102
RTVSPost2010Prop29
280
     1
102
RTVSPost2010PropOp29
 70
     1
102
RTVSPost2010Prop30
280
     1
102
RTVSPost2010PropOp30
 70
     1
102
RTVSPost2010Prop31
280
     0
102
RTVSPost2010PropOp31
 70
     1
102
RTVSPost2010Prop32
280
     0
102
RTVSPost2010PropOp32
 70
     1
102
RTVSPost2010Prop33
280
     0
102
RTVSPost2010PropOp33
 70
     1
102
RTVSPost2010Prop34
280
     0
102
RTVSPost2010PropOp34
 70
     1
102
RTVSPost2010Prop35
280
     0
102
RTVSPost2010PropOp35
 70
     1
102
RTVSPost2010Prop36
280
     0
102
RTVSPost2010PropOp36
 70
     1
102
RTVSPost2010Prop37
 90
       50
102
RTVSPost2010PropOp37
 70
     1
102
RTVSPost2010Prop38
140
0.0
102
RTVSPost2010PropOp38
 70
     1
102
RTVSPost2010Prop39
140
1.0
102
RTVSPost2010PropOp39
 70
     1
102
RTVSPost2010Prop40
 90
        0
102
RTVSPost2010PropOp40
 70
     1
102
RTVSPost2010Prop41ColorIndex
 90
       18
102
RTVSPost2010Prop41ColorRGB
 90
        0
102
RTVSPost2010PropOp41
 70
     1
102
RTVSPost2010Prop42
 90
       50
102
RTVSPost2010PropOp42
 70
     1
102
RTVSPost2010Prop43
 90
        3
102
RTVSPost2010PropOp43
 70
     1
102
RTVSPost2010Prop44ColorIndex
 90
        5
102
RTVSPost2010Prop44ColorRGB
 90
      255
102
RTVSPost2010PropOp44
 70
     1
102
RTVSPost2010Prop45
280
     0
102
RTVSPost2010PropOp45
 70
     1
102
RTVSPost2010Prop46
 90
       50
102
RTVSPost2010PropOp46
 70
     1
102
RTVSPost2010Prop47
 90
       50
102
RTVSPost2010PropOp47
 70
     1
102
RTVSPost2010Prop48
 90
       50
102
RTVSPost2010PropOp48
 70
     1
102
RTVSPost2010Prop49
280
     0
102
RTVSPost2010PropOp49
 70
     1
102
RTVSPost2010Prop50
 90
       50
102
RTVSPost2010PropOp50
 70
     1
102
RTVSPost2010Prop51ColorIndex
 90
      256
102
RTVSPost2010Prop51ColorRGB
 90
-16777216
102
RTVSPost2010PropOp51
 70
     0
102
RTVSPost2010Prop52
140
1.0
102
RTVSPost2010PropOp52
 70
     0
102
RTVSPost2010Prop53
 90
        2
102
RTVSPost2010PropOp53
 70
     1
102
RTVSPost2010Prop54
  1
strokes_ogs.tif
102
RTVSPost2010PropOp54
 70
     1
102
RTVSPost2010Prop55
280
     0
102
RTVSPost2010PropOp55
 70
     1
102
RTVSPost2010Prop56
140
1.0
102
RTVSPost2010PropOp56
 70
     1
102
RTVSPost2010Prop57
140
1.0
102
RTVSPost2010PropOp57
 70
     1
102
RTVSPropertyOp0
 70
     1
102
RTVSPropertyOp1
 70
     1
102
RTVSPropertyOp2
 70
     1
102
RTVSPropertyOp3
 70
     1
102
RTVSPropertyOp4
 70
     1
102
RTVSPropertyOp5
 70
     1
102
RTVSPropertyOp6
 70
     1
102
RTVSPropertyOp7
 70
     1
102
RTVSPropertyOp8
 70
     1
102
RTVSPropertyOp9
 70
     1
102
RTVSPropertyOp10
 70
     1
102
RTVSPropertyOp11
 70
     1
102
RTVSPropertyOp12
 70
     1
102
RTVSPropertyOp13
 70
     1
102
RTVSPropertyOp14
 70
     1
102
RTVSPropertyOp15
 70
     1
102
RTVSPropertyOp16
 70
     1
102
RTVSPropertyOp17
 70
     1
102
RTVSPropertyOp18
 70
     1
102
RTVSPropertyOp19
 70
     1
102
RTVSPropertyOp20
 70
     1
102
RTVSPropertyOp21
 70
     1
102
RTVSPropertyOp22
 70
     1
102
RTVSPropertyOp23
 70
     1
102
RTVSPropertyOp24
 70
     1
102
RTVSPropertyOp25
 70
     1
102
RTVSPropertyOp26
 70
     1
102
RTVSPropertyOp27
 70
     1
102
RTVSPropertyOp28
 70
     1
102
RTVSPropertyOp29
 70
     1
102
RTVSPropertyOp30
 70
     1
102
RTVSPropertyOp31
 70
     1
102
RTVSPropertyOp32
 70
     1
102
RTVSPropertyOp33
 70
     1
102
RTVSPropertyOp34
 70
     1
102
RTVSPropertyOp35
 70
     1
102
RTVSPropertyOp36
 70
     1
102
RTVSPropertyOp37
 70
     1
102
RTVSPropertyOp38
 70
     1
102
RTVSPropertyOp39
 70
     1
102
RTVSPropertyOp40
 70
     1
102
RTVSPropertyOp41
 70
     1
102
RTVSPropertyOp42
 70
     1
102
RTVSPropertyOp43
 70
     1
102
RTVSPropertyOp44
 70
     1
102
RTVSPropertyOp45
 70
     1
102
RTVSPropertyOp46
 70
     1
102
RTVSPropertyOp47
 70
     1
102
RTVSPropertyOp48
 70
     1
102
RTVSPropertyOp49
 70
     1
102
RTVSPropertyOp50
 70
     1
102
RTVSPropertyOp51
 70
     0
102
RTVSPropertyOp52
 70
     0
102
RTVSPropertyOp53
 70
     1
102
RTVSPropertyOp54
 70
     1
102
RTVSPropertyOp55
 70
     1
102
RTVSPropertyOp56
 70
     1
102
RTVSPropertyOp57
 70
     1
102
RTVSPropertyOp58
 70
     1
102
RTVSPropertyOp59
 70
     1
102
RTVSPropertyOp60
 70
     1
102
RTVSPropertyOp61
 70
     1
102
RTVSPropertyOp62
 70
     1
  0
XRECORD
  5
B4A2
102
{ACAD_REACTORS
330
B4A1
102
}
330
B4A1
100
AcDbXrecord
280
     1
102
RTVSPost2010Prop28
280
     0
102
RTVSPost2010PropOp28
 70
     1
102
RTVSPost2010Prop29
280
     1
102
RTVSPost2010PropOp29
 70
     1
102
RTVSPost2010Prop30
280
     1
102
RTVSPost2010PropOp30
 70
     1
102
RTVSPost2010Prop31
280
     0
102
RTVSPost2010PropOp31
 70
     1
102
RTVSPost2010Prop32
280
     0
102
RTVSPost2010PropOp32
 70
     1
102
RTVSPost2010Prop33
280
     0
102
RTVSPost2010PropOp33
 70
     1
102
RTVSPost2010Prop34
280
     0
102
RTVSPost2010PropOp34
 70
     1
102
RTVSPost2010Prop35
280
     0
102
RTVSPost2010PropOp35
 70
     1
102
RTVSPost2010Prop36
280
     0
102
RTVSPost2010PropOp36
 70
     1
102
RTVSPost2010Prop37
 90
       50
102
RTVSPost2010PropOp37
 70
     0
102
RTVSPost2010Prop38
140
0.0
102
RTVSPost2010PropOp38
 70
     0
102
RTVSPost2010Prop39
140
1.0
102
RTVSPost2010PropOp39
 70
     0
102
RTVSPost2010Prop40
 90
        0
102
RTVSPost2010PropOp40
 70
     0
102
RTVSPost2010Prop41ColorIndex
 90
       18
102
RTVSPost2010Prop41ColorRGB
 90
        0
102
RTVSPost2010PropOp41
 70
     0
102
RTVSPost2010Prop42
 90
       50
102
RTVSPost2010PropOp42
 70
     0
102
RTVSPost2010Prop43
 90
        3
102
RTVSPost2010PropOp43
 70
     0
102
RTVSPost2010Prop44ColorIndex
 90
        5
102
RTVSPost2010Prop44ColorRGB
 90
      255
102
RTVSPost2010PropOp44
 70
     0
102
RTVSPost2010Prop45
280
     0
102
RTVSPost2010PropOp45
 70
     1
102
RTVSPost2010Prop46
 90
       50
102
RTVSPost2010PropOp46
 70
     0
102
RTVSPost2010Prop47
 90
       50
102
RTVSPost2010PropOp47
 70
     0
102
RTVSPost2010Prop48
 90
       50
102
RTVSPost2010PropOp48
 70
     0
102
RTVSPost2010Prop49
280
     0
102
RTVSPost2010PropOp49
 70
     1
102
RTVSPost2010Prop50
 90
       50
102
RTVSPost2010PropOp50
 70
     0
102
RTVSPost2010Prop51ColorIndex
 90
      256
102
RTVSPost2010Prop51ColorRGB
 90
-16777216
102
RTVSPost2010PropOp51
 70
     0
102
RTVSPost2010Prop52
140
1.0
102
RTVSPost2010PropOp52
 70
     0
102
RTVSPost2010Prop53
 90
        2
102
RTVSPost2010PropOp53
 70
     0
102
RTVSPost2010Prop54
  1
strokes_ogs.tif
102
RTVSPost2010PropOp54
 70
     0
102
RTVSPost2010Prop55
280
     0
102
RTVSPost2010PropOp55
 70
     1
102
RTVSPost2010Prop56
140
1.0
102
RTVSPost2010PropOp56
 70
     0
102
RTVSPost2010Prop57
140
1.0
102
RTVSPost2010PropOp57
 70
     0
102
RTVSPropertyOp0
 70
     0
102
RTVSPropertyOp1
 70
     0
102
RTVSPropertyOp2
 70
     0
102
RTVSPropertyOp3
 70
     0
102
RTVSPropertyOp4
 70
     0
102
RTVSPropertyOp5
 70
     0
102
RTVSPropertyOp6
 70
     0
102
RTVSPropertyOp7
 70
     0
102
RTVSPropertyOp8
 70
     0
102
RTVSPropertyOp9
 70
     0
102
RTVSPropertyOp10
 70
     0
102
RTVSPropertyOp11
 70
     0
102
RTVSPropertyOp12
 70
     0
102
RTVSPropertyOp13
 70
     0
102
RTVSPropertyOp14
 70
     2
102
RTVSPropertyOp15
 70
     0
102
RTVSPropertyOp16
 70
     0
102
RTVSPropertyOp17
 70
     0
102
RTVSPropertyOp18
 70
     0
102
RTVSPropertyOp19
 70
     0
102
RTVSPropertyOp20
 70
     0
102
RTVSPropertyOp21
 70
     0
102
RTVSPropertyOp22
 70
     0
102
RTVSPropertyOp23
 70
     0
102
RTVSPropertyOp24
 70
     0
102
RTVSPropertyOp25
 70
     0
102
RTVSPropertyOp26
 70
     0
102
RTVSPropertyOp27
 70
     0
102
RTVSPropertyOp28
 70
     1
102
RTVSPropertyOp29
 70
     1
102
RTVSPropertyOp30
 70
     1
102
RTVSPropertyOp31
 70
     1
102
RTVSPropertyOp32
 70
     1
102
RTVSPropertyOp33
 70
     1
102
RTVSPropertyOp34
 70
     1
102
RTVSPropertyOp35
 70
     1
102
RTVSPropertyOp36
 70
     1
102
RTVSPropertyOp37
 70
     0
102
RTVSPropertyOp38
 70
     0
102
RTVSPropertyOp39
 70
     0
102
RTVSPropertyOp40
 70
     0
102
RTVSPropertyOp41
 70
     0
102
RTVSPropertyOp42
 70
     0
102
RTVSPropertyOp43
 70
     0
102
RTVSPropertyOp44
 70
     0
102
RTVSPropertyOp45
 70
     1
102
RTVSPropertyOp46
 70
     0
102
RTVSPropertyOp47
 70
     0
102
RTVSPropertyOp48
 70
     0
102
RTVSPropertyOp49
 70
     1
102
RTVSPropertyOp50
 70
     0
102
RTVSPropertyOp51
 70
     0
102
RTVSPropertyOp52
 70
     0
102
RTVSPropertyOp53
 70
     0
102
RTVSPropertyOp54
 70
     0
102
RTVSPropertyOp55
 70
     1
102
RTVSPropertyOp56
 70
     0
102
RTVSPropertyOp57
 70
     0
102
RTVSPropertyOp58
 70
     0
102
RTVSPropertyOp59
 70
     0
102
RTVSPropertyOp60
 70
     0
102
RTVSPropertyOp61
 70
     0
102
RTVSPropertyOp62
 70
     0
  0
XRECORD
  5
B490
102
{ACAD_REACTORS
330
B48F
102
}
330
B48F
100
AcDbXrecord
280
     1
102
RTVSPost2010Prop28
280
     0
102
RTVSPost2010PropOp28
 70
     1
102
RTVSPost2010Prop29
280
     1
102
RTVSPost2010PropOp29
 70
     1
102
RTVSPost2010Prop30
280
     1
102
RTVSPost2010PropOp30
 70
     1
102
RTVSPost2010Prop31
280
     0
102
RTVSPost2010PropOp31
 70
     1
102
RTVSPost2010Prop32
280
     0
102
RTVSPost2010PropOp32
 70
     1
102
RTVSPost2010Prop33
280
     0
102
RTVSPost2010PropOp33
 70
     1
102
RTVSPost2010Prop34
280
     0
102
RTVSPost2010PropOp34
 70
     1
102
RTVSPost2010Prop35
280
     0
102
RTVSPost2010PropOp35
 70
     1
102
RTVSPost2010Prop36
280
     0
102
RTVSPost2010PropOp36
 70
     1
102
RTVSPost2010Prop37
 90
       50
102
RTVSPost2010PropOp37
 70
     1
102
RTVSPost2010Prop38
140
0.0
102
RTVSPost2010PropOp38
 70
     1
102
RTVSPost2010Prop39
140
1.0
102
RTVSPost2010PropOp39
 70
     1
102
RTVSPost2010Prop40
 90
        0
102
RTVSPost2010PropOp40
 70
     1
102
RTVSPost2010Prop41ColorIndex
 90
       18
102
RTVSPost2010Prop41ColorRGB
 90
        0
102
RTVSPost2010PropOp41
 70
     1
102
RTVSPost2010Prop42
 90
       50
102
RTVSPost2010PropOp42
 70
     1
102
RTVSPost2010Prop43
 90
        3
102
RTVSPost2010PropOp43
 70
     1
102
RTVSPost2010Prop44ColorIndex
 90
        5
102
RTVSPost2010Prop44ColorRGB
 90
      255
102
RTVSPost2010PropOp44
 70
     1
102
RTVSPost2010Prop45
280
     0
102
RTVSPost2010PropOp45
 70
     1
102
RTVSPost2010Prop46
 90
       50
102
RTVSPost2010PropOp46
 70
     1
102
RTVSPost2010Prop47
 90
       50
102
RTVSPost2010PropOp47
 70
     1
102
RTVSPost2010Prop48
 90
       50
102
RTVSPost2010PropOp48
 70
     1
102
RTVSPost2010Prop49
280
     0
102
RTVSPost2010PropOp49
 70
     1
102
RTVSPost2010Prop50
 90
       50
102
RTVSPost2010PropOp50
 70
     1
102
RTVSPost2010Prop51ColorIndex
 90
      256
102
RTVSPost2010Prop51ColorRGB
 90
-16777216
102
RTVSPost2010PropOp51
 70
     0
102
RTVSPost2010Prop52
140
1.0
102
RTVSPost2010PropOp52
 70
     0
102
RTVSPost2010Prop53
 90
        2
102
RTVSPost2010PropOp53
 70
     1
102
RTVSPost2010Prop54
  1
strokes_ogs.tif
102
RTVSPost2010PropOp54
 70
     1
102
RTVSPost2010Prop55
280
     0
102
RTVSPost2010PropOp55
 70
     1
102
RTVSPost2010Prop56
140
1.0
102
RTVSPost2010PropOp56
 70
     1
102
RTVSPost2010Prop57
140
1.0
102
RTVSPost2010PropOp57
 70
     1
102
RTVSPropertyOp0
 70
     1
102
RTVSPropertyOp1
 70
     1
102
RTVSPropertyOp2
 70
     1
102
RTVSPropertyOp3
 70
     1
102
RTVSPropertyOp4
 70
     1
102
RTVSPropertyOp5
 70
     1
102
RTVSPropertyOp6
 70
     1
102
RTVSPropertyOp7
 70
     1
102
RTVSPropertyOp8
 70
     1
102
RTVSPropertyOp9
 70
     1
102
RTVSPropertyOp10
 70
     1
102
RTVSPropertyOp11
 70
     1
102
RTVSPropertyOp12
 70
     1
102
RTVSPropertyOp13
 70
     1
102
RTVSPropertyOp14
 70
     1
102
RTVSPropertyOp15
 70
     1
102
RTVSPropertyOp16
 70
     1
102
RTVSPropertyOp17
 70
     1
102
RTVSPropertyOp18
 70
     1
102
RTVSPropertyOp19
 70
     1
102
RTVSPropertyOp20
 70
     1
102
RTVSPropertyOp21
 70
     1
102
RTVSPropertyOp22
 70
     1
102
RTVSPropertyOp23
 70
     1
102
RTVSPropertyOp24
 70
     1
102
RTVSPropertyOp25
 70
     1
102
RTVSPropertyOp26
 70
     1
102
RTVSPropertyOp27
 70
     1
102
RTVSPropertyOp28
 70
     1
102
RTVSPropertyOp29
 70
     1
102
RTVSPropertyOp30
 70
     1
102
RTVSPropertyOp31
 70
     1
102
RTVSPropertyOp32
 70
     1
102
RTVSPropertyOp33
 70
     1
102
RTVSPropertyOp34
 70
     1
102
RTVSPropertyOp35
 70
     1
102
RTVSPropertyOp36
 70
     1
102
RTVSPropertyOp37
 70
     1
102
RTVSPropertyOp38
 70
     1
102
RTVSPropertyOp39
 70
     1
102
RTVSPropertyOp40
 70
     1
102
RTVSPropertyOp41
 70
     1
102
RTVSPropertyOp42
 70
     1
102
RTVSPropertyOp43
 70
     1
102
RTVSPropertyOp44
 70
     1
102
RTVSPropertyOp45
 70
     1
102
RTVSPropertyOp46
 70
     1
102
RTVSPropertyOp47
 70
     1
102
RTVSPropertyOp48
 70
     1
102
RTVSPropertyOp49
 70
     1
102
RTVSPropertyOp50
 70
     1
102
RTVSPropertyOp51
 70
     0
102
RTVSPropertyOp52
 70
     0
102
RTVSPropertyOp53
 70
     1
102
RTVSPropertyOp54
 70
     1
102
RTVSPropertyOp55
 70
     1
102
RTVSPropertyOp56
 70
     1
102
RTVSPropertyOp57
 70
     1
102
RTVSPropertyOp58
 70
     1
102
RTVSPropertyOp59
 70
     1
102
RTVSPropertyOp60
 70
     1
102
RTVSPropertyOp61
 70
     1
102
RTVSPropertyOp62
 70
     1
  0
XRECORD
  5
B474
102
{ACAD_REACTORS
330
B473
102
}
330
B473
100
AcDbXrecord
280
     1
102
RTVSPost2010Prop28
280
     0
102
RTVSPost2010PropOp28
 70
     1
102
RTVSPost2010Prop29
280
     1
102
RTVSPost2010PropOp29
 70
     1
102
RTVSPost2010Prop30
280
     1
102
RTVSPost2010PropOp30
 70
     1
102
RTVSPost2010Prop31
280
     0
102
RTVSPost2010PropOp31
 70
     1
102
RTVSPost2010Prop32
280
     0
102
RTVSPost2010PropOp32
 70
     1
102
RTVSPost2010Prop33
280
     0
102
RTVSPost2010PropOp33
 70
     1
102
RTVSPost2010Prop34
280
     0
102
RTVSPost2010PropOp34
 70
     1
102
RTVSPost2010Prop35
280
     0
102
RTVSPost2010PropOp35
 70
     1
102
RTVSPost2010Prop36
280
     0
102
RTVSPost2010PropOp36
 70
     1
102
RTVSPost2010Prop37
 90
       50
102
RTVSPost2010PropOp37
 70
     1
102
RTVSPost2010Prop38
140
0.0
102
RTVSPost2010PropOp38
 70
     1
102
RTVSPost2010Prop39
140
1.0
102
RTVSPost2010PropOp39
 70
     1
102
RTVSPost2010Prop40
 90
        0
102
RTVSPost2010PropOp40
 70
     1
102
RTVSPost2010Prop41ColorIndex
 90
       18
102
RTVSPost2010Prop41ColorRGB
 90
        0
102
RTVSPost2010PropOp41
 70
     1
102
RTVSPost2010Prop42
 90
       50
102
RTVSPost2010PropOp42
 70
     1
102
RTVSPost2010Prop43
 90
        3
102
RTVSPost2010PropOp43
 70
     1
102
RTVSPost2010Prop44ColorIndex
 90
        5
102
RTVSPost2010Prop44ColorRGB
 90
      255
102
RTVSPost2010PropOp44
 70
     1
102
RTVSPost2010Prop45
280
     0
102
RTVSPost2010PropOp45
 70
     1
102
RTVSPost2010Prop46
 90
       50
102
RTVSPost2010PropOp46
 70
     1
102
RTVSPost2010Prop47
 90
       50
102
RTVSPost2010PropOp47
 70
     1
102
RTVSPost2010Prop48
 90
       50
102
RTVSPost2010PropOp48
 70
     1
102
RTVSPost2010Prop49
280
     0
102
RTVSPost2010PropOp49
 70
     1
102
RTVSPost2010Prop50
 90
       50
102
RTVSPost2010PropOp50
 70
     1
102
RTVSPost2010Prop51ColorIndex
 90
      256
102
RTVSPost2010Prop51ColorRGB
 90
-16777216
102
RTVSPost2010PropOp51
 70
     0
102
RTVSPost2010Prop52
140
1.0
102
RTVSPost2010PropOp52
 70
     0
102
RTVSPost2010Prop53
 90
        2
102
RTVSPost2010PropOp53
 70
     1
102
RTVSPost2010Prop54
  1
strokes_ogs.tif
102
RTVSPost2010PropOp54
 70
     1
102
RTVSPost2010Prop55
280
     0
102
RTVSPost2010PropOp55
 70
     1
102
RTVSPost2010Prop56
140
1.0
102
RTVSPost2010PropOp56
 70
     1
102
RTVSPost2010Prop57
140
1.0
102
RTVSPost2010PropOp57
 70
     1
102
RTVSPropertyOp0
 70
     1
102
RTVSPropertyOp1
 70
     1
102
RTVSPropertyOp2
 70
     1
102
RTVSPropertyOp3
 70
     1
102
RTVSPropertyOp4
 70
     1
102
RTVSPropertyOp5
 70
     1
102
RTVSPropertyOp6
 70
     1
102
RTVSPropertyOp7
 70
     1
102
RTVSPropertyOp8
 70
     1
102
RTVSPropertyOp9
 70
     1
102
RTVSPropertyOp10
 70
     1
102
RTVSPropertyOp11
 70
     1
102
RTVSPropertyOp12
 70
     1
102
RTVSPropertyOp13
 70
     1
102
RTVSPropertyOp14
 70
     1
102
RTVSPropertyOp15
 70
     1
102
RTVSPropertyOp16
 70
     1
102
RTVSPropertyOp17
 70
     1
102
RTVSPropertyOp18
 70
     1
102
RTVSPropertyOp19
 70
     1
102
RTVSPropertyOp20
 70
     1
102
RTVSPropertyOp21
 70
     1
102
RTVSPropertyOp22
 70
     1
102
RTVSPropertyOp23
 70
     1
102
RTVSPropertyOp24
 70
     1
102
RTVSPropertyOp25
 70
     1
102
RTVSPropertyOp26
 70
     1
102
RTVSPropertyOp27
 70
     1
102
RTVSPropertyOp28
 70
     1
102
RTVSPropertyOp29
 70
     1
102
RTVSPropertyOp30
 70
     1
102
RTVSPropertyOp31
 70
     1
102
RTVSPropertyOp32
 70
     1
102
RTVSPropertyOp33
 70
     1
102
RTVSPropertyOp34
 70
     1
102
RTVSPropertyOp35
 70
     1
102
RTVSPropertyOp36
 70
     1
102
RTVSPropertyOp37
 70
     1
102
RTVSPropertyOp38
 70
     1
102
RTVSPropertyOp39
 70
     1
102
RTVSPropertyOp40
 70
     1
102
RTVSPropertyOp41
 70
     1
102
RTVSPropertyOp42
 70
     1
102
RTVSPropertyOp43
 70
     1
102
RTVSPropertyOp44
 70
     1
102
RTVSPropertyOp45
 70
     1
102
RTVSPropertyOp46
 70
     1
102
RTVSPropertyOp47
 70
     1
102
RTVSPropertyOp48
 70
     1
102
RTVSPropertyOp49
 70
     1
102
RTVSPropertyOp50
 70
     1
102
RTVSPropertyOp51
 70
     0
102
RTVSPropertyOp52
 70
     0
102
RTVSPropertyOp53
 70
     1
102
RTVSPropertyOp54
 70
     1
102
RTVSPropertyOp55
 70
     1
102
RTVSPropertyOp56
 70
     1
102
RTVSPropertyOp57
 70
     1
102
RTVSPropertyOp58
 70
     1
102
RTVSPropertyOp59
 70
     1
102
RTVSPropertyOp60
 70
     1
102
RTVSPropertyOp61
 70
     1
102
RTVSPropertyOp62
 70
     1
  0
XRECORD
  5
B476
102
{ACAD_REACTORS
330
B475
102
}
330
B475
100
AcDbXrecord
280
     1
102
RTVSPost2010Prop28
280
     0
102
RTVSPost2010PropOp28
 70
     1
102
RTVSPost2010Prop29
280
     1
102
RTVSPost2010PropOp29
 70
     1
102
RTVSPost2010Prop30
280
     1
102
RTVSPost2010PropOp30
 70
     1
102
RTVSPost2010Prop31
280
     0
102
RTVSPost2010PropOp31
 70
     1
102
RTVSPost2010Prop32
280
     0
102
RTVSPost2010PropOp32
 70
     1
102
RTVSPost2010Prop33
280
     0
102
RTVSPost2010PropOp33
 70
     1
102
RTVSPost2010Prop34
280
     0
102
RTVSPost2010PropOp34
 70
     1
102
RTVSPost2010Prop35
280
     0
102
RTVSPost2010PropOp35
 70
     1
102
RTVSPost2010Prop36
280
     0
102
RTVSPost2010PropOp36
 70
     1
102
RTVSPost2010Prop37
 90
       50
102
RTVSPost2010PropOp37
 70
     1
102
RTVSPost2010Prop38
140
0.0
102
RTVSPost2010PropOp38
 70
     1
102
RTVSPost2010Prop39
140
1.0
102
RTVSPost2010PropOp39
 70
     1
102
RTVSPost2010Prop40
 90
        0
102
RTVSPost2010PropOp40
 70
     1
102
RTVSPost2010Prop41ColorIndex
 90
       18
102
RTVSPost2010Prop41ColorRGB
 90
        0
102
RTVSPost2010PropOp41
 70
     1
102
RTVSPost2010Prop42
 90
       50
102
RTVSPost2010PropOp42
 70
     1
102
RTVSPost2010Prop43
 90
        3
102
RTVSPost2010PropOp43
 70
     1
102
RTVSPost2010Prop44ColorIndex
 90
        5
102
RTVSPost2010Prop44ColorRGB
 90
      255
102
RTVSPost2010PropOp44
 70
     1
102
RTVSPost2010Prop45
280
     0
102
RTVSPost2010PropOp45
 70
     1
102
RTVSPost2010Prop46
 90
       50
102
RTVSPost2010PropOp46
 70
     1
102
RTVSPost2010Prop47
 90
       50
102
RTVSPost2010PropOp47
 70
     1
102
RTVSPost2010Prop48
 90
       50
102
RTVSPost2010PropOp48
 70
     1
102
RTVSPost2010Prop49
280
     0
102
RTVSPost2010PropOp49
 70
     1
102
RTVSPost2010Prop50
 90
       50
102
RTVSPost2010PropOp50
 70
     1
102
RTVSPost2010Prop51ColorIndex
 90
      256
102
RTVSPost2010Prop51ColorRGB
 90
-16777216
102
RTVSPost2010PropOp51
 70
     0
102
RTVSPost2010Prop52
140
1.0
102
RTVSPost2010PropOp52
 70
     0
102
RTVSPost2010Prop53
 90
        2
102
RTVSPost2010PropOp53
 70
     1
102
RTVSPost2010Prop54
  1
strokes_ogs.tif
102
RTVSPost2010PropOp54
 70
     1
102
RTVSPost2010Prop55
280
     0
102
RTVSPost2010PropOp55
 70
     1
102
RTVSPost2010Prop56
140
1.0
102
RTVSPost2010PropOp56
 70
     1
102
RTVSPost2010Prop57
140
1.0
102
RTVSPost2010PropOp57
 70
     1
102
RTVSPropertyOp0
 70
     1
102
RTVSPropertyOp1
 70
     1
102
RTVSPropertyOp2
 70
     1
102
RTVSPropertyOp3
 70
     1
102
RTVSPropertyOp4
 70
     1
102
RTVSPropertyOp5
 70
     1
102
RTVSPropertyOp6
 70
     1
102
RTVSPropertyOp7
 70
     1
102
RTVSPropertyOp8
 70
     1
102
RTVSPropertyOp9
 70
     1
102
RTVSPropertyOp10
 70
     1
102
RTVSPropertyOp11
 70
     1
102
RTVSPropertyOp12
 70
     1
102
RTVSPropertyOp13
 70
     1
102
RTVSPropertyOp14
 70
     1
102
RTVSPropertyOp15
 70
     1
102
RTVSPropertyOp16
 70
     1
102
RTVSPropertyOp17
 70
     1
102
RTVSPropertyOp18
 70
     1
102
RTVSPropertyOp19
 70
     1
102
RTVSPropertyOp20
 70
     1
102
RTVSPropertyOp21
 70
     1
102
RTVSPropertyOp22
 70
     1
102
RTVSPropertyOp23
 70
     1
102
RTVSPropertyOp24
 70
     1
102
RTVSPropertyOp25
 70
     1
102
RTVSPropertyOp26
 70
     1
102
RTVSPropertyOp27
 70
     1
102
RTVSPropertyOp28
 70
     1
102
RTVSPropertyOp29
 70
     1
102
RTVSPropertyOp30
 70
     1
102
RTVSPropertyOp31
 70
     1
102
RTVSPropertyOp32
 70
     1
102
RTVSPropertyOp33
 70
     1
102
RTVSPropertyOp34
 70
     1
102
RTVSPropertyOp35
 70
     1
102
RTVSPropertyOp36
 70
     1
102
RTVSPropertyOp37
 70
     1
102
RTVSPropertyOp38
 70
     1
102
RTVSPropertyOp39
 70
     1
102
RTVSPropertyOp40
 70
     1
102
RTVSPropertyOp41
 70
     1
102
RTVSPropertyOp42
 70
     1
102
RTVSPropertyOp43
 70
     1
102
RTVSPropertyOp44
 70
     1
102
RTVSPropertyOp45
 70
     1
102
RTVSPropertyOp46
 70
     1
102
RTVSPropertyOp47
 70
     1
102
RTVSPropertyOp48
 70
     1
102
RTVSPropertyOp49
 70
     1
102
RTVSPropertyOp50
 70
     1
102
RTVSPropertyOp51
 70
     0
102
RTVSPropertyOp52
 70
     0
102
RTVSPropertyOp53
 70
     1
102
RTVSPropertyOp54
 70
     1
102
RTVSPropertyOp55
 70
     1
102
RTVSPropertyOp56
 70
     1
102
RTVSPropertyOp57
 70
     1
102
RTVSPropertyOp58
 70
     1
102
RTVSPropertyOp59
 70
     1
102
RTVSPropertyOp60
 70
     1
102
RTVSPropertyOp61
 70
     1
102
RTVSPropertyOp62
 70
     1
  0
XRECORD
  5
B478
102
{ACAD_REACTORS
330
B477
102
}
330
B477
100
AcDbXrecord
280
     1
102
RTVSPost2010Prop28
280
     0
102
RTVSPost2010PropOp28
 70
     1
102
RTVSPost2010Prop29
280
     1
102
RTVSPost2010PropOp29
 70
     1
102
RTVSPost2010Prop30
280
     1
102
RTVSPost2010PropOp30
 70
     1
102
RTVSPost2010Prop31
280
     0
102
RTVSPost2010PropOp31
 70
     1
102
RTVSPost2010Prop32
280
     0
102
RTVSPost2010PropOp32
 70
     1
102
RTVSPost2010Prop33
280
     0
102
RTVSPost2010PropOp33
 70
     1
102
RTVSPost2010Prop34
280
     0
102
RTVSPost2010PropOp34
 70
     1
102
RTVSPost2010Prop35
280
     0
102
RTVSPost2010PropOp35
 70
     1
102
RTVSPost2010Prop36
280
     0
102
RTVSPost2010PropOp36
 70
     1
102
RTVSPost2010Prop37
 90
       50
102
RTVSPost2010PropOp37
 70
     1
102
RTVSPost2010Prop38
140
0.0
102
RTVSPost2010PropOp38
 70
     1
102
RTVSPost2010Prop39
140
1.0
102
RTVSPost2010PropOp39
 70
     1
102
RTVSPost2010Prop40
 90
        0
102
RTVSPost2010PropOp40
 70
     1
102
RTVSPost2010Prop41ColorIndex
 90
       18
102
RTVSPost2010Prop41ColorRGB
 90
        0
102
RTVSPost2010PropOp41
 70
     1
102
RTVSPost2010Prop42
 90
       50
102
RTVSPost2010PropOp42
 70
     1
102
RTVSPost2010Prop43
 90
        3
102
RTVSPost2010PropOp43
 70
     1
102
RTVSPost2010Prop44ColorIndex
 90
        5
102
RTVSPost2010Prop44ColorRGB
 90
      255
102
RTVSPost2010PropOp44
 70
     1
102
RTVSPost2010Prop45
280
     0
102
RTVSPost2010PropOp45
 70
     1
102
RTVSPost2010Prop46
 90
       50
102
RTVSPost2010PropOp46
 70
     1
102
RTVSPost2010Prop47
 90
       50
102
RTVSPost2010PropOp47
 70
     1
102
RTVSPost2010Prop48
 90
       50
102
RTVSPost2010PropOp48
 70
     1
102
RTVSPost2010Prop49
280
     0
102
RTVSPost2010PropOp49
 70
     1
102
RTVSPost2010Prop50
 90
       50
102
RTVSPost2010PropOp50
 70
     1
102
RTVSPost2010Prop51ColorIndex
 90
      256
102
RTVSPost2010Prop51ColorRGB
 90
-16777216
102
RTVSPost2010PropOp51
 70
     0
102
RTVSPost2010Prop52
140
1.0
102
RTVSPost2010PropOp52
 70
     0
102
RTVSPost2010Prop53
 90
        2
102
RTVSPost2010PropOp53
 70
     1
102
RTVSPost2010Prop54
  1
strokes_ogs.tif
102
RTVSPost2010PropOp54
 70
     1
102
RTVSPost2010Prop55
280
     0
102
RTVSPost2010PropOp55
 70
     1
102
RTVSPost2010Prop56
140
1.0
102
RTVSPost2010PropOp56
 70
     1
102
RTVSPost2010Prop57
140
1.0
102
RTVSPost2010PropOp57
 70
     1
102
RTVSPropertyOp0
 70
     1
102
RTVSPropertyOp1
 70
     1
102
RTVSPropertyOp2
 70
     1
102
RTVSPropertyOp3
 70
     1
102
RTVSPropertyOp4
 70
     1
102
RTVSPropertyOp5
 70
     1
102
RTVSPropertyOp6
 70
     1
102
RTVSPropertyOp7
 70
     1
102
RTVSPropertyOp8
 70
     1
102
RTVSPropertyOp9
 70
     1
102
RTVSPropertyOp10
 70
     1
102
RTVSPropertyOp11
 70
     1
102
RTVSPropertyOp12
 70
     1
102
RTVSPropertyOp13
 70
     1
102
RTVSPropertyOp14
 70
     1
102
RTVSPropertyOp15
 70
     1
102
RTVSPropertyOp16
 70
     1
102
RTVSPropertyOp17
 70
     1
102
RTVSPropertyOp18
 70
     1
102
RTVSPropertyOp19
 70
     1
102
RTVSPropertyOp20
 70
     1
102
RTVSPropertyOp21
 70
     1
102
RTVSPropertyOp22
 70
     1
102
RTVSPropertyOp23
 70
     1
102
RTVSPropertyOp24
 70
     1
102
RTVSPropertyOp25
 70
     1
102
RTVSPropertyOp26
 70
     1
102
RTVSPropertyOp27
 70
     1
102
RTVSPropertyOp28
 70
     1
102
RTVSPropertyOp29
 70
     1
102
RTVSPropertyOp30
 70
     1
102
RTVSPropertyOp31
 70
     1
102
RTVSPropertyOp32
 70
     1
102
RTVSPropertyOp33
 70
     1
102
RTVSPropertyOp34
 70
     1
102
RTVSPropertyOp35
 70
     1
102
RTVSPropertyOp36
 70
     1
102
RTVSPropertyOp37
 70
     1
102
RTVSPropertyOp38
 70
     1
102
RTVSPropertyOp39
 70
     1
102
RTVSPropertyOp40
 70
     1
102
RTVSPropertyOp41
 70
     1
102
RTVSPropertyOp42
 70
     1
102
RTVSPropertyOp43
 70
     1
102
RTVSPropertyOp44
 70
     1
102
RTVSPropertyOp45
 70
     1
102
RTVSPropertyOp46
 70
     1
102
RTVSPropertyOp47
 70
     1
102
RTVSPropertyOp48
 70
     1
102
RTVSPropertyOp49
 70
     1
102
RTVSPropertyOp50
 70
     1
102
RTVSPropertyOp51
 70
     0
102
RTVSPropertyOp52
 70
     0
102
RTVSPropertyOp53
 70
     1
102
RTVSPropertyOp54
 70
     1
102
RTVSPropertyOp55
 70
     1
102
RTVSPropertyOp56
 70
     1
102
RTVSPropertyOp57
 70
     1
102
RTVSPropertyOp58
 70
     1
102
RTVSPropertyOp59
 70
     1
102
RTVSPropertyOp60
 70
     1
102
RTVSPropertyOp61
 70
     1
102
RTVSPropertyOp62
 70
     1
  0
XRECORD
  5
B47A
102
{ACAD_REACTORS
330
B479
102
}
330
B479
100
AcDbXrecord
280
     1
102
RTVSPost2010Prop28
280
     0
102
RTVSPost2010PropOp28
 70
     1
102
RTVSPost2010Prop29
280
     1
102
RTVSPost2010PropOp29
 70
     1
102
RTVSPost2010Prop30
280
     1
102
RTVSPost2010PropOp30
 70
     1
102
RTVSPost2010Prop31
280
     0
102
RTVSPost2010PropOp31
 70
     1
102
RTVSPost2010Prop32
280
     0
102
RTVSPost2010PropOp32
 70
     1
102
RTVSPost2010Prop33
280
     0
102
RTVSPost2010PropOp33
 70
     1
102
RTVSPost2010Prop34
280
     0
102
RTVSPost2010PropOp34
 70
     1
102
RTVSPost2010Prop35
280
     0
102
RTVSPost2010PropOp35
 70
     1
102
RTVSPost2010Prop36
280
     0
102
RTVSPost2010PropOp36
 70
     1
102
RTVSPost2010Prop37
 90
       50
102
RTVSPost2010PropOp37
 70
     1
102
RTVSPost2010Prop38
140
0.0
102
RTVSPost2010PropOp38
 70
     1
102
RTVSPost2010Prop39
140
1.0
102
RTVSPost2010PropOp39
 70
     1
102
RTVSPost2010Prop40
 90
        0
102
RTVSPost2010PropOp40
 70
     1
102
RTVSPost2010Prop41ColorIndex
 90
       18
102
RTVSPost2010Prop41ColorRGB
 90
        0
102
RTVSPost2010PropOp41
 70
     1
102
RTVSPost2010Prop42
 90
       50
102
RTVSPost2010PropOp42
 70
     1
102
RTVSPost2010Prop43
 90
        3
102
RTVSPost2010PropOp43
 70
     1
102
RTVSPost2010Prop44ColorIndex
 90
        5
102
RTVSPost2010Prop44ColorRGB
 90
      255
102
RTVSPost2010PropOp44
 70
     1
102
RTVSPost2010Prop45
280
     0
102
RTVSPost2010PropOp45
 70
     1
102
RTVSPost2010Prop46
 90
       50
102
RTVSPost2010PropOp46
 70
     1
102
RTVSPost2010Prop47
 90
       50
102
RTVSPost2010PropOp47
 70
     1
102
RTVSPost2010Prop48
 90
       50
102
RTVSPost2010PropOp48
 70
     1
102
RTVSPost2010Prop49
280
     0
102
RTVSPost2010PropOp49
 70
     1
102
RTVSPost2010Prop50
 90
       50
102
RTVSPost2010PropOp50
 70
     1
102
RTVSPost2010Prop51ColorIndex
 90
      256
102
RTVSPost2010Prop51ColorRGB
 90
-16777216
102
RTVSPost2010PropOp51
 70
     0
102
RTVSPost2010Prop52
140
1.0
102
RTVSPost2010PropOp52
 70
     0
102
RTVSPost2010Prop53
 90
        2
102
RTVSPost2010PropOp53
 70
     1
102
RTVSPost2010Prop54
  1
strokes_ogs.tif
102
RTVSPost2010PropOp54
 70
     1
102
RTVSPost2010Prop55
280
     0
102
RTVSPost2010PropOp55
 70
     1
102
RTVSPost2010Prop56
140
1.0
102
RTVSPost2010PropOp56
 70
     1
102
RTVSPost2010Prop57
140
1.0
102
RTVSPost2010PropOp57
 70
     1
102
RTVSPropertyOp0
 70
     1
102
RTVSPropertyOp1
 70
     1
102
RTVSPropertyOp2
 70
     1
102
RTVSPropertyOp3
 70
     1
102
RTVSPropertyOp4
 70
     1
102
RTVSPropertyOp5
 70
     1
102
RTVSPropertyOp6
 70
     1
102
RTVSPropertyOp7
 70
     1
102
RTVSPropertyOp8
 70
     1
102
RTVSPropertyOp9
 70
     1
102
RTVSPropertyOp10
 70
     1
102
RTVSPropertyOp11
 70
     1
102
RTVSPropertyOp12
 70
     1
102
RTVSPropertyOp13
 70
     1
102
RTVSPropertyOp14
 70
     1
102
RTVSPropertyOp15
 70
     1
102
RTVSPropertyOp16
 70
     1
102
RTVSPropertyOp17
 70
     1
102
RTVSPropertyOp18
 70
     1
102
RTVSPropertyOp19
 70
     1
102
RTVSPropertyOp20
 70
     1
102
RTVSPropertyOp21
 70
     1
102
RTVSPropertyOp22
 70
     1
102
RTVSPropertyOp23
 70
     1
102
RTVSPropertyOp24
 70
     1
102
RTVSPropertyOp25
 70
     1
102
RTVSPropertyOp26
 70
     1
102
RTVSPropertyOp27
 70
     1
102
RTVSPropertyOp28
 70
     1
102
RTVSPropertyOp29
 70
     1
102
RTVSPropertyOp30
 70
     1
102
RTVSPropertyOp31
 70
     1
102
RTVSPropertyOp32
 70
     1
102
RTVSPropertyOp33
 70
     1
102
RTVSPropertyOp34
 70
     1
102
RTVSPropertyOp35
 70
     1
102
RTVSPropertyOp36
 70
     1
102
RTVSPropertyOp37
 70
     1
102
RTVSPropertyOp38
 70
     1
102
RTVSPropertyOp39
 70
     1
102
RTVSPropertyOp40
 70
     1
102
RTVSPropertyOp41
 70
     1
102
RTVSPropertyOp42
 70
     1
102
RTVSPropertyOp43
 70
     1
102
RTVSPropertyOp44
 70
     1
102
RTVSPropertyOp45
 70
     1
102
RTVSPropertyOp46
 70
     1
102
RTVSPropertyOp47
 70
     1
102
RTVSPropertyOp48
 70
     1
102
RTVSPropertyOp49
 70
     1
102
RTVSPropertyOp50
 70
     1
102
RTVSPropertyOp51
 70
     0
102
RTVSPropertyOp52
 70
     0
102
RTVSPropertyOp53
 70
     1
102
RTVSPropertyOp54
 70
     1
102
RTVSPropertyOp55
 70
     1
102
RTVSPropertyOp56
 70
     1
102
RTVSPropertyOp57
 70
     1
102
RTVSPropertyOp58
 70
     1
102
RTVSPropertyOp59
 70
     1
102
RTVSPropertyOp60
 70
     1
102
RTVSPropertyOp61
 70
     1
102
RTVSPropertyOp62
 70
     1
  0
XRECORD
  5
B482
102
{ACAD_REACTORS
330
B481
102
}
330
B481
100
AcDbXrecord
280
     1
102
RTVSPost2010Prop28
280
     0
102
RTVSPost2010PropOp28
 70
     1
102
RTVSPost2010Prop29
280
     1
102
RTVSPost2010PropOp29
 70
     1
102
RTVSPost2010Prop30
280
     1
102
RTVSPost2010PropOp30
 70
     1
102
RTVSPost2010Prop31
280
     0
102
RTVSPost2010PropOp31
 70
     1
102
RTVSPost2010Prop32
280
     0
102
RTVSPost2010PropOp32
 70
     1
102
RTVSPost2010Prop33
280
     0
102
RTVSPost2010PropOp33
 70
     1
102
RTVSPost2010Prop34
280
     0
102
RTVSPost2010PropOp34
 70
     1
102
RTVSPost2010Prop35
280
     0
102
RTVSPost2010PropOp35
 70
     1
102
RTVSPost2010Prop36
280
     0
102
RTVSPost2010PropOp36
 70
     1
102
RTVSPost2010Prop37
 90
       50
102
RTVSPost2010PropOp37
 70
     1
102
RTVSPost2010Prop38
140
0.0
102
RTVSPost2010PropOp38
 70
     1
102
RTVSPost2010Prop39
140
1.0
102
RTVSPost2010PropOp39
 70
     1
102
RTVSPost2010Prop40
 90
        0
102
RTVSPost2010PropOp40
 70
     1
102
RTVSPost2010Prop41ColorIndex
 90
       18
102
RTVSPost2010Prop41ColorRGB
 90
        0
102
RTVSPost2010PropOp41
 70
     1
102
RTVSPost2010Prop42
 90
       50
102
RTVSPost2010PropOp42
 70
     1
102
RTVSPost2010Prop43
 90
        3
102
RTVSPost2010PropOp43
 70
     1
102
RTVSPost2010Prop44ColorIndex
 90
        5
102
RTVSPost2010Prop44ColorRGB
 90
      255
102
RTVSPost2010PropOp44
 70
     1
102
RTVSPost2010Prop45
280
     0
102
RTVSPost2010PropOp45
 70
     1
102
RTVSPost2010Prop46
 90
       50
102
RTVSPost2010PropOp46
 70
     1
102
RTVSPost2010Prop47
 90
       50
102
RTVSPost2010PropOp47
 70
     1
102
RTVSPost2010Prop48
 90
       50
102
RTVSPost2010PropOp48
 70
     1
102
RTVSPost2010Prop49
280
     0
102
RTVSPost2010PropOp49
 70
     1
102
RTVSPost2010Prop50
 90
       50
102
RTVSPost2010PropOp50
 70
     1
102
RTVSPost2010Prop51ColorIndex
 90
      256
102
RTVSPost2010Prop51ColorRGB
 90
-16777216
102
RTVSPost2010PropOp51
 70
     0
102
RTVSPost2010Prop52
140
1.0
102
RTVSPost2010PropOp52
 70
     0
102
RTVSPost2010Prop53
 90
        2
102
RTVSPost2010PropOp53
 70
     1
102
RTVSPost2010Prop54
  1
strokes_ogs.tif
102
RTVSPost2010PropOp54
 70
     1
102
RTVSPost2010Prop55
280
     0
102
RTVSPost2010PropOp55
 70
     1
102
RTVSPost2010Prop56
140
1.0
102
RTVSPost2010PropOp56
 70
     1
102
RTVSPost2010Prop57
140
1.0
102
RTVSPost2010PropOp57
 70
     1
102
RTVSPropertyOp0
 70
     1
102
RTVSPropertyOp1
 70
     1
102
RTVSPropertyOp2
 70
     1
102
RTVSPropertyOp3
 70
     1
102
RTVSPropertyOp4
 70
     1
102
RTVSPropertyOp5
 70
     1
102
RTVSPropertyOp6
 70
     1
102
RTVSPropertyOp7
 70
     1
102
RTVSPropertyOp8
 70
     1
102
RTVSPropertyOp9
 70
     1
102
RTVSPropertyOp10
 70
     1
102
RTVSPropertyOp11
 70
     1
102
RTVSPropertyOp12
 70
     1
102
RTVSPropertyOp13
 70
     1
102
RTVSPropertyOp14
 70
     1
102
RTVSPropertyOp15
 70
     1
102
RTVSPropertyOp16
 70
     1
102
RTVSPropertyOp17
 70
     1
102
RTVSPropertyOp18
 70
     1
102
RTVSPropertyOp19
 70
     1
102
RTVSPropertyOp20
 70
     1
102
RTVSPropertyOp21
 70
     1
102
RTVSPropertyOp22
 70
     1
102
RTVSPropertyOp23
 70
     1
102
RTVSPropertyOp24
 70
     1
102
RTVSPropertyOp25
 70
     1
102
RTVSPropertyOp26
 70
     1
102
RTVSPropertyOp27
 70
     1
102
RTVSPropertyOp28
 70
     1
102
RTVSPropertyOp29
 70
     1
102
RTVSPropertyOp30
 70
     1
102
RTVSPropertyOp31
 70
     1
102
RTVSPropertyOp32
 70
     1
102
RTVSPropertyOp33
 70
     1
102
RTVSPropertyOp34
 70
     1
102
RTVSPropertyOp35
 70
     1
102
RTVSPropertyOp36
 70
     1
102
RTVSPropertyOp37
 70
     1
102
RTVSPropertyOp38
 70
     1
102
RTVSPropertyOp39
 70
     1
102
RTVSPropertyOp40
 70
     1
102
RTVSPropertyOp41
 70
     1
102
RTVSPropertyOp42
 70
     1
102
RTVSPropertyOp43
 70
     1
102
RTVSPropertyOp44
 70
     1
102
RTVSPropertyOp45
 70
     1
102
RTVSPropertyOp46
 70
     1
102
RTVSPropertyOp47
 70
     1
102
RTVSPropertyOp48
 70
     1
102
RTVSPropertyOp49
 70
     1
102
RTVSPropertyOp50
 70
     1
102
RTVSPropertyOp51
 70
     0
102
RTVSPropertyOp52
 70
     0
102
RTVSPropertyOp53
 70
     1
102
RTVSPropertyOp54
 70
     1
102
RTVSPropertyOp55
 70
     1
102
RTVSPropertyOp56
 70
     1
102
RTVSPropertyOp57
 70
     1
102
RTVSPropertyOp58
 70
     1
102
RTVSPropertyOp59
 70
     1
102
RTVSPropertyOp60
 70
     1
102
RTVSPropertyOp61
 70
     1
102
RTVSPropertyOp62
 70
     1
  0
XRECORD
  5
B49E
102
{ACAD_REACTORS
330
B49D
102
}
330
B49D
100
AcDbXrecord
280
     1
102
RTVSPost2010Prop28
280
     0
102
RTVSPost2010PropOp28
 70
     1
102
RTVSPost2010Prop29
280
     1
102
RTVSPost2010PropOp29
 70
     1
102
RTVSPost2010Prop30
280
     1
102
RTVSPost2010PropOp30
 70
     1
102
RTVSPost2010Prop31
280
     0
102
RTVSPost2010PropOp31
 70
     1
102
RTVSPost2010Prop32
280
     0
102
RTVSPost2010PropOp32
 70
     1
102
RTVSPost2010Prop33
280
     0
102
RTVSPost2010PropOp33
 70
     1
102
RTVSPost2010Prop34
280
     0
102
RTVSPost2010PropOp34
 70
     1
102
RTVSPost2010Prop35
280
     0
102
RTVSPost2010PropOp35
 70
     1
102
RTVSPost2010Prop36
280
     0
102
RTVSPost2010PropOp36
 70
     1
102
RTVSPost2010Prop37
 90
       50
102
RTVSPost2010PropOp37
 70
     0
102
RTVSPost2010Prop38
140
0.0
102
RTVSPost2010PropOp38
 70
     0
102
RTVSPost2010Prop39
140
1.0
102
RTVSPost2010PropOp39
 70
     0
102
RTVSPost2010Prop40
 90
        0
102
RTVSPost2010PropOp40
 70
     0
102
RTVSPost2010Prop41ColorIndex
 90
       18
102
RTVSPost2010Prop41ColorRGB
 90
        0
102
RTVSPost2010PropOp41
 70
     0
102
RTVSPost2010Prop42
 90
       50
102
RTVSPost2010PropOp42
 70
     0
102
RTVSPost2010Prop43
 90
        3
102
RTVSPost2010PropOp43
 70
     0
102
RTVSPost2010Prop44ColorIndex
 90
        5
102
RTVSPost2010Prop44ColorRGB
 90
      255
102
RTVSPost2010PropOp44
 70
     0
102
RTVSPost2010Prop45
280
     0
102
RTVSPost2010PropOp45
 70
     1
102
RTVSPost2010Prop46
 90
       50
102
RTVSPost2010PropOp46
 70
     0
102
RTVSPost2010Prop47
 90
       50
102
RTVSPost2010PropOp47
 70
     0
102
RTVSPost2010Prop48
 90
       50
102
RTVSPost2010PropOp48
 70
     0
102
RTVSPost2010Prop49
280
     0
102
RTVSPost2010PropOp49
 70
     1
102
RTVSPost2010Prop50
 90
       50
102
RTVSPost2010PropOp50
 70
     0
102
RTVSPost2010Prop51ColorIndex
 90
      256
102
RTVSPost2010Prop51ColorRGB
 90
-16777216
102
RTVSPost2010PropOp51
 70
     0
102
RTVSPost2010Prop52
140
1.0
102
RTVSPost2010PropOp52
 70
     0
102
RTVSPost2010Prop53
 90
        2
102
RTVSPost2010PropOp53
 70
     0
102
RTVSPost2010Prop54
  1
strokes_ogs.tif
102
RTVSPost2010PropOp54
 70
     0
102
RTVSPost2010Prop55
280
     0
102
RTVSPost2010PropOp55
 70
     1
102
RTVSPost2010Prop56
140
1.0
102
RTVSPost2010PropOp56
 70
     0
102
RTVSPost2010Prop57
140
1.0
102
RTVSPost2010PropOp57
 70
     0
102
RTVSPropertyOp0
 70
     0
102
RTVSPropertyOp1
 70
     0
102
RTVSPropertyOp2
 70
     0
102
RTVSPropertyOp3
 70
     0
102
RTVSPropertyOp4
 70
     0
102
RTVSPropertyOp5
 70
     0
102
RTVSPropertyOp6
 70
     0
102
RTVSPropertyOp7
 70
     0
102
RTVSPropertyOp8
 70
     0
102
RTVSPropertyOp9
 70
     0
102
RTVSPropertyOp10
 70
     0
102
RTVSPropertyOp11
 70
     0
102
RTVSPropertyOp12
 70
     0
102
RTVSPropertyOp13
 70
     0
102
RTVSPropertyOp14
 70
     2
102
RTVSPropertyOp15
 70
     0
102
RTVSPropertyOp16
 70
     0
102
RTVSPropertyOp17
 70
     0
102
RTVSPropertyOp18
 70
     0
102
RTVSPropertyOp19
 70
     0
102
RTVSPropertyOp20
 70
     0
102
RTVSPropertyOp21
 70
     0
102
RTVSPropertyOp22
 70
     0
102
RTVSPropertyOp23
 70
     0
102
RTVSPropertyOp24
 70
     0
102
RTVSPropertyOp25
 70
     0
102
RTVSPropertyOp26
 70
     0
102
RTVSPropertyOp27
 70
     0
102
RTVSPropertyOp28
 70
     1
102
RTVSPropertyOp29
 70
     1
102
RTVSPropertyOp30
 70
     1
102
RTVSPropertyOp31
 70
     1
102
RTVSPropertyOp32
 70
     1
102
RTVSPropertyOp33
 70
     1
102
RTVSPropertyOp34
 70
     1
102
RTVSPropertyOp35
 70
     1
102
RTVSPropertyOp36
 70
     1
102
RTVSPropertyOp37
 70
     0
102
RTVSPropertyOp38
 70
     0
102
RTVSPropertyOp39
 70
     0
102
RTVSPropertyOp40
 70
     0
102
RTVSPropertyOp41
 70
     0
102
RTVSPropertyOp42
 70
     0
102
RTVSPropertyOp43
 70
     0
102
RTVSPropertyOp44
 70
     0
102
RTVSPropertyOp45
 70
     1
102
RTVSPropertyOp46
 70
     0
102
RTVSPropertyOp47
 70
     0
102
RTVSPropertyOp48
 70
     0
102
RTVSPropertyOp49
 70
     1
102
RTVSPropertyOp50
 70
     0
102
RTVSPropertyOp51
 70
     0
102
RTVSPropertyOp52
 70
     0
102
RTVSPropertyOp53
 70
     0
102
RTVSPropertyOp54
 70
     0
102
RTVSPropertyOp55
 70
     1
102
RTVSPropertyOp56
 70
     0
102
RTVSPropertyOp57
 70
     0
102
RTVSPropertyOp58
 70
     0
102
RTVSPropertyOp59
 70
     0
102
RTVSPropertyOp60
 70
     0
102
RTVSPropertyOp61
 70
     0
102
RTVSPropertyOp62
 70
     0
  0
XRECORD
  5
B48E
102
{ACAD_REACTORS
330
B48D
102
}
330
B48D
100
AcDbXrecord
280
     1
102
RTVSPost2010Prop28
280
     0
102
RTVSPost2010PropOp28
 70
     1
102
RTVSPost2010Prop29
280
     1
102
RTVSPost2010PropOp29
 70
     1
102
RTVSPost2010Prop30
280
     1
102
RTVSPost2010PropOp30
 70
     1
102
RTVSPost2010Prop31
280
     0
102
RTVSPost2010PropOp31
 70
     1
102
RTVSPost2010Prop32
280
     0
102
RTVSPost2010PropOp32
 70
     1
102
RTVSPost2010Prop33
280
     0
102
RTVSPost2010PropOp33
 70
     1
102
RTVSPost2010Prop34
280
     0
102
RTVSPost2010PropOp34
 70
     1
102
RTVSPost2010Prop35
280
     0
102
RTVSPost2010PropOp35
 70
     1
102
RTVSPost2010Prop36
280
     0
102
RTVSPost2010PropOp36
 70
     1
102
RTVSPost2010Prop37
 90
       50
102
RTVSPost2010PropOp37
 70
     1
102
RTVSPost2010Prop38
140
0.0
102
RTVSPost2010PropOp38
 70
     1
102
RTVSPost2010Prop39
140
1.0
102
RTVSPost2010PropOp39
 70
     1
102
RTVSPost2010Prop40
 90
        0
102
RTVSPost2010PropOp40
 70
     1
102
RTVSPost2010Prop41ColorIndex
 90
       18
102
RTVSPost2010Prop41ColorRGB
 90
        0
102
RTVSPost2010PropOp41
 70
     1
102
RTVSPost2010Prop42
 90
       50
102
RTVSPost2010PropOp42
 70
     1
102
RTVSPost2010Prop43
 90
        3
102
RTVSPost2010PropOp43
 70
     1
102
RTVSPost2010Prop44ColorIndex
 90
        5
102
RTVSPost2010Prop44ColorRGB
 90
      255
102
RTVSPost2010PropOp44
 70
     1
102
RTVSPost2010Prop45
280
     0
102
RTVSPost2010PropOp45
 70
     1
102
RTVSPost2010Prop46
 90
       50
102
RTVSPost2010PropOp46
 70
     1
102
RTVSPost2010Prop47
 90
       50
102
RTVSPost2010PropOp47
 70
     1
102
RTVSPost2010Prop48
 90
       50
102
RTVSPost2010PropOp48
 70
     1
102
RTVSPost2010Prop49
280
     0
102
RTVSPost2010PropOp49
 70
     1
102
RTVSPost2010Prop50
 90
       50
102
RTVSPost2010PropOp50
 70
     1
102
RTVSPost2010Prop51ColorIndex
 90
      256
102
RTVSPost2010Prop51ColorRGB
 90
-16777216
102
RTVSPost2010PropOp51
 70
     0
102
RTVSPost2010Prop52
140
1.0
102
RTVSPost2010PropOp52
 70
     0
102
RTVSPost2010Prop53
 90
        2
102
RTVSPost2010PropOp53
 70
     1
102
RTVSPost2010Prop54
  1
strokes_ogs.tif
102
RTVSPost2010PropOp54
 70
     1
102
RTVSPost2010Prop55
280
     0
102
RTVSPost2010PropOp55
 70
     1
102
RTVSPost2010Prop56
140
1.0
102
RTVSPost2010PropOp56
 70
     1
102
RTVSPost2010Prop57
140
1.0
102
RTVSPost2010PropOp57
 70
     1
102
RTVSPropertyOp0
 70
     1
102
RTVSPropertyOp1
 70
     1
102
RTVSPropertyOp2
 70
     1
102
RTVSPropertyOp3
 70
     1
102
RTVSPropertyOp4
 70
     1
102
RTVSPropertyOp5
 70
     1
102
RTVSPropertyOp6
 70
     1
102
RTVSPropertyOp7
 70
     1
102
RTVSPropertyOp8
 70
     1
102
RTVSPropertyOp9
 70
     1
102
RTVSPropertyOp10
 70
     1
102
RTVSPropertyOp11
 70
     1
102
RTVSPropertyOp12
 70
     1
102
RTVSPropertyOp13
 70
     1
102
RTVSPropertyOp14
 70
     1
102
RTVSPropertyOp15
 70
     1
102
RTVSPropertyOp16
 70
     1
102
RTVSPropertyOp17
 70
     1
102
RTVSPropertyOp18
 70
     1
102
RTVSPropertyOp19
 70
     1
102
RTVSPropertyOp20
 70
     1
102
RTVSPropertyOp21
 70
     1
102
RTVSPropertyOp22
 70
     1
102
RTVSPropertyOp23
 70
     1
102
RTVSPropertyOp24
 70
     1
102
RTVSPropertyOp25
 70
     1
102
RTVSPropertyOp26
 70
     1
102
RTVSPropertyOp27
 70
     1
102
RTVSPropertyOp28
 70
     1
102
RTVSPropertyOp29
 70
     1
102
RTVSPropertyOp30
 70
     1
102
RTVSPropertyOp31
 70
     1
102
RTVSPropertyOp32
 70
     1
102
RTVSPropertyOp33
 70
     1
102
RTVSPropertyOp34
 70
     1
102
RTVSPropertyOp35
 70
     1
102
RTVSPropertyOp36
 70
     1
102
RTVSPropertyOp37
 70
     1
102
RTVSPropertyOp38
 70
     1
102
RTVSPropertyOp39
 70
     1
102
RTVSPropertyOp40
 70
     1
102
RTVSPropertyOp41
 70
     1
102
RTVSPropertyOp42
 70
     1
102
RTVSPropertyOp43
 70
     1
102
RTVSPropertyOp44
 70
     1
102
RTVSPropertyOp45
 70
     1
102
RTVSPropertyOp46
 70
     1
102
RTVSPropertyOp47
 70
     1
102
RTVSPropertyOp48
 70
     1
102
RTVSPropertyOp49
 70
     1
102
RTVSPropertyOp50
 70
     1
102
RTVSPropertyOp51
 70
     0
102
RTVSPropertyOp52
 70
     0
102
RTVSPropertyOp53
 70
     1
102
RTVSPropertyOp54
 70
     1
102
RTVSPropertyOp55
 70
     1
102
RTVSPropertyOp56
 70
     1
102
RTVSPropertyOp57
 70
     1
102
RTVSPropertyOp58
 70
     1
102
RTVSPropertyOp59
 70
     1
102
RTVSPropertyOp60
 70
     1
102
RTVSPropertyOp61
 70
     1
102
RTVSPropertyOp62
 70
     1
  0
XRECORD
  5
B4A0
102
{ACAD_REACTORS
330
B49F
102
}
330
B49F
100
AcDbXrecord
280
     1
102
RTVSPost2010Prop28
280
     0
102
RTVSPost2010PropOp28
 70
     1
102
RTVSPost2010Prop29
280
     1
102
RTVSPost2010PropOp29
 70
     1
102
RTVSPost2010Prop30
280
     1
102
RTVSPost2010PropOp30
 70
     1
102
RTVSPost2010Prop31
280
     0
102
RTVSPost2010PropOp31
 70
     1
102
RTVSPost2010Prop32
280
     0
102
RTVSPost2010PropOp32
 70
     1
102
RTVSPost2010Prop33
280
     0
102
RTVSPost2010PropOp33
 70
     1
102
RTVSPost2010Prop34
280
     0
102
RTVSPost2010PropOp34
 70
     1
102
RTVSPost2010Prop35
280
     0
102
RTVSPost2010PropOp35
 70
     1
102
RTVSPost2010Prop36
280
     0
102
RTVSPost2010PropOp36
 70
     1
102
RTVSPost2010Prop37
 90
       50
102
RTVSPost2010PropOp37
 70
     0
102
RTVSPost2010Prop38
140
0.0
102
RTVSPost2010PropOp38
 70
     0
102
RTVSPost2010Prop39
140
1.0
102
RTVSPost2010PropOp39
 70
     0
102
RTVSPost2010Prop40
 90
        0
102
RTVSPost2010PropOp40
 70
     0
102
RTVSPost2010Prop41ColorIndex
 90
       18
102
RTVSPost2010Prop41ColorRGB
 90
        0
102
RTVSPost2010PropOp41
 70
     0
102
RTVSPost2010Prop42
 90
       50
102
RTVSPost2010PropOp42
 70
     0
102
RTVSPost2010Prop43
 90
        3
102
RTVSPost2010PropOp43
 70
     0
102
RTVSPost2010Prop44ColorIndex
 90
        5
102
RTVSPost2010Prop44ColorRGB
 90
      255
102
RTVSPost2010PropOp44
 70
     0
102
RTVSPost2010Prop45
280
     0
102
RTVSPost2010PropOp45
 70
     1
102
RTVSPost2010Prop46
 90
       50
102
RTVSPost2010PropOp46
 70
     0
102
RTVSPost2010Prop47
 90
       50
102
RTVSPost2010PropOp47
 70
     0
102
RTVSPost2010Prop48
 90
       50
102
RTVSPost2010PropOp48
 70
     0
102
RTVSPost2010Prop49
280
     0
102
RTVSPost2010PropOp49
 70
     1
102
RTVSPost2010Prop50
 90
       50
102
RTVSPost2010PropOp50
 70
     0
102
RTVSPost2010Prop51ColorIndex
 90
      256
102
RTVSPost2010Prop51ColorRGB
 90
-16777216
102
RTVSPost2010PropOp51
 70
     0
102
RTVSPost2010Prop52
140
1.0
102
RTVSPost2010PropOp52
 70
     0
102
RTVSPost2010Prop53
 90
        2
102
RTVSPost2010PropOp53
 70
     0
102
RTVSPost2010Prop54
  1
strokes_ogs.tif
102
RTVSPost2010PropOp54
 70
     0
102
RTVSPost2010Prop55
280
     0
102
RTVSPost2010PropOp55
 70
     1
102
RTVSPost2010Prop56
140
1.0
102
RTVSPost2010PropOp56
 70
     0
102
RTVSPost2010Prop57
140
1.0
102
RTVSPost2010PropOp57
 70
     0
102
RTVSPropertyOp0
 70
     0
102
RTVSPropertyOp1
 70
     0
102
RTVSPropertyOp2
 70
     0
102
RTVSPropertyOp3
 70
     0
102
RTVSPropertyOp4
 70
     0
102
RTVSPropertyOp5
 70
     0
102
RTVSPropertyOp6
 70
     0
102
RTVSPropertyOp7
 70
     0
102
RTVSPropertyOp8
 70
     0
102
RTVSPropertyOp9
 70
     0
102
RTVSPropertyOp10
 70
     0
102
RTVSPropertyOp11
 70
     0
102
RTVSPropertyOp12
 70
     0
102
RTVSPropertyOp13
 70
     0
102
RTVSPropertyOp14
 70
     2
102
RTVSPropertyOp15
 70
     0
102
RTVSPropertyOp16
 70
     0
102
RTVSPropertyOp17
 70
     0
102
RTVSPropertyOp18
 70
     0
102
RTVSPropertyOp19
 70
     0
102
RTVSPropertyOp20
 70
     0
102
RTVSPropertyOp21
 70
     0
102
RTVSPropertyOp22
 70
     0
102
RTVSPropertyOp23
 70
     0
102
RTVSPropertyOp24
 70
     0
102
RTVSPropertyOp25
 70
     0
102
RTVSPropertyOp26
 70
     0
102
RTVSPropertyOp27
 70
     0
102
RTVSPropertyOp28
 70
     1
102
RTVSPropertyOp29
 70
     1
102
RTVSPropertyOp30
 70
     1
102
RTVSPropertyOp31
 70
     1
102
RTVSPropertyOp32
 70
     1
102
RTVSPropertyOp33
 70
     1
102
RTVSPropertyOp34
 70
     1
102
RTVSPropertyOp35
 70
     1
102
RTVSPropertyOp36
 70
     1
102
RTVSPropertyOp37
 70
     0
102
RTVSPropertyOp38
 70
     0
102
RTVSPropertyOp39
 70
     0
102
RTVSPropertyOp40
 70
     0
102
RTVSPropertyOp41
 70
     0
102
RTVSPropertyOp42
 70
     0
102
RTVSPropertyOp43
 70
     0
102
RTVSPropertyOp44
 70
     0
102
RTVSPropertyOp45
 70
     1
102
RTVSPropertyOp46
 70
     0
102
RTVSPropertyOp47
 70
     0
102
RTVSPropertyOp48
 70
     0
102
RTVSPropertyOp49
 70
     1
102
RTVSPropertyOp50
 70
     0
102
RTVSPropertyOp51
 70
     0
102
RTVSPropertyOp52
 70
     0
102
RTVSPropertyOp53
 70
     0
102
RTVSPropertyOp54
 70
     0
102
RTVSPropertyOp55
 70
     1
102
RTVSPropertyOp56
 70
     0
102
RTVSPropertyOp57
 70
     0
102
RTVSPropertyOp58
 70
     0
102
RTVSPropertyOp59
 70
     0
102
RTVSPropertyOp60
 70
     0
102
RTVSPropertyOp61
 70
     0
102
RTVSPropertyOp62
 70
     0
  0
XRECORD
  5
B486
102
{ACAD_REACTORS
330
B485
102
}
330
B485
100
AcDbXrecord
280
     1
102
RTVSPost2010Prop28
280
     0
102
RTVSPost2010PropOp28
 70
     1
102
RTVSPost2010Prop29
280
     1
102
RTVSPost2010PropOp29
 70
     1
102
RTVSPost2010Prop30
280
     1
102
RTVSPost2010PropOp30
 70
     1
102
RTVSPost2010Prop31
280
     0
102
RTVSPost2010PropOp31
 70
     1
102
RTVSPost2010Prop32
280
     0
102
RTVSPost2010PropOp32
 70
     1
102
RTVSPost2010Prop33
280
     0
102
RTVSPost2010PropOp33
 70
     1
102
RTVSPost2010Prop34
280
     0
102
RTVSPost2010PropOp34
 70
     1
102
RTVSPost2010Prop35
280
     0
102
RTVSPost2010PropOp35
 70
     1
102
RTVSPost2010Prop36
280
     0
102
RTVSPost2010PropOp36
 70
     1
102
RTVSPost2010Prop37
 90
       50
102
RTVSPost2010PropOp37
 70
     1
102
RTVSPost2010Prop38
140
0.0
102
RTVSPost2010PropOp38
 70
     1
102
RTVSPost2010Prop39
140
1.0
102
RTVSPost2010PropOp39
 70
     1
102
RTVSPost2010Prop40
 90
        0
102
RTVSPost2010PropOp40
 70
     1
102
RTVSPost2010Prop41ColorIndex
 90
       18
102
RTVSPost2010Prop41ColorRGB
 90
        0
102
RTVSPost2010PropOp41
 70
     1
102
RTVSPost2010Prop42
 90
       50
102
RTVSPost2010PropOp42
 70
     1
102
RTVSPost2010Prop43
 90
        3
102
RTVSPost2010PropOp43
 70
     1
102
RTVSPost2010Prop44ColorIndex
 90
        5
102
RTVSPost2010Prop44ColorRGB
 90
      255
102
RTVSPost2010PropOp44
 70
     1
102
RTVSPost2010Prop45
280
     0
102
RTVSPost2010PropOp45
 70
     1
102
RTVSPost2010Prop46
 90
       50
102
RTVSPost2010PropOp46
 70
     1
102
RTVSPost2010Prop47
 90
       50
102
RTVSPost2010PropOp47
 70
     1
102
RTVSPost2010Prop48
 90
       50
102
RTVSPost2010PropOp48
 70
     1
102
RTVSPost2010Prop49
280
     0
102
RTVSPost2010PropOp49
 70
     1
102
RTVSPost2010Prop50
 90
       50
102
RTVSPost2010PropOp50
 70
     1
102
RTVSPost2010Prop51ColorIndex
 90
      256
102
RTVSPost2010Prop51ColorRGB
 90
-16777216
102
RTVSPost2010PropOp51
 70
     0
102
RTVSPost2010Prop52
140
1.0
102
RTVSPost2010PropOp52
 70
     0
102
RTVSPost2010Prop53
 90
        2
102
RTVSPost2010PropOp53
 70
     1
102
RTVSPost2010Prop54
  1
strokes_ogs.tif
102
RTVSPost2010PropOp54
 70
     1
102
RTVSPost2010Prop55
280
     0
102
RTVSPost2010PropOp55
 70
     1
102
RTVSPost2010Prop56
140
1.0
102
RTVSPost2010PropOp56
 70
     1
102
RTVSPost2010Prop57
140
1.0
102
RTVSPost2010PropOp57
 70
     1
102
RTVSPropertyOp0
 70
     1
102
RTVSPropertyOp1
 70
     1
102
RTVSPropertyOp2
 70
     1
102
RTVSPropertyOp3
 70
     1
102
RTVSPropertyOp4
 70
     1
102
RTVSPropertyOp5
 70
     1
102
RTVSPropertyOp6
 70
     1
102
RTVSPropertyOp7
 70
     1
102
RTVSPropertyOp8
 70
     1
102
RTVSPropertyOp9
 70
     1
102
RTVSPropertyOp10
 70
     1
102
RTVSPropertyOp11
 70
     1
102
RTVSPropertyOp12
 70
     1
102
RTVSPropertyOp13
 70
     1
102
RTVSPropertyOp14
 70
     1
102
RTVSPropertyOp15
 70
     1
102
RTVSPropertyOp16
 70
     1
102
RTVSPropertyOp17
 70
     1
102
RTVSPropertyOp18
 70
     1
102
RTVSPropertyOp19
 70
     1
102
RTVSPropertyOp20
 70
     1
102
RTVSPropertyOp21
 70
     1
102
RTVSPropertyOp22
 70
     1
102
RTVSPropertyOp23
 70
     1
102
RTVSPropertyOp24
 70
     1
102
RTVSPropertyOp25
 70
     1
102
RTVSPropertyOp26
 70
     1
102
RTVSPropertyOp27
 70
     1
102
RTVSPropertyOp28
 70
     1
102
RTVSPropertyOp29
 70
     1
102
RTVSPropertyOp30
 70
     1
102
RTVSPropertyOp31
 70
     1
102
RTVSPropertyOp32
 70
     1
102
RTVSPropertyOp33
 70
     1
102
RTVSPropertyOp34
 70
     1
102
RTVSPropertyOp35
 70
     1
102
RTVSPropertyOp36
 70
     1
102
RTVSPropertyOp37
 70
     1
102
RTVSPropertyOp38
 70
     1
102
RTVSPropertyOp39
 70
     1
102
RTVSPropertyOp40
 70
     1
102
RTVSPropertyOp41
 70
     1
102
RTVSPropertyOp42
 70
     1
102
RTVSPropertyOp43
 70
     1
102
RTVSPropertyOp44
 70
     1
102
RTVSPropertyOp45
 70
     1
102
RTVSPropertyOp46
 70
     1
102
RTVSPropertyOp47
 70
     1
102
RTVSPropertyOp48
 70
     1
102
RTVSPropertyOp49
 70
     1
102
RTVSPropertyOp50
 70
     1
102
RTVSPropertyOp51
 70
     0
102
RTVSPropertyOp52
 70
     0
102
RTVSPropertyOp53
 70
     1
102
RTVSPropertyOp54
 70
     1
102
RTVSPropertyOp55
 70
     1
102
RTVSPropertyOp56
 70
     1
102
RTVSPropertyOp57
 70
     1
102
RTVSPropertyOp58
 70
     1
102
RTVSPropertyOp59
 70
     1
102
RTVSPropertyOp60
 70
     1
102
RTVSPropertyOp61
 70
     1
102
RTVSPropertyOp62
 70
     1
  0
XRECORD
  5
B49C
102
{ACAD_REACTORS
330
B49B
102
}
330
B49B
100
AcDbXrecord
280
     1
102
RTVSPost2010Prop28
280
     0
102
RTVSPost2010PropOp28
 70
     1
102
RTVSPost2010Prop29
280
     1
102
RTVSPost2010PropOp29
 70
     1
102
RTVSPost2010Prop30
280
     1
102
RTVSPost2010PropOp30
 70
     1
102
RTVSPost2010Prop31
280
     0
102
RTVSPost2010PropOp31
 70
     1
102
RTVSPost2010Prop32
280
     0
102
RTVSPost2010PropOp32
 70
     1
102
RTVSPost2010Prop33
280
     0
102
RTVSPost2010PropOp33
 70
     1
102
RTVSPost2010Prop34
280
     0
102
RTVSPost2010PropOp34
 70
     1
102
RTVSPost2010Prop35
280
     0
102
RTVSPost2010PropOp35
 70
     1
102
RTVSPost2010Prop36
280
     0
102
RTVSPost2010PropOp36
 70
     1
102
RTVSPost2010Prop37
 90
       50
102
RTVSPost2010PropOp37
 70
     1
102
RTVSPost2010Prop38
140
0.0
102
RTVSPost2010PropOp38
 70
     1
102
RTVSPost2010Prop39
140
1.0
102
RTVSPost2010PropOp39
 70
     1
102
RTVSPost2010Prop40
 90
        0
102
RTVSPost2010PropOp40
 70
     1
102
RTVSPost2010Prop41ColorIndex
 90
       18
102
RTVSPost2010Prop41ColorRGB
 90
        0
102
RTVSPost2010PropOp41
 70
     1
102
RTVSPost2010Prop42
 90
       50
102
RTVSPost2010PropOp42
 70
     1
102
RTVSPost2010Prop43
 90
        3
102
RTVSPost2010PropOp43
 70
     1
102
RTVSPost2010Prop44ColorIndex
 90
        5
102
RTVSPost2010Prop44ColorRGB
 90
      255
102
RTVSPost2010PropOp44
 70
     1
102
RTVSPost2010Prop45
280
     0
102
RTVSPost2010PropOp45
 70
     1
102
RTVSPost2010Prop46
 90
       50
102
RTVSPost2010PropOp46
 70
     1
102
RTVSPost2010Prop47
 90
       50
102
RTVSPost2010PropOp47
 70
     1
102
RTVSPost2010Prop48
 90
       50
102
RTVSPost2010PropOp48
 70
     1
102
RTVSPost2010Prop49
280
     0
102
RTVSPost2010PropOp49
 70
     1
102
RTVSPost2010Prop50
 90
       50
102
RTVSPost2010PropOp50
 70
     1
102
RTVSPost2010Prop51ColorIndex
 90
      256
102
RTVSPost2010Prop51ColorRGB
 90
-16777216
102
RTVSPost2010PropOp51
 70
     0
102
RTVSPost2010Prop52
140
1.0
102
RTVSPost2010PropOp52
 70
     0
102
RTVSPost2010Prop53
 90
        2
102
RTVSPost2010PropOp53
 70
     1
102
RTVSPost2010Prop54
  1
strokes_ogs.tif
102
RTVSPost2010PropOp54
 70
     1
102
RTVSPost2010Prop55
280
     0
102
RTVSPost2010PropOp55
 70
     1
102
RTVSPost2010Prop56
140
1.0
102
RTVSPost2010PropOp56
 70
     1
102
RTVSPost2010Prop57
140
1.0
102
RTVSPost2010PropOp57
 70
     1
102
RTVSPropertyOp0
 70
     1
102
RTVSPropertyOp1
 70
     1
102
RTVSPropertyOp2
 70
     1
102
RTVSPropertyOp3
 70
     1
102
RTVSPropertyOp4
 70
     1
102
RTVSPropertyOp5
 70
     1
102
RTVSPropertyOp6
 70
     1
102
RTVSPropertyOp7
 70
     1
102
RTVSPropertyOp8
 70
     1
102
RTVSPropertyOp9
 70
     1
102
RTVSPropertyOp10
 70
     1
102
RTVSPropertyOp11
 70
     1
102
RTVSPropertyOp12
 70
     1
102
RTVSPropertyOp13
 70
     1
102
RTVSPropertyOp14
 70
     1
102
RTVSPropertyOp15
 70
     1
102
RTVSPropertyOp16
 70
     1
102
RTVSPropertyOp17
 70
     1
102
RTVSPropertyOp18
 70
     1
102
RTVSPropertyOp19
 70
     1
102
RTVSPropertyOp20
 70
     1
102
RTVSPropertyOp21
 70
     1
102
RTVSPropertyOp22
 70
     1
102
RTVSPropertyOp23
 70
     1
102
RTVSPropertyOp24
 70
     1
102
RTVSPropertyOp25
 70
     1
102
RTVSPropertyOp26
 70
     1
102
RTVSPropertyOp27
 70
     1
102
RTVSPropertyOp28
 70
     1
102
RTVSPropertyOp29
 70
     1
102
RTVSPropertyOp30
 70
     1
102
RTVSPropertyOp31
 70
     1
102
RTVSPropertyOp32
 70
     1
102
RTVSPropertyOp33
 70
     1
102
RTVSPropertyOp34
 70
     1
102
RTVSPropertyOp35
 70
     1
102
RTVSPropertyOp36
 70
     1
102
RTVSPropertyOp37
 70
     1
102
RTVSPropertyOp38
 70
     1
102
RTVSPropertyOp39
 70
     1
102
RTVSPropertyOp40
 70
     1
102
RTVSPropertyOp41
 70
     1
102
RTVSPropertyOp42
 70
     1
102
RTVSPropertyOp43
 70
     1
102
RTVSPropertyOp44
 70
     1
102
RTVSPropertyOp45
 70
     1
102
RTVSPropertyOp46
 70
     1
102
RTVSPropertyOp47
 70
     1
102
RTVSPropertyOp48
 70
     1
102
RTVSPropertyOp49
 70
     1
102
RTVSPropertyOp50
 70
     1
102
RTVSPropertyOp51
 70
     0
102
RTVSPropertyOp52
 70
     0
102
RTVSPropertyOp53
 70
     1
102
RTVSPropertyOp54
 70
     1
102
RTVSPropertyOp55
 70
     1
102
RTVSPropertyOp56
 70
     1
102
RTVSPropertyOp57
 70
     1
102
RTVSPropertyOp58
 70
     1
102
RTVSPropertyOp59
 70
     1
102
RTVSPropertyOp60
 70
     1
102
RTVSPropertyOp61
 70
     1
102
RTVSPropertyOp62
 70
     1
  0
XRECORD
  5
B49A
102
{ACAD_REACTORS
330
B499
102
}
330
B499
100
AcDbXrecord
280
     1
102
RTVSPost2010Prop28
280
     0
102
RTVSPost2010PropOp28
 70
     1
102
RTVSPost2010Prop29
280
     1
102
RTVSPost2010PropOp29
 70
     1
102
RTVSPost2010Prop30
280
     1
102
RTVSPost2010PropOp30
 70
     1
102
RTVSPost2010Prop31
280
     0
102
RTVSPost2010PropOp31
 70
     1
102
RTVSPost2010Prop32
280
     0
102
RTVSPost2010PropOp32
 70
     1
102
RTVSPost2010Prop33
280
     0
102
RTVSPost2010PropOp33
 70
     1
102
RTVSPost2010Prop34
280
     0
102
RTVSPost2010PropOp34
 70
     1
102
RTVSPost2010Prop35
280
     0
102
RTVSPost2010PropOp35
 70
     1
102
RTVSPost2010Prop36
280
     0
102
RTVSPost2010PropOp36
 70
     1
102
RTVSPost2010Prop37
 90
       50
102
RTVSPost2010PropOp37
 70
     1
102
RTVSPost2010Prop38
140
0.0
102
RTVSPost2010PropOp38
 70
     1
102
RTVSPost2010Prop39
140
1.0
102
RTVSPost2010PropOp39
 70
     1
102
RTVSPost2010Prop40
 90
        0
102
RTVSPost2010PropOp40
 70
     1
102
RTVSPost2010Prop41ColorIndex
 90
       18
102
RTVSPost2010Prop41ColorRGB
 90
        0
102
RTVSPost2010PropOp41
 70
     1
102
RTVSPost2010Prop42
 90
       50
102
RTVSPost2010PropOp42
 70
     1
102
RTVSPost2010Prop43
 90
        3
102
RTVSPost2010PropOp43
 70
     1
102
RTVSPost2010Prop44ColorIndex
 90
        5
102
RTVSPost2010Prop44ColorRGB
 90
      255
102
RTVSPost2010PropOp44
 70
     1
102
RTVSPost2010Prop45
280
     0
102
RTVSPost2010PropOp45
 70
     1
102
RTVSPost2010Prop46
 90
       50
102
RTVSPost2010PropOp46
 70
     1
102
RTVSPost2010Prop47
 90
       50
102
RTVSPost2010PropOp47
 70
     1
102
RTVSPost2010Prop48
 90
       50
102
RTVSPost2010PropOp48
 70
     1
102
RTVSPost2010Prop49
280
     0
102
RTVSPost2010PropOp49
 70
     1
102
RTVSPost2010Prop50
 90
       50
102
RTVSPost2010PropOp50
 70
     1
102
RTVSPost2010Prop51ColorIndex
 90
      256
102
RTVSPost2010Prop51ColorRGB
 90
-16777216
102
RTVSPost2010PropOp51
 70
     0
102
RTVSPost2010Prop52
140
1.0
102
RTVSPost2010PropOp52
 70
     0
102
RTVSPost2010Prop53
 90
        2
102
RTVSPost2010PropOp53
 70
     1
102
RTVSPost2010Prop54
  1
strokes_ogs.tif
102
RTVSPost2010PropOp54
 70
     1
102
RTVSPost2010Prop55
280
     0
102
RTVSPost2010PropOp55
 70
     1
102
RTVSPost2010Prop56
140
1.0
102
RTVSPost2010PropOp56
 70
     1
102
RTVSPost2010Prop57
140
1.0
102
RTVSPost2010PropOp57
 70
     1
102
RTVSPropertyOp0
 70
     1
102
RTVSPropertyOp1
 70
     1
102
RTVSPropertyOp2
 70
     1
102
RTVSPropertyOp3
 70
     1
102
RTVSPropertyOp4
 70
     1
102
RTVSPropertyOp5
 70
     1
102
RTVSPropertyOp6
 70
     1
102
RTVSPropertyOp7
 70
     1
102
RTVSPropertyOp8
 70
     1
102
RTVSPropertyOp9
 70
     1
102
RTVSPropertyOp10
 70
     1
102
RTVSPropertyOp11
 70
     1
102
RTVSPropertyOp12
 70
     1
102
RTVSPropertyOp13
 70
     1
102
RTVSPropertyOp14
 70
     1
102
RTVSPropertyOp15
 70
     1
102
RTVSPropertyOp16
 70
     1
102
RTVSPropertyOp17
 70
     1
102
RTVSPropertyOp18
 70
     1
102
RTVSPropertyOp19
 70
     1
102
RTVSPropertyOp20
 70
     1
102
RTVSPropertyOp21
 70
     1
102
RTVSPropertyOp22
 70
     1
102
RTVSPropertyOp23
 70
     1
102
RTVSPropertyOp24
 70
     1
102
RTVSPropertyOp25
 70
     1
102
RTVSPropertyOp26
 70
     1
102
RTVSPropertyOp27
 70
     1
102
RTVSPropertyOp28
 70
     1
102
RTVSPropertyOp29
 70
     1
102
RTVSPropertyOp30
 70
     1
102
RTVSPropertyOp31
 70
     1
102
RTVSPropertyOp32
 70
     1
102
RTVSPropertyOp33
 70
     1
102
RTVSPropertyOp34
 70
     1
102
RTVSPropertyOp35
 70
     1
102
RTVSPropertyOp36
 70
     1
102
RTVSPropertyOp37
 70
     1
102
RTVSPropertyOp38
 70
     1
102
RTVSPropertyOp39
 70
     1
102
RTVSPropertyOp40
 70
     1
102
RTVSPropertyOp41
 70
     1
102
RTVSPropertyOp42
 70
     1
102
RTVSPropertyOp43
 70
     1
102
RTVSPropertyOp44
 70
     1
102
RTVSPropertyOp45
 70
     1
102
RTVSPropertyOp46
 70
     1
102
RTVSPropertyOp47
 70
     1
102
RTVSPropertyOp48
 70
     1
102
RTVSPropertyOp49
 70
     1
102
RTVSPropertyOp50
 70
     1
102
RTVSPropertyOp51
 70
     0
102
RTVSPropertyOp52
 70
     0
102
RTVSPropertyOp53
 70
     1
102
RTVSPropertyOp54
 70
     1
102
RTVSPropertyOp55
 70
     1
102
RTVSPropertyOp56
 70
     1
102
RTVSPropertyOp57
 70
     1
102
RTVSPropertyOp58
 70
     1
102
RTVSPropertyOp59
 70
     1
102
RTVSPropertyOp60
 70
     1
102
RTVSPropertyOp61
 70
     1
102
RTVSPropertyOp62
 70
     1
  0
XRECORD
  5
B494
102
{ACAD_REACTORS
330
B493
102
}
330
B493
100
AcDbXrecord
280
     1
102
RTVSPost2010Prop28
280
     0
102
RTVSPost2010PropOp28
 70
     1
102
RTVSPost2010Prop29
280
     1
102
RTVSPost2010PropOp29
 70
     1
102
RTVSPost2010Prop30
280
     1
102
RTVSPost2010PropOp30
 70
     1
102
RTVSPost2010Prop31
280
     0
102
RTVSPost2010PropOp31
 70
     1
102
RTVSPost2010Prop32
280
     0
102
RTVSPost2010PropOp32
 70
     1
102
RTVSPost2010Prop33
280
     0
102
RTVSPost2010PropOp33
 70
     1
102
RTVSPost2010Prop34
280
     0
102
RTVSPost2010PropOp34
 70
     1
102
RTVSPost2010Prop35
280
     0
102
RTVSPost2010PropOp35
 70
     1
102
RTVSPost2010Prop36
280
     0
102
RTVSPost2010PropOp36
 70
     1
102
RTVSPost2010Prop37
 90
       50
102
RTVSPost2010PropOp37
 70
     1
102
RTVSPost2010Prop38
140
0.0
102
RTVSPost2010PropOp38
 70
     1
102
RTVSPost2010Prop39
140
1.0
102
RTVSPost2010PropOp39
 70
     1
102
RTVSPost2010Prop40
 90
        0
102
RTVSPost2010PropOp40
 70
     1
102
RTVSPost2010Prop41ColorIndex
 90
       18
102
RTVSPost2010Prop41ColorRGB
 90
        0
102
RTVSPost2010PropOp41
 70
     1
102
RTVSPost2010Prop42
 90
       50
102
RTVSPost2010PropOp42
 70
     1
102
RTVSPost2010Prop43
 90
        3
102
RTVSPost2010PropOp43
 70
     1
102
RTVSPost2010Prop44ColorIndex
 90
        5
102
RTVSPost2010Prop44ColorRGB
 90
      255
102
RTVSPost2010PropOp44
 70
     1
102
RTVSPost2010Prop45
280
     0
102
RTVSPost2010PropOp45
 70
     1
102
RTVSPost2010Prop46
 90
       50
102
RTVSPost2010PropOp46
 70
     1
102
RTVSPost2010Prop47
 90
       50
102
RTVSPost2010PropOp47
 70
     1
102
RTVSPost2010Prop48
 90
       50
102
RTVSPost2010PropOp48
 70
     1
102
RTVSPost2010Prop49
280
     0
102
RTVSPost2010PropOp49
 70
     1
102
RTVSPost2010Prop50
 90
       50
102
RTVSPost2010PropOp50
 70
     1
102
RTVSPost2010Prop51ColorIndex
 90
      256
102
RTVSPost2010Prop51ColorRGB
 90
-16777216
102
RTVSPost2010PropOp51
 70
     0
102
RTVSPost2010Prop52
140
1.0
102
RTVSPost2010PropOp52
 70
     0
102
RTVSPost2010Prop53
 90
        2
102
RTVSPost2010PropOp53
 70
     1
102
RTVSPost2010Prop54
  1
strokes_ogs.tif
102
RTVSPost2010PropOp54
 70
     1
102
RTVSPost2010Prop55
280
     0
102
RTVSPost2010PropOp55
 70
     1
102
RTVSPost2010Prop56
140
1.0
102
RTVSPost2010PropOp56
 70
     1
102
RTVSPost2010Prop57
140
1.0
102
RTVSPost2010PropOp57
 70
     1
102
RTVSPropertyOp0
 70
     1
102
RTVSPropertyOp1
 70
     1
102
RTVSPropertyOp2
 70
     1
102
RTVSPropertyOp3
 70
     1
102
RTVSPropertyOp4
 70
     1
102
RTVSPropertyOp5
 70
     1
102
RTVSPropertyOp6
 70
     1
102
RTVSPropertyOp7
 70
     1
102
RTVSPropertyOp8
 70
     1
102
RTVSPropertyOp9
 70
     1
102
RTVSPropertyOp10
 70
     1
102
RTVSPropertyOp11
 70
     1
102
RTVSPropertyOp12
 70
     1
102
RTVSPropertyOp13
 70
     1
102
RTVSPropertyOp14
 70
     1
102
RTVSPropertyOp15
 70
     1
102
RTVSPropertyOp16
 70
     1
102
RTVSPropertyOp17
 70
     1
102
RTVSPropertyOp18
 70
     1
102
RTVSPropertyOp19
 70
     1
102
RTVSPropertyOp20
 70
     1
102
RTVSPropertyOp21
 70
     1
102
RTVSPropertyOp22
 70
     1
102
RTVSPropertyOp23
 70
     1
102
RTVSPropertyOp24
 70
     1
102
RTVSPropertyOp25
 70
     1
102
RTVSPropertyOp26
 70
     1
102
RTVSPropertyOp27
 70
     1
102
RTVSPropertyOp28
 70
     1
102
RTVSPropertyOp29
 70
     1
102
RTVSPropertyOp30
 70
     1
102
RTVSPropertyOp31
 70
     1
102
RTVSPropertyOp32
 70
     1
102
RTVSPropertyOp33
 70
     1
102
RTVSPropertyOp34
 70
     1
102
RTVSPropertyOp35
 70
     1
102
RTVSPropertyOp36
 70
     1
102
RTVSPropertyOp37
 70
     1
102
RTVSPropertyOp38
 70
     1
102
RTVSPropertyOp39
 70
     1
102
RTVSPropertyOp40
 70
     1
102
RTVSPropertyOp41
 70
     1
102
RTVSPropertyOp42
 70
     1
102
RTVSPropertyOp43
 70
     1
102
RTVSPropertyOp44
 70
     1
102
RTVSPropertyOp45
 70
     1
102
RTVSPropertyOp46
 70
     1
102
RTVSPropertyOp47
 70
     1
102
RTVSPropertyOp48
 70
     1
102
RTVSPropertyOp49
 70
     1
102
RTVSPropertyOp50
 70
     1
102
RTVSPropertyOp51
 70
     0
102
RTVSPropertyOp52
 70
     0
102
RTVSPropertyOp53
 70
     1
102
RTVSPropertyOp54
 70
     1
102
RTVSPropertyOp55
 70
     1
102
RTVSPropertyOp56
 70
     1
102
RTVSPropertyOp57
 70
     1
102
RTVSPropertyOp58
 70
     1
102
RTVSPropertyOp59
 70
     1
102
RTVSPropertyOp60
 70
     1
102
RTVSPropertyOp61
 70
     1
102
RTVSPropertyOp62
 70
     1
  0
XRECORD
  5
B496
102
{ACAD_REACTORS
330
B495
102
}
330
B495
100
AcDbXrecord
280
     1
102
RTVSPost2010Prop28
280
     0
102
RTVSPost2010PropOp28
 70
     1
102
RTVSPost2010Prop29
280
     1
102
RTVSPost2010PropOp29
 70
     1
102
RTVSPost2010Prop30
280
     1
102
RTVSPost2010PropOp30
 70
     1
102
RTVSPost2010Prop31
280
     0
102
RTVSPost2010PropOp31
 70
     1
102
RTVSPost2010Prop32
280
     0
102
RTVSPost2010PropOp32
 70
     1
102
RTVSPost2010Prop33
280
     0
102
RTVSPost2010PropOp33
 70
     1
102
RTVSPost2010Prop34
280
     0
102
RTVSPost2010PropOp34
 70
     1
102
RTVSPost2010Prop35
280
     0
102
RTVSPost2010PropOp35
 70
     1
102
RTVSPost2010Prop36
280
     0
102
RTVSPost2010PropOp36
 70
     1
102
RTVSPost2010Prop37
 90
       50
102
RTVSPost2010PropOp37
 70
     1
102
RTVSPost2010Prop38
140
0.0
102
RTVSPost2010PropOp38
 70
     1
102
RTVSPost2010Prop39
140
1.0
102
RTVSPost2010PropOp39
 70
     1
102
RTVSPost2010Prop40
 90
        0
102
RTVSPost2010PropOp40
 70
     1
102
RTVSPost2010Prop41ColorIndex
 90
       18
102
RTVSPost2010Prop41ColorRGB
 90
        0
102
RTVSPost2010PropOp41
 70
     1
102
RTVSPost2010Prop42
 90
       50
102
RTVSPost2010PropOp42
 70
     1
102
RTVSPost2010Prop43
 90
        3
102
RTVSPost2010PropOp43
 70
     1
102
RTVSPost2010Prop44ColorIndex
 90
        5
102
RTVSPost2010Prop44ColorRGB
 90
      255
102
RTVSPost2010PropOp44
 70
     1
102
RTVSPost2010Prop45
280
     0
102
RTVSPost2010PropOp45
 70
     1
102
RTVSPost2010Prop46
 90
       50
102
RTVSPost2010PropOp46
 70
     1
102
RTVSPost2010Prop47
 90
       50
102
RTVSPost2010PropOp47
 70
     1
102
RTVSPost2010Prop48
 90
       50
102
RTVSPost2010PropOp48
 70
     1
102
RTVSPost2010Prop49
280
     0
102
RTVSPost2010PropOp49
 70
     1
102
RTVSPost2010Prop50
 90
       50
102
RTVSPost2010PropOp50
 70
     1
102
RTVSPost2010Prop51ColorIndex
 90
      256
102
RTVSPost2010Prop51ColorRGB
 90
-16777216
102
RTVSPost2010PropOp51
 70
     0
102
RTVSPost2010Prop52
140
1.0
102
RTVSPost2010PropOp52
 70
     0
102
RTVSPost2010Prop53
 90
        2
102
RTVSPost2010PropOp53
 70
     1
102
RTVSPost2010Prop54
  1
strokes_ogs.tif
102
RTVSPost2010PropOp54
 70
     1
102
RTVSPost2010Prop55
280
     0
102
RTVSPost2010PropOp55
 70
     1
102
RTVSPost2010Prop56
140
1.0
102
RTVSPost2010PropOp56
 70
     1
102
RTVSPost2010Prop57
140
1.0
102
RTVSPost2010PropOp57
 70
     1
102
RTVSPropertyOp0
 70
     1
102
RTVSPropertyOp1
 70
     1
102
RTVSPropertyOp2
 70
     1
102
RTVSPropertyOp3
 70
     1
102
RTVSPropertyOp4
 70
     1
102
RTVSPropertyOp5
 70
     1
102
RTVSPropertyOp6
 70
     1
102
RTVSPropertyOp7
 70
     1
102
RTVSPropertyOp8
 70
     1
102
RTVSPropertyOp9
 70
     1
102
RTVSPropertyOp10
 70
     1
102
RTVSPropertyOp11
 70
     1
102
RTVSPropertyOp12
 70
     1
102
RTVSPropertyOp13
 70
     1
102
RTVSPropertyOp14
 70
     1
102
RTVSPropertyOp15
 70
     1
102
RTVSPropertyOp16
 70
     1
102
RTVSPropertyOp17
 70
     1
102
RTVSPropertyOp18
 70
     1
102
RTVSPropertyOp19
 70
     1
102
RTVSPropertyOp20
 70
     1
102
RTVSPropertyOp21
 70
     1
102
RTVSPropertyOp22
 70
     1
102
RTVSPropertyOp23
 70
     1
102
RTVSPropertyOp24
 70
     1
102
RTVSPropertyOp25
 70
     1
102
RTVSPropertyOp26
 70
     1
102
RTVSPropertyOp27
 70
     1
102
RTVSPropertyOp28
 70
     1
102
RTVSPropertyOp29
 70
     1
102
RTVSPropertyOp30
 70
     1
102
RTVSPropertyOp31
 70
     1
102
RTVSPropertyOp32
 70
     1
102
RTVSPropertyOp33
 70
     1
102
RTVSPropertyOp34
 70
     1
102
RTVSPropertyOp35
 70
     1
102
RTVSPropertyOp36
 70
     1
102
RTVSPropertyOp37
 70
     1
102
RTVSPropertyOp38
 70
     1
102
RTVSPropertyOp39
 70
     1
102
RTVSPropertyOp40
 70
     1
102
RTVSPropertyOp41
 70
     1
102
RTVSPropertyOp42
 70
     1
102
RTVSPropertyOp43
 70
     1
102
RTVSPropertyOp44
 70
     1
102
RTVSPropertyOp45
 70
     1
102
RTVSPropertyOp46
 70
     1
102
RTVSPropertyOp47
 70
     1
102
RTVSPropertyOp48
 70
     1
102
RTVSPropertyOp49
 70
     1
102
RTVSPropertyOp50
 70
     1
102
RTVSPropertyOp51
 70
     0
102
RTVSPropertyOp52
 70
     0
102
RTVSPropertyOp53
 70
     1
102
RTVSPropertyOp54
 70
     1
102
RTVSPropertyOp55
 70
     1
102
RTVSPropertyOp56
 70
     1
102
RTVSPropertyOp57
 70
     1
102
RTVSPropertyOp58
 70
     1
102
RTVSPropertyOp59
 70
     1
102
RTVSPropertyOp60
 70
     1
102
RTVSPropertyOp61
 70
     1
102
RTVSPropertyOp62
 70
     1
  0
XRECORD
  5
B48C
102
{ACAD_REACTORS
330
B48B
102
}
330
B48B
100
AcDbXrecord
280
     1
102
RTVSPost2010Prop28
280
     0
102
RTVSPost2010PropOp28
 70
     1
102
RTVSPost2010Prop29
280
     1
102
RTVSPost2010PropOp29
 70
     1
102
RTVSPost2010Prop30
280
     1
102
RTVSPost2010PropOp30
 70
     1
102
RTVSPost2010Prop31
280
     0
102
RTVSPost2010PropOp31
 70
     1
102
RTVSPost2010Prop32
280
     0
102
RTVSPost2010PropOp32
 70
     1
102
RTVSPost2010Prop33
280
     0
102
RTVSPost2010PropOp33
 70
     1
102
RTVSPost2010Prop34
280
     0
102
RTVSPost2010PropOp34
 70
     1
102
RTVSPost2010Prop35
280
     0
102
RTVSPost2010PropOp35
 70
     1
102
RTVSPost2010Prop36
280
     0
102
RTVSPost2010PropOp36
 70
     1
102
RTVSPost2010Prop37
 90
       50
102
RTVSPost2010PropOp37
 70
     1
102
RTVSPost2010Prop38
140
0.0
102
RTVSPost2010PropOp38
 70
     1
102
RTVSPost2010Prop39
140
1.0
102
RTVSPost2010PropOp39
 70
     1
102
RTVSPost2010Prop40
 90
        0
102
RTVSPost2010PropOp40
 70
     1
102
RTVSPost2010Prop41ColorIndex
 90
       18
102
RTVSPost2010Prop41ColorRGB
 90
        0
102
RTVSPost2010PropOp41
 70
     1
102
RTVSPost2010Prop42
 90
       50
102
RTVSPost2010PropOp42
 70
     1
102
RTVSPost2010Prop43
 90
        3
102
RTVSPost2010PropOp43
 70
     1
102
RTVSPost2010Prop44ColorIndex
 90
        5
102
RTVSPost2010Prop44ColorRGB
 90
      255
102
RTVSPost2010PropOp44
 70
     1
102
RTVSPost2010Prop45
280
     0
102
RTVSPost2010PropOp45
 70
     1
102
RTVSPost2010Prop46
 90
       50
102
RTVSPost2010PropOp46
 70
     1
102
RTVSPost2010Prop47
 90
       50
102
RTVSPost2010PropOp47
 70
     1
102
RTVSPost2010Prop48
 90
       50
102
RTVSPost2010PropOp48
 70
     1
102
RTVSPost2010Prop49
280
     0
102
RTVSPost2010PropOp49
 70
     1
102
RTVSPost2010Prop50
 90
       50
102
RTVSPost2010PropOp50
 70
     1
102
RTVSPost2010Prop51ColorIndex
 90
      256
102
RTVSPost2010Prop51ColorRGB
 90
-16777216
102
RTVSPost2010PropOp51
 70
     0
102
RTVSPost2010Prop52
140
1.0
102
RTVSPost2010PropOp52
 70
     0
102
RTVSPost2010Prop53
 90
        2
102
RTVSPost2010PropOp53
 70
     1
102
RTVSPost2010Prop54
  1
strokes_ogs.tif
102
RTVSPost2010PropOp54
 70
     1
102
RTVSPost2010Prop55
280
     0
102
RTVSPost2010PropOp55
 70
     1
102
RTVSPost2010Prop56
140
1.0
102
RTVSPost2010PropOp56
 70
     1
102
RTVSPost2010Prop57
140
1.0
102
RTVSPost2010PropOp57
 70
     1
102
RTVSPropertyOp0
 70
     1
102
RTVSPropertyOp1
 70
     1
102
RTVSPropertyOp2
 70
     1
102
RTVSPropertyOp3
 70
     1
102
RTVSPropertyOp4
 70
     1
102
RTVSPropertyOp5
 70
     1
102
RTVSPropertyOp6
 70
     1
102
RTVSPropertyOp7
 70
     1
102
RTVSPropertyOp8
 70
     1
102
RTVSPropertyOp9
 70
     1
102
RTVSPropertyOp10
 70
     1
102
RTVSPropertyOp11
 70
     1
102
RTVSPropertyOp12
 70
     1
102
RTVSPropertyOp13
 70
     1
102
RTVSPropertyOp14
 70
     1
102
RTVSPropertyOp15
 70
     1
102
RTVSPropertyOp16
 70
     1
102
RTVSPropertyOp17
 70
     1
102
RTVSPropertyOp18
 70
     1
102
RTVSPropertyOp19
 70
     1
102
RTVSPropertyOp20
 70
     1
102
RTVSPropertyOp21
 70
     1
102
RTVSPropertyOp22
 70
     1
102
RTVSPropertyOp23
 70
     1
102
RTVSPropertyOp24
 70
     1
102
RTVSPropertyOp25
 70
     1
102
RTVSPropertyOp26
 70
     1
102
RTVSPropertyOp27
 70
     1
102
RTVSPropertyOp28
 70
     1
102
RTVSPropertyOp29
 70
     1
102
RTVSPropertyOp30
 70
     1
102
RTVSPropertyOp31
 70
     1
102
RTVSPropertyOp32
 70
     1
102
RTVSPropertyOp33
 70
     1
102
RTVSPropertyOp34
 70
     1
102
RTVSPropertyOp35
 70
     1
102
RTVSPropertyOp36
 70
     1
102
RTVSPropertyOp37
 70
     1
102
RTVSPropertyOp38
 70
     1
102
RTVSPropertyOp39
 70
     1
102
RTVSPropertyOp40
 70
     1
102
RTVSPropertyOp41
 70
     1
102
RTVSPropertyOp42
 70
     1
102
RTVSPropertyOp43
 70
     1
102
RTVSPropertyOp44
 70
     1
102
RTVSPropertyOp45
 70
     1
102
RTVSPropertyOp46
 70
     1
102
RTVSPropertyOp47
 70
     1
102
RTVSPropertyOp48
 70
     1
102
RTVSPropertyOp49
 70
     1
102
RTVSPropertyOp50
 70
     1
102
RTVSPropertyOp51
 70
     0
102
RTVSPropertyOp52
 70
     0
102
RTVSPropertyOp53
 70
     1
102
RTVSPropertyOp54
 70
     1
102
RTVSPropertyOp55
 70
     1
102
RTVSPropertyOp56
 70
     1
102
RTVSPropertyOp57
 70
     1
102
RTVSPropertyOp58
 70
     1
102
RTVSPropertyOp59
 70
     1
102
RTVSPropertyOp60
 70
     1
102
RTVSPropertyOp61
 70
     1
102
RTVSPropertyOp62
 70
     1
  0
XRECORD
  5
B480
102
{ACAD_REACTORS
330
B47F
102
}
330
B47F
100
AcDbXrecord
280
     1
102
RTVSPost2010Prop28
280
     0
102
RTVSPost2010PropOp28
 70
     1
102
RTVSPost2010Prop29
280
     1
102
RTVSPost2010PropOp29
 70
     1
102
RTVSPost2010Prop30
280
     1
102
RTVSPost2010PropOp30
 70
     1
102
RTVSPost2010Prop31
280
     0
102
RTVSPost2010PropOp31
 70
     1
102
RTVSPost2010Prop32
280
     0
102
RTVSPost2010PropOp32
 70
     1
102
RTVSPost2010Prop33
280
     0
102
RTVSPost2010PropOp33
 70
     1
102
RTVSPost2010Prop34
280
     0
102
RTVSPost2010PropOp34
 70
     1
102
RTVSPost2010Prop35
280
     0
102
RTVSPost2010PropOp35
 70
     1
102
RTVSPost2010Prop36
280
     0
102
RTVSPost2010PropOp36
 70
     1
102
RTVSPost2010Prop37
 90
       50
102
RTVSPost2010PropOp37
 70
     1
102
RTVSPost2010Prop38
140
0.0
102
RTVSPost2010PropOp38
 70
     1
102
RTVSPost2010Prop39
140
1.0
102
RTVSPost2010PropOp39
 70
     1
102
RTVSPost2010Prop40
 90
        0
102
RTVSPost2010PropOp40
 70
     1
102
RTVSPost2010Prop41ColorIndex
 90
       18
102
RTVSPost2010Prop41ColorRGB
 90
        0
102
RTVSPost2010PropOp41
 70
     1
102
RTVSPost2010Prop42
 90
       50
102
RTVSPost2010PropOp42
 70
     1
102
RTVSPost2010Prop43
 90
        3
102
RTVSPost2010PropOp43
 70
     1
102
RTVSPost2010Prop44ColorIndex
 90
        5
102
RTVSPost2010Prop44ColorRGB
 90
      255
102
RTVSPost2010PropOp44
 70
     1
102
RTVSPost2010Prop45
280
     0
102
RTVSPost2010PropOp45
 70
     1
102
RTVSPost2010Prop46
 90
       50
102
RTVSPost2010PropOp46
 70
     1
102
RTVSPost2010Prop47
 90
       50
102
RTVSPost2010PropOp47
 70
     1
102
RTVSPost2010Prop48
 90
       50
102
RTVSPost2010PropOp48
 70
     1
102
RTVSPost2010Prop49
280
     0
102
RTVSPost2010PropOp49
 70
     1
102
RTVSPost2010Prop50
 90
       50
102
RTVSPost2010PropOp50
 70
     1
102
RTVSPost2010Prop51ColorIndex
 90
      256
102
RTVSPost2010Prop51ColorRGB
 90
-16777216
102
RTVSPost2010PropOp51
 70
     0
102
RTVSPost2010Prop52
140
1.0
102
RTVSPost2010PropOp52
 70
     0
102
RTVSPost2010Prop53
 90
        2
102
RTVSPost2010PropOp53
 70
     1
102
RTVSPost2010Prop54
  1
strokes_ogs.tif
102
RTVSPost2010PropOp54
 70
     1
102
RTVSPost2010Prop55
280
     0
102
RTVSPost2010PropOp55
 70
     1
102
RTVSPost2010Prop56
140
1.0
102
RTVSPost2010PropOp56
 70
     1
102
RTVSPost2010Prop57
140
1.0
102
RTVSPost2010PropOp57
 70
     1
102
RTVSPropertyOp0
 70
     1
102
RTVSPropertyOp1
 70
     1
102
RTVSPropertyOp2
 70
     1
102
RTVSPropertyOp3
 70
     1
102
RTVSPropertyOp4
 70
     1
102
RTVSPropertyOp5
 70
     1
102
RTVSPropertyOp6
 70
     1
102
RTVSPropertyOp7
 70
     1
102
RTVSPropertyOp8
 70
     1
102
RTVSPropertyOp9
 70
     1
102
RTVSPropertyOp10
 70
     1
102
RTVSPropertyOp11
 70
     1
102
RTVSPropertyOp12
 70
     1
102
RTVSPropertyOp13
 70
     1
102
RTVSPropertyOp14
 70
     1
102
RTVSPropertyOp15
 70
     1
102
RTVSPropertyOp16
 70
     1
102
RTVSPropertyOp17
 70
     1
102
RTVSPropertyOp18
 70
     1
102
RTVSPropertyOp19
 70
     1
102
RTVSPropertyOp20
 70
     1
102
RTVSPropertyOp21
 70
     1
102
RTVSPropertyOp22
 70
     1
102
RTVSPropertyOp23
 70
     1
102
RTVSPropertyOp24
 70
     1
102
RTVSPropertyOp25
 70
     1
102
RTVSPropertyOp26
 70
     1
102
RTVSPropertyOp27
 70
     1
102
RTVSPropertyOp28
 70
     1
102
RTVSPropertyOp29
 70
     1
102
RTVSPropertyOp30
 70
     1
102
RTVSPropertyOp31
 70
     1
102
RTVSPropertyOp32
 70
     1
102
RTVSPropertyOp33
 70
     1
102
RTVSPropertyOp34
 70
     1
102
RTVSPropertyOp35
 70
     1
102
RTVSPropertyOp36
 70
     1
102
RTVSPropertyOp37
 70
     1
102
RTVSPropertyOp38
 70
     1
102
RTVSPropertyOp39
 70
     1
102
RTVSPropertyOp40
 70
     1
102
RTVSPropertyOp41
 70
     1
102
RTVSPropertyOp42
 70
     1
102
RTVSPropertyOp43
 70
     1
102
RTVSPropertyOp44
 70
     1
102
RTVSPropertyOp45
 70
     1
102
RTVSPropertyOp46
 70
     1
102
RTVSPropertyOp47
 70
     1
102
RTVSPropertyOp48
 70
     1
102
RTVSPropertyOp49
 70
     1
102
RTVSPropertyOp50
 70
     1
102
RTVSPropertyOp51
 70
     0
102
RTVSPropertyOp52
 70
     0
102
RTVSPropertyOp53
 70
     1
102
RTVSPropertyOp54
 70
     1
102
RTVSPropertyOp55
 70
     1
102
RTVSPropertyOp56
 70
     1
102
RTVSPropertyOp57
 70
     1
102
RTVSPropertyOp58
 70
     1
102
RTVSPropertyOp59
 70
     1
102
RTVSPropertyOp60
 70
     1
102
RTVSPropertyOp61
 70
     1
102
RTVSPropertyOp62
 70
     1
  0
XRECORD
  5
B498
102
{ACAD_REACTORS
330
B497
102
}
330
B497
100
AcDbXrecord
280
     1
102
RTVSPost2010Prop28
280
     0
102
RTVSPost2010PropOp28
 70
     1
102
RTVSPost2010Prop29
280
     1
102
RTVSPost2010PropOp29
 70
     1
102
RTVSPost2010Prop30
280
     1
102
RTVSPost2010PropOp30
 70
     1
102
RTVSPost2010Prop31
280
     0
102
RTVSPost2010PropOp31
 70
     1
102
RTVSPost2010Prop32
280
     0
102
RTVSPost2010PropOp32
 70
     1
102
RTVSPost2010Prop33
280
     0
102
RTVSPost2010PropOp33
 70
     1
102
RTVSPost2010Prop34
280
     0
102
RTVSPost2010PropOp34
 70
     1
102
RTVSPost2010Prop35
280
     0
102
RTVSPost2010PropOp35
 70
     1
102
RTVSPost2010Prop36
280
     0
102
RTVSPost2010PropOp36
 70
     1
102
RTVSPost2010Prop37
 90
       50
102
RTVSPost2010PropOp37
 70
     1
102
RTVSPost2010Prop38
140
0.0
102
RTVSPost2010PropOp38
 70
     1
102
RTVSPost2010Prop39
140
1.0
102
RTVSPost2010PropOp39
 70
     1
102
RTVSPost2010Prop40
 90
        0
102
RTVSPost2010PropOp40
 70
     1
102
RTVSPost2010Prop41ColorIndex
 90
       18
102
RTVSPost2010Prop41ColorRGB
 90
        0
102
RTVSPost2010PropOp41
 70
     1
102
RTVSPost2010Prop42
 90
       50
102
RTVSPost2010PropOp42
 70
     1
102
RTVSPost2010Prop43
 90
        3
102
RTVSPost2010PropOp43
 70
     1
102
RTVSPost2010Prop44ColorIndex
 90
        5
102
RTVSPost2010Prop44ColorRGB
 90
      255
102
RTVSPost2010PropOp44
 70
     1
102
RTVSPost2010Prop45
280
     0
102
RTVSPost2010PropOp45
 70
     1
102
RTVSPost2010Prop46
 90
       50
102
RTVSPost2010PropOp46
 70
     1
102
RTVSPost2010Prop47
 90
       50
102
RTVSPost2010PropOp47
 70
     1
102
RTVSPost2010Prop48
 90
       50
102
RTVSPost2010PropOp48
 70
     1
102
RTVSPost2010Prop49
280
     0
102
RTVSPost2010PropOp49
 70
     1
102
RTVSPost2010Prop50
 90
       50
102
RTVSPost2010PropOp50
 70
     1
102
RTVSPost2010Prop51ColorIndex
 90
      256
102
RTVSPost2010Prop51ColorRGB
 90
-16777216
102
RTVSPost2010PropOp51
 70
     0
102
RTVSPost2010Prop52
140
1.0
102
RTVSPost2010PropOp52
 70
     0
102
RTVSPost2010Prop53
 90
        2
102
RTVSPost2010PropOp53
 70
     1
102
RTVSPost2010Prop54
  1
strokes_ogs.tif
102
RTVSPost2010PropOp54
 70
     1
102
RTVSPost2010Prop55
280
     0
102
RTVSPost2010PropOp55
 70
     1
102
RTVSPost2010Prop56
140
1.0
102
RTVSPost2010PropOp56
 70
     1
102
RTVSPost2010Prop57
140
1.0
102
RTVSPost2010PropOp57
 70
     1
102
RTVSPropertyOp0
 70
     1
102
RTVSPropertyOp1
 70
     1
102
RTVSPropertyOp2
 70
     1
102
RTVSPropertyOp3
 70
     1
102
RTVSPropertyOp4
 70
     1
102
RTVSPropertyOp5
 70
     1
102
RTVSPropertyOp6
 70
     1
102
RTVSPropertyOp7
 70
     1
102
RTVSPropertyOp8
 70
     1
102
RTVSPropertyOp9
 70
     1
102
RTVSPropertyOp10
 70
     1
102
RTVSPropertyOp11
 70
     1
102
RTVSPropertyOp12
 70
     1
102
RTVSPropertyOp13
 70
     1
102
RTVSPropertyOp14
 70
     1
102
RTVSPropertyOp15
 70
     1
102
RTVSPropertyOp16
 70
     1
102
RTVSPropertyOp17
 70
     1
102
RTVSPropertyOp18
 70
     1
102
RTVSPropertyOp19
 70
     1
102
RTVSPropertyOp20
 70
     1
102
RTVSPropertyOp21
 70
     1
102
RTVSPropertyOp22
 70
     1
102
RTVSPropertyOp23
 70
     1
102
RTVSPropertyOp24
 70
     1
102
RTVSPropertyOp25
 70
     1
102
RTVSPropertyOp26
 70
     1
102
RTVSPropertyOp27
 70
     1
102
RTVSPropertyOp28
 70
     1
102
RTVSPropertyOp29
 70
     1
102
RTVSPropertyOp30
 70
     1
102
RTVSPropertyOp31
 70
     1
102
RTVSPropertyOp32
 70
     1
102
RTVSPropertyOp33
 70
     1
102
RTVSPropertyOp34
 70
     1
102
RTVSPropertyOp35
 70
     1
102
RTVSPropertyOp36
 70
     1
102
RTVSPropertyOp37
 70
     1
102
RTVSPropertyOp38
 70
     1
102
RTVSPropertyOp39
 70
     1
102
RTVSPropertyOp40
 70
     1
102
RTVSPropertyOp41
 70
     1
102
RTVSPropertyOp42
 70
     1
102
RTVSPropertyOp43
 70
     1
102
RTVSPropertyOp44
 70
     1
102
RTVSPropertyOp45
 70
     1
102
RTVSPropertyOp46
 70
     1
102
RTVSPropertyOp47
 70
     1
102
RTVSPropertyOp48
 70
     1
102
RTVSPropertyOp49
 70
     1
102
RTVSPropertyOp50
 70
     1
102
RTVSPropertyOp51
 70
     0
102
RTVSPropertyOp52
 70
     0
102
RTVSPropertyOp53
 70
     1
102
RTVSPropertyOp54
 70
     1
102
RTVSPropertyOp55
 70
     1
102
RTVSPropertyOp56
 70
     1
102
RTVSPropertyOp57
 70
     1
102
RTVSPropertyOp58
 70
     1
102
RTVSPropertyOp59
 70
     1
102
RTVSPropertyOp60
 70
     1
102
RTVSPropertyOp61
 70
     1
102
RTVSPropertyOp62
 70
     1
  0
ENDSEC
  0
EOF
