  0
SECTION
  2
HEADER
  9
$ACADVER
  1
AC1015
  9
$ACADMAINTVER
 70
    20
  9
$DWGCODEPAGE
  3
ANSI_932
  9
$INSBASE
 10
0.0
 20
0.0
 30
0.0
  9
$EXTMIN
 10
10.0
 20
9.999999999999998
 30
0.0
  9
$EXTMAX
 10
483.208837
 20
317.677949
 30
0.0
  9
$LIMMIN
 10
0.0
 20
0.0
  9
$LIMMAX
 10
495.0
 20
341.25
  9
$ORTHOMODE
 70
     0
  9
$REGENMODE
 70
     1
  9
$FILLMODE
 70
     1
  9
$QTEXTMODE
 70
     0
  9
$MIRRTEXT
 70
     1
  9
$LTSCALE
 40
20.0
  9
$ATTMODE
 70
     1
  9
$TEXTSIZE
 40
5.0
  9
$TRACEWID
 40
1.0
  9
$TEXTSTYLE
  7
STANDARD
  9
$CLAYER
  8
0
  9
$CELTYPE
  6
BYLAYER
  9
$CECOLOR
 62
   256
  9
$CELTSCALE
 40
1.0
  9
$DISPSILH
 70
     0
  9
$DIMSCALE
 40
1.0
  9
$DIMASZ
 40
3.0
  9
$DIMEXO
 40
1.0
  9
$DIMDLI
 40
10.0
  9
$DIMRND
 40
0.0
  9
$DIMDLE
 40
0.0
  9
$DIMEXE
 40
1.0
  9
$DIMTP
 40
0.0
  9
$DIMTM
 40
0.0
  9
$DIMTXT
 40
3.2
  9
$DIMCEN
 40
0.0
  9
$DIMTSZ
 40
0.0
  9
$DIMTOL
 70
     0
  9
$DIMLIM
 70
     0
  9
$DIMTIH
 70
     0
  9
$DIMTOH
 70
     0
  9
$DIMSE1
 70
     0
  9
$DIMSE2
 70
     0
  9
$DIMTAD
 70
     3
  9
$DIMZIN
 70
     8
  9
$DIMBLK
  1

  9
$DIMASO
 70
     1
  9
$DIMSHO
 70
     1
  9
$DIMPOST
  1

  9
$DIMAPOST
  1

  9
$DIMALT
 70
     0
  9
$DIMALTD
 70
     2
  9
$DIMALTF
 40
25.4
  9
$DIMLFAC
 40
1.0
  9
$DIMTOFL
 70
     1
  9
$DIMTVP
 40
0.0
  9
$DIMTIX
 70
     0
  9
$DIMSOXD
 70
     0
  9
$DIMSAH
 70
     1
  9
$DIMBLK1
  1
OPEN
  9
$DIMBLK2
  1
OPEN
  9
$DIMSTYLE
  2
STANDARD
  9
$DIMCLRD
 70
     0
  9
$DIMCLRE
 70
     0
  9
$DIMCLRT
 70
     0
  9
$DIMTFAC
 40
1.0
  9
$DIMGAP
 40
1.0
  9
$DIMJUST
 70
     0
  9
$DIMSD1
 70
     0
  9
$DIMSD2
 70
     0
  9
$DIMTOLJ
 70
     1
  9
$DIMTZIN
 70
     0
  9
$DIMALTZ
 70
     0
  9
$DIMALTTZ
 70
     0
  9
$DIMUPT
 70
     0
  9
$DIMDEC
 70
     4
  9
$DIMTDEC
 70
     4
  9
$DIMALTU
 70
     2
  9
$DIMALTTD
 70
     2
  9
$DIMTXSTY
  7
STANDARD
  9
$DIMAUNIT
 70
     0
  9
$DIMADEC
 70
     0
  9
$DIMALTRND
 40
0.0
  9
$DIMAZIN
 70
     0
  9
$DIMDSEP
 70
    46
  9
$DIMATFIT
 70
     3
  9
$DIMFRAC
 70
     0
  9
$DIMLDRBLK
  1
OPEN
  9
$DIMLUNIT
 70
     2
  9
$DIMLWD
 70
    -2
  9
$DIMLWE
 70
    -2
  9
$DIMTMOVE
 70
     0
  9
$LUNITS
 70
     2
  9
$LUPREC
 70
     4
  9
$SKETCHINC
 40
1.0
  9
$FILLETRAD
 40
5.0
  9
$AUNITS
 70
     0
  9
$AUPREC
 70
     2
  9
$MENU
  1
.
  9
$ELEVATION
 40
0.0
  9
$PELEVATION
 40
0.0
  9
$THICKNESS
 40
0.0
  9
$LIMCHECK
 70
     0
  9
$CHAMFERA
 40
10.0
  9
$CHAMFERB
 40
10.0
  9
$CHAMFERC
 40
0.0
  9
$CHAMFERD
 40
0.0
  9
$SKPOLY
 70
     0
  9
$TDCREATE
 40
2451301.693685996
  9
$TDUCREATE
 40
2451301.318685996
  9
$TDUPDATE
 40
2457192.686579780
  9
$TDUUPDATE
 40
2457192.311579781
  9
$TDINDWG
 40
0.0000099190
  9
$TDUSRTIMER
 40
0.0000096181
  9
$USRTIMER
 70
     1
  9
$ANGBASE
 50
0.0
  9
$ANGDIR
 70
     0
  9
$PDMODE
 70
     0
  9
$PDSIZE
 40
0.0
  9
$PLINEWID
 40
0.0
  9
$SPLFRAME
 70
     0
  9
$SPLINETYPE
 70
     6
  9
$SPLINESEGS
 70
     8
  9
$HANDSEED
  5
9C5B
  9
$SURFTAB1
 70
     6
  9
$SURFTAB2
 70
     6
  9
$SURFTYPE
 70
     6
  9
$SURFU
 70
     6
  9
$SURFV
 70
     6
  9
$UCSBASE
  2

  9
$UCSNAME
  2

  9
$UCSORG
 10
0.0
 20
0.0
 30
0.0
  9
$UCSXDIR
 10
1.0
 20
0.0
 30
0.0
  9
$UCSYDIR
 10
0.0
 20
1.0
 30
0.0
  9
$UCSORTHOREF
  2

  9
$UCSORTHOVIEW
 70
     0
  9
$UCSORGTOP
 10
0.0
 20
0.0
 30
0.0
  9
$UCSORGBOTTOM
 10
0.0
 20
0.0
 30
0.0
  9
$UCSORGLEFT
 10
0.0
 20
0.0
 30
0.0
  9
$UCSORGRIGHT
 10
0.0
 20
0.0
 30
0.0
  9
$UCSORGFRONT
 10
0.0
 20
0.0
 30
0.0
  9
$UCSORGBACK
 10
0.0
 20
0.0
 30
0.0
  9
$PUCSBASE
  2

  9
$PUCSNAME
  2

  9
$PUCSORG
 10
0.0
 20
0.0
 30
0.0
  9
$PUCSXDIR
 10
1.0
 20
0.0
 30
0.0
  9
$PUCSYDIR
 10
0.0
 20
1.0
 30
0.0
  9
$PUCSORTHOREF
  2

  9
$PUCSORTHOVIEW
 70
     0
  9
$PUCSORGTOP
 10
0.0
 20
0.0
 30
0.0
  9
$PUCSORGBOTTOM
 10
0.0
 20
0.0
 30
0.0
  9
$PUCSORGLEFT
 10
0.0
 20
0.0
 30
0.0
  9
$PUCSORGRIGHT
 10
0.0
 20
0.0
 30
0.0
  9
$PUCSORGFRONT
 10
0.0
 20
0.0
 30
0.0
  9
$PUCSORGBACK
 10
0.0
 20
0.0
 30
0.0
  9
$USERI1
 70
     0
  9
$USERI2
 70
     0
  9
$USERI3
 70
     0
  9
$USERI4
 70
     0
  9
$USERI5
 70
     0
  9
$USERR1
 40
0.0
  9
$USERR2
 40
0.0
  9
$USERR3
 40
0.0
  9
$USERR4
 40
0.0
  9
$USERR5
 40
0.0
  9
$WORLDVIEW
 70
     1
  9
$SHADEDGE
 70
     3
  9
$SHADEDIF
 70
    70
  9
$TILEMODE
 70
     1
  9
$MAXACTVP
 70
    16
  9
$PINSBASE
 10
0.0
 20
0.0
 30
0.0
  9
$PLIMCHECK
 70
     0
  9
$PEXTMIN
 10
1.000000000000000E+20
 20
1.000000000000000E+20
 30
1.000000000000000E+20
  9
$PEXTMAX
 10
-1.000000000000000E+20
 20
-1.000000000000000E+20
 30
-1.000000000000000E+20
  9
$PLIMMIN
 10
0.0
 20
0.0
  9
$PLIMMAX
 10
420.0
 20
297.0
  9
$UNITMODE
 70
     0
  9
$VISRETAIN
 70
     0
  9
$PLINEGEN
 70
     0
  9
$PSLTSCALE
 70
     0
  9
$TREEDEPTH
 70
  3020
  9
$CMLSTYLE
  2
STANDARD
  9
$CMLJUST
 70
     0
  9
$CMLSCALE
 40
1.0
  9
$PROXYGRAPHICS
 70
     1
  9
$MEASUREMENT
 70
     0
  9
$CELWEIGHT
370
    -1
  9
$ENDCAPS
280
     0
  9
$JOINSTYLE
280
     0
  9
$LWDISPLAY
290
     0
  9
$INSUNITS
 70
     0
  9
$HYPERLINKBASE
  1

  9
$STYLESHEET
  1

  9
$XEDIT
290
     1
  9
$CEPSNTYPE
380
     0
  9
$PSTYLEMODE
290
     1
  9
$FINGERPRINTGUID
  2
{C768B56B-661F-42C4-B051-2F46796B0DB4}
  9
$VERSIONGUID
  2
{F0B0EFC6-F6DB-41E9-9DF8-900371A7AAD4}
  9
$EXTNAMES
290
     1
  9
$PSVPSCALE
 40
0.0
  9
$OLESTARTUP
290
     0
  0
ENDSEC
  0
SECTION
  2
CLASSES
  0
CLASS
  1
ACDBDICTIONARYWDFLT
  2
AcDbDictionaryWithDefault
  3
ObjectDBX Classes
 90
        0
280
     0
281
     0
  0
CLASS
  1
ACDBPLACEHOLDER
  2
AcDbPlaceHolder
  3
ObjectDBX Classes
 90
        0
280
     0
281
     0
  0
CLASS
  1
LAYOUT
  2
AcDbLayout
  3
ObjectDBX Classes
 90
        0
280
     0
281
     0
  0
CLASS
  1
DICTIONARYVAR
  2
AcDbDictionaryVar
  3
ObjectDBX Classes
 90
        0
280
     0
281
     0
  0
CLASS
  1
MATERIAL
  2
AcDbMaterial
  3
ObjectDBX Classes
 90
     1153
280
     0
281
     0
  0
CLASS
  1
VISUALSTYLE
  2
AcDbVisualStyle
  3
ObjectDBX Classes
 90
     4095
280
     0
281
     0
  0
CLASS
  1
TABLESTYLE
  2
AcDbTableStyle
  3
ObjectDBX Classes
 90
     4095
280
     0
281
     0
  0
CLASS
  1
SCALE
  2
AcDbScale
  3
ObjectDBX Classes
 90
     1153
280
     0
281
     0
  0
CLASS
  1
MLEADERSTYLE
  2
AcDbMLeaderStyle
  3
ACDB_MLEADERSTYLE_CLASS
 90
     4095
280
     0
281
     0
  0
CLASS
  1
ACDBSECTIONVIEWSTYLE
  2
AcDbSectionViewStyle
  3
ObjectDBX Classes
 90
     1025
280
     0
281
     0
  0
CLASS
  1
ACDBDETAILVIEWSTYLE
  2
AcDbDetailViewStyle
  3
ObjectDBX Classes
 90
     1025
280
     0
281
     0
  0
CLASS
  1
CELLSTYLEMAP
  2
AcDbCellStyleMap
  3
ObjectDBX Classes
 90
     1152
280
     0
281
     0
  0
ENDSEC
  0
SECTION
  2
TABLES
  0
TABLE
  2
VPORT
  5
99A0
330
0
100
AcDbSymbolTable
 70
     1
  0
VPORT
  5
9BA4
330
99A0
100
AcDbSymbolTableRecord
100
AcDbViewportTableRecord
  2
*ACTIVE
 70
     0
 10
0.0
 20
0.0
 11
1.0
 21
1.0
 12
339.81271677545
 22
163.8428028343685
 13
0.0
 23
0.0
 14
10.0
 24
10.0
 15
10.0
 25
10.0
 16
0.0
 26
0.0
 36
1.0
 17
0.0
 27
0.0
 37
0.0
 40
311.111440144891
 41
2.35006605019815
 42
50.0
 43
0.0
 44
0.0
 50
0.0
 51
0.0
 71
     0
 72
   100
 73
     1
 74
     0
 75
     0
 76
     0
 77
     0
 78
     0
281
     0
 65
     1
110
0.0
120
0.0
130
0.0
111
1.0
121
0.0
131
0.0
112
0.0
122
1.0
132
0.0
 79
     0
146
0.0
1001
ACAD_NAV_VCDISPLAY
1070
     3
  0
ENDTAB
  0
TABLE
  2
LTYPE
  5
999D
330
0
100
AcDbSymbolTable
 70
     4
  0
LTYPE
  5
99AB
330
999D
100
AcDbSymbolTableRecord
100
AcDbLinetypeTableRecord
  2
BYBLOCK
 70
     0
  3

 72
    65
 73
     0
 40
0.0
  0
LTYPE
  5
99AC
330
999D
100
AcDbSymbolTableRecord
100
AcDbLinetypeTableRecord
  2
BYLAYER
 70
     0
  3

 72
    65
 73
     0
 40
0.0
  0
LTYPE
  5
99AD
330
999D
100
AcDbSymbolTableRecord
100
AcDbLinetypeTableRecord
  2
CONTINUOUS
 70
     0
  3
Solid line
 72
    65
 73
     0
 40
0.0
  0
LTYPE
  5
99BB
330
999D
100
AcDbSymbolTableRecord
100
AcDbLinetypeTableRecord
  2
DASHED
 70
     0
  3
__ __ __ __ __ __ __ __ __ __ __ __ __ __ __ __
 72
    65
 73
     2
 40
0.75
 49
0.5
 74
     0
 49
-0.25
 74
     0
  0
LTYPE
  5
99BC
330
999D
100
AcDbSymbolTableRecord
100
AcDbLinetypeTableRecord
  2
CENTER
 70
     0
  3
____ _ ____ _ ____ _ ____ _ ____ _ ____ _ ____ 
 72
    65
 73
     4
 40
2.0
 49
1.25
 74
     0
 49
-0.25
 74
     0
 49
0.25
 74
     0
 49
-0.25
 74
     0
  0
LTYPE
  5
99BD
330
999D
100
AcDbSymbolTableRecord
100
AcDbLinetypeTableRecord
  2
PHANTOM
 70
     0
  3
______  __  __  ______  __  __  ______  __  __ 
 72
    65
 73
     6
 40
2.5
 49
1.25
 74
     0
 49
-0.25
 74
     0
 49
0.25
 74
     0
 49
-0.25
 74
     0
 49
0.25
 74
     0
 49
-0.25
 74
     0
  0
ENDTAB
  0
TABLE
  2
LAYER
  5
999A
330
0
100
AcDbSymbolTable
 70
     8
  0
LAYER
  5
99A8
102
{ACAD_XDICTIONARY
360
9BFF
102
}
330
999A
100
AcDbSymbolTableRecord
100
AcDbLayerTableRecord
  2
0
 70
     0
 62
     7
  6
CONTINUOUS
370
    -3
390
9BAD
  0
LAYER
  5
99BE
102
{ACAD_XDICTIONARY
360
9C01
102
}
330
999A
100
AcDbSymbolTableRecord
100
AcDbLayerTableRecord
  2
4
 70
     0
 62
     1
  6
CENTER
370
    -3
390
9BAD
  0
LAYER
  5
99BF
102
{ACAD_XDICTIONARY
360
9C03
102
}
330
999A
100
AcDbSymbolTableRecord
100
AcDbLayerTableRecord
  2
5
 70
     0
 62
     6
  6
PHANTOM
370
    -3
390
9BAD
  0
LAYER
  5
99C0
102
{ACAD_XDICTIONARY
360
9C05
102
}
330
999A
100
AcDbSymbolTableRecord
100
AcDbLayerTableRecord
  2
1
 70
     0
 62
     7
  6
CONTINUOUS
370
    -3
390
9BAD
  0
LAYER
  5
99C1
102
{ACAD_XDICTIONARY
360
9C07
102
}
330
999A
100
AcDbSymbolTableRecord
100
AcDbLayerTableRecord
  2
2
 70
     0
 62
     4
  6
CONTINUOUS
370
    -3
390
9BAD
  0
LAYER
  5
99C2
102
{ACAD_XDICTIONARY
360
9C09
102
}
330
999A
100
AcDbSymbolTableRecord
100
AcDbLayerTableRecord
  2
3
 70
     0
 62
     2
  6
DASHED
370
    -3
390
9BAD
  0
LAYER
  5
99C3
102
{ACAD_XDICTIONARY
360
9C0B
102
}
330
999A
100
AcDbSymbolTableRecord
100
AcDbLayerTableRecord
  2
6
 70
     0
 62
     5
  6
CONTINUOUS
370
    -3
390
9BAD
  0
LAYER
  5
99C4
102
{ACAD_XDICTIONARY
360
9C0D
102
}
330
999A
100
AcDbSymbolTableRecord
100
AcDbLayerTableRecord
  2
7
 70
     0
 62
     3
  6
CONTINUOUS
370
    -3
390
9BAD
  0
ENDTAB
  0
TABLE
  2
STYLE
  5
999B
330
0
100
AcDbSymbolTable
 70
     1
  0
STYLE
  5
99A9
330
999B
100
AcDbSymbolTableRecord
100
AcDbTextStyleTableRecord
  2
STANDARD
 70
     0
 40
0.0
 41
1.0
 50
0.0
 71
     0
 42
5.0
  3
txt
  4

  0
ENDTAB
  0
TABLE
  2
VIEW
  5
999E
330
0
100
AcDbSymbolTable
 70
     0
  0
ENDTAB
  0
TABLE
  2
UCS
  5
999F
330
0
100
AcDbSymbolTable
 70
     0
  0
ENDTAB
  0
TABLE
  2
APPID
  5
99A1
330
0
100
AcDbSymbolTable
 70
     3
  0
APPID
  5
99AA
330
99A1
100
AcDbSymbolTableRecord
100
AcDbRegAppTableRecord
  2
ACAD
 70
     0
  0
APPID
  5
9C19
330
99A1
100
AcDbSymbolTableRecord
100
AcDbRegAppTableRecord
  2
ACAD_NAV_VCDISPLAY
 70
     0
  0
APPID
  5
9C52
330
99A1
100
AcDbSymbolTableRecord
100
AcDbRegAppTableRecord
  2
ACAD_MLEADERVER
 70
     0
  0
ENDTAB
  0
TABLE
  2
DIMSTYLE
  5
99A2
330
0
100
AcDbSymbolTable
 70
     1
100
AcDbDimStyleTable
 71
     0
  0
DIMSTYLE
105
99C6
330
99A2
100
AcDbSymbolTableRecord
100
AcDbDimStyleTableRecord
  2
STANDARD
 70
     0
 41
3.0
 42
1.0
 43
10.0
 44
1.0
 73
     0
 74
     0
 77
     3
 78
     8
140
3.2
141
0.0
147
1.0
172
     1
173
     1
284
     8
285
     8
286
     8
340
99A9
  0
ENDTAB
  0
TABLE
  2
BLOCK_RECORD
  5
9999
330
0
100
AcDbSymbolTable
 70
     1
  0
BLOCK_RECORD
  5
99B6
102
{ACAD_XDICTIONARY
360
9BA7
102
}
330
9999
100
AcDbSymbolTableRecord
100
AcDbBlockTableRecord
  2
*MODEL_SPACE
340
9BFB
  0
BLOCK_RECORD
  5
99B2
102
{ACAD_XDICTIONARY
360
9BA5
102
}
330
9999
100
AcDbSymbolTableRecord
100
AcDbBlockTableRecord
  2
*PAPER_SPACE
340
9BFC
  0
BLOCK_RECORD
  5
99CE
330
9999
100
AcDbSymbolTableRecord
100
AcDbBlockTableRecord
  2
_OPEN
340
0
  0
ENDTAB
  0
ENDSEC
  0
SECTION
  2
BLOCKS
  0
BLOCK
  5
99B7
330
99B6
100
AcDbEntity
  8
0
100
AcDbBlockBegin
  2
*MODEL_SPACE
 70
     0
 10
0.0
 20
0.0
 30
0.0
  3
*MODEL_SPACE
  1

  0
ENDBLK
  5
99B8
330
99B6
100
AcDbEntity
  8
0
100
AcDbBlockEnd
  0
BLOCK
  5
99B3
330
99B2
100
AcDbEntity
 67
     1
  8
0
100
AcDbBlockBegin
  2
*PAPER_SPACE
 70
     0
 10
0.0
 20
0.0
 30
0.0
  3
*PAPER_SPACE
  1

  0
ENDBLK
  5
99B4
330
99B2
100
AcDbEntity
 67
     1
  8
0
100
AcDbBlockEnd
  0
BLOCK
  5
99CF
330
99CE
100
AcDbEntity
  8
0
100
AcDbBlockBegin
  2
_OPEN
 70
     0
 10
0.0
 20
0.0
 30
0.0
  3
_OPEN
  1

  0
LINE
  5
99D0
330
99CE
100
AcDbEntity
  8
0
  6
ByBlock
 62
     0
100
AcDbLine
 10
-1.0
 20
0.166667
 30
0.0
 11
0.0
 21
0.0
 31
0.0
  0
LINE
  5
99D1
330
99CE
100
AcDbEntity
  8
0
  6
ByBlock
 62
     0
100
AcDbLine
 10
0.0
 20
0.0
 30
0.0
 11
-1.0
 21
-0.166667
 31
0.0
  0
LINE
  5
99D2
330
99CE
100
AcDbEntity
  8
0
  6
ByBlock
 62
     0
100
AcDbLine
 10
0.0
 20
0.0
 30
0.0
 11
-1.0
 21
0.0
 31
0.0
  0
ENDBLK
  5
99D3
330
99CE
100
AcDbEntity
  8
0
100
AcDbBlockEnd
  0
ENDSEC
  0
SECTION
  2
ENTITIES
  0
TEXT
  5
99D4
330
99B6
100
AcDbEntity
  8
7
  6
Continuous
100
AcDbText
 10
10.0
 20
18.0
 30
0.0
 40
3.0
  1
TYPE No.104FH-P
100
AcDbText
  0
TEXT
  5
99D5
330
99B6
100
AcDbEntity
  8
7
  6
Continuous
100
AcDbText
 10
10.0
 20
26.0
 30
0.0
 40
3.0
  1
CODE No.9085
100
AcDbText
  0
TEXT
  5
99D6
330
99B6
100
AcDbEntity
  8
1
  6
Continuous
100
AcDbText
 10
10.0
 20
10.0
 30
0.0
 40
1.399999999999999
  1
LAYER
100
AcDbText
  0
TEXT
  5
99D7
330
99B6
100
AcDbEntity
  8
1
  6
Continuous
100
AcDbText
 10
17.97951099999998
 20
10.04873699999998
 30
0.0
 40
1.399999999999999
  1
1
100
AcDbText
  0
TEXT
  5
99D8
330
99B6
100
AcDbEntity
  8
7
  6
Continuous
100
AcDbText
 10
29.97951099999999
 20
10.04873699999998
 30
0.0
 40
1.399999999999999
  1
7
100
AcDbText
  0
TEXT
  5
99D9
330
99B6
100
AcDbEntity
  8
4
  6
CENTER
100
AcDbText
 10
23.97951099999999
 20
10.04873699999998
 30
0.0
 40
1.399999999999999
  1
4
100
AcDbText
  0
TEXT
  5
99DA
330
99B6
100
AcDbEntity
  8
3
  6
DASHED
100
AcDbText
 10
21.979511
 20
10.04873699999998
 30
0.0
 40
1.399999999999999
  1
3
100
AcDbText
  0
TEXT
  5
99DB
330
99B6
100
AcDbEntity
  8
2
  6
Continuous
100
AcDbText
 10
19.97951099999999
 20
10.04873699999998
 30
0.0
 40
1.399999999999999
  1
2
100
AcDbText
  0
TEXT
  5
99DC
330
99B6
100
AcDbEntity
  8
6
  6
Continuous
100
AcDbText
 10
27.979511
 20
10.04873699999998
 30
0.0
 40
1.399999999999999
  1
6
100
AcDbText
  0
TEXT
  5
99DD
330
99B6
100
AcDbEntity
  8
5
  6
PHANTOM
100
AcDbText
 10
25.97951099999999
 20
10.04873699999998
 30
0.0
 40
1.399999999999999
  1
5
100
AcDbText
  0
LINE
  5
99DE
330
99B6
100
AcDbEntity
  8
1
  6
Continuous
100
AcDbLine
 10
210.145193
 20
204.5231789999998
 30
0.0
 11
208.7807559999999
 21
202.733742
 31
0.0
  0
LINE
  5
99DF
330
99B6
100
AcDbEntity
  8
1
  6
Continuous
100
AcDbLine
 10
208.9020759999999
 20
205.1587419999999
 30
0.0
 11
210.145193
 21
203.490625
 31
0.0
  0
ARC
  5
99E0
330
99B6
100
AcDbEntity
  8
1
  6
Continuous
100
AcDbCircle
 10
157.809751
 20
212.397118
 30
0.0
 40
55.3
100
AcDbArc
 50
290.560735
 51
337.805115
  0
ARC
  5
99E1
330
99B6
100
AcDbEntity
  8
1
  6
Continuous
100
AcDbCircle
 10
232.398812
 20
182.6714169999999
 30
0.0
 40
25.0
100
AcDbArc
 50
145.5059249999998
 51
159.302928
  0
LINE
  5
99E2
330
99B6
100
AcDbEntity
  8
1
  6
Continuous
100
AcDbLine
 10
210.145193
 20
202.733742
 30
0.0
 11
173.4751929999999
 21
202.733742
 31
0.0
  0
LINE
  5
99E3
330
99B6
100
AcDbEntity
  8
1
  6
Continuous
100
AcDbLine
 10
210.145193
 20
205.1587419999999
 30
0.0
 11
173.4751929999999
 21
205.1587419999999
 31
0.0
  0
LINE
  5
99E4
330
99B6
100
AcDbEntity
  8
1
  6
Continuous
100
AcDbLine
 10
210.145193
 20
207.1587419999999
 30
0.0
 11
173.8554469999999
 21
207.1587419999999
 31
0.0
  0
LINE
  5
99E5
330
99B6
100
AcDbEntity
  8
1
  6
Continuous
100
AcDbLine
 10
218.310193
 20
208.738742
 30
0.0
 11
165.310193
 21
208.738742
 31
0.0
  0
LINE
  5
99E6
330
99B6
100
AcDbEntity
  8
1
  6
Continuous
100
AcDbLine
 10
218.310193
 20
210.738742
 30
0.0
 11
165.310193
 21
210.738742
 31
0.0
  0
LINE
  5
99E7
330
99B6
100
AcDbEntity
  8
1
  6
Continuous
100
AcDbLine
 10
218.310193
 20
208.738742
 30
0.0
 11
218.310193
 21
210.738742
 31
0.0
  0
LINE
  5
99E8
330
99B6
100
AcDbEntity
  8
1
  6
Continuous
100
AcDbLine
 10
210.145193
 20
207.1587419999999
 30
0.0
 11
210.145193
 21
202.733742
 31
0.0
  0
ARC
  5
99E9
330
99B6
100
AcDbEntity
  8
1
  6
Continuous
100
AcDbCircle
 10
209.4555319999999
 20
200.333742
 30
0.0
 40
2.399999999999999
100
AcDbArc
 50
12.981644
 51
90.0
  0
ARC
  5
99EA
330
99B6
100
AcDbEntity
  8
1
  6
Continuous
100
AcDbCircle
 10
209.764938
 20
210.674434
 30
0.0
 40
3.515692
100
AcDbArc
 50
270.0
 51
326.5927549999998
  0
LINE
  5
99EB
330
99B6
100
AcDbEntity
  8
4
  6
CENTER
100
AcDbLine
 10
173.810193
 20
139.7390389999999
 30
0.0
 11
173.810193
 21
195.739039
 31
0.0
  0
ARC
  5
99EC
330
99B6
100
AcDbEntity
  8
1
  6
Continuous
100
AcDbCircle
 10
114.5132999999999
 20
208.315966
 30
0.0
 40
62.7
100
AcDbArc
 50
326.506415
 51
346.4596439999998
  0
ARC
  5
99ED
330
99B6
100
AcDbEntity
  8
1
  6
Continuous
100
AcDbCircle
 10
173.810193
 20
167.739039
 30
0.0
 40
25.0
100
AcDbArc
 50
86.651374
 51
15.138213
  0
LINE
  5
99EE
330
99B6
100
AcDbEntity
  8
4
  6
CENTER
100
AcDbLine
 10
201.8101929999999
 20
167.739039
 30
0.0
 11
145.8101929999999
 21
167.739039
 31
0.0
  0
ARC
  5
99EF
330
99B6
100
AcDbEntity
  8
1
  6
Continuous
100
AcDbCircle
 10
174.140554
 20
168.859147
 30
0.0
 40
8.8
100
AcDbArc
 50
146.506415
 51
290.560735
  0
LINE
  5
99F0
330
99B6
100
AcDbEntity
  8
1
  6
Continuous
100
AcDbLine
 10
176.83963
 20
205.1587419999999
 30
0.0
 11
174.83963
 21
202.733742
 31
0.0
  0
LINE
  5
99F1
330
99B6
100
AcDbEntity
  8
1
  6
Continuous
100
AcDbLine
 10
174.96095
 20
205.1587419999999
 30
0.0
 11
176.96095
 21
202.733742
 31
0.0
  0
LINE
  5
99F2
330
99B6
100
AcDbEntity
  8
1
  6
Continuous
100
AcDbLine
 10
193.659854
 20
205.1587419999999
 30
0.0
 11
191.659854
 21
202.733742
 31
0.0
  0
LINE
  5
99F3
330
99B6
100
AcDbEntity
  8
1
  6
Continuous
100
AcDbLine
 10
191.7811739999999
 20
205.1587419999999
 30
0.0
 11
193.7811739999999
 21
202.733742
 31
0.0
  0
LINE
  5
99F4
330
99B6
100
AcDbEntity
  8
1
  6
Continuous
100
AcDbLine
 10
202.295474
 20
205.1587419999999
 30
0.0
 11
200.295474
 21
202.733742
 31
0.0
  0
LINE
  5
99F5
330
99B6
100
AcDbEntity
  8
1
  6
Continuous
100
AcDbLine
 10
200.416795
 20
205.1587419999999
 30
0.0
 11
202.416795
 21
202.733742
 31
0.0
  0
LINE
  5
99F6
330
99B6
100
AcDbEntity
  8
1
  6
Continuous
100
AcDbLine
 10
206.5381149999998
 20
205.1587419999999
 30
0.0
 11
204.5381149999998
 21
202.733742
 31
0.0
  0
LINE
  5
99F7
330
99B6
100
AcDbEntity
  8
1
  6
Continuous
100
AcDbLine
 10
204.6594349999999
 20
205.1587419999999
 30
0.0
 11
206.6594349999999
 21
202.733742
 31
0.0
  0
LINE
  5
99F8
330
99B6
100
AcDbEntity
  8
1
  6
Continuous
100
AcDbLine
 10
208.6594349999999
 20
205.1587419999999
 30
0.0
 11
206.6594349999999
 21
202.733742
 31
0.0
  0
LINE
  5
99F9
330
99B6
100
AcDbEntity
  8
1
  6
Continuous
100
AcDbLine
 10
206.7807559999998
 20
205.1587419999999
 30
0.0
 11
208.7807559999999
 21
202.733742
 31
0.0
  0
LINE
  5
99FA
330
99B6
100
AcDbEntity
  8
1
  6
Continuous
100
AcDbLine
 10
204.416795
 20
205.1587419999999
 30
0.0
 11
202.416795
 21
202.733742
 31
0.0
  0
LINE
  5
99FB
330
99B6
100
AcDbEntity
  8
1
  6
Continuous
100
AcDbLine
 10
202.538115
 20
205.1587419999999
 30
0.0
 11
204.5381149999998
 21
202.733742
 31
0.0
  0
LINE
  5
99FC
330
99B6
100
AcDbEntity
  8
1
  6
Continuous
100
AcDbLine
 10
197.9024949999999
 20
205.1587419999999
 30
0.0
 11
195.9024949999999
 21
202.733742
 31
0.0
  0
LINE
  5
99FD
330
99B6
100
AcDbEntity
  8
1
  6
Continuous
100
AcDbLine
 10
196.0238149999999
 20
205.1587419999999
 30
0.0
 11
198.0238149999999
 21
202.733742
 31
0.0
  0
LINE
  5
99FE
330
99B6
100
AcDbEntity
  8
1
  6
Continuous
100
AcDbLine
 10
200.0238149999999
 20
205.1587419999999
 30
0.0
 11
198.0238149999999
 21
202.733742
 31
0.0
  0
LINE
  5
99FF
330
99B6
100
AcDbEntity
  8
1
  6
Continuous
100
AcDbLine
 10
198.145135
 20
205.1587419999999
 30
0.0
 11
200.1451349999999
 21
202.733742
 31
0.0
  0
LINE
  5
9A00
330
99B6
100
AcDbEntity
  8
1
  6
Continuous
100
AcDbLine
 10
195.781174
 20
205.1587419999999
 30
0.0
 11
193.7811739999999
 21
202.733742
 31
0.0
  0
LINE
  5
9A01
330
99B6
100
AcDbEntity
  8
1
  6
Continuous
100
AcDbLine
 10
193.9024949999999
 20
205.1587419999999
 30
0.0
 11
195.9024949999999
 21
202.733742
 31
0.0
  0
LINE
  5
9A02
330
99B6
100
AcDbEntity
  8
1
  6
Continuous
100
AcDbLine
 10
185.1745719999999
 20
205.1587419999999
 30
0.0
 11
183.1745719999999
 21
202.733742
 31
0.0
  0
LINE
  5
9A03
330
99B6
100
AcDbEntity
  8
1
  6
Continuous
100
AcDbLine
 10
183.295893
 20
205.1587419999999
 30
0.0
 11
185.2958929999998
 21
202.733742
 31
0.0
  0
LINE
  5
9A04
330
99B6
100
AcDbEntity
  8
1
  6
Continuous
100
AcDbLine
 10
189.4172129999999
 20
205.1587419999999
 30
0.0
 11
187.4172129999998
 21
202.733742
 31
0.0
  0
LINE
  5
9A05
330
99B6
100
AcDbEntity
  8
1
  6
Continuous
100
AcDbLine
 10
187.538533
 20
205.1587419999999
 30
0.0
 11
189.538533
 21
202.733742
 31
0.0
  0
LINE
  5
9A06
330
99B6
100
AcDbEntity
  8
1
  6
Continuous
100
AcDbLine
 10
191.538533
 20
205.1587419999999
 30
0.0
 11
189.538533
 21
202.733742
 31
0.0
  0
LINE
  5
9A07
330
99B6
100
AcDbEntity
  8
1
  6
Continuous
100
AcDbLine
 10
189.659854
 20
205.1587419999999
 30
0.0
 11
191.659854
 21
202.733742
 31
0.0
  0
LINE
  5
9A08
330
99B6
100
AcDbEntity
  8
1
  6
Continuous
100
AcDbLine
 10
187.295893
 20
205.1587419999999
 30
0.0
 11
185.2958929999998
 21
202.733742
 31
0.0
  0
LINE
  5
9A09
330
99B6
100
AcDbEntity
  8
1
  6
Continuous
100
AcDbLine
 10
185.4172129999998
 20
205.1587419999999
 30
0.0
 11
187.4172129999998
 21
202.733742
 31
0.0
  0
LINE
  5
9A0A
330
99B6
100
AcDbEntity
  8
1
  6
Continuous
100
AcDbLine
 10
180.9319319999999
 20
205.1587419999999
 30
0.0
 11
178.9319319999999
 21
202.733742
 31
0.0
  0
LINE
  5
9A0B
330
99B6
100
AcDbEntity
  8
1
  6
Continuous
100
AcDbLine
 10
179.053252
 20
205.1587419999999
 30
0.0
 11
181.0532519999999
 21
202.733742
 31
0.0
  0
LINE
  5
9A0C
330
99B6
100
AcDbEntity
  8
1
  6
Continuous
100
AcDbLine
 10
183.053252
 20
205.1587419999999
 30
0.0
 11
181.0532519999999
 21
202.733742
 31
0.0
  0
LINE
  5
9A0D
330
99B6
100
AcDbEntity
  8
1
  6
Continuous
100
AcDbLine
 10
181.1745719999999
 20
205.1587419999999
 30
0.0
 11
183.1745719999999
 21
202.733742
 31
0.0
  0
LINE
  5
9A0E
330
99B6
100
AcDbEntity
  8
1
  6
Continuous
100
AcDbLine
 10
178.810611
 20
205.1587419999999
 30
0.0
 11
176.8106109999999
 21
202.733742
 31
0.0
  0
LINE
  5
9A0F
330
99B6
100
AcDbEntity
  8
1
  6
Continuous
100
AcDbLine
 10
176.9319319999999
 20
205.1587419999999
 30
0.0
 11
178.9319319999999
 21
202.733742
 31
0.0
  0
ARC
  5
9A10
330
99B6
100
AcDbEntity
  8
1
  6
Continuous
100
AcDbCircle
 10
173.5105169999999
 20
194.0337419999999
 30
0.0
 40
2.0
100
AcDbArc
 50
348.52915
 51
90.0
  0
LINE
  5
9A11
330
99B6
100
AcDbEntity
  8
1
  6
Continuous
100
AcDbLine
 10
171.8261929999999
 20
196.0337419999999
 30
0.0
 11
173.5105169999999
 21
196.0337419999999
 31
0.0
  0
LINE
  5
9A12
330
99B6
100
AcDbEntity
  8
1
  6
Continuous
100
AcDbLine
 10
173.4751929999999
 20
207.1587419999999
 30
0.0
 11
173.4751929999999
 21
202.733742
 31
0.0
  0
ARC
  5
9A13
330
99B6
100
AcDbEntity
  8
1
  6
Continuous
100
AcDbCircle
 10
174.165532
 20
200.333742
 30
0.0
 40
2.399999999999999
100
AcDbArc
 50
90.0
 51
167.090607
  0
LINE
  5
9A14
330
99B6
100
AcDbEntity
  8
1
  6
Continuous
100
AcDbLine
 10
173.4751929999999
 20
203.490625
 30
0.0
 11
174.7183099999998
 21
205.1587419999999
 31
0.0
  0
LINE
  5
9A15
330
99B6
100
AcDbEntity
  8
1
  6
Continuous
100
AcDbLine
 10
173.4751929999999
 20
204.5231789999998
 30
0.0
 11
174.83963
 21
202.733742
 31
0.0
  0
ARC
  5
9A16
330
99B6
100
AcDbEntity
  8
1
  6
Continuous
100
AcDbCircle
 10
173.8554469999999
 20
210.674434
 30
0.0
 40
3.515692
100
AcDbArc
 50
213.407245
 51
270.0
  0
LINE
  5
9A17
330
99B6
100
AcDbEntity
  8
1
  6
Continuous
100
AcDbLine
 10
165.310193
 20
208.738742
 30
0.0
 11
165.310193
 21
210.738742
 31
0.0
  0
LINE
  5
9A18
330
99B6
100
AcDbEntity
  8
4
  6
CENTER
100
AcDbLine
 10
191.8101929999999
 20
258.677949
 30
0.0
 11
191.8101929999999
 21
317.677949
 31
0.0
  0
LINE
  5
9A19
330
99B6
100
AcDbEntity
  8
4
  6
CENTER
100
AcDbLine
 10
218.060193
 20
268.177949
 30
0.0
 11
205.5601929999999
 21
268.177949
 31
0.0
  0
LINE
  5
9A1A
330
99B6
100
AcDbEntity
  8
4
  6
CENTER
100
AcDbLine
 10
218.060193
 20
308.177949
 30
0.0
 11
205.5601929999999
 21
308.177949
 31
0.0
  0
LINE
  5
9A1B
330
99B6
100
AcDbEntity
  8
4
  6
CENTER
100
AcDbLine
 10
221.159854
 20
288.1779489999999
 30
0.0
 11
145.8101929999999
 21
288.1779489999999
 31
0.0
  0
CIRCLE
  5
9A1C
330
99B6
100
AcDbEntity
  8
1
  6
Continuous
100
AcDbCircle
 10
191.8101929999999
 20
288.1779489999999
 30
0.0
 40
18.7
  0
CIRCLE
  5
9A1D
330
99B6
100
AcDbEntity
  8
1
  6
Continuous
100
AcDbCircle
 10
191.8101929999999
 20
288.1779489999999
 30
0.0
 40
17.55
  0
CIRCLE
  5
9A1E
330
99B6
100
AcDbEntity
  8
1
  6
Continuous
100
AcDbCircle
 10
211.810193
 20
268.177949
 30
0.0
 40
3.25
  0
CIRCLE
  5
9A1F
330
99B6
100
AcDbEntity
  8
1
  6
Continuous
100
AcDbCircle
 10
211.810193
 20
308.177949
 30
0.0
 40
3.25
  0
LINE
  5
9A20
330
99B6
100
AcDbEntity
  8
1
  6
Continuous
100
AcDbLine
 10
212.310193
 20
261.677949
 30
0.0
 11
171.310193
 21
261.677949
 31
0.0
  0
LINE
  5
9A21
330
99B6
100
AcDbEntity
  8
1
  6
Continuous
100
AcDbLine
 10
212.310193
 20
314.677949
 30
0.0
 11
171.310193
 21
314.677949
 31
0.0
  0
LINE
  5
9A22
330
99B6
100
AcDbEntity
  8
4
  6
CENTER
100
AcDbLine
 10
211.810193
 20
261.927949
 30
0.0
 11
211.810193
 21
274.427949
 31
0.0
  0
LINE
  5
9A23
330
99B6
100
AcDbEntity
  8
1
  6
Continuous
100
AcDbLine
 10
218.310193
 20
267.677949
 30
0.0
 11
218.310193
 21
308.677949
 31
0.0
  0
ARC
  5
9A24
330
99B6
100
AcDbEntity
  8
1
  6
Continuous
100
AcDbCircle
 10
212.310193
 20
267.677949
 30
0.0
 40
6.0
100
AcDbArc
 50
270.0
 51
0.0
  0
LINE
  5
9A25
330
99B6
100
AcDbEntity
  8
4
  6
CENTER
100
AcDbLine
 10
211.810193
 20
301.927949
 30
0.0
 11
211.810193
 21
314.427949
 31
0.0
  0
ARC
  5
9A26
330
99B6
100
AcDbEntity
  8
1
  6
Continuous
100
AcDbCircle
 10
212.310193
 20
308.677949
 30
0.0
 40
6.0
100
AcDbArc
 50
0.0
 51
90.0
  0
LINE
  5
9A27
330
99B6
100
AcDbEntity
  8
4
  6
CENTER
100
AcDbLine
 10
171.8101929999999
 20
261.927949
 30
0.0
 11
171.8101929999999
 21
274.427949
 31
0.0
  0
LINE
  5
9A28
330
99B6
100
AcDbEntity
  8
1
  6
Continuous
100
AcDbLine
 10
165.310193
 20
267.677949
 30
0.0
 11
165.310193
 21
308.677949
 31
0.0
  0
CIRCLE
  5
9A29
330
99B6
100
AcDbEntity
  8
1
  6
Continuous
100
AcDbCircle
 10
171.8101929999999
 20
268.177949
 30
0.0
 40
3.25
  0
LINE
  5
9A2A
330
99B6
100
AcDbEntity
  8
4
  6
CENTER
100
AcDbLine
 10
178.0601929999999
 20
268.177949
 30
0.0
 11
165.5601929999999
 21
268.177949
 31
0.0
  0
ARC
  5
9A2B
330
99B6
100
AcDbEntity
  8
1
  6
Continuous
100
AcDbCircle
 10
171.310193
 20
267.677949
 30
0.0
 40
6.0
100
AcDbArc
 50
180.0
 51
270.0
  0
LINE
  5
9A2C
330
99B6
100
AcDbEntity
  8
4
  6
CENTER
100
AcDbLine
 10
178.0601929999999
 20
308.177949
 30
0.0
 11
165.5601929999999
 21
308.177949
 31
0.0
  0
CIRCLE
  5
9A2D
330
99B6
100
AcDbEntity
  8
1
  6
Continuous
100
AcDbCircle
 10
191.8101929999999
 20
288.1779489999999
 30
0.0
 40
9.0
  0
ARC
  5
9A2E
330
99B6
100
AcDbEntity
  8
1
  6
Continuous
100
AcDbCircle
 10
298.810193
 20
288.1779489999999
 30
0.0
 40
150.0
100
AcDbArc
 50
176.5136459999999
 51
183.486354
  0
LINE
  5
9A2F
330
99B6
100
AcDbEntity
  8
1
  6
Continuous
100
AcDbLine
 10
165.310193
 20
277.177949
 30
0.0
 11
151.0840959999999
 21
277.177949
 31
0.0
  0
ARC
  5
9A30
330
99B6
100
AcDbEntity
  8
1
  6
Continuous
100
AcDbCircle
 10
151.0840959999999
 20
279.177949
 30
0.0
 40
2.0
100
AcDbArc
 50
183.486354
 51
270.0
  0
LINE
  5
9A31
330
99B6
100
AcDbEntity
  8
1
  6
Continuous
100
AcDbLine
 10
165.310193
 20
299.177949
 30
0.0
 11
151.0840959999999
 21
299.177949
 31
0.0
  0
LINE
  5
9A32
330
99B6
100
AcDbEntity
  8
4
  6
CENTER
100
AcDbLine
 10
171.8101929999999
 20
301.927949
 30
0.0
 11
171.8101929999999
 21
314.427949
 31
0.0
  0
CIRCLE
  5
9A33
330
99B6
100
AcDbEntity
  8
1
  6
Continuous
100
AcDbCircle
 10
171.8101929999999
 20
308.177949
 30
0.0
 40
3.25
  0
ARC
  5
9A34
330
99B6
100
AcDbEntity
  8
1
  6
Continuous
100
AcDbCircle
 10
171.310193
 20
308.677949
 30
0.0
 40
6.0
100
AcDbArc
 50
90.0
 51
180.0
  0
ARC
  5
9A35
330
99B6
100
AcDbEntity
  8
1
  6
Continuous
100
AcDbCircle
 10
151.0840959999999
 20
297.177949
 30
0.0
 40
2.0
100
AcDbArc
 50
90.0
 51
176.5136459999999
  0
LINE
  5
9A36
330
99B6
100
AcDbEntity
  8
4
  6
CENTER
100
AcDbLine
 10
39.81019299999999
 20
167.739039
 30
0.0
 11
77.31019299999998
 21
167.739039
 31
0.0
  0
LINE
  5
9A37
330
99B6
100
AcDbEntity
  8
1
  6
Continuous
100
AcDbLine
 10
69.538115
 20
205.1587419999999
 30
0.0
 11
71.53811500000002
 21
202.733742
 31
0.0
  0
LINE
  5
9A38
330
99B6
100
AcDbEntity
  8
1
  6
Continuous
100
AcDbLine
 10
71.416794
 20
205.1587419999999
 30
0.0
 11
69.41679399999999
 21
202.733742
 31
0.0
  0
LINE
  5
9A39
330
99B6
100
AcDbEntity
  8
1
  6
Continuous
100
AcDbLine
 10
44.81019299999998
 20
196.0337419999999
 30
0.0
 11
72.810193
 21
196.0337419999999
 31
0.0
  0
ARC
  5
9A3A
330
99B6
100
AcDbEntity
  8
1
  6
Continuous
100
AcDbCircle
 10
68.61849599999999
 20
199.3036009999999
 30
0.0
 40
4.265130999999998
100
AcDbArc
 50
269.208018
 51
300.9215419999998
  0
ARC
  5
9A3B
330
99B6
100
AcDbEntity
  8
1
  6
Continuous
100
AcDbCircle
 10
67.810193
 20
145.0129409999999
 30
0.0
 40
2.0
100
AcDbArc
 50
273.486354
 51
0.0
  0
ARC
  5
9A3C
330
99B6
100
AcDbEntity
  8
1
  6
Continuous
100
AcDbCircle
 10
67.810193
 20
190.465137
 30
0.0
 40
2.0
100
AcDbArc
 50
0.0
 51
86.51364599999999
  0
LINE
  5
9A3D
330
99B6
100
AcDbEntity
  8
1
  6
Continuous
100
AcDbLine
 10
40.475193
 20
205.1587419999999
 30
0.0
 11
77.145193
 21
205.1587419999999
 31
0.0
  0
LINE
  5
9A3E
330
99B6
100
AcDbEntity
  8
1
  6
Continuous
100
AcDbLine
 10
40.475193
 20
207.1587419999999
 30
0.0
 11
76.764938
 21
207.1587419999999
 31
0.0
  0
LINE
  5
9A3F
330
99B6
100
AcDbEntity
  8
1
  6
Continuous
100
AcDbLine
 10
32.31019299999999
 20
208.738742
 30
0.0
 11
85.310193
 21
208.738742
 31
0.0
  0
LINE
  5
9A40
330
99B6
100
AcDbEntity
  8
1
  6
Continuous
100
AcDbLine
 10
32.31019299999999
 20
210.738742
 30
0.0
 11
85.310193
 21
210.738742
 31
0.0
  0
LINE
  5
9A41
330
99B6
100
AcDbEntity
  8
4
  6
CENTER
100
AcDbLine
 10
58.81019300000001
 20
213.738742
 30
0.0
 11
58.81019300000001
 21
139.7390389999999
 31
0.0
  0
LINE
  5
9A42
330
99B6
100
AcDbEntity
  8
1
  6
Continuous
100
AcDbLine
 10
44.81019299999998
 20
196.0337419999999
 30
0.0
 11
44.81019299999998
 21
160.0591469999999
 31
0.0
  0
LINE
  5
9A43
330
99B6
100
AcDbEntity
  8
1
  6
Continuous
100
AcDbLine
 10
46.81019299999999
 20
196.0337419999999
 30
0.0
 11
46.81019299999999
 21
160.0591469999999
 31
0.0
  0
ARC
  5
9A44
330
99B6
100
AcDbEntity
  8
1
  6
Continuous
100
AcDbCircle
 10
66.326032
 20
178.2164209999999
 30
0.0
 40
27.5
100
AcDbArc
 50
180.0
 51
216.4817259999999
  0
LINE
  5
9A45
330
99B6
100
AcDbEntity
  8
1
  6
Continuous
100
AcDbLine
 10
47.81019299999999
 20
190.465137
 30
0.0
 11
47.81019299999999
 21
145.0129409999999
 31
0.0
  0
ARC
  5
9A46
330
99B6
100
AcDbEntity
  8
1
  6
Continuous
100
AcDbCircle
 10
58.81019300000001
 20
292.7390389999998
 30
0.0
 40
150.0
100
AcDbArc
 50
266.5136459999998
 51
273.486354
  0
ARC
  5
9A47
330
99B6
100
AcDbEntity
  8
1
  6
Continuous
100
AcDbCircle
 10
49.81019299999999
 20
145.0129409999999
 30
0.0
 40
2.0
100
AcDbArc
 50
180.0
 51
266.5136459999998
  0
LINE
  5
9A48
330
99B6
100
AcDbEntity
  8
1
  6
Continuous
100
AcDbLine
 10
43.87687699999999
 20
171.9890389999999
 30
0.0
 11
43.87687699999999
 21
163.4890389999999
 31
0.0
  0
ARC
  5
9A49
330
99B6
100
AcDbEntity
  8
1
  6
Continuous
100
AcDbCircle
 10
51.81019299999999
 20
167.739039
 30
0.0
 40
9.0
100
AcDbArc
 50
151.821357
 51
208.178643
  0
LINE
  5
9A4A
330
99B6
100
AcDbEntity
  8
1
  6
Continuous
100
AcDbLine
 10
46.96019299999998
 20
160.5781379999999
 30
0.0
 11
46.96019299999998
 21
174.8999389999999
 31
0.0
  0
LINE
  5
9A4B
330
99B6
100
AcDbEntity
  8
1
  6
Continuous
100
AcDbLine
 10
44.81019299999998
 20
160.0591469999999
 30
0.0
 11
46.81019299999999
 21
160.0591469999999
 31
0.0
  0
ARC
  5
9A4C
330
99B6
100
AcDbEntity
  8
1
  6
Continuous
100
AcDbCircle
 10
41.77151
 20
160.0591469999999
 30
0.0
 40
3.038682
100
AcDbArc
 50
0.0
 51
36.481726
  0
LINE
  5
9A4D
330
99B6
100
AcDbEntity
  8
1
  6
Continuous
100
AcDbLine
 10
43.87687699999999
 20
163.4890389999999
 30
0.0
 11
44.81019299999998
 21
163.4890389999999
 31
0.0
  0
ARC
  5
9A4E
330
99B6
100
AcDbEntity
  8
1
  6
Continuous
100
AcDbCircle
 10
47.960193
 20
160.5781379999999
 30
0.0
 40
1.0
100
AcDbArc
 50
180.0
 51
260.0
  0
LINE
  5
9A4F
330
99B6
100
AcDbEntity
  8
1
  6
Continuous
100
AcDbLine
 10
46.81019299999999
 20
164.7390389999999
 30
0.0
 11
46.96019299999998
 21
164.7390389999999
 31
0.0
  0
LINE
  5
9A50
330
99B6
100
AcDbEntity
  8
1
  6
Continuous
100
AcDbLine
 10
47.78654399999999
 20
159.593331
 30
0.0
 11
47.81019299999999
 21
159.5891609999999
 31
0.0
  0
LINE
  5
9A51
330
99B6
100
AcDbEntity
  8
1
  6
Continuous
100
AcDbLine
 10
43.87687699999999
 20
171.9890389999999
 30
0.0
 11
44.81019299999998
 21
171.9890389999999
 31
0.0
  0
LINE
  5
9A52
330
99B6
100
AcDbEntity
  8
1
  6
Continuous
100
AcDbLine
 10
46.81019299999999
 20
170.739039
 30
0.0
 11
46.96019299999998
 21
170.739039
 31
0.0
  0
ARC
  5
9A53
330
99B6
100
AcDbEntity
  8
1
  6
Continuous
100
AcDbCircle
 10
47.960193
 20
174.8999389999999
 30
0.0
 40
1.0
100
AcDbArc
 50
100.0
 51
180.0
  0
LINE
  5
9A54
330
99B6
100
AcDbEntity
  8
1
  6
Continuous
100
AcDbLine
 10
47.78654399999999
 20
175.884747
 30
0.0
 11
47.81019299999999
 21
175.8889169999999
 31
0.0
  0
LINE
  5
9A55
330
99B6
100
AcDbEntity
  8
1
  6
Continuous
100
AcDbLine
 10
32.31019299999999
 20
208.738742
 30
0.0
 11
32.31019299999999
 21
210.738742
 31
0.0
  0
LINE
  5
9A56
330
99B6
100
AcDbEntity
  8
1
  6
Continuous
100
AcDbLine
 10
38.826032
 20
200.3409739999999
 30
0.0
 11
38.826032
 21
178.2164209999999
 31
0.0
  0
LINE
  5
9A57
330
99B6
100
AcDbEntity
  8
1
  6
Continuous
100
AcDbLine
 10
48.942951
 20
195.038877
 30
0.0
 11
58.81019300000001
 21
195.038877
 31
0.0
  0
LINE
  5
9A58
330
99B6
100
AcDbEntity
  8
1
  6
Continuous
100
AcDbLine
 10
52.17044699999998
 20
194.838877
 30
0.0
 11
65.44995400000001
 21
194.838877
 31
0.0
  0
ARC
  5
9A59
330
99B6
100
AcDbEntity
  8
1
  6
Continuous
100
AcDbCircle
 10
58.81019300000001
 20
42.73903899999999
 30
0.0
 40
150.0
100
AcDbArc
 50
86.51364599999999
 51
93.486354
  0
ARC
  5
9A5A
330
99B6
100
AcDbEntity
  8
1
  6
Continuous
100
AcDbCircle
 10
49.81019299999999
 20
190.465137
 30
0.0
 40
2.0
100
AcDbArc
 50
93.486354
 51
180.0
  0
ARC
  5
9A5B
330
99B6
100
AcDbEntity
  8
1
  6
Continuous
100
AcDbCircle
 10
49.001905
 20
199.3036009999999
 30
0.0
 40
4.265130999999998
100
AcDbArc
 50
239.07821
 51
270.7919819999998
  0
ARC
  5
9A5C
330
99B6
100
AcDbEntity
  8
1
  6
Continuous
100
AcDbCircle
 10
-8.981365
 20
220.461423
 30
0.0
 40
66.30278199999999
100
AcDbArc
 50
337.266367
 51
337.453628
  0
LINE
  5
9A5D
330
99B6
100
AcDbEntity
  8
1
  6
Continuous
100
AcDbLine
 10
58.81019300000001
 20
195.038877
 30
0.0
 11
68.67744999999999
 21
195.038877
 31
0.0
  0
LINE
  5
9A5E
330
99B6
100
AcDbEntity
  8
1
  6
Continuous
100
AcDbLine
 10
56.3102
 20
194.838877
 30
0.0
 11
56.51019999999999
 21
195.038877
 31
0.0
  0
LINE
  5
9A5F
330
99B6
100
AcDbEntity
  8
1
  6
Continuous
100
AcDbLine
 10
61.3102
 20
194.838877
 30
0.0
 11
61.11019999999999
 21
195.038877
 31
0.0
  0
ARC
  5
9A60
330
99B6
100
AcDbEntity
  8
1
  6
Continuous
100
AcDbCircle
 10
126.60175
 20
220.461423
 30
0.0
 40
66.30278199999999
100
AcDbArc
 50
202.5463719999999
 51
202.7336329999998
  0
LINE
  5
9A61
330
99B6
100
AcDbEntity
  8
1
  6
Continuous
100
AcDbLine
 10
52.567552
 20
205.1587419999999
 30
0.0
 11
54.56755199999999
 21
202.733742
 31
0.0
  0
LINE
  5
9A62
330
99B6
100
AcDbEntity
  8
1
  6
Continuous
100
AcDbLine
 10
54.44623199999998
 20
205.1587419999999
 30
0.0
 11
52.44623199999999
 21
202.733742
 31
0.0
  0
LINE
  5
9A63
330
99B6
100
AcDbEntity
  8
1
  6
Continuous
100
AcDbLine
 10
40.475193
 20
202.733742
 30
0.0
 11
77.145193
 21
202.733742
 31
0.0
  0
LINE
  5
9A64
330
99B6
100
AcDbEntity
  8
1
  6
Continuous
100
AcDbLine
 10
44.08227
 20
205.1587419999999
 30
0.0
 11
46.08227
 21
202.733742
 31
0.0
  0
LINE
  5
9A65
330
99B6
100
AcDbEntity
  8
1
  6
Continuous
100
AcDbLine
 10
45.96095
 20
205.1587419999999
 30
0.0
 11
43.96094999999998
 21
202.733742
 31
0.0
  0
LINE
  5
9A66
330
99B6
100
AcDbEntity
  8
1
  6
Continuous
100
AcDbLine
 10
40.475193
 20
207.1587419999999
 30
0.0
 11
40.475193
 21
202.733742
 31
0.0
  0
LINE
  5
9A67
330
99B6
100
AcDbEntity
  8
1
  6
Continuous
100
AcDbLine
 10
40.475193
 20
204.5231789999998
 30
0.0
 11
41.83963
 21
202.733742
 31
0.0
  0
LINE
  5
9A68
330
99B6
100
AcDbEntity
  8
1
  6
Continuous
100
AcDbLine
 10
41.71830899999998
 20
205.1587419999999
 30
0.0
 11
40.475193
 21
203.490625
 31
0.0
  0
ARC
  5
9A69
330
99B6
100
AcDbEntity
  8
1
  6
Continuous
100
AcDbCircle
 10
41.22603199999999
 20
200.3409739999999
 30
0.0
 40
2.399999999999999
100
AcDbArc
 50
94.44897799999997
 51
180.0
  0
LINE
  5
9A6A
330
99B6
100
AcDbEntity
  8
1
  6
Continuous
100
AcDbLine
 10
41.96094999999997
 20
205.1587419999999
 30
0.0
 11
43.96094999999998
 21
202.733742
 31
0.0
  0
LINE
  5
9A6B
330
99B6
100
AcDbEntity
  8
1
  6
Continuous
100
AcDbLine
 10
43.83963
 20
205.1587419999999
 30
0.0
 11
41.83963
 21
202.733742
 31
0.0
  0
ARC
  5
9A6C
330
99B6
100
AcDbEntity
  8
1
  6
Continuous
100
AcDbCircle
 10
40.85544699999998
 20
210.674434
 30
0.0
 40
3.515692
100
AcDbArc
 50
213.407245
 51
270.0
  0
LINE
  5
9A6D
330
99B6
100
AcDbEntity
  8
1
  6
Continuous
100
AcDbLine
 10
48.324911
 20
205.1587419999999
 30
0.0
 11
50.324911
 21
202.733742
 31
0.0
  0
LINE
  5
9A6E
330
99B6
100
AcDbEntity
  8
1
  6
Continuous
100
AcDbLine
 10
50.203591
 20
205.1587419999999
 30
0.0
 11
48.20359100000001
 21
202.733742
 31
0.0
  0
LINE
  5
9A6F
330
99B6
100
AcDbEntity
  8
1
  6
Continuous
100
AcDbLine
 10
46.20359099999999
 20
205.1587419999999
 30
0.0
 11
48.20359100000001
 21
202.733742
 31
0.0
  0
LINE
  5
9A70
330
99B6
100
AcDbEntity
  8
1
  6
Continuous
100
AcDbLine
 10
48.08227
 20
205.1587419999999
 30
0.0
 11
46.08227
 21
202.733742
 31
0.0
  0
LINE
  5
9A71
330
99B6
100
AcDbEntity
  8
1
  6
Continuous
100
AcDbLine
 10
50.446232
 20
205.1587419999999
 30
0.0
 11
52.44623199999999
 21
202.733742
 31
0.0
  0
LINE
  5
9A72
330
99B6
100
AcDbEntity
  8
1
  6
Continuous
100
AcDbLine
 10
52.324911
 20
205.1587419999999
 30
0.0
 11
50.324911
 21
202.733742
 31
0.0
  0
LINE
  5
9A73
330
99B6
100
AcDbEntity
  8
1
  6
Continuous
100
AcDbLine
 10
61.05283299999999
 20
205.1587419999999
 30
0.0
 11
63.05283299999999
 21
202.733742
 31
0.0
  0
LINE
  5
9A74
330
99B6
100
AcDbEntity
  8
1
  6
Continuous
100
AcDbLine
 10
62.931513
 20
205.1587419999999
 30
0.0
 11
60.931513
 21
202.733742
 31
0.0
  0
LINE
  5
9A75
330
99B6
100
AcDbEntity
  8
1
  6
Continuous
100
AcDbLine
 10
56.81019299999999
 20
205.1587419999999
 30
0.0
 11
58.81019300000001
 21
202.733742
 31
0.0
  0
LINE
  5
9A76
330
99B6
100
AcDbEntity
  8
1
  6
Continuous
100
AcDbLine
 10
58.68887199999999
 20
205.1587419999999
 30
0.0
 11
56.688872
 21
202.733742
 31
0.0
  0
LINE
  5
9A77
330
99B6
100
AcDbEntity
  8
1
  6
Continuous
100
AcDbLine
 10
54.68887200000001
 20
205.1587419999999
 30
0.0
 11
56.688872
 21
202.733742
 31
0.0
  0
LINE
  5
9A78
330
99B6
100
AcDbEntity
  8
1
  6
Continuous
100
AcDbLine
 10
56.567552
 20
205.1587419999999
 30
0.0
 11
54.56755199999999
 21
202.733742
 31
0.0
  0
LINE
  5
9A79
330
99B6
100
AcDbEntity
  8
1
  6
Continuous
100
AcDbLine
 10
58.931513
 20
205.1587419999999
 30
0.0
 11
60.931513
 21
202.733742
 31
0.0
  0
LINE
  5
9A7A
330
99B6
100
AcDbEntity
  8
1
  6
Continuous
100
AcDbLine
 10
60.81019300000001
 20
205.1587419999999
 30
0.0
 11
58.81019300000001
 21
202.733742
 31
0.0
  0
LINE
  5
9A7B
330
99B6
100
AcDbEntity
  8
1
  6
Continuous
100
AcDbLine
 10
65.295474
 20
205.1587419999999
 30
0.0
 11
67.295474
 21
202.733742
 31
0.0
  0
LINE
  5
9A7C
330
99B6
100
AcDbEntity
  8
1
  6
Continuous
100
AcDbLine
 10
67.174154
 20
205.1587419999999
 30
0.0
 11
65.174154
 21
202.733742
 31
0.0
  0
LINE
  5
9A7D
330
99B6
100
AcDbEntity
  8
1
  6
Continuous
100
AcDbLine
 10
63.174154
 20
205.1587419999999
 30
0.0
 11
65.174154
 21
202.733742
 31
0.0
  0
LINE
  5
9A7E
330
99B6
100
AcDbEntity
  8
1
  6
Continuous
100
AcDbLine
 10
65.05283299999999
 20
205.1587419999999
 30
0.0
 11
63.05283299999999
 21
202.733742
 31
0.0
  0
LINE
  5
9A7F
330
99B6
100
AcDbEntity
  8
1
  6
Continuous
100
AcDbLine
 10
67.41679399999999
 20
205.1587419999999
 30
0.0
 11
69.41679399999999
 21
202.733742
 31
0.0
  0
LINE
  5
9A80
330
99B6
100
AcDbEntity
  8
1
  6
Continuous
100
AcDbLine
 10
69.295474
 20
205.1587419999999
 30
0.0
 11
67.295474
 21
202.733742
 31
0.0
  0
LINE
  5
9A81
330
99B6
100
AcDbEntity
  8
1
  6
Continuous
100
AcDbLine
 10
72.810193
 20
196.0337419999999
 30
0.0
 11
72.810193
 21
160.0591469999999
 31
0.0
  0
LINE
  5
9A82
330
99B6
100
AcDbEntity
  8
1
  6
Continuous
100
AcDbLine
 10
70.810193
 20
196.0337419999999
 30
0.0
 11
70.810193
 21
160.0591469999999
 31
0.0
  0
ARC
  5
9A83
330
99B6
100
AcDbEntity
  8
1
  6
Continuous
100
AcDbCircle
 10
51.29369
 20
178.215551
 30
0.0
 40
27.5
100
AcDbArc
 50
323.520419
 51
0.0
  0
LINE
  5
9A84
330
99B6
100
AcDbEntity
  8
1
  6
Continuous
100
AcDbLine
 10
69.81019299999998
 20
190.465137
 30
0.0
 11
69.81019299999998
 21
145.0129409999999
 31
0.0
  0
LINE
  5
9A85
330
99B6
100
AcDbEntity
  8
1
  6
Continuous
100
AcDbLine
 10
73.310193
 20
163.5890389999999
 30
0.0
 11
73.310193
 21
171.889039
 31
0.0
  0
ARC
  5
9A86
330
99B6
100
AcDbEntity
  8
1
  6
Continuous
100
AcDbCircle
 10
65.198943
 20
167.739039
 30
0.0
 40
9.11125
100
AcDbArc
 50
332.9041219999999
 51
27.095878
  0
LINE
  5
9A87
330
99B6
100
AcDbEntity
  8
1
  6
Continuous
100
AcDbLine
 10
70.66019300000002
 20
160.5781379999999
 30
0.0
 11
70.66019300000002
 21
174.8999389999999
 31
0.0
  0
ARC
  5
9A88
330
99B6
100
AcDbEntity
  8
1
  6
Continuous
100
AcDbCircle
 10
69.66019300000001
 20
160.5781379999999
 30
0.0
 40
1.0
100
AcDbArc
 50
280.0
 51
0.0
  0
LINE
  5
9A89
330
99B6
100
AcDbEntity
  8
1
  6
Continuous
100
AcDbLine
 10
70.810193
 20
160.0591469999999
 30
0.0
 11
72.810193
 21
160.0591469999999
 31
0.0
  0
ARC
  5
9A8A
330
99B6
100
AcDbEntity
  8
1
  6
Continuous
100
AcDbCircle
 10
75.84895799999998
 20
160.0591469999999
 30
0.0
 40
3.038765
100
AcDbArc
 50
143.520419
 51
180.0
  0
LINE
  5
9A8B
330
99B6
100
AcDbEntity
  8
1
  6
Continuous
100
AcDbLine
 10
70.66019300000002
 20
164.7390389999999
 30
0.0
 11
70.810193
 21
164.7390389999999
 31
0.0
  0
LINE
  5
9A8C
330
99B6
100
AcDbEntity
  8
1
  6
Continuous
100
AcDbLine
 10
72.810193
 20
163.5890389999999
 30
0.0
 11
73.310193
 21
163.5890389999999
 31
0.0
  0
LINE
  5
9A8D
330
99B6
100
AcDbEntity
  8
1
  6
Continuous
100
AcDbLine
 10
69.83384100000001
 20
159.593331
 30
0.0
 11
69.81019299999998
 21
159.5891609999999
 31
0.0
  0
LINE
  5
9A8E
330
99B6
100
AcDbEntity
  8
1
  6
Continuous
100
AcDbLine
 10
70.66019300000002
 20
170.739039
 30
0.0
 11
70.810193
 21
170.739039
 31
0.0
  0
LINE
  5
9A8F
330
99B6
100
AcDbEntity
  8
1
  6
Continuous
100
AcDbLine
 10
72.810193
 20
171.889039
 30
0.0
 11
73.310193
 21
171.889039
 31
0.0
  0
ARC
  5
9A90
330
99B6
100
AcDbEntity
  8
1
  6
Continuous
100
AcDbCircle
 10
69.66019300000001
 20
174.8999389999999
 30
0.0
 40
1.0
100
AcDbArc
 50
0.0
 51
80.0
  0
LINE
  5
9A91
330
99B6
100
AcDbEntity
  8
1
  6
Continuous
100
AcDbLine
 10
69.83384100000001
 20
175.884747
 30
0.0
 11
69.81019299999998
 21
175.8889169999999
 31
0.0
  0
LINE
  5
9A92
330
99B6
100
AcDbEntity
  8
1
  6
Continuous
100
AcDbLine
 10
78.79369
 20
200.3409739999999
 30
0.0
 11
78.79369
 21
178.215551
 31
0.0
  0
ARC
  5
9A93
330
99B6
100
AcDbEntity
  8
1
  6
Continuous
100
AcDbCircle
 10
76.39369000000002
 20
200.3409739999999
 30
0.0
 40
2.399999999999999
100
AcDbArc
 50
0.0
 51
85.551022
  0
ARC
  5
9A94
330
99B6
100
AcDbEntity
  8
1
  6
Continuous
100
AcDbCircle
 10
76.764938
 20
210.674434
 30
0.0
 40
3.515692
100
AcDbArc
 50
270.0
 51
326.5927549999998
  0
LINE
  5
9A95
330
99B6
100
AcDbEntity
  8
1
  6
Continuous
100
AcDbLine
 10
77.145193
 20
207.1587419999999
 30
0.0
 11
77.145193
 21
202.733742
 31
0.0
  0
LINE
  5
9A96
330
99B6
100
AcDbEntity
  8
1
  6
Continuous
100
AcDbLine
 10
73.780755
 20
205.1587419999999
 30
0.0
 11
75.780755
 21
202.733742
 31
0.0
  0
LINE
  5
9A97
330
99B6
100
AcDbEntity
  8
1
  6
Continuous
100
AcDbLine
 10
75.659435
 20
205.1587419999999
 30
0.0
 11
73.659435
 21
202.733742
 31
0.0
  0
LINE
  5
9A98
330
99B6
100
AcDbEntity
  8
1
  6
Continuous
100
AcDbLine
 10
71.659435
 20
205.1587419999999
 30
0.0
 11
73.659435
 21
202.733742
 31
0.0
  0
LINE
  5
9A99
330
99B6
100
AcDbEntity
  8
1
  6
Continuous
100
AcDbLine
 10
73.538115
 20
205.1587419999999
 30
0.0
 11
71.53811500000002
 21
202.733742
 31
0.0
  0
LINE
  5
9A9A
330
99B6
100
AcDbEntity
  8
1
  6
Continuous
100
AcDbLine
 10
77.145193
 20
203.490625
 30
0.0
 11
75.90207599999998
 21
205.1587419999999
 31
0.0
  0
LINE
  5
9A9B
330
99B6
100
AcDbEntity
  8
1
  6
Continuous
100
AcDbLine
 10
77.145193
 20
204.5231789999998
 30
0.0
 11
75.780755
 21
202.733742
 31
0.0
  0
LINE
  5
9A9C
330
99B6
100
AcDbEntity
  8
1
  6
Continuous
100
AcDbLine
 10
85.310193
 20
208.738742
 30
0.0
 11
85.310193
 21
210.738742
 31
0.0
  0
LINE
  5
9A9D
330
99B6
100
AcDbEntity
  8
4
  6
CENTER
100
AcDbLine
 10
314.5095149999999
 20
213.738742
 30
0.0
 11
314.5095149999999
 21
139.7390389999999
 31
0.0
  0
LINE
  5
9A9E
330
99B6
100
AcDbEntity
  8
1
  6
Continuous
100
AcDbLine
 10
303.5095149999999
 20
190.5231129999999
 30
0.0
 11
303.5095149999999
 21
145.0129409999999
 31
0.0
  0
LINE
  5
9A9F
330
99B6
100
AcDbEntity
  8
1
  6
Continuous
100
AcDbLine
 10
325.5095149999998
 20
190.5231129999999
 30
0.0
 11
325.5095149999998
 21
145.0129409999999
 31
0.0
  0
ARC
  5
9AA0
330
99B6
100
AcDbEntity
  8
1
  6
Continuous
100
AcDbCircle
 10
314.5095149999999
 20
292.7390389999998
 30
0.0
 40
150.0
100
AcDbArc
 50
266.5136459999998
 51
273.486354
  0
ARC
  5
9AA1
330
99B6
100
AcDbEntity
  8
1
  6
Continuous
100
AcDbCircle
 10
323.5095149999999
 20
145.0129409999999
 30
0.0
 40
2.0
100
AcDbArc
 50
273.486354
 51
0.0
  0
ARC
  5
9AA2
330
99B6
100
AcDbEntity
  8
1
  6
Continuous
100
AcDbCircle
 10
305.5095149999999
 20
145.0129409999999
 30
0.0
 40
2.0
100
AcDbArc
 50
180.0
 51
266.5136459999998
  0
LINE
  5
9AA3
330
99B6
100
AcDbEntity
  8
1
  6
Continuous
100
AcDbLine
 10
314.6308359999999
 20
205.1587419999999
 30
0.0
 11
316.6308359999998
 21
202.733742
 31
0.0
  0
LINE
  5
9AA4
330
99B6
100
AcDbEntity
  8
1
  6
Continuous
100
AcDbLine
 10
316.5095149999999
 20
205.1587419999999
 30
0.0
 11
314.5095149999999
 21
202.733742
 31
0.0
  0
LINE
  5
9AA5
330
99B6
100
AcDbEntity
  8
4
  6
CENTER
100
AcDbLine
 10
333.5095149999999
 20
167.739039
 30
0.0
 11
296.0095149999999
 21
167.739039
 31
0.0
  0
LINE
  5
9AA6
330
99B6
100
AcDbEntity
  8
1
  6
Continuous
100
AcDbLine
 10
341.0095149999999
 20
210.738742
 30
0.0
 11
288.0095149999998
 21
210.738742
 31
0.0
  0
LINE
  5
9AA7
330
99B6
100
AcDbEntity
  8
1
  6
Continuous
100
AcDbLine
 10
341.0095149999999
 20
208.738742
 30
0.0
 11
288.0095149999998
 21
208.738742
 31
0.0
  0
LINE
  5
9AA8
330
99B6
100
AcDbEntity
  8
1
  6
Continuous
100
AcDbLine
 10
332.844515
 20
207.1587419999999
 30
0.0
 11
296.55477
 21
207.1587419999999
 31
0.0
  0
LINE
  5
9AA9
330
99B6
100
AcDbEntity
  8
1
  6
Continuous
100
AcDbLine
 10
332.844515
 20
205.1587419999999
 30
0.0
 11
296.174515
 21
205.1587419999999
 31
0.0
  0
LINE
  5
9AAA
330
99B6
100
AcDbEntity
  8
1
  6
Continuous
100
AcDbLine
 10
334.4936759999999
 20
200.3409739999999
 30
0.0
 11
334.4936759999999
 21
178.2164209999999
 31
0.0
  0
ARC
  5
9AAB
330
99B6
100
AcDbEntity
  8
1
  6
Continuous
100
AcDbCircle
 10
306.993676
 20
178.2164209999999
 30
0.0
 40
27.5
100
AcDbArc
 50
323.518274
 51
0.0
  0
LINE
  5
9AAC
330
99B6
100
AcDbEntity
  8
1
  6
Continuous
100
AcDbLine
 10
326.359515
 20
160.5781379999999
 30
0.0
 11
326.359515
 21
174.8999389999999
 31
0.0
  0
LINE
  5
9AAD
330
99B6
100
AcDbEntity
  8
1
  6
Continuous
100
AcDbLine
 10
326.5095149999999
 20
188.9617509999999
 30
0.0
 11
326.5095149999999
 21
160.0591469999999
 31
0.0
  0
LINE
  5
9AAE
330
99B6
100
AcDbEntity
  8
1
  6
Continuous
100
AcDbLine
 10
326.5095149999999
 20
170.739039
 30
0.0
 11
326.359515
 21
170.739039
 31
0.0
  0
LINE
  5
9AAF
330
99B6
100
AcDbEntity
  8
1
  6
Continuous
100
AcDbLine
 10
325.533164
 20
159.593331
 30
0.0
 11
325.5095149999998
 21
159.5891609999999
 31
0.0
  0
LINE
  5
9AB0
330
99B6
100
AcDbEntity
  8
1
  6
Continuous
100
AcDbLine
 10
326.5095149999999
 20
164.7390389999999
 30
0.0
 11
326.359515
 21
164.7390389999999
 31
0.0
  0
ARC
  5
9AB1
330
99B6
100
AcDbEntity
  8
1
  6
Continuous
100
AcDbCircle
 10
325.3595149999998
 20
160.5781379999999
 30
0.0
 40
1.0
100
AcDbArc
 50
280.0
 51
0.0
  0
ARC
  5
9AB2
330
99B6
100
AcDbEntity
  8
1
  6
Continuous
100
AcDbCircle
 10
331.548198
 20
160.0591469999999
 30
0.0
 40
3.038682
100
AcDbArc
 50
143.5182739999999
 51
180.0
  0
LINE
  5
9AB3
330
99B6
100
AcDbEntity
  8
1
  6
Continuous
100
AcDbLine
 10
328.5095149999999
 20
160.0591469999999
 30
0.0
 11
326.5095149999999
 21
160.0591469999999
 31
0.0
  0
LINE
  5
9AB4
330
99B6
100
AcDbEntity
  8
1
  6
Continuous
100
AcDbLine
 10
325.533164
 20
175.884747
 30
0.0
 11
325.5095149999998
 21
175.8889169999999
 31
0.0
  0
ARC
  5
9AB5
330
99B6
100
AcDbEntity
  8
1
  6
Continuous
100
AcDbCircle
 10
325.3595149999998
 20
174.8999389999999
 30
0.0
 40
1.0
100
AcDbArc
 50
0.0
 51
80.0
  0
LINE
  5
9AB6
330
99B6
100
AcDbEntity
  8
1
  6
Continuous
100
AcDbLine
 10
329.480078
 20
205.1587419999999
 30
0.0
 11
331.480078
 21
202.733742
 31
0.0
  0
ARC
  5
9AB7
330
99B6
100
AcDbEntity
  8
1
  6
Continuous
100
AcDbCircle
 10
332.4642609999999
 20
210.674434
 30
0.0
 40
3.515692
100
AcDbArc
 50
270.0
 51
326.5927549999998
  0
ARC
  5
9AB8
330
99B6
100
AcDbEntity
  8
1
  6
Continuous
100
AcDbCircle
 10
332.0936759999999
 20
200.3409739999999
 30
0.0
 40
2.399999999999999
100
AcDbArc
 50
0.0
 51
85.551022
  0
LINE
  5
9AB9
330
99B6
100
AcDbEntity
  8
1
  6
Continuous
100
AcDbLine
 10
331.601399
 20
205.1587419999999
 30
0.0
 11
332.844515
 21
203.490625
 31
0.0
  0
LINE
  5
9ABA
330
99B6
100
AcDbEntity
  8
1
  6
Continuous
100
AcDbLine
 10
332.844515
 20
204.5231789999998
 30
0.0
 11
331.480078
 21
202.733742
 31
0.0
  0
LINE
  5
9ABB
330
99B6
100
AcDbEntity
  8
1
  6
Continuous
100
AcDbLine
 10
332.844515
 20
207.1587419999999
 30
0.0
 11
332.844515
 21
202.733742
 31
0.0
  0
LINE
  5
9ABC
330
99B6
100
AcDbEntity
  8
1
  6
Continuous
100
AcDbLine
 10
341.0095149999999
 20
208.738742
 30
0.0
 11
341.0095149999999
 21
210.738742
 31
0.0
  0
LINE
  5
9ABD
330
99B6
100
AcDbEntity
  8
1
  6
Continuous
100
AcDbLine
 10
316.752156
 20
205.1587419999999
 30
0.0
 11
318.752156
 21
202.733742
 31
0.0
  0
LINE
  5
9ABE
330
99B6
100
AcDbEntity
  8
1
  6
Continuous
100
AcDbLine
 10
318.6308359999998
 20
205.1587419999999
 30
0.0
 11
316.6308359999998
 21
202.733742
 31
0.0
  0
LINE
  5
9ABF
330
99B6
100
AcDbEntity
  8
1
  6
Continuous
100
AcDbLine
 10
320.9947969999999
 20
205.1587419999999
 30
0.0
 11
322.994797
 21
202.733742
 31
0.0
  0
LINE
  5
9AC0
330
99B6
100
AcDbEntity
  8
1
  6
Continuous
100
AcDbLine
 10
322.873476
 20
205.1587419999999
 30
0.0
 11
320.873476
 21
202.733742
 31
0.0
  0
LINE
  5
9AC1
330
99B6
100
AcDbEntity
  8
1
  6
Continuous
100
AcDbLine
 10
325.237438
 20
205.1587419999999
 30
0.0
 11
327.237438
 21
202.733742
 31
0.0
  0
LINE
  5
9AC2
330
99B6
100
AcDbEntity
  8
1
  6
Continuous
100
AcDbLine
 10
327.1161169999999
 20
205.1587419999999
 30
0.0
 11
325.1161169999999
 21
202.733742
 31
0.0
  0
LINE
  5
9AC3
330
99B6
100
AcDbEntity
  8
1
  6
Continuous
100
AcDbLine
 10
323.116117
 20
205.1587419999999
 30
0.0
 11
325.1161169999999
 21
202.733742
 31
0.0
  0
LINE
  5
9AC4
330
99B6
100
AcDbEntity
  8
1
  6
Continuous
100
AcDbLine
 10
324.994797
 20
205.1587419999999
 30
0.0
 11
322.994797
 21
202.733742
 31
0.0
  0
LINE
  5
9AC5
330
99B6
100
AcDbEntity
  8
1
  6
Continuous
100
AcDbLine
 10
327.358758
 20
205.1587419999999
 30
0.0
 11
329.358758
 21
202.733742
 31
0.0
  0
LINE
  5
9AC6
330
99B6
100
AcDbEntity
  8
1
  6
Continuous
100
AcDbLine
 10
329.237438
 20
205.1587419999999
 30
0.0
 11
327.237438
 21
202.733742
 31
0.0
  0
LINE
  5
9AC7
330
99B6
100
AcDbEntity
  8
1
  6
Continuous
100
AcDbLine
 10
318.873476
 20
205.1587419999999
 30
0.0
 11
320.873476
 21
202.733742
 31
0.0
  0
LINE
  5
9AC8
330
99B6
100
AcDbEntity
  8
1
  6
Continuous
100
AcDbLine
 10
320.7521559999999
 20
205.1587419999999
 30
0.0
 11
318.752156
 21
202.733742
 31
0.0
  0
LINE
  5
9AC9
330
99B6
100
AcDbEntity
  8
1
  6
Continuous
100
AcDbLine
 10
331.358758
 20
205.1587419999999
 30
0.0
 11
329.358758
 21
202.733742
 31
0.0
  0
LINE
  5
9ACA
330
99B6
100
AcDbEntity
  8
1
  6
Continuous
100
AcDbLine
 10
294.526018
 20
200.3409739999999
 30
0.0
 11
294.526018
 21
178.215551
 31
0.0
  0
ARC
  5
9ACB
330
99B6
100
AcDbEntity
  8
1
  6
Continuous
100
AcDbCircle
 10
322.026018
 20
178.215551
 30
0.0
 40
27.5
100
AcDbArc
 50
180.0
 51
216.479581
  0
LINE
  5
9ACC
330
99B6
100
AcDbEntity
  8
1
  6
Continuous
100
AcDbLine
 10
302.6595149999999
 20
160.5781379999999
 30
0.0
 11
302.6595149999999
 21
174.8999389999999
 31
0.0
  0
LINE
  5
9ACD
330
99B6
100
AcDbEntity
  8
1
  6
Continuous
100
AcDbLine
 10
302.5095149999998
 20
188.9617509999999
 30
0.0
 11
302.5095149999998
 21
160.0591469999999
 31
0.0
  0
LINE
  5
9ACE
330
99B6
100
AcDbEntity
  8
1
  6
Continuous
100
AcDbLine
 10
302.6595149999999
 20
170.739039
 30
0.0
 11
302.5095149999998
 21
170.739039
 31
0.0
  0
LINE
  5
9ACF
330
99B6
100
AcDbEntity
  8
1
  6
Continuous
100
AcDbLine
 10
303.4858669999999
 20
159.593331
 30
0.0
 11
303.5095149999999
 21
159.5891609999999
 31
0.0
  0
LINE
  5
9AD0
330
99B6
100
AcDbEntity
  8
1
  6
Continuous
100
AcDbLine
 10
302.6595149999999
 20
164.7390389999999
 30
0.0
 11
302.5095149999998
 21
164.7390389999999
 31
0.0
  0
ARC
  5
9AD1
330
99B6
100
AcDbEntity
  8
1
  6
Continuous
100
AcDbCircle
 10
297.47075
 20
160.0591469999999
 30
0.0
 40
3.038765
100
AcDbArc
 50
0.0
 51
36.479581
  0
LINE
  5
9AD2
330
99B6
100
AcDbEntity
  8
1
  6
Continuous
100
AcDbLine
 10
302.5095149999998
 20
160.0591469999999
 30
0.0
 11
300.5095149999998
 21
160.0591469999999
 31
0.0
  0
ARC
  5
9AD3
330
99B6
100
AcDbEntity
  8
1
  6
Continuous
100
AcDbCircle
 10
303.659515
 20
160.5781379999999
 30
0.0
 40
1.0
100
AcDbArc
 50
180.0
 51
260.0
  0
LINE
  5
9AD4
330
99B6
100
AcDbEntity
  8
1
  6
Continuous
100
AcDbLine
 10
303.4858669999999
 20
175.884747
 30
0.0
 11
303.5095149999999
 21
175.8889169999999
 31
0.0
  0
ARC
  5
9AD5
330
99B6
100
AcDbEntity
  8
1
  6
Continuous
100
AcDbCircle
 10
303.659515
 20
174.8999389999999
 30
0.0
 40
1.0
100
AcDbArc
 50
100.0
 51
180.0
  0
LINE
  5
9AD6
330
99B6
100
AcDbEntity
  8
1
  6
Continuous
100
AcDbLine
 10
297.660273
 20
205.1587419999999
 30
0.0
 11
299.660273
 21
202.733742
 31
0.0
  0
LINE
  5
9AD7
330
99B6
100
AcDbEntity
  8
1
  6
Continuous
100
AcDbLine
 10
299.538953
 20
205.1587419999999
 30
0.0
 11
297.538953
 21
202.733742
 31
0.0
  0
LINE
  5
9AD8
330
99B6
100
AcDbEntity
  8
1
  6
Continuous
100
AcDbLine
 10
332.279847
 20
202.733742
 30
0.0
 11
296.174515
 21
202.733742
 31
0.0
  0
LINE
  5
9AD9
330
99B6
100
AcDbEntity
  8
1
  6
Continuous
100
AcDbLine
 10
299.7815929999999
 20
205.1587419999999
 30
0.0
 11
301.7815929999999
 21
202.733742
 31
0.0
  0
LINE
  5
9ADA
330
99B6
100
AcDbEntity
  8
1
  6
Continuous
100
AcDbLine
 10
301.660273
 20
205.1587419999999
 30
0.0
 11
299.660273
 21
202.733742
 31
0.0
  0
LINE
  5
9ADB
330
99B6
100
AcDbEntity
  8
1
  6
Continuous
100
AcDbLine
 10
304.0242339999999
 20
205.1587419999999
 30
0.0
 11
306.0242339999998
 21
202.733742
 31
0.0
  0
LINE
  5
9ADC
330
99B6
100
AcDbEntity
  8
1
  6
Continuous
100
AcDbLine
 10
305.902914
 20
205.1587419999999
 30
0.0
 11
303.902914
 21
202.733742
 31
0.0
  0
LINE
  5
9ADD
330
99B6
100
AcDbEntity
  8
1
  6
Continuous
100
AcDbLine
 10
308.266875
 20
205.1587419999999
 30
0.0
 11
310.266875
 21
202.733742
 31
0.0
  0
LINE
  5
9ADE
330
99B6
100
AcDbEntity
  8
1
  6
Continuous
100
AcDbLine
 10
310.1455539999999
 20
205.1587419999999
 30
0.0
 11
308.145554
 21
202.733742
 31
0.0
  0
LINE
  5
9ADF
330
99B6
100
AcDbEntity
  8
1
  6
Continuous
100
AcDbLine
 10
306.145554
 20
205.1587419999999
 30
0.0
 11
308.145554
 21
202.733742
 31
0.0
  0
LINE
  5
9AE0
330
99B6
100
AcDbEntity
  8
1
  6
Continuous
100
AcDbLine
 10
308.0242339999998
 20
205.1587419999999
 30
0.0
 11
306.0242339999998
 21
202.733742
 31
0.0
  0
LINE
  5
9AE1
330
99B6
100
AcDbEntity
  8
1
  6
Continuous
100
AcDbLine
 10
310.3881949999999
 20
205.1587419999999
 30
0.0
 11
312.3881949999999
 21
202.733742
 31
0.0
  0
LINE
  5
9AE2
330
99B6
100
AcDbEntity
  8
1
  6
Continuous
100
AcDbLine
 10
312.266875
 20
205.1587419999999
 30
0.0
 11
310.266875
 21
202.733742
 31
0.0
  0
LINE
  5
9AE3
330
99B6
100
AcDbEntity
  8
1
  6
Continuous
100
AcDbLine
 10
301.902914
 20
205.1587419999999
 30
0.0
 11
303.902914
 21
202.733742
 31
0.0
  0
LINE
  5
9AE4
330
99B6
100
AcDbEntity
  8
1
  6
Continuous
100
AcDbLine
 10
303.7815929999999
 20
205.1587419999999
 30
0.0
 11
301.7815929999999
 21
202.733742
 31
0.0
  0
LINE
  5
9AE5
330
99B6
100
AcDbEntity
  8
1
  6
Continuous
100
AcDbLine
 10
312.5095149999999
 20
205.1587419999999
 30
0.0
 11
314.5095149999999
 21
202.733742
 31
0.0
  0
LINE
  5
9AE6
330
99B6
100
AcDbEntity
  8
1
  6
Continuous
100
AcDbLine
 10
314.3881949999999
 20
205.1587419999999
 30
0.0
 11
312.3881949999999
 21
202.733742
 31
0.0
  0
LINE
  5
9AE7
330
99B6
100
AcDbEntity
  8
1
  6
Continuous
100
AcDbLine
 10
288.0095149999998
 20
208.738742
 30
0.0
 11
288.0095149999998
 21
210.738742
 31
0.0
  0
LINE
  5
9AE8
330
99B6
100
AcDbEntity
  8
1
  6
Continuous
100
AcDbLine
 10
296.174515
 20
204.5231789999998
 30
0.0
 11
297.538953
 21
202.733742
 31
0.0
  0
LINE
  5
9AE9
330
99B6
100
AcDbEntity
  8
1
  6
Continuous
100
AcDbLine
 10
296.174515
 20
203.490625
 30
0.0
 11
297.4176319999999
 21
205.1587419999999
 31
0.0
  0
LINE
  5
9AEA
330
99B6
100
AcDbEntity
  8
1
  6
Continuous
100
AcDbLine
 10
296.174515
 20
207.1587419999999
 30
0.0
 11
296.174515
 21
202.733742
 31
0.0
  0
ARC
  5
9AEB
330
99B6
100
AcDbEntity
  8
1
  6
Continuous
100
AcDbCircle
 10
296.55477
 20
210.674434
 30
0.0
 40
3.515692
100
AcDbArc
 50
213.407245
 51
270.0
  0
ARC
  5
9AEC
330
99B6
100
AcDbEntity
  8
1
  6
Continuous
100
AcDbCircle
 10
296.926018
 20
200.3409739999999
 30
0.0
 40
2.399999999999999
100
AcDbArc
 50
94.44897799999997
 51
180.0
  0
LINE
  5
9AED
330
99B6
100
AcDbEntity
  8
1
  6
Continuous
100
AcDbLine
 10
196.5362899999998
 20
66.467066
 30
0.0
 11
151.0840959999999
 21
66.467066
 31
0.0
  0
LINE
  5
9AEE
330
99B6
100
AcDbEntity
  8
1
  6
Continuous
100
AcDbLine
 10
196.5362899999998
 20
88.467066
 30
0.0
 11
151.0840959999999
 21
88.467066
 31
0.0
  0
LINE
  5
9AEF
330
99B6
100
AcDbEntity
  8
4
  6
CENTER
100
AcDbLine
 10
221.159854
 20
77.467066
 30
0.0
 11
145.8101929999999
 21
77.467066
 31
0.0
  0
ARC
  5
9AF0
330
99B6
100
AcDbEntity
  8
1
  6
Continuous
100
AcDbCircle
 10
298.810193
 20
77.467066
 30
0.0
 40
150.0
100
AcDbArc
 50
176.5136459999999
 51
183.486354
  0
ARC
  5
9AF1
330
99B6
100
AcDbEntity
  8
1
  6
Continuous
100
AcDbCircle
 10
151.0840959999999
 20
86.46706599999998
 30
0.0
 40
2.0
100
AcDbArc
 50
90.0
 51
176.5136459999999
  0
ARC
  5
9AF2
330
99B6
100
AcDbEntity
  8
1
  6
Continuous
100
AcDbCircle
 10
151.0840959999999
 20
68.467066
 30
0.0
 40
2.0
100
AcDbArc
 50
183.486354
 51
270.0
  0
ARC
  5
9AF3
330
99B6
100
AcDbEntity
  8
1
  6
Continuous
100
AcDbCircle
 10
212.310193
 20
56.967066
 30
0.0
 40
6.0
100
AcDbArc
 50
270.0
 51
0.0
  0
LINE
  5
9AF4
330
99B6
100
AcDbEntity
  8
4
  6
CENTER
100
AcDbLine
 10
218.060193
 20
57.467066
 30
0.0
 11
205.5601929999999
 21
57.467066
 31
0.0
  0
LINE
  5
9AF5
330
99B6
100
AcDbEntity
  8
4
  6
CENTER
100
AcDbLine
 10
218.060193
 20
97.46706600000001
 30
0.0
 11
205.5601929999999
 21
97.46706600000001
 31
0.0
  0
ARC
  5
9AF6
330
99B6
100
AcDbEntity
  8
1
  6
Continuous
100
AcDbCircle
 10
212.310193
 20
97.967066
 30
0.0
 40
6.0
100
AcDbArc
 50
0.0
 51
90.0
  0
LINE
  5
9AF7
330
99B6
100
AcDbEntity
  8
1
  6
Continuous
100
AcDbLine
 10
165.310193
 20
97.967066
 30
0.0
 11
165.310193
 21
88.467066
 31
0.0
  0
LINE
  5
9AF8
330
99B6
100
AcDbEntity
  8
4
  6
CENTER
100
AcDbLine
 10
191.8101929999999
 20
106.9670659999998
 30
0.0
 11
191.8101929999999
 21
47.96706599999999
 31
0.0
  0
LINE
  5
9AF9
330
99B6
100
AcDbEntity
  8
1
  6
Continuous
100
AcDbLine
 10
212.310193
 20
103.967066
 30
0.0
 11
171.310193
 21
103.967066
 31
0.0
  0
LINE
  5
9AFA
330
99B6
100
AcDbEntity
  8
4
  6
CENTER
100
AcDbLine
 10
171.8101929999999
 20
103.717066
 30
0.0
 11
171.8101929999999
 21
91.21706600000001
 31
0.0
  0
ARC
  5
9AFB
330
99B6
100
AcDbEntity
  8
1
  6
Continuous
100
AcDbCircle
 10
171.310193
 20
97.967066
 30
0.0
 40
6.0
100
AcDbArc
 50
90.0
 51
180.0
  0
LINE
  5
9AFC
330
99B6
100
AcDbEntity
  8
4
  6
CENTER
100
AcDbLine
 10
178.0601929999999
 20
97.46706600000001
 30
0.0
 11
165.5601929999999
 21
97.46706600000001
 31
0.0
  0
CIRCLE
  5
9AFD
330
99B6
100
AcDbEntity
  8
1
  6
Continuous
100
AcDbCircle
 10
171.8101929999999
 20
97.46706600000001
 30
0.0
 40
3.25
  0
LINE
  5
9AFE
330
99B6
100
AcDbEntity
  8
4
  6
CENTER
100
AcDbLine
 10
211.810193
 20
103.717066
 30
0.0
 11
211.810193
 21
91.21706600000001
 31
0.0
  0
CIRCLE
  5
9AFF
330
99B6
100
AcDbEntity
  8
1
  6
Continuous
100
AcDbCircle
 10
211.810193
 20
97.46706600000001
 30
0.0
 40
3.25
  0
LINE
  5
9B00
330
99B6
100
AcDbEntity
  8
1
  6
Continuous
100
AcDbLine
 10
212.310193
 20
50.967066
 30
0.0
 11
171.310193
 21
50.967066
 31
0.0
  0
CIRCLE
  5
9B01
330
99B6
100
AcDbEntity
  8
1
  6
Continuous
100
AcDbCircle
 10
171.8101929999999
 20
57.467066
 30
0.0
 40
3.25
  0
LINE
  5
9B02
330
99B6
100
AcDbEntity
  8
4
  6
CENTER
100
AcDbLine
 10
171.8101929999999
 20
63.717066
 30
0.0
 11
171.8101929999999
 21
51.21706599999999
 31
0.0
  0
ARC
  5
9B03
330
99B6
100
AcDbEntity
  8
1
  6
Continuous
100
AcDbCircle
 10
171.310193
 20
56.967066
 30
0.0
 40
6.0
100
AcDbArc
 50
180.0
 51
270.0
  0
LINE
  5
9B04
330
99B6
100
AcDbEntity
  8
4
  6
CENTER
100
AcDbLine
 10
178.0601929999999
 20
57.467066
 30
0.0
 11
165.5601929999999
 21
57.467066
 31
0.0
  0
CIRCLE
  5
9B05
330
99B6
100
AcDbEntity
  8
1
  6
Continuous
100
AcDbCircle
 10
211.810193
 20
57.467066
 30
0.0
 40
3.25
  0
LINE
  5
9B06
330
99B6
100
AcDbEntity
  8
4
  6
CENTER
100
AcDbLine
 10
211.810193
 20
63.717066
 30
0.0
 11
211.810193
 21
51.21706599999999
 31
0.0
  0
LINE
  5
9B07
330
99B6
100
AcDbEntity
  8
1
  6
Continuous
100
AcDbLine
 10
218.310193
 20
97.967066
 30
0.0
 11
218.310193
 21
56.967066
 31
0.0
  0
ARC
  5
9B08
330
99B6
100
AcDbEntity
  8
1
  6
Continuous
100
AcDbCircle
 10
196.5362899999998
 20
86.46706599999998
 30
0.0
 40
2.0
100
AcDbArc
 50
3.486353999999998
 51
90.0
  0
ARC
  5
9B09
330
99B6
100
AcDbEntity
  8
1
  6
Continuous
100
AcDbCircle
 10
48.810193
 20
77.467066
 30
0.0
 40
150.0
100
AcDbArc
 50
356.513646
 51
3.486353999999998
  0
ARC
  5
9B0A
330
99B6
100
AcDbEntity
  8
1
  6
Continuous
100
AcDbCircle
 10
196.5362899999998
 20
68.467066
 30
0.0
 40
2.0
100
AcDbArc
 50
270.0
 51
356.513646
  0
LINE
  5
9B0B
330
99B6
100
AcDbEntity
  8
1
  6
Continuous
100
AcDbLine
 10
165.310193
 20
66.467066
 30
0.0
 11
165.310193
 21
56.967066
 31
0.0
  0
LINE
  5
9B0C
330
99B6
100
AcDbEntity
  8
1
  6
Continuous
100
AcDbLine
 10
165.412132
 20
89.467066
 30
0.0
 11
165.412132
 21
91.46706599999999
 31
0.0
  0
LINE
  5
9B0D
330
99B6
100
AcDbEntity
  8
1
  6
Continuous
100
AcDbLine
 10
175.586746
 20
89.467066
 30
0.0
 11
165.412132
 21
89.467066
 31
0.0
  0
LINE
  5
9B0E
330
99B6
100
AcDbEntity
  8
1
  6
Continuous
100
AcDbLine
 10
175.586746
 20
91.46706599999999
 30
0.0
 11
165.412132
 21
91.46706599999999
 31
0.0
  0
ARC
  5
9B0F
330
99B6
100
AcDbEntity
  8
1
  6
Continuous
100
AcDbCircle
 10
166.6492929999998
 20
88.31706599999998
 30
0.0
 40
1.0
100
AcDbArc
 50
90.0
 51
170.0
  0
ARC
  5
9B10
330
99B6
100
AcDbEntity
  8
1
  6
Continuous
100
AcDbCircle
 10
173.810193
 20
83.855816
 30
0.0
 40
9.11125
100
AcDbArc
 50
63.582931
 51
117.095878
  0
LINE
  5
9B11
330
99B6
100
AcDbEntity
  8
1
  6
Continuous
100
AcDbLine
 10
169.6601929999999
 20
91.46706599999999
 30
0.0
 11
169.6601929999999
 21
91.967066
 31
0.0
  0
LINE
  5
9B12
330
99B6
100
AcDbEntity
  8
1
  6
Continuous
100
AcDbLine
 10
177.7661949999999
 20
91.967066
 30
0.0
 11
169.6601929999999
 21
91.967066
 31
0.0
  0
LINE
  5
9B13
330
99B6
100
AcDbEntity
  8
1
  6
Continuous
100
AcDbLine
 10
180.971094
 20
89.31706599999998
 30
0.0
 11
166.6492929999998
 21
89.31706599999998
 31
0.0
  0
LINE
  5
9B14
330
99B6
100
AcDbEntity
  8
1
  6
Continuous
100
AcDbLine
 10
170.8101929999999
 20
89.31706599999998
 30
0.0
 11
170.8101929999999
 21
89.467066
 31
0.0
  0
LINE
  5
9B15
330
99B6
100
AcDbEntity
  8
1
  6
Continuous
100
AcDbLine
 10
181.955901
 20
88.49071399999997
 30
0.0
 11
181.9600709999999
 21
88.467066
 31
0.0
  0
LINE
  5
9B16
330
99B6
100
AcDbEntity
  8
1
  6
Continuous
100
AcDbLine
 10
176.810193
 20
89.31706599999998
 30
0.0
 11
176.810193
 21
89.57481099999998
 31
0.0
  0
ARC
  5
9B17
330
99B6
100
AcDbEntity
  8
1
  6
Continuous
100
AcDbCircle
 10
180.971094
 20
88.31706599999998
 30
0.0
 40
1.0
100
AcDbArc
 50
10.0
 51
90.0
  0
LINE
  5
9B18
330
99B6
100
AcDbEntity
  8
1
  6
Continuous
100
AcDbLine
 10
165.664485
 20
88.49071399999997
 30
0.0
 11
165.660315
 21
88.467066
 31
0.0
  0
LINE
  5
9B19
330
99B6
100
AcDbEntity
  8
1
  6
Continuous
100
AcDbLine
 10
165.660315
 20
66.467066
 30
0.0
 11
181.9559019999999
 21
66.467066
 31
0.0
  0
LINE
  5
9B1A
330
99B6
100
AcDbEntity
  8
1
  6
Continuous
100
AcDbLine
 10
180.971094
 20
65.61706599999999
 30
0.0
 11
166.6492929999998
 21
65.61706599999999
 31
0.0
  0
LINE
  5
9B1B
330
99B6
100
AcDbEntity
  8
1
  6
Continuous
100
AcDbLine
 10
170.8101929999999
 20
65.467066
 30
0.0
 11
170.8101929999999
 21
65.61706599999999
 31
0.0
  0
LINE
  5
9B1C
330
99B6
100
AcDbEntity
  8
1
  6
Continuous
100
AcDbLine
 10
169.560193
 20
62.53375
 30
0.0
 11
169.560193
 21
63.467066
 31
0.0
  0
LINE
  5
9B1D
330
99B6
100
AcDbEntity
  8
1
  6
Continuous
100
AcDbLine
 10
181.955901
 20
66.44341700000001
 30
0.0
 11
181.9600709999999
 21
66.467066
 31
0.0
  0
LINE
  5
9B1E
330
99B6
100
AcDbEntity
  8
1
  6
Continuous
100
AcDbLine
 10
176.810193
 20
65.359321
 30
0.0
 11
176.810193
 21
65.61706599999999
 31
0.0
  0
ARC
  5
9B1F
330
99B6
100
AcDbEntity
  8
1
  6
Continuous
100
AcDbCircle
 10
180.971094
 20
66.61706600000001
 30
0.0
 40
1.0
100
AcDbArc
 50
270.0
 51
350.0
  0
LINE
  5
9B20
330
99B6
100
AcDbEntity
  8
1
  6
Continuous
100
AcDbLine
 10
178.0601929999999
 20
62.53375
 30
0.0
 11
178.0601929999999
 21
62.812415
 31
0.0
  0
LINE
  5
9B21
330
99B6
100
AcDbEntity
  8
1
  6
Continuous
100
AcDbLine
 10
169.560193
 20
62.53375
 30
0.0
 11
178.0601929999999
 21
62.53375
 31
0.0
  0
ARC
  5
9B22
330
99B6
100
AcDbEntity
  8
1
  6
Continuous
100
AcDbCircle
 10
173.810193
 20
70.467066
 30
0.0
 40
9.0
100
AcDbArc
 50
241.8213569999999
 51
298.178643
  0
LINE
  5
9B23
330
99B6
100
AcDbEntity
  8
1
  6
Continuous
100
AcDbLine
 10
165.664485
 20
66.44341700000001
 30
0.0
 11
165.660315
 21
66.467066
 31
0.0
  0
ARC
  5
9B24
330
99B6
100
AcDbEntity
  8
1
  6
Continuous
100
AcDbCircle
 10
166.6492929999998
 20
66.61706600000001
 30
0.0
 40
1.0
100
AcDbArc
 50
190.0
 51
270.0
  0
LINE
  5
9B25
330
99B6
100
AcDbEntity
  8
1
  6
Continuous
100
AcDbLine
 10
175.586746
 20
63.467066
 30
0.0
 11
165.412132
 21
63.467066
 31
0.0
  0
LINE
  5
9B26
330
99B6
100
AcDbEntity
  8
1
  6
Continuous
100
AcDbLine
 10
175.586746
 20
65.467066
 30
0.0
 11
165.412132
 21
65.467066
 31
0.0
  0
LINE
  5
9B27
330
99B6
100
AcDbEntity
  8
1
  6
Continuous
100
AcDbLine
 10
165.412132
 20
65.467066
 30
0.0
 11
165.412132
 21
63.467066
 31
0.0
  0
LINE
  5
9B28
330
99B6
100
AcDbEntity
  8
4
  6
CENTER
100
AcDbLine
 10
173.810193
 20
47.96706599999999
 30
0.0
 11
173.810193
 21
106.9670659999998
 31
0.0
  0
LINE
  5
9B29
330
99B6
100
AcDbEntity
  8
4
  6
CENTER
100
AcDbLine
 10
173.810193
 20
258.677949
 30
0.0
 11
173.810193
 21
317.677949
 31
0.0
  0
ARC
  5
9B2A
330
99B6
100
AcDbEntity
  8
1
  6
Continuous
100
AcDbCircle
 10
191.8101929999999
 20
77.467066
 30
0.0
 40
12.0
100
AcDbArc
 50
246.4435359999999
 51
293.5564639999999
  0
ARC
  5
9B2B
330
99B6
100
AcDbEntity
  8
1
  6
Continuous
100
AcDbCircle
 10
191.8101929999999
 20
77.467066
 30
0.0
 40
12.0
100
AcDbArc
 50
66.44353599999999
 51
113.556464
  0
ARC
  5
9B2C
330
99B6
100
AcDbEntity
  8
1
  6
Continuous
100
AcDbCircle
 10
191.8101929999999
 20
77.467066
 30
0.0
 40
12.0
100
AcDbArc
 50
303.325733
 51
56.674267
  0
LINE
  5
9B2D
330
99B6
100
AcDbEntity
  8
1
  6
Continuous
100
AcDbLine
 10
171.8261929999999
 20
196.0337419999999
 30
0.0
 11
171.8261929999999
 21
200.8699259999999
 31
0.0
  0
LINE
  5
9B2E
330
99B6
100
AcDbEntity
  8
1
  6
Continuous
100
AcDbLine
 10
211.794193
 20
196.829442
 30
0.0
 11
211.794193
 21
200.8728749999999
 31
0.0
  0
ARC
  5
9B2F
330
99B6
100
AcDbEntity
  8
1
  6
Continuous
100
AcDbCircle
 10
191.8101929999999
 20
77.467066
 30
0.0
 40
19.984
100
AcDbArc
 50
229.5071240000001
 51
130.4928759999999
  0
ARC
  5
9B30
330
99B6
100
AcDbEntity
  8
1
  6
Continuous
100
AcDbCircle
 10
191.8101929999999
 20
77.467066
 30
0.0
 40
17.984
100
AcDbArc
 50
229.5071240000001
 51
130.4928759999999
  0
ARC
  5
9B31
330
99B6
100
AcDbEntity
  8
1
  6
Continuous
100
AcDbCircle
 10
283.863471
 20
157.85351
 30
0.0
 40
53.94802199999999
100
AcDbArc
 50
22.21527
 51
41.77500999999999
  0
ARC
  5
9B32
330
99B6
100
AcDbEntity
  8
1
  6
Continuous
100
AcDbCircle
 10
320.367273
 20
190.463037
 30
0.0
 40
5.0
100
AcDbArc
 50
41.77500999999999
 51
67.87841800000001
  0
ARC
  5
9B33
330
99B6
100
AcDbEntity
  8
1
  6
Continuous
100
AcDbCircle
 10
262.729799
 20
149.213874
 30
0.0
 40
75.15148700000001
100
AcDbArc
 50
22.29494499999999
 51
37.626738
  0
ARC
  5
9B34
330
99B6
100
AcDbEntity
  8
1
  6
Continuous
100
AcDbCircle
 10
327.326534
 20
175.603971
 30
0.0
 40
7.0
100
AcDbArc
 50
352.678513
 51
22.21527
  0
ARC
  5
9B35
330
99B6
100
AcDbEntity
  8
1
  6
Continuous
100
AcDbCircle
 10
331.548198
 20
160.0591469999999
 30
0.0
 40
5.038681999999997
100
AcDbArc
 50
143.5182739999999
 51
180.0
  0
ARC
  5
9B36
330
99B6
100
AcDbEntity
  8
1
  6
Continuous
100
AcDbCircle
 10
310.176432
 20
177.476283
 30
0.0
 40
22.53821999999999
100
AcDbArc
 50
320.2186219999999
 51
354.6058109999998
  0
ARC
  5
9B37
330
99B6
100
AcDbEntity
  8
1
  6
Continuous
100
AcDbCircle
 10
327.636984
 20
175.827561
 30
0.0
 40
5.0
100
AcDbArc
 50
354.6058109999998
 51
22.29494499999999
  0
ARC
  5
9B38
330
99B6
100
AcDbEntity
  8
1
  6
Continuous
100
AcDbCircle
 10
366.2892319999999
 20
149.213874
 30
0.0
 40
75.15148700000001
100
AcDbArc
 50
142.373262
 51
157.7050549999999
  0
ARC
  5
9B39
330
99B6
100
AcDbEntity
  8
1
  6
Continuous
100
AcDbCircle
 10
345.1555599999999
 20
157.85351
 30
0.0
 40
53.94802199999999
100
AcDbArc
 50
138.2249899999999
 51
157.7847299999999
  0
ARC
  5
9B3A
330
99B6
100
AcDbEntity
  8
1
  6
Continuous
100
AcDbCircle
 10
301.692496
 20
175.603971
 30
0.0
 40
7.0
100
AcDbArc
 50
157.7847299999999
 51
187.3214869999999
  0
ARC
  5
9B3B
330
99B6
100
AcDbEntity
  8
1
  6
Continuous
100
AcDbCircle
 10
301.382046
 20
175.827561
 30
0.0
 40
5.0
100
AcDbArc
 50
157.7050549999999
 51
185.3941889999999
  0
ARC
  5
9B3C
330
99B6
100
AcDbEntity
  8
1
  6
Continuous
100
AcDbCircle
 10
318.842599
 20
177.476283
 30
0.0
 40
22.53821999999999
100
AcDbArc
 50
185.3941889999999
 51
219.781378
  0
ARC
  5
9B3D
330
99B6
100
AcDbEntity
  8
1
  6
Continuous
100
AcDbCircle
 10
297.4708319999999
 20
160.0591469999999
 30
0.0
 40
5.038681999999997
100
AcDbArc
 50
0.0
 51
36.481726
  0
ARC
  5
9B3E
330
99B6
100
AcDbEntity
  8
1
  6
Continuous
100
AcDbCircle
 10
308.6517579999999
 20
190.463037
 30
0.0
 40
5.0
100
AcDbArc
 50
112.1215819999999
 51
138.2249899999999
  0
ARC
  5
9B3F
330
99B6
100
AcDbEntity
  8
1
  6
Continuous
100
AcDbCircle
 10
305.5095149999999
 20
190.465137
 30
0.0
 40
2.0
100
AcDbArc
 50
93.486354
 51
113.369854
  0
ARC
  5
9B40
330
99B6
100
AcDbEntity
  8
1
  6
Continuous
100
AcDbCircle
 10
314.5095149999999
 20
42.73903899999999
 30
0.0
 40
150.0
100
AcDbArc
 50
86.51364599999999
 51
93.486354
  0
ARC
  5
9B41
330
99B6
100
AcDbEntity
  8
1
  6
Continuous
100
AcDbCircle
 10
323.5095149999999
 20
190.465137
 30
0.0
 40
2.0
100
AcDbArc
 50
0.0
 51
1.69942
  0
LINE
  5
9B42
330
99B6
100
AcDbEntity
  8
1
  6
Continuous
100
AcDbLine
 10
307.869769
 20
194.838877
 30
0.0
 11
321.149276
 21
194.838877
 31
0.0
  0
ARC
  5
9B43
330
99B6
100
AcDbEntity
  8
1
  6
Continuous
100
AcDbCircle
 10
382.3010719999999
 20
220.461423
 30
0.0
 40
66.30278199999999
100
AcDbArc
 50
202.5463719999999
 51
202.7336329999998
  0
LINE
  5
9B44
330
99B6
100
AcDbEntity
  8
1
  6
Continuous
100
AcDbLine
 10
314.5095149999999
 20
195.038877
 30
0.0
 11
322.3826359999999
 21
195.038877
 31
0.0
  0
LINE
  5
9B45
330
99B6
100
AcDbEntity
  8
1
  6
Continuous
100
AcDbLine
 10
306.6363949999999
 20
195.038877
 30
0.0
 11
314.5095149999999
 21
195.038877
 31
0.0
  0
ARC
  5
9B46
330
99B6
100
AcDbEntity
  8
1
  6
Continuous
100
AcDbCircle
 10
246.7179569999999
 20
220.461423
 30
0.0
 40
66.30278199999999
100
AcDbArc
 50
337.266367
 51
337.453628
  0
ARC
  5
9B47
330
99B6
100
AcDbEntity
  8
1
  6
Continuous
100
AcDbCircle
 10
323.5095149999999
 20
190.465137
 30
0.0
 40
2.0
100
AcDbArc
 50
66.630146
 51
86.51363100000002
  0
ARC
  5
9B48
330
99B6
100
AcDbEntity
  8
1
  6
Continuous
100
AcDbCircle
 10
305.5095149999999
 20
190.465137
 30
0.0
 40
2.0
100
AcDbArc
 50
178.3005799999999
 51
180.0
  0
LINE
  5
9B49
330
99B6
100
AcDbEntity
  8
4
  6
CENTER
100
AcDbLine
 10
191.8101929999999
 20
192.587345
 30
0.0
 11
191.8101929999999
 21
213.738742
 31
0.0
  0
ARC
  5
9B4A
330
99B6
100
AcDbEntity
  8
1
  6
Continuous
100
AcDbCircle
 10
314.5095149999999
 20
178.6897189999999
 30
0.0
 40
18.139723
100
AcDbArc
 50
62.354888
 51
117.645112
  0
ARC
  5
9B4B
330
99B6
100
AcDbEntity
  8
1
  6
Continuous
100
AcDbCircle
 10
175.586746
 20
96.46706600000001
 30
0.0
 40
5.0
100
AcDbArc
 50
270.0
 51
310.492876
  0
ARC
  5
9B4C
330
99B6
100
AcDbEntity
  8
1
  6
Continuous
100
AcDbCircle
 10
175.586746
 20
96.46706600000001
 30
0.0
 40
7.0
100
AcDbArc
 50
270.0
 51
310.492876
  0
ARC
  5
9B4D
330
99B6
100
AcDbEntity
  8
1
  6
Continuous
100
AcDbCircle
 10
175.586746
 20
58.467066
 30
0.0
 40
7.0
100
AcDbArc
 50
49.507124
 51
90.0
  0
ARC
  5
9B4E
330
99B6
100
AcDbEntity
  8
1
  6
Continuous
100
AcDbCircle
 10
175.586746
 20
58.467066
 30
0.0
 40
5.0
100
AcDbArc
 50
49.507124
 51
90.0
  0
LINE
  5
9B4F
330
99B6
100
AcDbEntity
  8
4
  6
CENTER
100
AcDbLine
 10
211.810193
 20
213.738742
 30
0.0
 11
211.810193
 21
205.1587419999999
 31
0.0
  0
LINE
  5
9B50
330
99B6
100
AcDbEntity
  8
4
  6
CENTER
100
AcDbLine
 10
171.8101929999999
 20
213.738742
 30
0.0
 11
171.8101929999999
 21
205.1587419999999
 31
0.0
  0
LINE
  5
9B51
330
99B6
100
AcDbEntity
  8
4
  6
CENTER
100
AcDbLine
 10
38.810193
 20
213.738742
 30
0.0
 11
38.810193
 21
205.1587419999999
 31
0.0
  0
LINE
  5
9B52
330
99B6
100
AcDbEntity
  8
4
  6
CENTER
100
AcDbLine
 10
78.810193
 20
213.738742
 30
0.0
 11
78.810193
 21
205.1587419999999
 31
0.0
  0
LINE
  5
9B53
330
99B6
100
AcDbEntity
  8
4
  6
CENTER
100
AcDbLine
 10
294.5095149999999
 20
213.738742
 30
0.0
 11
294.5095149999999
 21
205.1587419999999
 31
0.0
  0
LINE
  5
9B54
330
99B6
100
AcDbEntity
  8
4
  6
CENTER
100
AcDbLine
 10
334.5095149999999
 20
213.738742
 30
0.0
 11
334.5095149999999
 21
205.1587419999999
 31
0.0
  0
CIRCLE
  5
9B55
330
99B6
100
AcDbEntity
  8
1
  6
Continuous
100
AcDbCircle
 10
173.810193
 20
167.739039
 30
0.0
 40
4.15
  0
ARC
  5
9B56
330
99B6
100
AcDbEntity
  8
1
  6
Continuous
100
AcDbCircle
 10
455.2088369999998
 20
167.739039
 30
0.0
 40
25.0
100
AcDbArc
 50
164.8617869999999
 51
93.34862599999999
  0
LINE
  5
9B57
330
99B6
100
AcDbEntity
  8
4
  6
CENTER
100
AcDbLine
 10
427.208837
 20
167.739039
 30
0.0
 11
483.208837
 21
167.739039
 31
0.0
  0
LINE
  5
9B58
330
99B6
100
AcDbEntity
  8
4
  6
CENTER
100
AcDbLine
 10
455.2088369999998
 20
139.7390389999999
 30
0.0
 11
455.2088369999998
 21
195.739039
 31
0.0
  0
LINE
  5
9B59
330
99B6
100
AcDbEntity
  8
1
  6
Continuous
100
AcDbLine
 10
410.708837
 20
210.738742
 30
0.0
 11
463.7088369999998
 21
210.738742
 31
0.0
  0
LINE
  5
9B5A
330
99B6
100
AcDbEntity
  8
1
  6
Continuous
100
AcDbLine
 10
410.708837
 20
208.738742
 30
0.0
 11
463.7088369999998
 21
208.738742
 31
0.0
  0
LINE
  5
9B5B
330
99B6
100
AcDbEntity
  8
4
  6
CENTER
100
AcDbLine
 10
437.208837
 20
192.587345
 30
0.0
 11
437.208837
 21
213.738742
 31
0.0
  0
LINE
  5
9B5C
330
99B6
100
AcDbEntity
  8
1
  6
Continuous
100
AcDbLine
 10
457.192837
 20
196.0337419999999
 30
0.0
 11
457.192837
 21
200.8699259999999
 31
0.0
  0
ARC
  5
9B5D
330
99B6
100
AcDbEntity
  8
1
  6
Continuous
100
AcDbCircle
 10
396.620218
 20
182.6714169999999
 30
0.0
 40
25.0
100
AcDbArc
 50
20.697072
 51
34.494075
  0
ARC
  5
9B5E
330
99B6
100
AcDbEntity
  8
1
  6
Continuous
100
AcDbCircle
 10
471.2092789999998
 20
212.397118
 30
0.0
 40
55.3
100
AcDbArc
 50
202.194885
 51
249.4392649999998
  0
ARC
  5
9B5F
330
99B6
100
AcDbEntity
  8
1
  6
Continuous
100
AcDbCircle
 10
514.5057299999998
 20
208.315966
 30
0.0
 40
62.7
100
AcDbArc
 50
193.540356
 51
213.493585
  0
ARC
  5
9B60
330
99B6
100
AcDbEntity
  8
1
  6
Continuous
100
AcDbCircle
 10
454.878476
 20
168.859147
 30
0.0
 40
8.8
100
AcDbArc
 50
249.4392649999998
 51
33.49358499999999
  0
LINE
  5
9B61
330
99B6
100
AcDbEntity
  8
1
  6
Continuous
100
AcDbLine
 10
457.192837
 20
196.0337419999999
 30
0.0
 11
455.508513
 21
196.0337419999999
 31
0.0
  0
ARC
  5
9B62
330
99B6
100
AcDbEntity
  8
1
  6
Continuous
100
AcDbCircle
 10
455.508513
 20
194.0337419999999
 30
0.0
 40
2.0
100
AcDbArc
 50
90.0
 51
191.47085
  0
LINE
  5
9B63
330
99B6
100
AcDbEntity
  8
1
  6
Continuous
100
AcDbLine
 10
445.723137
 20
205.1587419999999
 30
0.0
 11
443.723137
 21
202.733742
 31
0.0
  0
LINE
  5
9B64
330
99B6
100
AcDbEntity
  8
1
  6
Continuous
100
AcDbLine
 10
443.8444579999998
 20
205.1587419999999
 30
0.0
 11
445.844458
 21
202.733742
 31
0.0
  0
LINE
  5
9B65
330
99B6
100
AcDbEntity
  8
1
  6
Continuous
100
AcDbLine
 10
418.873837
 20
202.733742
 30
0.0
 11
455.543837
 21
202.733742
 31
0.0
  0
LINE
  5
9B66
330
99B6
100
AcDbEntity
  8
1
  6
Continuous
100
AcDbLine
 10
418.873837
 20
207.1587419999999
 30
0.0
 11
455.163583
 21
207.1587419999999
 31
0.0
  0
LINE
  5
9B67
330
99B6
100
AcDbEntity
  8
1
  6
Continuous
100
AcDbLine
 10
418.873837
 20
205.1587419999999
 30
0.0
 11
455.543837
 21
205.1587419999999
 31
0.0
  0
LINE
  5
9B68
330
99B6
100
AcDbEntity
  8
1
  6
Continuous
100
AcDbLine
 10
463.7088369999998
 20
208.738742
 30
0.0
 11
463.7088369999998
 21
210.738742
 31
0.0
  0
LINE
  5
9B69
330
99B6
100
AcDbEntity
  8
4
  6
CENTER
100
AcDbLine
 10
457.208837
 20
213.738742
 30
0.0
 11
457.208837
 21
205.1587419999999
 31
0.0
  0
LINE
  5
9B6A
330
99B6
100
AcDbEntity
  8
1
  6
Continuous
100
AcDbLine
 10
452.087098
 20
205.1587419999999
 30
0.0
 11
450.087098
 21
202.733742
 31
0.0
  0
LINE
  5
9B6B
330
99B6
100
AcDbEntity
  8
1
  6
Continuous
100
AcDbLine
 10
450.2084189999997
 20
205.1587419999999
 30
0.0
 11
452.208419
 21
202.733742
 31
0.0
  0
LINE
  5
9B6C
330
99B6
100
AcDbEntity
  8
1
  6
Continuous
100
AcDbLine
 10
447.8444579999998
 20
205.1587419999999
 30
0.0
 11
445.844458
 21
202.733742
 31
0.0
  0
LINE
  5
9B6D
330
99B6
100
AcDbEntity
  8
1
  6
Continuous
100
AcDbLine
 10
445.9657779999998
 20
205.1587419999999
 30
0.0
 11
447.965778
 21
202.733742
 31
0.0
  0
LINE
  5
9B6E
330
99B6
100
AcDbEntity
  8
1
  6
Continuous
100
AcDbLine
 10
449.9657779999998
 20
205.1587419999999
 30
0.0
 11
447.965778
 21
202.733742
 31
0.0
  0
LINE
  5
9B6F
330
99B6
100
AcDbEntity
  8
1
  6
Continuous
100
AcDbLine
 10
448.087098
 20
205.1587419999999
 30
0.0
 11
450.087098
 21
202.733742
 31
0.0
  0
ARC
  5
9B70
330
99B6
100
AcDbEntity
  8
1
  6
Continuous
100
AcDbCircle
 10
454.853498
 20
200.333742
 30
0.0
 40
2.399999999999999
100
AcDbArc
 50
12.909393
 51
90.0
  0
LINE
  5
9B71
330
99B6
100
AcDbEntity
  8
1
  6
Continuous
100
AcDbLine
 10
452.1793999999998
 20
205.1587419999999
 30
0.0
 11
454.1794
 21
202.733742
 31
0.0
  0
LINE
  5
9B72
330
99B6
100
AcDbEntity
  8
1
  6
Continuous
100
AcDbLine
 10
454.0580799999998
 20
205.1587419999999
 30
0.0
 11
452.0580799999998
 21
202.733742
 31
0.0
  0
LINE
  5
9B73
330
99B6
100
AcDbEntity
  8
1
  6
Continuous
100
AcDbLine
 10
455.543837
 20
207.1587419999999
 30
0.0
 11
455.543837
 21
202.733742
 31
0.0
  0
LINE
  5
9B74
330
99B6
100
AcDbEntity
  8
1
  6
Continuous
100
AcDbLine
 10
455.543837
 20
203.490625
 30
0.0
 11
454.3007199999998
 21
205.1587419999999
 31
0.0
  0
LINE
  5
9B75
330
99B6
100
AcDbEntity
  8
1
  6
Continuous
100
AcDbLine
 10
455.543837
 20
204.5231789999998
 30
0.0
 11
454.1794
 21
202.733742
 31
0.0
  0
ARC
  5
9B76
330
99B6
100
AcDbEntity
  8
1
  6
Continuous
100
AcDbCircle
 10
455.163583
 20
210.674434
 30
0.0
 40
3.515692
100
AcDbArc
 50
270.0
 51
326.5927549999998
  0
LINE
  5
9B77
330
99B6
100
AcDbEntity
  8
1
  6
Continuous
100
AcDbLine
 10
430.873895
 20
205.1587419999999
 30
0.0
 11
428.8738949999998
 21
202.733742
 31
0.0
  0
LINE
  5
9B78
330
99B6
100
AcDbEntity
  8
1
  6
Continuous
100
AcDbLine
 10
428.9952149999998
 20
205.1587419999999
 30
0.0
 11
430.9952149999999
 21
202.733742
 31
0.0
  0
LINE
  5
9B79
330
99B6
100
AcDbEntity
  8
1
  6
Continuous
100
AcDbLine
 10
443.6018169999998
 20
205.1587419999999
 30
0.0
 11
441.601817
 21
202.733742
 31
0.0
  0
LINE
  5
9B7A
330
99B6
100
AcDbEntity
  8
1
  6
Continuous
100
AcDbLine
 10
441.723137
 20
205.1587419999999
 30
0.0
 11
443.723137
 21
202.733742
 31
0.0
  0
LINE
  5
9B7B
330
99B6
100
AcDbEntity
  8
1
  6
Continuous
100
AcDbLine
 10
439.3591759999998
 20
205.1587419999999
 30
0.0
 11
437.359176
 21
202.733742
 31
0.0
  0
LINE
  5
9B7C
330
99B6
100
AcDbEntity
  8
1
  6
Continuous
100
AcDbLine
 10
437.4804969999998
 20
205.1587419999999
 30
0.0
 11
439.480497
 21
202.733742
 31
0.0
  0
LINE
  5
9B7D
330
99B6
100
AcDbEntity
  8
1
  6
Continuous
100
AcDbLine
 10
441.4804969999998
 20
205.1587419999999
 30
0.0
 11
439.480497
 21
202.733742
 31
0.0
  0
LINE
  5
9B7E
330
99B6
100
AcDbEntity
  8
1
  6
Continuous
100
AcDbLine
 10
439.6018169999998
 20
205.1587419999999
 30
0.0
 11
441.601817
 21
202.733742
 31
0.0
  0
LINE
  5
9B7F
330
99B6
100
AcDbEntity
  8
1
  6
Continuous
100
AcDbLine
 10
435.1165349999998
 20
205.1587419999999
 30
0.0
 11
433.1165349999998
 21
202.733742
 31
0.0
  0
LINE
  5
9B80
330
99B6
100
AcDbEntity
  8
1
  6
Continuous
100
AcDbLine
 10
433.2378559999998
 20
205.1587419999999
 30
0.0
 11
435.237856
 21
202.733742
 31
0.0
  0
LINE
  5
9B81
330
99B6
100
AcDbEntity
  8
1
  6
Continuous
100
AcDbLine
 10
432.9952149999998
 20
205.1587419999999
 30
0.0
 11
430.9952149999999
 21
202.733742
 31
0.0
  0
LINE
  5
9B82
330
99B6
100
AcDbEntity
  8
1
  6
Continuous
100
AcDbLine
 10
431.1165349999998
 20
205.1587419999999
 30
0.0
 11
433.1165349999998
 21
202.733742
 31
0.0
  0
LINE
  5
9B83
330
99B6
100
AcDbEntity
  8
1
  6
Continuous
100
AcDbLine
 10
437.2378559999998
 20
205.1587419999999
 30
0.0
 11
435.237856
 21
202.733742
 31
0.0
  0
LINE
  5
9B84
330
99B6
100
AcDbEntity
  8
1
  6
Continuous
100
AcDbLine
 10
435.3591759999998
 20
205.1587419999999
 30
0.0
 11
437.359176
 21
202.733742
 31
0.0
  0
LINE
  5
9B85
330
99B6
100
AcDbEntity
  8
4
  6
CENTER
100
AcDbLine
 10
417.2088369999998
 20
213.738742
 30
0.0
 11
417.2088369999998
 21
205.1587419999999
 31
0.0
  0
ARC
  5
9B86
330
99B6
100
AcDbEntity
  8
1
  6
Continuous
100
AcDbCircle
 10
419.5634979999998
 20
200.333742
 30
0.0
 40
2.399999999999999
100
AcDbArc
 50
90.0
 51
167.018356
  0
LINE
  5
9B87
330
99B6
100
AcDbEntity
  8
1
  6
Continuous
100
AcDbLine
 10
418.873837
 20
204.5231789999998
 30
0.0
 11
420.238274
 21
202.733742
 31
0.0
  0
LINE
  5
9B88
330
99B6
100
AcDbEntity
  8
1
  6
Continuous
100
AcDbLine
 10
420.116954
 20
205.1587419999999
 30
0.0
 11
418.873837
 21
203.490625
 31
0.0
  0
LINE
  5
9B89
330
99B6
100
AcDbEntity
  8
1
  6
Continuous
100
AcDbLine
 10
418.873837
 20
207.1587419999999
 30
0.0
 11
418.873837
 21
202.733742
 31
0.0
  0
LINE
  5
9B8A
330
99B6
100
AcDbEntity
  8
1
  6
Continuous
100
AcDbLine
 10
426.7235559999998
 20
205.1587419999999
 30
0.0
 11
428.723556
 21
202.733742
 31
0.0
  0
LINE
  5
9B8B
330
99B6
100
AcDbEntity
  8
1
  6
Continuous
100
AcDbLine
 10
428.6022349999998
 20
205.1587419999999
 30
0.0
 11
426.6022349999998
 21
202.733742
 31
0.0
  0
LINE
  5
9B8C
330
99B6
100
AcDbEntity
  8
1
  6
Continuous
100
AcDbLine
 10
422.4809149999998
 20
205.1587419999999
 30
0.0
 11
424.480915
 21
202.733742
 31
0.0
  0
LINE
  5
9B8D
330
99B6
100
AcDbEntity
  8
1
  6
Continuous
100
AcDbLine
 10
424.359595
 20
205.1587419999999
 30
0.0
 11
422.3595949999998
 21
202.733742
 31
0.0
  0
LINE
  5
9B8E
330
99B6
100
AcDbEntity
  8
1
  6
Continuous
100
AcDbLine
 10
420.359595
 20
205.1587419999999
 30
0.0
 11
422.3595949999998
 21
202.733742
 31
0.0
  0
LINE
  5
9B8F
330
99B6
100
AcDbEntity
  8
1
  6
Continuous
100
AcDbLine
 10
422.2382739999998
 20
205.1587419999999
 30
0.0
 11
420.238274
 21
202.733742
 31
0.0
  0
LINE
  5
9B90
330
99B6
100
AcDbEntity
  8
1
  6
Continuous
100
AcDbLine
 10
424.6022349999998
 20
205.1587419999999
 30
0.0
 11
426.6022349999998
 21
202.733742
 31
0.0
  0
LINE
  5
9B91
330
99B6
100
AcDbEntity
  8
1
  6
Continuous
100
AcDbLine
 10
426.4809149999998
 20
205.1587419999999
 30
0.0
 11
424.480915
 21
202.733742
 31
0.0
  0
LINE
  5
9B92
330
99B6
100
AcDbEntity
  8
1
  6
Continuous
100
AcDbLine
 10
417.224837
 20
196.829442
 30
0.0
 11
417.224837
 21
200.8728749999999
 31
0.0
  0
ARC
  5
9B93
330
99B6
100
AcDbEntity
  8
1
  6
Continuous
100
AcDbCircle
 10
419.2540919999998
 20
210.674434
 30
0.0
 40
3.515692
100
AcDbArc
 50
213.407245
 51
270.0
  0
LINE
  5
9B94
330
99B6
100
AcDbEntity
  8
1
  6
Continuous
100
AcDbLine
 10
410.708837
 20
208.738742
 30
0.0
 11
410.708837
 21
210.738742
 31
0.0
  0
CIRCLE
  5
9B95
330
99B6
100
AcDbEntity
  8
1
  6
Continuous
100
AcDbCircle
 10
455.2088369999998
 20
167.739039
 30
0.0
 40
4.25
  0
LINE
  5
9B96
330
99B6
100
AcDbEntity
  8
1
  6
Continuous
100
AcDbLine
 10
179.412132
 20
164.6534629999998
 30
0.0
 11
176.715554
 21
199.419885
 31
0.0
  0
LINE
  5
9B97
330
99B6
100
AcDbEntity
  8
1
  6
Continuous
100
AcDbLine
 10
449.606899
 20
164.6534629999998
 30
0.0
 11
452.3034759999998
 21
199.419885
 31
0.0
  0
ARC
  5
9B98
330
99B6
100
AcDbEntity
  8
1
  6
Continuous
100
AcDbCircle
 10
191.8101929999999
 20
77.467066
 30
0.0
 40
15.984
100
AcDbArc
 50
227.8178519999999
 51
132.182148
  0
ARC
  5
9B99
330
99B6
100
AcDbEntity
  8
1
  6
Continuous
100
AcDbCircle
 10
173.810193
 20
167.739039
 30
0.0
 40
15.0
100
AcDbArc
 50
98.11819900000001
 51
355.540459
  0
ARC
  5
9B9A
330
99B6
100
AcDbEntity
  8
1
  6
Continuous
100
AcDbCircle
 10
173.810193
 20
167.739039
 30
0.0
 40
17.5
100
AcDbArc
 50
93.307576
 51
2.131937999999999
  0
ARC
  5
9B9B
330
99B6
100
AcDbEntity
  8
1
  6
Continuous
100
AcDbCircle
 10
455.512194
 20
167.7374519999998
 30
0.0
 40
15.0
100
AcDbArc
 50
183.8601829999998
 51
81.28244399999998
  0
ARC
  5
9B9C
330
99B6
100
AcDbEntity
  8
1
  6
Continuous
100
AcDbCircle
 10
455.512194
 20
167.7374519999998
 30
0.0
 40
17.5
100
AcDbArc
 50
177.268704
 51
86.09306600000001
  0
ENDSEC
  0
SECTION
  2
OBJECTS
  0
DICTIONARY
  5
99A4
330
0
100
AcDbDictionary
281
     1
  3
ACAD_CIP_PREVIOUS_PRODUCT_INFO
350
9BFE
  3
ACAD_COLOR
350
9BE0
  3
ACAD_DETAILVIEWSTYLE
350
9BF9
  3
ACAD_GROUP
350
99A5
  3
ACAD_LAYOUT
350
99B1
  3
ACAD_MATERIAL
350
9BAE
  3
ACAD_MLEADERSTYLE
350
9BF5
  3
ACAD_MLINESTYLE
350
99AE
  3
ACAD_PLOTSETTINGS
350
99B0
  3
ACAD_PLOTSTYLENAME
350
9BAC
  3
ACAD_SCALELIST
350
9BE3
  3
ACAD_SECTIONVIEWSTYLE
350
9BF7
  3
ACAD_TABLESTYLE
350
9BE1
  3
ACAD_VISUALSTYLE
350
9BC7
  3
ACDB_RECOMPOSE_DATA
350
9C1C
  3
AcDbVariableDictionary
350
9C0F
  3
DWGPROPS
350
9C1D
  0
DICTIONARY
  5
9BFF
330
99A8
100
AcDbDictionary
280
     1
281
     1
  3
ADSK_XREC_LAYER_RECONCILED
360
9C00
  0
DICTIONARY
  5
9C01
330
99BE
100
AcDbDictionary
280
     1
281
     1
  3
ADSK_XREC_LAYER_RECONCILED
360
9C02
  0
DICTIONARY
  5
9C03
330
99BF
100
AcDbDictionary
280
     1
281
     1
  3
ADSK_XREC_LAYER_RECONCILED
360
9C04
  0
DICTIONARY
  5
9C05
330
99C0
100
AcDbDictionary
280
     1
281
     1
  3
ADSK_XREC_LAYER_RECONCILED
360
9C06
  0
DICTIONARY
  5
9C07
330
99C1
100
AcDbDictionary
280
     1
281
     1
  3
ADSK_XREC_LAYER_RECONCILED
360
9C08
  0
DICTIONARY
  5
9C09
330
99C2
100
AcDbDictionary
280
     1
281
     1
  3
ADSK_XREC_LAYER_RECONCILED
360
9C0A
  0
DICTIONARY
  5
9C0B
330
99C3
100
AcDbDictionary
280
     1
281
     1
  3
ADSK_XREC_LAYER_RECONCILED
360
9C0C
  0
DICTIONARY
  5
9C0D
330
99C4
100
AcDbDictionary
280
     1
281
     1
  3
ADSK_XREC_LAYER_RECONCILED
360
9C0E
  0
DICTIONARY
  5
9BA7
330
99B6
100
AcDbDictionary
281
     1
  3
ACAD_LAYOUTSELFREF
350
9BA8
  0
DICTIONARY
  5
9BA5
330
99B2
100
AcDbDictionary
281
     1
  3
ACAD_LAYOUTSELFREF
350
9BA6
  0
XRECORD
  5
9BFE
102
{ACAD_REACTORS
330
99A4
102
}
330
99A4
100
AcDbXrecord
280
     1
300
ACDLT
300
2014
300
ACDLT_F_S
  0
DICTIONARY
  5
9BE0
102
{ACAD_REACTORS
330
99A4
102
}
330
99A4
100
AcDbDictionary
281
     1
  0
DICTIONARY
  5
9BF9
102
{ACAD_REACTORS
330
99A4
102
}
330
99A4
100
AcDbDictionary
281
     1
  3
Imperial24
350
9BFA
  0
DICTIONARY
  5
99A5
102
{ACAD_REACTORS
330
99A4
102
}
330
99A4
100
AcDbDictionary
281
     1
  0
DICTIONARY
  5
99B1
102
{ACAD_REACTORS
330
99A4
102
}
330
99A4
100
AcDbDictionary
281
     1
  3
Model
350
9BFB
  3
レイアウト1
350
9BFC
  0
DICTIONARY
  5
9BAE
102
{ACAD_REACTORS
330
99A4
102
}
330
99A4
100
AcDbDictionary
281
     1
  3
ByBlock
350
9BB7
  3
ByLayer
350
9BAF
  3
Global
350
9BBF
  0
DICTIONARY
  5
9BF5
102
{ACAD_REACTORS
330
99A4
102
}
330
99A4
100
AcDbDictionary
281
     1
  3
Standard
350
9BF6
  0
DICTIONARY
  5
99AE
102
{ACAD_REACTORS
330
99A4
102
}
330
99A4
100
AcDbDictionary
281
     1
  3
STANDARD
350
99AF
  0
DICTIONARY
  5
99B0
102
{ACAD_REACTORS
330
99A4
102
}
330
99A4
100
AcDbDictionary
281
     1
  0
ACDBDICTIONARYWDFLT
  5
9BAC
102
{ACAD_REACTORS
330
99A4
102
}
330
99A4
100
AcDbDictionary
281
     1
  3
Normal
350
9BAD
100
AcDbDictionaryWithDefault
340
9BAD
  0
DICTIONARY
  5
9BE3
102
{ACAD_REACTORS
330
99A4
102
}
330
99A4
100
AcDbDictionary
281
     1
  3
A0
350
9BE4
  3
A1
350
9BE5
  3
A2
350
9BE6
  3
A3
350
9BE7
  3
A4
350
9BE8
  3
A5
350
9BE9
  3
A6
350
9BEA
  3
A7
350
9BEB
  3
A8
350
9BEC
  3
A9
350
9BED
  3
B0
350
9BEE
  3
B1
350
9BEF
  3
B2
350
9BF0
  3
B3
350
9BF1
  3
B4
350
9BF2
  3
B5
350
9BF3
  3
B6
350
9BF4
  0
DICTIONARY
  5
9BF7
102
{ACAD_REACTORS
330
99A4
102
}
330
99A4
100
AcDbDictionary
281
     1
  3
Imperial24
350
9BF8
  0
DICTIONARY
  5
9BE1
102
{ACAD_REACTORS
330
99A4
102
}
330
99A4
100
AcDbDictionary
281
     1
  3
Standard
350
9BE2
  0
DICTIONARY
  5
9BC7
102
{ACAD_REACTORS
330
99A4
102
}
330
99A4
100
AcDbDictionary
281
     1
  3
2dWireframe
350
9BCD
  3
Basic
350
9BCC
  3
Brighten
350
9BD3
  3
ColorChange
350
9BD7
  3
Conceptual
350
9BD0
  3
Dim
350
9BD2
  3
EdgeColorOff
350
9BDF
  3
Facepattern
350
9BD6
  3
Flat
350
9BC8
  3
FlatWithEdges
350
9BC9
  3
Gouraud
350
9BCA
  3
GouraudWithEdges
350
9BCB
  3
Hidden
350
9BCF
  3
JitterOff
350
9BDD
  3
Linepattern
350
9BD5
  3
OverhangOff
350
9BDE
  3
Realistic
350
9BD1
  3
Shaded
350
9BDC
  3
Shaded with edges
350
9BDB
  3
Shades of Gray
350
9BD8
  3
Sketchy
350
9BD9
  3
Thicken
350
9BD4
  3
Wireframe
350
9BCE
  3
X-Ray
350
9BDA
  0
XRECORD
  5
9C1C
102
{ACAD_REACTORS
330
99A4
102
}
330
99A4
100
AcDbXrecord
280
     1
 90
        1
330
9BE2
  0
DICTIONARY
  5
9C0F
102
{ACAD_REACTORS
330
99A4
102
}
330
99A4
100
AcDbDictionary
281
     1
  3
CANNOSCALE
350
9C14
  3
CMLEADERSTYLE
350
9C11
  3
CTABLESTYLE
350
9C10
  3
CVIEWDETAILSTYLE
350
9C12
  3
CVIEWSECTIONSTYLE
350
9C13
  3
DIMASSOC
350
9C17
  3
INDEXCTL
350
9C16
  3
SORTENTS
350
9C15
  3
XCLIPFRAME
350
9C18
  0
XRECORD
  5
9C1D
102
{ACAD_REACTORS
330
99A4
102
}
330
99A4
100
AcDbXrecord
280
     1
  1
DWGPROPS COOKIE
  2

  3

  4

  6

  7

  8
Yoshitsune
  9

300
=
301
=
302
=
303
=
304
=
305
=
306
=
307
=
308
=
309
=
 40
0.0000092592592593
 41
2451301.693685996
 42
2457192.68657978
  1

 90
        0
  0
XRECORD
  5
9C00
102
{ACAD_REACTORS
330
9BFF
102
}
330
9BFF
100
AcDbXrecord
280
     1
290
     1
  0
XRECORD
  5
9C02
102
{ACAD_REACTORS
330
9C01
102
}
330
9C01
100
AcDbXrecord
280
     1
290
     1
  0
XRECORD
  5
9C04
102
{ACAD_REACTORS
330
9C03
102
}
330
9C03
100
AcDbXrecord
280
     1
290
     1
  0
XRECORD
  5
9C06
102
{ACAD_REACTORS
330
9C05
102
}
330
9C05
100
AcDbXrecord
280
     1
290
     1
  0
XRECORD
  5
9C08
102
{ACAD_REACTORS
330
9C07
102
}
330
9C07
100
AcDbXrecord
280
     1
290
     1
  0
XRECORD
  5
9C0A
102
{ACAD_REACTORS
330
9C09
102
}
330
9C09
100
AcDbXrecord
280
     1
290
     1
  0
XRECORD
  5
9C0C
102
{ACAD_REACTORS
330
9C0B
102
}
330
9C0B
100
AcDbXrecord
280
     1
290
     1
  0
XRECORD
  5
9C0E
102
{ACAD_REACTORS
330
9C0D
102
}
330
9C0D
100
AcDbXrecord
280
     1
290
     1
  0
XRECORD
  5
9BA8
102
{ACAD_REACTORS
330
9BA7
102
}
330
9BA7
100
AcDbXrecord
280
     1
340
99B6
  0
XRECORD
  5
9BA6
102
{ACAD_REACTORS
330
9BA5
102
}
330
9BA5
100
AcDbXrecord
280
     1
340
99B2
  0
ACDBDETAILVIEWSTYLE
  5
9BFA
102
{ACAD_XDICTIONARY
360
9C55
102
}
102
{ACAD_REACTORS
330
9BF9
102
}
330
9BF9
100
AcDbModelDocViewStyle
 70
     0
  3
Imperial24
290
     0
100
AcDbDetailViewStyle
 70
     0
 71
     0
 90
        3
 71
     1
340
99A9
 40
0.24
340
0
 40
0.24
300

 40
0.36
280
     3
 71
     2
340
99AD
 90
       25
 71
     3
340
99A9
 40
0.24
 90
        1
 40
0.75
 90
        1
300
%<\AcVar ViewType \f "%tc1">% %<\AcVar ViewDetailId>%\PSCALE %<\AcVar ViewScale \f "%sn">%
 71
     4
340
99AD
 90
       25
340
99AD
 90
       25
280
     0
  0
LAYOUT
  5
9BFB
102
{ACAD_XDICTIONARY
360
9C57
102
}
102
{ACAD_REACTORS
330
99B1
102
}
330
99B1
100
AcDbPlotSettings
  1

  2
Canon LBP9100C
  4

  6

 40
0.0
 41
0.0
 42
0.0
 43
0.0
 44
0.0
 45
0.0
 46
0.0
 47
0.0
 48
0.0
 49
0.0
140
0.0
141
0.0
142
1.0
143
1.0
 70
  1712
 72
     0
 73
     0
 74
     0
  7

 75
     0
147
1.0
148
0.0
149
0.0
100
AcDbLayout
  1
Model
 70
     1
 71
     0
 10
0.0
 20
0.0
 11
12.0
 21
9.0
 12
0.0
 22
0.0
 32
0.0
 14
0.0
 24
0.0
 34
0.0
 15
0.0
 25
0.0
 35
0.0
146
0.0
 13
0.0
 23
0.0
 33
0.0
 16
1.0
 26
0.0
 36
0.0
 17
0.0
 27
1.0
 37
0.0
 76
     0
330
99B6
331
9BA4
  0
LAYOUT
  5
9BFC
102
{ACAD_XDICTIONARY
360
9C59
102
}
102
{ACAD_REACTORS
330
99B1
102
}
330
99B1
100
AcDbPlotSettings
  1

  2
Canon LBP9100C
  4

  6

 40
0.0
 41
0.0
 42
0.0
 43
0.0
 44
0.0
 45
0.0
 46
0.0
 47
0.0
 48
0.0
 49
0.0
140
0.0
141
0.0
142
1.0
143
1.0
 70
   688
 72
     0
 73
     0
 74
     5
  7

 75
    16
147
1.0
148
0.0
149
0.0
100
AcDbLayout
  1
レイアウト1
 70
     0
 71
     1
 10
0.0
 20
0.0
 11
420.0
 21
297.0
 12
0.0
 22
0.0
 32
0.0
 14
1.000000000000000E+20
 24
1.000000000000000E+20
 34
1.000000000000000E+20
 15
-1.000000000000000E+20
 25
-1.000000000000000E+20
 35
-1.000000000000000E+20
146
0.0
 13
0.0
 23
0.0
 33
0.0
 16
1.0
 26
0.0
 36
0.0
 17
0.0
 27
1.0
 37
0.0
 76
     0
330
99B2
  0
MATERIAL
  5
9BB7
102
{ACAD_XDICTIONARY
360
9BB8
102
}
102
{ACAD_REACTORS
330
9BAE
102
}
330
9BAE
100
AcDbMaterial
  1
ByBlock
 72
     0
 43
0.0208333333333333
 43
0.0
 43
0.0
 43
0.0
 43
0.0
 43
0.0208333333333333
 43
0.0
 43
0.0
 43
0.0
 43
0.0
 43
1.0
 43
0.0
 43
0.0
 43
0.0
 43
0.0
 43
1.0
 77
     0
 47
0.0208333333333333
 47
0.0
 47
0.0
 47
0.0
 47
0.0
 47
0.0208333333333333
 47
0.0
 47
0.0
 47
0.0
 47
0.0
 47
1.0
 47
0.0
 47
0.0
 47
0.0
 47
0.0
 47
1.0
171
     0
 49
0.0208333333333333
 49
0.0
 49
0.0
 49
0.0
 49
0.0
 49
0.0208333333333333
 49
0.0
 49
0.0
 49
0.0
 49
0.0
 49
1.0
 49
0.0
 49
0.0
 49
0.0
 49
0.0
 49
1.0
175
     0
142
0.0208333333333333
142
0.0
142
0.0
142
0.0
142
0.0
142
0.0208333333333333
142
0.0
142
0.0
142
0.0
142
0.0
142
1.0
142
0.0
142
0.0
142
0.0
142
0.0
142
1.0
179
     0
144
0.0208333333333333
144
0.0
144
0.0
144
0.0
144
0.0
144
0.0208333333333333
144
0.0
144
0.0
144
0.0
144
0.0
144
1.0
144
0.0
144
0.0
144
0.0
144
0.0
144
1.0
147
0.0208333333333333
147
0.0
147
0.0
147
0.0
147
0.0
147
0.0208333333333333
147
0.0
147
0.0
147
0.0
147
0.0
147
1.0
147
0.0
147
0.0
147
0.0
147
0.0
147
1.0
  0
MATERIAL
  5
9BAF
102
{ACAD_XDICTIONARY
360
9BB0
102
}
102
{ACAD_REACTORS
330
9BAE
102
}
330
9BAE
100
AcDbMaterial
  1
ByLayer
 72
     0
 43
0.0208333333333333
 43
0.0
 43
0.0
 43
0.0
 43
0.0
 43
0.0208333333333333
 43
0.0
 43
0.0
 43
0.0
 43
0.0
 43
1.0
 43
0.0
 43
0.0
 43
0.0
 43
0.0
 43
1.0
 77
     0
 47
0.0208333333333333
 47
0.0
 47
0.0
 47
0.0
 47
0.0
 47
0.0208333333333333
 47
0.0
 47
0.0
 47
0.0
 47
0.0
 47
1.0
 47
0.0
 47
0.0
 47
0.0
 47
0.0
 47
1.0
171
     0
 49
0.0208333333333333
 49
0.0
 49
0.0
 49
0.0
 49
0.0
 49
0.0208333333333333
 49
0.0
 49
0.0
 49
0.0
 49
0.0
 49
1.0
 49
0.0
 49
0.0
 49
0.0
 49
0.0
 49
1.0
175
     0
142
0.0208333333333333
142
0.0
142
0.0
142
0.0
142
0.0
142
0.0208333333333333
142
0.0
142
0.0
142
0.0
142
0.0
142
1.0
142
0.0
142
0.0
142
0.0
142
0.0
142
1.0
179
     0
144
0.0208333333333333
144
0.0
144
0.0
144
0.0
144
0.0
144
0.0208333333333333
144
0.0
144
0.0
144
0.0
144
0.0
144
1.0
144
0.0
144
0.0
144
0.0
144
0.0
144
1.0
147
0.0208333333333333
147
0.0
147
0.0
147
0.0
147
0.0
147
0.0208333333333333
147
0.0
147
0.0
147
0.0
147
0.0
147
1.0
147
0.0
147
0.0
147
0.0
147
0.0
147
1.0
  0
MATERIAL
  5
9BBF
102
{ACAD_XDICTIONARY
360
9BC0
102
}
102
{ACAD_REACTORS
330
9BAE
102
}
330
9BAE
100
AcDbMaterial
  1
Global
 72
     0
 43
0.0208333333333333
 43
0.0
 43
0.0
 43
0.0
 43
0.0
 43
0.0208333333333333
 43
0.0
 43
0.0
 43
0.0
 43
0.0
 43
1.0
 43
0.0
 43
0.0
 43
0.0
 43
0.0
 43
1.0
 77
     0
 47
0.0208333333333333
 47
0.0
 47
0.0
 47
0.0
 47
0.0
 47
0.0208333333333333
 47
0.0
 47
0.0
 47
0.0
 47
0.0
 47
1.0
 47
0.0
 47
0.0
 47
0.0
 47
0.0
 47
1.0
171
     0
 49
0.0208333333333333
 49
0.0
 49
0.0
 49
0.0
 49
0.0
 49
0.0208333333333333
 49
0.0
 49
0.0
 49
0.0
 49
0.0
 49
1.0
 49
0.0
 49
0.0
 49
0.0
 49
0.0
 49
1.0
175
     0
142
0.0208333333333333
142
0.0
142
0.0
142
0.0
142
0.0
142
0.0208333333333333
142
0.0
142
0.0
142
0.0
142
0.0
142
1.0
142
0.0
142
0.0
142
0.0
142
0.0
142
1.0
179
     0
144
0.0208333333333333
144
0.0
144
0.0
144
0.0
144
0.0
144
0.0208333333333333
144
0.0
144
0.0
144
0.0
144
0.0
144
1.0
144
0.0
144
0.0
144
0.0
144
0.0
144
1.0
147
0.0208333333333333
147
0.0
147
0.0
147
0.0
147
0.0
147
0.0208333333333333
147
0.0
147
0.0
147
0.0
147
0.0
147
1.0
147
0.0
147
0.0
147
0.0
147
0.0
147
1.0
  0
MLEADERSTYLE
  5
9BF6
102
{ACAD_REACTORS
330
9BF5
102
}
330
9BF5
100
AcDbMLeaderStyle
170
     2
171
     1
172
     0
 90
        2
 40
0.0
 41
0.0
173
     1
 91
-1056964608
340
99AB
 92
       -2
290
     1
 42
0.09
291
     1
 43
0.36
  3
Standard
 44
0.18
300

342
99A9
174
     1
178
     6
175
     1
176
     0
 93
-1056964608
 45
0.18
292
     0
297
     0
 46
0.18
 94
-1056964608
 47
1.0
 49
1.0
140
1.0
293
     1
141
0.0
294
     1
177
     0
142
1.0
295
     0
296
     0
143
0.125
1001
ACAD_MLEADERVER
1070
     2
  0
MLINESTYLE
  5
99AF
102
{ACAD_REACTORS
330
99AE
102
}
330
99AE
100
AcDbMlineStyle
  2
STANDARD
 70
     0
  3

 62
   256
 51
90.0
 52
90.0
 71
     2
 49
0.5
 62
   256
  6
BYLAYER
 49
-0.5
 62
   256
  6
BYLAYER
  0
ACDBPLACEHOLDER
  5
9BAD
102
{ACAD_REACTORS
330
9BAC
102
}
330
9BAC
  0
SCALE
  5
9BE4
102
{ACAD_REACTORS
330
9BE3
102
}
330
9BE3
100
AcDbScale
 70
     0
300
1:1
140
1.0
141
1.0
290
     1
  0
SCALE
  5
9BE5
102
{ACAD_REACTORS
330
9BE3
102
}
330
9BE3
100
AcDbScale
 70
     0
300
1/128" = 1'-0"
140
0.0078125
141
12.0
290
     0
  0
SCALE
  5
9BE6
102
{ACAD_REACTORS
330
9BE3
102
}
330
9BE3
100
AcDbScale
 70
     0
300
1/64" = 1'-0"
140
0.015625
141
12.0
290
     0
  0
SCALE
  5
9BE7
102
{ACAD_REACTORS
330
9BE3
102
}
330
9BE3
100
AcDbScale
 70
     0
300
1/32" = 1'-0"
140
0.03125
141
12.0
290
     0
  0
SCALE
  5
9BE8
102
{ACAD_REACTORS
330
9BE3
102
}
330
9BE3
100
AcDbScale
 70
     0
300
1/16" = 1'-0"
140
0.0625
141
12.0
290
     0
  0
SCALE
  5
9BE9
102
{ACAD_REACTORS
330
9BE3
102
}
330
9BE3
100
AcDbScale
 70
     0
300
3/32" = 1'-0"
140
0.09375
141
12.0
290
     0
  0
SCALE
  5
9BEA
102
{ACAD_REACTORS
330
9BE3
102
}
330
9BE3
100
AcDbScale
 70
     0
300
1/8" = 1'-0"
140
0.125
141
12.0
290
     0
  0
SCALE
  5
9BEB
102
{ACAD_REACTORS
330
9BE3
102
}
330
9BE3
100
AcDbScale
 70
     0
300
3/16" = 1'-0"
140
0.1875
141
12.0
290
     0
  0
SCALE
  5
9BEC
102
{ACAD_REACTORS
330
9BE3
102
}
330
9BE3
100
AcDbScale
 70
     0
300
1/4" = 1'-0"
140
0.25
141
12.0
290
     0
  0
SCALE
  5
9BED
102
{ACAD_REACTORS
330
9BE3
102
}
330
9BE3
100
AcDbScale
 70
     0
300
3/8" = 1'-0"
140
0.375
141
12.0
290
     0
  0
SCALE
  5
9BEE
102
{ACAD_REACTORS
330
9BE3
102
}
330
9BE3
100
AcDbScale
 70
     0
300
1/2" = 1'-0"
140
0.5
141
12.0
290
     0
  0
SCALE
  5
9BEF
102
{ACAD_REACTORS
330
9BE3
102
}
330
9BE3
100
AcDbScale
 70
     0
300
3/4" = 1'-0"
140
0.75
141
12.0
290
     0
  0
SCALE
  5
9BF0
102
{ACAD_REACTORS
330
9BE3
102
}
330
9BE3
100
AcDbScale
 70
     0
300
1" = 1'-0"
140
1.0
141
12.0
290
     0
  0
SCALE
  5
9BF1
102
{ACAD_REACTORS
330
9BE3
102
}
330
9BE3
100
AcDbScale
 70
     0
300
1-1/2" = 1'-0"
140
1.5
141
12.0
290
     0
  0
SCALE
  5
9BF2
102
{ACAD_REACTORS
330
9BE3
102
}
330
9BE3
100
AcDbScale
 70
     0
300
3" = 1'-0"
140
3.0
141
12.0
290
     0
  0
SCALE
  5
9BF3
102
{ACAD_REACTORS
330
9BE3
102
}
330
9BE3
100
AcDbScale
 70
     0
300
6" = 1'-0"
140
6.0
141
12.0
290
     0
  0
SCALE
  5
9BF4
102
{ACAD_REACTORS
330
9BE3
102
}
330
9BE3
100
AcDbScale
 70
     0
300
1'-0" = 1'-0"
140
12.0
141
12.0
290
     0
  0
ACDBSECTIONVIEWSTYLE
  5
9BF8
102
{ACAD_XDICTIONARY
360
9C53
102
}
102
{ACAD_REACTORS
330
9BF7
102
}
330
9BF7
100
AcDbModelDocViewStyle
 70
     0
  3
Imperial24
290
     0
100
AcDbSectionViewStyle
 70
     0
 71
     0
 90
       78
 71
     1
340
99A9
 40
0.24
340
0
340
0
 40
0.24
300
I, O, Q, S, X, Z
 40
0.48
 90
        3
 40
0.18
 90
        1
 71
     2
340
99AD
 90
       25
340
99AD
 90
       50
 40
0.24
 40
0.0
 40
0.24
 71
     3
340
99A9
 40
0.24
 90
        1
 40
0.75
 90
        1
300
%<\AcVar ViewType \f "%tc1">% %<\AcVar ViewSectionStartId>%-%<\AcVar ViewSectionEndId>%\PSCALE %<\AcVar ViewScale \f "%sn">%
 71
     4
300
ANSI31
 40
1.0
 90
        0
290
     0
290
     0
 90
        6
 40
0.0
 40
1.570796326794896
 40
0.2617993877991494
 40
1.308996938995747
 40
-0.2617993877991494
 40
1.832595714594046
  0
TABLESTYLE
  5
9BE2
102
{ACAD_XDICTIONARY
360
9C1A
102
}
102
{ACAD_REACTORS
330
9BE1
102
}
330
9BE1
100
AcDbTableStyle
  3
Standard
 70
     0
 71
     0
 40
0.06
 41
0.06
280
     0
281
     0
  7
STANDARD
140
0.18
170
     2
 62
     0
 63
     7
283
     0
274
    -2
284
     1
 64
     0
275
    -2
285
     1
 65
     0
276
    -2
286
     1
 66
     0
277
    -2
287
     1
 67
     0
278
    -2
288
     1
 68
     0
279
    -2
289
     1
 69
     0
  7
STANDARD
140
0.25
170
     5
 62
     0
 63
     7
283
     0
274
    -2
284
     1
 64
     0
275
    -2
285
     1
 65
     0
276
    -2
286
     1
 66
     0
277
    -2
287
     1
 67
     0
278
    -2
288
     1
 68
     0
279
    -2
289
     1
 69
     0
  7
STANDARD
140
0.18
170
     5
 62
     0
 63
     7
283
     0
274
    -2
284
     1
 64
     0
275
    -2
285
     1
 65
     0
276
    -2
286
     1
 66
     0
277
    -2
287
     1
 67
     0
278
    -2
288
     1
 68
     0
279
    -2
289
     1
 69
     0
  0
VISUALSTYLE
  5
9BCD
102
{ACAD_XDICTIONARY
360
9C2B
102
}
102
{ACAD_REACTORS
330
9BC7
102
}
330
9BC7
100
AcDbVisualStyle
  2
2dWireframe
 70
     4
 71
     0
 72
     2
 73
     0
 90
        0
 40
-0.6
 41
-30.0
 62
     5
 63
     7
 74
     1
 91
        4
 64
     7
 65
   257
 75
     1
175
     1
 42
1.0
 92
        0
 66
   257
 43
1.0
 76
     1
 77
     6
 78
     2
 67
     7
 79
     5
170
     0
171
     0
290
     0
174
     0
 93
        1
 44
0.0
173
     0
291
     0
 45
0.0
1001
ACAD
1000
AcDbSavedByObjectVersion
1070
     0
  0
VISUALSTYLE
  5
9BCC
102
{ACAD_XDICTIONARY
360
9C29
102
}
102
{ACAD_REACTORS
330
9BC7
102
}
330
9BC7
100
AcDbVisualStyle
  2
Basic
 70
     7
 71
     1
 72
     0
 73
     1
 90
        0
 40
-0.6
 41
-30.0
 62
     5
 63
     7
 74
     0
 91
        4
 64
     7
 65
   257
 75
     1
175
     1
 42
1.0
 92
        8
 66
     7
 43
1.0
 76
     1
 77
     6
 78
     2
 67
     7
 79
     5
170
     0
171
     0
290
     0
174
     0
 93
        1
 44
0.0
173
     0
291
     1
 45
0.0
1001
ACAD
1000
AcDbSavedByObjectVersion
1070
     0
  0
VISUALSTYLE
  5
9BD3
102
{ACAD_XDICTIONARY
360
9C37
102
}
102
{ACAD_REACTORS
330
9BC7
102
}
330
9BC7
100
AcDbVisualStyle
  2
Brighten
 70
    12
 71
     2
 72
     2
 73
     0
 90
        0
 40
-0.6
 41
-30.0
 62
     5
 63
     7
 74
     1
 91
        4
 64
     7
 65
   257
 75
     1
175
     1
 42
1.0
 92
        8
 66
     7
 43
1.0
 76
     1
 77
     6
 78
     2
 67
     7
 79
     5
170
     0
171
     0
290
     0
174
     0
 93
        1
 44
50.0
173
     0
291
     1
 45
0.0
1001
ACAD
1000
AcDbSavedByObjectVersion
1070
     0
  0
VISUALSTYLE
  5
9BD7
102
{ACAD_XDICTIONARY
360
9C3F
102
}
102
{ACAD_REACTORS
330
9BC7
102
}
330
9BC7
100
AcDbVisualStyle
  2
ColorChange
 70
    16
 71
     2
 72
     2
 73
     3
 90
        0
 40
-0.6
 41
-30.0
 62
     5
 63
     8
 74
     1
 91
        4
 64
     7
 65
   257
 75
     1
175
     1
 42
1.0
 92
        8
 66
     8
 43
1.0
 76
     1
 77
     6
 78
     2
 67
     7
 79
     5
170
     0
171
     0
290
     0
174
     0
 93
        1
 44
0.0
173
     0
291
     1
 45
0.0
1001
ACAD
1000
AcDbSavedByObjectVersion
1070
     0
  0
VISUALSTYLE
  5
9BD0
102
{ACAD_XDICTIONARY
360
9C31
102
}
102
{ACAD_REACTORS
330
9BC7
102
}
330
9BC7
100
AcDbVisualStyle
  2
Conceptual
 70
     9
 71
     3
 72
     2
 73
     0
 90
        0
 40
-0.6
 41
-30.0
 62
     5
 63
     7
 74
     2
 91
        2
 64
     7
 65
   257
 75
     1
175
     1
 42
179.0
 92
        8
 66
     7
 43
1.0
 76
     1
 77
     6
 78
     2
 67
     7
 79
     3
170
     0
171
     0
290
     0
174
     0
 93
        1
 44
0.0
173
     0
291
     0
 45
0.0
1001
ACAD
1000
AcDbSavedByObjectVersion
1070
     0
  0
VISUALSTYLE
  5
9BD2
102
{ACAD_XDICTIONARY
360
9C35
102
}
102
{ACAD_REACTORS
330
9BC7
102
}
330
9BC7
100
AcDbVisualStyle
  2
Dim
 70
    11
 71
     2
 72
     2
 73
     0
 90
        0
 40
-0.6
 41
-30.0
 62
     5
 63
     7
 74
     1
 91
        4
 64
     7
 65
   257
 75
     1
175
     1
 42
1.0
 92
        8
 66
     7
 43
1.0
 76
     1
 77
     6
 78
     2
 67
     7
 79
     5
170
     0
171
     0
290
     0
174
     0
 93
        1
 44
-50.0
173
     0
291
     1
 45
0.0
1001
ACAD
1000
AcDbSavedByObjectVersion
1070
     0
  0
VISUALSTYLE
  5
9BDF
102
{ACAD_XDICTIONARY
360
9C4F
102
}
102
{ACAD_REACTORS
330
9BC7
102
}
330
9BC7
100
AcDbVisualStyle
  2
EdgeColorOff
 70
    22
 71
     2
 72
     2
 73
     0
 90
        0
 40
-0.6
 41
-30.0
 62
     5
 63
     7
 74
     1
 91
        4
 64
     7
 65
   257
 75
     1
175
     1
 42
1.0
 92
        8
 66
     7
 43
1.0
 76
     1
 77
     6
 78
     2
 67
     7
 79
     5
170
     0
171
     0
290
     0
174
     0
 93
        1
 44
0.0
173
     0
291
     1
 45
0.0
1001
ACAD
1000
AcDbSavedByObjectVersion
1070
     0
  0
VISUALSTYLE
  5
9BD6
102
{ACAD_XDICTIONARY
360
9C3D
102
}
102
{ACAD_REACTORS
330
9BC7
102
}
330
9BC7
100
AcDbVisualStyle
  2
Facepattern
 70
    15
 71
     2
 72
     2
 73
     0
 90
        0
 40
-0.6
 41
-30.0
 62
     5
 63
     7
 74
     1
 91
        4
 64
     7
 65
   257
 75
     1
175
     1
 42
1.0
 92
        8
 66
     7
 43
1.0
 76
     1
 77
     6
 78
     2
 67
     7
 79
     5
170
     0
171
     0
290
     0
174
     0
 93
        1
 44
0.0
173
     0
291
     1
 45
0.0
1001
ACAD
1000
AcDbSavedByObjectVersion
1070
     0
  0
VISUALSTYLE
  5
9BC8
102
{ACAD_XDICTIONARY
360
9C21
102
}
102
{ACAD_REACTORS
330
9BC7
102
}
330
9BC7
100
AcDbVisualStyle
  2
Flat
 70
     0
 71
     2
 72
     1
 73
     1
 90
        2
 40
-0.6
 41
30.0
 62
     5
 63
     7
 74
     0
 91
        0
 64
     7
 65
   257
 75
     1
175
     1
 42
1.0
 92
        8
 66
     7
 43
1.0
 76
     1
 77
     6
 78
     2
 67
     7
 79
     5
170
     0
171
     0
290
     0
174
     0
 93
       13
 44
0.0
173
     0
291
     1
 45
0.0
1001
ACAD
1000
AcDbSavedByObjectVersion
1070
     0
  0
VISUALSTYLE
  5
9BC9
102
{ACAD_XDICTIONARY
360
9C23
102
}
102
{ACAD_REACTORS
330
9BC7
102
}
330
9BC7
100
AcDbVisualStyle
  2
FlatWithEdges
 70
     1
 71
     2
 72
     1
 73
     1
 90
        2
 40
-0.6
 41
30.0
 62
     5
 63
     7
 74
     1
 91
        0
 64
     7
 65
   257
 75
     1
175
     1
 42
1.0
 92
        0
 66
   257
 43
1.0
 76
     1
 77
     6
 78
     2
 67
     7
 79
     5
170
     0
171
     0
290
     0
174
     0
 93
       13
 44
0.0
173
     0
291
     1
 45
0.0
1001
ACAD
1000
AcDbSavedByObjectVersion
1070
     0
  0
VISUALSTYLE
  5
9BCA
102
{ACAD_XDICTIONARY
360
9C25
102
}
102
{ACAD_REACTORS
330
9BC7
102
}
330
9BC7
100
AcDbVisualStyle
  2
Gouraud
 70
     2
 71
     2
 72
     2
 73
     1
 90
        2
 40
-0.6
 41
30.0
 62
     5
 63
     7
 74
     0
 91
        0
 64
     7
 65
   257
 75
     1
175
     1
 42
1.0
 92
        0
 66
     7
 43
1.0
 76
     1
 77
     6
 78
     2
 67
     7
 79
     5
170
     0
171
     0
290
     0
174
     0
 93
       13
 44
0.0
173
     0
291
     1
 45
0.0
1001
ACAD
1000
AcDbSavedByObjectVersion
1070
     0
  0
VISUALSTYLE
  5
9BCB
102
{ACAD_XDICTIONARY
360
9C27
102
}
102
{ACAD_REACTORS
330
9BC7
102
}
330
9BC7
100
AcDbVisualStyle
  2
GouraudWithEdges
 70
     3
 71
     2
 72
     2
 73
     1
 90
        2
 40
-0.6
 41
30.0
 62
     5
 63
     7
 74
     1
 91
        0
 64
     7
 65
   257
 75
     1
175
     1
 42
1.0
 92
        0
 66
   257
 43
1.0
 76
     1
 77
     6
 78
     2
 67
     7
 79
     5
170
     0
171
     0
290
     0
174
     0
 93
       13
 44
0.0
173
     0
291
     1
 45
0.0
1001
ACAD
1000
AcDbSavedByObjectVersion
1070
     0
  0
VISUALSTYLE
  5
9BCF
102
{ACAD_XDICTIONARY
360
9C2F
102
}
102
{ACAD_REACTORS
330
9BC7
102
}
330
9BC7
100
AcDbVisualStyle
  2
Hidden
 70
     6
 71
     1
 72
     2
 73
     2
 90
        0
 40
-0.6
 41
-30.0
 62
     5
 63
     7
 74
     2
 91
        2
 64
     7
 65
   257
 75
     2
175
     1
 42
40.0
 92
        0
 66
   257
 43
1.0
 76
     1
 77
     6
 78
     2
 67
     7
 79
     3
170
     0
171
     0
290
     0
174
     0
 93
        1
 44
0.0
173
     0
291
     0
 45
0.0
1001
ACAD
1000
AcDbSavedByObjectVersion
1070
     0
  0
VISUALSTYLE
  5
9BDD
102
{ACAD_XDICTIONARY
360
9C4B
102
}
102
{ACAD_REACTORS
330
9BC7
102
}
330
9BC7
100
AcDbVisualStyle
  2
JitterOff
 70
    20
 71
     2
 72
     2
 73
     0
 90
        0
 40
-0.6
 41
-30.0
 62
     5
 63
     7
 74
     1
 91
        4
 64
     7
 65
   257
 75
     1
175
     1
 42
1.0
 92
       10
 66
     7
 43
1.0
 76
     1
 77
     6
 78
     2
 67
     7
 79
     5
170
     0
171
     0
290
     0
174
     0
 93
        1
 44
0.0
173
     0
291
     1
 45
0.0
1001
ACAD
1000
AcDbSavedByObjectVersion
1070
     0
  0
VISUALSTYLE
  5
9BD5
102
{ACAD_XDICTIONARY
360
9C3B
102
}
102
{ACAD_REACTORS
330
9BC7
102
}
330
9BC7
100
AcDbVisualStyle
  2
Linepattern
 70
    14
 71
     2
 72
     2
 73
     0
 90
        0
 40
-0.6
 41
-30.0
 62
     5
 63
     7
 74
     1
 91
        4
 64
     7
 65
   257
 75
     7
175
     7
 42
1.0
 92
        8
 66
     7
 43
1.0
 76
     1
 77
     6
 78
     2
 67
     7
 79
     5
170
     0
171
     0
290
     0
174
     0
 93
        1
 44
0.0
173
     0
291
     1
 45
0.0
1001
ACAD
1000
AcDbSavedByObjectVersion
1070
     0
  0
VISUALSTYLE
  5
9BDE
102
{ACAD_XDICTIONARY
360
9C4D
102
}
102
{ACAD_REACTORS
330
9BC7
102
}
330
9BC7
100
AcDbVisualStyle
  2
OverhangOff
 70
    21
 71
     2
 72
     2
 73
     0
 90
        0
 40
-0.6
 41
-30.0
 62
     5
 63
     7
 74
     1
 91
        4
 64
     7
 65
   257
 75
     1
175
     1
 42
1.0
 92
        9
 66
     7
 43
1.0
 76
     1
 77
     6
 78
     2
 67
     7
 79
     5
170
     0
171
     0
290
     0
174
     0
 93
        1
 44
0.0
173
     0
291
     1
 45
0.0
1001
ACAD
1000
AcDbSavedByObjectVersion
1070
     0
  0
VISUALSTYLE
  5
9BD1
102
{ACAD_XDICTIONARY
360
9C33
102
}
102
{ACAD_REACTORS
330
9BC7
102
}
330
9BC7
100
AcDbVisualStyle
  2
Realistic
 70
     8
 71
     2
 72
     3
 73
     0
 90
        2
 40
-0.6
 41
30.0
 62
     5
 63
     7
 74
     0
 91
        0
 64
     7
 65
   257
 75
     1
175
     1
 42
1.0
 92
        8
 66
   257
 43
1.0
 76
     1
 77
     6
 78
     2
 67
     7
 79
     3
170
     0
171
     0
290
     0
174
     0
 93
       13
 44
0.0
173
     0
291
     0
 45
0.0
1001
ACAD
1000
AcDbSavedByObjectVersion
1070
     0
  0
VISUALSTYLE
  5
9BDC
102
{ACAD_XDICTIONARY
360
9C49
102
}
102
{ACAD_REACTORS
330
9BC7
102
}
330
9BC7
100
AcDbVisualStyle
  2
Shaded
 70
    27
 71
     2
 72
     2
 73
     1
 90
        2
 40
-0.6
 41
30.0
 62
     5
 63
     7
 74
     0
 91
        4
 64
     7
 65
   257
 75
     1
175
     1
 42
1.0
 92
        8
 66
   257
 43
1.0
 76
     1
 77
     6
 78
     2
 67
     8
 79
     3
170
     0
171
     0
290
     0
174
     0
 93
        5
 44
0.0
173
     0
291
     0
 45
0.0
1001
ACAD
1000
AcDbSavedByObjectVersion
1070
     0
  0
VISUALSTYLE
  5
9BDB
102
{ACAD_XDICTIONARY
360
9C47
102
}
102
{ACAD_REACTORS
330
9BC7
102
}
330
9BC7
100
AcDbVisualStyle
  2
Shaded with edges
 70
    26
 71
     2
 72
     2
 73
     1
 90
        2
 40
-0.6
 41
30.0
 62
     5
 63
     7
 74
     1
 91
       10
 64
     7
 65
   257
 75
     2
175
     1
 42
1.0
 92
        8
 66
   257
 43
1.0
 76
     1
 77
     6
 78
     2
 67
     7
 79
     3
170
     0
171
     0
290
     0
174
     0
 93
        5
 44
0.0
173
     0
291
     0
 45
0.0
1001
ACAD
1000
AcDbSavedByObjectVersion
1070
     0
  0
VISUALSTYLE
  5
9BD8
102
{ACAD_XDICTIONARY
360
9C41
102
}
102
{ACAD_REACTORS
330
9BC7
102
}
330
9BC7
100
AcDbVisualStyle
  2
Shades of Gray
 70
    23
 71
     2
 72
     2
 73
     3
 90
        0
 40
-0.6
 41
-30.0
 62
     5
 63
     7
 74
     2
 91
        2
 64
     7
 65
     7
 75
     1
175
     1
 42
40.0
 92
        8
 66
     7
 43
1.0
 76
     1
 77
     6
 78
     2
 67
     7
 79
     3
170
     0
171
     0
290
     0
174
     0
 93
        1
 44
0.0
173
     0
291
     0
 45
0.0
1001
ACAD
1000
AcDbSavedByObjectVersion
1070
     0
  0
VISUALSTYLE
  5
9BD9
102
{ACAD_XDICTIONARY
360
9C43
102
}
102
{ACAD_REACTORS
330
9BC7
102
}
330
9BC7
100
AcDbVisualStyle
  2
Sketchy
 70
    24
 71
     1
 72
     2
 73
     2
 90
        0
 40
-0.6
 41
-30.0
 62
     5
 63
     7
 74
     2
 91
        2
 64
     7
 65
     7
 75
     1
175
     1
 42
40.0
 92
       11
 66
     7
 43
1.0
 76
     1
 77
     6
 78
     2
 67
     7
 79
     6
170
     0
171
     0
290
     0
174
     0
 93
        1
 44
0.0
173
     0
291
     0
 45
0.0
1001
ACAD
1000
AcDbSavedByObjectVersion
1070
     0
  0
VISUALSTYLE
  5
9BD4
102
{ACAD_XDICTIONARY
360
9C39
102
}
102
{ACAD_REACTORS
330
9BC7
102
}
330
9BC7
100
AcDbVisualStyle
  2
Thicken
 70
    13
 71
     2
 72
     2
 73
     0
 90
        0
 40
-0.6
 41
-30.0
 62
     5
 63
     7
 74
     1
 91
        4
 64
     7
 65
   257
 75
     1
175
     1
 42
1.0
 92
       12
 66
     7
 43
1.0
 76
     1
 77
     6
 78
     2
 67
     7
 79
     5
170
     0
171
     0
290
     0
174
     0
 93
        1
 44
0.0
173
     0
291
     1
 45
0.0
1001
ACAD
1000
AcDbSavedByObjectVersion
1070
     0
  0
VISUALSTYLE
  5
9BCE
102
{ACAD_XDICTIONARY
360
9C2D
102
}
102
{ACAD_REACTORS
330
9BC7
102
}
330
9BC7
100
AcDbVisualStyle
  2
Wireframe
 70
     5
 71
     0
 72
     2
 73
     0
 90
        0
 40
-0.6
 41
-30.0
 62
     5
 63
     7
 74
     1
 91
        4
 64
     7
 65
   257
 75
     1
175
     1
 42
1.0
 92
        0
 66
   257
 43
1.0
 76
     1
 77
     6
 78
     2
 67
     7
 79
     3
170
     0
171
     0
290
     0
174
     0
 93
        1
 44
0.0
173
     0
291
     0
 45
0.0
1001
ACAD
1000
AcDbSavedByObjectVersion
1070
     0
  0
VISUALSTYLE
  5
9BDA
102
{ACAD_XDICTIONARY
360
9C45
102
}
102
{ACAD_REACTORS
330
9BC7
102
}
330
9BC7
100
AcDbVisualStyle
  2
X-Ray
 70
    25
 71
     2
 72
     2
 73
     1
 90
        1
 40
0.5
 41
-30.0
 62
     5
 63
     7
 74
     1
 91
        0
 64
     7
 65
   257
 75
     1
175
     1
 42
1.0
 92
        8
 66
     7
 43
1.0
 76
     1
 77
     6
 78
     2
 67
     7
 79
     3
170
     0
171
     0
290
     0
174
     0
 93
       13
 44
0.0
173
     0
291
     0
 45
0.0
1001
ACAD
1000
AcDbSavedByObjectVersion
1070
     0
  0
DICTIONARYVAR
  5
9C14
102
{ACAD_REACTORS
330
9C0F
102
}
330
9C0F
100
DictionaryVariables
280
     0
  1
1:1
  0
DICTIONARYVAR
  5
9C11
102
{ACAD_REACTORS
330
9C0F
102
}
330
9C0F
100
DictionaryVariables
280
     0
  1
STANDARD
  0
DICTIONARYVAR
  5
9C10
102
{ACAD_REACTORS
330
9C0F
102
}
330
9C0F
100
DictionaryVariables
280
     0
  1
STANDARD
  0
DICTIONARYVAR
  5
9C12
102
{ACAD_REACTORS
330
9C0F
102
}
330
9C0F
100
DictionaryVariables
280
     0
  1
Imperial24
  0
DICTIONARYVAR
  5
9C13
102
{ACAD_REACTORS
330
9C0F
102
}
330
9C0F
100
DictionaryVariables
280
     0
  1
Imperial24
  0
DICTIONARYVAR
  5
9C17
102
{ACAD_REACTORS
330
9C0F
102
}
330
9C0F
100
DictionaryVariables
280
     0
  1
1
  0
DICTIONARYVAR
  5
9C16
102
{ACAD_REACTORS
330
9C0F
102
}
330
9C0F
100
DictionaryVariables
280
     0
  1
0
  0
DICTIONARYVAR
  5
9C15
102
{ACAD_REACTORS
330
9C0F
102
}
330
9C0F
100
DictionaryVariables
280
     0
  1
127
  0
DICTIONARYVAR
  5
9C18
102
{ACAD_REACTORS
330
9C0F
102
}
330
9C0F
100
DictionaryVariables
280
     0
  1
2
  0
DICTIONARY
  5
9C55
330
9BFA
100
AcDbDictionary
280
     1
281
     1
  3
ACAD_XREC_ROUNDTRIP
360
9C56
  0
DICTIONARY
  5
9C57
330
9BFB
100
AcDbDictionary
280
     1
281
     1
  3
ACAD_XREC_ROUNDTRIP
360
9C58
  0
DICTIONARY
  5
9C59
330
9BFC
100
AcDbDictionary
280
     1
281
     1
  3
ACAD_XREC_ROUNDTRIP
360
9C5A
  0
DICTIONARY
  5
9BB8
330
9BB7
100
AcDbDictionary
280
     1
281
     1
  3
ACAD_XREC_ROUNDTRIP
360
9C1F
  3
BUMPTILE
360
9BBA
  3
DIFFUSETILE
360
9BB9
  3
OPACITYTILE
360
9BBD
  3
REFLECTIONTILE
360
9BBC
  3
REFRACTIONTILE
360
9BBE
  3
SPECULARTILE
360
9BBB
  0
DICTIONARY
  5
9BB0
330
9BAF
100
AcDbDictionary
280
     1
281
     1
  3
ACAD_XREC_ROUNDTRIP
360
9C1E
  3
BUMPTILE
360
9BB2
  3
DIFFUSETILE
360
9BB1
  3
OPACITYTILE
360
9BB5
  3
REFLECTIONTILE
360
9BB4
  3
REFRACTIONTILE
360
9BB6
  3
SPECULARTILE
360
9BB3
  0
DICTIONARY
  5
9BC0
330
9BBF
100
AcDbDictionary
280
     1
281
     1
  3
ACAD_XREC_ROUNDTRIP
360
9C20
  3
BUMPTILE
360
9BC2
  3
DIFFUSETILE
360
9BC1
  3
OPACITYTILE
360
9BC5
  3
REFLECTIONTILE
360
9BC4
  3
REFRACTIONTILE
360
9BC6
  3
SPECULARTILE
360
9BC3
  0
DICTIONARY
  5
9C53
330
9BF8
100
AcDbDictionary
280
     1
281
     1
  3
ACAD_XREC_ROUNDTRIP
360
9C54
  0
DICTIONARY
  5
9C1A
330
9BE2
100
AcDbDictionary
280
     1
281
     1
  3
ACAD_ROUNDTRIP_2008_TABLESTYLE_CELLSTYLEMAP
360
9C1B
  3
ACAD_XREC_ROUNDTRIP
360
9C51
  0
DICTIONARY
  5
9C2B
330
9BCD
100
AcDbDictionary
280
     1
281
     1
  3
ACAD_XREC_ROUNDTRIP
360
9C2C
  0
DICTIONARY
  5
9C29
330
9BCC
100
AcDbDictionary
280
     1
281
     1
  3
ACAD_XREC_ROUNDTRIP
360
9C2A
  0
DICTIONARY
  5
9C37
330
9BD3
100
AcDbDictionary
280
     1
281
     1
  3
ACAD_XREC_ROUNDTRIP
360
9C38
  0
DICTIONARY
  5
9C3F
330
9BD7
100
AcDbDictionary
280
     1
281
     1
  3
ACAD_XREC_ROUNDTRIP
360
9C40
  0
DICTIONARY
  5
9C31
330
9BD0
100
AcDbDictionary
280
     1
281
     1
  3
ACAD_XREC_ROUNDTRIP
360
9C32
  0
DICTIONARY
  5
9C35
330
9BD2
100
AcDbDictionary
280
     1
281
     1
  3
ACAD_XREC_ROUNDTRIP
360
9C36
  0
DICTIONARY
  5
9C4F
330
9BDF
100
AcDbDictionary
280
     1
281
     1
  3
ACAD_XREC_ROUNDTRIP
360
9C50
  0
DICTIONARY
  5
9C3D
330
9BD6
100
AcDbDictionary
280
     1
281
     1
  3
ACAD_XREC_ROUNDTRIP
360
9C3E
  0
DICTIONARY
  5
9C21
330
9BC8
100
AcDbDictionary
280
     1
281
     1
  3
ACAD_XREC_ROUNDTRIP
360
9C22
  0
DICTIONARY
  5
9C23
330
9BC9
100
AcDbDictionary
280
     1
281
     1
  3
ACAD_XREC_ROUNDTRIP
360
9C24
  0
DICTIONARY
  5
9C25
330
9BCA
100
AcDbDictionary
280
     1
281
     1
  3
ACAD_XREC_ROUNDTRIP
360
9C26
  0
DICTIONARY
  5
9C27
330
9BCB
100
AcDbDictionary
280
     1
281
     1
  3
ACAD_XREC_ROUNDTRIP
360
9C28
  0
DICTIONARY
  5
9C2F
330
9BCF
100
AcDbDictionary
280
     1
281
     1
  3
ACAD_XREC_ROUNDTRIP
360
9C30
  0
DICTIONARY
  5
9C4B
330
9BDD
100
AcDbDictionary
280
     1
281
     1
  3
ACAD_XREC_ROUNDTRIP
360
9C4C
  0
DICTIONARY
  5
9C3B
330
9BD5
100
AcDbDictionary
280
     1
281
     1
  3
ACAD_XREC_ROUNDTRIP
360
9C3C
  0
DICTIONARY
  5
9C4D
330
9BDE
100
AcDbDictionary
280
     1
281
     1
  3
ACAD_XREC_ROUNDTRIP
360
9C4E
  0
DICTIONARY
  5
9C33
330
9BD1
100
AcDbDictionary
280
     1
281
     1
  3
ACAD_XREC_ROUNDTRIP
360
9C34
  0
DICTIONARY
  5
9C49
330
9BDC
100
AcDbDictionary
280
     1
281
     1
  3
ACAD_XREC_ROUNDTRIP
360
9C4A
  0
DICTIONARY
  5
9C47
330
9BDB
100
AcDbDictionary
280
     1
281
     1
  3
ACAD_XREC_ROUNDTRIP
360
9C48
  0
DICTIONARY
  5
9C41
330
9BD8
100
AcDbDictionary
280
     1
281
     1
  3
ACAD_XREC_ROUNDTRIP
360
9C42
  0
DICTIONARY
  5
9C43
330
9BD9
100
AcDbDictionary
280
     1
281
     1
  3
ACAD_XREC_ROUNDTRIP
360
9C44
  0
DICTIONARY
  5
9C39
330
9BD4
100
AcDbDictionary
280
     1
281
     1
  3
ACAD_XREC_ROUNDTRIP
360
9C3A
  0
DICTIONARY
  5
9C2D
330
9BCE
100
AcDbDictionary
280
     1
281
     1
  3
ACAD_XREC_ROUNDTRIP
360
9C2E
  0
DICTIONARY
  5
9C45
330
9BDA
100
AcDbDictionary
280
     1
281
     1
  3
ACAD_XREC_ROUNDTRIP
360
9C46
  0
XRECORD
  5
9C56
102
{ACAD_REACTORS
330
9C55
102
}
330
9C55
100
AcDbXrecord
280
     1
102
DISPLAYNAME
  1
Imperial24
102
FLAGS
 90
        0
  0
XRECORD
  5
9C58
102
{ACAD_REACTORS
330
9C57
102
}
330
9C57
100
AcDbXrecord
280
     1
102
SHADEPLOT
 70
     0
102
SHADEPLOTRESLEVEL
 70
     2
102
SHADEPLOTCUSTOMDPI
 70
   300
  0
XRECORD
  5
9C5A
102
{ACAD_REACTORS
330
9C59
102
}
330
9C59
100
AcDbXrecord
280
     1
102
SHADEPLOT
 70
     0
102
SHADEPLOTRESLEVEL
 70
     2
102
SHADEPLOTCUSTOMDPI
 70
   300
  0
XRECORD
  5
9C1F
102
{ACAD_REACTORS
330
9BB8
102
}
330
9BB8
100
AcDbXrecord
280
     1
102
MATERIAL
148
0.0
149
0.0
149
0.0
 93
        0
 94
      127
282
     0
 72
     0
 77
     0
171
     0
175
     0
179
     0
273
     0
  0
XRECORD
  5
9BBA
102
{ACAD_REACTORS
330
9BB8
102
}
330
9BB8
100
AcDbXrecord
280
     1
270
     1
271
     1
  0
XRECORD
  5
9BB9
102
{ACAD_REACTORS
330
9BB8
102
}
330
9BB8
100
AcDbXrecord
280
     1
270
     1
271
     1
  0
XRECORD
  5
9BBD
102
{ACAD_REACTORS
330
9BB8
102
}
330
9BB8
100
AcDbXrecord
280
     1
270
     1
271
     1
  0
XRECORD
  5
9BBC
102
{ACAD_REACTORS
330
9BB8
102
}
330
9BB8
100
AcDbXrecord
280
     1
270
     1
271
     1
  0
XRECORD
  5
9BBE
102
{ACAD_REACTORS
330
9BB8
102
}
330
9BB8
100
AcDbXrecord
280
     1
270
     1
271
     1
  0
XRECORD
  5
9BBB
102
{ACAD_REACTORS
330
9BB8
102
}
330
9BB8
100
AcDbXrecord
280
     1
270
     1
271
     1
  0
XRECORD
  5
9C1E
102
{ACAD_REACTORS
330
9BB0
102
}
330
9BB0
100
AcDbXrecord
280
     1
102
MATERIAL
148
0.0
149
0.0
149
0.0
 93
        0
 94
      127
282
     0
 72
     0
 77
     0
171
     0
175
     0
179
     0
273
     0
  0
XRECORD
  5
9BB2
102
{ACAD_REACTORS
330
9BB0
102
}
330
9BB0
100
AcDbXrecord
280
     1
270
     1
271
     1
  0
XRECORD
  5
9BB1
102
{ACAD_REACTORS
330
9BB0
102
}
330
9BB0
100
AcDbXrecord
280
     1
270
     1
271
     1
  0
XRECORD
  5
9BB5
102
{ACAD_REACTORS
330
9BB0
102
}
330
9BB0
100
AcDbXrecord
280
     1
270
     1
271
     1
  0
XRECORD
  5
9BB4
102
{ACAD_REACTORS
330
9BB0
102
}
330
9BB0
100
AcDbXrecord
280
     1
270
     1
271
     1
  0
XRECORD
  5
9BB6
102
{ACAD_REACTORS
330
9BB0
102
}
330
9BB0
100
AcDbXrecord
280
     1
270
     1
271
     1
  0
XRECORD
  5
9BB3
102
{ACAD_REACTORS
330
9BB0
102
}
330
9BB0
100
AcDbXrecord
280
     1
270
     1
271
     1
  0
XRECORD
  5
9C20
102
{ACAD_REACTORS
330
9BC0
102
}
330
9BC0
100
AcDbXrecord
280
     1
102
MATERIAL
148
0.0
149
0.0
149
0.0
 93
        0
 94
      127
282
     0
 72
     0
 77
     0
171
     0
175
     0
179
     0
273
     0
  0
XRECORD
  5
9BC2
102
{ACAD_REACTORS
330
9BC0
102
}
330
9BC0
100
AcDbXrecord
280
     1
270
     1
271
     1
  0
XRECORD
  5
9BC1
102
{ACAD_REACTORS
330
9BC0
102
}
330
9BC0
100
AcDbXrecord
280
     1
270
     1
271
     1
  0
XRECORD
  5
9BC5
102
{ACAD_REACTORS
330
9BC0
102
}
330
9BC0
100
AcDbXrecord
280
     1
270
     1
271
     1
  0
XRECORD
  5
9BC4
102
{ACAD_REACTORS
330
9BC0
102
}
330
9BC0
100
AcDbXrecord
280
     1
270
     1
271
     1
  0
XRECORD
  5
9BC6
102
{ACAD_REACTORS
330
9BC0
102
}
330
9BC0
100
AcDbXrecord
280
     1
270
     1
271
     1
  0
XRECORD
  5
9BC3
102
{ACAD_REACTORS
330
9BC0
102
}
330
9BC0
100
AcDbXrecord
280
     1
270
     1
271
     1
  0
XRECORD
  5
9C54
102
{ACAD_REACTORS
330
9C53
102
}
330
9C53
100
AcDbXrecord
280
     1
102
DISPLAYNAME
  1
Imperial24
102
FLAGS
 90
        0
  0
CELLSTYLEMAP
  5
9C1B
102
{ACAD_REACTORS
330
9C1A
102
}
330
9C1A
100
AcDbCellStyleMap
 90
        3
300
CELLSTYLE
  1
TABLEFORMAT_BEGIN
 90
        5
170
     1
 91
        0
 92
    32768
 62
   257
 93
        1
300
CONTENTFORMAT
  1
CONTENTFORMAT_BEGIN
 90
        0
 91
        0
 92
      512
 93
        0
300

 40
0.0
140
1.0
 94
        5
 62
     0
340
99A9
144
0.25
309
CONTENTFORMAT_END
171
     0
 94
        0
309
TABLEFORMAT_END
  1
CELLSTYLE_BEGIN
 90
        1
 91
        1
300
_TITLE
309
CELLSTYLE_END
300
CELLSTYLE
  1
TABLEFORMAT_BEGIN
 90
        5
170
     1
 91
        0
 92
        0
 62
   257
 93
        1
300
CONTENTFORMAT
  1
CONTENTFORMAT_BEGIN
 90
        0
 91
        0
 92
      512
 93
        0
300

 40
0.0
140
1.0
 94
        5
 62
     0
340
99A9
144
0.18
309
CONTENTFORMAT_END
171
     0
 94
        0
309
TABLEFORMAT_END
  1
CELLSTYLE_BEGIN
 90
        2
 91
        1
300
_HEADER
309
CELLSTYLE_END
300
CELLSTYLE
  1
TABLEFORMAT_BEGIN
 90
        5
170
     1
 91
        0
 92
        0
 62
   257
 93
        1
300
CONTENTFORMAT
  1
CONTENTFORMAT_BEGIN
 90
        0
 91
        0
 92
      512
 93
        0
300

 40
0.0
140
1.0
 94
        2
 62
     0
340
99A9
144
0.18
309
CONTENTFORMAT_END
171
     0
 94
        0
309
TABLEFORMAT_END
  1
CELLSTYLE_BEGIN
 90
        3
 91
        2
300
_DATA
309
CELLSTYLE_END
  0
XRECORD
  5
9C51
102
{ACAD_REACTORS
330
9C1A
102
}
330
9C1A
100
AcDbXrecord
280
     1
102
ACAD_ROUNDTRIP_PRE2007_TABLESTYLE
 90
      512
 91
        0
  1

 92
      512
 93
        0
  2

 94
      512
 95
        0
  3

  0
XRECORD
  5
9C2C
102
{ACAD_REACTORS
330
9C2B
102
}
330
9C2B
100
AcDbXrecord
280
     1
102
RTVSPost2010Prop28
280
     1
102
RTVSPost2010PropOp28
 70
     1
102
RTVSPost2010Prop29
280
     1
102
RTVSPost2010PropOp29
 70
     1
102
RTVSPost2010Prop30
280
     0
102
RTVSPost2010PropOp30
 70
     1
102
RTVSPost2010Prop31
280
     0
102
RTVSPost2010PropOp31
 70
     1
102
RTVSPost2010Prop32
280
     0
102
RTVSPost2010PropOp32
 70
     1
102
RTVSPost2010Prop33
280
     0
102
RTVSPost2010PropOp33
 70
     1
102
RTVSPost2010Prop34
280
     0
102
RTVSPost2010PropOp34
 70
     1
102
RTVSPost2010Prop35
280
     0
102
RTVSPost2010PropOp35
 70
     1
102
RTVSPost2010Prop36
280
     0
102
RTVSPost2010PropOp36
 70
     1
102
RTVSPost2010Prop37
 90
       50
102
RTVSPost2010PropOp37
 70
     1
102
RTVSPost2010Prop38
140
0.0
102
RTVSPost2010PropOp38
 70
     1
102
RTVSPost2010Prop39
140
1.0
102
RTVSPost2010PropOp39
 70
     1
102
RTVSPost2010Prop40
 90
        0
102
RTVSPost2010PropOp40
 70
     1
102
RTVSPost2010Prop41ColorIndex
 90
       18
102
RTVSPost2010Prop41ColorRGB
 90
        0
102
RTVSPost2010PropOp41
 70
     1
102
RTVSPost2010Prop42
 90
       50
102
RTVSPost2010PropOp42
 70
     1
102
RTVSPost2010Prop43
 90
        3
102
RTVSPost2010PropOp43
 70
     1
102
RTVSPost2010Prop44ColorIndex
 90
        5
102
RTVSPost2010Prop44ColorRGB
 90
      255
102
RTVSPost2010PropOp44
 70
     1
102
RTVSPost2010Prop45
280
     0
102
RTVSPost2010PropOp45
 70
     1
102
RTVSPost2010Prop46
 90
       50
102
RTVSPost2010PropOp46
 70
     1
102
RTVSPost2010Prop47
 90
       50
102
RTVSPost2010PropOp47
 70
     1
102
RTVSPost2010Prop48
 90
       50
102
RTVSPost2010PropOp48
 70
     1
102
RTVSPost2010Prop49
280
     0
102
RTVSPost2010PropOp49
 70
     1
102
RTVSPost2010Prop50
 90
       50
102
RTVSPost2010PropOp50
 70
     1
102
RTVSPost2010Prop51ColorIndex
 90
      256
102
RTVSPost2010Prop51ColorRGB
 90
-16777216
102
RTVSPost2010PropOp51
 70
     0
102
RTVSPost2010Prop52
140
1.0
102
RTVSPost2010PropOp52
 70
     0
102
RTVSPost2010Prop53
 90
        2
102
RTVSPost2010PropOp53
 70
     1
102
RTVSPost2010Prop54
  1
strokes_ogs.tif
102
RTVSPost2010PropOp54
 70
     1
102
RTVSPost2010Prop55
280
     0
102
RTVSPost2010PropOp55
 70
     1
102
RTVSPost2010Prop56
140
1.0
102
RTVSPost2010PropOp56
 70
     1
102
RTVSPost2010Prop57
140
1.0
102
RTVSPost2010PropOp57
 70
     1
102
RTVSPropertyOp0
 70
     1
102
RTVSPropertyOp1
 70
     1
102
RTVSPropertyOp2
 70
     1
102
RTVSPropertyOp3
 70
     1
102
RTVSPropertyOp4
 70
     1
102
RTVSPropertyOp5
 70
     1
102
RTVSPropertyOp6
 70
     1
102
RTVSPropertyOp7
 70
     1
102
RTVSPropertyOp8
 70
     1
102
RTVSPropertyOp9
 70
     1
102
RTVSPropertyOp10
 70
     1
102
RTVSPropertyOp11
 70
     1
102
RTVSPropertyOp12
 70
     1
102
RTVSPropertyOp13
 70
     1
102
RTVSPropertyOp14
 70
     1
102
RTVSPropertyOp15
 70
     1
102
RTVSPropertyOp16
 70
     1
102
RTVSPropertyOp17
 70
     1
102
RTVSPropertyOp18
 70
     1
102
RTVSPropertyOp19
 70
     1
102
RTVSPropertyOp20
 70
     1
102
RTVSPropertyOp21
 70
     1
102
RTVSPropertyOp22
 70
     1
102
RTVSPropertyOp23
 70
     1
102
RTVSPropertyOp24
 70
     1
102
RTVSPropertyOp25
 70
     1
102
RTVSPropertyOp26
 70
     1
102
RTVSPropertyOp27
 70
     1
102
RTVSPropertyOp28
 70
     1
102
RTVSPropertyOp29
 70
     1
102
RTVSPropertyOp30
 70
     1
102
RTVSPropertyOp31
 70
     1
102
RTVSPropertyOp32
 70
     1
102
RTVSPropertyOp33
 70
     1
102
RTVSPropertyOp34
 70
     1
102
RTVSPropertyOp35
 70
     1
102
RTVSPropertyOp36
 70
     1
102
RTVSPropertyOp37
 70
     1
102
RTVSPropertyOp38
 70
     1
102
RTVSPropertyOp39
 70
     1
102
RTVSPropertyOp40
 70
     1
102
RTVSPropertyOp41
 70
     1
102
RTVSPropertyOp42
 70
     1
102
RTVSPropertyOp43
 70
     1
102
RTVSPropertyOp44
 70
     1
102
RTVSPropertyOp45
 70
     1
102
RTVSPropertyOp46
 70
     1
102
RTVSPropertyOp47
 70
     1
102
RTVSPropertyOp48
 70
     1
102
RTVSPropertyOp49
 70
     1
102
RTVSPropertyOp50
 70
     1
102
RTVSPropertyOp51
 70
     0
102
RTVSPropertyOp52
 70
     0
102
RTVSPropertyOp53
 70
     1
102
RTVSPropertyOp54
 70
     1
102
RTVSPropertyOp55
 70
     1
102
RTVSPropertyOp56
 70
     1
102
RTVSPropertyOp57
 70
     1
102
RTVSPropertyOp58
 70
     1
102
RTVSPropertyOp59
 70
     1
102
RTVSPropertyOp60
 70
     1
102
RTVSPropertyOp61
 70
     1
102
RTVSPropertyOp62
 70
     1
  0
XRECORD
  5
9C2A
102
{ACAD_REACTORS
330
9C29
102
}
330
9C29
100
AcDbXrecord
280
     1
102
RTVSPost2010Prop28
280
     0
102
RTVSPost2010PropOp28
 70
     1
102
RTVSPost2010Prop29
280
     1
102
RTVSPost2010PropOp29
 70
     1
102
RTVSPost2010Prop30
280
     1
102
RTVSPost2010PropOp30
 70
     1
102
RTVSPost2010Prop31
280
     0
102
RTVSPost2010PropOp31
 70
     1
102
RTVSPost2010Prop32
280
     0
102
RTVSPost2010PropOp32
 70
     1
102
RTVSPost2010Prop33
280
     0
102
RTVSPost2010PropOp33
 70
     1
102
RTVSPost2010Prop34
280
     0
102
RTVSPost2010PropOp34
 70
     1
102
RTVSPost2010Prop35
280
     0
102
RTVSPost2010PropOp35
 70
     1
102
RTVSPost2010Prop36
280
     0
102
RTVSPost2010PropOp36
 70
     1
102
RTVSPost2010Prop37
 90
       50
102
RTVSPost2010PropOp37
 70
     1
102
RTVSPost2010Prop38
140
0.0
102
RTVSPost2010PropOp38
 70
     1
102
RTVSPost2010Prop39
140
1.0
102
RTVSPost2010PropOp39
 70
     1
102
RTVSPost2010Prop40
 90
        0
102
RTVSPost2010PropOp40
 70
     1
102
RTVSPost2010Prop41ColorIndex
 90
       18
102
RTVSPost2010Prop41ColorRGB
 90
        0
102
RTVSPost2010PropOp41
 70
     1
102
RTVSPost2010Prop42
 90
       50
102
RTVSPost2010PropOp42
 70
     1
102
RTVSPost2010Prop43
 90
        3
102
RTVSPost2010PropOp43
 70
     1
102
RTVSPost2010Prop44ColorIndex
 90
        5
102
RTVSPost2010Prop44ColorRGB
 90
      255
102
RTVSPost2010PropOp44
 70
     1
102
RTVSPost2010Prop45
280
     0
102
RTVSPost2010PropOp45
 70
     1
102
RTVSPost2010Prop46
 90
       50
102
RTVSPost2010PropOp46
 70
     1
102
RTVSPost2010Prop47
 90
       50
102
RTVSPost2010PropOp47
 70
     1
102
RTVSPost2010Prop48
 90
       50
102
RTVSPost2010PropOp48
 70
     1
102
RTVSPost2010Prop49
280
     0
102
RTVSPost2010PropOp49
 70
     1
102
RTVSPost2010Prop50
 90
       50
102
RTVSPost2010PropOp50
 70
     1
102
RTVSPost2010Prop51ColorIndex
 90
      256
102
RTVSPost2010Prop51ColorRGB
 90
-16777216
102
RTVSPost2010PropOp51
 70
     0
102
RTVSPost2010Prop52
140
1.0
102
RTVSPost2010PropOp52
 70
     0
102
RTVSPost2010Prop53
 90
        2
102
RTVSPost2010PropOp53
 70
     1
102
RTVSPost2010Prop54
  1
strokes_ogs.tif
102
RTVSPost2010PropOp54
 70
     1
102
RTVSPost2010Prop55
280
     0
102
RTVSPost2010PropOp55
 70
     1
102
RTVSPost2010Prop56
140
1.0
102
RTVSPost2010PropOp56
 70
     1
102
RTVSPost2010Prop57
140
1.0
102
RTVSPost2010PropOp57
 70
     1
102
RTVSPropertyOp0
 70
     1
102
RTVSPropertyOp1
 70
     1
102
RTVSPropertyOp2
 70
     1
102
RTVSPropertyOp3
 70
     1
102
RTVSPropertyOp4
 70
     1
102
RTVSPropertyOp5
 70
     1
102
RTVSPropertyOp6
 70
     1
102
RTVSPropertyOp7
 70
     1
102
RTVSPropertyOp8
 70
     1
102
RTVSPropertyOp9
 70
     1
102
RTVSPropertyOp10
 70
     1
102
RTVSPropertyOp11
 70
     1
102
RTVSPropertyOp12
 70
     1
102
RTVSPropertyOp13
 70
     1
102
RTVSPropertyOp14
 70
     1
102
RTVSPropertyOp15
 70
     1
102
RTVSPropertyOp16
 70
     1
102
RTVSPropertyOp17
 70
     1
102
RTVSPropertyOp18
 70
     1
102
RTVSPropertyOp19
 70
     1
102
RTVSPropertyOp20
 70
     1
102
RTVSPropertyOp21
 70
     1
102
RTVSPropertyOp22
 70
     1
102
RTVSPropertyOp23
 70
     1
102
RTVSPropertyOp24
 70
     1
102
RTVSPropertyOp25
 70
     1
102
RTVSPropertyOp26
 70
     1
102
RTVSPropertyOp27
 70
     1
102
RTVSPropertyOp28
 70
     1
102
RTVSPropertyOp29
 70
     1
102
RTVSPropertyOp30
 70
     1
102
RTVSPropertyOp31
 70
     1
102
RTVSPropertyOp32
 70
     1
102
RTVSPropertyOp33
 70
     1
102
RTVSPropertyOp34
 70
     1
102
RTVSPropertyOp35
 70
     1
102
RTVSPropertyOp36
 70
     1
102
RTVSPropertyOp37
 70
     1
102
RTVSPropertyOp38
 70
     1
102
RTVSPropertyOp39
 70
     1
102
RTVSPropertyOp40
 70
     1
102
RTVSPropertyOp41
 70
     1
102
RTVSPropertyOp42
 70
     1
102
RTVSPropertyOp43
 70
     1
102
RTVSPropertyOp44
 70
     1
102
RTVSPropertyOp45
 70
     1
102
RTVSPropertyOp46
 70
     1
102
RTVSPropertyOp47
 70
     1
102
RTVSPropertyOp48
 70
     1
102
RTVSPropertyOp49
 70
     1
102
RTVSPropertyOp50
 70
     1
102
RTVSPropertyOp51
 70
     0
102
RTVSPropertyOp52
 70
     0
102
RTVSPropertyOp53
 70
     1
102
RTVSPropertyOp54
 70
     1
102
RTVSPropertyOp55
 70
     1
102
RTVSPropertyOp56
 70
     1
102
RTVSPropertyOp57
 70
     1
102
RTVSPropertyOp58
 70
     1
102
RTVSPropertyOp59
 70
     1
102
RTVSPropertyOp60
 70
     1
102
RTVSPropertyOp61
 70
     1
102
RTVSPropertyOp62
 70
     1
  0
XRECORD
  5
9C38
102
{ACAD_REACTORS
330
9C37
102
}
330
9C37
100
AcDbXrecord
280
     1
102
RTVSPost2010Prop28
280
     0
102
RTVSPost2010PropOp28
 70
     1
102
RTVSPost2010Prop29
280
     1
102
RTVSPost2010PropOp29
 70
     1
102
RTVSPost2010Prop30
280
     1
102
RTVSPost2010PropOp30
 70
     1
102
RTVSPost2010Prop31
280
     0
102
RTVSPost2010PropOp31
 70
     1
102
RTVSPost2010Prop32
280
     0
102
RTVSPost2010PropOp32
 70
     1
102
RTVSPost2010Prop33
280
     0
102
RTVSPost2010PropOp33
 70
     1
102
RTVSPost2010Prop34
280
     0
102
RTVSPost2010PropOp34
 70
     1
102
RTVSPost2010Prop35
280
     0
102
RTVSPost2010PropOp35
 70
     1
102
RTVSPost2010Prop36
280
     0
102
RTVSPost2010PropOp36
 70
     1
102
RTVSPost2010Prop37
 90
       50
102
RTVSPost2010PropOp37
 70
     1
102
RTVSPost2010Prop38
140
0.0
102
RTVSPost2010PropOp38
 70
     1
102
RTVSPost2010Prop39
140
1.0
102
RTVSPost2010PropOp39
 70
     1
102
RTVSPost2010Prop40
 90
        0
102
RTVSPost2010PropOp40
 70
     1
102
RTVSPost2010Prop41ColorIndex
 90
       18
102
RTVSPost2010Prop41ColorRGB
 90
        0
102
RTVSPost2010PropOp41
 70
     1
102
RTVSPost2010Prop42
 90
       50
102
RTVSPost2010PropOp42
 70
     1
102
RTVSPost2010Prop43
 90
        3
102
RTVSPost2010PropOp43
 70
     1
102
RTVSPost2010Prop44ColorIndex
 90
        5
102
RTVSPost2010Prop44ColorRGB
 90
      255
102
RTVSPost2010PropOp44
 70
     1
102
RTVSPost2010Prop45
280
     0
102
RTVSPost2010PropOp45
 70
     1
102
RTVSPost2010Prop46
 90
       50
102
RTVSPost2010PropOp46
 70
     1
102
RTVSPost2010Prop47
 90
       50
102
RTVSPost2010PropOp47
 70
     1
102
RTVSPost2010Prop48
 90
       50
102
RTVSPost2010PropOp48
 70
     1
102
RTVSPost2010Prop49
280
     0
102
RTVSPost2010PropOp49
 70
     1
102
RTVSPost2010Prop50
 90
       50
102
RTVSPost2010PropOp50
 70
     1
102
RTVSPost2010Prop51ColorIndex
 90
      256
102
RTVSPost2010Prop51ColorRGB
 90
-16777216
102
RTVSPost2010PropOp51
 70
     0
102
RTVSPost2010Prop52
140
1.0
102
RTVSPost2010PropOp52
 70
     0
102
RTVSPost2010Prop53
 90
        2
102
RTVSPost2010PropOp53
 70
     1
102
RTVSPost2010Prop54
  1
strokes_ogs.tif
102
RTVSPost2010PropOp54
 70
     1
102
RTVSPost2010Prop55
280
     0
102
RTVSPost2010PropOp55
 70
     1
102
RTVSPost2010Prop56
140
1.0
102
RTVSPost2010PropOp56
 70
     1
102
RTVSPost2010Prop57
140
1.0
102
RTVSPost2010PropOp57
 70
     1
102
RTVSPropertyOp0
 70
     1
102
RTVSPropertyOp1
 70
     1
102
RTVSPropertyOp2
 70
     1
102
RTVSPropertyOp3
 70
     1
102
RTVSPropertyOp4
 70
     1
102
RTVSPropertyOp5
 70
     1
102
RTVSPropertyOp6
 70
     1
102
RTVSPropertyOp7
 70
     1
102
RTVSPropertyOp8
 70
     1
102
RTVSPropertyOp9
 70
     1
102
RTVSPropertyOp10
 70
     1
102
RTVSPropertyOp11
 70
     1
102
RTVSPropertyOp12
 70
     1
102
RTVSPropertyOp13
 70
     1
102
RTVSPropertyOp14
 70
     1
102
RTVSPropertyOp15
 70
     1
102
RTVSPropertyOp16
 70
     1
102
RTVSPropertyOp17
 70
     1
102
RTVSPropertyOp18
 70
     1
102
RTVSPropertyOp19
 70
     1
102
RTVSPropertyOp20
 70
     1
102
RTVSPropertyOp21
 70
     1
102
RTVSPropertyOp22
 70
     1
102
RTVSPropertyOp23
 70
     1
102
RTVSPropertyOp24
 70
     1
102
RTVSPropertyOp25
 70
     1
102
RTVSPropertyOp26
 70
     1
102
RTVSPropertyOp27
 70
     1
102
RTVSPropertyOp28
 70
     1
102
RTVSPropertyOp29
 70
     1
102
RTVSPropertyOp30
 70
     1
102
RTVSPropertyOp31
 70
     1
102
RTVSPropertyOp32
 70
     1
102
RTVSPropertyOp33
 70
     1
102
RTVSPropertyOp34
 70
     1
102
RTVSPropertyOp35
 70
     1
102
RTVSPropertyOp36
 70
     1
102
RTVSPropertyOp37
 70
     1
102
RTVSPropertyOp38
 70
     1
102
RTVSPropertyOp39
 70
     1
102
RTVSPropertyOp40
 70
     1
102
RTVSPropertyOp41
 70
     1
102
RTVSPropertyOp42
 70
     1
102
RTVSPropertyOp43
 70
     1
102
RTVSPropertyOp44
 70
     1
102
RTVSPropertyOp45
 70
     1
102
RTVSPropertyOp46
 70
     1
102
RTVSPropertyOp47
 70
     1
102
RTVSPropertyOp48
 70
     1
102
RTVSPropertyOp49
 70
     1
102
RTVSPropertyOp50
 70
     1
102
RTVSPropertyOp51
 70
     0
102
RTVSPropertyOp52
 70
     0
102
RTVSPropertyOp53
 70
     1
102
RTVSPropertyOp54
 70
     1
102
RTVSPropertyOp55
 70
     1
102
RTVSPropertyOp56
 70
     1
102
RTVSPropertyOp57
 70
     1
102
RTVSPropertyOp58
 70
     1
102
RTVSPropertyOp59
 70
     1
102
RTVSPropertyOp60
 70
     1
102
RTVSPropertyOp61
 70
     1
102
RTVSPropertyOp62
 70
     1
  0
XRECORD
  5
9C40
102
{ACAD_REACTORS
330
9C3F
102
}
330
9C3F
100
AcDbXrecord
280
     1
102
RTVSPost2010Prop28
280
     0
102
RTVSPost2010PropOp28
 70
     1
102
RTVSPost2010Prop29
280
     1
102
RTVSPost2010PropOp29
 70
     1
102
RTVSPost2010Prop30
280
     1
102
RTVSPost2010PropOp30
 70
     1
102
RTVSPost2010Prop31
280
     0
102
RTVSPost2010PropOp31
 70
     1
102
RTVSPost2010Prop32
280
     0
102
RTVSPost2010PropOp32
 70
     1
102
RTVSPost2010Prop33
280
     0
102
RTVSPost2010PropOp33
 70
     1
102
RTVSPost2010Prop34
280
     0
102
RTVSPost2010PropOp34
 70
     1
102
RTVSPost2010Prop35
280
     0
102
RTVSPost2010PropOp35
 70
     1
102
RTVSPost2010Prop36
280
     0
102
RTVSPost2010PropOp36
 70
     1
102
RTVSPost2010Prop37
 90
       50
102
RTVSPost2010PropOp37
 70
     1
102
RTVSPost2010Prop38
140
0.0
102
RTVSPost2010PropOp38
 70
     1
102
RTVSPost2010Prop39
140
1.0
102
RTVSPost2010PropOp39
 70
     1
102
RTVSPost2010Prop40
 90
        0
102
RTVSPost2010PropOp40
 70
     1
102
RTVSPost2010Prop41ColorIndex
 90
       18
102
RTVSPost2010Prop41ColorRGB
 90
        0
102
RTVSPost2010PropOp41
 70
     1
102
RTVSPost2010Prop42
 90
       50
102
RTVSPost2010PropOp42
 70
     1
102
RTVSPost2010Prop43
 90
        3
102
RTVSPost2010PropOp43
 70
     1
102
RTVSPost2010Prop44ColorIndex
 90
        5
102
RTVSPost2010Prop44ColorRGB
 90
      255
102
RTVSPost2010PropOp44
 70
     1
102
RTVSPost2010Prop45
280
     0
102
RTVSPost2010PropOp45
 70
     1
102
RTVSPost2010Prop46
 90
       50
102
RTVSPost2010PropOp46
 70
     1
102
RTVSPost2010Prop47
 90
       50
102
RTVSPost2010PropOp47
 70
     1
102
RTVSPost2010Prop48
 90
       50
102
RTVSPost2010PropOp48
 70
     1
102
RTVSPost2010Prop49
280
     0
102
RTVSPost2010PropOp49
 70
     1
102
RTVSPost2010Prop50
 90
       50
102
RTVSPost2010PropOp50
 70
     1
102
RTVSPost2010Prop51ColorIndex
 90
      256
102
RTVSPost2010Prop51ColorRGB
 90
-16777216
102
RTVSPost2010PropOp51
 70
     0
102
RTVSPost2010Prop52
140
1.0
102
RTVSPost2010PropOp52
 70
     0
102
RTVSPost2010Prop53
 90
        2
102
RTVSPost2010PropOp53
 70
     1
102
RTVSPost2010Prop54
  1
strokes_ogs.tif
102
RTVSPost2010PropOp54
 70
     1
102
RTVSPost2010Prop55
280
     0
102
RTVSPost2010PropOp55
 70
     1
102
RTVSPost2010Prop56
140
1.0
102
RTVSPost2010PropOp56
 70
     1
102
RTVSPost2010Prop57
140
1.0
102
RTVSPost2010PropOp57
 70
     1
102
RTVSPropertyOp0
 70
     1
102
RTVSPropertyOp1
 70
     1
102
RTVSPropertyOp2
 70
     1
102
RTVSPropertyOp3
 70
     1
102
RTVSPropertyOp4
 70
     1
102
RTVSPropertyOp5
 70
     1
102
RTVSPropertyOp6
 70
     1
102
RTVSPropertyOp7
 70
     1
102
RTVSPropertyOp8
 70
     1
102
RTVSPropertyOp9
 70
     1
102
RTVSPropertyOp10
 70
     1
102
RTVSPropertyOp11
 70
     1
102
RTVSPropertyOp12
 70
     1
102
RTVSPropertyOp13
 70
     1
102
RTVSPropertyOp14
 70
     1
102
RTVSPropertyOp15
 70
     1
102
RTVSPropertyOp16
 70
     1
102
RTVSPropertyOp17
 70
     1
102
RTVSPropertyOp18
 70
     1
102
RTVSPropertyOp19
 70
     1
102
RTVSPropertyOp20
 70
     1
102
RTVSPropertyOp21
 70
     1
102
RTVSPropertyOp22
 70
     1
102
RTVSPropertyOp23
 70
     1
102
RTVSPropertyOp24
 70
     1
102
RTVSPropertyOp25
 70
     1
102
RTVSPropertyOp26
 70
     1
102
RTVSPropertyOp27
 70
     1
102
RTVSPropertyOp28
 70
     1
102
RTVSPropertyOp29
 70
     1
102
RTVSPropertyOp30
 70
     1
102
RTVSPropertyOp31
 70
     1
102
RTVSPropertyOp32
 70
     1
102
RTVSPropertyOp33
 70
     1
102
RTVSPropertyOp34
 70
     1
102
RTVSPropertyOp35
 70
     1
102
RTVSPropertyOp36
 70
     1
102
RTVSPropertyOp37
 70
     1
102
RTVSPropertyOp38
 70
     1
102
RTVSPropertyOp39
 70
     1
102
RTVSPropertyOp40
 70
     1
102
RTVSPropertyOp41
 70
     1
102
RTVSPropertyOp42
 70
     1
102
RTVSPropertyOp43
 70
     1
102
RTVSPropertyOp44
 70
     1
102
RTVSPropertyOp45
 70
     1
102
RTVSPropertyOp46
 70
     1
102
RTVSPropertyOp47
 70
     1
102
RTVSPropertyOp48
 70
     1
102
RTVSPropertyOp49
 70
     1
102
RTVSPropertyOp50
 70
     1
102
RTVSPropertyOp51
 70
     0
102
RTVSPropertyOp52
 70
     0
102
RTVSPropertyOp53
 70
     1
102
RTVSPropertyOp54
 70
     1
102
RTVSPropertyOp55
 70
     1
102
RTVSPropertyOp56
 70
     1
102
RTVSPropertyOp57
 70
     1
102
RTVSPropertyOp58
 70
     1
102
RTVSPropertyOp59
 70
     1
102
RTVSPropertyOp60
 70
     1
102
RTVSPropertyOp61
 70
     1
102
RTVSPropertyOp62
 70
     1
  0
XRECORD
  5
9C32
102
{ACAD_REACTORS
330
9C31
102
}
330
9C31
100
AcDbXrecord
280
     1
102
RTVSPost2010Prop28
280
     0
102
RTVSPost2010PropOp28
 70
     1
102
RTVSPost2010Prop29
280
     1
102
RTVSPost2010PropOp29
 70
     1
102
RTVSPost2010Prop30
280
     1
102
RTVSPost2010PropOp30
 70
     1
102
RTVSPost2010Prop31
280
     0
102
RTVSPost2010PropOp31
 70
     1
102
RTVSPost2010Prop32
280
     0
102
RTVSPost2010PropOp32
 70
     1
102
RTVSPost2010Prop33
280
     0
102
RTVSPost2010PropOp33
 70
     1
102
RTVSPost2010Prop34
280
     0
102
RTVSPost2010PropOp34
 70
     1
102
RTVSPost2010Prop35
280
     0
102
RTVSPost2010PropOp35
 70
     1
102
RTVSPost2010Prop36
280
     0
102
RTVSPost2010PropOp36
 70
     1
102
RTVSPost2010Prop37
 90
       50
102
RTVSPost2010PropOp37
 70
     1
102
RTVSPost2010Prop38
140
0.0
102
RTVSPost2010PropOp38
 70
     1
102
RTVSPost2010Prop39
140
1.0
102
RTVSPost2010PropOp39
 70
     1
102
RTVSPost2010Prop40
 90
        0
102
RTVSPost2010PropOp40
 70
     1
102
RTVSPost2010Prop41ColorIndex
 90
       18
102
RTVSPost2010Prop41ColorRGB
 90
        0
102
RTVSPost2010PropOp41
 70
     1
102
RTVSPost2010Prop42
 90
       50
102
RTVSPost2010PropOp42
 70
     1
102
RTVSPost2010Prop43
 90
        3
102
RTVSPost2010PropOp43
 70
     1
102
RTVSPost2010Prop44ColorIndex
 90
        5
102
RTVSPost2010Prop44ColorRGB
 90
      255
102
RTVSPost2010PropOp44
 70
     1
102
RTVSPost2010Prop45
280
     0
102
RTVSPost2010PropOp45
 70
     1
102
RTVSPost2010Prop46
 90
       50
102
RTVSPost2010PropOp46
 70
     1
102
RTVSPost2010Prop47
 90
       50
102
RTVSPost2010PropOp47
 70
     1
102
RTVSPost2010Prop48
 90
       50
102
RTVSPost2010PropOp48
 70
     1
102
RTVSPost2010Prop49
280
     0
102
RTVSPost2010PropOp49
 70
     1
102
RTVSPost2010Prop50
 90
       50
102
RTVSPost2010PropOp50
 70
     1
102
RTVSPost2010Prop51ColorIndex
 90
      256
102
RTVSPost2010Prop51ColorRGB
 90
-16777216
102
RTVSPost2010PropOp51
 70
     0
102
RTVSPost2010Prop52
140
1.0
102
RTVSPost2010PropOp52
 70
     0
102
RTVSPost2010Prop53
 90
        2
102
RTVSPost2010PropOp53
 70
     1
102
RTVSPost2010Prop54
  1
strokes_ogs.tif
102
RTVSPost2010PropOp54
 70
     1
102
RTVSPost2010Prop55
280
     0
102
RTVSPost2010PropOp55
 70
     1
102
RTVSPost2010Prop56
140
1.0
102
RTVSPost2010PropOp56
 70
     1
102
RTVSPost2010Prop57
140
1.0
102
RTVSPost2010PropOp57
 70
     1
102
RTVSPropertyOp0
 70
     1
102
RTVSPropertyOp1
 70
     1
102
RTVSPropertyOp2
 70
     1
102
RTVSPropertyOp3
 70
     1
102
RTVSPropertyOp4
 70
     1
102
RTVSPropertyOp5
 70
     1
102
RTVSPropertyOp6
 70
     1
102
RTVSPropertyOp7
 70
     1
102
RTVSPropertyOp8
 70
     1
102
RTVSPropertyOp9
 70
     1
102
RTVSPropertyOp10
 70
     1
102
RTVSPropertyOp11
 70
     1
102
RTVSPropertyOp12
 70
     1
102
RTVSPropertyOp13
 70
     1
102
RTVSPropertyOp14
 70
     1
102
RTVSPropertyOp15
 70
     1
102
RTVSPropertyOp16
 70
     1
102
RTVSPropertyOp17
 70
     1
102
RTVSPropertyOp18
 70
     1
102
RTVSPropertyOp19
 70
     1
102
RTVSPropertyOp20
 70
     1
102
RTVSPropertyOp21
 70
     1
102
RTVSPropertyOp22
 70
     1
102
RTVSPropertyOp23
 70
     1
102
RTVSPropertyOp24
 70
     1
102
RTVSPropertyOp25
 70
     1
102
RTVSPropertyOp26
 70
     1
102
RTVSPropertyOp27
 70
     1
102
RTVSPropertyOp28
 70
     1
102
RTVSPropertyOp29
 70
     1
102
RTVSPropertyOp30
 70
     1
102
RTVSPropertyOp31
 70
     1
102
RTVSPropertyOp32
 70
     1
102
RTVSPropertyOp33
 70
     1
102
RTVSPropertyOp34
 70
     1
102
RTVSPropertyOp35
 70
     1
102
RTVSPropertyOp36
 70
     1
102
RTVSPropertyOp37
 70
     1
102
RTVSPropertyOp38
 70
     1
102
RTVSPropertyOp39
 70
     1
102
RTVSPropertyOp40
 70
     1
102
RTVSPropertyOp41
 70
     1
102
RTVSPropertyOp42
 70
     1
102
RTVSPropertyOp43
 70
     1
102
RTVSPropertyOp44
 70
     1
102
RTVSPropertyOp45
 70
     1
102
RTVSPropertyOp46
 70
     1
102
RTVSPropertyOp47
 70
     1
102
RTVSPropertyOp48
 70
     1
102
RTVSPropertyOp49
 70
     1
102
RTVSPropertyOp50
 70
     1
102
RTVSPropertyOp51
 70
     0
102
RTVSPropertyOp52
 70
     0
102
RTVSPropertyOp53
 70
     1
102
RTVSPropertyOp54
 70
     1
102
RTVSPropertyOp55
 70
     1
102
RTVSPropertyOp56
 70
     1
102
RTVSPropertyOp57
 70
     1
102
RTVSPropertyOp58
 70
     1
102
RTVSPropertyOp59
 70
     1
102
RTVSPropertyOp60
 70
     1
102
RTVSPropertyOp61
 70
     1
102
RTVSPropertyOp62
 70
     1
  0
XRECORD
  5
9C36
102
{ACAD_REACTORS
330
9C35
102
}
330
9C35
100
AcDbXrecord
280
     1
102
RTVSPost2010Prop28
280
     0
102
RTVSPost2010PropOp28
 70
     1
102
RTVSPost2010Prop29
280
     1
102
RTVSPost2010PropOp29
 70
     1
102
RTVSPost2010Prop30
280
     1
102
RTVSPost2010PropOp30
 70
     1
102
RTVSPost2010Prop31
280
     0
102
RTVSPost2010PropOp31
 70
     1
102
RTVSPost2010Prop32
280
     0
102
RTVSPost2010PropOp32
 70
     1
102
RTVSPost2010Prop33
280
     0
102
RTVSPost2010PropOp33
 70
     1
102
RTVSPost2010Prop34
280
     0
102
RTVSPost2010PropOp34
 70
     1
102
RTVSPost2010Prop35
280
     0
102
RTVSPost2010PropOp35
 70
     1
102
RTVSPost2010Prop36
280
     0
102
RTVSPost2010PropOp36
 70
     1
102
RTVSPost2010Prop37
 90
       50
102
RTVSPost2010PropOp37
 70
     1
102
RTVSPost2010Prop38
140
0.0
102
RTVSPost2010PropOp38
 70
     1
102
RTVSPost2010Prop39
140
1.0
102
RTVSPost2010PropOp39
 70
     1
102
RTVSPost2010Prop40
 90
        0
102
RTVSPost2010PropOp40
 70
     1
102
RTVSPost2010Prop41ColorIndex
 90
       18
102
RTVSPost2010Prop41ColorRGB
 90
        0
102
RTVSPost2010PropOp41
 70
     1
102
RTVSPost2010Prop42
 90
       50
102
RTVSPost2010PropOp42
 70
     1
102
RTVSPost2010Prop43
 90
        3
102
RTVSPost2010PropOp43
 70
     1
102
RTVSPost2010Prop44ColorIndex
 90
        5
102
RTVSPost2010Prop44ColorRGB
 90
      255
102
RTVSPost2010PropOp44
 70
     1
102
RTVSPost2010Prop45
280
     0
102
RTVSPost2010PropOp45
 70
     1
102
RTVSPost2010Prop46
 90
       50
102
RTVSPost2010PropOp46
 70
     1
102
RTVSPost2010Prop47
 90
       50
102
RTVSPost2010PropOp47
 70
     1
102
RTVSPost2010Prop48
 90
       50
102
RTVSPost2010PropOp48
 70
     1
102
RTVSPost2010Prop49
280
     0
102
RTVSPost2010PropOp49
 70
     1
102
RTVSPost2010Prop50
 90
       50
102
RTVSPost2010PropOp50
 70
     1
102
RTVSPost2010Prop51ColorIndex
 90
      256
102
RTVSPost2010Prop51ColorRGB
 90
-16777216
102
RTVSPost2010PropOp51
 70
     0
102
RTVSPost2010Prop52
140
1.0
102
RTVSPost2010PropOp52
 70
     0
102
RTVSPost2010Prop53
 90
        2
102
RTVSPost2010PropOp53
 70
     1
102
RTVSPost2010Prop54
  1
strokes_ogs.tif
102
RTVSPost2010PropOp54
 70
     1
102
RTVSPost2010Prop55
280
     0
102
RTVSPost2010PropOp55
 70
     1
102
RTVSPost2010Prop56
140
1.0
102
RTVSPost2010PropOp56
 70
     1
102
RTVSPost2010Prop57
140
1.0
102
RTVSPost2010PropOp57
 70
     1
102
RTVSPropertyOp0
 70
     1
102
RTVSPropertyOp1
 70
     1
102
RTVSPropertyOp2
 70
     1
102
RTVSPropertyOp3
 70
     1
102
RTVSPropertyOp4
 70
     1
102
RTVSPropertyOp5
 70
     1
102
RTVSPropertyOp6
 70
     1
102
RTVSPropertyOp7
 70
     1
102
RTVSPropertyOp8
 70
     1
102
RTVSPropertyOp9
 70
     1
102
RTVSPropertyOp10
 70
     1
102
RTVSPropertyOp11
 70
     1
102
RTVSPropertyOp12
 70
     1
102
RTVSPropertyOp13
 70
     1
102
RTVSPropertyOp14
 70
     1
102
RTVSPropertyOp15
 70
     1
102
RTVSPropertyOp16
 70
     1
102
RTVSPropertyOp17
 70
     1
102
RTVSPropertyOp18
 70
     1
102
RTVSPropertyOp19
 70
     1
102
RTVSPropertyOp20
 70
     1
102
RTVSPropertyOp21
 70
     1
102
RTVSPropertyOp22
 70
     1
102
RTVSPropertyOp23
 70
     1
102
RTVSPropertyOp24
 70
     1
102
RTVSPropertyOp25
 70
     1
102
RTVSPropertyOp26
 70
     1
102
RTVSPropertyOp27
 70
     1
102
RTVSPropertyOp28
 70
     1
102
RTVSPropertyOp29
 70
     1
102
RTVSPropertyOp30
 70
     1
102
RTVSPropertyOp31
 70
     1
102
RTVSPropertyOp32
 70
     1
102
RTVSPropertyOp33
 70
     1
102
RTVSPropertyOp34
 70
     1
102
RTVSPropertyOp35
 70
     1
102
RTVSPropertyOp36
 70
     1
102
RTVSPropertyOp37
 70
     1
102
RTVSPropertyOp38
 70
     1
102
RTVSPropertyOp39
 70
     1
102
RTVSPropertyOp40
 70
     1
102
RTVSPropertyOp41
 70
     1
102
RTVSPropertyOp42
 70
     1
102
RTVSPropertyOp43
 70
     1
102
RTVSPropertyOp44
 70
     1
102
RTVSPropertyOp45
 70
     1
102
RTVSPropertyOp46
 70
     1
102
RTVSPropertyOp47
 70
     1
102
RTVSPropertyOp48
 70
     1
102
RTVSPropertyOp49
 70
     1
102
RTVSPropertyOp50
 70
     1
102
RTVSPropertyOp51
 70
     0
102
RTVSPropertyOp52
 70
     0
102
RTVSPropertyOp53
 70
     1
102
RTVSPropertyOp54
 70
     1
102
RTVSPropertyOp55
 70
     1
102
RTVSPropertyOp56
 70
     1
102
RTVSPropertyOp57
 70
     1
102
RTVSPropertyOp58
 70
     1
102
RTVSPropertyOp59
 70
     1
102
RTVSPropertyOp60
 70
     1
102
RTVSPropertyOp61
 70
     1
102
RTVSPropertyOp62
 70
     1
  0
XRECORD
  5
9C50
102
{ACAD_REACTORS
330
9C4F
102
}
330
9C4F
100
AcDbXrecord
280
     1
102
RTVSPost2010Prop28
280
     0
102
RTVSPost2010PropOp28
 70
     1
102
RTVSPost2010Prop29
280
     1
102
RTVSPost2010PropOp29
 70
     1
102
RTVSPost2010Prop30
280
     1
102
RTVSPost2010PropOp30
 70
     1
102
RTVSPost2010Prop31
280
     0
102
RTVSPost2010PropOp31
 70
     1
102
RTVSPost2010Prop32
280
     0
102
RTVSPost2010PropOp32
 70
     1
102
RTVSPost2010Prop33
280
     0
102
RTVSPost2010PropOp33
 70
     1
102
RTVSPost2010Prop34
280
     0
102
RTVSPost2010PropOp34
 70
     1
102
RTVSPost2010Prop35
280
     0
102
RTVSPost2010PropOp35
 70
     1
102
RTVSPost2010Prop36
280
     0
102
RTVSPost2010PropOp36
 70
     1
102
RTVSPost2010Prop37
 90
       50
102
RTVSPost2010PropOp37
 70
     0
102
RTVSPost2010Prop38
140
0.0
102
RTVSPost2010PropOp38
 70
     0
102
RTVSPost2010Prop39
140
1.0
102
RTVSPost2010PropOp39
 70
     0
102
RTVSPost2010Prop40
 90
        0
102
RTVSPost2010PropOp40
 70
     0
102
RTVSPost2010Prop41ColorIndex
 90
       18
102
RTVSPost2010Prop41ColorRGB
 90
        0
102
RTVSPost2010PropOp41
 70
     0
102
RTVSPost2010Prop42
 90
       50
102
RTVSPost2010PropOp42
 70
     0
102
RTVSPost2010Prop43
 90
        3
102
RTVSPost2010PropOp43
 70
     0
102
RTVSPost2010Prop44ColorIndex
 90
        5
102
RTVSPost2010Prop44ColorRGB
 90
      255
102
RTVSPost2010PropOp44
 70
     0
102
RTVSPost2010Prop45
280
     0
102
RTVSPost2010PropOp45
 70
     1
102
RTVSPost2010Prop46
 90
       50
102
RTVSPost2010PropOp46
 70
     0
102
RTVSPost2010Prop47
 90
       50
102
RTVSPost2010PropOp47
 70
     0
102
RTVSPost2010Prop48
 90
       50
102
RTVSPost2010PropOp48
 70
     0
102
RTVSPost2010Prop49
280
     0
102
RTVSPost2010PropOp49
 70
     1
102
RTVSPost2010Prop50
 90
       50
102
RTVSPost2010PropOp50
 70
     0
102
RTVSPost2010Prop51ColorIndex
 90
      256
102
RTVSPost2010Prop51ColorRGB
 90
-16777216
102
RTVSPost2010PropOp51
 70
     0
102
RTVSPost2010Prop52
140
1.0
102
RTVSPost2010PropOp52
 70
     0
102
RTVSPost2010Prop53
 90
        2
102
RTVSPost2010PropOp53
 70
     0
102
RTVSPost2010Prop54
  1
strokes_ogs.tif
102
RTVSPost2010PropOp54
 70
     0
102
RTVSPost2010Prop55
280
     0
102
RTVSPost2010PropOp55
 70
     1
102
RTVSPost2010Prop56
140
1.0
102
RTVSPost2010PropOp56
 70
     0
102
RTVSPost2010Prop57
140
1.0
102
RTVSPost2010PropOp57
 70
     0
102
RTVSPropertyOp0
 70
     0
102
RTVSPropertyOp1
 70
     0
102
RTVSPropertyOp2
 70
     0
102
RTVSPropertyOp3
 70
     0
102
RTVSPropertyOp4
 70
     0
102
RTVSPropertyOp5
 70
     0
102
RTVSPropertyOp6
 70
     0
102
RTVSPropertyOp7
 70
     0
102
RTVSPropertyOp8
 70
     0
102
RTVSPropertyOp9
 70
     0
102
RTVSPropertyOp10
 70
     0
102
RTVSPropertyOp11
 70
     0
102
RTVSPropertyOp12
 70
     0
102
RTVSPropertyOp13
 70
     0
102
RTVSPropertyOp14
 70
     2
102
RTVSPropertyOp15
 70
     0
102
RTVSPropertyOp16
 70
     0
102
RTVSPropertyOp17
 70
     0
102
RTVSPropertyOp18
 70
     0
102
RTVSPropertyOp19
 70
     0
102
RTVSPropertyOp20
 70
     0
102
RTVSPropertyOp21
 70
     0
102
RTVSPropertyOp22
 70
     0
102
RTVSPropertyOp23
 70
     0
102
RTVSPropertyOp24
 70
     0
102
RTVSPropertyOp25
 70
     0
102
RTVSPropertyOp26
 70
     0
102
RTVSPropertyOp27
 70
     0
102
RTVSPropertyOp28
 70
     1
102
RTVSPropertyOp29
 70
     1
102
RTVSPropertyOp30
 70
     1
102
RTVSPropertyOp31
 70
     1
102
RTVSPropertyOp32
 70
     1
102
RTVSPropertyOp33
 70
     1
102
RTVSPropertyOp34
 70
     1
102
RTVSPropertyOp35
 70
     1
102
RTVSPropertyOp36
 70
     1
102
RTVSPropertyOp37
 70
     0
102
RTVSPropertyOp38
 70
     0
102
RTVSPropertyOp39
 70
     0
102
RTVSPropertyOp40
 70
     0
102
RTVSPropertyOp41
 70
     0
102
RTVSPropertyOp42
 70
     0
102
RTVSPropertyOp43
 70
     0
102
RTVSPropertyOp44
 70
     0
102
RTVSPropertyOp45
 70
     1
102
RTVSPropertyOp46
 70
     0
102
RTVSPropertyOp47
 70
     0
102
RTVSPropertyOp48
 70
     0
102
RTVSPropertyOp49
 70
     1
102
RTVSPropertyOp50
 70
     0
102
RTVSPropertyOp51
 70
     0
102
RTVSPropertyOp52
 70
     0
102
RTVSPropertyOp53
 70
     0
102
RTVSPropertyOp54
 70
     0
102
RTVSPropertyOp55
 70
     1
102
RTVSPropertyOp56
 70
     0
102
RTVSPropertyOp57
 70
     0
102
RTVSPropertyOp58
 70
     0
102
RTVSPropertyOp59
 70
     0
102
RTVSPropertyOp60
 70
     0
102
RTVSPropertyOp61
 70
     0
102
RTVSPropertyOp62
 70
     0
  0
XRECORD
  5
9C3E
102
{ACAD_REACTORS
330
9C3D
102
}
330
9C3D
100
AcDbXrecord
280
     1
102
RTVSPost2010Prop28
280
     0
102
RTVSPost2010PropOp28
 70
     1
102
RTVSPost2010Prop29
280
     1
102
RTVSPost2010PropOp29
 70
     1
102
RTVSPost2010Prop30
280
     1
102
RTVSPost2010PropOp30
 70
     1
102
RTVSPost2010Prop31
280
     0
102
RTVSPost2010PropOp31
 70
     1
102
RTVSPost2010Prop32
280
     0
102
RTVSPost2010PropOp32
 70
     1
102
RTVSPost2010Prop33
280
     0
102
RTVSPost2010PropOp33
 70
     1
102
RTVSPost2010Prop34
280
     0
102
RTVSPost2010PropOp34
 70
     1
102
RTVSPost2010Prop35
280
     0
102
RTVSPost2010PropOp35
 70
     1
102
RTVSPost2010Prop36
280
     0
102
RTVSPost2010PropOp36
 70
     1
102
RTVSPost2010Prop37
 90
       50
102
RTVSPost2010PropOp37
 70
     1
102
RTVSPost2010Prop38
140
0.0
102
RTVSPost2010PropOp38
 70
     1
102
RTVSPost2010Prop39
140
1.0
102
RTVSPost2010PropOp39
 70
     1
102
RTVSPost2010Prop40
 90
        0
102
RTVSPost2010PropOp40
 70
     1
102
RTVSPost2010Prop41ColorIndex
 90
       18
102
RTVSPost2010Prop41ColorRGB
 90
        0
102
RTVSPost2010PropOp41
 70
     1
102
RTVSPost2010Prop42
 90
       50
102
RTVSPost2010PropOp42
 70
     1
102
RTVSPost2010Prop43
 90
        3
102
RTVSPost2010PropOp43
 70
     1
102
RTVSPost2010Prop44ColorIndex
 90
        5
102
RTVSPost2010Prop44ColorRGB
 90
      255
102
RTVSPost2010PropOp44
 70
     1
102
RTVSPost2010Prop45
280
     0
102
RTVSPost2010PropOp45
 70
     1
102
RTVSPost2010Prop46
 90
       50
102
RTVSPost2010PropOp46
 70
     1
102
RTVSPost2010Prop47
 90
       50
102
RTVSPost2010PropOp47
 70
     1
102
RTVSPost2010Prop48
 90
       50
102
RTVSPost2010PropOp48
 70
     1
102
RTVSPost2010Prop49
280
     0
102
RTVSPost2010PropOp49
 70
     1
102
RTVSPost2010Prop50
 90
       50
102
RTVSPost2010PropOp50
 70
     1
102
RTVSPost2010Prop51ColorIndex
 90
      256
102
RTVSPost2010Prop51ColorRGB
 90
-16777216
102
RTVSPost2010PropOp51
 70
     0
102
RTVSPost2010Prop52
140
1.0
102
RTVSPost2010PropOp52
 70
     0
102
RTVSPost2010Prop53
 90
        2
102
RTVSPost2010PropOp53
 70
     1
102
RTVSPost2010Prop54
  1
strokes_ogs.tif
102
RTVSPost2010PropOp54
 70
     1
102
RTVSPost2010Prop55
280
     0
102
RTVSPost2010PropOp55
 70
     1
102
RTVSPost2010Prop56
140
1.0
102
RTVSPost2010PropOp56
 70
     1
102
RTVSPost2010Prop57
140
1.0
102
RTVSPost2010PropOp57
 70
     1
102
RTVSPropertyOp0
 70
     1
102
RTVSPropertyOp1
 70
     1
102
RTVSPropertyOp2
 70
     1
102
RTVSPropertyOp3
 70
     1
102
RTVSPropertyOp4
 70
     1
102
RTVSPropertyOp5
 70
     1
102
RTVSPropertyOp6
 70
     1
102
RTVSPropertyOp7
 70
     1
102
RTVSPropertyOp8
 70
     1
102
RTVSPropertyOp9
 70
     1
102
RTVSPropertyOp10
 70
     1
102
RTVSPropertyOp11
 70
     1
102
RTVSPropertyOp12
 70
     1
102
RTVSPropertyOp13
 70
     1
102
RTVSPropertyOp14
 70
     1
102
RTVSPropertyOp15
 70
     1
102
RTVSPropertyOp16
 70
     1
102
RTVSPropertyOp17
 70
     1
102
RTVSPropertyOp18
 70
     1
102
RTVSPropertyOp19
 70
     1
102
RTVSPropertyOp20
 70
     1
102
RTVSPropertyOp21
 70
     1
102
RTVSPropertyOp22
 70
     1
102
RTVSPropertyOp23
 70
     1
102
RTVSPropertyOp24
 70
     1
102
RTVSPropertyOp25
 70
     1
102
RTVSPropertyOp26
 70
     1
102
RTVSPropertyOp27
 70
     1
102
RTVSPropertyOp28
 70
     1
102
RTVSPropertyOp29
 70
     1
102
RTVSPropertyOp30
 70
     1
102
RTVSPropertyOp31
 70
     1
102
RTVSPropertyOp32
 70
     1
102
RTVSPropertyOp33
 70
     1
102
RTVSPropertyOp34
 70
     1
102
RTVSPropertyOp35
 70
     1
102
RTVSPropertyOp36
 70
     1
102
RTVSPropertyOp37
 70
     1
102
RTVSPropertyOp38
 70
     1
102
RTVSPropertyOp39
 70
     1
102
RTVSPropertyOp40
 70
     1
102
RTVSPropertyOp41
 70
     1
102
RTVSPropertyOp42
 70
     1
102
RTVSPropertyOp43
 70
     1
102
RTVSPropertyOp44
 70
     1
102
RTVSPropertyOp45
 70
     1
102
RTVSPropertyOp46
 70
     1
102
RTVSPropertyOp47
 70
     1
102
RTVSPropertyOp48
 70
     1
102
RTVSPropertyOp49
 70
     1
102
RTVSPropertyOp50
 70
     1
102
RTVSPropertyOp51
 70
     0
102
RTVSPropertyOp52
 70
     0
102
RTVSPropertyOp53
 70
     1
102
RTVSPropertyOp54
 70
     1
102
RTVSPropertyOp55
 70
     1
102
RTVSPropertyOp56
 70
     1
102
RTVSPropertyOp57
 70
     1
102
RTVSPropertyOp58
 70
     1
102
RTVSPropertyOp59
 70
     1
102
RTVSPropertyOp60
 70
     1
102
RTVSPropertyOp61
 70
     1
102
RTVSPropertyOp62
 70
     1
  0
XRECORD
  5
9C22
102
{ACAD_REACTORS
330
9C21
102
}
330
9C21
100
AcDbXrecord
280
     1
102
RTVSPost2010Prop28
280
     0
102
RTVSPost2010PropOp28
 70
     1
102
RTVSPost2010Prop29
280
     1
102
RTVSPost2010PropOp29
 70
     1
102
RTVSPost2010Prop30
280
     1
102
RTVSPost2010PropOp30
 70
     1
102
RTVSPost2010Prop31
280
     0
102
RTVSPost2010PropOp31
 70
     1
102
RTVSPost2010Prop32
280
     0
102
RTVSPost2010PropOp32
 70
     1
102
RTVSPost2010Prop33
280
     0
102
RTVSPost2010PropOp33
 70
     1
102
RTVSPost2010Prop34
280
     0
102
RTVSPost2010PropOp34
 70
     1
102
RTVSPost2010Prop35
280
     0
102
RTVSPost2010PropOp35
 70
     1
102
RTVSPost2010Prop36
280
     0
102
RTVSPost2010PropOp36
 70
     1
102
RTVSPost2010Prop37
 90
       50
102
RTVSPost2010PropOp37
 70
     1
102
RTVSPost2010Prop38
140
0.0
102
RTVSPost2010PropOp38
 70
     1
102
RTVSPost2010Prop39
140
1.0
102
RTVSPost2010PropOp39
 70
     1
102
RTVSPost2010Prop40
 90
        0
102
RTVSPost2010PropOp40
 70
     1
102
RTVSPost2010Prop41ColorIndex
 90
       18
102
RTVSPost2010Prop41ColorRGB
 90
        0
102
RTVSPost2010PropOp41
 70
     1
102
RTVSPost2010Prop42
 90
       50
102
RTVSPost2010PropOp42
 70
     1
102
RTVSPost2010Prop43
 90
        3
102
RTVSPost2010PropOp43
 70
     1
102
RTVSPost2010Prop44ColorIndex
 90
        5
102
RTVSPost2010Prop44ColorRGB
 90
      255
102
RTVSPost2010PropOp44
 70
     1
102
RTVSPost2010Prop45
280
     0
102
RTVSPost2010PropOp45
 70
     1
102
RTVSPost2010Prop46
 90
       50
102
RTVSPost2010PropOp46
 70
     1
102
RTVSPost2010Prop47
 90
       50
102
RTVSPost2010PropOp47
 70
     1
102
RTVSPost2010Prop48
 90
       50
102
RTVSPost2010PropOp48
 70
     1
102
RTVSPost2010Prop49
280
     0
102
RTVSPost2010PropOp49
 70
     1
102
RTVSPost2010Prop50
 90
       50
102
RTVSPost2010PropOp50
 70
     1
102
RTVSPost2010Prop51ColorIndex
 90
      256
102
RTVSPost2010Prop51ColorRGB
 90
-16777216
102
RTVSPost2010PropOp51
 70
     0
102
RTVSPost2010Prop52
140
1.0
102
RTVSPost2010PropOp52
 70
     0
102
RTVSPost2010Prop53
 90
        2
102
RTVSPost2010PropOp53
 70
     1
102
RTVSPost2010Prop54
  1
strokes_ogs.tif
102
RTVSPost2010PropOp54
 70
     1
102
RTVSPost2010Prop55
280
     0
102
RTVSPost2010PropOp55
 70
     1
102
RTVSPost2010Prop56
140
1.0
102
RTVSPost2010PropOp56
 70
     1
102
RTVSPost2010Prop57
140
1.0
102
RTVSPost2010PropOp57
 70
     1
102
RTVSPropertyOp0
 70
     1
102
RTVSPropertyOp1
 70
     1
102
RTVSPropertyOp2
 70
     1
102
RTVSPropertyOp3
 70
     1
102
RTVSPropertyOp4
 70
     1
102
RTVSPropertyOp5
 70
     1
102
RTVSPropertyOp6
 70
     1
102
RTVSPropertyOp7
 70
     1
102
RTVSPropertyOp8
 70
     1
102
RTVSPropertyOp9
 70
     1
102
RTVSPropertyOp10
 70
     1
102
RTVSPropertyOp11
 70
     1
102
RTVSPropertyOp12
 70
     1
102
RTVSPropertyOp13
 70
     1
102
RTVSPropertyOp14
 70
     1
102
RTVSPropertyOp15
 70
     1
102
RTVSPropertyOp16
 70
     1
102
RTVSPropertyOp17
 70
     1
102
RTVSPropertyOp18
 70
     1
102
RTVSPropertyOp19
 70
     1
102
RTVSPropertyOp20
 70
     1
102
RTVSPropertyOp21
 70
     1
102
RTVSPropertyOp22
 70
     1
102
RTVSPropertyOp23
 70
     1
102
RTVSPropertyOp24
 70
     1
102
RTVSPropertyOp25
 70
     1
102
RTVSPropertyOp26
 70
     1
102
RTVSPropertyOp27
 70
     1
102
RTVSPropertyOp28
 70
     1
102
RTVSPropertyOp29
 70
     1
102
RTVSPropertyOp30
 70
     1
102
RTVSPropertyOp31
 70
     1
102
RTVSPropertyOp32
 70
     1
102
RTVSPropertyOp33
 70
     1
102
RTVSPropertyOp34
 70
     1
102
RTVSPropertyOp35
 70
     1
102
RTVSPropertyOp36
 70
     1
102
RTVSPropertyOp37
 70
     1
102
RTVSPropertyOp38
 70
     1
102
RTVSPropertyOp39
 70
     1
102
RTVSPropertyOp40
 70
     1
102
RTVSPropertyOp41
 70
     1
102
RTVSPropertyOp42
 70
     1
102
RTVSPropertyOp43
 70
     1
102
RTVSPropertyOp44
 70
     1
102
RTVSPropertyOp45
 70
     1
102
RTVSPropertyOp46
 70
     1
102
RTVSPropertyOp47
 70
     1
102
RTVSPropertyOp48
 70
     1
102
RTVSPropertyOp49
 70
     1
102
RTVSPropertyOp50
 70
     1
102
RTVSPropertyOp51
 70
     0
102
RTVSPropertyOp52
 70
     0
102
RTVSPropertyOp53
 70
     1
102
RTVSPropertyOp54
 70
     1
102
RTVSPropertyOp55
 70
     1
102
RTVSPropertyOp56
 70
     1
102
RTVSPropertyOp57
 70
     1
102
RTVSPropertyOp58
 70
     1
102
RTVSPropertyOp59
 70
     1
102
RTVSPropertyOp60
 70
     1
102
RTVSPropertyOp61
 70
     1
102
RTVSPropertyOp62
 70
     1
  0
XRECORD
  5
9C24
102
{ACAD_REACTORS
330
9C23
102
}
330
9C23
100
AcDbXrecord
280
     1
102
RTVSPost2010Prop28
280
     0
102
RTVSPost2010PropOp28
 70
     1
102
RTVSPost2010Prop29
280
     1
102
RTVSPost2010PropOp29
 70
     1
102
RTVSPost2010Prop30
280
     1
102
RTVSPost2010PropOp30
 70
     1
102
RTVSPost2010Prop31
280
     0
102
RTVSPost2010PropOp31
 70
     1
102
RTVSPost2010Prop32
280
     0
102
RTVSPost2010PropOp32
 70
     1
102
RTVSPost2010Prop33
280
     0
102
RTVSPost2010PropOp33
 70
     1
102
RTVSPost2010Prop34
280
     0
102
RTVSPost2010PropOp34
 70
     1
102
RTVSPost2010Prop35
280
     0
102
RTVSPost2010PropOp35
 70
     1
102
RTVSPost2010Prop36
280
     0
102
RTVSPost2010PropOp36
 70
     1
102
RTVSPost2010Prop37
 90
       50
102
RTVSPost2010PropOp37
 70
     1
102
RTVSPost2010Prop38
140
0.0
102
RTVSPost2010PropOp38
 70
     1
102
RTVSPost2010Prop39
140
1.0
102
RTVSPost2010PropOp39
 70
     1
102
RTVSPost2010Prop40
 90
        0
102
RTVSPost2010PropOp40
 70
     1
102
RTVSPost2010Prop41ColorIndex
 90
       18
102
RTVSPost2010Prop41ColorRGB
 90
        0
102
RTVSPost2010PropOp41
 70
     1
102
RTVSPost2010Prop42
 90
       50
102
RTVSPost2010PropOp42
 70
     1
102
RTVSPost2010Prop43
 90
        3
102
RTVSPost2010PropOp43
 70
     1
102
RTVSPost2010Prop44ColorIndex
 90
        5
102
RTVSPost2010Prop44ColorRGB
 90
      255
102
RTVSPost2010PropOp44
 70
     1
102
RTVSPost2010Prop45
280
     0
102
RTVSPost2010PropOp45
 70
     1
102
RTVSPost2010Prop46
 90
       50
102
RTVSPost2010PropOp46
 70
     1
102
RTVSPost2010Prop47
 90
       50
102
RTVSPost2010PropOp47
 70
     1
102
RTVSPost2010Prop48
 90
       50
102
RTVSPost2010PropOp48
 70
     1
102
RTVSPost2010Prop49
280
     0
102
RTVSPost2010PropOp49
 70
     1
102
RTVSPost2010Prop50
 90
       50
102
RTVSPost2010PropOp50
 70
     1
102
RTVSPost2010Prop51ColorIndex
 90
      256
102
RTVSPost2010Prop51ColorRGB
 90
-16777216
102
RTVSPost2010PropOp51
 70
     0
102
RTVSPost2010Prop52
140
1.0
102
RTVSPost2010PropOp52
 70
     0
102
RTVSPost2010Prop53
 90
        2
102
RTVSPost2010PropOp53
 70
     1
102
RTVSPost2010Prop54
  1
strokes_ogs.tif
102
RTVSPost2010PropOp54
 70
     1
102
RTVSPost2010Prop55
280
     0
102
RTVSPost2010PropOp55
 70
     1
102
RTVSPost2010Prop56
140
1.0
102
RTVSPost2010PropOp56
 70
     1
102
RTVSPost2010Prop57
140
1.0
102
RTVSPost2010PropOp57
 70
     1
102
RTVSPropertyOp0
 70
     1
102
RTVSPropertyOp1
 70
     1
102
RTVSPropertyOp2
 70
     1
102
RTVSPropertyOp3
 70
     1
102
RTVSPropertyOp4
 70
     1
102
RTVSPropertyOp5
 70
     1
102
RTVSPropertyOp6
 70
     1
102
RTVSPropertyOp7
 70
     1
102
RTVSPropertyOp8
 70
     1
102
RTVSPropertyOp9
 70
     1
102
RTVSPropertyOp10
 70
     1
102
RTVSPropertyOp11
 70
     1
102
RTVSPropertyOp12
 70
     1
102
RTVSPropertyOp13
 70
     1
102
RTVSPropertyOp14
 70
     1
102
RTVSPropertyOp15
 70
     1
102
RTVSPropertyOp16
 70
     1
102
RTVSPropertyOp17
 70
     1
102
RTVSPropertyOp18
 70
     1
102
RTVSPropertyOp19
 70
     1
102
RTVSPropertyOp20
 70
     1
102
RTVSPropertyOp21
 70
     1
102
RTVSPropertyOp22
 70
     1
102
RTVSPropertyOp23
 70
     1
102
RTVSPropertyOp24
 70
     1
102
RTVSPropertyOp25
 70
     1
102
RTVSPropertyOp26
 70
     1
102
RTVSPropertyOp27
 70
     1
102
RTVSPropertyOp28
 70
     1
102
RTVSPropertyOp29
 70
     1
102
RTVSPropertyOp30
 70
     1
102
RTVSPropertyOp31
 70
     1
102
RTVSPropertyOp32
 70
     1
102
RTVSPropertyOp33
 70
     1
102
RTVSPropertyOp34
 70
     1
102
RTVSPropertyOp35
 70
     1
102
RTVSPropertyOp36
 70
     1
102
RTVSPropertyOp37
 70
     1
102
RTVSPropertyOp38
 70
     1
102
RTVSPropertyOp39
 70
     1
102
RTVSPropertyOp40
 70
     1
102
RTVSPropertyOp41
 70
     1
102
RTVSPropertyOp42
 70
     1
102
RTVSPropertyOp43
 70
     1
102
RTVSPropertyOp44
 70
     1
102
RTVSPropertyOp45
 70
     1
102
RTVSPropertyOp46
 70
     1
102
RTVSPropertyOp47
 70
     1
102
RTVSPropertyOp48
 70
     1
102
RTVSPropertyOp49
 70
     1
102
RTVSPropertyOp50
 70
     1
102
RTVSPropertyOp51
 70
     0
102
RTVSPropertyOp52
 70
     0
102
RTVSPropertyOp53
 70
     1
102
RTVSPropertyOp54
 70
     1
102
RTVSPropertyOp55
 70
     1
102
RTVSPropertyOp56
 70
     1
102
RTVSPropertyOp57
 70
     1
102
RTVSPropertyOp58
 70
     1
102
RTVSPropertyOp59
 70
     1
102
RTVSPropertyOp60
 70
     1
102
RTVSPropertyOp61
 70
     1
102
RTVSPropertyOp62
 70
     1
  0
XRECORD
  5
9C26
102
{ACAD_REACTORS
330
9C25
102
}
330
9C25
100
AcDbXrecord
280
     1
102
RTVSPost2010Prop28
280
     0
102
RTVSPost2010PropOp28
 70
     1
102
RTVSPost2010Prop29
280
     1
102
RTVSPost2010PropOp29
 70
     1
102
RTVSPost2010Prop30
280
     1
102
RTVSPost2010PropOp30
 70
     1
102
RTVSPost2010Prop31
280
     0
102
RTVSPost2010PropOp31
 70
     1
102
RTVSPost2010Prop32
280
     0
102
RTVSPost2010PropOp32
 70
     1
102
RTVSPost2010Prop33
280
     0
102
RTVSPost2010PropOp33
 70
     1
102
RTVSPost2010Prop34
280
     0
102
RTVSPost2010PropOp34
 70
     1
102
RTVSPost2010Prop35
280
     0
102
RTVSPost2010PropOp35
 70
     1
102
RTVSPost2010Prop36
280
     0
102
RTVSPost2010PropOp36
 70
     1
102
RTVSPost2010Prop37
 90
       50
102
RTVSPost2010PropOp37
 70
     1
102
RTVSPost2010Prop38
140
0.0
102
RTVSPost2010PropOp38
 70
     1
102
RTVSPost2010Prop39
140
1.0
102
RTVSPost2010PropOp39
 70
     1
102
RTVSPost2010Prop40
 90
        0
102
RTVSPost2010PropOp40
 70
     1
102
RTVSPost2010Prop41ColorIndex
 90
       18
102
RTVSPost2010Prop41ColorRGB
 90
        0
102
RTVSPost2010PropOp41
 70
     1
102
RTVSPost2010Prop42
 90
       50
102
RTVSPost2010PropOp42
 70
     1
102
RTVSPost2010Prop43
 90
        3
102
RTVSPost2010PropOp43
 70
     1
102
RTVSPost2010Prop44ColorIndex
 90
        5
102
RTVSPost2010Prop44ColorRGB
 90
      255
102
RTVSPost2010PropOp44
 70
     1
102
RTVSPost2010Prop45
280
     0
102
RTVSPost2010PropOp45
 70
     1
102
RTVSPost2010Prop46
 90
       50
102
RTVSPost2010PropOp46
 70
     1
102
RTVSPost2010Prop47
 90
       50
102
RTVSPost2010PropOp47
 70
     1
102
RTVSPost2010Prop48
 90
       50
102
RTVSPost2010PropOp48
 70
     1
102
RTVSPost2010Prop49
280
     0
102
RTVSPost2010PropOp49
 70
     1
102
RTVSPost2010Prop50
 90
       50
102
RTVSPost2010PropOp50
 70
     1
102
RTVSPost2010Prop51ColorIndex
 90
      256
102
RTVSPost2010Prop51ColorRGB
 90
-16777216
102
RTVSPost2010PropOp51
 70
     0
102
RTVSPost2010Prop52
140
1.0
102
RTVSPost2010PropOp52
 70
     0
102
RTVSPost2010Prop53
 90
        2
102
RTVSPost2010PropOp53
 70
     1
102
RTVSPost2010Prop54
  1
strokes_ogs.tif
102
RTVSPost2010PropOp54
 70
     1
102
RTVSPost2010Prop55
280
     0
102
RTVSPost2010PropOp55
 70
     1
102
RTVSPost2010Prop56
140
1.0
102
RTVSPost2010PropOp56
 70
     1
102
RTVSPost2010Prop57
140
1.0
102
RTVSPost2010PropOp57
 70
     1
102
RTVSPropertyOp0
 70
     1
102
RTVSPropertyOp1
 70
     1
102
RTVSPropertyOp2
 70
     1
102
RTVSPropertyOp3
 70
     1
102
RTVSPropertyOp4
 70
     1
102
RTVSPropertyOp5
 70
     1
102
RTVSPropertyOp6
 70
     1
102
RTVSPropertyOp7
 70
     1
102
RTVSPropertyOp8
 70
     1
102
RTVSPropertyOp9
 70
     1
102
RTVSPropertyOp10
 70
     1
102
RTVSPropertyOp11
 70
     1
102
RTVSPropertyOp12
 70
     1
102
RTVSPropertyOp13
 70
     1
102
RTVSPropertyOp14
 70
     1
102
RTVSPropertyOp15
 70
     1
102
RTVSPropertyOp16
 70
     1
102
RTVSPropertyOp17
 70
     1
102
RTVSPropertyOp18
 70
     1
102
RTVSPropertyOp19
 70
     1
102
RTVSPropertyOp20
 70
     1
102
RTVSPropertyOp21
 70
     1
102
RTVSPropertyOp22
 70
     1
102
RTVSPropertyOp23
 70
     1
102
RTVSPropertyOp24
 70
     1
102
RTVSPropertyOp25
 70
     1
102
RTVSPropertyOp26
 70
     1
102
RTVSPropertyOp27
 70
     1
102
RTVSPropertyOp28
 70
     1
102
RTVSPropertyOp29
 70
     1
102
RTVSPropertyOp30
 70
     1
102
RTVSPropertyOp31
 70
     1
102
RTVSPropertyOp32
 70
     1
102
RTVSPropertyOp33
 70
     1
102
RTVSPropertyOp34
 70
     1
102
RTVSPropertyOp35
 70
     1
102
RTVSPropertyOp36
 70
     1
102
RTVSPropertyOp37
 70
     1
102
RTVSPropertyOp38
 70
     1
102
RTVSPropertyOp39
 70
     1
102
RTVSPropertyOp40
 70
     1
102
RTVSPropertyOp41
 70
     1
102
RTVSPropertyOp42
 70
     1
102
RTVSPropertyOp43
 70
     1
102
RTVSPropertyOp44
 70
     1
102
RTVSPropertyOp45
 70
     1
102
RTVSPropertyOp46
 70
     1
102
RTVSPropertyOp47
 70
     1
102
RTVSPropertyOp48
 70
     1
102
RTVSPropertyOp49
 70
     1
102
RTVSPropertyOp50
 70
     1
102
RTVSPropertyOp51
 70
     0
102
RTVSPropertyOp52
 70
     0
102
RTVSPropertyOp53
 70
     1
102
RTVSPropertyOp54
 70
     1
102
RTVSPropertyOp55
 70
     1
102
RTVSPropertyOp56
 70
     1
102
RTVSPropertyOp57
 70
     1
102
RTVSPropertyOp58
 70
     1
102
RTVSPropertyOp59
 70
     1
102
RTVSPropertyOp60
 70
     1
102
RTVSPropertyOp61
 70
     1
102
RTVSPropertyOp62
 70
     1
  0
XRECORD
  5
9C28
102
{ACAD_REACTORS
330
9C27
102
}
330
9C27
100
AcDbXrecord
280
     1
102
RTVSPost2010Prop28
280
     0
102
RTVSPost2010PropOp28
 70
     1
102
RTVSPost2010Prop29
280
     1
102
RTVSPost2010PropOp29
 70
     1
102
RTVSPost2010Prop30
280
     1
102
RTVSPost2010PropOp30
 70
     1
102
RTVSPost2010Prop31
280
     0
102
RTVSPost2010PropOp31
 70
     1
102
RTVSPost2010Prop32
280
     0
102
RTVSPost2010PropOp32
 70
     1
102
RTVSPost2010Prop33
280
     0
102
RTVSPost2010PropOp33
 70
     1
102
RTVSPost2010Prop34
280
     0
102
RTVSPost2010PropOp34
 70
     1
102
RTVSPost2010Prop35
280
     0
102
RTVSPost2010PropOp35
 70
     1
102
RTVSPost2010Prop36
280
     0
102
RTVSPost2010PropOp36
 70
     1
102
RTVSPost2010Prop37
 90
       50
102
RTVSPost2010PropOp37
 70
     1
102
RTVSPost2010Prop38
140
0.0
102
RTVSPost2010PropOp38
 70
     1
102
RTVSPost2010Prop39
140
1.0
102
RTVSPost2010PropOp39
 70
     1
102
RTVSPost2010Prop40
 90
        0
102
RTVSPost2010PropOp40
 70
     1
102
RTVSPost2010Prop41ColorIndex
 90
       18
102
RTVSPost2010Prop41ColorRGB
 90
        0
102
RTVSPost2010PropOp41
 70
     1
102
RTVSPost2010Prop42
 90
       50
102
RTVSPost2010PropOp42
 70
     1
102
RTVSPost2010Prop43
 90
        3
102
RTVSPost2010PropOp43
 70
     1
102
RTVSPost2010Prop44ColorIndex
 90
        5
102
RTVSPost2010Prop44ColorRGB
 90
      255
102
RTVSPost2010PropOp44
 70
     1
102
RTVSPost2010Prop45
280
     0
102
RTVSPost2010PropOp45
 70
     1
102
RTVSPost2010Prop46
 90
       50
102
RTVSPost2010PropOp46
 70
     1
102
RTVSPost2010Prop47
 90
       50
102
RTVSPost2010PropOp47
 70
     1
102
RTVSPost2010Prop48
 90
       50
102
RTVSPost2010PropOp48
 70
     1
102
RTVSPost2010Prop49
280
     0
102
RTVSPost2010PropOp49
 70
     1
102
RTVSPost2010Prop50
 90
       50
102
RTVSPost2010PropOp50
 70
     1
102
RTVSPost2010Prop51ColorIndex
 90
      256
102
RTVSPost2010Prop51ColorRGB
 90
-16777216
102
RTVSPost2010PropOp51
 70
     0
102
RTVSPost2010Prop52
140
1.0
102
RTVSPost2010PropOp52
 70
     0
102
RTVSPost2010Prop53
 90
        2
102
RTVSPost2010PropOp53
 70
     1
102
RTVSPost2010Prop54
  1
strokes_ogs.tif
102
RTVSPost2010PropOp54
 70
     1
102
RTVSPost2010Prop55
280
     0
102
RTVSPost2010PropOp55
 70
     1
102
RTVSPost2010Prop56
140
1.0
102
RTVSPost2010PropOp56
 70
     1
102
RTVSPost2010Prop57
140
1.0
102
RTVSPost2010PropOp57
 70
     1
102
RTVSPropertyOp0
 70
     1
102
RTVSPropertyOp1
 70
     1
102
RTVSPropertyOp2
 70
     1
102
RTVSPropertyOp3
 70
     1
102
RTVSPropertyOp4
 70
     1
102
RTVSPropertyOp5
 70
     1
102
RTVSPropertyOp6
 70
     1
102
RTVSPropertyOp7
 70
     1
102
RTVSPropertyOp8
 70
     1
102
RTVSPropertyOp9
 70
     1
102
RTVSPropertyOp10
 70
     1
102
RTVSPropertyOp11
 70
     1
102
RTVSPropertyOp12
 70
     1
102
RTVSPropertyOp13
 70
     1
102
RTVSPropertyOp14
 70
     1
102
RTVSPropertyOp15
 70
     1
102
RTVSPropertyOp16
 70
     1
102
RTVSPropertyOp17
 70
     1
102
RTVSPropertyOp18
 70
     1
102
RTVSPropertyOp19
 70
     1
102
RTVSPropertyOp20
 70
     1
102
RTVSPropertyOp21
 70
     1
102
RTVSPropertyOp22
 70
     1
102
RTVSPropertyOp23
 70
     1
102
RTVSPropertyOp24
 70
     1
102
RTVSPropertyOp25
 70
     1
102
RTVSPropertyOp26
 70
     1
102
RTVSPropertyOp27
 70
     1
102
RTVSPropertyOp28
 70
     1
102
RTVSPropertyOp29
 70
     1
102
RTVSPropertyOp30
 70
     1
102
RTVSPropertyOp31
 70
     1
102
RTVSPropertyOp32
 70
     1
102
RTVSPropertyOp33
 70
     1
102
RTVSPropertyOp34
 70
     1
102
RTVSPropertyOp35
 70
     1
102
RTVSPropertyOp36
 70
     1
102
RTVSPropertyOp37
 70
     1
102
RTVSPropertyOp38
 70
     1
102
RTVSPropertyOp39
 70
     1
102
RTVSPropertyOp40
 70
     1
102
RTVSPropertyOp41
 70
     1
102
RTVSPropertyOp42
 70
     1
102
RTVSPropertyOp43
 70
     1
102
RTVSPropertyOp44
 70
     1
102
RTVSPropertyOp45
 70
     1
102
RTVSPropertyOp46
 70
     1
102
RTVSPropertyOp47
 70
     1
102
RTVSPropertyOp48
 70
     1
102
RTVSPropertyOp49
 70
     1
102
RTVSPropertyOp50
 70
     1
102
RTVSPropertyOp51
 70
     0
102
RTVSPropertyOp52
 70
     0
102
RTVSPropertyOp53
 70
     1
102
RTVSPropertyOp54
 70
     1
102
RTVSPropertyOp55
 70
     1
102
RTVSPropertyOp56
 70
     1
102
RTVSPropertyOp57
 70
     1
102
RTVSPropertyOp58
 70
     1
102
RTVSPropertyOp59
 70
     1
102
RTVSPropertyOp60
 70
     1
102
RTVSPropertyOp61
 70
     1
102
RTVSPropertyOp62
 70
     1
  0
XRECORD
  5
9C30
102
{ACAD_REACTORS
330
9C2F
102
}
330
9C2F
100
AcDbXrecord
280
     1
102
RTVSPost2010Prop28
280
     0
102
RTVSPost2010PropOp28
 70
     1
102
RTVSPost2010Prop29
280
     1
102
RTVSPost2010PropOp29
 70
     1
102
RTVSPost2010Prop30
280
     1
102
RTVSPost2010PropOp30
 70
     1
102
RTVSPost2010Prop31
280
     0
102
RTVSPost2010PropOp31
 70
     1
102
RTVSPost2010Prop32
280
     0
102
RTVSPost2010PropOp32
 70
     1
102
RTVSPost2010Prop33
280
     0
102
RTVSPost2010PropOp33
 70
     1
102
RTVSPost2010Prop34
280
     0
102
RTVSPost2010PropOp34
 70
     1
102
RTVSPost2010Prop35
280
     0
102
RTVSPost2010PropOp35
 70
     1
102
RTVSPost2010Prop36
280
     0
102
RTVSPost2010PropOp36
 70
     1
102
RTVSPost2010Prop37
 90
       50
102
RTVSPost2010PropOp37
 70
     1
102
RTVSPost2010Prop38
140
0.0
102
RTVSPost2010PropOp38
 70
     1
102
RTVSPost2010Prop39
140
1.0
102
RTVSPost2010PropOp39
 70
     1
102
RTVSPost2010Prop40
 90
        0
102
RTVSPost2010PropOp40
 70
     1
102
RTVSPost2010Prop41ColorIndex
 90
       18
102
RTVSPost2010Prop41ColorRGB
 90
        0
102
RTVSPost2010PropOp41
 70
     1
102
RTVSPost2010Prop42
 90
       50
102
RTVSPost2010PropOp42
 70
     1
102
RTVSPost2010Prop43
 90
        3
102
RTVSPost2010PropOp43
 70
     1
102
RTVSPost2010Prop44ColorIndex
 90
        5
102
RTVSPost2010Prop44ColorRGB
 90
      255
102
RTVSPost2010PropOp44
 70
     1
102
RTVSPost2010Prop45
280
     0
102
RTVSPost2010PropOp45
 70
     1
102
RTVSPost2010Prop46
 90
       50
102
RTVSPost2010PropOp46
 70
     1
102
RTVSPost2010Prop47
 90
       50
102
RTVSPost2010PropOp47
 70
     1
102
RTVSPost2010Prop48
 90
       50
102
RTVSPost2010PropOp48
 70
     1
102
RTVSPost2010Prop49
280
     0
102
RTVSPost2010PropOp49
 70
     1
102
RTVSPost2010Prop50
 90
       50
102
RTVSPost2010PropOp50
 70
     1
102
RTVSPost2010Prop51ColorIndex
 90
      256
102
RTVSPost2010Prop51ColorRGB
 90
-16777216
102
RTVSPost2010PropOp51
 70
     0
102
RTVSPost2010Prop52
140
1.0
102
RTVSPost2010PropOp52
 70
     0
102
RTVSPost2010Prop53
 90
        2
102
RTVSPost2010PropOp53
 70
     1
102
RTVSPost2010Prop54
  1
strokes_ogs.tif
102
RTVSPost2010PropOp54
 70
     1
102
RTVSPost2010Prop55
280
     0
102
RTVSPost2010PropOp55
 70
     1
102
RTVSPost2010Prop56
140
1.0
102
RTVSPost2010PropOp56
 70
     1
102
RTVSPost2010Prop57
140
1.0
102
RTVSPost2010PropOp57
 70
     1
102
RTVSPropertyOp0
 70
     1
102
RTVSPropertyOp1
 70
     1
102
RTVSPropertyOp2
 70
     1
102
RTVSPropertyOp3
 70
     1
102
RTVSPropertyOp4
 70
     1
102
RTVSPropertyOp5
 70
     1
102
RTVSPropertyOp6
 70
     1
102
RTVSPropertyOp7
 70
     1
102
RTVSPropertyOp8
 70
     1
102
RTVSPropertyOp9
 70
     1
102
RTVSPropertyOp10
 70
     1
102
RTVSPropertyOp11
 70
     1
102
RTVSPropertyOp12
 70
     1
102
RTVSPropertyOp13
 70
     1
102
RTVSPropertyOp14
 70
     1
102
RTVSPropertyOp15
 70
     1
102
RTVSPropertyOp16
 70
     1
102
RTVSPropertyOp17
 70
     1
102
RTVSPropertyOp18
 70
     1
102
RTVSPropertyOp19
 70
     1
102
RTVSPropertyOp20
 70
     1
102
RTVSPropertyOp21
 70
     1
102
RTVSPropertyOp22
 70
     1
102
RTVSPropertyOp23
 70
     1
102
RTVSPropertyOp24
 70
     1
102
RTVSPropertyOp25
 70
     1
102
RTVSPropertyOp26
 70
     1
102
RTVSPropertyOp27
 70
     1
102
RTVSPropertyOp28
 70
     1
102
RTVSPropertyOp29
 70
     1
102
RTVSPropertyOp30
 70
     1
102
RTVSPropertyOp31
 70
     1
102
RTVSPropertyOp32
 70
     1
102
RTVSPropertyOp33
 70
     1
102
RTVSPropertyOp34
 70
     1
102
RTVSPropertyOp35
 70
     1
102
RTVSPropertyOp36
 70
     1
102
RTVSPropertyOp37
 70
     1
102
RTVSPropertyOp38
 70
     1
102
RTVSPropertyOp39
 70
     1
102
RTVSPropertyOp40
 70
     1
102
RTVSPropertyOp41
 70
     1
102
RTVSPropertyOp42
 70
     1
102
RTVSPropertyOp43
 70
     1
102
RTVSPropertyOp44
 70
     1
102
RTVSPropertyOp45
 70
     1
102
RTVSPropertyOp46
 70
     1
102
RTVSPropertyOp47
 70
     1
102
RTVSPropertyOp48
 70
     1
102
RTVSPropertyOp49
 70
     1
102
RTVSPropertyOp50
 70
     1
102
RTVSPropertyOp51
 70
     0
102
RTVSPropertyOp52
 70
     0
102
RTVSPropertyOp53
 70
     1
102
RTVSPropertyOp54
 70
     1
102
RTVSPropertyOp55
 70
     1
102
RTVSPropertyOp56
 70
     1
102
RTVSPropertyOp57
 70
     1
102
RTVSPropertyOp58
 70
     1
102
RTVSPropertyOp59
 70
     1
102
RTVSPropertyOp60
 70
     1
102
RTVSPropertyOp61
 70
     1
102
RTVSPropertyOp62
 70
     1
  0
XRECORD
  5
9C4C
102
{ACAD_REACTORS
330
9C4B
102
}
330
9C4B
100
AcDbXrecord
280
     1
102
RTVSPost2010Prop28
280
     0
102
RTVSPost2010PropOp28
 70
     1
102
RTVSPost2010Prop29
280
     1
102
RTVSPost2010PropOp29
 70
     1
102
RTVSPost2010Prop30
280
     1
102
RTVSPost2010PropOp30
 70
     1
102
RTVSPost2010Prop31
280
     0
102
RTVSPost2010PropOp31
 70
     1
102
RTVSPost2010Prop32
280
     0
102
RTVSPost2010PropOp32
 70
     1
102
RTVSPost2010Prop33
280
     0
102
RTVSPost2010PropOp33
 70
     1
102
RTVSPost2010Prop34
280
     0
102
RTVSPost2010PropOp34
 70
     1
102
RTVSPost2010Prop35
280
     0
102
RTVSPost2010PropOp35
 70
     1
102
RTVSPost2010Prop36
280
     0
102
RTVSPost2010PropOp36
 70
     1
102
RTVSPost2010Prop37
 90
       50
102
RTVSPost2010PropOp37
 70
     0
102
RTVSPost2010Prop38
140
0.0
102
RTVSPost2010PropOp38
 70
     0
102
RTVSPost2010Prop39
140
1.0
102
RTVSPost2010PropOp39
 70
     0
102
RTVSPost2010Prop40
 90
        0
102
RTVSPost2010PropOp40
 70
     0
102
RTVSPost2010Prop41ColorIndex
 90
       18
102
RTVSPost2010Prop41ColorRGB
 90
        0
102
RTVSPost2010PropOp41
 70
     0
102
RTVSPost2010Prop42
 90
       50
102
RTVSPost2010PropOp42
 70
     0
102
RTVSPost2010Prop43
 90
        3
102
RTVSPost2010PropOp43
 70
     0
102
RTVSPost2010Prop44ColorIndex
 90
        5
102
RTVSPost2010Prop44ColorRGB
 90
      255
102
RTVSPost2010PropOp44
 70
     0
102
RTVSPost2010Prop45
280
     0
102
RTVSPost2010PropOp45
 70
     1
102
RTVSPost2010Prop46
 90
       50
102
RTVSPost2010PropOp46
 70
     0
102
RTVSPost2010Prop47
 90
       50
102
RTVSPost2010PropOp47
 70
     0
102
RTVSPost2010Prop48
 90
       50
102
RTVSPost2010PropOp48
 70
     0
102
RTVSPost2010Prop49
280
     0
102
RTVSPost2010PropOp49
 70
     1
102
RTVSPost2010Prop50
 90
       50
102
RTVSPost2010PropOp50
 70
     0
102
RTVSPost2010Prop51ColorIndex
 90
      256
102
RTVSPost2010Prop51ColorRGB
 90
-16777216
102
RTVSPost2010PropOp51
 70
     0
102
RTVSPost2010Prop52
140
1.0
102
RTVSPost2010PropOp52
 70
     0
102
RTVSPost2010Prop53
 90
        2
102
RTVSPost2010PropOp53
 70
     0
102
RTVSPost2010Prop54
  1
strokes_ogs.tif
102
RTVSPost2010PropOp54
 70
     0
102
RTVSPost2010Prop55
280
     0
102
RTVSPost2010PropOp55
 70
     1
102
RTVSPost2010Prop56
140
1.0
102
RTVSPost2010PropOp56
 70
     0
102
RTVSPost2010Prop57
140
1.0
102
RTVSPost2010PropOp57
 70
     0
102
RTVSPropertyOp0
 70
     0
102
RTVSPropertyOp1
 70
     0
102
RTVSPropertyOp2
 70
     0
102
RTVSPropertyOp3
 70
     0
102
RTVSPropertyOp4
 70
     0
102
RTVSPropertyOp5
 70
     0
102
RTVSPropertyOp6
 70
     0
102
RTVSPropertyOp7
 70
     0
102
RTVSPropertyOp8
 70
     0
102
RTVSPropertyOp9
 70
     0
102
RTVSPropertyOp10
 70
     0
102
RTVSPropertyOp11
 70
     0
102
RTVSPropertyOp12
 70
     0
102
RTVSPropertyOp13
 70
     0
102
RTVSPropertyOp14
 70
     2
102
RTVSPropertyOp15
 70
     0
102
RTVSPropertyOp16
 70
     0
102
RTVSPropertyOp17
 70
     0
102
RTVSPropertyOp18
 70
     0
102
RTVSPropertyOp19
 70
     0
102
RTVSPropertyOp20
 70
     0
102
RTVSPropertyOp21
 70
     0
102
RTVSPropertyOp22
 70
     0
102
RTVSPropertyOp23
 70
     0
102
RTVSPropertyOp24
 70
     0
102
RTVSPropertyOp25
 70
     0
102
RTVSPropertyOp26
 70
     0
102
RTVSPropertyOp27
 70
     0
102
RTVSPropertyOp28
 70
     1
102
RTVSPropertyOp29
 70
     1
102
RTVSPropertyOp30
 70
     1
102
RTVSPropertyOp31
 70
     1
102
RTVSPropertyOp32
 70
     1
102
RTVSPropertyOp33
 70
     1
102
RTVSPropertyOp34
 70
     1
102
RTVSPropertyOp35
 70
     1
102
RTVSPropertyOp36
 70
     1
102
RTVSPropertyOp37
 70
     0
102
RTVSPropertyOp38
 70
     0
102
RTVSPropertyOp39
 70
     0
102
RTVSPropertyOp40
 70
     0
102
RTVSPropertyOp41
 70
     0
102
RTVSPropertyOp42
 70
     0
102
RTVSPropertyOp43
 70
     0
102
RTVSPropertyOp44
 70
     0
102
RTVSPropertyOp45
 70
     1
102
RTVSPropertyOp46
 70
     0
102
RTVSPropertyOp47
 70
     0
102
RTVSPropertyOp48
 70
     0
102
RTVSPropertyOp49
 70
     1
102
RTVSPropertyOp50
 70
     0
102
RTVSPropertyOp51
 70
     0
102
RTVSPropertyOp52
 70
     0
102
RTVSPropertyOp53
 70
     0
102
RTVSPropertyOp54
 70
     0
102
RTVSPropertyOp55
 70
     1
102
RTVSPropertyOp56
 70
     0
102
RTVSPropertyOp57
 70
     0
102
RTVSPropertyOp58
 70
     0
102
RTVSPropertyOp59
 70
     0
102
RTVSPropertyOp60
 70
     0
102
RTVSPropertyOp61
 70
     0
102
RTVSPropertyOp62
 70
     0
  0
XRECORD
  5
9C3C
102
{ACAD_REACTORS
330
9C3B
102
}
330
9C3B
100
AcDbXrecord
280
     1
102
RTVSPost2010Prop28
280
     0
102
RTVSPost2010PropOp28
 70
     1
102
RTVSPost2010Prop29
280
     1
102
RTVSPost2010PropOp29
 70
     1
102
RTVSPost2010Prop30
280
     1
102
RTVSPost2010PropOp30
 70
     1
102
RTVSPost2010Prop31
280
     0
102
RTVSPost2010PropOp31
 70
     1
102
RTVSPost2010Prop32
280
     0
102
RTVSPost2010PropOp32
 70
     1
102
RTVSPost2010Prop33
280
     0
102
RTVSPost2010PropOp33
 70
     1
102
RTVSPost2010Prop34
280
     0
102
RTVSPost2010PropOp34
 70
     1
102
RTVSPost2010Prop35
280
     0
102
RTVSPost2010PropOp35
 70
     1
102
RTVSPost2010Prop36
280
     0
102
RTVSPost2010PropOp36
 70
     1
102
RTVSPost2010Prop37
 90
       50
102
RTVSPost2010PropOp37
 70
     1
102
RTVSPost2010Prop38
140
0.0
102
RTVSPost2010PropOp38
 70
     1
102
RTVSPost2010Prop39
140
1.0
102
RTVSPost2010PropOp39
 70
     1
102
RTVSPost2010Prop40
 90
        0
102
RTVSPost2010PropOp40
 70
     1
102
RTVSPost2010Prop41ColorIndex
 90
       18
102
RTVSPost2010Prop41ColorRGB
 90
        0
102
RTVSPost2010PropOp41
 70
     1
102
RTVSPost2010Prop42
 90
       50
102
RTVSPost2010PropOp42
 70
     1
102
RTVSPost2010Prop43
 90
        3
102
RTVSPost2010PropOp43
 70
     1
102
RTVSPost2010Prop44ColorIndex
 90
        5
102
RTVSPost2010Prop44ColorRGB
 90
      255
102
RTVSPost2010PropOp44
 70
     1
102
RTVSPost2010Prop45
280
     0
102
RTVSPost2010PropOp45
 70
     1
102
RTVSPost2010Prop46
 90
       50
102
RTVSPost2010PropOp46
 70
     1
102
RTVSPost2010Prop47
 90
       50
102
RTVSPost2010PropOp47
 70
     1
102
RTVSPost2010Prop48
 90
       50
102
RTVSPost2010PropOp48
 70
     1
102
RTVSPost2010Prop49
280
     0
102
RTVSPost2010PropOp49
 70
     1
102
RTVSPost2010Prop50
 90
       50
102
RTVSPost2010PropOp50
 70
     1
102
RTVSPost2010Prop51ColorIndex
 90
      256
102
RTVSPost2010Prop51ColorRGB
 90
-16777216
102
RTVSPost2010PropOp51
 70
     0
102
RTVSPost2010Prop52
140
1.0
102
RTVSPost2010PropOp52
 70
     0
102
RTVSPost2010Prop53
 90
        2
102
RTVSPost2010PropOp53
 70
     1
102
RTVSPost2010Prop54
  1
strokes_ogs.tif
102
RTVSPost2010PropOp54
 70
     1
102
RTVSPost2010Prop55
280
     0
102
RTVSPost2010PropOp55
 70
     1
102
RTVSPost2010Prop56
140
1.0
102
RTVSPost2010PropOp56
 70
     1
102
RTVSPost2010Prop57
140
1.0
102
RTVSPost2010PropOp57
 70
     1
102
RTVSPropertyOp0
 70
     1
102
RTVSPropertyOp1
 70
     1
102
RTVSPropertyOp2
 70
     1
102
RTVSPropertyOp3
 70
     1
102
RTVSPropertyOp4
 70
     1
102
RTVSPropertyOp5
 70
     1
102
RTVSPropertyOp6
 70
     1
102
RTVSPropertyOp7
 70
     1
102
RTVSPropertyOp8
 70
     1
102
RTVSPropertyOp9
 70
     1
102
RTVSPropertyOp10
 70
     1
102
RTVSPropertyOp11
 70
     1
102
RTVSPropertyOp12
 70
     1
102
RTVSPropertyOp13
 70
     1
102
RTVSPropertyOp14
 70
     1
102
RTVSPropertyOp15
 70
     1
102
RTVSPropertyOp16
 70
     1
102
RTVSPropertyOp17
 70
     1
102
RTVSPropertyOp18
 70
     1
102
RTVSPropertyOp19
 70
     1
102
RTVSPropertyOp20
 70
     1
102
RTVSPropertyOp21
 70
     1
102
RTVSPropertyOp22
 70
     1
102
RTVSPropertyOp23
 70
     1
102
RTVSPropertyOp24
 70
     1
102
RTVSPropertyOp25
 70
     1
102
RTVSPropertyOp26
 70
     1
102
RTVSPropertyOp27
 70
     1
102
RTVSPropertyOp28
 70
     1
102
RTVSPropertyOp29
 70
     1
102
RTVSPropertyOp30
 70
     1
102
RTVSPropertyOp31
 70
     1
102
RTVSPropertyOp32
 70
     1
102
RTVSPropertyOp33
 70
     1
102
RTVSPropertyOp34
 70
     1
102
RTVSPropertyOp35
 70
     1
102
RTVSPropertyOp36
 70
     1
102
RTVSPropertyOp37
 70
     1
102
RTVSPropertyOp38
 70
     1
102
RTVSPropertyOp39
 70
     1
102
RTVSPropertyOp40
 70
     1
102
RTVSPropertyOp41
 70
     1
102
RTVSPropertyOp42
 70
     1
102
RTVSPropertyOp43
 70
     1
102
RTVSPropertyOp44
 70
     1
102
RTVSPropertyOp45
 70
     1
102
RTVSPropertyOp46
 70
     1
102
RTVSPropertyOp47
 70
     1
102
RTVSPropertyOp48
 70
     1
102
RTVSPropertyOp49
 70
     1
102
RTVSPropertyOp50
 70
     1
102
RTVSPropertyOp51
 70
     0
102
RTVSPropertyOp52
 70
     0
102
RTVSPropertyOp53
 70
     1
102
RTVSPropertyOp54
 70
     1
102
RTVSPropertyOp55
 70
     1
102
RTVSPropertyOp56
 70
     1
102
RTVSPropertyOp57
 70
     1
102
RTVSPropertyOp58
 70
     1
102
RTVSPropertyOp59
 70
     1
102
RTVSPropertyOp60
 70
     1
102
RTVSPropertyOp61
 70
     1
102
RTVSPropertyOp62
 70
     1
  0
XRECORD
  5
9C4E
102
{ACAD_REACTORS
330
9C4D
102
}
330
9C4D
100
AcDbXrecord
280
     1
102
RTVSPost2010Prop28
280
     0
102
RTVSPost2010PropOp28
 70
     1
102
RTVSPost2010Prop29
280
     1
102
RTVSPost2010PropOp29
 70
     1
102
RTVSPost2010Prop30
280
     1
102
RTVSPost2010PropOp30
 70
     1
102
RTVSPost2010Prop31
280
     0
102
RTVSPost2010PropOp31
 70
     1
102
RTVSPost2010Prop32
280
     0
102
RTVSPost2010PropOp32
 70
     1
102
RTVSPost2010Prop33
280
     0
102
RTVSPost2010PropOp33
 70
     1
102
RTVSPost2010Prop34
280
     0
102
RTVSPost2010PropOp34
 70
     1
102
RTVSPost2010Prop35
280
     0
102
RTVSPost2010PropOp35
 70
     1
102
RTVSPost2010Prop36
280
     0
102
RTVSPost2010PropOp36
 70
     1
102
RTVSPost2010Prop37
 90
       50
102
RTVSPost2010PropOp37
 70
     0
102
RTVSPost2010Prop38
140
0.0
102
RTVSPost2010PropOp38
 70
     0
102
RTVSPost2010Prop39
140
1.0
102
RTVSPost2010PropOp39
 70
     0
102
RTVSPost2010Prop40
 90
        0
102
RTVSPost2010PropOp40
 70
     0
102
RTVSPost2010Prop41ColorIndex
 90
       18
102
RTVSPost2010Prop41ColorRGB
 90
        0
102
RTVSPost2010PropOp41
 70
     0
102
RTVSPost2010Prop42
 90
       50
102
RTVSPost2010PropOp42
 70
     0
102
RTVSPost2010Prop43
 90
        3
102
RTVSPost2010PropOp43
 70
     0
102
RTVSPost2010Prop44ColorIndex
 90
        5
102
RTVSPost2010Prop44ColorRGB
 90
      255
102
RTVSPost2010PropOp44
 70
     0
102
RTVSPost2010Prop45
280
     0
102
RTVSPost2010PropOp45
 70
     1
102
RTVSPost2010Prop46
 90
       50
102
RTVSPost2010PropOp46
 70
     0
102
RTVSPost2010Prop47
 90
       50
102
RTVSPost2010PropOp47
 70
     0
102
RTVSPost2010Prop48
 90
       50
102
RTVSPost2010PropOp48
 70
     0
102
RTVSPost2010Prop49
280
     0
102
RTVSPost2010PropOp49
 70
     1
102
RTVSPost2010Prop50
 90
       50
102
RTVSPost2010PropOp50
 70
     0
102
RTVSPost2010Prop51ColorIndex
 90
      256
102
RTVSPost2010Prop51ColorRGB
 90
-16777216
102
RTVSPost2010PropOp51
 70
     0
102
RTVSPost2010Prop52
140
1.0
102
RTVSPost2010PropOp52
 70
     0
102
RTVSPost2010Prop53
 90
        2
102
RTVSPost2010PropOp53
 70
     0
102
RTVSPost2010Prop54
  1
strokes_ogs.tif
102
RTVSPost2010PropOp54
 70
     0
102
RTVSPost2010Prop55
280
     0
102
RTVSPost2010PropOp55
 70
     1
102
RTVSPost2010Prop56
140
1.0
102
RTVSPost2010PropOp56
 70
     0
102
RTVSPost2010Prop57
140
1.0
102
RTVSPost2010PropOp57
 70
     0
102
RTVSPropertyOp0
 70
     0
102
RTVSPropertyOp1
 70
     0
102
RTVSPropertyOp2
 70
     0
102
RTVSPropertyOp3
 70
     0
102
RTVSPropertyOp4
 70
     0
102
RTVSPropertyOp5
 70
     0
102
RTVSPropertyOp6
 70
     0
102
RTVSPropertyOp7
 70
     0
102
RTVSPropertyOp8
 70
     0
102
RTVSPropertyOp9
 70
     0
102
RTVSPropertyOp10
 70
     0
102
RTVSPropertyOp11
 70
     0
102
RTVSPropertyOp12
 70
     0
102
RTVSPropertyOp13
 70
     0
102
RTVSPropertyOp14
 70
     2
102
RTVSPropertyOp15
 70
     0
102
RTVSPropertyOp16
 70
     0
102
RTVSPropertyOp17
 70
     0
102
RTVSPropertyOp18
 70
     0
102
RTVSPropertyOp19
 70
     0
102
RTVSPropertyOp20
 70
     0
102
RTVSPropertyOp21
 70
     0
102
RTVSPropertyOp22
 70
     0
102
RTVSPropertyOp23
 70
     0
102
RTVSPropertyOp24
 70
     0
102
RTVSPropertyOp25
 70
     0
102
RTVSPropertyOp26
 70
     0
102
RTVSPropertyOp27
 70
     0
102
RTVSPropertyOp28
 70
     1
102
RTVSPropertyOp29
 70
     1
102
RTVSPropertyOp30
 70
     1
102
RTVSPropertyOp31
 70
     1
102
RTVSPropertyOp32
 70
     1
102
RTVSPropertyOp33
 70
     1
102
RTVSPropertyOp34
 70
     1
102
RTVSPropertyOp35
 70
     1
102
RTVSPropertyOp36
 70
     1
102
RTVSPropertyOp37
 70
     0
102
RTVSPropertyOp38
 70
     0
102
RTVSPropertyOp39
 70
     0
102
RTVSPropertyOp40
 70
     0
102
RTVSPropertyOp41
 70
     0
102
RTVSPropertyOp42
 70
     0
102
RTVSPropertyOp43
 70
     0
102
RTVSPropertyOp44
 70
     0
102
RTVSPropertyOp45
 70
     1
102
RTVSPropertyOp46
 70
     0
102
RTVSPropertyOp47
 70
     0
102
RTVSPropertyOp48
 70
     0
102
RTVSPropertyOp49
 70
     1
102
RTVSPropertyOp50
 70
     0
102
RTVSPropertyOp51
 70
     0
102
RTVSPropertyOp52
 70
     0
102
RTVSPropertyOp53
 70
     0
102
RTVSPropertyOp54
 70
     0
102
RTVSPropertyOp55
 70
     1
102
RTVSPropertyOp56
 70
     0
102
RTVSPropertyOp57
 70
     0
102
RTVSPropertyOp58
 70
     0
102
RTVSPropertyOp59
 70
     0
102
RTVSPropertyOp60
 70
     0
102
RTVSPropertyOp61
 70
     0
102
RTVSPropertyOp62
 70
     0
  0
XRECORD
  5
9C34
102
{ACAD_REACTORS
330
9C33
102
}
330
9C33
100
AcDbXrecord
280
     1
102
RTVSPost2010Prop28
280
     0
102
RTVSPost2010PropOp28
 70
     1
102
RTVSPost2010Prop29
280
     1
102
RTVSPost2010PropOp29
 70
     1
102
RTVSPost2010Prop30
280
     1
102
RTVSPost2010PropOp30
 70
     1
102
RTVSPost2010Prop31
280
     0
102
RTVSPost2010PropOp31
 70
     1
102
RTVSPost2010Prop32
280
     0
102
RTVSPost2010PropOp32
 70
     1
102
RTVSPost2010Prop33
280
     0
102
RTVSPost2010PropOp33
 70
     1
102
RTVSPost2010Prop34
280
     0
102
RTVSPost2010PropOp34
 70
     1
102
RTVSPost2010Prop35
280
     0
102
RTVSPost2010PropOp35
 70
     1
102
RTVSPost2010Prop36
280
     0
102
RTVSPost2010PropOp36
 70
     1
102
RTVSPost2010Prop37
 90
       50
102
RTVSPost2010PropOp37
 70
     1
102
RTVSPost2010Prop38
140
0.0
102
RTVSPost2010PropOp38
 70
     1
102
RTVSPost2010Prop39
140
1.0
102
RTVSPost2010PropOp39
 70
     1
102
RTVSPost2010Prop40
 90
        0
102
RTVSPost2010PropOp40
 70
     1
102
RTVSPost2010Prop41ColorIndex
 90
       18
102
RTVSPost2010Prop41ColorRGB
 90
        0
102
RTVSPost2010PropOp41
 70
     1
102
RTVSPost2010Prop42
 90
       50
102
RTVSPost2010PropOp42
 70
     1
102
RTVSPost2010Prop43
 90
        3
102
RTVSPost2010PropOp43
 70
     1
102
RTVSPost2010Prop44ColorIndex
 90
        5
102
RTVSPost2010Prop44ColorRGB
 90
      255
102
RTVSPost2010PropOp44
 70
     1
102
RTVSPost2010Prop45
280
     0
102
RTVSPost2010PropOp45
 70
     1
102
RTVSPost2010Prop46
 90
       50
102
RTVSPost2010PropOp46
 70
     1
102
RTVSPost2010Prop47
 90
       50
102
RTVSPost2010PropOp47
 70
     1
102
RTVSPost2010Prop48
 90
       50
102
RTVSPost2010PropOp48
 70
     1
102
RTVSPost2010Prop49
280
     0
102
RTVSPost2010PropOp49
 70
     1
102
RTVSPost2010Prop50
 90
       50
102
RTVSPost2010PropOp50
 70
     1
102
RTVSPost2010Prop51ColorIndex
 90
      256
102
RTVSPost2010Prop51ColorRGB
 90
-16777216
102
RTVSPost2010PropOp51
 70
     0
102
RTVSPost2010Prop52
140
1.0
102
RTVSPost2010PropOp52
 70
     0
102
RTVSPost2010Prop53
 90
        2
102
RTVSPost2010PropOp53
 70
     1
102
RTVSPost2010Prop54
  1
strokes_ogs.tif
102
RTVSPost2010PropOp54
 70
     1
102
RTVSPost2010Prop55
280
     0
102
RTVSPost2010PropOp55
 70
     1
102
RTVSPost2010Prop56
140
1.0
102
RTVSPost2010PropOp56
 70
     1
102
RTVSPost2010Prop57
140
1.0
102
RTVSPost2010PropOp57
 70
     1
102
RTVSPropertyOp0
 70
     1
102
RTVSPropertyOp1
 70
     1
102
RTVSPropertyOp2
 70
     1
102
RTVSPropertyOp3
 70
     1
102
RTVSPropertyOp4
 70
     1
102
RTVSPropertyOp5
 70
     1
102
RTVSPropertyOp6
 70
     1
102
RTVSPropertyOp7
 70
     1
102
RTVSPropertyOp8
 70
     1
102
RTVSPropertyOp9
 70
     1
102
RTVSPropertyOp10
 70
     1
102
RTVSPropertyOp11
 70
     1
102
RTVSPropertyOp12
 70
     1
102
RTVSPropertyOp13
 70
     1
102
RTVSPropertyOp14
 70
     1
102
RTVSPropertyOp15
 70
     1
102
RTVSPropertyOp16
 70
     1
102
RTVSPropertyOp17
 70
     1
102
RTVSPropertyOp18
 70
     1
102
RTVSPropertyOp19
 70
     1
102
RTVSPropertyOp20
 70
     1
102
RTVSPropertyOp21
 70
     1
102
RTVSPropertyOp22
 70
     1
102
RTVSPropertyOp23
 70
     1
102
RTVSPropertyOp24
 70
     1
102
RTVSPropertyOp25
 70
     1
102
RTVSPropertyOp26
 70
     1
102
RTVSPropertyOp27
 70
     1
102
RTVSPropertyOp28
 70
     1
102
RTVSPropertyOp29
 70
     1
102
RTVSPropertyOp30
 70
     1
102
RTVSPropertyOp31
 70
     1
102
RTVSPropertyOp32
 70
     1
102
RTVSPropertyOp33
 70
     1
102
RTVSPropertyOp34
 70
     1
102
RTVSPropertyOp35
 70
     1
102
RTVSPropertyOp36
 70
     1
102
RTVSPropertyOp37
 70
     1
102
RTVSPropertyOp38
 70
     1
102
RTVSPropertyOp39
 70
     1
102
RTVSPropertyOp40
 70
     1
102
RTVSPropertyOp41
 70
     1
102
RTVSPropertyOp42
 70
     1
102
RTVSPropertyOp43
 70
     1
102
RTVSPropertyOp44
 70
     1
102
RTVSPropertyOp45
 70
     1
102
RTVSPropertyOp46
 70
     1
102
RTVSPropertyOp47
 70
     1
102
RTVSPropertyOp48
 70
     1
102
RTVSPropertyOp49
 70
     1
102
RTVSPropertyOp50
 70
     1
102
RTVSPropertyOp51
 70
     0
102
RTVSPropertyOp52
 70
     0
102
RTVSPropertyOp53
 70
     1
102
RTVSPropertyOp54
 70
     1
102
RTVSPropertyOp55
 70
     1
102
RTVSPropertyOp56
 70
     1
102
RTVSPropertyOp57
 70
     1
102
RTVSPropertyOp58
 70
     1
102
RTVSPropertyOp59
 70
     1
102
RTVSPropertyOp60
 70
     1
102
RTVSPropertyOp61
 70
     1
102
RTVSPropertyOp62
 70
     1
  0
XRECORD
  5
9C4A
102
{ACAD_REACTORS
330
9C49
102
}
330
9C49
100
AcDbXrecord
280
     1
102
RTVSPost2010Prop28
280
     0
102
RTVSPost2010PropOp28
 70
     1
102
RTVSPost2010Prop29
280
     1
102
RTVSPost2010PropOp29
 70
     1
102
RTVSPost2010Prop30
280
     1
102
RTVSPost2010PropOp30
 70
     1
102
RTVSPost2010Prop31
280
     0
102
RTVSPost2010PropOp31
 70
     1
102
RTVSPost2010Prop32
280
     0
102
RTVSPost2010PropOp32
 70
     1
102
RTVSPost2010Prop33
280
     0
102
RTVSPost2010PropOp33
 70
     1
102
RTVSPost2010Prop34
280
     0
102
RTVSPost2010PropOp34
 70
     1
102
RTVSPost2010Prop35
280
     0
102
RTVSPost2010PropOp35
 70
     1
102
RTVSPost2010Prop36
280
     0
102
RTVSPost2010PropOp36
 70
     1
102
RTVSPost2010Prop37
 90
       50
102
RTVSPost2010PropOp37
 70
     1
102
RTVSPost2010Prop38
140
0.0
102
RTVSPost2010PropOp38
 70
     1
102
RTVSPost2010Prop39
140
1.0
102
RTVSPost2010PropOp39
 70
     1
102
RTVSPost2010Prop40
 90
        0
102
RTVSPost2010PropOp40
 70
     1
102
RTVSPost2010Prop41ColorIndex
 90
       18
102
RTVSPost2010Prop41ColorRGB
 90
        0
102
RTVSPost2010PropOp41
 70
     1
102
RTVSPost2010Prop42
 90
       50
102
RTVSPost2010PropOp42
 70
     1
102
RTVSPost2010Prop43
 90
        3
102
RTVSPost2010PropOp43
 70
     1
102
RTVSPost2010Prop44ColorIndex
 90
        5
102
RTVSPost2010Prop44ColorRGB
 90
      255
102
RTVSPost2010PropOp44
 70
     1
102
RTVSPost2010Prop45
280
     0
102
RTVSPost2010PropOp45
 70
     1
102
RTVSPost2010Prop46
 90
       50
102
RTVSPost2010PropOp46
 70
     1
102
RTVSPost2010Prop47
 90
       50
102
RTVSPost2010PropOp47
 70
     1
102
RTVSPost2010Prop48
 90
       50
102
RTVSPost2010PropOp48
 70
     1
102
RTVSPost2010Prop49
280
     0
102
RTVSPost2010PropOp49
 70
     1
102
RTVSPost2010Prop50
 90
       50
102
RTVSPost2010PropOp50
 70
     1
102
RTVSPost2010Prop51ColorIndex
 90
      256
102
RTVSPost2010Prop51ColorRGB
 90
-16777216
102
RTVSPost2010PropOp51
 70
     0
102
RTVSPost2010Prop52
140
1.0
102
RTVSPost2010PropOp52
 70
     0
102
RTVSPost2010Prop53
 90
        2
102
RTVSPost2010PropOp53
 70
     1
102
RTVSPost2010Prop54
  1
strokes_ogs.tif
102
RTVSPost2010PropOp54
 70
     1
102
RTVSPost2010Prop55
280
     0
102
RTVSPost2010PropOp55
 70
     1
102
RTVSPost2010Prop56
140
1.0
102
RTVSPost2010PropOp56
 70
     1
102
RTVSPost2010Prop57
140
1.0
102
RTVSPost2010PropOp57
 70
     1
102
RTVSPropertyOp0
 70
     1
102
RTVSPropertyOp1
 70
     1
102
RTVSPropertyOp2
 70
     1
102
RTVSPropertyOp3
 70
     1
102
RTVSPropertyOp4
 70
     1
102
RTVSPropertyOp5
 70
     1
102
RTVSPropertyOp6
 70
     1
102
RTVSPropertyOp7
 70
     1
102
RTVSPropertyOp8
 70
     1
102
RTVSPropertyOp9
 70
     1
102
RTVSPropertyOp10
 70
     1
102
RTVSPropertyOp11
 70
     1
102
RTVSPropertyOp12
 70
     1
102
RTVSPropertyOp13
 70
     1
102
RTVSPropertyOp14
 70
     1
102
RTVSPropertyOp15
 70
     1
102
RTVSPropertyOp16
 70
     1
102
RTVSPropertyOp17
 70
     1
102
RTVSPropertyOp18
 70
     1
102
RTVSPropertyOp19
 70
     1
102
RTVSPropertyOp20
 70
     1
102
RTVSPropertyOp21
 70
     1
102
RTVSPropertyOp22
 70
     1
102
RTVSPropertyOp23
 70
     1
102
RTVSPropertyOp24
 70
     1
102
RTVSPropertyOp25
 70
     1
102
RTVSPropertyOp26
 70
     1
102
RTVSPropertyOp27
 70
     1
102
RTVSPropertyOp28
 70
     1
102
RTVSPropertyOp29
 70
     1
102
RTVSPropertyOp30
 70
     1
102
RTVSPropertyOp31
 70
     1
102
RTVSPropertyOp32
 70
     1
102
RTVSPropertyOp33
 70
     1
102
RTVSPropertyOp34
 70
     1
102
RTVSPropertyOp35
 70
     1
102
RTVSPropertyOp36
 70
     1
102
RTVSPropertyOp37
 70
     1
102
RTVSPropertyOp38
 70
     1
102
RTVSPropertyOp39
 70
     1
102
RTVSPropertyOp40
 70
     1
102
RTVSPropertyOp41
 70
     1
102
RTVSPropertyOp42
 70
     1
102
RTVSPropertyOp43
 70
     1
102
RTVSPropertyOp44
 70
     1
102
RTVSPropertyOp45
 70
     1
102
RTVSPropertyOp46
 70
     1
102
RTVSPropertyOp47
 70
     1
102
RTVSPropertyOp48
 70
     1
102
RTVSPropertyOp49
 70
     1
102
RTVSPropertyOp50
 70
     1
102
RTVSPropertyOp51
 70
     0
102
RTVSPropertyOp52
 70
     0
102
RTVSPropertyOp53
 70
     1
102
RTVSPropertyOp54
 70
     1
102
RTVSPropertyOp55
 70
     1
102
RTVSPropertyOp56
 70
     1
102
RTVSPropertyOp57
 70
     1
102
RTVSPropertyOp58
 70
     1
102
RTVSPropertyOp59
 70
     1
102
RTVSPropertyOp60
 70
     1
102
RTVSPropertyOp61
 70
     1
102
RTVSPropertyOp62
 70
     1
  0
XRECORD
  5
9C48
102
{ACAD_REACTORS
330
9C47
102
}
330
9C47
100
AcDbXrecord
280
     1
102
RTVSPost2010Prop28
280
     0
102
RTVSPost2010PropOp28
 70
     1
102
RTVSPost2010Prop29
280
     1
102
RTVSPost2010PropOp29
 70
     1
102
RTVSPost2010Prop30
280
     1
102
RTVSPost2010PropOp30
 70
     1
102
RTVSPost2010Prop31
280
     0
102
RTVSPost2010PropOp31
 70
     1
102
RTVSPost2010Prop32
280
     0
102
RTVSPost2010PropOp32
 70
     1
102
RTVSPost2010Prop33
280
     0
102
RTVSPost2010PropOp33
 70
     1
102
RTVSPost2010Prop34
280
     0
102
RTVSPost2010PropOp34
 70
     1
102
RTVSPost2010Prop35
280
     0
102
RTVSPost2010PropOp35
 70
     1
102
RTVSPost2010Prop36
280
     0
102
RTVSPost2010PropOp36
 70
     1
102
RTVSPost2010Prop37
 90
       50
102
RTVSPost2010PropOp37
 70
     1
102
RTVSPost2010Prop38
140
0.0
102
RTVSPost2010PropOp38
 70
     1
102
RTVSPost2010Prop39
140
1.0
102
RTVSPost2010PropOp39
 70
     1
102
RTVSPost2010Prop40
 90
        0
102
RTVSPost2010PropOp40
 70
     1
102
RTVSPost2010Prop41ColorIndex
 90
       18
102
RTVSPost2010Prop41ColorRGB
 90
        0
102
RTVSPost2010PropOp41
 70
     1
102
RTVSPost2010Prop42
 90
       50
102
RTVSPost2010PropOp42
 70
     1
102
RTVSPost2010Prop43
 90
        3
102
RTVSPost2010PropOp43
 70
     1
102
RTVSPost2010Prop44ColorIndex
 90
        5
102
RTVSPost2010Prop44ColorRGB
 90
      255
102
RTVSPost2010PropOp44
 70
     1
102
RTVSPost2010Prop45
280
     0
102
RTVSPost2010PropOp45
 70
     1
102
RTVSPost2010Prop46
 90
       50
102
RTVSPost2010PropOp46
 70
     1
102
RTVSPost2010Prop47
 90
       50
102
RTVSPost2010PropOp47
 70
     1
102
RTVSPost2010Prop48
 90
       50
102
RTVSPost2010PropOp48
 70
     1
102
RTVSPost2010Prop49
280
     0
102
RTVSPost2010PropOp49
 70
     1
102
RTVSPost2010Prop50
 90
       50
102
RTVSPost2010PropOp50
 70
     1
102
RTVSPost2010Prop51ColorIndex
 90
      256
102
RTVSPost2010Prop51ColorRGB
 90
-16777216
102
RTVSPost2010PropOp51
 70
     0
102
RTVSPost2010Prop52
140
1.0
102
RTVSPost2010PropOp52
 70
     0
102
RTVSPost2010Prop53
 90
        2
102
RTVSPost2010PropOp53
 70
     1
102
RTVSPost2010Prop54
  1
strokes_ogs.tif
102
RTVSPost2010PropOp54
 70
     1
102
RTVSPost2010Prop55
280
     0
102
RTVSPost2010PropOp55
 70
     1
102
RTVSPost2010Prop56
140
1.0
102
RTVSPost2010PropOp56
 70
     1
102
RTVSPost2010Prop57
140
1.0
102
RTVSPost2010PropOp57
 70
     1
102
RTVSPropertyOp0
 70
     1
102
RTVSPropertyOp1
 70
     1
102
RTVSPropertyOp2
 70
     1
102
RTVSPropertyOp3
 70
     1
102
RTVSPropertyOp4
 70
     1
102
RTVSPropertyOp5
 70
     1
102
RTVSPropertyOp6
 70
     1
102
RTVSPropertyOp7
 70
     1
102
RTVSPropertyOp8
 70
     1
102
RTVSPropertyOp9
 70
     1
102
RTVSPropertyOp10
 70
     1
102
RTVSPropertyOp11
 70
     1
102
RTVSPropertyOp12
 70
     1
102
RTVSPropertyOp13
 70
     1
102
RTVSPropertyOp14
 70
     1
102
RTVSPropertyOp15
 70
     1
102
RTVSPropertyOp16
 70
     1
102
RTVSPropertyOp17
 70
     1
102
RTVSPropertyOp18
 70
     1
102
RTVSPropertyOp19
 70
     1
102
RTVSPropertyOp20
 70
     1
102
RTVSPropertyOp21
 70
     1
102
RTVSPropertyOp22
 70
     1
102
RTVSPropertyOp23
 70
     1
102
RTVSPropertyOp24
 70
     1
102
RTVSPropertyOp25
 70
     1
102
RTVSPropertyOp26
 70
     1
102
RTVSPropertyOp27
 70
     1
102
RTVSPropertyOp28
 70
     1
102
RTVSPropertyOp29
 70
     1
102
RTVSPropertyOp30
 70
     1
102
RTVSPropertyOp31
 70
     1
102
RTVSPropertyOp32
 70
     1
102
RTVSPropertyOp33
 70
     1
102
RTVSPropertyOp34
 70
     1
102
RTVSPropertyOp35
 70
     1
102
RTVSPropertyOp36
 70
     1
102
RTVSPropertyOp37
 70
     1
102
RTVSPropertyOp38
 70
     1
102
RTVSPropertyOp39
 70
     1
102
RTVSPropertyOp40
 70
     1
102
RTVSPropertyOp41
 70
     1
102
RTVSPropertyOp42
 70
     1
102
RTVSPropertyOp43
 70
     1
102
RTVSPropertyOp44
 70
     1
102
RTVSPropertyOp45
 70
     1
102
RTVSPropertyOp46
 70
     1
102
RTVSPropertyOp47
 70
     1
102
RTVSPropertyOp48
 70
     1
102
RTVSPropertyOp49
 70
     1
102
RTVSPropertyOp50
 70
     1
102
RTVSPropertyOp51
 70
     0
102
RTVSPropertyOp52
 70
     0
102
RTVSPropertyOp53
 70
     1
102
RTVSPropertyOp54
 70
     1
102
RTVSPropertyOp55
 70
     1
102
RTVSPropertyOp56
 70
     1
102
RTVSPropertyOp57
 70
     1
102
RTVSPropertyOp58
 70
     1
102
RTVSPropertyOp59
 70
     1
102
RTVSPropertyOp60
 70
     1
102
RTVSPropertyOp61
 70
     1
102
RTVSPropertyOp62
 70
     1
  0
XRECORD
  5
9C42
102
{ACAD_REACTORS
330
9C41
102
}
330
9C41
100
AcDbXrecord
280
     1
102
RTVSPost2010Prop28
280
     0
102
RTVSPost2010PropOp28
 70
     1
102
RTVSPost2010Prop29
280
     1
102
RTVSPost2010PropOp29
 70
     1
102
RTVSPost2010Prop30
280
     1
102
RTVSPost2010PropOp30
 70
     1
102
RTVSPost2010Prop31
280
     0
102
RTVSPost2010PropOp31
 70
     1
102
RTVSPost2010Prop32
280
     0
102
RTVSPost2010PropOp32
 70
     1
102
RTVSPost2010Prop33
280
     0
102
RTVSPost2010PropOp33
 70
     1
102
RTVSPost2010Prop34
280
     0
102
RTVSPost2010PropOp34
 70
     1
102
RTVSPost2010Prop35
280
     0
102
RTVSPost2010PropOp35
 70
     1
102
RTVSPost2010Prop36
280
     0
102
RTVSPost2010PropOp36
 70
     1
102
RTVSPost2010Prop37
 90
       50
102
RTVSPost2010PropOp37
 70
     1
102
RTVSPost2010Prop38
140
0.0
102
RTVSPost2010PropOp38
 70
     1
102
RTVSPost2010Prop39
140
1.0
102
RTVSPost2010PropOp39
 70
     1
102
RTVSPost2010Prop40
 90
        0
102
RTVSPost2010PropOp40
 70
     1
102
RTVSPost2010Prop41ColorIndex
 90
       18
102
RTVSPost2010Prop41ColorRGB
 90
        0
102
RTVSPost2010PropOp41
 70
     1
102
RTVSPost2010Prop42
 90
       50
102
RTVSPost2010PropOp42
 70
     1
102
RTVSPost2010Prop43
 90
        3
102
RTVSPost2010PropOp43
 70
     1
102
RTVSPost2010Prop44ColorIndex
 90
        5
102
RTVSPost2010Prop44ColorRGB
 90
      255
102
RTVSPost2010PropOp44
 70
     1
102
RTVSPost2010Prop45
280
     0
102
RTVSPost2010PropOp45
 70
     1
102
RTVSPost2010Prop46
 90
       50
102
RTVSPost2010PropOp46
 70
     1
102
RTVSPost2010Prop47
 90
       50
102
RTVSPost2010PropOp47
 70
     1
102
RTVSPost2010Prop48
 90
       50
102
RTVSPost2010PropOp48
 70
     1
102
RTVSPost2010Prop49
280
     0
102
RTVSPost2010PropOp49
 70
     1
102
RTVSPost2010Prop50
 90
       50
102
RTVSPost2010PropOp50
 70
     1
102
RTVSPost2010Prop51ColorIndex
 90
      256
102
RTVSPost2010Prop51ColorRGB
 90
-16777216
102
RTVSPost2010PropOp51
 70
     0
102
RTVSPost2010Prop52
140
1.0
102
RTVSPost2010PropOp52
 70
     0
102
RTVSPost2010Prop53
 90
        2
102
RTVSPost2010PropOp53
 70
     1
102
RTVSPost2010Prop54
  1
strokes_ogs.tif
102
RTVSPost2010PropOp54
 70
     1
102
RTVSPost2010Prop55
280
     0
102
RTVSPost2010PropOp55
 70
     1
102
RTVSPost2010Prop56
140
1.0
102
RTVSPost2010PropOp56
 70
     1
102
RTVSPost2010Prop57
140
1.0
102
RTVSPost2010PropOp57
 70
     1
102
RTVSPropertyOp0
 70
     1
102
RTVSPropertyOp1
 70
     1
102
RTVSPropertyOp2
 70
     1
102
RTVSPropertyOp3
 70
     1
102
RTVSPropertyOp4
 70
     1
102
RTVSPropertyOp5
 70
     1
102
RTVSPropertyOp6
 70
     1
102
RTVSPropertyOp7
 70
     1
102
RTVSPropertyOp8
 70
     1
102
RTVSPropertyOp9
 70
     1
102
RTVSPropertyOp10
 70
     1
102
RTVSPropertyOp11
 70
     1
102
RTVSPropertyOp12
 70
     1
102
RTVSPropertyOp13
 70
     1
102
RTVSPropertyOp14
 70
     1
102
RTVSPropertyOp15
 70
     1
102
RTVSPropertyOp16
 70
     1
102
RTVSPropertyOp17
 70
     1
102
RTVSPropertyOp18
 70
     1
102
RTVSPropertyOp19
 70
     1
102
RTVSPropertyOp20
 70
     1
102
RTVSPropertyOp21
 70
     1
102
RTVSPropertyOp22
 70
     1
102
RTVSPropertyOp23
 70
     1
102
RTVSPropertyOp24
 70
     1
102
RTVSPropertyOp25
 70
     1
102
RTVSPropertyOp26
 70
     1
102
RTVSPropertyOp27
 70
     1
102
RTVSPropertyOp28
 70
     1
102
RTVSPropertyOp29
 70
     1
102
RTVSPropertyOp30
 70
     1
102
RTVSPropertyOp31
 70
     1
102
RTVSPropertyOp32
 70
     1
102
RTVSPropertyOp33
 70
     1
102
RTVSPropertyOp34
 70
     1
102
RTVSPropertyOp35
 70
     1
102
RTVSPropertyOp36
 70
     1
102
RTVSPropertyOp37
 70
     1
102
RTVSPropertyOp38
 70
     1
102
RTVSPropertyOp39
 70
     1
102
RTVSPropertyOp40
 70
     1
102
RTVSPropertyOp41
 70
     1
102
RTVSPropertyOp42
 70
     1
102
RTVSPropertyOp43
 70
     1
102
RTVSPropertyOp44
 70
     1
102
RTVSPropertyOp45
 70
     1
102
RTVSPropertyOp46
 70
     1
102
RTVSPropertyOp47
 70
     1
102
RTVSPropertyOp48
 70
     1
102
RTVSPropertyOp49
 70
     1
102
RTVSPropertyOp50
 70
     1
102
RTVSPropertyOp51
 70
     0
102
RTVSPropertyOp52
 70
     0
102
RTVSPropertyOp53
 70
     1
102
RTVSPropertyOp54
 70
     1
102
RTVSPropertyOp55
 70
     1
102
RTVSPropertyOp56
 70
     1
102
RTVSPropertyOp57
 70
     1
102
RTVSPropertyOp58
 70
     1
102
RTVSPropertyOp59
 70
     1
102
RTVSPropertyOp60
 70
     1
102
RTVSPropertyOp61
 70
     1
102
RTVSPropertyOp62
 70
     1
  0
XRECORD
  5
9C44
102
{ACAD_REACTORS
330
9C43
102
}
330
9C43
100
AcDbXrecord
280
     1
102
RTVSPost2010Prop28
280
     0
102
RTVSPost2010PropOp28
 70
     1
102
RTVSPost2010Prop29
280
     1
102
RTVSPost2010PropOp29
 70
     1
102
RTVSPost2010Prop30
280
     1
102
RTVSPost2010PropOp30
 70
     1
102
RTVSPost2010Prop31
280
     0
102
RTVSPost2010PropOp31
 70
     1
102
RTVSPost2010Prop32
280
     0
102
RTVSPost2010PropOp32
 70
     1
102
RTVSPost2010Prop33
280
     0
102
RTVSPost2010PropOp33
 70
     1
102
RTVSPost2010Prop34
280
     0
102
RTVSPost2010PropOp34
 70
     1
102
RTVSPost2010Prop35
280
     0
102
RTVSPost2010PropOp35
 70
     1
102
RTVSPost2010Prop36
280
     0
102
RTVSPost2010PropOp36
 70
     1
102
RTVSPost2010Prop37
 90
       50
102
RTVSPost2010PropOp37
 70
     1
102
RTVSPost2010Prop38
140
0.0
102
RTVSPost2010PropOp38
 70
     1
102
RTVSPost2010Prop39
140
1.0
102
RTVSPost2010PropOp39
 70
     1
102
RTVSPost2010Prop40
 90
        0
102
RTVSPost2010PropOp40
 70
     1
102
RTVSPost2010Prop41ColorIndex
 90
       18
102
RTVSPost2010Prop41ColorRGB
 90
        0
102
RTVSPost2010PropOp41
 70
     1
102
RTVSPost2010Prop42
 90
       50
102
RTVSPost2010PropOp42
 70
     1
102
RTVSPost2010Prop43
 90
        3
102
RTVSPost2010PropOp43
 70
     1
102
RTVSPost2010Prop44ColorIndex
 90
        5
102
RTVSPost2010Prop44ColorRGB
 90
      255
102
RTVSPost2010PropOp44
 70
     1
102
RTVSPost2010Prop45
280
     0
102
RTVSPost2010PropOp45
 70
     1
102
RTVSPost2010Prop46
 90
       50
102
RTVSPost2010PropOp46
 70
     1
102
RTVSPost2010Prop47
 90
       50
102
RTVSPost2010PropOp47
 70
     1
102
RTVSPost2010Prop48
 90
       50
102
RTVSPost2010PropOp48
 70
     1
102
RTVSPost2010Prop49
280
     0
102
RTVSPost2010PropOp49
 70
     1
102
RTVSPost2010Prop50
 90
       50
102
RTVSPost2010PropOp50
 70
     1
102
RTVSPost2010Prop51ColorIndex
 90
      256
102
RTVSPost2010Prop51ColorRGB
 90
-16777216
102
RTVSPost2010PropOp51
 70
     0
102
RTVSPost2010Prop52
140
1.0
102
RTVSPost2010PropOp52
 70
     0
102
RTVSPost2010Prop53
 90
        2
102
RTVSPost2010PropOp53
 70
     1
102
RTVSPost2010Prop54
  1
strokes_ogs.tif
102
RTVSPost2010PropOp54
 70
     1
102
RTVSPost2010Prop55
280
     0
102
RTVSPost2010PropOp55
 70
     1
102
RTVSPost2010Prop56
140
1.0
102
RTVSPost2010PropOp56
 70
     1
102
RTVSPost2010Prop57
140
1.0
102
RTVSPost2010PropOp57
 70
     1
102
RTVSPropertyOp0
 70
     1
102
RTVSPropertyOp1
 70
     1
102
RTVSPropertyOp2
 70
     1
102
RTVSPropertyOp3
 70
     1
102
RTVSPropertyOp4
 70
     1
102
RTVSPropertyOp5
 70
     1
102
RTVSPropertyOp6
 70
     1
102
RTVSPropertyOp7
 70
     1
102
RTVSPropertyOp8
 70
     1
102
RTVSPropertyOp9
 70
     1
102
RTVSPropertyOp10
 70
     1
102
RTVSPropertyOp11
 70
     1
102
RTVSPropertyOp12
 70
     1
102
RTVSPropertyOp13
 70
     1
102
RTVSPropertyOp14
 70
     1
102
RTVSPropertyOp15
 70
     1
102
RTVSPropertyOp16
 70
     1
102
RTVSPropertyOp17
 70
     1
102
RTVSPropertyOp18
 70
     1
102
RTVSPropertyOp19
 70
     1
102
RTVSPropertyOp20
 70
     1
102
RTVSPropertyOp21
 70
     1
102
RTVSPropertyOp22
 70
     1
102
RTVSPropertyOp23
 70
     1
102
RTVSPropertyOp24
 70
     1
102
RTVSPropertyOp25
 70
     1
102
RTVSPropertyOp26
 70
     1
102
RTVSPropertyOp27
 70
     1
102
RTVSPropertyOp28
 70
     1
102
RTVSPropertyOp29
 70
     1
102
RTVSPropertyOp30
 70
     1
102
RTVSPropertyOp31
 70
     1
102
RTVSPropertyOp32
 70
     1
102
RTVSPropertyOp33
 70
     1
102
RTVSPropertyOp34
 70
     1
102
RTVSPropertyOp35
 70
     1
102
RTVSPropertyOp36
 70
     1
102
RTVSPropertyOp37
 70
     1
102
RTVSPropertyOp38
 70
     1
102
RTVSPropertyOp39
 70
     1
102
RTVSPropertyOp40
 70
     1
102
RTVSPropertyOp41
 70
     1
102
RTVSPropertyOp42
 70
     1
102
RTVSPropertyOp43
 70
     1
102
RTVSPropertyOp44
 70
     1
102
RTVSPropertyOp45
 70
     1
102
RTVSPropertyOp46
 70
     1
102
RTVSPropertyOp47
 70
     1
102
RTVSPropertyOp48
 70
     1
102
RTVSPropertyOp49
 70
     1
102
RTVSPropertyOp50
 70
     1
102
RTVSPropertyOp51
 70
     0
102
RTVSPropertyOp52
 70
     0
102
RTVSPropertyOp53
 70
     1
102
RTVSPropertyOp54
 70
     1
102
RTVSPropertyOp55
 70
     1
102
RTVSPropertyOp56
 70
     1
102
RTVSPropertyOp57
 70
     1
102
RTVSPropertyOp58
 70
     1
102
RTVSPropertyOp59
 70
     1
102
RTVSPropertyOp60
 70
     1
102
RTVSPropertyOp61
 70
     1
102
RTVSPropertyOp62
 70
     1
  0
XRECORD
  5
9C3A
102
{ACAD_REACTORS
330
9C39
102
}
330
9C39
100
AcDbXrecord
280
     1
102
RTVSPost2010Prop28
280
     0
102
RTVSPost2010PropOp28
 70
     1
102
RTVSPost2010Prop29
280
     1
102
RTVSPost2010PropOp29
 70
     1
102
RTVSPost2010Prop30
280
     1
102
RTVSPost2010PropOp30
 70
     1
102
RTVSPost2010Prop31
280
     0
102
RTVSPost2010PropOp31
 70
     1
102
RTVSPost2010Prop32
280
     0
102
RTVSPost2010PropOp32
 70
     1
102
RTVSPost2010Prop33
280
     0
102
RTVSPost2010PropOp33
 70
     1
102
RTVSPost2010Prop34
280
     0
102
RTVSPost2010PropOp34
 70
     1
102
RTVSPost2010Prop35
280
     0
102
RTVSPost2010PropOp35
 70
     1
102
RTVSPost2010Prop36
280
     0
102
RTVSPost2010PropOp36
 70
     1
102
RTVSPost2010Prop37
 90
       50
102
RTVSPost2010PropOp37
 70
     1
102
RTVSPost2010Prop38
140
0.0
102
RTVSPost2010PropOp38
 70
     1
102
RTVSPost2010Prop39
140
1.0
102
RTVSPost2010PropOp39
 70
     1
102
RTVSPost2010Prop40
 90
        0
102
RTVSPost2010PropOp40
 70
     1
102
RTVSPost2010Prop41ColorIndex
 90
       18
102
RTVSPost2010Prop41ColorRGB
 90
        0
102
RTVSPost2010PropOp41
 70
     1
102
RTVSPost2010Prop42
 90
       50
102
RTVSPost2010PropOp42
 70
     1
102
RTVSPost2010Prop43
 90
        3
102
RTVSPost2010PropOp43
 70
     1
102
RTVSPost2010Prop44ColorIndex
 90
        5
102
RTVSPost2010Prop44ColorRGB
 90
      255
102
RTVSPost2010PropOp44
 70
     1
102
RTVSPost2010Prop45
280
     0
102
RTVSPost2010PropOp45
 70
     1
102
RTVSPost2010Prop46
 90
       50
102
RTVSPost2010PropOp46
 70
     1
102
RTVSPost2010Prop47
 90
       50
102
RTVSPost2010PropOp47
 70
     1
102
RTVSPost2010Prop48
 90
       50
102
RTVSPost2010PropOp48
 70
     1
102
RTVSPost2010Prop49
280
     0
102
RTVSPost2010PropOp49
 70
     1
102
RTVSPost2010Prop50
 90
       50
102
RTVSPost2010PropOp50
 70
     1
102
RTVSPost2010Prop51ColorIndex
 90
      256
102
RTVSPost2010Prop51ColorRGB
 90
-16777216
102
RTVSPost2010PropOp51
 70
     0
102
RTVSPost2010Prop52
140
1.0
102
RTVSPost2010PropOp52
 70
     0
102
RTVSPost2010Prop53
 90
        2
102
RTVSPost2010PropOp53
 70
     1
102
RTVSPost2010Prop54
  1
strokes_ogs.tif
102
RTVSPost2010PropOp54
 70
     1
102
RTVSPost2010Prop55
280
     0
102
RTVSPost2010PropOp55
 70
     1
102
RTVSPost2010Prop56
140
1.0
102
RTVSPost2010PropOp56
 70
     1
102
RTVSPost2010Prop57
140
1.0
102
RTVSPost2010PropOp57
 70
     1
102
RTVSPropertyOp0
 70
     1
102
RTVSPropertyOp1
 70
     1
102
RTVSPropertyOp2
 70
     1
102
RTVSPropertyOp3
 70
     1
102
RTVSPropertyOp4
 70
     1
102
RTVSPropertyOp5
 70
     1
102
RTVSPropertyOp6
 70
     1
102
RTVSPropertyOp7
 70
     1
102
RTVSPropertyOp8
 70
     1
102
RTVSPropertyOp9
 70
     1
102
RTVSPropertyOp10
 70
     1
102
RTVSPropertyOp11
 70
     1
102
RTVSPropertyOp12
 70
     1
102
RTVSPropertyOp13
 70
     1
102
RTVSPropertyOp14
 70
     1
102
RTVSPropertyOp15
 70
     1
102
RTVSPropertyOp16
 70
     1
102
RTVSPropertyOp17
 70
     1
102
RTVSPropertyOp18
 70
     1
102
RTVSPropertyOp19
 70
     1
102
RTVSPropertyOp20
 70
     1
102
RTVSPropertyOp21
 70
     1
102
RTVSPropertyOp22
 70
     1
102
RTVSPropertyOp23
 70
     1
102
RTVSPropertyOp24
 70
     1
102
RTVSPropertyOp25
 70
     1
102
RTVSPropertyOp26
 70
     1
102
RTVSPropertyOp27
 70
     1
102
RTVSPropertyOp28
 70
     1
102
RTVSPropertyOp29
 70
     1
102
RTVSPropertyOp30
 70
     1
102
RTVSPropertyOp31
 70
     1
102
RTVSPropertyOp32
 70
     1
102
RTVSPropertyOp33
 70
     1
102
RTVSPropertyOp34
 70
     1
102
RTVSPropertyOp35
 70
     1
102
RTVSPropertyOp36
 70
     1
102
RTVSPropertyOp37
 70
     1
102
RTVSPropertyOp38
 70
     1
102
RTVSPropertyOp39
 70
     1
102
RTVSPropertyOp40
 70
     1
102
RTVSPropertyOp41
 70
     1
102
RTVSPropertyOp42
 70
     1
102
RTVSPropertyOp43
 70
     1
102
RTVSPropertyOp44
 70
     1
102
RTVSPropertyOp45
 70
     1
102
RTVSPropertyOp46
 70
     1
102
RTVSPropertyOp47
 70
     1
102
RTVSPropertyOp48
 70
     1
102
RTVSPropertyOp49
 70
     1
102
RTVSPropertyOp50
 70
     1
102
RTVSPropertyOp51
 70
     0
102
RTVSPropertyOp52
 70
     0
102
RTVSPropertyOp53
 70
     1
102
RTVSPropertyOp54
 70
     1
102
RTVSPropertyOp55
 70
     1
102
RTVSPropertyOp56
 70
     1
102
RTVSPropertyOp57
 70
     1
102
RTVSPropertyOp58
 70
     1
102
RTVSPropertyOp59
 70
     1
102
RTVSPropertyOp60
 70
     1
102
RTVSPropertyOp61
 70
     1
102
RTVSPropertyOp62
 70
     1
  0
XRECORD
  5
9C2E
102
{ACAD_REACTORS
330
9C2D
102
}
330
9C2D
100
AcDbXrecord
280
     1
102
RTVSPost2010Prop28
280
     0
102
RTVSPost2010PropOp28
 70
     1
102
RTVSPost2010Prop29
280
     1
102
RTVSPost2010PropOp29
 70
     1
102
RTVSPost2010Prop30
280
     1
102
RTVSPost2010PropOp30
 70
     1
102
RTVSPost2010Prop31
280
     0
102
RTVSPost2010PropOp31
 70
     1
102
RTVSPost2010Prop32
280
     0
102
RTVSPost2010PropOp32
 70
     1
102
RTVSPost2010Prop33
280
     0
102
RTVSPost2010PropOp33
 70
     1
102
RTVSPost2010Prop34
280
     0
102
RTVSPost2010PropOp34
 70
     1
102
RTVSPost2010Prop35
280
     0
102
RTVSPost2010PropOp35
 70
     1
102
RTVSPost2010Prop36
280
     0
102
RTVSPost2010PropOp36
 70
     1
102
RTVSPost2010Prop37
 90
       50
102
RTVSPost2010PropOp37
 70
     1
102
RTVSPost2010Prop38
140
0.0
102
RTVSPost2010PropOp38
 70
     1
102
RTVSPost2010Prop39
140
1.0
102
RTVSPost2010PropOp39
 70
     1
102
RTVSPost2010Prop40
 90
        0
102
RTVSPost2010PropOp40
 70
     1
102
RTVSPost2010Prop41ColorIndex
 90
       18
102
RTVSPost2010Prop41ColorRGB
 90
        0
102
RTVSPost2010PropOp41
 70
     1
102
RTVSPost2010Prop42
 90
       50
102
RTVSPost2010PropOp42
 70
     1
102
RTVSPost2010Prop43
 90
        3
102
RTVSPost2010PropOp43
 70
     1
102
RTVSPost2010Prop44ColorIndex
 90
        5
102
RTVSPost2010Prop44ColorRGB
 90
      255
102
RTVSPost2010PropOp44
 70
     1
102
RTVSPost2010Prop45
280
     0
102
RTVSPost2010PropOp45
 70
     1
102
RTVSPost2010Prop46
 90
       50
102
RTVSPost2010PropOp46
 70
     1
102
RTVSPost2010Prop47
 90
       50
102
RTVSPost2010PropOp47
 70
     1
102
RTVSPost2010Prop48
 90
       50
102
RTVSPost2010PropOp48
 70
     1
102
RTVSPost2010Prop49
280
     0
102
RTVSPost2010PropOp49
 70
     1
102
RTVSPost2010Prop50
 90
       50
102
RTVSPost2010PropOp50
 70
     1
102
RTVSPost2010Prop51ColorIndex
 90
      256
102
RTVSPost2010Prop51ColorRGB
 90
-16777216
102
RTVSPost2010PropOp51
 70
     0
102
RTVSPost2010Prop52
140
1.0
102
RTVSPost2010PropOp52
 70
     0
102
RTVSPost2010Prop53
 90
        2
102
RTVSPost2010PropOp53
 70
     1
102
RTVSPost2010Prop54
  1
strokes_ogs.tif
102
RTVSPost2010PropOp54
 70
     1
102
RTVSPost2010Prop55
280
     0
102
RTVSPost2010PropOp55
 70
     1
102
RTVSPost2010Prop56
140
1.0
102
RTVSPost2010PropOp56
 70
     1
102
RTVSPost2010Prop57
140
1.0
102
RTVSPost2010PropOp57
 70
     1
102
RTVSPropertyOp0
 70
     1
102
RTVSPropertyOp1
 70
     1
102
RTVSPropertyOp2
 70
     1
102
RTVSPropertyOp3
 70
     1
102
RTVSPropertyOp4
 70
     1
102
RTVSPropertyOp5
 70
     1
102
RTVSPropertyOp6
 70
     1
102
RTVSPropertyOp7
 70
     1
102
RTVSPropertyOp8
 70
     1
102
RTVSPropertyOp9
 70
     1
102
RTVSPropertyOp10
 70
     1
102
RTVSPropertyOp11
 70
     1
102
RTVSPropertyOp12
 70
     1
102
RTVSPropertyOp13
 70
     1
102
RTVSPropertyOp14
 70
     1
102
RTVSPropertyOp15
 70
     1
102
RTVSPropertyOp16
 70
     1
102
RTVSPropertyOp17
 70
     1
102
RTVSPropertyOp18
 70
     1
102
RTVSPropertyOp19
 70
     1
102
RTVSPropertyOp20
 70
     1
102
RTVSPropertyOp21
 70
     1
102
RTVSPropertyOp22
 70
     1
102
RTVSPropertyOp23
 70
     1
102
RTVSPropertyOp24
 70
     1
102
RTVSPropertyOp25
 70
     1
102
RTVSPropertyOp26
 70
     1
102
RTVSPropertyOp27
 70
     1
102
RTVSPropertyOp28
 70
     1
102
RTVSPropertyOp29
 70
     1
102
RTVSPropertyOp30
 70
     1
102
RTVSPropertyOp31
 70
     1
102
RTVSPropertyOp32
 70
     1
102
RTVSPropertyOp33
 70
     1
102
RTVSPropertyOp34
 70
     1
102
RTVSPropertyOp35
 70
     1
102
RTVSPropertyOp36
 70
     1
102
RTVSPropertyOp37
 70
     1
102
RTVSPropertyOp38
 70
     1
102
RTVSPropertyOp39
 70
     1
102
RTVSPropertyOp40
 70
     1
102
RTVSPropertyOp41
 70
     1
102
RTVSPropertyOp42
 70
     1
102
RTVSPropertyOp43
 70
     1
102
RTVSPropertyOp44
 70
     1
102
RTVSPropertyOp45
 70
     1
102
RTVSPropertyOp46
 70
     1
102
RTVSPropertyOp47
 70
     1
102
RTVSPropertyOp48
 70
     1
102
RTVSPropertyOp49
 70
     1
102
RTVSPropertyOp50
 70
     1
102
RTVSPropertyOp51
 70
     0
102
RTVSPropertyOp52
 70
     0
102
RTVSPropertyOp53
 70
     1
102
RTVSPropertyOp54
 70
     1
102
RTVSPropertyOp55
 70
     1
102
RTVSPropertyOp56
 70
     1
102
RTVSPropertyOp57
 70
     1
102
RTVSPropertyOp58
 70
     1
102
RTVSPropertyOp59
 70
     1
102
RTVSPropertyOp60
 70
     1
102
RTVSPropertyOp61
 70
     1
102
RTVSPropertyOp62
 70
     1
  0
XRECORD
  5
9C46
102
{ACAD_REACTORS
330
9C45
102
}
330
9C45
100
AcDbXrecord
280
     1
102
RTVSPost2010Prop28
280
     0
102
RTVSPost2010PropOp28
 70
     1
102
RTVSPost2010Prop29
280
     1
102
RTVSPost2010PropOp29
 70
     1
102
RTVSPost2010Prop30
280
     1
102
RTVSPost2010PropOp30
 70
     1
102
RTVSPost2010Prop31
280
     0
102
RTVSPost2010PropOp31
 70
     1
102
RTVSPost2010Prop32
280
     0
102
RTVSPost2010PropOp32
 70
     1
102
RTVSPost2010Prop33
280
     0
102
RTVSPost2010PropOp33
 70
     1
102
RTVSPost2010Prop34
280
     0
102
RTVSPost2010PropOp34
 70
     1
102
RTVSPost2010Prop35
280
     0
102
RTVSPost2010PropOp35
 70
     1
102
RTVSPost2010Prop36
280
     0
102
RTVSPost2010PropOp36
 70
     1
102
RTVSPost2010Prop37
 90
       50
102
RTVSPost2010PropOp37
 70
     1
102
RTVSPost2010Prop38
140
0.0
102
RTVSPost2010PropOp38
 70
     1
102
RTVSPost2010Prop39
140
1.0
102
RTVSPost2010PropOp39
 70
     1
102
RTVSPost2010Prop40
 90
        0
102
RTVSPost2010PropOp40
 70
     1
102
RTVSPost2010Prop41ColorIndex
 90
       18
102
RTVSPost2010Prop41ColorRGB
 90
        0
102
RTVSPost2010PropOp41
 70
     1
102
RTVSPost2010Prop42
 90
       50
102
RTVSPost2010PropOp42
 70
     1
102
RTVSPost2010Prop43
 90
        3
102
RTVSPost2010PropOp43
 70
     1
102
RTVSPost2010Prop44ColorIndex
 90
        5
102
RTVSPost2010Prop44ColorRGB
 90
      255
102
RTVSPost2010PropOp44
 70
     1
102
RTVSPost2010Prop45
280
     0
102
RTVSPost2010PropOp45
 70
     1
102
RTVSPost2010Prop46
 90
       50
102
RTVSPost2010PropOp46
 70
     1
102
RTVSPost2010Prop47
 90
       50
102
RTVSPost2010PropOp47
 70
     1
102
RTVSPost2010Prop48
 90
       50
102
RTVSPost2010PropOp48
 70
     1
102
RTVSPost2010Prop49
280
     0
102
RTVSPost2010PropOp49
 70
     1
102
RTVSPost2010Prop50
 90
       50
102
RTVSPost2010PropOp50
 70
     1
102
RTVSPost2010Prop51ColorIndex
 90
      256
102
RTVSPost2010Prop51ColorRGB
 90
-16777216
102
RTVSPost2010PropOp51
 70
     0
102
RTVSPost2010Prop52
140
1.0
102
RTVSPost2010PropOp52
 70
     0
102
RTVSPost2010Prop53
 90
        2
102
RTVSPost2010PropOp53
 70
     1
102
RTVSPost2010Prop54
  1
strokes_ogs.tif
102
RTVSPost2010PropOp54
 70
     1
102
RTVSPost2010Prop55
280
     0
102
RTVSPost2010PropOp55
 70
     1
102
RTVSPost2010Prop56
140
1.0
102
RTVSPost2010PropOp56
 70
     1
102
RTVSPost2010Prop57
140
1.0
102
RTVSPost2010PropOp57
 70
     1
102
RTVSPropertyOp0
 70
     1
102
RTVSPropertyOp1
 70
     1
102
RTVSPropertyOp2
 70
     1
102
RTVSPropertyOp3
 70
     1
102
RTVSPropertyOp4
 70
     1
102
RTVSPropertyOp5
 70
     1
102
RTVSPropertyOp6
 70
     1
102
RTVSPropertyOp7
 70
     1
102
RTVSPropertyOp8
 70
     1
102
RTVSPropertyOp9
 70
     1
102
RTVSPropertyOp10
 70
     1
102
RTVSPropertyOp11
 70
     1
102
RTVSPropertyOp12
 70
     1
102
RTVSPropertyOp13
 70
     1
102
RTVSPropertyOp14
 70
     1
102
RTVSPropertyOp15
 70
     1
102
RTVSPropertyOp16
 70
     1
102
RTVSPropertyOp17
 70
     1
102
RTVSPropertyOp18
 70
     1
102
RTVSPropertyOp19
 70
     1
102
RTVSPropertyOp20
 70
     1
102
RTVSPropertyOp21
 70
     1
102
RTVSPropertyOp22
 70
     1
102
RTVSPropertyOp23
 70
     1
102
RTVSPropertyOp24
 70
     1
102
RTVSPropertyOp25
 70
     1
102
RTVSPropertyOp26
 70
     1
102
RTVSPropertyOp27
 70
     1
102
RTVSPropertyOp28
 70
     1
102
RTVSPropertyOp29
 70
     1
102
RTVSPropertyOp30
 70
     1
102
RTVSPropertyOp31
 70
     1
102
RTVSPropertyOp32
 70
     1
102
RTVSPropertyOp33
 70
     1
102
RTVSPropertyOp34
 70
     1
102
RTVSPropertyOp35
 70
     1
102
RTVSPropertyOp36
 70
     1
102
RTVSPropertyOp37
 70
     1
102
RTVSPropertyOp38
 70
     1
102
RTVSPropertyOp39
 70
     1
102
RTVSPropertyOp40
 70
     1
102
RTVSPropertyOp41
 70
     1
102
RTVSPropertyOp42
 70
     1
102
RTVSPropertyOp43
 70
     1
102
RTVSPropertyOp44
 70
     1
102
RTVSPropertyOp45
 70
     1
102
RTVSPropertyOp46
 70
     1
102
RTVSPropertyOp47
 70
     1
102
RTVSPropertyOp48
 70
     1
102
RTVSPropertyOp49
 70
     1
102
RTVSPropertyOp50
 70
     1
102
RTVSPropertyOp51
 70
     0
102
RTVSPropertyOp52
 70
     0
102
RTVSPropertyOp53
 70
     1
102
RTVSPropertyOp54
 70
     1
102
RTVSPropertyOp55
 70
     1
102
RTVSPropertyOp56
 70
     1
102
RTVSPropertyOp57
 70
     1
102
RTVSPropertyOp58
 70
     1
102
RTVSPropertyOp59
 70
     1
102
RTVSPropertyOp60
 70
     1
102
RTVSPropertyOp61
 70
     1
102
RTVSPropertyOp62
 70
     1
  0
ENDSEC
  0
EOF
