  0
SECTION
  2
HEADER
  9
$ACADVER
  1
AC1015
  9
$ACADMAINTVER
 70
    20
  9
$DWGCODEPAGE
  3
ANSI_932
  9
$INSBASE
 10
0.0
 20
0.0
 30
0.0
  9
$EXTMIN
 10
10.0
 20
9.999999999999998
 30
0.0
  9
$EXTMAX
 10
485.432151
 20
317.677949
 30
0.0
  9
$LIMMIN
 10
0.0
 20
0.0
  9
$LIMMAX
 10
495.0
 20
341.25
  9
$ORTHOMODE
 70
     1
  9
$REGENMODE
 70
     1
  9
$FILLMODE
 70
     1
  9
$QTEXTMODE
 70
     0
  9
$MIRRTEXT
 70
     1
  9
$LTSCALE
 40
20.0
  9
$ATTMODE
 70
     1
  9
$TEXTSIZE
 40
5.0
  9
$TRACEWID
 40
1.0
  9
$TEXTSTYLE
  7
STANDARD
  9
$CLAYER
  8
0
  9
$CELTYPE
  6
BYLAYER
  9
$CECOLOR
 62
   256
  9
$CELTSCALE
 40
1.0
  9
$DISPSILH
 70
     0
  9
$DIMSCALE
 40
1.0
  9
$DIMASZ
 40
3.0
  9
$DIMEXO
 40
1.0
  9
$DIMDLI
 40
10.0
  9
$DIMRND
 40
0.0
  9
$DIMDLE
 40
0.0
  9
$DIMEXE
 40
1.0
  9
$DIMTP
 40
0.0
  9
$DIMTM
 40
0.0
  9
$DIMTXT
 40
3.2
  9
$DIMCEN
 40
0.0
  9
$DIMTSZ
 40
0.0
  9
$DIMTOL
 70
     0
  9
$DIMLIM
 70
     0
  9
$DIMTIH
 70
     0
  9
$DIMTOH
 70
     0
  9
$DIMSE1
 70
     0
  9
$DIMSE2
 70
     0
  9
$DIMTAD
 70
     3
  9
$DIMZIN
 70
     8
  9
$DIMBLK
  1

  9
$DIMASO
 70
     1
  9
$DIMSHO
 70
     1
  9
$DIMPOST
  1

  9
$DIMAPOST
  1

  9
$DIMALT
 70
     0
  9
$DIMALTD
 70
     2
  9
$DIMALTF
 40
25.4
  9
$DIMLFAC
 40
1.0
  9
$DIMTOFL
 70
     1
  9
$DIMTVP
 40
0.0
  9
$DIMTIX
 70
     0
  9
$DIMSOXD
 70
     0
  9
$DIMSAH
 70
     1
  9
$DIMBLK1
  1
OPEN
  9
$DIMBLK2
  1
OPEN
  9
$DIMSTYLE
  2
STANDARD
  9
$DIMCLRD
 70
     0
  9
$DIMCLRE
 70
     0
  9
$DIMCLRT
 70
     0
  9
$DIMTFAC
 40
1.0
  9
$DIMGAP
 40
1.0
  9
$DIMJUST
 70
     0
  9
$DIMSD1
 70
     0
  9
$DIMSD2
 70
     0
  9
$DIMTOLJ
 70
     1
  9
$DIMTZIN
 70
     0
  9
$DIMALTZ
 70
     0
  9
$DIMALTTZ
 70
     0
  9
$DIMUPT
 70
     0
  9
$DIMDEC
 70
     4
  9
$DIMTDEC
 70
     4
  9
$DIMALTU
 70
     2
  9
$DIMALTTD
 70
     2
  9
$DIMTXSTY
  7
STANDARD
  9
$DIMAUNIT
 70
     0
  9
$DIMADEC
 70
     0
  9
$DIMALTRND
 40
0.0
  9
$DIMAZIN
 70
     0
  9
$DIMDSEP
 70
    46
  9
$DIMATFIT
 70
     3
  9
$DIMFRAC
 70
     0
  9
$DIMLDRBLK
  1
OPEN
  9
$DIMLUNIT
 70
     2
  9
$DIMLWD
 70
    -2
  9
$DIMLWE
 70
    -2
  9
$DIMTMOVE
 70
     0
  9
$LUNITS
 70
     2
  9
$LUPREC
 70
     4
  9
$SKETCHINC
 40
1.0
  9
$FILLETRAD
 40
3.0
  9
$AUNITS
 70
     0
  9
$AUPREC
 70
     2
  9
$MENU
  1
.
  9
$ELEVATION
 40
0.0
  9
$PELEVATION
 40
0.0
  9
$THICKNESS
 40
0.0
  9
$LIMCHECK
 70
     0
  9
$CHAMFERA
 40
10.0
  9
$CHAMFERB
 40
10.0
  9
$CHAMFERC
 40
0.0
  9
$CHAMFERD
 40
0.0
  9
$SKPOLY
 70
     0
  9
$TDCREATE
 40
2451303.374820024
  9
$TDUCREATE
 40
2451302.999820024
  9
$TDUPDATE
 40
2457192.686588090
  9
$TDUUPDATE
 40
2457192.311588090
  9
$TDINDWG
 40
0.0000116319
  9
$TDUSRTIMER
 40
0.0000111343
  9
$USRTIMER
 70
     1
  9
$ANGBASE
 50
0.0
  9
$ANGDIR
 70
     0
  9
$PDMODE
 70
     0
  9
$PDSIZE
 40
0.0
  9
$PLINEWID
 40
0.0
  9
$SPLFRAME
 70
     0
  9
$SPLINETYPE
 70
     6
  9
$SPLINESEGS
 70
     8
  9
$HANDSEED
  5
A890
  9
$SURFTAB1
 70
     6
  9
$SURFTAB2
 70
     6
  9
$SURFTYPE
 70
     6
  9
$SURFU
 70
     6
  9
$SURFV
 70
     6
  9
$UCSBASE
  2

  9
$UCSNAME
  2

  9
$UCSORG
 10
0.0
 20
0.0
 30
0.0
  9
$UCSXDIR
 10
1.0
 20
0.0
 30
0.0
  9
$UCSYDIR
 10
0.0
 20
1.0
 30
0.0
  9
$UCSORTHOREF
  2

  9
$UCSORTHOVIEW
 70
     0
  9
$UCSORGTOP
 10
0.0
 20
0.0
 30
0.0
  9
$UCSORGBOTTOM
 10
0.0
 20
0.0
 30
0.0
  9
$UCSORGLEFT
 10
0.0
 20
0.0
 30
0.0
  9
$UCSORGRIGHT
 10
0.0
 20
0.0
 30
0.0
  9
$UCSORGFRONT
 10
0.0
 20
0.0
 30
0.0
  9
$UCSORGBACK
 10
0.0
 20
0.0
 30
0.0
  9
$PUCSBASE
  2

  9
$PUCSNAME
  2

  9
$PUCSORG
 10
0.0
 20
0.0
 30
0.0
  9
$PUCSXDIR
 10
1.0
 20
0.0
 30
0.0
  9
$PUCSYDIR
 10
0.0
 20
1.0
 30
0.0
  9
$PUCSORTHOREF
  2

  9
$PUCSORTHOVIEW
 70
     0
  9
$PUCSORGTOP
 10
0.0
 20
0.0
 30
0.0
  9
$PUCSORGBOTTOM
 10
0.0
 20
0.0
 30
0.0
  9
$PUCSORGLEFT
 10
0.0
 20
0.0
 30
0.0
  9
$PUCSORGRIGHT
 10
0.0
 20
0.0
 30
0.0
  9
$PUCSORGFRONT
 10
0.0
 20
0.0
 30
0.0
  9
$PUCSORGBACK
 10
0.0
 20
0.0
 30
0.0
  9
$USERI1
 70
     0
  9
$USERI2
 70
     0
  9
$USERI3
 70
     0
  9
$USERI4
 70
     0
  9
$USERI5
 70
     0
  9
$USERR1
 40
0.0
  9
$USERR2
 40
0.0
  9
$USERR3
 40
0.0
  9
$USERR4
 40
0.0
  9
$USERR5
 40
0.0
  9
$WORLDVIEW
 70
     1
  9
$SHADEDGE
 70
     3
  9
$SHADEDIF
 70
    70
  9
$TILEMODE
 70
     1
  9
$MAXACTVP
 70
    16
  9
$PINSBASE
 10
0.0
 20
0.0
 30
0.0
  9
$PLIMCHECK
 70
     0
  9
$PEXTMIN
 10
1.000000000000000E+20
 20
1.000000000000000E+20
 30
1.000000000000000E+20
  9
$PEXTMAX
 10
-1.000000000000000E+20
 20
-1.000000000000000E+20
 30
-1.000000000000000E+20
  9
$PLIMMIN
 10
0.0
 20
0.0
  9
$PLIMMAX
 10
420.0
 20
297.0
  9
$UNITMODE
 70
     0
  9
$VISRETAIN
 70
     0
  9
$PLINEGEN
 70
     0
  9
$PSLTSCALE
 70
     0
  9
$TREEDEPTH
 70
  3020
  9
$CMLSTYLE
  2
STANDARD
  9
$CMLJUST
 70
     0
  9
$CMLSCALE
 40
1.0
  9
$PROXYGRAPHICS
 70
     1
  9
$MEASUREMENT
 70
     0
  9
$CELWEIGHT
370
    -1
  9
$ENDCAPS
280
     0
  9
$JOINSTYLE
280
     0
  9
$LWDISPLAY
290
     0
  9
$INSUNITS
 70
     0
  9
$HYPERLINKBASE
  1

  9
$STYLESHEET
  1

  9
$XEDIT
290
     1
  9
$CEPSNTYPE
380
     0
  9
$PSTYLEMODE
290
     1
  9
$FINGERPRINTGUID
  2
{89ED8FC1-5387-4B89-89AF-50BB4FBB19E8}
  9
$VERSIONGUID
  2
{D76D97BE-EA80-4148-BE72-19E10009F192}
  9
$EXTNAMES
290
     1
  9
$PSVPSCALE
 40
0.0
  9
$OLESTARTUP
290
     0
  0
ENDSEC
  0
SECTION
  2
CLASSES
  0
CLASS
  1
ACDBDICTIONARYWDFLT
  2
AcDbDictionaryWithDefault
  3
ObjectDBX Classes
 90
        0
280
     0
281
     0
  0
CLASS
  1
ACDBPLACEHOLDER
  2
AcDbPlaceHolder
  3
ObjectDBX Classes
 90
        0
280
     0
281
     0
  0
CLASS
  1
LAYOUT
  2
AcDbLayout
  3
ObjectDBX Classes
 90
        0
280
     0
281
     0
  0
CLASS
  1
DICTIONARYVAR
  2
AcDbDictionaryVar
  3
ObjectDBX Classes
 90
        0
280
     0
281
     0
  0
CLASS
  1
MATERIAL
  2
AcDbMaterial
  3
ObjectDBX Classes
 90
     1153
280
     0
281
     0
  0
CLASS
  1
VISUALSTYLE
  2
AcDbVisualStyle
  3
ObjectDBX Classes
 90
     4095
280
     0
281
     0
  0
CLASS
  1
TABLESTYLE
  2
AcDbTableStyle
  3
ObjectDBX Classes
 90
     4095
280
     0
281
     0
  0
CLASS
  1
SCALE
  2
AcDbScale
  3
ObjectDBX Classes
 90
     1153
280
     0
281
     0
  0
CLASS
  1
MLEADERSTYLE
  2
AcDbMLeaderStyle
  3
ACDB_MLEADERSTYLE_CLASS
 90
     4095
280
     0
281
     0
  0
CLASS
  1
ACDBSECTIONVIEWSTYLE
  2
AcDbSectionViewStyle
  3
ObjectDBX Classes
 90
     1025
280
     0
281
     0
  0
CLASS
  1
ACDBDETAILVIEWSTYLE
  2
AcDbDetailViewStyle
  3
ObjectDBX Classes
 90
     1025
280
     0
281
     0
  0
CLASS
  1
CELLSTYLEMAP
  2
AcDbCellStyleMap
  3
ObjectDBX Classes
 90
     1152
280
     0
281
     0
  0
ENDSEC
  0
SECTION
  2
TABLES
  0
TABLE
  2
VPORT
  5
A471
330
0
100
AcDbSymbolTable
 70
     1
  0
VPORT
  5
A7D9
330
A471
100
AcDbSymbolTableRecord
100
AcDbViewportTableRecord
  2
*ACTIVE
 70
     0
 10
0.0
 20
0.0
 11
1.0
 21
1.0
 12
340.9267991131726
 22
163.8428028343685
 13
0.0
 23
0.0
 14
10.0
 24
10.0
 15
10.0
 25
10.0
 16
0.0
 26
0.0
 36
1.0
 17
0.0
 27
0.0
 37
0.0
 40
311.111440144891
 41
2.35006605019815
 42
50.0
 43
0.0
 44
0.0
 50
0.0
 51
0.0
 71
     0
 72
   100
 73
     1
 74
     0
 75
     0
 76
     0
 77
     0
 78
     0
281
     0
 65
     1
110
0.0
120
0.0
130
0.0
111
1.0
121
0.0
131
0.0
112
0.0
122
1.0
132
0.0
 79
     0
146
0.0
1001
ACAD_NAV_VCDISPLAY
1070
     3
  0
ENDTAB
  0
TABLE
  2
LTYPE
  5
A46E
330
0
100
AcDbSymbolTable
 70
     4
  0
LTYPE
  5
A47C
330
A46E
100
AcDbSymbolTableRecord
100
AcDbLinetypeTableRecord
  2
BYBLOCK
 70
     0
  3

 72
    65
 73
     0
 40
0.0
  0
LTYPE
  5
A47D
330
A46E
100
AcDbSymbolTableRecord
100
AcDbLinetypeTableRecord
  2
BYLAYER
 70
     0
  3

 72
    65
 73
     0
 40
0.0
  0
LTYPE
  5
A47E
330
A46E
100
AcDbSymbolTableRecord
100
AcDbLinetypeTableRecord
  2
CONTINUOUS
 70
     0
  3
Solid line
 72
    65
 73
     0
 40
0.0
  0
LTYPE
  5
A48C
330
A46E
100
AcDbSymbolTableRecord
100
AcDbLinetypeTableRecord
  2
DASHED
 70
     0
  3
__ __ __ __ __ __ __ __ __ __ __ __ __ __ __ __
 72
    65
 73
     2
 40
0.75
 49
0.5
 74
     0
 49
-0.25
 74
     0
  0
LTYPE
  5
A48D
330
A46E
100
AcDbSymbolTableRecord
100
AcDbLinetypeTableRecord
  2
CENTER
 70
     0
  3
____ _ ____ _ ____ _ ____ _ ____ _ ____ _ ____ 
 72
    65
 73
     4
 40
2.0
 49
1.25
 74
     0
 49
-0.25
 74
     0
 49
0.25
 74
     0
 49
-0.25
 74
     0
  0
LTYPE
  5
A48E
330
A46E
100
AcDbSymbolTableRecord
100
AcDbLinetypeTableRecord
  2
PHANTOM
 70
     0
  3
______  __  __  ______  __  __  ______  __  __ 
 72
    65
 73
     6
 40
2.5
 49
1.25
 74
     0
 49
-0.25
 74
     0
 49
0.25
 74
     0
 49
-0.25
 74
     0
 49
0.25
 74
     0
 49
-0.25
 74
     0
  0
ENDTAB
  0
TABLE
  2
LAYER
  5
A46B
330
0
100
AcDbSymbolTable
 70
     8
  0
LAYER
  5
A479
102
{ACAD_XDICTIONARY
360
A834
102
}
330
A46B
100
AcDbSymbolTableRecord
100
AcDbLayerTableRecord
  2
0
 70
     0
 62
     7
  6
CONTINUOUS
370
    -3
390
A7E2
  0
LAYER
  5
A48F
102
{ACAD_XDICTIONARY
360
A836
102
}
330
A46B
100
AcDbSymbolTableRecord
100
AcDbLayerTableRecord
  2
4
 70
     0
 62
     1
  6
CENTER
370
    -3
390
A7E2
  0
LAYER
  5
A490
102
{ACAD_XDICTIONARY
360
A838
102
}
330
A46B
100
AcDbSymbolTableRecord
100
AcDbLayerTableRecord
  2
5
 70
     0
 62
     6
  6
PHANTOM
370
    -3
390
A7E2
  0
LAYER
  5
A491
102
{ACAD_XDICTIONARY
360
A83A
102
}
330
A46B
100
AcDbSymbolTableRecord
100
AcDbLayerTableRecord
  2
1
 70
     0
 62
     7
  6
CONTINUOUS
370
    -3
390
A7E2
  0
LAYER
  5
A492
102
{ACAD_XDICTIONARY
360
A83C
102
}
330
A46B
100
AcDbSymbolTableRecord
100
AcDbLayerTableRecord
  2
2
 70
     0
 62
     4
  6
CONTINUOUS
370
    -3
390
A7E2
  0
LAYER
  5
A493
102
{ACAD_XDICTIONARY
360
A83E
102
}
330
A46B
100
AcDbSymbolTableRecord
100
AcDbLayerTableRecord
  2
3
 70
     0
 62
     2
  6
DASHED
370
    -3
390
A7E2
  0
LAYER
  5
A494
102
{ACAD_XDICTIONARY
360
A840
102
}
330
A46B
100
AcDbSymbolTableRecord
100
AcDbLayerTableRecord
  2
6
 70
     0
 62
     5
  6
CONTINUOUS
370
    -3
390
A7E2
  0
LAYER
  5
A495
102
{ACAD_XDICTIONARY
360
A842
102
}
330
A46B
100
AcDbSymbolTableRecord
100
AcDbLayerTableRecord
  2
7
 70
     0
 62
     3
  6
CONTINUOUS
370
    -3
390
A7E2
  0
ENDTAB
  0
TABLE
  2
STYLE
  5
A46C
330
0
100
AcDbSymbolTable
 70
     1
  0
STYLE
  5
A47A
330
A46C
100
AcDbSymbolTableRecord
100
AcDbTextStyleTableRecord
  2
STANDARD
 70
     0
 40
0.0
 41
1.0
 50
0.0
 71
     0
 42
5.0
  3
txt
  4

  0
ENDTAB
  0
TABLE
  2
VIEW
  5
A46F
330
0
100
AcDbSymbolTable
 70
     0
  0
ENDTAB
  0
TABLE
  2
UCS
  5
A470
330
0
100
AcDbSymbolTable
 70
     0
  0
ENDTAB
  0
TABLE
  2
APPID
  5
A472
330
0
100
AcDbSymbolTable
 70
     3
  0
APPID
  5
A47B
330
A472
100
AcDbSymbolTableRecord
100
AcDbRegAppTableRecord
  2
ACAD
 70
     0
  0
APPID
  5
A84E
330
A472
100
AcDbSymbolTableRecord
100
AcDbRegAppTableRecord
  2
ACAD_NAV_VCDISPLAY
 70
     0
  0
APPID
  5
A887
330
A472
100
AcDbSymbolTableRecord
100
AcDbRegAppTableRecord
  2
ACAD_MLEADERVER
 70
     0
  0
ENDTAB
  0
TABLE
  2
DIMSTYLE
  5
A473
330
0
100
AcDbSymbolTable
 70
     1
100
AcDbDimStyleTable
 71
     0
  0
DIMSTYLE
105
A497
330
A473
100
AcDbSymbolTableRecord
100
AcDbDimStyleTableRecord
  2
STANDARD
 70
     0
 41
3.0
 42
1.0
 43
10.0
 44
1.0
 73
     0
 74
     0
 77
     3
 78
     8
140
3.2
141
0.0
147
1.0
172
     1
173
     1
284
     8
285
     8
286
     8
340
A47A
  0
ENDTAB
  0
TABLE
  2
BLOCK_RECORD
  5
A46A
330
0
100
AcDbSymbolTable
 70
     1
  0
BLOCK_RECORD
  5
A487
102
{ACAD_XDICTIONARY
360
A7DC
102
}
330
A46A
100
AcDbSymbolTableRecord
100
AcDbBlockTableRecord
  2
*MODEL_SPACE
340
A830
  0
BLOCK_RECORD
  5
A483
102
{ACAD_XDICTIONARY
360
A7DA
102
}
330
A46A
100
AcDbSymbolTableRecord
100
AcDbBlockTableRecord
  2
*PAPER_SPACE
340
A831
  0
BLOCK_RECORD
  5
A49F
330
A46A
100
AcDbSymbolTableRecord
100
AcDbBlockTableRecord
  2
_OPEN
340
0
  0
ENDTAB
  0
ENDSEC
  0
SECTION
  2
BLOCKS
  0
BLOCK
  5
A488
330
A487
100
AcDbEntity
  8
0
100
AcDbBlockBegin
  2
*MODEL_SPACE
 70
     0
 10
0.0
 20
0.0
 30
0.0
  3
*MODEL_SPACE
  1

  0
ENDBLK
  5
A489
330
A487
100
AcDbEntity
  8
0
100
AcDbBlockEnd
  0
BLOCK
  5
A484
330
A483
100
AcDbEntity
 67
     1
  8
0
100
AcDbBlockBegin
  2
*PAPER_SPACE
 70
     0
 10
0.0
 20
0.0
 30
0.0
  3
*PAPER_SPACE
  1

  0
ENDBLK
  5
A485
330
A483
100
AcDbEntity
 67
     1
  8
0
100
AcDbBlockEnd
  0
BLOCK
  5
A4A0
330
A49F
100
AcDbEntity
  8
0
100
AcDbBlockBegin
  2
_OPEN
 70
     0
 10
0.0
 20
0.0
 30
0.0
  3
_OPEN
  1

  0
LINE
  5
A4A1
330
A49F
100
AcDbEntity
  8
0
  6
ByBlock
 62
     0
100
AcDbLine
 10
-1.0
 20
0.166667
 30
0.0
 11
0.0
 21
0.0
 31
0.0
  0
LINE
  5
A4A2
330
A49F
100
AcDbEntity
  8
0
  6
ByBlock
 62
     0
100
AcDbLine
 10
0.0
 20
0.0
 30
0.0
 11
-1.0
 21
-0.166667
 31
0.0
  0
LINE
  5
A4A3
330
A49F
100
AcDbEntity
  8
0
  6
ByBlock
 62
     0
100
AcDbLine
 10
0.0
 20
0.0
 30
0.0
 11
-1.0
 21
0.0
 31
0.0
  0
ENDBLK
  5
A4A4
330
A49F
100
AcDbEntity
  8
0
100
AcDbBlockEnd
  0
ENDSEC
  0
SECTION
  2
ENTITIES
  0
TEXT
  5
A4A5
330
A487
100
AcDbEntity
  8
7
  6
Continuous
100
AcDbText
 10
10.0
 20
18.0
 30
0.0
 40
3.0
  1
TYPE No.104FH-PS
100
AcDbText
  0
TEXT
  5
A4A6
330
A487
100
AcDbEntity
  8
7
  6
Continuous
100
AcDbText
 10
10.0
 20
26.0
 30
0.0
 40
3.0
  1
CODE No.9088
100
AcDbText
  0
TEXT
  5
A4A7
330
A487
100
AcDbEntity
  8
1
  6
Continuous
100
AcDbText
 10
10.0
 20
10.0
 30
0.0
 40
1.399999999999999
  1
LAYER
100
AcDbText
  0
TEXT
  5
A4A8
330
A487
100
AcDbEntity
  8
1
  6
Continuous
100
AcDbText
 10
17.97951099999998
 20
10.04873699999998
 30
0.0
 40
1.399999999999999
  1
1
100
AcDbText
  0
TEXT
  5
A4A9
330
A487
100
AcDbEntity
  8
7
  6
Continuous
100
AcDbText
 10
29.97951099999999
 20
10.04873699999998
 30
0.0
 40
1.399999999999999
  1
7
100
AcDbText
  0
TEXT
  5
A4AA
330
A487
100
AcDbEntity
  8
4
  6
CENTER
100
AcDbText
 10
23.97951099999999
 20
10.04873699999998
 30
0.0
 40
1.399999999999999
  1
4
100
AcDbText
  0
TEXT
  5
A4AB
330
A487
100
AcDbEntity
  8
3
  6
DASHED
100
AcDbText
 10
21.979511
 20
10.04873699999998
 30
0.0
 40
1.399999999999999
  1
3
100
AcDbText
  0
TEXT
  5
A4AC
330
A487
100
AcDbEntity
  8
2
  6
Continuous
100
AcDbText
 10
19.97951099999999
 20
10.04873699999998
 30
0.0
 40
1.399999999999999
  1
2
100
AcDbText
  0
TEXT
  5
A4AD
330
A487
100
AcDbEntity
  8
6
  6
Continuous
100
AcDbText
 10
27.979511
 20
10.04873699999998
 30
0.0
 40
1.399999999999999
  1
6
100
AcDbText
  0
TEXT
  5
A4AE
330
A487
100
AcDbEntity
  8
5
  6
PHANTOM
100
AcDbText
 10
25.97951099999999
 20
10.04873699999998
 30
0.0
 40
1.399999999999999
  1
5
100
AcDbText
  0
LINE
  5
A4AF
330
A487
100
AcDbEntity
  8
1
  6
Continuous
100
AcDbLine
 10
210.145193
 20
204.5231789999998
 30
0.0
 11
208.7807559999999
 21
202.733742
 31
0.0
  0
LINE
  5
A4B0
330
A487
100
AcDbEntity
  8
1
  6
Continuous
100
AcDbLine
 10
208.9020759999999
 20
205.1587419999999
 30
0.0
 11
210.145193
 21
203.490625
 31
0.0
  0
ARC
  5
A4B1
330
A487
100
AcDbEntity
  8
1
  6
Continuous
100
AcDbCircle
 10
157.809751
 20
212.397118
 30
0.0
 40
55.3
100
AcDbArc
 50
308.366534
 51
337.805115
  0
ARC
  5
A4B2
330
A487
100
AcDbEntity
  8
1
  6
Continuous
100
AcDbCircle
 10
232.398812
 20
182.6714169999999
 30
0.0
 40
25.0
100
AcDbArc
 50
145.5059249999998
 51
159.302928
  0
LINE
  5
A4B3
330
A487
100
AcDbEntity
  8
1
  6
Continuous
100
AcDbLine
 10
210.145193
 20
202.733742
 30
0.0
 11
173.4751929999999
 21
202.733742
 31
0.0
  0
LINE
  5
A4B4
330
A487
100
AcDbEntity
  8
1
  6
Continuous
100
AcDbLine
 10
210.145193
 20
205.1587419999999
 30
0.0
 11
173.4751929999999
 21
205.1587419999999
 31
0.0
  0
LINE
  5
A4B5
330
A487
100
AcDbEntity
  8
1
  6
Continuous
100
AcDbLine
 10
210.145193
 20
207.1587419999999
 30
0.0
 11
173.8554469999999
 21
207.1587419999999
 31
0.0
  0
LINE
  5
A4B6
330
A487
100
AcDbEntity
  8
1
  6
Continuous
100
AcDbLine
 10
218.310193
 20
208.738742
 30
0.0
 11
165.310193
 21
208.738742
 31
0.0
  0
LINE
  5
A4B7
330
A487
100
AcDbEntity
  8
1
  6
Continuous
100
AcDbLine
 10
218.310193
 20
210.738742
 30
0.0
 11
165.310193
 21
210.738742
 31
0.0
  0
LINE
  5
A4B8
330
A487
100
AcDbEntity
  8
1
  6
Continuous
100
AcDbLine
 10
218.310193
 20
208.738742
 30
0.0
 11
218.310193
 21
210.738742
 31
0.0
  0
LINE
  5
A4B9
330
A487
100
AcDbEntity
  8
1
  6
Continuous
100
AcDbLine
 10
210.145193
 20
207.1587419999999
 30
0.0
 11
210.145193
 21
202.733742
 31
0.0
  0
ARC
  5
A4BA
330
A487
100
AcDbEntity
  8
1
  6
Continuous
100
AcDbCircle
 10
209.4555319999999
 20
200.333742
 30
0.0
 40
2.399999999999999
100
AcDbArc
 50
12.981644
 51
90.0
  0
ARC
  5
A4BB
330
A487
100
AcDbEntity
  8
1
  6
Continuous
100
AcDbCircle
 10
209.764938
 20
210.674434
 30
0.0
 40
3.515692
100
AcDbArc
 50
270.0
 51
326.5927549999998
  0
LINE
  5
A4BC
330
A487
100
AcDbEntity
  8
4
  6
CENTER
100
AcDbLine
 10
173.810193
 20
139.7390389999999
 30
0.0
 11
173.810193
 21
195.739039
 31
0.0
  0
ARC
  5
A4BD
330
A487
100
AcDbEntity
  8
1
  6
Continuous
100
AcDbCircle
 10
114.5132999999999
 20
208.315966
 30
0.0
 40
62.7
100
AcDbArc
 50
331.621118
 51
346.4596439999998
  0
ARC
  5
A4BE
330
A487
100
AcDbEntity
  8
1
  6
Continuous
100
AcDbCircle
 10
173.810193
 20
167.739039
 30
0.0
 40
25.0
100
AcDbArc
 50
86.651374
 51
131.2453659999998
  0
LINE
  5
A4BF
330
A487
100
AcDbEntity
  8
4
  6
CENTER
100
AcDbLine
 10
205.890282
 20
167.739039
 30
0.0
 11
140.6075919999999
 21
167.739039
 31
0.0
  0
LINE
  5
A4C0
330
A487
100
AcDbEntity
  8
1
  6
Continuous
100
AcDbLine
 10
176.83963
 20
205.1587419999999
 30
0.0
 11
174.83963
 21
202.733742
 31
0.0
  0
LINE
  5
A4C1
330
A487
100
AcDbEntity
  8
1
  6
Continuous
100
AcDbLine
 10
174.96095
 20
205.1587419999999
 30
0.0
 11
176.96095
 21
202.733742
 31
0.0
  0
LINE
  5
A4C2
330
A487
100
AcDbEntity
  8
1
  6
Continuous
100
AcDbLine
 10
193.659854
 20
205.1587419999999
 30
0.0
 11
191.659854
 21
202.733742
 31
0.0
  0
LINE
  5
A4C3
330
A487
100
AcDbEntity
  8
1
  6
Continuous
100
AcDbLine
 10
191.7811739999999
 20
205.1587419999999
 30
0.0
 11
193.7811739999999
 21
202.733742
 31
0.0
  0
LINE
  5
A4C4
330
A487
100
AcDbEntity
  8
1
  6
Continuous
100
AcDbLine
 10
202.295474
 20
205.1587419999999
 30
0.0
 11
200.295474
 21
202.733742
 31
0.0
  0
LINE
  5
A4C5
330
A487
100
AcDbEntity
  8
1
  6
Continuous
100
AcDbLine
 10
200.416795
 20
205.1587419999999
 30
0.0
 11
202.416795
 21
202.733742
 31
0.0
  0
LINE
  5
A4C6
330
A487
100
AcDbEntity
  8
1
  6
Continuous
100
AcDbLine
 10
206.5381149999998
 20
205.1587419999999
 30
0.0
 11
204.5381149999998
 21
202.733742
 31
0.0
  0
LINE
  5
A4C7
330
A487
100
AcDbEntity
  8
1
  6
Continuous
100
AcDbLine
 10
204.6594349999999
 20
205.1587419999999
 30
0.0
 11
206.6594349999999
 21
202.733742
 31
0.0
  0
LINE
  5
A4C8
330
A487
100
AcDbEntity
  8
1
  6
Continuous
100
AcDbLine
 10
208.6594349999999
 20
205.1587419999999
 30
0.0
 11
206.6594349999999
 21
202.733742
 31
0.0
  0
LINE
  5
A4C9
330
A487
100
AcDbEntity
  8
1
  6
Continuous
100
AcDbLine
 10
206.7807559999998
 20
205.1587419999999
 30
0.0
 11
208.7807559999999
 21
202.733742
 31
0.0
  0
LINE
  5
A4CA
330
A487
100
AcDbEntity
  8
1
  6
Continuous
100
AcDbLine
 10
204.416795
 20
205.1587419999999
 30
0.0
 11
202.416795
 21
202.733742
 31
0.0
  0
LINE
  5
A4CB
330
A487
100
AcDbEntity
  8
1
  6
Continuous
100
AcDbLine
 10
202.538115
 20
205.1587419999999
 30
0.0
 11
204.5381149999998
 21
202.733742
 31
0.0
  0
LINE
  5
A4CC
330
A487
100
AcDbEntity
  8
1
  6
Continuous
100
AcDbLine
 10
197.9024949999999
 20
205.1587419999999
 30
0.0
 11
195.9024949999999
 21
202.733742
 31
0.0
  0
LINE
  5
A4CD
330
A487
100
AcDbEntity
  8
1
  6
Continuous
100
AcDbLine
 10
196.0238149999999
 20
205.1587419999999
 30
0.0
 11
198.0238149999999
 21
202.733742
 31
0.0
  0
LINE
  5
A4CE
330
A487
100
AcDbEntity
  8
1
  6
Continuous
100
AcDbLine
 10
200.0238149999999
 20
205.1587419999999
 30
0.0
 11
198.0238149999999
 21
202.733742
 31
0.0
  0
LINE
  5
A4CF
330
A487
100
AcDbEntity
  8
1
  6
Continuous
100
AcDbLine
 10
198.145135
 20
205.1587419999999
 30
0.0
 11
200.1451349999999
 21
202.733742
 31
0.0
  0
LINE
  5
A4D0
330
A487
100
AcDbEntity
  8
1
  6
Continuous
100
AcDbLine
 10
195.781174
 20
205.1587419999999
 30
0.0
 11
193.7811739999999
 21
202.733742
 31
0.0
  0
LINE
  5
A4D1
330
A487
100
AcDbEntity
  8
1
  6
Continuous
100
AcDbLine
 10
193.9024949999999
 20
205.1587419999999
 30
0.0
 11
195.9024949999999
 21
202.733742
 31
0.0
  0
LINE
  5
A4D2
330
A487
100
AcDbEntity
  8
1
  6
Continuous
100
AcDbLine
 10
185.1745719999999
 20
205.1587419999999
 30
0.0
 11
183.1745719999999
 21
202.733742
 31
0.0
  0
LINE
  5
A4D3
330
A487
100
AcDbEntity
  8
1
  6
Continuous
100
AcDbLine
 10
183.295893
 20
205.1587419999999
 30
0.0
 11
185.2958929999998
 21
202.733742
 31
0.0
  0
LINE
  5
A4D4
330
A487
100
AcDbEntity
  8
1
  6
Continuous
100
AcDbLine
 10
189.4172129999999
 20
205.1587419999999
 30
0.0
 11
187.4172129999998
 21
202.733742
 31
0.0
  0
LINE
  5
A4D5
330
A487
100
AcDbEntity
  8
1
  6
Continuous
100
AcDbLine
 10
187.538533
 20
205.1587419999999
 30
0.0
 11
189.538533
 21
202.733742
 31
0.0
  0
LINE
  5
A4D6
330
A487
100
AcDbEntity
  8
1
  6
Continuous
100
AcDbLine
 10
191.538533
 20
205.1587419999999
 30
0.0
 11
189.538533
 21
202.733742
 31
0.0
  0
LINE
  5
A4D7
330
A487
100
AcDbEntity
  8
1
  6
Continuous
100
AcDbLine
 10
189.659854
 20
205.1587419999999
 30
0.0
 11
191.659854
 21
202.733742
 31
0.0
  0
LINE
  5
A4D8
330
A487
100
AcDbEntity
  8
1
  6
Continuous
100
AcDbLine
 10
187.295893
 20
205.1587419999999
 30
0.0
 11
185.2958929999998
 21
202.733742
 31
0.0
  0
LINE
  5
A4D9
330
A487
100
AcDbEntity
  8
1
  6
Continuous
100
AcDbLine
 10
185.4172129999998
 20
205.1587419999999
 30
0.0
 11
187.4172129999998
 21
202.733742
 31
0.0
  0
LINE
  5
A4DA
330
A487
100
AcDbEntity
  8
1
  6
Continuous
100
AcDbLine
 10
180.9319319999999
 20
205.1587419999999
 30
0.0
 11
178.9319319999999
 21
202.733742
 31
0.0
  0
LINE
  5
A4DB
330
A487
100
AcDbEntity
  8
1
  6
Continuous
100
AcDbLine
 10
179.053252
 20
205.1587419999999
 30
0.0
 11
181.0532519999999
 21
202.733742
 31
0.0
  0
LINE
  5
A4DC
330
A487
100
AcDbEntity
  8
1
  6
Continuous
100
AcDbLine
 10
183.053252
 20
205.1587419999999
 30
0.0
 11
181.0532519999999
 21
202.733742
 31
0.0
  0
LINE
  5
A4DD
330
A487
100
AcDbEntity
  8
1
  6
Continuous
100
AcDbLine
 10
181.1745719999999
 20
205.1587419999999
 30
0.0
 11
183.1745719999999
 21
202.733742
 31
0.0
  0
LINE
  5
A4DE
330
A487
100
AcDbEntity
  8
1
  6
Continuous
100
AcDbLine
 10
178.810611
 20
205.1587419999999
 30
0.0
 11
176.8106109999999
 21
202.733742
 31
0.0
  0
LINE
  5
A4DF
330
A487
100
AcDbEntity
  8
1
  6
Continuous
100
AcDbLine
 10
176.9319319999999
 20
205.1587419999999
 30
0.0
 11
178.9319319999999
 21
202.733742
 31
0.0
  0
ARC
  5
A4E0
330
A487
100
AcDbEntity
  8
1
  6
Continuous
100
AcDbCircle
 10
173.5105169999999
 20
194.0337419999999
 30
0.0
 40
2.0
100
AcDbArc
 50
348.52915
 51
90.0
  0
LINE
  5
A4E1
330
A487
100
AcDbEntity
  8
1
  6
Continuous
100
AcDbLine
 10
171.8261929999999
 20
196.0337419999999
 30
0.0
 11
173.5105169999999
 21
196.0337419999999
 31
0.0
  0
LINE
  5
A4E2
330
A487
100
AcDbEntity
  8
1
  6
Continuous
100
AcDbLine
 10
173.4751929999999
 20
207.1587419999999
 30
0.0
 11
173.4751929999999
 21
202.733742
 31
0.0
  0
ARC
  5
A4E3
330
A487
100
AcDbEntity
  8
1
  6
Continuous
100
AcDbCircle
 10
174.165532
 20
200.333742
 30
0.0
 40
2.399999999999999
100
AcDbArc
 50
90.0
 51
167.090607
  0
LINE
  5
A4E4
330
A487
100
AcDbEntity
  8
1
  6
Continuous
100
AcDbLine
 10
173.4751929999999
 20
203.490625
 30
0.0
 11
174.7183099999998
 21
205.1587419999999
 31
0.0
  0
LINE
  5
A4E5
330
A487
100
AcDbEntity
  8
1
  6
Continuous
100
AcDbLine
 10
173.4751929999999
 20
204.5231789999998
 30
0.0
 11
174.83963
 21
202.733742
 31
0.0
  0
ARC
  5
A4E6
330
A487
100
AcDbEntity
  8
1
  6
Continuous
100
AcDbCircle
 10
173.8554469999999
 20
210.674434
 30
0.0
 40
3.515692
100
AcDbArc
 50
213.407245
 51
270.0
  0
LINE
  5
A4E7
330
A487
100
AcDbEntity
  8
1
  6
Continuous
100
AcDbLine
 10
165.310193
 20
208.738742
 30
0.0
 11
165.310193
 21
210.738742
 31
0.0
  0
LINE
  5
A4E8
330
A487
100
AcDbEntity
  8
4
  6
CENTER
100
AcDbLine
 10
191.8101929999999
 20
258.677949
 30
0.0
 11
191.8101929999999
 21
317.677949
 31
0.0
  0
LINE
  5
A4E9
330
A487
100
AcDbEntity
  8
4
  6
CENTER
100
AcDbLine
 10
218.060193
 20
268.177949
 30
0.0
 11
205.5601929999999
 21
268.177949
 31
0.0
  0
LINE
  5
A4EA
330
A487
100
AcDbEntity
  8
4
  6
CENTER
100
AcDbLine
 10
218.060193
 20
308.177949
 30
0.0
 11
205.5601929999999
 21
308.177949
 31
0.0
  0
LINE
  5
A4EB
330
A487
100
AcDbEntity
  8
4
  6
CENTER
100
AcDbLine
 10
221.159854
 20
288.1779489999999
 30
0.0
 11
145.8101929999999
 21
288.1779489999999
 31
0.0
  0
CIRCLE
  5
A4EC
330
A487
100
AcDbEntity
  8
1
  6
Continuous
100
AcDbCircle
 10
191.8101929999999
 20
288.1779489999999
 30
0.0
 40
18.7
  0
CIRCLE
  5
A4ED
330
A487
100
AcDbEntity
  8
1
  6
Continuous
100
AcDbCircle
 10
191.8101929999999
 20
288.1779489999999
 30
0.0
 40
17.55
  0
CIRCLE
  5
A4EE
330
A487
100
AcDbEntity
  8
1
  6
Continuous
100
AcDbCircle
 10
211.810193
 20
268.177949
 30
0.0
 40
3.25
  0
CIRCLE
  5
A4EF
330
A487
100
AcDbEntity
  8
1
  6
Continuous
100
AcDbCircle
 10
211.810193
 20
308.177949
 30
0.0
 40
3.25
  0
LINE
  5
A4F0
330
A487
100
AcDbEntity
  8
1
  6
Continuous
100
AcDbLine
 10
212.310193
 20
261.677949
 30
0.0
 11
171.310193
 21
261.677949
 31
0.0
  0
LINE
  5
A4F1
330
A487
100
AcDbEntity
  8
1
  6
Continuous
100
AcDbLine
 10
212.310193
 20
314.677949
 30
0.0
 11
171.310193
 21
314.677949
 31
0.0
  0
LINE
  5
A4F2
330
A487
100
AcDbEntity
  8
4
  6
CENTER
100
AcDbLine
 10
211.810193
 20
261.927949
 30
0.0
 11
211.810193
 21
274.427949
 31
0.0
  0
LINE
  5
A4F3
330
A487
100
AcDbEntity
  8
1
  6
Continuous
100
AcDbLine
 10
218.310193
 20
267.677949
 30
0.0
 11
218.310193
 21
308.677949
 31
0.0
  0
ARC
  5
A4F4
330
A487
100
AcDbEntity
  8
1
  6
Continuous
100
AcDbCircle
 10
212.310193
 20
267.677949
 30
0.0
 40
6.0
100
AcDbArc
 50
270.0
 51
0.0
  0
LINE
  5
A4F5
330
A487
100
AcDbEntity
  8
4
  6
CENTER
100
AcDbLine
 10
211.810193
 20
301.927949
 30
0.0
 11
211.810193
 21
314.427949
 31
0.0
  0
ARC
  5
A4F6
330
A487
100
AcDbEntity
  8
1
  6
Continuous
100
AcDbCircle
 10
212.310193
 20
308.677949
 30
0.0
 40
6.0
100
AcDbArc
 50
0.0
 51
90.0
  0
LINE
  5
A4F7
330
A487
100
AcDbEntity
  8
4
  6
CENTER
100
AcDbLine
 10
171.8101929999999
 20
261.927949
 30
0.0
 11
171.8101929999999
 21
274.427949
 31
0.0
  0
LINE
  5
A4F8
330
A487
100
AcDbEntity
  8
1
  6
Continuous
100
AcDbLine
 10
165.310193
 20
267.677949
 30
0.0
 11
165.310193
 21
308.677949
 31
0.0
  0
CIRCLE
  5
A4F9
330
A487
100
AcDbEntity
  8
1
  6
Continuous
100
AcDbCircle
 10
171.8101929999999
 20
268.177949
 30
0.0
 40
3.25
  0
LINE
  5
A4FA
330
A487
100
AcDbEntity
  8
4
  6
CENTER
100
AcDbLine
 10
178.0601929999999
 20
268.177949
 30
0.0
 11
165.5601929999999
 21
268.177949
 31
0.0
  0
ARC
  5
A4FB
330
A487
100
AcDbEntity
  8
1
  6
Continuous
100
AcDbCircle
 10
171.310193
 20
267.677949
 30
0.0
 40
6.0
100
AcDbArc
 50
180.0
 51
270.0
  0
LINE
  5
A4FC
330
A487
100
AcDbEntity
  8
4
  6
CENTER
100
AcDbLine
 10
178.0601929999999
 20
308.177949
 30
0.0
 11
165.5601929999999
 21
308.177949
 31
0.0
  0
CIRCLE
  5
A4FD
330
A487
100
AcDbEntity
  8
1
  6
Continuous
100
AcDbCircle
 10
191.8101929999999
 20
288.1779489999999
 30
0.0
 40
9.0
  0
ARC
  5
A4FE
330
A487
100
AcDbEntity
  8
1
  6
Continuous
100
AcDbCircle
 10
298.810193
 20
288.1779489999999
 30
0.0
 40
150.0
100
AcDbArc
 50
176.5136459999999
 51
183.486354
  0
LINE
  5
A4FF
330
A487
100
AcDbEntity
  8
1
  6
Continuous
100
AcDbLine
 10
165.310193
 20
277.177949
 30
0.0
 11
151.0840959999999
 21
277.177949
 31
0.0
  0
ARC
  5
A500
330
A487
100
AcDbEntity
  8
1
  6
Continuous
100
AcDbCircle
 10
151.0840959999999
 20
279.177949
 30
0.0
 40
2.0
100
AcDbArc
 50
183.486354
 51
270.0
  0
LINE
  5
A501
330
A487
100
AcDbEntity
  8
1
  6
Continuous
100
AcDbLine
 10
165.310193
 20
299.177949
 30
0.0
 11
151.0840959999999
 21
299.177949
 31
0.0
  0
LINE
  5
A502
330
A487
100
AcDbEntity
  8
4
  6
CENTER
100
AcDbLine
 10
171.8101929999999
 20
301.927949
 30
0.0
 11
171.8101929999999
 21
314.427949
 31
0.0
  0
CIRCLE
  5
A503
330
A487
100
AcDbEntity
  8
1
  6
Continuous
100
AcDbCircle
 10
171.8101929999999
 20
308.177949
 30
0.0
 40
3.25
  0
ARC
  5
A504
330
A487
100
AcDbEntity
  8
1
  6
Continuous
100
AcDbCircle
 10
171.310193
 20
308.677949
 30
0.0
 40
6.0
100
AcDbArc
 50
90.0
 51
180.0
  0
ARC
  5
A505
330
A487
100
AcDbEntity
  8
1
  6
Continuous
100
AcDbCircle
 10
151.0840959999999
 20
297.177949
 30
0.0
 40
2.0
100
AcDbArc
 50
90.0
 51
176.5136459999999
  0
LINE
  5
A506
330
A487
100
AcDbEntity
  8
4
  6
CENTER
100
AcDbLine
 10
39.81019299999999
 20
167.739039
 30
0.0
 11
77.31019299999998
 21
167.739039
 31
0.0
  0
LINE
  5
A507
330
A487
100
AcDbEntity
  8
1
  6
Continuous
100
AcDbLine
 10
69.538115
 20
205.1587419999999
 30
0.0
 11
71.53811500000002
 21
202.733742
 31
0.0
  0
LINE
  5
A508
330
A487
100
AcDbEntity
  8
1
  6
Continuous
100
AcDbLine
 10
71.416794
 20
205.1587419999999
 30
0.0
 11
69.41679399999999
 21
202.733742
 31
0.0
  0
LINE
  5
A509
330
A487
100
AcDbEntity
  8
1
  6
Continuous
100
AcDbLine
 10
44.81019299999998
 20
196.0337419999999
 30
0.0
 11
72.810193
 21
196.0337419999999
 31
0.0
  0
ARC
  5
A50A
330
A487
100
AcDbEntity
  8
1
  6
Continuous
100
AcDbCircle
 10
68.61849599999999
 20
199.3036009999999
 30
0.0
 40
4.265130999999998
100
AcDbArc
 50
269.208018
 51
300.9215419999998
  0
ARC
  5
A50B
330
A487
100
AcDbEntity
  8
1
  6
Continuous
100
AcDbCircle
 10
67.810193
 20
145.0129409999999
 30
0.0
 40
2.0
100
AcDbArc
 50
273.486354
 51
0.0
  0
ARC
  5
A50C
330
A487
100
AcDbEntity
  8
1
  6
Continuous
100
AcDbCircle
 10
67.810193
 20
190.465137
 30
0.0
 40
2.0
100
AcDbArc
 50
0.0
 51
86.51364599999999
  0
LINE
  5
A50D
330
A487
100
AcDbEntity
  8
1
  6
Continuous
100
AcDbLine
 10
40.475193
 20
205.1587419999999
 30
0.0
 11
77.145193
 21
205.1587419999999
 31
0.0
  0
LINE
  5
A50E
330
A487
100
AcDbEntity
  8
1
  6
Continuous
100
AcDbLine
 10
40.475193
 20
207.1587419999999
 30
0.0
 11
76.764938
 21
207.1587419999999
 31
0.0
  0
LINE
  5
A50F
330
A487
100
AcDbEntity
  8
1
  6
Continuous
100
AcDbLine
 10
32.31019299999999
 20
208.738742
 30
0.0
 11
85.310193
 21
208.738742
 31
0.0
  0
LINE
  5
A510
330
A487
100
AcDbEntity
  8
1
  6
Continuous
100
AcDbLine
 10
32.31019299999999
 20
210.738742
 30
0.0
 11
85.310193
 21
210.738742
 31
0.0
  0
LINE
  5
A511
330
A487
100
AcDbEntity
  8
4
  6
CENTER
100
AcDbLine
 10
58.81019300000001
 20
213.738742
 30
0.0
 11
58.81019300000001
 21
139.7390389999999
 31
0.0
  0
LINE
  5
A512
330
A487
100
AcDbEntity
  8
1
  6
Continuous
100
AcDbLine
 10
44.81019299999998
 20
196.0337419999999
 30
0.0
 11
44.81019299999998
 21
160.0591469999999
 31
0.0
  0
LINE
  5
A513
330
A487
100
AcDbEntity
  8
1
  6
Continuous
100
AcDbLine
 10
46.81019299999999
 20
196.0337419999999
 30
0.0
 11
46.81019299999999
 21
160.0591469999999
 31
0.0
  0
ARC
  5
A514
330
A487
100
AcDbEntity
  8
1
  6
Continuous
100
AcDbCircle
 10
66.326032
 20
178.2164209999999
 30
0.0
 40
27.5
100
AcDbArc
 50
180.0
 51
216.4817259999999
  0
LINE
  5
A515
330
A487
100
AcDbEntity
  8
1
  6
Continuous
100
AcDbLine
 10
47.81019299999999
 20
190.465137
 30
0.0
 11
47.81019299999999
 21
145.0129409999999
 31
0.0
  0
ARC
  5
A516
330
A487
100
AcDbEntity
  8
1
  6
Continuous
100
AcDbCircle
 10
58.81019300000001
 20
292.7390389999998
 30
0.0
 40
150.0
100
AcDbArc
 50
266.5136459999998
 51
273.486354
  0
ARC
  5
A517
330
A487
100
AcDbEntity
  8
1
  6
Continuous
100
AcDbCircle
 10
49.81019299999999
 20
145.0129409999999
 30
0.0
 40
2.0
100
AcDbArc
 50
180.0
 51
266.5136459999998
  0
LINE
  5
A518
330
A487
100
AcDbEntity
  8
1
  6
Continuous
100
AcDbLine
 10
43.87687699999999
 20
171.9890389999999
 30
0.0
 11
43.87687699999999
 21
163.4890389999999
 31
0.0
  0
ARC
  5
A519
330
A487
100
AcDbEntity
  8
1
  6
Continuous
100
AcDbCircle
 10
51.81019299999999
 20
167.739039
 30
0.0
 40
9.0
100
AcDbArc
 50
151.821357
 51
208.178643
  0
LINE
  5
A51A
330
A487
100
AcDbEntity
  8
1
  6
Continuous
100
AcDbLine
 10
46.96019299999998
 20
160.5781379999999
 30
0.0
 11
46.96019299999998
 21
174.8999389999999
 31
0.0
  0
LINE
  5
A51B
330
A487
100
AcDbEntity
  8
1
  6
Continuous
100
AcDbLine
 10
44.81019299999998
 20
160.0591469999999
 30
0.0
 11
46.81019299999999
 21
160.0591469999999
 31
0.0
  0
ARC
  5
A51C
330
A487
100
AcDbEntity
  8
1
  6
Continuous
100
AcDbCircle
 10
41.77151
 20
160.0591469999999
 30
0.0
 40
3.038682
100
AcDbArc
 50
0.0
 51
36.481726
  0
LINE
  5
A51D
330
A487
100
AcDbEntity
  8
1
  6
Continuous
100
AcDbLine
 10
43.87687699999999
 20
163.4890389999999
 30
0.0
 11
44.81019299999998
 21
163.4890389999999
 31
0.0
  0
ARC
  5
A51E
330
A487
100
AcDbEntity
  8
1
  6
Continuous
100
AcDbCircle
 10
47.960193
 20
160.5781379999999
 30
0.0
 40
1.0
100
AcDbArc
 50
180.0
 51
260.0
  0
LINE
  5
A51F
330
A487
100
AcDbEntity
  8
1
  6
Continuous
100
AcDbLine
 10
46.81019299999999
 20
164.7390389999999
 30
0.0
 11
46.96019299999998
 21
164.7390389999999
 31
0.0
  0
LINE
  5
A520
330
A487
100
AcDbEntity
  8
1
  6
Continuous
100
AcDbLine
 10
47.78654399999999
 20
159.593331
 30
0.0
 11
47.81019299999999
 21
159.5891609999999
 31
0.0
  0
LINE
  5
A521
330
A487
100
AcDbEntity
  8
1
  6
Continuous
100
AcDbLine
 10
43.87687699999999
 20
171.9890389999999
 30
0.0
 11
44.81019299999998
 21
171.9890389999999
 31
0.0
  0
LINE
  5
A522
330
A487
100
AcDbEntity
  8
1
  6
Continuous
100
AcDbLine
 10
46.81019299999999
 20
170.739039
 30
0.0
 11
46.96019299999998
 21
170.739039
 31
0.0
  0
ARC
  5
A523
330
A487
100
AcDbEntity
  8
1
  6
Continuous
100
AcDbCircle
 10
47.960193
 20
174.8999389999999
 30
0.0
 40
1.0
100
AcDbArc
 50
100.0
 51
180.0
  0
LINE
  5
A524
330
A487
100
AcDbEntity
  8
1
  6
Continuous
100
AcDbLine
 10
47.78654399999999
 20
175.884747
 30
0.0
 11
47.81019299999999
 21
175.8889169999999
 31
0.0
  0
LINE
  5
A525
330
A487
100
AcDbEntity
  8
1
  6
Continuous
100
AcDbLine
 10
32.31019299999999
 20
208.738742
 30
0.0
 11
32.31019299999999
 21
210.738742
 31
0.0
  0
LINE
  5
A526
330
A487
100
AcDbEntity
  8
1
  6
Continuous
100
AcDbLine
 10
38.826032
 20
200.3409739999999
 30
0.0
 11
38.826032
 21
178.2164209999999
 31
0.0
  0
LINE
  5
A527
330
A487
100
AcDbEntity
  8
1
  6
Continuous
100
AcDbLine
 10
48.942951
 20
195.038877
 30
0.0
 11
58.81019300000001
 21
195.038877
 31
0.0
  0
LINE
  5
A528
330
A487
100
AcDbEntity
  8
1
  6
Continuous
100
AcDbLine
 10
52.17044699999998
 20
194.838877
 30
0.0
 11
65.44995400000001
 21
194.838877
 31
0.0
  0
ARC
  5
A529
330
A487
100
AcDbEntity
  8
1
  6
Continuous
100
AcDbCircle
 10
58.81019300000001
 20
42.73903899999999
 30
0.0
 40
150.0
100
AcDbArc
 50
86.51364599999999
 51
93.486354
  0
ARC
  5
A52A
330
A487
100
AcDbEntity
  8
1
  6
Continuous
100
AcDbCircle
 10
49.81019299999999
 20
190.465137
 30
0.0
 40
2.0
100
AcDbArc
 50
93.486354
 51
180.0
  0
ARC
  5
A52B
330
A487
100
AcDbEntity
  8
1
  6
Continuous
100
AcDbCircle
 10
49.001905
 20
199.3036009999999
 30
0.0
 40
4.265130999999998
100
AcDbArc
 50
239.07821
 51
270.7919819999998
  0
ARC
  5
A52C
330
A487
100
AcDbEntity
  8
1
  6
Continuous
100
AcDbCircle
 10
-8.981365
 20
220.461423
 30
0.0
 40
66.30278199999999
100
AcDbArc
 50
337.266367
 51
337.453628
  0
LINE
  5
A52D
330
A487
100
AcDbEntity
  8
1
  6
Continuous
100
AcDbLine
 10
58.81019300000001
 20
195.038877
 30
0.0
 11
68.67744999999999
 21
195.038877
 31
0.0
  0
LINE
  5
A52E
330
A487
100
AcDbEntity
  8
1
  6
Continuous
100
AcDbLine
 10
56.3102
 20
194.838877
 30
0.0
 11
56.51019999999999
 21
195.038877
 31
0.0
  0
LINE
  5
A52F
330
A487
100
AcDbEntity
  8
1
  6
Continuous
100
AcDbLine
 10
61.3102
 20
194.838877
 30
0.0
 11
61.11019999999999
 21
195.038877
 31
0.0
  0
ARC
  5
A530
330
A487
100
AcDbEntity
  8
1
  6
Continuous
100
AcDbCircle
 10
126.60175
 20
220.461423
 30
0.0
 40
66.30278199999999
100
AcDbArc
 50
202.5463719999999
 51
202.7336329999998
  0
LINE
  5
A531
330
A487
100
AcDbEntity
  8
1
  6
Continuous
100
AcDbLine
 10
52.567552
 20
205.1587419999999
 30
0.0
 11
54.56755199999999
 21
202.733742
 31
0.0
  0
LINE
  5
A532
330
A487
100
AcDbEntity
  8
1
  6
Continuous
100
AcDbLine
 10
54.44623199999998
 20
205.1587419999999
 30
0.0
 11
52.44623199999999
 21
202.733742
 31
0.0
  0
LINE
  5
A533
330
A487
100
AcDbEntity
  8
1
  6
Continuous
100
AcDbLine
 10
40.475193
 20
202.733742
 30
0.0
 11
77.145193
 21
202.733742
 31
0.0
  0
LINE
  5
A534
330
A487
100
AcDbEntity
  8
1
  6
Continuous
100
AcDbLine
 10
44.08227
 20
205.1587419999999
 30
0.0
 11
46.08227
 21
202.733742
 31
0.0
  0
LINE
  5
A535
330
A487
100
AcDbEntity
  8
1
  6
Continuous
100
AcDbLine
 10
45.96095
 20
205.1587419999999
 30
0.0
 11
43.96094999999998
 21
202.733742
 31
0.0
  0
LINE
  5
A536
330
A487
100
AcDbEntity
  8
1
  6
Continuous
100
AcDbLine
 10
40.475193
 20
207.1587419999999
 30
0.0
 11
40.475193
 21
202.733742
 31
0.0
  0
LINE
  5
A537
330
A487
100
AcDbEntity
  8
1
  6
Continuous
100
AcDbLine
 10
40.475193
 20
204.5231789999998
 30
0.0
 11
41.83963
 21
202.733742
 31
0.0
  0
LINE
  5
A538
330
A487
100
AcDbEntity
  8
1
  6
Continuous
100
AcDbLine
 10
41.71830899999998
 20
205.1587419999999
 30
0.0
 11
40.475193
 21
203.490625
 31
0.0
  0
ARC
  5
A539
330
A487
100
AcDbEntity
  8
1
  6
Continuous
100
AcDbCircle
 10
41.22603199999999
 20
200.3409739999999
 30
0.0
 40
2.399999999999999
100
AcDbArc
 50
94.44897799999997
 51
180.0
  0
LINE
  5
A53A
330
A487
100
AcDbEntity
  8
1
  6
Continuous
100
AcDbLine
 10
41.96094999999997
 20
205.1587419999999
 30
0.0
 11
43.96094999999998
 21
202.733742
 31
0.0
  0
LINE
  5
A53B
330
A487
100
AcDbEntity
  8
1
  6
Continuous
100
AcDbLine
 10
43.83963
 20
205.1587419999999
 30
0.0
 11
41.83963
 21
202.733742
 31
0.0
  0
ARC
  5
A53C
330
A487
100
AcDbEntity
  8
1
  6
Continuous
100
AcDbCircle
 10
40.85544699999998
 20
210.674434
 30
0.0
 40
3.515692
100
AcDbArc
 50
213.407245
 51
270.0
  0
LINE
  5
A53D
330
A487
100
AcDbEntity
  8
1
  6
Continuous
100
AcDbLine
 10
48.324911
 20
205.1587419999999
 30
0.0
 11
50.324911
 21
202.733742
 31
0.0
  0
LINE
  5
A53E
330
A487
100
AcDbEntity
  8
1
  6
Continuous
100
AcDbLine
 10
50.203591
 20
205.1587419999999
 30
0.0
 11
48.20359100000001
 21
202.733742
 31
0.0
  0
LINE
  5
A53F
330
A487
100
AcDbEntity
  8
1
  6
Continuous
100
AcDbLine
 10
46.20359099999999
 20
205.1587419999999
 30
0.0
 11
48.20359100000001
 21
202.733742
 31
0.0
  0
LINE
  5
A540
330
A487
100
AcDbEntity
  8
1
  6
Continuous
100
AcDbLine
 10
48.08227
 20
205.1587419999999
 30
0.0
 11
46.08227
 21
202.733742
 31
0.0
  0
LINE
  5
A541
330
A487
100
AcDbEntity
  8
1
  6
Continuous
100
AcDbLine
 10
50.446232
 20
205.1587419999999
 30
0.0
 11
52.44623199999999
 21
202.733742
 31
0.0
  0
LINE
  5
A542
330
A487
100
AcDbEntity
  8
1
  6
Continuous
100
AcDbLine
 10
52.324911
 20
205.1587419999999
 30
0.0
 11
50.324911
 21
202.733742
 31
0.0
  0
LINE
  5
A543
330
A487
100
AcDbEntity
  8
1
  6
Continuous
100
AcDbLine
 10
61.05283299999999
 20
205.1587419999999
 30
0.0
 11
63.05283299999999
 21
202.733742
 31
0.0
  0
LINE
  5
A544
330
A487
100
AcDbEntity
  8
1
  6
Continuous
100
AcDbLine
 10
62.931513
 20
205.1587419999999
 30
0.0
 11
60.931513
 21
202.733742
 31
0.0
  0
LINE
  5
A545
330
A487
100
AcDbEntity
  8
1
  6
Continuous
100
AcDbLine
 10
56.81019299999999
 20
205.1587419999999
 30
0.0
 11
58.81019300000001
 21
202.733742
 31
0.0
  0
LINE
  5
A546
330
A487
100
AcDbEntity
  8
1
  6
Continuous
100
AcDbLine
 10
58.68887199999999
 20
205.1587419999999
 30
0.0
 11
56.688872
 21
202.733742
 31
0.0
  0
LINE
  5
A547
330
A487
100
AcDbEntity
  8
1
  6
Continuous
100
AcDbLine
 10
54.68887200000001
 20
205.1587419999999
 30
0.0
 11
56.688872
 21
202.733742
 31
0.0
  0
LINE
  5
A548
330
A487
100
AcDbEntity
  8
1
  6
Continuous
100
AcDbLine
 10
56.567552
 20
205.1587419999999
 30
0.0
 11
54.56755199999999
 21
202.733742
 31
0.0
  0
LINE
  5
A549
330
A487
100
AcDbEntity
  8
1
  6
Continuous
100
AcDbLine
 10
58.931513
 20
205.1587419999999
 30
0.0
 11
60.931513
 21
202.733742
 31
0.0
  0
LINE
  5
A54A
330
A487
100
AcDbEntity
  8
1
  6
Continuous
100
AcDbLine
 10
60.81019300000001
 20
205.1587419999999
 30
0.0
 11
58.81019300000001
 21
202.733742
 31
0.0
  0
LINE
  5
A54B
330
A487
100
AcDbEntity
  8
1
  6
Continuous
100
AcDbLine
 10
65.295474
 20
205.1587419999999
 30
0.0
 11
67.295474
 21
202.733742
 31
0.0
  0
LINE
  5
A54C
330
A487
100
AcDbEntity
  8
1
  6
Continuous
100
AcDbLine
 10
67.174154
 20
205.1587419999999
 30
0.0
 11
65.174154
 21
202.733742
 31
0.0
  0
LINE
  5
A54D
330
A487
100
AcDbEntity
  8
1
  6
Continuous
100
AcDbLine
 10
63.174154
 20
205.1587419999999
 30
0.0
 11
65.174154
 21
202.733742
 31
0.0
  0
LINE
  5
A54E
330
A487
100
AcDbEntity
  8
1
  6
Continuous
100
AcDbLine
 10
65.05283299999999
 20
205.1587419999999
 30
0.0
 11
63.05283299999999
 21
202.733742
 31
0.0
  0
LINE
  5
A54F
330
A487
100
AcDbEntity
  8
1
  6
Continuous
100
AcDbLine
 10
67.41679399999999
 20
205.1587419999999
 30
0.0
 11
69.41679399999999
 21
202.733742
 31
0.0
  0
LINE
  5
A550
330
A487
100
AcDbEntity
  8
1
  6
Continuous
100
AcDbLine
 10
69.295474
 20
205.1587419999999
 30
0.0
 11
67.295474
 21
202.733742
 31
0.0
  0
LINE
  5
A551
330
A487
100
AcDbEntity
  8
1
  6
Continuous
100
AcDbLine
 10
72.810193
 20
196.0337419999999
 30
0.0
 11
72.810193
 21
184.857341
 31
0.0
  0
LINE
  5
A552
330
A487
100
AcDbEntity
  8
1
  6
Continuous
100
AcDbLine
 10
70.810193
 20
196.0337419999999
 30
0.0
 11
70.810193
 21
182.6463699999999
 31
0.0
  0
ARC
  5
A553
330
A487
100
AcDbEntity
  8
1
  6
Continuous
100
AcDbCircle
 10
51.29369
 20
178.215551
 30
0.0
 40
27.5
100
AcDbArc
 50
350.1529509999999
 51
0.0
  0
LINE
  5
A554
330
A487
100
AcDbEntity
  8
1
  6
Continuous
100
AcDbLine
 10
69.81019299999998
 20
190.465137
 30
0.0
 11
69.81019299999998
 21
145.0129409999999
 31
0.0
  0
LINE
  5
A555
330
A487
100
AcDbEntity
  8
1
  6
Continuous
100
AcDbLine
 10
70.66019300000002
 20
160.5781379999999
 30
0.0
 11
70.66019300000002
 21
161.7736459999998
 31
0.0
  0
ARC
  5
A556
330
A487
100
AcDbEntity
  8
1
  6
Continuous
100
AcDbCircle
 10
69.66019300000001
 20
160.5781379999999
 30
0.0
 40
1.0
100
AcDbArc
 50
280.0
 51
0.0
  0
ARC
  5
A557
330
A487
100
AcDbEntity
  8
1
  6
Continuous
100
AcDbCircle
 10
69.66019300000001
 20
174.8999389999999
 30
0.0
 40
1.0
100
AcDbArc
 50
70.80641300000002
 51
80.0
  0
LINE
  5
A558
330
A487
100
AcDbEntity
  8
1
  6
Continuous
100
AcDbLine
 10
78.79369
 20
200.3409739999999
 30
0.0
 11
78.79369
 21
185.186462
 31
0.0
  0
ARC
  5
A559
330
A487
100
AcDbEntity
  8
1
  6
Continuous
100
AcDbCircle
 10
76.39369000000002
 20
200.3409739999999
 30
0.0
 40
2.399999999999999
100
AcDbArc
 50
0.0
 51
85.551022
  0
ARC
  5
A55A
330
A487
100
AcDbEntity
  8
1
  6
Continuous
100
AcDbCircle
 10
76.764938
 20
210.674434
 30
0.0
 40
3.515692
100
AcDbArc
 50
270.0
 51
326.5927549999998
  0
LINE
  5
A55B
330
A487
100
AcDbEntity
  8
1
  6
Continuous
100
AcDbLine
 10
77.145193
 20
207.1587419999999
 30
0.0
 11
77.145193
 21
202.733742
 31
0.0
  0
LINE
  5
A55C
330
A487
100
AcDbEntity
  8
1
  6
Continuous
100
AcDbLine
 10
73.780755
 20
205.1587419999999
 30
0.0
 11
75.780755
 21
202.733742
 31
0.0
  0
LINE
  5
A55D
330
A487
100
AcDbEntity
  8
1
  6
Continuous
100
AcDbLine
 10
75.659435
 20
205.1587419999999
 30
0.0
 11
73.659435
 21
202.733742
 31
0.0
  0
LINE
  5
A55E
330
A487
100
AcDbEntity
  8
1
  6
Continuous
100
AcDbLine
 10
71.659435
 20
205.1587419999999
 30
0.0
 11
73.659435
 21
202.733742
 31
0.0
  0
LINE
  5
A55F
330
A487
100
AcDbEntity
  8
1
  6
Continuous
100
AcDbLine
 10
73.538115
 20
205.1587419999999
 30
0.0
 11
71.53811500000002
 21
202.733742
 31
0.0
  0
LINE
  5
A560
330
A487
100
AcDbEntity
  8
1
  6
Continuous
100
AcDbLine
 10
77.145193
 20
203.490625
 30
0.0
 11
75.90207599999998
 21
205.1587419999999
 31
0.0
  0
LINE
  5
A561
330
A487
100
AcDbEntity
  8
1
  6
Continuous
100
AcDbLine
 10
77.145193
 20
204.5231789999998
 30
0.0
 11
75.780755
 21
202.733742
 31
0.0
  0
LINE
  5
A562
330
A487
100
AcDbEntity
  8
1
  6
Continuous
100
AcDbLine
 10
85.310193
 20
208.738742
 30
0.0
 11
85.310193
 21
210.738742
 31
0.0
  0
LINE
  5
A563
330
A487
100
AcDbEntity
  8
4
  6
CENTER
100
AcDbLine
 10
314.5095149999999
 20
213.738742
 30
0.0
 11
314.5095149999999
 21
139.7390389999999
 31
0.0
  0
LINE
  5
A564
330
A487
100
AcDbEntity
  8
1
  6
Continuous
100
AcDbLine
 10
303.5095149999999
 20
190.5231129999999
 30
0.0
 11
303.5095149999999
 21
145.0129409999999
 31
0.0
  0
LINE
  5
A565
330
A487
100
AcDbEntity
  8
1
  6
Continuous
100
AcDbLine
 10
325.5095149999998
 20
190.5231129999999
 30
0.0
 11
325.5095149999998
 21
145.0129409999999
 31
0.0
  0
ARC
  5
A566
330
A487
100
AcDbEntity
  8
1
  6
Continuous
100
AcDbCircle
 10
314.5095149999999
 20
292.7390389999998
 30
0.0
 40
150.0
100
AcDbArc
 50
266.5136459999998
 51
273.486354
  0
ARC
  5
A567
330
A487
100
AcDbEntity
  8
1
  6
Continuous
100
AcDbCircle
 10
323.5095149999999
 20
145.0129409999999
 30
0.0
 40
2.0
100
AcDbArc
 50
273.486354
 51
0.0
  0
ARC
  5
A568
330
A487
100
AcDbEntity
  8
1
  6
Continuous
100
AcDbCircle
 10
305.5095149999999
 20
145.0129409999999
 30
0.0
 40
2.0
100
AcDbArc
 50
180.0
 51
266.5136459999998
  0
LINE
  5
A569
330
A487
100
AcDbEntity
  8
1
  6
Continuous
100
AcDbLine
 10
314.6308359999999
 20
205.1587419999999
 30
0.0
 11
316.6308359999998
 21
202.733742
 31
0.0
  0
LINE
  5
A56A
330
A487
100
AcDbEntity
  8
1
  6
Continuous
100
AcDbLine
 10
316.5095149999999
 20
205.1587419999999
 30
0.0
 11
314.5095149999999
 21
202.733742
 31
0.0
  0
LINE
  5
A56B
330
A487
100
AcDbEntity
  8
4
  6
CENTER
100
AcDbLine
 10
333.5095149999999
 20
167.739039
 30
0.0
 11
296.0095149999999
 21
167.739039
 31
0.0
  0
LINE
  5
A56C
330
A487
100
AcDbEntity
  8
1
  6
Continuous
100
AcDbLine
 10
341.0095149999999
 20
210.738742
 30
0.0
 11
288.0095149999998
 21
210.738742
 31
0.0
  0
LINE
  5
A56D
330
A487
100
AcDbEntity
  8
1
  6
Continuous
100
AcDbLine
 10
341.0095149999999
 20
208.738742
 30
0.0
 11
288.0095149999998
 21
208.738742
 31
0.0
  0
LINE
  5
A56E
330
A487
100
AcDbEntity
  8
1
  6
Continuous
100
AcDbLine
 10
332.844515
 20
207.1587419999999
 30
0.0
 11
296.55477
 21
207.1587419999999
 31
0.0
  0
LINE
  5
A56F
330
A487
100
AcDbEntity
  8
1
  6
Continuous
100
AcDbLine
 10
332.844515
 20
205.1587419999999
 30
0.0
 11
296.174515
 21
205.1587419999999
 31
0.0
  0
LINE
  5
A570
330
A487
100
AcDbEntity
  8
1
  6
Continuous
100
AcDbLine
 10
334.4936759999999
 20
200.3409739999999
 30
0.0
 11
334.4936759999999
 21
178.2164209999999
 31
0.0
  0
ARC
  5
A571
330
A487
100
AcDbEntity
  8
1
  6
Continuous
100
AcDbCircle
 10
306.993676
 20
178.2164209999999
 30
0.0
 40
27.5
100
AcDbArc
 50
323.518274
 51
0.0
  0
LINE
  5
A572
330
A487
100
AcDbEntity
  8
1
  6
Continuous
100
AcDbLine
 10
326.359515
 20
160.5781379999999
 30
0.0
 11
326.359515
 21
174.8999389999999
 31
0.0
  0
LINE
  5
A573
330
A487
100
AcDbEntity
  8
1
  6
Continuous
100
AcDbLine
 10
326.5095149999999
 20
188.9617509999999
 30
0.0
 11
326.5095149999999
 21
160.0591469999999
 31
0.0
  0
LINE
  5
A574
330
A487
100
AcDbEntity
  8
1
  6
Continuous
100
AcDbLine
 10
326.5095149999999
 20
170.739039
 30
0.0
 11
326.359515
 21
170.739039
 31
0.0
  0
LINE
  5
A575
330
A487
100
AcDbEntity
  8
1
  6
Continuous
100
AcDbLine
 10
325.533164
 20
159.593331
 30
0.0
 11
325.5095149999998
 21
159.5891609999999
 31
0.0
  0
LINE
  5
A576
330
A487
100
AcDbEntity
  8
1
  6
Continuous
100
AcDbLine
 10
326.5095149999999
 20
164.7390389999999
 30
0.0
 11
326.359515
 21
164.7390389999999
 31
0.0
  0
ARC
  5
A577
330
A487
100
AcDbEntity
  8
1
  6
Continuous
100
AcDbCircle
 10
325.3595149999998
 20
160.5781379999999
 30
0.0
 40
1.0
100
AcDbArc
 50
280.0
 51
0.0
  0
ARC
  5
A578
330
A487
100
AcDbEntity
  8
1
  6
Continuous
100
AcDbCircle
 10
331.548198
 20
160.0591469999999
 30
0.0
 40
3.038682
100
AcDbArc
 50
143.5182739999999
 51
180.0
  0
LINE
  5
A579
330
A487
100
AcDbEntity
  8
1
  6
Continuous
100
AcDbLine
 10
328.5095149999999
 20
160.0591469999999
 30
0.0
 11
326.5095149999999
 21
160.0591469999999
 31
0.0
  0
LINE
  5
A57A
330
A487
100
AcDbEntity
  8
1
  6
Continuous
100
AcDbLine
 10
325.533164
 20
175.884747
 30
0.0
 11
325.5095149999998
 21
175.8889169999999
 31
0.0
  0
ARC
  5
A57B
330
A487
100
AcDbEntity
  8
1
  6
Continuous
100
AcDbCircle
 10
325.3595149999998
 20
174.8999389999999
 30
0.0
 40
1.0
100
AcDbArc
 50
0.0
 51
80.0
  0
LINE
  5
A57C
330
A487
100
AcDbEntity
  8
1
  6
Continuous
100
AcDbLine
 10
329.480078
 20
205.1587419999999
 30
0.0
 11
331.480078
 21
202.733742
 31
0.0
  0
ARC
  5
A57D
330
A487
100
AcDbEntity
  8
1
  6
Continuous
100
AcDbCircle
 10
332.4642609999999
 20
210.674434
 30
0.0
 40
3.515692
100
AcDbArc
 50
270.0
 51
326.5927549999998
  0
ARC
  5
A57E
330
A487
100
AcDbEntity
  8
1
  6
Continuous
100
AcDbCircle
 10
332.0936759999999
 20
200.3409739999999
 30
0.0
 40
2.399999999999999
100
AcDbArc
 50
0.0
 51
85.551022
  0
LINE
  5
A57F
330
A487
100
AcDbEntity
  8
1
  6
Continuous
100
AcDbLine
 10
331.601399
 20
205.1587419999999
 30
0.0
 11
332.844515
 21
203.490625
 31
0.0
  0
LINE
  5
A580
330
A487
100
AcDbEntity
  8
1
  6
Continuous
100
AcDbLine
 10
332.844515
 20
204.5231789999998
 30
0.0
 11
331.480078
 21
202.733742
 31
0.0
  0
LINE
  5
A581
330
A487
100
AcDbEntity
  8
1
  6
Continuous
100
AcDbLine
 10
332.844515
 20
207.1587419999999
 30
0.0
 11
332.844515
 21
202.733742
 31
0.0
  0
LINE
  5
A582
330
A487
100
AcDbEntity
  8
1
  6
Continuous
100
AcDbLine
 10
341.0095149999999
 20
208.738742
 30
0.0
 11
341.0095149999999
 21
210.738742
 31
0.0
  0
LINE
  5
A583
330
A487
100
AcDbEntity
  8
1
  6
Continuous
100
AcDbLine
 10
316.752156
 20
205.1587419999999
 30
0.0
 11
318.752156
 21
202.733742
 31
0.0
  0
LINE
  5
A584
330
A487
100
AcDbEntity
  8
1
  6
Continuous
100
AcDbLine
 10
318.6308359999998
 20
205.1587419999999
 30
0.0
 11
316.6308359999998
 21
202.733742
 31
0.0
  0
LINE
  5
A585
330
A487
100
AcDbEntity
  8
1
  6
Continuous
100
AcDbLine
 10
320.9947969999999
 20
205.1587419999999
 30
0.0
 11
322.994797
 21
202.733742
 31
0.0
  0
LINE
  5
A586
330
A487
100
AcDbEntity
  8
1
  6
Continuous
100
AcDbLine
 10
322.873476
 20
205.1587419999999
 30
0.0
 11
320.873476
 21
202.733742
 31
0.0
  0
LINE
  5
A587
330
A487
100
AcDbEntity
  8
1
  6
Continuous
100
AcDbLine
 10
325.237438
 20
205.1587419999999
 30
0.0
 11
327.237438
 21
202.733742
 31
0.0
  0
LINE
  5
A588
330
A487
100
AcDbEntity
  8
1
  6
Continuous
100
AcDbLine
 10
327.1161169999999
 20
205.1587419999999
 30
0.0
 11
325.1161169999999
 21
202.733742
 31
0.0
  0
LINE
  5
A589
330
A487
100
AcDbEntity
  8
1
  6
Continuous
100
AcDbLine
 10
323.116117
 20
205.1587419999999
 30
0.0
 11
325.1161169999999
 21
202.733742
 31
0.0
  0
LINE
  5
A58A
330
A487
100
AcDbEntity
  8
1
  6
Continuous
100
AcDbLine
 10
324.994797
 20
205.1587419999999
 30
0.0
 11
322.994797
 21
202.733742
 31
0.0
  0
LINE
  5
A58B
330
A487
100
AcDbEntity
  8
1
  6
Continuous
100
AcDbLine
 10
327.358758
 20
205.1587419999999
 30
0.0
 11
329.358758
 21
202.733742
 31
0.0
  0
LINE
  5
A58C
330
A487
100
AcDbEntity
  8
1
  6
Continuous
100
AcDbLine
 10
329.237438
 20
205.1587419999999
 30
0.0
 11
327.237438
 21
202.733742
 31
0.0
  0
LINE
  5
A58D
330
A487
100
AcDbEntity
  8
1
  6
Continuous
100
AcDbLine
 10
318.873476
 20
205.1587419999999
 30
0.0
 11
320.873476
 21
202.733742
 31
0.0
  0
LINE
  5
A58E
330
A487
100
AcDbEntity
  8
1
  6
Continuous
100
AcDbLine
 10
320.7521559999999
 20
205.1587419999999
 30
0.0
 11
318.752156
 21
202.733742
 31
0.0
  0
LINE
  5
A58F
330
A487
100
AcDbEntity
  8
1
  6
Continuous
100
AcDbLine
 10
331.358758
 20
205.1587419999999
 30
0.0
 11
329.358758
 21
202.733742
 31
0.0
  0
LINE
  5
A590
330
A487
100
AcDbEntity
  8
1
  6
Continuous
100
AcDbLine
 10
294.526018
 20
200.3409739999999
 30
0.0
 11
294.526018
 21
178.215551
 31
0.0
  0
ARC
  5
A591
330
A487
100
AcDbEntity
  8
1
  6
Continuous
100
AcDbCircle
 10
322.026018
 20
178.215551
 30
0.0
 40
27.5
100
AcDbArc
 50
180.0
 51
213.795272
  0
LINE
  5
A592
330
A487
100
AcDbEntity
  8
1
  6
Continuous
100
AcDbLine
 10
302.6595149999999
 20
162.614249
 30
0.0
 11
302.6595149999999
 21
163.140456
 31
0.0
  0
LINE
  5
A593
330
A487
100
AcDbEntity
  8
1
  6
Continuous
100
AcDbLine
 10
302.5095149999998
 20
188.9617509999999
 30
0.0
 11
302.5095149999998
 21
172.617287
 31
0.0
  0
LINE
  5
A594
330
A487
100
AcDbEntity
  8
1
  6
Continuous
100
AcDbLine
 10
303.4858669999999
 20
159.593331
 30
0.0
 11
303.5095149999999
 21
159.5891609999999
 31
0.0
  0
ARC
  5
A595
330
A487
100
AcDbEntity
  8
1
  6
Continuous
100
AcDbCircle
 10
303.659515
 20
160.5781379999999
 30
0.0
 40
1.0
100
AcDbArc
 50
249.237012
 51
260.0
  0
LINE
  5
A596
330
A487
100
AcDbEntity
  8
1
  6
Continuous
100
AcDbLine
 10
303.4858669999999
 20
175.884747
 30
0.0
 11
303.5095149999999
 21
175.8889169999999
 31
0.0
  0
ARC
  5
A597
330
A487
100
AcDbEntity
  8
1
  6
Continuous
100
AcDbCircle
 10
303.659515
 20
174.8999389999999
 30
0.0
 40
1.0
100
AcDbArc
 50
100.0
 51
180.0
  0
LINE
  5
A598
330
A487
100
AcDbEntity
  8
1
  6
Continuous
100
AcDbLine
 10
297.660273
 20
205.1587419999999
 30
0.0
 11
299.660273
 21
202.733742
 31
0.0
  0
LINE
  5
A599
330
A487
100
AcDbEntity
  8
1
  6
Continuous
100
AcDbLine
 10
299.538953
 20
205.1587419999999
 30
0.0
 11
297.538953
 21
202.733742
 31
0.0
  0
LINE
  5
A59A
330
A487
100
AcDbEntity
  8
1
  6
Continuous
100
AcDbLine
 10
332.279847
 20
202.733742
 30
0.0
 11
296.174515
 21
202.733742
 31
0.0
  0
LINE
  5
A59B
330
A487
100
AcDbEntity
  8
1
  6
Continuous
100
AcDbLine
 10
299.7815929999999
 20
205.1587419999999
 30
0.0
 11
301.7815929999999
 21
202.733742
 31
0.0
  0
LINE
  5
A59C
330
A487
100
AcDbEntity
  8
1
  6
Continuous
100
AcDbLine
 10
301.660273
 20
205.1587419999999
 30
0.0
 11
299.660273
 21
202.733742
 31
0.0
  0
LINE
  5
A59D
330
A487
100
AcDbEntity
  8
1
  6
Continuous
100
AcDbLine
 10
304.0242339999999
 20
205.1587419999999
 30
0.0
 11
306.0242339999998
 21
202.733742
 31
0.0
  0
LINE
  5
A59E
330
A487
100
AcDbEntity
  8
1
  6
Continuous
100
AcDbLine
 10
305.902914
 20
205.1587419999999
 30
0.0
 11
303.902914
 21
202.733742
 31
0.0
  0
LINE
  5
A59F
330
A487
100
AcDbEntity
  8
1
  6
Continuous
100
AcDbLine
 10
308.266875
 20
205.1587419999999
 30
0.0
 11
310.266875
 21
202.733742
 31
0.0
  0
LINE
  5
A5A0
330
A487
100
AcDbEntity
  8
1
  6
Continuous
100
AcDbLine
 10
310.1455539999999
 20
205.1587419999999
 30
0.0
 11
308.145554
 21
202.733742
 31
0.0
  0
LINE
  5
A5A1
330
A487
100
AcDbEntity
  8
1
  6
Continuous
100
AcDbLine
 10
306.145554
 20
205.1587419999999
 30
0.0
 11
308.145554
 21
202.733742
 31
0.0
  0
LINE
  5
A5A2
330
A487
100
AcDbEntity
  8
1
  6
Continuous
100
AcDbLine
 10
308.0242339999998
 20
205.1587419999999
 30
0.0
 11
306.0242339999998
 21
202.733742
 31
0.0
  0
LINE
  5
A5A3
330
A487
100
AcDbEntity
  8
1
  6
Continuous
100
AcDbLine
 10
310.3881949999999
 20
205.1587419999999
 30
0.0
 11
312.3881949999999
 21
202.733742
 31
0.0
  0
LINE
  5
A5A4
330
A487
100
AcDbEntity
  8
1
  6
Continuous
100
AcDbLine
 10
312.266875
 20
205.1587419999999
 30
0.0
 11
310.266875
 21
202.733742
 31
0.0
  0
LINE
  5
A5A5
330
A487
100
AcDbEntity
  8
1
  6
Continuous
100
AcDbLine
 10
301.902914
 20
205.1587419999999
 30
0.0
 11
303.902914
 21
202.733742
 31
0.0
  0
LINE
  5
A5A6
330
A487
100
AcDbEntity
  8
1
  6
Continuous
100
AcDbLine
 10
303.7815929999999
 20
205.1587419999999
 30
0.0
 11
301.7815929999999
 21
202.733742
 31
0.0
  0
LINE
  5
A5A7
330
A487
100
AcDbEntity
  8
1
  6
Continuous
100
AcDbLine
 10
312.5095149999999
 20
205.1587419999999
 30
0.0
 11
314.5095149999999
 21
202.733742
 31
0.0
  0
LINE
  5
A5A8
330
A487
100
AcDbEntity
  8
1
  6
Continuous
100
AcDbLine
 10
314.3881949999999
 20
205.1587419999999
 30
0.0
 11
312.3881949999999
 21
202.733742
 31
0.0
  0
LINE
  5
A5A9
330
A487
100
AcDbEntity
  8
1
  6
Continuous
100
AcDbLine
 10
288.0095149999998
 20
208.738742
 30
0.0
 11
288.0095149999998
 21
210.738742
 31
0.0
  0
LINE
  5
A5AA
330
A487
100
AcDbEntity
  8
1
  6
Continuous
100
AcDbLine
 10
296.174515
 20
204.5231789999998
 30
0.0
 11
297.538953
 21
202.733742
 31
0.0
  0
LINE
  5
A5AB
330
A487
100
AcDbEntity
  8
1
  6
Continuous
100
AcDbLine
 10
296.174515
 20
203.490625
 30
0.0
 11
297.4176319999999
 21
205.1587419999999
 31
0.0
  0
LINE
  5
A5AC
330
A487
100
AcDbEntity
  8
1
  6
Continuous
100
AcDbLine
 10
296.174515
 20
207.1587419999999
 30
0.0
 11
296.174515
 21
202.733742
 31
0.0
  0
ARC
  5
A5AD
330
A487
100
AcDbEntity
  8
1
  6
Continuous
100
AcDbCircle
 10
296.55477
 20
210.674434
 30
0.0
 40
3.515692
100
AcDbArc
 50
213.407245
 51
270.0
  0
ARC
  5
A5AE
330
A487
100
AcDbEntity
  8
1
  6
Continuous
100
AcDbCircle
 10
296.926018
 20
200.3409739999999
 30
0.0
 40
2.399999999999999
100
AcDbArc
 50
94.44897799999997
 51
180.0
  0
LINE
  5
A5AF
330
A487
100
AcDbEntity
  8
1
  6
Continuous
100
AcDbLine
 10
196.5362899999998
 20
66.467066
 30
0.0
 11
151.0840959999999
 21
66.467066
 31
0.0
  0
LINE
  5
A5B0
330
A487
100
AcDbEntity
  8
1
  6
Continuous
100
AcDbLine
 10
196.5362899999998
 20
88.467066
 30
0.0
 11
151.0840959999999
 21
88.467066
 31
0.0
  0
LINE
  5
A5B1
330
A487
100
AcDbEntity
  8
4
  6
CENTER
100
AcDbLine
 10
221.159854
 20
77.467066
 30
0.0
 11
145.8101929999999
 21
77.467066
 31
0.0
  0
ARC
  5
A5B2
330
A487
100
AcDbEntity
  8
1
  6
Continuous
100
AcDbCircle
 10
298.810193
 20
77.467066
 30
0.0
 40
150.0
100
AcDbArc
 50
176.5136459999999
 51
183.486354
  0
ARC
  5
A5B3
330
A487
100
AcDbEntity
  8
1
  6
Continuous
100
AcDbCircle
 10
151.0840959999999
 20
86.46706599999998
 30
0.0
 40
2.0
100
AcDbArc
 50
90.0
 51
176.5136459999999
  0
ARC
  5
A5B4
330
A487
100
AcDbEntity
  8
1
  6
Continuous
100
AcDbCircle
 10
151.0840959999999
 20
68.467066
 30
0.0
 40
2.0
100
AcDbArc
 50
183.486354
 51
270.0
  0
ARC
  5
A5B5
330
A487
100
AcDbEntity
  8
1
  6
Continuous
100
AcDbCircle
 10
212.310193
 20
56.967066
 30
0.0
 40
6.0
100
AcDbArc
 50
270.0
 51
0.0
  0
LINE
  5
A5B6
330
A487
100
AcDbEntity
  8
4
  6
CENTER
100
AcDbLine
 10
218.060193
 20
57.467066
 30
0.0
 11
205.5601929999999
 21
57.467066
 31
0.0
  0
LINE
  5
A5B7
330
A487
100
AcDbEntity
  8
4
  6
CENTER
100
AcDbLine
 10
218.060193
 20
97.46706600000001
 30
0.0
 11
205.5601929999999
 21
97.46706600000001
 31
0.0
  0
ARC
  5
A5B8
330
A487
100
AcDbEntity
  8
1
  6
Continuous
100
AcDbCircle
 10
212.310193
 20
97.967066
 30
0.0
 40
6.0
100
AcDbArc
 50
0.0
 51
90.0
  0
LINE
  5
A5B9
330
A487
100
AcDbEntity
  8
1
  6
Continuous
100
AcDbLine
 10
165.310193
 20
97.967066
 30
0.0
 11
165.310193
 21
93.567066
 31
0.0
  0
LINE
  5
A5BA
330
A487
100
AcDbEntity
  8
4
  6
CENTER
100
AcDbLine
 10
191.8101929999999
 20
106.9670659999998
 30
0.0
 11
191.8101929999999
 21
47.96706599999999
 31
0.0
  0
LINE
  5
A5BB
330
A487
100
AcDbEntity
  8
1
  6
Continuous
100
AcDbLine
 10
212.310193
 20
103.967066
 30
0.0
 11
200.9295879999998
 21
103.967066
 31
0.0
  0
LINE
  5
A5BC
330
A487
100
AcDbEntity
  8
4
  6
CENTER
100
AcDbLine
 10
171.8101929999999
 20
103.717066
 30
0.0
 11
171.8101929999999
 21
91.21706600000001
 31
0.0
  0
ARC
  5
A5BD
330
A487
100
AcDbEntity
  8
1
  6
Continuous
100
AcDbCircle
 10
171.310193
 20
97.967066
 30
0.0
 40
6.0
100
AcDbArc
 50
90.0
 51
180.0
  0
LINE
  5
A5BE
330
A487
100
AcDbEntity
  8
4
  6
CENTER
100
AcDbLine
 10
178.0601929999999
 20
97.46706600000001
 30
0.0
 11
165.5601929999999
 21
97.46706600000001
 31
0.0
  0
ARC
  5
A5BF
330
A487
100
AcDbEntity
  8
1
  6
Continuous
100
AcDbCircle
 10
171.8101929999999
 20
97.46706600000001
 30
0.0
 40
3.25
100
AcDbArc
 50
50.28486299999999
 51
202.6198649999999
  0
LINE
  5
A5C0
330
A487
100
AcDbEntity
  8
4
  6
CENTER
100
AcDbLine
 10
211.810193
 20
103.717066
 30
0.0
 11
211.810193
 21
91.21706600000001
 31
0.0
  0
CIRCLE
  5
A5C1
330
A487
100
AcDbEntity
  8
1
  6
Continuous
100
AcDbCircle
 10
211.810193
 20
97.46706600000001
 30
0.0
 40
3.25
  0
LINE
  5
A5C2
330
A487
100
AcDbEntity
  8
1
  6
Continuous
100
AcDbLine
 10
212.310193
 20
50.967066
 30
0.0
 11
171.310193
 21
50.967066
 31
0.0
  0
CIRCLE
  5
A5C3
330
A487
100
AcDbEntity
  8
1
  6
Continuous
100
AcDbCircle
 10
171.8101929999999
 20
57.467066
 30
0.0
 40
3.25
  0
LINE
  5
A5C4
330
A487
100
AcDbEntity
  8
4
  6
CENTER
100
AcDbLine
 10
171.8101929999999
 20
63.717066
 30
0.0
 11
171.8101929999999
 21
51.21706599999999
 31
0.0
  0
ARC
  5
A5C5
330
A487
100
AcDbEntity
  8
1
  6
Continuous
100
AcDbCircle
 10
171.310193
 20
56.967066
 30
0.0
 40
6.0
100
AcDbArc
 50
180.0
 51
270.0
  0
LINE
  5
A5C6
330
A487
100
AcDbEntity
  8
4
  6
CENTER
100
AcDbLine
 10
178.0601929999999
 20
57.467066
 30
0.0
 11
165.5601929999999
 21
57.467066
 31
0.0
  0
CIRCLE
  5
A5C7
330
A487
100
AcDbEntity
  8
1
  6
Continuous
100
AcDbCircle
 10
211.810193
 20
57.467066
 30
0.0
 40
3.25
  0
LINE
  5
A5C8
330
A487
100
AcDbEntity
  8
4
  6
CENTER
100
AcDbLine
 10
211.810193
 20
63.717066
 30
0.0
 11
211.810193
 21
51.21706599999999
 31
0.0
  0
LINE
  5
A5C9
330
A487
100
AcDbEntity
  8
1
  6
Continuous
100
AcDbLine
 10
218.310193
 20
97.967066
 30
0.0
 11
218.310193
 21
56.967066
 31
0.0
  0
ARC
  5
A5CA
330
A487
100
AcDbEntity
  8
1
  6
Continuous
100
AcDbCircle
 10
196.5362899999998
 20
86.46706599999998
 30
0.0
 40
2.0
100
AcDbArc
 50
3.486353999999998
 51
90.0
  0
ARC
  5
A5CB
330
A487
100
AcDbEntity
  8
1
  6
Continuous
100
AcDbCircle
 10
48.810193
 20
77.467066
 30
0.0
 40
150.0
100
AcDbArc
 50
356.513646
 51
3.486353999999998
  0
ARC
  5
A5CC
330
A487
100
AcDbEntity
  8
1
  6
Continuous
100
AcDbCircle
 10
196.5362899999998
 20
68.467066
 30
0.0
 40
2.0
100
AcDbArc
 50
270.0
 51
356.513646
  0
LINE
  5
A5CD
330
A487
100
AcDbEntity
  8
1
  6
Continuous
100
AcDbLine
 10
165.310193
 20
66.467066
 30
0.0
 11
165.310193
 21
56.967066
 31
0.0
  0
ARC
  5
A5CE
330
A487
100
AcDbEntity
  8
1
  6
Continuous
100
AcDbCircle
 10
166.6492929999998
 20
88.31706599999998
 30
0.0
 40
1.0
100
AcDbArc
 50
124.009135
 51
170.0
  0
LINE
  5
A5CF
330
A487
100
AcDbEntity
  8
1
  6
Continuous
100
AcDbLine
 10
181.955901
 20
88.49071399999997
 30
0.0
 11
181.9600709999999
 21
88.467066
 31
0.0
  0
ARC
  5
A5D0
330
A487
100
AcDbEntity
  8
1
  6
Continuous
100
AcDbCircle
 10
180.971094
 20
88.31706599999998
 30
0.0
 40
1.0
100
AcDbArc
 50
10.0
 51
55.990865
  0
LINE
  5
A5D1
330
A487
100
AcDbEntity
  8
1
  6
Continuous
100
AcDbLine
 10
165.664485
 20
88.49071399999997
 30
0.0
 11
165.660315
 21
88.467066
 31
0.0
  0
LINE
  5
A5D2
330
A487
100
AcDbEntity
  8
1
  6
Continuous
100
AcDbLine
 10
165.660315
 20
66.467066
 30
0.0
 11
181.9559019999999
 21
66.467066
 31
0.0
  0
LINE
  5
A5D3
330
A487
100
AcDbEntity
  8
1
  6
Continuous
100
AcDbLine
 10
180.971094
 20
65.61706599999999
 30
0.0
 11
166.6492929999998
 21
65.61706599999999
 31
0.0
  0
LINE
  5
A5D4
330
A487
100
AcDbEntity
  8
1
  6
Continuous
100
AcDbLine
 10
170.8101929999999
 20
65.467066
 30
0.0
 11
170.8101929999999
 21
65.61706599999999
 31
0.0
  0
LINE
  5
A5D5
330
A487
100
AcDbEntity
  8
1
  6
Continuous
100
AcDbLine
 10
169.560193
 20
62.53375
 30
0.0
 11
169.560193
 21
63.467066
 31
0.0
  0
LINE
  5
A5D6
330
A487
100
AcDbEntity
  8
1
  6
Continuous
100
AcDbLine
 10
181.955901
 20
66.44341700000001
 30
0.0
 11
181.9600709999999
 21
66.467066
 31
0.0
  0
LINE
  5
A5D7
330
A487
100
AcDbEntity
  8
1
  6
Continuous
100
AcDbLine
 10
176.810193
 20
65.359321
 30
0.0
 11
176.810193
 21
65.61706599999999
 31
0.0
  0
ARC
  5
A5D8
330
A487
100
AcDbEntity
  8
1
  6
Continuous
100
AcDbCircle
 10
180.971094
 20
66.61706600000001
 30
0.0
 40
1.0
100
AcDbArc
 50
270.0
 51
350.0
  0
LINE
  5
A5D9
330
A487
100
AcDbEntity
  8
1
  6
Continuous
100
AcDbLine
 10
178.0601929999999
 20
62.53375
 30
0.0
 11
178.0601929999999
 21
62.812415
 31
0.0
  0
LINE
  5
A5DA
330
A487
100
AcDbEntity
  8
1
  6
Continuous
100
AcDbLine
 10
169.560193
 20
62.53375
 30
0.0
 11
178.0601929999999
 21
62.53375
 31
0.0
  0
ARC
  5
A5DB
330
A487
100
AcDbEntity
  8
1
  6
Continuous
100
AcDbCircle
 10
173.810193
 20
70.467066
 30
0.0
 40
9.0
100
AcDbArc
 50
241.8213569999999
 51
298.178643
  0
LINE
  5
A5DC
330
A487
100
AcDbEntity
  8
1
  6
Continuous
100
AcDbLine
 10
165.664485
 20
66.44341700000001
 30
0.0
 11
165.660315
 21
66.467066
 31
0.0
  0
ARC
  5
A5DD
330
A487
100
AcDbEntity
  8
1
  6
Continuous
100
AcDbCircle
 10
166.6492929999998
 20
66.61706600000001
 30
0.0
 40
1.0
100
AcDbArc
 50
190.0
 51
270.0
  0
LINE
  5
A5DE
330
A487
100
AcDbEntity
  8
1
  6
Continuous
100
AcDbLine
 10
175.586746
 20
63.467066
 30
0.0
 11
165.412132
 21
63.467066
 31
0.0
  0
LINE
  5
A5DF
330
A487
100
AcDbEntity
  8
1
  6
Continuous
100
AcDbLine
 10
175.586746
 20
65.467066
 30
0.0
 11
165.412132
 21
65.467066
 31
0.0
  0
LINE
  5
A5E0
330
A487
100
AcDbEntity
  8
1
  6
Continuous
100
AcDbLine
 10
165.412132
 20
65.467066
 30
0.0
 11
165.412132
 21
63.467066
 31
0.0
  0
LINE
  5
A5E1
330
A487
100
AcDbEntity
  8
4
  6
CENTER
100
AcDbLine
 10
173.810193
 20
47.96706599999999
 30
0.0
 11
173.810193
 21
106.9670659999998
 31
0.0
  0
LINE
  5
A5E2
330
A487
100
AcDbEntity
  8
4
  6
CENTER
100
AcDbLine
 10
173.810193
 20
258.677949
 30
0.0
 11
173.810193
 21
317.677949
 31
0.0
  0
ARC
  5
A5E3
330
A487
100
AcDbEntity
  8
1
  6
Continuous
100
AcDbCircle
 10
191.8101929999999
 20
77.467066
 30
0.0
 40
12.0
100
AcDbArc
 50
246.4435359999999
 51
293.5564639999999
  0
ARC
  5
A5E4
330
A487
100
AcDbEntity
  8
1
  6
Continuous
100
AcDbCircle
 10
191.8101929999999
 20
77.467066
 30
0.0
 40
12.0
100
AcDbArc
 50
66.44353599999999
 51
76.71665400000001
  0
ARC
  5
A5E5
330
A487
100
AcDbEntity
  8
1
  6
Continuous
100
AcDbCircle
 10
191.8101929999999
 20
77.467066
 30
0.0
 40
12.0
100
AcDbArc
 50
303.325733
 51
56.674267
  0
LINE
  5
A5E6
330
A487
100
AcDbEntity
  8
1
  6
Continuous
100
AcDbLine
 10
171.8261929999999
 20
196.0337419999999
 30
0.0
 11
171.8261929999999
 21
200.8699259999999
 31
0.0
  0
LINE
  5
A5E7
330
A487
100
AcDbEntity
  8
1
  6
Continuous
100
AcDbLine
 10
211.794193
 20
196.829442
 30
0.0
 11
211.794193
 21
200.8728749999999
 31
0.0
  0
ARC
  5
A5E8
330
A487
100
AcDbEntity
  8
1
  6
Continuous
100
AcDbCircle
 10
191.8101929999999
 20
77.467066
 30
0.0
 40
19.984
100
AcDbArc
 50
229.5071240000001
 51
77.60441199999998
  0
ARC
  5
A5E9
330
A487
100
AcDbEntity
  8
1
  6
Continuous
100
AcDbCircle
 10
191.8101929999999
 20
77.467066
 30
0.0
 40
17.984
100
AcDbArc
 50
229.5071240000001
 51
77.054884
  0
ARC
  5
A5EA
330
A487
100
AcDbEntity
  8
1
  6
Continuous
100
AcDbCircle
 10
283.863471
 20
157.85351
 30
0.0
 40
53.94802199999999
100
AcDbArc
 50
22.21527
 51
41.77500999999999
  0
ARC
  5
A5EB
330
A487
100
AcDbEntity
  8
1
  6
Continuous
100
AcDbCircle
 10
320.367273
 20
190.463037
 30
0.0
 40
5.0
100
AcDbArc
 50
41.77500999999999
 51
67.87841800000001
  0
ARC
  5
A5EC
330
A487
100
AcDbEntity
  8
1
  6
Continuous
100
AcDbCircle
 10
262.729799
 20
149.213874
 30
0.0
 40
75.15148700000001
100
AcDbArc
 50
22.29494499999999
 51
37.626738
  0
ARC
  5
A5ED
330
A487
100
AcDbEntity
  8
1
  6
Continuous
100
AcDbCircle
 10
327.326534
 20
175.603971
 30
0.0
 40
7.0
100
AcDbArc
 50
352.678513
 51
22.21527
  0
ARC
  5
A5EE
330
A487
100
AcDbEntity
  8
1
  6
Continuous
100
AcDbCircle
 10
331.548198
 20
160.0591469999999
 30
0.0
 40
5.038681999999997
100
AcDbArc
 50
143.5182739999999
 51
180.0
  0
ARC
  5
A5EF
330
A487
100
AcDbEntity
  8
1
  6
Continuous
100
AcDbCircle
 10
310.176432
 20
177.476283
 30
0.0
 40
22.53821999999999
100
AcDbArc
 50
320.2186219999999
 51
354.6058109999998
  0
ARC
  5
A5F0
330
A487
100
AcDbEntity
  8
1
  6
Continuous
100
AcDbCircle
 10
327.636984
 20
175.827561
 30
0.0
 40
5.0
100
AcDbArc
 50
354.6058109999998
 51
22.29494499999999
  0
ARC
  5
A5F1
330
A487
100
AcDbEntity
  8
1
  6
Continuous
100
AcDbCircle
 10
366.2892319999999
 20
149.213874
 30
0.0
 40
75.15148700000001
100
AcDbArc
 50
142.373262
 51
157.7050549999999
  0
ARC
  5
A5F2
330
A487
100
AcDbEntity
  8
1
  6
Continuous
100
AcDbCircle
 10
345.1555599999999
 20
157.85351
 30
0.0
 40
53.94802199999999
100
AcDbArc
 50
138.2249899999999
 51
157.7847299999999
  0
ARC
  5
A5F3
330
A487
100
AcDbEntity
  8
1
  6
Continuous
100
AcDbCircle
 10
301.692496
 20
175.603971
 30
0.0
 40
7.0
100
AcDbArc
 50
157.7847299999999
 51
187.3214869999999
  0
ARC
  5
A5F4
330
A487
100
AcDbEntity
  8
1
  6
Continuous
100
AcDbCircle
 10
301.382046
 20
175.827561
 30
0.0
 40
5.0
100
AcDbArc
 50
157.7050549999999
 51
185.3941889999999
  0
ARC
  5
A5F5
330
A487
100
AcDbEntity
  8
1
  6
Continuous
100
AcDbCircle
 10
318.842599
 20
177.476283
 30
0.0
 40
22.53821999999999
100
AcDbArc
 50
185.3941889999999
 51
221.012037
  0
ARC
  5
A5F6
330
A487
100
AcDbEntity
  8
1
  6
Continuous
100
AcDbCircle
 10
308.6517579999999
 20
190.463037
 30
0.0
 40
5.0
100
AcDbArc
 50
112.1215819999999
 51
138.2249899999999
  0
ARC
  5
A5F7
330
A487
100
AcDbEntity
  8
1
  6
Continuous
100
AcDbCircle
 10
305.5095149999999
 20
190.465137
 30
0.0
 40
2.0
100
AcDbArc
 50
93.486354
 51
113.369854
  0
ARC
  5
A5F8
330
A487
100
AcDbEntity
  8
1
  6
Continuous
100
AcDbCircle
 10
314.5095149999999
 20
42.73903899999999
 30
0.0
 40
150.0
100
AcDbArc
 50
86.51364599999999
 51
93.486354
  0
ARC
  5
A5F9
330
A487
100
AcDbEntity
  8
1
  6
Continuous
100
AcDbCircle
 10
323.5095149999999
 20
190.465137
 30
0.0
 40
2.0
100
AcDbArc
 50
0.0
 51
1.69942
  0
LINE
  5
A5FA
330
A487
100
AcDbEntity
  8
1
  6
Continuous
100
AcDbLine
 10
307.869769
 20
194.838877
 30
0.0
 11
321.149276
 21
194.838877
 31
0.0
  0
ARC
  5
A5FB
330
A487
100
AcDbEntity
  8
1
  6
Continuous
100
AcDbCircle
 10
382.3010719999999
 20
220.461423
 30
0.0
 40
66.30278199999999
100
AcDbArc
 50
202.5463719999999
 51
202.7336329999998
  0
LINE
  5
A5FC
330
A487
100
AcDbEntity
  8
1
  6
Continuous
100
AcDbLine
 10
314.5095149999999
 20
195.038877
 30
0.0
 11
322.3826359999999
 21
195.038877
 31
0.0
  0
LINE
  5
A5FD
330
A487
100
AcDbEntity
  8
1
  6
Continuous
100
AcDbLine
 10
306.6363949999999
 20
195.038877
 30
0.0
 11
314.5095149999999
 21
195.038877
 31
0.0
  0
ARC
  5
A5FE
330
A487
100
AcDbEntity
  8
1
  6
Continuous
100
AcDbCircle
 10
246.7179569999999
 20
220.461423
 30
0.0
 40
66.30278199999999
100
AcDbArc
 50
337.266367
 51
337.453628
  0
ARC
  5
A5FF
330
A487
100
AcDbEntity
  8
1
  6
Continuous
100
AcDbCircle
 10
323.5095149999999
 20
190.465137
 30
0.0
 40
2.0
100
AcDbArc
 50
66.630146
 51
86.51363100000002
  0
ARC
  5
A600
330
A487
100
AcDbEntity
  8
1
  6
Continuous
100
AcDbCircle
 10
305.5095149999999
 20
190.465137
 30
0.0
 40
2.0
100
AcDbArc
 50
178.3005799999999
 51
180.0
  0
LINE
  5
A601
330
A487
100
AcDbEntity
  8
4
  6
CENTER
100
AcDbLine
 10
191.8101929999999
 20
192.587345
 30
0.0
 11
191.8101929999999
 21
213.738742
 31
0.0
  0
ARC
  5
A602
330
A487
100
AcDbEntity
  8
1
  6
Continuous
100
AcDbCircle
 10
314.5095149999999
 20
178.6897189999999
 30
0.0
 40
18.139723
100
AcDbArc
 50
62.354888
 51
117.645112
  0
ARC
  5
A603
330
A487
100
AcDbEntity
  8
1
  6
Continuous
100
AcDbCircle
 10
175.586746
 20
58.467066
 30
0.0
 40
7.0
100
AcDbArc
 50
49.507124
 51
90.0
  0
ARC
  5
A604
330
A487
100
AcDbEntity
  8
1
  6
Continuous
100
AcDbCircle
 10
175.586746
 20
58.467066
 30
0.0
 40
5.0
100
AcDbArc
 50
49.507124
 51
90.0
  0
LINE
  5
A605
330
A487
100
AcDbEntity
  8
4
  6
CENTER
100
AcDbLine
 10
211.810193
 20
213.738742
 30
0.0
 11
211.810193
 21
205.1587419999999
 31
0.0
  0
LINE
  5
A606
330
A487
100
AcDbEntity
  8
4
  6
CENTER
100
AcDbLine
 10
171.8101929999999
 20
213.738742
 30
0.0
 11
171.8101929999999
 21
205.1587419999999
 31
0.0
  0
LINE
  5
A607
330
A487
100
AcDbEntity
  8
4
  6
CENTER
100
AcDbLine
 10
38.810193
 20
213.738742
 30
0.0
 11
38.810193
 21
205.1587419999999
 31
0.0
  0
LINE
  5
A608
330
A487
100
AcDbEntity
  8
4
  6
CENTER
100
AcDbLine
 10
78.810193
 20
213.738742
 30
0.0
 11
78.810193
 21
205.1587419999999
 31
0.0
  0
LINE
  5
A609
330
A487
100
AcDbEntity
  8
4
  6
CENTER
100
AcDbLine
 10
294.5095149999999
 20
213.738742
 30
0.0
 11
294.5095149999999
 21
205.1587419999999
 31
0.0
  0
LINE
  5
A60A
330
A487
100
AcDbEntity
  8
4
  6
CENTER
100
AcDbLine
 10
334.5095149999999
 20
213.738742
 30
0.0
 11
334.5095149999999
 21
205.1587419999999
 31
0.0
  0
ARC
  5
A60B
330
A487
100
AcDbEntity
  8
1
  6
Continuous
100
AcDbCircle
 10
455.2088369999998
 20
167.739039
 30
0.0
 40
25.0
100
AcDbArc
 50
164.706487
 51
93.27197299999999
  0
LINE
  5
A60C
330
A487
100
AcDbEntity
  8
4
  6
CENTER
100
AcDbLine
 10
427.208837
 20
167.739039
 30
0.0
 11
483.208837
 21
167.739039
 31
0.0
  0
LINE
  5
A60D
330
A487
100
AcDbEntity
  8
4
  6
CENTER
100
AcDbLine
 10
455.2088369999998
 20
139.7390389999999
 30
0.0
 11
455.2088369999998
 21
195.739039
 31
0.0
  0
LINE
  5
A60E
330
A487
100
AcDbEntity
  8
1
  6
Continuous
100
AcDbLine
 10
410.708837
 20
210.738742
 30
0.0
 11
463.7088369999998
 21
210.738742
 31
0.0
  0
LINE
  5
A60F
330
A487
100
AcDbEntity
  8
1
  6
Continuous
100
AcDbLine
 10
410.708837
 20
208.738742
 30
0.0
 11
463.7088369999998
 21
208.738742
 31
0.0
  0
LINE
  5
A610
330
A487
100
AcDbEntity
  8
4
  6
CENTER
100
AcDbLine
 10
437.208837
 20
192.587345
 30
0.0
 11
437.208837
 21
213.738742
 31
0.0
  0
LINE
  5
A611
330
A487
100
AcDbEntity
  8
1
  6
Continuous
100
AcDbLine
 10
457.192837
 20
196.0337419999999
 30
0.0
 11
457.192837
 21
200.8699259999999
 31
0.0
  0
ARC
  5
A612
330
A487
100
AcDbEntity
  8
1
  6
Continuous
100
AcDbCircle
 10
396.620218
 20
182.6714169999999
 30
0.0
 40
25.0
100
AcDbArc
 50
20.697072
 51
34.494075
  0
ARC
  5
A613
330
A487
100
AcDbEntity
  8
1
  6
Continuous
100
AcDbCircle
 10
471.2092789999998
 20
212.397118
 30
0.0
 40
55.3
100
AcDbArc
 50
202.194885
 51
249.4392649999998
  0
ARC
  5
A614
330
A487
100
AcDbEntity
  8
1
  6
Continuous
100
AcDbCircle
 10
514.5057299999998
 20
208.315966
 30
0.0
 40
62.7
100
AcDbArc
 50
193.540356
 51
213.493585
  0
ARC
  5
A615
330
A487
100
AcDbEntity
  8
1
  6
Continuous
100
AcDbCircle
 10
454.878476
 20
168.859147
 30
0.0
 40
8.8
100
AcDbArc
 50
249.4392649999998
 51
33.49358499999999
  0
LINE
  5
A616
330
A487
100
AcDbEntity
  8
1
  6
Continuous
100
AcDbLine
 10
457.192837
 20
196.0337419999999
 30
0.0
 11
455.508513
 21
196.0337419999999
 31
0.0
  0
ARC
  5
A617
330
A487
100
AcDbEntity
  8
1
  6
Continuous
100
AcDbCircle
 10
455.508513
 20
194.0337419999999
 30
0.0
 40
2.0
100
AcDbArc
 50
90.0
 51
191.47085
  0
LINE
  5
A618
330
A487
100
AcDbEntity
  8
1
  6
Continuous
100
AcDbLine
 10
445.723137
 20
205.1587419999999
 30
0.0
 11
443.723137
 21
202.733742
 31
0.0
  0
LINE
  5
A619
330
A487
100
AcDbEntity
  8
1
  6
Continuous
100
AcDbLine
 10
443.8444579999998
 20
205.1587419999999
 30
0.0
 11
445.844458
 21
202.733742
 31
0.0
  0
LINE
  5
A61A
330
A487
100
AcDbEntity
  8
1
  6
Continuous
100
AcDbLine
 10
418.873837
 20
202.733742
 30
0.0
 11
455.543837
 21
202.733742
 31
0.0
  0
LINE
  5
A61B
330
A487
100
AcDbEntity
  8
1
  6
Continuous
100
AcDbLine
 10
418.873837
 20
207.1587419999999
 30
0.0
 11
455.163583
 21
207.1587419999999
 31
0.0
  0
LINE
  5
A61C
330
A487
100
AcDbEntity
  8
1
  6
Continuous
100
AcDbLine
 10
418.873837
 20
205.1587419999999
 30
0.0
 11
455.543837
 21
205.1587419999999
 31
0.0
  0
LINE
  5
A61D
330
A487
100
AcDbEntity
  8
1
  6
Continuous
100
AcDbLine
 10
463.7088369999998
 20
208.738742
 30
0.0
 11
463.7088369999998
 21
210.738742
 31
0.0
  0
LINE
  5
A61E
330
A487
100
AcDbEntity
  8
4
  6
CENTER
100
AcDbLine
 10
457.208837
 20
213.738742
 30
0.0
 11
457.208837
 21
205.1587419999999
 31
0.0
  0
LINE
  5
A61F
330
A487
100
AcDbEntity
  8
1
  6
Continuous
100
AcDbLine
 10
452.087098
 20
205.1587419999999
 30
0.0
 11
450.087098
 21
202.733742
 31
0.0
  0
LINE
  5
A620
330
A487
100
AcDbEntity
  8
1
  6
Continuous
100
AcDbLine
 10
450.2084189999997
 20
205.1587419999999
 30
0.0
 11
452.208419
 21
202.733742
 31
0.0
  0
LINE
  5
A621
330
A487
100
AcDbEntity
  8
1
  6
Continuous
100
AcDbLine
 10
447.8444579999998
 20
205.1587419999999
 30
0.0
 11
445.844458
 21
202.733742
 31
0.0
  0
LINE
  5
A622
330
A487
100
AcDbEntity
  8
1
  6
Continuous
100
AcDbLine
 10
445.9657779999998
 20
205.1587419999999
 30
0.0
 11
447.965778
 21
202.733742
 31
0.0
  0
LINE
  5
A623
330
A487
100
AcDbEntity
  8
1
  6
Continuous
100
AcDbLine
 10
449.9657779999998
 20
205.1587419999999
 30
0.0
 11
447.965778
 21
202.733742
 31
0.0
  0
LINE
  5
A624
330
A487
100
AcDbEntity
  8
1
  6
Continuous
100
AcDbLine
 10
448.087098
 20
205.1587419999999
 30
0.0
 11
450.087098
 21
202.733742
 31
0.0
  0
ARC
  5
A625
330
A487
100
AcDbEntity
  8
1
  6
Continuous
100
AcDbCircle
 10
454.853498
 20
200.333742
 30
0.0
 40
2.399999999999999
100
AcDbArc
 50
12.909393
 51
90.0
  0
LINE
  5
A626
330
A487
100
AcDbEntity
  8
1
  6
Continuous
100
AcDbLine
 10
452.1793999999998
 20
205.1587419999999
 30
0.0
 11
454.1794
 21
202.733742
 31
0.0
  0
LINE
  5
A627
330
A487
100
AcDbEntity
  8
1
  6
Continuous
100
AcDbLine
 10
454.0580799999998
 20
205.1587419999999
 30
0.0
 11
452.0580799999998
 21
202.733742
 31
0.0
  0
LINE
  5
A628
330
A487
100
AcDbEntity
  8
1
  6
Continuous
100
AcDbLine
 10
455.543837
 20
207.1587419999999
 30
0.0
 11
455.543837
 21
202.733742
 31
0.0
  0
LINE
  5
A629
330
A487
100
AcDbEntity
  8
1
  6
Continuous
100
AcDbLine
 10
455.543837
 20
203.490625
 30
0.0
 11
454.3007199999998
 21
205.1587419999999
 31
0.0
  0
LINE
  5
A62A
330
A487
100
AcDbEntity
  8
1
  6
Continuous
100
AcDbLine
 10
455.543837
 20
204.5231789999998
 30
0.0
 11
454.1794
 21
202.733742
 31
0.0
  0
ARC
  5
A62B
330
A487
100
AcDbEntity
  8
1
  6
Continuous
100
AcDbCircle
 10
455.163583
 20
210.674434
 30
0.0
 40
3.515692
100
AcDbArc
 50
270.0
 51
326.5927549999998
  0
LINE
  5
A62C
330
A487
100
AcDbEntity
  8
1
  6
Continuous
100
AcDbLine
 10
430.873895
 20
205.1587419999999
 30
0.0
 11
428.8738949999998
 21
202.733742
 31
0.0
  0
LINE
  5
A62D
330
A487
100
AcDbEntity
  8
1
  6
Continuous
100
AcDbLine
 10
428.9952149999998
 20
205.1587419999999
 30
0.0
 11
430.9952149999999
 21
202.733742
 31
0.0
  0
LINE
  5
A62E
330
A487
100
AcDbEntity
  8
1
  6
Continuous
100
AcDbLine
 10
443.6018169999998
 20
205.1587419999999
 30
0.0
 11
441.601817
 21
202.733742
 31
0.0
  0
LINE
  5
A62F
330
A487
100
AcDbEntity
  8
1
  6
Continuous
100
AcDbLine
 10
441.723137
 20
205.1587419999999
 30
0.0
 11
443.723137
 21
202.733742
 31
0.0
  0
LINE
  5
A630
330
A487
100
AcDbEntity
  8
1
  6
Continuous
100
AcDbLine
 10
439.3591759999998
 20
205.1587419999999
 30
0.0
 11
437.359176
 21
202.733742
 31
0.0
  0
LINE
  5
A631
330
A487
100
AcDbEntity
  8
1
  6
Continuous
100
AcDbLine
 10
437.4804969999998
 20
205.1587419999999
 30
0.0
 11
439.480497
 21
202.733742
 31
0.0
  0
LINE
  5
A632
330
A487
100
AcDbEntity
  8
1
  6
Continuous
100
AcDbLine
 10
441.4804969999998
 20
205.1587419999999
 30
0.0
 11
439.480497
 21
202.733742
 31
0.0
  0
LINE
  5
A633
330
A487
100
AcDbEntity
  8
1
  6
Continuous
100
AcDbLine
 10
439.6018169999998
 20
205.1587419999999
 30
0.0
 11
441.601817
 21
202.733742
 31
0.0
  0
LINE
  5
A634
330
A487
100
AcDbEntity
  8
1
  6
Continuous
100
AcDbLine
 10
435.1165349999998
 20
205.1587419999999
 30
0.0
 11
433.1165349999998
 21
202.733742
 31
0.0
  0
LINE
  5
A635
330
A487
100
AcDbEntity
  8
1
  6
Continuous
100
AcDbLine
 10
433.2378559999998
 20
205.1587419999999
 30
0.0
 11
435.237856
 21
202.733742
 31
0.0
  0
LINE
  5
A636
330
A487
100
AcDbEntity
  8
1
  6
Continuous
100
AcDbLine
 10
432.9952149999998
 20
205.1587419999999
 30
0.0
 11
430.9952149999999
 21
202.733742
 31
0.0
  0
LINE
  5
A637
330
A487
100
AcDbEntity
  8
1
  6
Continuous
100
AcDbLine
 10
431.1165349999998
 20
205.1587419999999
 30
0.0
 11
433.1165349999998
 21
202.733742
 31
0.0
  0
LINE
  5
A638
330
A487
100
AcDbEntity
  8
1
  6
Continuous
100
AcDbLine
 10
437.2378559999998
 20
205.1587419999999
 30
0.0
 11
435.237856
 21
202.733742
 31
0.0
  0
LINE
  5
A639
330
A487
100
AcDbEntity
  8
1
  6
Continuous
100
AcDbLine
 10
435.3591759999998
 20
205.1587419999999
 30
0.0
 11
437.359176
 21
202.733742
 31
0.0
  0
LINE
  5
A63A
330
A487
100
AcDbEntity
  8
4
  6
CENTER
100
AcDbLine
 10
417.2088369999998
 20
213.738742
 30
0.0
 11
417.2088369999998
 21
205.1587419999999
 31
0.0
  0
ARC
  5
A63B
330
A487
100
AcDbEntity
  8
1
  6
Continuous
100
AcDbCircle
 10
419.5634979999998
 20
200.333742
 30
0.0
 40
2.399999999999999
100
AcDbArc
 50
90.0
 51
167.018356
  0
LINE
  5
A63C
330
A487
100
AcDbEntity
  8
1
  6
Continuous
100
AcDbLine
 10
418.873837
 20
204.5231789999998
 30
0.0
 11
420.238274
 21
202.733742
 31
0.0
  0
LINE
  5
A63D
330
A487
100
AcDbEntity
  8
1
  6
Continuous
100
AcDbLine
 10
420.116954
 20
205.1587419999999
 30
0.0
 11
418.873837
 21
203.490625
 31
0.0
  0
LINE
  5
A63E
330
A487
100
AcDbEntity
  8
1
  6
Continuous
100
AcDbLine
 10
418.873837
 20
207.1587419999999
 30
0.0
 11
418.873837
 21
202.733742
 31
0.0
  0
LINE
  5
A63F
330
A487
100
AcDbEntity
  8
1
  6
Continuous
100
AcDbLine
 10
426.7235559999998
 20
205.1587419999999
 30
0.0
 11
428.723556
 21
202.733742
 31
0.0
  0
LINE
  5
A640
330
A487
100
AcDbEntity
  8
1
  6
Continuous
100
AcDbLine
 10
428.6022349999998
 20
205.1587419999999
 30
0.0
 11
426.6022349999998
 21
202.733742
 31
0.0
  0
LINE
  5
A641
330
A487
100
AcDbEntity
  8
1
  6
Continuous
100
AcDbLine
 10
422.4809149999998
 20
205.1587419999999
 30
0.0
 11
424.480915
 21
202.733742
 31
0.0
  0
LINE
  5
A642
330
A487
100
AcDbEntity
  8
1
  6
Continuous
100
AcDbLine
 10
424.359595
 20
205.1587419999999
 30
0.0
 11
422.3595949999998
 21
202.733742
 31
0.0
  0
LINE
  5
A643
330
A487
100
AcDbEntity
  8
1
  6
Continuous
100
AcDbLine
 10
420.359595
 20
205.1587419999999
 30
0.0
 11
422.3595949999998
 21
202.733742
 31
0.0
  0
LINE
  5
A644
330
A487
100
AcDbEntity
  8
1
  6
Continuous
100
AcDbLine
 10
422.2382739999998
 20
205.1587419999999
 30
0.0
 11
420.238274
 21
202.733742
 31
0.0
  0
LINE
  5
A645
330
A487
100
AcDbEntity
  8
1
  6
Continuous
100
AcDbLine
 10
424.6022349999998
 20
205.1587419999999
 30
0.0
 11
426.6022349999998
 21
202.733742
 31
0.0
  0
LINE
  5
A646
330
A487
100
AcDbEntity
  8
1
  6
Continuous
100
AcDbLine
 10
426.4809149999998
 20
205.1587419999999
 30
0.0
 11
424.480915
 21
202.733742
 31
0.0
  0
LINE
  5
A647
330
A487
100
AcDbEntity
  8
1
  6
Continuous
100
AcDbLine
 10
417.224837
 20
196.829442
 30
0.0
 11
417.224837
 21
200.8728749999999
 31
0.0
  0
ARC
  5
A648
330
A487
100
AcDbEntity
  8
1
  6
Continuous
100
AcDbCircle
 10
419.2540919999998
 20
210.674434
 30
0.0
 40
3.515692
100
AcDbArc
 50
213.407245
 51
270.0
  0
LINE
  5
A649
330
A487
100
AcDbEntity
  8
1
  6
Continuous
100
AcDbLine
 10
410.708837
 20
208.738742
 30
0.0
 11
410.708837
 21
210.738742
 31
0.0
  0
CIRCLE
  5
A64A
330
A487
100
AcDbEntity
  8
1
  6
Continuous
100
AcDbCircle
 10
455.2088369999998
 20
167.739039
 30
0.0
 40
4.25
  0
LINE
  5
A64B
330
A487
100
AcDbEntity
  8
1
  6
Continuous
100
AcDbLine
 10
178.5039049999998
 20
176.3630409999999
 30
0.0
 11
176.715554
 21
199.419885
 31
0.0
  0
LINE
  5
A64C
330
A487
100
AcDbEntity
  8
1
  6
Continuous
100
AcDbLine
 10
449.606899
 20
164.6534629999998
 30
0.0
 11
452.3034759999998
 21
199.419885
 31
0.0
  0
ARC
  5
A64D
330
A487
100
AcDbEntity
  8
1
  6
Continuous
100
AcDbCircle
 10
191.8101929999999
 20
77.467066
 30
0.0
 40
15.984
100
AcDbArc
 50
227.8178519999999
 51
75.401275
  0
ARC
  5
A64E
330
A487
100
AcDbEntity
  8
1
  6
Continuous
100
AcDbCircle
 10
173.810193
 20
167.739039
 30
0.0
 40
15.0
100
AcDbArc
 50
199.77026
 51
293.63264
  0
ARC
  5
A64F
330
A487
100
AcDbEntity
  8
1
  6
Continuous
100
AcDbCircle
 10
173.810193
 20
167.739039
 30
0.0
 40
17.5
100
AcDbArc
 50
93.307576
 51
103.192565
  0
ARC
  5
A650
330
A487
100
AcDbEntity
  8
1
  6
Continuous
100
AcDbCircle
 10
455.512194
 20
167.7374519999998
 30
0.0
 40
15.0
100
AcDbArc
 50
185.2799929999999
 51
83.121138
  0
ARC
  5
A651
330
A487
100
AcDbEntity
  8
1
  6
Continuous
100
AcDbCircle
 10
455.512194
 20
167.7374519999998
 30
0.0
 40
17.5
100
AcDbArc
 50
178.596781
 51
87.704392
  0
LINE
  5
A652
330
A487
100
AcDbEntity
  8
1
  6
Continuous
100
AcDbLine
 10
183.1465289999999
 20
98.64601399999999
 30
0.0
 11
199.7872329999999
 21
98.64601399999999
 31
0.0
  0
LINE
  5
A653
330
A487
100
AcDbEntity
  8
1
  6
Continuous
100
AcDbLine
 10
160.2727889999999
 20
89.64601399999997
 30
0.0
 11
201.05344
 21
89.64601399999997
 31
0.0
  0
LINE
  5
A654
330
A487
100
AcDbEntity
  8
1
  6
Continuous
100
AcDbLine
 10
160.209909
 20
89.14601399999998
 30
0.0
 11
201.05344
 21
89.14601399999998
 31
0.0
  0
ARC
  5
A655
330
A487
100
AcDbEntity
  8
1
  6
Continuous
100
AcDbCircle
 10
194.69963
 20
105.4784139999999
 30
0.0
 40
5.587602999999997
100
AcDbArc
 50
0.0
 51
180.000005
  0
LINE
  5
A656
330
A487
100
AcDbEntity
  8
1
  6
Continuous
100
AcDbLine
 10
156.3598719999999
 20
90.64601399999999
 30
0.0
 11
160.2727899999998
 21
89.64601399999997
 31
0.0
  0
LINE
  5
A657
330
A487
100
AcDbEntity
  8
1
  6
Continuous
100
AcDbLine
 10
156.2360699999999
 20
90.161586
 30
0.0
 11
160.20991
 21
89.14601399999998
 31
0.0
  0
ARC
  5
A658
330
A487
100
AcDbEntity
  8
1
  6
Continuous
100
AcDbCircle
 10
155.1163629999998
 20
97.97946299999999
 30
0.0
 40
5.587602999999997
100
AcDbArc
 50
0.0
 51
93.2952
  0
ARC
  5
A659
330
A487
100
AcDbEntity
  8
1
  6
Continuous
100
AcDbCircle
 10
159.3332059999999
 20
95.64601399999999
 30
0.0
 40
5.0
100
AcDbArc
 50
269.9999969999999
 51
291.2854349999999
  0
LINE
  5
A65A
330
A487
100
AcDbEntity
  8
1
  6
Continuous
100
AcDbLine
 10
160.0616109999999
 20
92.35541500000001
 30
0.0
 11
160.0616109999999
 21
98.05841400000002
 31
0.0
  0
LINE
  5
A65B
330
A487
100
AcDbEntity
  8
1
  6
Continuous
100
AcDbLine
 10
148.886406
 20
93.34430600000001
 30
0.0
 11
148.886406
 21
98.05841400000002
 31
0.0
  0
LINE
  5
A65C
330
A487
100
AcDbEntity
  8
1
  6
Continuous
100
AcDbLine
 10
145.6224719999999
 20
90.64601399999999
 30
0.0
 11
159.3332059999999
 21
90.64601399999999
 31
0.0
  0
LINE
  5
A65D
330
A487
100
AcDbEntity
  8
1
  6
Continuous
100
AcDbLine
 10
147.0603709999998
 20
90.64601399999999
 30
0.0
 11
147.0603709999998
 21
92.24601300000001
 31
0.0
  0
LINE
  5
A65E
330
A487
100
AcDbEntity
  8
1
  6
Continuous
100
AcDbLine
 10
159.2014059999999
 20
92.384125
 30
0.0
 11
152.1333519999998
 21
93.650646
 31
0.0
  0
LINE
  5
A65F
330
A487
100
AcDbEntity
  8
1
  6
Continuous
100
AcDbLine
 10
145.6224719999999
 20
90.14601400000001
 30
0.0
 11
145.6224719999999
 21
90.64601399999999
 31
0.0
  0
LINE
  5
A660
330
A487
100
AcDbEntity
  8
1
  6
Continuous
100
AcDbLine
 10
145.6224719999999
 20
90.14601400000001
 30
0.0
 11
156.3598719999999
 21
90.14601400000001
 31
0.0
  0
LINE
  5
A661
330
A487
100
AcDbEntity
  8
1
  6
Continuous
100
AcDbLine
 10
156.3598719999999
 20
90.14601400000001
 30
0.0
 11
156.3598719999999
 21
90.64601399999999
 31
0.0
  0
LINE
  5
A662
330
A487
100
AcDbEntity
  8
1
  6
Continuous
100
AcDbLine
 10
147.634959
 20
91.176402
 30
0.0
 11
149.7314369999998
 21
93.11160599999999
 31
0.0
  0
LINE
  5
A663
330
A487
100
AcDbEntity
  8
1
  6
Continuous
100
AcDbLine
 10
154.553605
 20
91.178325
 30
0.0
 11
152.467233
 21
93.109668
 31
0.0
  0
LINE
  5
A664
330
A487
100
AcDbEntity
  8
1
  6
Continuous
100
AcDbLine
 10
159.7382129999998
 20
90.66244500000001
 30
0.0
 11
154.000161
 21
91.69063900000001
 31
0.0
  0
ARC
  5
A665
330
A487
100
AcDbEntity
  8
1
  6
Continuous
100
AcDbCircle
 10
154.4740079999999
 20
97.97946299999999
 30
0.0
 40
5.587602999999997
100
AcDbArc
 50
0.0
 51
180.000005
  0
ARC
  5
A666
330
A487
100
AcDbEntity
  8
1
  6
Continuous
100
AcDbCircle
 10
151.0603709999998
 20
87.66268499999998
 30
0.0
 40
6.083332999999998
100
AcDbArc
 50
79.84101099999998
 51
131.1120929999999
  0
ARC
  5
A667
330
A487
100
AcDbEntity
  8
1
  6
Continuous
100
AcDbCircle
 10
151.0982909999999
 20
91.63084000000001
 30
0.0
 40
2.015176999999999
100
AcDbArc
 50
47.209755
 51
132.7091959999999
  0
ARC
  5
A668
330
A487
100
AcDbEntity
  8
1
  6
Continuous
100
AcDbCircle
 10
155.9122379999998
 20
92.64601400000001
 30
0.0
 40
2.0
100
AcDbArc
 50
227.209757
 51
269.9999969999999
  0
ARC
  5
A669
330
A487
100
AcDbEntity
  8
1
  6
Continuous
100
AcDbCircle
 10
146.2784069999999
 20
92.64601400000001
 30
0.0
 40
2.0
100
AcDbArc
 50
269.9999969999999
 51
312.709198
  0
LINE
  5
A66A
330
A487
100
AcDbEntity
  8
1
  6
Continuous
100
AcDbLine
 10
164.8058859999999
 20
92.046016
 30
0.0
 11
179.5241499999999
 21
92.046016
 31
0.0
  0
ARC
  5
A66B
330
A487
100
AcDbEntity
  8
1
  6
Continuous
100
AcDbCircle
 10
170.4497579999998
 20
104.65883
 30
0.0
 40
11.101174
100
AcDbArc
 50
272.359324
 51
301.5730759999998
  0
ARC
  5
A66C
330
A487
100
AcDbEntity
  8
1
  6
Continuous
100
AcDbCircle
 10
170.906753
 20
103.6460139999999
 30
0.0
 40
11.59999999999999
100
AcDbArc
 50
269.9999969999999
 51
302.3806739999999
  0
LINE
  5
A66D
330
A487
100
AcDbEntity
  8
1
  6
Continuous
100
AcDbLine
 10
164.227973
 20
90.403476
 30
0.0
 11
164.44924
 21
91.28854699999999
 31
0.0
  0
LINE
  5
A66E
330
A487
100
AcDbEntity
  8
1
  6
Continuous
100
AcDbLine
 10
160.7039659999998
 20
92.49940700000001
 30
0.0
 11
160.7039659999998
 21
98.05841400000002
 31
0.0
  0
LINE
  5
A66F
330
A487
100
AcDbEntity
  8
1
  6
Continuous
100
AcDbLine
 10
161.14828
 20
90.98709400000002
 30
0.0
 11
162.990815
 21
91.70492900000001
 31
0.0
  0
LINE
  5
A670
330
A487
100
AcDbEntity
  8
1
  6
Continuous
100
AcDbLine
 10
160.2727889999999
 20
89.64601399999997
 30
0.0
 11
160.2727889999999
 21
89.14601399999998
 31
0.0
  0
ARC
  5
A671
330
A487
100
AcDbEntity
  8
1
  6
Continuous
100
AcDbCircle
 10
164.8058859999999
 20
87.04601600000001
 30
0.0
 40
5.0
100
AcDbArc
 50
90.00000300000001
 51
111.2854399999998
  0
ARC
  5
A672
330
A487
100
AcDbEntity
  8
1
  6
Continuous
100
AcDbCircle
 10
163.257831
 20
90.64601399999999
 30
0.0
 40
1.0
100
AcDbArc
 50
269.9999969999999
 51
345.963756
  0
ARC
  5
A673
330
A487
100
AcDbEntity
  8
1
  6
Continuous
100
AcDbCircle
 10
165.419384
 20
91.046016
 30
0.0
 40
1.0
100
AcDbArc
 50
90.00000300000001
 51
165.963761
  0
LINE
  5
A674
330
A487
100
AcDbEntity
  8
1
  6
Continuous
100
AcDbLine
 10
182.2220469999998
 20
93.630229
 30
0.0
 11
184.6308569999999
 21
96.205165
 31
0.0
  0
LINE
  5
A675
330
A487
100
AcDbEntity
  8
1
  6
Continuous
100
AcDbLine
 10
184.6308559999999
 20
90.64601399999999
 30
0.0
 11
184.6308559999999
 21
97.64601400000001
 31
0.0
  0
LINE
  5
A676
330
A487
100
AcDbEntity
  8
1
  6
Continuous
100
AcDbLine
 10
189.112027
 20
98.64601399999999
 30
0.0
 11
189.112027
 21
105.5584139999999
 31
0.0
  0
LINE
  5
A677
330
A487
100
AcDbEntity
  8
1
  6
Continuous
100
AcDbLine
 10
183.1465289999999
 20
97.04601600000003
 30
0.0
 11
184.6308559999999
 21
97.04601600000003
 31
0.0
  0
LINE
  5
A678
330
A487
100
AcDbEntity
  8
1
  6
Continuous
100
AcDbLine
 10
180.468819
 20
97.86855600000002
 30
0.0
 11
176.2621739999999
 21
95.20093100000002
 31
0.0
  0
LINE
  5
A679
330
A487
100
AcDbEntity
  8
1
  6
Continuous
100
AcDbLine
 10
181.3256849999999
 20
96.51734500000001
 30
0.0
 11
177.1190399999999
 21
93.849719
 31
0.0
  0
ARC
  5
A67A
330
A487
100
AcDbEntity
  8
1
  6
Continuous
100
AcDbCircle
 10
185.630856
 20
97.64601400000001
 30
0.0
 40
1.0
100
AcDbArc
 50
90.00000300000001
 51
180.000005
  0
ARC
  5
A67B
330
A487
100
AcDbEntity
  8
1
  6
Continuous
100
AcDbCircle
 10
183.1465289999999
 20
93.64601399999999
 30
0.0
 40
5.0
100
AcDbArc
 50
90.00000300000001
 51
122.380679
  0
ARC
  5
A67C
330
A487
100
AcDbEntity
  8
1
  6
Continuous
100
AcDbCircle
 10
183.1465289999999
 20
93.64601399999999
 30
0.0
 40
3.399999999999999
100
AcDbArc
 50
90.00000300000001
 51
122.380679
  0
ARC
  5
A67D
330
A487
100
AcDbEntity
  8
1
  6
Continuous
100
AcDbCircle
 10
178.5706889999999
 20
97.04601600000003
 30
0.0
 40
5.0
100
AcDbArc
 50
269.9999969999999
 51
316.909153
  0
ARC
  5
A67E
330
A487
100
AcDbEntity
  8
1
  6
Continuous
100
AcDbCircle
 10
185.630856
 20
90.64601399999999
 30
0.0
 40
1.0
100
AcDbArc
 50
179.9999909999999
 51
270.000001
  0
ARC
  5
A67F
330
A487
100
AcDbEntity
  8
1
  6
Continuous
100
AcDbCircle
 10
195.3419849999999
 20
105.4784139999999
 30
0.0
 40
5.587602999999997
100
AcDbArc
 50
0.0
 51
93.2952
  0
LINE
  5
A680
330
A487
100
AcDbEntity
  8
1
  6
Continuous
100
AcDbLine
 10
200.9295879999998
 20
98.04601600000005
 30
0.0
 11
200.9295879999998
 21
105.5584139999999
 31
0.0
  0
LINE
  5
A681
330
A487
100
AcDbEntity
  8
1
  6
Continuous
100
AcDbLine
 10
200.2872329999999
 20
99.14601400000002
 30
0.0
 11
200.2872329999999
 21
105.5584139999999
 31
0.0
  0
LINE
  5
A682
330
A487
100
AcDbEntity
  8
1
  6
Continuous
100
AcDbLine
 10
195.1965709999998
 20
90.64601399999999
 30
0.0
 11
195.1965709999998
 21
97.64601400000001
 31
0.0
  0
LINE
  5
A683
330
A487
100
AcDbEntity
  8
1
  6
Continuous
100
AcDbLine
 10
196.3389259999999
 20
97.04601600000003
 30
0.0
 11
199.929588
 21
97.04601600000003
 31
0.0
  0
LINE
  5
A684
330
A487
100
AcDbEntity
  8
1
  6
Continuous
100
AcDbLine
 10
195.8389259999999
 20
91.746013
 30
0.0
 11
195.8389259999999
 21
96.54601600000004
 31
0.0
  0
LINE
  5
A685
330
A487
100
AcDbEntity
  8
1
  6
Continuous
100
AcDbLine
 10
198.063079
 20
89.64601399999997
 30
0.0
 11
198.063079
 21
90.64601399999999
 31
0.0
  0
LINE
  5
A686
330
A487
100
AcDbEntity
  8
1
  6
Continuous
100
AcDbLine
 10
196.3389259999999
 20
91.246013
 30
0.0
 11
197.9709579999999
 21
91.246013
 31
0.0
  0
LINE
  5
A687
330
A487
100
AcDbEntity
  8
1
  6
Continuous
100
AcDbLine
 10
195.8389259999999
 20
92.64601400000001
 30
0.0
 11
196.196571
 21
92.64601400000001
 31
0.0
  0
LINE
  5
A688
330
A487
100
AcDbEntity
  8
1
  6
Continuous
100
AcDbLine
 10
196.3389259999999
 20
97.04601600000003
 30
0.0
 11
199.7872329999999
 21
97.04601600000003
 31
0.0
  0
ARC
  5
A689
330
A487
100
AcDbEntity
  8
1
  6
Continuous
100
AcDbCircle
 10
199.929588
 20
98.04601600000005
 30
0.0
 40
1.0
100
AcDbArc
 50
269.9999969999999
 51
0.0
  0
ARC
  5
A68A
330
A487
100
AcDbEntity
  8
1
  6
Continuous
100
AcDbCircle
 10
199.7872329999999
 20
99.14601400000002
 30
0.0
 40
0.5
100
AcDbArc
 50
269.9999969999999
 51
0.0
  0
ARC
  5
A68B
330
A487
100
AcDbEntity
  8
1
  6
Continuous
100
AcDbCircle
 10
196.196571
 20
97.64601400000001
 30
0.0
 40
1.0
100
AcDbArc
 50
90.00000300000001
 51
180.000005
  0
ARC
  5
A68C
330
A487
100
AcDbEntity
  8
1
  6
Continuous
100
AcDbCircle
 10
196.3389259999999
 20
96.54601600000004
 30
0.0
 40
0.5
100
AcDbArc
 50
90.00000300000001
 51
180.000005
  0
ARC
  5
A68D
330
A487
100
AcDbEntity
  8
1
  6
Continuous
100
AcDbCircle
 10
196.196571
 20
90.64601399999999
 30
0.0
 40
1.0
100
AcDbArc
 50
179.9999909999999
 51
270.000001
  0
ARC
  5
A68E
330
A487
100
AcDbEntity
  8
1
  6
Continuous
100
AcDbCircle
 10
196.3389259999999
 20
91.746013
 30
0.0
 40
0.5
100
AcDbArc
 50
179.9999909999999
 51
270.000001
  0
ARC
  5
A68F
330
A487
100
AcDbEntity
  8
1
  6
Continuous
100
AcDbCircle
 10
196.0630789999999
 20
90.64601399999999
 30
0.0
 40
2.0
100
AcDbArc
 50
0.0
 51
90.00000300000001
  0
LINE
  5
A690
330
A487
100
AcDbEntity
  8
1
  6
Continuous
100
AcDbLine
 10
299.8095169999999
 20
158.489591
 30
0.0
 11
296.009514
 21
158.489591
 31
0.0
  0
LINE
  5
A691
330
A487
100
AcDbEntity
  8
1
  6
Continuous
100
AcDbLine
 10
300.705711
 20
159.4553469999999
 30
0.0
 11
297.247246
 21
159.939688
 31
0.0
  0
LINE
  5
A692
330
A487
100
AcDbEntity
  8
1
  6
Continuous
100
AcDbLine
 10
299.8095169999999
 20
154.122543
 30
0.0
 11
296.009514
 21
154.122543
 31
0.0
  0
LINE
  5
A693
330
A487
100
AcDbEntity
  8
1
  6
Continuous
100
AcDbLine
 10
300.4095149999999
 20
152.6438729999999
 30
0.0
 11
295.409515
 21
152.6438729999999
 31
0.0
  0
LINE
  5
A694
330
A487
100
AcDbEntity
  8
1
  6
Continuous
100
AcDbLine
 10
295.009514
 20
168.106954
 30
0.0
 11
295.009514
 21
155.122543
 31
0.0
  0
LINE
  5
A695
330
A487
100
AcDbEntity
  8
1
  6
Continuous
100
AcDbLine
 10
293.409515
 20
163.268126
 30
0.0
 11
293.409515
 21
154.643873
 31
0.0
  0
ARC
  5
A696
330
A487
100
AcDbEntity
  8
1
  6
Continuous
100
AcDbCircle
 10
296.009514
 20
159.4895909999999
 30
0.0
 40
1.0
100
AcDbArc
 50
179.9999909999999
 51
270.000001
  0
ARC
  5
A697
330
A487
100
AcDbEntity
  8
1
  6
Continuous
100
AcDbCircle
 10
296.009514
 20
155.122543
 30
0.0
 40
1.0
100
AcDbArc
 50
179.9999909999999
 51
270.000001
  0
ARC
  5
A698
330
A487
100
AcDbEntity
  8
1
  6
Continuous
100
AcDbCircle
 10
295.409515
 20
154.643873
 30
0.0
 40
2.0
100
AcDbArc
 50
179.9999909999999
 51
270.000001
  0
ARC
  5
A699
330
A487
100
AcDbEntity
  8
1
  6
Continuous
100
AcDbCircle
 10
295.0550119999999
 20
169.0047
 30
0.0
 40
16.182312
100
AcDbArc
 50
91.873312
 51
109.2779999999999
  0
ARC
  5
A69A
330
A487
100
AcDbEntity
  8
1
  6
Continuous
100
AcDbCircle
 10
282.2641139999999
 20
166.4541489999998
 30
0.0
 40
1.354603
100
AcDbArc
 50
179.9999909999999
 51
250.72201
  0
ARC
  5
A69B
330
A487
100
AcDbEntity
  8
1
  6
Continuous
100
AcDbCircle
 10
282.2641139999999
 20
167.920931
 30
0.0
 40
1.354603
100
AcDbArc
 50
109.2779999999999
 51
250.72201
  0
ARC
  5
A69C
330
A487
100
AcDbEntity
  8
1
  6
Continuous
100
AcDbCircle
 10
287.159515
 20
153.924644
 30
0.0
 40
16.182312
100
AcDbArc
 50
90.00000300000001
 51
109.2779999999999
  0
ARC
  5
A69D
330
A487
100
AcDbEntity
  8
1
  6
Continuous
100
AcDbCircle
 10
287.159515
 20
181.9172189999999
 30
0.0
 40
16.182312
100
AcDbArc
 50
250.722
 51
269.9999969999999
  0
ARC
  5
A69E
330
A487
100
AcDbEntity
  8
1
  6
Continuous
100
AcDbCircle
 10
287.159515
 20
180.4504359999999
 30
0.0
 40
16.182312
100
AcDbArc
 50
250.722
 51
269.9999969999999
  0
ARC
  5
A69F
330
A487
100
AcDbEntity
  8
1
  6
Continuous
100
AcDbCircle
 10
311.549347
 20
159.9671919999998
 30
0.0
 40
18.013638
100
AcDbArc
 50
149.3074469999999
 51
156.6620409999998
  0
ARC
  5
A6A0
330
A487
100
AcDbEntity
  8
1
  6
Continuous
100
AcDbCircle
 10
293.009514
 20
168.106954
 30
0.0
 40
2.0
100
AcDbArc
 50
0.0
 51
90.00000300000001
  0
ARC
  5
A6A1
330
A487
100
AcDbEntity
  8
1
  6
Continuous
100
AcDbCircle
 10
292.4095149999999
 20
163.268126
 30
0.0
 40
1.0
100
AcDbArc
 50
0.0
 51
90.00000300000001
  0
ARC
  5
A6A2
330
A487
100
AcDbEntity
  8
1
  6
Continuous
100
AcDbCircle
 10
293.009514
 20
163.7349089999999
 30
0.0
 40
2.0
100
AcDbArc
 50
0.0
 51
90.00000300000001
  0
ARC
  5
A6A3
330
A487
100
AcDbEntity
  8
1
  6
Continuous
100
AcDbCircle
 10
295.0550119999999
 20
196.997275
 30
0.0
 40
16.182312
100
AcDbArc
 50
250.722
 51
268.1266879999999
  0
ARC
  5
A6A4
330
A487
100
AcDbEntity
  8
1
  6
Continuous
100
AcDbCircle
 10
290.1596109999999
 20
183.0009879999998
 30
0.0
 40
1.354603
100
AcDbArc
 50
109.2779999999999
 51
250.72201
  0
ARC
  5
A6A5
330
A487
100
AcDbEntity
  8
1
  6
Continuous
100
AcDbCircle
 10
290.1596109999999
 20
181.5342049999999
 30
0.0
 40
1.354603
100
AcDbArc
 50
179.9999909999999
 51
250.72201
  0
ARC
  5
A6A6
330
A487
100
AcDbEntity
  8
1
  6
Continuous
100
AcDbCircle
 10
295.0550119999999
 20
195.5304919999999
 30
0.0
 40
16.182312
100
AcDbArc
 50
250.722
 51
268.1266879999999
  0
LINE
  5
A6A7
330
A487
100
AcDbEntity
  8
1
  6
Continuous
100
AcDbLine
 10
280.909515
 20
167.920931
 30
0.0
 11
280.909515
 21
166.4541489999998
 31
0.0
  0
LINE
  5
A6A8
330
A487
100
AcDbEntity
  8
1
  6
Continuous
100
AcDbLine
 10
292.4095149999999
 20
164.2681259999999
 30
0.0
 11
287.159515
 21
164.2681259999999
 31
0.0
  0
LINE
  5
A6A9
330
A487
100
AcDbEntity
  8
1
  6
Continuous
100
AcDbLine
 10
293.009514
 20
165.7349089999999
 30
0.0
 11
287.159515
 21
165.7349089999999
 31
0.0
  0
LINE
  5
A6AA
330
A487
100
AcDbEntity
  8
1
  6
Continuous
100
AcDbLine
 10
293.009514
 20
170.1069539999998
 30
0.0
 11
287.159515
 21
170.1069539999998
 31
0.0
  0
LINE
  5
A6AB
330
A487
100
AcDbEntity
  8
1
  6
Continuous
100
AcDbLine
 10
294.605537
 20
169.312237
 30
0.0
 11
295.6210809999999
 21
170.532498
 31
0.0
  0
LINE
  5
A6AC
330
A487
100
AcDbEntity
  8
1
  6
Continuous
100
AcDbLine
 10
288.8050119999999
 20
183.0009879999998
 30
0.0
 11
288.8050119999999
 21
181.5342049999999
 31
0.0
  0
ARC
  5
A6AD
330
A487
100
AcDbEntity
  8
1
  6
Continuous
100
AcDbCircle
 10
301.8886299999999
 20
162.503481
 30
0.0
 40
1.0
100
AcDbArc
 50
23.59765
 51
73.35338299999998
  0
LINE
  5
A6AE
330
A487
100
AcDbEntity
  8
1
  6
Continuous
100
AcDbLine
 10
303.3050119999999
 20
163.5247629999998
 30
0.0
 11
303.3050119999999
 21
151.215935
 31
0.0
  0
LINE
  5
A6AF
330
A487
100
AcDbEntity
  8
1
  6
Continuous
100
AcDbLine
 10
302.8050119999999
 20
163.5029319999999
 30
0.0
 11
302.8050119999999
 21
151.215935
 31
0.0
  0
ARC
  5
A6B0
330
A487
100
AcDbEntity
  8
1
  6
Continuous
100
AcDbCircle
 10
299.8095169999999
 20
159.4895909999999
 30
0.0
 40
1.0
100
AcDbArc
 50
269.9999969999999
 51
342.6959969999999
  0
ARC
  5
A6B1
330
A487
100
AcDbEntity
  8
1
  6
Continuous
100
AcDbCircle
 10
297.7625199999998
 20
163.619051
 30
0.0
 40
3.715266999999998
100
AcDbArc
 50
222.1834949999999
 51
262.027854
  0
ARC
  5
A6B2
330
A487
100
AcDbEntity
  8
1
  6
Continuous
100
AcDbCircle
 10
299.8095169999999
 20
155.122543
 30
0.0
 40
1.0
100
AcDbArc
 50
269.9999969999999
 51
0.0
  0
ARC
  5
A6B3
330
A487
100
AcDbEntity
  8
1
  6
Continuous
100
AcDbCircle
 10
300.4095149999999
 20
154.643873
 30
0.0
 40
2.0
100
AcDbArc
 50
269.9999969999999
 51
0.0
  0
LINE
  5
A6B4
330
A487
100
AcDbEntity
  8
1
  6
Continuous
100
AcDbLine
 10
300.8095169999998
 20
158.6730049999999
 30
0.0
 11
300.8095169999998
 21
155.122543
 31
0.0
  0
ARC
  5
A6B5
330
A487
100
AcDbEntity
  8
1
  6
Continuous
100
AcDbCircle
 10
300.782979
 20
175.1411399999998
 30
0.0
 40
1.0
100
AcDbArc
 50
300.0800889999998
 51
5.0
  0
ARC
  5
A6B6
330
A487
100
AcDbEntity
  8
1
  6
Continuous
100
AcDbCircle
 10
303.3929259999998
 20
170.6351369999999
 30
0.0
 40
4.207290999999998
100
AcDbArc
 50
120.0800939999999
 51
202.1630259999998
  0
ARC
  5
A6B7
330
A487
100
AcDbEntity
  8
1
  6
Continuous
100
AcDbCircle
 10
302.461567
 20
164.4196609999999
 30
0.0
 40
1.0
100
AcDbArc
 50
202.1630299999999
 51
253.3533849999999
  0
LINE
  5
A6B8
330
A487
100
AcDbEntity
  8
1
  6
Continuous
100
AcDbLine
 10
302.215031
 20
175.9832369999998
 30
0.0
 11
301.716939
 21
175.939659
 31
0.0
  0
LINE
  5
A6B9
330
A487
100
AcDbEntity
  8
1
  6
Continuous
100
AcDbLine
 10
303.3050119999999
 20
163.5247629999998
 30
0.0
 11
302.215031
 21
175.9832369999998
 31
0.0
  0
LINE
  5
A6BA
330
A487
100
AcDbEntity
  8
1
  6
Continuous
100
AcDbLine
 10
302.8050119999999
 20
163.5029319999999
 30
0.0
 11
301.716939
 21
175.939659
 31
0.0
  0
LINE
  5
A6BB
330
A487
100
AcDbEntity
  8
1
  6
Continuous
100
AcDbLine
 10
301.53545
 20
164.0424139999998
 30
0.0
 11
299.4964949999999
 21
169.0479639999998
 31
0.0
  0
LINE
  5
A6BC
330
A487
100
AcDbEntity
  8
1
  6
Continuous
100
AcDbLine
 10
189.1714419999999
 20
168.4797209999999
 30
0.0
 11
200.2872329999999
 21
164.13092
 31
0.0
  0
LINE
  5
A6BD
330
A487
100
AcDbEntity
  8
1
  6
Continuous
100
AcDbLine
 10
189.7543819999999
 20
169.969748
 30
0.0
 11
200.9295879999998
 21
165.5977019999999
 31
0.0
  0
LINE
  5
A6BE
330
A487
100
AcDbEntity
  8
1
  6
Continuous
100
AcDbLine
 10
195.1965709999998
 20
152.506664
 30
0.0
 11
184.6308569999999
 21
156.873712
 31
0.0
  0
ARC
  5
A6BF
330
A487
100
AcDbEntity
  8
1
  6
Continuous
100
AcDbCircle
 10
188.919534
 20
163.2707849999999
 30
0.0
 40
12.05485099999999
100
AcDbArc
 50
247.428886
 51
358.1818039999998
  0
ARC
  5
A6C0
330
A487
100
AcDbEntity
  8
1
  6
Continuous
100
AcDbCircle
 10
179.1867629999999
 20
179.8239409999999
 30
0.0
 40
23.60437
100
AcDbArc
 50
231.914223
 51
249.045073
  0
ARC
  5
A6C1
330
A487
100
AcDbEntity
  8
1
  6
Continuous
100
AcDbCircle
 10
175.457322
 20
184.2244889999999
 30
0.0
 40
24.177526
100
AcDbArc
 50
262.489805
 51
262.644833
  0
ARC
  5
A6C2
330
A487
100
AcDbEntity
  8
1
  6
Continuous
100
AcDbCircle
 10
170.611525
 20
169.128906
 30
0.0
 40
10.0
100
AcDbArc
 50
293.916021
 51
38.492426
  0
ARC
  5
A6C3
330
A487
100
AcDbEntity
  8
1
  6
Continuous
100
AcDbCircle
 10
174.220951
 20
168.5556159999999
 30
0.0
 40
9.572774
100
AcDbArc
 50
296.564543
 51
20.860209
  0
ARC
  5
A6C4
330
A487
100
AcDbEntity
  8
1
  6
Continuous
100
AcDbCircle
 10
150.982364
 20
162.3514899999999
 30
0.0
 40
5.364061999999998
100
AcDbArc
 50
197.8621999999999
 51
356.5262579999999
  0
ARC
  5
A6C5
330
A487
100
AcDbEntity
  8
1
  6
Continuous
100
AcDbCircle
 10
151.0982909999999
 20
162.4178369999999
 30
0.0
 40
4.030352999999998
100
AcDbArc
 50
182.7878049999999
 51
351.4683329999999
  0
LINE
  5
A6C6
330
A487
100
AcDbEntity
  8
1
  6
Continuous
100
AcDbLine
 10
170.1267019999999
 20
158.0275729999998
 30
0.0
 11
184.2925229999999
 21
152.1392899999999
 31
0.0
  0
LINE
  5
A6C7
330
A487
100
AcDbEntity
  8
1
  6
Continuous
100
AcDbLine
 10
184.570867
 20
159.1078129999999
 30
0.0
 11
171.529193
 21
160.266032
 31
0.0
  0
ARC
  5
A6C8
330
A487
100
AcDbEntity
  8
1
  6
Continuous
100
AcDbCircle
 10
184.526637
 20
158.6097719999999
 30
0.0
 40
0.5
100
AcDbArc
 50
346.7276549999998
 51
84.924926
  0
LINE
  5
A6C9
330
A487
100
AcDbEntity
  8
1
  6
Continuous
100
AcDbLine
 10
184.6308569999999
 20
156.873712
 30
0.0
 11
185.0132819999998
 21
158.494982
 31
0.0
  0
LINE
  5
A6CA
330
A487
100
AcDbEntity
  8
1
  6
Continuous
100
AcDbLine
 10
160.210674
 20
180.677759
 30
0.0
 11
159.627733
 21
179.187731
 31
0.0
  0
LINE
  5
A6CB
330
A487
100
AcDbEntity
  8
1
  6
Continuous
100
AcDbLine
 10
160.210674
 20
180.677758
 30
0.0
 11
159.955924
 21
163.739039
 31
0.0
  0
LINE
  5
A6CC
330
A487
100
AcDbEntity
  8
1
  6
Continuous
100
AcDbLine
 10
149.0354679999998
 20
185.0498039999999
 30
0.0
 11
160.210674
 21
180.677759
 31
0.0
  0
LINE
  5
A6CD
330
A487
100
AcDbEntity
  8
1
  6
Continuous
100
AcDbLine
 10
149.0354679999998
 20
185.0498039999999
 30
0.0
 11
148.452529
 21
183.5597769999999
 31
0.0
  0
ARC
  5
A6CE
330
A487
100
AcDbEntity
  8
1
  6
Continuous
100
AcDbCircle
 10
152.2739409999998
 20
173.011055
 30
0.0
 40
6.0
100
AcDbArc
 50
176.652451
 51
238.634679
  0
LINE
  5
A6CF
330
A487
100
AcDbEntity
  8
1
  6
Continuous
100
AcDbLine
 10
148.452529
 20
183.5597769999999
 30
0.0
 11
146.2841789999998
 21
173.36141
 31
0.0
  0
LINE
  5
A6D0
330
A487
100
AcDbEntity
  8
1
  6
Continuous
100
AcDbLine
 10
148.452529
 20
183.5597769999999
 30
0.0
 11
159.627733
 21
179.187731
 31
0.0
  0
LINE
  5
A6D1
330
A487
100
AcDbEntity
  8
1
  6
Continuous
100
AcDbLine
 10
146.2841779999999
 20
173.3614109999998
 30
0.0
 11
156.4951899999998
 21
163.910102
 31
0.0
  0
ARC
  5
A6D2
330
A487
100
AcDbEntity
  8
1
  6
Continuous
100
AcDbCircle
 10
171.448263
 20
163.1260509999999
 30
0.0
 40
15.0
100
AcDbArc
 50
52.69336599999999
 51
96.82270600000004
  0
LINE
  5
A6D3
330
A487
100
AcDbEntity
  8
1
  6
Continuous
100
AcDbLine
 10
169.731683
 20
180.726656
 30
0.0
 11
169.6663009999998
 21
178.019828
 31
0.0
  0
LINE
  5
A6D4
330
A487
100
AcDbEntity
  8
1
  6
Continuous
100
AcDbLine
 10
171.2361989999999
 20
181.8004039999999
 30
0.0
 11
169.6989959999999
 21
179.3732419999998
 31
0.0
  0
LINE
  5
A6D5
330
A487
100
AcDbEntity
  8
1
  6
Continuous
100
AcDbLine
 10
167.1415419999999
 20
181.3100659999999
 30
0.0
 11
169.731684
 21
180.7266549999999
 31
0.0
  0
LINE
  5
A6D6
330
A487
100
AcDbEntity
  8
1
  6
Continuous
100
AcDbLine
 10
160.210674
 20
180.677759
 30
0.0
 11
163.9554149999999
 21
178.7827889999999
 31
0.0
  0
LINE
  5
A6D7
330
A487
100
AcDbEntity
  8
1
  6
Continuous
100
AcDbLine
 10
163.9554139999999
 20
178.7827879999999
 30
0.0
 11
167.141545
 21
181.3100659999999
 31
0.0
  0
LINE
  5
A6D8
330
A487
100
AcDbEntity
  8
1
  6
Continuous
100
AcDbLine
 10
163.9554139999999
 20
178.7827899999999
 30
0.0
 11
163.695028
 21
161.469349
 31
0.0
  0
LINE
  5
A6D9
330
A487
100
AcDbEntity
  8
1
  6
Continuous
100
AcDbLine
 10
189.7543819999999
 20
169.969748
 30
0.0
 11
189.1714419999999
 21
168.4797209999999
 31
0.0
  0
LINE
  5
A6DA
330
A487
100
AcDbEntity
  8
1
  6
Continuous
100
AcDbLine
 10
180.5394699999999
 20
175.0571009999999
 30
0.0
 11
189.171443
 21
168.4797209999999
 31
0.0
  0
LINE
  5
A6DB
330
A487
100
AcDbEntity
  8
1
  6
Continuous
100
AcDbLine
 10
200.2872329999999
 20
164.130921
 30
0.0
 11
195.1965689999999
 21
152.506667
 31
0.0
  0
LINE
  5
A6DC
330
A487
100
AcDbEntity
  8
1
  6
Continuous
100
AcDbLine
 10
200.9295879999998
 20
165.597703
 30
0.0
 11
200.2872329999999
 21
164.130921
 31
0.0
  0
ARC
  5
A6DD
330
A487
100
AcDbEntity
  8
1
  6
Continuous
100
AcDbCircle
 10
179.521255
 20
164.8011429999999
 30
0.0
 40
21.53218499999999
100
AcDbArc
 50
354.903316
 51
27.60529899999999
  0
ARC
  5
A6DE
330
A487
100
AcDbEntity
  8
1
  6
Continuous
100
AcDbCircle
 10
195.8352769999999
 20
260.165551
 30
0.0
 40
5.587602999999997
100
AcDbArc
 50
179.9999909999999
 51
0.00001
  0
ARC
  5
A6DF
330
A487
100
AcDbEntity
  8
1
  6
Continuous
100
AcDbCircle
 10
195.192922
 20
260.165551
 30
0.0
 40
5.587602999999997
100
AcDbArc
 50
179.9999909999999
 51
273.295184
  0
LINE
  5
A6E0
330
A487
100
AcDbEntity
  8
1
  6
Continuous
100
AcDbLine
 10
160.703201
 20
276.5779509999999
 30
0.0
 11
165.310193
 21
276.5779509999999
 31
0.0
  0
LINE
  5
A6E1
330
A487
100
AcDbEntity
  8
1
  6
Continuous
100
AcDbLine
 10
160.766081
 20
276.0779509999999
 30
0.0
 11
165.310193
 21
276.0779509999999
 31
0.0
  0
ARC
  5
A6E2
330
A487
100
AcDbEntity
  8
1
  6
Continuous
100
AcDbCircle
 10
155.1163629999998
 20
267.6655509999998
 30
0.0
 40
5.587602999999997
100
AcDbArc
 50
179.9999909999999
 51
0.00001
  0
LINE
  5
A6E3
330
A487
100
AcDbEntity
  8
1
  6
Continuous
100
AcDbLine
 10
148.886406
 20
272.977952
 30
0.0
 11
148.886406
 21
267.6655509999998
 31
0.0
  0
LINE
  5
A6E4
330
A487
100
AcDbEntity
  8
1
  6
Continuous
100
AcDbLine
 10
160.7039659999998
 20
274.0779509999999
 30
0.0
 11
160.7039659999998
 21
267.6655509999998
 31
0.0
  0
LINE
  5
A6E5
330
A487
100
AcDbEntity
  8
1
  6
Continuous
100
AcDbLine
 10
149.528761
 20
274.0779509999999
 30
0.0
 11
149.528761
 21
267.6655509999998
 31
0.0
  0
ARC
  5
A6E6
330
A487
100
AcDbEntity
  8
1
  6
Continuous
100
AcDbCircle
 10
154.4740079999999
 20
267.6655509999998
 30
0.0
 40
5.587602999999997
100
AcDbArc
 50
179.9999909999999
 51
273.295184
  0
LINE
  5
A6E7
330
A487
100
AcDbEntity
  8
1
  6
Continuous
100
AcDbLine
 10
190.2476749999999
 20
261.677949
 30
0.0
 11
190.2476749999999
 21
260.165551
 31
0.0
  0
LINE
  5
A6E8
330
A487
100
AcDbEntity
  8
1
  6
Continuous
100
AcDbLine
 10
189.60532
 20
261.677949
 30
0.0
 11
189.60532
 21
260.165551
 31
0.0
  0
ARC
  5
A6E9
330
A487
100
AcDbEntity
  8
1
  6
Continuous
100
AcDbCircle
 10
160.766081
 20
168.764018
 30
0.0
 40
107.3139339999999
100
AcDbArc
 50
90.00000300000001
 51
97.80981199999999
  0
ARC
  5
A6EA
330
A487
100
AcDbEntity
  8
1
  6
Continuous
100
AcDbCircle
 10
160.766081
 20
168.764018
 30
0.0
 40
107.81395
100
AcDbArc
 50
90.00000300000001
 51
97.80981199999999
  0
ARC
  5
A6EB
330
A487
100
AcDbEntity
  8
1
  6
Continuous
100
AcDbCircle
 10
159.7039659999998
 20
274.0779509999999
 30
0.0
 40
1.0
100
AcDbArc
 50
0.0
 51
90.00000300000001
  0
ARC
  5
A6EC
330
A487
100
AcDbEntity
  8
1
  6
Continuous
100
AcDbCircle
 10
159.826499
 20
270.0779509999999
 30
0.0
 40
5.0
100
AcDbArc
 50
68.71456499999999
 51
90.970306
  0
LINE
  5
A6ED
330
A487
100
AcDbEntity
  8
1
  6
Continuous
100
AcDbLine
 10
156.8531639999999
 20
275.077951
 30
0.0
 11
160.766082
 21
276.0779509999999
 31
0.0
  0
ARC
  5
A6EE
330
A487
100
AcDbEntity
  8
1
  6
Continuous
100
AcDbCircle
 10
148.3864059999999
 20
272.977952
 30
0.0
 40
0.5
100
AcDbArc
 50
0.0
 51
90.00000300000001
  0
ARC
  5
A6EF
330
A487
100
AcDbEntity
  8
1
  6
Continuous
100
AcDbCircle
 10
148.528761
 20
274.0779509999999
 30
0.0
 40
1.0
100
AcDbArc
 50
0.0
 51
90.00000300000001
  0
ARC
  5
A6F0
330
A487
100
AcDbEntity
  8
1
  6
Continuous
100
AcDbCircle
 10
151.5536629999998
 20
278.0612799999999
 30
0.0
 40
6.083332999999998
100
AcDbArc
 50
228.8879069999999
 51
243.9947689999999
  0
LINE
  5
A6F1
330
A487
100
AcDbEntity
  8
1
  6
Continuous
100
AcDbLine
 10
147.553663
 20
273.477952
 30
0.0
 11
148.3864059999999
 21
273.477952
 31
0.0
  0
LINE
  5
A6F2
330
A487
100
AcDbEntity
  8
1
  6
Continuous
100
AcDbLine
 10
146.1157639999998
 20
275.5779509999999
 30
0.0
 11
146.1157639999998
 21
275.077951
 31
0.0
  0
LINE
  5
A6F3
330
A487
100
AcDbEntity
  8
1
  6
Continuous
100
AcDbLine
 10
147.553663
 20
275.077951
 30
0.0
 11
147.553663
 21
273.477952
 31
0.0
  0
LINE
  5
A6F4
330
A487
100
AcDbEntity
  8
1
  6
Continuous
100
AcDbLine
 10
146.1157639999998
 20
275.077951
 30
0.0
 11
159.7039659999998
 21
275.077951
 31
0.0
  0
LINE
  5
A6F5
330
A487
100
AcDbEntity
  8
1
  6
Continuous
100
AcDbLine
 10
164.998511
 20
272.0779509999999
 30
0.0
 11
165.310193
 21
272.0779509999999
 31
0.0
  0
ARC
  5
A6F6
330
A487
100
AcDbEntity
  8
1
  6
Continuous
100
AcDbCircle
 10
165.912676
 20
274.677949
 30
0.0
 40
1.0
100
AcDbArc
 50
194.0362389999999
 51
232.9520469999999
  0
ARC
  5
A6F7
330
A487
100
AcDbEntity
  8
1
  6
Continuous
100
AcDbCircle
 10
163.751123
 20
275.077951
 30
0.0
 40
1.0
100
AcDbArc
 50
14.036244
 51
90.00000300000001
  0
ARC
  5
A6F8
330
A487
100
AcDbEntity
  8
1
  6
Continuous
100
AcDbCircle
 10
159.525832
 20
268.477952
 30
0.0
 40
5.0
100
AcDbArc
 50
68.71456499999999
 51
76.37141899999999
  0
ARC
  5
A6F9
330
A487
100
AcDbEntity
  8
1
  6
Continuous
100
AcDbCircle
 10
165.299178
 20
278.677949
 30
0.0
 40
5.0
100
AcDbArc
 50
248.71456
 51
269.9999969999999
  0
ARC
  5
A6FA
330
A487
100
AcDbEntity
  8
1
  6
Continuous
100
AcDbCircle
 10
164.998511
 20
277.077951
 30
0.0
 40
5.0
100
AcDbArc
 50
248.71456
 51
269.9999969999999
  0
LINE
  5
A6FB
330
A487
100
AcDbEntity
  8
1
  6
Continuous
100
AcDbLine
 10
161.6415729999999
 20
274.7368709999999
 30
0.0
 11
163.4841079999999
 21
274.019037
 31
0.0
  0
LINE
  5
A6FC
330
A487
100
AcDbEntity
  8
1
  6
Continuous
100
AcDbLine
 10
161.3409069999999
 20
273.1368729999999
 30
0.0
 11
163.1834419999998
 21
272.4190299999999
 31
0.0
  0
LINE
  5
A6FD
330
A487
100
AcDbEntity
  8
1
  6
Continuous
100
AcDbLine
 10
165.299178
 20
273.6779489999999
 30
0.0
 11
165.310193
 21
273.6779489999999
 31
0.0
  0
LINE
  5
A6FE
330
A487
100
AcDbEntity
  8
1
  6
Continuous
100
AcDbLine
 10
164.7212649999999
 20
275.320489
 30
0.0
 11
164.9425319999998
 21
274.435418
 31
0.0
  0
LINE
  5
A6FF
330
A487
100
AcDbEntity
  8
1
  6
Continuous
100
AcDbLine
 10
201.42288
 20
261.677949
 30
0.0
 11
201.42288
 21
260.165551
 31
0.0
  0
LINE
  5
A700
330
A487
100
AcDbEntity
  8
1
  6
Continuous
100
AcDbLine
 10
76.41019200000002
 20
173.7390389999999
 30
0.0
 11
76.41019200000002
 21
161.7390389999999
 31
0.0
  0
ARC
  5
A701
330
A487
100
AcDbEntity
  8
1
  6
Continuous
100
AcDbCircle
 10
85.971141
 20
167.7395389999998
 30
0.0
 40
9.560949
100
AcDbArc
 50
162.4247879999998
 51
197.5752119999999
  0
ARC
  5
A702
330
A487
100
AcDbEntity
  8
1
  6
Continuous
100
AcDbCircle
 10
70.44924300000002
 20
167.7395389999998
 30
0.0
 40
9.560949
100
AcDbArc
 50
342.4247879999999
 51
17.575212
  0
LINE
  5
A703
330
A487
100
AcDbEntity
  8
1
  6
Continuous
100
AcDbLine
 10
80.01019199999998
 20
172.7395389999998
 30
0.0
 11
80.01019199999998
 21
162.738539
 31
0.0
  0
LINE
  5
A704
330
A487
100
AcDbEntity
  8
1
  6
Continuous
100
AcDbLine
 10
76.85648299999998
 20
161.9655389999998
 30
0.0
 11
79.5639
 21
161.9655389999998
 31
0.0
  0
LINE
  5
A705
330
A487
100
AcDbEntity
  8
1
  6
Continuous
100
AcDbLine
 10
76.85648299999998
 20
164.8525389999998
 30
0.0
 11
79.5639
 21
164.8525389999998
 31
0.0
  0
LINE
  5
A706
330
A487
100
AcDbEntity
  8
1
  6
Continuous
100
AcDbLine
 10
76.41019200000002
 20
162.738539
 30
0.0
 11
76.85648299999998
 21
161.9655389999998
 31
0.0
  0
ARC
  5
A707
330
A487
100
AcDbEntity
  8
1
  6
Continuous
100
AcDbCircle
 10
78.966171
 20
163.4085389999999
 30
0.0
 40
2.555979999999999
100
AcDbArc
 50
145.6283629999998
 51
205.6283629999998
  0
ARC
  5
A708
330
A487
100
AcDbEntity
  8
1
  6
Continuous
100
AcDbCircle
 10
78.966192
 20
163.4095389999998
 30
0.0
 40
2.55582
100
AcDbArc
 50
214.3528569999999
 51
214.3839999999999
  0
ARC
  5
A709
330
A487
100
AcDbEntity
  8
1
  6
Continuous
100
AcDbCircle
 10
77.454192
 20
163.4095389999998
 30
0.0
 40
2.55582
100
AcDbArc
 50
325.6159999999998
 51
325.647143
  0
LINE
  5
A70A
330
A487
100
AcDbEntity
  8
1
  6
Continuous
100
AcDbLine
 10
80.01019199999998
 20
162.738539
 30
0.0
 11
79.5639
 21
161.9655389999998
 31
0.0
  0
ARC
  5
A70B
330
A487
100
AcDbEntity
  8
1
  6
Continuous
100
AcDbCircle
 10
77.454212
 20
163.4085389999999
 30
0.0
 40
2.555979999999999
100
AcDbArc
 50
334.371637
 51
34.371637
  0
ARC
  5
A70C
330
A487
100
AcDbEntity
  8
1
  6
Continuous
100
AcDbCircle
 10
77.454212
 20
172.0695389999999
 30
0.0
 40
2.555979999999999
100
AcDbArc
 50
325.6283629999999
 51
25.628363
  0
ARC
  5
A70D
330
A487
100
AcDbEntity
  8
1
  6
Continuous
100
AcDbCircle
 10
78.966171
 20
172.0695389999999
 30
0.0
 40
2.555979999999999
100
AcDbArc
 50
154.371637
 51
214.371637
  0
LINE
  5
A70E
330
A487
100
AcDbEntity
  8
1
  6
Continuous
100
AcDbLine
 10
76.85648299999998
 20
170.6265389999998
 30
0.0
 11
79.5639
 21
170.6265389999998
 31
0.0
  0
LINE
  5
A70F
330
A487
100
AcDbEntity
  8
1
  6
Continuous
100
AcDbLine
 10
76.85648299999998
 20
173.512539
 30
0.0
 11
79.5639
 21
173.512539
 31
0.0
  0
LINE
  5
A710
330
A487
100
AcDbEntity
  8
1
  6
Continuous
100
AcDbLine
 10
76.41019200000002
 20
172.7395389999998
 30
0.0
 11
76.85648299999998
 21
173.512539
 31
0.0
  0
LINE
  5
A711
330
A487
100
AcDbEntity
  8
1
  6
Continuous
100
AcDbLine
 10
80.01019199999998
 20
172.7395389999998
 30
0.0
 11
79.5639
 21
173.512539
 31
0.0
  0
LINE
  5
A712
330
A487
100
AcDbEntity
  8
1
  6
Continuous
100
AcDbLine
 10
80.31019200000001
 20
170.739039
 30
0.0
 11
80.01019199999998
 21
170.739039
 31
0.0
  0
LINE
  5
A713
330
A487
100
AcDbEntity
  8
1
  6
Continuous
100
AcDbLine
 10
80.31019200000001
 20
164.7390389999999
 30
0.0
 11
80.01019199999998
 21
164.7390389999999
 31
0.0
  0
LINE
  5
A714
330
A487
100
AcDbEntity
  8
2
  6
Continuous
100
AcDbLine
 10
80.85169200000001
 20
170.1975389999998
 30
0.0
 11
80.01019199999998
 21
170.1975389999998
 31
0.0
  0
LINE
  5
A715
330
A487
100
AcDbEntity
  8
2
  6
Continuous
100
AcDbLine
 10
80.01019199999998
 20
165.2805389999998
 30
0.0
 11
80.85169200000001
 21
165.2805389999998
 31
0.0
  0
LINE
  5
A716
330
A487
100
AcDbEntity
  8
1
  6
Continuous
100
AcDbLine
 10
81.310192
 20
169.7390389999999
 30
0.0
 11
81.310192
 21
165.7390389999999
 31
0.0
  0
LINE
  5
A717
330
A487
100
AcDbEntity
  8
1
  6
Continuous
100
AcDbLine
 10
80.31019200000001
 20
170.739039
 30
0.0
 11
80.31019200000001
 21
164.7390389999999
 31
0.0
  0
LINE
  5
A718
330
A487
100
AcDbEntity
  8
1
  6
Continuous
100
AcDbLine
 10
81.310192
 20
169.7390389999999
 30
0.0
 11
80.31019200000001
 21
170.739039
 31
0.0
  0
LINE
  5
A719
330
A487
100
AcDbEntity
  8
1
  6
Continuous
100
AcDbLine
 10
81.310192
 20
165.7390389999999
 30
0.0
 11
80.31019200000001
 21
164.7390389999999
 31
0.0
  0
LINE
  5
A71A
330
A487
100
AcDbEntity
  8
1
  6
Continuous
100
AcDbLine
 10
176.810193
 20
98.96706600000001
 30
0.0
 11
176.810193
 21
98.667066
 31
0.0
  0
LINE
  5
A71B
330
A487
100
AcDbEntity
  8
2
  6
Continuous
100
AcDbLine
 10
176.2686929999999
 20
98.667066
 30
0.0
 11
176.2686929999999
 21
99.50856600000001
 31
0.0
  0
LINE
  5
A71C
330
A487
100
AcDbEntity
  8
1
  6
Continuous
100
AcDbLine
 10
171.8101929999999
 20
99.96706600000001
 30
0.0
 11
175.810193
 21
99.96706600000001
 31
0.0
  0
LINE
  5
A71D
330
A487
100
AcDbEntity
  8
1
  6
Continuous
100
AcDbLine
 10
175.810193
 20
99.96706600000001
 30
0.0
 11
176.810193
 21
98.96706600000001
 31
0.0
  0
LINE
  5
A71E
330
A487
100
AcDbEntity
  8
2
  6
Continuous
100
AcDbLine
 10
171.3516929999999
 20
99.50856600000001
 30
0.0
 11
171.3516929999999
 21
98.667066
 31
0.0
  0
LINE
  5
A71F
330
A487
100
AcDbEntity
  8
1
  6
Continuous
100
AcDbLine
 10
171.8101929999999
 20
99.96706600000001
 30
0.0
 11
170.8101929999999
 21
98.96706600000001
 31
0.0
  0
LINE
  5
A720
330
A487
100
AcDbEntity
  8
1
  6
Continuous
100
AcDbLine
 10
170.8101929999999
 20
98.96706600000001
 30
0.0
 11
170.8101929999999
 21
98.667066
 31
0.0
  0
LINE
  5
A721
330
A487
100
AcDbEntity
  8
1
  6
Continuous
100
AcDbLine
 10
170.8101929999999
 20
98.96706600000001
 30
0.0
 11
176.810193
 21
98.96706600000001
 31
0.0
  0
ARC
  5
A722
330
A487
100
AcDbEntity
  8
1
  6
Continuous
100
AcDbCircle
 10
176.3101929999999
 20
102.292358
 30
0.0
 40
7.225291999999997
100
AcDbArc
 50
249.7567339999999
 51
267.9104319999999
  0
LINE
  5
A723
330
A487
100
AcDbEntity
  8
1
  6
Continuous
100
AcDbLine
 10
168.810193
 20
98.667066
 30
0.0
 11
178.810193
 21
98.667066
 31
0.0
  0
LINE
  5
A724
330
A487
100
AcDbEntity
  8
1
  6
Continuous
100
AcDbLine
 10
167.8101929999999
 20
95.06706599999999
 30
0.0
 11
176.0385089999998
 21
95.06706599999999
 31
0.0
  0
ARC
  5
A725
330
A487
100
AcDbEntity
  8
1
  6
Continuous
100
AcDbCircle
 10
176.3101929999999
 20
91.441774
 30
0.0
 40
7.225291999999997
100
AcDbArc
 50
69.75673399999999
 51
110.2432659999999
  0
LINE
  5
A726
330
A487
100
AcDbEntity
  8
1
  6
Continuous
100
AcDbLine
 10
178.810193
 20
98.667066
 30
0.0
 11
178.810193
 21
96.816746
 31
0.0
  0
ARC
  5
A727
330
A487
100
AcDbEntity
  8
1
  6
Continuous
100
AcDbCircle
 10
171.310193
 20
102.292358
 30
0.0
 40
7.225291999999997
100
AcDbArc
 50
249.7567339999999
 51
290.243266
  0
ARC
  5
A728
330
A487
100
AcDbEntity
  8
1
  6
Continuous
100
AcDbCircle
 10
171.310193
 20
91.441774
 30
0.0
 40
7.225291999999997
100
AcDbArc
 50
69.75673399999999
 51
110.2432659999999
  0
LINE
  5
A729
330
A487
100
AcDbEntity
  8
1
  6
Continuous
100
AcDbLine
 10
173.810193
 20
95.513358
 30
0.0
 11
173.810193
 21
98.22077400000001
 31
0.0
  0
LINE
  5
A72A
330
A487
100
AcDbEntity
  8
1
  6
Continuous
100
AcDbLine
 10
168.810193
 20
98.667066
 30
0.0
 11
168.810193
 21
95.06706599999999
 31
0.0
  0
LINE
  5
A72B
330
A487
100
AcDbEntity
  8
1
  6
Continuous
100
AcDbLine
 10
74.91019200000002
 20
173.7390389999999
 30
0.0
 11
76.41019200000002
 21
173.7390389999999
 31
0.0
  0
LINE
  5
A72C
330
A487
100
AcDbEntity
  8
1
  6
Continuous
100
AcDbLine
 10
76.41019200000002
 20
161.7390389999999
 30
0.0
 11
74.91019200000002
 21
161.7390389999999
 31
0.0
  0
LINE
  5
A72D
330
A487
100
AcDbEntity
  8
1
  6
Continuous
100
AcDbLine
 10
79.91019200000002
 20
162.565334
 30
0.0
 11
79.91019200000002
 21
154.643873
 31
0.0
  0
LINE
  5
A72E
330
A487
100
AcDbEntity
  8
1
  6
Continuous
100
AcDbLine
 10
70.487054
 20
169.4894799999999
 30
0.0
 11
71.577028
 21
157.0310059999999
 31
0.0
  0
LINE
  5
A72F
330
A487
100
AcDbEntity
  8
1
  6
Continuous
100
AcDbLine
 10
69.98895400000001
 20
169.445902
 30
0.0
 11
71.078935
 21
156.987428
 31
0.0
  0
ARC
  5
A730
330
A487
100
AcDbEntity
  8
1
  6
Continuous
100
AcDbCircle
 10
69.901041
 20
162.335528
 30
0.0
 40
4.207290999999998
100
AcDbArc
 50
300.0800889999998
 51
22.163025
  0
LINE
  5
A731
330
A487
100
AcDbEntity
  8
1
  6
Continuous
100
AcDbLine
 10
72.91019199999998
 20
152.6438729999999
 30
0.0
 11
77.91019199999998
 21
152.6438729999999
 31
0.0
  0
LINE
  5
A732
330
A487
100
AcDbEntity
  8
1
  6
Continuous
100
AcDbLine
 10
70.91019200000002
 20
158.916166
 30
0.0
 11
70.91019200000002
 21
154.643873
 31
0.0
  0
LINE
  5
A733
330
A487
100
AcDbEntity
  8
1
  6
Continuous
100
AcDbLine
 10
79.048879
 20
159.468016
 30
0.0
 11
77.49411499999998
 21
159.685753
 31
0.0
  0
LINE
  5
A734
330
A487
100
AcDbEntity
  8
1
  6
Continuous
100
AcDbLine
 10
78.309011
 20
159.3037679999999
 30
0.0
 11
75.818273
 21
159.6525839999999
 31
0.0
  0
LINE
  5
A735
330
A487
100
AcDbEntity
  8
1
  6
Continuous
100
AcDbLine
 10
72.91019199999998
 20
156.873712
 30
0.0
 11
77.91019199999998
 21
156.873712
 31
0.0
  0
LINE
  5
A736
330
A487
100
AcDbEntity
  8
1
  6
Continuous
100
AcDbLine
 10
73.51018999999998
 20
158.352382
 30
0.0
 11
77.31019299999998
 21
158.352382
 31
0.0
  0
LINE
  5
A737
330
A487
100
AcDbEntity
  8
1
  6
Continuous
100
AcDbLine
 10
71.078935
 20
156.987428
 30
0.0
 11
71.577028
 21
157.0310059999999
 31
0.0
  0
ARC
  5
A738
330
A487
100
AcDbEntity
  8
1
  6
Continuous
100
AcDbCircle
 10
77.91019199999998
 20
154.643873
 30
0.0
 40
2.0
100
AcDbArc
 50
269.9999969999999
 51
0.0
  0
ARC
  5
A739
330
A487
100
AcDbEntity
  8
1
  6
Continuous
100
AcDbCircle
 10
72.91019199999998
 20
154.643873
 30
0.0
 40
2.0
100
AcDbArc
 50
179.9999909999999
 51
270.000001
  0
ARC
  5
A73A
330
A487
100
AcDbEntity
  8
1
  6
Continuous
100
AcDbCircle
 10
77.91019199999998
 20
158.873712
 30
0.0
 40
2.0
100
AcDbArc
 50
269.9999969999999
 51
0.0
  0
ARC
  5
A73B
330
A487
100
AcDbEntity
  8
1
  6
Continuous
100
AcDbCircle
 10
72.91019199999998
 20
158.873712
 30
0.0
 40
2.0
100
AcDbArc
 50
226.8969989999999
 51
270.000001
  0
ARC
  5
A73C
330
A487
100
AcDbEntity
  8
1
  6
Continuous
100
AcDbCircle
 10
73.51018999999998
 20
159.352382
 30
0.0
 40
1.0
100
AcDbArc
 50
196.5199739999999
 51
270.000001
  0
ARC
  5
A73D
330
A487
100
AcDbEntity
  8
1
  6
Continuous
100
AcDbCircle
 10
77.31019299999998
 20
159.352382
 30
0.0
 40
1.0
100
AcDbArc
 50
269.9999969999999
 51
357.213553
  0
ARC
  5
A73E
330
A487
100
AcDbEntity
  8
1
  6
Continuous
100
AcDbCircle
 10
78.91019200000002
 20
158.4776809999999
 30
0.0
 40
1.0
100
AcDbArc
 50
0.0
 51
82.02785400000001
  0
ARC
  5
A73F
330
A487
100
AcDbEntity
  8
1
  6
Continuous
100
AcDbCircle
 10
77.91019199999998
 20
162.65676
 30
0.0
 40
3.0
100
AcDbArc
 50
211.21929
 51
262.0278589999999
  0
ARC
  5
A740
330
A487
100
AcDbEntity
  8
1
  6
Continuous
100
AcDbCircle
 10
76.23434899999998
 20
162.623592
 30
0.0
 40
3.0
100
AcDbArc
 50
241.663981
 51
262.027855
  0
ARC
  5
A741
330
A487
100
AcDbEntity
  8
1
  6
Continuous
100
AcDbCircle
 10
72.510988
 20
157.8295259999999
 30
0.0
 40
1.0
100
AcDbArc
 50
120.0800939999999
 51
185.0000039999999
  0
LINE
  5
A742
330
A487
100
AcDbEntity
  8
1
  6
Continuous
100
AcDbLine
 10
80.91019200000003
 20
164.2681259999999
 30
0.0
 11
86.16019200000001
 21
164.2681259999999
 31
0.0
  0
LINE
  5
A743
330
A487
100
AcDbEntity
  8
1
  6
Continuous
100
AcDbLine
 10
81.310192
 20
168.640172
 30
0.0
 11
86.16019200000001
 21
168.640172
 31
0.0
  0
LINE
  5
A744
330
A487
100
AcDbEntity
  8
1
  6
Continuous
100
AcDbLine
 10
80.94227700000002
 20
170.1069539999998
 30
0.0
 11
86.16019200000001
 21
170.1069539999998
 31
0.0
  0
ARC
  5
A745
330
A487
100
AcDbEntity
  8
1
  6
Continuous
100
AcDbCircle
 10
78.66019200000002
 20
169.0047
 30
0.0
 40
16.182312
100
AcDbArc
 50
70.72199799999999
 51
90.00000300000001
  0
ARC
  5
A746
330
A487
100
AcDbEntity
  8
1
  6
Continuous
100
AcDbCircle
 10
78.66019200000002
 20
195.5304919999999
 30
0.0
 40
16.182312
100
AcDbArc
 50
269.9999969999999
 51
289.278002
  0
ARC
  5
A747
330
A487
100
AcDbEntity
  8
1
  6
Continuous
100
AcDbCircle
 10
78.66019200000002
 20
167.537918
 30
0.0
 40
16.182312
100
AcDbArc
 50
70.72199799999999
 51
90.00000300000001
  0
LINE
  5
A748
330
A487
100
AcDbEntity
  8
1
  6
Continuous
100
AcDbLine
 10
70.48895400000002
 20
187.62663
 30
0.0
 11
70.48895400000002
 21
169.4677659999999
 31
0.0
  0
LINE
  5
A749
330
A487
100
AcDbEntity
  8
1
  6
Continuous
100
AcDbLine
 10
69.98895400000001
 20
187.62663
 30
0.0
 11
69.98895400000001
 21
169.445902
 31
0.0
  0
ARC
  5
A74A
330
A487
100
AcDbEntity
  8
1
  6
Continuous
100
AcDbCircle
 10
73.91019200000002
 20
183.187011
 30
0.0
 40
2.0
100
AcDbArc
 50
90.00000300000001
 51
180.000005
  0
LINE
  5
A74B
330
A487
100
AcDbEntity
  8
1
  6
Continuous
100
AcDbLine
 10
74.51019000000002
 20
179.348182
 30
0.0
 11
78.66019200000002
 21
179.348182
 31
0.0
  0
LINE
  5
A74C
330
A487
100
AcDbEntity
  8
1
  6
Continuous
100
AcDbLine
 10
74.51019000000002
 20
183.7202279999999
 30
0.0
 11
78.66019200000002
 21
183.7202279999999
 31
0.0
  0
LINE
  5
A74D
330
A487
100
AcDbEntity
  8
1
  6
Continuous
100
AcDbLine
 10
73.51018999999998
 20
173.36141
 30
0.0
 11
73.51018999999998
 21
182.7202279999999
 31
0.0
  0
LINE
  5
A74E
330
A487
100
AcDbEntity
  8
1
  6
Continuous
100
AcDbLine
 10
72.72904
 20
166.5456639999999
 30
0.0
 11
73.33702999999998
 21
169.597146
 31
0.0
  0
LINE
  5
A74F
330
A487
100
AcDbEntity
  8
1
  6
Continuous
100
AcDbLine
 10
73.92656599999998
 20
164.525621
 30
0.0
 11
74.93702399999998
 21
169.597147
 31
0.0
  0
LINE
  5
A750
330
A487
100
AcDbEntity
  8
1
  6
Continuous
100
AcDbLine
 10
71.758516
 20
168.9282509999999
 30
0.0
 11
73.79747900000002
 21
163.9227019999999
 31
0.0
  0
ARC
  5
A751
330
A487
100
AcDbEntity
  8
1
  6
Continuous
100
AcDbCircle
 10
80.91019200000003
 20
163.268126
 30
0.0
 40
1.0
100
AcDbArc
 50
90.00000300000001
 51
154.1580669999999
  0
ARC
  5
A752
330
A487
100
AcDbEntity
  8
1
  6
Continuous
100
AcDbCircle
 10
74.51019000000002
 20
178.348182
 30
0.0
 40
1.0
100
AcDbArc
 50
90.00000300000001
 51
180.000005
  0
ARC
  5
A753
330
A487
100
AcDbEntity
  8
1
  6
Continuous
100
AcDbCircle
 10
74.51019000000002
 20
182.7202279999999
 30
0.0
 40
1.0
100
AcDbArc
 50
90.00000300000001
 51
180.000005
  0
ARC
  5
A754
330
A487
100
AcDbEntity
  8
1
  6
Continuous
100
AcDbCircle
 10
69.61476600000001
 20
170.338781
 30
0.0
 40
3.795426999999998
100
AcDbArc
 50
348.7317879999998
 51
52.78644400000001
  0
ARC
  5
A755
330
A487
100
AcDbEntity
  8
1
  6
Continuous
100
AcDbCircle
 10
71.21476499999999
 20
170.338781
 30
0.0
 40
3.795426999999998
100
AcDbArc
 50
348.7317879999998
 51
52.78644400000001
  0
ARC
  5
A756
330
A487
100
AcDbEntity
  8
1
  6
Continuous
100
AcDbCircle
 10
71.40533600000002
 20
170.467184
 30
0.0
 40
1.0
100
AcDbArc
 50
203.597265
 51
253.3533849999999
  0
ARC
  5
A757
330
A487
100
AcDbEntity
  8
1
  6
Continuous
100
AcDbCircle
 10
70.83239899999998
 20
168.5510049999998
 30
0.0
 40
1.0
100
AcDbArc
 50
22.163025
 51
73.35338299999998
  0
LINE
  5
A758
330
A487
100
AcDbEntity
  8
1
  6
Continuous
100
AcDbLine
 10
73.91019200000002
 20
185.187011
 30
0.0
 11
78.66019200000002
 21
185.187011
 31
0.0
  0
LINE
  5
A759
330
A487
100
AcDbEntity
  8
1
  6
Continuous
100
AcDbLine
 10
84.91019200000001
 20
181.5342049999999
 30
0.0
 11
84.91019200000001
 21
183.0009879999998
 31
0.0
  0
LINE
  5
A75A
330
A487
100
AcDbEntity
  8
1
  6
Continuous
100
AcDbLine
 10
92.410192
 20
166.4541489999998
 30
0.0
 11
92.410192
 21
167.920931
 31
0.0
  0
ARC
  5
A75B
330
A487
100
AcDbEntity
  8
1
  6
Continuous
100
AcDbCircle
 10
83.55559300000001
 20
183.0009879999998
 30
0.0
 40
1.354603
100
AcDbArc
 50
0.0
 51
70.72199799999999
  0
ARC
  5
A75C
330
A487
100
AcDbEntity
  8
1
  6
Continuous
100
AcDbCircle
 10
83.55559300000001
 20
181.5342049999999
 30
0.0
 40
1.354603
100
AcDbArc
 50
289.278002
 51
70.72199799999999
  0
ARC
  5
A75D
330
A487
100
AcDbEntity
  8
1
  6
Continuous
100
AcDbCircle
 10
86.16019200000001
 20
153.924644
 30
0.0
 40
16.182312
100
AcDbArc
 50
70.72199799999999
 51
90.00000300000001
  0
ARC
  5
A75E
330
A487
100
AcDbEntity
  8
1
  6
Continuous
100
AcDbCircle
 10
86.16019200000001
 20
152.4578619999998
 30
0.0
 40
16.182312
100
AcDbArc
 50
70.72199799999999
 51
90.00000300000001
  0
ARC
  5
A75F
330
A487
100
AcDbEntity
  8
1
  6
Continuous
100
AcDbCircle
 10
86.16019200000001
 20
180.4504359999999
 30
0.0
 40
16.182312
100
AcDbArc
 50
269.9999969999999
 51
289.278002
  0
ARC
  5
A760
330
A487
100
AcDbEntity
  8
1
  6
Continuous
100
AcDbCircle
 10
91.05559300000001
 20
166.4541489999998
 30
0.0
 40
1.354603
100
AcDbArc
 50
289.278002
 51
70.72199799999999
  0
ARC
  5
A761
330
A487
100
AcDbEntity
  8
1
  6
Continuous
100
AcDbCircle
 10
91.05559300000001
 20
167.920931
 30
0.0
 40
1.354603
100
AcDbArc
 50
0.0
 51
70.72199799999999
  0
ARC
  5
A762
330
A487
100
AcDbEntity
  8
1
  6
Continuous
100
AcDbCircle
 10
171.2884449999999
 20
165.121484
 30
0.0
 40
25.79231
100
AcDbArc
 50
164.887439
 51
189.8568339999999
  0
ARC
  5
A763
330
A487
100
AcDbEntity
  8
1
  6
Continuous
100
AcDbCircle
 10
137.2793
 20
164.5797739999999
 30
0.0
 40
19.227556
100
AcDbArc
 50
349.158773
 51
358.004055
  0
ARC
  5
A764
330
A487
100
AcDbEntity
  8
1
  6
Continuous
100
AcDbCircle
 10
157.516523
 20
163.8830909999998
 30
0.0
 40
10.575119
100
AcDbArc
 50
152.908399
 51
196.6817529999999
  0
ARC
  5
A765
330
A487
100
AcDbEntity
  8
1
  6
Continuous
100
AcDbCircle
 10
101.710976
 20
164.060669
 30
0.0
 40
53.420084
100
AcDbArc
 50
357.5959649999999
 51
0.498691
  0
LINE
  5
A766
330
A487
100
AcDbEntity
  8
1
  6
Continuous
100
AcDbLine
 10
74.91019200000002
 20
179.348182
 30
0.0
 11
74.91019200000002
 21
171.2042779999999
 31
0.0
  0
LINE
  5
A767
330
A487
100
AcDbEntity
  8
1
  6
Continuous
100
AcDbLine
 10
74.91019200000002
 20
169.4624729999999
 30
0.0
 11
74.91019200000002
 21
161.406659
 31
0.0
  0
ARC
  5
A768
330
A487
100
AcDbEntity
  8
1
  6
Continuous
100
AcDbCircle
 10
175.2038139999999
 20
207.25804
 30
0.0
 40
47.212884
100
AcDbArc
 50
236.0149869999999
 51
268.2616679999999
  0
LINE
  5
A769
330
A487
100
AcDbEntity
  8
1
  6
Continuous
100
AcDbLine
 10
71.91019200000003
 20
183.1870099999999
 30
0.0
 11
71.91019399999998
 21
168.5558889999998
 31
0.0
  0
LINE
  5
A76A
330
A487
100
AcDbEntity
  8
1
  6
Continuous
100
AcDbLine
 10
73.55188599999998
 20
164.525621
 30
0.0
 11
73.92656599999998
 21
164.525621
 31
0.0
  0
ARC
  5
A76B
330
A487
100
AcDbEntity
  8
1
  6
Continuous
100
AcDbCircle
 10
74.08657499999998
 20
159.770957
 30
0.0
 40
1.831356999999997
100
AcDbArc
 50
46.61098599999999
 51
91.336449
  0
ARC
  5
A76C
330
A487
100
AcDbEntity
  8
1
  6
Continuous
100
AcDbCircle
 10
71.86441499999998
 20
157.878921
 30
0.0
 40
3.620269
100
AcDbArc
 50
35.535627
 51
56.61496999999998
  0
LINE
  5
A76D
330
A487
100
AcDbEntity
  8
1
  6
Continuous
100
AcDbLine
 10
70.48895400000002
 20
187.62663
 30
0.0
 11
69.98895400000001
 21
187.62663
 31
0.0
  0
ARC
  5
A76E
330
A487
100
AcDbEntity
  8
1
  6
Continuous
100
AcDbCircle
 10
162.2697629999999
 20
176.411178
 30
0.0
 40
11.266757
100
AcDbArc
 50
33.250351
 51
142.01016
  0
LINE
  5
A76F
330
A487
100
AcDbEntity
  8
1
  6
Continuous
100
AcDbLine
 10
71.91019200000003
 20
182.588722
 30
0.0
 11
70.48895400000002
 21
182.663206
 31
0.0
  0
LINE
  5
A770
330
A487
100
AcDbEntity
  8
1
  6
Continuous
100
AcDbLine
 10
78.79369
 20
179.3487299999999
 30
0.0
 11
78.79369
 21
178.215551
 31
0.0
  0
LINE
  5
A771
330
A487
100
AcDbEntity
  8
1
  6
Continuous
100
AcDbLine
 10
299.36251
 20
163.268126
 30
0.0
 11
300.636863
 21
159.676058
 31
0.0
  0
LINE
  5
A772
330
A487
100
AcDbEntity
  8
1
  6
Continuous
100
AcDbLine
 10
300.8704279999999
 20
163.803088
 30
0.0
 11
302.1447799999999
 21
160.21102
 31
0.0
  0
LINE
  5
A773
330
A487
100
AcDbEntity
  8
1
  6
Continuous
100
AcDbLine
 10
299.36251
 20
163.268126
 30
0.0
 11
300.8704279999999
 21
163.803088
 31
0.0
  0
ARC
  5
A774
330
A487
100
AcDbEntity
  8
1
  6
Continuous
100
AcDbCircle
 10
297.8095169999999
 20
158.6730049999999
 30
0.0
 40
3.0
100
AcDbArc
 50
0.0
 51
19.53308299999999
  0
ARC
  5
A775
330
A487
100
AcDbEntity
  8
1
  6
Continuous
100
AcDbCircle
 10
297.8095169999999
 20
158.6730049999999
 30
0.0
 40
4.599999999999997
100
AcDbArc
 50
0.0
 51
19.53308299999999
  0
ARC
  5
A776
330
A487
100
AcDbEntity
  8
1
  6
Continuous
100
AcDbCircle
 10
174.2163909999999
 20
109.6623
 30
0.0
 40
18.68732699999998
100
AcDbArc
 50
292.8168319999999
 51
303.869345
  0
ARC
  5
A777
330
A487
100
AcDbEntity
  8
1
  6
Continuous
100
AcDbCircle
 10
179.5241499999999
 20
97.04601600000003
 30
0.0
 40
5.0
100
AcDbArc
 50
270.0
 51
292.8168319999999
  0
ARC
  5
A778
330
A487
100
AcDbEntity
  8
1
  6
Continuous
100
AcDbCircle
 10
291.4058569999999
 20
154.8434489999999
 30
0.0
 40
10.67940499999999
100
AcDbArc
 50
34.532612
 51
46.72042100000001
  0
LINE
  5
A779
330
A487
100
AcDbEntity
  8
1
  6
Continuous
100
AcDbLine
 10
302.8050119999999
 20
162.6015199999999
 30
0.0
 11
301.248391
 21
162.737707
 31
0.0
  0
LINE
  5
A77A
330
A487
100
AcDbEntity
  8
1
  6
Continuous
100
AcDbLine
 10
299.496304
 20
162.8909939999998
 30
0.0
 11
299.219599
 21
162.915203
 31
0.0
  0
LINE
  5
A77B
330
A487
100
AcDbEntity
  8
1
  6
Continuous
100
AcDbLine
 10
302.5095149999998
 20
163.287383
 30
0.0
 11
302.5095149999998
 21
162.627373
 31
0.0
  0
LINE
  5
A77C
330
A487
100
AcDbEntity
  8
1
  6
Continuous
100
AcDbLine
 10
302.6595149999999
 20
170.9027879999998
 30
0.0
 11
302.6595149999999
 21
174.8999389999999
 31
0.0
  0
ARC
  5
A77D
330
A487
100
AcDbEntity
  8
1
  6
Continuous
100
AcDbCircle
 10
299.2413879999999
 20
163.1642519999998
 30
0.0
 40
0.25
100
AcDbArc
 50
173.7579209999999
 51
265.0
  0
ARC
  5
A77E
330
A487
100
AcDbEntity
  8
1
  6
Continuous
100
AcDbCircle
 10
299.2413879999999
 20
163.1642519999998
 30
0.0
 40
0.75
100
AcDbArc
 50
137.5885429999998
 51
226.720421
  0
LINE
  5
A77F
330
A487
100
AcDbEntity
  8
1
  6
Continuous
100
AcDbLine
 10
303.3050119999999
 20
151.215935
 30
0.0
 11
302.8050119999999
 21
151.215935
 31
0.0
  0
LINE
  5
A780
330
A487
100
AcDbEntity
  8
1
  6
Continuous
100
AcDbLine
 10
164.881184
 20
93.567066
 30
0.0
 11
170.906753
 21
93.567066
 31
0.0
  0
LINE
  5
A781
330
A487
100
AcDbEntity
  8
1
  6
Continuous
100
AcDbLine
 10
167.8101929999999
 20
93.567066
 30
0.0
 11
167.8101929999999
 21
95.06706599999999
 31
0.0
  0
LINE
  5
A782
330
A487
100
AcDbEntity
  8
1
  6
Continuous
100
AcDbLine
 10
162.7546429999999
 20
93.20936399999999
 30
0.0
 11
160.712027
 21
92.502185
 31
0.0
  0
ARC
  5
A783
330
A487
100
AcDbEntity
  8
1
  6
Continuous
100
AcDbCircle
 10
164.881184
 20
87.06706599999998
 30
0.0
 40
6.5
100
AcDbArc
 50
90.0
 51
109.096498
  0
ARC
  5
A784
330
A487
100
AcDbEntity
  8
1
  6
Continuous
100
AcDbCircle
 10
159.730547
 20
95.33709100000001
 30
0.0
 40
3.0
100
AcDbArc
 50
259.841018
 51
289.096498
  0
LINE
  5
A785
330
A487
100
AcDbEntity
  8
1
  6
Continuous
100
AcDbLine
 10
165.310193
 20
89.14601399999998
 30
0.0
 11
165.310193
 21
88.467066
 31
0.0
  0
ARC
  5
A786
330
A487
100
AcDbEntity
  8
1
  6
Continuous
100
AcDbCircle
 10
191.8101929999999
 20
77.467066
 30
0.0
 40
12.0
100
AcDbArc
 50
103.2833459999999
 51
113.556464
  0
LINE
  5
A787
330
A487
100
AcDbEntity
  8
1
  6
Continuous
100
AcDbLine
 10
201.05344
 20
89.14601399999998
 30
0.0
 11
201.05344
 21
89.64601399999997
 31
0.0
  0
LINE
  5
A788
330
A487
100
AcDbEntity
  8
1
  6
Continuous
100
AcDbLine
 10
189.112027
 20
103.967066
 30
0.0
 11
171.310193
 21
103.967066
 31
0.0
  0
LINE
  5
A789
330
A487
100
AcDbEntity
  8
5
  6
PHANTOM
100
AcDbLine
 10
159.403196
 20
171.1330809999998
 30
0.0
 11
169.120482
 21
156.8013899999999
 31
0.0
  0
ARC
  5
A78A
330
A487
100
AcDbEntity
  8
5
  6
PHANTOM
100
AcDbCircle
 10
174.5213139999999
 20
162.6055529999999
 30
0.0
 40
15.0
100
AcDbArc
 50
87.69336599999999
 51
131.822706
  0
LINE
  5
A78B
330
A487
100
AcDbEntity
  8
5
  6
PHANTOM
100
AcDbLine
 10
143.964008
 20
166.1540699999999
 30
0.0
 11
148.037343
 21
156.556342
 31
0.0
  0
LINE
  5
A78C
330
A487
100
AcDbEntity
  8
5
  6
PHANTOM
100
AcDbLine
 10
155.248775
 20
170.537453
 30
0.0
 11
164.7557459999999
 21
156.515949
 31
0.0
  0
LINE
  5
A78D
330
A487
100
AcDbEntity
  8
5
  6
PHANTOM
100
AcDbLine
 10
200.065819
 20
167.5281299999998
 30
0.0
 11
188.906057
 21
165.045162
 31
0.0
  0
LINE
  5
A78E
330
A487
100
AcDbEntity
  8
5
  6
PHANTOM
100
AcDbLine
 10
185.591426
 20
178.7115399999999
 30
0.0
 11
197.253321
 21
181.540004
 31
0.0
  0
LINE
  5
A78F
330
A487
100
AcDbEntity
  8
5
  6
PHANTOM
100
AcDbLine
 10
185.968554
 20
177.15662
 30
0.0
 11
197.568446
 21
179.9700469999999
 31
0.0
  0
ARC
  5
A790
330
A487
100
AcDbEntity
  8
5
  6
PHANTOM
100
AcDbCircle
 10
152.2846129999998
 20
200.910458
 30
0.0
 40
47.212884
100
AcDbArc
 50
271.014987
 51
303.2616679999999
  0
LINE
  5
A791
330
A487
100
AcDbEntity
  8
5
  6
PHANTOM
100
AcDbLine
 10
148.037341
 20
156.556343
 30
0.0
 11
161.822761
 21
154.6710799999999
 31
0.0
  0
ARC
  5
A792
330
A487
100
AcDbEntity
  8
5
  6
PHANTOM
100
AcDbCircle
 10
153.144824
 20
159.7049349999998
 30
0.0
 40
6.0
100
AcDbArc
 50
211.652451
 51
273.634679
  0
LINE
  5
A793
330
A487
100
AcDbEntity
  8
5
  6
PHANTOM
100
AcDbLine
 10
187.5754889999998
 20
166.840821
 30
0.0
 11
176.228048
 21
160.3091819999999
 31
0.0
  0
ARC
  5
A794
330
A487
100
AcDbEntity
  8
5
  6
PHANTOM
100
AcDbCircle
 10
170.3928029999999
 20
167.0428699999999
 30
0.0
 40
10.0
100
AcDbArc
 50
328.9160209999999
 51
73.49242599999998
  0
ARC
  5
A795
330
A487
100
AcDbEntity
  8
5
  6
PHANTOM
100
AcDbCircle
 10
165.703777
 20
182.1878829999999
 30
0.0
 40
24.177526
100
AcDbArc
 50
297.4898049999998
 51
297.644833
  0
LINE
  5
A796
330
A487
100
AcDbEntity
  8
5
  6
PHANTOM
100
AcDbLine
 10
175.1250269999999
 20
177.593399
 30
0.0
 11
185.968555
 21
177.156621
 31
0.0
  0
LINE
  5
A797
330
A487
100
AcDbEntity
  8
5
  6
PHANTOM
100
AcDbLine
 10
185.591426
 20
178.7115399999999
 30
0.0
 11
185.968554
 21
177.15662
 31
0.0
  0
LINE
  5
A798
330
A487
100
AcDbEntity
  8
5
  6
PHANTOM
100
AcDbLine
 10
188.906057
 20
165.045162
 30
0.0
 11
188.289399
 21
166.592579
 31
0.0
  0
ARC
  5
A799
330
A487
100
AcDbEntity
  8
5
  6
PHANTOM
100
AcDbCircle
 10
187.8249229999999
 20
166.4074809999999
 30
0.0
 40
0.5
100
AcDbArc
 50
21.727655
 51
119.924926
  0
ARC
  5
A79A
330
A487
100
AcDbEntity
  8
5
  6
PHANTOM
100
AcDbCircle
 10
173.678298
 20
168.643541
 30
0.0
 40
9.572774
100
AcDbArc
 50
331.564543
 51
55.860209
  0
LINE
  5
A79B
330
A487
100
AcDbEntity
  8
5
  6
PHANTOM
100
AcDbLine
 10
197.568446
 20
179.9700469999999
 30
0.0
 11
200.0658159999999
 21
167.528131
 31
0.0
  0
LINE
  5
A79C
330
A487
100
AcDbEntity
  8
5
  6
PHANTOM
100
AcDbLine
 10
197.253321
 20
181.540005
 30
0.0
 11
197.568446
 21
179.9700469999999
 31
0.0
  0
LINE
  5
A79D
330
A487
100
AcDbEntity
  8
5
  6
PHANTOM
100
AcDbLine
 10
143.964008
 20
166.1540699999999
 30
0.0
 11
155.6259019999999
 21
168.9825339999999
 31
0.0
  0
LINE
  5
A79E
330
A487
100
AcDbEntity
  8
5
  6
PHANTOM
100
AcDbLine
 10
143.58688
 20
167.7089889999998
 30
0.0
 11
155.248774
 21
170.537454
 31
0.0
  0
LINE
  5
A79F
330
A487
100
AcDbEntity
  8
5
  6
PHANTOM
100
AcDbLine
 10
143.58688
 20
167.7089889999998
 30
0.0
 11
143.964008
 21
166.1540699999999
 31
0.0
  0
LINE
  5
A7A0
330
A487
100
AcDbEntity
  8
5
  6
PHANTOM
100
AcDbLine
 10
159.403197
 20
171.133079
 30
0.0
 11
160.5635359999999
 21
175.0307939999999
 31
0.0
  0
LINE
  5
A7A1
330
A487
100
AcDbEntity
  8
5
  6
PHANTOM
100
AcDbLine
 10
155.248774
 20
170.537454
 30
0.0
 11
159.403197
 21
171.1330809999998
 31
0.0
  0
LINE
  5
A7A2
330
A487
100
AcDbEntity
  8
5
  6
PHANTOM
100
AcDbLine
 10
160.563533
 20
175.030792
 30
0.0
 11
163.019884
 21
176.038534
 31
0.0
  0
LINE
  5
A7A3
330
A487
100
AcDbEntity
  8
5
  6
PHANTOM
100
AcDbLine
 10
163.0198829999999
 20
176.0385349999999
 30
0.0
 11
164.518897
 21
173.7837299999999
 31
0.0
  0
LINE
  5
A7A4
330
A487
100
AcDbEntity
  8
5
  6
PHANTOM
100
AcDbLine
 10
155.248774
 20
170.537454
 30
0.0
 11
155.6259019999999
 21
168.9825339999999
 31
0.0
  0
ARC
  5
A7A5
330
A487
100
AcDbEntity
  8
1
  6
Continuous
100
AcDbCircle
 10
173.810193
 20
167.739039
 30
0.0
 40
25.0
100
AcDbArc
 50
205.4562559999999
 51
321.044033
  0
ARC
  5
A7A6
330
A487
100
AcDbEntity
  8
1
  6
Continuous
100
AcDbCircle
 10
173.810193
 20
167.739039
 30
0.0
 40
17.5
100
AcDbArc
 50
193.018934
 51
301.042684
  0
CIRCLE
  5
A7A7
330
A487
100
AcDbEntity
  8
1
  6
Continuous
100
AcDbCircle
 10
173.810193
 20
167.739039
 30
0.0
 40
5.0
  0
LINE
  5
A7A8
330
A487
100
AcDbEntity
  8
1
  6
Continuous
100
AcDbLine
 10
168.810193
 20
164.8520389999999
 30
0.0
 11
168.810193
 21
170.6260389999999
 31
0.0
  0
LINE
  5
A7A9
330
A487
100
AcDbEntity
  8
1
  6
Continuous
100
AcDbLine
 10
178.810193
 20
164.8520389999999
 30
0.0
 11
178.810193
 21
170.6260389999999
 31
0.0
  0
LINE
  5
A7AA
330
A487
100
AcDbEntity
  8
1
  6
Continuous
100
AcDbLine
 10
178.810193
 20
164.8520389999999
 30
0.0
 11
173.810193
 21
161.9650389999998
 31
0.0
  0
LINE
  5
A7AB
330
A487
100
AcDbEntity
  8
1
  6
Continuous
100
AcDbLine
 10
168.810193
 20
164.8520389999999
 30
0.0
 11
173.810193
 21
161.9650389999998
 31
0.0
  0
LINE
  5
A7AC
330
A487
100
AcDbEntity
  8
1
  6
Continuous
100
AcDbLine
 10
173.810193
 20
173.5120389999999
 30
0.0
 11
178.810193
 21
170.6260389999999
 31
0.0
  0
LINE
  5
A7AD
330
A487
100
AcDbEntity
  8
1
  6
Continuous
100
AcDbLine
 10
173.810193
 20
173.5120389999999
 30
0.0
 11
168.810193
 21
170.6260389999999
 31
0.0
  0
CIRCLE
  5
A7AE
330
A487
100
AcDbEntity
  8
1
  6
Continuous
100
AcDbCircle
 10
173.810193
 20
167.739039
 30
0.0
 40
2.0
  0
CIRCLE
  5
A7AF
330
A487
100
AcDbEntity
  8
2
  6
Continuous
100
AcDbCircle
 10
173.810193
 20
167.739039
 30
0.0
 40
2.458499999999999
  0
CIRCLE
  5
A7B0
330
A487
100
AcDbEntity
  8
1
  6
Continuous
100
AcDbCircle
 10
173.810193
 20
167.739039
 30
0.0
 40
3.0
  0
LINE
  5
A7B1
330
A487
100
AcDbEntity
  8
1
  6
Continuous
100
AcDbLine
 10
302.4095149999999
 20
158.6767519999999
 30
0.0
 11
302.4095149999999
 21
154.643873
 31
0.0
  0
LINE
  5
A7B2
330
A487
100
AcDbEntity
  8
1
  6
Continuous
100
AcDbLine
 10
70.51519300000002
 20
151.215935
 30
0.0
 11
70.01519300000001
 21
151.215935
 31
0.0
  0
LINE
  5
A7B3
330
A487
100
AcDbEntity
  8
1
  6
Continuous
100
AcDbLine
 10
70.51519300000002
 20
160.0595099999999
 30
0.0
 11
70.51519300000002
 21
151.215935
 31
0.0
  0
LINE
  5
A7B4
330
A487
100
AcDbEntity
  8
1
  6
Continuous
100
AcDbLine
 10
70.01519300000001
 20
159.6432719999999
 30
0.0
 11
70.01519300000001
 21
151.215935
 31
0.0
  0
LINE
  5
A7B5
330
A487
100
AcDbEntity
  8
1
  6
Continuous
100
AcDbLine
 10
302.377772
 20
154.288954
 30
0.0
 11
302.8050119999999
 21
152.6438729999999
 31
0.0
  0
ARC
  5
A7B6
330
A487
100
AcDbEntity
  8
1
  6
Continuous
100
AcDbCircle
 10
176.3101929999999
 20
274.2032409999998
 30
0.0
 40
7.225291999999997
100
AcDbArc
 50
249.7567339999999
 51
258.609748
  0
LINE
  5
A7B7
330
A487
100
AcDbEntity
  8
1
  6
Continuous
100
AcDbLine
 10
169.6187329999999
 20
270.5779489999999
 30
0.0
 11
174.001654
 21
270.5779489999999
 31
0.0
  0
LINE
  5
A7B8
330
A487
100
AcDbEntity
  8
1
  6
Continuous
100
AcDbLine
 10
168.810193
 20
266.977949
 30
0.0
 11
174.8305409999999
 21
266.977949
 31
0.0
  0
ARC
  5
A7B9
330
A487
100
AcDbEntity
  8
1
  6
Continuous
100
AcDbCircle
 10
176.3101929999999
 20
263.3526569999999
 30
0.0
 40
7.225291999999997
100
AcDbArc
 50
106.2988209999998
 51
110.2432659999999
  0
LINE
  5
A7BA
330
A487
100
AcDbEntity
  8
1
  6
Continuous
100
AcDbLine
 10
170.8101929999999
 20
266.677949
 30
0.0
 11
174.693334
 21
266.677949
 31
0.0
  0
LINE
  5
A7BB
330
A487
100
AcDbEntity
  8
1
  6
Continuous
100
AcDbLine
 10
171.8101929999999
 20
265.677949
 30
0.0
 11
173.886849
 21
265.677949
 31
0.0
  0
LINE
  5
A7BC
330
A487
100
AcDbEntity
  8
1
  6
Continuous
100
AcDbLine
 10
168.810193
 20
266.977949
 30
0.0
 11
168.810193
 21
269.4279489999999
 31
0.0
  0
LINE
  5
A7BD
330
A487
100
AcDbEntity
  8
1
  6
Continuous
100
AcDbLine
 10
173.810193
 20
270.1316569999999
 30
0.0
 11
173.810193
 21
267.424241
 31
0.0
  0
ARC
  5
A7BE
330
A487
100
AcDbEntity
  8
1
  6
Continuous
100
AcDbCircle
 10
171.310193
 20
274.2032409999998
 30
0.0
 40
7.225291999999997
100
AcDbArc
 50
249.7567339999999
 51
290.243266
  0
ARC
  5
A7BF
330
A487
100
AcDbEntity
  8
1
  6
Continuous
100
AcDbCircle
 10
171.310193
 20
263.3526569999999
 30
0.0
 40
7.225291999999997
100
AcDbArc
 50
69.75673399999999
 51
105.6908849999999
  0
LINE
  5
A7C0
330
A487
100
AcDbEntity
  8
1
  6
Continuous
100
AcDbLine
 10
170.8101929999999
 20
266.677949
 30
0.0
 11
170.8101929999999
 21
266.977949
 31
0.0
  0
LINE
  5
A7C1
330
A487
100
AcDbEntity
  8
1
  6
Continuous
100
AcDbLine
 10
171.8101929999999
 20
265.677949
 30
0.0
 11
170.8101929999999
 21
266.677949
 31
0.0
  0
LINE
  5
A7C2
330
A487
100
AcDbEntity
  8
2
  6
Continuous
100
AcDbLine
 10
171.3516929999999
 20
266.136449
 30
0.0
 11
171.3516929999999
 21
266.977949
 31
0.0
  0
LINE
  5
A7C3
330
A487
100
AcDbEntity
  8
1
  6
Continuous
100
AcDbLine
 10
480.5665009999998
 20
183.5597769999999
 30
0.0
 11
482.7348519999999
 21
173.36141
 31
0.0
  0
LINE
  5
A7C4
330
A487
100
AcDbEntity
  8
1
  6
Continuous
100
AcDbLine
 10
479.983562
 20
185.0498039999999
 30
0.0
 11
475.882242
 21
183.445256
 31
0.0
  0
LINE
  5
A7C5
330
A487
100
AcDbEntity
  8
1
  6
Continuous
100
AcDbLine
 10
479.983562
 20
185.0498039999999
 30
0.0
 11
480.5665009999998
 21
183.5597769999999
 31
0.0
  0
LINE
  5
A7C6
330
A487
100
AcDbEntity
  8
5
  6
PHANTOM
100
AcDbLine
 10
485.432151
 20
167.7089889999998
 30
0.0
 11
483.33643
 21
168.217283
 31
0.0
  0
ARC
  5
A7C7
330
A487
100
AcDbEntity
  8
1
  6
Continuous
100
AcDbCircle
 10
457.730585
 20
165.121484
 30
0.0
 40
25.79231
100
AcDbArc
 50
350.143166
 51
60.496783
  0
ARC
  5
A7C8
330
A487
100
AcDbEntity
  8
1
  6
Continuous
100
AcDbCircle
 10
476.74509
 20
173.011055
 30
0.0
 40
6.0
100
AcDbArc
 50
348.802989
 51
3.347548999999998
  0
LINE
  5
A7C9
330
A487
100
AcDbEntity
  8
5
  6
PHANTOM
100
AcDbLine
 10
485.432151
 20
167.7089889999998
 30
0.0
 11
485.0550219999998
 21
166.1540699999999
 31
0.0
  0
LINE
  5
A7CA
330
A487
100
AcDbEntity
  8
5
  6
PHANTOM
100
AcDbLine
 10
485.0550219999998
 20
166.1540699999999
 30
0.0
 11
483.3494499999998
 21
162.1353449999998
 31
0.0
  0
ARC
  5
A7CB
330
A487
100
AcDbEntity
  8
5
  6
PHANTOM
100
AcDbCircle
 10
475.8742059999998
 20
159.7049349999998
 30
0.0
 40
6.0
100
AcDbArc
 50
270.228087
 51
328.347549
  0
ARC
  5
A7CC
330
A487
100
AcDbEntity
  8
1
  6
Continuous
100
AcDbCircle
 10
478.0366669999998
 20
162.3514899999999
 30
0.0
 40
5.364061999999998
100
AcDbArc
 50
267.275353
 51
342.1378
  0
ARC
  5
A7CD
330
A487
100
AcDbEntity
  8
1
  6
Continuous
100
AcDbCircle
 10
449.497775
 20
164.8011429999999
 30
0.0
 40
21.53218499999999
100
AcDbArc
 50
151.857588
 51
185.096684
  0
ARC
  5
A7CE
330
A487
100
AcDbEntity
  8
1
  6
Continuous
100
AcDbCircle
 10
440.099497
 20
163.2707849999999
 30
0.0
 40
12.05485099999999
100
AcDbArc
 50
181.8181959999998
 51
248.9423489999999
  0
LINE
  5
A7CF
330
A487
100
AcDbEntity
  8
1
  6
Continuous
100
AcDbLine
 10
433.82246
 20
152.506664
 30
0.0
 11
434.2985639999998
 21
152.703449
 31
0.0
  0
LINE
  5
A7D0
330
A487
100
AcDbEntity
  8
1
  6
Continuous
100
AcDbLine
 10
433.5368429999999
 20
153.1588619999999
 30
0.0
 11
433.822462
 21
152.506667
 31
0.0
  0
LINE
  5
A7D1
330
A487
100
AcDbEntity
  8
5
  6
PHANTOM
100
AcDbLine
 10
481.832753
 20
158.5616499999999
 30
0.0
 11
480.9816879999998
 21
156.556342
 31
0.0
  0
ENDSEC
  0
SECTION
  2
OBJECTS
  0
DICTIONARY
  5
A475
330
0
100
AcDbDictionary
281
     1
  3
ACAD_CIP_PREVIOUS_PRODUCT_INFO
350
A833
  3
ACAD_COLOR
350
A815
  3
ACAD_DETAILVIEWSTYLE
350
A82E
  3
ACAD_GROUP
350
A476
  3
ACAD_LAYOUT
350
A482
  3
ACAD_MATERIAL
350
A7E3
  3
ACAD_MLEADERSTYLE
350
A82A
  3
ACAD_MLINESTYLE
350
A47F
  3
ACAD_PLOTSETTINGS
350
A481
  3
ACAD_PLOTSTYLENAME
350
A7E1
  3
ACAD_SCALELIST
350
A818
  3
ACAD_SECTIONVIEWSTYLE
350
A82C
  3
ACAD_TABLESTYLE
350
A816
  3
ACAD_VISUALSTYLE
350
A7FC
  3
ACDB_RECOMPOSE_DATA
350
A851
  3
AcDbVariableDictionary
350
A844
  3
DWGPROPS
350
A852
  0
DICTIONARY
  5
A834
330
A479
100
AcDbDictionary
280
     1
281
     1
  3
ADSK_XREC_LAYER_RECONCILED
360
A835
  0
DICTIONARY
  5
A836
330
A48F
100
AcDbDictionary
280
     1
281
     1
  3
ADSK_XREC_LAYER_RECONCILED
360
A837
  0
DICTIONARY
  5
A838
330
A490
100
AcDbDictionary
280
     1
281
     1
  3
ADSK_XREC_LAYER_RECONCILED
360
A839
  0
DICTIONARY
  5
A83A
330
A491
100
AcDbDictionary
280
     1
281
     1
  3
ADSK_XREC_LAYER_RECONCILED
360
A83B
  0
DICTIONARY
  5
A83C
330
A492
100
AcDbDictionary
280
     1
281
     1
  3
ADSK_XREC_LAYER_RECONCILED
360
A83D
  0
DICTIONARY
  5
A83E
330
A493
100
AcDbDictionary
280
     1
281
     1
  3
ADSK_XREC_LAYER_RECONCILED
360
A83F
  0
DICTIONARY
  5
A840
330
A494
100
AcDbDictionary
280
     1
281
     1
  3
ADSK_XREC_LAYER_RECONCILED
360
A841
  0
DICTIONARY
  5
A842
330
A495
100
AcDbDictionary
280
     1
281
     1
  3
ADSK_XREC_LAYER_RECONCILED
360
A843
  0
DICTIONARY
  5
A7DC
330
A487
100
AcDbDictionary
281
     1
  3
ACAD_LAYOUTSELFREF
350
A7DD
  0
DICTIONARY
  5
A7DA
330
A483
100
AcDbDictionary
281
     1
  3
ACAD_LAYOUTSELFREF
350
A7DB
  0
XRECORD
  5
A833
102
{ACAD_REACTORS
330
A475
102
}
330
A475
100
AcDbXrecord
280
     1
300
ACDLT
300
2014
300
ACDLT_F_S
  0
DICTIONARY
  5
A815
102
{ACAD_REACTORS
330
A475
102
}
330
A475
100
AcDbDictionary
281
     1
  0
DICTIONARY
  5
A82E
102
{ACAD_REACTORS
330
A475
102
}
330
A475
100
AcDbDictionary
281
     1
  3
Imperial24
350
A82F
  0
DICTIONARY
  5
A476
102
{ACAD_REACTORS
330
A475
102
}
330
A475
100
AcDbDictionary
281
     1
  0
DICTIONARY
  5
A482
102
{ACAD_REACTORS
330
A475
102
}
330
A475
100
AcDbDictionary
281
     1
  3
Model
350
A830
  3
レイアウト1
350
A831
  0
DICTIONARY
  5
A7E3
102
{ACAD_REACTORS
330
A475
102
}
330
A475
100
AcDbDictionary
281
     1
  3
ByBlock
350
A7EC
  3
ByLayer
350
A7E4
  3
Global
350
A7F4
  0
DICTIONARY
  5
A82A
102
{ACAD_REACTORS
330
A475
102
}
330
A475
100
AcDbDictionary
281
     1
  3
Standard
350
A82B
  0
DICTIONARY
  5
A47F
102
{ACAD_REACTORS
330
A475
102
}
330
A475
100
AcDbDictionary
281
     1
  3
STANDARD
350
A480
  0
DICTIONARY
  5
A481
102
{ACAD_REACTORS
330
A475
102
}
330
A475
100
AcDbDictionary
281
     1
  0
ACDBDICTIONARYWDFLT
  5
A7E1
102
{ACAD_REACTORS
330
A475
102
}
330
A475
100
AcDbDictionary
281
     1
  3
Normal
350
A7E2
100
AcDbDictionaryWithDefault
340
A7E2
  0
DICTIONARY
  5
A818
102
{ACAD_REACTORS
330
A475
102
}
330
A475
100
AcDbDictionary
281
     1
  3
A0
350
A819
  3
A1
350
A81A
  3
A2
350
A81B
  3
A3
350
A81C
  3
A4
350
A81D
  3
A5
350
A81E
  3
A6
350
A81F
  3
A7
350
A820
  3
A8
350
A821
  3
A9
350
A822
  3
B0
350
A823
  3
B1
350
A824
  3
B2
350
A825
  3
B3
350
A826
  3
B4
350
A827
  3
B5
350
A828
  3
B6
350
A829
  0
DICTIONARY
  5
A82C
102
{ACAD_REACTORS
330
A475
102
}
330
A475
100
AcDbDictionary
281
     1
  3
Imperial24
350
A82D
  0
DICTIONARY
  5
A816
102
{ACAD_REACTORS
330
A475
102
}
330
A475
100
AcDbDictionary
281
     1
  3
Standard
350
A817
  0
DICTIONARY
  5
A7FC
102
{ACAD_REACTORS
330
A475
102
}
330
A475
100
AcDbDictionary
281
     1
  3
2dWireframe
350
A802
  3
Basic
350
A801
  3
Brighten
350
A808
  3
ColorChange
350
A80C
  3
Conceptual
350
A805
  3
Dim
350
A807
  3
EdgeColorOff
350
A814
  3
Facepattern
350
A80B
  3
Flat
350
A7FD
  3
FlatWithEdges
350
A7FE
  3
Gouraud
350
A7FF
  3
GouraudWithEdges
350
A800
  3
Hidden
350
A804
  3
JitterOff
350
A812
  3
Linepattern
350
A80A
  3
OverhangOff
350
A813
  3
Realistic
350
A806
  3
Shaded
350
A811
  3
Shaded with edges
350
A810
  3
Shades of Gray
350
A80D
  3
Sketchy
350
A80E
  3
Thicken
350
A809
  3
Wireframe
350
A803
  3
X-Ray
350
A80F
  0
XRECORD
  5
A851
102
{ACAD_REACTORS
330
A475
102
}
330
A475
100
AcDbXrecord
280
     1
 90
        1
330
A817
  0
DICTIONARY
  5
A844
102
{ACAD_REACTORS
330
A475
102
}
330
A475
100
AcDbDictionary
281
     1
  3
CANNOSCALE
350
A849
  3
CMLEADERSTYLE
350
A846
  3
CTABLESTYLE
350
A845
  3
CVIEWDETAILSTYLE
350
A847
  3
CVIEWSECTIONSTYLE
350
A848
  3
DIMASSOC
350
A84C
  3
INDEXCTL
350
A84B
  3
SORTENTS
350
A84A
  3
XCLIPFRAME
350
A84D
  0
XRECORD
  5
A852
102
{ACAD_REACTORS
330
A475
102
}
330
A475
100
AcDbXrecord
280
     1
  1
DWGPROPS COOKIE
  2

  3

  4

  6

  7

  8
Yoshitsune
  9

300
=
301
=
302
=
303
=
304
=
305
=
306
=
307
=
308
=
309
=
 40
0.0000109490740741
 41
2451303.374820024
 42
2457192.68658809
  1

 90
        0
  0
XRECORD
  5
A835
102
{ACAD_REACTORS
330
A834
102
}
330
A834
100
AcDbXrecord
280
     1
290
     1
  0
XRECORD
  5
A837
102
{ACAD_REACTORS
330
A836
102
}
330
A836
100
AcDbXrecord
280
     1
290
     1
  0
XRECORD
  5
A839
102
{ACAD_REACTORS
330
A838
102
}
330
A838
100
AcDbXrecord
280
     1
290
     1
  0
XRECORD
  5
A83B
102
{ACAD_REACTORS
330
A83A
102
}
330
A83A
100
AcDbXrecord
280
     1
290
     1
  0
XRECORD
  5
A83D
102
{ACAD_REACTORS
330
A83C
102
}
330
A83C
100
AcDbXrecord
280
     1
290
     1
  0
XRECORD
  5
A83F
102
{ACAD_REACTORS
330
A83E
102
}
330
A83E
100
AcDbXrecord
280
     1
290
     1
  0
XRECORD
  5
A841
102
{ACAD_REACTORS
330
A840
102
}
330
A840
100
AcDbXrecord
280
     1
290
     1
  0
XRECORD
  5
A843
102
{ACAD_REACTORS
330
A842
102
}
330
A842
100
AcDbXrecord
280
     1
290
     1
  0
XRECORD
  5
A7DD
102
{ACAD_REACTORS
330
A7DC
102
}
330
A7DC
100
AcDbXrecord
280
     1
340
A487
  0
XRECORD
  5
A7DB
102
{ACAD_REACTORS
330
A7DA
102
}
330
A7DA
100
AcDbXrecord
280
     1
340
A483
  0
ACDBDETAILVIEWSTYLE
  5
A82F
102
{ACAD_XDICTIONARY
360
A88A
102
}
102
{ACAD_REACTORS
330
A82E
102
}
330
A82E
100
AcDbModelDocViewStyle
 70
     0
  3
Imperial24
290
     0
100
AcDbDetailViewStyle
 70
     0
 71
     0
 90
        3
 71
     1
340
A47A
 40
0.24
340
0
 40
0.24
300

 40
0.36
280
     3
 71
     2
340
A47E
 90
       25
 71
     3
340
A47A
 40
0.24
 90
        1
 40
0.75
 90
        1
300
%<\AcVar ViewType \f "%tc1">% %<\AcVar ViewDetailId>%\PSCALE %<\AcVar ViewScale \f "%sn">%
 71
     4
340
A47E
 90
       25
340
A47E
 90
       25
280
     0
  0
LAYOUT
  5
A830
102
{ACAD_XDICTIONARY
360
A88C
102
}
102
{ACAD_REACTORS
330
A482
102
}
330
A482
100
AcDbPlotSettings
  1

  2
Canon LBP9100C
  4

  6

 40
0.0
 41
0.0
 42
0.0
 43
0.0
 44
0.0
 45
0.0
 46
0.0
 47
0.0
 48
0.0
 49
0.0
140
0.0
141
0.0
142
1.0
143
1.0
 70
  1712
 72
     0
 73
     0
 74
     0
  7

 75
     0
147
1.0
148
0.0
149
0.0
100
AcDbLayout
  1
Model
 70
     1
 71
     0
 10
0.0
 20
0.0
 11
12.0
 21
9.0
 12
0.0
 22
0.0
 32
0.0
 14
0.0
 24
0.0
 34
0.0
 15
0.0
 25
0.0
 35
0.0
146
0.0
 13
0.0
 23
0.0
 33
0.0
 16
1.0
 26
0.0
 36
0.0
 17
0.0
 27
1.0
 37
0.0
 76
     0
330
A487
331
A7D9
  0
LAYOUT
  5
A831
102
{ACAD_XDICTIONARY
360
A88E
102
}
102
{ACAD_REACTORS
330
A482
102
}
330
A482
100
AcDbPlotSettings
  1

  2
Canon LBP9100C
  4

  6

 40
0.0
 41
0.0
 42
0.0
 43
0.0
 44
0.0
 45
0.0
 46
0.0
 47
0.0
 48
0.0
 49
0.0
140
0.0
141
0.0
142
1.0
143
1.0
 70
   688
 72
     0
 73
     0
 74
     5
  7

 75
    16
147
1.0
148
0.0
149
0.0
100
AcDbLayout
  1
レイアウト1
 70
     0
 71
     1
 10
0.0
 20
0.0
 11
420.0
 21
297.0
 12
0.0
 22
0.0
 32
0.0
 14
1.000000000000000E+20
 24
1.000000000000000E+20
 34
1.000000000000000E+20
 15
-1.000000000000000E+20
 25
-1.000000000000000E+20
 35
-1.000000000000000E+20
146
0.0
 13
0.0
 23
0.0
 33
0.0
 16
1.0
 26
0.0
 36
0.0
 17
0.0
 27
1.0
 37
0.0
 76
     0
330
A483
  0
MATERIAL
  5
A7EC
102
{ACAD_XDICTIONARY
360
A7ED
102
}
102
{ACAD_REACTORS
330
A7E3
102
}
330
A7E3
100
AcDbMaterial
  1
ByBlock
 72
     0
 43
0.0208333333333333
 43
0.0
 43
0.0
 43
0.0
 43
0.0
 43
0.0208333333333333
 43
0.0
 43
0.0
 43
0.0
 43
0.0
 43
1.0
 43
0.0
 43
0.0
 43
0.0
 43
0.0
 43
1.0
 77
     0
 47
0.0208333333333333
 47
0.0
 47
0.0
 47
0.0
 47
0.0
 47
0.0208333333333333
 47
0.0
 47
0.0
 47
0.0
 47
0.0
 47
1.0
 47
0.0
 47
0.0
 47
0.0
 47
0.0
 47
1.0
171
     0
 49
0.0208333333333333
 49
0.0
 49
0.0
 49
0.0
 49
0.0
 49
0.0208333333333333
 49
0.0
 49
0.0
 49
0.0
 49
0.0
 49
1.0
 49
0.0
 49
0.0
 49
0.0
 49
0.0
 49
1.0
175
     0
142
0.0208333333333333
142
0.0
142
0.0
142
0.0
142
0.0
142
0.0208333333333333
142
0.0
142
0.0
142
0.0
142
0.0
142
1.0
142
0.0
142
0.0
142
0.0
142
0.0
142
1.0
179
     0
144
0.0208333333333333
144
0.0
144
0.0
144
0.0
144
0.0
144
0.0208333333333333
144
0.0
144
0.0
144
0.0
144
0.0
144
1.0
144
0.0
144
0.0
144
0.0
144
0.0
144
1.0
147
0.0208333333333333
147
0.0
147
0.0
147
0.0
147
0.0
147
0.0208333333333333
147
0.0
147
0.0
147
0.0
147
0.0
147
1.0
147
0.0
147
0.0
147
0.0
147
0.0
147
1.0
  0
MATERIAL
  5
A7E4
102
{ACAD_XDICTIONARY
360
A7E5
102
}
102
{ACAD_REACTORS
330
A7E3
102
}
330
A7E3
100
AcDbMaterial
  1
ByLayer
 72
     0
 43
0.0208333333333333
 43
0.0
 43
0.0
 43
0.0
 43
0.0
 43
0.0208333333333333
 43
0.0
 43
0.0
 43
0.0
 43
0.0
 43
1.0
 43
0.0
 43
0.0
 43
0.0
 43
0.0
 43
1.0
 77
     0
 47
0.0208333333333333
 47
0.0
 47
0.0
 47
0.0
 47
0.0
 47
0.0208333333333333
 47
0.0
 47
0.0
 47
0.0
 47
0.0
 47
1.0
 47
0.0
 47
0.0
 47
0.0
 47
0.0
 47
1.0
171
     0
 49
0.0208333333333333
 49
0.0
 49
0.0
 49
0.0
 49
0.0
 49
0.0208333333333333
 49
0.0
 49
0.0
 49
0.0
 49
0.0
 49
1.0
 49
0.0
 49
0.0
 49
0.0
 49
0.0
 49
1.0
175
     0
142
0.0208333333333333
142
0.0
142
0.0
142
0.0
142
0.0
142
0.0208333333333333
142
0.0
142
0.0
142
0.0
142
0.0
142
1.0
142
0.0
142
0.0
142
0.0
142
0.0
142
1.0
179
     0
144
0.0208333333333333
144
0.0
144
0.0
144
0.0
144
0.0
144
0.0208333333333333
144
0.0
144
0.0
144
0.0
144
0.0
144
1.0
144
0.0
144
0.0
144
0.0
144
0.0
144
1.0
147
0.0208333333333333
147
0.0
147
0.0
147
0.0
147
0.0
147
0.0208333333333333
147
0.0
147
0.0
147
0.0
147
0.0
147
1.0
147
0.0
147
0.0
147
0.0
147
0.0
147
1.0
  0
MATERIAL
  5
A7F4
102
{ACAD_XDICTIONARY
360
A7F5
102
}
102
{ACAD_REACTORS
330
A7E3
102
}
330
A7E3
100
AcDbMaterial
  1
Global
 72
     0
 43
0.0208333333333333
 43
0.0
 43
0.0
 43
0.0
 43
0.0
 43
0.0208333333333333
 43
0.0
 43
0.0
 43
0.0
 43
0.0
 43
1.0
 43
0.0
 43
0.0
 43
0.0
 43
0.0
 43
1.0
 77
     0
 47
0.0208333333333333
 47
0.0
 47
0.0
 47
0.0
 47
0.0
 47
0.0208333333333333
 47
0.0
 47
0.0
 47
0.0
 47
0.0
 47
1.0
 47
0.0
 47
0.0
 47
0.0
 47
0.0
 47
1.0
171
     0
 49
0.0208333333333333
 49
0.0
 49
0.0
 49
0.0
 49
0.0
 49
0.0208333333333333
 49
0.0
 49
0.0
 49
0.0
 49
0.0
 49
1.0
 49
0.0
 49
0.0
 49
0.0
 49
0.0
 49
1.0
175
     0
142
0.0208333333333333
142
0.0
142
0.0
142
0.0
142
0.0
142
0.0208333333333333
142
0.0
142
0.0
142
0.0
142
0.0
142
1.0
142
0.0
142
0.0
142
0.0
142
0.0
142
1.0
179
     0
144
0.0208333333333333
144
0.0
144
0.0
144
0.0
144
0.0
144
0.0208333333333333
144
0.0
144
0.0
144
0.0
144
0.0
144
1.0
144
0.0
144
0.0
144
0.0
144
0.0
144
1.0
147
0.0208333333333333
147
0.0
147
0.0
147
0.0
147
0.0
147
0.0208333333333333
147
0.0
147
0.0
147
0.0
147
0.0
147
1.0
147
0.0
147
0.0
147
0.0
147
0.0
147
1.0
  0
MLEADERSTYLE
  5
A82B
102
{ACAD_REACTORS
330
A82A
102
}
330
A82A
100
AcDbMLeaderStyle
170
     2
171
     1
172
     0
 90
        2
 40
0.0
 41
0.0
173
     1
 91
-1056964608
340
A47C
 92
       -2
290
     1
 42
0.09
291
     1
 43
0.36
  3
Standard
 44
0.18
300

342
A47A
174
     1
178
     6
175
     1
176
     0
 93
-1056964608
 45
0.18
292
     0
297
     0
 46
0.18
 94
-1056964608
 47
1.0
 49
1.0
140
1.0
293
     1
141
0.0
294
     1
177
     0
142
1.0
295
     0
296
     0
143
0.125
1001
ACAD_MLEADERVER
1070
     2
  0
MLINESTYLE
  5
A480
102
{ACAD_REACTORS
330
A47F
102
}
330
A47F
100
AcDbMlineStyle
  2
STANDARD
 70
     0
  3

 62
   256
 51
90.0
 52
90.0
 71
     2
 49
0.5
 62
   256
  6
BYLAYER
 49
-0.5
 62
   256
  6
BYLAYER
  0
ACDBPLACEHOLDER
  5
A7E2
102
{ACAD_REACTORS
330
A7E1
102
}
330
A7E1
  0
SCALE
  5
A819
102
{ACAD_REACTORS
330
A818
102
}
330
A818
100
AcDbScale
 70
     0
300
1:1
140
1.0
141
1.0
290
     1
  0
SCALE
  5
A81A
102
{ACAD_REACTORS
330
A818
102
}
330
A818
100
AcDbScale
 70
     0
300
1/128" = 1'-0"
140
0.0078125
141
12.0
290
     0
  0
SCALE
  5
A81B
102
{ACAD_REACTORS
330
A818
102
}
330
A818
100
AcDbScale
 70
     0
300
1/64" = 1'-0"
140
0.015625
141
12.0
290
     0
  0
SCALE
  5
A81C
102
{ACAD_REACTORS
330
A818
102
}
330
A818
100
AcDbScale
 70
     0
300
1/32" = 1'-0"
140
0.03125
141
12.0
290
     0
  0
SCALE
  5
A81D
102
{ACAD_REACTORS
330
A818
102
}
330
A818
100
AcDbScale
 70
     0
300
1/16" = 1'-0"
140
0.0625
141
12.0
290
     0
  0
SCALE
  5
A81E
102
{ACAD_REACTORS
330
A818
102
}
330
A818
100
AcDbScale
 70
     0
300
3/32" = 1'-0"
140
0.09375
141
12.0
290
     0
  0
SCALE
  5
A81F
102
{ACAD_REACTORS
330
A818
102
}
330
A818
100
AcDbScale
 70
     0
300
1/8" = 1'-0"
140
0.125
141
12.0
290
     0
  0
SCALE
  5
A820
102
{ACAD_REACTORS
330
A818
102
}
330
A818
100
AcDbScale
 70
     0
300
3/16" = 1'-0"
140
0.1875
141
12.0
290
     0
  0
SCALE
  5
A821
102
{ACAD_REACTORS
330
A818
102
}
330
A818
100
AcDbScale
 70
     0
300
1/4" = 1'-0"
140
0.25
141
12.0
290
     0
  0
SCALE
  5
A822
102
{ACAD_REACTORS
330
A818
102
}
330
A818
100
AcDbScale
 70
     0
300
3/8" = 1'-0"
140
0.375
141
12.0
290
     0
  0
SCALE
  5
A823
102
{ACAD_REACTORS
330
A818
102
}
330
A818
100
AcDbScale
 70
     0
300
1/2" = 1'-0"
140
0.5
141
12.0
290
     0
  0
SCALE
  5
A824
102
{ACAD_REACTORS
330
A818
102
}
330
A818
100
AcDbScale
 70
     0
300
3/4" = 1'-0"
140
0.75
141
12.0
290
     0
  0
SCALE
  5
A825
102
{ACAD_REACTORS
330
A818
102
}
330
A818
100
AcDbScale
 70
     0
300
1" = 1'-0"
140
1.0
141
12.0
290
     0
  0
SCALE
  5
A826
102
{ACAD_REACTORS
330
A818
102
}
330
A818
100
AcDbScale
 70
     0
300
1-1/2" = 1'-0"
140
1.5
141
12.0
290
     0
  0
SCALE
  5
A827
102
{ACAD_REACTORS
330
A818
102
}
330
A818
100
AcDbScale
 70
     0
300
3" = 1'-0"
140
3.0
141
12.0
290
     0
  0
SCALE
  5
A828
102
{ACAD_REACTORS
330
A818
102
}
330
A818
100
AcDbScale
 70
     0
300
6" = 1'-0"
140
6.0
141
12.0
290
     0
  0
SCALE
  5
A829
102
{ACAD_REACTORS
330
A818
102
}
330
A818
100
AcDbScale
 70
     0
300
1'-0" = 1'-0"
140
12.0
141
12.0
290
     0
  0
ACDBSECTIONVIEWSTYLE
  5
A82D
102
{ACAD_XDICTIONARY
360
A888
102
}
102
{ACAD_REACTORS
330
A82C
102
}
330
A82C
100
AcDbModelDocViewStyle
 70
     0
  3
Imperial24
290
     0
100
AcDbSectionViewStyle
 70
     0
 71
     0
 90
       78
 71
     1
340
A47A
 40
0.24
340
0
340
0
 40
0.24
300
I, O, Q, S, X, Z
 40
0.48
 90
        3
 40
0.18
 90
        1
 71
     2
340
A47E
 90
       25
340
A47E
 90
       50
 40
0.24
 40
0.0
 40
0.24
 71
     3
340
A47A
 40
0.24
 90
        1
 40
0.75
 90
        1
300
%<\AcVar ViewType \f "%tc1">% %<\AcVar ViewSectionStartId>%-%<\AcVar ViewSectionEndId>%\PSCALE %<\AcVar ViewScale \f "%sn">%
 71
     4
300
ANSI31
 40
1.0
 90
        0
290
     0
290
     0
 90
        6
 40
0.0
 40
1.570796326794896
 40
0.2617993877991494
 40
1.308996938995747
 40
-0.2617993877991494
 40
1.832595714594046
  0
TABLESTYLE
  5
A817
102
{ACAD_XDICTIONARY
360
A84F
102
}
102
{ACAD_REACTORS
330
A816
102
}
330
A816
100
AcDbTableStyle
  3
Standard
 70
     0
 71
     0
 40
0.06
 41
0.06
280
     0
281
     0
  7
STANDARD
140
0.18
170
     2
 62
     0
 63
     7
283
     0
274
    -2
284
     1
 64
     0
275
    -2
285
     1
 65
     0
276
    -2
286
     1
 66
     0
277
    -2
287
     1
 67
     0
278
    -2
288
     1
 68
     0
279
    -2
289
     1
 69
     0
  7
STANDARD
140
0.25
170
     5
 62
     0
 63
     7
283
     0
274
    -2
284
     1
 64
     0
275
    -2
285
     1
 65
     0
276
    -2
286
     1
 66
     0
277
    -2
287
     1
 67
     0
278
    -2
288
     1
 68
     0
279
    -2
289
     1
 69
     0
  7
STANDARD
140
0.18
170
     5
 62
     0
 63
     7
283
     0
274
    -2
284
     1
 64
     0
275
    -2
285
     1
 65
     0
276
    -2
286
     1
 66
     0
277
    -2
287
     1
 67
     0
278
    -2
288
     1
 68
     0
279
    -2
289
     1
 69
     0
  0
VISUALSTYLE
  5
A802
102
{ACAD_XDICTIONARY
360
A860
102
}
102
{ACAD_REACTORS
330
A7FC
102
}
330
A7FC
100
AcDbVisualStyle
  2
2dWireframe
 70
     4
 71
     0
 72
     2
 73
     0
 90
        0
 40
-0.6
 41
-30.0
 62
     5
 63
     7
 74
     1
 91
        4
 64
     7
 65
   257
 75
     1
175
     1
 42
1.0
 92
        0
 66
   257
 43
1.0
 76
     1
 77
     6
 78
     2
 67
     7
 79
     5
170
     0
171
     0
290
     0
174
     0
 93
        1
 44
0.0
173
     0
291
     0
 45
0.0
1001
ACAD
1000
AcDbSavedByObjectVersion
1070
     0
  0
VISUALSTYLE
  5
A801
102
{ACAD_XDICTIONARY
360
A85E
102
}
102
{ACAD_REACTORS
330
A7FC
102
}
330
A7FC
100
AcDbVisualStyle
  2
Basic
 70
     7
 71
     1
 72
     0
 73
     1
 90
        0
 40
-0.6
 41
-30.0
 62
     5
 63
     7
 74
     0
 91
        4
 64
     7
 65
   257
 75
     1
175
     1
 42
1.0
 92
        8
 66
     7
 43
1.0
 76
     1
 77
     6
 78
     2
 67
     7
 79
     5
170
     0
171
     0
290
     0
174
     0
 93
        1
 44
0.0
173
     0
291
     1
 45
0.0
1001
ACAD
1000
AcDbSavedByObjectVersion
1070
     0
  0
VISUALSTYLE
  5
A808
102
{ACAD_XDICTIONARY
360
A86C
102
}
102
{ACAD_REACTORS
330
A7FC
102
}
330
A7FC
100
AcDbVisualStyle
  2
Brighten
 70
    12
 71
     2
 72
     2
 73
     0
 90
        0
 40
-0.6
 41
-30.0
 62
     5
 63
     7
 74
     1
 91
        4
 64
     7
 65
   257
 75
     1
175
     1
 42
1.0
 92
        8
 66
     7
 43
1.0
 76
     1
 77
     6
 78
     2
 67
     7
 79
     5
170
     0
171
     0
290
     0
174
     0
 93
        1
 44
50.0
173
     0
291
     1
 45
0.0
1001
ACAD
1000
AcDbSavedByObjectVersion
1070
     0
  0
VISUALSTYLE
  5
A80C
102
{ACAD_XDICTIONARY
360
A874
102
}
102
{ACAD_REACTORS
330
A7FC
102
}
330
A7FC
100
AcDbVisualStyle
  2
ColorChange
 70
    16
 71
     2
 72
     2
 73
     3
 90
        0
 40
-0.6
 41
-30.0
 62
     5
 63
     8
 74
     1
 91
        4
 64
     7
 65
   257
 75
     1
175
     1
 42
1.0
 92
        8
 66
     8
 43
1.0
 76
     1
 77
     6
 78
     2
 67
     7
 79
     5
170
     0
171
     0
290
     0
174
     0
 93
        1
 44
0.0
173
     0
291
     1
 45
0.0
1001
ACAD
1000
AcDbSavedByObjectVersion
1070
     0
  0
VISUALSTYLE
  5
A805
102
{ACAD_XDICTIONARY
360
A866
102
}
102
{ACAD_REACTORS
330
A7FC
102
}
330
A7FC
100
AcDbVisualStyle
  2
Conceptual
 70
     9
 71
     3
 72
     2
 73
     0
 90
        0
 40
-0.6
 41
-30.0
 62
     5
 63
     7
 74
     2
 91
        2
 64
     7
 65
   257
 75
     1
175
     1
 42
179.0
 92
        8
 66
     7
 43
1.0
 76
     1
 77
     6
 78
     2
 67
     7
 79
     3
170
     0
171
     0
290
     0
174
     0
 93
        1
 44
0.0
173
     0
291
     0
 45
0.0
1001
ACAD
1000
AcDbSavedByObjectVersion
1070
     0
  0
VISUALSTYLE
  5
A807
102
{ACAD_XDICTIONARY
360
A86A
102
}
102
{ACAD_REACTORS
330
A7FC
102
}
330
A7FC
100
AcDbVisualStyle
  2
Dim
 70
    11
 71
     2
 72
     2
 73
     0
 90
        0
 40
-0.6
 41
-30.0
 62
     5
 63
     7
 74
     1
 91
        4
 64
     7
 65
   257
 75
     1
175
     1
 42
1.0
 92
        8
 66
     7
 43
1.0
 76
     1
 77
     6
 78
     2
 67
     7
 79
     5
170
     0
171
     0
290
     0
174
     0
 93
        1
 44
-50.0
173
     0
291
     1
 45
0.0
1001
ACAD
1000
AcDbSavedByObjectVersion
1070
     0
  0
VISUALSTYLE
  5
A814
102
{ACAD_XDICTIONARY
360
A884
102
}
102
{ACAD_REACTORS
330
A7FC
102
}
330
A7FC
100
AcDbVisualStyle
  2
EdgeColorOff
 70
    22
 71
     2
 72
     2
 73
     0
 90
        0
 40
-0.6
 41
-30.0
 62
     5
 63
     7
 74
     1
 91
        4
 64
     7
 65
   257
 75
     1
175
     1
 42
1.0
 92
        8
 66
     7
 43
1.0
 76
     1
 77
     6
 78
     2
 67
     7
 79
     5
170
     0
171
     0
290
     0
174
     0
 93
        1
 44
0.0
173
     0
291
     1
 45
0.0
1001
ACAD
1000
AcDbSavedByObjectVersion
1070
     0
  0
VISUALSTYLE
  5
A80B
102
{ACAD_XDICTIONARY
360
A872
102
}
102
{ACAD_REACTORS
330
A7FC
102
}
330
A7FC
100
AcDbVisualStyle
  2
Facepattern
 70
    15
 71
     2
 72
     2
 73
     0
 90
        0
 40
-0.6
 41
-30.0
 62
     5
 63
     7
 74
     1
 91
        4
 64
     7
 65
   257
 75
     1
175
     1
 42
1.0
 92
        8
 66
     7
 43
1.0
 76
     1
 77
     6
 78
     2
 67
     7
 79
     5
170
     0
171
     0
290
     0
174
     0
 93
        1
 44
0.0
173
     0
291
     1
 45
0.0
1001
ACAD
1000
AcDbSavedByObjectVersion
1070
     0
  0
VISUALSTYLE
  5
A7FD
102
{ACAD_XDICTIONARY
360
A856
102
}
102
{ACAD_REACTORS
330
A7FC
102
}
330
A7FC
100
AcDbVisualStyle
  2
Flat
 70
     0
 71
     2
 72
     1
 73
     1
 90
        2
 40
-0.6
 41
30.0
 62
     5
 63
     7
 74
     0
 91
        0
 64
     7
 65
   257
 75
     1
175
     1
 42
1.0
 92
        8
 66
     7
 43
1.0
 76
     1
 77
     6
 78
     2
 67
     7
 79
     5
170
     0
171
     0
290
     0
174
     0
 93
       13
 44
0.0
173
     0
291
     1
 45
0.0
1001
ACAD
1000
AcDbSavedByObjectVersion
1070
     0
  0
VISUALSTYLE
  5
A7FE
102
{ACAD_XDICTIONARY
360
A858
102
}
102
{ACAD_REACTORS
330
A7FC
102
}
330
A7FC
100
AcDbVisualStyle
  2
FlatWithEdges
 70
     1
 71
     2
 72
     1
 73
     1
 90
        2
 40
-0.6
 41
30.0
 62
     5
 63
     7
 74
     1
 91
        0
 64
     7
 65
   257
 75
     1
175
     1
 42
1.0
 92
        0
 66
   257
 43
1.0
 76
     1
 77
     6
 78
     2
 67
     7
 79
     5
170
     0
171
     0
290
     0
174
     0
 93
       13
 44
0.0
173
     0
291
     1
 45
0.0
1001
ACAD
1000
AcDbSavedByObjectVersion
1070
     0
  0
VISUALSTYLE
  5
A7FF
102
{ACAD_XDICTIONARY
360
A85A
102
}
102
{ACAD_REACTORS
330
A7FC
102
}
330
A7FC
100
AcDbVisualStyle
  2
Gouraud
 70
     2
 71
     2
 72
     2
 73
     1
 90
        2
 40
-0.6
 41
30.0
 62
     5
 63
     7
 74
     0
 91
        0
 64
     7
 65
   257
 75
     1
175
     1
 42
1.0
 92
        0
 66
     7
 43
1.0
 76
     1
 77
     6
 78
     2
 67
     7
 79
     5
170
     0
171
     0
290
     0
174
     0
 93
       13
 44
0.0
173
     0
291
     1
 45
0.0
1001
ACAD
1000
AcDbSavedByObjectVersion
1070
     0
  0
VISUALSTYLE
  5
A800
102
{ACAD_XDICTIONARY
360
A85C
102
}
102
{ACAD_REACTORS
330
A7FC
102
}
330
A7FC
100
AcDbVisualStyle
  2
GouraudWithEdges
 70
     3
 71
     2
 72
     2
 73
     1
 90
        2
 40
-0.6
 41
30.0
 62
     5
 63
     7
 74
     1
 91
        0
 64
     7
 65
   257
 75
     1
175
     1
 42
1.0
 92
        0
 66
   257
 43
1.0
 76
     1
 77
     6
 78
     2
 67
     7
 79
     5
170
     0
171
     0
290
     0
174
     0
 93
       13
 44
0.0
173
     0
291
     1
 45
0.0
1001
ACAD
1000
AcDbSavedByObjectVersion
1070
     0
  0
VISUALSTYLE
  5
A804
102
{ACAD_XDICTIONARY
360
A864
102
}
102
{ACAD_REACTORS
330
A7FC
102
}
330
A7FC
100
AcDbVisualStyle
  2
Hidden
 70
     6
 71
     1
 72
     2
 73
     2
 90
        0
 40
-0.6
 41
-30.0
 62
     5
 63
     7
 74
     2
 91
        2
 64
     7
 65
   257
 75
     2
175
     1
 42
40.0
 92
        0
 66
   257
 43
1.0
 76
     1
 77
     6
 78
     2
 67
     7
 79
     3
170
     0
171
     0
290
     0
174
     0
 93
        1
 44
0.0
173
     0
291
     0
 45
0.0
1001
ACAD
1000
AcDbSavedByObjectVersion
1070
     0
  0
VISUALSTYLE
  5
A812
102
{ACAD_XDICTIONARY
360
A880
102
}
102
{ACAD_REACTORS
330
A7FC
102
}
330
A7FC
100
AcDbVisualStyle
  2
JitterOff
 70
    20
 71
     2
 72
     2
 73
     0
 90
        0
 40
-0.6
 41
-30.0
 62
     5
 63
     7
 74
     1
 91
        4
 64
     7
 65
   257
 75
     1
175
     1
 42
1.0
 92
       10
 66
     7
 43
1.0
 76
     1
 77
     6
 78
     2
 67
     7
 79
     5
170
     0
171
     0
290
     0
174
     0
 93
        1
 44
0.0
173
     0
291
     1
 45
0.0
1001
ACAD
1000
AcDbSavedByObjectVersion
1070
     0
  0
VISUALSTYLE
  5
A80A
102
{ACAD_XDICTIONARY
360
A870
102
}
102
{ACAD_REACTORS
330
A7FC
102
}
330
A7FC
100
AcDbVisualStyle
  2
Linepattern
 70
    14
 71
     2
 72
     2
 73
     0
 90
        0
 40
-0.6
 41
-30.0
 62
     5
 63
     7
 74
     1
 91
        4
 64
     7
 65
   257
 75
     7
175
     7
 42
1.0
 92
        8
 66
     7
 43
1.0
 76
     1
 77
     6
 78
     2
 67
     7
 79
     5
170
     0
171
     0
290
     0
174
     0
 93
        1
 44
0.0
173
     0
291
     1
 45
0.0
1001
ACAD
1000
AcDbSavedByObjectVersion
1070
     0
  0
VISUALSTYLE
  5
A813
102
{ACAD_XDICTIONARY
360
A882
102
}
102
{ACAD_REACTORS
330
A7FC
102
}
330
A7FC
100
AcDbVisualStyle
  2
OverhangOff
 70
    21
 71
     2
 72
     2
 73
     0
 90
        0
 40
-0.6
 41
-30.0
 62
     5
 63
     7
 74
     1
 91
        4
 64
     7
 65
   257
 75
     1
175
     1
 42
1.0
 92
        9
 66
     7
 43
1.0
 76
     1
 77
     6
 78
     2
 67
     7
 79
     5
170
     0
171
     0
290
     0
174
     0
 93
        1
 44
0.0
173
     0
291
     1
 45
0.0
1001
ACAD
1000
AcDbSavedByObjectVersion
1070
     0
  0
VISUALSTYLE
  5
A806
102
{ACAD_XDICTIONARY
360
A868
102
}
102
{ACAD_REACTORS
330
A7FC
102
}
330
A7FC
100
AcDbVisualStyle
  2
Realistic
 70
     8
 71
     2
 72
     3
 73
     0
 90
        2
 40
-0.6
 41
30.0
 62
     5
 63
     7
 74
     0
 91
        0
 64
     7
 65
   257
 75
     1
175
     1
 42
1.0
 92
        8
 66
   257
 43
1.0
 76
     1
 77
     6
 78
     2
 67
     7
 79
     3
170
     0
171
     0
290
     0
174
     0
 93
       13
 44
0.0
173
     0
291
     0
 45
0.0
1001
ACAD
1000
AcDbSavedByObjectVersion
1070
     0
  0
VISUALSTYLE
  5
A811
102
{ACAD_XDICTIONARY
360
A87E
102
}
102
{ACAD_REACTORS
330
A7FC
102
}
330
A7FC
100
AcDbVisualStyle
  2
Shaded
 70
    27
 71
     2
 72
     2
 73
     1
 90
        2
 40
-0.6
 41
30.0
 62
     5
 63
     7
 74
     0
 91
        4
 64
     7
 65
   257
 75
     1
175
     1
 42
1.0
 92
        8
 66
   257
 43
1.0
 76
     1
 77
     6
 78
     2
 67
     8
 79
     3
170
     0
171
     0
290
     0
174
     0
 93
        5
 44
0.0
173
     0
291
     0
 45
0.0
1001
ACAD
1000
AcDbSavedByObjectVersion
1070
     0
  0
VISUALSTYLE
  5
A810
102
{ACAD_XDICTIONARY
360
A87C
102
}
102
{ACAD_REACTORS
330
A7FC
102
}
330
A7FC
100
AcDbVisualStyle
  2
Shaded with edges
 70
    26
 71
     2
 72
     2
 73
     1
 90
        2
 40
-0.6
 41
30.0
 62
     5
 63
     7
 74
     1
 91
       10
 64
     7
 65
   257
 75
     2
175
     1
 42
1.0
 92
        8
 66
   257
 43
1.0
 76
     1
 77
     6
 78
     2
 67
     7
 79
     3
170
     0
171
     0
290
     0
174
     0
 93
        5
 44
0.0
173
     0
291
     0
 45
0.0
1001
ACAD
1000
AcDbSavedByObjectVersion
1070
     0
  0
VISUALSTYLE
  5
A80D
102
{ACAD_XDICTIONARY
360
A876
102
}
102
{ACAD_REACTORS
330
A7FC
102
}
330
A7FC
100
AcDbVisualStyle
  2
Shades of Gray
 70
    23
 71
     2
 72
     2
 73
     3
 90
        0
 40
-0.6
 41
-30.0
 62
     5
 63
     7
 74
     2
 91
        2
 64
     7
 65
     7
 75
     1
175
     1
 42
40.0
 92
        8
 66
     7
 43
1.0
 76
     1
 77
     6
 78
     2
 67
     7
 79
     3
170
     0
171
     0
290
     0
174
     0
 93
        1
 44
0.0
173
     0
291
     0
 45
0.0
1001
ACAD
1000
AcDbSavedByObjectVersion
1070
     0
  0
VISUALSTYLE
  5
A80E
102
{ACAD_XDICTIONARY
360
A878
102
}
102
{ACAD_REACTORS
330
A7FC
102
}
330
A7FC
100
AcDbVisualStyle
  2
Sketchy
 70
    24
 71
     1
 72
     2
 73
     2
 90
        0
 40
-0.6
 41
-30.0
 62
     5
 63
     7
 74
     2
 91
        2
 64
     7
 65
     7
 75
     1
175
     1
 42
40.0
 92
       11
 66
     7
 43
1.0
 76
     1
 77
     6
 78
     2
 67
     7
 79
     6
170
     0
171
     0
290
     0
174
     0
 93
        1
 44
0.0
173
     0
291
     0
 45
0.0
1001
ACAD
1000
AcDbSavedByObjectVersion
1070
     0
  0
VISUALSTYLE
  5
A809
102
{ACAD_XDICTIONARY
360
A86E
102
}
102
{ACAD_REACTORS
330
A7FC
102
}
330
A7FC
100
AcDbVisualStyle
  2
Thicken
 70
    13
 71
     2
 72
     2
 73
     0
 90
        0
 40
-0.6
 41
-30.0
 62
     5
 63
     7
 74
     1
 91
        4
 64
     7
 65
   257
 75
     1
175
     1
 42
1.0
 92
       12
 66
     7
 43
1.0
 76
     1
 77
     6
 78
     2
 67
     7
 79
     5
170
     0
171
     0
290
     0
174
     0
 93
        1
 44
0.0
173
     0
291
     1
 45
0.0
1001
ACAD
1000
AcDbSavedByObjectVersion
1070
     0
  0
VISUALSTYLE
  5
A803
102
{ACAD_XDICTIONARY
360
A862
102
}
102
{ACAD_REACTORS
330
A7FC
102
}
330
A7FC
100
AcDbVisualStyle
  2
Wireframe
 70
     5
 71
     0
 72
     2
 73
     0
 90
        0
 40
-0.6
 41
-30.0
 62
     5
 63
     7
 74
     1
 91
        4
 64
     7
 65
   257
 75
     1
175
     1
 42
1.0
 92
        0
 66
   257
 43
1.0
 76
     1
 77
     6
 78
     2
 67
     7
 79
     3
170
     0
171
     0
290
     0
174
     0
 93
        1
 44
0.0
173
     0
291
     0
 45
0.0
1001
ACAD
1000
AcDbSavedByObjectVersion
1070
     0
  0
VISUALSTYLE
  5
A80F
102
{ACAD_XDICTIONARY
360
A87A
102
}
102
{ACAD_REACTORS
330
A7FC
102
}
330
A7FC
100
AcDbVisualStyle
  2
X-Ray
 70
    25
 71
     2
 72
     2
 73
     1
 90
        1
 40
0.5
 41
-30.0
 62
     5
 63
     7
 74
     1
 91
        0
 64
     7
 65
   257
 75
     1
175
     1
 42
1.0
 92
        8
 66
     7
 43
1.0
 76
     1
 77
     6
 78
     2
 67
     7
 79
     3
170
     0
171
     0
290
     0
174
     0
 93
       13
 44
0.0
173
     0
291
     0
 45
0.0
1001
ACAD
1000
AcDbSavedByObjectVersion
1070
     0
  0
DICTIONARYVAR
  5
A849
102
{ACAD_REACTORS
330
A844
102
}
330
A844
100
DictionaryVariables
280
     0
  1
1:1
  0
DICTIONARYVAR
  5
A846
102
{ACAD_REACTORS
330
A844
102
}
330
A844
100
DictionaryVariables
280
     0
  1
STANDARD
  0
DICTIONARYVAR
  5
A845
102
{ACAD_REACTORS
330
A844
102
}
330
A844
100
DictionaryVariables
280
     0
  1
STANDARD
  0
DICTIONARYVAR
  5
A847
102
{ACAD_REACTORS
330
A844
102
}
330
A844
100
DictionaryVariables
280
     0
  1
Imperial24
  0
DICTIONARYVAR
  5
A848
102
{ACAD_REACTORS
330
A844
102
}
330
A844
100
DictionaryVariables
280
     0
  1
Imperial24
  0
DICTIONARYVAR
  5
A84C
102
{ACAD_REACTORS
330
A844
102
}
330
A844
100
DictionaryVariables
280
     0
  1
1
  0
DICTIONARYVAR
  5
A84B
102
{ACAD_REACTORS
330
A844
102
}
330
A844
100
DictionaryVariables
280
     0
  1
0
  0
DICTIONARYVAR
  5
A84A
102
{ACAD_REACTORS
330
A844
102
}
330
A844
100
DictionaryVariables
280
     0
  1
127
  0
DICTIONARYVAR
  5
A84D
102
{ACAD_REACTORS
330
A844
102
}
330
A844
100
DictionaryVariables
280
     0
  1
2
  0
DICTIONARY
  5
A88A
330
A82F
100
AcDbDictionary
280
     1
281
     1
  3
ACAD_XREC_ROUNDTRIP
360
A88B
  0
DICTIONARY
  5
A88C
330
A830
100
AcDbDictionary
280
     1
281
     1
  3
ACAD_XREC_ROUNDTRIP
360
A88D
  0
DICTIONARY
  5
A88E
330
A831
100
AcDbDictionary
280
     1
281
     1
  3
ACAD_XREC_ROUNDTRIP
360
A88F
  0
DICTIONARY
  5
A7ED
330
A7EC
100
AcDbDictionary
280
     1
281
     1
  3
ACAD_XREC_ROUNDTRIP
360
A854
  3
BUMPTILE
360
A7EF
  3
DIFFUSETILE
360
A7EE
  3
OPACITYTILE
360
A7F2
  3
REFLECTIONTILE
360
A7F1
  3
REFRACTIONTILE
360
A7F3
  3
SPECULARTILE
360
A7F0
  0
DICTIONARY
  5
A7E5
330
A7E4
100
AcDbDictionary
280
     1
281
     1
  3
ACAD_XREC_ROUNDTRIP
360
A853
  3
BUMPTILE
360
A7E7
  3
DIFFUSETILE
360
A7E6
  3
OPACITYTILE
360
A7EA
  3
REFLECTIONTILE
360
A7E9
  3
REFRACTIONTILE
360
A7EB
  3
SPECULARTILE
360
A7E8
  0
DICTIONARY
  5
A7F5
330
A7F4
100
AcDbDictionary
280
     1
281
     1
  3
ACAD_XREC_ROUNDTRIP
360
A855
  3
BUMPTILE
360
A7F7
  3
DIFFUSETILE
360
A7F6
  3
OPACITYTILE
360
A7FA
  3
REFLECTIONTILE
360
A7F9
  3
REFRACTIONTILE
360
A7FB
  3
SPECULARTILE
360
A7F8
  0
DICTIONARY
  5
A888
330
A82D
100
AcDbDictionary
280
     1
281
     1
  3
ACAD_XREC_ROUNDTRIP
360
A889
  0
DICTIONARY
  5
A84F
330
A817
100
AcDbDictionary
280
     1
281
     1
  3
ACAD_ROUNDTRIP_2008_TABLESTYLE_CELLSTYLEMAP
360
A850
  3
ACAD_XREC_ROUNDTRIP
360
A886
  0
DICTIONARY
  5
A860
330
A802
100
AcDbDictionary
280
     1
281
     1
  3
ACAD_XREC_ROUNDTRIP
360
A861
  0
DICTIONARY
  5
A85E
330
A801
100
AcDbDictionary
280
     1
281
     1
  3
ACAD_XREC_ROUNDTRIP
360
A85F
  0
DICTIONARY
  5
A86C
330
A808
100
AcDbDictionary
280
     1
281
     1
  3
ACAD_XREC_ROUNDTRIP
360
A86D
  0
DICTIONARY
  5
A874
330
A80C
100
AcDbDictionary
280
     1
281
     1
  3
ACAD_XREC_ROUNDTRIP
360
A875
  0
DICTIONARY
  5
A866
330
A805
100
AcDbDictionary
280
     1
281
     1
  3
ACAD_XREC_ROUNDTRIP
360
A867
  0
DICTIONARY
  5
A86A
330
A807
100
AcDbDictionary
280
     1
281
     1
  3
ACAD_XREC_ROUNDTRIP
360
A86B
  0
DICTIONARY
  5
A884
330
A814
100
AcDbDictionary
280
     1
281
     1
  3
ACAD_XREC_ROUNDTRIP
360
A885
  0
DICTIONARY
  5
A872
330
A80B
100
AcDbDictionary
280
     1
281
     1
  3
ACAD_XREC_ROUNDTRIP
360
A873
  0
DICTIONARY
  5
A856
330
A7FD
100
AcDbDictionary
280
     1
281
     1
  3
ACAD_XREC_ROUNDTRIP
360
A857
  0
DICTIONARY
  5
A858
330
A7FE
100
AcDbDictionary
280
     1
281
     1
  3
ACAD_XREC_ROUNDTRIP
360
A859
  0
DICTIONARY
  5
A85A
330
A7FF
100
AcDbDictionary
280
     1
281
     1
  3
ACAD_XREC_ROUNDTRIP
360
A85B
  0
DICTIONARY
  5
A85C
330
A800
100
AcDbDictionary
280
     1
281
     1
  3
ACAD_XREC_ROUNDTRIP
360
A85D
  0
DICTIONARY
  5
A864
330
A804
100
AcDbDictionary
280
     1
281
     1
  3
ACAD_XREC_ROUNDTRIP
360
A865
  0
DICTIONARY
  5
A880
330
A812
100
AcDbDictionary
280
     1
281
     1
  3
ACAD_XREC_ROUNDTRIP
360
A881
  0
DICTIONARY
  5
A870
330
A80A
100
AcDbDictionary
280
     1
281
     1
  3
ACAD_XREC_ROUNDTRIP
360
A871
  0
DICTIONARY
  5
A882
330
A813
100
AcDbDictionary
280
     1
281
     1
  3
ACAD_XREC_ROUNDTRIP
360
A883
  0
DICTIONARY
  5
A868
330
A806
100
AcDbDictionary
280
     1
281
     1
  3
ACAD_XREC_ROUNDTRIP
360
A869
  0
DICTIONARY
  5
A87E
330
A811
100
AcDbDictionary
280
     1
281
     1
  3
ACAD_XREC_ROUNDTRIP
360
A87F
  0
DICTIONARY
  5
A87C
330
A810
100
AcDbDictionary
280
     1
281
     1
  3
ACAD_XREC_ROUNDTRIP
360
A87D
  0
DICTIONARY
  5
A876
330
A80D
100
AcDbDictionary
280
     1
281
     1
  3
ACAD_XREC_ROUNDTRIP
360
A877
  0
DICTIONARY
  5
A878
330
A80E
100
AcDbDictionary
280
     1
281
     1
  3
ACAD_XREC_ROUNDTRIP
360
A879
  0
DICTIONARY
  5
A86E
330
A809
100
AcDbDictionary
280
     1
281
     1
  3
ACAD_XREC_ROUNDTRIP
360
A86F
  0
DICTIONARY
  5
A862
330
A803
100
AcDbDictionary
280
     1
281
     1
  3
ACAD_XREC_ROUNDTRIP
360
A863
  0
DICTIONARY
  5
A87A
330
A80F
100
AcDbDictionary
280
     1
281
     1
  3
ACAD_XREC_ROUNDTRIP
360
A87B
  0
XRECORD
  5
A88B
102
{ACAD_REACTORS
330
A88A
102
}
330
A88A
100
AcDbXrecord
280
     1
102
DISPLAYNAME
  1
Imperial24
102
FLAGS
 90
        0
  0
XRECORD
  5
A88D
102
{ACAD_REACTORS
330
A88C
102
}
330
A88C
100
AcDbXrecord
280
     1
102
SHADEPLOT
 70
     0
102
SHADEPLOTRESLEVEL
 70
     2
102
SHADEPLOTCUSTOMDPI
 70
   300
  0
XRECORD
  5
A88F
102
{ACAD_REACTORS
330
A88E
102
}
330
A88E
100
AcDbXrecord
280
     1
102
SHADEPLOT
 70
     0
102
SHADEPLOTRESLEVEL
 70
     2
102
SHADEPLOTCUSTOMDPI
 70
   300
  0
XRECORD
  5
A854
102
{ACAD_REACTORS
330
A7ED
102
}
330
A7ED
100
AcDbXrecord
280
     1
102
MATERIAL
148
0.0
149
0.0
149
0.0
 93
        0
 94
      127
282
     0
 72
     0
 77
     0
171
     0
175
     0
179
     0
273
     0
  0
XRECORD
  5
A7EF
102
{ACAD_REACTORS
330
A7ED
102
}
330
A7ED
100
AcDbXrecord
280
     1
270
     1
271
     1
  0
XRECORD
  5
A7EE
102
{ACAD_REACTORS
330
A7ED
102
}
330
A7ED
100
AcDbXrecord
280
     1
270
     1
271
     1
  0
XRECORD
  5
A7F2
102
{ACAD_REACTORS
330
A7ED
102
}
330
A7ED
100
AcDbXrecord
280
     1
270
     1
271
     1
  0
XRECORD
  5
A7F1
102
{ACAD_REACTORS
330
A7ED
102
}
330
A7ED
100
AcDbXrecord
280
     1
270
     1
271
     1
  0
XRECORD
  5
A7F3
102
{ACAD_REACTORS
330
A7ED
102
}
330
A7ED
100
AcDbXrecord
280
     1
270
     1
271
     1
  0
XRECORD
  5
A7F0
102
{ACAD_REACTORS
330
A7ED
102
}
330
A7ED
100
AcDbXrecord
280
     1
270
     1
271
     1
  0
XRECORD
  5
A853
102
{ACAD_REACTORS
330
A7E5
102
}
330
A7E5
100
AcDbXrecord
280
     1
102
MATERIAL
148
0.0
149
0.0
149
0.0
 93
        0
 94
      127
282
     0
 72
     0
 77
     0
171
     0
175
     0
179
     0
273
     0
  0
XRECORD
  5
A7E7
102
{ACAD_REACTORS
330
A7E5
102
}
330
A7E5
100
AcDbXrecord
280
     1
270
     1
271
     1
  0
XRECORD
  5
A7E6
102
{ACAD_REACTORS
330
A7E5
102
}
330
A7E5
100
AcDbXrecord
280
     1
270
     1
271
     1
  0
XRECORD
  5
A7EA
102
{ACAD_REACTORS
330
A7E5
102
}
330
A7E5
100
AcDbXrecord
280
     1
270
     1
271
     1
  0
XRECORD
  5
A7E9
102
{ACAD_REACTORS
330
A7E5
102
}
330
A7E5
100
AcDbXrecord
280
     1
270
     1
271
     1
  0
XRECORD
  5
A7EB
102
{ACAD_REACTORS
330
A7E5
102
}
330
A7E5
100
AcDbXrecord
280
     1
270
     1
271
     1
  0
XRECORD
  5
A7E8
102
{ACAD_REACTORS
330
A7E5
102
}
330
A7E5
100
AcDbXrecord
280
     1
270
     1
271
     1
  0
XRECORD
  5
A855
102
{ACAD_REACTORS
330
A7F5
102
}
330
A7F5
100
AcDbXrecord
280
     1
102
MATERIAL
148
0.0
149
0.0
149
0.0
 93
        0
 94
      127
282
     0
 72
     0
 77
     0
171
     0
175
     0
179
     0
273
     0
  0
XRECORD
  5
A7F7
102
{ACAD_REACTORS
330
A7F5
102
}
330
A7F5
100
AcDbXrecord
280
     1
270
     1
271
     1
  0
XRECORD
  5
A7F6
102
{ACAD_REACTORS
330
A7F5
102
}
330
A7F5
100
AcDbXrecord
280
     1
270
     1
271
     1
  0
XRECORD
  5
A7FA
102
{ACAD_REACTORS
330
A7F5
102
}
330
A7F5
100
AcDbXrecord
280
     1
270
     1
271
     1
  0
XRECORD
  5
A7F9
102
{ACAD_REACTORS
330
A7F5
102
}
330
A7F5
100
AcDbXrecord
280
     1
270
     1
271
     1
  0
XRECORD
  5
A7FB
102
{ACAD_REACTORS
330
A7F5
102
}
330
A7F5
100
AcDbXrecord
280
     1
270
     1
271
     1
  0
XRECORD
  5
A7F8
102
{ACAD_REACTORS
330
A7F5
102
}
330
A7F5
100
AcDbXrecord
280
     1
270
     1
271
     1
  0
XRECORD
  5
A889
102
{ACAD_REACTORS
330
A888
102
}
330
A888
100
AcDbXrecord
280
     1
102
DISPLAYNAME
  1
Imperial24
102
FLAGS
 90
        0
  0
CELLSTYLEMAP
  5
A850
102
{ACAD_REACTORS
330
A84F
102
}
330
A84F
100
AcDbCellStyleMap
 90
        3
300
CELLSTYLE
  1
TABLEFORMAT_BEGIN
 90
        5
170
     1
 91
        0
 92
    32768
 62
   257
 93
        1
300
CONTENTFORMAT
  1
CONTENTFORMAT_BEGIN
 90
        0
 91
        0
 92
      512
 93
        0
300

 40
0.0
140
1.0
 94
        5
 62
     0
340
A47A
144
0.25
309
CONTENTFORMAT_END
171
     0
 94
        0
309
TABLEFORMAT_END
  1
CELLSTYLE_BEGIN
 90
        1
 91
        1
300
_TITLE
309
CELLSTYLE_END
300
CELLSTYLE
  1
TABLEFORMAT_BEGIN
 90
        5
170
     1
 91
        0
 92
        0
 62
   257
 93
        1
300
CONTENTFORMAT
  1
CONTENTFORMAT_BEGIN
 90
        0
 91
        0
 92
      512
 93
        0
300

 40
0.0
140
1.0
 94
        5
 62
     0
340
A47A
144
0.18
309
CONTENTFORMAT_END
171
     0
 94
        0
309
TABLEFORMAT_END
  1
CELLSTYLE_BEGIN
 90
        2
 91
        1
300
_HEADER
309
CELLSTYLE_END
300
CELLSTYLE
  1
TABLEFORMAT_BEGIN
 90
        5
170
     1
 91
        0
 92
        0
 62
   257
 93
        1
300
CONTENTFORMAT
  1
CONTENTFORMAT_BEGIN
 90
        0
 91
        0
 92
      512
 93
        0
300

 40
0.0
140
1.0
 94
        2
 62
     0
340
A47A
144
0.18
309
CONTENTFORMAT_END
171
     0
 94
        0
309
TABLEFORMAT_END
  1
CELLSTYLE_BEGIN
 90
        3
 91
        2
300
_DATA
309
CELLSTYLE_END
  0
XRECORD
  5
A886
102
{ACAD_REACTORS
330
A84F
102
}
330
A84F
100
AcDbXrecord
280
     1
102
ACAD_ROUNDTRIP_PRE2007_TABLESTYLE
 90
      512
 91
        0
  1

 92
      512
 93
        0
  2

 94
      512
 95
        0
  3

  0
XRECORD
  5
A861
102
{ACAD_REACTORS
330
A860
102
}
330
A860
100
AcDbXrecord
280
     1
102
RTVSPost2010Prop28
280
     1
102
RTVSPost2010PropOp28
 70
     1
102
RTVSPost2010Prop29
280
     1
102
RTVSPost2010PropOp29
 70
     1
102
RTVSPost2010Prop30
280
     0
102
RTVSPost2010PropOp30
 70
     1
102
RTVSPost2010Prop31
280
     0
102
RTVSPost2010PropOp31
 70
     1
102
RTVSPost2010Prop32
280
     0
102
RTVSPost2010PropOp32
 70
     1
102
RTVSPost2010Prop33
280
     0
102
RTVSPost2010PropOp33
 70
     1
102
RTVSPost2010Prop34
280
     0
102
RTVSPost2010PropOp34
 70
     1
102
RTVSPost2010Prop35
280
     0
102
RTVSPost2010PropOp35
 70
     1
102
RTVSPost2010Prop36
280
     0
102
RTVSPost2010PropOp36
 70
     1
102
RTVSPost2010Prop37
 90
       50
102
RTVSPost2010PropOp37
 70
     1
102
RTVSPost2010Prop38
140
0.0
102
RTVSPost2010PropOp38
 70
     1
102
RTVSPost2010Prop39
140
1.0
102
RTVSPost2010PropOp39
 70
     1
102
RTVSPost2010Prop40
 90
        0
102
RTVSPost2010PropOp40
 70
     1
102
RTVSPost2010Prop41ColorIndex
 90
       18
102
RTVSPost2010Prop41ColorRGB
 90
        0
102
RTVSPost2010PropOp41
 70
     1
102
RTVSPost2010Prop42
 90
       50
102
RTVSPost2010PropOp42
 70
     1
102
RTVSPost2010Prop43
 90
        3
102
RTVSPost2010PropOp43
 70
     1
102
RTVSPost2010Prop44ColorIndex
 90
        5
102
RTVSPost2010Prop44ColorRGB
 90
      255
102
RTVSPost2010PropOp44
 70
     1
102
RTVSPost2010Prop45
280
     0
102
RTVSPost2010PropOp45
 70
     1
102
RTVSPost2010Prop46
 90
       50
102
RTVSPost2010PropOp46
 70
     1
102
RTVSPost2010Prop47
 90
       50
102
RTVSPost2010PropOp47
 70
     1
102
RTVSPost2010Prop48
 90
       50
102
RTVSPost2010PropOp48
 70
     1
102
RTVSPost2010Prop49
280
     0
102
RTVSPost2010PropOp49
 70
     1
102
RTVSPost2010Prop50
 90
       50
102
RTVSPost2010PropOp50
 70
     1
102
RTVSPost2010Prop51ColorIndex
 90
      256
102
RTVSPost2010Prop51ColorRGB
 90
-16777216
102
RTVSPost2010PropOp51
 70
     0
102
RTVSPost2010Prop52
140
1.0
102
RTVSPost2010PropOp52
 70
     0
102
RTVSPost2010Prop53
 90
        2
102
RTVSPost2010PropOp53
 70
     1
102
RTVSPost2010Prop54
  1
strokes_ogs.tif
102
RTVSPost2010PropOp54
 70
     1
102
RTVSPost2010Prop55
280
     0
102
RTVSPost2010PropOp55
 70
     1
102
RTVSPost2010Prop56
140
1.0
102
RTVSPost2010PropOp56
 70
     1
102
RTVSPost2010Prop57
140
1.0
102
RTVSPost2010PropOp57
 70
     1
102
RTVSPropertyOp0
 70
     1
102
RTVSPropertyOp1
 70
     1
102
RTVSPropertyOp2
 70
     1
102
RTVSPropertyOp3
 70
     1
102
RTVSPropertyOp4
 70
     1
102
RTVSPropertyOp5
 70
     1
102
RTVSPropertyOp6
 70
     1
102
RTVSPropertyOp7
 70
     1
102
RTVSPropertyOp8
 70
     1
102
RTVSPropertyOp9
 70
     1
102
RTVSPropertyOp10
 70
     1
102
RTVSPropertyOp11
 70
     1
102
RTVSPropertyOp12
 70
     1
102
RTVSPropertyOp13
 70
     1
102
RTVSPropertyOp14
 70
     1
102
RTVSPropertyOp15
 70
     1
102
RTVSPropertyOp16
 70
     1
102
RTVSPropertyOp17
 70
     1
102
RTVSPropertyOp18
 70
     1
102
RTVSPropertyOp19
 70
     1
102
RTVSPropertyOp20
 70
     1
102
RTVSPropertyOp21
 70
     1
102
RTVSPropertyOp22
 70
     1
102
RTVSPropertyOp23
 70
     1
102
RTVSPropertyOp24
 70
     1
102
RTVSPropertyOp25
 70
     1
102
RTVSPropertyOp26
 70
     1
102
RTVSPropertyOp27
 70
     1
102
RTVSPropertyOp28
 70
     1
102
RTVSPropertyOp29
 70
     1
102
RTVSPropertyOp30
 70
     1
102
RTVSPropertyOp31
 70
     1
102
RTVSPropertyOp32
 70
     1
102
RTVSPropertyOp33
 70
     1
102
RTVSPropertyOp34
 70
     1
102
RTVSPropertyOp35
 70
     1
102
RTVSPropertyOp36
 70
     1
102
RTVSPropertyOp37
 70
     1
102
RTVSPropertyOp38
 70
     1
102
RTVSPropertyOp39
 70
     1
102
RTVSPropertyOp40
 70
     1
102
RTVSPropertyOp41
 70
     1
102
RTVSPropertyOp42
 70
     1
102
RTVSPropertyOp43
 70
     1
102
RTVSPropertyOp44
 70
     1
102
RTVSPropertyOp45
 70
     1
102
RTVSPropertyOp46
 70
     1
102
RTVSPropertyOp47
 70
     1
102
RTVSPropertyOp48
 70
     1
102
RTVSPropertyOp49
 70
     1
102
RTVSPropertyOp50
 70
     1
102
RTVSPropertyOp51
 70
     0
102
RTVSPropertyOp52
 70
     0
102
RTVSPropertyOp53
 70
     1
102
RTVSPropertyOp54
 70
     1
102
RTVSPropertyOp55
 70
     1
102
RTVSPropertyOp56
 70
     1
102
RTVSPropertyOp57
 70
     1
102
RTVSPropertyOp58
 70
     1
102
RTVSPropertyOp59
 70
     1
102
RTVSPropertyOp60
 70
     1
102
RTVSPropertyOp61
 70
     1
102
RTVSPropertyOp62
 70
     1
  0
XRECORD
  5
A85F
102
{ACAD_REACTORS
330
A85E
102
}
330
A85E
100
AcDbXrecord
280
     1
102
RTVSPost2010Prop28
280
     0
102
RTVSPost2010PropOp28
 70
     1
102
RTVSPost2010Prop29
280
     1
102
RTVSPost2010PropOp29
 70
     1
102
RTVSPost2010Prop30
280
     1
102
RTVSPost2010PropOp30
 70
     1
102
RTVSPost2010Prop31
280
     0
102
RTVSPost2010PropOp31
 70
     1
102
RTVSPost2010Prop32
280
     0
102
RTVSPost2010PropOp32
 70
     1
102
RTVSPost2010Prop33
280
     0
102
RTVSPost2010PropOp33
 70
     1
102
RTVSPost2010Prop34
280
     0
102
RTVSPost2010PropOp34
 70
     1
102
RTVSPost2010Prop35
280
     0
102
RTVSPost2010PropOp35
 70
     1
102
RTVSPost2010Prop36
280
     0
102
RTVSPost2010PropOp36
 70
     1
102
RTVSPost2010Prop37
 90
       50
102
RTVSPost2010PropOp37
 70
     1
102
RTVSPost2010Prop38
140
0.0
102
RTVSPost2010PropOp38
 70
     1
102
RTVSPost2010Prop39
140
1.0
102
RTVSPost2010PropOp39
 70
     1
102
RTVSPost2010Prop40
 90
        0
102
RTVSPost2010PropOp40
 70
     1
102
RTVSPost2010Prop41ColorIndex
 90
       18
102
RTVSPost2010Prop41ColorRGB
 90
        0
102
RTVSPost2010PropOp41
 70
     1
102
RTVSPost2010Prop42
 90
       50
102
RTVSPost2010PropOp42
 70
     1
102
RTVSPost2010Prop43
 90
        3
102
RTVSPost2010PropOp43
 70
     1
102
RTVSPost2010Prop44ColorIndex
 90
        5
102
RTVSPost2010Prop44ColorRGB
 90
      255
102
RTVSPost2010PropOp44
 70
     1
102
RTVSPost2010Prop45
280
     0
102
RTVSPost2010PropOp45
 70
     1
102
RTVSPost2010Prop46
 90
       50
102
RTVSPost2010PropOp46
 70
     1
102
RTVSPost2010Prop47
 90
       50
102
RTVSPost2010PropOp47
 70
     1
102
RTVSPost2010Prop48
 90
       50
102
RTVSPost2010PropOp48
 70
     1
102
RTVSPost2010Prop49
280
     0
102
RTVSPost2010PropOp49
 70
     1
102
RTVSPost2010Prop50
 90
       50
102
RTVSPost2010PropOp50
 70
     1
102
RTVSPost2010Prop51ColorIndex
 90
      256
102
RTVSPost2010Prop51ColorRGB
 90
-16777216
102
RTVSPost2010PropOp51
 70
     0
102
RTVSPost2010Prop52
140
1.0
102
RTVSPost2010PropOp52
 70
     0
102
RTVSPost2010Prop53
 90
        2
102
RTVSPost2010PropOp53
 70
     1
102
RTVSPost2010Prop54
  1
strokes_ogs.tif
102
RTVSPost2010PropOp54
 70
     1
102
RTVSPost2010Prop55
280
     0
102
RTVSPost2010PropOp55
 70
     1
102
RTVSPost2010Prop56
140
1.0
102
RTVSPost2010PropOp56
 70
     1
102
RTVSPost2010Prop57
140
1.0
102
RTVSPost2010PropOp57
 70
     1
102
RTVSPropertyOp0
 70
     1
102
RTVSPropertyOp1
 70
     1
102
RTVSPropertyOp2
 70
     1
102
RTVSPropertyOp3
 70
     1
102
RTVSPropertyOp4
 70
     1
102
RTVSPropertyOp5
 70
     1
102
RTVSPropertyOp6
 70
     1
102
RTVSPropertyOp7
 70
     1
102
RTVSPropertyOp8
 70
     1
102
RTVSPropertyOp9
 70
     1
102
RTVSPropertyOp10
 70
     1
102
RTVSPropertyOp11
 70
     1
102
RTVSPropertyOp12
 70
     1
102
RTVSPropertyOp13
 70
     1
102
RTVSPropertyOp14
 70
     1
102
RTVSPropertyOp15
 70
     1
102
RTVSPropertyOp16
 70
     1
102
RTVSPropertyOp17
 70
     1
102
RTVSPropertyOp18
 70
     1
102
RTVSPropertyOp19
 70
     1
102
RTVSPropertyOp20
 70
     1
102
RTVSPropertyOp21
 70
     1
102
RTVSPropertyOp22
 70
     1
102
RTVSPropertyOp23
 70
     1
102
RTVSPropertyOp24
 70
     1
102
RTVSPropertyOp25
 70
     1
102
RTVSPropertyOp26
 70
     1
102
RTVSPropertyOp27
 70
     1
102
RTVSPropertyOp28
 70
     1
102
RTVSPropertyOp29
 70
     1
102
RTVSPropertyOp30
 70
     1
102
RTVSPropertyOp31
 70
     1
102
RTVSPropertyOp32
 70
     1
102
RTVSPropertyOp33
 70
     1
102
RTVSPropertyOp34
 70
     1
102
RTVSPropertyOp35
 70
     1
102
RTVSPropertyOp36
 70
     1
102
RTVSPropertyOp37
 70
     1
102
RTVSPropertyOp38
 70
     1
102
RTVSPropertyOp39
 70
     1
102
RTVSPropertyOp40
 70
     1
102
RTVSPropertyOp41
 70
     1
102
RTVSPropertyOp42
 70
     1
102
RTVSPropertyOp43
 70
     1
102
RTVSPropertyOp44
 70
     1
102
RTVSPropertyOp45
 70
     1
102
RTVSPropertyOp46
 70
     1
102
RTVSPropertyOp47
 70
     1
102
RTVSPropertyOp48
 70
     1
102
RTVSPropertyOp49
 70
     1
102
RTVSPropertyOp50
 70
     1
102
RTVSPropertyOp51
 70
     0
102
RTVSPropertyOp52
 70
     0
102
RTVSPropertyOp53
 70
     1
102
RTVSPropertyOp54
 70
     1
102
RTVSPropertyOp55
 70
     1
102
RTVSPropertyOp56
 70
     1
102
RTVSPropertyOp57
 70
     1
102
RTVSPropertyOp58
 70
     1
102
RTVSPropertyOp59
 70
     1
102
RTVSPropertyOp60
 70
     1
102
RTVSPropertyOp61
 70
     1
102
RTVSPropertyOp62
 70
     1
  0
XRECORD
  5
A86D
102
{ACAD_REACTORS
330
A86C
102
}
330
A86C
100
AcDbXrecord
280
     1
102
RTVSPost2010Prop28
280
     0
102
RTVSPost2010PropOp28
 70
     1
102
RTVSPost2010Prop29
280
     1
102
RTVSPost2010PropOp29
 70
     1
102
RTVSPost2010Prop30
280
     1
102
RTVSPost2010PropOp30
 70
     1
102
RTVSPost2010Prop31
280
     0
102
RTVSPost2010PropOp31
 70
     1
102
RTVSPost2010Prop32
280
     0
102
RTVSPost2010PropOp32
 70
     1
102
RTVSPost2010Prop33
280
     0
102
RTVSPost2010PropOp33
 70
     1
102
RTVSPost2010Prop34
280
     0
102
RTVSPost2010PropOp34
 70
     1
102
RTVSPost2010Prop35
280
     0
102
RTVSPost2010PropOp35
 70
     1
102
RTVSPost2010Prop36
280
     0
102
RTVSPost2010PropOp36
 70
     1
102
RTVSPost2010Prop37
 90
       50
102
RTVSPost2010PropOp37
 70
     1
102
RTVSPost2010Prop38
140
0.0
102
RTVSPost2010PropOp38
 70
     1
102
RTVSPost2010Prop39
140
1.0
102
RTVSPost2010PropOp39
 70
     1
102
RTVSPost2010Prop40
 90
        0
102
RTVSPost2010PropOp40
 70
     1
102
RTVSPost2010Prop41ColorIndex
 90
       18
102
RTVSPost2010Prop41ColorRGB
 90
        0
102
RTVSPost2010PropOp41
 70
     1
102
RTVSPost2010Prop42
 90
       50
102
RTVSPost2010PropOp42
 70
     1
102
RTVSPost2010Prop43
 90
        3
102
RTVSPost2010PropOp43
 70
     1
102
RTVSPost2010Prop44ColorIndex
 90
        5
102
RTVSPost2010Prop44ColorRGB
 90
      255
102
RTVSPost2010PropOp44
 70
     1
102
RTVSPost2010Prop45
280
     0
102
RTVSPost2010PropOp45
 70
     1
102
RTVSPost2010Prop46
 90
       50
102
RTVSPost2010PropOp46
 70
     1
102
RTVSPost2010Prop47
 90
       50
102
RTVSPost2010PropOp47
 70
     1
102
RTVSPost2010Prop48
 90
       50
102
RTVSPost2010PropOp48
 70
     1
102
RTVSPost2010Prop49
280
     0
102
RTVSPost2010PropOp49
 70
     1
102
RTVSPost2010Prop50
 90
       50
102
RTVSPost2010PropOp50
 70
     1
102
RTVSPost2010Prop51ColorIndex
 90
      256
102
RTVSPost2010Prop51ColorRGB
 90
-16777216
102
RTVSPost2010PropOp51
 70
     0
102
RTVSPost2010Prop52
140
1.0
102
RTVSPost2010PropOp52
 70
     0
102
RTVSPost2010Prop53
 90
        2
102
RTVSPost2010PropOp53
 70
     1
102
RTVSPost2010Prop54
  1
strokes_ogs.tif
102
RTVSPost2010PropOp54
 70
     1
102
RTVSPost2010Prop55
280
     0
102
RTVSPost2010PropOp55
 70
     1
102
RTVSPost2010Prop56
140
1.0
102
RTVSPost2010PropOp56
 70
     1
102
RTVSPost2010Prop57
140
1.0
102
RTVSPost2010PropOp57
 70
     1
102
RTVSPropertyOp0
 70
     1
102
RTVSPropertyOp1
 70
     1
102
RTVSPropertyOp2
 70
     1
102
RTVSPropertyOp3
 70
     1
102
RTVSPropertyOp4
 70
     1
102
RTVSPropertyOp5
 70
     1
102
RTVSPropertyOp6
 70
     1
102
RTVSPropertyOp7
 70
     1
102
RTVSPropertyOp8
 70
     1
102
RTVSPropertyOp9
 70
     1
102
RTVSPropertyOp10
 70
     1
102
RTVSPropertyOp11
 70
     1
102
RTVSPropertyOp12
 70
     1
102
RTVSPropertyOp13
 70
     1
102
RTVSPropertyOp14
 70
     1
102
RTVSPropertyOp15
 70
     1
102
RTVSPropertyOp16
 70
     1
102
RTVSPropertyOp17
 70
     1
102
RTVSPropertyOp18
 70
     1
102
RTVSPropertyOp19
 70
     1
102
RTVSPropertyOp20
 70
     1
102
RTVSPropertyOp21
 70
     1
102
RTVSPropertyOp22
 70
     1
102
RTVSPropertyOp23
 70
     1
102
RTVSPropertyOp24
 70
     1
102
RTVSPropertyOp25
 70
     1
102
RTVSPropertyOp26
 70
     1
102
RTVSPropertyOp27
 70
     1
102
RTVSPropertyOp28
 70
     1
102
RTVSPropertyOp29
 70
     1
102
RTVSPropertyOp30
 70
     1
102
RTVSPropertyOp31
 70
     1
102
RTVSPropertyOp32
 70
     1
102
RTVSPropertyOp33
 70
     1
102
RTVSPropertyOp34
 70
     1
102
RTVSPropertyOp35
 70
     1
102
RTVSPropertyOp36
 70
     1
102
RTVSPropertyOp37
 70
     1
102
RTVSPropertyOp38
 70
     1
102
RTVSPropertyOp39
 70
     1
102
RTVSPropertyOp40
 70
     1
102
RTVSPropertyOp41
 70
     1
102
RTVSPropertyOp42
 70
     1
102
RTVSPropertyOp43
 70
     1
102
RTVSPropertyOp44
 70
     1
102
RTVSPropertyOp45
 70
     1
102
RTVSPropertyOp46
 70
     1
102
RTVSPropertyOp47
 70
     1
102
RTVSPropertyOp48
 70
     1
102
RTVSPropertyOp49
 70
     1
102
RTVSPropertyOp50
 70
     1
102
RTVSPropertyOp51
 70
     0
102
RTVSPropertyOp52
 70
     0
102
RTVSPropertyOp53
 70
     1
102
RTVSPropertyOp54
 70
     1
102
RTVSPropertyOp55
 70
     1
102
RTVSPropertyOp56
 70
     1
102
RTVSPropertyOp57
 70
     1
102
RTVSPropertyOp58
 70
     1
102
RTVSPropertyOp59
 70
     1
102
RTVSPropertyOp60
 70
     1
102
RTVSPropertyOp61
 70
     1
102
RTVSPropertyOp62
 70
     1
  0
XRECORD
  5
A875
102
{ACAD_REACTORS
330
A874
102
}
330
A874
100
AcDbXrecord
280
     1
102
RTVSPost2010Prop28
280
     0
102
RTVSPost2010PropOp28
 70
     1
102
RTVSPost2010Prop29
280
     1
102
RTVSPost2010PropOp29
 70
     1
102
RTVSPost2010Prop30
280
     1
102
RTVSPost2010PropOp30
 70
     1
102
RTVSPost2010Prop31
280
     0
102
RTVSPost2010PropOp31
 70
     1
102
RTVSPost2010Prop32
280
     0
102
RTVSPost2010PropOp32
 70
     1
102
RTVSPost2010Prop33
280
     0
102
RTVSPost2010PropOp33
 70
     1
102
RTVSPost2010Prop34
280
     0
102
RTVSPost2010PropOp34
 70
     1
102
RTVSPost2010Prop35
280
     0
102
RTVSPost2010PropOp35
 70
     1
102
RTVSPost2010Prop36
280
     0
102
RTVSPost2010PropOp36
 70
     1
102
RTVSPost2010Prop37
 90
       50
102
RTVSPost2010PropOp37
 70
     1
102
RTVSPost2010Prop38
140
0.0
102
RTVSPost2010PropOp38
 70
     1
102
RTVSPost2010Prop39
140
1.0
102
RTVSPost2010PropOp39
 70
     1
102
RTVSPost2010Prop40
 90
        0
102
RTVSPost2010PropOp40
 70
     1
102
RTVSPost2010Prop41ColorIndex
 90
       18
102
RTVSPost2010Prop41ColorRGB
 90
        0
102
RTVSPost2010PropOp41
 70
     1
102
RTVSPost2010Prop42
 90
       50
102
RTVSPost2010PropOp42
 70
     1
102
RTVSPost2010Prop43
 90
        3
102
RTVSPost2010PropOp43
 70
     1
102
RTVSPost2010Prop44ColorIndex
 90
        5
102
RTVSPost2010Prop44ColorRGB
 90
      255
102
RTVSPost2010PropOp44
 70
     1
102
RTVSPost2010Prop45
280
     0
102
RTVSPost2010PropOp45
 70
     1
102
RTVSPost2010Prop46
 90
       50
102
RTVSPost2010PropOp46
 70
     1
102
RTVSPost2010Prop47
 90
       50
102
RTVSPost2010PropOp47
 70
     1
102
RTVSPost2010Prop48
 90
       50
102
RTVSPost2010PropOp48
 70
     1
102
RTVSPost2010Prop49
280
     0
102
RTVSPost2010PropOp49
 70
     1
102
RTVSPost2010Prop50
 90
       50
102
RTVSPost2010PropOp50
 70
     1
102
RTVSPost2010Prop51ColorIndex
 90
      256
102
RTVSPost2010Prop51ColorRGB
 90
-16777216
102
RTVSPost2010PropOp51
 70
     0
102
RTVSPost2010Prop52
140
1.0
102
RTVSPost2010PropOp52
 70
     0
102
RTVSPost2010Prop53
 90
        2
102
RTVSPost2010PropOp53
 70
     1
102
RTVSPost2010Prop54
  1
strokes_ogs.tif
102
RTVSPost2010PropOp54
 70
     1
102
RTVSPost2010Prop55
280
     0
102
RTVSPost2010PropOp55
 70
     1
102
RTVSPost2010Prop56
140
1.0
102
RTVSPost2010PropOp56
 70
     1
102
RTVSPost2010Prop57
140
1.0
102
RTVSPost2010PropOp57
 70
     1
102
RTVSPropertyOp0
 70
     1
102
RTVSPropertyOp1
 70
     1
102
RTVSPropertyOp2
 70
     1
102
RTVSPropertyOp3
 70
     1
102
RTVSPropertyOp4
 70
     1
102
RTVSPropertyOp5
 70
     1
102
RTVSPropertyOp6
 70
     1
102
RTVSPropertyOp7
 70
     1
102
RTVSPropertyOp8
 70
     1
102
RTVSPropertyOp9
 70
     1
102
RTVSPropertyOp10
 70
     1
102
RTVSPropertyOp11
 70
     1
102
RTVSPropertyOp12
 70
     1
102
RTVSPropertyOp13
 70
     1
102
RTVSPropertyOp14
 70
     1
102
RTVSPropertyOp15
 70
     1
102
RTVSPropertyOp16
 70
     1
102
RTVSPropertyOp17
 70
     1
102
RTVSPropertyOp18
 70
     1
102
RTVSPropertyOp19
 70
     1
102
RTVSPropertyOp20
 70
     1
102
RTVSPropertyOp21
 70
     1
102
RTVSPropertyOp22
 70
     1
102
RTVSPropertyOp23
 70
     1
102
RTVSPropertyOp24
 70
     1
102
RTVSPropertyOp25
 70
     1
102
RTVSPropertyOp26
 70
     1
102
RTVSPropertyOp27
 70
     1
102
RTVSPropertyOp28
 70
     1
102
RTVSPropertyOp29
 70
     1
102
RTVSPropertyOp30
 70
     1
102
RTVSPropertyOp31
 70
     1
102
RTVSPropertyOp32
 70
     1
102
RTVSPropertyOp33
 70
     1
102
RTVSPropertyOp34
 70
     1
102
RTVSPropertyOp35
 70
     1
102
RTVSPropertyOp36
 70
     1
102
RTVSPropertyOp37
 70
     1
102
RTVSPropertyOp38
 70
     1
102
RTVSPropertyOp39
 70
     1
102
RTVSPropertyOp40
 70
     1
102
RTVSPropertyOp41
 70
     1
102
RTVSPropertyOp42
 70
     1
102
RTVSPropertyOp43
 70
     1
102
RTVSPropertyOp44
 70
     1
102
RTVSPropertyOp45
 70
     1
102
RTVSPropertyOp46
 70
     1
102
RTVSPropertyOp47
 70
     1
102
RTVSPropertyOp48
 70
     1
102
RTVSPropertyOp49
 70
     1
102
RTVSPropertyOp50
 70
     1
102
RTVSPropertyOp51
 70
     0
102
RTVSPropertyOp52
 70
     0
102
RTVSPropertyOp53
 70
     1
102
RTVSPropertyOp54
 70
     1
102
RTVSPropertyOp55
 70
     1
102
RTVSPropertyOp56
 70
     1
102
RTVSPropertyOp57
 70
     1
102
RTVSPropertyOp58
 70
     1
102
RTVSPropertyOp59
 70
     1
102
RTVSPropertyOp60
 70
     1
102
RTVSPropertyOp61
 70
     1
102
RTVSPropertyOp62
 70
     1
  0
XRECORD
  5
A867
102
{ACAD_REACTORS
330
A866
102
}
330
A866
100
AcDbXrecord
280
     1
102
RTVSPost2010Prop28
280
     0
102
RTVSPost2010PropOp28
 70
     1
102
RTVSPost2010Prop29
280
     1
102
RTVSPost2010PropOp29
 70
     1
102
RTVSPost2010Prop30
280
     1
102
RTVSPost2010PropOp30
 70
     1
102
RTVSPost2010Prop31
280
     0
102
RTVSPost2010PropOp31
 70
     1
102
RTVSPost2010Prop32
280
     0
102
RTVSPost2010PropOp32
 70
     1
102
RTVSPost2010Prop33
280
     0
102
RTVSPost2010PropOp33
 70
     1
102
RTVSPost2010Prop34
280
     0
102
RTVSPost2010PropOp34
 70
     1
102
RTVSPost2010Prop35
280
     0
102
RTVSPost2010PropOp35
 70
     1
102
RTVSPost2010Prop36
280
     0
102
RTVSPost2010PropOp36
 70
     1
102
RTVSPost2010Prop37
 90
       50
102
RTVSPost2010PropOp37
 70
     1
102
RTVSPost2010Prop38
140
0.0
102
RTVSPost2010PropOp38
 70
     1
102
RTVSPost2010Prop39
140
1.0
102
RTVSPost2010PropOp39
 70
     1
102
RTVSPost2010Prop40
 90
        0
102
RTVSPost2010PropOp40
 70
     1
102
RTVSPost2010Prop41ColorIndex
 90
       18
102
RTVSPost2010Prop41ColorRGB
 90
        0
102
RTVSPost2010PropOp41
 70
     1
102
RTVSPost2010Prop42
 90
       50
102
RTVSPost2010PropOp42
 70
     1
102
RTVSPost2010Prop43
 90
        3
102
RTVSPost2010PropOp43
 70
     1
102
RTVSPost2010Prop44ColorIndex
 90
        5
102
RTVSPost2010Prop44ColorRGB
 90
      255
102
RTVSPost2010PropOp44
 70
     1
102
RTVSPost2010Prop45
280
     0
102
RTVSPost2010PropOp45
 70
     1
102
RTVSPost2010Prop46
 90
       50
102
RTVSPost2010PropOp46
 70
     1
102
RTVSPost2010Prop47
 90
       50
102
RTVSPost2010PropOp47
 70
     1
102
RTVSPost2010Prop48
 90
       50
102
RTVSPost2010PropOp48
 70
     1
102
RTVSPost2010Prop49
280
     0
102
RTVSPost2010PropOp49
 70
     1
102
RTVSPost2010Prop50
 90
       50
102
RTVSPost2010PropOp50
 70
     1
102
RTVSPost2010Prop51ColorIndex
 90
      256
102
RTVSPost2010Prop51ColorRGB
 90
-16777216
102
RTVSPost2010PropOp51
 70
     0
102
RTVSPost2010Prop52
140
1.0
102
RTVSPost2010PropOp52
 70
     0
102
RTVSPost2010Prop53
 90
        2
102
RTVSPost2010PropOp53
 70
     1
102
RTVSPost2010Prop54
  1
strokes_ogs.tif
102
RTVSPost2010PropOp54
 70
     1
102
RTVSPost2010Prop55
280
     0
102
RTVSPost2010PropOp55
 70
     1
102
RTVSPost2010Prop56
140
1.0
102
RTVSPost2010PropOp56
 70
     1
102
RTVSPost2010Prop57
140
1.0
102
RTVSPost2010PropOp57
 70
     1
102
RTVSPropertyOp0
 70
     1
102
RTVSPropertyOp1
 70
     1
102
RTVSPropertyOp2
 70
     1
102
RTVSPropertyOp3
 70
     1
102
RTVSPropertyOp4
 70
     1
102
RTVSPropertyOp5
 70
     1
102
RTVSPropertyOp6
 70
     1
102
RTVSPropertyOp7
 70
     1
102
RTVSPropertyOp8
 70
     1
102
RTVSPropertyOp9
 70
     1
102
RTVSPropertyOp10
 70
     1
102
RTVSPropertyOp11
 70
     1
102
RTVSPropertyOp12
 70
     1
102
RTVSPropertyOp13
 70
     1
102
RTVSPropertyOp14
 70
     1
102
RTVSPropertyOp15
 70
     1
102
RTVSPropertyOp16
 70
     1
102
RTVSPropertyOp17
 70
     1
102
RTVSPropertyOp18
 70
     1
102
RTVSPropertyOp19
 70
     1
102
RTVSPropertyOp20
 70
     1
102
RTVSPropertyOp21
 70
     1
102
RTVSPropertyOp22
 70
     1
102
RTVSPropertyOp23
 70
     1
102
RTVSPropertyOp24
 70
     1
102
RTVSPropertyOp25
 70
     1
102
RTVSPropertyOp26
 70
     1
102
RTVSPropertyOp27
 70
     1
102
RTVSPropertyOp28
 70
     1
102
RTVSPropertyOp29
 70
     1
102
RTVSPropertyOp30
 70
     1
102
RTVSPropertyOp31
 70
     1
102
RTVSPropertyOp32
 70
     1
102
RTVSPropertyOp33
 70
     1
102
RTVSPropertyOp34
 70
     1
102
RTVSPropertyOp35
 70
     1
102
RTVSPropertyOp36
 70
     1
102
RTVSPropertyOp37
 70
     1
102
RTVSPropertyOp38
 70
     1
102
RTVSPropertyOp39
 70
     1
102
RTVSPropertyOp40
 70
     1
102
RTVSPropertyOp41
 70
     1
102
RTVSPropertyOp42
 70
     1
102
RTVSPropertyOp43
 70
     1
102
RTVSPropertyOp44
 70
     1
102
RTVSPropertyOp45
 70
     1
102
RTVSPropertyOp46
 70
     1
102
RTVSPropertyOp47
 70
     1
102
RTVSPropertyOp48
 70
     1
102
RTVSPropertyOp49
 70
     1
102
RTVSPropertyOp50
 70
     1
102
RTVSPropertyOp51
 70
     0
102
RTVSPropertyOp52
 70
     0
102
RTVSPropertyOp53
 70
     1
102
RTVSPropertyOp54
 70
     1
102
RTVSPropertyOp55
 70
     1
102
RTVSPropertyOp56
 70
     1
102
RTVSPropertyOp57
 70
     1
102
RTVSPropertyOp58
 70
     1
102
RTVSPropertyOp59
 70
     1
102
RTVSPropertyOp60
 70
     1
102
RTVSPropertyOp61
 70
     1
102
RTVSPropertyOp62
 70
     1
  0
XRECORD
  5
A86B
102
{ACAD_REACTORS
330
A86A
102
}
330
A86A
100
AcDbXrecord
280
     1
102
RTVSPost2010Prop28
280
     0
102
RTVSPost2010PropOp28
 70
     1
102
RTVSPost2010Prop29
280
     1
102
RTVSPost2010PropOp29
 70
     1
102
RTVSPost2010Prop30
280
     1
102
RTVSPost2010PropOp30
 70
     1
102
RTVSPost2010Prop31
280
     0
102
RTVSPost2010PropOp31
 70
     1
102
RTVSPost2010Prop32
280
     0
102
RTVSPost2010PropOp32
 70
     1
102
RTVSPost2010Prop33
280
     0
102
RTVSPost2010PropOp33
 70
     1
102
RTVSPost2010Prop34
280
     0
102
RTVSPost2010PropOp34
 70
     1
102
RTVSPost2010Prop35
280
     0
102
RTVSPost2010PropOp35
 70
     1
102
RTVSPost2010Prop36
280
     0
102
RTVSPost2010PropOp36
 70
     1
102
RTVSPost2010Prop37
 90
       50
102
RTVSPost2010PropOp37
 70
     1
102
RTVSPost2010Prop38
140
0.0
102
RTVSPost2010PropOp38
 70
     1
102
RTVSPost2010Prop39
140
1.0
102
RTVSPost2010PropOp39
 70
     1
102
RTVSPost2010Prop40
 90
        0
102
RTVSPost2010PropOp40
 70
     1
102
RTVSPost2010Prop41ColorIndex
 90
       18
102
RTVSPost2010Prop41ColorRGB
 90
        0
102
RTVSPost2010PropOp41
 70
     1
102
RTVSPost2010Prop42
 90
       50
102
RTVSPost2010PropOp42
 70
     1
102
RTVSPost2010Prop43
 90
        3
102
RTVSPost2010PropOp43
 70
     1
102
RTVSPost2010Prop44ColorIndex
 90
        5
102
RTVSPost2010Prop44ColorRGB
 90
      255
102
RTVSPost2010PropOp44
 70
     1
102
RTVSPost2010Prop45
280
     0
102
RTVSPost2010PropOp45
 70
     1
102
RTVSPost2010Prop46
 90
       50
102
RTVSPost2010PropOp46
 70
     1
102
RTVSPost2010Prop47
 90
       50
102
RTVSPost2010PropOp47
 70
     1
102
RTVSPost2010Prop48
 90
       50
102
RTVSPost2010PropOp48
 70
     1
102
RTVSPost2010Prop49
280
     0
102
RTVSPost2010PropOp49
 70
     1
102
RTVSPost2010Prop50
 90
       50
102
RTVSPost2010PropOp50
 70
     1
102
RTVSPost2010Prop51ColorIndex
 90
      256
102
RTVSPost2010Prop51ColorRGB
 90
-16777216
102
RTVSPost2010PropOp51
 70
     0
102
RTVSPost2010Prop52
140
1.0
102
RTVSPost2010PropOp52
 70
     0
102
RTVSPost2010Prop53
 90
        2
102
RTVSPost2010PropOp53
 70
     1
102
RTVSPost2010Prop54
  1
strokes_ogs.tif
102
RTVSPost2010PropOp54
 70
     1
102
RTVSPost2010Prop55
280
     0
102
RTVSPost2010PropOp55
 70
     1
102
RTVSPost2010Prop56
140
1.0
102
RTVSPost2010PropOp56
 70
     1
102
RTVSPost2010Prop57
140
1.0
102
RTVSPost2010PropOp57
 70
     1
102
RTVSPropertyOp0
 70
     1
102
RTVSPropertyOp1
 70
     1
102
RTVSPropertyOp2
 70
     1
102
RTVSPropertyOp3
 70
     1
102
RTVSPropertyOp4
 70
     1
102
RTVSPropertyOp5
 70
     1
102
RTVSPropertyOp6
 70
     1
102
RTVSPropertyOp7
 70
     1
102
RTVSPropertyOp8
 70
     1
102
RTVSPropertyOp9
 70
     1
102
RTVSPropertyOp10
 70
     1
102
RTVSPropertyOp11
 70
     1
102
RTVSPropertyOp12
 70
     1
102
RTVSPropertyOp13
 70
     1
102
RTVSPropertyOp14
 70
     1
102
RTVSPropertyOp15
 70
     1
102
RTVSPropertyOp16
 70
     1
102
RTVSPropertyOp17
 70
     1
102
RTVSPropertyOp18
 70
     1
102
RTVSPropertyOp19
 70
     1
102
RTVSPropertyOp20
 70
     1
102
RTVSPropertyOp21
 70
     1
102
RTVSPropertyOp22
 70
     1
102
RTVSPropertyOp23
 70
     1
102
RTVSPropertyOp24
 70
     1
102
RTVSPropertyOp25
 70
     1
102
RTVSPropertyOp26
 70
     1
102
RTVSPropertyOp27
 70
     1
102
RTVSPropertyOp28
 70
     1
102
RTVSPropertyOp29
 70
     1
102
RTVSPropertyOp30
 70
     1
102
RTVSPropertyOp31
 70
     1
102
RTVSPropertyOp32
 70
     1
102
RTVSPropertyOp33
 70
     1
102
RTVSPropertyOp34
 70
     1
102
RTVSPropertyOp35
 70
     1
102
RTVSPropertyOp36
 70
     1
102
RTVSPropertyOp37
 70
     1
102
RTVSPropertyOp38
 70
     1
102
RTVSPropertyOp39
 70
     1
102
RTVSPropertyOp40
 70
     1
102
RTVSPropertyOp41
 70
     1
102
RTVSPropertyOp42
 70
     1
102
RTVSPropertyOp43
 70
     1
102
RTVSPropertyOp44
 70
     1
102
RTVSPropertyOp45
 70
     1
102
RTVSPropertyOp46
 70
     1
102
RTVSPropertyOp47
 70
     1
102
RTVSPropertyOp48
 70
     1
102
RTVSPropertyOp49
 70
     1
102
RTVSPropertyOp50
 70
     1
102
RTVSPropertyOp51
 70
     0
102
RTVSPropertyOp52
 70
     0
102
RTVSPropertyOp53
 70
     1
102
RTVSPropertyOp54
 70
     1
102
RTVSPropertyOp55
 70
     1
102
RTVSPropertyOp56
 70
     1
102
RTVSPropertyOp57
 70
     1
102
RTVSPropertyOp58
 70
     1
102
RTVSPropertyOp59
 70
     1
102
RTVSPropertyOp60
 70
     1
102
RTVSPropertyOp61
 70
     1
102
RTVSPropertyOp62
 70
     1
  0
XRECORD
  5
A885
102
{ACAD_REACTORS
330
A884
102
}
330
A884
100
AcDbXrecord
280
     1
102
RTVSPost2010Prop28
280
     0
102
RTVSPost2010PropOp28
 70
     1
102
RTVSPost2010Prop29
280
     1
102
RTVSPost2010PropOp29
 70
     1
102
RTVSPost2010Prop30
280
     1
102
RTVSPost2010PropOp30
 70
     1
102
RTVSPost2010Prop31
280
     0
102
RTVSPost2010PropOp31
 70
     1
102
RTVSPost2010Prop32
280
     0
102
RTVSPost2010PropOp32
 70
     1
102
RTVSPost2010Prop33
280
     0
102
RTVSPost2010PropOp33
 70
     1
102
RTVSPost2010Prop34
280
     0
102
RTVSPost2010PropOp34
 70
     1
102
RTVSPost2010Prop35
280
     0
102
RTVSPost2010PropOp35
 70
     1
102
RTVSPost2010Prop36
280
     0
102
RTVSPost2010PropOp36
 70
     1
102
RTVSPost2010Prop37
 90
       50
102
RTVSPost2010PropOp37
 70
     0
102
RTVSPost2010Prop38
140
0.0
102
RTVSPost2010PropOp38
 70
     0
102
RTVSPost2010Prop39
140
1.0
102
RTVSPost2010PropOp39
 70
     0
102
RTVSPost2010Prop40
 90
        0
102
RTVSPost2010PropOp40
 70
     0
102
RTVSPost2010Prop41ColorIndex
 90
       18
102
RTVSPost2010Prop41ColorRGB
 90
        0
102
RTVSPost2010PropOp41
 70
     0
102
RTVSPost2010Prop42
 90
       50
102
RTVSPost2010PropOp42
 70
     0
102
RTVSPost2010Prop43
 90
        3
102
RTVSPost2010PropOp43
 70
     0
102
RTVSPost2010Prop44ColorIndex
 90
        5
102
RTVSPost2010Prop44ColorRGB
 90
      255
102
RTVSPost2010PropOp44
 70
     0
102
RTVSPost2010Prop45
280
     0
102
RTVSPost2010PropOp45
 70
     1
102
RTVSPost2010Prop46
 90
       50
102
RTVSPost2010PropOp46
 70
     0
102
RTVSPost2010Prop47
 90
       50
102
RTVSPost2010PropOp47
 70
     0
102
RTVSPost2010Prop48
 90
       50
102
RTVSPost2010PropOp48
 70
     0
102
RTVSPost2010Prop49
280
     0
102
RTVSPost2010PropOp49
 70
     1
102
RTVSPost2010Prop50
 90
       50
102
RTVSPost2010PropOp50
 70
     0
102
RTVSPost2010Prop51ColorIndex
 90
      256
102
RTVSPost2010Prop51ColorRGB
 90
-16777216
102
RTVSPost2010PropOp51
 70
     0
102
RTVSPost2010Prop52
140
1.0
102
RTVSPost2010PropOp52
 70
     0
102
RTVSPost2010Prop53
 90
        2
102
RTVSPost2010PropOp53
 70
     0
102
RTVSPost2010Prop54
  1
strokes_ogs.tif
102
RTVSPost2010PropOp54
 70
     0
102
RTVSPost2010Prop55
280
     0
102
RTVSPost2010PropOp55
 70
     1
102
RTVSPost2010Prop56
140
1.0
102
RTVSPost2010PropOp56
 70
     0
102
RTVSPost2010Prop57
140
1.0
102
RTVSPost2010PropOp57
 70
     0
102
RTVSPropertyOp0
 70
     0
102
RTVSPropertyOp1
 70
     0
102
RTVSPropertyOp2
 70
     0
102
RTVSPropertyOp3
 70
     0
102
RTVSPropertyOp4
 70
     0
102
RTVSPropertyOp5
 70
     0
102
RTVSPropertyOp6
 70
     0
102
RTVSPropertyOp7
 70
     0
102
RTVSPropertyOp8
 70
     0
102
RTVSPropertyOp9
 70
     0
102
RTVSPropertyOp10
 70
     0
102
RTVSPropertyOp11
 70
     0
102
RTVSPropertyOp12
 70
     0
102
RTVSPropertyOp13
 70
     0
102
RTVSPropertyOp14
 70
     2
102
RTVSPropertyOp15
 70
     0
102
RTVSPropertyOp16
 70
     0
102
RTVSPropertyOp17
 70
     0
102
RTVSPropertyOp18
 70
     0
102
RTVSPropertyOp19
 70
     0
102
RTVSPropertyOp20
 70
     0
102
RTVSPropertyOp21
 70
     0
102
RTVSPropertyOp22
 70
     0
102
RTVSPropertyOp23
 70
     0
102
RTVSPropertyOp24
 70
     0
102
RTVSPropertyOp25
 70
     0
102
RTVSPropertyOp26
 70
     0
102
RTVSPropertyOp27
 70
     0
102
RTVSPropertyOp28
 70
     1
102
RTVSPropertyOp29
 70
     1
102
RTVSPropertyOp30
 70
     1
102
RTVSPropertyOp31
 70
     1
102
RTVSPropertyOp32
 70
     1
102
RTVSPropertyOp33
 70
     1
102
RTVSPropertyOp34
 70
     1
102
RTVSPropertyOp35
 70
     1
102
RTVSPropertyOp36
 70
     1
102
RTVSPropertyOp37
 70
     0
102
RTVSPropertyOp38
 70
     0
102
RTVSPropertyOp39
 70
     0
102
RTVSPropertyOp40
 70
     0
102
RTVSPropertyOp41
 70
     0
102
RTVSPropertyOp42
 70
     0
102
RTVSPropertyOp43
 70
     0
102
RTVSPropertyOp44
 70
     0
102
RTVSPropertyOp45
 70
     1
102
RTVSPropertyOp46
 70
     0
102
RTVSPropertyOp47
 70
     0
102
RTVSPropertyOp48
 70
     0
102
RTVSPropertyOp49
 70
     1
102
RTVSPropertyOp50
 70
     0
102
RTVSPropertyOp51
 70
     0
102
RTVSPropertyOp52
 70
     0
102
RTVSPropertyOp53
 70
     0
102
RTVSPropertyOp54
 70
     0
102
RTVSPropertyOp55
 70
     1
102
RTVSPropertyOp56
 70
     0
102
RTVSPropertyOp57
 70
     0
102
RTVSPropertyOp58
 70
     0
102
RTVSPropertyOp59
 70
     0
102
RTVSPropertyOp60
 70
     0
102
RTVSPropertyOp61
 70
     0
102
RTVSPropertyOp62
 70
     0
  0
XRECORD
  5
A873
102
{ACAD_REACTORS
330
A872
102
}
330
A872
100
AcDbXrecord
280
     1
102
RTVSPost2010Prop28
280
     0
102
RTVSPost2010PropOp28
 70
     1
102
RTVSPost2010Prop29
280
     1
102
RTVSPost2010PropOp29
 70
     1
102
RTVSPost2010Prop30
280
     1
102
RTVSPost2010PropOp30
 70
     1
102
RTVSPost2010Prop31
280
     0
102
RTVSPost2010PropOp31
 70
     1
102
RTVSPost2010Prop32
280
     0
102
RTVSPost2010PropOp32
 70
     1
102
RTVSPost2010Prop33
280
     0
102
RTVSPost2010PropOp33
 70
     1
102
RTVSPost2010Prop34
280
     0
102
RTVSPost2010PropOp34
 70
     1
102
RTVSPost2010Prop35
280
     0
102
RTVSPost2010PropOp35
 70
     1
102
RTVSPost2010Prop36
280
     0
102
RTVSPost2010PropOp36
 70
     1
102
RTVSPost2010Prop37
 90
       50
102
RTVSPost2010PropOp37
 70
     1
102
RTVSPost2010Prop38
140
0.0
102
RTVSPost2010PropOp38
 70
     1
102
RTVSPost2010Prop39
140
1.0
102
RTVSPost2010PropOp39
 70
     1
102
RTVSPost2010Prop40
 90
        0
102
RTVSPost2010PropOp40
 70
     1
102
RTVSPost2010Prop41ColorIndex
 90
       18
102
RTVSPost2010Prop41ColorRGB
 90
        0
102
RTVSPost2010PropOp41
 70
     1
102
RTVSPost2010Prop42
 90
       50
102
RTVSPost2010PropOp42
 70
     1
102
RTVSPost2010Prop43
 90
        3
102
RTVSPost2010PropOp43
 70
     1
102
RTVSPost2010Prop44ColorIndex
 90
        5
102
RTVSPost2010Prop44ColorRGB
 90
      255
102
RTVSPost2010PropOp44
 70
     1
102
RTVSPost2010Prop45
280
     0
102
RTVSPost2010PropOp45
 70
     1
102
RTVSPost2010Prop46
 90
       50
102
RTVSPost2010PropOp46
 70
     1
102
RTVSPost2010Prop47
 90
       50
102
RTVSPost2010PropOp47
 70
     1
102
RTVSPost2010Prop48
 90
       50
102
RTVSPost2010PropOp48
 70
     1
102
RTVSPost2010Prop49
280
     0
102
RTVSPost2010PropOp49
 70
     1
102
RTVSPost2010Prop50
 90
       50
102
RTVSPost2010PropOp50
 70
     1
102
RTVSPost2010Prop51ColorIndex
 90
      256
102
RTVSPost2010Prop51ColorRGB
 90
-16777216
102
RTVSPost2010PropOp51
 70
     0
102
RTVSPost2010Prop52
140
1.0
102
RTVSPost2010PropOp52
 70
     0
102
RTVSPost2010Prop53
 90
        2
102
RTVSPost2010PropOp53
 70
     1
102
RTVSPost2010Prop54
  1
strokes_ogs.tif
102
RTVSPost2010PropOp54
 70
     1
102
RTVSPost2010Prop55
280
     0
102
RTVSPost2010PropOp55
 70
     1
102
RTVSPost2010Prop56
140
1.0
102
RTVSPost2010PropOp56
 70
     1
102
RTVSPost2010Prop57
140
1.0
102
RTVSPost2010PropOp57
 70
     1
102
RTVSPropertyOp0
 70
     1
102
RTVSPropertyOp1
 70
     1
102
RTVSPropertyOp2
 70
     1
102
RTVSPropertyOp3
 70
     1
102
RTVSPropertyOp4
 70
     1
102
RTVSPropertyOp5
 70
     1
102
RTVSPropertyOp6
 70
     1
102
RTVSPropertyOp7
 70
     1
102
RTVSPropertyOp8
 70
     1
102
RTVSPropertyOp9
 70
     1
102
RTVSPropertyOp10
 70
     1
102
RTVSPropertyOp11
 70
     1
102
RTVSPropertyOp12
 70
     1
102
RTVSPropertyOp13
 70
     1
102
RTVSPropertyOp14
 70
     1
102
RTVSPropertyOp15
 70
     1
102
RTVSPropertyOp16
 70
     1
102
RTVSPropertyOp17
 70
     1
102
RTVSPropertyOp18
 70
     1
102
RTVSPropertyOp19
 70
     1
102
RTVSPropertyOp20
 70
     1
102
RTVSPropertyOp21
 70
     1
102
RTVSPropertyOp22
 70
     1
102
RTVSPropertyOp23
 70
     1
102
RTVSPropertyOp24
 70
     1
102
RTVSPropertyOp25
 70
     1
102
RTVSPropertyOp26
 70
     1
102
RTVSPropertyOp27
 70
     1
102
RTVSPropertyOp28
 70
     1
102
RTVSPropertyOp29
 70
     1
102
RTVSPropertyOp30
 70
     1
102
RTVSPropertyOp31
 70
     1
102
RTVSPropertyOp32
 70
     1
102
RTVSPropertyOp33
 70
     1
102
RTVSPropertyOp34
 70
     1
102
RTVSPropertyOp35
 70
     1
102
RTVSPropertyOp36
 70
     1
102
RTVSPropertyOp37
 70
     1
102
RTVSPropertyOp38
 70
     1
102
RTVSPropertyOp39
 70
     1
102
RTVSPropertyOp40
 70
     1
102
RTVSPropertyOp41
 70
     1
102
RTVSPropertyOp42
 70
     1
102
RTVSPropertyOp43
 70
     1
102
RTVSPropertyOp44
 70
     1
102
RTVSPropertyOp45
 70
     1
102
RTVSPropertyOp46
 70
     1
102
RTVSPropertyOp47
 70
     1
102
RTVSPropertyOp48
 70
     1
102
RTVSPropertyOp49
 70
     1
102
RTVSPropertyOp50
 70
     1
102
RTVSPropertyOp51
 70
     0
102
RTVSPropertyOp52
 70
     0
102
RTVSPropertyOp53
 70
     1
102
RTVSPropertyOp54
 70
     1
102
RTVSPropertyOp55
 70
     1
102
RTVSPropertyOp56
 70
     1
102
RTVSPropertyOp57
 70
     1
102
RTVSPropertyOp58
 70
     1
102
RTVSPropertyOp59
 70
     1
102
RTVSPropertyOp60
 70
     1
102
RTVSPropertyOp61
 70
     1
102
RTVSPropertyOp62
 70
     1
  0
XRECORD
  5
A857
102
{ACAD_REACTORS
330
A856
102
}
330
A856
100
AcDbXrecord
280
     1
102
RTVSPost2010Prop28
280
     0
102
RTVSPost2010PropOp28
 70
     1
102
RTVSPost2010Prop29
280
     1
102
RTVSPost2010PropOp29
 70
     1
102
RTVSPost2010Prop30
280
     1
102
RTVSPost2010PropOp30
 70
     1
102
RTVSPost2010Prop31
280
     0
102
RTVSPost2010PropOp31
 70
     1
102
RTVSPost2010Prop32
280
     0
102
RTVSPost2010PropOp32
 70
     1
102
RTVSPost2010Prop33
280
     0
102
RTVSPost2010PropOp33
 70
     1
102
RTVSPost2010Prop34
280
     0
102
RTVSPost2010PropOp34
 70
     1
102
RTVSPost2010Prop35
280
     0
102
RTVSPost2010PropOp35
 70
     1
102
RTVSPost2010Prop36
280
     0
102
RTVSPost2010PropOp36
 70
     1
102
RTVSPost2010Prop37
 90
       50
102
RTVSPost2010PropOp37
 70
     1
102
RTVSPost2010Prop38
140
0.0
102
RTVSPost2010PropOp38
 70
     1
102
RTVSPost2010Prop39
140
1.0
102
RTVSPost2010PropOp39
 70
     1
102
RTVSPost2010Prop40
 90
        0
102
RTVSPost2010PropOp40
 70
     1
102
RTVSPost2010Prop41ColorIndex
 90
       18
102
RTVSPost2010Prop41ColorRGB
 90
        0
102
RTVSPost2010PropOp41
 70
     1
102
RTVSPost2010Prop42
 90
       50
102
RTVSPost2010PropOp42
 70
     1
102
RTVSPost2010Prop43
 90
        3
102
RTVSPost2010PropOp43
 70
     1
102
RTVSPost2010Prop44ColorIndex
 90
        5
102
RTVSPost2010Prop44ColorRGB
 90
      255
102
RTVSPost2010PropOp44
 70
     1
102
RTVSPost2010Prop45
280
     0
102
RTVSPost2010PropOp45
 70
     1
102
RTVSPost2010Prop46
 90
       50
102
RTVSPost2010PropOp46
 70
     1
102
RTVSPost2010Prop47
 90
       50
102
RTVSPost2010PropOp47
 70
     1
102
RTVSPost2010Prop48
 90
       50
102
RTVSPost2010PropOp48
 70
     1
102
RTVSPost2010Prop49
280
     0
102
RTVSPost2010PropOp49
 70
     1
102
RTVSPost2010Prop50
 90
       50
102
RTVSPost2010PropOp50
 70
     1
102
RTVSPost2010Prop51ColorIndex
 90
      256
102
RTVSPost2010Prop51ColorRGB
 90
-16777216
102
RTVSPost2010PropOp51
 70
     0
102
RTVSPost2010Prop52
140
1.0
102
RTVSPost2010PropOp52
 70
     0
102
RTVSPost2010Prop53
 90
        2
102
RTVSPost2010PropOp53
 70
     1
102
RTVSPost2010Prop54
  1
strokes_ogs.tif
102
RTVSPost2010PropOp54
 70
     1
102
RTVSPost2010Prop55
280
     0
102
RTVSPost2010PropOp55
 70
     1
102
RTVSPost2010Prop56
140
1.0
102
RTVSPost2010PropOp56
 70
     1
102
RTVSPost2010Prop57
140
1.0
102
RTVSPost2010PropOp57
 70
     1
102
RTVSPropertyOp0
 70
     1
102
RTVSPropertyOp1
 70
     1
102
RTVSPropertyOp2
 70
     1
102
RTVSPropertyOp3
 70
     1
102
RTVSPropertyOp4
 70
     1
102
RTVSPropertyOp5
 70
     1
102
RTVSPropertyOp6
 70
     1
102
RTVSPropertyOp7
 70
     1
102
RTVSPropertyOp8
 70
     1
102
RTVSPropertyOp9
 70
     1
102
RTVSPropertyOp10
 70
     1
102
RTVSPropertyOp11
 70
     1
102
RTVSPropertyOp12
 70
     1
102
RTVSPropertyOp13
 70
     1
102
RTVSPropertyOp14
 70
     1
102
RTVSPropertyOp15
 70
     1
102
RTVSPropertyOp16
 70
     1
102
RTVSPropertyOp17
 70
     1
102
RTVSPropertyOp18
 70
     1
102
RTVSPropertyOp19
 70
     1
102
RTVSPropertyOp20
 70
     1
102
RTVSPropertyOp21
 70
     1
102
RTVSPropertyOp22
 70
     1
102
RTVSPropertyOp23
 70
     1
102
RTVSPropertyOp24
 70
     1
102
RTVSPropertyOp25
 70
     1
102
RTVSPropertyOp26
 70
     1
102
RTVSPropertyOp27
 70
     1
102
RTVSPropertyOp28
 70
     1
102
RTVSPropertyOp29
 70
     1
102
RTVSPropertyOp30
 70
     1
102
RTVSPropertyOp31
 70
     1
102
RTVSPropertyOp32
 70
     1
102
RTVSPropertyOp33
 70
     1
102
RTVSPropertyOp34
 70
     1
102
RTVSPropertyOp35
 70
     1
102
RTVSPropertyOp36
 70
     1
102
RTVSPropertyOp37
 70
     1
102
RTVSPropertyOp38
 70
     1
102
RTVSPropertyOp39
 70
     1
102
RTVSPropertyOp40
 70
     1
102
RTVSPropertyOp41
 70
     1
102
RTVSPropertyOp42
 70
     1
102
RTVSPropertyOp43
 70
     1
102
RTVSPropertyOp44
 70
     1
102
RTVSPropertyOp45
 70
     1
102
RTVSPropertyOp46
 70
     1
102
RTVSPropertyOp47
 70
     1
102
RTVSPropertyOp48
 70
     1
102
RTVSPropertyOp49
 70
     1
102
RTVSPropertyOp50
 70
     1
102
RTVSPropertyOp51
 70
     0
102
RTVSPropertyOp52
 70
     0
102
RTVSPropertyOp53
 70
     1
102
RTVSPropertyOp54
 70
     1
102
RTVSPropertyOp55
 70
     1
102
RTVSPropertyOp56
 70
     1
102
RTVSPropertyOp57
 70
     1
102
RTVSPropertyOp58
 70
     1
102
RTVSPropertyOp59
 70
     1
102
RTVSPropertyOp60
 70
     1
102
RTVSPropertyOp61
 70
     1
102
RTVSPropertyOp62
 70
     1
  0
XRECORD
  5
A859
102
{ACAD_REACTORS
330
A858
102
}
330
A858
100
AcDbXrecord
280
     1
102
RTVSPost2010Prop28
280
     0
102
RTVSPost2010PropOp28
 70
     1
102
RTVSPost2010Prop29
280
     1
102
RTVSPost2010PropOp29
 70
     1
102
RTVSPost2010Prop30
280
     1
102
RTVSPost2010PropOp30
 70
     1
102
RTVSPost2010Prop31
280
     0
102
RTVSPost2010PropOp31
 70
     1
102
RTVSPost2010Prop32
280
     0
102
RTVSPost2010PropOp32
 70
     1
102
RTVSPost2010Prop33
280
     0
102
RTVSPost2010PropOp33
 70
     1
102
RTVSPost2010Prop34
280
     0
102
RTVSPost2010PropOp34
 70
     1
102
RTVSPost2010Prop35
280
     0
102
RTVSPost2010PropOp35
 70
     1
102
RTVSPost2010Prop36
280
     0
102
RTVSPost2010PropOp36
 70
     1
102
RTVSPost2010Prop37
 90
       50
102
RTVSPost2010PropOp37
 70
     1
102
RTVSPost2010Prop38
140
0.0
102
RTVSPost2010PropOp38
 70
     1
102
RTVSPost2010Prop39
140
1.0
102
RTVSPost2010PropOp39
 70
     1
102
RTVSPost2010Prop40
 90
        0
102
RTVSPost2010PropOp40
 70
     1
102
RTVSPost2010Prop41ColorIndex
 90
       18
102
RTVSPost2010Prop41ColorRGB
 90
        0
102
RTVSPost2010PropOp41
 70
     1
102
RTVSPost2010Prop42
 90
       50
102
RTVSPost2010PropOp42
 70
     1
102
RTVSPost2010Prop43
 90
        3
102
RTVSPost2010PropOp43
 70
     1
102
RTVSPost2010Prop44ColorIndex
 90
        5
102
RTVSPost2010Prop44ColorRGB
 90
      255
102
RTVSPost2010PropOp44
 70
     1
102
RTVSPost2010Prop45
280
     0
102
RTVSPost2010PropOp45
 70
     1
102
RTVSPost2010Prop46
 90
       50
102
RTVSPost2010PropOp46
 70
     1
102
RTVSPost2010Prop47
 90
       50
102
RTVSPost2010PropOp47
 70
     1
102
RTVSPost2010Prop48
 90
       50
102
RTVSPost2010PropOp48
 70
     1
102
RTVSPost2010Prop49
280
     0
102
RTVSPost2010PropOp49
 70
     1
102
RTVSPost2010Prop50
 90
       50
102
RTVSPost2010PropOp50
 70
     1
102
RTVSPost2010Prop51ColorIndex
 90
      256
102
RTVSPost2010Prop51ColorRGB
 90
-16777216
102
RTVSPost2010PropOp51
 70
     0
102
RTVSPost2010Prop52
140
1.0
102
RTVSPost2010PropOp52
 70
     0
102
RTVSPost2010Prop53
 90
        2
102
RTVSPost2010PropOp53
 70
     1
102
RTVSPost2010Prop54
  1
strokes_ogs.tif
102
RTVSPost2010PropOp54
 70
     1
102
RTVSPost2010Prop55
280
     0
102
RTVSPost2010PropOp55
 70
     1
102
RTVSPost2010Prop56
140
1.0
102
RTVSPost2010PropOp56
 70
     1
102
RTVSPost2010Prop57
140
1.0
102
RTVSPost2010PropOp57
 70
     1
102
RTVSPropertyOp0
 70
     1
102
RTVSPropertyOp1
 70
     1
102
RTVSPropertyOp2
 70
     1
102
RTVSPropertyOp3
 70
     1
102
RTVSPropertyOp4
 70
     1
102
RTVSPropertyOp5
 70
     1
102
RTVSPropertyOp6
 70
     1
102
RTVSPropertyOp7
 70
     1
102
RTVSPropertyOp8
 70
     1
102
RTVSPropertyOp9
 70
     1
102
RTVSPropertyOp10
 70
     1
102
RTVSPropertyOp11
 70
     1
102
RTVSPropertyOp12
 70
     1
102
RTVSPropertyOp13
 70
     1
102
RTVSPropertyOp14
 70
     1
102
RTVSPropertyOp15
 70
     1
102
RTVSPropertyOp16
 70
     1
102
RTVSPropertyOp17
 70
     1
102
RTVSPropertyOp18
 70
     1
102
RTVSPropertyOp19
 70
     1
102
RTVSPropertyOp20
 70
     1
102
RTVSPropertyOp21
 70
     1
102
RTVSPropertyOp22
 70
     1
102
RTVSPropertyOp23
 70
     1
102
RTVSPropertyOp24
 70
     1
102
RTVSPropertyOp25
 70
     1
102
RTVSPropertyOp26
 70
     1
102
RTVSPropertyOp27
 70
     1
102
RTVSPropertyOp28
 70
     1
102
RTVSPropertyOp29
 70
     1
102
RTVSPropertyOp30
 70
     1
102
RTVSPropertyOp31
 70
     1
102
RTVSPropertyOp32
 70
     1
102
RTVSPropertyOp33
 70
     1
102
RTVSPropertyOp34
 70
     1
102
RTVSPropertyOp35
 70
     1
102
RTVSPropertyOp36
 70
     1
102
RTVSPropertyOp37
 70
     1
102
RTVSPropertyOp38
 70
     1
102
RTVSPropertyOp39
 70
     1
102
RTVSPropertyOp40
 70
     1
102
RTVSPropertyOp41
 70
     1
102
RTVSPropertyOp42
 70
     1
102
RTVSPropertyOp43
 70
     1
102
RTVSPropertyOp44
 70
     1
102
RTVSPropertyOp45
 70
     1
102
RTVSPropertyOp46
 70
     1
102
RTVSPropertyOp47
 70
     1
102
RTVSPropertyOp48
 70
     1
102
RTVSPropertyOp49
 70
     1
102
RTVSPropertyOp50
 70
     1
102
RTVSPropertyOp51
 70
     0
102
RTVSPropertyOp52
 70
     0
102
RTVSPropertyOp53
 70
     1
102
RTVSPropertyOp54
 70
     1
102
RTVSPropertyOp55
 70
     1
102
RTVSPropertyOp56
 70
     1
102
RTVSPropertyOp57
 70
     1
102
RTVSPropertyOp58
 70
     1
102
RTVSPropertyOp59
 70
     1
102
RTVSPropertyOp60
 70
     1
102
RTVSPropertyOp61
 70
     1
102
RTVSPropertyOp62
 70
     1
  0
XRECORD
  5
A85B
102
{ACAD_REACTORS
330
A85A
102
}
330
A85A
100
AcDbXrecord
280
     1
102
RTVSPost2010Prop28
280
     0
102
RTVSPost2010PropOp28
 70
     1
102
RTVSPost2010Prop29
280
     1
102
RTVSPost2010PropOp29
 70
     1
102
RTVSPost2010Prop30
280
     1
102
RTVSPost2010PropOp30
 70
     1
102
RTVSPost2010Prop31
280
     0
102
RTVSPost2010PropOp31
 70
     1
102
RTVSPost2010Prop32
280
     0
102
RTVSPost2010PropOp32
 70
     1
102
RTVSPost2010Prop33
280
     0
102
RTVSPost2010PropOp33
 70
     1
102
RTVSPost2010Prop34
280
     0
102
RTVSPost2010PropOp34
 70
     1
102
RTVSPost2010Prop35
280
     0
102
RTVSPost2010PropOp35
 70
     1
102
RTVSPost2010Prop36
280
     0
102
RTVSPost2010PropOp36
 70
     1
102
RTVSPost2010Prop37
 90
       50
102
RTVSPost2010PropOp37
 70
     1
102
RTVSPost2010Prop38
140
0.0
102
RTVSPost2010PropOp38
 70
     1
102
RTVSPost2010Prop39
140
1.0
102
RTVSPost2010PropOp39
 70
     1
102
RTVSPost2010Prop40
 90
        0
102
RTVSPost2010PropOp40
 70
     1
102
RTVSPost2010Prop41ColorIndex
 90
       18
102
RTVSPost2010Prop41ColorRGB
 90
        0
102
RTVSPost2010PropOp41
 70
     1
102
RTVSPost2010Prop42
 90
       50
102
RTVSPost2010PropOp42
 70
     1
102
RTVSPost2010Prop43
 90
        3
102
RTVSPost2010PropOp43
 70
     1
102
RTVSPost2010Prop44ColorIndex
 90
        5
102
RTVSPost2010Prop44ColorRGB
 90
      255
102
RTVSPost2010PropOp44
 70
     1
102
RTVSPost2010Prop45
280
     0
102
RTVSPost2010PropOp45
 70
     1
102
RTVSPost2010Prop46
 90
       50
102
RTVSPost2010PropOp46
 70
     1
102
RTVSPost2010Prop47
 90
       50
102
RTVSPost2010PropOp47
 70
     1
102
RTVSPost2010Prop48
 90
       50
102
RTVSPost2010PropOp48
 70
     1
102
RTVSPost2010Prop49
280
     0
102
RTVSPost2010PropOp49
 70
     1
102
RTVSPost2010Prop50
 90
       50
102
RTVSPost2010PropOp50
 70
     1
102
RTVSPost2010Prop51ColorIndex
 90
      256
102
RTVSPost2010Prop51ColorRGB
 90
-16777216
102
RTVSPost2010PropOp51
 70
     0
102
RTVSPost2010Prop52
140
1.0
102
RTVSPost2010PropOp52
 70
     0
102
RTVSPost2010Prop53
 90
        2
102
RTVSPost2010PropOp53
 70
     1
102
RTVSPost2010Prop54
  1
strokes_ogs.tif
102
RTVSPost2010PropOp54
 70
     1
102
RTVSPost2010Prop55
280
     0
102
RTVSPost2010PropOp55
 70
     1
102
RTVSPost2010Prop56
140
1.0
102
RTVSPost2010PropOp56
 70
     1
102
RTVSPost2010Prop57
140
1.0
102
RTVSPost2010PropOp57
 70
     1
102
RTVSPropertyOp0
 70
     1
102
RTVSPropertyOp1
 70
     1
102
RTVSPropertyOp2
 70
     1
102
RTVSPropertyOp3
 70
     1
102
RTVSPropertyOp4
 70
     1
102
RTVSPropertyOp5
 70
     1
102
RTVSPropertyOp6
 70
     1
102
RTVSPropertyOp7
 70
     1
102
RTVSPropertyOp8
 70
     1
102
RTVSPropertyOp9
 70
     1
102
RTVSPropertyOp10
 70
     1
102
RTVSPropertyOp11
 70
     1
102
RTVSPropertyOp12
 70
     1
102
RTVSPropertyOp13
 70
     1
102
RTVSPropertyOp14
 70
     1
102
RTVSPropertyOp15
 70
     1
102
RTVSPropertyOp16
 70
     1
102
RTVSPropertyOp17
 70
     1
102
RTVSPropertyOp18
 70
     1
102
RTVSPropertyOp19
 70
     1
102
RTVSPropertyOp20
 70
     1
102
RTVSPropertyOp21
 70
     1
102
RTVSPropertyOp22
 70
     1
102
RTVSPropertyOp23
 70
     1
102
RTVSPropertyOp24
 70
     1
102
RTVSPropertyOp25
 70
     1
102
RTVSPropertyOp26
 70
     1
102
RTVSPropertyOp27
 70
     1
102
RTVSPropertyOp28
 70
     1
102
RTVSPropertyOp29
 70
     1
102
RTVSPropertyOp30
 70
     1
102
RTVSPropertyOp31
 70
     1
102
RTVSPropertyOp32
 70
     1
102
RTVSPropertyOp33
 70
     1
102
RTVSPropertyOp34
 70
     1
102
RTVSPropertyOp35
 70
     1
102
RTVSPropertyOp36
 70
     1
102
RTVSPropertyOp37
 70
     1
102
RTVSPropertyOp38
 70
     1
102
RTVSPropertyOp39
 70
     1
102
RTVSPropertyOp40
 70
     1
102
RTVSPropertyOp41
 70
     1
102
RTVSPropertyOp42
 70
     1
102
RTVSPropertyOp43
 70
     1
102
RTVSPropertyOp44
 70
     1
102
RTVSPropertyOp45
 70
     1
102
RTVSPropertyOp46
 70
     1
102
RTVSPropertyOp47
 70
     1
102
RTVSPropertyOp48
 70
     1
102
RTVSPropertyOp49
 70
     1
102
RTVSPropertyOp50
 70
     1
102
RTVSPropertyOp51
 70
     0
102
RTVSPropertyOp52
 70
     0
102
RTVSPropertyOp53
 70
     1
102
RTVSPropertyOp54
 70
     1
102
RTVSPropertyOp55
 70
     1
102
RTVSPropertyOp56
 70
     1
102
RTVSPropertyOp57
 70
     1
102
RTVSPropertyOp58
 70
     1
102
RTVSPropertyOp59
 70
     1
102
RTVSPropertyOp60
 70
     1
102
RTVSPropertyOp61
 70
     1
102
RTVSPropertyOp62
 70
     1
  0
XRECORD
  5
A85D
102
{ACAD_REACTORS
330
A85C
102
}
330
A85C
100
AcDbXrecord
280
     1
102
RTVSPost2010Prop28
280
     0
102
RTVSPost2010PropOp28
 70
     1
102
RTVSPost2010Prop29
280
     1
102
RTVSPost2010PropOp29
 70
     1
102
RTVSPost2010Prop30
280
     1
102
RTVSPost2010PropOp30
 70
     1
102
RTVSPost2010Prop31
280
     0
102
RTVSPost2010PropOp31
 70
     1
102
RTVSPost2010Prop32
280
     0
102
RTVSPost2010PropOp32
 70
     1
102
RTVSPost2010Prop33
280
     0
102
RTVSPost2010PropOp33
 70
     1
102
RTVSPost2010Prop34
280
     0
102
RTVSPost2010PropOp34
 70
     1
102
RTVSPost2010Prop35
280
     0
102
RTVSPost2010PropOp35
 70
     1
102
RTVSPost2010Prop36
280
     0
102
RTVSPost2010PropOp36
 70
     1
102
RTVSPost2010Prop37
 90
       50
102
RTVSPost2010PropOp37
 70
     1
102
RTVSPost2010Prop38
140
0.0
102
RTVSPost2010PropOp38
 70
     1
102
RTVSPost2010Prop39
140
1.0
102
RTVSPost2010PropOp39
 70
     1
102
RTVSPost2010Prop40
 90
        0
102
RTVSPost2010PropOp40
 70
     1
102
RTVSPost2010Prop41ColorIndex
 90
       18
102
RTVSPost2010Prop41ColorRGB
 90
        0
102
RTVSPost2010PropOp41
 70
     1
102
RTVSPost2010Prop42
 90
       50
102
RTVSPost2010PropOp42
 70
     1
102
RTVSPost2010Prop43
 90
        3
102
RTVSPost2010PropOp43
 70
     1
102
RTVSPost2010Prop44ColorIndex
 90
        5
102
RTVSPost2010Prop44ColorRGB
 90
      255
102
RTVSPost2010PropOp44
 70
     1
102
RTVSPost2010Prop45
280
     0
102
RTVSPost2010PropOp45
 70
     1
102
RTVSPost2010Prop46
 90
       50
102
RTVSPost2010PropOp46
 70
     1
102
RTVSPost2010Prop47
 90
       50
102
RTVSPost2010PropOp47
 70
     1
102
RTVSPost2010Prop48
 90
       50
102
RTVSPost2010PropOp48
 70
     1
102
RTVSPost2010Prop49
280
     0
102
RTVSPost2010PropOp49
 70
     1
102
RTVSPost2010Prop50
 90
       50
102
RTVSPost2010PropOp50
 70
     1
102
RTVSPost2010Prop51ColorIndex
 90
      256
102
RTVSPost2010Prop51ColorRGB
 90
-16777216
102
RTVSPost2010PropOp51
 70
     0
102
RTVSPost2010Prop52
140
1.0
102
RTVSPost2010PropOp52
 70
     0
102
RTVSPost2010Prop53
 90
        2
102
RTVSPost2010PropOp53
 70
     1
102
RTVSPost2010Prop54
  1
strokes_ogs.tif
102
RTVSPost2010PropOp54
 70
     1
102
RTVSPost2010Prop55
280
     0
102
RTVSPost2010PropOp55
 70
     1
102
RTVSPost2010Prop56
140
1.0
102
RTVSPost2010PropOp56
 70
     1
102
RTVSPost2010Prop57
140
1.0
102
RTVSPost2010PropOp57
 70
     1
102
RTVSPropertyOp0
 70
     1
102
RTVSPropertyOp1
 70
     1
102
RTVSPropertyOp2
 70
     1
102
RTVSPropertyOp3
 70
     1
102
RTVSPropertyOp4
 70
     1
102
RTVSPropertyOp5
 70
     1
102
RTVSPropertyOp6
 70
     1
102
RTVSPropertyOp7
 70
     1
102
RTVSPropertyOp8
 70
     1
102
RTVSPropertyOp9
 70
     1
102
RTVSPropertyOp10
 70
     1
102
RTVSPropertyOp11
 70
     1
102
RTVSPropertyOp12
 70
     1
102
RTVSPropertyOp13
 70
     1
102
RTVSPropertyOp14
 70
     1
102
RTVSPropertyOp15
 70
     1
102
RTVSPropertyOp16
 70
     1
102
RTVSPropertyOp17
 70
     1
102
RTVSPropertyOp18
 70
     1
102
RTVSPropertyOp19
 70
     1
102
RTVSPropertyOp20
 70
     1
102
RTVSPropertyOp21
 70
     1
102
RTVSPropertyOp22
 70
     1
102
RTVSPropertyOp23
 70
     1
102
RTVSPropertyOp24
 70
     1
102
RTVSPropertyOp25
 70
     1
102
RTVSPropertyOp26
 70
     1
102
RTVSPropertyOp27
 70
     1
102
RTVSPropertyOp28
 70
     1
102
RTVSPropertyOp29
 70
     1
102
RTVSPropertyOp30
 70
     1
102
RTVSPropertyOp31
 70
     1
102
RTVSPropertyOp32
 70
     1
102
RTVSPropertyOp33
 70
     1
102
RTVSPropertyOp34
 70
     1
102
RTVSPropertyOp35
 70
     1
102
RTVSPropertyOp36
 70
     1
102
RTVSPropertyOp37
 70
     1
102
RTVSPropertyOp38
 70
     1
102
RTVSPropertyOp39
 70
     1
102
RTVSPropertyOp40
 70
     1
102
RTVSPropertyOp41
 70
     1
102
RTVSPropertyOp42
 70
     1
102
RTVSPropertyOp43
 70
     1
102
RTVSPropertyOp44
 70
     1
102
RTVSPropertyOp45
 70
     1
102
RTVSPropertyOp46
 70
     1
102
RTVSPropertyOp47
 70
     1
102
RTVSPropertyOp48
 70
     1
102
RTVSPropertyOp49
 70
     1
102
RTVSPropertyOp50
 70
     1
102
RTVSPropertyOp51
 70
     0
102
RTVSPropertyOp52
 70
     0
102
RTVSPropertyOp53
 70
     1
102
RTVSPropertyOp54
 70
     1
102
RTVSPropertyOp55
 70
     1
102
RTVSPropertyOp56
 70
     1
102
RTVSPropertyOp57
 70
     1
102
RTVSPropertyOp58
 70
     1
102
RTVSPropertyOp59
 70
     1
102
RTVSPropertyOp60
 70
     1
102
RTVSPropertyOp61
 70
     1
102
RTVSPropertyOp62
 70
     1
  0
XRECORD
  5
A865
102
{ACAD_REACTORS
330
A864
102
}
330
A864
100
AcDbXrecord
280
     1
102
RTVSPost2010Prop28
280
     0
102
RTVSPost2010PropOp28
 70
     1
102
RTVSPost2010Prop29
280
     1
102
RTVSPost2010PropOp29
 70
     1
102
RTVSPost2010Prop30
280
     1
102
RTVSPost2010PropOp30
 70
     1
102
RTVSPost2010Prop31
280
     0
102
RTVSPost2010PropOp31
 70
     1
102
RTVSPost2010Prop32
280
     0
102
RTVSPost2010PropOp32
 70
     1
102
RTVSPost2010Prop33
280
     0
102
RTVSPost2010PropOp33
 70
     1
102
RTVSPost2010Prop34
280
     0
102
RTVSPost2010PropOp34
 70
     1
102
RTVSPost2010Prop35
280
     0
102
RTVSPost2010PropOp35
 70
     1
102
RTVSPost2010Prop36
280
     0
102
RTVSPost2010PropOp36
 70
     1
102
RTVSPost2010Prop37
 90
       50
102
RTVSPost2010PropOp37
 70
     1
102
RTVSPost2010Prop38
140
0.0
102
RTVSPost2010PropOp38
 70
     1
102
RTVSPost2010Prop39
140
1.0
102
RTVSPost2010PropOp39
 70
     1
102
RTVSPost2010Prop40
 90
        0
102
RTVSPost2010PropOp40
 70
     1
102
RTVSPost2010Prop41ColorIndex
 90
       18
102
RTVSPost2010Prop41ColorRGB
 90
        0
102
RTVSPost2010PropOp41
 70
     1
102
RTVSPost2010Prop42
 90
       50
102
RTVSPost2010PropOp42
 70
     1
102
RTVSPost2010Prop43
 90
        3
102
RTVSPost2010PropOp43
 70
     1
102
RTVSPost2010Prop44ColorIndex
 90
        5
102
RTVSPost2010Prop44ColorRGB
 90
      255
102
RTVSPost2010PropOp44
 70
     1
102
RTVSPost2010Prop45
280
     0
102
RTVSPost2010PropOp45
 70
     1
102
RTVSPost2010Prop46
 90
       50
102
RTVSPost2010PropOp46
 70
     1
102
RTVSPost2010Prop47
 90
       50
102
RTVSPost2010PropOp47
 70
     1
102
RTVSPost2010Prop48
 90
       50
102
RTVSPost2010PropOp48
 70
     1
102
RTVSPost2010Prop49
280
     0
102
RTVSPost2010PropOp49
 70
     1
102
RTVSPost2010Prop50
 90
       50
102
RTVSPost2010PropOp50
 70
     1
102
RTVSPost2010Prop51ColorIndex
 90
      256
102
RTVSPost2010Prop51ColorRGB
 90
-16777216
102
RTVSPost2010PropOp51
 70
     0
102
RTVSPost2010Prop52
140
1.0
102
RTVSPost2010PropOp52
 70
     0
102
RTVSPost2010Prop53
 90
        2
102
RTVSPost2010PropOp53
 70
     1
102
RTVSPost2010Prop54
  1
strokes_ogs.tif
102
RTVSPost2010PropOp54
 70
     1
102
RTVSPost2010Prop55
280
     0
102
RTVSPost2010PropOp55
 70
     1
102
RTVSPost2010Prop56
140
1.0
102
RTVSPost2010PropOp56
 70
     1
102
RTVSPost2010Prop57
140
1.0
102
RTVSPost2010PropOp57
 70
     1
102
RTVSPropertyOp0
 70
     1
102
RTVSPropertyOp1
 70
     1
102
RTVSPropertyOp2
 70
     1
102
RTVSPropertyOp3
 70
     1
102
RTVSPropertyOp4
 70
     1
102
RTVSPropertyOp5
 70
     1
102
RTVSPropertyOp6
 70
     1
102
RTVSPropertyOp7
 70
     1
102
RTVSPropertyOp8
 70
     1
102
RTVSPropertyOp9
 70
     1
102
RTVSPropertyOp10
 70
     1
102
RTVSPropertyOp11
 70
     1
102
RTVSPropertyOp12
 70
     1
102
RTVSPropertyOp13
 70
     1
102
RTVSPropertyOp14
 70
     1
102
RTVSPropertyOp15
 70
     1
102
RTVSPropertyOp16
 70
     1
102
RTVSPropertyOp17
 70
     1
102
RTVSPropertyOp18
 70
     1
102
RTVSPropertyOp19
 70
     1
102
RTVSPropertyOp20
 70
     1
102
RTVSPropertyOp21
 70
     1
102
RTVSPropertyOp22
 70
     1
102
RTVSPropertyOp23
 70
     1
102
RTVSPropertyOp24
 70
     1
102
RTVSPropertyOp25
 70
     1
102
RTVSPropertyOp26
 70
     1
102
RTVSPropertyOp27
 70
     1
102
RTVSPropertyOp28
 70
     1
102
RTVSPropertyOp29
 70
     1
102
RTVSPropertyOp30
 70
     1
102
RTVSPropertyOp31
 70
     1
102
RTVSPropertyOp32
 70
     1
102
RTVSPropertyOp33
 70
     1
102
RTVSPropertyOp34
 70
     1
102
RTVSPropertyOp35
 70
     1
102
RTVSPropertyOp36
 70
     1
102
RTVSPropertyOp37
 70
     1
102
RTVSPropertyOp38
 70
     1
102
RTVSPropertyOp39
 70
     1
102
RTVSPropertyOp40
 70
     1
102
RTVSPropertyOp41
 70
     1
102
RTVSPropertyOp42
 70
     1
102
RTVSPropertyOp43
 70
     1
102
RTVSPropertyOp44
 70
     1
102
RTVSPropertyOp45
 70
     1
102
RTVSPropertyOp46
 70
     1
102
RTVSPropertyOp47
 70
     1
102
RTVSPropertyOp48
 70
     1
102
RTVSPropertyOp49
 70
     1
102
RTVSPropertyOp50
 70
     1
102
RTVSPropertyOp51
 70
     0
102
RTVSPropertyOp52
 70
     0
102
RTVSPropertyOp53
 70
     1
102
RTVSPropertyOp54
 70
     1
102
RTVSPropertyOp55
 70
     1
102
RTVSPropertyOp56
 70
     1
102
RTVSPropertyOp57
 70
     1
102
RTVSPropertyOp58
 70
     1
102
RTVSPropertyOp59
 70
     1
102
RTVSPropertyOp60
 70
     1
102
RTVSPropertyOp61
 70
     1
102
RTVSPropertyOp62
 70
     1
  0
XRECORD
  5
A881
102
{ACAD_REACTORS
330
A880
102
}
330
A880
100
AcDbXrecord
280
     1
102
RTVSPost2010Prop28
280
     0
102
RTVSPost2010PropOp28
 70
     1
102
RTVSPost2010Prop29
280
     1
102
RTVSPost2010PropOp29
 70
     1
102
RTVSPost2010Prop30
280
     1
102
RTVSPost2010PropOp30
 70
     1
102
RTVSPost2010Prop31
280
     0
102
RTVSPost2010PropOp31
 70
     1
102
RTVSPost2010Prop32
280
     0
102
RTVSPost2010PropOp32
 70
     1
102
RTVSPost2010Prop33
280
     0
102
RTVSPost2010PropOp33
 70
     1
102
RTVSPost2010Prop34
280
     0
102
RTVSPost2010PropOp34
 70
     1
102
RTVSPost2010Prop35
280
     0
102
RTVSPost2010PropOp35
 70
     1
102
RTVSPost2010Prop36
280
     0
102
RTVSPost2010PropOp36
 70
     1
102
RTVSPost2010Prop37
 90
       50
102
RTVSPost2010PropOp37
 70
     0
102
RTVSPost2010Prop38
140
0.0
102
RTVSPost2010PropOp38
 70
     0
102
RTVSPost2010Prop39
140
1.0
102
RTVSPost2010PropOp39
 70
     0
102
RTVSPost2010Prop40
 90
        0
102
RTVSPost2010PropOp40
 70
     0
102
RTVSPost2010Prop41ColorIndex
 90
       18
102
RTVSPost2010Prop41ColorRGB
 90
        0
102
RTVSPost2010PropOp41
 70
     0
102
RTVSPost2010Prop42
 90
       50
102
RTVSPost2010PropOp42
 70
     0
102
RTVSPost2010Prop43
 90
        3
102
RTVSPost2010PropOp43
 70
     0
102
RTVSPost2010Prop44ColorIndex
 90
        5
102
RTVSPost2010Prop44ColorRGB
 90
      255
102
RTVSPost2010PropOp44
 70
     0
102
RTVSPost2010Prop45
280
     0
102
RTVSPost2010PropOp45
 70
     1
102
RTVSPost2010Prop46
 90
       50
102
RTVSPost2010PropOp46
 70
     0
102
RTVSPost2010Prop47
 90
       50
102
RTVSPost2010PropOp47
 70
     0
102
RTVSPost2010Prop48
 90
       50
102
RTVSPost2010PropOp48
 70
     0
102
RTVSPost2010Prop49
280
     0
102
RTVSPost2010PropOp49
 70
     1
102
RTVSPost2010Prop50
 90
       50
102
RTVSPost2010PropOp50
 70
     0
102
RTVSPost2010Prop51ColorIndex
 90
      256
102
RTVSPost2010Prop51ColorRGB
 90
-16777216
102
RTVSPost2010PropOp51
 70
     0
102
RTVSPost2010Prop52
140
1.0
102
RTVSPost2010PropOp52
 70
     0
102
RTVSPost2010Prop53
 90
        2
102
RTVSPost2010PropOp53
 70
     0
102
RTVSPost2010Prop54
  1
strokes_ogs.tif
102
RTVSPost2010PropOp54
 70
     0
102
RTVSPost2010Prop55
280
     0
102
RTVSPost2010PropOp55
 70
     1
102
RTVSPost2010Prop56
140
1.0
102
RTVSPost2010PropOp56
 70
     0
102
RTVSPost2010Prop57
140
1.0
102
RTVSPost2010PropOp57
 70
     0
102
RTVSPropertyOp0
 70
     0
102
RTVSPropertyOp1
 70
     0
102
RTVSPropertyOp2
 70
     0
102
RTVSPropertyOp3
 70
     0
102
RTVSPropertyOp4
 70
     0
102
RTVSPropertyOp5
 70
     0
102
RTVSPropertyOp6
 70
     0
102
RTVSPropertyOp7
 70
     0
102
RTVSPropertyOp8
 70
     0
102
RTVSPropertyOp9
 70
     0
102
RTVSPropertyOp10
 70
     0
102
RTVSPropertyOp11
 70
     0
102
RTVSPropertyOp12
 70
     0
102
RTVSPropertyOp13
 70
     0
102
RTVSPropertyOp14
 70
     2
102
RTVSPropertyOp15
 70
     0
102
RTVSPropertyOp16
 70
     0
102
RTVSPropertyOp17
 70
     0
102
RTVSPropertyOp18
 70
     0
102
RTVSPropertyOp19
 70
     0
102
RTVSPropertyOp20
 70
     0
102
RTVSPropertyOp21
 70
     0
102
RTVSPropertyOp22
 70
     0
102
RTVSPropertyOp23
 70
     0
102
RTVSPropertyOp24
 70
     0
102
RTVSPropertyOp25
 70
     0
102
RTVSPropertyOp26
 70
     0
102
RTVSPropertyOp27
 70
     0
102
RTVSPropertyOp28
 70
     1
102
RTVSPropertyOp29
 70
     1
102
RTVSPropertyOp30
 70
     1
102
RTVSPropertyOp31
 70
     1
102
RTVSPropertyOp32
 70
     1
102
RTVSPropertyOp33
 70
     1
102
RTVSPropertyOp34
 70
     1
102
RTVSPropertyOp35
 70
     1
102
RTVSPropertyOp36
 70
     1
102
RTVSPropertyOp37
 70
     0
102
RTVSPropertyOp38
 70
     0
102
RTVSPropertyOp39
 70
     0
102
RTVSPropertyOp40
 70
     0
102
RTVSPropertyOp41
 70
     0
102
RTVSPropertyOp42
 70
     0
102
RTVSPropertyOp43
 70
     0
102
RTVSPropertyOp44
 70
     0
102
RTVSPropertyOp45
 70
     1
102
RTVSPropertyOp46
 70
     0
102
RTVSPropertyOp47
 70
     0
102
RTVSPropertyOp48
 70
     0
102
RTVSPropertyOp49
 70
     1
102
RTVSPropertyOp50
 70
     0
102
RTVSPropertyOp51
 70
     0
102
RTVSPropertyOp52
 70
     0
102
RTVSPropertyOp53
 70
     0
102
RTVSPropertyOp54
 70
     0
102
RTVSPropertyOp55
 70
     1
102
RTVSPropertyOp56
 70
     0
102
RTVSPropertyOp57
 70
     0
102
RTVSPropertyOp58
 70
     0
102
RTVSPropertyOp59
 70
     0
102
RTVSPropertyOp60
 70
     0
102
RTVSPropertyOp61
 70
     0
102
RTVSPropertyOp62
 70
     0
  0
XRECORD
  5
A871
102
{ACAD_REACTORS
330
A870
102
}
330
A870
100
AcDbXrecord
280
     1
102
RTVSPost2010Prop28
280
     0
102
RTVSPost2010PropOp28
 70
     1
102
RTVSPost2010Prop29
280
     1
102
RTVSPost2010PropOp29
 70
     1
102
RTVSPost2010Prop30
280
     1
102
RTVSPost2010PropOp30
 70
     1
102
RTVSPost2010Prop31
280
     0
102
RTVSPost2010PropOp31
 70
     1
102
RTVSPost2010Prop32
280
     0
102
RTVSPost2010PropOp32
 70
     1
102
RTVSPost2010Prop33
280
     0
102
RTVSPost2010PropOp33
 70
     1
102
RTVSPost2010Prop34
280
     0
102
RTVSPost2010PropOp34
 70
     1
102
RTVSPost2010Prop35
280
     0
102
RTVSPost2010PropOp35
 70
     1
102
RTVSPost2010Prop36
280
     0
102
RTVSPost2010PropOp36
 70
     1
102
RTVSPost2010Prop37
 90
       50
102
RTVSPost2010PropOp37
 70
     1
102
RTVSPost2010Prop38
140
0.0
102
RTVSPost2010PropOp38
 70
     1
102
RTVSPost2010Prop39
140
1.0
102
RTVSPost2010PropOp39
 70
     1
102
RTVSPost2010Prop40
 90
        0
102
RTVSPost2010PropOp40
 70
     1
102
RTVSPost2010Prop41ColorIndex
 90
       18
102
RTVSPost2010Prop41ColorRGB
 90
        0
102
RTVSPost2010PropOp41
 70
     1
102
RTVSPost2010Prop42
 90
       50
102
RTVSPost2010PropOp42
 70
     1
102
RTVSPost2010Prop43
 90
        3
102
RTVSPost2010PropOp43
 70
     1
102
RTVSPost2010Prop44ColorIndex
 90
        5
102
RTVSPost2010Prop44ColorRGB
 90
      255
102
RTVSPost2010PropOp44
 70
     1
102
RTVSPost2010Prop45
280
     0
102
RTVSPost2010PropOp45
 70
     1
102
RTVSPost2010Prop46
 90
       50
102
RTVSPost2010PropOp46
 70
     1
102
RTVSPost2010Prop47
 90
       50
102
RTVSPost2010PropOp47
 70
     1
102
RTVSPost2010Prop48
 90
       50
102
RTVSPost2010PropOp48
 70
     1
102
RTVSPost2010Prop49
280
     0
102
RTVSPost2010PropOp49
 70
     1
102
RTVSPost2010Prop50
 90
       50
102
RTVSPost2010PropOp50
 70
     1
102
RTVSPost2010Prop51ColorIndex
 90
      256
102
RTVSPost2010Prop51ColorRGB
 90
-16777216
102
RTVSPost2010PropOp51
 70
     0
102
RTVSPost2010Prop52
140
1.0
102
RTVSPost2010PropOp52
 70
     0
102
RTVSPost2010Prop53
 90
        2
102
RTVSPost2010PropOp53
 70
     1
102
RTVSPost2010Prop54
  1
strokes_ogs.tif
102
RTVSPost2010PropOp54
 70
     1
102
RTVSPost2010Prop55
280
     0
102
RTVSPost2010PropOp55
 70
     1
102
RTVSPost2010Prop56
140
1.0
102
RTVSPost2010PropOp56
 70
     1
102
RTVSPost2010Prop57
140
1.0
102
RTVSPost2010PropOp57
 70
     1
102
RTVSPropertyOp0
 70
     1
102
RTVSPropertyOp1
 70
     1
102
RTVSPropertyOp2
 70
     1
102
RTVSPropertyOp3
 70
     1
102
RTVSPropertyOp4
 70
     1
102
RTVSPropertyOp5
 70
     1
102
RTVSPropertyOp6
 70
     1
102
RTVSPropertyOp7
 70
     1
102
RTVSPropertyOp8
 70
     1
102
RTVSPropertyOp9
 70
     1
102
RTVSPropertyOp10
 70
     1
102
RTVSPropertyOp11
 70
     1
102
RTVSPropertyOp12
 70
     1
102
RTVSPropertyOp13
 70
     1
102
RTVSPropertyOp14
 70
     1
102
RTVSPropertyOp15
 70
     1
102
RTVSPropertyOp16
 70
     1
102
RTVSPropertyOp17
 70
     1
102
RTVSPropertyOp18
 70
     1
102
RTVSPropertyOp19
 70
     1
102
RTVSPropertyOp20
 70
     1
102
RTVSPropertyOp21
 70
     1
102
RTVSPropertyOp22
 70
     1
102
RTVSPropertyOp23
 70
     1
102
RTVSPropertyOp24
 70
     1
102
RTVSPropertyOp25
 70
     1
102
RTVSPropertyOp26
 70
     1
102
RTVSPropertyOp27
 70
     1
102
RTVSPropertyOp28
 70
     1
102
RTVSPropertyOp29
 70
     1
102
RTVSPropertyOp30
 70
     1
102
RTVSPropertyOp31
 70
     1
102
RTVSPropertyOp32
 70
     1
102
RTVSPropertyOp33
 70
     1
102
RTVSPropertyOp34
 70
     1
102
RTVSPropertyOp35
 70
     1
102
RTVSPropertyOp36
 70
     1
102
RTVSPropertyOp37
 70
     1
102
RTVSPropertyOp38
 70
     1
102
RTVSPropertyOp39
 70
     1
102
RTVSPropertyOp40
 70
     1
102
RTVSPropertyOp41
 70
     1
102
RTVSPropertyOp42
 70
     1
102
RTVSPropertyOp43
 70
     1
102
RTVSPropertyOp44
 70
     1
102
RTVSPropertyOp45
 70
     1
102
RTVSPropertyOp46
 70
     1
102
RTVSPropertyOp47
 70
     1
102
RTVSPropertyOp48
 70
     1
102
RTVSPropertyOp49
 70
     1
102
RTVSPropertyOp50
 70
     1
102
RTVSPropertyOp51
 70
     0
102
RTVSPropertyOp52
 70
     0
102
RTVSPropertyOp53
 70
     1
102
RTVSPropertyOp54
 70
     1
102
RTVSPropertyOp55
 70
     1
102
RTVSPropertyOp56
 70
     1
102
RTVSPropertyOp57
 70
     1
102
RTVSPropertyOp58
 70
     1
102
RTVSPropertyOp59
 70
     1
102
RTVSPropertyOp60
 70
     1
102
RTVSPropertyOp61
 70
     1
102
RTVSPropertyOp62
 70
     1
  0
XRECORD
  5
A883
102
{ACAD_REACTORS
330
A882
102
}
330
A882
100
AcDbXrecord
280
     1
102
RTVSPost2010Prop28
280
     0
102
RTVSPost2010PropOp28
 70
     1
102
RTVSPost2010Prop29
280
     1
102
RTVSPost2010PropOp29
 70
     1
102
RTVSPost2010Prop30
280
     1
102
RTVSPost2010PropOp30
 70
     1
102
RTVSPost2010Prop31
280
     0
102
RTVSPost2010PropOp31
 70
     1
102
RTVSPost2010Prop32
280
     0
102
RTVSPost2010PropOp32
 70
     1
102
RTVSPost2010Prop33
280
     0
102
RTVSPost2010PropOp33
 70
     1
102
RTVSPost2010Prop34
280
     0
102
RTVSPost2010PropOp34
 70
     1
102
RTVSPost2010Prop35
280
     0
102
RTVSPost2010PropOp35
 70
     1
102
RTVSPost2010Prop36
280
     0
102
RTVSPost2010PropOp36
 70
     1
102
RTVSPost2010Prop37
 90
       50
102
RTVSPost2010PropOp37
 70
     0
102
RTVSPost2010Prop38
140
0.0
102
RTVSPost2010PropOp38
 70
     0
102
RTVSPost2010Prop39
140
1.0
102
RTVSPost2010PropOp39
 70
     0
102
RTVSPost2010Prop40
 90
        0
102
RTVSPost2010PropOp40
 70
     0
102
RTVSPost2010Prop41ColorIndex
 90
       18
102
RTVSPost2010Prop41ColorRGB
 90
        0
102
RTVSPost2010PropOp41
 70
     0
102
RTVSPost2010Prop42
 90
       50
102
RTVSPost2010PropOp42
 70
     0
102
RTVSPost2010Prop43
 90
        3
102
RTVSPost2010PropOp43
 70
     0
102
RTVSPost2010Prop44ColorIndex
 90
        5
102
RTVSPost2010Prop44ColorRGB
 90
      255
102
RTVSPost2010PropOp44
 70
     0
102
RTVSPost2010Prop45
280
     0
102
RTVSPost2010PropOp45
 70
     1
102
RTVSPost2010Prop46
 90
       50
102
RTVSPost2010PropOp46
 70
     0
102
RTVSPost2010Prop47
 90
       50
102
RTVSPost2010PropOp47
 70
     0
102
RTVSPost2010Prop48
 90
       50
102
RTVSPost2010PropOp48
 70
     0
102
RTVSPost2010Prop49
280
     0
102
RTVSPost2010PropOp49
 70
     1
102
RTVSPost2010Prop50
 90
       50
102
RTVSPost2010PropOp50
 70
     0
102
RTVSPost2010Prop51ColorIndex
 90
      256
102
RTVSPost2010Prop51ColorRGB
 90
-16777216
102
RTVSPost2010PropOp51
 70
     0
102
RTVSPost2010Prop52
140
1.0
102
RTVSPost2010PropOp52
 70
     0
102
RTVSPost2010Prop53
 90
        2
102
RTVSPost2010PropOp53
 70
     0
102
RTVSPost2010Prop54
  1
strokes_ogs.tif
102
RTVSPost2010PropOp54
 70
     0
102
RTVSPost2010Prop55
280
     0
102
RTVSPost2010PropOp55
 70
     1
102
RTVSPost2010Prop56
140
1.0
102
RTVSPost2010PropOp56
 70
     0
102
RTVSPost2010Prop57
140
1.0
102
RTVSPost2010PropOp57
 70
     0
102
RTVSPropertyOp0
 70
     0
102
RTVSPropertyOp1
 70
     0
102
RTVSPropertyOp2
 70
     0
102
RTVSPropertyOp3
 70
     0
102
RTVSPropertyOp4
 70
     0
102
RTVSPropertyOp5
 70
     0
102
RTVSPropertyOp6
 70
     0
102
RTVSPropertyOp7
 70
     0
102
RTVSPropertyOp8
 70
     0
102
RTVSPropertyOp9
 70
     0
102
RTVSPropertyOp10
 70
     0
102
RTVSPropertyOp11
 70
     0
102
RTVSPropertyOp12
 70
     0
102
RTVSPropertyOp13
 70
     0
102
RTVSPropertyOp14
 70
     2
102
RTVSPropertyOp15
 70
     0
102
RTVSPropertyOp16
 70
     0
102
RTVSPropertyOp17
 70
     0
102
RTVSPropertyOp18
 70
     0
102
RTVSPropertyOp19
 70
     0
102
RTVSPropertyOp20
 70
     0
102
RTVSPropertyOp21
 70
     0
102
RTVSPropertyOp22
 70
     0
102
RTVSPropertyOp23
 70
     0
102
RTVSPropertyOp24
 70
     0
102
RTVSPropertyOp25
 70
     0
102
RTVSPropertyOp26
 70
     0
102
RTVSPropertyOp27
 70
     0
102
RTVSPropertyOp28
 70
     1
102
RTVSPropertyOp29
 70
     1
102
RTVSPropertyOp30
 70
     1
102
RTVSPropertyOp31
 70
     1
102
RTVSPropertyOp32
 70
     1
102
RTVSPropertyOp33
 70
     1
102
RTVSPropertyOp34
 70
     1
102
RTVSPropertyOp35
 70
     1
102
RTVSPropertyOp36
 70
     1
102
RTVSPropertyOp37
 70
     0
102
RTVSPropertyOp38
 70
     0
102
RTVSPropertyOp39
 70
     0
102
RTVSPropertyOp40
 70
     0
102
RTVSPropertyOp41
 70
     0
102
RTVSPropertyOp42
 70
     0
102
RTVSPropertyOp43
 70
     0
102
RTVSPropertyOp44
 70
     0
102
RTVSPropertyOp45
 70
     1
102
RTVSPropertyOp46
 70
     0
102
RTVSPropertyOp47
 70
     0
102
RTVSPropertyOp48
 70
     0
102
RTVSPropertyOp49
 70
     1
102
RTVSPropertyOp50
 70
     0
102
RTVSPropertyOp51
 70
     0
102
RTVSPropertyOp52
 70
     0
102
RTVSPropertyOp53
 70
     0
102
RTVSPropertyOp54
 70
     0
102
RTVSPropertyOp55
 70
     1
102
RTVSPropertyOp56
 70
     0
102
RTVSPropertyOp57
 70
     0
102
RTVSPropertyOp58
 70
     0
102
RTVSPropertyOp59
 70
     0
102
RTVSPropertyOp60
 70
     0
102
RTVSPropertyOp61
 70
     0
102
RTVSPropertyOp62
 70
     0
  0
XRECORD
  5
A869
102
{ACAD_REACTORS
330
A868
102
}
330
A868
100
AcDbXrecord
280
     1
102
RTVSPost2010Prop28
280
     0
102
RTVSPost2010PropOp28
 70
     1
102
RTVSPost2010Prop29
280
     1
102
RTVSPost2010PropOp29
 70
     1
102
RTVSPost2010Prop30
280
     1
102
RTVSPost2010PropOp30
 70
     1
102
RTVSPost2010Prop31
280
     0
102
RTVSPost2010PropOp31
 70
     1
102
RTVSPost2010Prop32
280
     0
102
RTVSPost2010PropOp32
 70
     1
102
RTVSPost2010Prop33
280
     0
102
RTVSPost2010PropOp33
 70
     1
102
RTVSPost2010Prop34
280
     0
102
RTVSPost2010PropOp34
 70
     1
102
RTVSPost2010Prop35
280
     0
102
RTVSPost2010PropOp35
 70
     1
102
RTVSPost2010Prop36
280
     0
102
RTVSPost2010PropOp36
 70
     1
102
RTVSPost2010Prop37
 90
       50
102
RTVSPost2010PropOp37
 70
     1
102
RTVSPost2010Prop38
140
0.0
102
RTVSPost2010PropOp38
 70
     1
102
RTVSPost2010Prop39
140
1.0
102
RTVSPost2010PropOp39
 70
     1
102
RTVSPost2010Prop40
 90
        0
102
RTVSPost2010PropOp40
 70
     1
102
RTVSPost2010Prop41ColorIndex
 90
       18
102
RTVSPost2010Prop41ColorRGB
 90
        0
102
RTVSPost2010PropOp41
 70
     1
102
RTVSPost2010Prop42
 90
       50
102
RTVSPost2010PropOp42
 70
     1
102
RTVSPost2010Prop43
 90
        3
102
RTVSPost2010PropOp43
 70
     1
102
RTVSPost2010Prop44ColorIndex
 90
        5
102
RTVSPost2010Prop44ColorRGB
 90
      255
102
RTVSPost2010PropOp44
 70
     1
102
RTVSPost2010Prop45
280
     0
102
RTVSPost2010PropOp45
 70
     1
102
RTVSPost2010Prop46
 90
       50
102
RTVSPost2010PropOp46
 70
     1
102
RTVSPost2010Prop47
 90
       50
102
RTVSPost2010PropOp47
 70
     1
102
RTVSPost2010Prop48
 90
       50
102
RTVSPost2010PropOp48
 70
     1
102
RTVSPost2010Prop49
280
     0
102
RTVSPost2010PropOp49
 70
     1
102
RTVSPost2010Prop50
 90
       50
102
RTVSPost2010PropOp50
 70
     1
102
RTVSPost2010Prop51ColorIndex
 90
      256
102
RTVSPost2010Prop51ColorRGB
 90
-16777216
102
RTVSPost2010PropOp51
 70
     0
102
RTVSPost2010Prop52
140
1.0
102
RTVSPost2010PropOp52
 70
     0
102
RTVSPost2010Prop53
 90
        2
102
RTVSPost2010PropOp53
 70
     1
102
RTVSPost2010Prop54
  1
strokes_ogs.tif
102
RTVSPost2010PropOp54
 70
     1
102
RTVSPost2010Prop55
280
     0
102
RTVSPost2010PropOp55
 70
     1
102
RTVSPost2010Prop56
140
1.0
102
RTVSPost2010PropOp56
 70
     1
102
RTVSPost2010Prop57
140
1.0
102
RTVSPost2010PropOp57
 70
     1
102
RTVSPropertyOp0
 70
     1
102
RTVSPropertyOp1
 70
     1
102
RTVSPropertyOp2
 70
     1
102
RTVSPropertyOp3
 70
     1
102
RTVSPropertyOp4
 70
     1
102
RTVSPropertyOp5
 70
     1
102
RTVSPropertyOp6
 70
     1
102
RTVSPropertyOp7
 70
     1
102
RTVSPropertyOp8
 70
     1
102
RTVSPropertyOp9
 70
     1
102
RTVSPropertyOp10
 70
     1
102
RTVSPropertyOp11
 70
     1
102
RTVSPropertyOp12
 70
     1
102
RTVSPropertyOp13
 70
     1
102
RTVSPropertyOp14
 70
     1
102
RTVSPropertyOp15
 70
     1
102
RTVSPropertyOp16
 70
     1
102
RTVSPropertyOp17
 70
     1
102
RTVSPropertyOp18
 70
     1
102
RTVSPropertyOp19
 70
     1
102
RTVSPropertyOp20
 70
     1
102
RTVSPropertyOp21
 70
     1
102
RTVSPropertyOp22
 70
     1
102
RTVSPropertyOp23
 70
     1
102
RTVSPropertyOp24
 70
     1
102
RTVSPropertyOp25
 70
     1
102
RTVSPropertyOp26
 70
     1
102
RTVSPropertyOp27
 70
     1
102
RTVSPropertyOp28
 70
     1
102
RTVSPropertyOp29
 70
     1
102
RTVSPropertyOp30
 70
     1
102
RTVSPropertyOp31
 70
     1
102
RTVSPropertyOp32
 70
     1
102
RTVSPropertyOp33
 70
     1
102
RTVSPropertyOp34
 70
     1
102
RTVSPropertyOp35
 70
     1
102
RTVSPropertyOp36
 70
     1
102
RTVSPropertyOp37
 70
     1
102
RTVSPropertyOp38
 70
     1
102
RTVSPropertyOp39
 70
     1
102
RTVSPropertyOp40
 70
     1
102
RTVSPropertyOp41
 70
     1
102
RTVSPropertyOp42
 70
     1
102
RTVSPropertyOp43
 70
     1
102
RTVSPropertyOp44
 70
     1
102
RTVSPropertyOp45
 70
     1
102
RTVSPropertyOp46
 70
     1
102
RTVSPropertyOp47
 70
     1
102
RTVSPropertyOp48
 70
     1
102
RTVSPropertyOp49
 70
     1
102
RTVSPropertyOp50
 70
     1
102
RTVSPropertyOp51
 70
     0
102
RTVSPropertyOp52
 70
     0
102
RTVSPropertyOp53
 70
     1
102
RTVSPropertyOp54
 70
     1
102
RTVSPropertyOp55
 70
     1
102
RTVSPropertyOp56
 70
     1
102
RTVSPropertyOp57
 70
     1
102
RTVSPropertyOp58
 70
     1
102
RTVSPropertyOp59
 70
     1
102
RTVSPropertyOp60
 70
     1
102
RTVSPropertyOp61
 70
     1
102
RTVSPropertyOp62
 70
     1
  0
XRECORD
  5
A87F
102
{ACAD_REACTORS
330
A87E
102
}
330
A87E
100
AcDbXrecord
280
     1
102
RTVSPost2010Prop28
280
     0
102
RTVSPost2010PropOp28
 70
     1
102
RTVSPost2010Prop29
280
     1
102
RTVSPost2010PropOp29
 70
     1
102
RTVSPost2010Prop30
280
     1
102
RTVSPost2010PropOp30
 70
     1
102
RTVSPost2010Prop31
280
     0
102
RTVSPost2010PropOp31
 70
     1
102
RTVSPost2010Prop32
280
     0
102
RTVSPost2010PropOp32
 70
     1
102
RTVSPost2010Prop33
280
     0
102
RTVSPost2010PropOp33
 70
     1
102
RTVSPost2010Prop34
280
     0
102
RTVSPost2010PropOp34
 70
     1
102
RTVSPost2010Prop35
280
     0
102
RTVSPost2010PropOp35
 70
     1
102
RTVSPost2010Prop36
280
     0
102
RTVSPost2010PropOp36
 70
     1
102
RTVSPost2010Prop37
 90
       50
102
RTVSPost2010PropOp37
 70
     1
102
RTVSPost2010Prop38
140
0.0
102
RTVSPost2010PropOp38
 70
     1
102
RTVSPost2010Prop39
140
1.0
102
RTVSPost2010PropOp39
 70
     1
102
RTVSPost2010Prop40
 90
        0
102
RTVSPost2010PropOp40
 70
     1
102
RTVSPost2010Prop41ColorIndex
 90
       18
102
RTVSPost2010Prop41ColorRGB
 90
        0
102
RTVSPost2010PropOp41
 70
     1
102
RTVSPost2010Prop42
 90
       50
102
RTVSPost2010PropOp42
 70
     1
102
RTVSPost2010Prop43
 90
        3
102
RTVSPost2010PropOp43
 70
     1
102
RTVSPost2010Prop44ColorIndex
 90
        5
102
RTVSPost2010Prop44ColorRGB
 90
      255
102
RTVSPost2010PropOp44
 70
     1
102
RTVSPost2010Prop45
280
     0
102
RTVSPost2010PropOp45
 70
     1
102
RTVSPost2010Prop46
 90
       50
102
RTVSPost2010PropOp46
 70
     1
102
RTVSPost2010Prop47
 90
       50
102
RTVSPost2010PropOp47
 70
     1
102
RTVSPost2010Prop48
 90
       50
102
RTVSPost2010PropOp48
 70
     1
102
RTVSPost2010Prop49
280
     0
102
RTVSPost2010PropOp49
 70
     1
102
RTVSPost2010Prop50
 90
       50
102
RTVSPost2010PropOp50
 70
     1
102
RTVSPost2010Prop51ColorIndex
 90
      256
102
RTVSPost2010Prop51ColorRGB
 90
-16777216
102
RTVSPost2010PropOp51
 70
     0
102
RTVSPost2010Prop52
140
1.0
102
RTVSPost2010PropOp52
 70
     0
102
RTVSPost2010Prop53
 90
        2
102
RTVSPost2010PropOp53
 70
     1
102
RTVSPost2010Prop54
  1
strokes_ogs.tif
102
RTVSPost2010PropOp54
 70
     1
102
RTVSPost2010Prop55
280
     0
102
RTVSPost2010PropOp55
 70
     1
102
RTVSPost2010Prop56
140
1.0
102
RTVSPost2010PropOp56
 70
     1
102
RTVSPost2010Prop57
140
1.0
102
RTVSPost2010PropOp57
 70
     1
102
RTVSPropertyOp0
 70
     1
102
RTVSPropertyOp1
 70
     1
102
RTVSPropertyOp2
 70
     1
102
RTVSPropertyOp3
 70
     1
102
RTVSPropertyOp4
 70
     1
102
RTVSPropertyOp5
 70
     1
102
RTVSPropertyOp6
 70
     1
102
RTVSPropertyOp7
 70
     1
102
RTVSPropertyOp8
 70
     1
102
RTVSPropertyOp9
 70
     1
102
RTVSPropertyOp10
 70
     1
102
RTVSPropertyOp11
 70
     1
102
RTVSPropertyOp12
 70
     1
102
RTVSPropertyOp13
 70
     1
102
RTVSPropertyOp14
 70
     1
102
RTVSPropertyOp15
 70
     1
102
RTVSPropertyOp16
 70
     1
102
RTVSPropertyOp17
 70
     1
102
RTVSPropertyOp18
 70
     1
102
RTVSPropertyOp19
 70
     1
102
RTVSPropertyOp20
 70
     1
102
RTVSPropertyOp21
 70
     1
102
RTVSPropertyOp22
 70
     1
102
RTVSPropertyOp23
 70
     1
102
RTVSPropertyOp24
 70
     1
102
RTVSPropertyOp25
 70
     1
102
RTVSPropertyOp26
 70
     1
102
RTVSPropertyOp27
 70
     1
102
RTVSPropertyOp28
 70
     1
102
RTVSPropertyOp29
 70
     1
102
RTVSPropertyOp30
 70
     1
102
RTVSPropertyOp31
 70
     1
102
RTVSPropertyOp32
 70
     1
102
RTVSPropertyOp33
 70
     1
102
RTVSPropertyOp34
 70
     1
102
RTVSPropertyOp35
 70
     1
102
RTVSPropertyOp36
 70
     1
102
RTVSPropertyOp37
 70
     1
102
RTVSPropertyOp38
 70
     1
102
RTVSPropertyOp39
 70
     1
102
RTVSPropertyOp40
 70
     1
102
RTVSPropertyOp41
 70
     1
102
RTVSPropertyOp42
 70
     1
102
RTVSPropertyOp43
 70
     1
102
RTVSPropertyOp44
 70
     1
102
RTVSPropertyOp45
 70
     1
102
RTVSPropertyOp46
 70
     1
102
RTVSPropertyOp47
 70
     1
102
RTVSPropertyOp48
 70
     1
102
RTVSPropertyOp49
 70
     1
102
RTVSPropertyOp50
 70
     1
102
RTVSPropertyOp51
 70
     0
102
RTVSPropertyOp52
 70
     0
102
RTVSPropertyOp53
 70
     1
102
RTVSPropertyOp54
 70
     1
102
RTVSPropertyOp55
 70
     1
102
RTVSPropertyOp56
 70
     1
102
RTVSPropertyOp57
 70
     1
102
RTVSPropertyOp58
 70
     1
102
RTVSPropertyOp59
 70
     1
102
RTVSPropertyOp60
 70
     1
102
RTVSPropertyOp61
 70
     1
102
RTVSPropertyOp62
 70
     1
  0
XRECORD
  5
A87D
102
{ACAD_REACTORS
330
A87C
102
}
330
A87C
100
AcDbXrecord
280
     1
102
RTVSPost2010Prop28
280
     0
102
RTVSPost2010PropOp28
 70
     1
102
RTVSPost2010Prop29
280
     1
102
RTVSPost2010PropOp29
 70
     1
102
RTVSPost2010Prop30
280
     1
102
RTVSPost2010PropOp30
 70
     1
102
RTVSPost2010Prop31
280
     0
102
RTVSPost2010PropOp31
 70
     1
102
RTVSPost2010Prop32
280
     0
102
RTVSPost2010PropOp32
 70
     1
102
RTVSPost2010Prop33
280
     0
102
RTVSPost2010PropOp33
 70
     1
102
RTVSPost2010Prop34
280
     0
102
RTVSPost2010PropOp34
 70
     1
102
RTVSPost2010Prop35
280
     0
102
RTVSPost2010PropOp35
 70
     1
102
RTVSPost2010Prop36
280
     0
102
RTVSPost2010PropOp36
 70
     1
102
RTVSPost2010Prop37
 90
       50
102
RTVSPost2010PropOp37
 70
     1
102
RTVSPost2010Prop38
140
0.0
102
RTVSPost2010PropOp38
 70
     1
102
RTVSPost2010Prop39
140
1.0
102
RTVSPost2010PropOp39
 70
     1
102
RTVSPost2010Prop40
 90
        0
102
RTVSPost2010PropOp40
 70
     1
102
RTVSPost2010Prop41ColorIndex
 90
       18
102
RTVSPost2010Prop41ColorRGB
 90
        0
102
RTVSPost2010PropOp41
 70
     1
102
RTVSPost2010Prop42
 90
       50
102
RTVSPost2010PropOp42
 70
     1
102
RTVSPost2010Prop43
 90
        3
102
RTVSPost2010PropOp43
 70
     1
102
RTVSPost2010Prop44ColorIndex
 90
        5
102
RTVSPost2010Prop44ColorRGB
 90
      255
102
RTVSPost2010PropOp44
 70
     1
102
RTVSPost2010Prop45
280
     0
102
RTVSPost2010PropOp45
 70
     1
102
RTVSPost2010Prop46
 90
       50
102
RTVSPost2010PropOp46
 70
     1
102
RTVSPost2010Prop47
 90
       50
102
RTVSPost2010PropOp47
 70
     1
102
RTVSPost2010Prop48
 90
       50
102
RTVSPost2010PropOp48
 70
     1
102
RTVSPost2010Prop49
280
     0
102
RTVSPost2010PropOp49
 70
     1
102
RTVSPost2010Prop50
 90
       50
102
RTVSPost2010PropOp50
 70
     1
102
RTVSPost2010Prop51ColorIndex
 90
      256
102
RTVSPost2010Prop51ColorRGB
 90
-16777216
102
RTVSPost2010PropOp51
 70
     0
102
RTVSPost2010Prop52
140
1.0
102
RTVSPost2010PropOp52
 70
     0
102
RTVSPost2010Prop53
 90
        2
102
RTVSPost2010PropOp53
 70
     1
102
RTVSPost2010Prop54
  1
strokes_ogs.tif
102
RTVSPost2010PropOp54
 70
     1
102
RTVSPost2010Prop55
280
     0
102
RTVSPost2010PropOp55
 70
     1
102
RTVSPost2010Prop56
140
1.0
102
RTVSPost2010PropOp56
 70
     1
102
RTVSPost2010Prop57
140
1.0
102
RTVSPost2010PropOp57
 70
     1
102
RTVSPropertyOp0
 70
     1
102
RTVSPropertyOp1
 70
     1
102
RTVSPropertyOp2
 70
     1
102
RTVSPropertyOp3
 70
     1
102
RTVSPropertyOp4
 70
     1
102
RTVSPropertyOp5
 70
     1
102
RTVSPropertyOp6
 70
     1
102
RTVSPropertyOp7
 70
     1
102
RTVSPropertyOp8
 70
     1
102
RTVSPropertyOp9
 70
     1
102
RTVSPropertyOp10
 70
     1
102
RTVSPropertyOp11
 70
     1
102
RTVSPropertyOp12
 70
     1
102
RTVSPropertyOp13
 70
     1
102
RTVSPropertyOp14
 70
     1
102
RTVSPropertyOp15
 70
     1
102
RTVSPropertyOp16
 70
     1
102
RTVSPropertyOp17
 70
     1
102
RTVSPropertyOp18
 70
     1
102
RTVSPropertyOp19
 70
     1
102
RTVSPropertyOp20
 70
     1
102
RTVSPropertyOp21
 70
     1
102
RTVSPropertyOp22
 70
     1
102
RTVSPropertyOp23
 70
     1
102
RTVSPropertyOp24
 70
     1
102
RTVSPropertyOp25
 70
     1
102
RTVSPropertyOp26
 70
     1
102
RTVSPropertyOp27
 70
     1
102
RTVSPropertyOp28
 70
     1
102
RTVSPropertyOp29
 70
     1
102
RTVSPropertyOp30
 70
     1
102
RTVSPropertyOp31
 70
     1
102
RTVSPropertyOp32
 70
     1
102
RTVSPropertyOp33
 70
     1
102
RTVSPropertyOp34
 70
     1
102
RTVSPropertyOp35
 70
     1
102
RTVSPropertyOp36
 70
     1
102
RTVSPropertyOp37
 70
     1
102
RTVSPropertyOp38
 70
     1
102
RTVSPropertyOp39
 70
     1
102
RTVSPropertyOp40
 70
     1
102
RTVSPropertyOp41
 70
     1
102
RTVSPropertyOp42
 70
     1
102
RTVSPropertyOp43
 70
     1
102
RTVSPropertyOp44
 70
     1
102
RTVSPropertyOp45
 70
     1
102
RTVSPropertyOp46
 70
     1
102
RTVSPropertyOp47
 70
     1
102
RTVSPropertyOp48
 70
     1
102
RTVSPropertyOp49
 70
     1
102
RTVSPropertyOp50
 70
     1
102
RTVSPropertyOp51
 70
     0
102
RTVSPropertyOp52
 70
     0
102
RTVSPropertyOp53
 70
     1
102
RTVSPropertyOp54
 70
     1
102
RTVSPropertyOp55
 70
     1
102
RTVSPropertyOp56
 70
     1
102
RTVSPropertyOp57
 70
     1
102
RTVSPropertyOp58
 70
     1
102
RTVSPropertyOp59
 70
     1
102
RTVSPropertyOp60
 70
     1
102
RTVSPropertyOp61
 70
     1
102
RTVSPropertyOp62
 70
     1
  0
XRECORD
  5
A877
102
{ACAD_REACTORS
330
A876
102
}
330
A876
100
AcDbXrecord
280
     1
102
RTVSPost2010Prop28
280
     0
102
RTVSPost2010PropOp28
 70
     1
102
RTVSPost2010Prop29
280
     1
102
RTVSPost2010PropOp29
 70
     1
102
RTVSPost2010Prop30
280
     1
102
RTVSPost2010PropOp30
 70
     1
102
RTVSPost2010Prop31
280
     0
102
RTVSPost2010PropOp31
 70
     1
102
RTVSPost2010Prop32
280
     0
102
RTVSPost2010PropOp32
 70
     1
102
RTVSPost2010Prop33
280
     0
102
RTVSPost2010PropOp33
 70
     1
102
RTVSPost2010Prop34
280
     0
102
RTVSPost2010PropOp34
 70
     1
102
RTVSPost2010Prop35
280
     0
102
RTVSPost2010PropOp35
 70
     1
102
RTVSPost2010Prop36
280
     0
102
RTVSPost2010PropOp36
 70
     1
102
RTVSPost2010Prop37
 90
       50
102
RTVSPost2010PropOp37
 70
     1
102
RTVSPost2010Prop38
140
0.0
102
RTVSPost2010PropOp38
 70
     1
102
RTVSPost2010Prop39
140
1.0
102
RTVSPost2010PropOp39
 70
     1
102
RTVSPost2010Prop40
 90
        0
102
RTVSPost2010PropOp40
 70
     1
102
RTVSPost2010Prop41ColorIndex
 90
       18
102
RTVSPost2010Prop41ColorRGB
 90
        0
102
RTVSPost2010PropOp41
 70
     1
102
RTVSPost2010Prop42
 90
       50
102
RTVSPost2010PropOp42
 70
     1
102
RTVSPost2010Prop43
 90
        3
102
RTVSPost2010PropOp43
 70
     1
102
RTVSPost2010Prop44ColorIndex
 90
        5
102
RTVSPost2010Prop44ColorRGB
 90
      255
102
RTVSPost2010PropOp44
 70
     1
102
RTVSPost2010Prop45
280
     0
102
RTVSPost2010PropOp45
 70
     1
102
RTVSPost2010Prop46
 90
       50
102
RTVSPost2010PropOp46
 70
     1
102
RTVSPost2010Prop47
 90
       50
102
RTVSPost2010PropOp47
 70
     1
102
RTVSPost2010Prop48
 90
       50
102
RTVSPost2010PropOp48
 70
     1
102
RTVSPost2010Prop49
280
     0
102
RTVSPost2010PropOp49
 70
     1
102
RTVSPost2010Prop50
 90
       50
102
RTVSPost2010PropOp50
 70
     1
102
RTVSPost2010Prop51ColorIndex
 90
      256
102
RTVSPost2010Prop51ColorRGB
 90
-16777216
102
RTVSPost2010PropOp51
 70
     0
102
RTVSPost2010Prop52
140
1.0
102
RTVSPost2010PropOp52
 70
     0
102
RTVSPost2010Prop53
 90
        2
102
RTVSPost2010PropOp53
 70
     1
102
RTVSPost2010Prop54
  1
strokes_ogs.tif
102
RTVSPost2010PropOp54
 70
     1
102
RTVSPost2010Prop55
280
     0
102
RTVSPost2010PropOp55
 70
     1
102
RTVSPost2010Prop56
140
1.0
102
RTVSPost2010PropOp56
 70
     1
102
RTVSPost2010Prop57
140
1.0
102
RTVSPost2010PropOp57
 70
     1
102
RTVSPropertyOp0
 70
     1
102
RTVSPropertyOp1
 70
     1
102
RTVSPropertyOp2
 70
     1
102
RTVSPropertyOp3
 70
     1
102
RTVSPropertyOp4
 70
     1
102
RTVSPropertyOp5
 70
     1
102
RTVSPropertyOp6
 70
     1
102
RTVSPropertyOp7
 70
     1
102
RTVSPropertyOp8
 70
     1
102
RTVSPropertyOp9
 70
     1
102
RTVSPropertyOp10
 70
     1
102
RTVSPropertyOp11
 70
     1
102
RTVSPropertyOp12
 70
     1
102
RTVSPropertyOp13
 70
     1
102
RTVSPropertyOp14
 70
     1
102
RTVSPropertyOp15
 70
     1
102
RTVSPropertyOp16
 70
     1
102
RTVSPropertyOp17
 70
     1
102
RTVSPropertyOp18
 70
     1
102
RTVSPropertyOp19
 70
     1
102
RTVSPropertyOp20
 70
     1
102
RTVSPropertyOp21
 70
     1
102
RTVSPropertyOp22
 70
     1
102
RTVSPropertyOp23
 70
     1
102
RTVSPropertyOp24
 70
     1
102
RTVSPropertyOp25
 70
     1
102
RTVSPropertyOp26
 70
     1
102
RTVSPropertyOp27
 70
     1
102
RTVSPropertyOp28
 70
     1
102
RTVSPropertyOp29
 70
     1
102
RTVSPropertyOp30
 70
     1
102
RTVSPropertyOp31
 70
     1
102
RTVSPropertyOp32
 70
     1
102
RTVSPropertyOp33
 70
     1
102
RTVSPropertyOp34
 70
     1
102
RTVSPropertyOp35
 70
     1
102
RTVSPropertyOp36
 70
     1
102
RTVSPropertyOp37
 70
     1
102
RTVSPropertyOp38
 70
     1
102
RTVSPropertyOp39
 70
     1
102
RTVSPropertyOp40
 70
     1
102
RTVSPropertyOp41
 70
     1
102
RTVSPropertyOp42
 70
     1
102
RTVSPropertyOp43
 70
     1
102
RTVSPropertyOp44
 70
     1
102
RTVSPropertyOp45
 70
     1
102
RTVSPropertyOp46
 70
     1
102
RTVSPropertyOp47
 70
     1
102
RTVSPropertyOp48
 70
     1
102
RTVSPropertyOp49
 70
     1
102
RTVSPropertyOp50
 70
     1
102
RTVSPropertyOp51
 70
     0
102
RTVSPropertyOp52
 70
     0
102
RTVSPropertyOp53
 70
     1
102
RTVSPropertyOp54
 70
     1
102
RTVSPropertyOp55
 70
     1
102
RTVSPropertyOp56
 70
     1
102
RTVSPropertyOp57
 70
     1
102
RTVSPropertyOp58
 70
     1
102
RTVSPropertyOp59
 70
     1
102
RTVSPropertyOp60
 70
     1
102
RTVSPropertyOp61
 70
     1
102
RTVSPropertyOp62
 70
     1
  0
XRECORD
  5
A879
102
{ACAD_REACTORS
330
A878
102
}
330
A878
100
AcDbXrecord
280
     1
102
RTVSPost2010Prop28
280
     0
102
RTVSPost2010PropOp28
 70
     1
102
RTVSPost2010Prop29
280
     1
102
RTVSPost2010PropOp29
 70
     1
102
RTVSPost2010Prop30
280
     1
102
RTVSPost2010PropOp30
 70
     1
102
RTVSPost2010Prop31
280
     0
102
RTVSPost2010PropOp31
 70
     1
102
RTVSPost2010Prop32
280
     0
102
RTVSPost2010PropOp32
 70
     1
102
RTVSPost2010Prop33
280
     0
102
RTVSPost2010PropOp33
 70
     1
102
RTVSPost2010Prop34
280
     0
102
RTVSPost2010PropOp34
 70
     1
102
RTVSPost2010Prop35
280
     0
102
RTVSPost2010PropOp35
 70
     1
102
RTVSPost2010Prop36
280
     0
102
RTVSPost2010PropOp36
 70
     1
102
RTVSPost2010Prop37
 90
       50
102
RTVSPost2010PropOp37
 70
     1
102
RTVSPost2010Prop38
140
0.0
102
RTVSPost2010PropOp38
 70
     1
102
RTVSPost2010Prop39
140
1.0
102
RTVSPost2010PropOp39
 70
     1
102
RTVSPost2010Prop40
 90
        0
102
RTVSPost2010PropOp40
 70
     1
102
RTVSPost2010Prop41ColorIndex
 90
       18
102
RTVSPost2010Prop41ColorRGB
 90
        0
102
RTVSPost2010PropOp41
 70
     1
102
RTVSPost2010Prop42
 90
       50
102
RTVSPost2010PropOp42
 70
     1
102
RTVSPost2010Prop43
 90
        3
102
RTVSPost2010PropOp43
 70
     1
102
RTVSPost2010Prop44ColorIndex
 90
        5
102
RTVSPost2010Prop44ColorRGB
 90
      255
102
RTVSPost2010PropOp44
 70
     1
102
RTVSPost2010Prop45
280
     0
102
RTVSPost2010PropOp45
 70
     1
102
RTVSPost2010Prop46
 90
       50
102
RTVSPost2010PropOp46
 70
     1
102
RTVSPost2010Prop47
 90
       50
102
RTVSPost2010PropOp47
 70
     1
102
RTVSPost2010Prop48
 90
       50
102
RTVSPost2010PropOp48
 70
     1
102
RTVSPost2010Prop49
280
     0
102
RTVSPost2010PropOp49
 70
     1
102
RTVSPost2010Prop50
 90
       50
102
RTVSPost2010PropOp50
 70
     1
102
RTVSPost2010Prop51ColorIndex
 90
      256
102
RTVSPost2010Prop51ColorRGB
 90
-16777216
102
RTVSPost2010PropOp51
 70
     0
102
RTVSPost2010Prop52
140
1.0
102
RTVSPost2010PropOp52
 70
     0
102
RTVSPost2010Prop53
 90
        2
102
RTVSPost2010PropOp53
 70
     1
102
RTVSPost2010Prop54
  1
strokes_ogs.tif
102
RTVSPost2010PropOp54
 70
     1
102
RTVSPost2010Prop55
280
     0
102
RTVSPost2010PropOp55
 70
     1
102
RTVSPost2010Prop56
140
1.0
102
RTVSPost2010PropOp56
 70
     1
102
RTVSPost2010Prop57
140
1.0
102
RTVSPost2010PropOp57
 70
     1
102
RTVSPropertyOp0
 70
     1
102
RTVSPropertyOp1
 70
     1
102
RTVSPropertyOp2
 70
     1
102
RTVSPropertyOp3
 70
     1
102
RTVSPropertyOp4
 70
     1
102
RTVSPropertyOp5
 70
     1
102
RTVSPropertyOp6
 70
     1
102
RTVSPropertyOp7
 70
     1
102
RTVSPropertyOp8
 70
     1
102
RTVSPropertyOp9
 70
     1
102
RTVSPropertyOp10
 70
     1
102
RTVSPropertyOp11
 70
     1
102
RTVSPropertyOp12
 70
     1
102
RTVSPropertyOp13
 70
     1
102
RTVSPropertyOp14
 70
     1
102
RTVSPropertyOp15
 70
     1
102
RTVSPropertyOp16
 70
     1
102
RTVSPropertyOp17
 70
     1
102
RTVSPropertyOp18
 70
     1
102
RTVSPropertyOp19
 70
     1
102
RTVSPropertyOp20
 70
     1
102
RTVSPropertyOp21
 70
     1
102
RTVSPropertyOp22
 70
     1
102
RTVSPropertyOp23
 70
     1
102
RTVSPropertyOp24
 70
     1
102
RTVSPropertyOp25
 70
     1
102
RTVSPropertyOp26
 70
     1
102
RTVSPropertyOp27
 70
     1
102
RTVSPropertyOp28
 70
     1
102
RTVSPropertyOp29
 70
     1
102
RTVSPropertyOp30
 70
     1
102
RTVSPropertyOp31
 70
     1
102
RTVSPropertyOp32
 70
     1
102
RTVSPropertyOp33
 70
     1
102
RTVSPropertyOp34
 70
     1
102
RTVSPropertyOp35
 70
     1
102
RTVSPropertyOp36
 70
     1
102
RTVSPropertyOp37
 70
     1
102
RTVSPropertyOp38
 70
     1
102
RTVSPropertyOp39
 70
     1
102
RTVSPropertyOp40
 70
     1
102
RTVSPropertyOp41
 70
     1
102
RTVSPropertyOp42
 70
     1
102
RTVSPropertyOp43
 70
     1
102
RTVSPropertyOp44
 70
     1
102
RTVSPropertyOp45
 70
     1
102
RTVSPropertyOp46
 70
     1
102
RTVSPropertyOp47
 70
     1
102
RTVSPropertyOp48
 70
     1
102
RTVSPropertyOp49
 70
     1
102
RTVSPropertyOp50
 70
     1
102
RTVSPropertyOp51
 70
     0
102
RTVSPropertyOp52
 70
     0
102
RTVSPropertyOp53
 70
     1
102
RTVSPropertyOp54
 70
     1
102
RTVSPropertyOp55
 70
     1
102
RTVSPropertyOp56
 70
     1
102
RTVSPropertyOp57
 70
     1
102
RTVSPropertyOp58
 70
     1
102
RTVSPropertyOp59
 70
     1
102
RTVSPropertyOp60
 70
     1
102
RTVSPropertyOp61
 70
     1
102
RTVSPropertyOp62
 70
     1
  0
XRECORD
  5
A86F
102
{ACAD_REACTORS
330
A86E
102
}
330
A86E
100
AcDbXrecord
280
     1
102
RTVSPost2010Prop28
280
     0
102
RTVSPost2010PropOp28
 70
     1
102
RTVSPost2010Prop29
280
     1
102
RTVSPost2010PropOp29
 70
     1
102
RTVSPost2010Prop30
280
     1
102
RTVSPost2010PropOp30
 70
     1
102
RTVSPost2010Prop31
280
     0
102
RTVSPost2010PropOp31
 70
     1
102
RTVSPost2010Prop32
280
     0
102
RTVSPost2010PropOp32
 70
     1
102
RTVSPost2010Prop33
280
     0
102
RTVSPost2010PropOp33
 70
     1
102
RTVSPost2010Prop34
280
     0
102
RTVSPost2010PropOp34
 70
     1
102
RTVSPost2010Prop35
280
     0
102
RTVSPost2010PropOp35
 70
     1
102
RTVSPost2010Prop36
280
     0
102
RTVSPost2010PropOp36
 70
     1
102
RTVSPost2010Prop37
 90
       50
102
RTVSPost2010PropOp37
 70
     1
102
RTVSPost2010Prop38
140
0.0
102
RTVSPost2010PropOp38
 70
     1
102
RTVSPost2010Prop39
140
1.0
102
RTVSPost2010PropOp39
 70
     1
102
RTVSPost2010Prop40
 90
        0
102
RTVSPost2010PropOp40
 70
     1
102
RTVSPost2010Prop41ColorIndex
 90
       18
102
RTVSPost2010Prop41ColorRGB
 90
        0
102
RTVSPost2010PropOp41
 70
     1
102
RTVSPost2010Prop42
 90
       50
102
RTVSPost2010PropOp42
 70
     1
102
RTVSPost2010Prop43
 90
        3
102
RTVSPost2010PropOp43
 70
     1
102
RTVSPost2010Prop44ColorIndex
 90
        5
102
RTVSPost2010Prop44ColorRGB
 90
      255
102
RTVSPost2010PropOp44
 70
     1
102
RTVSPost2010Prop45
280
     0
102
RTVSPost2010PropOp45
 70
     1
102
RTVSPost2010Prop46
 90
       50
102
RTVSPost2010PropOp46
 70
     1
102
RTVSPost2010Prop47
 90
       50
102
RTVSPost2010PropOp47
 70
     1
102
RTVSPost2010Prop48
 90
       50
102
RTVSPost2010PropOp48
 70
     1
102
RTVSPost2010Prop49
280
     0
102
RTVSPost2010PropOp49
 70
     1
102
RTVSPost2010Prop50
 90
       50
102
RTVSPost2010PropOp50
 70
     1
102
RTVSPost2010Prop51ColorIndex
 90
      256
102
RTVSPost2010Prop51ColorRGB
 90
-16777216
102
RTVSPost2010PropOp51
 70
     0
102
RTVSPost2010Prop52
140
1.0
102
RTVSPost2010PropOp52
 70
     0
102
RTVSPost2010Prop53
 90
        2
102
RTVSPost2010PropOp53
 70
     1
102
RTVSPost2010Prop54
  1
strokes_ogs.tif
102
RTVSPost2010PropOp54
 70
     1
102
RTVSPost2010Prop55
280
     0
102
RTVSPost2010PropOp55
 70
     1
102
RTVSPost2010Prop56
140
1.0
102
RTVSPost2010PropOp56
 70
     1
102
RTVSPost2010Prop57
140
1.0
102
RTVSPost2010PropOp57
 70
     1
102
RTVSPropertyOp0
 70
     1
102
RTVSPropertyOp1
 70
     1
102
RTVSPropertyOp2
 70
     1
102
RTVSPropertyOp3
 70
     1
102
RTVSPropertyOp4
 70
     1
102
RTVSPropertyOp5
 70
     1
102
RTVSPropertyOp6
 70
     1
102
RTVSPropertyOp7
 70
     1
102
RTVSPropertyOp8
 70
     1
102
RTVSPropertyOp9
 70
     1
102
RTVSPropertyOp10
 70
     1
102
RTVSPropertyOp11
 70
     1
102
RTVSPropertyOp12
 70
     1
102
RTVSPropertyOp13
 70
     1
102
RTVSPropertyOp14
 70
     1
102
RTVSPropertyOp15
 70
     1
102
RTVSPropertyOp16
 70
     1
102
RTVSPropertyOp17
 70
     1
102
RTVSPropertyOp18
 70
     1
102
RTVSPropertyOp19
 70
     1
102
RTVSPropertyOp20
 70
     1
102
RTVSPropertyOp21
 70
     1
102
RTVSPropertyOp22
 70
     1
102
RTVSPropertyOp23
 70
     1
102
RTVSPropertyOp24
 70
     1
102
RTVSPropertyOp25
 70
     1
102
RTVSPropertyOp26
 70
     1
102
RTVSPropertyOp27
 70
     1
102
RTVSPropertyOp28
 70
     1
102
RTVSPropertyOp29
 70
     1
102
RTVSPropertyOp30
 70
     1
102
RTVSPropertyOp31
 70
     1
102
RTVSPropertyOp32
 70
     1
102
RTVSPropertyOp33
 70
     1
102
RTVSPropertyOp34
 70
     1
102
RTVSPropertyOp35
 70
     1
102
RTVSPropertyOp36
 70
     1
102
RTVSPropertyOp37
 70
     1
102
RTVSPropertyOp38
 70
     1
102
RTVSPropertyOp39
 70
     1
102
RTVSPropertyOp40
 70
     1
102
RTVSPropertyOp41
 70
     1
102
RTVSPropertyOp42
 70
     1
102
RTVSPropertyOp43
 70
     1
102
RTVSPropertyOp44
 70
     1
102
RTVSPropertyOp45
 70
     1
102
RTVSPropertyOp46
 70
     1
102
RTVSPropertyOp47
 70
     1
102
RTVSPropertyOp48
 70
     1
102
RTVSPropertyOp49
 70
     1
102
RTVSPropertyOp50
 70
     1
102
RTVSPropertyOp51
 70
     0
102
RTVSPropertyOp52
 70
     0
102
RTVSPropertyOp53
 70
     1
102
RTVSPropertyOp54
 70
     1
102
RTVSPropertyOp55
 70
     1
102
RTVSPropertyOp56
 70
     1
102
RTVSPropertyOp57
 70
     1
102
RTVSPropertyOp58
 70
     1
102
RTVSPropertyOp59
 70
     1
102
RTVSPropertyOp60
 70
     1
102
RTVSPropertyOp61
 70
     1
102
RTVSPropertyOp62
 70
     1
  0
XRECORD
  5
A863
102
{ACAD_REACTORS
330
A862
102
}
330
A862
100
AcDbXrecord
280
     1
102
RTVSPost2010Prop28
280
     0
102
RTVSPost2010PropOp28
 70
     1
102
RTVSPost2010Prop29
280
     1
102
RTVSPost2010PropOp29
 70
     1
102
RTVSPost2010Prop30
280
     1
102
RTVSPost2010PropOp30
 70
     1
102
RTVSPost2010Prop31
280
     0
102
RTVSPost2010PropOp31
 70
     1
102
RTVSPost2010Prop32
280
     0
102
RTVSPost2010PropOp32
 70
     1
102
RTVSPost2010Prop33
280
     0
102
RTVSPost2010PropOp33
 70
     1
102
RTVSPost2010Prop34
280
     0
102
RTVSPost2010PropOp34
 70
     1
102
RTVSPost2010Prop35
280
     0
102
RTVSPost2010PropOp35
 70
     1
102
RTVSPost2010Prop36
280
     0
102
RTVSPost2010PropOp36
 70
     1
102
RTVSPost2010Prop37
 90
       50
102
RTVSPost2010PropOp37
 70
     1
102
RTVSPost2010Prop38
140
0.0
102
RTVSPost2010PropOp38
 70
     1
102
RTVSPost2010Prop39
140
1.0
102
RTVSPost2010PropOp39
 70
     1
102
RTVSPost2010Prop40
 90
        0
102
RTVSPost2010PropOp40
 70
     1
102
RTVSPost2010Prop41ColorIndex
 90
       18
102
RTVSPost2010Prop41ColorRGB
 90
        0
102
RTVSPost2010PropOp41
 70
     1
102
RTVSPost2010Prop42
 90
       50
102
RTVSPost2010PropOp42
 70
     1
102
RTVSPost2010Prop43
 90
        3
102
RTVSPost2010PropOp43
 70
     1
102
RTVSPost2010Prop44ColorIndex
 90
        5
102
RTVSPost2010Prop44ColorRGB
 90
      255
102
RTVSPost2010PropOp44
 70
     1
102
RTVSPost2010Prop45
280
     0
102
RTVSPost2010PropOp45
 70
     1
102
RTVSPost2010Prop46
 90
       50
102
RTVSPost2010PropOp46
 70
     1
102
RTVSPost2010Prop47
 90
       50
102
RTVSPost2010PropOp47
 70
     1
102
RTVSPost2010Prop48
 90
       50
102
RTVSPost2010PropOp48
 70
     1
102
RTVSPost2010Prop49
280
     0
102
RTVSPost2010PropOp49
 70
     1
102
RTVSPost2010Prop50
 90
       50
102
RTVSPost2010PropOp50
 70
     1
102
RTVSPost2010Prop51ColorIndex
 90
      256
102
RTVSPost2010Prop51ColorRGB
 90
-16777216
102
RTVSPost2010PropOp51
 70
     0
102
RTVSPost2010Prop52
140
1.0
102
RTVSPost2010PropOp52
 70
     0
102
RTVSPost2010Prop53
 90
        2
102
RTVSPost2010PropOp53
 70
     1
102
RTVSPost2010Prop54
  1
strokes_ogs.tif
102
RTVSPost2010PropOp54
 70
     1
102
RTVSPost2010Prop55
280
     0
102
RTVSPost2010PropOp55
 70
     1
102
RTVSPost2010Prop56
140
1.0
102
RTVSPost2010PropOp56
 70
     1
102
RTVSPost2010Prop57
140
1.0
102
RTVSPost2010PropOp57
 70
     1
102
RTVSPropertyOp0
 70
     1
102
RTVSPropertyOp1
 70
     1
102
RTVSPropertyOp2
 70
     1
102
RTVSPropertyOp3
 70
     1
102
RTVSPropertyOp4
 70
     1
102
RTVSPropertyOp5
 70
     1
102
RTVSPropertyOp6
 70
     1
102
RTVSPropertyOp7
 70
     1
102
RTVSPropertyOp8
 70
     1
102
RTVSPropertyOp9
 70
     1
102
RTVSPropertyOp10
 70
     1
102
RTVSPropertyOp11
 70
     1
102
RTVSPropertyOp12
 70
     1
102
RTVSPropertyOp13
 70
     1
102
RTVSPropertyOp14
 70
     1
102
RTVSPropertyOp15
 70
     1
102
RTVSPropertyOp16
 70
     1
102
RTVSPropertyOp17
 70
     1
102
RTVSPropertyOp18
 70
     1
102
RTVSPropertyOp19
 70
     1
102
RTVSPropertyOp20
 70
     1
102
RTVSPropertyOp21
 70
     1
102
RTVSPropertyOp22
 70
     1
102
RTVSPropertyOp23
 70
     1
102
RTVSPropertyOp24
 70
     1
102
RTVSPropertyOp25
 70
     1
102
RTVSPropertyOp26
 70
     1
102
RTVSPropertyOp27
 70
     1
102
RTVSPropertyOp28
 70
     1
102
RTVSPropertyOp29
 70
     1
102
RTVSPropertyOp30
 70
     1
102
RTVSPropertyOp31
 70
     1
102
RTVSPropertyOp32
 70
     1
102
RTVSPropertyOp33
 70
     1
102
RTVSPropertyOp34
 70
     1
102
RTVSPropertyOp35
 70
     1
102
RTVSPropertyOp36
 70
     1
102
RTVSPropertyOp37
 70
     1
102
RTVSPropertyOp38
 70
     1
102
RTVSPropertyOp39
 70
     1
102
RTVSPropertyOp40
 70
     1
102
RTVSPropertyOp41
 70
     1
102
RTVSPropertyOp42
 70
     1
102
RTVSPropertyOp43
 70
     1
102
RTVSPropertyOp44
 70
     1
102
RTVSPropertyOp45
 70
     1
102
RTVSPropertyOp46
 70
     1
102
RTVSPropertyOp47
 70
     1
102
RTVSPropertyOp48
 70
     1
102
RTVSPropertyOp49
 70
     1
102
RTVSPropertyOp50
 70
     1
102
RTVSPropertyOp51
 70
     0
102
RTVSPropertyOp52
 70
     0
102
RTVSPropertyOp53
 70
     1
102
RTVSPropertyOp54
 70
     1
102
RTVSPropertyOp55
 70
     1
102
RTVSPropertyOp56
 70
     1
102
RTVSPropertyOp57
 70
     1
102
RTVSPropertyOp58
 70
     1
102
RTVSPropertyOp59
 70
     1
102
RTVSPropertyOp60
 70
     1
102
RTVSPropertyOp61
 70
     1
102
RTVSPropertyOp62
 70
     1
  0
XRECORD
  5
A87B
102
{ACAD_REACTORS
330
A87A
102
}
330
A87A
100
AcDbXrecord
280
     1
102
RTVSPost2010Prop28
280
     0
102
RTVSPost2010PropOp28
 70
     1
102
RTVSPost2010Prop29
280
     1
102
RTVSPost2010PropOp29
 70
     1
102
RTVSPost2010Prop30
280
     1
102
RTVSPost2010PropOp30
 70
     1
102
RTVSPost2010Prop31
280
     0
102
RTVSPost2010PropOp31
 70
     1
102
RTVSPost2010Prop32
280
     0
102
RTVSPost2010PropOp32
 70
     1
102
RTVSPost2010Prop33
280
     0
102
RTVSPost2010PropOp33
 70
     1
102
RTVSPost2010Prop34
280
     0
102
RTVSPost2010PropOp34
 70
     1
102
RTVSPost2010Prop35
280
     0
102
RTVSPost2010PropOp35
 70
     1
102
RTVSPost2010Prop36
280
     0
102
RTVSPost2010PropOp36
 70
     1
102
RTVSPost2010Prop37
 90
       50
102
RTVSPost2010PropOp37
 70
     1
102
RTVSPost2010Prop38
140
0.0
102
RTVSPost2010PropOp38
 70
     1
102
RTVSPost2010Prop39
140
1.0
102
RTVSPost2010PropOp39
 70
     1
102
RTVSPost2010Prop40
 90
        0
102
RTVSPost2010PropOp40
 70
     1
102
RTVSPost2010Prop41ColorIndex
 90
       18
102
RTVSPost2010Prop41ColorRGB
 90
        0
102
RTVSPost2010PropOp41
 70
     1
102
RTVSPost2010Prop42
 90
       50
102
RTVSPost2010PropOp42
 70
     1
102
RTVSPost2010Prop43
 90
        3
102
RTVSPost2010PropOp43
 70
     1
102
RTVSPost2010Prop44ColorIndex
 90
        5
102
RTVSPost2010Prop44ColorRGB
 90
      255
102
RTVSPost2010PropOp44
 70
     1
102
RTVSPost2010Prop45
280
     0
102
RTVSPost2010PropOp45
 70
     1
102
RTVSPost2010Prop46
 90
       50
102
RTVSPost2010PropOp46
 70
     1
102
RTVSPost2010Prop47
 90
       50
102
RTVSPost2010PropOp47
 70
     1
102
RTVSPost2010Prop48
 90
       50
102
RTVSPost2010PropOp48
 70
     1
102
RTVSPost2010Prop49
280
     0
102
RTVSPost2010PropOp49
 70
     1
102
RTVSPost2010Prop50
 90
       50
102
RTVSPost2010PropOp50
 70
     1
102
RTVSPost2010Prop51ColorIndex
 90
      256
102
RTVSPost2010Prop51ColorRGB
 90
-16777216
102
RTVSPost2010PropOp51
 70
     0
102
RTVSPost2010Prop52
140
1.0
102
RTVSPost2010PropOp52
 70
     0
102
RTVSPost2010Prop53
 90
        2
102
RTVSPost2010PropOp53
 70
     1
102
RTVSPost2010Prop54
  1
strokes_ogs.tif
102
RTVSPost2010PropOp54
 70
     1
102
RTVSPost2010Prop55
280
     0
102
RTVSPost2010PropOp55
 70
     1
102
RTVSPost2010Prop56
140
1.0
102
RTVSPost2010PropOp56
 70
     1
102
RTVSPost2010Prop57
140
1.0
102
RTVSPost2010PropOp57
 70
     1
102
RTVSPropertyOp0
 70
     1
102
RTVSPropertyOp1
 70
     1
102
RTVSPropertyOp2
 70
     1
102
RTVSPropertyOp3
 70
     1
102
RTVSPropertyOp4
 70
     1
102
RTVSPropertyOp5
 70
     1
102
RTVSPropertyOp6
 70
     1
102
RTVSPropertyOp7
 70
     1
102
RTVSPropertyOp8
 70
     1
102
RTVSPropertyOp9
 70
     1
102
RTVSPropertyOp10
 70
     1
102
RTVSPropertyOp11
 70
     1
102
RTVSPropertyOp12
 70
     1
102
RTVSPropertyOp13
 70
     1
102
RTVSPropertyOp14
 70
     1
102
RTVSPropertyOp15
 70
     1
102
RTVSPropertyOp16
 70
     1
102
RTVSPropertyOp17
 70
     1
102
RTVSPropertyOp18
 70
     1
102
RTVSPropertyOp19
 70
     1
102
RTVSPropertyOp20
 70
     1
102
RTVSPropertyOp21
 70
     1
102
RTVSPropertyOp22
 70
     1
102
RTVSPropertyOp23
 70
     1
102
RTVSPropertyOp24
 70
     1
102
RTVSPropertyOp25
 70
     1
102
RTVSPropertyOp26
 70
     1
102
RTVSPropertyOp27
 70
     1
102
RTVSPropertyOp28
 70
     1
102
RTVSPropertyOp29
 70
     1
102
RTVSPropertyOp30
 70
     1
102
RTVSPropertyOp31
 70
     1
102
RTVSPropertyOp32
 70
     1
102
RTVSPropertyOp33
 70
     1
102
RTVSPropertyOp34
 70
     1
102
RTVSPropertyOp35
 70
     1
102
RTVSPropertyOp36
 70
     1
102
RTVSPropertyOp37
 70
     1
102
RTVSPropertyOp38
 70
     1
102
RTVSPropertyOp39
 70
     1
102
RTVSPropertyOp40
 70
     1
102
RTVSPropertyOp41
 70
     1
102
RTVSPropertyOp42
 70
     1
102
RTVSPropertyOp43
 70
     1
102
RTVSPropertyOp44
 70
     1
102
RTVSPropertyOp45
 70
     1
102
RTVSPropertyOp46
 70
     1
102
RTVSPropertyOp47
 70
     1
102
RTVSPropertyOp48
 70
     1
102
RTVSPropertyOp49
 70
     1
102
RTVSPropertyOp50
 70
     1
102
RTVSPropertyOp51
 70
     0
102
RTVSPropertyOp52
 70
     0
102
RTVSPropertyOp53
 70
     1
102
RTVSPropertyOp54
 70
     1
102
RTVSPropertyOp55
 70
     1
102
RTVSPropertyOp56
 70
     1
102
RTVSPropertyOp57
 70
     1
102
RTVSPropertyOp58
 70
     1
102
RTVSPropertyOp59
 70
     1
102
RTVSPropertyOp60
 70
     1
102
RTVSPropertyOp61
 70
     1
102
RTVSPropertyOp62
 70
     1
  0
ENDSEC
  0
EOF
