  0
SECTION
  2
HEADER
  9
$ACADVER
  1
AC1015
  9
$ACADMAINTVER
 70
    20
  9
$DWGCODEPAGE
  3
ANSI_932
  9
$INSBASE
 10
0.0
 20
0.0
 30
0.0
  9
$EXTMIN
 10
10.0
 20
9.999999999999998
 30
0.0
  9
$EXTMAX
 10
485.1053350116619
 20
355.328214
 30
0.0
  9
$LIMMIN
 10
0.0
 20
0.0
  9
$LIMMAX
 10
554.3999999999998
 20
382.2
  9
$ORTHOMODE
 70
     0
  9
$REGENMODE
 70
     1
  9
$FILLMODE
 70
     1
  9
$QTEXTMODE
 70
     0
  9
$MIRRTEXT
 70
     1
  9
$LTSCALE
 40
20.0
  9
$ATTMODE
 70
     1
  9
$TEXTSIZE
 40
5.0
  9
$TRACEWID
 40
1.0
  9
$TEXTSTYLE
  7
STANDARD
  9
$CLAYER
  8
0
  9
$CELTYPE
  6
BYLAYER
  9
$CECOLOR
 62
   256
  9
$CELTSCALE
 40
1.0
  9
$DISPSILH
 70
     0
  9
$DIMSCALE
 40
1.0
  9
$DIMASZ
 40
2.5
  9
$DIMEXO
 40
1.0
  9
$DIMDLI
 40
10.0
  9
$DIMRND
 40
0.0
  9
$DIMDLE
 40
0.0
  9
$DIMEXE
 40
1.0
  9
$DIMTP
 40
0.0
  9
$DIMTM
 40
0.0
  9
$DIMTXT
 40
3.2
  9
$DIMCEN
 40
0.0
  9
$DIMTSZ
 40
0.0
  9
$DIMTOL
 70
     0
  9
$DIMLIM
 70
     0
  9
$DIMTIH
 70
     0
  9
$DIMTOH
 70
     0
  9
$DIMSE1
 70
     0
  9
$DIMSE2
 70
     0
  9
$DIMTAD
 70
     3
  9
$DIMZIN
 70
     8
  9
$DIMBLK
  1

  9
$DIMASO
 70
     1
  9
$DIMSHO
 70
     1
  9
$DIMPOST
  1

  9
$DIMAPOST
  1

  9
$DIMALT
 70
     0
  9
$DIMALTD
 70
     2
  9
$DIMALTF
 40
25.4
  9
$DIMLFAC
 40
1.0
  9
$DIMTOFL
 70
     1
  9
$DIMTVP
 40
0.0
  9
$DIMTIX
 70
     0
  9
$DIMSOXD
 70
     0
  9
$DIMSAH
 70
     1
  9
$DIMBLK1
  1
OPEN
  9
$DIMBLK2
  1
OPEN
  9
$DIMSTYLE
  2
STANDARD
  9
$DIMCLRD
 70
     0
  9
$DIMCLRE
 70
     0
  9
$DIMCLRT
 70
     0
  9
$DIMTFAC
 40
1.0
  9
$DIMGAP
 40
1.0
  9
$DIMJUST
 70
     0
  9
$DIMSD1
 70
     0
  9
$DIMSD2
 70
     0
  9
$DIMTOLJ
 70
     1
  9
$DIMTZIN
 70
     0
  9
$DIMALTZ
 70
     0
  9
$DIMALTTZ
 70
     0
  9
$DIMUPT
 70
     0
  9
$DIMDEC
 70
     4
  9
$DIMTDEC
 70
     4
  9
$DIMALTU
 70
     2
  9
$DIMALTTD
 70
     2
  9
$DIMTXSTY
  7
STANDARD
  9
$DIMAUNIT
 70
     0
  9
$DIMADEC
 70
     0
  9
$DIMALTRND
 40
0.0
  9
$DIMAZIN
 70
     0
  9
$DIMDSEP
 70
    46
  9
$DIMATFIT
 70
     3
  9
$DIMFRAC
 70
     0
  9
$DIMLDRBLK
  1
OPEN
  9
$DIMLUNIT
 70
     2
  9
$DIMLWD
 70
    -2
  9
$DIMLWE
 70
    -2
  9
$DIMTMOVE
 70
     0
  9
$LUNITS
 70
     2
  9
$LUPREC
 70
     4
  9
$SKETCHINC
 40
1.0
  9
$FILLETRAD
 40
1.0
  9
$AUNITS
 70
     0
  9
$AUPREC
 70
     2
  9
$MENU
  1
.
  9
$ELEVATION
 40
0.0
  9
$PELEVATION
 40
0.0
  9
$THICKNESS
 40
0.0
  9
$LIMCHECK
 70
     0
  9
$CHAMFERA
 40
10.0
  9
$CHAMFERB
 40
10.0
  9
$CHAMFERC
 40
0.0
  9
$CHAMFERD
 40
0.0
  9
$SKPOLY
 70
     0
  9
$TDCREATE
 40
2451345.359066435
  9
$TDUCREATE
 40
2451344.984066435
  9
$TDUPDATE
 40
2457618.720668357
  9
$TDUUPDATE
 40
2457618.345668357
  9
$TDINDWG
 40
0.0001521991
  9
$TDUSRTIMER
 40
0.0001518634
  9
$USRTIMER
 70
     1
  9
$ANGBASE
 50
0.0
  9
$ANGDIR
 70
     0
  9
$PDMODE
 70
     0
  9
$PDSIZE
 40
0.0
  9
$PLINEWID
 40
0.0
  9
$SPLFRAME
 70
     0
  9
$SPLINETYPE
 70
     6
  9
$SPLINESEGS
 70
     8
  9
$HANDSEED
  5
AF63
  9
$SURFTAB1
 70
     6
  9
$SURFTAB2
 70
     6
  9
$SURFTYPE
 70
     6
  9
$SURFU
 70
     6
  9
$SURFV
 70
     6
  9
$UCSBASE
  2

  9
$UCSNAME
  2

  9
$UCSORG
 10
0.0
 20
0.0
 30
0.0
  9
$UCSXDIR
 10
1.0
 20
0.0
 30
0.0
  9
$UCSYDIR
 10
0.0
 20
1.0
 30
0.0
  9
$UCSORTHOREF
  2

  9
$UCSORTHOVIEW
 70
     0
  9
$UCSORGTOP
 10
0.0
 20
0.0
 30
0.0
  9
$UCSORGBOTTOM
 10
0.0
 20
0.0
 30
0.0
  9
$UCSORGLEFT
 10
0.0
 20
0.0
 30
0.0
  9
$UCSORGRIGHT
 10
0.0
 20
0.0
 30
0.0
  9
$UCSORGFRONT
 10
0.0
 20
0.0
 30
0.0
  9
$UCSORGBACK
 10
0.0
 20
0.0
 30
0.0
  9
$PUCSBASE
  2

  9
$PUCSNAME
  2

  9
$PUCSORG
 10
0.0
 20
0.0
 30
0.0
  9
$PUCSXDIR
 10
1.0
 20
0.0
 30
0.0
  9
$PUCSYDIR
 10
0.0
 20
1.0
 30
0.0
  9
$PUCSORTHOREF
  2

  9
$PUCSORTHOVIEW
 70
     0
  9
$PUCSORGTOP
 10
0.0
 20
0.0
 30
0.0
  9
$PUCSORGBOTTOM
 10
0.0
 20
0.0
 30
0.0
  9
$PUCSORGLEFT
 10
0.0
 20
0.0
 30
0.0
  9
$PUCSORGRIGHT
 10
0.0
 20
0.0
 30
0.0
  9
$PUCSORGFRONT
 10
0.0
 20
0.0
 30
0.0
  9
$PUCSORGBACK
 10
0.0
 20
0.0
 30
0.0
  9
$USERI1
 70
     0
  9
$USERI2
 70
     0
  9
$USERI3
 70
     0
  9
$USERI4
 70
     0
  9
$USERI5
 70
     0
  9
$USERR1
 40
0.0
  9
$USERR2
 40
0.0
  9
$USERR3
 40
0.0
  9
$USERR4
 40
0.0
  9
$USERR5
 40
0.0
  9
$WORLDVIEW
 70
     1
  9
$SHADEDGE
 70
     3
  9
$SHADEDIF
 70
    70
  9
$TILEMODE
 70
     1
  9
$MAXACTVP
 70
    16
  9
$PINSBASE
 10
0.0
 20
0.0
 30
0.0
  9
$PLIMCHECK
 70
     0
  9
$PEXTMIN
 10
1.000000000000000E+20
 20
1.000000000000000E+20
 30
1.000000000000000E+20
  9
$PEXTMAX
 10
-1.000000000000000E+20
 20
-1.000000000000000E+20
 30
-1.000000000000000E+20
  9
$PLIMMIN
 10
0.0
 20
0.0
  9
$PLIMMAX
 10
420.0
 20
297.0
  9
$UNITMODE
 70
     0
  9
$VISRETAIN
 70
     0
  9
$PLINEGEN
 70
     0
  9
$PSLTSCALE
 70
     0
  9
$TREEDEPTH
 70
  3020
  9
$CMLSTYLE
  2
STANDARD
  9
$CMLJUST
 70
     0
  9
$CMLSCALE
 40
1.0
  9
$PROXYGRAPHICS
 70
     1
  9
$MEASUREMENT
 70
     0
  9
$CELWEIGHT
370
    -1
  9
$ENDCAPS
280
     0
  9
$JOINSTYLE
280
     0
  9
$LWDISPLAY
290
     0
  9
$INSUNITS
 70
     0
  9
$HYPERLINKBASE
  1

  9
$STYLESHEET
  1

  9
$XEDIT
290
     1
  9
$CEPSNTYPE
380
     0
  9
$PSTYLEMODE
290
     1
  9
$FINGERPRINTGUID
  2
{2B11FD05-9E11-46E1-895C-21F1FF7180BE}
  9
$VERSIONGUID
  2
{6398724C-6ECC-4C2F-9FBC-29F3E3106B62}
  9
$EXTNAMES
290
     1
  9
$PSVPSCALE
 40
0.0
  9
$OLESTARTUP
290
     0
  0
ENDSEC
  0
SECTION
  2
CLASSES
  0
CLASS
  1
ACDBDICTIONARYWDFLT
  2
AcDbDictionaryWithDefault
  3
ObjectDBX Classes
 90
        0
280
     0
281
     0
  0
CLASS
  1
ACDBPLACEHOLDER
  2
AcDbPlaceHolder
  3
ObjectDBX Classes
 90
        0
280
     0
281
     0
  0
CLASS
  1
LAYOUT
  2
AcDbLayout
  3
ObjectDBX Classes
 90
        0
280
     0
281
     0
  0
CLASS
  1
DICTIONARYVAR
  2
AcDbDictionaryVar
  3
ObjectDBX Classes
 90
        0
280
     0
281
     0
  0
CLASS
  1
MATERIAL
  2
AcDbMaterial
  3
ObjectDBX Classes
 90
     1153
280
     0
281
     0
  0
CLASS
  1
VISUALSTYLE
  2
AcDbVisualStyle
  3
ObjectDBX Classes
 90
     4095
280
     0
281
     0
  0
CLASS
  1
TABLESTYLE
  2
AcDbTableStyle
  3
ObjectDBX Classes
 90
     4095
280
     0
281
     0
  0
CLASS
  1
SCALE
  2
AcDbScale
  3
ObjectDBX Classes
 90
     1153
280
     0
281
     0
  0
CLASS
  1
MLEADERSTYLE
  2
AcDbMLeaderStyle
  3
ACDB_MLEADERSTYLE_CLASS
 90
     4095
280
     0
281
     0
  0
CLASS
  1
ACDBSECTIONVIEWSTYLE
  2
AcDbSectionViewStyle
  3
ObjectDBX Classes
 90
     1025
280
     0
281
     0
  0
CLASS
  1
ACDBDETAILVIEWSTYLE
  2
AcDbDetailViewStyle
  3
ObjectDBX Classes
 90
     1025
280
     0
281
     0
  0
CLASS
  1
CELLSTYLEMAP
  2
AcDbCellStyleMap
  3
ObjectDBX Classes
 90
     1152
280
     0
281
     0
  0
ENDSEC
  0
SECTION
  2
TABLES
  0
TABLE
  2
VPORT
  5
AB79
330
0
100
AcDbSymbolTable
 70
     1
  0
VPORT
  5
AEAC
330
AB79
100
AcDbSymbolTableRecord
100
AcDbViewportTableRecord
  2
*ACTIVE
 70
     0
 10
0.0
 20
0.0
 11
1.0
 21
1.0
 12
390.1415307482277
 22
182.6728921154197
 13
0.0
 23
0.0
 14
10.0
 24
10.0
 15
10.0
 25
10.0
 16
0.0
 26
0.0
 36
1.0
 17
0.0
 27
0.0
 37
0.0
 40
349.4444726613149
 41
2.567642956764295
 42
50.0
 43
0.0
 44
0.0
 50
0.0
 51
0.0
 71
     0
 72
   100
 73
     1
 74
     0
 75
     0
 76
     0
 77
     0
 78
     0
281
     0
 65
     1
110
0.0
120
0.0
130
0.0
111
1.0
121
0.0
131
0.0
112
0.0
122
1.0
132
0.0
 79
     0
146
0.0
1001
ACAD_NAV_VCDISPLAY
1070
     3
  0
ENDTAB
  0
TABLE
  2
LTYPE
  5
AB76
330
0
100
AcDbSymbolTable
 70
     4
  0
LTYPE
  5
AB84
330
AB76
100
AcDbSymbolTableRecord
100
AcDbLinetypeTableRecord
  2
BYBLOCK
 70
     0
  3

 72
    65
 73
     0
 40
0.0
  0
LTYPE
  5
AB85
330
AB76
100
AcDbSymbolTableRecord
100
AcDbLinetypeTableRecord
  2
BYLAYER
 70
     0
  3

 72
    65
 73
     0
 40
0.0
  0
LTYPE
  5
AB86
330
AB76
100
AcDbSymbolTableRecord
100
AcDbLinetypeTableRecord
  2
CONTINUOUS
 70
     0
  3
Solid line
 72
    65
 73
     0
 40
0.0
  0
LTYPE
  5
AB94
330
AB76
100
AcDbSymbolTableRecord
100
AcDbLinetypeTableRecord
  2
DASHED
 70
     0
  3
__ __ __ __ __ __ __ __ __ __ __ __ __ __ __ __
 72
    65
 73
     2
 40
0.75
 49
0.5
 74
     0
 49
-0.25
 74
     0
  0
LTYPE
  5
AB95
330
AB76
100
AcDbSymbolTableRecord
100
AcDbLinetypeTableRecord
  2
CENTER
 70
     0
  3
____ _ ____ _ ____ _ ____ _ ____ _ ____ _ ____ 
 72
    65
 73
     4
 40
2.0
 49
1.25
 74
     0
 49
-0.25
 74
     0
 49
0.25
 74
     0
 49
-0.25
 74
     0
  0
LTYPE
  5
AB96
330
AB76
100
AcDbSymbolTableRecord
100
AcDbLinetypeTableRecord
  2
PHANTOM
 70
     0
  3
______  __  __  ______  __  __  ______  __  __ 
 72
    65
 73
     6
 40
2.5
 49
1.25
 74
     0
 49
-0.25
 74
     0
 49
0.25
 74
     0
 49
-0.25
 74
     0
 49
0.25
 74
     0
 49
-0.25
 74
     0
  0
ENDTAB
  0
TABLE
  2
LAYER
  5
AB73
330
0
100
AcDbSymbolTable
 70
     8
  0
LAYER
  5
AB81
102
{ACAD_XDICTIONARY
360
AF07
102
}
330
AB73
100
AcDbSymbolTableRecord
100
AcDbLayerTableRecord
  2
0
 70
     0
 62
     7
  6
CONTINUOUS
370
    -3
390
AEB5
  0
LAYER
  5
AB97
102
{ACAD_XDICTIONARY
360
AF09
102
}
330
AB73
100
AcDbSymbolTableRecord
100
AcDbLayerTableRecord
  2
4
 70
     0
 62
     1
  6
CENTER
370
    -3
390
AEB5
  0
LAYER
  5
AB98
102
{ACAD_XDICTIONARY
360
AF0B
102
}
330
AB73
100
AcDbSymbolTableRecord
100
AcDbLayerTableRecord
  2
5
 70
     0
 62
     6
  6
PHANTOM
370
    -3
390
AEB5
  0
LAYER
  5
AB99
102
{ACAD_XDICTIONARY
360
AF0D
102
}
330
AB73
100
AcDbSymbolTableRecord
100
AcDbLayerTableRecord
  2
1
 70
     0
 62
     7
  6
CONTINUOUS
370
    -3
390
AEB5
  0
LAYER
  5
AB9A
102
{ACAD_XDICTIONARY
360
AF0F
102
}
330
AB73
100
AcDbSymbolTableRecord
100
AcDbLayerTableRecord
  2
2
 70
     0
 62
     4
  6
CONTINUOUS
370
    -3
390
AEB5
  0
LAYER
  5
AB9B
102
{ACAD_XDICTIONARY
360
AF11
102
}
330
AB73
100
AcDbSymbolTableRecord
100
AcDbLayerTableRecord
  2
3
 70
     0
 62
     2
  6
DASHED
370
    -3
390
AEB5
  0
LAYER
  5
AB9C
102
{ACAD_XDICTIONARY
360
AF13
102
}
330
AB73
100
AcDbSymbolTableRecord
100
AcDbLayerTableRecord
  2
6
 70
     0
 62
     5
  6
CONTINUOUS
370
    -3
390
AEB5
  0
LAYER
  5
AB9D
102
{ACAD_XDICTIONARY
360
AF15
102
}
330
AB73
100
AcDbSymbolTableRecord
100
AcDbLayerTableRecord
  2
7
 70
     0
 62
     3
  6
CONTINUOUS
370
    -3
390
AEB5
  0
ENDTAB
  0
TABLE
  2
STYLE
  5
AB74
330
0
100
AcDbSymbolTable
 70
     1
  0
STYLE
  5
AB82
330
AB74
100
AcDbSymbolTableRecord
100
AcDbTextStyleTableRecord
  2
STANDARD
 70
     0
 40
0.0
 41
1.0
 50
0.0
 71
     0
 42
5.0
  3
txt
  4

  0
ENDTAB
  0
TABLE
  2
VIEW
  5
AB77
330
0
100
AcDbSymbolTable
 70
     0
  0
ENDTAB
  0
TABLE
  2
UCS
  5
AB78
330
0
100
AcDbSymbolTable
 70
     0
  0
ENDTAB
  0
TABLE
  2
APPID
  5
AB7A
330
0
100
AcDbSymbolTable
 70
     3
  0
APPID
  5
AB83
330
AB7A
100
AcDbSymbolTableRecord
100
AcDbRegAppTableRecord
  2
ACAD
 70
     0
  0
APPID
  5
AF21
330
AB7A
100
AcDbSymbolTableRecord
100
AcDbRegAppTableRecord
  2
ACAD_NAV_VCDISPLAY
 70
     0
  0
APPID
  5
AF5A
330
AB7A
100
AcDbSymbolTableRecord
100
AcDbRegAppTableRecord
  2
ACAD_MLEADERVER
 70
     0
  0
ENDTAB
  0
TABLE
  2
DIMSTYLE
  5
AB7B
330
0
100
AcDbSymbolTable
 70
     1
100
AcDbDimStyleTable
 71
     0
  0
DIMSTYLE
105
AB9F
330
AB7B
100
AcDbSymbolTableRecord
100
AcDbDimStyleTableRecord
  2
STANDARD
 70
     0
 41
2.5
 42
1.0
 43
10.0
 44
1.0
 73
     0
 74
     0
 77
     3
 78
     8
140
3.2
141
0.0
147
1.0
172
     1
173
     1
284
     8
285
     8
286
     8
340
AB82
  0
ENDTAB
  0
TABLE
  2
BLOCK_RECORD
  5
AB72
330
0
100
AcDbSymbolTable
 70
     1
  0
BLOCK_RECORD
  5
AB8F
102
{ACAD_XDICTIONARY
360
AEAF
102
}
330
AB72
100
AcDbSymbolTableRecord
100
AcDbBlockTableRecord
  2
*MODEL_SPACE
340
AF03
  0
BLOCK_RECORD
  5
AB8B
102
{ACAD_XDICTIONARY
360
AEAD
102
}
330
AB72
100
AcDbSymbolTableRecord
100
AcDbBlockTableRecord
  2
*PAPER_SPACE
340
AF04
  0
BLOCK_RECORD
  5
ABA7
330
AB72
100
AcDbSymbolTableRecord
100
AcDbBlockTableRecord
  2
_OPEN
340
0
  0
ENDTAB
  0
ENDSEC
  0
SECTION
  2
BLOCKS
  0
BLOCK
  5
AB90
330
AB8F
100
AcDbEntity
  8
0
100
AcDbBlockBegin
  2
*MODEL_SPACE
 70
     0
 10
0.0
 20
0.0
 30
0.0
  3
*MODEL_SPACE
  1

  0
ENDBLK
  5
AB91
330
AB8F
100
AcDbEntity
  8
0
100
AcDbBlockEnd
  0
BLOCK
  5
AB8C
330
AB8B
100
AcDbEntity
 67
     1
  8
0
100
AcDbBlockBegin
  2
*PAPER_SPACE
 70
     0
 10
0.0
 20
0.0
 30
0.0
  3
*PAPER_SPACE
  1

  0
ENDBLK
  5
AB8D
330
AB8B
100
AcDbEntity
 67
     1
  8
0
100
AcDbBlockEnd
  0
BLOCK
  5
ABA8
330
ABA7
100
AcDbEntity
  8
0
100
AcDbBlockBegin
  2
_OPEN
 70
     0
 10
0.0
 20
0.0
 30
0.0
  3
_OPEN
  1

  0
LINE
  5
ABA9
330
ABA7
100
AcDbEntity
  8
0
  6
ByBlock
 62
     0
100
AcDbLine
 10
-1.0
 20
0.166667
 30
0.0
 11
0.0
 21
0.0
 31
0.0
  0
LINE
  5
ABAA
330
ABA7
100
AcDbEntity
  8
0
  6
ByBlock
 62
     0
100
AcDbLine
 10
0.0
 20
0.0
 30
0.0
 11
-1.0
 21
-0.166667
 31
0.0
  0
LINE
  5
ABAB
330
ABA7
100
AcDbEntity
  8
0
  6
ByBlock
 62
     0
100
AcDbLine
 10
0.0
 20
0.0
 30
0.0
 11
-1.0
 21
0.0
 31
0.0
  0
ENDBLK
  5
ABAC
330
ABA7
100
AcDbEntity
  8
0
100
AcDbBlockEnd
  0
ENDSEC
  0
SECTION
  2
ENTITIES
  0
TEXT
  5
ABAD
330
AB8F
100
AcDbEntity
  8
7
  6
Continuous
100
AcDbText
 10
10.0
 20
18.0
 30
0.0
 40
3.0
  1
TYPE No.104G-N-B
100
AcDbText
  0
TEXT
  5
ABAE
330
AB8F
100
AcDbEntity
  8
7
  6
Continuous
100
AcDbText
 10
10.0
 20
26.0
 30
0.0
 40
3.0
  1
CODE No.19102
100
AcDbText
  0
TEXT
  5
ABAF
330
AB8F
100
AcDbEntity
  8
1
  6
Continuous
100
AcDbText
 10
10.0
 20
10.0
 30
0.0
 40
1.399999999999999
  1
LAYER
100
AcDbText
  0
TEXT
  5
ABB0
330
AB8F
100
AcDbEntity
  8
1
  6
Continuous
100
AcDbText
 10
17.97951099999998
 20
10.04873699999998
 30
0.0
 40
1.399999999999999
  1
1
100
AcDbText
  0
TEXT
  5
ABB1
330
AB8F
100
AcDbEntity
  8
7
  6
Continuous
100
AcDbText
 10
29.97951099999999
 20
10.04873699999998
 30
0.0
 40
1.399999999999999
  1
7
100
AcDbText
  0
TEXT
  5
ABB2
330
AB8F
100
AcDbEntity
  8
4
  6
CENTER
100
AcDbText
 10
23.97951099999999
 20
10.04873699999998
 30
0.0
 40
1.399999999999999
  1
4
100
AcDbText
  0
TEXT
  5
ABB3
330
AB8F
100
AcDbEntity
  8
3
  6
DASHED
100
AcDbText
 10
21.979511
 20
10.04873699999998
 30
0.0
 40
1.399999999999999
  1
3
100
AcDbText
  0
TEXT
  5
ABB4
330
AB8F
100
AcDbEntity
  8
2
  6
Continuous
100
AcDbText
 10
19.97951099999999
 20
10.04873699999998
 30
0.0
 40
1.399999999999999
  1
2
100
AcDbText
  0
TEXT
  5
ABB5
330
AB8F
100
AcDbEntity
  8
6
  6
Continuous
100
AcDbText
 10
27.979511
 20
10.04873699999998
 30
0.0
 40
1.399999999999999
  1
6
100
AcDbText
  0
TEXT
  5
ABB6
330
AB8F
100
AcDbEntity
  8
5
  6
PHANTOM
100
AcDbText
 10
25.97951099999999
 20
10.04873699999998
 30
0.0
 40
1.399999999999999
  1
5
100
AcDbText
  0
ARC
  5
ABB7
330
AB8F
100
AcDbEntity
  8
1
  6
Continuous
100
AcDbCircle
 10
177.101737
 20
220.6526399999999
 30
0.0
 40
1.784915
100
AcDbArc
 50
90.69944699999998
 51
107.750202
  0
ARC
  5
ABB8
330
AB8F
100
AcDbEntity
  8
1
  6
Continuous
100
AcDbCircle
 10
177.579707
 20
219.1594789999999
 30
0.0
 40
3.352711999999999
100
AcDbArc
 50
107.750202
 51
127.099818
  0
ARC
  5
ABB9
330
AB8F
100
AcDbEntity
  8
1
  6
Continuous
100
AcDbCircle
 10
176.9253709999999
 20
220.0246719999999
 30
0.0
 40
2.267945999999998
100
AcDbArc
 50
127.099818
 51
146.8896919999999
  0
ARC
  5
ABBA
330
AB8F
100
AcDbEntity
  8
1
  6
Continuous
100
AcDbCircle
 10
209.9166279999999
 20
220.868425
 30
0.0
 40
1.969729
100
AcDbArc
 50
56.467762
 51
90.69944699999998
  0
LINE
  5
ABBB
330
AB8F
100
AcDbEntity
  8
1
  6
Continuous
100
AcDbLine
 10
212.902242
 20
213.37871
 30
0.0
 11
212.8029369999999
 21
212.991841
 31
0.0
  0
ARC
  5
ABBC
330
AB8F
100
AcDbEntity
  8
1
  6
Continuous
100
AcDbCircle
 10
205.5852289999999
 20
213.819141
 30
0.0
 40
7.330255999999997
100
AcDbArc
 50
356.5553699999999
 51
6.486477999999999
  0
ARC
  5
ABBD
330
AB8F
100
AcDbEntity
  8
1
  6
Continuous
100
AcDbCircle
 10
328.4641049999998
 20
227.790045
 30
0.0
 40
116.340292
100
AcDbArc
 50
185.810871
 51
186.486478
  0
ARC
  5
ABBE
330
AB8F
100
AcDbEntity
  8
1
  6
Continuous
100
AcDbCircle
 10
227.674724
 20
217.5329129999998
 30
0.0
 40
15.030331
100
AcDbArc
 50
176.836937
 51
185.810871
  0
ARC
  5
ABBF
330
AB8F
100
AcDbEntity
  8
1
  6
Continuous
100
AcDbCircle
 10
207.9933039999999
 20
218.6205479999999
 30
0.0
 40
4.681118999999998
100
AcDbArc
 50
356.8369369999999
 51
7.062272999999999
  0
ARC
  5
ABC0
330
AB8F
100
AcDbEntity
  8
1
  6
Continuous
100
AcDbCircle
 10
208.25936
 20
219.263538
 30
0.0
 40
4.337756999999998
100
AcDbArc
 50
7.113246000000001
 51
30.35973699999999
  0
ARC
  5
ABC1
330
AB8F
100
AcDbEntity
  8
1
  6
Continuous
100
AcDbCircle
 10
-466.9887499999998
 20
134.998401
 30
0.0
 40
684.823336
100
AcDbArc
 50
7.062272999999999
 51
7.113246000000001
  0
ARC
  5
ABC2
330
AB8F
100
AcDbEntity
  8
1
  6
Continuous
100
AcDbCircle
 10
209.2297639999999
 20
219.8319539999999
 30
0.0
 40
3.213133
100
AcDbArc
 50
30.35973699999999
 51
56.467762
  0
LINE
  5
ABC3
330
AB8F
100
AcDbEntity
  8
1
  6
Continuous
100
AcDbLine
 10
211.5830589999999
 20
212.8495179999999
 30
0.0
 11
211.5089509999999
 21
212.8894709999999
 31
0.0
  0
LINE
  5
ABC4
330
AB8F
100
AcDbEntity
  8
1
  6
Continuous
100
AcDbLine
 10
211.5089509999999
 20
212.8894709999999
 30
0.0
 11
211.3389399999999
 21
212.8232919999999
 31
0.0
  0
ARC
  5
ABC5
330
AB8F
100
AcDbEntity
  8
1
  6
Continuous
100
AcDbCircle
 10
210.780534
 20
225.027204
 30
0.0
 40
12.204101
100
AcDbArc
 50
273.7704129999999
 51
279.5387719999999
  0
ARC
  5
ABC6
330
AB8F
100
AcDbEntity
  8
1
  6
Continuous
100
AcDbCircle
 10
211.1226729999999
 20
213.9704449999999
 30
0.0
 40
1.167359999999999
100
AcDbArc
 50
258.692429
 51
280.67637
  0
ARC
  5
ABC7
330
AB8F
100
AcDbEntity
  8
1
  6
Continuous
100
AcDbCircle
 10
174.234408
 20
185.469703
 30
0.0
 40
32.32807199999999
100
AcDbArc
 50
98.17808000000002
 51
111.011137
  0
ARC
  5
ABC8
330
AB8F
100
AcDbEntity
  8
1
  6
Continuous
100
AcDbCircle
 10
181.737685
 20
165.93435
 30
0.0
 40
53.25483000000001
100
AcDbArc
 50
111.011137
 51
122.0920259999999
  0
ARC
  5
ABC9
330
AB8F
100
AcDbEntity
  8
1
  6
Continuous
100
AcDbCircle
 10
170.915593
 20
183.1915769999999
 30
0.0
 40
32.88501
100
AcDbArc
 50
122.0920259999999
 51
135.8983979999998
  0
ARC
  5
ABCA
330
AB8F
100
AcDbEntity
  8
1
  6
Continuous
100
AcDbCircle
 10
160.954787
 20
192.8448099999999
 30
0.0
 40
19.01408599999999
100
AcDbArc
 50
135.8983979999998
 51
163.4007539999998
  0
ARC
  5
ABCB
330
AB8F
100
AcDbEntity
  8
1
  6
Continuous
100
AcDbCircle
 10
175.6227409999999
 20
188.4723129999999
 30
0.0
 40
34.319889
100
AcDbArc
 50
163.4007539999998
 51
169.926261
  0
ARC
  5
ABCC
330
AB8F
100
AcDbEntity
  8
1
  6
Continuous
100
AcDbCircle
 10
151.8917669999999
 20
192.6882219999999
 30
0.0
 40
10.21733599999999
100
AcDbArc
 50
169.926261
 51
175.970796
  0
ARC
  5
ABCD
330
AB8F
100
AcDbEntity
  8
1
  6
Continuous
100
AcDbCircle
 10
301.8177059999998
 20
182.127584
 30
0.0
 40
160.5147559999998
100
AcDbArc
 50
175.970796
 51
177.2500329999998
  0
ARC
  5
ABCE
330
AB8F
100
AcDbEntity
  8
1
  6
Continuous
100
AcDbCircle
 10
77.346298
 20
192.909588
 30
0.0
 40
64.21544799999999
100
AcDbArc
 50
353.776167
 51
357.250033
  0
ARC
  5
ABCF
330
AB8F
100
AcDbEntity
  8
1
  6
Continuous
100
AcDbCircle
 10
170.628852
 20
219.5154859999999
 30
0.0
 40
3.572346
100
AcDbArc
 50
346.754118
 51
351.5298819999999
  0
ARC
  5
ABD0
330
AB8F
100
AcDbEntity
  8
1
  6
Continuous
100
AcDbCircle
 10
173.098102
 20
218.8427279999999
 30
0.0
 40
0.8303549999999999
100
AcDbArc
 50
279.3439349999998
 51
299.292229
  0
ARC
  5
ABD1
330
AB8F
100
AcDbEntity
  8
1
  6
Continuous
100
AcDbCircle
 10
172.692812
 20
219.565177
 30
0.0
 40
1.658722999999999
100
AcDbArc
 50
299.292229
 51
328.437449
  0
ARC
  5
ABD2
330
AB8F
100
AcDbEntity
  8
1
  6
Continuous
100
AcDbCircle
 10
179.800496
 20
218.149665
 30
0.0
 40
5.700438
100
AcDbArc
 50
146.8896919999999
 51
171.5298819999999
  0
ARC
  5
ABD3
330
AB8F
100
AcDbEntity
  8
1
  6
Continuous
100
AcDbCircle
 10
144.190952
 20
394.523352
 30
0.0
 40
178.8733419999998
100
AcDbArc
 50
278.1780799999999
 51
279.3439349999998
  0
LINE
  5
ABD4
330
AB8F
100
AcDbEntity
  8
1
  6
Continuous
100
AcDbLine
 10
141.1649219999999
 20
184.1723899999998
 30
0.0
 11
141.0777689999999
 21
184.4787249999999
 31
0.0
  0
LINE
  5
ABD5
330
AB8F
100
AcDbEntity
  8
1
  6
Continuous
100
AcDbLine
 10
141.1649219999999
 20
184.1723899999998
 30
0.0
 11
142.3175259999999
 21
184.149934
 31
0.0
  0
ARC
  5
ABD6
330
AB8F
100
AcDbEntity
  8
1
  6
Continuous
100
AcDbCircle
 10
161.003986
 20
183.7862439999999
 30
0.0
 40
19.93824599999999
100
AcDbArc
 50
173.7761669999999
 51
178.009645
  0
LINE
  5
ABD7
330
AB8F
100
AcDbEntity
  8
1
  6
Continuous
100
AcDbLine
 10
142.3175259999999
 20
184.149934
 30
0.0
 11
142.489123
 21
184.186961
 31
0.0
  0
LINE
  5
ABD8
330
AB8F
100
AcDbEntity
  8
1
  6
Continuous
100
AcDbLine
 10
142.489123
 20
184.186961
 30
0.0
 11
142.528782
 21
184.179214
 31
0.0
  0
ARC
  5
ABD9
330
AB8F
100
AcDbEntity
  8
1
  6
Continuous
100
AcDbCircle
 10
142.7272199999999
 20
185.195088
 30
0.0
 40
1.035074
100
AcDbArc
 50
258.9471419999998
 51
279.8003019999999
  0
ARC
  5
ABDA
330
AB8F
100
AcDbEntity
  8
1
  6
Continuous
100
AcDbCircle
 10
142.9625979999999
 20
183.832437
 30
0.0
 40
0.347757
100
AcDbArc
 50
84.40708800000001
 51
99.80030200000001
  0
ARC
  5
ABDB
330
AB8F
100
AcDbEntity
  8
1
  6
Continuous
100
AcDbCircle
 10
142.9481469999998
 20
184.264197
 30
0.0
 40
0.098359
100
AcDbArc
 50
299.4392599999999
 51
355.2283249999999
  0
ARC
  5
ABDC
330
AB8F
100
AcDbEntity
  8
1
  6
Continuous
100
AcDbCircle
 10
146.12922
 20
181.278483
 30
0.0
 40
4.212330999999998
100
AcDbArc
 50
123.088346
 51
127.9084839999999
  0
ARC
  5
ABDD
330
AB8F
100
AcDbEntity
  8
1
  6
Continuous
100
AcDbCircle
 10
126.257226
 20
206.7973859999999
 30
0.0
 40
28.131301
100
AcDbArc
 50
306.6106369999999
 51
307.908484
  0
LINE
  5
ABDE
330
AB8F
100
AcDbEntity
  8
1
  6
Continuous
100
AcDbLine
 10
145.4281629999998
 20
185.9407
 30
0.0
 11
146.481943
 21
186.7512219999999
 31
0.0
  0
ARC
  5
ABDF
330
AB8F
100
AcDbEntity
  8
1
  6
Continuous
100
AcDbCircle
 10
130.1382749999999
 20
205.819454
 30
0.0
 40
25.078787
100
AcDbArc
 50
303.088346
 51
307.565946
  0
ARC
  5
ABE0
330
AB8F
100
AcDbEntity
  8
1
  6
Continuous
100
AcDbCircle
 10
151.9441789999999
 20
188.895172
 30
0.0
 40
2.479563999999998
100
AcDbArc
 50
116.523381
 51
132.616398
  0
ARC
  5
ABE1
330
AB8F
100
AcDbEntity
  8
1
  6
Continuous
100
AcDbCircle
 10
155.3546649999999
 20
185.188426
 30
0.0
 40
7.516563999999998
100
AcDbArc
 50
132.616398
 51
143.8214089999999
  0
ARC
  5
ABE2
330
AB8F
100
AcDbEntity
  8
1
  6
Continuous
100
AcDbCircle
 10
137.821797
 20
198.0104879999999
 30
0.0
 40
14.204549
100
AcDbArc
 50
307.565946
 51
323.8214089999999
  0
ARC
  5
ABE3
330
AB8F
100
AcDbEntity
  8
1
  6
Continuous
100
AcDbCircle
 10
142.0455809999999
 20
125.9680179999999
 30
0.0
 40
65.946387
100
AcDbArc
 50
78.46205400000002
 51
80.341397
  0
ARC
  5
ABE4
330
AB8F
100
AcDbEntity
  8
1
  6
Continuous
100
AcDbCircle
 10
151.3639379999998
 20
180.7208239999999
 30
0.0
 40
10.406298
100
AcDbArc
 50
80.341397
 51
92.903061
  0
LINE
  5
ABE5
330
AB8F
100
AcDbEntity
  8
1
  6
Continuous
100
AcDbLine
 10
157.6296609999999
 20
189.2170169999999
 30
0.0
 11
164.9640399999999
 21
183.7227
 31
0.0
  0
ARC
  5
ABE6
330
AB8F
100
AcDbEntity
  8
1
  6
Continuous
100
AcDbCircle
 10
150.991256
 20
180.3553929999999
 30
0.0
 40
11.072345
100
AcDbArc
 50
53.162446
 51
67.457915
  0
LINE
  5
ABE7
330
AB8F
100
AcDbEntity
  8
1
  6
Continuous
100
AcDbLine
 10
176.931653
 20
179.2197639999999
 30
0.0
 11
187.1709429999999
 21
185.557746
 31
0.0
  0
ARC
  5
ABE8
330
AB8F
100
AcDbEntity
  8
1
  6
Continuous
100
AcDbCircle
 10
172.683196
 20
186.083333
 30
0.0
 40
8.072048999999998
100
AcDbArc
 50
197.0044139999998
 51
301.7569480000001
  0
LINE
  5
ABE9
330
AB8F
100
AcDbEntity
  8
1
  6
Continuous
100
AcDbLine
 10
183.8637239999999
 20
196.0581969999998
 30
0.0
 11
187.982339
 21
191.653871
 31
0.0
  0
ARC
  5
ABEA
330
AB8F
100
AcDbEntity
  8
1
  6
Continuous
100
AcDbCircle
 10
185.0784119999999
 20
188.9383239999999
 30
0.0
 40
3.975801
100
AcDbArc
 50
301.7569480000001
 51
43.08001500000001
  0
LINE
  5
ABEB
330
AB8F
100
AcDbEntity
  8
1
  6
Continuous
100
AcDbLine
 10
210.8890179999999
 20
212.8694419999999
 30
0.0
 11
208.643488
 21
212.66736
 31
0.0
  0
LINE
  5
ABEC
330
AB8F
100
AcDbEntity
  8
1
  6
Continuous
100
AcDbLine
 10
208.045223
 20
212.59585
 30
0.0
 11
206.7578909999999
 21
212.4036859999999
 31
0.0
  0
ARC
  5
ABED
330
AB8F
100
AcDbEntity
  8
1
  6
Continuous
100
AcDbCircle
 10
209.567935
 20
202.394954
 30
0.0
 40
10.313919
100
AcDbArc
 50
95.14237999999997
 51
98.48998799999998
  0
ARC
  5
ABEE
330
AB8F
100
AcDbEntity
  8
1
  6
Continuous
100
AcDbCircle
 10
193.794531
 20
217.497181
 30
0.0
 40
7.974402999999998
100
AcDbArc
 50
275.221315
 51
283.67502
  0
ARC
  5
ABEF
330
AB8F
100
AcDbEntity
  8
1
  6
Continuous
100
AcDbCircle
 10
200.452056
 20
190.1350749999998
 30
0.0
 40
20.185986
100
AcDbArc
 50
96.01544000000002
 51
103.6750199999998
  0
ARC
  5
ABF0
330
AB8F
100
AcDbEntity
  8
1
  6
Continuous
100
AcDbCircle
 10
212.7919649999999
 20
171.9804359999999
 30
0.0
 40
40.87113
100
AcDbArc
 50
98.48998799999998
 51
110.712607
  0
ARC
  5
ABF1
330
AB8F
100
AcDbEntity
  8
1
  6
Continuous
100
AcDbCircle
 10
195.987773
 20
193.4964349999999
 30
0.0
 40
16.12634599999999
100
AcDbArc
 50
95.22131499999996
 51
119.2627499999999
  0
ARC
  5
ABF2
330
AB8F
100
AcDbEntity
  8
1
  6
Continuous
100
AcDbCircle
 10
171.6347419999999
 20
215.5658799999999
 30
0.0
 40
16.19742099999999
100
AcDbArc
 50
310.8286029999998
 51
316.594719
  0
ARC
  5
ABF3
330
AB8F
100
AcDbEntity
  8
1
  6
Continuous
100
AcDbCircle
 10
189.238279
 20
201.084101
 30
0.0
 40
7.358366
100
AcDbArc
 50
162.3938909999999
 51
223.080015
  0
ARC
  5
ABF4
330
AB8F
100
AcDbEntity
  8
1
  6
Continuous
100
AcDbCircle
 10
183.1291659999999
 20
205.0496199999999
 30
0.0
 40
0.671913
100
AcDbArc
 50
293.9901219999999
 51
7.555842
  0
ARC
  5
ABF5
330
AB8F
100
AcDbEntity
  8
1
  6
Continuous
100
AcDbCircle
 10
189.346081
 20
200.320752
 30
0.0
 40
7.349651999999998
100
AcDbArc
 50
99.72195499999999
 51
139.0473509999999
  0
LINE
  5
ABF6
330
AB8F
100
AcDbEntity
  8
1
  6
Continuous
100
AcDbLine
 10
211.98262
 20
222.863523
 30
0.0
 11
174.98262
 21
222.411817
 31
0.0
  0
LINE
  5
ABF7
330
AB8F
100
AcDbEntity
  8
1
  6
Continuous
100
AcDbLine
 10
66.61354
 20
190.612872
 30
0.0
 11
66.61354
 21
178.0112849999999
 31
0.0
  0
LINE
  5
ABF8
330
AB8F
100
AcDbEntity
  8
1
  6
Continuous
100
AcDbLine
 10
68.61354
 20
212.57632
 30
0.0
 11
68.61354
 21
178.0112849999999
 31
0.0
  0
ARC
  5
ABF9
330
AB8F
100
AcDbEntity
  8
1
  6
Continuous
100
AcDbCircle
 10
57.18084799999999
 20
212.57632
 30
0.0
 40
11.43269199999999
100
AcDbArc
 50
0.0
 51
16.527045
  0
ARC
  5
ABFA
330
AB8F
100
AcDbEntity
  8
1
  6
Continuous
100
AcDbCircle
 10
69.96354000000001
 20
219.2375549999999
 30
0.0
 40
3.2
100
AcDbArc
 50
0.0
 51
90.0
  0
LINE
  5
ABFB
330
AB8F
100
AcDbEntity
  8
1
  6
Continuous
100
AcDbLine
 10
72.46354000000002
 20
222.4375549999999
 30
0.0
 11
35.46354
 21
222.4375549999999
 31
0.0
  0
LINE
  5
ABFC
330
AB8F
100
AcDbEntity
  8
1
  6
Continuous
100
AcDbLine
 10
68.61354
 20
183.7227
 30
0.0
 11
66.61354
 21
183.7227
 31
0.0
  0
LINE
  5
ABFD
330
AB8F
100
AcDbEntity
  8
1
  6
Continuous
100
AcDbLine
 10
68.61354
 20
178.0112849999999
 30
0.0
 11
66.61354
 21
178.0112849999999
 31
0.0
  0
ARC
  5
ABFE
330
AB8F
100
AcDbEntity
  8
1
  6
Continuous
100
AcDbCircle
 10
66.542241
 20
189.2170169999999
 30
0.0
 40
2.071298999999998
100
AcDbArc
 50
0.0
 51
63.82008199999999
  0
ARC
  5
ABFF
330
AB8F
100
AcDbEntity
  8
1
  6
Continuous
100
AcDbCircle
 10
67.235484
 20
190.6271219999999
 30
0.0
 40
0.5
100
AcDbArc
 50
63.82008199999999
 51
145.4626639999998
  0
LINE
  5
AC00
330
AB8F
100
AcDbEntity
  8
1
  6
Continuous
100
AcDbLine
 10
41.31354
 20
190.612872
 30
0.0
 11
41.31354
 21
178.0112849999999
 31
0.0
  0
LINE
  5
AC01
330
AB8F
100
AcDbEntity
  8
1
  6
Continuous
100
AcDbLine
 10
39.31354000000001
 20
212.57632
 30
0.0
 11
39.31354000000001
 21
178.0112849999999
 31
0.0
  0
ARC
  5
AC02
330
AB8F
100
AcDbEntity
  8
1
  6
Continuous
100
AcDbCircle
 10
53.96354
 20
162.831875
 30
0.0
 40
55.34444399999999
100
AcDbArc
 50
75.92189599999997
 51
104.078104
  0
ARC
  5
AC03
330
AB8F
100
AcDbEntity
  8
1
  6
Continuous
100
AcDbCircle
 10
50.746232
 20
212.57632
 30
0.0
 40
11.43269199999999
100
AcDbArc
 50
163.472955
 51
180.0
  0
ARC
  5
AC04
330
AB8F
100
AcDbEntity
  8
1
  6
Continuous
100
AcDbCircle
 10
37.96354
 20
219.2375549999999
 30
0.0
 40
3.2
100
AcDbArc
 50
90.0
 51
180.0
  0
LINE
  5
AC05
330
AB8F
100
AcDbEntity
  8
1
  6
Continuous
100
AcDbLine
 10
39.31354000000001
 20
183.7227
 30
0.0
 11
41.31354
 21
183.7227
 31
0.0
  0
LINE
  5
AC06
330
AB8F
100
AcDbEntity
  8
1
  6
Continuous
100
AcDbLine
 10
39.31354000000001
 20
178.0112849999999
 30
0.0
 11
41.31354
 21
178.0112849999999
 31
0.0
  0
ARC
  5
AC07
330
AB8F
100
AcDbEntity
  8
1
  6
Continuous
100
AcDbCircle
 10
41.38483899999999
 20
189.2170169999999
 30
0.0
 40
2.071298999999998
100
AcDbArc
 50
116.1799179999998
 51
180.0
  0
ARC
  5
AC08
330
AB8F
100
AcDbEntity
  8
1
  6
Continuous
100
AcDbCircle
 10
40.691595
 20
190.6271219999999
 30
0.0
 40
0.5
100
AcDbArc
 50
34.53733599999999
 51
116.1799179999998
  0
ARC
  5
AC09
330
AB8F
100
AcDbEntity
  8
1
  6
Continuous
100
AcDbCircle
 10
169.064051
 20
155.5081509999999
 30
0.0
 40
40.0
100
AcDbArc
 50
117.147404
 51
134.22503
  0
LINE
  5
AC0A
330
AB8F
100
AcDbEntity
  8
1
  6
Continuous
100
AcDbLine
 10
170.6069379999999
 20
337.109796
 30
0.0
 11
155.7277669999998
 21
337.109796
 31
0.0
  0
LINE
  5
AC0B
330
AB8F
100
AcDbEntity
  8
1
  6
Continuous
100
AcDbLine
 10
170.6069379999999
 20
307.809796
 30
0.0
 11
155.7277669999998
 21
307.809796
 31
0.0
  0
ARC
  5
AC0C
330
AB8F
100
AcDbEntity
  8
1
  6
Continuous
100
AcDbCircle
 10
155.7277669999998
 20
322.459796
 30
0.0
 40
14.65
100
AcDbArc
 50
90.0
 51
270.0
  0
LINE
  5
AC0D
330
AB8F
100
AcDbEntity
  8
1
  6
Continuous
100
AcDbLine
 10
211.98262
 20
222.863523
 30
0.0
 11
211.98262
 21
224.511168
 31
0.0
  0
LINE
  5
AC0E
330
AB8F
100
AcDbEntity
  8
1
  6
Continuous
100
AcDbLine
 10
174.98262
 20
222.411817
 30
0.0
 11
174.98262
 21
224.511168
 31
0.0
  0
LINE
  5
AC0F
330
AB8F
100
AcDbEntity
  8
1
  6
Continuous
100
AcDbLine
 10
72.46354000000002
 20
224.511168
 30
0.0
 11
72.46354000000002
 21
222.4375549999999
 31
0.0
  0
LINE
  5
AC10
330
AB8F
100
AcDbEntity
  8
1
  6
Continuous
100
AcDbLine
 10
35.46354
 20
224.511168
 30
0.0
 11
35.46354
 21
222.4375549999999
 31
0.0
  0
LINE
  5
AC11
330
AB8F
100
AcDbEntity
  8
1
  6
Continuous
100
AcDbLine
 10
68.61354
 20
190.2116679999998
 30
0.0
 11
69.11354
 21
190.2116679999998
 31
0.0
  0
LINE
  5
AC12
330
AB8F
100
AcDbEntity
  8
1
  6
Continuous
100
AcDbLine
 10
68.61354
 20
182.211668
 30
0.0
 11
69.11354
 21
182.211668
 31
0.0
  0
LINE
  5
AC13
330
AB8F
100
AcDbEntity
  8
1
  6
Continuous
100
AcDbLine
 10
39.31354000000001
 20
181.961668
 30
0.0
 11
38.38022399999999
 21
181.961668
 31
0.0
  0
LINE
  5
AC14
330
AB8F
100
AcDbEntity
  8
1
  6
Continuous
100
AcDbLine
 10
39.31354000000001
 20
190.461668
 30
0.0
 11
38.38022399999999
 21
190.461668
 31
0.0
  0
ARC
  5
AC15
330
AB8F
100
AcDbEntity
  8
1
  6
Continuous
100
AcDbCircle
 10
46.31354
 20
186.2116679999998
 30
0.0
 40
9.0
100
AcDbArc
 50
151.821357
 51
208.178643
  0
LINE
  5
AC16
330
AB8F
100
AcDbEntity
  8
1
  6
Continuous
100
AcDbLine
 10
38.38022399999999
 20
190.461668
 30
0.0
 11
38.38022399999999
 21
181.961668
 31
0.0
  0
ARC
  5
AC17
330
AB8F
100
AcDbEntity
  8
1
  6
Continuous
100
AcDbCircle
 10
61.61354
 20
186.2116679999998
 30
0.0
 40
8.5
100
AcDbArc
 50
331.9275129999998
 51
28.072487
  0
LINE
  5
AC18
330
AB8F
100
AcDbEntity
  8
1
  6
Continuous
100
AcDbLine
 10
69.11354
 20
190.2116679999998
 30
0.0
 11
69.11354
 21
182.211668
 31
0.0
  0
LINE
  5
AC19
330
AB8F
100
AcDbEntity
  8
1
  6
Continuous
100
AcDbLine
 10
66.61354
 20
189.2116679999998
 30
0.0
 11
65.96354000000001
 21
189.2116679999998
 31
0.0
  0
LINE
  5
AC1A
330
AB8F
100
AcDbEntity
  8
1
  6
Continuous
100
AcDbLine
 10
41.96354
 20
189.2116679999998
 30
0.0
 11
41.31354
 21
189.2116679999998
 31
0.0
  0
LINE
  5
AC1B
330
AB8F
100
AcDbEntity
  8
1
  6
Continuous
100
AcDbLine
 10
66.61354
 20
183.211668
 30
0.0
 11
65.96354000000001
 21
183.211668
 31
0.0
  0
LINE
  5
AC1C
330
AB8F
100
AcDbEntity
  8
1
  6
Continuous
100
AcDbLine
 10
41.96354
 20
183.211668
 30
0.0
 11
41.31354
 21
183.211668
 31
0.0
  0
LINE
  5
AC1D
330
AB8F
100
AcDbEntity
  8
1
  6
Continuous
100
AcDbLine
 10
176.5505879999999
 20
226.6107439999999
 30
0.0
 11
176.9739439999999
 21
226.6039849999999
 31
0.0
  0
LINE
  5
AC1E
330
AB8F
100
AcDbEntity
  8
1
  6
Continuous
100
AcDbLine
 10
175.4876959999998
 20
225.093637
 30
0.0
 11
175.2652399999998
 21
225.8391629999999
 31
0.0
  0
LINE
  5
AC1F
330
AB8F
100
AcDbEntity
  8
1
  6
Continuous
100
AcDbLine
 10
175.764135
 20
224.569039
 30
0.0
 11
175.6340879999999
 21
224.831006
 31
0.0
  0
ARC
  5
AC20
330
AB8F
100
AcDbEntity
  8
1
  6
Continuous
100
AcDbCircle
 10
176.152195
 20
225.2919159999999
 30
0.0
 40
0.69345
100
AcDbArc
 50
196.614532
 51
221.656456
  0
ARC
  5
AC21
330
AB8F
100
AcDbEntity
  8
1
  6
Continuous
100
AcDbCircle
 10
176.046886
 20
225.2308429999999
 30
0.0
 40
0.719675
100
AcDbArc
 50
246.865712
 51
270.0
  0
ARC
  5
AC22
330
AB8F
100
AcDbEntity
  8
1
  6
Continuous
100
AcDbCircle
 10
176.523564
 20
224.918165
 30
0.0
 40
1.692795999999999
100
AcDbArc
 50
89.08527799999998
 51
119.0993819999999
  0
ARC
  5
AC23
330
AB8F
100
AcDbEntity
  8
1
  6
Continuous
100
AcDbCircle
 10
178.128752
 20
222.0341369999999
 30
0.0
 40
4.993438999999998
100
AcDbArc
 50
119.0993819999999
 51
123.0596909999998
  0
ARC
  5
AC24
330
AB8F
100
AcDbEntity
  8
1
  6
Continuous
100
AcDbCircle
 10
175.5891839999999
 20
225.935824
 30
0.0
 40
0.338058
100
AcDbArc
 50
123.0596909999998
 51
196.614532
  0
ARC
  5
AC25
330
AB8F
100
AcDbEntity
  8
1
  6
Continuous
100
AcDbCircle
 10
179.7794079999999
 20
224.091641
 30
0.0
 40
3.765966
100
AcDbArc
 50
133.066912
 51
136.499305
  0
ARC
  5
AC26
330
AB8F
100
AcDbEntity
  8
1
  6
Continuous
100
AcDbCircle
 10
176.865577
 20
226.8568299999998
 30
0.0
 40
0.251083
100
AcDbArc
 50
269.0852779999999
 51
316.499305
  0
ARC
  5
AC27
330
AB8F
100
AcDbEntity
  8
1
  6
Continuous
100
AcDbCircle
 10
175.806794
 20
229.7512069999999
 30
0.0
 40
2.908313999999998
100
AcDbArc
 50
246.301491
 51
270.0
  0
ARC
  5
AC28
330
AB8F
100
AcDbEntity
  8
1
  6
Continuous
100
AcDbCircle
 10
176.8036679999999
 20
232.0223089999998
 30
0.0
 40
5.388568
100
AcDbArc
 50
227.8284209999998
 51
246.301491
  0
LINE
  5
AC29
330
AB8F
100
AcDbEntity
  8
1
  6
Continuous
100
AcDbLine
 10
172.613359
 20
228.5449649999999
 30
0.0
 11
172.622489
 21
228.9116679999999
 31
0.0
  0
ARC
  5
AC2A
330
AB8F
100
AcDbEntity
  8
1
  6
Continuous
100
AcDbCircle
 10
62.24320399999999
 20
105.5537069999999
 30
0.0
 40
165.252597
100
AcDbArc
 50
47.82842099999999
 51
48.095765
  0
LINE
  5
AC2B
330
AB8F
100
AcDbEntity
  8
1
  6
Continuous
100
AcDbLine
 10
210.414652
 20
226.6107439999999
 30
0.0
 11
209.991296
 21
226.6039849999999
 31
0.0
  0
LINE
  5
AC2C
330
AB8F
100
AcDbEntity
  8
1
  6
Continuous
100
AcDbLine
 10
211.4775439999999
 20
225.093637
 30
0.0
 11
211.7000009999999
 21
225.8391629999999
 31
0.0
  0
LINE
  5
AC2D
330
AB8F
100
AcDbEntity
  8
1
  6
Continuous
100
AcDbLine
 10
211.2011059999999
 20
224.569039
 30
0.0
 11
211.3311519999998
 21
224.831006
 31
0.0
  0
ARC
  5
AC2E
330
AB8F
100
AcDbEntity
  8
1
  6
Continuous
100
AcDbCircle
 10
210.8130449999999
 20
225.2919159999999
 30
0.0
 40
0.69345
100
AcDbArc
 50
318.343544
 51
343.385468
  0
ARC
  5
AC2F
330
AB8F
100
AcDbEntity
  8
1
  6
Continuous
100
AcDbCircle
 10
210.918354
 20
225.2308429999999
 30
0.0
 40
0.719675
100
AcDbArc
 50
270.0
 51
293.1342879999999
  0
ARC
  5
AC30
330
AB8F
100
AcDbEntity
  8
1
  6
Continuous
100
AcDbCircle
 10
210.4416769999999
 20
224.918165
 30
0.0
 40
1.692795999999999
100
AcDbArc
 50
60.900618
 51
90.914722
  0
ARC
  5
AC31
330
AB8F
100
AcDbEntity
  8
1
  6
Continuous
100
AcDbCircle
 10
208.8364879999998
 20
222.0341369999999
 30
0.0
 40
4.993438999999998
100
AcDbArc
 50
56.940309
 51
60.900618
  0
ARC
  5
AC32
330
AB8F
100
AcDbEntity
  8
1
  6
Continuous
100
AcDbCircle
 10
211.376056
 20
225.935824
 30
0.0
 40
0.338058
100
AcDbArc
 50
343.385468
 51
56.940309
  0
ARC
  5
AC33
330
AB8F
100
AcDbEntity
  8
1
  6
Continuous
100
AcDbCircle
 10
207.185832
 20
224.091641
 30
0.0
 40
3.765966
100
AcDbArc
 50
43.500695
 51
46.933087
  0
ARC
  5
AC34
330
AB8F
100
AcDbEntity
  8
1
  6
Continuous
100
AcDbCircle
 10
210.099663
 20
226.8568299999998
 30
0.0
 40
0.251083
100
AcDbArc
 50
223.500695
 51
270.9147219999999
  0
ARC
  5
AC35
330
AB8F
100
AcDbEntity
  8
1
  6
Continuous
100
AcDbCircle
 10
211.1584459999999
 20
229.7512069999999
 30
0.0
 40
2.908313999999998
100
AcDbArc
 50
270.0
 51
293.6985089999998
  0
ARC
  5
AC36
330
AB8F
100
AcDbEntity
  8
1
  6
Continuous
100
AcDbCircle
 10
210.161572
 20
232.0223089999998
 30
0.0
 40
5.388568
100
AcDbArc
 50
293.6985089999998
 51
312.171579
  0
LINE
  5
AC37
330
AB8F
100
AcDbEntity
  8
1
  6
Continuous
100
AcDbLine
 10
214.351882
 20
228.5449649999999
 30
0.0
 11
214.3427519999999
 21
228.9116679999999
 31
0.0
  0
ARC
  5
AC38
330
AB8F
100
AcDbEntity
  8
1
  6
Continuous
100
AcDbCircle
 10
324.7220369999999
 20
105.5537069999999
 30
0.0
 40
165.252597
100
AcDbArc
 50
131.9042349999998
 51
132.171579
  0
LINE
  5
AC39
330
AB8F
100
AcDbEntity
  8
1
  6
Continuous
100
AcDbLine
 10
211.98262
 20
224.511168
 30
0.0
 11
174.98262
 21
224.511168
 31
0.0
  0
LINE
  5
AC3A
330
AB8F
100
AcDbEntity
  8
1
  6
Continuous
100
AcDbLine
 10
175.806794
 20
226.842893
 30
0.0
 11
211.1584459999999
 21
226.842893
 31
0.0
  0
LINE
  5
AC3B
330
AB8F
100
AcDbEntity
  8
1
  6
Continuous
100
AcDbLine
 10
37.031507
 20
226.6107439999999
 30
0.0
 11
37.454864
 21
226.6039849999999
 31
0.0
  0
LINE
  5
AC3C
330
AB8F
100
AcDbEntity
  8
1
  6
Continuous
100
AcDbLine
 10
35.96861599999999
 20
225.093637
 30
0.0
 11
35.74615899999999
 21
225.8391629999999
 31
0.0
  0
LINE
  5
AC3D
330
AB8F
100
AcDbEntity
  8
1
  6
Continuous
100
AcDbLine
 10
36.24505399999998
 20
224.569039
 30
0.0
 11
36.115008
 21
224.831006
 31
0.0
  0
ARC
  5
AC3E
330
AB8F
100
AcDbEntity
  8
1
  6
Continuous
100
AcDbCircle
 10
36.63311499999999
 20
225.2919159999999
 30
0.0
 40
0.69345
100
AcDbArc
 50
196.614532
 51
221.656456
  0
ARC
  5
AC3F
330
AB8F
100
AcDbEntity
  8
1
  6
Continuous
100
AcDbCircle
 10
36.52780599999999
 20
225.2308429999999
 30
0.0
 40
0.719675
100
AcDbArc
 50
246.865712
 51
270.0
  0
ARC
  5
AC40
330
AB8F
100
AcDbEntity
  8
1
  6
Continuous
100
AcDbCircle
 10
37.004483
 20
224.918165
 30
0.0
 40
1.692795999999999
100
AcDbArc
 50
89.08527799999998
 51
119.0993819999999
  0
ARC
  5
AC41
330
AB8F
100
AcDbEntity
  8
1
  6
Continuous
100
AcDbCircle
 10
38.60967199999999
 20
222.0341369999999
 30
0.0
 40
4.993438999999998
100
AcDbArc
 50
119.0993819999999
 51
123.0596909999998
  0
ARC
  5
AC42
330
AB8F
100
AcDbEntity
  8
1
  6
Continuous
100
AcDbCircle
 10
36.070104
 20
225.935824
 30
0.0
 40
0.338058
100
AcDbArc
 50
123.0596909999998
 51
196.614532
  0
ARC
  5
AC43
330
AB8F
100
AcDbEntity
  8
1
  6
Continuous
100
AcDbCircle
 10
40.260328
 20
224.091641
 30
0.0
 40
3.765966
100
AcDbArc
 50
133.066912
 51
136.499305
  0
ARC
  5
AC44
330
AB8F
100
AcDbEntity
  8
1
  6
Continuous
100
AcDbCircle
 10
37.346497
 20
226.8568299999998
 30
0.0
 40
0.251083
100
AcDbArc
 50
269.0852779999999
 51
316.499305
  0
ARC
  5
AC45
330
AB8F
100
AcDbEntity
  8
1
  6
Continuous
100
AcDbCircle
 10
36.287714
 20
229.7512069999999
 30
0.0
 40
2.908313999999998
100
AcDbArc
 50
246.301491
 51
270.0
  0
ARC
  5
AC46
330
AB8F
100
AcDbEntity
  8
1
  6
Continuous
100
AcDbCircle
 10
37.284587
 20
232.0223089999998
 30
0.0
 40
5.388568
100
AcDbArc
 50
227.8284209999998
 51
246.301491
  0
LINE
  5
AC47
330
AB8F
100
AcDbEntity
  8
1
  6
Continuous
100
AcDbLine
 10
33.094278
 20
228.5449649999999
 30
0.0
 11
33.10012299999999
 21
228.779711
 31
0.0
  0
ARC
  5
AC48
330
AB8F
100
AcDbEntity
  8
1
  6
Continuous
100
AcDbCircle
 10
-77.27587699999998
 20
105.5537069999999
 30
0.0
 40
165.252597
100
AcDbArc
 50
47.82842099999999
 51
48.095765
  0
LINE
  5
AC49
330
AB8F
100
AcDbEntity
  8
1
  6
Continuous
100
AcDbLine
 10
70.895572
 20
226.6107439999999
 30
0.0
 11
70.472216
 21
226.6039849999999
 31
0.0
  0
LINE
  5
AC4A
330
AB8F
100
AcDbEntity
  8
1
  6
Continuous
100
AcDbLine
 10
71.95846400000002
 20
225.093637
 30
0.0
 11
72.18092
 21
225.8391629999999
 31
0.0
  0
LINE
  5
AC4B
330
AB8F
100
AcDbEntity
  8
1
  6
Continuous
100
AcDbLine
 10
71.68202499999998
 20
224.569039
 30
0.0
 11
71.812072
 21
224.831006
 31
0.0
  0
ARC
  5
AC4C
330
AB8F
100
AcDbEntity
  8
1
  6
Continuous
100
AcDbCircle
 10
71.293965
 20
225.2919159999999
 30
0.0
 40
0.69345
100
AcDbArc
 50
318.343544
 51
343.385468
  0
ARC
  5
AC4D
330
AB8F
100
AcDbEntity
  8
1
  6
Continuous
100
AcDbCircle
 10
71.39927400000002
 20
225.2308429999999
 30
0.0
 40
0.719675
100
AcDbArc
 50
270.0
 51
293.1342879999999
  0
ARC
  5
AC4E
330
AB8F
100
AcDbEntity
  8
1
  6
Continuous
100
AcDbCircle
 10
70.922596
 20
224.918165
 30
0.0
 40
1.692795999999999
100
AcDbArc
 50
60.900618
 51
90.914722
  0
ARC
  5
AC4F
330
AB8F
100
AcDbEntity
  8
1
  6
Continuous
100
AcDbCircle
 10
69.317408
 20
222.0341369999999
 30
0.0
 40
4.993438999999998
100
AcDbArc
 50
56.940309
 51
60.900618
  0
ARC
  5
AC50
330
AB8F
100
AcDbEntity
  8
1
  6
Continuous
100
AcDbCircle
 10
71.85697600000001
 20
225.935824
 30
0.0
 40
0.338058
100
AcDbArc
 50
343.385468
 51
56.940309
  0
ARC
  5
AC51
330
AB8F
100
AcDbEntity
  8
1
  6
Continuous
100
AcDbCircle
 10
67.666752
 20
224.091641
 30
0.0
 40
3.765966
100
AcDbArc
 50
43.500695
 51
46.933087
  0
ARC
  5
AC52
330
AB8F
100
AcDbEntity
  8
1
  6
Continuous
100
AcDbCircle
 10
70.58058299999998
 20
226.8568299999998
 30
0.0
 40
0.251083
100
AcDbArc
 50
223.500695
 51
270.9147219999999
  0
ARC
  5
AC53
330
AB8F
100
AcDbEntity
  8
1
  6
Continuous
100
AcDbCircle
 10
71.63936600000003
 20
229.7512069999999
 30
0.0
 40
2.908313999999998
100
AcDbArc
 50
270.0
 51
293.6985089999998
  0
ARC
  5
AC54
330
AB8F
100
AcDbEntity
  8
1
  6
Continuous
100
AcDbCircle
 10
70.642492
 20
232.0223089999998
 30
0.0
 40
5.388568
100
AcDbArc
 50
293.6985089999998
 51
312.171579
  0
LINE
  5
AC55
330
AB8F
100
AcDbEntity
  8
1
  6
Continuous
100
AcDbLine
 10
74.832801
 20
228.5449649999999
 30
0.0
 11
74.82695699999998
 21
228.779711
 31
0.0
  0
ARC
  5
AC56
330
AB8F
100
AcDbEntity
  8
1
  6
Continuous
100
AcDbCircle
 10
185.202956
 20
105.5537069999999
 30
0.0
 40
165.252597
100
AcDbArc
 50
131.9042349999998
 51
132.171579
  0
LINE
  5
AC57
330
AB8F
100
AcDbEntity
  8
1
  6
Continuous
100
AcDbLine
 10
45.01557899999999
 20
231.2116679999999
 30
0.0
 11
62.9115
 21
231.2116679999999
 31
0.0
  0
LINE
  5
AC58
330
AB8F
100
AcDbEntity
  8
1
  6
Continuous
100
AcDbLine
 10
35.46354
 20
224.511168
 30
0.0
 11
72.46354000000002
 21
224.511168
 31
0.0
  0
LINE
  5
AC59
330
AB8F
100
AcDbEntity
  8
1
  6
Continuous
100
AcDbLine
 10
36.287714
 20
226.842893
 30
0.0
 11
71.63936600000003
 21
226.842893
 31
0.0
  0
LINE
  5
AC5A
330
AB8F
100
AcDbEntity
  8
1
  6
Continuous
100
AcDbLine
 10
33.094278
 20
228.5449649999999
 30
0.0
 11
74.832801
 21
228.5449649999999
 31
0.0
  0
LINE
  5
AC5B
330
AB8F
100
AcDbEntity
  8
1
  6
Continuous
100
AcDbLine
 10
70.472216
 20
226.6039849999999
 30
0.0
 11
37.454864
 21
226.6039849999999
 31
0.0
  0
LINE
  5
AC5C
330
AB8F
100
AcDbEntity
  8
1
  6
Continuous
100
AcDbLine
 10
172.613359
 20
228.5449649999999
 30
0.0
 11
214.351882
 21
228.5449649999999
 31
0.0
  0
LINE
  5
AC5D
330
AB8F
100
AcDbEntity
  8
1
  6
Continuous
100
AcDbLine
 10
176.9739439999999
 20
226.6039849999999
 30
0.0
 11
209.991296
 21
226.6039849999999
 31
0.0
  0
LINE
  5
AC5E
330
AB8F
100
AcDbEntity
  8
1
  6
Continuous
100
AcDbLine
 10
175.2810199999999
 20
226.0748149999999
 30
0.0
 11
211.68422
 21
226.0748149999999
 31
0.0
  0
LINE
  5
AC5F
330
AB8F
100
AcDbEntity
  8
1
  6
Continuous
100
AcDbLine
 10
35.76194
 20
226.0748149999999
 30
0.0
 11
72.16513999999998
 21
226.0748149999999
 31
0.0
  0
LINE
  5
AC60
330
AB8F
100
AcDbEntity
  8
1
  6
Continuous
100
AcDbLine
 10
45.96354
 20
186.3555079999999
 30
0.0
 11
45.96354
 21
163.40028
 31
0.0
  0
LINE
  5
AC61
330
AB8F
100
AcDbEntity
  8
1
  6
Continuous
100
AcDbLine
 10
41.96354
 20
189.7755079999998
 30
0.0
 11
41.96354
 21
181.050768
 31
0.0
  0
LINE
  5
AC62
330
AB8F
100
AcDbEntity
  8
1
  6
Continuous
100
AcDbLine
 10
61.96354
 20
186.3555079999999
 30
0.0
 11
61.96354
 21
163.40028
 31
0.0
  0
LINE
  5
AC63
330
AB8F
100
AcDbEntity
  8
1
  6
Continuous
100
AcDbLine
 10
65.96354000000001
 20
189.7755079999998
 30
0.0
 11
65.96354000000001
 21
181.050768
 31
0.0
  0
ARC
  5
AC64
330
AB8F
100
AcDbEntity
  8
1
  6
Continuous
100
AcDbCircle
 10
46.46354
 20
163.40028
 30
0.0
 40
0.5
100
AcDbArc
 50
180.0
 51
244.623066
  0
ARC
  5
AC65
330
AB8F
100
AcDbEntity
  8
1
  6
Continuous
100
AcDbCircle
 10
53.96354
 20
179.211668
 30
0.0
 40
18.0
100
AcDbArc
 50
244.623066
 51
295.376934
  0
LINE
  5
AC66
330
AB8F
100
AcDbEntity
  8
1
  6
Continuous
100
AcDbLine
 10
42.789892
 20
180.0659599999999
 30
0.0
 11
45.96354
 21
179.5063599999998
 31
0.0
  0
ARC
  5
AC67
330
AB8F
100
AcDbEntity
  8
1
  6
Continuous
100
AcDbCircle
 10
42.96354
 20
181.050768
 30
0.0
 40
1.0
100
AcDbArc
 50
180.0
 51
260.0
  0
ARC
  5
AC68
330
AB8F
100
AcDbEntity
  8
1
  6
Continuous
100
AcDbCircle
 10
61.46354
 20
163.40028
 30
0.0
 40
0.5
100
AcDbArc
 50
295.376934
 51
0.0
  0
LINE
  5
AC69
330
AB8F
100
AcDbEntity
  8
1
  6
Continuous
100
AcDbLine
 10
65.13718799999999
 20
180.0659599999999
 30
0.0
 11
61.96354
 21
179.5063599999998
 31
0.0
  0
ARC
  5
AC6A
330
AB8F
100
AcDbEntity
  8
1
  6
Continuous
100
AcDbCircle
 10
64.96354000000001
 20
181.050768
 30
0.0
 40
1.0
100
AcDbArc
 50
280.0
 51
0.0
  0
ARC
  5
AC6B
330
AB8F
100
AcDbEntity
  8
1
  6
Continuous
100
AcDbCircle
 10
172.48262
 20
186.2116679999998
 30
0.0
 40
25.0
100
AcDbArc
 50
176.736407
 51
56.35722600000001
  0
CIRCLE
  5
AC6C
330
AB8F
100
AcDbEntity
  8
1
  6
Continuous
100
AcDbCircle
 10
193.48262
 20
322.459796
 30
0.0
 40
8.316464999999999
  0
CIRCLE
  5
AC6D
330
AB8F
100
AcDbEntity
  8
1
  6
Continuous
100
AcDbCircle
 10
193.48262
 20
322.459796
 30
0.0
 40
9.044107
  0
ARC
  5
AC6E
330
AB8F
100
AcDbEntity
  8
1
  6
Continuous
100
AcDbCircle
 10
53.96354
 20
199.7614159999999
 30
0.0
 40
15.611482
100
AcDbArc
 50
214.5373359999999
 51
325.46602
  0
LINE
  5
AC70
330
AB8F
100
AcDbEntity
  8
1
  6
Continuous
100
AcDbLine
 10
67.96354
 20
216.168591
 30
0.0
 11
67.96354
 21
217.8953089999999
 31
0.0
  0
ARC
  5
AC71
330
AB8F
100
AcDbEntity
  8
1
  6
Continuous
100
AcDbCircle
 10
65.96354000000001
 20
217.8953089999999
 30
0.0
 40
2.0
100
AcDbArc
 50
0.0
 51
96.857641
  0
LINE
  5
AC72
330
AB8F
100
AcDbEntity
  8
1
  6
Continuous
100
AcDbLine
 10
39.96354
 20
216.168591
 30
0.0
 11
39.96354
 21
217.8953089999999
 31
0.0
  0
ARC
  5
AC73
330
AB8F
100
AcDbEntity
  8
1
  6
Continuous
100
AcDbCircle
 10
41.96354
 20
217.8953089999999
 30
0.0
 40
2.0
100
AcDbArc
 50
83.14235899999998
 51
180.0
  0
LINE
  5
AC74
330
AB8F
100
AcDbEntity
  8
1
  6
Continuous
100
AcDbLine
 10
179.3575539999999
 20
218.4095279999999
 30
0.0
 11
179.3575539999999
 21
203.1473749999999
 31
0.0
  0
ARC
  5
AC75
330
AB8F
100
AcDbEntity
  8
1
  6
Continuous
100
AcDbCircle
 10
173.6034699999999
 20
208.132505
 30
0.0
 40
10.0
100
AcDbArc
 50
54.871767
 51
89.00175800000004
  0
LINE
  5
AC76
330
AB8F
100
AcDbEntity
  8
1
  6
Continuous
100
AcDbLine
 10
41.972414
 20
189.2616679999999
 30
0.0
 11
41.96354
 21
189.270542
 31
0.0
  0
LINE
  5
AC77
330
AB8F
100
AcDbEntity
  8
1
  6
Continuous
100
AcDbLine
 10
195.3335209999999
 20
222.660266
 30
0.0
 11
193.48262
 21
224.511168
 31
0.0
  0
LINE
  5
AC78
330
AB8F
100
AcDbEntity
  8
1
  6
Continuous
100
AcDbLine
 10
193.9363649999999
 20
222.64321
 30
0.0
 11
192.068407
 21
224.511168
 31
0.0
  0
LINE
  5
AC79
330
AB8F
100
AcDbEntity
  8
1
  6
Continuous
100
AcDbLine
 10
192.539208
 20
222.6261529999999
 30
0.0
 11
190.6541929999999
 21
224.511168
 31
0.0
  0
LINE
  5
AC7A
330
AB8F
100
AcDbEntity
  8
1
  6
Continuous
100
AcDbLine
 10
191.142051
 20
222.609096
 30
0.0
 11
189.2399789999998
 21
224.511168
 31
0.0
  0
LINE
  5
AC7B
330
AB8F
100
AcDbEntity
  8
1
  6
Continuous
100
AcDbLine
 10
189.7448949999999
 20
222.592039
 30
0.0
 11
187.8257659999999
 21
224.511168
 31
0.0
  0
LINE
  5
AC7C
330
AB8F
100
AcDbEntity
  8
1
  6
Continuous
100
AcDbLine
 10
188.347738
 20
222.5749819999998
 30
0.0
 11
186.411552
 21
224.511168
 31
0.0
  0
LINE
  5
AC7D
330
AB8F
100
AcDbEntity
  8
1
  6
Continuous
100
AcDbLine
 10
186.9505809999998
 20
222.557925
 30
0.0
 11
184.9973389999999
 21
224.511168
 31
0.0
  0
LINE
  5
AC7E
330
AB8F
100
AcDbEntity
  8
1
  6
Continuous
100
AcDbLine
 10
185.553424
 20
222.540869
 30
0.0
 11
183.583125
 21
224.511168
 31
0.0
  0
LINE
  5
AC7F
330
AB8F
100
AcDbEntity
  8
1
  6
Continuous
100
AcDbLine
 10
184.1562679999999
 20
222.5238119999999
 30
0.0
 11
182.168912
 21
224.511168
 31
0.0
  0
LINE
  5
AC80
330
AB8F
100
AcDbEntity
  8
1
  6
Continuous
100
AcDbLine
 10
182.759111
 20
222.5067549999999
 30
0.0
 11
180.7546979999999
 21
224.511168
 31
0.0
  0
LINE
  5
AC81
330
AB8F
100
AcDbEntity
  8
1
  6
Continuous
100
AcDbLine
 10
181.3619539999999
 20
222.489698
 30
0.0
 11
179.3404849999998
 21
224.511168
 31
0.0
  0
LINE
  5
AC82
330
AB8F
100
AcDbEntity
  8
1
  6
Continuous
100
AcDbLine
 10
179.964798
 20
222.472641
 30
0.0
 11
177.9262709999999
 21
224.511168
 31
0.0
  0
LINE
  5
AC83
330
AB8F
100
AcDbEntity
  8
1
  6
Continuous
100
AcDbLine
 10
178.5676409999999
 20
222.4555839999999
 30
0.0
 11
176.512057
 21
224.511168
 31
0.0
  0
LINE
  5
AC84
330
AB8F
100
AcDbEntity
  8
1
  6
Continuous
100
AcDbLine
 10
177.1704839999999
 20
222.4385269999999
 30
0.0
 11
175.0978439999999
 21
224.511168
 31
0.0
  0
LINE
  5
AC85
330
AB8F
100
AcDbEntity
  8
1
  6
Continuous
100
AcDbLine
 10
175.7733269999999
 20
222.421471
 30
0.0
 11
174.98262
 21
223.2121779999999
 31
0.0
  0
LINE
  5
AC86
330
AB8F
100
AcDbEntity
  8
1
  6
Continuous
100
AcDbLine
 10
196.730678
 20
222.677323
 30
0.0
 11
194.896834
 21
224.511168
 31
0.0
  0
LINE
  5
AC87
330
AB8F
100
AcDbEntity
  8
1
  6
Continuous
100
AcDbLine
 10
198.127835
 20
222.6943799999999
 30
0.0
 11
196.311047
 21
224.511168
 31
0.0
  0
LINE
  5
AC88
330
AB8F
100
AcDbEntity
  8
1
  6
Continuous
100
AcDbLine
 10
199.524992
 20
222.7114369999999
 30
0.0
 11
197.7252609999999
 21
224.511168
 31
0.0
  0
LINE
  5
AC89
330
AB8F
100
AcDbEntity
  8
1
  6
Continuous
100
AcDbLine
 10
200.9221479999999
 20
222.728494
 30
0.0
 11
199.139474
 21
224.511168
 31
0.0
  0
LINE
  5
AC8A
330
AB8F
100
AcDbEntity
  8
1
  6
Continuous
100
AcDbLine
 10
202.319305
 20
222.7455509999999
 30
0.0
 11
200.553688
 21
224.511168
 31
0.0
  0
LINE
  5
AC8B
330
AB8F
100
AcDbEntity
  8
1
  6
Continuous
100
AcDbLine
 10
203.7164619999999
 20
222.7626069999999
 30
0.0
 11
201.967902
 21
224.511168
 31
0.0
  0
LINE
  5
AC8C
330
AB8F
100
AcDbEntity
  8
1
  6
Continuous
100
AcDbLine
 10
205.1136179999998
 20
222.779664
 30
0.0
 11
203.382115
 21
224.511168
 31
0.0
  0
LINE
  5
AC8D
330
AB8F
100
AcDbEntity
  8
1
  6
Continuous
100
AcDbLine
 10
206.510775
 20
222.796721
 30
0.0
 11
204.7963289999999
 21
224.511168
 31
0.0
  0
LINE
  5
AC8E
330
AB8F
100
AcDbEntity
  8
1
  6
Continuous
100
AcDbLine
 10
207.9079319999999
 20
222.8137779999999
 30
0.0
 11
206.2105419999999
 21
224.511168
 31
0.0
  0
LINE
  5
AC8F
330
AB8F
100
AcDbEntity
  8
1
  6
Continuous
100
AcDbLine
 10
209.3050889999999
 20
222.830835
 30
0.0
 11
207.624756
 21
224.511168
 31
0.0
  0
LINE
  5
AC90
330
AB8F
100
AcDbEntity
  8
1
  6
Continuous
100
AcDbLine
 10
210.702245
 20
222.847892
 30
0.0
 11
209.0389689999999
 21
224.511168
 31
0.0
  0
LINE
  5
AC91
330
AB8F
100
AcDbEntity
  8
1
  6
Continuous
100
AcDbLine
 10
211.98262
 20
222.9817299999999
 30
0.0
 11
210.4531829999999
 21
224.511168
 31
0.0
  0
LINE
  5
AC92
330
AB8F
100
AcDbEntity
  8
1
  6
Continuous
100
AcDbLine
 10
211.98262
 20
224.3959439999999
 30
0.0
 11
211.8673959999999
 21
224.511168
 31
0.0
  0
LINE
  5
AC93
330
AB8F
100
AcDbEntity
  8
1
  6
Continuous
100
AcDbLine
 10
191.5859679999998
 20
222.6145149999999
 30
0.0
 11
193.48262
 21
224.511168
 31
0.0
  0
LINE
  5
AC94
330
AB8F
100
AcDbEntity
  8
1
  6
Continuous
100
AcDbLine
 10
190.154276
 20
222.597037
 30
0.0
 11
192.068407
 21
224.511168
 31
0.0
  0
LINE
  5
AC95
330
AB8F
100
AcDbEntity
  8
1
  6
Continuous
100
AcDbLine
 10
188.722584
 20
222.5795579999999
 30
0.0
 11
190.6541929999999
 21
224.511168
 31
0.0
  0
LINE
  5
AC96
330
AB8F
100
AcDbEntity
  8
1
  6
Continuous
100
AcDbLine
 10
187.290892
 20
222.5620799999999
 30
0.0
 11
189.2399789999998
 21
224.511168
 31
0.0
  0
LINE
  5
AC97
330
AB8F
100
AcDbEntity
  8
1
  6
Continuous
100
AcDbLine
 10
185.8591999999999
 20
222.5446009999998
 30
0.0
 11
187.8257659999999
 21
224.511168
 31
0.0
  0
LINE
  5
AC98
330
AB8F
100
AcDbEntity
  8
1
  6
Continuous
100
AcDbLine
 10
184.4275079999999
 20
222.527123
 30
0.0
 11
186.411552
 21
224.511168
 31
0.0
  0
LINE
  5
AC99
330
AB8F
100
AcDbEntity
  8
1
  6
Continuous
100
AcDbLine
 10
182.9958159999999
 20
222.509645
 30
0.0
 11
184.9973389999999
 21
224.511168
 31
0.0
  0
LINE
  5
AC9A
330
AB8F
100
AcDbEntity
  8
1
  6
Continuous
100
AcDbLine
 10
181.5641239999999
 20
222.492166
 30
0.0
 11
183.583125
 21
224.511168
 31
0.0
  0
LINE
  5
AC9B
330
AB8F
100
AcDbEntity
  8
1
  6
Continuous
100
AcDbLine
 10
180.1324319999999
 20
222.474688
 30
0.0
 11
182.168912
 21
224.511168
 31
0.0
  0
LINE
  5
AC9C
330
AB8F
100
AcDbEntity
  8
1
  6
Continuous
100
AcDbLine
 10
178.70074
 20
222.4572089999998
 30
0.0
 11
180.7546979999999
 21
224.511168
 31
0.0
  0
LINE
  5
AC9D
330
AB8F
100
AcDbEntity
  8
1
  6
Continuous
100
AcDbLine
 10
177.269048
 20
222.439731
 30
0.0
 11
179.3404849999998
 21
224.511168
 31
0.0
  0
LINE
  5
AC9E
330
AB8F
100
AcDbEntity
  8
1
  6
Continuous
100
AcDbLine
 10
175.8373549999998
 20
222.422252
 30
0.0
 11
177.9262709999999
 21
224.511168
 31
0.0
  0
LINE
  5
AC9F
330
AB8F
100
AcDbEntity
  8
1
  6
Continuous
100
AcDbLine
 10
174.98262
 20
222.9817299999999
 30
0.0
 11
176.512057
 21
224.511168
 31
0.0
  0
LINE
  5
ACA0
330
AB8F
100
AcDbEntity
  8
1
  6
Continuous
100
AcDbLine
 10
174.98262
 20
224.3959439999999
 30
0.0
 11
175.0978439999999
 21
224.511168
 31
0.0
  0
LINE
  5
ACA1
330
AB8F
100
AcDbEntity
  8
1
  6
Continuous
100
AcDbLine
 10
193.01766
 20
222.6319939999999
 30
0.0
 11
194.896834
 21
224.511168
 31
0.0
  0
LINE
  5
ACA2
330
AB8F
100
AcDbEntity
  8
1
  6
Continuous
100
AcDbLine
 10
194.449352
 20
222.649472
 30
0.0
 11
196.311047
 21
224.511168
 31
0.0
  0
LINE
  5
ACA3
330
AB8F
100
AcDbEntity
  8
1
  6
Continuous
100
AcDbLine
 10
195.881044
 20
222.6669509999999
 30
0.0
 11
197.7252609999999
 21
224.511168
 31
0.0
  0
LINE
  5
ACA4
330
AB8F
100
AcDbEntity
  8
1
  6
Continuous
100
AcDbLine
 10
197.312736
 20
222.6844289999999
 30
0.0
 11
199.139474
 21
224.511168
 31
0.0
  0
LINE
  5
ACA5
330
AB8F
100
AcDbEntity
  8
1
  6
Continuous
100
AcDbLine
 10
198.744428
 20
222.701908
 30
0.0
 11
200.553688
 21
224.511168
 31
0.0
  0
LINE
  5
ACA6
330
AB8F
100
AcDbEntity
  8
1
  6
Continuous
100
AcDbLine
 10
200.1761199999999
 20
222.7193859999999
 30
0.0
 11
201.967902
 21
224.511168
 31
0.0
  0
LINE
  5
ACA7
330
AB8F
100
AcDbEntity
  8
1
  6
Continuous
100
AcDbLine
 10
201.607812
 20
222.7368649999999
 30
0.0
 11
203.382115
 21
224.511168
 31
0.0
  0
LINE
  5
ACA8
330
AB8F
100
AcDbEntity
  8
1
  6
Continuous
100
AcDbLine
 10
203.039504
 20
222.754343
 30
0.0
 11
204.7963289999999
 21
224.511168
 31
0.0
  0
LINE
  5
ACA9
330
AB8F
100
AcDbEntity
  8
1
  6
Continuous
100
AcDbLine
 10
204.4711959999999
 20
222.7718209999999
 30
0.0
 11
206.2105419999999
 21
224.511168
 31
0.0
  0
LINE
  5
ACAA
330
AB8F
100
AcDbEntity
  8
1
  6
Continuous
100
AcDbLine
 10
205.902888
 20
222.7892999999999
 30
0.0
 11
207.624756
 21
224.511168
 31
0.0
  0
LINE
  5
ACAB
330
AB8F
100
AcDbEntity
  8
1
  6
Continuous
100
AcDbLine
 10
207.3345799999999
 20
222.8067779999999
 30
0.0
 11
209.0389689999999
 21
224.511168
 31
0.0
  0
LINE
  5
ACAC
330
AB8F
100
AcDbEntity
  8
1
  6
Continuous
100
AcDbLine
 10
208.7662719999999
 20
222.8242569999999
 30
0.0
 11
210.4531829999999
 21
224.511168
 31
0.0
  0
LINE
  5
ACAD
330
AB8F
100
AcDbEntity
  8
1
  6
Continuous
100
AcDbLine
 10
210.197964
 20
222.8417349999999
 30
0.0
 11
211.8673959999999
 21
224.511168
 31
0.0
  0
LINE
  5
ACAE
330
AB8F
100
AcDbEntity
  8
1
  6
Continuous
100
AcDbLine
 10
211.98262
 20
223.2121779999999
 30
0.0
 11
211.629656
 21
222.8592139999999
 31
0.0
  0
LINE
  5
ACAF
330
AB8F
100
AcDbEntity
  8
1
  6
Continuous
100
AcDbLine
 10
56.03715199999999
 20
222.4375549999999
 30
0.0
 11
53.96354
 21
224.511168
 31
0.0
  0
LINE
  5
ACB0
330
AB8F
100
AcDbEntity
  8
1
  6
Continuous
100
AcDbLine
 10
54.622939
 20
222.4375549999999
 30
0.0
 11
52.549326
 21
224.511168
 31
0.0
  0
LINE
  5
ACB1
330
AB8F
100
AcDbEntity
  8
1
  6
Continuous
100
AcDbLine
 10
53.208725
 20
222.4375549999999
 30
0.0
 11
51.13511299999998
 21
224.511168
 31
0.0
  0
LINE
  5
ACB2
330
AB8F
100
AcDbEntity
  8
1
  6
Continuous
100
AcDbLine
 10
51.79451199999999
 20
222.4375549999999
 30
0.0
 11
49.720899
 21
224.511168
 31
0.0
  0
LINE
  5
ACB3
330
AB8F
100
AcDbEntity
  8
1
  6
Continuous
100
AcDbLine
 10
50.380298
 20
222.4375549999999
 30
0.0
 11
48.306686
 21
224.511168
 31
0.0
  0
LINE
  5
ACB4
330
AB8F
100
AcDbEntity
  8
1
  6
Continuous
100
AcDbLine
 10
48.966085
 20
222.4375549999999
 30
0.0
 11
46.89247199999999
 21
224.511168
 31
0.0
  0
LINE
  5
ACB5
330
AB8F
100
AcDbEntity
  8
1
  6
Continuous
100
AcDbLine
 10
47.55187099999999
 20
222.4375549999999
 30
0.0
 11
45.478258
 21
224.511168
 31
0.0
  0
LINE
  5
ACB6
330
AB8F
100
AcDbEntity
  8
1
  6
Continuous
100
AcDbLine
 10
46.137657
 20
222.4375549999999
 30
0.0
 11
44.06404499999999
 21
224.511168
 31
0.0
  0
LINE
  5
ACB7
330
AB8F
100
AcDbEntity
  8
1
  6
Continuous
100
AcDbLine
 10
44.72344399999999
 20
222.4375549999999
 30
0.0
 11
42.649831
 21
224.511168
 31
0.0
  0
LINE
  5
ACB8
330
AB8F
100
AcDbEntity
  8
1
  6
Continuous
100
AcDbLine
 10
43.30923
 20
222.4375549999999
 30
0.0
 11
41.235618
 21
224.511168
 31
0.0
  0
LINE
  5
ACB9
330
AB8F
100
AcDbEntity
  8
1
  6
Continuous
100
AcDbLine
 10
41.895017
 20
222.4375549999999
 30
0.0
 11
39.821404
 21
224.511168
 31
0.0
  0
LINE
  5
ACBA
330
AB8F
100
AcDbEntity
  8
1
  6
Continuous
100
AcDbLine
 10
40.480803
 20
222.4375549999999
 30
0.0
 11
38.40719099999999
 21
224.511168
 31
0.0
  0
LINE
  5
ACBB
330
AB8F
100
AcDbEntity
  8
1
  6
Continuous
100
AcDbLine
 10
39.06658999999999
 20
222.4375549999999
 30
0.0
 11
36.99297700000001
 21
224.511168
 31
0.0
  0
LINE
  5
ACBC
330
AB8F
100
AcDbEntity
  8
1
  6
Continuous
100
AcDbLine
 10
37.65237599999999
 20
222.4375549999999
 30
0.0
 11
35.578764
 21
224.511168
 31
0.0
  0
LINE
  5
ACBD
330
AB8F
100
AcDbEntity
  8
1
  6
Continuous
100
AcDbLine
 10
35.46354
 20
223.2121779999999
 30
0.0
 11
36.238163
 21
222.4375549999999
 31
0.0
  0
LINE
  5
ACBE
330
AB8F
100
AcDbEntity
  8
1
  6
Continuous
100
AcDbLine
 10
57.451366
 20
222.4375549999999
 30
0.0
 11
55.37775299999999
 21
224.511168
 31
0.0
  0
LINE
  5
ACBF
330
AB8F
100
AcDbEntity
  8
1
  6
Continuous
100
AcDbLine
 10
58.86558
 20
222.4375549999999
 30
0.0
 11
56.79196700000001
 21
224.511168
 31
0.0
  0
LINE
  5
ACC0
330
AB8F
100
AcDbEntity
  8
1
  6
Continuous
100
AcDbLine
 10
60.27979300000001
 20
222.4375549999999
 30
0.0
 11
58.206181
 21
224.511168
 31
0.0
  0
LINE
  5
ACC1
330
AB8F
100
AcDbEntity
  8
1
  6
Continuous
100
AcDbLine
 10
61.69400699999999
 20
222.4375549999999
 30
0.0
 11
59.620394
 21
224.511168
 31
0.0
  0
LINE
  5
ACC2
330
AB8F
100
AcDbEntity
  8
1
  6
Continuous
100
AcDbLine
 10
63.10821999999999
 20
222.4375549999999
 30
0.0
 11
61.034608
 21
224.511168
 31
0.0
  0
LINE
  5
ACC3
330
AB8F
100
AcDbEntity
  8
1
  6
Continuous
100
AcDbLine
 10
64.52243399999999
 20
222.4375549999999
 30
0.0
 11
62.44882099999998
 21
224.511168
 31
0.0
  0
LINE
  5
ACC4
330
AB8F
100
AcDbEntity
  8
1
  6
Continuous
100
AcDbLine
 10
65.93664699999999
 20
222.4375549999999
 30
0.0
 11
63.863035
 21
224.511168
 31
0.0
  0
LINE
  5
ACC5
330
AB8F
100
AcDbEntity
  8
1
  6
Continuous
100
AcDbLine
 10
67.350861
 20
222.4375549999999
 30
0.0
 11
65.277248
 21
224.511168
 31
0.0
  0
LINE
  5
ACC6
330
AB8F
100
AcDbEntity
  8
1
  6
Continuous
100
AcDbLine
 10
68.765074
 20
222.4375549999999
 30
0.0
 11
66.691462
 21
224.511168
 31
0.0
  0
LINE
  5
ACC7
330
AB8F
100
AcDbEntity
  8
1
  6
Continuous
100
AcDbLine
 10
70.17928799999999
 20
222.4375549999999
 30
0.0
 11
68.10567500000001
 21
224.511168
 31
0.0
  0
LINE
  5
ACC8
330
AB8F
100
AcDbEntity
  8
1
  6
Continuous
100
AcDbLine
 10
71.593502
 20
222.4375549999999
 30
0.0
 11
69.519889
 21
224.511168
 31
0.0
  0
LINE
  5
ACC9
330
AB8F
100
AcDbEntity
  8
1
  6
Continuous
100
AcDbLine
 10
72.46354000000002
 20
222.9817299999999
 30
0.0
 11
70.93410300000002
 21
224.511168
 31
0.0
  0
LINE
  5
ACCA
330
AB8F
100
AcDbEntity
  8
1
  6
Continuous
100
AcDbLine
 10
72.46354000000002
 20
224.3959439999999
 30
0.0
 11
72.34831599999998
 21
224.511168
 31
0.0
  0
LINE
  5
ACCB
330
AB8F
100
AcDbEntity
  8
1
  6
Continuous
100
AcDbLine
 10
51.889927
 20
222.4375549999999
 30
0.0
 11
53.96354
 21
224.511168
 31
0.0
  0
LINE
  5
ACCC
330
AB8F
100
AcDbEntity
  8
1
  6
Continuous
100
AcDbLine
 10
53.304141
 20
222.4375549999999
 30
0.0
 11
55.37775299999999
 21
224.511168
 31
0.0
  0
LINE
  5
ACCD
330
AB8F
100
AcDbEntity
  8
1
  6
Continuous
100
AcDbLine
 10
54.71835399999999
 20
222.4375549999999
 30
0.0
 11
56.79196700000001
 21
224.511168
 31
0.0
  0
LINE
  5
ACCE
330
AB8F
100
AcDbEntity
  8
1
  6
Continuous
100
AcDbLine
 10
56.13256800000001
 20
222.4375549999999
 30
0.0
 11
58.206181
 21
224.511168
 31
0.0
  0
LINE
  5
ACCF
330
AB8F
100
AcDbEntity
  8
1
  6
Continuous
100
AcDbLine
 10
57.54678199999999
 20
222.4375549999999
 30
0.0
 11
59.620394
 21
224.511168
 31
0.0
  0
LINE
  5
ACD0
330
AB8F
100
AcDbEntity
  8
1
  6
Continuous
100
AcDbLine
 10
58.960995
 20
222.4375549999999
 30
0.0
 11
61.034608
 21
224.511168
 31
0.0
  0
LINE
  5
ACD1
330
AB8F
100
AcDbEntity
  8
1
  6
Continuous
100
AcDbLine
 10
60.375209
 20
222.4375549999999
 30
0.0
 11
62.44882099999998
 21
224.511168
 31
0.0
  0
LINE
  5
ACD2
330
AB8F
100
AcDbEntity
  8
1
  6
Continuous
100
AcDbLine
 10
61.78942199999998
 20
222.4375549999999
 30
0.0
 11
63.863035
 21
224.511168
 31
0.0
  0
LINE
  5
ACD3
330
AB8F
100
AcDbEntity
  8
1
  6
Continuous
100
AcDbLine
 10
63.203636
 20
222.4375549999999
 30
0.0
 11
65.277248
 21
224.511168
 31
0.0
  0
LINE
  5
ACD4
330
AB8F
100
AcDbEntity
  8
1
  6
Continuous
100
AcDbLine
 10
64.61784899999999
 20
222.4375549999999
 30
0.0
 11
66.691462
 21
224.511168
 31
0.0
  0
LINE
  5
ACD5
330
AB8F
100
AcDbEntity
  8
1
  6
Continuous
100
AcDbLine
 10
66.032063
 20
222.4375549999999
 30
0.0
 11
68.10567500000001
 21
224.511168
 31
0.0
  0
LINE
  5
ACD6
330
AB8F
100
AcDbEntity
  8
1
  6
Continuous
100
AcDbLine
 10
67.446276
 20
222.4375549999999
 30
0.0
 11
69.519889
 21
224.511168
 31
0.0
  0
LINE
  5
ACD7
330
AB8F
100
AcDbEntity
  8
1
  6
Continuous
100
AcDbLine
 10
68.86048999999998
 20
222.4375549999999
 30
0.0
 11
70.93410300000002
 21
224.511168
 31
0.0
  0
LINE
  5
ACD8
330
AB8F
100
AcDbEntity
  8
1
  6
Continuous
100
AcDbLine
 10
70.274704
 20
222.4375549999999
 30
0.0
 11
72.34831599999998
 21
224.511168
 31
0.0
  0
LINE
  5
ACD9
330
AB8F
100
AcDbEntity
  8
1
  6
Continuous
100
AcDbLine
 10
71.688917
 20
222.4375549999999
 30
0.0
 11
72.46354000000002
 21
223.2121779999999
 31
0.0
  0
LINE
  5
ACDA
330
AB8F
100
AcDbEntity
  8
1
  6
Continuous
100
AcDbLine
 10
50.475714
 20
222.4375549999999
 30
0.0
 11
52.549326
 21
224.511168
 31
0.0
  0
LINE
  5
ACDB
330
AB8F
100
AcDbEntity
  8
1
  6
Continuous
100
AcDbLine
 10
49.0615
 20
222.4375549999999
 30
0.0
 11
51.13511299999998
 21
224.511168
 31
0.0
  0
LINE
  5
ACDC
330
AB8F
100
AcDbEntity
  8
1
  6
Continuous
100
AcDbLine
 10
47.647287
 20
222.4375549999999
 30
0.0
 11
49.720899
 21
224.511168
 31
0.0
  0
LINE
  5
ACDD
330
AB8F
100
AcDbEntity
  8
1
  6
Continuous
100
AcDbLine
 10
46.23307299999999
 20
222.4375549999999
 30
0.0
 11
48.306686
 21
224.511168
 31
0.0
  0
LINE
  5
ACDE
330
AB8F
100
AcDbEntity
  8
1
  6
Continuous
100
AcDbLine
 10
44.818859
 20
222.4375549999999
 30
0.0
 11
46.89247199999999
 21
224.511168
 31
0.0
  0
LINE
  5
ACDF
330
AB8F
100
AcDbEntity
  8
1
  6
Continuous
100
AcDbLine
 10
43.40464599999999
 20
222.4375549999999
 30
0.0
 11
45.478258
 21
224.511168
 31
0.0
  0
LINE
  5
ACE0
330
AB8F
100
AcDbEntity
  8
1
  6
Continuous
100
AcDbLine
 10
41.990432
 20
222.4375549999999
 30
0.0
 11
44.06404499999999
 21
224.511168
 31
0.0
  0
LINE
  5
ACE1
330
AB8F
100
AcDbEntity
  8
1
  6
Continuous
100
AcDbLine
 10
40.576219
 20
222.4375549999999
 30
0.0
 11
42.649831
 21
224.511168
 31
0.0
  0
LINE
  5
ACE2
330
AB8F
100
AcDbEntity
  8
1
  6
Continuous
100
AcDbLine
 10
39.162005
 20
222.4375549999999
 30
0.0
 11
41.235618
 21
224.511168
 31
0.0
  0
LINE
  5
ACE3
330
AB8F
100
AcDbEntity
  8
1
  6
Continuous
100
AcDbLine
 10
37.74779199999999
 20
222.4375549999999
 30
0.0
 11
39.821404
 21
224.511168
 31
0.0
  0
LINE
  5
ACE4
330
AB8F
100
AcDbEntity
  8
1
  6
Continuous
100
AcDbLine
 10
36.33357800000001
 20
222.4375549999999
 30
0.0
 11
38.40719099999999
 21
224.511168
 31
0.0
  0
LINE
  5
ACE5
330
AB8F
100
AcDbEntity
  8
1
  6
Continuous
100
AcDbLine
 10
35.46354
 20
222.9817299999999
 30
0.0
 11
36.99297700000001
 21
224.511168
 31
0.0
  0
LINE
  5
ACE6
330
AB8F
100
AcDbEntity
  8
1
  6
Continuous
100
AcDbLine
 10
35.46354
 20
224.3959439999999
 30
0.0
 11
35.578764
 21
224.511168
 31
0.0
  0
ARC
  5
ACE7
330
AB8F
100
AcDbEntity
  8
1
  6
Continuous
100
AcDbCircle
 10
172.48262
 20
186.2116679999998
 30
0.0
 40
13.33020199999998
100
AcDbArc
 50
172.345222
 51
353.320127
  0
ARC
  5
ACE8
330
AB8F
100
AcDbEntity
  8
1
  6
Continuous
100
AcDbCircle
 10
172.48262
 20
186.2116679999998
 30
0.0
 40
14.3
100
AcDbArc
 50
170.1971
 51
356.342121
  0
ARC
  5
ACE9
330
AB8F
100
AcDbEntity
  8
1
  6
Continuous
100
AcDbCircle
 10
172.48262
 20
186.2116679999998
 30
0.0
 40
23.12451499999999
100
AcDbArc
 50
170.2383079999999
 51
58.44910699999999
  0
LINE
  5
ACEA
330
AB8F
100
AcDbEntity
  8
4
  6
CENTER
100
AcDbLine
 10
193.48262
 20
206.3503209999999
 30
0.0
 11
193.48262
 21
236.211668
 31
0.0
  0
LINE
  5
ACEB
330
AB8F
100
AcDbEntity
  8
4
  6
CENTER
100
AcDbLine
 10
53.96354
 20
236.211668
 30
0.0
 11
53.96354
 21
156.211668
 31
0.0
  0
LINE
  5
ACEC
330
AB8F
100
AcDbEntity
  8
4
  6
CENTER
100
AcDbLine
 10
230.977325
 20
322.459796
 30
0.0
 11
136.077767
 21
322.459796
 31
0.0
  0
LINE
  5
ACED
330
AB8F
100
AcDbEntity
  8
4
  6
CENTER
100
AcDbLine
 10
193.48262
 20
289.5968029999999
 30
0.0
 11
193.48262
 21
355.328214
 31
0.0
  0
LINE
  5
ACEE
330
AB8F
100
AcDbEntity
  8
4
  6
CENTER
100
AcDbLine
 10
202.48262
 20
186.2116679999998
 30
0.0
 11
142.48262
 21
186.2116679999998
 31
0.0
  0
LINE
  5
ACEF
330
AB8F
100
AcDbEntity
  8
4
  6
CENTER
100
AcDbLine
 10
172.48262
 20
156.211668
 30
0.0
 11
172.48262
 21
216.211668
 31
0.0
  0
LINE
  5
ACF0
330
AB8F
100
AcDbEntity
  8
4
  6
CENTER
100
AcDbLine
 10
73.11354
 20
186.2116679999998
 30
0.0
 11
34.31354000000001
 21
186.2116679999998
 31
0.0
  0
CIRCLE
  5
ACF1
330
AB8F
100
AcDbEntity
  8
1
  6
Continuous
100
AcDbCircle
 10
172.48262
 20
186.2116679999998
 30
0.0
 40
4.0
  0
ARC
  5
ACF2
330
AB8F
100
AcDbEntity
  8
1
  6
Continuous
100
AcDbCircle
 10
53.96354
 20
317.6764289999999
 30
0.0
 40
98.500109
100
AcDbArc
 50
263.142359
 51
276.857641
  0
LINE
  5
ACF3
330
AB8F
100
AcDbEntity
  8
1
  6
Continuous
100
AcDbLine
 10
82.927081
 20
231.2116679999999
 30
0.0
 11
25.0
 21
231.2116679999999
 31
0.0
  0
LINE
  5
ACF4
330
AB8F
100
AcDbEntity
  8
1
  6
Continuous
100
AcDbLine
 10
82.927081
 20
228.9116679999999
 30
0.0
 11
25.0
 21
228.9116679999999
 31
0.0
  0
CIRCLE
  5
ACF5
330
AB8F
100
AcDbEntity
  8
1
  6
Continuous
100
AcDbCircle
 10
193.48262
 20
322.459796
 30
0.0
 40
17.25
  0
CIRCLE
  5
ACF6
330
AB8F
100
AcDbEntity
  8
1
  6
Continuous
100
AcDbCircle
 10
193.48262
 20
322.459796
 30
0.0
 40
18.8
  0
LINE
  5
ACF7
330
AB8F
100
AcDbEntity
  8
1
  6
Continuous
100
AcDbLine
 10
160.98262
 20
231.2116679999999
 30
0.0
 11
219.1918089999998
 21
231.2116679999999
 31
0.0
  0
LINE
  5
ACF8
330
AB8F
100
AcDbEntity
  8
1
  6
Continuous
100
AcDbLine
 10
160.98262
 20
228.9116679999999
 30
0.0
 11
219.1918089999998
 21
228.9116679999999
 31
0.0
  0
LINE
  5
ACF9
330
AB8F
100
AcDbEntity
  8
4
  6
CENTER
100
AcDbLine
 10
166.9826199999999
 20
233.8746609999998
 30
0.0
 11
166.9826199999999
 21
226.9303129999999
 31
0.0
  0
LINE
  5
ACFA
330
AB8F
100
AcDbEntity
  8
4
  6
CENTER
100
AcDbLine
 10
206.73262
 20
233.8746609999998
 30
0.0
 11
206.73262
 21
227.795467
 31
0.0
  0
LINE
  5
ACFB
330
AB8F
100
AcDbEntity
  8
4
  6
CENTER
100
AcDbLine
 10
76.91354
 20
234.211668
 30
0.0
 11
76.91354
 21
224.982527
 31
0.0
  0
LINE
  5
ACFC
330
AB8F
100
AcDbEntity
  8
4
  6
CENTER
100
AcDbLine
 10
31.01354000000001
 20
234.211668
 30
0.0
 11
31.01354000000001
 21
225.5451239999999
 31
0.0
  0
CIRCLE
  5
ACFD
330
AB8F
100
AcDbEntity
  8
4
  6
CENTER
100
AcDbCircle
 10
193.48262
 20
322.459796
 30
0.0
 40
26.5
  0
CIRCLE
  5
ACFE
330
AB8F
100
AcDbEntity
  8
1
  6
Continuous
100
AcDbCircle
 10
166.9826199999999
 20
322.459796
 30
0.0
 40
2.75
  0
CIRCLE
  5
ACFF
330
AB8F
100
AcDbEntity
  8
1
  6
Continuous
100
AcDbCircle
 10
206.73262
 20
299.510123
 30
0.0
 40
2.75
  0
CIRCLE
  5
AD00
330
AB8F
100
AcDbEntity
  8
1
  6
Continuous
100
AcDbCircle
 10
206.73262
 20
345.40947
 30
0.0
 40
2.75
  0
LINE
  5
AD01
330
AB8F
100
AcDbEntity
  8
4
  6
CENTER
100
AcDbLine
 10
203.85762
 20
340.429824
 30
0.0
 11
209.60762
 21
350.389116
 31
0.0
  0
LINE
  5
AD02
330
AB8F
100
AcDbEntity
  8
4
  6
CENTER
100
AcDbLine
 10
203.85762
 20
304.4897689999999
 30
0.0
 11
209.60762
 21
294.530477
 31
0.0
  0
ARC
  5
AD03
330
AB8F
100
AcDbEntity
  8
1
  6
Continuous
100
AcDbCircle
 10
166.9826199999999
 20
322.459796
 30
0.0
 40
6.0
100
AcDbArc
 50
151.4385279999999
 51
208.561472
  0
ARC
  5
AD04
330
AB8F
100
AcDbEntity
  8
1
  6
Continuous
100
AcDbCircle
 10
206.73262
 20
345.40947
 30
0.0
 40
6.0
100
AcDbArc
 50
31.43852800000001
 51
88.56147199999998
  0
ARC
  5
AD05
330
AB8F
100
AcDbEntity
  8
1
  6
Continuous
100
AcDbCircle
 10
206.73262
 20
299.510123
 30
0.0
 40
6.0
100
AcDbArc
 50
271.438528
 51
328.5614719999998
  0
ARC
  5
AD06
330
AB8F
100
AcDbEntity
  8
1
  6
Continuous
100
AcDbCircle
 10
205.628026
 20
301.4233369999999
 30
0.0
 40
50.0
100
AcDbArc
 50
88.56147199999998
 51
151.4385279999999
  0
ARC
  5
AD07
330
AB8F
100
AcDbEntity
  8
1
  6
Continuous
100
AcDbCircle
 10
169.191809
 20
322.459796
 30
0.0
 40
50.0
100
AcDbArc
 50
328.5614719999998
 51
31.43852800000001
  0
ARC
  5
AD08
330
AB8F
100
AcDbEntity
  8
1
  6
Continuous
100
AcDbCircle
 10
205.628026
 20
343.496256
 30
0.0
 40
50.0
100
AcDbArc
 50
208.561472
 51
271.438528
  0
LINE
  5
AD09
330
AB8F
100
AcDbEntity
  8
1
  6
Continuous
100
AcDbLine
 10
160.98262
 20
231.2116679999999
 30
0.0
 11
160.98262
 21
228.9116679999999
 31
0.0
  0
LINE
  5
AD0A
330
AB8F
100
AcDbEntity
  8
1
  6
Continuous
100
AcDbLine
 10
219.1918089999998
 20
231.2116679999999
 30
0.0
 11
219.1918089999998
 21
228.9116679999999
 31
0.0
  0
LINE
  5
AD0B
330
AB8F
100
AcDbEntity
  8
1
  6
Continuous
100
AcDbLine
 10
82.927081
 20
231.2116679999999
 30
0.0
 11
82.927081
 21
228.9116679999999
 31
0.0
  0
LINE
  5
AD0C
330
AB8F
100
AcDbEntity
  8
1
  6
Continuous
100
AcDbLine
 10
25.0
 20
231.2116679999999
 30
0.0
 11
25.0
 21
228.9116679999999
 31
0.0
  0
LINE
  5
AD0D
330
AB8F
100
AcDbEntity
  8
4
  6
CENTER
100
AcDbLine
 10
172.48262
 20
303.059796
 30
0.0
 11
172.48262
 21
341.859796
 31
0.0
  0
LINE
  5
AD0E
330
AB8F
100
AcDbEntity
  8
4
  6
CENTER
100
AcDbLine
 10
230.977325
 20
69.96354000000001
 30
0.0
 11
136.077767
 21
69.96354000000001
 31
0.0
  0
ARC
  5
AD0F
330
AB8F
100
AcDbEntity
  8
1
  6
Continuous
100
AcDbCircle
 10
155.7277669999998
 20
69.96354000000001
 30
0.0
 40
14.65
100
AcDbArc
 50
90.0
 51
270.0
  0
LINE
  5
AD10
330
AB8F
100
AcDbEntity
  8
4
  6
CENTER
100
AcDbLine
 10
172.48262
 20
89.36353999999999
 30
0.0
 11
172.48262
 21
50.56354
 31
0.0
  0
ARC
  5
AD11
330
AB8F
100
AcDbEntity
  8
1
  6
Continuous
100
AcDbCircle
 10
205.628026
 20
48.927081
 30
0.0
 40
50.0
100
AcDbArc
 50
88.56147199999998
 51
131.958068
  0
ARC
  5
AD12
330
AB8F
100
AcDbEntity
  8
1
  6
Continuous
100
AcDbCircle
 10
169.191809
 20
69.96354000000001
 30
0.0
 40
50.0
100
AcDbArc
 50
328.5614719999998
 51
31.43852800000001
  0
CIRCLE
  5
AD13
330
AB8F
100
AcDbEntity
  8
4
  6
CENTER
100
AcDbCircle
 10
193.48262
 20
69.96354000000001
 30
0.0
 40
26.5
  0
LINE
  5
AD14
330
AB8F
100
AcDbEntity
  8
4
  6
CENTER
100
AcDbLine
 10
193.48262
 20
102.8265339999999
 30
0.0
 11
193.48262
 21
37.095123
 31
0.0
  0
ARC
  5
AD15
330
AB8F
100
AcDbEntity
  8
1
  6
Continuous
100
AcDbCircle
 10
206.73262
 20
92.91321399999999
 30
0.0
 40
6.0
100
AcDbArc
 50
31.43852800000001
 51
88.56147199999998
  0
LINE
  5
AD16
330
AB8F
100
AcDbEntity
  8
4
  6
CENTER
100
AcDbLine
 10
203.85762
 20
87.93356799999997
 30
0.0
 11
209.60762
 21
97.89286000000002
 31
0.0
  0
CIRCLE
  5
AD17
330
AB8F
100
AcDbEntity
  8
1
  6
Continuous
100
AcDbCircle
 10
206.73262
 20
92.91321399999999
 30
0.0
 40
2.75
  0
ARC
  5
AD18
330
AB8F
100
AcDbEntity
  8
1
  6
Continuous
100
AcDbCircle
 10
205.628026
 20
91.0
 30
0.0
 40
50.0
100
AcDbArc
 50
228.906796
 51
271.438528
  0
ARC
  5
AD19
330
AB8F
100
AcDbEntity
  8
1
  6
Continuous
100
AcDbCircle
 10
206.73262
 20
47.01386699999999
 30
0.0
 40
6.0
100
AcDbArc
 50
271.438528
 51
328.5614719999998
  0
LINE
  5
AD1A
330
AB8F
100
AcDbEntity
  8
4
  6
CENTER
100
AcDbLine
 10
203.85762
 20
51.993513
 30
0.0
 11
209.60762
 21
42.034221
 31
0.0
  0
LINE
  5
AD1B
330
AB8F
100
AcDbEntity
  8
1
  6
Continuous
100
AcDbLine
 10
189.0542129999998
 20
84.61354
 30
0.0
 11
155.7277669999998
 21
84.61354
 31
0.0
  0
LINE
  5
AD1C
330
AB8F
100
AcDbEntity
  8
1
  6
Continuous
100
AcDbLine
 10
189.0542129999998
 20
55.31354
 30
0.0
 11
155.7277669999998
 21
55.31354
 31
0.0
  0
CIRCLE
  5
AD1D
330
AB8F
100
AcDbEntity
  8
1
  6
Continuous
100
AcDbCircle
 10
206.73262
 20
47.01386699999999
 30
0.0
 40
2.75
  0
LINE
  5
AD1E
330
AB8F
100
AcDbEntity
  8
4
  6
CENTER
100
AcDbLine
 10
313.0915519999998
 20
236.211668
 30
0.0
 11
313.0915519999998
 21
156.211668
 31
0.0
  0
LINE
  5
AD1F
330
AB8F
100
AcDbEntity
  8
1
  6
Continuous
100
AcDbLine
 10
332.291552
 20
219.2375549999999
 30
0.0
 11
332.291552
 21
209.427011
 31
0.0
  0
LINE
  5
AD20
330
AB8F
100
AcDbEntity
  8
1
  6
Continuous
100
AcDbLine
 10
293.891552
 20
219.2375549999999
 30
0.0
 11
293.891552
 21
209.427011
 31
0.0
  0
LINE
  5
AD21
330
AB8F
100
AcDbEntity
  8
1
  6
Continuous
100
AcDbLine
 10
305.0915519999999
 20
209.023056
 30
0.0
 11
305.0915519999999
 21
163.40028
 31
0.0
  0
LINE
  5
AD22
330
AB8F
100
AcDbEntity
  8
1
  6
Continuous
100
AcDbLine
 10
321.0915519999999
 20
209.023056
 30
0.0
 11
321.0915519999999
 21
163.40028
 31
0.0
  0
ARC
  5
AD23
330
AB8F
100
AcDbEntity
  8
1
  6
Continuous
100
AcDbCircle
 10
313.0915519999998
 20
179.211668
 30
0.0
 40
18.0
100
AcDbArc
 50
244.623066
 51
295.376934
  0
ARC
  5
AD24
330
AB8F
100
AcDbEntity
  8
1
  6
Continuous
100
AcDbCircle
 10
320.591552
 20
163.40028
 30
0.0
 40
0.5
100
AcDbArc
 50
295.376934
 51
0.0
  0
ARC
  5
AD25
330
AB8F
100
AcDbEntity
  8
1
  6
Continuous
100
AcDbCircle
 10
305.5915519999999
 20
163.40028
 30
0.0
 40
0.5
100
AcDbArc
 50
180.0
 51
244.623066
  0
LINE
  5
AD26
330
AB8F
100
AcDbEntity
  8
4
  6
CENTER
100
AcDbLine
 10
293.941552
 20
186.2116679999998
 30
0.0
 11
332.741552
 21
186.2116679999998
 31
0.0
  0
ARC
  5
AD27
330
AB8F
100
AcDbEntity
  8
1
  6
Continuous
100
AcDbCircle
 10
313.0915519999998
 20
199.7614159999999
 30
0.0
 40
15.611482
100
AcDbArc
 50
320.2341589999999
 51
324.125354
  0
LINE
  5
AD28
330
AB8F
100
AcDbEntity
  8
1
  6
Continuous
100
AcDbLine
 10
327.741552
 20
203.2989539999999
 30
0.0
 11
327.741552
 21
178.0112849999999
 31
0.0
  0
LINE
  5
AD29
330
AB8F
100
AcDbEntity
  8
1
  6
Continuous
100
AcDbLine
 10
324.2652
 20
180.0659599999999
 30
0.0
 11
321.0915519999999
 21
179.5063599999998
 31
0.0
  0
ARC
  5
AD2A
330
AB8F
100
AcDbEntity
  8
1
  6
Continuous
100
AcDbCircle
 10
324.0915519999999
 20
181.050768
 30
0.0
 40
1.0
100
AcDbArc
 50
280.0
 51
0.0
  0
LINE
  5
AD2B
330
AB8F
100
AcDbEntity
  8
1
  6
Continuous
100
AcDbLine
 10
325.0915519999999
 20
191.3725679999998
 30
0.0
 11
325.0915519999999
 21
181.050768
 31
0.0
  0
LINE
  5
AD2C
330
AB8F
100
AcDbEntity
  8
1
  6
Continuous
100
AcDbLine
 10
325.0915519999999
 20
183.211668
 30
0.0
 11
325.741552
 21
183.211668
 31
0.0
  0
LINE
  5
AD2D
330
AB8F
100
AcDbEntity
  8
1
  6
Continuous
100
AcDbLine
 10
325.0915519999999
 20
189.2116679999998
 30
0.0
 11
325.741552
 21
189.2116679999998
 31
0.0
  0
LINE
  5
AD2E
330
AB8F
100
AcDbEntity
  8
1
  6
Continuous
100
AcDbLine
 10
328.674868
 20
190.461668
 30
0.0
 11
328.674868
 21
181.961668
 31
0.0
  0
ARC
  5
AD2F
330
AB8F
100
AcDbEntity
  8
1
  6
Continuous
100
AcDbCircle
 10
320.741552
 20
186.2116679999998
 30
0.0
 40
9.0
100
AcDbArc
 50
331.8213569999999
 51
28.178643
  0
LINE
  5
AD30
330
AB8F
100
AcDbEntity
  8
1
  6
Continuous
100
AcDbLine
 10
327.741552
 20
190.461668
 30
0.0
 11
328.674868
 21
190.461668
 31
0.0
  0
LINE
  5
AD31
330
AB8F
100
AcDbEntity
  8
1
  6
Continuous
100
AcDbLine
 10
327.741552
 20
181.961668
 30
0.0
 11
328.674868
 21
181.961668
 31
0.0
  0
LINE
  5
AD32
330
AB8F
100
AcDbEntity
  8
1
  6
Continuous
100
AcDbLine
 10
327.741552
 20
178.0112849999999
 30
0.0
 11
325.741552
 21
178.0112849999999
 31
0.0
  0
LINE
  5
AD33
330
AB8F
100
AcDbEntity
  8
1
  6
Continuous
100
AcDbLine
 10
325.741552
 20
211.731224
 30
0.0
 11
325.741552
 21
178.0112849999999
 31
0.0
  0
LINE
  5
AD34
330
AB8F
100
AcDbEntity
  8
1
  6
Continuous
100
AcDbLine
 10
298.441552
 20
203.2989539999999
 30
0.0
 11
298.441552
 21
178.0112849999999
 31
0.0
  0
ARC
  5
AD35
330
AB8F
100
AcDbEntity
  8
1
  6
Continuous
100
AcDbCircle
 10
302.0915519999999
 20
181.050768
 30
0.0
 40
1.0
100
AcDbArc
 50
180.0
 51
260.0
  0
LINE
  5
AD36
330
AB8F
100
AcDbEntity
  8
1
  6
Continuous
100
AcDbLine
 10
301.917904
 20
180.0659599999999
 30
0.0
 11
305.0915519999999
 21
179.5063599999998
 31
0.0
  0
LINE
  5
AD37
330
AB8F
100
AcDbEntity
  8
1
  6
Continuous
100
AcDbLine
 10
301.0915519999999
 20
191.3725679999998
 30
0.0
 11
301.0915519999999
 21
181.050768
 31
0.0
  0
LINE
  5
AD38
330
AB8F
100
AcDbEntity
  8
1
  6
Continuous
100
AcDbLine
 10
300.441552
 20
183.211668
 30
0.0
 11
301.0915519999999
 21
183.211668
 31
0.0
  0
LINE
  5
AD39
330
AB8F
100
AcDbEntity
  8
1
  6
Continuous
100
AcDbLine
 10
300.441552
 20
189.2116679999998
 30
0.0
 11
301.0915519999999
 21
189.2116679999998
 31
0.0
  0
LINE
  5
AD3A
330
AB8F
100
AcDbEntity
  8
1
  6
Continuous
100
AcDbLine
 10
297.9415519999998
 20
190.2116679999998
 30
0.0
 11
297.9415519999998
 21
182.211668
 31
0.0
  0
ARC
  5
AD3B
330
AB8F
100
AcDbEntity
  8
1
  6
Continuous
100
AcDbCircle
 10
305.441552
 20
186.2116679999998
 30
0.0
 40
8.5
100
AcDbArc
 50
151.9275129999998
 51
208.072487
  0
LINE
  5
AD3C
330
AB8F
100
AcDbEntity
  8
1
  6
Continuous
100
AcDbLine
 10
298.441552
 20
182.211668
 30
0.0
 11
297.9415519999998
 21
182.211668
 31
0.0
  0
LINE
  5
AD3D
330
AB8F
100
AcDbEntity
  8
1
  6
Continuous
100
AcDbLine
 10
298.441552
 20
190.2116679999998
 30
0.0
 11
297.9415519999998
 21
190.2116679999998
 31
0.0
  0
LINE
  5
AD3E
330
AB8F
100
AcDbEntity
  8
1
  6
Continuous
100
AcDbLine
 10
298.441552
 20
178.0112849999999
 30
0.0
 11
300.441552
 21
178.0112849999999
 31
0.0
  0
LINE
  5
AD3F
330
AB8F
100
AcDbEntity
  8
1
  6
Continuous
100
AcDbLine
 10
300.441552
 20
211.731224
 30
0.0
 11
300.441552
 21
178.0112849999999
 31
0.0
  0
LINE
  5
AD40
330
AB8F
100
AcDbEntity
  8
1
  6
Continuous
100
AcDbLine
 10
284.128012
 20
228.9116679999999
 30
0.0
 11
342.055093
 21
228.9116679999999
 31
0.0
  0
LINE
  5
AD41
330
AB8F
100
AcDbEntity
  8
1
  6
Continuous
100
AcDbLine
 10
284.128012
 20
231.2116679999999
 30
0.0
 11
342.055093
 21
231.2116679999999
 31
0.0
  0
LINE
  5
AD42
330
AB8F
100
AcDbEntity
  8
1
  6
Continuous
100
AcDbLine
 10
342.055093
 20
231.2116679999999
 30
0.0
 11
342.055093
 21
228.9116679999999
 31
0.0
  0
LINE
  5
AD43
330
AB8F
100
AcDbEntity
  8
1
  6
Continuous
100
AcDbLine
 10
308.0940969999999
 20
222.4375549999999
 30
0.0
 11
306.020484
 21
224.511168
 31
0.0
  0
LINE
  5
AD44
330
AB8F
100
AcDbEntity
  8
1
  6
Continuous
100
AcDbLine
 10
309.50831
 20
222.4375549999999
 30
0.0
 11
307.434698
 21
224.511168
 31
0.0
  0
LINE
  5
AD45
330
AB8F
100
AcDbEntity
  8
1
  6
Continuous
100
AcDbLine
 10
306.775299
 20
222.4375549999999
 30
0.0
 11
308.8489109999998
 21
224.511168
 31
0.0
  0
LINE
  5
AD46
330
AB8F
100
AcDbEntity
  8
1
  6
Continuous
100
AcDbLine
 10
331.293152
 20
226.0748149999999
 30
0.0
 11
294.8899519999999
 21
226.0748149999999
 31
0.0
  0
LINE
  5
AD47
330
AB8F
100
AcDbEntity
  8
1
  6
Continuous
100
AcDbLine
 10
296.5828759999999
 20
226.6039849999999
 30
0.0
 11
329.6002279999999
 21
226.6039849999999
 31
0.0
  0
LINE
  5
AD48
330
AB8F
100
AcDbEntity
  8
1
  6
Continuous
100
AcDbLine
 10
333.9608140000001
 20
228.5449649999999
 30
0.0
 11
292.2222909999998
 21
228.5449649999999
 31
0.0
  0
LINE
  5
AD49
330
AB8F
100
AcDbEntity
  8
1
  6
Continuous
100
AcDbLine
 10
330.767378
 20
226.842893
 30
0.0
 11
295.4157259999998
 21
226.842893
 31
0.0
  0
LINE
  5
AD4A
330
AB8F
100
AcDbEntity
  8
1
  6
Continuous
100
AcDbLine
 10
331.5915519999999
 20
224.511168
 30
0.0
 11
294.5915519999999
 21
224.511168
 31
0.0
  0
LINE
  5
AD4B
330
AB8F
100
AcDbEntity
  8
1
  6
Continuous
100
AcDbLine
 10
322.0395129999999
 20
231.2116679999999
 30
0.0
 11
304.143592
 21
231.2116679999999
 31
0.0
  0
LINE
  5
AD4C
330
AB8F
100
AcDbEntity
  8
1
  6
Continuous
100
AcDbLine
 10
294.5915519999999
 20
222.4375549999999
 30
0.0
 11
331.5915519999999
 21
222.4375549999999
 31
0.0
  0
LINE
  5
AD4D
330
AB8F
100
AcDbEntity
  8
1
  6
Continuous
100
AcDbLine
 10
325.06466
 20
222.4375549999999
 30
0.0
 11
322.991047
 21
224.511168
 31
0.0
  0
LINE
  5
AD4E
330
AB8F
100
AcDbEntity
  8
1
  6
Continuous
100
AcDbLine
 10
323.7458619999998
 20
222.4375549999999
 30
0.0
 11
325.819474
 21
224.511168
 31
0.0
  0
LINE
  5
AD4F
330
AB8F
100
AcDbEntity
  8
1
  6
Continuous
100
AcDbLine
 10
322.3316479999998
 20
222.4375549999999
 30
0.0
 11
324.405261
 21
224.511168
 31
0.0
  0
LINE
  5
AD50
330
AB8F
100
AcDbEntity
  8
4
  6
CENTER
100
AcDbLine
 10
336.041552
 20
234.211668
 30
0.0
 11
336.041552
 21
225.5451239999999
 31
0.0
  0
LINE
  5
AD51
330
AB8F
100
AcDbEntity
  8
1
  6
Continuous
100
AcDbLine
 10
331.5915519999999
 20
224.3959439999999
 30
0.0
 11
331.4763279999999
 21
224.511168
 31
0.0
  0
LINE
  5
AD52
330
AB8F
100
AcDbEntity
  8
1
  6
Continuous
100
AcDbLine
 10
331.5915519999999
 20
222.9817299999999
 30
0.0
 11
330.062115
 21
224.511168
 31
0.0
  0
LINE
  5
AD53
330
AB8F
100
AcDbEntity
  8
1
  6
Continuous
100
AcDbLine
 10
330.721514
 20
222.4375549999999
 30
0.0
 11
328.6479009999998
 21
224.511168
 31
0.0
  0
LINE
  5
AD54
330
AB8F
100
AcDbEntity
  8
1
  6
Continuous
100
AcDbLine
 10
329.3073
 20
222.4375549999999
 30
0.0
 11
327.2336879999999
 21
224.511168
 31
0.0
  0
LINE
  5
AD55
330
AB8F
100
AcDbEntity
  8
1
  6
Continuous
100
AcDbLine
 10
327.8930869999999
 20
222.4375549999999
 30
0.0
 11
325.819474
 21
224.511168
 31
0.0
  0
LINE
  5
AD56
330
AB8F
100
AcDbEntity
  8
1
  6
Continuous
100
AcDbLine
 10
326.478873
 20
222.4375549999999
 30
0.0
 11
324.405261
 21
224.511168
 31
0.0
  0
LINE
  5
AD57
330
AB8F
100
AcDbEntity
  8
1
  6
Continuous
100
AcDbLine
 10
331.5915519999999
 20
223.2121779999999
 30
0.0
 11
330.816929
 21
222.4375549999999
 31
0.0
  0
LINE
  5
AD58
330
AB8F
100
AcDbEntity
  8
1
  6
Continuous
100
AcDbLine
 10
329.402716
 20
222.4375549999999
 30
0.0
 11
331.4763279999999
 21
224.511168
 31
0.0
  0
LINE
  5
AD59
330
AB8F
100
AcDbEntity
  8
1
  6
Continuous
100
AcDbLine
 10
327.988502
 20
222.4375549999999
 30
0.0
 11
330.062115
 21
224.511168
 31
0.0
  0
LINE
  5
AD5A
330
AB8F
100
AcDbEntity
  8
1
  6
Continuous
100
AcDbLine
 10
326.574289
 20
222.4375549999999
 30
0.0
 11
328.6479009999998
 21
224.511168
 31
0.0
  0
LINE
  5
AD5B
330
AB8F
100
AcDbEntity
  8
1
  6
Continuous
100
AcDbLine
 10
325.160075
 20
222.4375549999999
 30
0.0
 11
327.2336879999999
 21
224.511168
 31
0.0
  0
ARC
  5
AD5C
330
AB8F
100
AcDbEntity
  8
1
  6
Continuous
100
AcDbCircle
 10
444.3309689999998
 20
105.5537069999999
 30
0.0
 40
165.252597
100
AcDbArc
 50
131.9042349999998
 51
132.171579
  0
LINE
  5
AD5D
330
AB8F
100
AcDbEntity
  8
1
  6
Continuous
100
AcDbLine
 10
333.9608140000001
 20
228.5449649999999
 30
0.0
 11
333.954969
 21
228.779711
 31
0.0
  0
ARC
  5
AD5E
330
AB8F
100
AcDbEntity
  8
1
  6
Continuous
100
AcDbCircle
 10
329.7705049999998
 20
232.0223089999998
 30
0.0
 40
5.388568
100
AcDbArc
 50
293.6985089999998
 51
312.171579
  0
ARC
  5
AD5F
330
AB8F
100
AcDbEntity
  8
1
  6
Continuous
100
AcDbCircle
 10
330.767378
 20
229.7512069999999
 30
0.0
 40
2.908313999999998
100
AcDbArc
 50
270.0
 51
293.6985089999998
  0
ARC
  5
AD60
330
AB8F
100
AcDbEntity
  8
1
  6
Continuous
100
AcDbCircle
 10
329.708595
 20
226.8568299999998
 30
0.0
 40
0.251083
100
AcDbArc
 50
223.500695
 51
270.9147219999999
  0
ARC
  5
AD61
330
AB8F
100
AcDbEntity
  8
1
  6
Continuous
100
AcDbCircle
 10
326.794764
 20
224.091641
 30
0.0
 40
3.765966
100
AcDbArc
 50
43.500695
 51
46.93308799999999
  0
ARC
  5
AD62
330
AB8F
100
AcDbEntity
  8
1
  6
Continuous
100
AcDbCircle
 10
330.9849879999998
 20
225.935824
 30
0.0
 40
0.338058
100
AcDbArc
 50
343.385468
 51
56.940309
  0
ARC
  5
AD63
330
AB8F
100
AcDbEntity
  8
1
  6
Continuous
100
AcDbCircle
 10
328.44542
 20
222.0341369999999
 30
0.0
 40
4.993438999999998
100
AcDbArc
 50
56.940309
 51
60.900618
  0
ARC
  5
AD64
330
AB8F
100
AcDbEntity
  8
1
  6
Continuous
100
AcDbCircle
 10
330.050609
 20
224.918165
 30
0.0
 40
1.692795999999999
100
AcDbArc
 50
60.900618
 51
90.914722
  0
ARC
  5
AD65
330
AB8F
100
AcDbEntity
  8
1
  6
Continuous
100
AcDbCircle
 10
330.527286
 20
225.2308429999999
 30
0.0
 40
0.719675
100
AcDbArc
 50
270.0
 51
293.1342879999999
  0
ARC
  5
AD66
330
AB8F
100
AcDbEntity
  8
1
  6
Continuous
100
AcDbCircle
 10
330.421977
 20
225.2919159999999
 30
0.0
 40
0.69345
100
AcDbArc
 50
318.343544
 51
343.385468
  0
LINE
  5
AD67
330
AB8F
100
AcDbEntity
  8
1
  6
Continuous
100
AcDbLine
 10
330.8100379999999
 20
224.569039
 30
0.0
 11
330.940084
 21
224.831006
 31
0.0
  0
LINE
  5
AD68
330
AB8F
100
AcDbEntity
  8
1
  6
Continuous
100
AcDbLine
 10
331.086476
 20
225.093637
 30
0.0
 11
331.308933
 21
225.8391629999999
 31
0.0
  0
LINE
  5
AD69
330
AB8F
100
AcDbEntity
  8
1
  6
Continuous
100
AcDbLine
 10
330.023585
 20
226.6107439999999
 30
0.0
 11
329.6002279999999
 21
226.6039849999999
 31
0.0
  0
LINE
  5
AD6A
330
AB8F
100
AcDbEntity
  8
1
  6
Continuous
100
AcDbLine
 10
331.5915519999999
 20
224.511168
 30
0.0
 11
331.5915519999999
 21
222.4375549999999
 31
0.0
  0
ARC
  5
AD6B
330
AB8F
100
AcDbEntity
  8
1
  6
Continuous
100
AcDbCircle
 10
329.0915519999999
 20
219.2375549999999
 30
0.0
 40
3.2
100
AcDbArc
 50
0.0
 51
90.0
  0
LINE
  5
AD6C
330
AB8F
100
AcDbEntity
  8
1
  6
Continuous
100
AcDbLine
 10
323.6504459999999
 20
222.4375549999999
 30
0.0
 11
321.5768339999999
 21
224.511168
 31
0.0
  0
LINE
  5
AD6D
330
AB8F
100
AcDbEntity
  8
1
  6
Continuous
100
AcDbLine
 10
322.2362330000001
 20
222.4375549999999
 30
0.0
 11
320.16262
 21
224.511168
 31
0.0
  0
LINE
  5
AD6E
330
AB8F
100
AcDbEntity
  8
1
  6
Continuous
100
AcDbLine
 10
320.822019
 20
222.4375549999999
 30
0.0
 11
318.748406
 21
224.511168
 31
0.0
  0
LINE
  5
AD6F
330
AB8F
100
AcDbEntity
  8
1
  6
Continuous
100
AcDbLine
 10
319.4078049999999
 20
222.4375549999999
 30
0.0
 11
317.334193
 21
224.511168
 31
0.0
  0
LINE
  5
AD70
330
AB8F
100
AcDbEntity
  8
1
  6
Continuous
100
AcDbLine
 10
317.9935919999999
 20
222.4375549999999
 30
0.0
 11
315.919979
 21
224.511168
 31
0.0
  0
LINE
  5
AD71
330
AB8F
100
AcDbEntity
  8
1
  6
Continuous
100
AcDbLine
 10
316.5793779999999
 20
222.4375549999999
 30
0.0
 11
314.5057659999999
 21
224.511168
 31
0.0
  0
LINE
  5
AD72
330
AB8F
100
AcDbEntity
  8
1
  6
Continuous
100
AcDbLine
 10
310.922524
 20
222.4375549999999
 30
0.0
 11
308.8489109999998
 21
224.511168
 31
0.0
  0
LINE
  5
AD73
330
AB8F
100
AcDbEntity
  8
1
  6
Continuous
100
AcDbLine
 10
312.3367379999999
 20
222.4375549999999
 30
0.0
 11
310.2631249999999
 21
224.511168
 31
0.0
  0
LINE
  5
AD74
330
AB8F
100
AcDbEntity
  8
1
  6
Continuous
100
AcDbLine
 10
313.750951
 20
222.4375549999999
 30
0.0
 11
311.677339
 21
224.511168
 31
0.0
  0
LINE
  5
AD75
330
AB8F
100
AcDbEntity
  8
1
  6
Continuous
100
AcDbLine
 10
315.165165
 20
222.4375549999999
 30
0.0
 11
313.0915519999998
 21
224.511168
 31
0.0
  0
LINE
  5
AD76
330
AB8F
100
AcDbEntity
  8
1
  6
Continuous
100
AcDbLine
 10
308.1895119999999
 20
222.4375549999999
 30
0.0
 11
310.2631249999999
 21
224.511168
 31
0.0
  0
LINE
  5
AD77
330
AB8F
100
AcDbEntity
  8
1
  6
Continuous
100
AcDbLine
 10
309.603726
 20
222.4375549999999
 30
0.0
 11
311.677339
 21
224.511168
 31
0.0
  0
LINE
  5
AD78
330
AB8F
100
AcDbEntity
  8
1
  6
Continuous
100
AcDbLine
 10
320.917435
 20
222.4375549999999
 30
0.0
 11
322.991047
 21
224.511168
 31
0.0
  0
LINE
  5
AD79
330
AB8F
100
AcDbEntity
  8
1
  6
Continuous
100
AcDbLine
 10
319.5032209999999
 20
222.4375549999999
 30
0.0
 11
321.5768339999999
 21
224.511168
 31
0.0
  0
LINE
  5
AD7A
330
AB8F
100
AcDbEntity
  8
1
  6
Continuous
100
AcDbLine
 10
318.0890069999999
 20
222.4375549999999
 30
0.0
 11
320.16262
 21
224.511168
 31
0.0
  0
LINE
  5
AD7B
330
AB8F
100
AcDbEntity
  8
1
  6
Continuous
100
AcDbLine
 10
316.674794
 20
222.4375549999999
 30
0.0
 11
318.748406
 21
224.511168
 31
0.0
  0
LINE
  5
AD7C
330
AB8F
100
AcDbEntity
  8
1
  6
Continuous
100
AcDbLine
 10
315.2605799999999
 20
222.4375549999999
 30
0.0
 11
317.334193
 21
224.511168
 31
0.0
  0
LINE
  5
AD7D
330
AB8F
100
AcDbEntity
  8
1
  6
Continuous
100
AcDbLine
 10
313.846367
 20
222.4375549999999
 30
0.0
 11
315.919979
 21
224.511168
 31
0.0
  0
LINE
  5
AD7E
330
AB8F
100
AcDbEntity
  8
1
  6
Continuous
100
AcDbLine
 10
312.4321529999999
 20
222.4375549999999
 30
0.0
 11
314.5057659999999
 21
224.511168
 31
0.0
  0
LINE
  5
AD7F
330
AB8F
100
AcDbEntity
  8
1
  6
Continuous
100
AcDbLine
 10
311.01794
 20
222.4375549999999
 30
0.0
 11
313.0915519999998
 21
224.511168
 31
0.0
  0
LINE
  5
AD80
330
AB8F
100
AcDbEntity
  8
1
  6
Continuous
100
AcDbLine
 10
295.366175
 20
222.4375549999999
 30
0.0
 11
294.5915519999999
 21
223.2121779999999
 31
0.0
  0
LINE
  5
AD81
330
AB8F
100
AcDbEntity
  8
1
  6
Continuous
100
AcDbLine
 10
296.780388
 20
222.4375549999999
 30
0.0
 11
294.7067759999999
 21
224.511168
 31
0.0
  0
LINE
  5
AD82
330
AB8F
100
AcDbEntity
  8
1
  6
Continuous
100
AcDbLine
 10
298.1946019999999
 20
222.4375549999999
 30
0.0
 11
296.120989
 21
224.511168
 31
0.0
  0
LINE
  5
AD83
330
AB8F
100
AcDbEntity
  8
1
  6
Continuous
100
AcDbLine
 10
299.6088159999998
 20
222.4375549999999
 30
0.0
 11
297.5352029999999
 21
224.511168
 31
0.0
  0
LINE
  5
AD84
330
AB8F
100
AcDbEntity
  8
1
  6
Continuous
100
AcDbLine
 10
301.0230289999999
 20
222.4375549999999
 30
0.0
 11
298.949417
 21
224.511168
 31
0.0
  0
LINE
  5
AD85
330
AB8F
100
AcDbEntity
  8
1
  6
Continuous
100
AcDbLine
 10
302.437243
 20
222.4375549999999
 30
0.0
 11
300.36363
 21
224.511168
 31
0.0
  0
LINE
  5
AD86
330
AB8F
100
AcDbEntity
  8
1
  6
Continuous
100
AcDbLine
 10
303.8514559999999
 20
222.4375549999999
 30
0.0
 11
301.777844
 21
224.511168
 31
0.0
  0
LINE
  5
AD87
330
AB8F
100
AcDbEntity
  8
1
  6
Continuous
100
AcDbLine
 10
305.26567
 20
222.4375549999999
 30
0.0
 11
303.192057
 21
224.511168
 31
0.0
  0
LINE
  5
AD88
330
AB8F
100
AcDbEntity
  8
1
  6
Continuous
100
AcDbLine
 10
306.679883
 20
222.4375549999999
 30
0.0
 11
304.606271
 21
224.511168
 31
0.0
  0
LINE
  5
AD89
330
AB8F
100
AcDbEntity
  8
1
  6
Continuous
100
AcDbLine
 10
294.5915519999999
 20
224.3959439999999
 30
0.0
 11
294.7067759999999
 21
224.511168
 31
0.0
  0
LINE
  5
AD8A
330
AB8F
100
AcDbEntity
  8
1
  6
Continuous
100
AcDbLine
 10
294.5915519999999
 20
222.9817299999999
 30
0.0
 11
296.120989
 21
224.511168
 31
0.0
  0
LINE
  5
AD8B
330
AB8F
100
AcDbEntity
  8
1
  6
Continuous
100
AcDbLine
 10
295.4615899999998
 20
222.4375549999999
 30
0.0
 11
297.5352029999999
 21
224.511168
 31
0.0
  0
LINE
  5
AD8C
330
AB8F
100
AcDbEntity
  8
1
  6
Continuous
100
AcDbLine
 10
296.875804
 20
222.4375549999999
 30
0.0
 11
298.949417
 21
224.511168
 31
0.0
  0
LINE
  5
AD8D
330
AB8F
100
AcDbEntity
  8
1
  6
Continuous
100
AcDbLine
 10
298.2900179999999
 20
222.4375549999999
 30
0.0
 11
300.36363
 21
224.511168
 31
0.0
  0
LINE
  5
AD8E
330
AB8F
100
AcDbEntity
  8
1
  6
Continuous
100
AcDbLine
 10
299.7042309999999
 20
222.4375549999999
 30
0.0
 11
301.777844
 21
224.511168
 31
0.0
  0
LINE
  5
AD8F
330
AB8F
100
AcDbEntity
  8
1
  6
Continuous
100
AcDbLine
 10
301.118445
 20
222.4375549999999
 30
0.0
 11
303.192057
 21
224.511168
 31
0.0
  0
LINE
  5
AD90
330
AB8F
100
AcDbEntity
  8
1
  6
Continuous
100
AcDbLine
 10
302.5326580000001
 20
222.4375549999999
 30
0.0
 11
304.606271
 21
224.511168
 31
0.0
  0
LINE
  5
AD91
330
AB8F
100
AcDbEntity
  8
1
  6
Continuous
100
AcDbLine
 10
303.9468719999999
 20
222.4375549999999
 30
0.0
 11
306.020484
 21
224.511168
 31
0.0
  0
LINE
  5
AD92
330
AB8F
100
AcDbEntity
  8
1
  6
Continuous
100
AcDbLine
 10
305.361085
 20
222.4375549999999
 30
0.0
 11
307.434698
 21
224.511168
 31
0.0
  0
ARC
  5
AD93
330
AB8F
100
AcDbEntity
  8
1
  6
Continuous
100
AcDbCircle
 10
181.852136
 20
105.5537069999999
 30
0.0
 40
165.252597
100
AcDbArc
 50
47.82842099999999
 51
48.095765
  0
LINE
  5
AD94
330
AB8F
100
AcDbEntity
  8
1
  6
Continuous
100
AcDbLine
 10
292.2222909999998
 20
228.5449649999999
 30
0.0
 11
292.228135
 21
228.779711
 31
0.0
  0
ARC
  5
AD95
330
AB8F
100
AcDbEntity
  8
1
  6
Continuous
100
AcDbCircle
 10
296.4125999999998
 20
232.0223089999998
 30
0.0
 40
5.388568
100
AcDbArc
 50
227.8284209999998
 51
246.301491
  0
ARC
  5
AD96
330
AB8F
100
AcDbEntity
  8
1
  6
Continuous
100
AcDbCircle
 10
295.4157259999998
 20
229.7512069999999
 30
0.0
 40
2.908313999999998
100
AcDbArc
 50
246.301491
 51
270.0
  0
ARC
  5
AD97
330
AB8F
100
AcDbEntity
  8
1
  6
Continuous
100
AcDbCircle
 10
296.474509
 20
226.8568299999998
 30
0.0
 40
0.251083
100
AcDbArc
 50
269.0852779999999
 51
316.499305
  0
ARC
  5
AD98
330
AB8F
100
AcDbEntity
  8
1
  6
Continuous
100
AcDbCircle
 10
299.3883399999999
 20
224.091641
 30
0.0
 40
3.765966
100
AcDbArc
 50
133.0669129999998
 51
136.499305
  0
ARC
  5
AD99
330
AB8F
100
AcDbEntity
  8
1
  6
Continuous
100
AcDbCircle
 10
295.198116
 20
225.935824
 30
0.0
 40
0.338058
100
AcDbArc
 50
123.0596909999998
 51
196.614532
  0
ARC
  5
AD9A
330
AB8F
100
AcDbEntity
  8
1
  6
Continuous
100
AcDbCircle
 10
297.737684
 20
222.0341369999999
 30
0.0
 40
4.993438999999998
100
AcDbArc
 50
119.0993819999999
 51
123.0596909999998
  0
ARC
  5
AD9B
330
AB8F
100
AcDbEntity
  8
1
  6
Continuous
100
AcDbCircle
 10
296.132496
 20
224.918165
 30
0.0
 40
1.692795999999999
100
AcDbArc
 50
89.08527799999998
 51
119.0993819999999
  0
ARC
  5
AD9C
330
AB8F
100
AcDbEntity
  8
1
  6
Continuous
100
AcDbCircle
 10
295.655818
 20
225.2308429999999
 30
0.0
 40
0.719675
100
AcDbArc
 50
246.865712
 51
270.0
  0
ARC
  5
AD9D
330
AB8F
100
AcDbEntity
  8
1
  6
Continuous
100
AcDbCircle
 10
295.761127
 20
225.2919159999999
 30
0.0
 40
0.69345
100
AcDbArc
 50
196.614532
 51
221.656456
  0
LINE
  5
AD9E
330
AB8F
100
AcDbEntity
  8
1
  6
Continuous
100
AcDbLine
 10
295.373067
 20
224.569039
 30
0.0
 11
295.24302
 21
224.831006
 31
0.0
  0
LINE
  5
AD9F
330
AB8F
100
AcDbEntity
  8
1
  6
Continuous
100
AcDbLine
 10
295.0966279999999
 20
225.093637
 30
0.0
 11
294.8741720000001
 21
225.8391629999999
 31
0.0
  0
LINE
  5
ADA0
330
AB8F
100
AcDbEntity
  8
1
  6
Continuous
100
AcDbLine
 10
296.1595200000001
 20
226.6107439999999
 30
0.0
 11
296.5828759999999
 21
226.6039849999999
 31
0.0
  0
LINE
  5
ADA1
330
AB8F
100
AcDbEntity
  8
1
  6
Continuous
100
AcDbLine
 10
294.5915519999999
 20
224.511168
 30
0.0
 11
294.5915519999999
 21
222.4375549999999
 31
0.0
  0
ARC
  5
ADA2
330
AB8F
100
AcDbEntity
  8
1
  6
Continuous
100
AcDbCircle
 10
297.0915519999999
 20
219.2375549999999
 30
0.0
 40
3.2
100
AcDbArc
 50
90.0
 51
180.0
  0
LINE
  5
ADA3
330
AB8F
100
AcDbEntity
  8
1
  6
Continuous
100
AcDbLine
 10
284.128012
 20
231.2116679999999
 30
0.0
 11
284.128012
 21
228.9116679999999
 31
0.0
  0
LINE
  5
ADA4
330
AB8F
100
AcDbEntity
  8
4
  6
CENTER
100
AcDbLine
 10
290.141552
 20
234.211668
 30
0.0
 11
290.141552
 21
224.982527
 31
0.0
  0
LINE
  5
ADA5
330
AB8F
100
AcDbEntity
  8
4
  6
CENTER
100
AcDbLine
 10
423.7004839999998
 20
186.2116679999998
 30
0.0
 11
483.7004839999998
 21
186.2116679999998
 31
0.0
  0
ARC
  5
ADA6
330
AB8F
100
AcDbEntity
  8
1
  6
Continuous
100
AcDbCircle
 10
453.7004839999998
 20
186.2116679999998
 30
0.0
 40
23.12451499999999
100
AcDbArc
 50
121.5508929999999
 51
9.761692
  0
ARC
  5
ADA7
330
AB8F
100
AcDbEntity
  8
1
  6
Continuous
100
AcDbCircle
 10
453.7004839999998
 20
186.2116679999998
 30
0.0
 40
25.0
100
AcDbArc
 50
123.6427739999998
 51
3.263593
  0
ARC
  5
ADA8
330
AB8F
100
AcDbEntity
  8
1
  6
Continuous
100
AcDbCircle
 10
484.1375229999998
 20
125.9680179999999
 30
0.0
 40
65.946387
100
AcDbArc
 50
99.65860300000002
 51
101.537946
  0
ARC
  5
ADA9
330
AB8F
100
AcDbEntity
  8
1
  6
Continuous
100
AcDbCircle
 10
444.445419
 20
165.93435
 30
0.0
 40
53.25483000000001
100
AcDbArc
 50
57.90797399999998
 51
68.988863
  0
ARC
  5
ADAA
330
AB8F
100
AcDbEntity
  8
1
  6
Continuous
100
AcDbCircle
 10
450.560363
 20
188.4723129999999
 30
0.0
 40
34.319889
100
AcDbArc
 50
10.07373899999999
 51
16.599246
  0
ARC
  5
ADAB
330
AB8F
100
AcDbEntity
  8
1
  6
Continuous
100
AcDbCircle
 10
457.1190529999998
 20
155.5081509999999
 30
0.0
 40
40.0
100
AcDbArc
 50
45.77497
 51
62.85259599999999
  0
ARC
  5
ADAC
330
AB8F
100
AcDbEntity
  8
1
  6
Continuous
100
AcDbCircle
 10
474.8191659999998
 20
180.7208239999999
 30
0.0
 40
10.406298
100
AcDbArc
 50
87.09693900000003
 51
99.65860300000002
  0
ARC
  5
ADAD
330
AB8F
100
AcDbEntity
  8
1
  6
Continuous
100
AcDbCircle
 10
488.361307
 20
198.0104879999999
 30
0.0
 40
14.204549
100
AcDbArc
 50
216.178591
 51
232.434054
  0
ARC
  5
ADAE
330
AB8F
100
AcDbEntity
  8
1
  6
Continuous
100
AcDbCircle
 10
470.8284389999998
 20
185.188426
 30
0.0
 40
7.516563999999998
100
AcDbArc
 50
36.17859099999999
 51
47.383602
  0
ARC
  5
ADAF
330
AB8F
100
AcDbEntity
  8
1
  6
Continuous
100
AcDbCircle
 10
474.238925
 20
188.895172
 30
0.0
 40
2.479563999999998
100
AcDbArc
 50
47.383602
 51
63.476619
  0
ARC
  5
ADB0
330
AB8F
100
AcDbEntity
  8
1
  6
Continuous
100
AcDbCircle
 10
496.044829
 20
205.819454
 30
0.0
 40
25.078787
100
AcDbArc
 50
232.434054
 51
236.9116539999998
  0
LINE
  5
ADB1
330
AB8F
100
AcDbEntity
  8
1
  6
Continuous
100
AcDbLine
 10
480.754941
 20
185.9407
 30
0.0
 11
479.701161
 21
186.7512219999999
 31
0.0
  0
ARC
  5
ADB2
330
AB8F
100
AcDbEntity
  8
1
  6
Continuous
100
AcDbCircle
 10
499.9258779999998
 20
206.7973859999999
 30
0.0
 40
28.131301
100
AcDbArc
 50
232.091516
 51
233.3893629999999
  0
ARC
  5
ADB3
330
AB8F
100
AcDbEntity
  8
1
  6
Continuous
100
AcDbCircle
 10
480.0538839999998
 20
181.278483
 30
0.0
 40
4.212330999999998
100
AcDbArc
 50
52.091516
 51
56.911654
  0
ARC
  5
ADB4
330
AB8F
100
AcDbEntity
  8
1
  6
Continuous
100
AcDbCircle
 10
483.2349569999998
 20
184.264197
 30
0.0
 40
0.098359
100
AcDbArc
 50
184.7716749999999
 51
240.56074
  0
ARC
  5
ADB5
330
AB8F
100
AcDbEntity
  8
1
  6
Continuous
100
AcDbCircle
 10
483.2205059999998
 20
183.832437
 30
0.0
 40
0.347757
100
AcDbArc
 50
80.199698
 51
95.59291200000002
  0
ARC
  5
ADB6
330
AB8F
100
AcDbEntity
  8
1
  6
Continuous
100
AcDbCircle
 10
483.4558839999998
 20
185.195088
 30
0.0
 40
1.035074
100
AcDbArc
 50
260.199698
 51
281.052858
  0
LINE
  5
ADB7
330
AB8F
100
AcDbEntity
  8
1
  6
Continuous
100
AcDbLine
 10
483.6939809999998
 20
184.186961
 30
0.0
 11
483.654322
 21
184.179214
 31
0.0
  0
LINE
  5
ADB8
330
AB8F
100
AcDbEntity
  8
1
  6
Continuous
100
AcDbLine
 10
483.865578
 20
184.149934
 30
0.0
 11
483.6939809999998
 21
184.186961
 31
0.0
  0
ARC
  5
ADB9
330
AB8F
100
AcDbEntity
  8
1
  6
Continuous
100
AcDbCircle
 10
465.179118
 20
183.7862439999999
 30
0.0
 40
19.93824599999999
100
AcDbArc
 50
1.990354999999999
 51
6.223832999999997
  0
LINE
  5
ADBA
330
AB8F
100
AcDbEntity
  8
1
  6
Continuous
100
AcDbLine
 10
485.018182
 20
184.1723899999998
 30
0.0
 11
483.865578
 21
184.149934
 31
0.0
  0
LINE
  5
ADBB
330
AB8F
100
AcDbEntity
  8
1
  6
Continuous
100
AcDbLine
 10
485.018182
 20
184.1723899999998
 30
0.0
 11
485.1053349999999
 21
184.4787249999999
 31
0.0
  0
ARC
  5
ADBC
330
AB8F
100
AcDbEntity
  8
1
  6
Continuous
100
AcDbCircle
 10
548.8368059999998
 20
192.909588
 30
0.0
 40
64.21544799999999
100
AcDbArc
 50
182.749967
 51
186.223833
  0
ARC
  5
ADBD
330
AB8F
100
AcDbEntity
  8
1
  6
Continuous
100
AcDbCircle
 10
324.3653979999999
 20
182.127584
 30
0.0
 40
160.5147559999998
100
AcDbArc
 50
2.749966999999998
 51
4.029204
  0
ARC
  5
ADBE
330
AB8F
100
AcDbEntity
  8
1
  6
Continuous
100
AcDbCircle
 10
474.291337
 20
192.6882219999999
 30
0.0
 40
10.21733599999999
100
AcDbArc
 50
4.029204
 51
10.07373899999999
  0
ARC
  5
ADBF
330
AB8F
100
AcDbEntity
  8
1
  6
Continuous
100
AcDbCircle
 10
465.228317
 20
192.8448099999999
 30
0.0
 40
19.01408599999999
100
AcDbArc
 50
16.599246
 51
44.10160199999999
  0
ARC
  5
ADC0
330
AB8F
100
AcDbEntity
  8
1
  6
Continuous
100
AcDbCircle
 10
455.267511
 20
183.1915769999999
 30
0.0
 40
32.88501
100
AcDbArc
 50
44.10160199999999
 51
57.90797399999998
  0
LINE
  5
ADC1
330
AB8F
100
AcDbEntity
  8
4
  6
CENTER
100
AcDbLine
 10
432.7004839999998
 20
206.3503209999999
 30
0.0
 11
432.7004839999998
 21
236.211668
 31
0.0
  0
ARC
  5
ADC2
330
AB8F
100
AcDbEntity
  8
1
  6
Continuous
100
AcDbCircle
 10
452.579634
 20
208.132505
 30
0.0
 40
10.0
100
AcDbArc
 50
90.99824199999996
 51
125.1282329999999
  0
LINE
  5
ADC3
330
AB8F
100
AcDbEntity
  8
1
  6
Continuous
100
AcDbLine
 10
446.82555
 20
218.4095279999999
 30
0.0
 11
446.82555
 21
203.1473749999999
 31
0.0
  0
ARC
  5
ADC4
330
AB8F
100
AcDbEntity
  8
1
  6
Continuous
100
AcDbCircle
 10
481.992152
 20
394.523352
 30
0.0
 40
178.8733419999998
100
AcDbArc
 50
260.656065
 51
261.8219199999999
  0
ARC
  5
ADC5
330
AB8F
100
AcDbEntity
  8
1
  6
Continuous
100
AcDbCircle
 10
451.948696
 20
185.469703
 30
0.0
 40
32.32807199999999
100
AcDbArc
 50
68.988863
 51
81.82191999999998
  0
ARC
  5
ADC6
330
AB8F
100
AcDbEntity
  8
1
  6
Continuous
100
AcDbCircle
 10
398.5083799999999
 20
217.5329129999998
 30
0.0
 40
15.030331
100
AcDbArc
 50
354.1891289999999
 51
3.163063
  0
LINE
  5
ADC7
330
AB8F
100
AcDbEntity
  8
4
  6
CENTER
100
AcDbLine
 10
453.7004839999998
 20
156.211668
 30
0.0
 11
453.7004839999998
 21
216.211668
 31
0.0
  0
ARC
  5
ADC8
330
AB8F
100
AcDbEntity
  8
1
  6
Continuous
100
AcDbCircle
 10
453.7004839999998
 20
186.2116679999998
 30
0.0
 40
14.3
100
AcDbArc
 50
183.657879
 51
9.802899999999999
  0
ARC
  5
ADC9
330
AB8F
100
AcDbEntity
  8
1
  6
Continuous
100
AcDbCircle
 10
453.7004839999998
 20
186.2116679999998
 30
0.0
 40
13.33020199999998
100
AcDbArc
 50
186.679873
 51
7.654778000000001
  0
ARC
  5
ADCB
330
AB8F
100
AcDbEntity
  8
1
  6
Continuous
100
AcDbCircle
 10
436.837023
 20
200.320752
 30
0.0
 40
7.349651999999998
100
AcDbArc
 50
40.952649
 51
80.278045
  0
LINE
  5
ADCC
330
AB8F
100
AcDbEntity
  8
1
  6
Continuous
100
AcDbLine
 10
442.3193799999999
 20
196.0581969999998
 30
0.0
 11
438.200765
 21
191.653871
 31
0.0
  0
LINE
  5
ADCD
330
AB8F
100
AcDbEntity
  8
1
  6
Continuous
100
AcDbLine
 10
449.2514509999998
 20
179.2197639999999
 30
0.0
 11
439.012161
 21
185.557746
 31
0.0
  0
ARC
  5
ADCE
330
AB8F
100
AcDbEntity
  8
1
  6
Continuous
100
AcDbCircle
 10
453.499908
 20
186.083333
 30
0.0
 40
8.072048999999998
100
AcDbArc
 50
238.243052
 51
342.995586
  0
ARC
  5
ADCF
330
AB8F
100
AcDbEntity
  8
1
  6
Continuous
100
AcDbCircle
 10
475.1918479999998
 20
180.3553929999999
 30
0.0
 40
11.072345
100
AcDbArc
 50
112.542085
 51
126.837554
  0
LINE
  5
ADD0
330
AB8F
100
AcDbEntity
  8
1
  6
Continuous
100
AcDbLine
 10
468.5534429999998
 20
189.2170169999999
 30
0.0
 11
461.2190639999998
 21
183.7227
 31
0.0
  0
ARC
  5
ADD1
330
AB8F
100
AcDbEntity
  8
1
  6
Continuous
100
AcDbCircle
 10
443.0539379999998
 20
205.0496199999999
 30
0.0
 40
0.671913
100
AcDbArc
 50
172.4441579999999
 51
246.009878
  0
ARC
  5
ADD2
330
AB8F
100
AcDbEntity
  8
1
  6
Continuous
100
AcDbCircle
 10
436.9448249999998
 20
201.084101
 30
0.0
 40
7.358366
100
AcDbArc
 50
316.919985
 51
17.606109
  0
ARC
  5
ADD3
330
AB8F
100
AcDbEntity
  8
1
  6
Continuous
100
AcDbCircle
 10
454.5483619999997
 20
215.5658799999999
 30
0.0
 40
16.19742099999999
100
AcDbArc
 50
223.405281
 51
229.1713969999999
  0
ARC
  5
ADD4
330
AB8F
100
AcDbEntity
  8
1
  6
Continuous
100
AcDbCircle
 10
441.104692
 20
188.9383239999999
 30
0.0
 40
3.975801
100
AcDbArc
 50
136.9199849999999
 51
238.243052
  0
ARC
  5
ADD5
330
AB8F
100
AcDbEntity
  8
1
  6
Continuous
100
AcDbCircle
 10
413.3911389999998
 20
171.9804359999999
 30
0.0
 40
40.87113
100
AcDbArc
 50
69.28739300000001
 51
81.51001200000001
  0
ARC
  5
ADD6
330
AB8F
100
AcDbEntity
  8
1
  6
Continuous
100
AcDbCircle
 10
430.195331
 20
193.4964349999999
 30
0.0
 40
16.12634599999999
100
AcDbArc
 50
60.73725
 51
84.77868499999997
  0
ARC
  5
ADD7
330
AB8F
100
AcDbEntity
  8
1
  6
Continuous
100
AcDbCircle
 10
425.731048
 20
190.1350749999998
 30
0.0
 40
20.185986
100
AcDbArc
 50
76.32498000000002
 51
83.98456000000001
  0
ARC
  5
ADD8
330
AB8F
100
AcDbEntity
  8
1
  6
Continuous
100
AcDbCircle
 10
432.3885729999998
 20
217.497181
 30
0.0
 40
7.974402999999998
100
AcDbArc
 50
256.3249799999999
 51
264.778685
  0
ARC
  5
ADD9
330
AB8F
100
AcDbEntity
  8
1
  6
Continuous
100
AcDbCircle
 10
416.6151689999998
 20
202.394954
 30
0.0
 40
10.313919
100
AcDbArc
 50
81.51001200000001
 51
84.85761999999999
  0
LINE
  5
ADDA
330
AB8F
100
AcDbEntity
  8
1
  6
Continuous
100
AcDbLine
 10
418.137881
 20
212.59585
 30
0.0
 11
419.4252129999998
 21
212.4036859999999
 31
0.0
  0
LINE
  5
ADDB
330
AB8F
100
AcDbEntity
  8
1
  6
Continuous
100
AcDbLine
 10
415.294086
 20
212.8694419999999
 30
0.0
 11
417.539616
 21
212.66736
 31
0.0
  0
ARC
  5
ADDC
330
AB8F
100
AcDbEntity
  8
1
  6
Continuous
100
AcDbCircle
 10
415.060431
 20
213.9704449999999
 30
0.0
 40
1.167359999999999
100
AcDbArc
 50
259.32363
 51
281.307571
  0
ARC
  5
ADDD
330
AB8F
100
AcDbEntity
  8
1
  6
Continuous
100
AcDbCircle
 10
415.40257
 20
225.027204
 30
0.0
 40
12.204101
100
AcDbArc
 50
260.461228
 51
266.2295869999999
  0
LINE
  5
ADDE
330
AB8F
100
AcDbEntity
  8
1
  6
Continuous
100
AcDbLine
 10
414.6741529999998
 20
212.8894709999999
 30
0.0
 11
414.8441639999998
 21
212.8232919999999
 31
0.0
  0
LINE
  5
ADDF
330
AB8F
100
AcDbEntity
  8
1
  6
Continuous
100
AcDbLine
 10
414.600045
 20
212.8495179999999
 30
0.0
 11
414.6741529999998
 21
212.8894709999999
 31
0.0
  0
ARC
  5
ADE0
330
AB8F
100
AcDbEntity
  8
1
  6
Continuous
100
AcDbCircle
 10
297.7189989999999
 20
227.790045
 30
0.0
 40
116.340292
100
AcDbArc
 50
353.513522
 51
354.1891289999999
  0
ARC
  5
ADE1
330
AB8F
100
AcDbEntity
  8
1
  6
Continuous
100
AcDbCircle
 10
420.5978749999998
 20
213.819141
 30
0.0
 40
7.330255999999997
100
AcDbArc
 50
173.513522
 51
183.4446299999999
  0
LINE
  5
ADE2
330
AB8F
100
AcDbEntity
  8
1
  6
Continuous
100
AcDbLine
 10
413.280862
 20
213.37871
 30
0.0
 11
413.3801669999998
 21
212.991841
 31
0.0
  0
LINE
  5
ADE3
330
AB8F
100
AcDbEntity
  8
1
  6
Continuous
100
AcDbLine
 10
465.200484
 20
228.9116679999999
 30
0.0
 11
406.9912949999999
 21
228.9116679999999
 31
0.0
  0
LINE
  5
ADE4
330
AB8F
100
AcDbEntity
  8
1
  6
Continuous
100
AcDbLine
 10
465.200484
 20
231.2116679999999
 30
0.0
 11
406.9912949999999
 21
231.2116679999999
 31
0.0
  0
LINE
  5
ADE5
330
AB8F
100
AcDbEntity
  8
1
  6
Continuous
100
AcDbLine
 10
440.323904
 20
222.5446009999998
 30
0.0
 11
438.3573379999998
 21
224.511168
 31
0.0
  0
LINE
  5
ADE6
330
AB8F
100
AcDbEntity
  8
1
  6
Continuous
100
AcDbLine
 10
439.2325229999998
 20
222.557925
 30
0.0
 11
441.185765
 21
224.511168
 31
0.0
  0
LINE
  5
ADE7
330
AB8F
100
AcDbEntity
  8
1
  6
Continuous
100
AcDbLine
 10
437.835366
 20
222.5749819999998
 30
0.0
 11
439.7715519999998
 21
224.511168
 31
0.0
  0
LINE
  5
ADE8
330
AB8F
100
AcDbEntity
  8
1
  6
Continuous
100
AcDbLine
 10
450.9020839999998
 20
226.0748149999999
 30
0.0
 11
414.4988839999999
 21
226.0748149999999
 31
0.0
  0
LINE
  5
ADE9
330
AB8F
100
AcDbEntity
  8
1
  6
Continuous
100
AcDbLine
 10
449.2091599999998
 20
226.6039849999999
 30
0.0
 11
416.1918079999998
 21
226.6039849999999
 31
0.0
  0
LINE
  5
ADEA
330
AB8F
100
AcDbEntity
  8
1
  6
Continuous
100
AcDbLine
 10
453.5697449999998
 20
228.5449649999999
 30
0.0
 11
411.8312219999998
 21
228.5449649999999
 31
0.0
  0
LINE
  5
ADEB
330
AB8F
100
AcDbEntity
  8
1
  6
Continuous
100
AcDbLine
 10
450.3763099999998
 20
226.842893
 30
0.0
 11
415.024658
 21
226.842893
 31
0.0
  0
LINE
  5
ADEC
330
AB8F
100
AcDbEntity
  8
1
  6
Continuous
100
AcDbLine
 10
414.2004839999998
 20
224.511168
 30
0.0
 11
451.2004839999998
 21
224.511168
 31
0.0
  0
LINE
  5
ADED
330
AB8F
100
AcDbEntity
  8
1
  6
Continuous
100
AcDbLine
 10
414.2004839999998
 20
222.863523
 30
0.0
 11
451.2004839999998
 21
222.411817
 31
0.0
  0
LINE
  5
ADEE
330
AB8F
100
AcDbEntity
  8
1
  6
Continuous
100
AcDbLine
 10
465.200484
 20
231.2116679999999
 30
0.0
 11
465.200484
 21
228.9116679999999
 31
0.0
  0
LINE
  5
ADEF
330
AB8F
100
AcDbEntity
  8
4
  6
CENTER
100
AcDbLine
 10
459.2004839999998
 20
233.8746609999998
 30
0.0
 11
459.2004839999998
 21
226.9303129999999
 31
0.0
  0
LINE
  5
ADF0
330
AB8F
100
AcDbEntity
  8
1
  6
Continuous
100
AcDbLine
 10
451.2004839999998
 20
224.3959439999999
 30
0.0
 11
451.0852599999998
 21
224.511168
 31
0.0
  0
LINE
  5
ADF1
330
AB8F
100
AcDbEntity
  8
1
  6
Continuous
100
AcDbLine
 10
451.2004839999998
 20
222.9817299999999
 30
0.0
 11
449.671047
 21
224.511168
 31
0.0
  0
LINE
  5
ADF2
330
AB8F
100
AcDbEntity
  8
1
  6
Continuous
100
AcDbLine
 10
450.345749
 20
222.422252
 30
0.0
 11
448.2568329999998
 21
224.511168
 31
0.0
  0
LINE
  5
ADF3
330
AB8F
100
AcDbEntity
  8
1
  6
Continuous
100
AcDbLine
 10
448.914056
 20
222.439731
 30
0.0
 11
446.842619
 21
224.511168
 31
0.0
  0
LINE
  5
ADF4
330
AB8F
100
AcDbEntity
  8
1
  6
Continuous
100
AcDbLine
 10
447.4823639999998
 20
222.4572089999998
 30
0.0
 11
445.4284059999998
 21
224.511168
 31
0.0
  0
LINE
  5
ADF5
330
AB8F
100
AcDbEntity
  8
1
  6
Continuous
100
AcDbLine
 10
446.0506719999998
 20
222.474688
 30
0.0
 11
444.014192
 21
224.511168
 31
0.0
  0
LINE
  5
ADF6
330
AB8F
100
AcDbEntity
  8
1
  6
Continuous
100
AcDbLine
 10
444.6189799999998
 20
222.492166
 30
0.0
 11
442.599979
 21
224.511168
 31
0.0
  0
LINE
  5
ADF7
330
AB8F
100
AcDbEntity
  8
1
  6
Continuous
100
AcDbLine
 10
443.1872879999998
 20
222.509645
 30
0.0
 11
441.185765
 21
224.511168
 31
0.0
  0
LINE
  5
ADF8
330
AB8F
100
AcDbEntity
  8
1
  6
Continuous
100
AcDbLine
 10
441.7555959999998
 20
222.527123
 30
0.0
 11
439.7715519999998
 21
224.511168
 31
0.0
  0
LINE
  5
ADF9
330
AB8F
100
AcDbEntity
  8
1
  6
Continuous
100
AcDbLine
 10
450.4097769999998
 20
222.421471
 30
0.0
 11
451.2004839999998
 21
223.2121779999999
 31
0.0
  0
LINE
  5
ADFA
330
AB8F
100
AcDbEntity
  8
1
  6
Continuous
100
AcDbLine
 10
449.01262
 20
222.4385269999999
 30
0.0
 11
451.0852599999998
 21
224.511168
 31
0.0
  0
LINE
  5
ADFB
330
AB8F
100
AcDbEntity
  8
1
  6
Continuous
100
AcDbLine
 10
447.6154629999999
 20
222.4555839999999
 30
0.0
 11
449.671047
 21
224.511168
 31
0.0
  0
LINE
  5
ADFC
330
AB8F
100
AcDbEntity
  8
1
  6
Continuous
100
AcDbLine
 10
446.218306
 20
222.472641
 30
0.0
 11
448.2568329999998
 21
224.511168
 31
0.0
  0
LINE
  5
ADFD
330
AB8F
100
AcDbEntity
  8
1
  6
Continuous
100
AcDbLine
 10
444.82115
 20
222.489698
 30
0.0
 11
446.842619
 21
224.511168
 31
0.0
  0
LINE
  5
ADFE
330
AB8F
100
AcDbEntity
  8
1
  6
Continuous
100
AcDbLine
 10
443.423993
 20
222.5067549999999
 30
0.0
 11
445.4284059999998
 21
224.511168
 31
0.0
  0
LINE
  5
ADFF
330
AB8F
100
AcDbEntity
  8
1
  6
Continuous
100
AcDbLine
 10
442.026836
 20
222.5238119999999
 30
0.0
 11
444.014192
 21
224.511168
 31
0.0
  0
LINE
  5
AE00
330
AB8F
100
AcDbEntity
  8
1
  6
Continuous
100
AcDbLine
 10
440.6296799999998
 20
222.540869
 30
0.0
 11
442.599979
 21
224.511168
 31
0.0
  0
ARC
  5
AE01
330
AB8F
100
AcDbEntity
  8
1
  6
Continuous
100
AcDbCircle
 10
563.9399
 20
105.5537069999999
 30
0.0
 40
165.252597
100
AcDbArc
 50
131.9042349999998
 51
132.171579
  0
LINE
  5
AE02
330
AB8F
100
AcDbEntity
  8
1
  6
Continuous
100
AcDbLine
 10
453.5697449999998
 20
228.5449649999999
 30
0.0
 11
453.5606159999998
 21
228.9116679999999
 31
0.0
  0
ARC
  5
AE03
330
AB8F
100
AcDbEntity
  8
1
  6
Continuous
100
AcDbCircle
 10
449.379436
 20
232.0223089999998
 30
0.0
 40
5.388568
100
AcDbArc
 50
293.6985089999998
 51
312.171579
  0
ARC
  5
AE04
330
AB8F
100
AcDbEntity
  8
1
  6
Continuous
100
AcDbCircle
 10
450.3763099999998
 20
229.7512069999999
 30
0.0
 40
2.908313999999998
100
AcDbArc
 50
270.0
 51
293.6985089999998
  0
ARC
  5
AE05
330
AB8F
100
AcDbEntity
  8
1
  6
Continuous
100
AcDbCircle
 10
449.3175269999999
 20
226.8568299999998
 30
0.0
 40
0.251083
100
AcDbArc
 50
223.500695
 51
270.9147219999999
  0
ARC
  5
AE06
330
AB8F
100
AcDbEntity
  8
1
  6
Continuous
100
AcDbCircle
 10
446.4036959999998
 20
224.091641
 30
0.0
 40
3.765966
100
AcDbArc
 50
43.500695
 51
46.93308799999999
  0
ARC
  5
AE07
330
AB8F
100
AcDbEntity
  8
1
  6
Continuous
100
AcDbCircle
 10
450.59392
 20
225.935824
 30
0.0
 40
0.338058
100
AcDbArc
 50
343.385468
 51
56.940309
  0
ARC
  5
AE08
330
AB8F
100
AcDbEntity
  8
1
  6
Continuous
100
AcDbCircle
 10
448.0543519999998
 20
222.0341369999999
 30
0.0
 40
4.993438999999998
100
AcDbArc
 50
56.940309
 51
60.900618
  0
ARC
  5
AE09
330
AB8F
100
AcDbEntity
  8
1
  6
Continuous
100
AcDbCircle
 10
449.65954
 20
224.918165
 30
0.0
 40
1.692795999999999
100
AcDbArc
 50
60.900618
 51
90.914722
  0
ARC
  5
AE0A
330
AB8F
100
AcDbEntity
  8
1
  6
Continuous
100
AcDbCircle
 10
450.136218
 20
225.2308429999999
 30
0.0
 40
0.719675
100
AcDbArc
 50
270.0
 51
293.1342879999999
  0
ARC
  5
AE0B
330
AB8F
100
AcDbEntity
  8
1
  6
Continuous
100
AcDbCircle
 10
450.030909
 20
225.2919159999999
 30
0.0
 40
0.69345
100
AcDbArc
 50
318.343544
 51
343.385468
  0
LINE
  5
AE0C
330
AB8F
100
AcDbEntity
  8
1
  6
Continuous
100
AcDbLine
 10
450.418969
 20
224.569039
 30
0.0
 11
450.5490159999998
 21
224.831006
 31
0.0
  0
LINE
  5
AE0D
330
AB8F
100
AcDbEntity
  8
1
  6
Continuous
100
AcDbLine
 10
450.6954079999998
 20
225.093637
 30
0.0
 11
450.917864
 21
225.8391629999999
 31
0.0
  0
LINE
  5
AE0E
330
AB8F
100
AcDbEntity
  8
1
  6
Continuous
100
AcDbLine
 10
449.632516
 20
226.6107439999999
 30
0.0
 11
449.2091599999998
 21
226.6039849999999
 31
0.0
  0
LINE
  5
AE0F
330
AB8F
100
AcDbEntity
  8
1
  6
Continuous
100
AcDbLine
 10
451.2004839999998
 20
222.411817
 30
0.0
 11
451.2004839999998
 21
224.511168
 31
0.0
  0
ARC
  5
AE10
330
AB8F
100
AcDbEntity
  8
1
  6
Continuous
100
AcDbCircle
 10
446.382608
 20
218.149665
 30
0.0
 40
5.700438
100
AcDbArc
 50
8.470117999999997
 51
33.11030800000001
  0
ARC
  5
AE11
330
AB8F
100
AcDbEntity
  8
1
  6
Continuous
100
AcDbCircle
 10
453.490292
 20
219.565177
 30
0.0
 40
1.658722999999999
100
AcDbArc
 50
211.562551
 51
240.707771
  0
ARC
  5
AE12
330
AB8F
100
AcDbEntity
  8
1
  6
Continuous
100
AcDbCircle
 10
453.0850019999999
 20
218.8427279999999
 30
0.0
 40
0.8303549999999999
100
AcDbArc
 50
240.707771
 51
260.656065
  0
ARC
  5
AE13
330
AB8F
100
AcDbEntity
  8
1
  6
Continuous
100
AcDbCircle
 10
455.5542519999998
 20
219.5154859999999
 30
0.0
 40
3.572346
100
AcDbArc
 50
188.470118
 51
193.2458819999999
  0
ARC
  5
AE14
330
AB8F
100
AcDbEntity
  8
1
  6
Continuous
100
AcDbCircle
 10
449.2577329999998
 20
220.0246719999999
 30
0.0
 40
2.267945999999998
100
AcDbArc
 50
33.11030800000001
 51
52.90018199999999
  0
ARC
  5
AE15
330
AB8F
100
AcDbEntity
  8
1
  6
Continuous
100
AcDbCircle
 10
448.603397
 20
219.1594789999999
 30
0.0
 40
3.352711999999999
100
AcDbArc
 50
52.90018199999999
 51
72.24979799999998
  0
ARC
  5
AE16
330
AB8F
100
AcDbEntity
  8
1
  6
Continuous
100
AcDbCircle
 10
449.081367
 20
220.6526399999999
 30
0.0
 40
1.784915
100
AcDbArc
 50
72.24979799999998
 51
89.30055299999997
  0
LINE
  5
AE17
330
AB8F
100
AcDbEntity
  8
1
  6
Continuous
100
AcDbLine
 10
424.575292
 20
222.7368649999999
 30
0.0
 11
422.800989
 21
224.511168
 31
0.0
  0
LINE
  5
AE18
330
AB8F
100
AcDbEntity
  8
1
  6
Continuous
100
AcDbLine
 10
422.466642
 20
222.7626069999999
 30
0.0
 11
424.2152019999998
 21
224.511168
 31
0.0
  0
LINE
  5
AE19
330
AB8F
100
AcDbEntity
  8
1
  6
Continuous
100
AcDbLine
 10
426.0069839999998
 20
222.7193859999999
 30
0.0
 11
424.2152019999998
 21
224.511168
 31
0.0
  0
LINE
  5
AE1A
330
AB8F
100
AcDbEntity
  8
1
  6
Continuous
100
AcDbLine
 10
427.4386759999998
 20
222.701908
 30
0.0
 11
425.629416
 21
224.511168
 31
0.0
  0
LINE
  5
AE1B
330
AB8F
100
AcDbEntity
  8
1
  6
Continuous
100
AcDbLine
 10
428.870368
 20
222.6844289999999
 30
0.0
 11
427.04363
 21
224.511168
 31
0.0
  0
LINE
  5
AE1C
330
AB8F
100
AcDbEntity
  8
1
  6
Continuous
100
AcDbLine
 10
430.3020599999999
 20
222.6669509999999
 30
0.0
 11
428.4578429999998
 21
224.511168
 31
0.0
  0
LINE
  5
AE1D
330
AB8F
100
AcDbEntity
  8
1
  6
Continuous
100
AcDbLine
 10
431.7337519999998
 20
222.649472
 30
0.0
 11
429.8720569999998
 21
224.511168
 31
0.0
  0
LINE
  5
AE1E
330
AB8F
100
AcDbEntity
  8
1
  6
Continuous
100
AcDbLine
 10
433.165444
 20
222.6319939999999
 30
0.0
 11
431.28627
 21
224.511168
 31
0.0
  0
LINE
  5
AE1F
330
AB8F
100
AcDbEntity
  8
1
  6
Continuous
100
AcDbLine
 10
438.892212
 20
222.5620799999999
 30
0.0
 11
436.9431249999998
 21
224.511168
 31
0.0
  0
LINE
  5
AE20
330
AB8F
100
AcDbEntity
  8
1
  6
Continuous
100
AcDbLine
 10
437.4605199999998
 20
222.5795579999999
 30
0.0
 11
435.528911
 21
224.511168
 31
0.0
  0
LINE
  5
AE21
330
AB8F
100
AcDbEntity
  8
1
  6
Continuous
100
AcDbLine
 10
436.0288279999998
 20
222.597037
 30
0.0
 11
434.1146969999998
 21
224.511168
 31
0.0
  0
LINE
  5
AE22
330
AB8F
100
AcDbEntity
  8
1
  6
Continuous
100
AcDbLine
 10
434.597136
 20
222.6145149999999
 30
0.0
 11
432.7004839999998
 21
224.511168
 31
0.0
  0
LINE
  5
AE23
330
AB8F
100
AcDbEntity
  8
1
  6
Continuous
100
AcDbLine
 10
423.8637989999999
 20
222.7455509999999
 30
0.0
 11
425.629416
 21
224.511168
 31
0.0
  0
LINE
  5
AE24
330
AB8F
100
AcDbEntity
  8
1
  6
Continuous
100
AcDbLine
 10
425.2609559999998
 20
222.728494
 30
0.0
 11
427.04363
 21
224.511168
 31
0.0
  0
LINE
  5
AE25
330
AB8F
100
AcDbEntity
  8
1
  6
Continuous
100
AcDbLine
 10
426.658112
 20
222.7114369999999
 30
0.0
 11
428.4578429999998
 21
224.511168
 31
0.0
  0
LINE
  5
AE26
330
AB8F
100
AcDbEntity
  8
1
  6
Continuous
100
AcDbLine
 10
428.055269
 20
222.6943799999999
 30
0.0
 11
429.8720569999998
 21
224.511168
 31
0.0
  0
LINE
  5
AE27
330
AB8F
100
AcDbEntity
  8
1
  6
Continuous
100
AcDbLine
 10
429.452426
 20
222.677323
 30
0.0
 11
431.28627
 21
224.511168
 31
0.0
  0
LINE
  5
AE28
330
AB8F
100
AcDbEntity
  8
1
  6
Continuous
100
AcDbLine
 10
436.4382089999998
 20
222.592039
 30
0.0
 11
438.3573379999998
 21
224.511168
 31
0.0
  0
LINE
  5
AE29
330
AB8F
100
AcDbEntity
  8
1
  6
Continuous
100
AcDbLine
 10
435.0410529999998
 20
222.609096
 30
0.0
 11
436.9431249999998
 21
224.511168
 31
0.0
  0
LINE
  5
AE2A
330
AB8F
100
AcDbEntity
  8
1
  6
Continuous
100
AcDbLine
 10
433.6438959999998
 20
222.6261529999999
 30
0.0
 11
435.528911
 21
224.511168
 31
0.0
  0
LINE
  5
AE2B
330
AB8F
100
AcDbEntity
  8
1
  6
Continuous
100
AcDbLine
 10
432.2467389999998
 20
222.64321
 30
0.0
 11
434.1146969999998
 21
224.511168
 31
0.0
  0
LINE
  5
AE2C
330
AB8F
100
AcDbEntity
  8
1
  6
Continuous
100
AcDbLine
 10
430.849583
 20
222.660266
 30
0.0
 11
432.7004839999998
 21
224.511168
 31
0.0
  0
LINE
  5
AE2D
330
AB8F
100
AcDbEntity
  8
4
  6
CENTER
100
AcDbLine
 10
419.4504839999998
 20
233.8746609999998
 30
0.0
 11
419.4504839999998
 21
227.795467
 31
0.0
  0
LINE
  5
AE2E
330
AB8F
100
AcDbEntity
  8
1
  6
Continuous
100
AcDbLine
 10
414.2004839999998
 20
223.2121779999999
 30
0.0
 11
414.553448
 21
222.8592139999999
 31
0.0
  0
LINE
  5
AE2F
330
AB8F
100
AcDbEntity
  8
1
  6
Continuous
100
AcDbLine
 10
415.9851399999998
 20
222.8417349999999
 30
0.0
 11
414.3157079999999
 21
224.511168
 31
0.0
  0
LINE
  5
AE30
330
AB8F
100
AcDbEntity
  8
1
  6
Continuous
100
AcDbLine
 10
417.4168319999997
 20
222.8242569999999
 30
0.0
 11
415.7299209999997
 21
224.511168
 31
0.0
  0
LINE
  5
AE31
330
AB8F
100
AcDbEntity
  8
1
  6
Continuous
100
AcDbLine
 10
418.848524
 20
222.8067779999999
 30
0.0
 11
417.144135
 21
224.511168
 31
0.0
  0
LINE
  5
AE32
330
AB8F
100
AcDbEntity
  8
1
  6
Continuous
100
AcDbLine
 10
420.280216
 20
222.7892999999999
 30
0.0
 11
418.558348
 21
224.511168
 31
0.0
  0
LINE
  5
AE33
330
AB8F
100
AcDbEntity
  8
1
  6
Continuous
100
AcDbLine
 10
421.7119079999998
 20
222.7718209999999
 30
0.0
 11
419.9725619999998
 21
224.511168
 31
0.0
  0
LINE
  5
AE34
330
AB8F
100
AcDbEntity
  8
1
  6
Continuous
100
AcDbLine
 10
423.1436
 20
222.754343
 30
0.0
 11
421.386775
 21
224.511168
 31
0.0
  0
LINE
  5
AE35
330
AB8F
100
AcDbEntity
  8
1
  6
Continuous
100
AcDbLine
 10
414.2004839999998
 20
224.3959439999999
 30
0.0
 11
414.3157079999999
 21
224.511168
 31
0.0
  0
LINE
  5
AE36
330
AB8F
100
AcDbEntity
  8
1
  6
Continuous
100
AcDbLine
 10
414.2004839999998
 20
222.9817299999999
 30
0.0
 11
415.7299209999997
 21
224.511168
 31
0.0
  0
LINE
  5
AE37
330
AB8F
100
AcDbEntity
  8
1
  6
Continuous
100
AcDbLine
 10
415.480859
 20
222.847892
 30
0.0
 11
417.144135
 21
224.511168
 31
0.0
  0
LINE
  5
AE38
330
AB8F
100
AcDbEntity
  8
1
  6
Continuous
100
AcDbLine
 10
416.8780149999998
 20
222.830835
 30
0.0
 11
418.558348
 21
224.511168
 31
0.0
  0
LINE
  5
AE39
330
AB8F
100
AcDbEntity
  8
1
  6
Continuous
100
AcDbLine
 10
418.2751719999997
 20
222.8137779999999
 30
0.0
 11
419.9725619999998
 21
224.511168
 31
0.0
  0
LINE
  5
AE3A
330
AB8F
100
AcDbEntity
  8
1
  6
Continuous
100
AcDbLine
 10
419.6723289999998
 20
222.796721
 30
0.0
 11
421.386775
 21
224.511168
 31
0.0
  0
LINE
  5
AE3B
330
AB8F
100
AcDbEntity
  8
1
  6
Continuous
100
AcDbLine
 10
421.069486
 20
222.779664
 30
0.0
 11
422.800989
 21
224.511168
 31
0.0
  0
ARC
  5
AE3C
330
AB8F
100
AcDbEntity
  8
1
  6
Continuous
100
AcDbCircle
 10
301.461067
 20
105.5537069999999
 30
0.0
 40
165.252597
100
AcDbArc
 50
47.82842099999999
 51
48.095765
  0
LINE
  5
AE3D
330
AB8F
100
AcDbEntity
  8
1
  6
Continuous
100
AcDbLine
 10
411.8312219999998
 20
228.5449649999999
 30
0.0
 11
411.840353
 21
228.9116679999999
 31
0.0
  0
ARC
  5
AE3E
330
AB8F
100
AcDbEntity
  8
1
  6
Continuous
100
AcDbCircle
 10
416.0215319999998
 20
232.0223089999998
 30
0.0
 40
5.388568
100
AcDbArc
 50
227.8284209999998
 51
246.301491
  0
ARC
  5
AE3F
330
AB8F
100
AcDbEntity
  8
1
  6
Continuous
100
AcDbCircle
 10
415.024658
 20
229.7512069999999
 30
0.0
 40
2.908313999999998
100
AcDbArc
 50
246.301491
 51
270.0
  0
ARC
  5
AE40
330
AB8F
100
AcDbEntity
  8
1
  6
Continuous
100
AcDbCircle
 10
416.0834409999997
 20
226.8568299999998
 30
0.0
 40
0.251083
100
AcDbArc
 50
269.0852779999999
 51
316.499305
  0
ARC
  5
AE41
330
AB8F
100
AcDbEntity
  8
1
  6
Continuous
100
AcDbCircle
 10
418.997272
 20
224.091641
 30
0.0
 40
3.765966
100
AcDbArc
 50
133.0669129999998
 51
136.499305
  0
ARC
  5
AE42
330
AB8F
100
AcDbEntity
  8
1
  6
Continuous
100
AcDbCircle
 10
414.807048
 20
225.935824
 30
0.0
 40
0.338058
100
AcDbArc
 50
123.0596909999998
 51
196.614532
  0
ARC
  5
AE43
330
AB8F
100
AcDbEntity
  8
1
  6
Continuous
100
AcDbCircle
 10
417.346616
 20
222.0341369999999
 30
0.0
 40
4.993438999999998
100
AcDbArc
 50
119.0993819999999
 51
123.0596909999998
  0
ARC
  5
AE44
330
AB8F
100
AcDbEntity
  8
1
  6
Continuous
100
AcDbCircle
 10
415.741427
 20
224.918165
 30
0.0
 40
1.692795999999999
100
AcDbArc
 50
89.08527799999998
 51
119.0993819999999
  0
ARC
  5
AE45
330
AB8F
100
AcDbEntity
  8
1
  6
Continuous
100
AcDbCircle
 10
415.2647499999998
 20
225.2308429999999
 30
0.0
 40
0.719675
100
AcDbArc
 50
246.865712
 51
270.0
  0
ARC
  5
AE46
330
AB8F
100
AcDbEntity
  8
1
  6
Continuous
100
AcDbCircle
 10
415.3700589999998
 20
225.2919159999999
 30
0.0
 40
0.69345
100
AcDbArc
 50
196.614532
 51
221.656456
  0
LINE
  5
AE47
330
AB8F
100
AcDbEntity
  8
1
  6
Continuous
100
AcDbLine
 10
414.981998
 20
224.569039
 30
0.0
 11
414.8519519999998
 21
224.831006
 31
0.0
  0
LINE
  5
AE48
330
AB8F
100
AcDbEntity
  8
1
  6
Continuous
100
AcDbLine
 10
414.7055599999998
 20
225.093637
 30
0.0
 11
414.4831029999998
 21
225.8391629999999
 31
0.0
  0
LINE
  5
AE49
330
AB8F
100
AcDbEntity
  8
1
  6
Continuous
100
AcDbLine
 10
415.768452
 20
226.6107439999999
 30
0.0
 11
416.1918079999998
 21
226.6039849999999
 31
0.0
  0
LINE
  5
AE4A
330
AB8F
100
AcDbEntity
  8
1
  6
Continuous
100
AcDbLine
 10
414.2004839999998
 20
222.863523
 30
0.0
 11
414.2004839999998
 21
224.511168
 31
0.0
  0
ARC
  5
AE4B
330
AB8F
100
AcDbEntity
  8
1
  6
Continuous
100
AcDbCircle
 10
416.9533399999998
 20
219.8319539999999
 30
0.0
 40
3.213133
100
AcDbArc
 50
123.5322379999998
 51
149.6402629999998
  0
ARC
  5
AE4C
330
AB8F
100
AcDbEntity
  8
1
  6
Continuous
100
AcDbCircle
 10
1093.171854
 20
134.998401
 30
0.0
 40
684.823336
100
AcDbArc
 50
172.8867539999999
 51
172.937727
  0
ARC
  5
AE4D
330
AB8F
100
AcDbEntity
  8
1
  6
Continuous
100
AcDbCircle
 10
417.9237439999998
 20
219.263538
 30
0.0
 40
4.337756999999998
100
AcDbArc
 50
149.6402629999998
 51
172.8867539999999
  0
ARC
  5
AE4E
330
AB8F
100
AcDbEntity
  8
1
  6
Continuous
100
AcDbCircle
 10
418.1898
 20
218.6205479999999
 30
0.0
 40
4.681118999999998
100
AcDbArc
 50
172.937727
 51
183.163063
  0
ARC
  5
AE4F
330
AB8F
100
AcDbEntity
  8
1
  6
Continuous
100
AcDbCircle
 10
416.2664759999998
 20
220.868425
 30
0.0
 40
1.969729
100
AcDbArc
 50
89.30055299999997
 51
123.5322379999998
  0
LINE
  5
AE50
330
AB8F
100
AcDbEntity
  8
1
  6
Continuous
100
AcDbLine
 10
406.9912949999999
 20
231.2116679999999
 30
0.0
 11
406.9912949999999
 21
228.9116679999999
 31
0.0
  0
CIRCLE
  5
AE51
330
AB8F
100
AcDbEntity
  8
1
  6
Continuous
100
AcDbCircle
 10
453.7004839999998
 20
186.2116679999998
 30
0.0
 40
4.25
  0
LINE
  5
AE52
330
AB8F
100
AcDbEntity
  8
1
  6
Continuous
100
AcDbLine
 10
149.671232
 20
77.96353999999998
 30
0.0
 11
195.2940079999999
 21
77.96353999999998
 31
0.0
  0
LINE
  5
AE53
330
AB8F
100
AcDbEntity
  8
1
  6
Continuous
100
AcDbLine
 10
149.671232
 20
61.96354
 30
0.0
 11
195.2940079999999
 21
61.96354
 31
0.0
  0
ARC
  5
AE54
330
AB8F
100
AcDbEntity
  8
1
  6
Continuous
100
AcDbCircle
 10
179.4826199999999
 20
69.96354000000001
 30
0.0
 40
18.0
100
AcDbArc
 50
334.6230659999999
 51
25.376934
  0
ARC
  5
AE55
330
AB8F
100
AcDbEntity
  8
1
  6
Continuous
100
AcDbCircle
 10
195.2940079999999
 20
62.46354
 30
0.0
 40
0.5
100
AcDbArc
 50
270.0
 51
334.6230659999999
  0
ARC
  5
AE56
330
AB8F
100
AcDbEntity
  8
1
  6
Continuous
100
AcDbCircle
 10
195.2940079999999
 20
77.46354000000002
 30
0.0
 40
0.5
100
AcDbArc
 50
25.376934
 51
90.0
  0
LINE
  5
AE57
330
AB8F
100
AcDbEntity
  8
1
  6
Continuous
100
AcDbLine
 10
178.628328
 20
58.789892
 30
0.0
 11
179.187928
 21
61.96354
 31
0.0
  0
LINE
  5
AE58
330
AB8F
100
AcDbEntity
  8
1
  6
Continuous
100
AcDbLine
 10
169.4326199999999
 20
57.972414
 30
0.0
 11
169.423746
 21
57.96354
 31
0.0
  0
ARC
  5
AE59
330
AB8F
100
AcDbEntity
  8
1
  6
Continuous
100
AcDbCircle
 10
177.6435199999999
 20
58.96354
 30
0.0
 40
1.0
100
AcDbArc
 50
270.0
 51
350.0
  0
LINE
  5
AE5A
330
AB8F
100
AcDbEntity
  8
1
  6
Continuous
100
AcDbLine
 10
167.32172
 20
57.96354
 30
0.0
 11
177.6435199999999
 21
57.96354
 31
0.0
  0
LINE
  5
AE5B
330
AB8F
100
AcDbEntity
  8
1
  6
Continuous
100
AcDbLine
 10
175.48262
 20
57.96354
 30
0.0
 11
175.48262
 21
57.31354
 31
0.0
  0
LINE
  5
AE5C
330
AB8F
100
AcDbEntity
  8
1
  6
Continuous
100
AcDbLine
 10
169.48262
 20
57.96354
 30
0.0
 11
169.48262
 21
57.31354
 31
0.0
  0
LINE
  5
AE5D
330
AB8F
100
AcDbEntity
  8
1
  6
Continuous
100
AcDbLine
 10
168.23262
 20
54.380224
 30
0.0
 11
176.73262
 21
54.380224
 31
0.0
  0
ARC
  5
AE5E
330
AB8F
100
AcDbEntity
  8
1
  6
Continuous
100
AcDbCircle
 10
172.48262
 20
62.31354
 30
0.0
 40
9.0
100
AcDbArc
 50
241.8213569999999
 51
298.178643
  0
LINE
  5
AE5F
330
AB8F
100
AcDbEntity
  8
1
  6
Continuous
100
AcDbLine
 10
168.23262
 20
55.31354
 30
0.0
 11
168.23262
 21
54.380224
 31
0.0
  0
LINE
  5
AE60
330
AB8F
100
AcDbEntity
  8
1
  6
Continuous
100
AcDbLine
 10
176.73262
 20
55.31354
 30
0.0
 11
176.73262
 21
54.380224
 31
0.0
  0
LINE
  5
AE61
330
AB8F
100
AcDbEntity
  8
1
  6
Continuous
100
AcDbLine
 10
155.7277669999998
 20
57.31354
 30
0.0
 11
189.0542129999998
 21
57.31354
 31
0.0
  0
ARC
  5
AE62
330
AB8F
100
AcDbEntity
  8
1
  6
Continuous
100
AcDbCircle
 10
177.6435199999999
 20
80.96354000000003
 30
0.0
 40
1.0
100
AcDbArc
 50
10.0
 51
90.0
  0
LINE
  5
AE63
330
AB8F
100
AcDbEntity
  8
1
  6
Continuous
100
AcDbLine
 10
178.628328
 20
81.13718799999999
 30
0.0
 11
179.187928
 21
77.96353999999998
 31
0.0
  0
LINE
  5
AE64
330
AB8F
100
AcDbEntity
  8
1
  6
Continuous
100
AcDbLine
 10
167.32172
 20
81.96354000000003
 30
0.0
 11
177.6435199999999
 21
81.96354000000003
 31
0.0
  0
LINE
  5
AE65
330
AB8F
100
AcDbEntity
  8
1
  6
Continuous
100
AcDbLine
 10
175.48262
 20
82.61354
 30
0.0
 11
175.48262
 21
81.96354000000003
 31
0.0
  0
LINE
  5
AE66
330
AB8F
100
AcDbEntity
  8
1
  6
Continuous
100
AcDbLine
 10
169.48262
 20
82.61354
 30
0.0
 11
169.48262
 21
81.96354000000003
 31
0.0
  0
LINE
  5
AE67
330
AB8F
100
AcDbEntity
  8
1
  6
Continuous
100
AcDbLine
 10
168.48262
 20
85.11354
 30
0.0
 11
176.4826199999999
 21
85.11354
 31
0.0
  0
ARC
  5
AE68
330
AB8F
100
AcDbEntity
  8
1
  6
Continuous
100
AcDbCircle
 10
172.48262
 20
77.61354
 30
0.0
 40
8.5
100
AcDbArc
 50
61.92751300000002
 51
118.072487
  0
LINE
  5
AE69
330
AB8F
100
AcDbEntity
  8
1
  6
Continuous
100
AcDbLine
 10
176.4826199999999
 20
84.61354
 30
0.0
 11
176.4826199999999
 21
85.11354
 31
0.0
  0
LINE
  5
AE6A
330
AB8F
100
AcDbEntity
  8
1
  6
Continuous
100
AcDbLine
 10
168.48262
 20
84.61354
 30
0.0
 11
168.48262
 21
85.11354
 31
0.0
  0
LINE
  5
AE6B
330
AB8F
100
AcDbEntity
  8
1
  6
Continuous
100
AcDbLine
 10
155.7277669999998
 20
82.61354
 30
0.0
 11
189.0542129999998
 21
82.61354
 31
0.0
  0
ARC
  5
AE6C
330
AB8F
100
AcDbEntity
  8
1
  6
Continuous
100
AcDbCircle
 10
165.48262
 20
69.96354000000001
 30
0.0
 40
18.0
100
AcDbArc
 50
154.6230659999999
 51
205.3769339999998
  0
ARC
  5
AE6D
330
AB8F
100
AcDbEntity
  8
1
  6
Continuous
100
AcDbCircle
 10
149.671232
 20
62.46354
 30
0.0
 40
0.5
100
AcDbArc
 50
205.3769339999998
 51
270.0
  0
ARC
  5
AE6E
330
AB8F
100
AcDbEntity
  8
1
  6
Continuous
100
AcDbCircle
 10
149.671232
 20
77.46354000000002
 30
0.0
 40
0.5
100
AcDbArc
 50
90.0
 51
154.6230659999999
  0
ARC
  5
AE6F
330
AB8F
100
AcDbEntity
  8
1
  6
Continuous
100
AcDbCircle
 10
167.32172
 20
58.96354
 30
0.0
 40
1.0
100
AcDbArc
 50
190.0
 51
270.0
  0
LINE
  5
AE70
330
AB8F
100
AcDbEntity
  8
1
  6
Continuous
100
AcDbLine
 10
166.336912
 20
58.789892
 30
0.0
 11
165.7773119999999
 21
61.96354
 31
0.0
  0
ARC
  5
AE71
330
AB8F
100
AcDbEntity
  8
1
  6
Continuous
100
AcDbCircle
 10
167.32172
 20
80.96354000000003
 30
0.0
 40
1.0
100
AcDbArc
 50
90.0
 51
170.0
  0
LINE
  5
AE72
330
AB8F
100
AcDbEntity
  8
1
  6
Continuous
100
AcDbLine
 10
166.336912
 20
81.13718799999999
 30
0.0
 11
165.7773119999999
 21
77.96353999999998
 31
0.0
  0
ARC
  5
AE73
330
AB8F
100
AcDbEntity
  8
1
  6
Continuous
100
AcDbCircle
 10
155.7277669999998
 20
69.96354000000001
 30
0.0
 40
12.65
100
AcDbArc
 50
90.0
 51
270.0
  0
LINE
  5
AE74
330
AB8F
100
AcDbEntity
  8
1
  6
Continuous
100
AcDbLine
 10
164.9640389999999
 20
84.61354
 30
0.0
 11
164.9640389999999
 21
82.61354
 31
0.0
  0
LINE
  5
AE75
330
AB8F
100
AcDbEntity
  8
1
  6
Continuous
100
AcDbLine
 10
189.0542129999998
 20
84.61354
 30
0.0
 11
189.0542129999998
 21
82.61354
 31
0.0
  0
LINE
  5
AE76
330
AB8F
100
AcDbEntity
  8
1
  6
Continuous
100
AcDbLine
 10
189.0542129999998
 20
55.31354
 30
0.0
 11
189.0542129999998
 21
57.31354
 31
0.0
  0
LINE
  5
AE77
330
AB8F
100
AcDbEntity
  8
1
  6
Continuous
100
AcDbLine
 10
164.9640389999999
 20
55.31354
 30
0.0
 11
164.9640389999999
 21
57.31354
 31
0.0
  0
ARC
  5
AE78
330
AB8F
100
AcDbEntity
  8
1
  6
Continuous
100
AcDbCircle
 10
193.48262
 20
69.96354000000001
 30
0.0
 40
19.19999999999999
100
AcDbArc
 50
229.7312369999999
 51
130.2687629999998
  0
ARC
  5
AE79
330
AB8F
100
AcDbEntity
  8
1
  6
Continuous
100
AcDbCircle
 10
193.48262
 20
69.96354000000001
 30
0.0
 40
17.19999999999998
100
AcDbArc
 50
238.401886
 51
121.598114
  0
ARC
  5
AE7A
330
AB8F
100
AcDbEntity
  8
1
  6
Continuous
100
AcDbCircle
 10
193.48262
 20
69.96354000000001
 30
0.0
 40
20.86926099999999
100
AcDbArc
 50
224.586832
 51
135.4131679999998
  0
LINE
  5
AE7B
330
AB8F
100
AcDbEntity
  8
1
  6
Continuous
100
AcDbLine
 10
324.2652
 20
192.357376
 30
0.0
 11
321.0915519999999
 21
192.916976
 31
0.0
  0
ARC
  5
AE7C
330
AB8F
100
AcDbEntity
  8
1
  6
Continuous
100
AcDbCircle
 10
324.0915519999999
 20
191.3725679999998
 30
0.0
 40
1.0
100
AcDbArc
 50
0.0
 51
80.0
  0
ARC
  5
AE7D
330
AB8F
100
AcDbEntity
  8
1
  6
Continuous
100
AcDbCircle
 10
302.0915519999999
 20
191.3725679999998
 30
0.0
 40
1.0
100
AcDbArc
 50
100.0
 51
180.0
  0
LINE
  5
AE7E
330
AB8F
100
AcDbEntity
  8
1
  6
Continuous
100
AcDbLine
 10
301.917904
 20
192.357376
 30
0.0
 11
305.0915519999999
 21
192.916976
 31
0.0
  0
ARC
  5
AE7F
330
AB8F
100
AcDbEntity
  8
1
  6
Continuous
100
AcDbCircle
 10
313.0915519999998
 20
199.7614159999999
 30
0.0
 40
15.611482
100
AcDbArc
 50
215.8746459999999
 51
219.7658409999999
  0
ARC
  5
AE80
330
AB8F
100
AcDbEntity
  8
1
  6
Continuous
100
AcDbCircle
 10
331.491552
 20
209.427011
 30
0.0
 40
0.8
100
AcDbArc
 50
0.0
 51
51.35735799999999
  0
ARC
  5
AE81
330
AB8F
100
AcDbEntity
  8
1
  6
Continuous
100
AcDbCircle
 10
313.0915519999998
 20
127.235555
 30
0.0
 40
85.75628599999998
100
AcDbArc
 50
80.16374799999999
 51
99.836252
  0
ARC
  5
AE82
330
AB8F
100
AcDbEntity
  8
1
  6
Continuous
100
AcDbCircle
 10
325.5514799999999
 20
199.0997129999998
 30
0.0
 40
12.819964
100
AcDbArc
 50
66.743269
 51
80.16374700000001
  0
ARC
  5
AE83
330
AB8F
100
AcDbEntity
  8
1
  6
Continuous
100
AcDbCircle
 10
328.2443549999999
 20
205.36552
 30
0.0
 40
6.0
100
AcDbArc
 50
51.35735799999999
 51
66.743269
  0
ARC
  5
AE84
330
AB8F
100
AcDbEntity
  8
1
  6
Continuous
100
AcDbCircle
 10
328.791552
 20
209.427011
 30
0.0
 40
3.5
100
AcDbArc
 50
333.136189
 51
0.0
  0
ARC
  5
AE85
330
AB8F
100
AcDbEntity
  8
1
  6
Continuous
100
AcDbCircle
 10
324.444064
 20
211.629166
 30
0.0
 40
8.373411
100
AcDbArc
 50
297.288836
 51
333.136189
  0
ARC
  5
AE86
330
AB8F
100
AcDbEntity
  8
1
  6
Continuous
100
AcDbCircle
 10
326.791552
 20
209.427011
 30
0.0
 40
3.5
100
AcDbArc
 50
327.8378969999999
 51
0.0
  0
ARC
  5
AE87
330
AB8F
100
AcDbEntity
  8
1
  6
Continuous
100
AcDbCircle
 10
328.741552
 20
203.2989539999999
 30
0.0
 40
1.0
100
AcDbArc
 50
117.2888359999999
 51
180.0
  0
ARC
  5
AE88
330
AB8F
100
AcDbEntity
  8
1
  6
Continuous
100
AcDbCircle
 10
321.286535
 20
212.888191
 30
0.0
 40
10.00269
100
AcDbArc
 50
296.4477759999999
 51
327.8422449999998
  0
ARC
  5
AE89
330
AB8F
100
AcDbEntity
  8
1
  6
Continuous
100
AcDbCircle
 10
313.0915519999998
 20
148.8916179999999
 30
0.0
 40
64.100223
100
AcDbArc
 50
78.618126
 51
101.381874
  0
ARC
  5
AE8A
330
AB8F
100
AcDbEntity
  8
1
  6
Continuous
100
AcDbCircle
 10
329.4915519999999
 20
209.427011
 30
0.0
 40
0.8
100
AcDbArc
 50
0.0
 51
47.88869
  0
ARC
  5
AE8B
330
AB8F
100
AcDbEntity
  8
1
  6
Continuous
100
AcDbCircle
 10
321.731487
 20
191.8109949999999
 30
0.0
 40
20.31984599999999
100
AcDbArc
 50
71.17393299999998
 51
78.618127
  0
ARC
  5
AE8C
330
AB8F
100
AcDbEntity
  8
1
  6
Continuous
100
AcDbCircle
 10
326.6751450000001
 20
206.3112689999999
 30
0.0
 40
5.0
100
AcDbArc
 50
47.88869
 51
71.17393299999998
  0
ARC
  5
AE8D
330
AB8F
100
AcDbEntity
  8
1
  6
Continuous
100
AcDbCircle
 10
304.451617
 20
191.8109949999999
 30
0.0
 40
20.31984599999999
100
AcDbArc
 50
101.381873
 51
108.8260669999999
  0
ARC
  5
AE8E
330
AB8F
100
AcDbEntity
  8
1
  6
Continuous
100
AcDbCircle
 10
299.5079589999999
 20
206.3112689999999
 30
0.0
 40
5.0
100
AcDbArc
 50
108.8260669999999
 51
132.11131
  0
ARC
  5
AE8F
330
AB8F
100
AcDbEntity
  8
1
  6
Continuous
100
AcDbCircle
 10
296.691552
 20
209.427011
 30
0.0
 40
0.8
100
AcDbArc
 50
132.11131
 51
180.0
  0
ARC
  5
AE90
330
AB8F
100
AcDbEntity
  8
1
  6
Continuous
100
AcDbCircle
 10
299.3915519999998
 20
209.427011
 30
0.0
 40
3.5
100
AcDbArc
 50
180.0
 51
212.162103
  0
ARC
  5
AE91
330
AB8F
100
AcDbEntity
  8
1
  6
Continuous
100
AcDbCircle
 10
304.89657
 20
212.888191
 30
0.0
 40
10.00269
100
AcDbArc
 50
212.157755
 51
243.552224
  0
ARC
  5
AE92
330
AB8F
100
AcDbEntity
  8
1
  6
Continuous
100
AcDbCircle
 10
297.4415519999999
 20
203.2989539999999
 30
0.0
 40
1.0
100
AcDbArc
 50
0.0
 51
62.711164
  0
ARC
  5
AE93
330
AB8F
100
AcDbEntity
  8
1
  6
Continuous
100
AcDbCircle
 10
301.73904
 20
211.629166
 30
0.0
 40
8.373411
100
AcDbArc
 50
206.863811
 51
242.7111640000001
  0
ARC
  5
AE94
330
AB8F
100
AcDbEntity
  8
1
  6
Continuous
100
AcDbCircle
 10
297.3915519999998
 20
209.427011
 30
0.0
 40
3.5
100
AcDbArc
 50
180.0
 51
206.863811
  0
ARC
  5
AE95
330
AB8F
100
AcDbEntity
  8
1
  6
Continuous
100
AcDbCircle
 10
294.691552
 20
209.427011
 30
0.0
 40
0.8
100
AcDbArc
 50
128.6426419999999
 51
180.0
  0
ARC
  5
AE96
330
AB8F
100
AcDbEntity
  8
1
  6
Continuous
100
AcDbCircle
 10
297.9387500000001
 20
205.36552
 30
0.0
 40
6.0
100
AcDbArc
 50
113.2567309999999
 51
128.6426419999999
  0
ARC
  5
AE97
330
AB8F
100
AcDbEntity
  8
1
  6
Continuous
100
AcDbCircle
 10
300.6316249999998
 20
199.0997129999998
 30
0.0
 40
12.819964
100
AcDbArc
 50
99.83625299999999
 51
113.2567309999999
  0
ARC
  5
AE98
330
AB8F
100
AcDbEntity
  8
1
  6
Continuous
100
AcDbCircle
 10
313.0915519999998
 20
193.211668
 30
0.0
 40
18.0
100
AcDbArc
 50
64.62306600000001
 51
115.3769339999999
  0
ARC
  5
AE99
330
AB8F
100
AcDbEntity
  8
1
  6
Continuous
100
AcDbCircle
 10
305.5915519999999
 20
209.023056
 30
0.0
 40
0.5
100
AcDbArc
 50
115.3769339999999
 51
180.0
  0
ARC
  5
AE9A
330
AB8F
100
AcDbEntity
  8
1
  6
Continuous
100
AcDbCircle
 10
320.591552
 20
209.023056
 30
0.0
 40
0.5
100
AcDbArc
 50
0.0
 51
64.62306600000001
  0
ARC
  5
AE9B
330
AB8F
100
AcDbEntity
  8
1
  6
Continuous
100
AcDbCircle
 10
40.74456099999999
 20
215.544086
 30
0.0
 40
1.0
100
AcDbArc
 50
104.078104
 51
163.472955
  0
ARC
  5
AE9C
330
AB8F
100
AcDbEntity
  8
1
  6
Continuous
100
AcDbCircle
 10
67.18251999999999
 20
215.544086
 30
0.0
 40
1.0
100
AcDbArc
 50
16.527045
 51
75.92189599999997
  0
LINE
  5
AE9D
330
AB8F
100
AcDbEntity
  8
1
  6
Continuous
100
AcDbLine
 10
73.16354
 20
219.2375549999999
 30
0.0
 11
73.16354
 21
209.427011
 31
0.0
  0
ARC
  5
AE9E
330
AB8F
100
AcDbEntity
  8
1
  6
Continuous
100
AcDbCircle
 10
69.66353999999999
 20
209.427011
 30
0.0
 40
3.5
100
AcDbArc
 50
333.136189
 51
0.0
  0
ARC
  5
AE9F
330
AB8F
100
AcDbEntity
  8
1
  6
Continuous
100
AcDbCircle
 10
65.31605299999999
 20
211.629166
 30
0.0
 40
8.373411
100
AcDbArc
 50
297.288836
 51
333.136189
  0
ARC
  5
AEA0
330
AB8F
100
AcDbEntity
  8
1
  6
Continuous
100
AcDbCircle
 10
69.61354
 20
203.2989539999999
 30
0.0
 40
1.0
100
AcDbArc
 50
117.2888359999999
 51
180.0
  0
ARC
  5
AEA1
330
AB8F
100
AcDbEntity
  8
1
  6
Continuous
100
AcDbCircle
 10
38.31354000000001
 20
203.2989539999999
 30
0.0
 40
1.0
100
AcDbArc
 50
0.0
 51
62.711164
  0
ARC
  5
AEA2
330
AB8F
100
AcDbEntity
  8
1
  6
Continuous
100
AcDbCircle
 10
42.61102799999998
 20
211.629166
 30
0.0
 40
8.373411
100
AcDbArc
 50
206.863811
 51
242.7111640000001
  0
ARC
  5
AEA3
330
AB8F
100
AcDbEntity
  8
1
  6
Continuous
100
AcDbCircle
 10
38.26354
 20
209.427011
 30
0.0
 40
3.5
100
AcDbArc
 50
180.0
 51
206.863811
  0
LINE
  5
AEA4
330
AB8F
100
AcDbEntity
  8
1
  6
Continuous
100
AcDbLine
 10
34.76354
 20
219.2375549999999
 30
0.0
 11
34.76354
 21
209.427011
 31
0.0
  0
ENDSEC
  0
SECTION
  2
OBJECTS
  0
DICTIONARY
  5
AB7D
330
0
100
AcDbDictionary
281
     1
  3
ACAD_CIP_PREVIOUS_PRODUCT_INFO
350
AF06
  3
ACAD_COLOR
350
AEE8
  3
ACAD_DETAILVIEWSTYLE
350
AF01
  3
ACAD_GROUP
350
AB7E
  3
ACAD_LAYOUT
350
AB8A
  3
ACAD_MATERIAL
350
AEB6
  3
ACAD_MLEADERSTYLE
350
AEFD
  3
ACAD_MLINESTYLE
350
AB87
  3
ACAD_PLOTSETTINGS
350
AB89
  3
ACAD_PLOTSTYLENAME
350
AEB4
  3
ACAD_SCALELIST
350
AEEB
  3
ACAD_SECTIONVIEWSTYLE
350
AEFF
  3
ACAD_TABLESTYLE
350
AEE9
  3
ACAD_VISUALSTYLE
350
AECF
  3
ACDB_RECOMPOSE_DATA
350
AF24
  3
AcDbVariableDictionary
350
AF17
  3
DWGPROPS
350
AF25
  0
DICTIONARY
  5
AF07
330
AB81
100
AcDbDictionary
280
     1
281
     1
  3
ADSK_XREC_LAYER_RECONCILED
360
AF08
  0
DICTIONARY
  5
AF09
330
AB97
100
AcDbDictionary
280
     1
281
     1
  3
ADSK_XREC_LAYER_RECONCILED
360
AF0A
  0
DICTIONARY
  5
AF0B
330
AB98
100
AcDbDictionary
280
     1
281
     1
  3
ADSK_XREC_LAYER_RECONCILED
360
AF0C
  0
DICTIONARY
  5
AF0D
330
AB99
100
AcDbDictionary
280
     1
281
     1
  3
ADSK_XREC_LAYER_RECONCILED
360
AF0E
  0
DICTIONARY
  5
AF0F
330
AB9A
100
AcDbDictionary
280
     1
281
     1
  3
ADSK_XREC_LAYER_RECONCILED
360
AF10
  0
DICTIONARY
  5
AF11
330
AB9B
100
AcDbDictionary
280
     1
281
     1
  3
ADSK_XREC_LAYER_RECONCILED
360
AF12
  0
DICTIONARY
  5
AF13
330
AB9C
100
AcDbDictionary
280
     1
281
     1
  3
ADSK_XREC_LAYER_RECONCILED
360
AF14
  0
DICTIONARY
  5
AF15
330
AB9D
100
AcDbDictionary
280
     1
281
     1
  3
ADSK_XREC_LAYER_RECONCILED
360
AF16
  0
DICTIONARY
  5
AEAF
330
AB8F
100
AcDbDictionary
281
     1
  3
ACAD_LAYOUTSELFREF
350
AEB0
  0
DICTIONARY
  5
AEAD
330
AB8B
100
AcDbDictionary
281
     1
  3
ACAD_LAYOUTSELFREF
350
AEAE
  0
XRECORD
  5
AF06
102
{ACAD_REACTORS
330
AB7D
102
}
330
AB7D
100
AcDbXrecord
280
     1
300
ACDLT
300
2014
300
ACDLT_F_S
  0
DICTIONARY
  5
AEE8
102
{ACAD_REACTORS
330
AB7D
102
}
330
AB7D
100
AcDbDictionary
281
     1
  0
DICTIONARY
  5
AF01
102
{ACAD_REACTORS
330
AB7D
102
}
330
AB7D
100
AcDbDictionary
281
     1
  3
Imperial24
350
AF02
  0
DICTIONARY
  5
AB7E
102
{ACAD_REACTORS
330
AB7D
102
}
330
AB7D
100
AcDbDictionary
281
     1
  0
DICTIONARY
  5
AB8A
102
{ACAD_REACTORS
330
AB7D
102
}
330
AB7D
100
AcDbDictionary
281
     1
  3
Model
350
AF03
  3
レイアウト1
350
AF04
  0
DICTIONARY
  5
AEB6
102
{ACAD_REACTORS
330
AB7D
102
}
330
AB7D
100
AcDbDictionary
281
     1
  3
ByBlock
350
AEBF
  3
ByLayer
350
AEB7
  3
Global
350
AEC7
  0
DICTIONARY
  5
AEFD
102
{ACAD_REACTORS
330
AB7D
102
}
330
AB7D
100
AcDbDictionary
281
     1
  3
Standard
350
AEFE
  0
DICTIONARY
  5
AB87
102
{ACAD_REACTORS
330
AB7D
102
}
330
AB7D
100
AcDbDictionary
281
     1
  3
STANDARD
350
AB88
  0
DICTIONARY
  5
AB89
102
{ACAD_REACTORS
330
AB7D
102
}
330
AB7D
100
AcDbDictionary
281
     1
  0
ACDBDICTIONARYWDFLT
  5
AEB4
102
{ACAD_REACTORS
330
AB7D
102
}
330
AB7D
100
AcDbDictionary
281
     1
  3
Normal
350
AEB5
100
AcDbDictionaryWithDefault
340
AEB5
  0
DICTIONARY
  5
AEEB
102
{ACAD_REACTORS
330
AB7D
102
}
330
AB7D
100
AcDbDictionary
281
     1
  3
A0
350
AEEC
  3
A1
350
AEED
  3
A2
350
AEEE
  3
A3
350
AEEF
  3
A4
350
AEF0
  3
A5
350
AEF1
  3
A6
350
AEF2
  3
A7
350
AEF3
  3
A8
350
AEF4
  3
A9
350
AEF5
  3
B0
350
AEF6
  3
B1
350
AEF7
  3
B2
350
AEF8
  3
B3
350
AEF9
  3
B4
350
AEFA
  3
B5
350
AEFB
  3
B6
350
AEFC
  0
DICTIONARY
  5
AEFF
102
{ACAD_REACTORS
330
AB7D
102
}
330
AB7D
100
AcDbDictionary
281
     1
  3
Imperial24
350
AF00
  0
DICTIONARY
  5
AEE9
102
{ACAD_REACTORS
330
AB7D
102
}
330
AB7D
100
AcDbDictionary
281
     1
  3
Standard
350
AEEA
  0
DICTIONARY
  5
AECF
102
{ACAD_REACTORS
330
AB7D
102
}
330
AB7D
100
AcDbDictionary
281
     1
  3
2dWireframe
350
AED5
  3
Basic
350
AED4
  3
Brighten
350
AEDB
  3
ColorChange
350
AEDF
  3
Conceptual
350
AED8
  3
Dim
350
AEDA
  3
EdgeColorOff
350
AEE7
  3
Facepattern
350
AEDE
  3
Flat
350
AED0
  3
FlatWithEdges
350
AED1
  3
Gouraud
350
AED2
  3
GouraudWithEdges
350
AED3
  3
Hidden
350
AED7
  3
JitterOff
350
AEE5
  3
Linepattern
350
AEDD
  3
OverhangOff
350
AEE6
  3
Realistic
350
AED9
  3
Shaded
350
AEE4
  3
Shaded with edges
350
AEE3
  3
Shades of Gray
350
AEE0
  3
Sketchy
350
AEE1
  3
Thicken
350
AEDC
  3
Wireframe
350
AED6
  3
X-Ray
350
AEE2
  0
XRECORD
  5
AF24
102
{ACAD_REACTORS
330
AB7D
102
}
330
AB7D
100
AcDbXrecord
280
     1
 90
        1
330
AEEA
  0
DICTIONARY
  5
AF17
102
{ACAD_REACTORS
330
AB7D
102
}
330
AB7D
100
AcDbDictionary
281
     1
  3
CANNOSCALE
350
AF1C
  3
CMLEADERSTYLE
350
AF19
  3
CTABLESTYLE
350
AF18
  3
CVIEWDETAILSTYLE
350
AF1A
  3
CVIEWSECTIONSTYLE
350
AF1B
  3
DIMASSOC
350
AF1F
  3
INDEXCTL
350
AF1E
  3
SORTENTS
350
AF1D
  3
XCLIPFRAME
350
AF20
  0
XRECORD
  5
AF25
102
{ACAD_REACTORS
330
AB7D
102
}
330
AB7D
100
AcDbXrecord
280
     1
  1
DWGPROPS COOKIE
  2

  3

  4

  6

  7

  8
Yoshitsune
  9

300
=
301
=
302
=
303
=
304
=
305
=
306
=
307
=
308
=
309
=
 40
0.0001512962962963
 41
2451345.359066435
 42
2457618.720668357
  1

 90
        0
  0
XRECORD
  5
AF08
102
{ACAD_REACTORS
330
AF07
102
}
330
AF07
100
AcDbXrecord
280
     1
290
     1
  0
XRECORD
  5
AF0A
102
{ACAD_REACTORS
330
AF09
102
}
330
AF09
100
AcDbXrecord
280
     1
290
     1
  0
XRECORD
  5
AF0C
102
{ACAD_REACTORS
330
AF0B
102
}
330
AF0B
100
AcDbXrecord
280
     1
290
     1
  0
XRECORD
  5
AF0E
102
{ACAD_REACTORS
330
AF0D
102
}
330
AF0D
100
AcDbXrecord
280
     1
290
     1
  0
XRECORD
  5
AF10
102
{ACAD_REACTORS
330
AF0F
102
}
330
AF0F
100
AcDbXrecord
280
     1
290
     1
  0
XRECORD
  5
AF12
102
{ACAD_REACTORS
330
AF11
102
}
330
AF11
100
AcDbXrecord
280
     1
290
     1
  0
XRECORD
  5
AF14
102
{ACAD_REACTORS
330
AF13
102
}
330
AF13
100
AcDbXrecord
280
     1
290
     1
  0
XRECORD
  5
AF16
102
{ACAD_REACTORS
330
AF15
102
}
330
AF15
100
AcDbXrecord
280
     1
290
     1
  0
XRECORD
  5
AEB0
102
{ACAD_REACTORS
330
AEAF
102
}
330
AEAF
100
AcDbXrecord
280
     1
340
AB8F
  0
XRECORD
  5
AEAE
102
{ACAD_REACTORS
330
AEAD
102
}
330
AEAD
100
AcDbXrecord
280
     1
340
AB8B
  0
ACDBDETAILVIEWSTYLE
  5
AF02
102
{ACAD_XDICTIONARY
360
AF5D
102
}
102
{ACAD_REACTORS
330
AF01
102
}
330
AF01
100
AcDbModelDocViewStyle
 70
     0
  3
Imperial24
290
     0
100
AcDbDetailViewStyle
 70
     0
 71
     0
 90
        3
 71
     1
340
AB82
 40
0.24
340
0
 40
0.24
300

 40
0.36
280
     3
 71
     2
340
AB86
 90
       25
 71
     3
340
AB82
 40
0.24
 90
        1
 40
0.75
 90
        1
300
%<\AcVar ViewType \f "%tc1">% %<\AcVar ViewDetailId>%\PSCALE %<\AcVar ViewScale \f "%sn">%
 71
     4
340
AB86
 90
       25
340
AB86
 90
       25
280
     0
  0
LAYOUT
  5
AF03
102
{ACAD_XDICTIONARY
360
AF5F
102
}
102
{ACAD_REACTORS
330
AB8A
102
}
330
AB8A
100
AcDbPlotSettings
  1

  2
Canon LBP9100C
  4

  6

 40
0.0
 41
0.0
 42
0.0
 43
0.0
 44
0.0
 45
0.0
 46
0.0
 47
0.0
 48
0.0
 49
0.0
140
0.0
141
0.0
142
1.0
143
1.0
 70
  1712
 72
     0
 73
     0
 74
     0
  7

 75
     0
147
1.0
148
0.0
149
0.0
100
AcDbLayout
  1
Model
 70
     1
 71
     0
 10
0.0
 20
0.0
 11
12.0
 21
9.0
 12
0.0
 22
0.0
 32
0.0
 14
0.0
 24
0.0
 34
0.0
 15
0.0
 25
0.0
 35
0.0
146
0.0
 13
0.0
 23
0.0
 33
0.0
 16
1.0
 26
0.0
 36
0.0
 17
0.0
 27
1.0
 37
0.0
 76
     0
330
AB8F
331
AEAC
  0
LAYOUT
  5
AF04
102
{ACAD_XDICTIONARY
360
AF61
102
}
102
{ACAD_REACTORS
330
AB8A
102
}
330
AB8A
100
AcDbPlotSettings
  1

  2
Canon LBP9100C
  4

  6

 40
0.0
 41
0.0
 42
0.0
 43
0.0
 44
0.0
 45
0.0
 46
0.0
 47
0.0
 48
0.0
 49
0.0
140
0.0
141
0.0
142
1.0
143
1.0
 70
   688
 72
     0
 73
     0
 74
     5
  7

 75
    16
147
1.0
148
0.0
149
0.0
100
AcDbLayout
  1
レイアウト1
 70
     0
 71
     1
 10
0.0
 20
0.0
 11
420.0
 21
297.0
 12
0.0
 22
0.0
 32
0.0
 14
1.000000000000000E+20
 24
1.000000000000000E+20
 34
1.000000000000000E+20
 15
-1.000000000000000E+20
 25
-1.000000000000000E+20
 35
-1.000000000000000E+20
146
0.0
 13
0.0
 23
0.0
 33
0.0
 16
1.0
 26
0.0
 36
0.0
 17
0.0
 27
1.0
 37
0.0
 76
     0
330
AB8B
  0
MATERIAL
  5
AEBF
102
{ACAD_XDICTIONARY
360
AEC0
102
}
102
{ACAD_REACTORS
330
AEB6
102
}
330
AEB6
100
AcDbMaterial
  1
ByBlock
 72
     0
 43
0.0208333333333333
 43
0.0
 43
0.0
 43
0.0
 43
0.0
 43
0.0208333333333333
 43
0.0
 43
0.0
 43
0.0
 43
0.0
 43
1.0
 43
0.0
 43
0.0
 43
0.0
 43
0.0
 43
1.0
 77
     0
 47
0.0208333333333333
 47
0.0
 47
0.0
 47
0.0
 47
0.0
 47
0.0208333333333333
 47
0.0
 47
0.0
 47
0.0
 47
0.0
 47
1.0
 47
0.0
 47
0.0
 47
0.0
 47
0.0
 47
1.0
171
     0
 49
0.0208333333333333
 49
0.0
 49
0.0
 49
0.0
 49
0.0
 49
0.0208333333333333
 49
0.0
 49
0.0
 49
0.0
 49
0.0
 49
1.0
 49
0.0
 49
0.0
 49
0.0
 49
0.0
 49
1.0
175
     0
142
0.0208333333333333
142
0.0
142
0.0
142
0.0
142
0.0
142
0.0208333333333333
142
0.0
142
0.0
142
0.0
142
0.0
142
1.0
142
0.0
142
0.0
142
0.0
142
0.0
142
1.0
179
     0
144
0.0208333333333333
144
0.0
144
0.0
144
0.0
144
0.0
144
0.0208333333333333
144
0.0
144
0.0
144
0.0
144
0.0
144
1.0
144
0.0
144
0.0
144
0.0
144
0.0
144
1.0
147
0.0208333333333333
147
0.0
147
0.0
147
0.0
147
0.0
147
0.0208333333333333
147
0.0
147
0.0
147
0.0
147
0.0
147
1.0
147
0.0
147
0.0
147
0.0
147
0.0
147
1.0
  0
MATERIAL
  5
AEB7
102
{ACAD_XDICTIONARY
360
AEB8
102
}
102
{ACAD_REACTORS
330
AEB6
102
}
330
AEB6
100
AcDbMaterial
  1
ByLayer
 72
     0
 43
0.0208333333333333
 43
0.0
 43
0.0
 43
0.0
 43
0.0
 43
0.0208333333333333
 43
0.0
 43
0.0
 43
0.0
 43
0.0
 43
1.0
 43
0.0
 43
0.0
 43
0.0
 43
0.0
 43
1.0
 77
     0
 47
0.0208333333333333
 47
0.0
 47
0.0
 47
0.0
 47
0.0
 47
0.0208333333333333
 47
0.0
 47
0.0
 47
0.0
 47
0.0
 47
1.0
 47
0.0
 47
0.0
 47
0.0
 47
0.0
 47
1.0
171
     0
 49
0.0208333333333333
 49
0.0
 49
0.0
 49
0.0
 49
0.0
 49
0.0208333333333333
 49
0.0
 49
0.0
 49
0.0
 49
0.0
 49
1.0
 49
0.0
 49
0.0
 49
0.0
 49
0.0
 49
1.0
175
     0
142
0.0208333333333333
142
0.0
142
0.0
142
0.0
142
0.0
142
0.0208333333333333
142
0.0
142
0.0
142
0.0
142
0.0
142
1.0
142
0.0
142
0.0
142
0.0
142
0.0
142
1.0
179
     0
144
0.0208333333333333
144
0.0
144
0.0
144
0.0
144
0.0
144
0.0208333333333333
144
0.0
144
0.0
144
0.0
144
0.0
144
1.0
144
0.0
144
0.0
144
0.0
144
0.0
144
1.0
147
0.0208333333333333
147
0.0
147
0.0
147
0.0
147
0.0
147
0.0208333333333333
147
0.0
147
0.0
147
0.0
147
0.0
147
1.0
147
0.0
147
0.0
147
0.0
147
0.0
147
1.0
  0
MATERIAL
  5
AEC7
102
{ACAD_XDICTIONARY
360
AEC8
102
}
102
{ACAD_REACTORS
330
AEB6
102
}
330
AEB6
100
AcDbMaterial
  1
Global
 72
     0
 43
0.0208333333333333
 43
0.0
 43
0.0
 43
0.0
 43
0.0
 43
0.0208333333333333
 43
0.0
 43
0.0
 43
0.0
 43
0.0
 43
1.0
 43
0.0
 43
0.0
 43
0.0
 43
0.0
 43
1.0
 77
     0
 47
0.0208333333333333
 47
0.0
 47
0.0
 47
0.0
 47
0.0
 47
0.0208333333333333
 47
0.0
 47
0.0
 47
0.0
 47
0.0
 47
1.0
 47
0.0
 47
0.0
 47
0.0
 47
0.0
 47
1.0
171
     0
 49
0.0208333333333333
 49
0.0
 49
0.0
 49
0.0
 49
0.0
 49
0.0208333333333333
 49
0.0
 49
0.0
 49
0.0
 49
0.0
 49
1.0
 49
0.0
 49
0.0
 49
0.0
 49
0.0
 49
1.0
175
     0
142
0.0208333333333333
142
0.0
142
0.0
142
0.0
142
0.0
142
0.0208333333333333
142
0.0
142
0.0
142
0.0
142
0.0
142
1.0
142
0.0
142
0.0
142
0.0
142
0.0
142
1.0
179
     0
144
0.0208333333333333
144
0.0
144
0.0
144
0.0
144
0.0
144
0.0208333333333333
144
0.0
144
0.0
144
0.0
144
0.0
144
1.0
144
0.0
144
0.0
144
0.0
144
0.0
144
1.0
147
0.0208333333333333
147
0.0
147
0.0
147
0.0
147
0.0
147
0.0208333333333333
147
0.0
147
0.0
147
0.0
147
0.0
147
1.0
147
0.0
147
0.0
147
0.0
147
0.0
147
1.0
  0
MLEADERSTYLE
  5
AEFE
102
{ACAD_REACTORS
330
AEFD
102
}
330
AEFD
100
AcDbMLeaderStyle
170
     2
171
     1
172
     0
 90
        2
 40
0.0
 41
0.0
173
     1
 91
-1056964608
340
AB84
 92
       -2
290
     1
 42
0.09
291
     1
 43
0.36
  3
Standard
 44
0.18
300

342
AB82
174
     1
178
     6
175
     1
176
     0
 93
-1056964608
 45
0.18
292
     0
297
     0
 46
0.18
 94
-1056964608
 47
1.0
 49
1.0
140
1.0
293
     1
141
0.0
294
     1
177
     0
142
1.0
295
     0
296
     0
143
0.125
1001
ACAD_MLEADERVER
1070
     2
  0
MLINESTYLE
  5
AB88
102
{ACAD_REACTORS
330
AB87
102
}
330
AB87
100
AcDbMlineStyle
  2
STANDARD
 70
     0
  3

 62
   256
 51
90.0
 52
90.0
 71
     2
 49
0.5
 62
   256
  6
BYLAYER
 49
-0.5
 62
   256
  6
BYLAYER
  0
ACDBPLACEHOLDER
  5
AEB5
102
{ACAD_REACTORS
330
AEB4
102
}
330
AEB4
  0
SCALE
  5
AEEC
102
{ACAD_REACTORS
330
AEEB
102
}
330
AEEB
100
AcDbScale
 70
     0
300
1:1
140
1.0
141
1.0
290
     1
  0
SCALE
  5
AEED
102
{ACAD_REACTORS
330
AEEB
102
}
330
AEEB
100
AcDbScale
 70
     0
300
1/128" = 1'-0"
140
0.0078125
141
12.0
290
     0
  0
SCALE
  5
AEEE
102
{ACAD_REACTORS
330
AEEB
102
}
330
AEEB
100
AcDbScale
 70
     0
300
1/64" = 1'-0"
140
0.015625
141
12.0
290
     0
  0
SCALE
  5
AEEF
102
{ACAD_REACTORS
330
AEEB
102
}
330
AEEB
100
AcDbScale
 70
     0
300
1/32" = 1'-0"
140
0.03125
141
12.0
290
     0
  0
SCALE
  5
AEF0
102
{ACAD_REACTORS
330
AEEB
102
}
330
AEEB
100
AcDbScale
 70
     0
300
1/16" = 1'-0"
140
0.0625
141
12.0
290
     0
  0
SCALE
  5
AEF1
102
{ACAD_REACTORS
330
AEEB
102
}
330
AEEB
100
AcDbScale
 70
     0
300
3/32" = 1'-0"
140
0.09375
141
12.0
290
     0
  0
SCALE
  5
AEF2
102
{ACAD_REACTORS
330
AEEB
102
}
330
AEEB
100
AcDbScale
 70
     0
300
1/8" = 1'-0"
140
0.125
141
12.0
290
     0
  0
SCALE
  5
AEF3
102
{ACAD_REACTORS
330
AEEB
102
}
330
AEEB
100
AcDbScale
 70
     0
300
3/16" = 1'-0"
140
0.1875
141
12.0
290
     0
  0
SCALE
  5
AEF4
102
{ACAD_REACTORS
330
AEEB
102
}
330
AEEB
100
AcDbScale
 70
     0
300
1/4" = 1'-0"
140
0.25
141
12.0
290
     0
  0
SCALE
  5
AEF5
102
{ACAD_REACTORS
330
AEEB
102
}
330
AEEB
100
AcDbScale
 70
     0
300
3/8" = 1'-0"
140
0.375
141
12.0
290
     0
  0
SCALE
  5
AEF6
102
{ACAD_REACTORS
330
AEEB
102
}
330
AEEB
100
AcDbScale
 70
     0
300
1/2" = 1'-0"
140
0.5
141
12.0
290
     0
  0
SCALE
  5
AEF7
102
{ACAD_REACTORS
330
AEEB
102
}
330
AEEB
100
AcDbScale
 70
     0
300
3/4" = 1'-0"
140
0.75
141
12.0
290
     0
  0
SCALE
  5
AEF8
102
{ACAD_REACTORS
330
AEEB
102
}
330
AEEB
100
AcDbScale
 70
     0
300
1" = 1'-0"
140
1.0
141
12.0
290
     0
  0
SCALE
  5
AEF9
102
{ACAD_REACTORS
330
AEEB
102
}
330
AEEB
100
AcDbScale
 70
     0
300
1-1/2" = 1'-0"
140
1.5
141
12.0
290
     0
  0
SCALE
  5
AEFA
102
{ACAD_REACTORS
330
AEEB
102
}
330
AEEB
100
AcDbScale
 70
     0
300
3" = 1'-0"
140
3.0
141
12.0
290
     0
  0
SCALE
  5
AEFB
102
{ACAD_REACTORS
330
AEEB
102
}
330
AEEB
100
AcDbScale
 70
     0
300
6" = 1'-0"
140
6.0
141
12.0
290
     0
  0
SCALE
  5
AEFC
102
{ACAD_REACTORS
330
AEEB
102
}
330
AEEB
100
AcDbScale
 70
     0
300
1'-0" = 1'-0"
140
12.0
141
12.0
290
     0
  0
ACDBSECTIONVIEWSTYLE
  5
AF00
102
{ACAD_XDICTIONARY
360
AF5B
102
}
102
{ACAD_REACTORS
330
AEFF
102
}
330
AEFF
100
AcDbModelDocViewStyle
 70
     0
  3
Imperial24
290
     0
100
AcDbSectionViewStyle
 70
     0
 71
     0
 90
       78
 71
     1
340
AB82
 40
0.24
340
0
340
0
 40
0.24
300
I, O, Q, S, X, Z
 40
0.48
 90
        3
 40
0.18
 90
        1
 71
     2
340
AB86
 90
       25
340
AB86
 90
       50
 40
0.24
 40
0.0
 40
0.24
 71
     3
340
AB82
 40
0.24
 90
        1
 40
0.75
 90
        1
300
%<\AcVar ViewType \f "%tc1">% %<\AcVar ViewSectionStartId>%-%<\AcVar ViewSectionEndId>%\PSCALE %<\AcVar ViewScale \f "%sn">%
 71
     4
300
ANSI31
 40
1.0
 90
        0
290
     0
290
     0
 90
        6
 40
0.0
 40
1.570796326794896
 40
0.2617993877991494
 40
1.308996938995747
 40
-0.2617993877991494
 40
1.832595714594046
  0
TABLESTYLE
  5
AEEA
102
{ACAD_XDICTIONARY
360
AF22
102
}
102
{ACAD_REACTORS
330
AEE9
102
}
330
AEE9
100
AcDbTableStyle
  3
Standard
 70
     0
 71
     0
 40
0.06
 41
0.06
280
     0
281
     0
  7
STANDARD
140
0.18
170
     2
 62
     0
 63
     7
283
     0
274
    -2
284
     1
 64
     0
275
    -2
285
     1
 65
     0
276
    -2
286
     1
 66
     0
277
    -2
287
     1
 67
     0
278
    -2
288
     1
 68
     0
279
    -2
289
     1
 69
     0
  7
STANDARD
140
0.25
170
     5
 62
     0
 63
     7
283
     0
274
    -2
284
     1
 64
     0
275
    -2
285
     1
 65
     0
276
    -2
286
     1
 66
     0
277
    -2
287
     1
 67
     0
278
    -2
288
     1
 68
     0
279
    -2
289
     1
 69
     0
  7
STANDARD
140
0.18
170
     5
 62
     0
 63
     7
283
     0
274
    -2
284
     1
 64
     0
275
    -2
285
     1
 65
     0
276
    -2
286
     1
 66
     0
277
    -2
287
     1
 67
     0
278
    -2
288
     1
 68
     0
279
    -2
289
     1
 69
     0
  0
VISUALSTYLE
  5
AED5
102
{ACAD_XDICTIONARY
360
AF33
102
}
102
{ACAD_REACTORS
330
AECF
102
}
330
AECF
100
AcDbVisualStyle
  2
2dWireframe
 70
     4
 71
     0
 72
     2
 73
     0
 90
        0
 40
-0.6
 41
-30.0
 62
     5
 63
     7
 74
     1
 91
        4
 64
     7
 65
   257
 75
     1
175
     1
 42
1.0
 92
        0
 66
   257
 43
1.0
 76
     1
 77
     6
 78
     2
 67
     7
 79
     5
170
     0
171
     0
290
     0
174
     0
 93
        1
 44
0.0
173
     0
291
     0
 45
0.0
1001
ACAD
1000
AcDbSavedByObjectVersion
1070
     0
  0
VISUALSTYLE
  5
AED4
102
{ACAD_XDICTIONARY
360
AF31
102
}
102
{ACAD_REACTORS
330
AECF
102
}
330
AECF
100
AcDbVisualStyle
  2
Basic
 70
     7
 71
     1
 72
     0
 73
     1
 90
        0
 40
-0.6
 41
-30.0
 62
     5
 63
     7
 74
     0
 91
        4
 64
     7
 65
   257
 75
     1
175
     1
 42
1.0
 92
        8
 66
     7
 43
1.0
 76
     1
 77
     6
 78
     2
 67
     7
 79
     5
170
     0
171
     0
290
     0
174
     0
 93
        1
 44
0.0
173
     0
291
     1
 45
0.0
1001
ACAD
1000
AcDbSavedByObjectVersion
1070
     0
  0
VISUALSTYLE
  5
AEDB
102
{ACAD_XDICTIONARY
360
AF3F
102
}
102
{ACAD_REACTORS
330
AECF
102
}
330
AECF
100
AcDbVisualStyle
  2
Brighten
 70
    12
 71
     2
 72
     2
 73
     0
 90
        0
 40
-0.6
 41
-30.0
 62
     5
 63
     7
 74
     1
 91
        4
 64
     7
 65
   257
 75
     1
175
     1
 42
1.0
 92
        8
 66
     7
 43
1.0
 76
     1
 77
     6
 78
     2
 67
     7
 79
     5
170
     0
171
     0
290
     0
174
     0
 93
        1
 44
50.0
173
     0
291
     1
 45
0.0
1001
ACAD
1000
AcDbSavedByObjectVersion
1070
     0
  0
VISUALSTYLE
  5
AEDF
102
{ACAD_XDICTIONARY
360
AF47
102
}
102
{ACAD_REACTORS
330
AECF
102
}
330
AECF
100
AcDbVisualStyle
  2
ColorChange
 70
    16
 71
     2
 72
     2
 73
     3
 90
        0
 40
-0.6
 41
-30.0
 62
     5
 63
     8
 74
     1
 91
        4
 64
     7
 65
   257
 75
     1
175
     1
 42
1.0
 92
        8
 66
     8
 43
1.0
 76
     1
 77
     6
 78
     2
 67
     7
 79
     5
170
     0
171
     0
290
     0
174
     0
 93
        1
 44
0.0
173
     0
291
     1
 45
0.0
1001
ACAD
1000
AcDbSavedByObjectVersion
1070
     0
  0
VISUALSTYLE
  5
AED8
102
{ACAD_XDICTIONARY
360
AF39
102
}
102
{ACAD_REACTORS
330
AECF
102
}
330
AECF
100
AcDbVisualStyle
  2
Conceptual
 70
     9
 71
     3
 72
     2
 73
     0
 90
        0
 40
-0.6
 41
-30.0
 62
     5
 63
     7
 74
     2
 91
        2
 64
     7
 65
   257
 75
     1
175
     1
 42
179.0
 92
        8
 66
     7
 43
1.0
 76
     1
 77
     6
 78
     2
 67
     7
 79
     3
170
     0
171
     0
290
     0
174
     0
 93
        1
 44
0.0
173
     0
291
     0
 45
0.0
1001
ACAD
1000
AcDbSavedByObjectVersion
1070
     0
  0
VISUALSTYLE
  5
AEDA
102
{ACAD_XDICTIONARY
360
AF3D
102
}
102
{ACAD_REACTORS
330
AECF
102
}
330
AECF
100
AcDbVisualStyle
  2
Dim
 70
    11
 71
     2
 72
     2
 73
     0
 90
        0
 40
-0.6
 41
-30.0
 62
     5
 63
     7
 74
     1
 91
        4
 64
     7
 65
   257
 75
     1
175
     1
 42
1.0
 92
        8
 66
     7
 43
1.0
 76
     1
 77
     6
 78
     2
 67
     7
 79
     5
170
     0
171
     0
290
     0
174
     0
 93
        1
 44
-50.0
173
     0
291
     1
 45
0.0
1001
ACAD
1000
AcDbSavedByObjectVersion
1070
     0
  0
VISUALSTYLE
  5
AEE7
102
{ACAD_XDICTIONARY
360
AF57
102
}
102
{ACAD_REACTORS
330
AECF
102
}
330
AECF
100
AcDbVisualStyle
  2
EdgeColorOff
 70
    22
 71
     2
 72
     2
 73
     0
 90
        0
 40
-0.6
 41
-30.0
 62
     5
 63
     7
 74
     1
 91
        4
 64
     7
 65
   257
 75
     1
175
     1
 42
1.0
 92
        8
 66
     7
 43
1.0
 76
     1
 77
     6
 78
     2
 67
     7
 79
     5
170
     0
171
     0
290
     0
174
     0
 93
        1
 44
0.0
173
     0
291
     1
 45
0.0
1001
ACAD
1000
AcDbSavedByObjectVersion
1070
     0
  0
VISUALSTYLE
  5
AEDE
102
{ACAD_XDICTIONARY
360
AF45
102
}
102
{ACAD_REACTORS
330
AECF
102
}
330
AECF
100
AcDbVisualStyle
  2
Facepattern
 70
    15
 71
     2
 72
     2
 73
     0
 90
        0
 40
-0.6
 41
-30.0
 62
     5
 63
     7
 74
     1
 91
        4
 64
     7
 65
   257
 75
     1
175
     1
 42
1.0
 92
        8
 66
     7
 43
1.0
 76
     1
 77
     6
 78
     2
 67
     7
 79
     5
170
     0
171
     0
290
     0
174
     0
 93
        1
 44
0.0
173
     0
291
     1
 45
0.0
1001
ACAD
1000
AcDbSavedByObjectVersion
1070
     0
  0
VISUALSTYLE
  5
AED0
102
{ACAD_XDICTIONARY
360
AF29
102
}
102
{ACAD_REACTORS
330
AECF
102
}
330
AECF
100
AcDbVisualStyle
  2
Flat
 70
     0
 71
     2
 72
     1
 73
     1
 90
        2
 40
-0.6
 41
30.0
 62
     5
 63
     7
 74
     0
 91
        0
 64
     7
 65
   257
 75
     1
175
     1
 42
1.0
 92
        8
 66
     7
 43
1.0
 76
     1
 77
     6
 78
     2
 67
     7
 79
     5
170
     0
171
     0
290
     0
174
     0
 93
       13
 44
0.0
173
     0
291
     1
 45
0.0
1001
ACAD
1000
AcDbSavedByObjectVersion
1070
     0
  0
VISUALSTYLE
  5
AED1
102
{ACAD_XDICTIONARY
360
AF2B
102
}
102
{ACAD_REACTORS
330
AECF
102
}
330
AECF
100
AcDbVisualStyle
  2
FlatWithEdges
 70
     1
 71
     2
 72
     1
 73
     1
 90
        2
 40
-0.6
 41
30.0
 62
     5
 63
     7
 74
     1
 91
        0
 64
     7
 65
   257
 75
     1
175
     1
 42
1.0
 92
        0
 66
   257
 43
1.0
 76
     1
 77
     6
 78
     2
 67
     7
 79
     5
170
     0
171
     0
290
     0
174
     0
 93
       13
 44
0.0
173
     0
291
     1
 45
0.0
1001
ACAD
1000
AcDbSavedByObjectVersion
1070
     0
  0
VISUALSTYLE
  5
AED2
102
{ACAD_XDICTIONARY
360
AF2D
102
}
102
{ACAD_REACTORS
330
AECF
102
}
330
AECF
100
AcDbVisualStyle
  2
Gouraud
 70
     2
 71
     2
 72
     2
 73
     1
 90
        2
 40
-0.6
 41
30.0
 62
     5
 63
     7
 74
     0
 91
        0
 64
     7
 65
   257
 75
     1
175
     1
 42
1.0
 92
        0
 66
     7
 43
1.0
 76
     1
 77
     6
 78
     2
 67
     7
 79
     5
170
     0
171
     0
290
     0
174
     0
 93
       13
 44
0.0
173
     0
291
     1
 45
0.0
1001
ACAD
1000
AcDbSavedByObjectVersion
1070
     0
  0
VISUALSTYLE
  5
AED3
102
{ACAD_XDICTIONARY
360
AF2F
102
}
102
{ACAD_REACTORS
330
AECF
102
}
330
AECF
100
AcDbVisualStyle
  2
GouraudWithEdges
 70
     3
 71
     2
 72
     2
 73
     1
 90
        2
 40
-0.6
 41
30.0
 62
     5
 63
     7
 74
     1
 91
        0
 64
     7
 65
   257
 75
     1
175
     1
 42
1.0
 92
        0
 66
   257
 43
1.0
 76
     1
 77
     6
 78
     2
 67
     7
 79
     5
170
     0
171
     0
290
     0
174
     0
 93
       13
 44
0.0
173
     0
291
     1
 45
0.0
1001
ACAD
1000
AcDbSavedByObjectVersion
1070
     0
  0
VISUALSTYLE
  5
AED7
102
{ACAD_XDICTIONARY
360
AF37
102
}
102
{ACAD_REACTORS
330
AECF
102
}
330
AECF
100
AcDbVisualStyle
  2
Hidden
 70
     6
 71
     1
 72
     2
 73
     2
 90
        0
 40
-0.6
 41
-30.0
 62
     5
 63
     7
 74
     2
 91
        2
 64
     7
 65
   257
 75
     2
175
     1
 42
40.0
 92
        0
 66
   257
 43
1.0
 76
     1
 77
     6
 78
     2
 67
     7
 79
     3
170
     0
171
     0
290
     0
174
     0
 93
        1
 44
0.0
173
     0
291
     0
 45
0.0
1001
ACAD
1000
AcDbSavedByObjectVersion
1070
     0
  0
VISUALSTYLE
  5
AEE5
102
{ACAD_XDICTIONARY
360
AF53
102
}
102
{ACAD_REACTORS
330
AECF
102
}
330
AECF
100
AcDbVisualStyle
  2
JitterOff
 70
    20
 71
     2
 72
     2
 73
     0
 90
        0
 40
-0.6
 41
-30.0
 62
     5
 63
     7
 74
     1
 91
        4
 64
     7
 65
   257
 75
     1
175
     1
 42
1.0
 92
       10
 66
     7
 43
1.0
 76
     1
 77
     6
 78
     2
 67
     7
 79
     5
170
     0
171
     0
290
     0
174
     0
 93
        1
 44
0.0
173
     0
291
     1
 45
0.0
1001
ACAD
1000
AcDbSavedByObjectVersion
1070
     0
  0
VISUALSTYLE
  5
AEDD
102
{ACAD_XDICTIONARY
360
AF43
102
}
102
{ACAD_REACTORS
330
AECF
102
}
330
AECF
100
AcDbVisualStyle
  2
Linepattern
 70
    14
 71
     2
 72
     2
 73
     0
 90
        0
 40
-0.6
 41
-30.0
 62
     5
 63
     7
 74
     1
 91
        4
 64
     7
 65
   257
 75
     7
175
     7
 42
1.0
 92
        8
 66
     7
 43
1.0
 76
     1
 77
     6
 78
     2
 67
     7
 79
     5
170
     0
171
     0
290
     0
174
     0
 93
        1
 44
0.0
173
     0
291
     1
 45
0.0
1001
ACAD
1000
AcDbSavedByObjectVersion
1070
     0
  0
VISUALSTYLE
  5
AEE6
102
{ACAD_XDICTIONARY
360
AF55
102
}
102
{ACAD_REACTORS
330
AECF
102
}
330
AECF
100
AcDbVisualStyle
  2
OverhangOff
 70
    21
 71
     2
 72
     2
 73
     0
 90
        0
 40
-0.6
 41
-30.0
 62
     5
 63
     7
 74
     1
 91
        4
 64
     7
 65
   257
 75
     1
175
     1
 42
1.0
 92
        9
 66
     7
 43
1.0
 76
     1
 77
     6
 78
     2
 67
     7
 79
     5
170
     0
171
     0
290
     0
174
     0
 93
        1
 44
0.0
173
     0
291
     1
 45
0.0
1001
ACAD
1000
AcDbSavedByObjectVersion
1070
     0
  0
VISUALSTYLE
  5
AED9
102
{ACAD_XDICTIONARY
360
AF3B
102
}
102
{ACAD_REACTORS
330
AECF
102
}
330
AECF
100
AcDbVisualStyle
  2
Realistic
 70
     8
 71
     2
 72
     3
 73
     0
 90
        2
 40
-0.6
 41
30.0
 62
     5
 63
     7
 74
     0
 91
        0
 64
     7
 65
   257
 75
     1
175
     1
 42
1.0
 92
        8
 66
   257
 43
1.0
 76
     1
 77
     6
 78
     2
 67
     7
 79
     3
170
     0
171
     0
290
     0
174
     0
 93
       13
 44
0.0
173
     0
291
     0
 45
0.0
1001
ACAD
1000
AcDbSavedByObjectVersion
1070
     0
  0
VISUALSTYLE
  5
AEE4
102
{ACAD_XDICTIONARY
360
AF51
102
}
102
{ACAD_REACTORS
330
AECF
102
}
330
AECF
100
AcDbVisualStyle
  2
Shaded
 70
    27
 71
     2
 72
     2
 73
     1
 90
        2
 40
-0.6
 41
30.0
 62
     5
 63
     7
 74
     0
 91
        4
 64
     7
 65
   257
 75
     1
175
     1
 42
1.0
 92
        8
 66
   257
 43
1.0
 76
     1
 77
     6
 78
     2
 67
     8
 79
     3
170
     0
171
     0
290
     0
174
     0
 93
        5
 44
0.0
173
     0
291
     0
 45
0.0
1001
ACAD
1000
AcDbSavedByObjectVersion
1070
     0
  0
VISUALSTYLE
  5
AEE3
102
{ACAD_XDICTIONARY
360
AF4F
102
}
102
{ACAD_REACTORS
330
AECF
102
}
330
AECF
100
AcDbVisualStyle
  2
Shaded with edges
 70
    26
 71
     2
 72
     2
 73
     1
 90
        2
 40
-0.6
 41
30.0
 62
     5
 63
     7
 74
     1
 91
       10
 64
     7
 65
   257
 75
     2
175
     1
 42
1.0
 92
        8
 66
   257
 43
1.0
 76
     1
 77
     6
 78
     2
 67
     7
 79
     3
170
     0
171
     0
290
     0
174
     0
 93
        5
 44
0.0
173
     0
291
     0
 45
0.0
1001
ACAD
1000
AcDbSavedByObjectVersion
1070
     0
  0
VISUALSTYLE
  5
AEE0
102
{ACAD_XDICTIONARY
360
AF49
102
}
102
{ACAD_REACTORS
330
AECF
102
}
330
AECF
100
AcDbVisualStyle
  2
Shades of Gray
 70
    23
 71
     2
 72
     2
 73
     3
 90
        0
 40
-0.6
 41
-30.0
 62
     5
 63
     7
 74
     2
 91
        2
 64
     7
 65
     7
 75
     1
175
     1
 42
40.0
 92
        8
 66
     7
 43
1.0
 76
     1
 77
     6
 78
     2
 67
     7
 79
     3
170
     0
171
     0
290
     0
174
     0
 93
        1
 44
0.0
173
     0
291
     0
 45
0.0
1001
ACAD
1000
AcDbSavedByObjectVersion
1070
     0
  0
VISUALSTYLE
  5
AEE1
102
{ACAD_XDICTIONARY
360
AF4B
102
}
102
{ACAD_REACTORS
330
AECF
102
}
330
AECF
100
AcDbVisualStyle
  2
Sketchy
 70
    24
 71
     1
 72
     2
 73
     2
 90
        0
 40
-0.6
 41
-30.0
 62
     5
 63
     7
 74
     2
 91
        2
 64
     7
 65
     7
 75
     1
175
     1
 42
40.0
 92
       11
 66
     7
 43
1.0
 76
     1
 77
     6
 78
     2
 67
     7
 79
     6
170
     0
171
     0
290
     0
174
     0
 93
        1
 44
0.0
173
     0
291
     0
 45
0.0
1001
ACAD
1000
AcDbSavedByObjectVersion
1070
     0
  0
VISUALSTYLE
  5
AEDC
102
{ACAD_XDICTIONARY
360
AF41
102
}
102
{ACAD_REACTORS
330
AECF
102
}
330
AECF
100
AcDbVisualStyle
  2
Thicken
 70
    13
 71
     2
 72
     2
 73
     0
 90
        0
 40
-0.6
 41
-30.0
 62
     5
 63
     7
 74
     1
 91
        4
 64
     7
 65
   257
 75
     1
175
     1
 42
1.0
 92
       12
 66
     7
 43
1.0
 76
     1
 77
     6
 78
     2
 67
     7
 79
     5
170
     0
171
     0
290
     0
174
     0
 93
        1
 44
0.0
173
     0
291
     1
 45
0.0
1001
ACAD
1000
AcDbSavedByObjectVersion
1070
     0
  0
VISUALSTYLE
  5
AED6
102
{ACAD_XDICTIONARY
360
AF35
102
}
102
{ACAD_REACTORS
330
AECF
102
}
330
AECF
100
AcDbVisualStyle
  2
Wireframe
 70
     5
 71
     0
 72
     2
 73
     0
 90
        0
 40
-0.6
 41
-30.0
 62
     5
 63
     7
 74
     1
 91
        4
 64
     7
 65
   257
 75
     1
175
     1
 42
1.0
 92
        0
 66
   257
 43
1.0
 76
     1
 77
     6
 78
     2
 67
     7
 79
     3
170
     0
171
     0
290
     0
174
     0
 93
        1
 44
0.0
173
     0
291
     0
 45
0.0
1001
ACAD
1000
AcDbSavedByObjectVersion
1070
     0
  0
VISUALSTYLE
  5
AEE2
102
{ACAD_XDICTIONARY
360
AF4D
102
}
102
{ACAD_REACTORS
330
AECF
102
}
330
AECF
100
AcDbVisualStyle
  2
X-Ray
 70
    25
 71
     2
 72
     2
 73
     1
 90
        1
 40
0.5
 41
-30.0
 62
     5
 63
     7
 74
     1
 91
        0
 64
     7
 65
   257
 75
     1
175
     1
 42
1.0
 92
        8
 66
     7
 43
1.0
 76
     1
 77
     6
 78
     2
 67
     7
 79
     3
170
     0
171
     0
290
     0
174
     0
 93
       13
 44
0.0
173
     0
291
     0
 45
0.0
1001
ACAD
1000
AcDbSavedByObjectVersion
1070
     0
  0
DICTIONARYVAR
  5
AF1C
102
{ACAD_REACTORS
330
AF17
102
}
330
AF17
100
DictionaryVariables
280
     0
  1
1:1
  0
DICTIONARYVAR
  5
AF19
102
{ACAD_REACTORS
330
AF17
102
}
330
AF17
100
DictionaryVariables
280
     0
  1
STANDARD
  0
DICTIONARYVAR
  5
AF18
102
{ACAD_REACTORS
330
AF17
102
}
330
AF17
100
DictionaryVariables
280
     0
  1
STANDARD
  0
DICTIONARYVAR
  5
AF1A
102
{ACAD_REACTORS
330
AF17
102
}
330
AF17
100
DictionaryVariables
280
     0
  1
Imperial24
  0
DICTIONARYVAR
  5
AF1B
102
{ACAD_REACTORS
330
AF17
102
}
330
AF17
100
DictionaryVariables
280
     0
  1
Imperial24
  0
DICTIONARYVAR
  5
AF1F
102
{ACAD_REACTORS
330
AF17
102
}
330
AF17
100
DictionaryVariables
280
     0
  1
1
  0
DICTIONARYVAR
  5
AF1E
102
{ACAD_REACTORS
330
AF17
102
}
330
AF17
100
DictionaryVariables
280
     0
  1
0
  0
DICTIONARYVAR
  5
AF1D
102
{ACAD_REACTORS
330
AF17
102
}
330
AF17
100
DictionaryVariables
280
     0
  1
127
  0
DICTIONARYVAR
  5
AF20
102
{ACAD_REACTORS
330
AF17
102
}
330
AF17
100
DictionaryVariables
280
     0
  1
2
  0
DICTIONARY
  5
AF5D
330
AF02
100
AcDbDictionary
280
     1
281
     1
  3
ACAD_XREC_ROUNDTRIP
360
AF5E
  0
DICTIONARY
  5
AF5F
330
AF03
100
AcDbDictionary
280
     1
281
     1
  3
ACAD_XREC_ROUNDTRIP
360
AF60
  0
DICTIONARY
  5
AF61
330
AF04
100
AcDbDictionary
280
     1
281
     1
  3
ACAD_XREC_ROUNDTRIP
360
AF62
  0
DICTIONARY
  5
AEC0
330
AEBF
100
AcDbDictionary
280
     1
281
     1
  3
ACAD_XREC_ROUNDTRIP
360
AF27
  3
BUMPTILE
360
AEC2
  3
DIFFUSETILE
360
AEC1
  3
OPACITYTILE
360
AEC5
  3
REFLECTIONTILE
360
AEC4
  3
REFRACTIONTILE
360
AEC6
  3
SPECULARTILE
360
AEC3
  0
DICTIONARY
  5
AEB8
330
AEB7
100
AcDbDictionary
280
     1
281
     1
  3
ACAD_XREC_ROUNDTRIP
360
AF26
  3
BUMPTILE
360
AEBA
  3
DIFFUSETILE
360
AEB9
  3
OPACITYTILE
360
AEBD
  3
REFLECTIONTILE
360
AEBC
  3
REFRACTIONTILE
360
AEBE
  3
SPECULARTILE
360
AEBB
  0
DICTIONARY
  5
AEC8
330
AEC7
100
AcDbDictionary
280
     1
281
     1
  3
ACAD_XREC_ROUNDTRIP
360
AF28
  3
BUMPTILE
360
AECA
  3
DIFFUSETILE
360
AEC9
  3
OPACITYTILE
360
AECD
  3
REFLECTIONTILE
360
AECC
  3
REFRACTIONTILE
360
AECE
  3
SPECULARTILE
360
AECB
  0
DICTIONARY
  5
AF5B
330
AF00
100
AcDbDictionary
280
     1
281
     1
  3
ACAD_XREC_ROUNDTRIP
360
AF5C
  0
DICTIONARY
  5
AF22
330
AEEA
100
AcDbDictionary
280
     1
281
     1
  3
ACAD_ROUNDTRIP_2008_TABLESTYLE_CELLSTYLEMAP
360
AF23
  3
ACAD_XREC_ROUNDTRIP
360
AF59
  0
DICTIONARY
  5
AF33
330
AED5
100
AcDbDictionary
280
     1
281
     1
  3
ACAD_XREC_ROUNDTRIP
360
AF34
  0
DICTIONARY
  5
AF31
330
AED4
100
AcDbDictionary
280
     1
281
     1
  3
ACAD_XREC_ROUNDTRIP
360
AF32
  0
DICTIONARY
  5
AF3F
330
AEDB
100
AcDbDictionary
280
     1
281
     1
  3
ACAD_XREC_ROUNDTRIP
360
AF40
  0
DICTIONARY
  5
AF47
330
AEDF
100
AcDbDictionary
280
     1
281
     1
  3
ACAD_XREC_ROUNDTRIP
360
AF48
  0
DICTIONARY
  5
AF39
330
AED8
100
AcDbDictionary
280
     1
281
     1
  3
ACAD_XREC_ROUNDTRIP
360
AF3A
  0
DICTIONARY
  5
AF3D
330
AEDA
100
AcDbDictionary
280
     1
281
     1
  3
ACAD_XREC_ROUNDTRIP
360
AF3E
  0
DICTIONARY
  5
AF57
330
AEE7
100
AcDbDictionary
280
     1
281
     1
  3
ACAD_XREC_ROUNDTRIP
360
AF58
  0
DICTIONARY
  5
AF45
330
AEDE
100
AcDbDictionary
280
     1
281
     1
  3
ACAD_XREC_ROUNDTRIP
360
AF46
  0
DICTIONARY
  5
AF29
330
AED0
100
AcDbDictionary
280
     1
281
     1
  3
ACAD_XREC_ROUNDTRIP
360
AF2A
  0
DICTIONARY
  5
AF2B
330
AED1
100
AcDbDictionary
280
     1
281
     1
  3
ACAD_XREC_ROUNDTRIP
360
AF2C
  0
DICTIONARY
  5
AF2D
330
AED2
100
AcDbDictionary
280
     1
281
     1
  3
ACAD_XREC_ROUNDTRIP
360
AF2E
  0
DICTIONARY
  5
AF2F
330
AED3
100
AcDbDictionary
280
     1
281
     1
  3
ACAD_XREC_ROUNDTRIP
360
AF30
  0
DICTIONARY
  5
AF37
330
AED7
100
AcDbDictionary
280
     1
281
     1
  3
ACAD_XREC_ROUNDTRIP
360
AF38
  0
DICTIONARY
  5
AF53
330
AEE5
100
AcDbDictionary
280
     1
281
     1
  3
ACAD_XREC_ROUNDTRIP
360
AF54
  0
DICTIONARY
  5
AF43
330
AEDD
100
AcDbDictionary
280
     1
281
     1
  3
ACAD_XREC_ROUNDTRIP
360
AF44
  0
DICTIONARY
  5
AF55
330
AEE6
100
AcDbDictionary
280
     1
281
     1
  3
ACAD_XREC_ROUNDTRIP
360
AF56
  0
DICTIONARY
  5
AF3B
330
AED9
100
AcDbDictionary
280
     1
281
     1
  3
ACAD_XREC_ROUNDTRIP
360
AF3C
  0
DICTIONARY
  5
AF51
330
AEE4
100
AcDbDictionary
280
     1
281
     1
  3
ACAD_XREC_ROUNDTRIP
360
AF52
  0
DICTIONARY
  5
AF4F
330
AEE3
100
AcDbDictionary
280
     1
281
     1
  3
ACAD_XREC_ROUNDTRIP
360
AF50
  0
DICTIONARY
  5
AF49
330
AEE0
100
AcDbDictionary
280
     1
281
     1
  3
ACAD_XREC_ROUNDTRIP
360
AF4A
  0
DICTIONARY
  5
AF4B
330
AEE1
100
AcDbDictionary
280
     1
281
     1
  3
ACAD_XREC_ROUNDTRIP
360
AF4C
  0
DICTIONARY
  5
AF41
330
AEDC
100
AcDbDictionary
280
     1
281
     1
  3
ACAD_XREC_ROUNDTRIP
360
AF42
  0
DICTIONARY
  5
AF35
330
AED6
100
AcDbDictionary
280
     1
281
     1
  3
ACAD_XREC_ROUNDTRIP
360
AF36
  0
DICTIONARY
  5
AF4D
330
AEE2
100
AcDbDictionary
280
     1
281
     1
  3
ACAD_XREC_ROUNDTRIP
360
AF4E
  0
XRECORD
  5
AF5E
102
{ACAD_REACTORS
330
AF5D
102
}
330
AF5D
100
AcDbXrecord
280
     1
102
DISPLAYNAME
  1
Imperial24
102
FLAGS
 90
        0
  0
XRECORD
  5
AF60
102
{ACAD_REACTORS
330
AF5F
102
}
330
AF5F
100
AcDbXrecord
280
     1
102
SHADEPLOT
 70
     0
102
SHADEPLOTRESLEVEL
 70
     2
102
SHADEPLOTCUSTOMDPI
 70
   300
  0
XRECORD
  5
AF62
102
{ACAD_REACTORS
330
AF61
102
}
330
AF61
100
AcDbXrecord
280
     1
102
SHADEPLOT
 70
     0
102
SHADEPLOTRESLEVEL
 70
     2
102
SHADEPLOTCUSTOMDPI
 70
   300
  0
XRECORD
  5
AF27
102
{ACAD_REACTORS
330
AEC0
102
}
330
AEC0
100
AcDbXrecord
280
     1
102
MATERIAL
148
0.0
149
0.0
149
0.0
 93
        0
 94
      127
282
     0
 72
     0
 77
     0
171
     0
175
     0
179
     0
273
     0
  0
XRECORD
  5
AEC2
102
{ACAD_REACTORS
330
AEC0
102
}
330
AEC0
100
AcDbXrecord
280
     1
270
     1
271
     1
  0
XRECORD
  5
AEC1
102
{ACAD_REACTORS
330
AEC0
102
}
330
AEC0
100
AcDbXrecord
280
     1
270
     1
271
     1
  0
XRECORD
  5
AEC5
102
{ACAD_REACTORS
330
AEC0
102
}
330
AEC0
100
AcDbXrecord
280
     1
270
     1
271
     1
  0
XRECORD
  5
AEC4
102
{ACAD_REACTORS
330
AEC0
102
}
330
AEC0
100
AcDbXrecord
280
     1
270
     1
271
     1
  0
XRECORD
  5
AEC6
102
{ACAD_REACTORS
330
AEC0
102
}
330
AEC0
100
AcDbXrecord
280
     1
270
     1
271
     1
  0
XRECORD
  5
AEC3
102
{ACAD_REACTORS
330
AEC0
102
}
330
AEC0
100
AcDbXrecord
280
     1
270
     1
271
     1
  0
XRECORD
  5
AF26
102
{ACAD_REACTORS
330
AEB8
102
}
330
AEB8
100
AcDbXrecord
280
     1
102
MATERIAL
148
0.0
149
0.0
149
0.0
 93
        0
 94
      127
282
     0
 72
     0
 77
     0
171
     0
175
     0
179
     0
273
     0
  0
XRECORD
  5
AEBA
102
{ACAD_REACTORS
330
AEB8
102
}
330
AEB8
100
AcDbXrecord
280
     1
270
     1
271
     1
  0
XRECORD
  5
AEB9
102
{ACAD_REACTORS
330
AEB8
102
}
330
AEB8
100
AcDbXrecord
280
     1
270
     1
271
     1
  0
XRECORD
  5
AEBD
102
{ACAD_REACTORS
330
AEB8
102
}
330
AEB8
100
AcDbXrecord
280
     1
270
     1
271
     1
  0
XRECORD
  5
AEBC
102
{ACAD_REACTORS
330
AEB8
102
}
330
AEB8
100
AcDbXrecord
280
     1
270
     1
271
     1
  0
XRECORD
  5
AEBE
102
{ACAD_REACTORS
330
AEB8
102
}
330
AEB8
100
AcDbXrecord
280
     1
270
     1
271
     1
  0
XRECORD
  5
AEBB
102
{ACAD_REACTORS
330
AEB8
102
}
330
AEB8
100
AcDbXrecord
280
     1
270
     1
271
     1
  0
XRECORD
  5
AF28
102
{ACAD_REACTORS
330
AEC8
102
}
330
AEC8
100
AcDbXrecord
280
     1
102
MATERIAL
148
0.0
149
0.0
149
0.0
 93
        0
 94
      127
282
     0
 72
     0
 77
     0
171
     0
175
     0
179
     0
273
     0
  0
XRECORD
  5
AECA
102
{ACAD_REACTORS
330
AEC8
102
}
330
AEC8
100
AcDbXrecord
280
     1
270
     1
271
     1
  0
XRECORD
  5
AEC9
102
{ACAD_REACTORS
330
AEC8
102
}
330
AEC8
100
AcDbXrecord
280
     1
270
     1
271
     1
  0
XRECORD
  5
AECD
102
{ACAD_REACTORS
330
AEC8
102
}
330
AEC8
100
AcDbXrecord
280
     1
270
     1
271
     1
  0
XRECORD
  5
AECC
102
{ACAD_REACTORS
330
AEC8
102
}
330
AEC8
100
AcDbXrecord
280
     1
270
     1
271
     1
  0
XRECORD
  5
AECE
102
{ACAD_REACTORS
330
AEC8
102
}
330
AEC8
100
AcDbXrecord
280
     1
270
     1
271
     1
  0
XRECORD
  5
AECB
102
{ACAD_REACTORS
330
AEC8
102
}
330
AEC8
100
AcDbXrecord
280
     1
270
     1
271
     1
  0
XRECORD
  5
AF5C
102
{ACAD_REACTORS
330
AF5B
102
}
330
AF5B
100
AcDbXrecord
280
     1
102
DISPLAYNAME
  1
Imperial24
102
FLAGS
 90
        0
  0
CELLSTYLEMAP
  5
AF23
102
{ACAD_REACTORS
330
AF22
102
}
330
AF22
100
AcDbCellStyleMap
 90
        3
300
CELLSTYLE
  1
TABLEFORMAT_BEGIN
 90
        5
170
     1
 91
        0
 92
    32768
 62
   257
 93
        1
300
CONTENTFORMAT
  1
CONTENTFORMAT_BEGIN
 90
        0
 91
        0
 92
      512
 93
        0
300

 40
0.0
140
1.0
 94
        5
 62
     0
340
AB82
144
0.25
309
CONTENTFORMAT_END
171
     0
 94
        0
309
TABLEFORMAT_END
  1
CELLSTYLE_BEGIN
 90
        1
 91
        1
300
_TITLE
309
CELLSTYLE_END
300
CELLSTYLE
  1
TABLEFORMAT_BEGIN
 90
        5
170
     1
 91
        0
 92
        0
 62
   257
 93
        1
300
CONTENTFORMAT
  1
CONTENTFORMAT_BEGIN
 90
        0
 91
        0
 92
      512
 93
        0
300

 40
0.0
140
1.0
 94
        5
 62
     0
340
AB82
144
0.18
309
CONTENTFORMAT_END
171
     0
 94
        0
309
TABLEFORMAT_END
  1
CELLSTYLE_BEGIN
 90
        2
 91
        1
300
_HEADER
309
CELLSTYLE_END
300
CELLSTYLE
  1
TABLEFORMAT_BEGIN
 90
        5
170
     1
 91
        0
 92
        0
 62
   257
 93
        1
300
CONTENTFORMAT
  1
CONTENTFORMAT_BEGIN
 90
        0
 91
        0
 92
      512
 93
        0
300

 40
0.0
140
1.0
 94
        2
 62
     0
340
AB82
144
0.18
309
CONTENTFORMAT_END
171
     0
 94
        0
309
TABLEFORMAT_END
  1
CELLSTYLE_BEGIN
 90
        3
 91
        2
300
_DATA
309
CELLSTYLE_END
  0
XRECORD
  5
AF59
102
{ACAD_REACTORS
330
AF22
102
}
330
AF22
100
AcDbXrecord
280
     1
102
ACAD_ROUNDTRIP_PRE2007_TABLESTYLE
 90
      512
 91
        0
  1

 92
      512
 93
        0
  2

 94
      512
 95
        0
  3

  0
XRECORD
  5
AF34
102
{ACAD_REACTORS
330
AF33
102
}
330
AF33
100
AcDbXrecord
280
     1
102
RTVSPost2010Prop28
280
     1
102
RTVSPost2010PropOp28
 70
     1
102
RTVSPost2010Prop29
280
     1
102
RTVSPost2010PropOp29
 70
     1
102
RTVSPost2010Prop30
280
     0
102
RTVSPost2010PropOp30
 70
     1
102
RTVSPost2010Prop31
280
     0
102
RTVSPost2010PropOp31
 70
     1
102
RTVSPost2010Prop32
280
     0
102
RTVSPost2010PropOp32
 70
     1
102
RTVSPost2010Prop33
280
     0
102
RTVSPost2010PropOp33
 70
     1
102
RTVSPost2010Prop34
280
     0
102
RTVSPost2010PropOp34
 70
     1
102
RTVSPost2010Prop35
280
     0
102
RTVSPost2010PropOp35
 70
     1
102
RTVSPost2010Prop36
280
     0
102
RTVSPost2010PropOp36
 70
     1
102
RTVSPost2010Prop37
 90
       50
102
RTVSPost2010PropOp37
 70
     1
102
RTVSPost2010Prop38
140
0.0
102
RTVSPost2010PropOp38
 70
     1
102
RTVSPost2010Prop39
140
1.0
102
RTVSPost2010PropOp39
 70
     1
102
RTVSPost2010Prop40
 90
        0
102
RTVSPost2010PropOp40
 70
     1
102
RTVSPost2010Prop41ColorIndex
 90
       18
102
RTVSPost2010Prop41ColorRGB
 90
        0
102
RTVSPost2010PropOp41
 70
     1
102
RTVSPost2010Prop42
 90
       50
102
RTVSPost2010PropOp42
 70
     1
102
RTVSPost2010Prop43
 90
        3
102
RTVSPost2010PropOp43
 70
     1
102
RTVSPost2010Prop44ColorIndex
 90
        5
102
RTVSPost2010Prop44ColorRGB
 90
      255
102
RTVSPost2010PropOp44
 70
     1
102
RTVSPost2010Prop45
280
     0
102
RTVSPost2010PropOp45
 70
     1
102
RTVSPost2010Prop46
 90
       50
102
RTVSPost2010PropOp46
 70
     1
102
RTVSPost2010Prop47
 90
       50
102
RTVSPost2010PropOp47
 70
     1
102
RTVSPost2010Prop48
 90
       50
102
RTVSPost2010PropOp48
 70
     1
102
RTVSPost2010Prop49
280
     0
102
RTVSPost2010PropOp49
 70
     1
102
RTVSPost2010Prop50
 90
       50
102
RTVSPost2010PropOp50
 70
     1
102
RTVSPost2010Prop51ColorIndex
 90
      256
102
RTVSPost2010Prop51ColorRGB
 90
-16777216
102
RTVSPost2010PropOp51
 70
     0
102
RTVSPost2010Prop52
140
1.0
102
RTVSPost2010PropOp52
 70
     0
102
RTVSPost2010Prop53
 90
        2
102
RTVSPost2010PropOp53
 70
     1
102
RTVSPost2010Prop54
  1
strokes_ogs.tif
102
RTVSPost2010PropOp54
 70
     1
102
RTVSPost2010Prop55
280
     0
102
RTVSPost2010PropOp55
 70
     1
102
RTVSPost2010Prop56
140
1.0
102
RTVSPost2010PropOp56
 70
     1
102
RTVSPost2010Prop57
140
1.0
102
RTVSPost2010PropOp57
 70
     1
102
RTVSPropertyOp0
 70
     1
102
RTVSPropertyOp1
 70
     1
102
RTVSPropertyOp2
 70
     1
102
RTVSPropertyOp3
 70
     1
102
RTVSPropertyOp4
 70
     1
102
RTVSPropertyOp5
 70
     1
102
RTVSPropertyOp6
 70
     1
102
RTVSPropertyOp7
 70
     1
102
RTVSPropertyOp8
 70
     1
102
RTVSPropertyOp9
 70
     1
102
RTVSPropertyOp10
 70
     1
102
RTVSPropertyOp11
 70
     1
102
RTVSPropertyOp12
 70
     1
102
RTVSPropertyOp13
 70
     1
102
RTVSPropertyOp14
 70
     1
102
RTVSPropertyOp15
 70
     1
102
RTVSPropertyOp16
 70
     1
102
RTVSPropertyOp17
 70
     1
102
RTVSPropertyOp18
 70
     1
102
RTVSPropertyOp19
 70
     1
102
RTVSPropertyOp20
 70
     1
102
RTVSPropertyOp21
 70
     1
102
RTVSPropertyOp22
 70
     1
102
RTVSPropertyOp23
 70
     1
102
RTVSPropertyOp24
 70
     1
102
RTVSPropertyOp25
 70
     1
102
RTVSPropertyOp26
 70
     1
102
RTVSPropertyOp27
 70
     1
102
RTVSPropertyOp28
 70
     1
102
RTVSPropertyOp29
 70
     1
102
RTVSPropertyOp30
 70
     1
102
RTVSPropertyOp31
 70
     1
102
RTVSPropertyOp32
 70
     1
102
RTVSPropertyOp33
 70
     1
102
RTVSPropertyOp34
 70
     1
102
RTVSPropertyOp35
 70
     1
102
RTVSPropertyOp36
 70
     1
102
RTVSPropertyOp37
 70
     1
102
RTVSPropertyOp38
 70
     1
102
RTVSPropertyOp39
 70
     1
102
RTVSPropertyOp40
 70
     1
102
RTVSPropertyOp41
 70
     1
102
RTVSPropertyOp42
 70
     1
102
RTVSPropertyOp43
 70
     1
102
RTVSPropertyOp44
 70
     1
102
RTVSPropertyOp45
 70
     1
102
RTVSPropertyOp46
 70
     1
102
RTVSPropertyOp47
 70
     1
102
RTVSPropertyOp48
 70
     1
102
RTVSPropertyOp49
 70
     1
102
RTVSPropertyOp50
 70
     1
102
RTVSPropertyOp51
 70
     0
102
RTVSPropertyOp52
 70
     0
102
RTVSPropertyOp53
 70
     1
102
RTVSPropertyOp54
 70
     1
102
RTVSPropertyOp55
 70
     1
102
RTVSPropertyOp56
 70
     1
102
RTVSPropertyOp57
 70
     1
102
RTVSPropertyOp58
 70
     1
102
RTVSPropertyOp59
 70
     1
102
RTVSPropertyOp60
 70
     1
102
RTVSPropertyOp61
 70
     1
102
RTVSPropertyOp62
 70
     1
  0
XRECORD
  5
AF32
102
{ACAD_REACTORS
330
AF31
102
}
330
AF31
100
AcDbXrecord
280
     1
102
RTVSPost2010Prop28
280
     0
102
RTVSPost2010PropOp28
 70
     1
102
RTVSPost2010Prop29
280
     1
102
RTVSPost2010PropOp29
 70
     1
102
RTVSPost2010Prop30
280
     1
102
RTVSPost2010PropOp30
 70
     1
102
RTVSPost2010Prop31
280
     0
102
RTVSPost2010PropOp31
 70
     1
102
RTVSPost2010Prop32
280
     0
102
RTVSPost2010PropOp32
 70
     1
102
RTVSPost2010Prop33
280
     0
102
RTVSPost2010PropOp33
 70
     1
102
RTVSPost2010Prop34
280
     0
102
RTVSPost2010PropOp34
 70
     1
102
RTVSPost2010Prop35
280
     0
102
RTVSPost2010PropOp35
 70
     1
102
RTVSPost2010Prop36
280
     0
102
RTVSPost2010PropOp36
 70
     1
102
RTVSPost2010Prop37
 90
       50
102
RTVSPost2010PropOp37
 70
     1
102
RTVSPost2010Prop38
140
0.0
102
RTVSPost2010PropOp38
 70
     1
102
RTVSPost2010Prop39
140
1.0
102
RTVSPost2010PropOp39
 70
     1
102
RTVSPost2010Prop40
 90
        0
102
RTVSPost2010PropOp40
 70
     1
102
RTVSPost2010Prop41ColorIndex
 90
       18
102
RTVSPost2010Prop41ColorRGB
 90
        0
102
RTVSPost2010PropOp41
 70
     1
102
RTVSPost2010Prop42
 90
       50
102
RTVSPost2010PropOp42
 70
     1
102
RTVSPost2010Prop43
 90
        3
102
RTVSPost2010PropOp43
 70
     1
102
RTVSPost2010Prop44ColorIndex
 90
        5
102
RTVSPost2010Prop44ColorRGB
 90
      255
102
RTVSPost2010PropOp44
 70
     1
102
RTVSPost2010Prop45
280
     0
102
RTVSPost2010PropOp45
 70
     1
102
RTVSPost2010Prop46
 90
       50
102
RTVSPost2010PropOp46
 70
     1
102
RTVSPost2010Prop47
 90
       50
102
RTVSPost2010PropOp47
 70
     1
102
RTVSPost2010Prop48
 90
       50
102
RTVSPost2010PropOp48
 70
     1
102
RTVSPost2010Prop49
280
     0
102
RTVSPost2010PropOp49
 70
     1
102
RTVSPost2010Prop50
 90
       50
102
RTVSPost2010PropOp50
 70
     1
102
RTVSPost2010Prop51ColorIndex
 90
      256
102
RTVSPost2010Prop51ColorRGB
 90
-16777216
102
RTVSPost2010PropOp51
 70
     0
102
RTVSPost2010Prop52
140
1.0
102
RTVSPost2010PropOp52
 70
     0
102
RTVSPost2010Prop53
 90
        2
102
RTVSPost2010PropOp53
 70
     1
102
RTVSPost2010Prop54
  1
strokes_ogs.tif
102
RTVSPost2010PropOp54
 70
     1
102
RTVSPost2010Prop55
280
     0
102
RTVSPost2010PropOp55
 70
     1
102
RTVSPost2010Prop56
140
1.0
102
RTVSPost2010PropOp56
 70
     1
102
RTVSPost2010Prop57
140
1.0
102
RTVSPost2010PropOp57
 70
     1
102
RTVSPropertyOp0
 70
     1
102
RTVSPropertyOp1
 70
     1
102
RTVSPropertyOp2
 70
     1
102
RTVSPropertyOp3
 70
     1
102
RTVSPropertyOp4
 70
     1
102
RTVSPropertyOp5
 70
     1
102
RTVSPropertyOp6
 70
     1
102
RTVSPropertyOp7
 70
     1
102
RTVSPropertyOp8
 70
     1
102
RTVSPropertyOp9
 70
     1
102
RTVSPropertyOp10
 70
     1
102
RTVSPropertyOp11
 70
     1
102
RTVSPropertyOp12
 70
     1
102
RTVSPropertyOp13
 70
     1
102
RTVSPropertyOp14
 70
     1
102
RTVSPropertyOp15
 70
     1
102
RTVSPropertyOp16
 70
     1
102
RTVSPropertyOp17
 70
     1
102
RTVSPropertyOp18
 70
     1
102
RTVSPropertyOp19
 70
     1
102
RTVSPropertyOp20
 70
     1
102
RTVSPropertyOp21
 70
     1
102
RTVSPropertyOp22
 70
     1
102
RTVSPropertyOp23
 70
     1
102
RTVSPropertyOp24
 70
     1
102
RTVSPropertyOp25
 70
     1
102
RTVSPropertyOp26
 70
     1
102
RTVSPropertyOp27
 70
     1
102
RTVSPropertyOp28
 70
     1
102
RTVSPropertyOp29
 70
     1
102
RTVSPropertyOp30
 70
     1
102
RTVSPropertyOp31
 70
     1
102
RTVSPropertyOp32
 70
     1
102
RTVSPropertyOp33
 70
     1
102
RTVSPropertyOp34
 70
     1
102
RTVSPropertyOp35
 70
     1
102
RTVSPropertyOp36
 70
     1
102
RTVSPropertyOp37
 70
     1
102
RTVSPropertyOp38
 70
     1
102
RTVSPropertyOp39
 70
     1
102
RTVSPropertyOp40
 70
     1
102
RTVSPropertyOp41
 70
     1
102
RTVSPropertyOp42
 70
     1
102
RTVSPropertyOp43
 70
     1
102
RTVSPropertyOp44
 70
     1
102
RTVSPropertyOp45
 70
     1
102
RTVSPropertyOp46
 70
     1
102
RTVSPropertyOp47
 70
     1
102
RTVSPropertyOp48
 70
     1
102
RTVSPropertyOp49
 70
     1
102
RTVSPropertyOp50
 70
     1
102
RTVSPropertyOp51
 70
     0
102
RTVSPropertyOp52
 70
     0
102
RTVSPropertyOp53
 70
     1
102
RTVSPropertyOp54
 70
     1
102
RTVSPropertyOp55
 70
     1
102
RTVSPropertyOp56
 70
     1
102
RTVSPropertyOp57
 70
     1
102
RTVSPropertyOp58
 70
     1
102
RTVSPropertyOp59
 70
     1
102
RTVSPropertyOp60
 70
     1
102
RTVSPropertyOp61
 70
     1
102
RTVSPropertyOp62
 70
     1
  0
XRECORD
  5
AF40
102
{ACAD_REACTORS
330
AF3F
102
}
330
AF3F
100
AcDbXrecord
280
     1
102
RTVSPost2010Prop28
280
     0
102
RTVSPost2010PropOp28
 70
     1
102
RTVSPost2010Prop29
280
     1
102
RTVSPost2010PropOp29
 70
     1
102
RTVSPost2010Prop30
280
     1
102
RTVSPost2010PropOp30
 70
     1
102
RTVSPost2010Prop31
280
     0
102
RTVSPost2010PropOp31
 70
     1
102
RTVSPost2010Prop32
280
     0
102
RTVSPost2010PropOp32
 70
     1
102
RTVSPost2010Prop33
280
     0
102
RTVSPost2010PropOp33
 70
     1
102
RTVSPost2010Prop34
280
     0
102
RTVSPost2010PropOp34
 70
     1
102
RTVSPost2010Prop35
280
     0
102
RTVSPost2010PropOp35
 70
     1
102
RTVSPost2010Prop36
280
     0
102
RTVSPost2010PropOp36
 70
     1
102
RTVSPost2010Prop37
 90
       50
102
RTVSPost2010PropOp37
 70
     1
102
RTVSPost2010Prop38
140
0.0
102
RTVSPost2010PropOp38
 70
     1
102
RTVSPost2010Prop39
140
1.0
102
RTVSPost2010PropOp39
 70
     1
102
RTVSPost2010Prop40
 90
        0
102
RTVSPost2010PropOp40
 70
     1
102
RTVSPost2010Prop41ColorIndex
 90
       18
102
RTVSPost2010Prop41ColorRGB
 90
        0
102
RTVSPost2010PropOp41
 70
     1
102
RTVSPost2010Prop42
 90
       50
102
RTVSPost2010PropOp42
 70
     1
102
RTVSPost2010Prop43
 90
        3
102
RTVSPost2010PropOp43
 70
     1
102
RTVSPost2010Prop44ColorIndex
 90
        5
102
RTVSPost2010Prop44ColorRGB
 90
      255
102
RTVSPost2010PropOp44
 70
     1
102
RTVSPost2010Prop45
280
     0
102
RTVSPost2010PropOp45
 70
     1
102
RTVSPost2010Prop46
 90
       50
102
RTVSPost2010PropOp46
 70
     1
102
RTVSPost2010Prop47
 90
       50
102
RTVSPost2010PropOp47
 70
     1
102
RTVSPost2010Prop48
 90
       50
102
RTVSPost2010PropOp48
 70
     1
102
RTVSPost2010Prop49
280
     0
102
RTVSPost2010PropOp49
 70
     1
102
RTVSPost2010Prop50
 90
       50
102
RTVSPost2010PropOp50
 70
     1
102
RTVSPost2010Prop51ColorIndex
 90
      256
102
RTVSPost2010Prop51ColorRGB
 90
-16777216
102
RTVSPost2010PropOp51
 70
     0
102
RTVSPost2010Prop52
140
1.0
102
RTVSPost2010PropOp52
 70
     0
102
RTVSPost2010Prop53
 90
        2
102
RTVSPost2010PropOp53
 70
     1
102
RTVSPost2010Prop54
  1
strokes_ogs.tif
102
RTVSPost2010PropOp54
 70
     1
102
RTVSPost2010Prop55
280
     0
102
RTVSPost2010PropOp55
 70
     1
102
RTVSPost2010Prop56
140
1.0
102
RTVSPost2010PropOp56
 70
     1
102
RTVSPost2010Prop57
140
1.0
102
RTVSPost2010PropOp57
 70
     1
102
RTVSPropertyOp0
 70
     1
102
RTVSPropertyOp1
 70
     1
102
RTVSPropertyOp2
 70
     1
102
RTVSPropertyOp3
 70
     1
102
RTVSPropertyOp4
 70
     1
102
RTVSPropertyOp5
 70
     1
102
RTVSPropertyOp6
 70
     1
102
RTVSPropertyOp7
 70
     1
102
RTVSPropertyOp8
 70
     1
102
RTVSPropertyOp9
 70
     1
102
RTVSPropertyOp10
 70
     1
102
RTVSPropertyOp11
 70
     1
102
RTVSPropertyOp12
 70
     1
102
RTVSPropertyOp13
 70
     1
102
RTVSPropertyOp14
 70
     1
102
RTVSPropertyOp15
 70
     1
102
RTVSPropertyOp16
 70
     1
102
RTVSPropertyOp17
 70
     1
102
RTVSPropertyOp18
 70
     1
102
RTVSPropertyOp19
 70
     1
102
RTVSPropertyOp20
 70
     1
102
RTVSPropertyOp21
 70
     1
102
RTVSPropertyOp22
 70
     1
102
RTVSPropertyOp23
 70
     1
102
RTVSPropertyOp24
 70
     1
102
RTVSPropertyOp25
 70
     1
102
RTVSPropertyOp26
 70
     1
102
RTVSPropertyOp27
 70
     1
102
RTVSPropertyOp28
 70
     1
102
RTVSPropertyOp29
 70
     1
102
RTVSPropertyOp30
 70
     1
102
RTVSPropertyOp31
 70
     1
102
RTVSPropertyOp32
 70
     1
102
RTVSPropertyOp33
 70
     1
102
RTVSPropertyOp34
 70
     1
102
RTVSPropertyOp35
 70
     1
102
RTVSPropertyOp36
 70
     1
102
RTVSPropertyOp37
 70
     1
102
RTVSPropertyOp38
 70
     1
102
RTVSPropertyOp39
 70
     1
102
RTVSPropertyOp40
 70
     1
102
RTVSPropertyOp41
 70
     1
102
RTVSPropertyOp42
 70
     1
102
RTVSPropertyOp43
 70
     1
102
RTVSPropertyOp44
 70
     1
102
RTVSPropertyOp45
 70
     1
102
RTVSPropertyOp46
 70
     1
102
RTVSPropertyOp47
 70
     1
102
RTVSPropertyOp48
 70
     1
102
RTVSPropertyOp49
 70
     1
102
RTVSPropertyOp50
 70
     1
102
RTVSPropertyOp51
 70
     0
102
RTVSPropertyOp52
 70
     0
102
RTVSPropertyOp53
 70
     1
102
RTVSPropertyOp54
 70
     1
102
RTVSPropertyOp55
 70
     1
102
RTVSPropertyOp56
 70
     1
102
RTVSPropertyOp57
 70
     1
102
RTVSPropertyOp58
 70
     1
102
RTVSPropertyOp59
 70
     1
102
RTVSPropertyOp60
 70
     1
102
RTVSPropertyOp61
 70
     1
102
RTVSPropertyOp62
 70
     1
  0
XRECORD
  5
AF48
102
{ACAD_REACTORS
330
AF47
102
}
330
AF47
100
AcDbXrecord
280
     1
102
RTVSPost2010Prop28
280
     0
102
RTVSPost2010PropOp28
 70
     1
102
RTVSPost2010Prop29
280
     1
102
RTVSPost2010PropOp29
 70
     1
102
RTVSPost2010Prop30
280
     1
102
RTVSPost2010PropOp30
 70
     1
102
RTVSPost2010Prop31
280
     0
102
RTVSPost2010PropOp31
 70
     1
102
RTVSPost2010Prop32
280
     0
102
RTVSPost2010PropOp32
 70
     1
102
RTVSPost2010Prop33
280
     0
102
RTVSPost2010PropOp33
 70
     1
102
RTVSPost2010Prop34
280
     0
102
RTVSPost2010PropOp34
 70
     1
102
RTVSPost2010Prop35
280
     0
102
RTVSPost2010PropOp35
 70
     1
102
RTVSPost2010Prop36
280
     0
102
RTVSPost2010PropOp36
 70
     1
102
RTVSPost2010Prop37
 90
       50
102
RTVSPost2010PropOp37
 70
     1
102
RTVSPost2010Prop38
140
0.0
102
RTVSPost2010PropOp38
 70
     1
102
RTVSPost2010Prop39
140
1.0
102
RTVSPost2010PropOp39
 70
     1
102
RTVSPost2010Prop40
 90
        0
102
RTVSPost2010PropOp40
 70
     1
102
RTVSPost2010Prop41ColorIndex
 90
       18
102
RTVSPost2010Prop41ColorRGB
 90
        0
102
RTVSPost2010PropOp41
 70
     1
102
RTVSPost2010Prop42
 90
       50
102
RTVSPost2010PropOp42
 70
     1
102
RTVSPost2010Prop43
 90
        3
102
RTVSPost2010PropOp43
 70
     1
102
RTVSPost2010Prop44ColorIndex
 90
        5
102
RTVSPost2010Prop44ColorRGB
 90
      255
102
RTVSPost2010PropOp44
 70
     1
102
RTVSPost2010Prop45
280
     0
102
RTVSPost2010PropOp45
 70
     1
102
RTVSPost2010Prop46
 90
       50
102
RTVSPost2010PropOp46
 70
     1
102
RTVSPost2010Prop47
 90
       50
102
RTVSPost2010PropOp47
 70
     1
102
RTVSPost2010Prop48
 90
       50
102
RTVSPost2010PropOp48
 70
     1
102
RTVSPost2010Prop49
280
     0
102
RTVSPost2010PropOp49
 70
     1
102
RTVSPost2010Prop50
 90
       50
102
RTVSPost2010PropOp50
 70
     1
102
RTVSPost2010Prop51ColorIndex
 90
      256
102
RTVSPost2010Prop51ColorRGB
 90
-16777216
102
RTVSPost2010PropOp51
 70
     0
102
RTVSPost2010Prop52
140
1.0
102
RTVSPost2010PropOp52
 70
     0
102
RTVSPost2010Prop53
 90
        2
102
RTVSPost2010PropOp53
 70
     1
102
RTVSPost2010Prop54
  1
strokes_ogs.tif
102
RTVSPost2010PropOp54
 70
     1
102
RTVSPost2010Prop55
280
     0
102
RTVSPost2010PropOp55
 70
     1
102
RTVSPost2010Prop56
140
1.0
102
RTVSPost2010PropOp56
 70
     1
102
RTVSPost2010Prop57
140
1.0
102
RTVSPost2010PropOp57
 70
     1
102
RTVSPropertyOp0
 70
     1
102
RTVSPropertyOp1
 70
     1
102
RTVSPropertyOp2
 70
     1
102
RTVSPropertyOp3
 70
     1
102
RTVSPropertyOp4
 70
     1
102
RTVSPropertyOp5
 70
     1
102
RTVSPropertyOp6
 70
     1
102
RTVSPropertyOp7
 70
     1
102
RTVSPropertyOp8
 70
     1
102
RTVSPropertyOp9
 70
     1
102
RTVSPropertyOp10
 70
     1
102
RTVSPropertyOp11
 70
     1
102
RTVSPropertyOp12
 70
     1
102
RTVSPropertyOp13
 70
     1
102
RTVSPropertyOp14
 70
     1
102
RTVSPropertyOp15
 70
     1
102
RTVSPropertyOp16
 70
     1
102
RTVSPropertyOp17
 70
     1
102
RTVSPropertyOp18
 70
     1
102
RTVSPropertyOp19
 70
     1
102
RTVSPropertyOp20
 70
     1
102
RTVSPropertyOp21
 70
     1
102
RTVSPropertyOp22
 70
     1
102
RTVSPropertyOp23
 70
     1
102
RTVSPropertyOp24
 70
     1
102
RTVSPropertyOp25
 70
     1
102
RTVSPropertyOp26
 70
     1
102
RTVSPropertyOp27
 70
     1
102
RTVSPropertyOp28
 70
     1
102
RTVSPropertyOp29
 70
     1
102
RTVSPropertyOp30
 70
     1
102
RTVSPropertyOp31
 70
     1
102
RTVSPropertyOp32
 70
     1
102
RTVSPropertyOp33
 70
     1
102
RTVSPropertyOp34
 70
     1
102
RTVSPropertyOp35
 70
     1
102
RTVSPropertyOp36
 70
     1
102
RTVSPropertyOp37
 70
     1
102
RTVSPropertyOp38
 70
     1
102
RTVSPropertyOp39
 70
     1
102
RTVSPropertyOp40
 70
     1
102
RTVSPropertyOp41
 70
     1
102
RTVSPropertyOp42
 70
     1
102
RTVSPropertyOp43
 70
     1
102
RTVSPropertyOp44
 70
     1
102
RTVSPropertyOp45
 70
     1
102
RTVSPropertyOp46
 70
     1
102
RTVSPropertyOp47
 70
     1
102
RTVSPropertyOp48
 70
     1
102
RTVSPropertyOp49
 70
     1
102
RTVSPropertyOp50
 70
     1
102
RTVSPropertyOp51
 70
     0
102
RTVSPropertyOp52
 70
     0
102
RTVSPropertyOp53
 70
     1
102
RTVSPropertyOp54
 70
     1
102
RTVSPropertyOp55
 70
     1
102
RTVSPropertyOp56
 70
     1
102
RTVSPropertyOp57
 70
     1
102
RTVSPropertyOp58
 70
     1
102
RTVSPropertyOp59
 70
     1
102
RTVSPropertyOp60
 70
     1
102
RTVSPropertyOp61
 70
     1
102
RTVSPropertyOp62
 70
     1
  0
XRECORD
  5
AF3A
102
{ACAD_REACTORS
330
AF39
102
}
330
AF39
100
AcDbXrecord
280
     1
102
RTVSPost2010Prop28
280
     0
102
RTVSPost2010PropOp28
 70
     1
102
RTVSPost2010Prop29
280
     1
102
RTVSPost2010PropOp29
 70
     1
102
RTVSPost2010Prop30
280
     1
102
RTVSPost2010PropOp30
 70
     1
102
RTVSPost2010Prop31
280
     0
102
RTVSPost2010PropOp31
 70
     1
102
RTVSPost2010Prop32
280
     0
102
RTVSPost2010PropOp32
 70
     1
102
RTVSPost2010Prop33
280
     0
102
RTVSPost2010PropOp33
 70
     1
102
RTVSPost2010Prop34
280
     0
102
RTVSPost2010PropOp34
 70
     1
102
RTVSPost2010Prop35
280
     0
102
RTVSPost2010PropOp35
 70
     1
102
RTVSPost2010Prop36
280
     0
102
RTVSPost2010PropOp36
 70
     1
102
RTVSPost2010Prop37
 90
       50
102
RTVSPost2010PropOp37
 70
     1
102
RTVSPost2010Prop38
140
0.0
102
RTVSPost2010PropOp38
 70
     1
102
RTVSPost2010Prop39
140
1.0
102
RTVSPost2010PropOp39
 70
     1
102
RTVSPost2010Prop40
 90
        0
102
RTVSPost2010PropOp40
 70
     1
102
RTVSPost2010Prop41ColorIndex
 90
       18
102
RTVSPost2010Prop41ColorRGB
 90
        0
102
RTVSPost2010PropOp41
 70
     1
102
RTVSPost2010Prop42
 90
       50
102
RTVSPost2010PropOp42
 70
     1
102
RTVSPost2010Prop43
 90
        3
102
RTVSPost2010PropOp43
 70
     1
102
RTVSPost2010Prop44ColorIndex
 90
        5
102
RTVSPost2010Prop44ColorRGB
 90
      255
102
RTVSPost2010PropOp44
 70
     1
102
RTVSPost2010Prop45
280
     0
102
RTVSPost2010PropOp45
 70
     1
102
RTVSPost2010Prop46
 90
       50
102
RTVSPost2010PropOp46
 70
     1
102
RTVSPost2010Prop47
 90
       50
102
RTVSPost2010PropOp47
 70
     1
102
RTVSPost2010Prop48
 90
       50
102
RTVSPost2010PropOp48
 70
     1
102
RTVSPost2010Prop49
280
     0
102
RTVSPost2010PropOp49
 70
     1
102
RTVSPost2010Prop50
 90
       50
102
RTVSPost2010PropOp50
 70
     1
102
RTVSPost2010Prop51ColorIndex
 90
      256
102
RTVSPost2010Prop51ColorRGB
 90
-16777216
102
RTVSPost2010PropOp51
 70
     0
102
RTVSPost2010Prop52
140
1.0
102
RTVSPost2010PropOp52
 70
     0
102
RTVSPost2010Prop53
 90
        2
102
RTVSPost2010PropOp53
 70
     1
102
RTVSPost2010Prop54
  1
strokes_ogs.tif
102
RTVSPost2010PropOp54
 70
     1
102
RTVSPost2010Prop55
280
     0
102
RTVSPost2010PropOp55
 70
     1
102
RTVSPost2010Prop56
140
1.0
102
RTVSPost2010PropOp56
 70
     1
102
RTVSPost2010Prop57
140
1.0
102
RTVSPost2010PropOp57
 70
     1
102
RTVSPropertyOp0
 70
     1
102
RTVSPropertyOp1
 70
     1
102
RTVSPropertyOp2
 70
     1
102
RTVSPropertyOp3
 70
     1
102
RTVSPropertyOp4
 70
     1
102
RTVSPropertyOp5
 70
     1
102
RTVSPropertyOp6
 70
     1
102
RTVSPropertyOp7
 70
     1
102
RTVSPropertyOp8
 70
     1
102
RTVSPropertyOp9
 70
     1
102
RTVSPropertyOp10
 70
     1
102
RTVSPropertyOp11
 70
     1
102
RTVSPropertyOp12
 70
     1
102
RTVSPropertyOp13
 70
     1
102
RTVSPropertyOp14
 70
     1
102
RTVSPropertyOp15
 70
     1
102
RTVSPropertyOp16
 70
     1
102
RTVSPropertyOp17
 70
     1
102
RTVSPropertyOp18
 70
     1
102
RTVSPropertyOp19
 70
     1
102
RTVSPropertyOp20
 70
     1
102
RTVSPropertyOp21
 70
     1
102
RTVSPropertyOp22
 70
     1
102
RTVSPropertyOp23
 70
     1
102
RTVSPropertyOp24
 70
     1
102
RTVSPropertyOp25
 70
     1
102
RTVSPropertyOp26
 70
     1
102
RTVSPropertyOp27
 70
     1
102
RTVSPropertyOp28
 70
     1
102
RTVSPropertyOp29
 70
     1
102
RTVSPropertyOp30
 70
     1
102
RTVSPropertyOp31
 70
     1
102
RTVSPropertyOp32
 70
     1
102
RTVSPropertyOp33
 70
     1
102
RTVSPropertyOp34
 70
     1
102
RTVSPropertyOp35
 70
     1
102
RTVSPropertyOp36
 70
     1
102
RTVSPropertyOp37
 70
     1
102
RTVSPropertyOp38
 70
     1
102
RTVSPropertyOp39
 70
     1
102
RTVSPropertyOp40
 70
     1
102
RTVSPropertyOp41
 70
     1
102
RTVSPropertyOp42
 70
     1
102
RTVSPropertyOp43
 70
     1
102
RTVSPropertyOp44
 70
     1
102
RTVSPropertyOp45
 70
     1
102
RTVSPropertyOp46
 70
     1
102
RTVSPropertyOp47
 70
     1
102
RTVSPropertyOp48
 70
     1
102
RTVSPropertyOp49
 70
     1
102
RTVSPropertyOp50
 70
     1
102
RTVSPropertyOp51
 70
     0
102
RTVSPropertyOp52
 70
     0
102
RTVSPropertyOp53
 70
     1
102
RTVSPropertyOp54
 70
     1
102
RTVSPropertyOp55
 70
     1
102
RTVSPropertyOp56
 70
     1
102
RTVSPropertyOp57
 70
     1
102
RTVSPropertyOp58
 70
     1
102
RTVSPropertyOp59
 70
     1
102
RTVSPropertyOp60
 70
     1
102
RTVSPropertyOp61
 70
     1
102
RTVSPropertyOp62
 70
     1
  0
XRECORD
  5
AF3E
102
{ACAD_REACTORS
330
AF3D
102
}
330
AF3D
100
AcDbXrecord
280
     1
102
RTVSPost2010Prop28
280
     0
102
RTVSPost2010PropOp28
 70
     1
102
RTVSPost2010Prop29
280
     1
102
RTVSPost2010PropOp29
 70
     1
102
RTVSPost2010Prop30
280
     1
102
RTVSPost2010PropOp30
 70
     1
102
RTVSPost2010Prop31
280
     0
102
RTVSPost2010PropOp31
 70
     1
102
RTVSPost2010Prop32
280
     0
102
RTVSPost2010PropOp32
 70
     1
102
RTVSPost2010Prop33
280
     0
102
RTVSPost2010PropOp33
 70
     1
102
RTVSPost2010Prop34
280
     0
102
RTVSPost2010PropOp34
 70
     1
102
RTVSPost2010Prop35
280
     0
102
RTVSPost2010PropOp35
 70
     1
102
RTVSPost2010Prop36
280
     0
102
RTVSPost2010PropOp36
 70
     1
102
RTVSPost2010Prop37
 90
       50
102
RTVSPost2010PropOp37
 70
     1
102
RTVSPost2010Prop38
140
0.0
102
RTVSPost2010PropOp38
 70
     1
102
RTVSPost2010Prop39
140
1.0
102
RTVSPost2010PropOp39
 70
     1
102
RTVSPost2010Prop40
 90
        0
102
RTVSPost2010PropOp40
 70
     1
102
RTVSPost2010Prop41ColorIndex
 90
       18
102
RTVSPost2010Prop41ColorRGB
 90
        0
102
RTVSPost2010PropOp41
 70
     1
102
RTVSPost2010Prop42
 90
       50
102
RTVSPost2010PropOp42
 70
     1
102
RTVSPost2010Prop43
 90
        3
102
RTVSPost2010PropOp43
 70
     1
102
RTVSPost2010Prop44ColorIndex
 90
        5
102
RTVSPost2010Prop44ColorRGB
 90
      255
102
RTVSPost2010PropOp44
 70
     1
102
RTVSPost2010Prop45
280
     0
102
RTVSPost2010PropOp45
 70
     1
102
RTVSPost2010Prop46
 90
       50
102
RTVSPost2010PropOp46
 70
     1
102
RTVSPost2010Prop47
 90
       50
102
RTVSPost2010PropOp47
 70
     1
102
RTVSPost2010Prop48
 90
       50
102
RTVSPost2010PropOp48
 70
     1
102
RTVSPost2010Prop49
280
     0
102
RTVSPost2010PropOp49
 70
     1
102
RTVSPost2010Prop50
 90
       50
102
RTVSPost2010PropOp50
 70
     1
102
RTVSPost2010Prop51ColorIndex
 90
      256
102
RTVSPost2010Prop51ColorRGB
 90
-16777216
102
RTVSPost2010PropOp51
 70
     0
102
RTVSPost2010Prop52
140
1.0
102
RTVSPost2010PropOp52
 70
     0
102
RTVSPost2010Prop53
 90
        2
102
RTVSPost2010PropOp53
 70
     1
102
RTVSPost2010Prop54
  1
strokes_ogs.tif
102
RTVSPost2010PropOp54
 70
     1
102
RTVSPost2010Prop55
280
     0
102
RTVSPost2010PropOp55
 70
     1
102
RTVSPost2010Prop56
140
1.0
102
RTVSPost2010PropOp56
 70
     1
102
RTVSPost2010Prop57
140
1.0
102
RTVSPost2010PropOp57
 70
     1
102
RTVSPropertyOp0
 70
     1
102
RTVSPropertyOp1
 70
     1
102
RTVSPropertyOp2
 70
     1
102
RTVSPropertyOp3
 70
     1
102
RTVSPropertyOp4
 70
     1
102
RTVSPropertyOp5
 70
     1
102
RTVSPropertyOp6
 70
     1
102
RTVSPropertyOp7
 70
     1
102
RTVSPropertyOp8
 70
     1
102
RTVSPropertyOp9
 70
     1
102
RTVSPropertyOp10
 70
     1
102
RTVSPropertyOp11
 70
     1
102
RTVSPropertyOp12
 70
     1
102
RTVSPropertyOp13
 70
     1
102
RTVSPropertyOp14
 70
     1
102
RTVSPropertyOp15
 70
     1
102
RTVSPropertyOp16
 70
     1
102
RTVSPropertyOp17
 70
     1
102
RTVSPropertyOp18
 70
     1
102
RTVSPropertyOp19
 70
     1
102
RTVSPropertyOp20
 70
     1
102
RTVSPropertyOp21
 70
     1
102
RTVSPropertyOp22
 70
     1
102
RTVSPropertyOp23
 70
     1
102
RTVSPropertyOp24
 70
     1
102
RTVSPropertyOp25
 70
     1
102
RTVSPropertyOp26
 70
     1
102
RTVSPropertyOp27
 70
     1
102
RTVSPropertyOp28
 70
     1
102
RTVSPropertyOp29
 70
     1
102
RTVSPropertyOp30
 70
     1
102
RTVSPropertyOp31
 70
     1
102
RTVSPropertyOp32
 70
     1
102
RTVSPropertyOp33
 70
     1
102
RTVSPropertyOp34
 70
     1
102
RTVSPropertyOp35
 70
     1
102
RTVSPropertyOp36
 70
     1
102
RTVSPropertyOp37
 70
     1
102
RTVSPropertyOp38
 70
     1
102
RTVSPropertyOp39
 70
     1
102
RTVSPropertyOp40
 70
     1
102
RTVSPropertyOp41
 70
     1
102
RTVSPropertyOp42
 70
     1
102
RTVSPropertyOp43
 70
     1
102
RTVSPropertyOp44
 70
     1
102
RTVSPropertyOp45
 70
     1
102
RTVSPropertyOp46
 70
     1
102
RTVSPropertyOp47
 70
     1
102
RTVSPropertyOp48
 70
     1
102
RTVSPropertyOp49
 70
     1
102
RTVSPropertyOp50
 70
     1
102
RTVSPropertyOp51
 70
     0
102
RTVSPropertyOp52
 70
     0
102
RTVSPropertyOp53
 70
     1
102
RTVSPropertyOp54
 70
     1
102
RTVSPropertyOp55
 70
     1
102
RTVSPropertyOp56
 70
     1
102
RTVSPropertyOp57
 70
     1
102
RTVSPropertyOp58
 70
     1
102
RTVSPropertyOp59
 70
     1
102
RTVSPropertyOp60
 70
     1
102
RTVSPropertyOp61
 70
     1
102
RTVSPropertyOp62
 70
     1
  0
XRECORD
  5
AF58
102
{ACAD_REACTORS
330
AF57
102
}
330
AF57
100
AcDbXrecord
280
     1
102
RTVSPost2010Prop28
280
     0
102
RTVSPost2010PropOp28
 70
     1
102
RTVSPost2010Prop29
280
     1
102
RTVSPost2010PropOp29
 70
     1
102
RTVSPost2010Prop30
280
     1
102
RTVSPost2010PropOp30
 70
     1
102
RTVSPost2010Prop31
280
     0
102
RTVSPost2010PropOp31
 70
     1
102
RTVSPost2010Prop32
280
     0
102
RTVSPost2010PropOp32
 70
     1
102
RTVSPost2010Prop33
280
     0
102
RTVSPost2010PropOp33
 70
     1
102
RTVSPost2010Prop34
280
     0
102
RTVSPost2010PropOp34
 70
     1
102
RTVSPost2010Prop35
280
     0
102
RTVSPost2010PropOp35
 70
     1
102
RTVSPost2010Prop36
280
     0
102
RTVSPost2010PropOp36
 70
     1
102
RTVSPost2010Prop37
 90
       50
102
RTVSPost2010PropOp37
 70
     0
102
RTVSPost2010Prop38
140
0.0
102
RTVSPost2010PropOp38
 70
     0
102
RTVSPost2010Prop39
140
1.0
102
RTVSPost2010PropOp39
 70
     0
102
RTVSPost2010Prop40
 90
        0
102
RTVSPost2010PropOp40
 70
     0
102
RTVSPost2010Prop41ColorIndex
 90
       18
102
RTVSPost2010Prop41ColorRGB
 90
        0
102
RTVSPost2010PropOp41
 70
     0
102
RTVSPost2010Prop42
 90
       50
102
RTVSPost2010PropOp42
 70
     0
102
RTVSPost2010Prop43
 90
        3
102
RTVSPost2010PropOp43
 70
     0
102
RTVSPost2010Prop44ColorIndex
 90
        5
102
RTVSPost2010Prop44ColorRGB
 90
      255
102
RTVSPost2010PropOp44
 70
     0
102
RTVSPost2010Prop45
280
     0
102
RTVSPost2010PropOp45
 70
     1
102
RTVSPost2010Prop46
 90
       50
102
RTVSPost2010PropOp46
 70
     0
102
RTVSPost2010Prop47
 90
       50
102
RTVSPost2010PropOp47
 70
     0
102
RTVSPost2010Prop48
 90
       50
102
RTVSPost2010PropOp48
 70
     0
102
RTVSPost2010Prop49
280
     0
102
RTVSPost2010PropOp49
 70
     1
102
RTVSPost2010Prop50
 90
       50
102
RTVSPost2010PropOp50
 70
     0
102
RTVSPost2010Prop51ColorIndex
 90
      256
102
RTVSPost2010Prop51ColorRGB
 90
-16777216
102
RTVSPost2010PropOp51
 70
     0
102
RTVSPost2010Prop52
140
1.0
102
RTVSPost2010PropOp52
 70
     0
102
RTVSPost2010Prop53
 90
        2
102
RTVSPost2010PropOp53
 70
     0
102
RTVSPost2010Prop54
  1
strokes_ogs.tif
102
RTVSPost2010PropOp54
 70
     0
102
RTVSPost2010Prop55
280
     0
102
RTVSPost2010PropOp55
 70
     1
102
RTVSPost2010Prop56
140
1.0
102
RTVSPost2010PropOp56
 70
     0
102
RTVSPost2010Prop57
140
1.0
102
RTVSPost2010PropOp57
 70
     0
102
RTVSPropertyOp0
 70
     0
102
RTVSPropertyOp1
 70
     0
102
RTVSPropertyOp2
 70
     0
102
RTVSPropertyOp3
 70
     0
102
RTVSPropertyOp4
 70
     0
102
RTVSPropertyOp5
 70
     0
102
RTVSPropertyOp6
 70
     0
102
RTVSPropertyOp7
 70
     0
102
RTVSPropertyOp8
 70
     0
102
RTVSPropertyOp9
 70
     0
102
RTVSPropertyOp10
 70
     0
102
RTVSPropertyOp11
 70
     0
102
RTVSPropertyOp12
 70
     0
102
RTVSPropertyOp13
 70
     0
102
RTVSPropertyOp14
 70
     2
102
RTVSPropertyOp15
 70
     0
102
RTVSPropertyOp16
 70
     0
102
RTVSPropertyOp17
 70
     0
102
RTVSPropertyOp18
 70
     0
102
RTVSPropertyOp19
 70
     0
102
RTVSPropertyOp20
 70
     0
102
RTVSPropertyOp21
 70
     0
102
RTVSPropertyOp22
 70
     0
102
RTVSPropertyOp23
 70
     0
102
RTVSPropertyOp24
 70
     0
102
RTVSPropertyOp25
 70
     0
102
RTVSPropertyOp26
 70
     0
102
RTVSPropertyOp27
 70
     0
102
RTVSPropertyOp28
 70
     1
102
RTVSPropertyOp29
 70
     1
102
RTVSPropertyOp30
 70
     1
102
RTVSPropertyOp31
 70
     1
102
RTVSPropertyOp32
 70
     1
102
RTVSPropertyOp33
 70
     1
102
RTVSPropertyOp34
 70
     1
102
RTVSPropertyOp35
 70
     1
102
RTVSPropertyOp36
 70
     1
102
RTVSPropertyOp37
 70
     0
102
RTVSPropertyOp38
 70
     0
102
RTVSPropertyOp39
 70
     0
102
RTVSPropertyOp40
 70
     0
102
RTVSPropertyOp41
 70
     0
102
RTVSPropertyOp42
 70
     0
102
RTVSPropertyOp43
 70
     0
102
RTVSPropertyOp44
 70
     0
102
RTVSPropertyOp45
 70
     1
102
RTVSPropertyOp46
 70
     0
102
RTVSPropertyOp47
 70
     0
102
RTVSPropertyOp48
 70
     0
102
RTVSPropertyOp49
 70
     1
102
RTVSPropertyOp50
 70
     0
102
RTVSPropertyOp51
 70
     0
102
RTVSPropertyOp52
 70
     0
102
RTVSPropertyOp53
 70
     0
102
RTVSPropertyOp54
 70
     0
102
RTVSPropertyOp55
 70
     1
102
RTVSPropertyOp56
 70
     0
102
RTVSPropertyOp57
 70
     0
102
RTVSPropertyOp58
 70
     0
102
RTVSPropertyOp59
 70
     0
102
RTVSPropertyOp60
 70
     0
102
RTVSPropertyOp61
 70
     0
102
RTVSPropertyOp62
 70
     0
  0
XRECORD
  5
AF46
102
{ACAD_REACTORS
330
AF45
102
}
330
AF45
100
AcDbXrecord
280
     1
102
RTVSPost2010Prop28
280
     0
102
RTVSPost2010PropOp28
 70
     1
102
RTVSPost2010Prop29
280
     1
102
RTVSPost2010PropOp29
 70
     1
102
RTVSPost2010Prop30
280
     1
102
RTVSPost2010PropOp30
 70
     1
102
RTVSPost2010Prop31
280
     0
102
RTVSPost2010PropOp31
 70
     1
102
RTVSPost2010Prop32
280
     0
102
RTVSPost2010PropOp32
 70
     1
102
RTVSPost2010Prop33
280
     0
102
RTVSPost2010PropOp33
 70
     1
102
RTVSPost2010Prop34
280
     0
102
RTVSPost2010PropOp34
 70
     1
102
RTVSPost2010Prop35
280
     0
102
RTVSPost2010PropOp35
 70
     1
102
RTVSPost2010Prop36
280
     0
102
RTVSPost2010PropOp36
 70
     1
102
RTVSPost2010Prop37
 90
       50
102
RTVSPost2010PropOp37
 70
     1
102
RTVSPost2010Prop38
140
0.0
102
RTVSPost2010PropOp38
 70
     1
102
RTVSPost2010Prop39
140
1.0
102
RTVSPost2010PropOp39
 70
     1
102
RTVSPost2010Prop40
 90
        0
102
RTVSPost2010PropOp40
 70
     1
102
RTVSPost2010Prop41ColorIndex
 90
       18
102
RTVSPost2010Prop41ColorRGB
 90
        0
102
RTVSPost2010PropOp41
 70
     1
102
RTVSPost2010Prop42
 90
       50
102
RTVSPost2010PropOp42
 70
     1
102
RTVSPost2010Prop43
 90
        3
102
RTVSPost2010PropOp43
 70
     1
102
RTVSPost2010Prop44ColorIndex
 90
        5
102
RTVSPost2010Prop44ColorRGB
 90
      255
102
RTVSPost2010PropOp44
 70
     1
102
RTVSPost2010Prop45
280
     0
102
RTVSPost2010PropOp45
 70
     1
102
RTVSPost2010Prop46
 90
       50
102
RTVSPost2010PropOp46
 70
     1
102
RTVSPost2010Prop47
 90
       50
102
RTVSPost2010PropOp47
 70
     1
102
RTVSPost2010Prop48
 90
       50
102
RTVSPost2010PropOp48
 70
     1
102
RTVSPost2010Prop49
280
     0
102
RTVSPost2010PropOp49
 70
     1
102
RTVSPost2010Prop50
 90
       50
102
RTVSPost2010PropOp50
 70
     1
102
RTVSPost2010Prop51ColorIndex
 90
      256
102
RTVSPost2010Prop51ColorRGB
 90
-16777216
102
RTVSPost2010PropOp51
 70
     0
102
RTVSPost2010Prop52
140
1.0
102
RTVSPost2010PropOp52
 70
     0
102
RTVSPost2010Prop53
 90
        2
102
RTVSPost2010PropOp53
 70
     1
102
RTVSPost2010Prop54
  1
strokes_ogs.tif
102
RTVSPost2010PropOp54
 70
     1
102
RTVSPost2010Prop55
280
     0
102
RTVSPost2010PropOp55
 70
     1
102
RTVSPost2010Prop56
140
1.0
102
RTVSPost2010PropOp56
 70
     1
102
RTVSPost2010Prop57
140
1.0
102
RTVSPost2010PropOp57
 70
     1
102
RTVSPropertyOp0
 70
     1
102
RTVSPropertyOp1
 70
     1
102
RTVSPropertyOp2
 70
     1
102
RTVSPropertyOp3
 70
     1
102
RTVSPropertyOp4
 70
     1
102
RTVSPropertyOp5
 70
     1
102
RTVSPropertyOp6
 70
     1
102
RTVSPropertyOp7
 70
     1
102
RTVSPropertyOp8
 70
     1
102
RTVSPropertyOp9
 70
     1
102
RTVSPropertyOp10
 70
     1
102
RTVSPropertyOp11
 70
     1
102
RTVSPropertyOp12
 70
     1
102
RTVSPropertyOp13
 70
     1
102
RTVSPropertyOp14
 70
     1
102
RTVSPropertyOp15
 70
     1
102
RTVSPropertyOp16
 70
     1
102
RTVSPropertyOp17
 70
     1
102
RTVSPropertyOp18
 70
     1
102
RTVSPropertyOp19
 70
     1
102
RTVSPropertyOp20
 70
     1
102
RTVSPropertyOp21
 70
     1
102
RTVSPropertyOp22
 70
     1
102
RTVSPropertyOp23
 70
     1
102
RTVSPropertyOp24
 70
     1
102
RTVSPropertyOp25
 70
     1
102
RTVSPropertyOp26
 70
     1
102
RTVSPropertyOp27
 70
     1
102
RTVSPropertyOp28
 70
     1
102
RTVSPropertyOp29
 70
     1
102
RTVSPropertyOp30
 70
     1
102
RTVSPropertyOp31
 70
     1
102
RTVSPropertyOp32
 70
     1
102
RTVSPropertyOp33
 70
     1
102
RTVSPropertyOp34
 70
     1
102
RTVSPropertyOp35
 70
     1
102
RTVSPropertyOp36
 70
     1
102
RTVSPropertyOp37
 70
     1
102
RTVSPropertyOp38
 70
     1
102
RTVSPropertyOp39
 70
     1
102
RTVSPropertyOp40
 70
     1
102
RTVSPropertyOp41
 70
     1
102
RTVSPropertyOp42
 70
     1
102
RTVSPropertyOp43
 70
     1
102
RTVSPropertyOp44
 70
     1
102
RTVSPropertyOp45
 70
     1
102
RTVSPropertyOp46
 70
     1
102
RTVSPropertyOp47
 70
     1
102
RTVSPropertyOp48
 70
     1
102
RTVSPropertyOp49
 70
     1
102
RTVSPropertyOp50
 70
     1
102
RTVSPropertyOp51
 70
     0
102
RTVSPropertyOp52
 70
     0
102
RTVSPropertyOp53
 70
     1
102
RTVSPropertyOp54
 70
     1
102
RTVSPropertyOp55
 70
     1
102
RTVSPropertyOp56
 70
     1
102
RTVSPropertyOp57
 70
     1
102
RTVSPropertyOp58
 70
     1
102
RTVSPropertyOp59
 70
     1
102
RTVSPropertyOp60
 70
     1
102
RTVSPropertyOp61
 70
     1
102
RTVSPropertyOp62
 70
     1
  0
XRECORD
  5
AF2A
102
{ACAD_REACTORS
330
AF29
102
}
330
AF29
100
AcDbXrecord
280
     1
102
RTVSPost2010Prop28
280
     0
102
RTVSPost2010PropOp28
 70
     1
102
RTVSPost2010Prop29
280
     1
102
RTVSPost2010PropOp29
 70
     1
102
RTVSPost2010Prop30
280
     1
102
RTVSPost2010PropOp30
 70
     1
102
RTVSPost2010Prop31
280
     0
102
RTVSPost2010PropOp31
 70
     1
102
RTVSPost2010Prop32
280
     0
102
RTVSPost2010PropOp32
 70
     1
102
RTVSPost2010Prop33
280
     0
102
RTVSPost2010PropOp33
 70
     1
102
RTVSPost2010Prop34
280
     0
102
RTVSPost2010PropOp34
 70
     1
102
RTVSPost2010Prop35
280
     0
102
RTVSPost2010PropOp35
 70
     1
102
RTVSPost2010Prop36
280
     0
102
RTVSPost2010PropOp36
 70
     1
102
RTVSPost2010Prop37
 90
       50
102
RTVSPost2010PropOp37
 70
     1
102
RTVSPost2010Prop38
140
0.0
102
RTVSPost2010PropOp38
 70
     1
102
RTVSPost2010Prop39
140
1.0
102
RTVSPost2010PropOp39
 70
     1
102
RTVSPost2010Prop40
 90
        0
102
RTVSPost2010PropOp40
 70
     1
102
RTVSPost2010Prop41ColorIndex
 90
       18
102
RTVSPost2010Prop41ColorRGB
 90
        0
102
RTVSPost2010PropOp41
 70
     1
102
RTVSPost2010Prop42
 90
       50
102
RTVSPost2010PropOp42
 70
     1
102
RTVSPost2010Prop43
 90
        3
102
RTVSPost2010PropOp43
 70
     1
102
RTVSPost2010Prop44ColorIndex
 90
        5
102
RTVSPost2010Prop44ColorRGB
 90
      255
102
RTVSPost2010PropOp44
 70
     1
102
RTVSPost2010Prop45
280
     0
102
RTVSPost2010PropOp45
 70
     1
102
RTVSPost2010Prop46
 90
       50
102
RTVSPost2010PropOp46
 70
     1
102
RTVSPost2010Prop47
 90
       50
102
RTVSPost2010PropOp47
 70
     1
102
RTVSPost2010Prop48
 90
       50
102
RTVSPost2010PropOp48
 70
     1
102
RTVSPost2010Prop49
280
     0
102
RTVSPost2010PropOp49
 70
     1
102
RTVSPost2010Prop50
 90
       50
102
RTVSPost2010PropOp50
 70
     1
102
RTVSPost2010Prop51ColorIndex
 90
      256
102
RTVSPost2010Prop51ColorRGB
 90
-16777216
102
RTVSPost2010PropOp51
 70
     0
102
RTVSPost2010Prop52
140
1.0
102
RTVSPost2010PropOp52
 70
     0
102
RTVSPost2010Prop53
 90
        2
102
RTVSPost2010PropOp53
 70
     1
102
RTVSPost2010Prop54
  1
strokes_ogs.tif
102
RTVSPost2010PropOp54
 70
     1
102
RTVSPost2010Prop55
280
     0
102
RTVSPost2010PropOp55
 70
     1
102
RTVSPost2010Prop56
140
1.0
102
RTVSPost2010PropOp56
 70
     1
102
RTVSPost2010Prop57
140
1.0
102
RTVSPost2010PropOp57
 70
     1
102
RTVSPropertyOp0
 70
     1
102
RTVSPropertyOp1
 70
     1
102
RTVSPropertyOp2
 70
     1
102
RTVSPropertyOp3
 70
     1
102
RTVSPropertyOp4
 70
     1
102
RTVSPropertyOp5
 70
     1
102
RTVSPropertyOp6
 70
     1
102
RTVSPropertyOp7
 70
     1
102
RTVSPropertyOp8
 70
     1
102
RTVSPropertyOp9
 70
     1
102
RTVSPropertyOp10
 70
     1
102
RTVSPropertyOp11
 70
     1
102
RTVSPropertyOp12
 70
     1
102
RTVSPropertyOp13
 70
     1
102
RTVSPropertyOp14
 70
     1
102
RTVSPropertyOp15
 70
     1
102
RTVSPropertyOp16
 70
     1
102
RTVSPropertyOp17
 70
     1
102
RTVSPropertyOp18
 70
     1
102
RTVSPropertyOp19
 70
     1
102
RTVSPropertyOp20
 70
     1
102
RTVSPropertyOp21
 70
     1
102
RTVSPropertyOp22
 70
     1
102
RTVSPropertyOp23
 70
     1
102
RTVSPropertyOp24
 70
     1
102
RTVSPropertyOp25
 70
     1
102
RTVSPropertyOp26
 70
     1
102
RTVSPropertyOp27
 70
     1
102
RTVSPropertyOp28
 70
     1
102
RTVSPropertyOp29
 70
     1
102
RTVSPropertyOp30
 70
     1
102
RTVSPropertyOp31
 70
     1
102
RTVSPropertyOp32
 70
     1
102
RTVSPropertyOp33
 70
     1
102
RTVSPropertyOp34
 70
     1
102
RTVSPropertyOp35
 70
     1
102
RTVSPropertyOp36
 70
     1
102
RTVSPropertyOp37
 70
     1
102
RTVSPropertyOp38
 70
     1
102
RTVSPropertyOp39
 70
     1
102
RTVSPropertyOp40
 70
     1
102
RTVSPropertyOp41
 70
     1
102
RTVSPropertyOp42
 70
     1
102
RTVSPropertyOp43
 70
     1
102
RTVSPropertyOp44
 70
     1
102
RTVSPropertyOp45
 70
     1
102
RTVSPropertyOp46
 70
     1
102
RTVSPropertyOp47
 70
     1
102
RTVSPropertyOp48
 70
     1
102
RTVSPropertyOp49
 70
     1
102
RTVSPropertyOp50
 70
     1
102
RTVSPropertyOp51
 70
     0
102
RTVSPropertyOp52
 70
     0
102
RTVSPropertyOp53
 70
     1
102
RTVSPropertyOp54
 70
     1
102
RTVSPropertyOp55
 70
     1
102
RTVSPropertyOp56
 70
     1
102
RTVSPropertyOp57
 70
     1
102
RTVSPropertyOp58
 70
     1
102
RTVSPropertyOp59
 70
     1
102
RTVSPropertyOp60
 70
     1
102
RTVSPropertyOp61
 70
     1
102
RTVSPropertyOp62
 70
     1
  0
XRECORD
  5
AF2C
102
{ACAD_REACTORS
330
AF2B
102
}
330
AF2B
100
AcDbXrecord
280
     1
102
RTVSPost2010Prop28
280
     0
102
RTVSPost2010PropOp28
 70
     1
102
RTVSPost2010Prop29
280
     1
102
RTVSPost2010PropOp29
 70
     1
102
RTVSPost2010Prop30
280
     1
102
RTVSPost2010PropOp30
 70
     1
102
RTVSPost2010Prop31
280
     0
102
RTVSPost2010PropOp31
 70
     1
102
RTVSPost2010Prop32
280
     0
102
RTVSPost2010PropOp32
 70
     1
102
RTVSPost2010Prop33
280
     0
102
RTVSPost2010PropOp33
 70
     1
102
RTVSPost2010Prop34
280
     0
102
RTVSPost2010PropOp34
 70
     1
102
RTVSPost2010Prop35
280
     0
102
RTVSPost2010PropOp35
 70
     1
102
RTVSPost2010Prop36
280
     0
102
RTVSPost2010PropOp36
 70
     1
102
RTVSPost2010Prop37
 90
       50
102
RTVSPost2010PropOp37
 70
     1
102
RTVSPost2010Prop38
140
0.0
102
RTVSPost2010PropOp38
 70
     1
102
RTVSPost2010Prop39
140
1.0
102
RTVSPost2010PropOp39
 70
     1
102
RTVSPost2010Prop40
 90
        0
102
RTVSPost2010PropOp40
 70
     1
102
RTVSPost2010Prop41ColorIndex
 90
       18
102
RTVSPost2010Prop41ColorRGB
 90
        0
102
RTVSPost2010PropOp41
 70
     1
102
RTVSPost2010Prop42
 90
       50
102
RTVSPost2010PropOp42
 70
     1
102
RTVSPost2010Prop43
 90
        3
102
RTVSPost2010PropOp43
 70
     1
102
RTVSPost2010Prop44ColorIndex
 90
        5
102
RTVSPost2010Prop44ColorRGB
 90
      255
102
RTVSPost2010PropOp44
 70
     1
102
RTVSPost2010Prop45
280
     0
102
RTVSPost2010PropOp45
 70
     1
102
RTVSPost2010Prop46
 90
       50
102
RTVSPost2010PropOp46
 70
     1
102
RTVSPost2010Prop47
 90
       50
102
RTVSPost2010PropOp47
 70
     1
102
RTVSPost2010Prop48
 90
       50
102
RTVSPost2010PropOp48
 70
     1
102
RTVSPost2010Prop49
280
     0
102
RTVSPost2010PropOp49
 70
     1
102
RTVSPost2010Prop50
 90
       50
102
RTVSPost2010PropOp50
 70
     1
102
RTVSPost2010Prop51ColorIndex
 90
      256
102
RTVSPost2010Prop51ColorRGB
 90
-16777216
102
RTVSPost2010PropOp51
 70
     0
102
RTVSPost2010Prop52
140
1.0
102
RTVSPost2010PropOp52
 70
     0
102
RTVSPost2010Prop53
 90
        2
102
RTVSPost2010PropOp53
 70
     1
102
RTVSPost2010Prop54
  1
strokes_ogs.tif
102
RTVSPost2010PropOp54
 70
     1
102
RTVSPost2010Prop55
280
     0
102
RTVSPost2010PropOp55
 70
     1
102
RTVSPost2010Prop56
140
1.0
102
RTVSPost2010PropOp56
 70
     1
102
RTVSPost2010Prop57
140
1.0
102
RTVSPost2010PropOp57
 70
     1
102
RTVSPropertyOp0
 70
     1
102
RTVSPropertyOp1
 70
     1
102
RTVSPropertyOp2
 70
     1
102
RTVSPropertyOp3
 70
     1
102
RTVSPropertyOp4
 70
     1
102
RTVSPropertyOp5
 70
     1
102
RTVSPropertyOp6
 70
     1
102
RTVSPropertyOp7
 70
     1
102
RTVSPropertyOp8
 70
     1
102
RTVSPropertyOp9
 70
     1
102
RTVSPropertyOp10
 70
     1
102
RTVSPropertyOp11
 70
     1
102
RTVSPropertyOp12
 70
     1
102
RTVSPropertyOp13
 70
     1
102
RTVSPropertyOp14
 70
     1
102
RTVSPropertyOp15
 70
     1
102
RTVSPropertyOp16
 70
     1
102
RTVSPropertyOp17
 70
     1
102
RTVSPropertyOp18
 70
     1
102
RTVSPropertyOp19
 70
     1
102
RTVSPropertyOp20
 70
     1
102
RTVSPropertyOp21
 70
     1
102
RTVSPropertyOp22
 70
     1
102
RTVSPropertyOp23
 70
     1
102
RTVSPropertyOp24
 70
     1
102
RTVSPropertyOp25
 70
     1
102
RTVSPropertyOp26
 70
     1
102
RTVSPropertyOp27
 70
     1
102
RTVSPropertyOp28
 70
     1
102
RTVSPropertyOp29
 70
     1
102
RTVSPropertyOp30
 70
     1
102
RTVSPropertyOp31
 70
     1
102
RTVSPropertyOp32
 70
     1
102
RTVSPropertyOp33
 70
     1
102
RTVSPropertyOp34
 70
     1
102
RTVSPropertyOp35
 70
     1
102
RTVSPropertyOp36
 70
     1
102
RTVSPropertyOp37
 70
     1
102
RTVSPropertyOp38
 70
     1
102
RTVSPropertyOp39
 70
     1
102
RTVSPropertyOp40
 70
     1
102
RTVSPropertyOp41
 70
     1
102
RTVSPropertyOp42
 70
     1
102
RTVSPropertyOp43
 70
     1
102
RTVSPropertyOp44
 70
     1
102
RTVSPropertyOp45
 70
     1
102
RTVSPropertyOp46
 70
     1
102
RTVSPropertyOp47
 70
     1
102
RTVSPropertyOp48
 70
     1
102
RTVSPropertyOp49
 70
     1
102
RTVSPropertyOp50
 70
     1
102
RTVSPropertyOp51
 70
     0
102
RTVSPropertyOp52
 70
     0
102
RTVSPropertyOp53
 70
     1
102
RTVSPropertyOp54
 70
     1
102
RTVSPropertyOp55
 70
     1
102
RTVSPropertyOp56
 70
     1
102
RTVSPropertyOp57
 70
     1
102
RTVSPropertyOp58
 70
     1
102
RTVSPropertyOp59
 70
     1
102
RTVSPropertyOp60
 70
     1
102
RTVSPropertyOp61
 70
     1
102
RTVSPropertyOp62
 70
     1
  0
XRECORD
  5
AF2E
102
{ACAD_REACTORS
330
AF2D
102
}
330
AF2D
100
AcDbXrecord
280
     1
102
RTVSPost2010Prop28
280
     0
102
RTVSPost2010PropOp28
 70
     1
102
RTVSPost2010Prop29
280
     1
102
RTVSPost2010PropOp29
 70
     1
102
RTVSPost2010Prop30
280
     1
102
RTVSPost2010PropOp30
 70
     1
102
RTVSPost2010Prop31
280
     0
102
RTVSPost2010PropOp31
 70
     1
102
RTVSPost2010Prop32
280
     0
102
RTVSPost2010PropOp32
 70
     1
102
RTVSPost2010Prop33
280
     0
102
RTVSPost2010PropOp33
 70
     1
102
RTVSPost2010Prop34
280
     0
102
RTVSPost2010PropOp34
 70
     1
102
RTVSPost2010Prop35
280
     0
102
RTVSPost2010PropOp35
 70
     1
102
RTVSPost2010Prop36
280
     0
102
RTVSPost2010PropOp36
 70
     1
102
RTVSPost2010Prop37
 90
       50
102
RTVSPost2010PropOp37
 70
     1
102
RTVSPost2010Prop38
140
0.0
102
RTVSPost2010PropOp38
 70
     1
102
RTVSPost2010Prop39
140
1.0
102
RTVSPost2010PropOp39
 70
     1
102
RTVSPost2010Prop40
 90
        0
102
RTVSPost2010PropOp40
 70
     1
102
RTVSPost2010Prop41ColorIndex
 90
       18
102
RTVSPost2010Prop41ColorRGB
 90
        0
102
RTVSPost2010PropOp41
 70
     1
102
RTVSPost2010Prop42
 90
       50
102
RTVSPost2010PropOp42
 70
     1
102
RTVSPost2010Prop43
 90
        3
102
RTVSPost2010PropOp43
 70
     1
102
RTVSPost2010Prop44ColorIndex
 90
        5
102
RTVSPost2010Prop44ColorRGB
 90
      255
102
RTVSPost2010PropOp44
 70
     1
102
RTVSPost2010Prop45
280
     0
102
RTVSPost2010PropOp45
 70
     1
102
RTVSPost2010Prop46
 90
       50
102
RTVSPost2010PropOp46
 70
     1
102
RTVSPost2010Prop47
 90
       50
102
RTVSPost2010PropOp47
 70
     1
102
RTVSPost2010Prop48
 90
       50
102
RTVSPost2010PropOp48
 70
     1
102
RTVSPost2010Prop49
280
     0
102
RTVSPost2010PropOp49
 70
     1
102
RTVSPost2010Prop50
 90
       50
102
RTVSPost2010PropOp50
 70
     1
102
RTVSPost2010Prop51ColorIndex
 90
      256
102
RTVSPost2010Prop51ColorRGB
 90
-16777216
102
RTVSPost2010PropOp51
 70
     0
102
RTVSPost2010Prop52
140
1.0
102
RTVSPost2010PropOp52
 70
     0
102
RTVSPost2010Prop53
 90
        2
102
RTVSPost2010PropOp53
 70
     1
102
RTVSPost2010Prop54
  1
strokes_ogs.tif
102
RTVSPost2010PropOp54
 70
     1
102
RTVSPost2010Prop55
280
     0
102
RTVSPost2010PropOp55
 70
     1
102
RTVSPost2010Prop56
140
1.0
102
RTVSPost2010PropOp56
 70
     1
102
RTVSPost2010Prop57
140
1.0
102
RTVSPost2010PropOp57
 70
     1
102
RTVSPropertyOp0
 70
     1
102
RTVSPropertyOp1
 70
     1
102
RTVSPropertyOp2
 70
     1
102
RTVSPropertyOp3
 70
     1
102
RTVSPropertyOp4
 70
     1
102
RTVSPropertyOp5
 70
     1
102
RTVSPropertyOp6
 70
     1
102
RTVSPropertyOp7
 70
     1
102
RTVSPropertyOp8
 70
     1
102
RTVSPropertyOp9
 70
     1
102
RTVSPropertyOp10
 70
     1
102
RTVSPropertyOp11
 70
     1
102
RTVSPropertyOp12
 70
     1
102
RTVSPropertyOp13
 70
     1
102
RTVSPropertyOp14
 70
     1
102
RTVSPropertyOp15
 70
     1
102
RTVSPropertyOp16
 70
     1
102
RTVSPropertyOp17
 70
     1
102
RTVSPropertyOp18
 70
     1
102
RTVSPropertyOp19
 70
     1
102
RTVSPropertyOp20
 70
     1
102
RTVSPropertyOp21
 70
     1
102
RTVSPropertyOp22
 70
     1
102
RTVSPropertyOp23
 70
     1
102
RTVSPropertyOp24
 70
     1
102
RTVSPropertyOp25
 70
     1
102
RTVSPropertyOp26
 70
     1
102
RTVSPropertyOp27
 70
     1
102
RTVSPropertyOp28
 70
     1
102
RTVSPropertyOp29
 70
     1
102
RTVSPropertyOp30
 70
     1
102
RTVSPropertyOp31
 70
     1
102
RTVSPropertyOp32
 70
     1
102
RTVSPropertyOp33
 70
     1
102
RTVSPropertyOp34
 70
     1
102
RTVSPropertyOp35
 70
     1
102
RTVSPropertyOp36
 70
     1
102
RTVSPropertyOp37
 70
     1
102
RTVSPropertyOp38
 70
     1
102
RTVSPropertyOp39
 70
     1
102
RTVSPropertyOp40
 70
     1
102
RTVSPropertyOp41
 70
     1
102
RTVSPropertyOp42
 70
     1
102
RTVSPropertyOp43
 70
     1
102
RTVSPropertyOp44
 70
     1
102
RTVSPropertyOp45
 70
     1
102
RTVSPropertyOp46
 70
     1
102
RTVSPropertyOp47
 70
     1
102
RTVSPropertyOp48
 70
     1
102
RTVSPropertyOp49
 70
     1
102
RTVSPropertyOp50
 70
     1
102
RTVSPropertyOp51
 70
     0
102
RTVSPropertyOp52
 70
     0
102
RTVSPropertyOp53
 70
     1
102
RTVSPropertyOp54
 70
     1
102
RTVSPropertyOp55
 70
     1
102
RTVSPropertyOp56
 70
     1
102
RTVSPropertyOp57
 70
     1
102
RTVSPropertyOp58
 70
     1
102
RTVSPropertyOp59
 70
     1
102
RTVSPropertyOp60
 70
     1
102
RTVSPropertyOp61
 70
     1
102
RTVSPropertyOp62
 70
     1
  0
XRECORD
  5
AF30
102
{ACAD_REACTORS
330
AF2F
102
}
330
AF2F
100
AcDbXrecord
280
     1
102
RTVSPost2010Prop28
280
     0
102
RTVSPost2010PropOp28
 70
     1
102
RTVSPost2010Prop29
280
     1
102
RTVSPost2010PropOp29
 70
     1
102
RTVSPost2010Prop30
280
     1
102
RTVSPost2010PropOp30
 70
     1
102
RTVSPost2010Prop31
280
     0
102
RTVSPost2010PropOp31
 70
     1
102
RTVSPost2010Prop32
280
     0
102
RTVSPost2010PropOp32
 70
     1
102
RTVSPost2010Prop33
280
     0
102
RTVSPost2010PropOp33
 70
     1
102
RTVSPost2010Prop34
280
     0
102
RTVSPost2010PropOp34
 70
     1
102
RTVSPost2010Prop35
280
     0
102
RTVSPost2010PropOp35
 70
     1
102
RTVSPost2010Prop36
280
     0
102
RTVSPost2010PropOp36
 70
     1
102
RTVSPost2010Prop37
 90
       50
102
RTVSPost2010PropOp37
 70
     1
102
RTVSPost2010Prop38
140
0.0
102
RTVSPost2010PropOp38
 70
     1
102
RTVSPost2010Prop39
140
1.0
102
RTVSPost2010PropOp39
 70
     1
102
RTVSPost2010Prop40
 90
        0
102
RTVSPost2010PropOp40
 70
     1
102
RTVSPost2010Prop41ColorIndex
 90
       18
102
RTVSPost2010Prop41ColorRGB
 90
        0
102
RTVSPost2010PropOp41
 70
     1
102
RTVSPost2010Prop42
 90
       50
102
RTVSPost2010PropOp42
 70
     1
102
RTVSPost2010Prop43
 90
        3
102
RTVSPost2010PropOp43
 70
     1
102
RTVSPost2010Prop44ColorIndex
 90
        5
102
RTVSPost2010Prop44ColorRGB
 90
      255
102
RTVSPost2010PropOp44
 70
     1
102
RTVSPost2010Prop45
280
     0
102
RTVSPost2010PropOp45
 70
     1
102
RTVSPost2010Prop46
 90
       50
102
RTVSPost2010PropOp46
 70
     1
102
RTVSPost2010Prop47
 90
       50
102
RTVSPost2010PropOp47
 70
     1
102
RTVSPost2010Prop48
 90
       50
102
RTVSPost2010PropOp48
 70
     1
102
RTVSPost2010Prop49
280
     0
102
RTVSPost2010PropOp49
 70
     1
102
RTVSPost2010Prop50
 90
       50
102
RTVSPost2010PropOp50
 70
     1
102
RTVSPost2010Prop51ColorIndex
 90
      256
102
RTVSPost2010Prop51ColorRGB
 90
-16777216
102
RTVSPost2010PropOp51
 70
     0
102
RTVSPost2010Prop52
140
1.0
102
RTVSPost2010PropOp52
 70
     0
102
RTVSPost2010Prop53
 90
        2
102
RTVSPost2010PropOp53
 70
     1
102
RTVSPost2010Prop54
  1
strokes_ogs.tif
102
RTVSPost2010PropOp54
 70
     1
102
RTVSPost2010Prop55
280
     0
102
RTVSPost2010PropOp55
 70
     1
102
RTVSPost2010Prop56
140
1.0
102
RTVSPost2010PropOp56
 70
     1
102
RTVSPost2010Prop57
140
1.0
102
RTVSPost2010PropOp57
 70
     1
102
RTVSPropertyOp0
 70
     1
102
RTVSPropertyOp1
 70
     1
102
RTVSPropertyOp2
 70
     1
102
RTVSPropertyOp3
 70
     1
102
RTVSPropertyOp4
 70
     1
102
RTVSPropertyOp5
 70
     1
102
RTVSPropertyOp6
 70
     1
102
RTVSPropertyOp7
 70
     1
102
RTVSPropertyOp8
 70
     1
102
RTVSPropertyOp9
 70
     1
102
RTVSPropertyOp10
 70
     1
102
RTVSPropertyOp11
 70
     1
102
RTVSPropertyOp12
 70
     1
102
RTVSPropertyOp13
 70
     1
102
RTVSPropertyOp14
 70
     1
102
RTVSPropertyOp15
 70
     1
102
RTVSPropertyOp16
 70
     1
102
RTVSPropertyOp17
 70
     1
102
RTVSPropertyOp18
 70
     1
102
RTVSPropertyOp19
 70
     1
102
RTVSPropertyOp20
 70
     1
102
RTVSPropertyOp21
 70
     1
102
RTVSPropertyOp22
 70
     1
102
RTVSPropertyOp23
 70
     1
102
RTVSPropertyOp24
 70
     1
102
RTVSPropertyOp25
 70
     1
102
RTVSPropertyOp26
 70
     1
102
RTVSPropertyOp27
 70
     1
102
RTVSPropertyOp28
 70
     1
102
RTVSPropertyOp29
 70
     1
102
RTVSPropertyOp30
 70
     1
102
RTVSPropertyOp31
 70
     1
102
RTVSPropertyOp32
 70
     1
102
RTVSPropertyOp33
 70
     1
102
RTVSPropertyOp34
 70
     1
102
RTVSPropertyOp35
 70
     1
102
RTVSPropertyOp36
 70
     1
102
RTVSPropertyOp37
 70
     1
102
RTVSPropertyOp38
 70
     1
102
RTVSPropertyOp39
 70
     1
102
RTVSPropertyOp40
 70
     1
102
RTVSPropertyOp41
 70
     1
102
RTVSPropertyOp42
 70
     1
102
RTVSPropertyOp43
 70
     1
102
RTVSPropertyOp44
 70
     1
102
RTVSPropertyOp45
 70
     1
102
RTVSPropertyOp46
 70
     1
102
RTVSPropertyOp47
 70
     1
102
RTVSPropertyOp48
 70
     1
102
RTVSPropertyOp49
 70
     1
102
RTVSPropertyOp50
 70
     1
102
RTVSPropertyOp51
 70
     0
102
RTVSPropertyOp52
 70
     0
102
RTVSPropertyOp53
 70
     1
102
RTVSPropertyOp54
 70
     1
102
RTVSPropertyOp55
 70
     1
102
RTVSPropertyOp56
 70
     1
102
RTVSPropertyOp57
 70
     1
102
RTVSPropertyOp58
 70
     1
102
RTVSPropertyOp59
 70
     1
102
RTVSPropertyOp60
 70
     1
102
RTVSPropertyOp61
 70
     1
102
RTVSPropertyOp62
 70
     1
  0
XRECORD
  5
AF38
102
{ACAD_REACTORS
330
AF37
102
}
330
AF37
100
AcDbXrecord
280
     1
102
RTVSPost2010Prop28
280
     0
102
RTVSPost2010PropOp28
 70
     1
102
RTVSPost2010Prop29
280
     1
102
RTVSPost2010PropOp29
 70
     1
102
RTVSPost2010Prop30
280
     1
102
RTVSPost2010PropOp30
 70
     1
102
RTVSPost2010Prop31
280
     0
102
RTVSPost2010PropOp31
 70
     1
102
RTVSPost2010Prop32
280
     0
102
RTVSPost2010PropOp32
 70
     1
102
RTVSPost2010Prop33
280
     0
102
RTVSPost2010PropOp33
 70
     1
102
RTVSPost2010Prop34
280
     0
102
RTVSPost2010PropOp34
 70
     1
102
RTVSPost2010Prop35
280
     0
102
RTVSPost2010PropOp35
 70
     1
102
RTVSPost2010Prop36
280
     0
102
RTVSPost2010PropOp36
 70
     1
102
RTVSPost2010Prop37
 90
       50
102
RTVSPost2010PropOp37
 70
     1
102
RTVSPost2010Prop38
140
0.0
102
RTVSPost2010PropOp38
 70
     1
102
RTVSPost2010Prop39
140
1.0
102
RTVSPost2010PropOp39
 70
     1
102
RTVSPost2010Prop40
 90
        0
102
RTVSPost2010PropOp40
 70
     1
102
RTVSPost2010Prop41ColorIndex
 90
       18
102
RTVSPost2010Prop41ColorRGB
 90
        0
102
RTVSPost2010PropOp41
 70
     1
102
RTVSPost2010Prop42
 90
       50
102
RTVSPost2010PropOp42
 70
     1
102
RTVSPost2010Prop43
 90
        3
102
RTVSPost2010PropOp43
 70
     1
102
RTVSPost2010Prop44ColorIndex
 90
        5
102
RTVSPost2010Prop44ColorRGB
 90
      255
102
RTVSPost2010PropOp44
 70
     1
102
RTVSPost2010Prop45
280
     0
102
RTVSPost2010PropOp45
 70
     1
102
RTVSPost2010Prop46
 90
       50
102
RTVSPost2010PropOp46
 70
     1
102
RTVSPost2010Prop47
 90
       50
102
RTVSPost2010PropOp47
 70
     1
102
RTVSPost2010Prop48
 90
       50
102
RTVSPost2010PropOp48
 70
     1
102
RTVSPost2010Prop49
280
     0
102
RTVSPost2010PropOp49
 70
     1
102
RTVSPost2010Prop50
 90
       50
102
RTVSPost2010PropOp50
 70
     1
102
RTVSPost2010Prop51ColorIndex
 90
      256
102
RTVSPost2010Prop51ColorRGB
 90
-16777216
102
RTVSPost2010PropOp51
 70
     0
102
RTVSPost2010Prop52
140
1.0
102
RTVSPost2010PropOp52
 70
     0
102
RTVSPost2010Prop53
 90
        2
102
RTVSPost2010PropOp53
 70
     1
102
RTVSPost2010Prop54
  1
strokes_ogs.tif
102
RTVSPost2010PropOp54
 70
     1
102
RTVSPost2010Prop55
280
     0
102
RTVSPost2010PropOp55
 70
     1
102
RTVSPost2010Prop56
140
1.0
102
RTVSPost2010PropOp56
 70
     1
102
RTVSPost2010Prop57
140
1.0
102
RTVSPost2010PropOp57
 70
     1
102
RTVSPropertyOp0
 70
     1
102
RTVSPropertyOp1
 70
     1
102
RTVSPropertyOp2
 70
     1
102
RTVSPropertyOp3
 70
     1
102
RTVSPropertyOp4
 70
     1
102
RTVSPropertyOp5
 70
     1
102
RTVSPropertyOp6
 70
     1
102
RTVSPropertyOp7
 70
     1
102
RTVSPropertyOp8
 70
     1
102
RTVSPropertyOp9
 70
     1
102
RTVSPropertyOp10
 70
     1
102
RTVSPropertyOp11
 70
     1
102
RTVSPropertyOp12
 70
     1
102
RTVSPropertyOp13
 70
     1
102
RTVSPropertyOp14
 70
     1
102
RTVSPropertyOp15
 70
     1
102
RTVSPropertyOp16
 70
     1
102
RTVSPropertyOp17
 70
     1
102
RTVSPropertyOp18
 70
     1
102
RTVSPropertyOp19
 70
     1
102
RTVSPropertyOp20
 70
     1
102
RTVSPropertyOp21
 70
     1
102
RTVSPropertyOp22
 70
     1
102
RTVSPropertyOp23
 70
     1
102
RTVSPropertyOp24
 70
     1
102
RTVSPropertyOp25
 70
     1
102
RTVSPropertyOp26
 70
     1
102
RTVSPropertyOp27
 70
     1
102
RTVSPropertyOp28
 70
     1
102
RTVSPropertyOp29
 70
     1
102
RTVSPropertyOp30
 70
     1
102
RTVSPropertyOp31
 70
     1
102
RTVSPropertyOp32
 70
     1
102
RTVSPropertyOp33
 70
     1
102
RTVSPropertyOp34
 70
     1
102
RTVSPropertyOp35
 70
     1
102
RTVSPropertyOp36
 70
     1
102
RTVSPropertyOp37
 70
     1
102
RTVSPropertyOp38
 70
     1
102
RTVSPropertyOp39
 70
     1
102
RTVSPropertyOp40
 70
     1
102
RTVSPropertyOp41
 70
     1
102
RTVSPropertyOp42
 70
     1
102
RTVSPropertyOp43
 70
     1
102
RTVSPropertyOp44
 70
     1
102
RTVSPropertyOp45
 70
     1
102
RTVSPropertyOp46
 70
     1
102
RTVSPropertyOp47
 70
     1
102
RTVSPropertyOp48
 70
     1
102
RTVSPropertyOp49
 70
     1
102
RTVSPropertyOp50
 70
     1
102
RTVSPropertyOp51
 70
     0
102
RTVSPropertyOp52
 70
     0
102
RTVSPropertyOp53
 70
     1
102
RTVSPropertyOp54
 70
     1
102
RTVSPropertyOp55
 70
     1
102
RTVSPropertyOp56
 70
     1
102
RTVSPropertyOp57
 70
     1
102
RTVSPropertyOp58
 70
     1
102
RTVSPropertyOp59
 70
     1
102
RTVSPropertyOp60
 70
     1
102
RTVSPropertyOp61
 70
     1
102
RTVSPropertyOp62
 70
     1
  0
XRECORD
  5
AF54
102
{ACAD_REACTORS
330
AF53
102
}
330
AF53
100
AcDbXrecord
280
     1
102
RTVSPost2010Prop28
280
     0
102
RTVSPost2010PropOp28
 70
     1
102
RTVSPost2010Prop29
280
     1
102
RTVSPost2010PropOp29
 70
     1
102
RTVSPost2010Prop30
280
     1
102
RTVSPost2010PropOp30
 70
     1
102
RTVSPost2010Prop31
280
     0
102
RTVSPost2010PropOp31
 70
     1
102
RTVSPost2010Prop32
280
     0
102
RTVSPost2010PropOp32
 70
     1
102
RTVSPost2010Prop33
280
     0
102
RTVSPost2010PropOp33
 70
     1
102
RTVSPost2010Prop34
280
     0
102
RTVSPost2010PropOp34
 70
     1
102
RTVSPost2010Prop35
280
     0
102
RTVSPost2010PropOp35
 70
     1
102
RTVSPost2010Prop36
280
     0
102
RTVSPost2010PropOp36
 70
     1
102
RTVSPost2010Prop37
 90
       50
102
RTVSPost2010PropOp37
 70
     0
102
RTVSPost2010Prop38
140
0.0
102
RTVSPost2010PropOp38
 70
     0
102
RTVSPost2010Prop39
140
1.0
102
RTVSPost2010PropOp39
 70
     0
102
RTVSPost2010Prop40
 90
        0
102
RTVSPost2010PropOp40
 70
     0
102
RTVSPost2010Prop41ColorIndex
 90
       18
102
RTVSPost2010Prop41ColorRGB
 90
        0
102
RTVSPost2010PropOp41
 70
     0
102
RTVSPost2010Prop42
 90
       50
102
RTVSPost2010PropOp42
 70
     0
102
RTVSPost2010Prop43
 90
        3
102
RTVSPost2010PropOp43
 70
     0
102
RTVSPost2010Prop44ColorIndex
 90
        5
102
RTVSPost2010Prop44ColorRGB
 90
      255
102
RTVSPost2010PropOp44
 70
     0
102
RTVSPost2010Prop45
280
     0
102
RTVSPost2010PropOp45
 70
     1
102
RTVSPost2010Prop46
 90
       50
102
RTVSPost2010PropOp46
 70
     0
102
RTVSPost2010Prop47
 90
       50
102
RTVSPost2010PropOp47
 70
     0
102
RTVSPost2010Prop48
 90
       50
102
RTVSPost2010PropOp48
 70
     0
102
RTVSPost2010Prop49
280
     0
102
RTVSPost2010PropOp49
 70
     1
102
RTVSPost2010Prop50
 90
       50
102
RTVSPost2010PropOp50
 70
     0
102
RTVSPost2010Prop51ColorIndex
 90
      256
102
RTVSPost2010Prop51ColorRGB
 90
-16777216
102
RTVSPost2010PropOp51
 70
     0
102
RTVSPost2010Prop52
140
1.0
102
RTVSPost2010PropOp52
 70
     0
102
RTVSPost2010Prop53
 90
        2
102
RTVSPost2010PropOp53
 70
     0
102
RTVSPost2010Prop54
  1
strokes_ogs.tif
102
RTVSPost2010PropOp54
 70
     0
102
RTVSPost2010Prop55
280
     0
102
RTVSPost2010PropOp55
 70
     1
102
RTVSPost2010Prop56
140
1.0
102
RTVSPost2010PropOp56
 70
     0
102
RTVSPost2010Prop57
140
1.0
102
RTVSPost2010PropOp57
 70
     0
102
RTVSPropertyOp0
 70
     0
102
RTVSPropertyOp1
 70
     0
102
RTVSPropertyOp2
 70
     0
102
RTVSPropertyOp3
 70
     0
102
RTVSPropertyOp4
 70
     0
102
RTVSPropertyOp5
 70
     0
102
RTVSPropertyOp6
 70
     0
102
RTVSPropertyOp7
 70
     0
102
RTVSPropertyOp8
 70
     0
102
RTVSPropertyOp9
 70
     0
102
RTVSPropertyOp10
 70
     0
102
RTVSPropertyOp11
 70
     0
102
RTVSPropertyOp12
 70
     0
102
RTVSPropertyOp13
 70
     0
102
RTVSPropertyOp14
 70
     2
102
RTVSPropertyOp15
 70
     0
102
RTVSPropertyOp16
 70
     0
102
RTVSPropertyOp17
 70
     0
102
RTVSPropertyOp18
 70
     0
102
RTVSPropertyOp19
 70
     0
102
RTVSPropertyOp20
 70
     0
102
RTVSPropertyOp21
 70
     0
102
RTVSPropertyOp22
 70
     0
102
RTVSPropertyOp23
 70
     0
102
RTVSPropertyOp24
 70
     0
102
RTVSPropertyOp25
 70
     0
102
RTVSPropertyOp26
 70
     0
102
RTVSPropertyOp27
 70
     0
102
RTVSPropertyOp28
 70
     1
102
RTVSPropertyOp29
 70
     1
102
RTVSPropertyOp30
 70
     1
102
RTVSPropertyOp31
 70
     1
102
RTVSPropertyOp32
 70
     1
102
RTVSPropertyOp33
 70
     1
102
RTVSPropertyOp34
 70
     1
102
RTVSPropertyOp35
 70
     1
102
RTVSPropertyOp36
 70
     1
102
RTVSPropertyOp37
 70
     0
102
RTVSPropertyOp38
 70
     0
102
RTVSPropertyOp39
 70
     0
102
RTVSPropertyOp40
 70
     0
102
RTVSPropertyOp41
 70
     0
102
RTVSPropertyOp42
 70
     0
102
RTVSPropertyOp43
 70
     0
102
RTVSPropertyOp44
 70
     0
102
RTVSPropertyOp45
 70
     1
102
RTVSPropertyOp46
 70
     0
102
RTVSPropertyOp47
 70
     0
102
RTVSPropertyOp48
 70
     0
102
RTVSPropertyOp49
 70
     1
102
RTVSPropertyOp50
 70
     0
102
RTVSPropertyOp51
 70
     0
102
RTVSPropertyOp52
 70
     0
102
RTVSPropertyOp53
 70
     0
102
RTVSPropertyOp54
 70
     0
102
RTVSPropertyOp55
 70
     1
102
RTVSPropertyOp56
 70
     0
102
RTVSPropertyOp57
 70
     0
102
RTVSPropertyOp58
 70
     0
102
RTVSPropertyOp59
 70
     0
102
RTVSPropertyOp60
 70
     0
102
RTVSPropertyOp61
 70
     0
102
RTVSPropertyOp62
 70
     0
  0
XRECORD
  5
AF44
102
{ACAD_REACTORS
330
AF43
102
}
330
AF43
100
AcDbXrecord
280
     1
102
RTVSPost2010Prop28
280
     0
102
RTVSPost2010PropOp28
 70
     1
102
RTVSPost2010Prop29
280
     1
102
RTVSPost2010PropOp29
 70
     1
102
RTVSPost2010Prop30
280
     1
102
RTVSPost2010PropOp30
 70
     1
102
RTVSPost2010Prop31
280
     0
102
RTVSPost2010PropOp31
 70
     1
102
RTVSPost2010Prop32
280
     0
102
RTVSPost2010PropOp32
 70
     1
102
RTVSPost2010Prop33
280
     0
102
RTVSPost2010PropOp33
 70
     1
102
RTVSPost2010Prop34
280
     0
102
RTVSPost2010PropOp34
 70
     1
102
RTVSPost2010Prop35
280
     0
102
RTVSPost2010PropOp35
 70
     1
102
RTVSPost2010Prop36
280
     0
102
RTVSPost2010PropOp36
 70
     1
102
RTVSPost2010Prop37
 90
       50
102
RTVSPost2010PropOp37
 70
     1
102
RTVSPost2010Prop38
140
0.0
102
RTVSPost2010PropOp38
 70
     1
102
RTVSPost2010Prop39
140
1.0
102
RTVSPost2010PropOp39
 70
     1
102
RTVSPost2010Prop40
 90
        0
102
RTVSPost2010PropOp40
 70
     1
102
RTVSPost2010Prop41ColorIndex
 90
       18
102
RTVSPost2010Prop41ColorRGB
 90
        0
102
RTVSPost2010PropOp41
 70
     1
102
RTVSPost2010Prop42
 90
       50
102
RTVSPost2010PropOp42
 70
     1
102
RTVSPost2010Prop43
 90
        3
102
RTVSPost2010PropOp43
 70
     1
102
RTVSPost2010Prop44ColorIndex
 90
        5
102
RTVSPost2010Prop44ColorRGB
 90
      255
102
RTVSPost2010PropOp44
 70
     1
102
RTVSPost2010Prop45
280
     0
102
RTVSPost2010PropOp45
 70
     1
102
RTVSPost2010Prop46
 90
       50
102
RTVSPost2010PropOp46
 70
     1
102
RTVSPost2010Prop47
 90
       50
102
RTVSPost2010PropOp47
 70
     1
102
RTVSPost2010Prop48
 90
       50
102
RTVSPost2010PropOp48
 70
     1
102
RTVSPost2010Prop49
280
     0
102
RTVSPost2010PropOp49
 70
     1
102
RTVSPost2010Prop50
 90
       50
102
RTVSPost2010PropOp50
 70
     1
102
RTVSPost2010Prop51ColorIndex
 90
      256
102
RTVSPost2010Prop51ColorRGB
 90
-16777216
102
RTVSPost2010PropOp51
 70
     0
102
RTVSPost2010Prop52
140
1.0
102
RTVSPost2010PropOp52
 70
     0
102
RTVSPost2010Prop53
 90
        2
102
RTVSPost2010PropOp53
 70
     1
102
RTVSPost2010Prop54
  1
strokes_ogs.tif
102
RTVSPost2010PropOp54
 70
     1
102
RTVSPost2010Prop55
280
     0
102
RTVSPost2010PropOp55
 70
     1
102
RTVSPost2010Prop56
140
1.0
102
RTVSPost2010PropOp56
 70
     1
102
RTVSPost2010Prop57
140
1.0
102
RTVSPost2010PropOp57
 70
     1
102
RTVSPropertyOp0
 70
     1
102
RTVSPropertyOp1
 70
     1
102
RTVSPropertyOp2
 70
     1
102
RTVSPropertyOp3
 70
     1
102
RTVSPropertyOp4
 70
     1
102
RTVSPropertyOp5
 70
     1
102
RTVSPropertyOp6
 70
     1
102
RTVSPropertyOp7
 70
     1
102
RTVSPropertyOp8
 70
     1
102
RTVSPropertyOp9
 70
     1
102
RTVSPropertyOp10
 70
     1
102
RTVSPropertyOp11
 70
     1
102
RTVSPropertyOp12
 70
     1
102
RTVSPropertyOp13
 70
     1
102
RTVSPropertyOp14
 70
     1
102
RTVSPropertyOp15
 70
     1
102
RTVSPropertyOp16
 70
     1
102
RTVSPropertyOp17
 70
     1
102
RTVSPropertyOp18
 70
     1
102
RTVSPropertyOp19
 70
     1
102
RTVSPropertyOp20
 70
     1
102
RTVSPropertyOp21
 70
     1
102
RTVSPropertyOp22
 70
     1
102
RTVSPropertyOp23
 70
     1
102
RTVSPropertyOp24
 70
     1
102
RTVSPropertyOp25
 70
     1
102
RTVSPropertyOp26
 70
     1
102
RTVSPropertyOp27
 70
     1
102
RTVSPropertyOp28
 70
     1
102
RTVSPropertyOp29
 70
     1
102
RTVSPropertyOp30
 70
     1
102
RTVSPropertyOp31
 70
     1
102
RTVSPropertyOp32
 70
     1
102
RTVSPropertyOp33
 70
     1
102
RTVSPropertyOp34
 70
     1
102
RTVSPropertyOp35
 70
     1
102
RTVSPropertyOp36
 70
     1
102
RTVSPropertyOp37
 70
     1
102
RTVSPropertyOp38
 70
     1
102
RTVSPropertyOp39
 70
     1
102
RTVSPropertyOp40
 70
     1
102
RTVSPropertyOp41
 70
     1
102
RTVSPropertyOp42
 70
     1
102
RTVSPropertyOp43
 70
     1
102
RTVSPropertyOp44
 70
     1
102
RTVSPropertyOp45
 70
     1
102
RTVSPropertyOp46
 70
     1
102
RTVSPropertyOp47
 70
     1
102
RTVSPropertyOp48
 70
     1
102
RTVSPropertyOp49
 70
     1
102
RTVSPropertyOp50
 70
     1
102
RTVSPropertyOp51
 70
     0
102
RTVSPropertyOp52
 70
     0
102
RTVSPropertyOp53
 70
     1
102
RTVSPropertyOp54
 70
     1
102
RTVSPropertyOp55
 70
     1
102
RTVSPropertyOp56
 70
     1
102
RTVSPropertyOp57
 70
     1
102
RTVSPropertyOp58
 70
     1
102
RTVSPropertyOp59
 70
     1
102
RTVSPropertyOp60
 70
     1
102
RTVSPropertyOp61
 70
     1
102
RTVSPropertyOp62
 70
     1
  0
XRECORD
  5
AF56
102
{ACAD_REACTORS
330
AF55
102
}
330
AF55
100
AcDbXrecord
280
     1
102
RTVSPost2010Prop28
280
     0
102
RTVSPost2010PropOp28
 70
     1
102
RTVSPost2010Prop29
280
     1
102
RTVSPost2010PropOp29
 70
     1
102
RTVSPost2010Prop30
280
     1
102
RTVSPost2010PropOp30
 70
     1
102
RTVSPost2010Prop31
280
     0
102
RTVSPost2010PropOp31
 70
     1
102
RTVSPost2010Prop32
280
     0
102
RTVSPost2010PropOp32
 70
     1
102
RTVSPost2010Prop33
280
     0
102
RTVSPost2010PropOp33
 70
     1
102
RTVSPost2010Prop34
280
     0
102
RTVSPost2010PropOp34
 70
     1
102
RTVSPost2010Prop35
280
     0
102
RTVSPost2010PropOp35
 70
     1
102
RTVSPost2010Prop36
280
     0
102
RTVSPost2010PropOp36
 70
     1
102
RTVSPost2010Prop37
 90
       50
102
RTVSPost2010PropOp37
 70
     0
102
RTVSPost2010Prop38
140
0.0
102
RTVSPost2010PropOp38
 70
     0
102
RTVSPost2010Prop39
140
1.0
102
RTVSPost2010PropOp39
 70
     0
102
RTVSPost2010Prop40
 90
        0
102
RTVSPost2010PropOp40
 70
     0
102
RTVSPost2010Prop41ColorIndex
 90
       18
102
RTVSPost2010Prop41ColorRGB
 90
        0
102
RTVSPost2010PropOp41
 70
     0
102
RTVSPost2010Prop42
 90
       50
102
RTVSPost2010PropOp42
 70
     0
102
RTVSPost2010Prop43
 90
        3
102
RTVSPost2010PropOp43
 70
     0
102
RTVSPost2010Prop44ColorIndex
 90
        5
102
RTVSPost2010Prop44ColorRGB
 90
      255
102
RTVSPost2010PropOp44
 70
     0
102
RTVSPost2010Prop45
280
     0
102
RTVSPost2010PropOp45
 70
     1
102
RTVSPost2010Prop46
 90
       50
102
RTVSPost2010PropOp46
 70
     0
102
RTVSPost2010Prop47
 90
       50
102
RTVSPost2010PropOp47
 70
     0
102
RTVSPost2010Prop48
 90
       50
102
RTVSPost2010PropOp48
 70
     0
102
RTVSPost2010Prop49
280
     0
102
RTVSPost2010PropOp49
 70
     1
102
RTVSPost2010Prop50
 90
       50
102
RTVSPost2010PropOp50
 70
     0
102
RTVSPost2010Prop51ColorIndex
 90
      256
102
RTVSPost2010Prop51ColorRGB
 90
-16777216
102
RTVSPost2010PropOp51
 70
     0
102
RTVSPost2010Prop52
140
1.0
102
RTVSPost2010PropOp52
 70
     0
102
RTVSPost2010Prop53
 90
        2
102
RTVSPost2010PropOp53
 70
     0
102
RTVSPost2010Prop54
  1
strokes_ogs.tif
102
RTVSPost2010PropOp54
 70
     0
102
RTVSPost2010Prop55
280
     0
102
RTVSPost2010PropOp55
 70
     1
102
RTVSPost2010Prop56
140
1.0
102
RTVSPost2010PropOp56
 70
     0
102
RTVSPost2010Prop57
140
1.0
102
RTVSPost2010PropOp57
 70
     0
102
RTVSPropertyOp0
 70
     0
102
RTVSPropertyOp1
 70
     0
102
RTVSPropertyOp2
 70
     0
102
RTVSPropertyOp3
 70
     0
102
RTVSPropertyOp4
 70
     0
102
RTVSPropertyOp5
 70
     0
102
RTVSPropertyOp6
 70
     0
102
RTVSPropertyOp7
 70
     0
102
RTVSPropertyOp8
 70
     0
102
RTVSPropertyOp9
 70
     0
102
RTVSPropertyOp10
 70
     0
102
RTVSPropertyOp11
 70
     0
102
RTVSPropertyOp12
 70
     0
102
RTVSPropertyOp13
 70
     0
102
RTVSPropertyOp14
 70
     2
102
RTVSPropertyOp15
 70
     0
102
RTVSPropertyOp16
 70
     0
102
RTVSPropertyOp17
 70
     0
102
RTVSPropertyOp18
 70
     0
102
RTVSPropertyOp19
 70
     0
102
RTVSPropertyOp20
 70
     0
102
RTVSPropertyOp21
 70
     0
102
RTVSPropertyOp22
 70
     0
102
RTVSPropertyOp23
 70
     0
102
RTVSPropertyOp24
 70
     0
102
RTVSPropertyOp25
 70
     0
102
RTVSPropertyOp26
 70
     0
102
RTVSPropertyOp27
 70
     0
102
RTVSPropertyOp28
 70
     1
102
RTVSPropertyOp29
 70
     1
102
RTVSPropertyOp30
 70
     1
102
RTVSPropertyOp31
 70
     1
102
RTVSPropertyOp32
 70
     1
102
RTVSPropertyOp33
 70
     1
102
RTVSPropertyOp34
 70
     1
102
RTVSPropertyOp35
 70
     1
102
RTVSPropertyOp36
 70
     1
102
RTVSPropertyOp37
 70
     0
102
RTVSPropertyOp38
 70
     0
102
RTVSPropertyOp39
 70
     0
102
RTVSPropertyOp40
 70
     0
102
RTVSPropertyOp41
 70
     0
102
RTVSPropertyOp42
 70
     0
102
RTVSPropertyOp43
 70
     0
102
RTVSPropertyOp44
 70
     0
102
RTVSPropertyOp45
 70
     1
102
RTVSPropertyOp46
 70
     0
102
RTVSPropertyOp47
 70
     0
102
RTVSPropertyOp48
 70
     0
102
RTVSPropertyOp49
 70
     1
102
RTVSPropertyOp50
 70
     0
102
RTVSPropertyOp51
 70
     0
102
RTVSPropertyOp52
 70
     0
102
RTVSPropertyOp53
 70
     0
102
RTVSPropertyOp54
 70
     0
102
RTVSPropertyOp55
 70
     1
102
RTVSPropertyOp56
 70
     0
102
RTVSPropertyOp57
 70
     0
102
RTVSPropertyOp58
 70
     0
102
RTVSPropertyOp59
 70
     0
102
RTVSPropertyOp60
 70
     0
102
RTVSPropertyOp61
 70
     0
102
RTVSPropertyOp62
 70
     0
  0
XRECORD
  5
AF3C
102
{ACAD_REACTORS
330
AF3B
102
}
330
AF3B
100
AcDbXrecord
280
     1
102
RTVSPost2010Prop28
280
     0
102
RTVSPost2010PropOp28
 70
     1
102
RTVSPost2010Prop29
280
     1
102
RTVSPost2010PropOp29
 70
     1
102
RTVSPost2010Prop30
280
     1
102
RTVSPost2010PropOp30
 70
     1
102
RTVSPost2010Prop31
280
     0
102
RTVSPost2010PropOp31
 70
     1
102
RTVSPost2010Prop32
280
     0
102
RTVSPost2010PropOp32
 70
     1
102
RTVSPost2010Prop33
280
     0
102
RTVSPost2010PropOp33
 70
     1
102
RTVSPost2010Prop34
280
     0
102
RTVSPost2010PropOp34
 70
     1
102
RTVSPost2010Prop35
280
     0
102
RTVSPost2010PropOp35
 70
     1
102
RTVSPost2010Prop36
280
     0
102
RTVSPost2010PropOp36
 70
     1
102
RTVSPost2010Prop37
 90
       50
102
RTVSPost2010PropOp37
 70
     1
102
RTVSPost2010Prop38
140
0.0
102
RTVSPost2010PropOp38
 70
     1
102
RTVSPost2010Prop39
140
1.0
102
RTVSPost2010PropOp39
 70
     1
102
RTVSPost2010Prop40
 90
        0
102
RTVSPost2010PropOp40
 70
     1
102
RTVSPost2010Prop41ColorIndex
 90
       18
102
RTVSPost2010Prop41ColorRGB
 90
        0
102
RTVSPost2010PropOp41
 70
     1
102
RTVSPost2010Prop42
 90
       50
102
RTVSPost2010PropOp42
 70
     1
102
RTVSPost2010Prop43
 90
        3
102
RTVSPost2010PropOp43
 70
     1
102
RTVSPost2010Prop44ColorIndex
 90
        5
102
RTVSPost2010Prop44ColorRGB
 90
      255
102
RTVSPost2010PropOp44
 70
     1
102
RTVSPost2010Prop45
280
     0
102
RTVSPost2010PropOp45
 70
     1
102
RTVSPost2010Prop46
 90
       50
102
RTVSPost2010PropOp46
 70
     1
102
RTVSPost2010Prop47
 90
       50
102
RTVSPost2010PropOp47
 70
     1
102
RTVSPost2010Prop48
 90
       50
102
RTVSPost2010PropOp48
 70
     1
102
RTVSPost2010Prop49
280
     0
102
RTVSPost2010PropOp49
 70
     1
102
RTVSPost2010Prop50
 90
       50
102
RTVSPost2010PropOp50
 70
     1
102
RTVSPost2010Prop51ColorIndex
 90
      256
102
RTVSPost2010Prop51ColorRGB
 90
-16777216
102
RTVSPost2010PropOp51
 70
     0
102
RTVSPost2010Prop52
140
1.0
102
RTVSPost2010PropOp52
 70
     0
102
RTVSPost2010Prop53
 90
        2
102
RTVSPost2010PropOp53
 70
     1
102
RTVSPost2010Prop54
  1
strokes_ogs.tif
102
RTVSPost2010PropOp54
 70
     1
102
RTVSPost2010Prop55
280
     0
102
RTVSPost2010PropOp55
 70
     1
102
RTVSPost2010Prop56
140
1.0
102
RTVSPost2010PropOp56
 70
     1
102
RTVSPost2010Prop57
140
1.0
102
RTVSPost2010PropOp57
 70
     1
102
RTVSPropertyOp0
 70
     1
102
RTVSPropertyOp1
 70
     1
102
RTVSPropertyOp2
 70
     1
102
RTVSPropertyOp3
 70
     1
102
RTVSPropertyOp4
 70
     1
102
RTVSPropertyOp5
 70
     1
102
RTVSPropertyOp6
 70
     1
102
RTVSPropertyOp7
 70
     1
102
RTVSPropertyOp8
 70
     1
102
RTVSPropertyOp9
 70
     1
102
RTVSPropertyOp10
 70
     1
102
RTVSPropertyOp11
 70
     1
102
RTVSPropertyOp12
 70
     1
102
RTVSPropertyOp13
 70
     1
102
RTVSPropertyOp14
 70
     1
102
RTVSPropertyOp15
 70
     1
102
RTVSPropertyOp16
 70
     1
102
RTVSPropertyOp17
 70
     1
102
RTVSPropertyOp18
 70
     1
102
RTVSPropertyOp19
 70
     1
102
RTVSPropertyOp20
 70
     1
102
RTVSPropertyOp21
 70
     1
102
RTVSPropertyOp22
 70
     1
102
RTVSPropertyOp23
 70
     1
102
RTVSPropertyOp24
 70
     1
102
RTVSPropertyOp25
 70
     1
102
RTVSPropertyOp26
 70
     1
102
RTVSPropertyOp27
 70
     1
102
RTVSPropertyOp28
 70
     1
102
RTVSPropertyOp29
 70
     1
102
RTVSPropertyOp30
 70
     1
102
RTVSPropertyOp31
 70
     1
102
RTVSPropertyOp32
 70
     1
102
RTVSPropertyOp33
 70
     1
102
RTVSPropertyOp34
 70
     1
102
RTVSPropertyOp35
 70
     1
102
RTVSPropertyOp36
 70
     1
102
RTVSPropertyOp37
 70
     1
102
RTVSPropertyOp38
 70
     1
102
RTVSPropertyOp39
 70
     1
102
RTVSPropertyOp40
 70
     1
102
RTVSPropertyOp41
 70
     1
102
RTVSPropertyOp42
 70
     1
102
RTVSPropertyOp43
 70
     1
102
RTVSPropertyOp44
 70
     1
102
RTVSPropertyOp45
 70
     1
102
RTVSPropertyOp46
 70
     1
102
RTVSPropertyOp47
 70
     1
102
RTVSPropertyOp48
 70
     1
102
RTVSPropertyOp49
 70
     1
102
RTVSPropertyOp50
 70
     1
102
RTVSPropertyOp51
 70
     0
102
RTVSPropertyOp52
 70
     0
102
RTVSPropertyOp53
 70
     1
102
RTVSPropertyOp54
 70
     1
102
RTVSPropertyOp55
 70
     1
102
RTVSPropertyOp56
 70
     1
102
RTVSPropertyOp57
 70
     1
102
RTVSPropertyOp58
 70
     1
102
RTVSPropertyOp59
 70
     1
102
RTVSPropertyOp60
 70
     1
102
RTVSPropertyOp61
 70
     1
102
RTVSPropertyOp62
 70
     1
  0
XRECORD
  5
AF52
102
{ACAD_REACTORS
330
AF51
102
}
330
AF51
100
AcDbXrecord
280
     1
102
RTVSPost2010Prop28
280
     0
102
RTVSPost2010PropOp28
 70
     1
102
RTVSPost2010Prop29
280
     1
102
RTVSPost2010PropOp29
 70
     1
102
RTVSPost2010Prop30
280
     1
102
RTVSPost2010PropOp30
 70
     1
102
RTVSPost2010Prop31
280
     0
102
RTVSPost2010PropOp31
 70
     1
102
RTVSPost2010Prop32
280
     0
102
RTVSPost2010PropOp32
 70
     1
102
RTVSPost2010Prop33
280
     0
102
RTVSPost2010PropOp33
 70
     1
102
RTVSPost2010Prop34
280
     0
102
RTVSPost2010PropOp34
 70
     1
102
RTVSPost2010Prop35
280
     0
102
RTVSPost2010PropOp35
 70
     1
102
RTVSPost2010Prop36
280
     0
102
RTVSPost2010PropOp36
 70
     1
102
RTVSPost2010Prop37
 90
       50
102
RTVSPost2010PropOp37
 70
     1
102
RTVSPost2010Prop38
140
0.0
102
RTVSPost2010PropOp38
 70
     1
102
RTVSPost2010Prop39
140
1.0
102
RTVSPost2010PropOp39
 70
     1
102
RTVSPost2010Prop40
 90
        0
102
RTVSPost2010PropOp40
 70
     1
102
RTVSPost2010Prop41ColorIndex
 90
       18
102
RTVSPost2010Prop41ColorRGB
 90
        0
102
RTVSPost2010PropOp41
 70
     1
102
RTVSPost2010Prop42
 90
       50
102
RTVSPost2010PropOp42
 70
     1
102
RTVSPost2010Prop43
 90
        3
102
RTVSPost2010PropOp43
 70
     1
102
RTVSPost2010Prop44ColorIndex
 90
        5
102
RTVSPost2010Prop44ColorRGB
 90
      255
102
RTVSPost2010PropOp44
 70
     1
102
RTVSPost2010Prop45
280
     0
102
RTVSPost2010PropOp45
 70
     1
102
RTVSPost2010Prop46
 90
       50
102
RTVSPost2010PropOp46
 70
     1
102
RTVSPost2010Prop47
 90
       50
102
RTVSPost2010PropOp47
 70
     1
102
RTVSPost2010Prop48
 90
       50
102
RTVSPost2010PropOp48
 70
     1
102
RTVSPost2010Prop49
280
     0
102
RTVSPost2010PropOp49
 70
     1
102
RTVSPost2010Prop50
 90
       50
102
RTVSPost2010PropOp50
 70
     1
102
RTVSPost2010Prop51ColorIndex
 90
      256
102
RTVSPost2010Prop51ColorRGB
 90
-16777216
102
RTVSPost2010PropOp51
 70
     0
102
RTVSPost2010Prop52
140
1.0
102
RTVSPost2010PropOp52
 70
     0
102
RTVSPost2010Prop53
 90
        2
102
RTVSPost2010PropOp53
 70
     1
102
RTVSPost2010Prop54
  1
strokes_ogs.tif
102
RTVSPost2010PropOp54
 70
     1
102
RTVSPost2010Prop55
280
     0
102
RTVSPost2010PropOp55
 70
     1
102
RTVSPost2010Prop56
140
1.0
102
RTVSPost2010PropOp56
 70
     1
102
RTVSPost2010Prop57
140
1.0
102
RTVSPost2010PropOp57
 70
     1
102
RTVSPropertyOp0
 70
     1
102
RTVSPropertyOp1
 70
     1
102
RTVSPropertyOp2
 70
     1
102
RTVSPropertyOp3
 70
     1
102
RTVSPropertyOp4
 70
     1
102
RTVSPropertyOp5
 70
     1
102
RTVSPropertyOp6
 70
     1
102
RTVSPropertyOp7
 70
     1
102
RTVSPropertyOp8
 70
     1
102
RTVSPropertyOp9
 70
     1
102
RTVSPropertyOp10
 70
     1
102
RTVSPropertyOp11
 70
     1
102
RTVSPropertyOp12
 70
     1
102
RTVSPropertyOp13
 70
     1
102
RTVSPropertyOp14
 70
     1
102
RTVSPropertyOp15
 70
     1
102
RTVSPropertyOp16
 70
     1
102
RTVSPropertyOp17
 70
     1
102
RTVSPropertyOp18
 70
     1
102
RTVSPropertyOp19
 70
     1
102
RTVSPropertyOp20
 70
     1
102
RTVSPropertyOp21
 70
     1
102
RTVSPropertyOp22
 70
     1
102
RTVSPropertyOp23
 70
     1
102
RTVSPropertyOp24
 70
     1
102
RTVSPropertyOp25
 70
     1
102
RTVSPropertyOp26
 70
     1
102
RTVSPropertyOp27
 70
     1
102
RTVSPropertyOp28
 70
     1
102
RTVSPropertyOp29
 70
     1
102
RTVSPropertyOp30
 70
     1
102
RTVSPropertyOp31
 70
     1
102
RTVSPropertyOp32
 70
     1
102
RTVSPropertyOp33
 70
     1
102
RTVSPropertyOp34
 70
     1
102
RTVSPropertyOp35
 70
     1
102
RTVSPropertyOp36
 70
     1
102
RTVSPropertyOp37
 70
     1
102
RTVSPropertyOp38
 70
     1
102
RTVSPropertyOp39
 70
     1
102
RTVSPropertyOp40
 70
     1
102
RTVSPropertyOp41
 70
     1
102
RTVSPropertyOp42
 70
     1
102
RTVSPropertyOp43
 70
     1
102
RTVSPropertyOp44
 70
     1
102
RTVSPropertyOp45
 70
     1
102
RTVSPropertyOp46
 70
     1
102
RTVSPropertyOp47
 70
     1
102
RTVSPropertyOp48
 70
     1
102
RTVSPropertyOp49
 70
     1
102
RTVSPropertyOp50
 70
     1
102
RTVSPropertyOp51
 70
     0
102
RTVSPropertyOp52
 70
     0
102
RTVSPropertyOp53
 70
     1
102
RTVSPropertyOp54
 70
     1
102
RTVSPropertyOp55
 70
     1
102
RTVSPropertyOp56
 70
     1
102
RTVSPropertyOp57
 70
     1
102
RTVSPropertyOp58
 70
     1
102
RTVSPropertyOp59
 70
     1
102
RTVSPropertyOp60
 70
     1
102
RTVSPropertyOp61
 70
     1
102
RTVSPropertyOp62
 70
     1
  0
XRECORD
  5
AF50
102
{ACAD_REACTORS
330
AF4F
102
}
330
AF4F
100
AcDbXrecord
280
     1
102
RTVSPost2010Prop28
280
     0
102
RTVSPost2010PropOp28
 70
     1
102
RTVSPost2010Prop29
280
     1
102
RTVSPost2010PropOp29
 70
     1
102
RTVSPost2010Prop30
280
     1
102
RTVSPost2010PropOp30
 70
     1
102
RTVSPost2010Prop31
280
     0
102
RTVSPost2010PropOp31
 70
     1
102
RTVSPost2010Prop32
280
     0
102
RTVSPost2010PropOp32
 70
     1
102
RTVSPost2010Prop33
280
     0
102
RTVSPost2010PropOp33
 70
     1
102
RTVSPost2010Prop34
280
     0
102
RTVSPost2010PropOp34
 70
     1
102
RTVSPost2010Prop35
280
     0
102
RTVSPost2010PropOp35
 70
     1
102
RTVSPost2010Prop36
280
     0
102
RTVSPost2010PropOp36
 70
     1
102
RTVSPost2010Prop37
 90
       50
102
RTVSPost2010PropOp37
 70
     1
102
RTVSPost2010Prop38
140
0.0
102
RTVSPost2010PropOp38
 70
     1
102
RTVSPost2010Prop39
140
1.0
102
RTVSPost2010PropOp39
 70
     1
102
RTVSPost2010Prop40
 90
        0
102
RTVSPost2010PropOp40
 70
     1
102
RTVSPost2010Prop41ColorIndex
 90
       18
102
RTVSPost2010Prop41ColorRGB
 90
        0
102
RTVSPost2010PropOp41
 70
     1
102
RTVSPost2010Prop42
 90
       50
102
RTVSPost2010PropOp42
 70
     1
102
RTVSPost2010Prop43
 90
        3
102
RTVSPost2010PropOp43
 70
     1
102
RTVSPost2010Prop44ColorIndex
 90
        5
102
RTVSPost2010Prop44ColorRGB
 90
      255
102
RTVSPost2010PropOp44
 70
     1
102
RTVSPost2010Prop45
280
     0
102
RTVSPost2010PropOp45
 70
     1
102
RTVSPost2010Prop46
 90
       50
102
RTVSPost2010PropOp46
 70
     1
102
RTVSPost2010Prop47
 90
       50
102
RTVSPost2010PropOp47
 70
     1
102
RTVSPost2010Prop48
 90
       50
102
RTVSPost2010PropOp48
 70
     1
102
RTVSPost2010Prop49
280
     0
102
RTVSPost2010PropOp49
 70
     1
102
RTVSPost2010Prop50
 90
       50
102
RTVSPost2010PropOp50
 70
     1
102
RTVSPost2010Prop51ColorIndex
 90
      256
102
RTVSPost2010Prop51ColorRGB
 90
-16777216
102
RTVSPost2010PropOp51
 70
     0
102
RTVSPost2010Prop52
140
1.0
102
RTVSPost2010PropOp52
 70
     0
102
RTVSPost2010Prop53
 90
        2
102
RTVSPost2010PropOp53
 70
     1
102
RTVSPost2010Prop54
  1
strokes_ogs.tif
102
RTVSPost2010PropOp54
 70
     1
102
RTVSPost2010Prop55
280
     0
102
RTVSPost2010PropOp55
 70
     1
102
RTVSPost2010Prop56
140
1.0
102
RTVSPost2010PropOp56
 70
     1
102
RTVSPost2010Prop57
140
1.0
102
RTVSPost2010PropOp57
 70
     1
102
RTVSPropertyOp0
 70
     1
102
RTVSPropertyOp1
 70
     1
102
RTVSPropertyOp2
 70
     1
102
RTVSPropertyOp3
 70
     1
102
RTVSPropertyOp4
 70
     1
102
RTVSPropertyOp5
 70
     1
102
RTVSPropertyOp6
 70
     1
102
RTVSPropertyOp7
 70
     1
102
RTVSPropertyOp8
 70
     1
102
RTVSPropertyOp9
 70
     1
102
RTVSPropertyOp10
 70
     1
102
RTVSPropertyOp11
 70
     1
102
RTVSPropertyOp12
 70
     1
102
RTVSPropertyOp13
 70
     1
102
RTVSPropertyOp14
 70
     1
102
RTVSPropertyOp15
 70
     1
102
RTVSPropertyOp16
 70
     1
102
RTVSPropertyOp17
 70
     1
102
RTVSPropertyOp18
 70
     1
102
RTVSPropertyOp19
 70
     1
102
RTVSPropertyOp20
 70
     1
102
RTVSPropertyOp21
 70
     1
102
RTVSPropertyOp22
 70
     1
102
RTVSPropertyOp23
 70
     1
102
RTVSPropertyOp24
 70
     1
102
RTVSPropertyOp25
 70
     1
102
RTVSPropertyOp26
 70
     1
102
RTVSPropertyOp27
 70
     1
102
RTVSPropertyOp28
 70
     1
102
RTVSPropertyOp29
 70
     1
102
RTVSPropertyOp30
 70
     1
102
RTVSPropertyOp31
 70
     1
102
RTVSPropertyOp32
 70
     1
102
RTVSPropertyOp33
 70
     1
102
RTVSPropertyOp34
 70
     1
102
RTVSPropertyOp35
 70
     1
102
RTVSPropertyOp36
 70
     1
102
RTVSPropertyOp37
 70
     1
102
RTVSPropertyOp38
 70
     1
102
RTVSPropertyOp39
 70
     1
102
RTVSPropertyOp40
 70
     1
102
RTVSPropertyOp41
 70
     1
102
RTVSPropertyOp42
 70
     1
102
RTVSPropertyOp43
 70
     1
102
RTVSPropertyOp44
 70
     1
102
RTVSPropertyOp45
 70
     1
102
RTVSPropertyOp46
 70
     1
102
RTVSPropertyOp47
 70
     1
102
RTVSPropertyOp48
 70
     1
102
RTVSPropertyOp49
 70
     1
102
RTVSPropertyOp50
 70
     1
102
RTVSPropertyOp51
 70
     0
102
RTVSPropertyOp52
 70
     0
102
RTVSPropertyOp53
 70
     1
102
RTVSPropertyOp54
 70
     1
102
RTVSPropertyOp55
 70
     1
102
RTVSPropertyOp56
 70
     1
102
RTVSPropertyOp57
 70
     1
102
RTVSPropertyOp58
 70
     1
102
RTVSPropertyOp59
 70
     1
102
RTVSPropertyOp60
 70
     1
102
RTVSPropertyOp61
 70
     1
102
RTVSPropertyOp62
 70
     1
  0
XRECORD
  5
AF4A
102
{ACAD_REACTORS
330
AF49
102
}
330
AF49
100
AcDbXrecord
280
     1
102
RTVSPost2010Prop28
280
     0
102
RTVSPost2010PropOp28
 70
     1
102
RTVSPost2010Prop29
280
     1
102
RTVSPost2010PropOp29
 70
     1
102
RTVSPost2010Prop30
280
     1
102
RTVSPost2010PropOp30
 70
     1
102
RTVSPost2010Prop31
280
     0
102
RTVSPost2010PropOp31
 70
     1
102
RTVSPost2010Prop32
280
     0
102
RTVSPost2010PropOp32
 70
     1
102
RTVSPost2010Prop33
280
     0
102
RTVSPost2010PropOp33
 70
     1
102
RTVSPost2010Prop34
280
     0
102
RTVSPost2010PropOp34
 70
     1
102
RTVSPost2010Prop35
280
     0
102
RTVSPost2010PropOp35
 70
     1
102
RTVSPost2010Prop36
280
     0
102
RTVSPost2010PropOp36
 70
     1
102
RTVSPost2010Prop37
 90
       50
102
RTVSPost2010PropOp37
 70
     1
102
RTVSPost2010Prop38
140
0.0
102
RTVSPost2010PropOp38
 70
     1
102
RTVSPost2010Prop39
140
1.0
102
RTVSPost2010PropOp39
 70
     1
102
RTVSPost2010Prop40
 90
        0
102
RTVSPost2010PropOp40
 70
     1
102
RTVSPost2010Prop41ColorIndex
 90
       18
102
RTVSPost2010Prop41ColorRGB
 90
        0
102
RTVSPost2010PropOp41
 70
     1
102
RTVSPost2010Prop42
 90
       50
102
RTVSPost2010PropOp42
 70
     1
102
RTVSPost2010Prop43
 90
        3
102
RTVSPost2010PropOp43
 70
     1
102
RTVSPost2010Prop44ColorIndex
 90
        5
102
RTVSPost2010Prop44ColorRGB
 90
      255
102
RTVSPost2010PropOp44
 70
     1
102
RTVSPost2010Prop45
280
     0
102
RTVSPost2010PropOp45
 70
     1
102
RTVSPost2010Prop46
 90
       50
102
RTVSPost2010PropOp46
 70
     1
102
RTVSPost2010Prop47
 90
       50
102
RTVSPost2010PropOp47
 70
     1
102
RTVSPost2010Prop48
 90
       50
102
RTVSPost2010PropOp48
 70
     1
102
RTVSPost2010Prop49
280
     0
102
RTVSPost2010PropOp49
 70
     1
102
RTVSPost2010Prop50
 90
       50
102
RTVSPost2010PropOp50
 70
     1
102
RTVSPost2010Prop51ColorIndex
 90
      256
102
RTVSPost2010Prop51ColorRGB
 90
-16777216
102
RTVSPost2010PropOp51
 70
     0
102
RTVSPost2010Prop52
140
1.0
102
RTVSPost2010PropOp52
 70
     0
102
RTVSPost2010Prop53
 90
        2
102
RTVSPost2010PropOp53
 70
     1
102
RTVSPost2010Prop54
  1
strokes_ogs.tif
102
RTVSPost2010PropOp54
 70
     1
102
RTVSPost2010Prop55
280
     0
102
RTVSPost2010PropOp55
 70
     1
102
RTVSPost2010Prop56
140
1.0
102
RTVSPost2010PropOp56
 70
     1
102
RTVSPost2010Prop57
140
1.0
102
RTVSPost2010PropOp57
 70
     1
102
RTVSPropertyOp0
 70
     1
102
RTVSPropertyOp1
 70
     1
102
RTVSPropertyOp2
 70
     1
102
RTVSPropertyOp3
 70
     1
102
RTVSPropertyOp4
 70
     1
102
RTVSPropertyOp5
 70
     1
102
RTVSPropertyOp6
 70
     1
102
RTVSPropertyOp7
 70
     1
102
RTVSPropertyOp8
 70
     1
102
RTVSPropertyOp9
 70
     1
102
RTVSPropertyOp10
 70
     1
102
RTVSPropertyOp11
 70
     1
102
RTVSPropertyOp12
 70
     1
102
RTVSPropertyOp13
 70
     1
102
RTVSPropertyOp14
 70
     1
102
RTVSPropertyOp15
 70
     1
102
RTVSPropertyOp16
 70
     1
102
RTVSPropertyOp17
 70
     1
102
RTVSPropertyOp18
 70
     1
102
RTVSPropertyOp19
 70
     1
102
RTVSPropertyOp20
 70
     1
102
RTVSPropertyOp21
 70
     1
102
RTVSPropertyOp22
 70
     1
102
RTVSPropertyOp23
 70
     1
102
RTVSPropertyOp24
 70
     1
102
RTVSPropertyOp25
 70
     1
102
RTVSPropertyOp26
 70
     1
102
RTVSPropertyOp27
 70
     1
102
RTVSPropertyOp28
 70
     1
102
RTVSPropertyOp29
 70
     1
102
RTVSPropertyOp30
 70
     1
102
RTVSPropertyOp31
 70
     1
102
RTVSPropertyOp32
 70
     1
102
RTVSPropertyOp33
 70
     1
102
RTVSPropertyOp34
 70
     1
102
RTVSPropertyOp35
 70
     1
102
RTVSPropertyOp36
 70
     1
102
RTVSPropertyOp37
 70
     1
102
RTVSPropertyOp38
 70
     1
102
RTVSPropertyOp39
 70
     1
102
RTVSPropertyOp40
 70
     1
102
RTVSPropertyOp41
 70
     1
102
RTVSPropertyOp42
 70
     1
102
RTVSPropertyOp43
 70
     1
102
RTVSPropertyOp44
 70
     1
102
RTVSPropertyOp45
 70
     1
102
RTVSPropertyOp46
 70
     1
102
RTVSPropertyOp47
 70
     1
102
RTVSPropertyOp48
 70
     1
102
RTVSPropertyOp49
 70
     1
102
RTVSPropertyOp50
 70
     1
102
RTVSPropertyOp51
 70
     0
102
RTVSPropertyOp52
 70
     0
102
RTVSPropertyOp53
 70
     1
102
RTVSPropertyOp54
 70
     1
102
RTVSPropertyOp55
 70
     1
102
RTVSPropertyOp56
 70
     1
102
RTVSPropertyOp57
 70
     1
102
RTVSPropertyOp58
 70
     1
102
RTVSPropertyOp59
 70
     1
102
RTVSPropertyOp60
 70
     1
102
RTVSPropertyOp61
 70
     1
102
RTVSPropertyOp62
 70
     1
  0
XRECORD
  5
AF4C
102
{ACAD_REACTORS
330
AF4B
102
}
330
AF4B
100
AcDbXrecord
280
     1
102
RTVSPost2010Prop28
280
     0
102
RTVSPost2010PropOp28
 70
     1
102
RTVSPost2010Prop29
280
     1
102
RTVSPost2010PropOp29
 70
     1
102
RTVSPost2010Prop30
280
     1
102
RTVSPost2010PropOp30
 70
     1
102
RTVSPost2010Prop31
280
     0
102
RTVSPost2010PropOp31
 70
     1
102
RTVSPost2010Prop32
280
     0
102
RTVSPost2010PropOp32
 70
     1
102
RTVSPost2010Prop33
280
     0
102
RTVSPost2010PropOp33
 70
     1
102
RTVSPost2010Prop34
280
     0
102
RTVSPost2010PropOp34
 70
     1
102
RTVSPost2010Prop35
280
     0
102
RTVSPost2010PropOp35
 70
     1
102
RTVSPost2010Prop36
280
     0
102
RTVSPost2010PropOp36
 70
     1
102
RTVSPost2010Prop37
 90
       50
102
RTVSPost2010PropOp37
 70
     1
102
RTVSPost2010Prop38
140
0.0
102
RTVSPost2010PropOp38
 70
     1
102
RTVSPost2010Prop39
140
1.0
102
RTVSPost2010PropOp39
 70
     1
102
RTVSPost2010Prop40
 90
        0
102
RTVSPost2010PropOp40
 70
     1
102
RTVSPost2010Prop41ColorIndex
 90
       18
102
RTVSPost2010Prop41ColorRGB
 90
        0
102
RTVSPost2010PropOp41
 70
     1
102
RTVSPost2010Prop42
 90
       50
102
RTVSPost2010PropOp42
 70
     1
102
RTVSPost2010Prop43
 90
        3
102
RTVSPost2010PropOp43
 70
     1
102
RTVSPost2010Prop44ColorIndex
 90
        5
102
RTVSPost2010Prop44ColorRGB
 90
      255
102
RTVSPost2010PropOp44
 70
     1
102
RTVSPost2010Prop45
280
     0
102
RTVSPost2010PropOp45
 70
     1
102
RTVSPost2010Prop46
 90
       50
102
RTVSPost2010PropOp46
 70
     1
102
RTVSPost2010Prop47
 90
       50
102
RTVSPost2010PropOp47
 70
     1
102
RTVSPost2010Prop48
 90
       50
102
RTVSPost2010PropOp48
 70
     1
102
RTVSPost2010Prop49
280
     0
102
RTVSPost2010PropOp49
 70
     1
102
RTVSPost2010Prop50
 90
       50
102
RTVSPost2010PropOp50
 70
     1
102
RTVSPost2010Prop51ColorIndex
 90
      256
102
RTVSPost2010Prop51ColorRGB
 90
-16777216
102
RTVSPost2010PropOp51
 70
     0
102
RTVSPost2010Prop52
140
1.0
102
RTVSPost2010PropOp52
 70
     0
102
RTVSPost2010Prop53
 90
        2
102
RTVSPost2010PropOp53
 70
     1
102
RTVSPost2010Prop54
  1
strokes_ogs.tif
102
RTVSPost2010PropOp54
 70
     1
102
RTVSPost2010Prop55
280
     0
102
RTVSPost2010PropOp55
 70
     1
102
RTVSPost2010Prop56
140
1.0
102
RTVSPost2010PropOp56
 70
     1
102
RTVSPost2010Prop57
140
1.0
102
RTVSPost2010PropOp57
 70
     1
102
RTVSPropertyOp0
 70
     1
102
RTVSPropertyOp1
 70
     1
102
RTVSPropertyOp2
 70
     1
102
RTVSPropertyOp3
 70
     1
102
RTVSPropertyOp4
 70
     1
102
RTVSPropertyOp5
 70
     1
102
RTVSPropertyOp6
 70
     1
102
RTVSPropertyOp7
 70
     1
102
RTVSPropertyOp8
 70
     1
102
RTVSPropertyOp9
 70
     1
102
RTVSPropertyOp10
 70
     1
102
RTVSPropertyOp11
 70
     1
102
RTVSPropertyOp12
 70
     1
102
RTVSPropertyOp13
 70
     1
102
RTVSPropertyOp14
 70
     1
102
RTVSPropertyOp15
 70
     1
102
RTVSPropertyOp16
 70
     1
102
RTVSPropertyOp17
 70
     1
102
RTVSPropertyOp18
 70
     1
102
RTVSPropertyOp19
 70
     1
102
RTVSPropertyOp20
 70
     1
102
RTVSPropertyOp21
 70
     1
102
RTVSPropertyOp22
 70
     1
102
RTVSPropertyOp23
 70
     1
102
RTVSPropertyOp24
 70
     1
102
RTVSPropertyOp25
 70
     1
102
RTVSPropertyOp26
 70
     1
102
RTVSPropertyOp27
 70
     1
102
RTVSPropertyOp28
 70
     1
102
RTVSPropertyOp29
 70
     1
102
RTVSPropertyOp30
 70
     1
102
RTVSPropertyOp31
 70
     1
102
RTVSPropertyOp32
 70
     1
102
RTVSPropertyOp33
 70
     1
102
RTVSPropertyOp34
 70
     1
102
RTVSPropertyOp35
 70
     1
102
RTVSPropertyOp36
 70
     1
102
RTVSPropertyOp37
 70
     1
102
RTVSPropertyOp38
 70
     1
102
RTVSPropertyOp39
 70
     1
102
RTVSPropertyOp40
 70
     1
102
RTVSPropertyOp41
 70
     1
102
RTVSPropertyOp42
 70
     1
102
RTVSPropertyOp43
 70
     1
102
RTVSPropertyOp44
 70
     1
102
RTVSPropertyOp45
 70
     1
102
RTVSPropertyOp46
 70
     1
102
RTVSPropertyOp47
 70
     1
102
RTVSPropertyOp48
 70
     1
102
RTVSPropertyOp49
 70
     1
102
RTVSPropertyOp50
 70
     1
102
RTVSPropertyOp51
 70
     0
102
RTVSPropertyOp52
 70
     0
102
RTVSPropertyOp53
 70
     1
102
RTVSPropertyOp54
 70
     1
102
RTVSPropertyOp55
 70
     1
102
RTVSPropertyOp56
 70
     1
102
RTVSPropertyOp57
 70
     1
102
RTVSPropertyOp58
 70
     1
102
RTVSPropertyOp59
 70
     1
102
RTVSPropertyOp60
 70
     1
102
RTVSPropertyOp61
 70
     1
102
RTVSPropertyOp62
 70
     1
  0
XRECORD
  5
AF42
102
{ACAD_REACTORS
330
AF41
102
}
330
AF41
100
AcDbXrecord
280
     1
102
RTVSPost2010Prop28
280
     0
102
RTVSPost2010PropOp28
 70
     1
102
RTVSPost2010Prop29
280
     1
102
RTVSPost2010PropOp29
 70
     1
102
RTVSPost2010Prop30
280
     1
102
RTVSPost2010PropOp30
 70
     1
102
RTVSPost2010Prop31
280
     0
102
RTVSPost2010PropOp31
 70
     1
102
RTVSPost2010Prop32
280
     0
102
RTVSPost2010PropOp32
 70
     1
102
RTVSPost2010Prop33
280
     0
102
RTVSPost2010PropOp33
 70
     1
102
RTVSPost2010Prop34
280
     0
102
RTVSPost2010PropOp34
 70
     1
102
RTVSPost2010Prop35
280
     0
102
RTVSPost2010PropOp35
 70
     1
102
RTVSPost2010Prop36
280
     0
102
RTVSPost2010PropOp36
 70
     1
102
RTVSPost2010Prop37
 90
       50
102
RTVSPost2010PropOp37
 70
     1
102
RTVSPost2010Prop38
140
0.0
102
RTVSPost2010PropOp38
 70
     1
102
RTVSPost2010Prop39
140
1.0
102
RTVSPost2010PropOp39
 70
     1
102
RTVSPost2010Prop40
 90
        0
102
RTVSPost2010PropOp40
 70
     1
102
RTVSPost2010Prop41ColorIndex
 90
       18
102
RTVSPost2010Prop41ColorRGB
 90
        0
102
RTVSPost2010PropOp41
 70
     1
102
RTVSPost2010Prop42
 90
       50
102
RTVSPost2010PropOp42
 70
     1
102
RTVSPost2010Prop43
 90
        3
102
RTVSPost2010PropOp43
 70
     1
102
RTVSPost2010Prop44ColorIndex
 90
        5
102
RTVSPost2010Prop44ColorRGB
 90
      255
102
RTVSPost2010PropOp44
 70
     1
102
RTVSPost2010Prop45
280
     0
102
RTVSPost2010PropOp45
 70
     1
102
RTVSPost2010Prop46
 90
       50
102
RTVSPost2010PropOp46
 70
     1
102
RTVSPost2010Prop47
 90
       50
102
RTVSPost2010PropOp47
 70
     1
102
RTVSPost2010Prop48
 90
       50
102
RTVSPost2010PropOp48
 70
     1
102
RTVSPost2010Prop49
280
     0
102
RTVSPost2010PropOp49
 70
     1
102
RTVSPost2010Prop50
 90
       50
102
RTVSPost2010PropOp50
 70
     1
102
RTVSPost2010Prop51ColorIndex
 90
      256
102
RTVSPost2010Prop51ColorRGB
 90
-16777216
102
RTVSPost2010PropOp51
 70
     0
102
RTVSPost2010Prop52
140
1.0
102
RTVSPost2010PropOp52
 70
     0
102
RTVSPost2010Prop53
 90
        2
102
RTVSPost2010PropOp53
 70
     1
102
RTVSPost2010Prop54
  1
strokes_ogs.tif
102
RTVSPost2010PropOp54
 70
     1
102
RTVSPost2010Prop55
280
     0
102
RTVSPost2010PropOp55
 70
     1
102
RTVSPost2010Prop56
140
1.0
102
RTVSPost2010PropOp56
 70
     1
102
RTVSPost2010Prop57
140
1.0
102
RTVSPost2010PropOp57
 70
     1
102
RTVSPropertyOp0
 70
     1
102
RTVSPropertyOp1
 70
     1
102
RTVSPropertyOp2
 70
     1
102
RTVSPropertyOp3
 70
     1
102
RTVSPropertyOp4
 70
     1
102
RTVSPropertyOp5
 70
     1
102
RTVSPropertyOp6
 70
     1
102
RTVSPropertyOp7
 70
     1
102
RTVSPropertyOp8
 70
     1
102
RTVSPropertyOp9
 70
     1
102
RTVSPropertyOp10
 70
     1
102
RTVSPropertyOp11
 70
     1
102
RTVSPropertyOp12
 70
     1
102
RTVSPropertyOp13
 70
     1
102
RTVSPropertyOp14
 70
     1
102
RTVSPropertyOp15
 70
     1
102
RTVSPropertyOp16
 70
     1
102
RTVSPropertyOp17
 70
     1
102
RTVSPropertyOp18
 70
     1
102
RTVSPropertyOp19
 70
     1
102
RTVSPropertyOp20
 70
     1
102
RTVSPropertyOp21
 70
     1
102
RTVSPropertyOp22
 70
     1
102
RTVSPropertyOp23
 70
     1
102
RTVSPropertyOp24
 70
     1
102
RTVSPropertyOp25
 70
     1
102
RTVSPropertyOp26
 70
     1
102
RTVSPropertyOp27
 70
     1
102
RTVSPropertyOp28
 70
     1
102
RTVSPropertyOp29
 70
     1
102
RTVSPropertyOp30
 70
     1
102
RTVSPropertyOp31
 70
     1
102
RTVSPropertyOp32
 70
     1
102
RTVSPropertyOp33
 70
     1
102
RTVSPropertyOp34
 70
     1
102
RTVSPropertyOp35
 70
     1
102
RTVSPropertyOp36
 70
     1
102
RTVSPropertyOp37
 70
     1
102
RTVSPropertyOp38
 70
     1
102
RTVSPropertyOp39
 70
     1
102
RTVSPropertyOp40
 70
     1
102
RTVSPropertyOp41
 70
     1
102
RTVSPropertyOp42
 70
     1
102
RTVSPropertyOp43
 70
     1
102
RTVSPropertyOp44
 70
     1
102
RTVSPropertyOp45
 70
     1
102
RTVSPropertyOp46
 70
     1
102
RTVSPropertyOp47
 70
     1
102
RTVSPropertyOp48
 70
     1
102
RTVSPropertyOp49
 70
     1
102
RTVSPropertyOp50
 70
     1
102
RTVSPropertyOp51
 70
     0
102
RTVSPropertyOp52
 70
     0
102
RTVSPropertyOp53
 70
     1
102
RTVSPropertyOp54
 70
     1
102
RTVSPropertyOp55
 70
     1
102
RTVSPropertyOp56
 70
     1
102
RTVSPropertyOp57
 70
     1
102
RTVSPropertyOp58
 70
     1
102
RTVSPropertyOp59
 70
     1
102
RTVSPropertyOp60
 70
     1
102
RTVSPropertyOp61
 70
     1
102
RTVSPropertyOp62
 70
     1
  0
XRECORD
  5
AF36
102
{ACAD_REACTORS
330
AF35
102
}
330
AF35
100
AcDbXrecord
280
     1
102
RTVSPost2010Prop28
280
     0
102
RTVSPost2010PropOp28
 70
     1
102
RTVSPost2010Prop29
280
     1
102
RTVSPost2010PropOp29
 70
     1
102
RTVSPost2010Prop30
280
     1
102
RTVSPost2010PropOp30
 70
     1
102
RTVSPost2010Prop31
280
     0
102
RTVSPost2010PropOp31
 70
     1
102
RTVSPost2010Prop32
280
     0
102
RTVSPost2010PropOp32
 70
     1
102
RTVSPost2010Prop33
280
     0
102
RTVSPost2010PropOp33
 70
     1
102
RTVSPost2010Prop34
280
     0
102
RTVSPost2010PropOp34
 70
     1
102
RTVSPost2010Prop35
280
     0
102
RTVSPost2010PropOp35
 70
     1
102
RTVSPost2010Prop36
280
     0
102
RTVSPost2010PropOp36
 70
     1
102
RTVSPost2010Prop37
 90
       50
102
RTVSPost2010PropOp37
 70
     1
102
RTVSPost2010Prop38
140
0.0
102
RTVSPost2010PropOp38
 70
     1
102
RTVSPost2010Prop39
140
1.0
102
RTVSPost2010PropOp39
 70
     1
102
RTVSPost2010Prop40
 90
        0
102
RTVSPost2010PropOp40
 70
     1
102
RTVSPost2010Prop41ColorIndex
 90
       18
102
RTVSPost2010Prop41ColorRGB
 90
        0
102
RTVSPost2010PropOp41
 70
     1
102
RTVSPost2010Prop42
 90
       50
102
RTVSPost2010PropOp42
 70
     1
102
RTVSPost2010Prop43
 90
        3
102
RTVSPost2010PropOp43
 70
     1
102
RTVSPost2010Prop44ColorIndex
 90
        5
102
RTVSPost2010Prop44ColorRGB
 90
      255
102
RTVSPost2010PropOp44
 70
     1
102
RTVSPost2010Prop45
280
     0
102
RTVSPost2010PropOp45
 70
     1
102
RTVSPost2010Prop46
 90
       50
102
RTVSPost2010PropOp46
 70
     1
102
RTVSPost2010Prop47
 90
       50
102
RTVSPost2010PropOp47
 70
     1
102
RTVSPost2010Prop48
 90
       50
102
RTVSPost2010PropOp48
 70
     1
102
RTVSPost2010Prop49
280
     0
102
RTVSPost2010PropOp49
 70
     1
102
RTVSPost2010Prop50
 90
       50
102
RTVSPost2010PropOp50
 70
     1
102
RTVSPost2010Prop51ColorIndex
 90
      256
102
RTVSPost2010Prop51ColorRGB
 90
-16777216
102
RTVSPost2010PropOp51
 70
     0
102
RTVSPost2010Prop52
140
1.0
102
RTVSPost2010PropOp52
 70
     0
102
RTVSPost2010Prop53
 90
        2
102
RTVSPost2010PropOp53
 70
     1
102
RTVSPost2010Prop54
  1
strokes_ogs.tif
102
RTVSPost2010PropOp54
 70
     1
102
RTVSPost2010Prop55
280
     0
102
RTVSPost2010PropOp55
 70
     1
102
RTVSPost2010Prop56
140
1.0
102
RTVSPost2010PropOp56
 70
     1
102
RTVSPost2010Prop57
140
1.0
102
RTVSPost2010PropOp57
 70
     1
102
RTVSPropertyOp0
 70
     1
102
RTVSPropertyOp1
 70
     1
102
RTVSPropertyOp2
 70
     1
102
RTVSPropertyOp3
 70
     1
102
RTVSPropertyOp4
 70
     1
102
RTVSPropertyOp5
 70
     1
102
RTVSPropertyOp6
 70
     1
102
RTVSPropertyOp7
 70
     1
102
RTVSPropertyOp8
 70
     1
102
RTVSPropertyOp9
 70
     1
102
RTVSPropertyOp10
 70
     1
102
RTVSPropertyOp11
 70
     1
102
RTVSPropertyOp12
 70
     1
102
RTVSPropertyOp13
 70
     1
102
RTVSPropertyOp14
 70
     1
102
RTVSPropertyOp15
 70
     1
102
RTVSPropertyOp16
 70
     1
102
RTVSPropertyOp17
 70
     1
102
RTVSPropertyOp18
 70
     1
102
RTVSPropertyOp19
 70
     1
102
RTVSPropertyOp20
 70
     1
102
RTVSPropertyOp21
 70
     1
102
RTVSPropertyOp22
 70
     1
102
RTVSPropertyOp23
 70
     1
102
RTVSPropertyOp24
 70
     1
102
RTVSPropertyOp25
 70
     1
102
RTVSPropertyOp26
 70
     1
102
RTVSPropertyOp27
 70
     1
102
RTVSPropertyOp28
 70
     1
102
RTVSPropertyOp29
 70
     1
102
RTVSPropertyOp30
 70
     1
102
RTVSPropertyOp31
 70
     1
102
RTVSPropertyOp32
 70
     1
102
RTVSPropertyOp33
 70
     1
102
RTVSPropertyOp34
 70
     1
102
RTVSPropertyOp35
 70
     1
102
RTVSPropertyOp36
 70
     1
102
RTVSPropertyOp37
 70
     1
102
RTVSPropertyOp38
 70
     1
102
RTVSPropertyOp39
 70
     1
102
RTVSPropertyOp40
 70
     1
102
RTVSPropertyOp41
 70
     1
102
RTVSPropertyOp42
 70
     1
102
RTVSPropertyOp43
 70
     1
102
RTVSPropertyOp44
 70
     1
102
RTVSPropertyOp45
 70
     1
102
RTVSPropertyOp46
 70
     1
102
RTVSPropertyOp47
 70
     1
102
RTVSPropertyOp48
 70
     1
102
RTVSPropertyOp49
 70
     1
102
RTVSPropertyOp50
 70
     1
102
RTVSPropertyOp51
 70
     0
102
RTVSPropertyOp52
 70
     0
102
RTVSPropertyOp53
 70
     1
102
RTVSPropertyOp54
 70
     1
102
RTVSPropertyOp55
 70
     1
102
RTVSPropertyOp56
 70
     1
102
RTVSPropertyOp57
 70
     1
102
RTVSPropertyOp58
 70
     1
102
RTVSPropertyOp59
 70
     1
102
RTVSPropertyOp60
 70
     1
102
RTVSPropertyOp61
 70
     1
102
RTVSPropertyOp62
 70
     1
  0
XRECORD
  5
AF4E
102
{ACAD_REACTORS
330
AF4D
102
}
330
AF4D
100
AcDbXrecord
280
     1
102
RTVSPost2010Prop28
280
     0
102
RTVSPost2010PropOp28
 70
     1
102
RTVSPost2010Prop29
280
     1
102
RTVSPost2010PropOp29
 70
     1
102
RTVSPost2010Prop30
280
     1
102
RTVSPost2010PropOp30
 70
     1
102
RTVSPost2010Prop31
280
     0
102
RTVSPost2010PropOp31
 70
     1
102
RTVSPost2010Prop32
280
     0
102
RTVSPost2010PropOp32
 70
     1
102
RTVSPost2010Prop33
280
     0
102
RTVSPost2010PropOp33
 70
     1
102
RTVSPost2010Prop34
280
     0
102
RTVSPost2010PropOp34
 70
     1
102
RTVSPost2010Prop35
280
     0
102
RTVSPost2010PropOp35
 70
     1
102
RTVSPost2010Prop36
280
     0
102
RTVSPost2010PropOp36
 70
     1
102
RTVSPost2010Prop37
 90
       50
102
RTVSPost2010PropOp37
 70
     1
102
RTVSPost2010Prop38
140
0.0
102
RTVSPost2010PropOp38
 70
     1
102
RTVSPost2010Prop39
140
1.0
102
RTVSPost2010PropOp39
 70
     1
102
RTVSPost2010Prop40
 90
        0
102
RTVSPost2010PropOp40
 70
     1
102
RTVSPost2010Prop41ColorIndex
 90
       18
102
RTVSPost2010Prop41ColorRGB
 90
        0
102
RTVSPost2010PropOp41
 70
     1
102
RTVSPost2010Prop42
 90
       50
102
RTVSPost2010PropOp42
 70
     1
102
RTVSPost2010Prop43
 90
        3
102
RTVSPost2010PropOp43
 70
     1
102
RTVSPost2010Prop44ColorIndex
 90
        5
102
RTVSPost2010Prop44ColorRGB
 90
      255
102
RTVSPost2010PropOp44
 70
     1
102
RTVSPost2010Prop45
280
     0
102
RTVSPost2010PropOp45
 70
     1
102
RTVSPost2010Prop46
 90
       50
102
RTVSPost2010PropOp46
 70
     1
102
RTVSPost2010Prop47
 90
       50
102
RTVSPost2010PropOp47
 70
     1
102
RTVSPost2010Prop48
 90
       50
102
RTVSPost2010PropOp48
 70
     1
102
RTVSPost2010Prop49
280
     0
102
RTVSPost2010PropOp49
 70
     1
102
RTVSPost2010Prop50
 90
       50
102
RTVSPost2010PropOp50
 70
     1
102
RTVSPost2010Prop51ColorIndex
 90
      256
102
RTVSPost2010Prop51ColorRGB
 90
-16777216
102
RTVSPost2010PropOp51
 70
     0
102
RTVSPost2010Prop52
140
1.0
102
RTVSPost2010PropOp52
 70
     0
102
RTVSPost2010Prop53
 90
        2
102
RTVSPost2010PropOp53
 70
     1
102
RTVSPost2010Prop54
  1
strokes_ogs.tif
102
RTVSPost2010PropOp54
 70
     1
102
RTVSPost2010Prop55
280
     0
102
RTVSPost2010PropOp55
 70
     1
102
RTVSPost2010Prop56
140
1.0
102
RTVSPost2010PropOp56
 70
     1
102
RTVSPost2010Prop57
140
1.0
102
RTVSPost2010PropOp57
 70
     1
102
RTVSPropertyOp0
 70
     1
102
RTVSPropertyOp1
 70
     1
102
RTVSPropertyOp2
 70
     1
102
RTVSPropertyOp3
 70
     1
102
RTVSPropertyOp4
 70
     1
102
RTVSPropertyOp5
 70
     1
102
RTVSPropertyOp6
 70
     1
102
RTVSPropertyOp7
 70
     1
102
RTVSPropertyOp8
 70
     1
102
RTVSPropertyOp9
 70
     1
102
RTVSPropertyOp10
 70
     1
102
RTVSPropertyOp11
 70
     1
102
RTVSPropertyOp12
 70
     1
102
RTVSPropertyOp13
 70
     1
102
RTVSPropertyOp14
 70
     1
102
RTVSPropertyOp15
 70
     1
102
RTVSPropertyOp16
 70
     1
102
RTVSPropertyOp17
 70
     1
102
RTVSPropertyOp18
 70
     1
102
RTVSPropertyOp19
 70
     1
102
RTVSPropertyOp20
 70
     1
102
RTVSPropertyOp21
 70
     1
102
RTVSPropertyOp22
 70
     1
102
RTVSPropertyOp23
 70
     1
102
RTVSPropertyOp24
 70
     1
102
RTVSPropertyOp25
 70
     1
102
RTVSPropertyOp26
 70
     1
102
RTVSPropertyOp27
 70
     1
102
RTVSPropertyOp28
 70
     1
102
RTVSPropertyOp29
 70
     1
102
RTVSPropertyOp30
 70
     1
102
RTVSPropertyOp31
 70
     1
102
RTVSPropertyOp32
 70
     1
102
RTVSPropertyOp33
 70
     1
102
RTVSPropertyOp34
 70
     1
102
RTVSPropertyOp35
 70
     1
102
RTVSPropertyOp36
 70
     1
102
RTVSPropertyOp37
 70
     1
102
RTVSPropertyOp38
 70
     1
102
RTVSPropertyOp39
 70
     1
102
RTVSPropertyOp40
 70
     1
102
RTVSPropertyOp41
 70
     1
102
RTVSPropertyOp42
 70
     1
102
RTVSPropertyOp43
 70
     1
102
RTVSPropertyOp44
 70
     1
102
RTVSPropertyOp45
 70
     1
102
RTVSPropertyOp46
 70
     1
102
RTVSPropertyOp47
 70
     1
102
RTVSPropertyOp48
 70
     1
102
RTVSPropertyOp49
 70
     1
102
RTVSPropertyOp50
 70
     1
102
RTVSPropertyOp51
 70
     0
102
RTVSPropertyOp52
 70
     0
102
RTVSPropertyOp53
 70
     1
102
RTVSPropertyOp54
 70
     1
102
RTVSPropertyOp55
 70
     1
102
RTVSPropertyOp56
 70
     1
102
RTVSPropertyOp57
 70
     1
102
RTVSPropertyOp58
 70
     1
102
RTVSPropertyOp59
 70
     1
102
RTVSPropertyOp60
 70
     1
102
RTVSPropertyOp61
 70
     1
102
RTVSPropertyOp62
 70
     1
  0
ENDSEC
  0
EOF
