  0
SECTION
  2
HEADER
  9
$ACADVER
  1
AC1015
  9
$ACADMAINTVER
 70
    20
  9
$DWGCODEPAGE
  3
ANSI_932
  9
$INSBASE
 10
0.0
 20
0.0
 30
0.0
  9
$EXTMIN
 10
10.0
 20
9.999999999999998
 30
0.0
  9
$EXTMAX
 10
626.1
 20
483.126324
 30
0.0
  9
$LIMMIN
 10
0.0
 20
0.0
  9
$LIMMAX
 10
792.0
 20
546.0
  9
$ORTHOMODE
 70
     1
  9
$REGENMODE
 70
     1
  9
$FILLMODE
 70
     1
  9
$QTEXTMODE
 70
     0
  9
$MIRRTEXT
 70
     1
  9
$LTSCALE
 40
20.0
  9
$ATTMODE
 70
     1
  9
$TEXTSIZE
 40
5.0
  9
$TRACEWID
 40
1.0
  9
$TEXTSTYLE
  7
STANDARD
  9
$CLAYER
  8
0
  9
$CELTYPE
  6
BYLAYER
  9
$CECOLOR
 62
   256
  9
$CELTSCALE
 40
1.0
  9
$DISPSILH
 70
     0
  9
$DIMSCALE
 40
1.0
  9
$DIMASZ
 40
3.0
  9
$DIMEXO
 40
1.0
  9
$DIMDLI
 40
10.0
  9
$DIMRND
 40
0.0
  9
$DIMDLE
 40
0.0
  9
$DIMEXE
 40
1.0
  9
$DIMTP
 40
0.0
  9
$DIMTM
 40
0.0
  9
$DIMTXT
 40
3.2
  9
$DIMCEN
 40
0.0
  9
$DIMTSZ
 40
0.0
  9
$DIMTOL
 70
     0
  9
$DIMLIM
 70
     0
  9
$DIMTIH
 70
     0
  9
$DIMTOH
 70
     0
  9
$DIMSE1
 70
     0
  9
$DIMSE2
 70
     0
  9
$DIMTAD
 70
     3
  9
$DIMZIN
 70
     8
  9
$DIMBLK
  1

  9
$DIMASO
 70
     1
  9
$DIMSHO
 70
     1
  9
$DIMPOST
  1

  9
$DIMAPOST
  1

  9
$DIMALT
 70
     0
  9
$DIMALTD
 70
     2
  9
$DIMALTF
 40
25.4
  9
$DIMLFAC
 40
1.0
  9
$DIMTOFL
 70
     1
  9
$DIMTVP
 40
0.0
  9
$DIMTIX
 70
     0
  9
$DIMSOXD
 70
     0
  9
$DIMSAH
 70
     1
  9
$DIMBLK1
  1
OPEN
  9
$DIMBLK2
  1
OPEN
  9
$DIMSTYLE
  2
STANDARD
  9
$DIMCLRD
 70
     0
  9
$DIMCLRE
 70
     0
  9
$DIMCLRT
 70
     0
  9
$DIMTFAC
 40
1.0
  9
$DIMGAP
 40
1.0
  9
$DIMJUST
 70
     0
  9
$DIMSD1
 70
     0
  9
$DIMSD2
 70
     0
  9
$DIMTOLJ
 70
     1
  9
$DIMTZIN
 70
     0
  9
$DIMALTZ
 70
     0
  9
$DIMALTTZ
 70
     0
  9
$DIMUPT
 70
     0
  9
$DIMDEC
 70
     4
  9
$DIMTDEC
 70
     4
  9
$DIMALTU
 70
     2
  9
$DIMALTTD
 70
     2
  9
$DIMTXSTY
  7
STANDARD
  9
$DIMAUNIT
 70
     0
  9
$DIMADEC
 70
     0
  9
$DIMALTRND
 40
0.0
  9
$DIMAZIN
 70
     0
  9
$DIMDSEP
 70
    46
  9
$DIMATFIT
 70
     3
  9
$DIMFRAC
 70
     0
  9
$DIMLDRBLK
  1
OPEN
  9
$DIMLUNIT
 70
     2
  9
$DIMLWD
 70
    -2
  9
$DIMLWE
 70
    -2
  9
$DIMTMOVE
 70
     0
  9
$LUNITS
 70
     2
  9
$LUPREC
 70
     4
  9
$SKETCHINC
 40
1.0
  9
$FILLETRAD
 40
2.0
  9
$AUNITS
 70
     0
  9
$AUPREC
 70
     2
  9
$MENU
  1
.
  9
$ELEVATION
 40
0.0
  9
$PELEVATION
 40
0.0
  9
$THICKNESS
 40
0.0
  9
$LIMCHECK
 70
     0
  9
$CHAMFERA
 40
10.0
  9
$CHAMFERB
 40
10.0
  9
$CHAMFERC
 40
0.0
  9
$CHAMFERD
 40
0.0
  9
$SKPOLY
 70
     0
  9
$TDCREATE
 40
2451302.612513310
  9
$TDUCREATE
 40
2451302.237513310
  9
$TDUPDATE
 40
2457192.686598518
  9
$TDUUPDATE
 40
2457192.311598519
  9
$TDINDWG
 40
0.0000128356
  9
$TDUSRTIMER
 40
0.0000123380
  9
$USRTIMER
 70
     1
  9
$ANGBASE
 50
0.0
  9
$ANGDIR
 70
     0
  9
$PDMODE
 70
     0
  9
$PDSIZE
 40
0.0
  9
$PLINEWID
 40
0.0
  9
$SPLFRAME
 70
     0
  9
$SPLINETYPE
 70
     6
  9
$SPLINESEGS
 70
     8
  9
$HANDSEED
  5
C5AA
  9
$SURFTAB1
 70
     6
  9
$SURFTAB2
 70
     6
  9
$SURFTYPE
 70
     6
  9
$SURFU
 70
     6
  9
$SURFV
 70
     6
  9
$UCSBASE
  2

  9
$UCSNAME
  2

  9
$UCSORG
 10
0.0
 20
0.0
 30
0.0
  9
$UCSXDIR
 10
1.0
 20
0.0
 30
0.0
  9
$UCSYDIR
 10
0.0
 20
1.0
 30
0.0
  9
$UCSORTHOREF
  2

  9
$UCSORTHOVIEW
 70
     0
  9
$UCSORGTOP
 10
0.0
 20
0.0
 30
0.0
  9
$UCSORGBOTTOM
 10
0.0
 20
0.0
 30
0.0
  9
$UCSORGLEFT
 10
0.0
 20
0.0
 30
0.0
  9
$UCSORGRIGHT
 10
0.0
 20
0.0
 30
0.0
  9
$UCSORGFRONT
 10
0.0
 20
0.0
 30
0.0
  9
$UCSORGBACK
 10
0.0
 20
0.0
 30
0.0
  9
$PUCSBASE
  2

  9
$PUCSNAME
  2

  9
$PUCSORG
 10
0.0
 20
0.0
 30
0.0
  9
$PUCSXDIR
 10
1.0
 20
0.0
 30
0.0
  9
$PUCSYDIR
 10
0.0
 20
1.0
 30
0.0
  9
$PUCSORTHOREF
  2

  9
$PUCSORTHOVIEW
 70
     0
  9
$PUCSORGTOP
 10
0.0
 20
0.0
 30
0.0
  9
$PUCSORGBOTTOM
 10
0.0
 20
0.0
 30
0.0
  9
$PUCSORGLEFT
 10
0.0
 20
0.0
 30
0.0
  9
$PUCSORGRIGHT
 10
0.0
 20
0.0
 30
0.0
  9
$PUCSORGFRONT
 10
0.0
 20
0.0
 30
0.0
  9
$PUCSORGBACK
 10
0.0
 20
0.0
 30
0.0
  9
$USERI1
 70
     0
  9
$USERI2
 70
     0
  9
$USERI3
 70
     0
  9
$USERI4
 70
     0
  9
$USERI5
 70
     0
  9
$USERR1
 40
0.0
  9
$USERR2
 40
0.0
  9
$USERR3
 40
0.0
  9
$USERR4
 40
0.0
  9
$USERR5
 40
0.0
  9
$WORLDVIEW
 70
     1
  9
$SHADEDGE
 70
     3
  9
$SHADEDIF
 70
    70
  9
$TILEMODE
 70
     1
  9
$MAXACTVP
 70
    16
  9
$PINSBASE
 10
0.0
 20
0.0
 30
0.0
  9
$PLIMCHECK
 70
     0
  9
$PEXTMIN
 10
1.000000000000000E+20
 20
1.000000000000000E+20
 30
1.000000000000000E+20
  9
$PEXTMAX
 10
-1.000000000000000E+20
 20
-1.000000000000000E+20
 30
-1.000000000000000E+20
  9
$PLIMMIN
 10
0.0
 20
0.0
  9
$PLIMMAX
 10
420.0
 20
297.0
  9
$UNITMODE
 70
     0
  9
$VISRETAIN
 70
     0
  9
$PLINEGEN
 70
     0
  9
$PSLTSCALE
 70
     0
  9
$TREEDEPTH
 70
  3020
  9
$CMLSTYLE
  2
STANDARD
  9
$CMLJUST
 70
     0
  9
$CMLSCALE
 40
1.0
  9
$PROXYGRAPHICS
 70
     1
  9
$MEASUREMENT
 70
     0
  9
$CELWEIGHT
370
    -1
  9
$ENDCAPS
280
     0
  9
$JOINSTYLE
280
     0
  9
$LWDISPLAY
290
     0
  9
$INSUNITS
 70
     0
  9
$HYPERLINKBASE
  1

  9
$STYLESHEET
  1

  9
$XEDIT
290
     1
  9
$CEPSNTYPE
380
     0
  9
$PSTYLEMODE
290
     1
  9
$FINGERPRINTGUID
  2
{5ADB4DC7-D3C3-4564-B366-E8106712241E}
  9
$VERSIONGUID
  2
{50F3783C-CB4C-43C8-9239-C54B265DA92E}
  9
$EXTNAMES
290
     1
  9
$PSVPSCALE
 40
0.0
  9
$OLESTARTUP
290
     0
  0
ENDSEC
  0
SECTION
  2
CLASSES
  0
CLASS
  1
ACDBDICTIONARYWDFLT
  2
AcDbDictionaryWithDefault
  3
ObjectDBX Classes
 90
        0
280
     0
281
     0
  0
CLASS
  1
ACDBPLACEHOLDER
  2
AcDbPlaceHolder
  3
ObjectDBX Classes
 90
        0
280
     0
281
     0
  0
CLASS
  1
LAYOUT
  2
AcDbLayout
  3
ObjectDBX Classes
 90
        0
280
     0
281
     0
  0
CLASS
  1
DICTIONARYVAR
  2
AcDbDictionaryVar
  3
ObjectDBX Classes
 90
        0
280
     0
281
     0
  0
CLASS
  1
MATERIAL
  2
AcDbMaterial
  3
ObjectDBX Classes
 90
     1153
280
     0
281
     0
  0
CLASS
  1
VISUALSTYLE
  2
AcDbVisualStyle
  3
ObjectDBX Classes
 90
     4095
280
     0
281
     0
  0
CLASS
  1
TABLESTYLE
  2
AcDbTableStyle
  3
ObjectDBX Classes
 90
     4095
280
     0
281
     0
  0
CLASS
  1
SCALE
  2
AcDbScale
  3
ObjectDBX Classes
 90
     1153
280
     0
281
     0
  0
CLASS
  1
MLEADERSTYLE
  2
AcDbMLeaderStyle
  3
ACDB_MLEADERSTYLE_CLASS
 90
     4095
280
     0
281
     0
  0
CLASS
  1
ACDBSECTIONVIEWSTYLE
  2
AcDbSectionViewStyle
  3
ObjectDBX Classes
 90
     1025
280
     0
281
     0
  0
CLASS
  1
ACDBDETAILVIEWSTYLE
  2
AcDbDetailViewStyle
  3
ObjectDBX Classes
 90
     1025
280
     0
281
     0
  0
CLASS
  1
CELLSTYLEMAP
  2
AcDbCellStyleMap
  3
ObjectDBX Classes
 90
     1152
280
     0
281
     0
  0
ENDSEC
  0
SECTION
  2
TABLES
  0
TABLE
  2
VPORT
  5
C132
330
0
100
AcDbSymbolTable
 70
     1
  0
VPORT
  5
C4F3
330
C132
100
AcDbSymbolTableRecord
100
AcDbViewportTableRecord
  2
*ACTIVE
 70
     0
 10
0.0
 20
0.0
 11
1.0
 21
1.0
 12
461.3685114163764
 22
246.5689557082588
 13
0.0
 23
0.0
 14
10.0
 24
10.0
 15
10.0
 25
10.0
 16
0.0
 26
0.0
 36
1.0
 17
0.0
 27
0.0
 37
0.0
 40
478.4045822382338
 41
2.35006605019815
 42
50.0
 43
0.0
 44
0.0
 50
0.0
 51
0.0
 71
     0
 72
   100
 73
     1
 74
     0
 75
     0
 76
     0
 77
     0
 78
     0
281
     0
 65
     1
110
0.0
120
0.0
130
0.0
111
1.0
121
0.0
131
0.0
112
0.0
122
1.0
132
0.0
 79
     0
146
0.0
1001
ACAD_NAV_VCDISPLAY
1070
     3
  0
ENDTAB
  0
TABLE
  2
LTYPE
  5
C12F
330
0
100
AcDbSymbolTable
 70
     4
  0
LTYPE
  5
C13D
330
C12F
100
AcDbSymbolTableRecord
100
AcDbLinetypeTableRecord
  2
BYBLOCK
 70
     0
  3

 72
    65
 73
     0
 40
0.0
  0
LTYPE
  5
C13E
330
C12F
100
AcDbSymbolTableRecord
100
AcDbLinetypeTableRecord
  2
BYLAYER
 70
     0
  3

 72
    65
 73
     0
 40
0.0
  0
LTYPE
  5
C13F
330
C12F
100
AcDbSymbolTableRecord
100
AcDbLinetypeTableRecord
  2
CONTINUOUS
 70
     0
  3
Solid line
 72
    65
 73
     0
 40
0.0
  0
LTYPE
  5
C14D
330
C12F
100
AcDbSymbolTableRecord
100
AcDbLinetypeTableRecord
  2
DASHED
 70
     0
  3
__ __ __ __ __ __ __ __ __ __ __ __ __ __ __ __
 72
    65
 73
     2
 40
0.75
 49
0.5
 74
     0
 49
-0.25
 74
     0
  0
LTYPE
  5
C14E
330
C12F
100
AcDbSymbolTableRecord
100
AcDbLinetypeTableRecord
  2
CENTER
 70
     0
  3
____ _ ____ _ ____ _ ____ _ ____ _ ____ _ ____ 
 72
    65
 73
     4
 40
2.0
 49
1.25
 74
     0
 49
-0.25
 74
     0
 49
0.25
 74
     0
 49
-0.25
 74
     0
  0
LTYPE
  5
C14F
330
C12F
100
AcDbSymbolTableRecord
100
AcDbLinetypeTableRecord
  2
PHANTOM
 70
     0
  3
______  __  __  ______  __  __  ______  __  __ 
 72
    65
 73
     6
 40
2.5
 49
1.25
 74
     0
 49
-0.25
 74
     0
 49
0.25
 74
     0
 49
-0.25
 74
     0
 49
0.25
 74
     0
 49
-0.25
 74
     0
  0
ENDTAB
  0
TABLE
  2
LAYER
  5
C12C
330
0
100
AcDbSymbolTable
 70
     8
  0
LAYER
  5
C13A
102
{ACAD_XDICTIONARY
360
C54E
102
}
330
C12C
100
AcDbSymbolTableRecord
100
AcDbLayerTableRecord
  2
0
 70
     0
 62
     7
  6
CONTINUOUS
370
    -3
390
C4FC
  0
LAYER
  5
C150
102
{ACAD_XDICTIONARY
360
C550
102
}
330
C12C
100
AcDbSymbolTableRecord
100
AcDbLayerTableRecord
  2
4
 70
     0
 62
     1
  6
CENTER
370
    -3
390
C4FC
  0
LAYER
  5
C151
102
{ACAD_XDICTIONARY
360
C552
102
}
330
C12C
100
AcDbSymbolTableRecord
100
AcDbLayerTableRecord
  2
5
 70
     0
 62
     6
  6
PHANTOM
370
    -3
390
C4FC
  0
LAYER
  5
C152
102
{ACAD_XDICTIONARY
360
C554
102
}
330
C12C
100
AcDbSymbolTableRecord
100
AcDbLayerTableRecord
  2
1
 70
     0
 62
     7
  6
CONTINUOUS
370
    -3
390
C4FC
  0
LAYER
  5
C153
102
{ACAD_XDICTIONARY
360
C556
102
}
330
C12C
100
AcDbSymbolTableRecord
100
AcDbLayerTableRecord
  2
2
 70
     0
 62
     4
  6
CONTINUOUS
370
    -3
390
C4FC
  0
LAYER
  5
C154
102
{ACAD_XDICTIONARY
360
C558
102
}
330
C12C
100
AcDbSymbolTableRecord
100
AcDbLayerTableRecord
  2
3
 70
     0
 62
     2
  6
DASHED
370
    -3
390
C4FC
  0
LAYER
  5
C155
102
{ACAD_XDICTIONARY
360
C55A
102
}
330
C12C
100
AcDbSymbolTableRecord
100
AcDbLayerTableRecord
  2
6
 70
     0
 62
     5
  6
CONTINUOUS
370
    -3
390
C4FC
  0
LAYER
  5
C156
102
{ACAD_XDICTIONARY
360
C55C
102
}
330
C12C
100
AcDbSymbolTableRecord
100
AcDbLayerTableRecord
  2
7
 70
     0
 62
     3
  6
CONTINUOUS
370
    -3
390
C4FC
  0
ENDTAB
  0
TABLE
  2
STYLE
  5
C12D
330
0
100
AcDbSymbolTable
 70
     1
  0
STYLE
  5
C13B
330
C12D
100
AcDbSymbolTableRecord
100
AcDbTextStyleTableRecord
  2
STANDARD
 70
     0
 40
0.0
 41
1.0
 50
0.0
 71
     0
 42
5.0
  3
txt
  4

  0
ENDTAB
  0
TABLE
  2
VIEW
  5
C130
330
0
100
AcDbSymbolTable
 70
     0
  0
ENDTAB
  0
TABLE
  2
UCS
  5
C131
330
0
100
AcDbSymbolTable
 70
     0
  0
ENDTAB
  0
TABLE
  2
APPID
  5
C133
330
0
100
AcDbSymbolTable
 70
     3
  0
APPID
  5
C13C
330
C133
100
AcDbSymbolTableRecord
100
AcDbRegAppTableRecord
  2
ACAD
 70
     0
  0
APPID
  5
C568
330
C133
100
AcDbSymbolTableRecord
100
AcDbRegAppTableRecord
  2
ACAD_NAV_VCDISPLAY
 70
     0
  0
APPID
  5
C5A1
330
C133
100
AcDbSymbolTableRecord
100
AcDbRegAppTableRecord
  2
ACAD_MLEADERVER
 70
     0
  0
ENDTAB
  0
TABLE
  2
DIMSTYLE
  5
C134
330
0
100
AcDbSymbolTable
 70
     1
100
AcDbDimStyleTable
 71
     0
  0
DIMSTYLE
105
C158
330
C134
100
AcDbSymbolTableRecord
100
AcDbDimStyleTableRecord
  2
STANDARD
 70
     0
 41
3.0
 42
1.0
 43
10.0
 44
1.0
 73
     0
 74
     0
 77
     3
 78
     8
140
3.2
141
0.0
147
1.0
172
     1
173
     1
284
     8
285
     8
286
     8
340
C13B
  0
ENDTAB
  0
TABLE
  2
BLOCK_RECORD
  5
C12B
330
0
100
AcDbSymbolTable
 70
     1
  0
BLOCK_RECORD
  5
C148
102
{ACAD_XDICTIONARY
360
C4F6
102
}
330
C12B
100
AcDbSymbolTableRecord
100
AcDbBlockTableRecord
  2
*MODEL_SPACE
340
C54A
  0
BLOCK_RECORD
  5
C144
102
{ACAD_XDICTIONARY
360
C4F4
102
}
330
C12B
100
AcDbSymbolTableRecord
100
AcDbBlockTableRecord
  2
*PAPER_SPACE
340
C54B
  0
BLOCK_RECORD
  5
C160
330
C12B
100
AcDbSymbolTableRecord
100
AcDbBlockTableRecord
  2
_OPEN
340
0
  0
ENDTAB
  0
ENDSEC
  0
SECTION
  2
BLOCKS
  0
BLOCK
  5
C149
330
C148
100
AcDbEntity
  8
0
100
AcDbBlockBegin
  2
*MODEL_SPACE
 70
     0
 10
0.0
 20
0.0
 30
0.0
  3
*MODEL_SPACE
  1

  0
ENDBLK
  5
C14A
330
C148
100
AcDbEntity
  8
0
100
AcDbBlockEnd
  0
BLOCK
  5
C145
330
C144
100
AcDbEntity
 67
     1
  8
0
100
AcDbBlockBegin
  2
*PAPER_SPACE
 70
     0
 10
0.0
 20
0.0
 30
0.0
  3
*PAPER_SPACE
  1

  0
ENDBLK
  5
C146
330
C144
100
AcDbEntity
 67
     1
  8
0
100
AcDbBlockEnd
  0
BLOCK
  5
C161
330
C160
100
AcDbEntity
  8
0
100
AcDbBlockBegin
  2
_OPEN
 70
     0
 10
0.0
 20
0.0
 30
0.0
  3
_OPEN
  1

  0
LINE
  5
C162
330
C160
100
AcDbEntity
  8
0
  6
ByBlock
 62
     0
100
AcDbLine
 10
-1.0
 20
0.166667
 30
0.0
 11
0.0
 21
0.0
 31
0.0
  0
LINE
  5
C163
330
C160
100
AcDbEntity
  8
0
  6
ByBlock
 62
     0
100
AcDbLine
 10
0.0
 20
0.0
 30
0.0
 11
-1.0
 21
-0.166667
 31
0.0
  0
LINE
  5
C164
330
C160
100
AcDbEntity
  8
0
  6
ByBlock
 62
     0
100
AcDbLine
 10
0.0
 20
0.0
 30
0.0
 11
-1.0
 21
0.0
 31
0.0
  0
ENDBLK
  5
C165
330
C160
100
AcDbEntity
  8
0
100
AcDbBlockEnd
  0
ENDSEC
  0
SECTION
  2
ENTITIES
  0
TEXT
  5
C166
330
C148
100
AcDbEntity
  8
7
  6
Continuous
100
AcDbText
 10
10.0
 20
18.0
 30
0.0
 40
3.0
  1
TYPE No.104HB2A.F-EP
100
AcDbText
  0
TEXT
  5
C167
330
C148
100
AcDbEntity
  8
7
  6
Continuous
100
AcDbText
 10
10.0
 20
26.0
 30
0.0
 40
3.0
  1
CODE No.19093
100
AcDbText
  0
TEXT
  5
C168
330
C148
100
AcDbEntity
  8
1
  6
Continuous
100
AcDbText
 10
10.0
 20
10.0
 30
0.0
 40
1.399999999999999
  1
LAYER
100
AcDbText
  0
TEXT
  5
C169
330
C148
100
AcDbEntity
  8
1
  6
Continuous
100
AcDbText
 10
17.97951099999998
 20
10.04873699999998
 30
0.0
 40
1.399999999999999
  1
1
100
AcDbText
  0
TEXT
  5
C16A
330
C148
100
AcDbEntity
  8
7
  6
Continuous
100
AcDbText
 10
29.97951099999999
 20
10.04873699999998
 30
0.0
 40
1.399999999999999
  1
7
100
AcDbText
  0
TEXT
  5
C16B
330
C148
100
AcDbEntity
  8
4
  6
CENTER
100
AcDbText
 10
23.97951099999999
 20
10.04873699999998
 30
0.0
 40
1.399999999999999
  1
4
100
AcDbText
  0
TEXT
  5
C16C
330
C148
100
AcDbEntity
  8
3
  6
DASHED
100
AcDbText
 10
21.979511
 20
10.04873699999998
 30
0.0
 40
1.399999999999999
  1
3
100
AcDbText
  0
TEXT
  5
C16D
330
C148
100
AcDbEntity
  8
2
  6
Continuous
100
AcDbText
 10
19.97951099999999
 20
10.04873699999998
 30
0.0
 40
1.399999999999999
  1
2
100
AcDbText
  0
TEXT
  5
C16E
330
C148
100
AcDbEntity
  8
6
  6
Continuous
100
AcDbText
 10
27.979511
 20
10.04873699999998
 30
0.0
 40
1.399999999999999
  1
6
100
AcDbText
  0
TEXT
  5
C16F
330
C148
100
AcDbEntity
  8
5
  6
PHANTOM
100
AcDbText
 10
25.97951099999999
 20
10.04873699999998
 30
0.0
 40
1.399999999999999
  1
5
100
AcDbText
  0
LINE
  5
C170
330
C148
100
AcDbEntity
  8
1
  6
Continuous
100
AcDbLine
 10
188.7
 20
468.1263239999998
 30
0.0
 11
188.7
 21
378.126324
 31
0.0
  0
LINE
  5
C171
330
C148
100
AcDbEntity
  8
1
  6
Continuous
100
AcDbLine
 10
288.7
 20
478.126324
 30
0.0
 11
198.6999999999999
 21
478.126324
 31
0.0
  0
LINE
  5
C172
330
C148
100
AcDbEntity
  8
1
  6
Continuous
100
AcDbLine
 10
288.7
 20
368.126324
 30
0.0
 11
198.6999999999999
 21
368.126324
 31
0.0
  0
CIRCLE
  5
C173
330
C148
100
AcDbEntity
  8
1
  6
Continuous
100
AcDbCircle
 10
288.7
 20
378.126324
 30
0.0
 40
4.25
  0
CIRCLE
  5
C174
330
C148
100
AcDbEntity
  8
1
  6
Continuous
100
AcDbCircle
 10
198.6999999999999
 20
468.1263239999998
 30
0.0
 40
4.25
  0
CIRCLE
  5
C175
330
C148
100
AcDbEntity
  8
1
  6
Continuous
100
AcDbCircle
 10
288.7
 20
468.1263239999998
 30
0.0
 40
4.25
  0
CIRCLE
  5
C176
330
C148
100
AcDbEntity
  8
1
  6
Continuous
100
AcDbCircle
 10
198.6999999999999
 20
378.126324
 30
0.0
 40
4.25
  0
LINE
  5
C177
330
C148
100
AcDbEntity
  8
1
  6
Continuous
100
AcDbLine
 10
298.7
 20
378.126324
 30
0.0
 11
298.7
 21
468.1263239999998
 31
0.0
  0
ARC
  5
C178
330
C148
100
AcDbEntity
  8
1
  6
Continuous
100
AcDbCircle
 10
288.7
 20
468.1263239999998
 30
0.0
 40
10.0
100
AcDbArc
 50
0.0
 51
90.0
  0
ARC
  5
C179
330
C148
100
AcDbEntity
  8
1
  6
Continuous
100
AcDbCircle
 10
288.7
 20
378.126324
 30
0.0
 40
10.0
100
AcDbArc
 50
270.0
 51
0.0
  0
ARC
  5
C17A
330
C148
100
AcDbEntity
  8
1
  6
Continuous
100
AcDbCircle
 10
198.6999999999999
 20
468.1263239999998
 30
0.0
 40
10.0
100
AcDbArc
 50
90.0
 51
180.0
  0
ARC
  5
C17B
330
C148
100
AcDbEntity
  8
1
  6
Continuous
100
AcDbCircle
 10
198.6999999999999
 20
378.126324
 30
0.0
 40
10.0
100
AcDbArc
 50
180.0
 51
270.0
  0
ARC
  5
C17C
330
C148
100
AcDbEntity
  8
1
  6
Continuous
100
AcDbCircle
 10
281.7000199999998
 20
423.126324
 30
0.0
 40
25.0003
100
AcDbArc
 50
312.8429419999999
 51
47.15705800000001
  0
CIRCLE
  5
C17D
330
C148
100
AcDbEntity
  8
1
  6
Continuous
100
AcDbCircle
 10
243.6999999999999
 20
423.126324
 30
0.0
 40
12.0
  0
ARC
  5
C17E
330
C148
100
AcDbEntity
  8
1
  6
Continuous
100
AcDbCircle
 10
264.6127349999998
 20
286.192157
 30
0.0
 40
2.377116999999997
100
AcDbArc
 50
60.83457199999998
 51
90.17865999999999
  0
ARC
  5
C17F
330
C148
100
AcDbEntity
  8
1
  6
Continuous
100
AcDbCircle
 10
263.63783
 20
284.4452959999999
 30
0.0
 40
4.377608
100
AcDbArc
 50
45.530771
 51
60.83457199999998
  0
LINE
  5
C180
330
C148
100
AcDbEntity
  8
1
  6
Continuous
100
AcDbLine
 10
266.7044579999998
 20
287.569274
 30
0.0
 11
293.2
 21
287.569274
 31
0.0
  0
ARC
  5
C181
330
C148
100
AcDbEntity
  8
1
  6
Continuous
100
AcDbCircle
 10
217.7
 20
253.5632129999999
 30
0.0
 40
15.0
100
AcDbArc
 50
200.2299999999999
 51
314.758889
  0
LINE
  5
C182
330
C148
100
AcDbEntity
  8
1
  6
Continuous
100
AcDbLine
 10
297.8
 20
282.969274
 30
0.0
 11
297.8
 21
269.569274
 31
0.0
  0
ARC
  5
C183
330
C148
100
AcDbEntity
  8
1
  6
Continuous
100
AcDbCircle
 10
293.2
 20
282.969274
 30
0.0
 40
4.599999999999997
100
AcDbArc
 50
0.0
 51
90.0
  0
LINE
  5
C184
330
C148
100
AcDbEntity
  8
1
  6
Continuous
100
AcDbLine
 10
291.1999999999998
 20
262.963221
 30
0.0
 11
272.1999999999998
 21
262.963221
 31
0.0
  0
LINE
  5
C185
330
C148
100
AcDbEntity
  8
1
  6
Continuous
100
AcDbLine
 10
57.0
 20
288.569274
 30
0.0
 11
57.0
 21
290.545135
 31
0.0
  0
LINE
  5
C186
330
C148
100
AcDbEntity
  8
1
  6
Continuous
100
AcDbLine
 10
103.0
 20
288.569274
 30
0.0
 11
103.0
 21
290.545135
 31
0.0
  0
LINE
  5
C187
330
C148
100
AcDbEntity
  8
1
  6
Continuous
100
AcDbLine
 10
103.0
 20
290.545135
 30
0.0
 11
57.0
 21
290.545135
 31
0.0
  0
LINE
  5
C188
330
C148
100
AcDbEntity
  8
1
  6
Continuous
100
AcDbLine
 10
103.0
 20
288.569274
 30
0.0
 11
57.0
 21
288.569274
 31
0.0
  0
ARC
  5
C189
330
C148
100
AcDbEntity
  8
1
  6
Continuous
100
AcDbCircle
 10
60.840683
 20
303.6777269999999
 30
0.0
 40
10.63951799999999
100
AcDbArc
 50
229.929097
 51
243.711147
  0
LINE
  5
C18A
330
C148
100
AcDbEntity
  8
1
  6
Continuous
100
AcDbLine
 10
53.991651
 20
295.5358529999998
 30
0.0
 11
53.989113
 21
295.5633129999998
 31
0.0
  0
ARC
  5
C18B
330
C148
100
AcDbEntity
  8
1
  6
Continuous
100
AcDbCircle
 10
57.72784099999999
 20
297.376284
 30
0.0
 40
3.611148999999998
100
AcDbArc
 50
243.711147
 51
270.0
  0
ARC
  5
C18C
330
C148
100
AcDbEntity
  8
1
  6
Continuous
100
AcDbCircle
 10
99.15931800000002
 20
303.6777269999999
 30
0.0
 40
10.63951799999999
100
AcDbArc
 50
296.2888529999998
 51
310.0709029999998
  0
LINE
  5
C18D
330
C148
100
AcDbEntity
  8
1
  6
Continuous
100
AcDbLine
 10
106.008349
 20
295.5358529999998
 30
0.0
 11
106.010887
 21
295.5633129999998
 31
0.0
  0
ARC
  5
C18E
330
C148
100
AcDbEntity
  8
1
  6
Continuous
100
AcDbCircle
 10
102.27216
 20
297.376284
 30
0.0
 40
3.611148999999998
100
AcDbArc
 50
270.0
 51
296.2888529999998
  0
ARC
  5
C18F
330
C148
100
AcDbEntity
  8
1
  6
Continuous
100
AcDbCircle
 10
57.27397100000001
 20
291.6102819999998
 30
0.0
 40
0.9569799999999998
100
AcDbArc
 50
106.011913
 51
155.9597349999999
  0
LINE
  5
C190
330
C148
100
AcDbEntity
  8
1
  6
Continuous
100
AcDbLine
 10
57.01
 20
292.5301349999998
 30
0.0
 11
102.990002
 21
292.5301349999998
 31
0.0
  0
LINE
  5
C191
330
C148
100
AcDbEntity
  8
1
  6
Continuous
100
AcDbLine
 10
57.825
 20
292.5301349999998
 30
0.0
 11
57.995
 21
292.8901349999998
 31
0.0
  0
ARC
  5
C192
330
C148
100
AcDbEntity
  8
1
  6
Continuous
100
AcDbCircle
 10
60.61148199999998
 20
294.0803629999999
 30
0.0
 40
4.697225
100
AcDbArc
 50
206.286695
 51
222.530249
  0
LINE
  5
C193
330
C148
100
AcDbEntity
  8
1
  6
Continuous
100
AcDbLine
 10
57.14999999999999
 20
290.905135
 30
0.0
 11
57.28
 21
290.545135
 31
0.0
  0
ARC
  5
C194
330
C148
100
AcDbEntity
  8
1
  6
Continuous
100
AcDbCircle
 10
62.81358199999999
 20
288.9791629999999
 30
0.0
 40
6.206
100
AcDbArc
 50
129.539603
 51
140.935699
  0
ARC
  5
C195
330
C148
100
AcDbEntity
  8
1
  6
Continuous
100
AcDbCircle
 10
102.72603
 20
291.6102819999998
 30
0.0
 40
0.9569799999999998
100
AcDbArc
 50
24.04026499999999
 51
73.98808699999998
  0
LINE
  5
C196
330
C148
100
AcDbEntity
  8
1
  6
Continuous
100
AcDbLine
 10
102.1749999999999
 20
292.5301349999998
 30
0.0
 11
102.0049999999999
 21
292.8901349999998
 31
0.0
  0
ARC
  5
C197
330
C148
100
AcDbEntity
  8
1
  6
Continuous
100
AcDbCircle
 10
99.38851800000001
 20
294.0803629999999
 30
0.0
 40
4.697225
100
AcDbArc
 50
317.4697509999999
 51
333.713305
  0
LINE
  5
C198
330
C148
100
AcDbEntity
  8
1
  6
Continuous
100
AcDbLine
 10
102.8499999999998
 20
290.905135
 30
0.0
 11
102.72
 21
290.545135
 31
0.0
  0
ARC
  5
C199
330
C148
100
AcDbEntity
  8
1
  6
Continuous
100
AcDbCircle
 10
97.186418
 20
288.9791629999999
 30
0.0
 40
6.206
100
AcDbArc
 50
39.064301
 51
50.460397
  0
LINE
  5
C19A
330
C148
100
AcDbEntity
  8
1
  6
Continuous
100
AcDbLine
 10
102.72
 20
290.545135
 30
0.0
 11
99.87696599999999
 21
290.545135
 31
0.0
  0
ARC
  5
C19B
330
C148
100
AcDbEntity
  8
1
  6
Continuous
100
AcDbCircle
 10
131.469594
 20
300.763484
 30
0.0
 40
5.200171
100
AcDbArc
 50
270.0
 51
292.6181049999998
  0
LINE
  5
C19C
330
C148
100
AcDbEntity
  8
1
  6
Continuous
100
AcDbLine
 10
25.0
 20
295.9632669999999
 30
0.0
 11
135.0
 21
295.96332
 31
0.0
  0
ARC
  5
C19D
330
C148
100
AcDbEntity
  8
1
  6
Continuous
100
AcDbCircle
 10
28.53040599999999
 20
300.763484
 30
0.0
 40
5.200171
100
AcDbArc
 50
247.3818949999999
 51
270.0
  0
LINE
  5
C19E
330
C148
100
AcDbEntity
  8
1
  6
Continuous
100
AcDbLine
 10
57.72784099999999
 20
293.7651349999999
 30
0.0
 11
102.27216
 21
293.7651349999999
 31
0.0
  0
LINE
  5
C19F
330
C148
100
AcDbEntity
  8
1
  6
Continuous
100
AcDbLine
 10
53.991651
 20
295.5358529999998
 30
0.0
 11
106.008349
 21
295.5358529999998
 31
0.0
  0
ARC
  5
C1A0
330
C148
100
AcDbEntity
  8
1
  6
Continuous
100
AcDbCircle
 10
101.8005439999999
 20
285.9692739999999
 30
0.0
 40
2.6
100
AcDbArc
 50
0.0
 51
90.0
  0
ARC
  5
C1A1
330
C148
100
AcDbEntity
  8
1
  6
Continuous
100
AcDbCircle
 10
58.199456
 20
285.9692739999999
 30
0.0
 40
2.6
100
AcDbArc
 50
90.0
 51
180.0
  0
LINE
  5
C1A2
330
C148
100
AcDbEntity
  8
1
  6
Continuous
100
AcDbLine
 10
228.261873
 20
242.91207
 30
0.0
 11
252.2206399999999
 21
266.6700349999999
 31
0.0
  0
LINE
  5
C1A3
330
C148
100
AcDbEntity
  8
1
  6
Continuous
100
AcDbLine
 10
203.625318
 20
248.3763689999999
 30
0.0
 11
194.035025
 21
274.3999679999999
 31
0.0
  0
LINE
  5
C1A4
330
C148
100
AcDbEntity
  8
1
  6
Continuous
100
AcDbLine
 10
28.53040599999999
 20
295.5633129999998
 30
0.0
 11
131.469594
 21
295.5633129999998
 31
0.0
  0
LINE
  5
C1A5
330
C148
100
AcDbEntity
  8
1
  6
Continuous
100
AcDbLine
 10
297.8
 20
269.569274
 30
0.0
 11
259.261889
 21
269.569274
 31
0.0
  0
ARC
  5
C1A6
330
C148
100
AcDbEntity
  8
1
  6
Continuous
100
AcDbCircle
 10
286.4499999999998
 20
271.234054
 30
0.0
 40
8.270832999999997
100
AcDbArc
 50
234.948863
 51
305.0511369999999
  0
ARC
  5
C1A7
330
C148
100
AcDbEntity
  8
1
  6
Continuous
100
AcDbCircle
 10
276.9499999999998
 20
271.234054
 30
0.0
 40
8.270832999999997
100
AcDbArc
 50
234.948863
 51
305.0511369999999
  0
LINE
  5
C1A8
330
C148
100
AcDbEntity
  8
1
  6
Continuous
100
AcDbLine
 10
100.0999999999998
 20
246.0632629999998
 30
0.0
 11
100.0999999999998
 21
261.063263
 31
0.0
  0
LINE
  5
C1A9
330
C148
100
AcDbEntity
  8
1
  6
Continuous
100
AcDbLine
 10
98.1
 20
246.0632629999998
 30
0.0
 11
100.0999999999998
 21
246.0632629999998
 31
0.0
  0
LINE
  5
C1AA
330
C148
100
AcDbEntity
  8
1
  6
Continuous
100
AcDbLine
 10
98.1
 20
261.063263
 30
0.0
 11
100.0999999999998
 21
261.063263
 31
0.0
  0
LINE
  5
C1AB
330
C148
100
AcDbEntity
  8
1
  6
Continuous
100
AcDbLine
 10
106.4
 20
250.163263
 30
0.0
 11
106.4
 21
256.963263
 31
0.0
  0
LINE
  5
C1AC
330
C148
100
AcDbEntity
  8
1
  6
Continuous
100
AcDbLine
 10
105.0999999999998
 20
257.563263
 30
0.0
 11
105.8
 21
257.563263
 31
0.0
  0
LINE
  5
C1AD
330
C148
100
AcDbEntity
  8
1
  6
Continuous
100
AcDbLine
 10
59.573762
 20
246.5632629999999
 30
0.0
 11
61.9
 21
246.5632629999999
 31
0.0
  0
LINE
  5
C1AE
330
C148
100
AcDbEntity
  8
1
  6
Continuous
100
AcDbLine
 10
59.573762
 20
260.563263
 30
0.0
 11
61.9
 21
260.563263
 31
0.0
  0
ARC
  5
C1AF
330
C148
100
AcDbEntity
  8
1
  6
Continuous
100
AcDbCircle
 10
67.40000000000001
 20
253.5632629999998
 30
0.0
 40
10.5
100
AcDbArc
 50
138.1896849999999
 51
221.810315
  0
LINE
  5
C1B0
330
C148
100
AcDbEntity
  8
1
  6
Continuous
100
AcDbLine
 10
59.573762
 20
246.5632629999999
 30
0.0
 11
59.573762
 21
260.563263
 31
0.0
  0
LINE
  5
C1B1
330
C148
100
AcDbEntity
  8
1
  6
Continuous
100
AcDbLine
 10
61.9
 20
282.8360829999999
 30
0.0
 11
61.9
 21
238.5632129999999
 31
0.0
  0
LINE
  5
C1B2
330
C148
100
AcDbEntity
  8
1
  6
Continuous
100
AcDbLine
 10
98.1
 20
282.8360829999999
 30
0.0
 11
98.1
 21
238.5632129999999
 31
0.0
  0
LINE
  5
C1B3
330
C148
100
AcDbEntity
  8
1
  6
Continuous
100
AcDbLine
 10
64.5
 20
271.102413
 30
0.0
 11
64.5
 21
238.5632129999999
 31
0.0
  0
LINE
  5
C1B4
330
C148
100
AcDbEntity
  8
1
  6
Continuous
100
AcDbLine
 10
95.5
 20
271.102413
 30
0.0
 11
95.5
 21
238.5632129999999
 31
0.0
  0
LINE
  5
C1B5
330
C148
100
AcDbEntity
  8
1
  6
Continuous
100
AcDbLine
 10
61.9
 20
238.5632129999999
 30
0.0
 11
64.5
 21
238.5632129999999
 31
0.0
  0
LINE
  5
C1B6
330
C148
100
AcDbEntity
  8
1
  6
Continuous
100
AcDbLine
 10
95.5
 20
238.5632129999999
 30
0.0
 11
98.1
 21
238.5632129999999
 31
0.0
  0
ARC
  5
C1B7
330
C148
100
AcDbEntity
  8
1
  6
Continuous
100
AcDbCircle
 10
259.261889
 20
259.569274
 30
0.0
 40
10.0
100
AcDbArc
 50
90.0
 51
134.7588889999999
  0
ARC
  5
C1B8
330
C148
100
AcDbEntity
  8
1
  6
Continuous
100
AcDbCircle
 10
221.0998819999999
 20
246.878095
 30
0.0
 40
38.6
100
AcDbArc
 50
88.87870799999998
 51
139.510162
  0
LINE
  5
C1B9
330
C148
100
AcDbEntity
  8
1
  6
Continuous
100
AcDbLine
 10
191.743766
 20
271.9415829999999
 30
0.0
 11
193.7211209999999
 21
270.253369
 31
0.0
  0
ARC
  5
C1BA
330
C148
100
AcDbEntity
  8
1
  6
Continuous
100
AcDbCircle
 10
12.357256
 20
242.91207
 30
0.0
 40
49.542745
100
AcDbArc
 50
0.0
 51
4.226405999999998
  0
ARC
  5
C1BB
330
C148
100
AcDbEntity
  8
1
  6
Continuous
100
AcDbCircle
 10
147.6427449999999
 20
242.91207
 30
0.0
 40
49.542745
100
AcDbArc
 50
176.3532099999999
 51
180.0
  0
LINE
  5
C1BC
330
C148
100
AcDbEntity
  8
1
  6
Continuous
100
AcDbLine
 10
61.9
 20
285.436083
 30
0.0
 11
98.1
 21
285.436083
 31
0.0
  0
ARC
  5
C1BD
330
C148
100
AcDbEntity
  8
1
  6
Continuous
100
AcDbCircle
 10
80.0
 20
339.801915
 30
0.0
 40
67.860332
100
AcDbArc
 50
257.2920279999999
 51
282.707972
  0
ARC
  5
C1BE
330
C148
100
AcDbEntity
  8
1
  6
Continuous
100
AcDbCircle
 10
80.0
 20
353.8202339999998
 30
0.0
 40
83.566865
100
AcDbArc
 50
259.7217099999999
 51
280.27829
  0
ARC
  5
C1BF
330
C148
100
AcDbEntity
  8
1
  6
Continuous
100
AcDbCircle
 10
64.5
 20
282.8360829999999
 30
0.0
 40
2.6
100
AcDbArc
 50
90.0
 51
180.0
  0
ARC
  5
C1C0
330
C148
100
AcDbEntity
  8
1
  6
Continuous
100
AcDbCircle
 10
95.5
 20
282.8360829999999
 30
0.0
 40
2.6
100
AcDbArc
 50
0.0
 51
90.0
  0
ARC
  5
C1C1
330
C148
100
AcDbEntity
  8
1
  6
Continuous
100
AcDbCircle
 10
64.5
 20
271.067583
 30
0.0
 40
2.6
100
AcDbArc
 50
77.292028
 51
180.0
  0
ARC
  5
C1C2
330
C148
100
AcDbEntity
  8
1
  6
Continuous
100
AcDbCircle
 10
95.5
 20
271.067583
 30
0.0
 40
2.6
100
AcDbArc
 50
0.0
 51
102.7079719999999
  0
ARC
  5
C1C3
330
C148
100
AcDbEntity
  8
1
  6
Continuous
100
AcDbCircle
 10
65.0
 20
271.102413
 30
0.0
 40
0.5
100
AcDbArc
 50
79.72171000000002
 51
180.0
  0
ARC
  5
C1C4
330
C148
100
AcDbEntity
  8
1
  6
Continuous
100
AcDbCircle
 10
95.0
 20
271.102413
 30
0.0
 40
0.5
100
AcDbArc
 50
0.0
 51
100.2782899999999
  0
LINE
  5
C1C5
330
C148
100
AcDbEntity
  8
1
  6
Continuous
100
AcDbLine
 10
302.1
 20
228.5632129999999
 30
0.0
 11
261.2999999999999
 21
228.5632129999999
 31
0.0
  0
LINE
  5
C1C6
330
C148
100
AcDbEntity
  8
1
  6
Continuous
100
AcDbLine
 10
303.6999999999999
 20
239.563213
 30
0.0
 11
259.6999999999998
 21
239.563213
 31
0.0
  0
LINE
  5
C1C7
330
C148
100
AcDbEntity
  8
1
  6
Continuous
100
AcDbLine
 10
288.7
 20
262.963221
 30
0.0
 11
288.7
 21
245.563213
 31
0.0
  0
LINE
  5
C1C8
330
C148
100
AcDbEntity
  8
1
  6
Continuous
100
AcDbLine
 10
274.6999999999998
 20
262.963221
 30
0.0
 11
274.6999999999998
 21
245.563213
 31
0.0
  0
LINE
  5
C1C9
330
C148
100
AcDbEntity
  8
1
  6
Continuous
100
AcDbLine
 10
305.1
 20
232.5632129999999
 30
0.0
 11
305.1
 21
231.563213
 31
0.0
  0
LINE
  5
C1CA
330
C148
100
AcDbEntity
  8
1
  6
Continuous
100
AcDbLine
 10
258.3
 20
232.5632129999999
 30
0.0
 11
258.3
 21
231.563213
 31
0.0
  0
LINE
  5
C1CB
330
C148
100
AcDbEntity
  8
1
  6
Continuous
100
AcDbLine
 10
256.6999999999998
 20
236.5632129999999
 30
0.0
 11
256.6999999999998
 21
232.5632129999999
 31
0.0
  0
LINE
  5
C1CC
330
C148
100
AcDbEntity
  8
1
  6
Continuous
100
AcDbLine
 10
306.7
 20
236.5632129999999
 30
0.0
 11
306.7
 21
232.5632129999999
 31
0.0
  0
ARC
  5
C1CD
330
C148
100
AcDbEntity
  8
1
  6
Continuous
100
AcDbCircle
 10
302.1
 20
231.563213
 30
0.0
 40
3.0
100
AcDbArc
 50
270.0
 51
0.0
  0
ARC
  5
C1CE
330
C148
100
AcDbEntity
  8
1
  6
Continuous
100
AcDbCircle
 10
261.2999999999999
 20
231.563213
 30
0.0
 40
3.0
100
AcDbArc
 50
180.0
 51
270.0
  0
ARC
  5
C1CF
330
C148
100
AcDbEntity
  8
1
  6
Continuous
100
AcDbCircle
 10
303.6999999999999
 20
236.5632129999999
 30
0.0
 40
3.0
100
AcDbArc
 50
0.0
 51
90.0
  0
ARC
  5
C1D0
330
C148
100
AcDbEntity
  8
1
  6
Continuous
100
AcDbCircle
 10
259.6999999999998
 20
236.5632129999999
 30
0.0
 40
3.0
100
AcDbArc
 50
90.0
 51
180.0
  0
LINE
  5
C1D1
330
C148
100
AcDbEntity
  8
1
  6
Continuous
100
AcDbLine
 10
306.7
 20
232.5632129999999
 30
0.0
 11
256.6999999999998
 21
232.5632129999999
 31
0.0
  0
LINE
  5
C1D2
330
C148
100
AcDbEntity
  8
1
  6
Continuous
100
AcDbLine
 10
295.556406
 20
245.563213
 30
0.0
 11
295.556406
 21
241.6350089999999
 31
0.0
  0
LINE
  5
C1D3
330
C148
100
AcDbEntity
  8
1
  6
Continuous
100
AcDbLine
 10
267.843593
 20
245.563213
 30
0.0
 11
267.843593
 21
241.6350089999999
 31
0.0
  0
LINE
  5
C1D4
330
C148
100
AcDbEntity
  8
1
  6
Continuous
100
AcDbLine
 10
295.556406
 20
245.563213
 30
0.0
 11
267.843593
 21
245.563213
 31
0.0
  0
LINE
  5
C1D5
330
C148
100
AcDbEntity
  8
1
  6
Continuous
100
AcDbLine
 10
293.6999999999999
 20
240.5632129999999
 30
0.0
 11
269.7
 21
240.5632129999999
 31
0.0
  0
LINE
  5
C1D6
330
C148
100
AcDbEntity
  8
1
  6
Continuous
100
AcDbLine
 10
288.6282029999999
 20
245.563213
 30
0.0
 11
288.6282029999999
 21
241.664233
 31
0.0
  0
LINE
  5
C1D7
330
C148
100
AcDbEntity
  8
1
  6
Continuous
100
AcDbLine
 10
274.771797
 20
245.563213
 30
0.0
 11
274.771797
 21
241.664233
 31
0.0
  0
LINE
  5
C1D8
330
C148
100
AcDbEntity
  8
1
  6
Continuous
100
AcDbLine
 10
293.6999999999999
 20
240.5632129999999
 30
0.0
 11
295.556406
 21
241.6350089999999
 31
0.0
  0
LINE
  5
C1D9
330
C148
100
AcDbEntity
  8
1
  6
Continuous
100
AcDbLine
 10
269.7
 20
240.5632129999999
 30
0.0
 11
267.843593
 21
241.6350089999999
 31
0.0
  0
ARC
  5
C1DA
330
C148
100
AcDbEntity
  8
1
  6
Continuous
100
AcDbCircle
 10
292.0923049999998
 20
246.5632129999999
 30
0.0
 40
6.0
100
AcDbArc
 50
234.73561
 51
300.0
  0
ARC
  5
C1DB
330
C148
100
AcDbEntity
  8
1
  6
Continuous
100
AcDbCircle
 10
271.307695
 20
246.5632129999999
 30
0.0
 40
6.0
100
AcDbArc
 50
239.9999999999999
 51
305.26439
  0
ARC
  5
C1DC
330
C148
100
AcDbEntity
  8
1
  6
Continuous
100
AcDbCircle
 10
281.6999999999998
 20
262.9116819999999
 30
0.0
 40
22.348469
100
AcDbArc
 50
251.94029
 51
288.05971
  0
LINE
  5
C1DD
330
C148
100
AcDbEntity
  8
1
  6
Continuous
100
AcDbLine
 10
266.1999999999998
 20
240.0632129999999
 30
0.0
 11
266.1999999999998
 21
239.563213
 31
0.0
  0
LINE
  5
C1DE
330
C148
100
AcDbEntity
  8
1
  6
Continuous
100
AcDbLine
 10
297.1999999999998
 20
240.0632129999999
 30
0.0
 11
266.1999999999998
 21
240.0632129999999
 31
0.0
  0
LINE
  5
C1DF
330
C148
100
AcDbEntity
  8
1
  6
Continuous
100
AcDbLine
 10
286.6
 20
240.5632129999999
 30
0.0
 11
286.6
 21
240.0632129999999
 31
0.0
  0
LINE
  5
C1E0
330
C148
100
AcDbEntity
  8
1
  6
Continuous
100
AcDbLine
 10
276.8
 20
240.0632129999999
 30
0.0
 11
276.8
 21
240.5632129999999
 31
0.0
  0
LINE
  5
C1E1
330
C148
100
AcDbEntity
  8
1
  6
Continuous
100
AcDbLine
 10
59.6
 20
228.5632129999999
 30
0.0
 11
100.4
 21
228.5632129999999
 31
0.0
  0
LINE
  5
C1E2
330
C148
100
AcDbEntity
  8
1
  6
Continuous
100
AcDbLine
 10
56.6
 20
232.5632129999999
 30
0.0
 11
56.6
 21
231.563213
 31
0.0
  0
LINE
  5
C1E3
330
C148
100
AcDbEntity
  8
1
  6
Continuous
100
AcDbLine
 10
103.4
 20
232.5632129999999
 30
0.0
 11
103.4
 21
231.563213
 31
0.0
  0
LINE
  5
C1E4
330
C148
100
AcDbEntity
  8
1
  6
Continuous
100
AcDbLine
 10
105.0
 20
236.5632129999999
 30
0.0
 11
105.0
 21
232.5632129999999
 31
0.0
  0
LINE
  5
C1E5
330
C148
100
AcDbEntity
  8
1
  6
Continuous
100
AcDbLine
 10
55.0
 20
236.5632129999999
 30
0.0
 11
55.0
 21
232.5632129999999
 31
0.0
  0
ARC
  5
C1E6
330
C148
100
AcDbEntity
  8
1
  6
Continuous
100
AcDbCircle
 10
59.6
 20
231.563213
 30
0.0
 40
3.0
100
AcDbArc
 50
180.0
 51
270.0
  0
ARC
  5
C1E7
330
C148
100
AcDbEntity
  8
1
  6
Continuous
100
AcDbCircle
 10
100.4
 20
231.563213
 30
0.0
 40
3.0
100
AcDbArc
 50
270.0
 51
0.0
  0
ARC
  5
C1E8
330
C148
100
AcDbEntity
  8
1
  6
Continuous
100
AcDbCircle
 10
58.0
 20
236.5632129999999
 30
0.0
 40
3.0
100
AcDbArc
 50
90.0
 51
180.0
  0
ARC
  5
C1E9
330
C148
100
AcDbEntity
  8
1
  6
Continuous
100
AcDbCircle
 10
102.0
 20
236.5632129999999
 30
0.0
 40
3.0
100
AcDbArc
 50
0.0
 51
90.0
  0
LINE
  5
C1EA
330
C148
100
AcDbEntity
  8
1
  6
Continuous
100
AcDbLine
 10
55.0
 20
232.5632129999999
 30
0.0
 11
66.0
 21
232.5632129999999
 31
0.0
  0
LINE
  5
C1EB
330
C148
100
AcDbEntity
  8
1
  6
Continuous
100
AcDbLine
 10
58.0
 20
239.563213
 30
0.0
 11
61.9
 21
239.563213
 31
0.0
  0
LINE
  5
C1EC
330
C148
100
AcDbEntity
  8
1
  6
Continuous
100
AcDbLine
 10
94.47342199999999
 20
239.563213
 30
0.0
 11
95.5
 21
239.563213
 31
0.0
  0
LINE
  5
C1ED
330
C148
100
AcDbEntity
  8
1
  6
Continuous
100
AcDbLine
 10
291.1999999999998
 20
295.5633129999998
 30
0.0
 11
291.1999999999998
 21
287.569274
 31
0.0
  0
LINE
  5
C1EE
330
C148
100
AcDbEntity
  8
1
  6
Continuous
100
AcDbLine
 10
291.1999999999998
 20
269.569274
 30
0.0
 11
291.1999999999998
 21
262.963221
 31
0.0
  0
LINE
  5
C1EF
330
C148
100
AcDbEntity
  8
1
  6
Continuous
100
AcDbLine
 10
272.1999999999998
 20
295.5633129999998
 30
0.0
 11
272.1999999999998
 21
287.569274
 31
0.0
  0
LINE
  5
C1F0
330
C148
100
AcDbEntity
  8
1
  6
Continuous
100
AcDbLine
 10
272.1999999999998
 20
269.569274
 30
0.0
 11
272.1999999999998
 21
262.963221
 31
0.0
  0
ARC
  5
C1F1
330
C148
100
AcDbEntity
  8
1
  6
Continuous
100
AcDbCircle
 10
217.7
 20
253.5632129999999
 30
0.0
 40
25.0
100
AcDbArc
 50
147.099898
 51
7.888990999999999
  0
ARC
  5
C1F2
330
C148
100
AcDbEntity
  8
1
  6
Continuous
100
AcDbCircle
 10
227.7599499999999
 20
276.0735669999998
 30
0.0
 40
13.73005499999998
100
AcDbArc
 50
114.4809909999999
 51
137.666361
  0
ARC
  5
C1F3
330
C148
100
AcDbEntity
  8
1
  6
Continuous
100
AcDbCircle
 10
221.0998819999999
 20
246.878095
 30
0.0
 40
36.0
100
AcDbArc
 50
136.402148
 51
139.510162
  0
LINE
  5
C1F4
330
C148
100
AcDbEntity
  8
1
  6
Continuous
100
AcDbLine
 10
266.6999999999998
 20
288.569274
 30
0.0
 11
266.6999999999998
 21
290.545135
 31
0.0
  0
LINE
  5
C1F5
330
C148
100
AcDbEntity
  8
1
  6
Continuous
100
AcDbLine
 10
220.6999999999999
 20
288.569274
 30
0.0
 11
220.6999999999999
 21
290.545135
 31
0.0
  0
LINE
  5
C1F6
330
C148
100
AcDbEntity
  8
1
  6
Continuous
100
AcDbLine
 10
220.6999999999999
 20
290.545135
 30
0.0
 11
266.6999999999998
 21
290.545135
 31
0.0
  0
LINE
  5
C1F7
330
C148
100
AcDbEntity
  8
1
  6
Continuous
100
AcDbLine
 10
220.6999999999999
 20
288.569274
 30
0.0
 11
266.6999999999998
 21
288.569274
 31
0.0
  0
ARC
  5
C1F8
330
C148
100
AcDbEntity
  8
1
  6
Continuous
100
AcDbCircle
 10
262.8593169999999
 20
303.6777269999999
 30
0.0
 40
10.63951799999999
100
AcDbArc
 50
296.2888529999998
 51
310.0709029999998
  0
LINE
  5
C1F9
330
C148
100
AcDbEntity
  8
1
  6
Continuous
100
AcDbLine
 10
269.708349
 20
295.5358529999998
 30
0.0
 11
269.710887
 21
295.5633129999998
 31
0.0
  0
ARC
  5
C1FA
330
C148
100
AcDbEntity
  8
1
  6
Continuous
100
AcDbCircle
 10
265.9721589999999
 20
297.376284
 30
0.0
 40
3.611148999999998
100
AcDbArc
 50
270.0
 51
296.2888529999998
  0
ARC
  5
C1FB
330
C148
100
AcDbEntity
  8
1
  6
Continuous
100
AcDbCircle
 10
224.5406819999999
 20
303.6777269999999
 30
0.0
 40
10.63951799999999
100
AcDbArc
 50
229.929097
 51
243.711147
  0
LINE
  5
C1FC
330
C148
100
AcDbEntity
  8
1
  6
Continuous
100
AcDbLine
 10
217.6916509999998
 20
295.5358529999998
 30
0.0
 11
217.689113
 21
295.5633129999998
 31
0.0
  0
ARC
  5
C1FD
330
C148
100
AcDbEntity
  8
1
  6
Continuous
100
AcDbCircle
 10
221.4278399999999
 20
297.376284
 30
0.0
 40
3.611148999999998
100
AcDbArc
 50
243.711147
 51
270.0
  0
ARC
  5
C1FE
330
C148
100
AcDbEntity
  8
1
  6
Continuous
100
AcDbCircle
 10
266.426029
 20
291.6102819999998
 30
0.0
 40
0.9569799999999998
100
AcDbArc
 50
24.04026499999999
 51
73.98808699999998
  0
LINE
  5
C1FF
330
C148
100
AcDbEntity
  8
1
  6
Continuous
100
AcDbLine
 10
265.8749999999999
 20
292.5301349999998
 30
0.0
 11
265.7049999999999
 21
292.8901349999998
 31
0.0
  0
ARC
  5
C200
330
C148
100
AcDbEntity
  8
1
  6
Continuous
100
AcDbCircle
 10
263.088518
 20
294.0803629999999
 30
0.0
 40
4.697225
100
AcDbArc
 50
317.4697509999999
 51
333.713305
  0
LINE
  5
C201
330
C148
100
AcDbEntity
  8
1
  6
Continuous
100
AcDbLine
 10
266.55
 20
290.905135
 30
0.0
 11
266.42
 21
290.545135
 31
0.0
  0
ARC
  5
C202
330
C148
100
AcDbEntity
  8
1
  6
Continuous
100
AcDbCircle
 10
260.8864179999998
 20
288.9791629999999
 30
0.0
 40
6.206
100
AcDbArc
 50
39.064301
 51
50.460397
  0
ARC
  5
C203
330
C148
100
AcDbEntity
  8
1
  6
Continuous
100
AcDbCircle
 10
220.97397
 20
291.6102819999998
 30
0.0
 40
0.9569799999999998
100
AcDbArc
 50
106.011913
 51
155.9597349999999
  0
LINE
  5
C204
330
C148
100
AcDbEntity
  8
1
  6
Continuous
100
AcDbLine
 10
220.71
 20
292.5301349999998
 30
0.0
 11
266.6900009999998
 21
292.5301349999998
 31
0.0
  0
LINE
  5
C205
330
C148
100
AcDbEntity
  8
1
  6
Continuous
100
AcDbLine
 10
221.525
 20
292.5301349999998
 30
0.0
 11
221.695
 21
292.8901349999998
 31
0.0
  0
ARC
  5
C206
330
C148
100
AcDbEntity
  8
1
  6
Continuous
100
AcDbCircle
 10
224.3114819999999
 20
294.0803629999999
 30
0.0
 40
4.697225
100
AcDbArc
 50
206.286695
 51
222.530249
  0
LINE
  5
C207
330
C148
100
AcDbEntity
  8
1
  6
Continuous
100
AcDbLine
 10
220.8499999999999
 20
290.905135
 30
0.0
 11
220.9799999999999
 21
290.545135
 31
0.0
  0
ARC
  5
C208
330
C148
100
AcDbEntity
  8
1
  6
Continuous
100
AcDbCircle
 10
226.5135819999999
 20
288.9791629999999
 30
0.0
 40
6.206
100
AcDbArc
 50
129.539603
 51
140.935699
  0
LINE
  5
C209
330
C148
100
AcDbEntity
  8
1
  6
Continuous
100
AcDbLine
 10
220.9799999999999
 20
290.545135
 30
0.0
 11
223.8230339999998
 21
290.545135
 31
0.0
  0
LINE
  5
C20A
330
C148
100
AcDbEntity
  8
1
  6
Continuous
100
AcDbLine
 10
188.7
 20
295.96332
 30
0.0
 11
188.7
 21
298.5633199999999
 31
0.0
  0
ARC
  5
C20B
330
C148
100
AcDbEntity
  8
1
  6
Continuous
100
AcDbCircle
 10
192.2304059999999
 20
300.763484
 30
0.0
 40
5.200171
100
AcDbArc
 50
247.3818949999999
 51
270.0
  0
ARC
  5
C20C
330
C148
100
AcDbEntity
  8
1
  6
Continuous
100
AcDbCircle
 10
295.169594
 20
300.763484
 30
0.0
 40
5.200171
100
AcDbArc
 50
270.0
 51
292.6181049999998
  0
LINE
  5
C20D
330
C148
100
AcDbEntity
  8
1
  6
Continuous
100
AcDbLine
 10
265.9721589999999
 20
293.7651349999999
 30
0.0
 11
221.4278399999999
 21
293.7651349999999
 31
0.0
  0
LINE
  5
C20E
330
C148
100
AcDbEntity
  8
1
  6
Continuous
100
AcDbLine
 10
269.708349
 20
295.5358529999998
 30
0.0
 11
217.6916509999998
 21
295.5358529999998
 31
0.0
  0
LINE
  5
C20F
330
C148
100
AcDbEntity
  8
1
  6
Continuous
100
AcDbLine
 10
295.169594
 20
295.5633129999998
 30
0.0
 11
192.2304059999999
 21
295.5633129999998
 31
0.0
  0
ARC
  5
C210
330
C148
100
AcDbEntity
  8
1
  6
Continuous
100
AcDbCircle
 10
281.6999999999998
 20
291.013008
 30
0.0
 40
0.75
100
AcDbArc
 50
0.0
 51
180.0
  0
ARC
  5
C211
330
C148
100
AcDbEntity
  8
1
  6
Continuous
100
AcDbCircle
 10
281.6999999999998
 20
289.013008
 30
0.0
 40
0.75
100
AcDbArc
 50
180.0
 51
0.0
  0
LINE
  5
C212
330
C148
100
AcDbEntity
  8
1
  6
Continuous
100
AcDbLine
 10
282.45
 20
289.013008
 30
0.0
 11
282.45
 21
291.013008
 31
0.0
  0
LINE
  5
C213
330
C148
100
AcDbEntity
  8
1
  6
Continuous
100
AcDbLine
 10
280.9499999999998
 20
289.013008
 30
0.0
 11
280.9499999999998
 21
291.013008
 31
0.0
  0
CIRCLE
  5
C214
330
C148
100
AcDbEntity
  8
1
  6
Continuous
100
AcDbCircle
 10
243.6999999999999
 20
423.126324
 30
0.0
 40
21.3
  0
CIRCLE
  5
C215
330
C148
100
AcDbEntity
  8
1
  6
Continuous
100
AcDbCircle
 10
243.6999999999999
 20
423.126324
 30
0.0
 40
23.5
  0
LINE
  5
C216
330
C148
100
AcDbEntity
  8
1
  6
Continuous
100
AcDbLine
 10
135.0
 20
298.5633199999999
 30
0.0
 11
135.0
 21
295.96332
 31
0.0
  0
LINE
  5
C217
330
C148
100
AcDbEntity
  8
1
  6
Continuous
100
AcDbLine
 10
281.6999999999998
 20
287.569274
 30
0.0
 11
281.6999999999998
 21
288.263008
 31
0.0
  0
LINE
  5
C218
330
C148
100
AcDbEntity
  8
1
  6
Continuous
100
AcDbLine
 10
281.6999999999998
 20
291.763008
 30
0.0
 11
281.6999999999998
 21
295.5633129999998
 31
0.0
  0
LINE
  5
C219
330
C148
100
AcDbEntity
  8
1
  6
Continuous
100
AcDbLine
 10
281.6999999999998
 20
269.569274
 30
0.0
 11
281.6999999999998
 21
264.4632209999999
 31
0.0
  0
LINE
  5
C21A
330
C148
100
AcDbEntity
  8
1
  6
Continuous
100
AcDbLine
 10
106.4
 20
256.963263
 30
0.0
 11
105.8
 21
257.563263
 31
0.0
  0
LINE
  5
C21B
330
C148
100
AcDbEntity
  8
1
  6
Continuous
100
AcDbLine
 10
105.8
 20
257.563263
 30
0.0
 11
105.8
 21
249.5632629999998
 31
0.0
  0
LINE
  5
C21C
330
C148
100
AcDbEntity
  8
1
  6
Continuous
100
AcDbLine
 10
105.0999999999998
 20
249.5632629999998
 30
0.0
 11
105.8
 21
249.5632629999998
 31
0.0
  0
LINE
  5
C21D
330
C148
100
AcDbEntity
  8
1
  6
Continuous
100
AcDbLine
 10
106.4
 20
250.163263
 30
0.0
 11
105.8
 21
249.5632629999998
 31
0.0
  0
LINE
  5
C21E
330
C148
100
AcDbEntity
  8
2
  6
Continuous
100
AcDbLine
 10
287.6174999999999
 20
262.963221
 30
0.0
 11
287.6174999999999
 21
249.563213
 31
0.0
  0
LINE
  5
C21F
330
C148
100
AcDbEntity
  8
1
  6
Continuous
100
AcDbLine
 10
81.97586200000001
 20
290.545135
 30
0.0
 11
80.0
 21
288.569274
 31
0.0
  0
LINE
  5
C220
330
C148
100
AcDbEntity
  8
1
  6
Continuous
100
AcDbLine
 10
84.09718199999998
 20
290.545135
 30
0.0
 11
82.12131999999998
 21
288.569274
 31
0.0
  0
LINE
  5
C221
330
C148
100
AcDbEntity
  8
1
  6
Continuous
100
AcDbLine
 10
86.218502
 20
290.545135
 30
0.0
 11
84.242641
 21
288.569274
 31
0.0
  0
LINE
  5
C222
330
C148
100
AcDbEntity
  8
1
  6
Continuous
100
AcDbLine
 10
88.33982299999998
 20
290.545135
 30
0.0
 11
86.363961
 21
288.569274
 31
0.0
  0
LINE
  5
C223
330
C148
100
AcDbEntity
  8
1
  6
Continuous
100
AcDbLine
 10
90.46114300000001
 20
290.545135
 30
0.0
 11
88.485282
 21
288.569274
 31
0.0
  0
LINE
  5
C224
330
C148
100
AcDbEntity
  8
1
  6
Continuous
100
AcDbLine
 10
92.58246300000001
 20
290.545135
 30
0.0
 11
90.60660199999999
 21
288.569274
 31
0.0
  0
LINE
  5
C225
330
C148
100
AcDbEntity
  8
1
  6
Continuous
100
AcDbLine
 10
94.70378399999999
 20
290.545135
 30
0.0
 11
92.72792200000001
 21
288.569274
 31
0.0
  0
LINE
  5
C226
330
C148
100
AcDbEntity
  8
1
  6
Continuous
100
AcDbLine
 10
96.82510399999999
 20
290.545135
 30
0.0
 11
94.84924300000001
 21
288.569274
 31
0.0
  0
LINE
  5
C227
330
C148
100
AcDbEntity
  8
1
  6
Continuous
100
AcDbLine
 10
98.946424
 20
290.545135
 30
0.0
 11
96.97056299999999
 21
288.569274
 31
0.0
  0
LINE
  5
C228
330
C148
100
AcDbEntity
  8
1
  6
Continuous
100
AcDbLine
 10
101.0677449999999
 20
290.545135
 30
0.0
 11
99.091883
 21
288.569274
 31
0.0
  0
LINE
  5
C229
330
C148
100
AcDbEntity
  8
1
  6
Continuous
100
AcDbLine
 10
103.0
 20
290.3560699999999
 30
0.0
 11
101.213204
 21
288.569274
 31
0.0
  0
LINE
  5
C22A
330
C148
100
AcDbEntity
  8
1
  6
Continuous
100
AcDbLine
 10
79.854541
 20
290.545135
 30
0.0
 11
77.87868
 21
288.569274
 31
0.0
  0
LINE
  5
C22B
330
C148
100
AcDbEntity
  8
1
  6
Continuous
100
AcDbLine
 10
77.733221
 20
290.545135
 30
0.0
 11
75.75735899999997
 21
288.569274
 31
0.0
  0
LINE
  5
C22C
330
C148
100
AcDbEntity
  8
1
  6
Continuous
100
AcDbLine
 10
75.61190100000001
 20
290.545135
 30
0.0
 11
73.63603899999998
 21
288.569274
 31
0.0
  0
LINE
  5
C22D
330
C148
100
AcDbEntity
  8
1
  6
Continuous
100
AcDbLine
 10
73.49057999999998
 20
290.545135
 30
0.0
 11
71.514719
 21
288.569274
 31
0.0
  0
LINE
  5
C22E
330
C148
100
AcDbEntity
  8
1
  6
Continuous
100
AcDbLine
 10
71.36925999999998
 20
290.545135
 30
0.0
 11
69.393398
 21
288.569274
 31
0.0
  0
LINE
  5
C22F
330
C148
100
AcDbEntity
  8
1
  6
Continuous
100
AcDbLine
 10
69.24794
 20
290.545135
 30
0.0
 11
67.27207800000001
 21
288.569274
 31
0.0
  0
LINE
  5
C230
330
C148
100
AcDbEntity
  8
1
  6
Continuous
100
AcDbLine
 10
67.12661899999999
 20
290.545135
 30
0.0
 11
65.15075799999999
 21
288.569274
 31
0.0
  0
LINE
  5
C231
330
C148
100
AcDbEntity
  8
1
  6
Continuous
100
AcDbLine
 10
65.005299
 20
290.545135
 30
0.0
 11
63.029437
 21
288.569274
 31
0.0
  0
LINE
  5
C232
330
C148
100
AcDbEntity
  8
1
  6
Continuous
100
AcDbLine
 10
62.88397899999999
 20
290.545135
 30
0.0
 11
60.90811699999999
 21
288.569274
 31
0.0
  0
LINE
  5
C233
330
C148
100
AcDbEntity
  8
1
  6
Continuous
100
AcDbLine
 10
60.76265799999998
 20
290.545135
 30
0.0
 11
58.786797
 21
288.569274
 31
0.0
  0
LINE
  5
C234
330
C148
100
AcDbEntity
  8
1
  6
Continuous
100
AcDbLine
 10
57.0
 20
288.903797
 30
0.0
 11
58.641338
 21
290.545135
 31
0.0
  0
LINE
  5
C235
330
C148
100
AcDbEntity
  8
1
  6
Continuous
100
AcDbLine
 10
78.02413900000002
 20
290.545135
 30
0.0
 11
80.0
 21
288.569274
 31
0.0
  0
LINE
  5
C236
330
C148
100
AcDbEntity
  8
1
  6
Continuous
100
AcDbLine
 10
79.43835200000002
 20
290.545135
 30
0.0
 11
81.414214
 21
288.569274
 31
0.0
  0
LINE
  5
C237
330
C148
100
AcDbEntity
  8
1
  6
Continuous
100
AcDbLine
 10
80.85256600000002
 20
290.545135
 30
0.0
 11
82.82842700000001
 21
288.569274
 31
0.0
  0
LINE
  5
C238
330
C148
100
AcDbEntity
  8
1
  6
Continuous
100
AcDbLine
 10
82.266779
 20
290.545135
 30
0.0
 11
84.242641
 21
288.569274
 31
0.0
  0
LINE
  5
C239
330
C148
100
AcDbEntity
  8
1
  6
Continuous
100
AcDbLine
 10
83.680993
 20
290.545135
 30
0.0
 11
85.65685400000003
 21
288.569274
 31
0.0
  0
LINE
  5
C23A
330
C148
100
AcDbEntity
  8
1
  6
Continuous
100
AcDbLine
 10
85.095206
 20
290.545135
 30
0.0
 11
87.07106800000003
 21
288.569274
 31
0.0
  0
LINE
  5
C23B
330
C148
100
AcDbEntity
  8
1
  6
Continuous
100
AcDbLine
 10
86.50941999999997
 20
290.545135
 30
0.0
 11
88.485282
 21
288.569274
 31
0.0
  0
LINE
  5
C23C
330
C148
100
AcDbEntity
  8
1
  6
Continuous
100
AcDbLine
 10
87.92363399999997
 20
290.545135
 30
0.0
 11
89.89949499999999
 21
288.569274
 31
0.0
  0
LINE
  5
C23D
330
C148
100
AcDbEntity
  8
1
  6
Continuous
100
AcDbLine
 10
89.33784699999998
 20
290.545135
 30
0.0
 11
91.313709
 21
288.569274
 31
0.0
  0
LINE
  5
C23E
330
C148
100
AcDbEntity
  8
1
  6
Continuous
100
AcDbLine
 10
90.752061
 20
290.545135
 30
0.0
 11
92.72792200000001
 21
288.569274
 31
0.0
  0
LINE
  5
C23F
330
C148
100
AcDbEntity
  8
1
  6
Continuous
100
AcDbLine
 10
92.166274
 20
290.545135
 30
0.0
 11
94.142136
 21
288.569274
 31
0.0
  0
LINE
  5
C240
330
C148
100
AcDbEntity
  8
1
  6
Continuous
100
AcDbLine
 10
93.580488
 20
290.545135
 30
0.0
 11
95.55634899999999
 21
288.569274
 31
0.0
  0
LINE
  5
C241
330
C148
100
AcDbEntity
  8
1
  6
Continuous
100
AcDbLine
 10
94.99470100000001
 20
290.545135
 30
0.0
 11
96.97056299999999
 21
288.569274
 31
0.0
  0
LINE
  5
C242
330
C148
100
AcDbEntity
  8
1
  6
Continuous
100
AcDbLine
 10
96.40891500000002
 20
290.545135
 30
0.0
 11
98.384776
 21
288.569274
 31
0.0
  0
LINE
  5
C243
330
C148
100
AcDbEntity
  8
1
  6
Continuous
100
AcDbLine
 10
97.82312799999999
 20
290.545135
 30
0.0
 11
99.79899000000001
 21
288.569274
 31
0.0
  0
LINE
  5
C244
330
C148
100
AcDbEntity
  8
1
  6
Continuous
100
AcDbLine
 10
99.237342
 20
290.545135
 30
0.0
 11
101.213204
 21
288.569274
 31
0.0
  0
LINE
  5
C245
330
C148
100
AcDbEntity
  8
1
  6
Continuous
100
AcDbLine
 10
100.6515559999999
 20
290.545135
 30
0.0
 11
102.6274169999999
 21
288.569274
 31
0.0
  0
LINE
  5
C246
330
C148
100
AcDbEntity
  8
1
  6
Continuous
100
AcDbLine
 10
102.0657689999999
 20
290.545135
 30
0.0
 11
103.0
 21
289.610904
 31
0.0
  0
LINE
  5
C247
330
C148
100
AcDbEntity
  8
1
  6
Continuous
100
AcDbLine
 10
76.609925
 20
290.545135
 30
0.0
 11
78.58578699999998
 21
288.569274
 31
0.0
  0
LINE
  5
C248
330
C148
100
AcDbEntity
  8
1
  6
Continuous
100
AcDbLine
 10
75.195711
 20
290.545135
 30
0.0
 11
77.17157299999998
 21
288.569274
 31
0.0
  0
LINE
  5
C249
330
C148
100
AcDbEntity
  8
1
  6
Continuous
100
AcDbLine
 10
73.781498
 20
290.545135
 30
0.0
 11
75.75735899999997
 21
288.569274
 31
0.0
  0
LINE
  5
C24A
330
C148
100
AcDbEntity
  8
1
  6
Continuous
100
AcDbLine
 10
72.367284
 20
290.545135
 30
0.0
 11
74.34314599999997
 21
288.569274
 31
0.0
  0
LINE
  5
C24B
330
C148
100
AcDbEntity
  8
1
  6
Continuous
100
AcDbLine
 10
70.95307099999998
 20
290.545135
 30
0.0
 11
72.92893199999999
 21
288.569274
 31
0.0
  0
LINE
  5
C24C
330
C148
100
AcDbEntity
  8
1
  6
Continuous
100
AcDbLine
 10
69.53885699999999
 20
290.545135
 30
0.0
 11
71.514719
 21
288.569274
 31
0.0
  0
LINE
  5
C24D
330
C148
100
AcDbEntity
  8
1
  6
Continuous
100
AcDbLine
 10
68.12464399999999
 20
290.545135
 30
0.0
 11
70.100505
 21
288.569274
 31
0.0
  0
LINE
  5
C24E
330
C148
100
AcDbEntity
  8
1
  6
Continuous
100
AcDbLine
 10
66.71043
 20
290.545135
 30
0.0
 11
68.68629199999999
 21
288.569274
 31
0.0
  0
LINE
  5
C24F
330
C148
100
AcDbEntity
  8
1
  6
Continuous
100
AcDbLine
 10
65.29621699999998
 20
290.545135
 30
0.0
 11
67.27207800000001
 21
288.569274
 31
0.0
  0
LINE
  5
C250
330
C148
100
AcDbEntity
  8
1
  6
Continuous
100
AcDbLine
 10
63.88200300000001
 20
290.545135
 30
0.0
 11
65.85786500000001
 21
288.569274
 31
0.0
  0
LINE
  5
C251
330
C148
100
AcDbEntity
  8
1
  6
Continuous
100
AcDbLine
 10
62.467789
 20
290.545135
 30
0.0
 11
64.443651
 21
288.569274
 31
0.0
  0
LINE
  5
C252
330
C148
100
AcDbEntity
  8
1
  6
Continuous
100
AcDbLine
 10
61.053576
 20
290.545135
 30
0.0
 11
63.029437
 21
288.569274
 31
0.0
  0
LINE
  5
C253
330
C148
100
AcDbEntity
  8
1
  6
Continuous
100
AcDbLine
 10
59.639362
 20
290.545135
 30
0.0
 11
61.61522399999999
 21
288.569274
 31
0.0
  0
LINE
  5
C254
330
C148
100
AcDbEntity
  8
1
  6
Continuous
100
AcDbLine
 10
58.225149
 20
290.545135
 30
0.0
 11
60.20101
 21
288.569274
 31
0.0
  0
LINE
  5
C255
330
C148
100
AcDbEntity
  8
1
  6
Continuous
100
AcDbLine
 10
57.0
 20
290.3560699999999
 30
0.0
 11
58.786797
 21
288.569274
 31
0.0
  0
LINE
  5
C256
330
C148
100
AcDbEntity
  8
1
  6
Continuous
100
AcDbLine
 10
57.0
 20
288.9418569999999
 30
0.0
 11
57.372583
 21
288.569274
 31
0.0
  0
LINE
  5
C257
330
C148
100
AcDbEntity
  8
1
  6
Continuous
100
AcDbLine
 10
241.7241379999999
 20
290.545135
 30
0.0
 11
243.6999999999999
 21
288.569274
 31
0.0
  0
LINE
  5
C258
330
C148
100
AcDbEntity
  8
1
  6
Continuous
100
AcDbLine
 10
239.602818
 20
290.545135
 30
0.0
 11
241.5786799999999
 21
288.569274
 31
0.0
  0
LINE
  5
C259
330
C148
100
AcDbEntity
  8
1
  6
Continuous
100
AcDbLine
 10
237.481498
 20
290.545135
 30
0.0
 11
239.4573589999999
 21
288.569274
 31
0.0
  0
LINE
  5
C25A
330
C148
100
AcDbEntity
  8
1
  6
Continuous
100
AcDbLine
 10
235.360177
 20
290.545135
 30
0.0
 11
237.336039
 21
288.569274
 31
0.0
  0
LINE
  5
C25B
330
C148
100
AcDbEntity
  8
1
  6
Continuous
100
AcDbLine
 10
233.2388569999999
 20
290.545135
 30
0.0
 11
235.214718
 21
288.569274
 31
0.0
  0
LINE
  5
C25C
330
C148
100
AcDbEntity
  8
1
  6
Continuous
100
AcDbLine
 10
231.1175369999999
 20
290.545135
 30
0.0
 11
233.093398
 21
288.569274
 31
0.0
  0
LINE
  5
C25D
330
C148
100
AcDbEntity
  8
1
  6
Continuous
100
AcDbLine
 10
228.9962159999999
 20
290.545135
 30
0.0
 11
230.9720779999999
 21
288.569274
 31
0.0
  0
LINE
  5
C25E
330
C148
100
AcDbEntity
  8
1
  6
Continuous
100
AcDbLine
 10
226.8748959999999
 20
290.545135
 30
0.0
 11
228.8507569999999
 21
288.569274
 31
0.0
  0
LINE
  5
C25F
330
C148
100
AcDbEntity
  8
1
  6
Continuous
100
AcDbLine
 10
224.7535759999999
 20
290.545135
 30
0.0
 11
226.729437
 21
288.569274
 31
0.0
  0
LINE
  5
C260
330
C148
100
AcDbEntity
  8
1
  6
Continuous
100
AcDbLine
 10
222.6322549999999
 20
290.545135
 30
0.0
 11
224.608117
 21
288.569274
 31
0.0
  0
LINE
  5
C261
330
C148
100
AcDbEntity
  8
1
  6
Continuous
100
AcDbLine
 10
220.6999999999999
 20
290.3560699999999
 30
0.0
 11
222.486796
 21
288.569274
 31
0.0
  0
LINE
  5
C262
330
C148
100
AcDbEntity
  8
1
  6
Continuous
100
AcDbLine
 10
243.8454589999998
 20
290.545135
 30
0.0
 11
245.8213199999999
 21
288.569274
 31
0.0
  0
LINE
  5
C263
330
C148
100
AcDbEntity
  8
1
  6
Continuous
100
AcDbLine
 10
245.966779
 20
290.545135
 30
0.0
 11
247.942641
 21
288.569274
 31
0.0
  0
LINE
  5
C264
330
C148
100
AcDbEntity
  8
1
  6
Continuous
100
AcDbLine
 10
248.088099
 20
290.545135
 30
0.0
 11
250.0639609999999
 21
288.569274
 31
0.0
  0
LINE
  5
C265
330
C148
100
AcDbEntity
  8
1
  6
Continuous
100
AcDbLine
 10
250.20942
 20
290.545135
 30
0.0
 11
252.1852809999999
 21
288.569274
 31
0.0
  0
LINE
  5
C266
330
C148
100
AcDbEntity
  8
1
  6
Continuous
100
AcDbLine
 10
252.3307399999999
 20
290.545135
 30
0.0
 11
254.3066019999999
 21
288.569274
 31
0.0
  0
LINE
  5
C267
330
C148
100
AcDbEntity
  8
1
  6
Continuous
100
AcDbLine
 10
254.4520599999999
 20
290.545135
 30
0.0
 11
256.427922
 21
288.569274
 31
0.0
  0
LINE
  5
C268
330
C148
100
AcDbEntity
  8
1
  6
Continuous
100
AcDbLine
 10
256.5733809999999
 20
290.545135
 30
0.0
 11
258.549242
 21
288.569274
 31
0.0
  0
LINE
  5
C269
330
C148
100
AcDbEntity
  8
1
  6
Continuous
100
AcDbLine
 10
258.6947009999998
 20
290.545135
 30
0.0
 11
260.6705629999999
 21
288.569274
 31
0.0
  0
LINE
  5
C26A
330
C148
100
AcDbEntity
  8
1
  6
Continuous
100
AcDbLine
 10
260.8160209999999
 20
290.545135
 30
0.0
 11
262.791883
 21
288.569274
 31
0.0
  0
LINE
  5
C26B
330
C148
100
AcDbEntity
  8
1
  6
Continuous
100
AcDbLine
 10
262.9373419999998
 20
290.545135
 30
0.0
 11
264.9132029999999
 21
288.569274
 31
0.0
  0
LINE
  5
C26C
330
C148
100
AcDbEntity
  8
1
  6
Continuous
100
AcDbLine
 10
266.6999999999998
 20
288.903797
 30
0.0
 11
265.058662
 21
290.545135
 31
0.0
  0
LINE
  5
C26D
330
C148
100
AcDbEntity
  8
1
  6
Continuous
100
AcDbLine
 10
245.675861
 20
290.545135
 30
0.0
 11
243.6999999999999
 21
288.569274
 31
0.0
  0
LINE
  5
C26E
330
C148
100
AcDbEntity
  8
1
  6
Continuous
100
AcDbLine
 10
244.261648
 20
290.545135
 30
0.0
 11
242.2857859999998
 21
288.569274
 31
0.0
  0
LINE
  5
C26F
330
C148
100
AcDbEntity
  8
1
  6
Continuous
100
AcDbLine
 10
242.847434
 20
290.545135
 30
0.0
 11
240.871573
 21
288.569274
 31
0.0
  0
LINE
  5
C270
330
C148
100
AcDbEntity
  8
1
  6
Continuous
100
AcDbLine
 10
241.4332209999999
 20
290.545135
 30
0.0
 11
239.4573589999999
 21
288.569274
 31
0.0
  0
LINE
  5
C271
330
C148
100
AcDbEntity
  8
1
  6
Continuous
100
AcDbLine
 10
240.0190069999999
 20
290.545135
 30
0.0
 11
238.043146
 21
288.569274
 31
0.0
  0
LINE
  5
C272
330
C148
100
AcDbEntity
  8
1
  6
Continuous
100
AcDbLine
 10
238.604794
 20
290.545135
 30
0.0
 11
236.6289319999999
 21
288.569274
 31
0.0
  0
LINE
  5
C273
330
C148
100
AcDbEntity
  8
1
  6
Continuous
100
AcDbLine
 10
237.1905799999999
 20
290.545135
 30
0.0
 11
235.214718
 21
288.569274
 31
0.0
  0
LINE
  5
C274
330
C148
100
AcDbEntity
  8
1
  6
Continuous
100
AcDbLine
 10
235.776366
 20
290.545135
 30
0.0
 11
233.800505
 21
288.569274
 31
0.0
  0
LINE
  5
C275
330
C148
100
AcDbEntity
  8
1
  6
Continuous
100
AcDbLine
 10
234.3621529999999
 20
290.545135
 30
0.0
 11
232.386291
 21
288.569274
 31
0.0
  0
LINE
  5
C276
330
C148
100
AcDbEntity
  8
1
  6
Continuous
100
AcDbLine
 10
232.9479389999999
 20
290.545135
 30
0.0
 11
230.9720779999999
 21
288.569274
 31
0.0
  0
LINE
  5
C277
330
C148
100
AcDbEntity
  8
1
  6
Continuous
100
AcDbLine
 10
231.5337259999998
 20
290.545135
 30
0.0
 11
229.557864
 21
288.569274
 31
0.0
  0
LINE
  5
C278
330
C148
100
AcDbEntity
  8
1
  6
Continuous
100
AcDbLine
 10
230.119512
 20
290.545135
 30
0.0
 11
228.1436509999998
 21
288.569274
 31
0.0
  0
LINE
  5
C279
330
C148
100
AcDbEntity
  8
1
  6
Continuous
100
AcDbLine
 10
228.705299
 20
290.545135
 30
0.0
 11
226.729437
 21
288.569274
 31
0.0
  0
LINE
  5
C27A
330
C148
100
AcDbEntity
  8
1
  6
Continuous
100
AcDbLine
 10
227.291085
 20
290.545135
 30
0.0
 11
225.315224
 21
288.569274
 31
0.0
  0
LINE
  5
C27B
330
C148
100
AcDbEntity
  8
1
  6
Continuous
100
AcDbLine
 10
225.8768719999999
 20
290.545135
 30
0.0
 11
223.90101
 21
288.569274
 31
0.0
  0
LINE
  5
C27C
330
C148
100
AcDbEntity
  8
1
  6
Continuous
100
AcDbLine
 10
224.462658
 20
290.545135
 30
0.0
 11
222.486796
 21
288.569274
 31
0.0
  0
LINE
  5
C27D
330
C148
100
AcDbEntity
  8
1
  6
Continuous
100
AcDbLine
 10
223.048444
 20
290.545135
 30
0.0
 11
221.072583
 21
288.569274
 31
0.0
  0
LINE
  5
C27E
330
C148
100
AcDbEntity
  8
1
  6
Continuous
100
AcDbLine
 10
221.6342309999999
 20
290.545135
 30
0.0
 11
220.6999999999999
 21
289.610904
 31
0.0
  0
LINE
  5
C27F
330
C148
100
AcDbEntity
  8
1
  6
Continuous
100
AcDbLine
 10
247.090075
 20
290.545135
 30
0.0
 11
245.114213
 21
288.569274
 31
0.0
  0
LINE
  5
C280
330
C148
100
AcDbEntity
  8
1
  6
Continuous
100
AcDbLine
 10
248.5042889999999
 20
290.545135
 30
0.0
 11
246.528427
 21
288.569274
 31
0.0
  0
LINE
  5
C281
330
C148
100
AcDbEntity
  8
1
  6
Continuous
100
AcDbLine
 10
249.918502
 20
290.545135
 30
0.0
 11
247.942641
 21
288.569274
 31
0.0
  0
LINE
  5
C282
330
C148
100
AcDbEntity
  8
1
  6
Continuous
100
AcDbLine
 10
251.332716
 20
290.545135
 30
0.0
 11
249.356854
 21
288.569274
 31
0.0
  0
LINE
  5
C283
330
C148
100
AcDbEntity
  8
1
  6
Continuous
100
AcDbLine
 10
252.7469289999999
 20
290.545135
 30
0.0
 11
250.771068
 21
288.569274
 31
0.0
  0
LINE
  5
C284
330
C148
100
AcDbEntity
  8
1
  6
Continuous
100
AcDbLine
 10
254.161143
 20
290.545135
 30
0.0
 11
252.1852809999999
 21
288.569274
 31
0.0
  0
LINE
  5
C285
330
C148
100
AcDbEntity
  8
1
  6
Continuous
100
AcDbLine
 10
255.5753559999998
 20
290.545135
 30
0.0
 11
253.599495
 21
288.569274
 31
0.0
  0
LINE
  5
C286
330
C148
100
AcDbEntity
  8
1
  6
Continuous
100
AcDbLine
 10
256.98957
 20
290.545135
 30
0.0
 11
255.013708
 21
288.569274
 31
0.0
  0
LINE
  5
C287
330
C148
100
AcDbEntity
  8
1
  6
Continuous
100
AcDbLine
 10
258.4037829999999
 20
290.545135
 30
0.0
 11
256.427922
 21
288.569274
 31
0.0
  0
LINE
  5
C288
330
C148
100
AcDbEntity
  8
1
  6
Continuous
100
AcDbLine
 10
259.8179969999999
 20
290.545135
 30
0.0
 11
257.8421349999999
 21
288.569274
 31
0.0
  0
LINE
  5
C289
330
C148
100
AcDbEntity
  8
1
  6
Continuous
100
AcDbLine
 10
261.232211
 20
290.545135
 30
0.0
 11
259.2563489999998
 21
288.569274
 31
0.0
  0
LINE
  5
C28A
330
C148
100
AcDbEntity
  8
1
  6
Continuous
100
AcDbLine
 10
262.646424
 20
290.545135
 30
0.0
 11
260.6705629999999
 21
288.569274
 31
0.0
  0
LINE
  5
C28B
330
C148
100
AcDbEntity
  8
1
  6
Continuous
100
AcDbLine
 10
264.0606379999999
 20
290.545135
 30
0.0
 11
262.0847759999999
 21
288.569274
 31
0.0
  0
LINE
  5
C28C
330
C148
100
AcDbEntity
  8
1
  6
Continuous
100
AcDbLine
 10
265.474851
 20
290.545135
 30
0.0
 11
263.4989899999998
 21
288.569274
 31
0.0
  0
LINE
  5
C28D
330
C148
100
AcDbEntity
  8
1
  6
Continuous
100
AcDbLine
 10
266.6999999999998
 20
290.3560699999999
 30
0.0
 11
264.9132029999999
 21
288.569274
 31
0.0
  0
LINE
  5
C28E
330
C148
100
AcDbEntity
  8
1
  6
Continuous
100
AcDbLine
 10
266.6999999999998
 20
288.9418569999999
 30
0.0
 11
266.3274169999999
 21
288.569274
 31
0.0
  0
LINE
  5
C28F
330
C148
100
AcDbEntity
  8
2
  6
Continuous
100
AcDbLine
 10
105.0999999999998
 20
256.8867629999999
 30
0.0
 11
106.4
 21
256.8867629999999
 31
0.0
  0
LINE
  5
C290
330
C148
100
AcDbEntity
  8
5
  6
PHANTOM
100
AcDbLine
 10
302.1
 20
244.5632129999999
 30
0.0
 11
261.2999999999999
 21
244.5632129999999
 31
0.0
  0
LINE
  5
C291
330
C148
100
AcDbEntity
  8
5
  6
PHANTOM
100
AcDbLine
 10
303.6999999999999
 20
255.5632129999999
 30
0.0
 11
259.6999999999998
 21
255.5632129999999
 31
0.0
  0
LINE
  5
C292
330
C148
100
AcDbEntity
  8
5
  6
PHANTOM
100
AcDbLine
 10
305.1
 20
248.5632129999999
 30
0.0
 11
305.1
 21
247.563213
 31
0.0
  0
LINE
  5
C293
330
C148
100
AcDbEntity
  8
5
  6
PHANTOM
100
AcDbLine
 10
258.3
 20
248.5632129999999
 30
0.0
 11
258.3
 21
247.563213
 31
0.0
  0
LINE
  5
C294
330
C148
100
AcDbEntity
  8
5
  6
PHANTOM
100
AcDbLine
 10
256.6999999999998
 20
252.5632129999999
 30
0.0
 11
256.6999999999998
 21
248.5632129999999
 31
0.0
  0
LINE
  5
C295
330
C148
100
AcDbEntity
  8
5
  6
PHANTOM
100
AcDbLine
 10
306.7
 20
252.5632129999999
 30
0.0
 11
306.7
 21
248.5632129999999
 31
0.0
  0
ARC
  5
C296
330
C148
100
AcDbEntity
  8
5
  6
PHANTOM
100
AcDbCircle
 10
302.1
 20
247.563213
 30
0.0
 40
3.0
100
AcDbArc
 50
270.0
 51
0.0
  0
ARC
  5
C297
330
C148
100
AcDbEntity
  8
5
  6
PHANTOM
100
AcDbCircle
 10
261.2999999999999
 20
247.563213
 30
0.0
 40
3.0
100
AcDbArc
 50
180.0
 51
270.0
  0
ARC
  5
C298
330
C148
100
AcDbEntity
  8
5
  6
PHANTOM
100
AcDbCircle
 10
303.6999999999999
 20
252.5632129999999
 30
0.0
 40
3.0
100
AcDbArc
 50
0.0
 51
90.0
  0
ARC
  5
C299
330
C148
100
AcDbEntity
  8
5
  6
PHANTOM
100
AcDbCircle
 10
259.6999999999998
 20
252.5632129999999
 30
0.0
 40
3.0
100
AcDbArc
 50
90.0
 51
180.0
  0
LINE
  5
C29A
330
C148
100
AcDbEntity
  8
5
  6
PHANTOM
100
AcDbLine
 10
306.7
 20
248.5632129999999
 30
0.0
 11
256.6999999999998
 21
248.5632129999999
 31
0.0
  0
LINE
  5
C29B
330
C148
100
AcDbEntity
  8
4
  6
CENTER
100
AcDbLine
 10
243.6999999999999
 20
302.757111
 30
0.0
 11
243.6999999999999
 21
276.5841029999999
 31
0.0
  0
LINE
  5
C29C
330
C148
100
AcDbEntity
  8
4
  6
CENTER
100
AcDbLine
 10
311.7003199999999
 20
423.126324
 30
0.0
 11
183.6999999999999
 21
423.126324
 31
0.0
  0
LINE
  5
C29D
330
C148
100
AcDbEntity
  8
4
  6
CENTER
100
AcDbLine
 10
295.9499999999998
 20
468.1263239999998
 30
0.0
 11
281.4499999999998
 21
468.1263239999998
 31
0.0
  0
LINE
  5
C29E
330
C148
100
AcDbEntity
  8
4
  6
CENTER
100
AcDbLine
 10
288.7
 20
460.876324
 30
0.0
 11
288.7
 21
475.376324
 31
0.0
  0
LINE
  5
C29F
330
C148
100
AcDbEntity
  8
4
  6
CENTER
100
AcDbLine
 10
295.9499999999998
 20
378.126324
 30
0.0
 11
281.4499999999998
 21
378.126324
 31
0.0
  0
LINE
  5
C2A0
330
C148
100
AcDbEntity
  8
4
  6
CENTER
100
AcDbLine
 10
288.7
 20
370.876324
 30
0.0
 11
288.7
 21
385.376324
 31
0.0
  0
LINE
  5
C2A1
330
C148
100
AcDbEntity
  8
4
  6
CENTER
100
AcDbLine
 10
205.9499999999999
 20
378.126324
 30
0.0
 11
191.4499999999999
 21
378.126324
 31
0.0
  0
LINE
  5
C2A2
330
C148
100
AcDbEntity
  8
4
  6
CENTER
100
AcDbLine
 10
198.6999999999999
 20
370.876324
 30
0.0
 11
198.6999999999999
 21
385.376324
 31
0.0
  0
LINE
  5
C2A3
330
C148
100
AcDbEntity
  8
4
  6
CENTER
100
AcDbLine
 10
205.9499999999999
 20
468.1263239999998
 30
0.0
 11
191.4499999999999
 21
468.1263239999998
 31
0.0
  0
LINE
  5
C2A4
330
C148
100
AcDbEntity
  8
4
  6
CENTER
100
AcDbLine
 10
198.6999999999999
 20
460.876324
 30
0.0
 11
198.6999999999999
 21
475.376324
 31
0.0
  0
LINE
  5
C2A5
330
C148
100
AcDbEntity
  8
4
  6
CENTER
100
AcDbLine
 10
80.0
 20
301.1652149999998
 30
0.0
 11
80.0
 21
225.5632129999999
 31
0.0
  0
LINE
  5
C2A6
330
C148
100
AcDbEntity
  8
4
  6
CENTER
100
AcDbLine
 10
243.6999999999999
 20
483.126324
 30
0.0
 11
243.6999999999999
 21
363.126324
 31
0.0
  0
LINE
  5
C2A7
330
C148
100
AcDbEntity
  8
4
  6
CENTER
100
AcDbLine
 10
281.6999999999998
 20
301.6669729999999
 30
0.0
 11
281.6999999999998
 21
217.5632129999999
 31
0.0
  0
LINE
  5
C2A8
330
C148
100
AcDbEntity
  8
4
  6
CENTER
100
AcDbLine
 10
245.6999999999999
 20
253.5632129999999
 30
0.0
 11
189.7
 21
253.5632129999999
 31
0.0
  0
LINE
  5
C2A9
330
C148
100
AcDbEntity
  8
4
  6
CENTER
100
AcDbLine
 10
217.7
 20
225.5632129999999
 30
0.0
 11
217.7
 21
281.5632129999999
 31
0.0
  0
LINE
  5
C2AA
330
C148
100
AcDbEntity
  8
4
  6
CENTER
100
AcDbLine
 10
288.7
 20
293.306038
 30
0.0
 11
288.7
 21
301.327896
 31
0.0
  0
LINE
  5
C2AB
330
C148
100
AcDbEntity
  8
4
  6
CENTER
100
AcDbLine
 10
198.6999999999999
 20
293.306038
 30
0.0
 11
198.6999999999999
 21
301.327896
 31
0.0
  0
LINE
  5
C2AC
330
C148
100
AcDbEntity
  8
4
  6
CENTER
100
AcDbLine
 10
35.0
 20
292.6255499999999
 30
0.0
 11
35.0
 21
301.639944
 31
0.0
  0
LINE
  5
C2AD
330
C148
100
AcDbEntity
  8
4
  6
CENTER
100
AcDbLine
 10
125.0
 20
292.6255499999999
 30
0.0
 11
125.0
 21
301.639944
 31
0.0
  0
LINE
  5
C2AE
330
C148
100
AcDbEntity
  8
4
  6
CENTER
100
AcDbLine
 10
54.21603000000001
 20
253.5632629999998
 30
0.0
 11
109.111515
 21
253.5632629999998
 31
0.0
  0
LINE
  5
C2AF
330
C148
100
AcDbEntity
  8
2
  6
Continuous
100
AcDbLine
 10
105.0999999999998
 20
250.2397629999999
 30
0.0
 11
106.4
 21
250.2397629999999
 31
0.0
  0
LINE
  5
C2B0
330
C148
100
AcDbEntity
  8
1
  6
Continuous
100
AcDbLine
 10
288.7
 20
249.563213
 30
0.0
 11
274.6999999999998
 21
249.563213
 31
0.0
  0
LINE
  5
C2B1
330
C148
100
AcDbEntity
  8
2
  6
Continuous
100
AcDbLine
 10
287.6174999999999
 20
249.563213
 30
0.0
 11
288.7
 21
247.688268
 31
0.0
  0
LINE
  5
C2B2
330
C148
100
AcDbEntity
  8
2
  6
Continuous
100
AcDbLine
 10
275.7825
 20
249.563213
 30
0.0
 11
274.6999999999998
 21
247.688268
 31
0.0
  0
LINE
  5
C2B3
330
C148
100
AcDbEntity
  8
2
  6
Continuous
100
AcDbLine
 10
275.7825
 20
262.963221
 30
0.0
 11
275.7825
 21
249.563213
 31
0.0
  0
LINE
  5
C2B4
330
C148
100
AcDbEntity
  8
1
  6
Continuous
100
AcDbLine
 10
297.1999999999998
 20
240.0632129999999
 30
0.0
 11
297.1999999999998
 21
239.563213
 31
0.0
  0
CIRCLE
  5
C2B5
330
C148
100
AcDbEntity
  8
1
  6
Continuous
100
AcDbCircle
 10
217.7
 20
253.5632129999999
 30
0.0
 40
4.000049999999998
  0
CIRCLE
  5
C2B6
330
C148
100
AcDbEntity
  8
2
  6
Continuous
100
AcDbCircle
 10
217.7
 20
253.5632129999999
 30
0.0
 40
3.32355
  0
LINE
  5
C2B7
330
C148
100
AcDbEntity
  8
4
  6
CENTER
100
AcDbLine
 10
407.3999999999998
 20
301.1652149999998
 30
0.0
 11
407.3999999999998
 21
217.5632129999999
 31
0.0
  0
LINE
  5
C2B8
330
C148
100
AcDbEntity
  8
1
  6
Continuous
100
AcDbLine
 10
425.4999999999998
 20
239.9642419999999
 30
0.0
 11
425.4999999999998
 21
239.563073
 31
0.0
  0
LINE
  5
C2B9
330
C148
100
AcDbEntity
  8
1
  6
Continuous
100
AcDbLine
 10
431.800544
 20
285.9692739999999
 30
0.0
 11
431.800544
 21
258.220808
 31
0.0
  0
LINE
  5
C2BA
330
C148
100
AcDbEntity
  8
1
  6
Continuous
100
AcDbLine
 10
382.999456
 20
285.9692739999999
 30
0.0
 11
382.999456
 21
258.220808
 31
0.0
  0
LINE
  5
C2BB
330
C148
100
AcDbEntity
  8
4
  6
CENTER
100
AcDbLine
 10
433.1839699999998
 20
253.5632629999998
 30
0.0
 11
378.2884849999998
 21
253.5632629999998
 31
0.0
  0
LINE
  5
C2BC
330
C148
100
AcDbEntity
  8
1
  6
Continuous
100
AcDbLine
 10
422.9
 20
269.569346
 30
0.0
 11
422.9
 21
239.563073
 31
0.0
  0
LINE
  5
C2BD
330
C148
100
AcDbEntity
  8
2
  6
Continuous
100
AcDbLine
 10
382.3
 20
250.2397629999999
 30
0.0
 11
381.0
 21
250.2397629999999
 31
0.0
  0
LINE
  5
C2BE
330
C148
100
AcDbEntity
  8
2
  6
Continuous
100
AcDbLine
 10
382.3
 20
256.8867629999999
 30
0.0
 11
381.0
 21
256.8867629999999
 31
0.0
  0
LINE
  5
C2BF
330
C148
100
AcDbEntity
  8
1
  6
Continuous
100
AcDbLine
 10
382.3
 20
249.5632629999998
 30
0.0
 11
381.6
 21
249.5632629999998
 31
0.0
  0
LINE
  5
C2C0
330
C148
100
AcDbEntity
  8
1
  6
Continuous
100
AcDbLine
 10
382.3
 20
257.563263
 30
0.0
 11
381.6
 21
257.563263
 31
0.0
  0
LINE
  5
C2C1
330
C148
100
AcDbEntity
  8
1
  6
Continuous
100
AcDbLine
 10
391.9
 20
269.569346
 30
0.0
 11
391.9
 21
239.563073
 31
0.0
  0
LINE
  5
C2C2
330
C148
100
AcDbEntity
  8
1
  6
Continuous
100
AcDbLine
 10
382.3
 20
248.36711
 30
0.0
 11
382.3
 21
258.759415
 31
0.0
  0
LINE
  5
C2C3
330
C148
100
AcDbEntity
  8
1
  6
Continuous
100
AcDbLine
 10
381.6
 20
257.563263
 30
0.0
 11
381.6
 21
249.5632629999998
 31
0.0
  0
LINE
  5
C2C4
330
C148
100
AcDbEntity
  8
1
  6
Continuous
100
AcDbLine
 10
381.0
 20
250.163263
 30
0.0
 11
381.0
 21
256.963263
 31
0.0
  0
LINE
  5
C2C5
330
C148
100
AcDbEntity
  8
1
  6
Continuous
100
AcDbLine
 10
381.0
 20
250.163263
 30
0.0
 11
381.6
 21
249.5632629999998
 31
0.0
  0
LINE
  5
C2C6
330
C148
100
AcDbEntity
  8
1
  6
Continuous
100
AcDbLine
 10
381.0
 20
256.963263
 30
0.0
 11
381.6
 21
257.563263
 31
0.0
  0
LINE
  5
C2C7
330
C148
100
AcDbEntity
  8
1
  6
Continuous
100
AcDbLine
 10
458.869594
 20
295.5633129999998
 30
0.0
 11
355.930406
 21
295.5633129999998
 31
0.0
  0
LINE
  5
C2C8
330
C148
100
AcDbEntity
  8
1
  6
Continuous
100
AcDbLine
 10
433.408349
 20
295.5358529999998
 30
0.0
 11
381.3916509999998
 21
295.5358529999998
 31
0.0
  0
LINE
  5
C2C9
330
C148
100
AcDbEntity
  8
1
  6
Continuous
100
AcDbLine
 10
429.6721589999998
 20
293.7651349999999
 30
0.0
 11
418.3696549999998
 21
293.7651349999999
 31
0.0
  0
LINE
  5
C2CA
330
C148
100
AcDbEntity
  8
1
  6
Continuous
100
AcDbLine
 10
462.3999999999998
 20
295.9632669999999
 30
0.0
 11
352.4
 21
295.96332
 31
0.0
  0
LINE
  5
C2CB
330
C148
100
AcDbEntity
  8
1
  6
Continuous
100
AcDbLine
 10
430.3899999999998
 20
292.5301349999998
 30
0.0
 11
418.3696549999998
 21
292.5301349999998
 31
0.0
  0
LINE
  5
C2CC
330
C148
100
AcDbEntity
  8
1
  6
Continuous
100
AcDbLine
 10
384.3999999999999
 20
288.569274
 30
0.0
 11
396.430345
 21
288.569274
 31
0.0
  0
LINE
  5
C2CD
330
C148
100
AcDbEntity
  8
1
  6
Continuous
100
AcDbLine
 10
384.3999999999999
 20
290.545135
 30
0.0
 11
396.430345
 21
290.545135
 31
0.0
  0
LINE
  5
C2CE
330
C148
100
AcDbEntity
  8
4
  6
CENTER
100
AcDbLine
 10
452.4
 20
292.6255499999999
 30
0.0
 11
452.4
 21
301.639944
 31
0.0
  0
LINE
  5
C2CF
330
C148
100
AcDbEntity
  8
1
  6
Continuous
100
AcDbLine
 10
462.3999999999998
 20
295.9632669999999
 30
0.0
 11
462.3999999999998
 21
298.5633199999999
 31
0.0
  0
ARC
  5
C2D0
330
C148
100
AcDbEntity
  8
1
  6
Continuous
100
AcDbCircle
 10
458.869594
 20
300.763484
 30
0.0
 40
5.200171
100
AcDbArc
 50
270.0
 51
292.6181049999998
  0
LINE
  5
C2D1
330
C148
100
AcDbEntity
  8
1
  6
Continuous
100
AcDbLine
 10
430.4
 20
290.3560699999999
 30
0.0
 11
428.613203
 21
288.569274
 31
0.0
  0
LINE
  5
C2D2
330
C148
100
AcDbEntity
  8
1
  6
Continuous
100
AcDbLine
 10
430.4
 20
288.903797
 30
0.0
 11
428.7586619999998
 21
290.545135
 31
0.0
  0
ARC
  5
C2D3
330
C148
100
AcDbEntity
  8
1
  6
Continuous
100
AcDbCircle
 10
429.2005439999998
 20
285.9692739999999
 30
0.0
 40
2.6
100
AcDbArc
 50
0.0
 51
90.0
  0
ARC
  5
C2D4
330
C148
100
AcDbEntity
  8
1
  6
Continuous
100
AcDbCircle
 10
429.6721589999998
 20
297.376284
 30
0.0
 40
3.611148999999998
100
AcDbArc
 50
270.0
 51
296.2888529999998
  0
LINE
  5
C2D5
330
C148
100
AcDbEntity
  8
1
  6
Continuous
100
AcDbLine
 10
430.4
 20
288.9418569999999
 30
0.0
 11
430.027417
 21
288.569274
 31
0.0
  0
LINE
  5
C2D6
330
C148
100
AcDbEntity
  8
1
  6
Continuous
100
AcDbLine
 10
430.25
 20
290.905135
 30
0.0
 11
430.12
 21
290.545135
 31
0.0
  0
ARC
  5
C2D7
330
C148
100
AcDbEntity
  8
1
  6
Continuous
100
AcDbCircle
 10
426.7885179999998
 20
294.0803629999999
 30
0.0
 40
4.697225
100
AcDbArc
 50
317.4697509999999
 51
333.713305
  0
ARC
  5
C2D8
330
C148
100
AcDbEntity
  8
1
  6
Continuous
100
AcDbCircle
 10
430.126029
 20
291.6102819999998
 30
0.0
 40
0.9569799999999998
100
AcDbArc
 50
24.04026499999999
 51
73.98808699999998
  0
LINE
  5
C2D9
330
C148
100
AcDbEntity
  8
1
  6
Continuous
100
AcDbLine
 10
433.408349
 20
295.5358529999998
 30
0.0
 11
433.410887
 21
295.5633129999998
 31
0.0
  0
ARC
  5
C2DA
330
C148
100
AcDbEntity
  8
1
  6
Continuous
100
AcDbCircle
 10
426.5593169999998
 20
303.6777269999999
 30
0.0
 40
10.63951799999999
100
AcDbArc
 50
296.2888529999998
 51
310.0709029999998
  0
LINE
  5
C2DB
330
C148
100
AcDbEntity
  8
1
  6
Continuous
100
AcDbLine
 10
430.4
 20
288.569274
 30
0.0
 11
430.4
 21
290.545135
 31
0.0
  0
LINE
  5
C2DC
330
C148
100
AcDbEntity
  8
1
  6
Continuous
100
AcDbLine
 10
429.1748509999997
 20
290.545135
 30
0.0
 11
427.19899
 21
288.569274
 31
0.0
  0
LINE
  5
C2DD
330
C148
100
AcDbEntity
  8
1
  6
Continuous
100
AcDbLine
 10
427.7606379999999
 20
290.545135
 30
0.0
 11
425.7847759999998
 21
288.569274
 31
0.0
  0
LINE
  5
C2DE
330
C148
100
AcDbEntity
  8
1
  6
Continuous
100
AcDbLine
 10
426.346424
 20
290.545135
 30
0.0
 11
424.370563
 21
288.569274
 31
0.0
  0
LINE
  5
C2DF
330
C148
100
AcDbEntity
  8
1
  6
Continuous
100
AcDbLine
 10
424.932211
 20
290.545135
 30
0.0
 11
422.956349
 21
288.569274
 31
0.0
  0
LINE
  5
C2E0
330
C148
100
AcDbEntity
  8
1
  6
Continuous
100
AcDbLine
 10
423.5179969999999
 20
290.545135
 30
0.0
 11
421.5421349999998
 21
288.569274
 31
0.0
  0
LINE
  5
C2E1
330
C148
100
AcDbEntity
  8
1
  6
Continuous
100
AcDbLine
 10
422.103783
 20
290.545135
 30
0.0
 11
420.1279219999998
 21
288.569274
 31
0.0
  0
LINE
  5
C2E2
330
C148
100
AcDbEntity
  8
1
  6
Continuous
100
AcDbLine
 10
420.68957
 20
290.545135
 30
0.0
 11
418.713708
 21
288.569274
 31
0.0
  0
LINE
  5
C2E3
330
C148
100
AcDbEntity
  8
1
  6
Continuous
100
AcDbLine
 10
419.2753559999998
 20
290.545135
 30
0.0
 11
418.3696549999998
 21
289.639434
 31
0.0
  0
LINE
  5
C2E4
330
C148
100
AcDbEntity
  8
1
  6
Continuous
100
AcDbLine
 10
426.6373419999998
 20
290.545135
 30
0.0
 11
428.613203
 21
288.569274
 31
0.0
  0
LINE
  5
C2E5
330
C148
100
AcDbEntity
  8
1
  6
Continuous
100
AcDbLine
 10
424.5160209999998
 20
290.545135
 30
0.0
 11
426.491883
 21
288.569274
 31
0.0
  0
LINE
  5
C2E6
330
C148
100
AcDbEntity
  8
1
  6
Continuous
100
AcDbLine
 10
422.3947009999998
 20
290.545135
 30
0.0
 11
424.370563
 21
288.569274
 31
0.0
  0
LINE
  5
C2E7
330
C148
100
AcDbEntity
  8
1
  6
Continuous
100
AcDbLine
 10
420.2733809999998
 20
290.545135
 30
0.0
 11
422.249242
 21
288.569274
 31
0.0
  0
LINE
  5
C2E8
330
C148
100
AcDbEntity
  8
1
  6
Continuous
100
AcDbLine
 10
418.3696549999998
 20
290.32754
 30
0.0
 11
420.1279219999998
 21
288.569274
 31
0.0
  0
ARC
  5
C2E9
330
C148
100
AcDbEntity
  8
1
  6
Continuous
100
AcDbCircle
 10
424.5864179999998
 20
288.9791629999999
 30
0.0
 40
6.206
100
AcDbArc
 50
39.064301
 51
50.460397
  0
LINE
  5
C2EA
330
C148
100
AcDbEntity
  8
1
  6
Continuous
100
AcDbLine
 10
429.5749999999999
 20
292.5301349999998
 30
0.0
 11
429.4049999999998
 21
292.8901349999998
 31
0.0
  0
ARC
  5
C2EB
330
C148
100
AcDbEntity
  8
1
  6
Continuous
100
AcDbCircle
 10
388.2406819999998
 20
303.6777269999999
 30
0.0
 40
10.63951799999999
100
AcDbArc
 50
229.929097
 51
243.711147
  0
LINE
  5
C2EC
330
C148
100
AcDbEntity
  8
1
  6
Continuous
100
AcDbLine
 10
396.430345
 20
288.9133279999999
 30
0.0
 11
396.086291
 21
288.569274
 31
0.0
  0
LINE
  5
C2ED
330
C148
100
AcDbEntity
  8
1
  6
Continuous
100
AcDbLine
 10
385.334231
 20
290.545135
 30
0.0
 11
384.3999999999999
 21
289.610904
 31
0.0
  0
LINE
  5
C2EE
330
C148
100
AcDbEntity
  8
1
  6
Continuous
100
AcDbLine
 10
386.748444
 20
290.545135
 30
0.0
 11
384.7725829999999
 21
288.569274
 31
0.0
  0
LINE
  5
C2EF
330
C148
100
AcDbEntity
  8
1
  6
Continuous
100
AcDbLine
 10
388.162658
 20
290.545135
 30
0.0
 11
386.186796
 21
288.569274
 31
0.0
  0
LINE
  5
C2F0
330
C148
100
AcDbEntity
  8
1
  6
Continuous
100
AcDbLine
 10
389.5768719999999
 20
290.545135
 30
0.0
 11
387.6010099999999
 21
288.569274
 31
0.0
  0
LINE
  5
C2F1
330
C148
100
AcDbEntity
  8
1
  6
Continuous
100
AcDbLine
 10
390.991085
 20
290.545135
 30
0.0
 11
389.0152239999999
 21
288.569274
 31
0.0
  0
LINE
  5
C2F2
330
C148
100
AcDbEntity
  8
1
  6
Continuous
100
AcDbLine
 10
392.405299
 20
290.545135
 30
0.0
 11
390.429437
 21
288.569274
 31
0.0
  0
LINE
  5
C2F3
330
C148
100
AcDbEntity
  8
1
  6
Continuous
100
AcDbLine
 10
393.8195119999999
 20
290.545135
 30
0.0
 11
391.8436509999999
 21
288.569274
 31
0.0
  0
LINE
  5
C2F4
330
C148
100
AcDbEntity
  8
1
  6
Continuous
100
AcDbLine
 10
395.233726
 20
290.545135
 30
0.0
 11
393.257864
 21
288.569274
 31
0.0
  0
LINE
  5
C2F5
330
C148
100
AcDbEntity
  8
1
  6
Continuous
100
AcDbLine
 10
396.430345
 20
290.327541
 30
0.0
 11
394.672078
 21
288.569274
 31
0.0
  0
LINE
  5
C2F6
330
C148
100
AcDbEntity
  8
1
  6
Continuous
100
AcDbLine
 10
384.3999999999999
 20
290.3560699999999
 30
0.0
 11
386.186796
 21
288.569274
 31
0.0
  0
LINE
  5
C2F7
330
C148
100
AcDbEntity
  8
1
  6
Continuous
100
AcDbLine
 10
386.3322549999999
 20
290.545135
 30
0.0
 11
388.308117
 21
288.569274
 31
0.0
  0
LINE
  5
C2F8
330
C148
100
AcDbEntity
  8
1
  6
Continuous
100
AcDbLine
 10
388.4535759999998
 20
290.545135
 30
0.0
 11
390.429437
 21
288.569274
 31
0.0
  0
LINE
  5
C2F9
330
C148
100
AcDbEntity
  8
1
  6
Continuous
100
AcDbLine
 10
390.574896
 20
290.545135
 30
0.0
 11
392.5507569999999
 21
288.569274
 31
0.0
  0
LINE
  5
C2FA
330
C148
100
AcDbEntity
  8
1
  6
Continuous
100
AcDbLine
 10
392.696216
 20
290.545135
 30
0.0
 11
394.672078
 21
288.569274
 31
0.0
  0
LINE
  5
C2FB
330
C148
100
AcDbEntity
  8
1
  6
Continuous
100
AcDbLine
 10
394.817537
 20
290.545135
 30
0.0
 11
396.430345
 21
288.9323269999998
 31
0.0
  0
ARC
  5
C2FC
330
C148
100
AcDbEntity
  8
1
  6
Continuous
100
AcDbCircle
 10
385.5994559999999
 20
285.9692739999999
 30
0.0
 40
2.6
100
AcDbArc
 50
90.0
 51
180.0
  0
LINE
  5
C2FD
330
C148
100
AcDbEntity
  8
1
  6
Continuous
100
AcDbLine
 10
384.6799999999999
 20
290.545135
 30
0.0
 11
387.5230339999998
 21
290.545135
 31
0.0
  0
ARC
  5
C2FE
330
C148
100
AcDbEntity
  8
1
  6
Continuous
100
AcDbCircle
 10
390.2135819999998
 20
288.9791629999999
 30
0.0
 40
6.206
100
AcDbArc
 50
129.539603
 51
140.935699
  0
LINE
  5
C2FF
330
C148
100
AcDbEntity
  8
1
  6
Continuous
100
AcDbLine
 10
384.55
 20
290.905135
 30
0.0
 11
384.6799999999999
 21
290.545135
 31
0.0
  0
ARC
  5
C300
330
C148
100
AcDbEntity
  8
1
  6
Continuous
100
AcDbCircle
 10
388.011482
 20
294.0803629999999
 30
0.0
 40
4.697225
100
AcDbArc
 50
206.286695
 51
222.530249
  0
LINE
  5
C301
330
C148
100
AcDbEntity
  8
1
  6
Continuous
100
AcDbLine
 10
385.225
 20
292.5301349999998
 30
0.0
 11
385.3949999999999
 21
292.8901349999998
 31
0.0
  0
ARC
  5
C302
330
C148
100
AcDbEntity
  8
1
  6
Continuous
100
AcDbCircle
 10
384.67397
 20
291.6102819999998
 30
0.0
 40
0.9569799999999998
100
AcDbArc
 50
106.011913
 51
155.9597349999999
  0
ARC
  5
C303
330
C148
100
AcDbEntity
  8
1
  6
Continuous
100
AcDbCircle
 10
385.1278399999998
 20
297.376284
 30
0.0
 40
3.611148999999998
100
AcDbArc
 50
243.711147
 51
270.0
  0
LINE
  5
C304
330
C148
100
AcDbEntity
  8
1
  6
Continuous
100
AcDbLine
 10
384.3999999999999
 20
288.569274
 30
0.0
 11
384.3999999999999
 21
290.545135
 31
0.0
  0
LINE
  5
C305
330
C148
100
AcDbEntity
  8
4
  6
CENTER
100
AcDbLine
 10
362.3999999999999
 20
292.6255499999999
 30
0.0
 11
362.3999999999999
 21
301.639944
 31
0.0
  0
LINE
  5
C306
330
C148
100
AcDbEntity
  8
1
  6
Continuous
100
AcDbLine
 10
381.3916509999998
 20
295.5358529999998
 30
0.0
 11
381.389113
 21
295.5633129999998
 31
0.0
  0
LINE
  5
C307
330
C148
100
AcDbEntity
  8
1
  6
Continuous
100
AcDbLine
 10
352.4
 20
298.5633199999999
 30
0.0
 11
352.4
 21
295.96332
 31
0.0
  0
ARC
  5
C308
330
C148
100
AcDbEntity
  8
1
  6
Continuous
100
AcDbCircle
 10
355.930406
 20
300.763484
 30
0.0
 40
5.200171
100
AcDbArc
 50
247.3818949999999
 51
270.0
  0
CIRCLE
  5
C309
330
C148
100
AcDbEntity
  8
1
  6
Continuous
100
AcDbCircle
 10
597.1
 20
253.5632129999999
 30
0.0
 40
7.0
  0
CIRCLE
  5
C30A
330
C148
100
AcDbEntity
  8
1
  6
Continuous
100
AcDbCircle
 10
217.7
 20
253.5632129999999
 30
0.0
 40
7.5
  0
LINE
  5
C30B
330
C148
100
AcDbEntity
  8
1
  6
Continuous
100
AcDbLine
 10
432.3999999999998
 20
232.5630729999998
 30
0.0
 11
382.3999999999998
 21
232.5630729999998
 31
0.0
  0
LINE
  5
C30C
330
C148
100
AcDbEntity
  8
1
  6
Continuous
100
AcDbLine
 10
429.3999999999998
 20
239.563073
 30
0.0
 11
385.3999999999999
 21
239.563073
 31
0.0
  0
LINE
  5
C30D
330
C148
100
AcDbEntity
  8
1
  6
Continuous
100
AcDbLine
 10
427.8
 20
228.563073
 30
0.0
 11
387.0
 21
228.563073
 31
0.0
  0
ARC
  5
C30E
330
C148
100
AcDbEntity
  8
1
  6
Continuous
100
AcDbCircle
 10
385.3999999999999
 20
236.5630729999999
 30
0.0
 40
3.0
100
AcDbArc
 50
90.0
 51
180.0
  0
ARC
  5
C30F
330
C148
100
AcDbEntity
  8
1
  6
Continuous
100
AcDbCircle
 10
387.0
 20
231.563073
 30
0.0
 40
3.0
100
AcDbArc
 50
180.0
 51
270.0
  0
LINE
  5
C310
330
C148
100
AcDbEntity
  8
1
  6
Continuous
100
AcDbLine
 10
382.3999999999998
 20
236.5630729999999
 30
0.0
 11
382.3999999999998
 21
232.5630729999998
 31
0.0
  0
LINE
  5
C311
330
C148
100
AcDbEntity
  8
1
  6
Continuous
100
AcDbLine
 10
384.0
 20
232.5630729999998
 30
0.0
 11
384.0
 21
231.563073
 31
0.0
  0
LINE
  5
C312
330
C148
100
AcDbEntity
  8
1
  6
Continuous
100
AcDbLine
 10
422.9
 20
240.063073
 30
0.0
 11
391.9
 21
240.063073
 31
0.0
  0
LINE
  5
C313
330
C148
100
AcDbEntity
  8
1
  6
Continuous
100
AcDbLine
 10
419.3999999999999
 20
240.5630729999999
 30
0.0
 11
395.3999999999999
 21
240.5630729999999
 31
0.0
  0
LINE
  5
C314
330
C148
100
AcDbEntity
  8
1
  6
Continuous
100
AcDbLine
 10
402.5
 20
240.063073
 30
0.0
 11
402.5
 21
240.5630729999999
 31
0.0
  0
LINE
  5
C315
330
C148
100
AcDbEntity
  8
1
  6
Continuous
100
AcDbLine
 10
391.9
 20
240.063073
 30
0.0
 11
391.9
 21
239.563073
 31
0.0
  0
LINE
  5
C316
330
C148
100
AcDbEntity
  8
1
  6
Continuous
100
AcDbLine
 10
412.3
 20
240.5630729999999
 30
0.0
 11
412.3
 21
240.063073
 31
0.0
  0
LINE
  5
C317
330
C148
100
AcDbEntity
  8
1
  6
Continuous
100
AcDbLine
 10
422.9
 20
240.063073
 30
0.0
 11
422.9
 21
239.563073
 31
0.0
  0
ARC
  5
C318
330
C148
100
AcDbEntity
  8
1
  6
Continuous
100
AcDbCircle
 10
429.3999999999998
 20
236.5630729999999
 30
0.0
 40
3.0
100
AcDbArc
 50
0.0
 51
90.0
  0
ARC
  5
C319
330
C148
100
AcDbEntity
  8
1
  6
Continuous
100
AcDbCircle
 10
427.8
 20
231.563073
 30
0.0
 40
3.0
100
AcDbArc
 50
270.0
 51
0.0
  0
LINE
  5
C31A
330
C148
100
AcDbEntity
  8
1
  6
Continuous
100
AcDbLine
 10
432.3999999999998
 20
236.5630729999999
 30
0.0
 11
432.3999999999998
 21
232.5630729999998
 31
0.0
  0
LINE
  5
C31B
330
C148
100
AcDbEntity
  8
1
  6
Continuous
100
AcDbLine
 10
430.7999999999998
 20
232.5630729999998
 30
0.0
 11
430.7999999999998
 21
231.563073
 31
0.0
  0
LINE
  5
C31C
330
C148
100
AcDbEntity
  8
2
  6
Continuous
100
AcDbLine
 10
401.4825
 20
262.963221
 30
0.0
 11
401.4825
 21
249.563073
 31
0.0
  0
LINE
  5
C31D
330
C148
100
AcDbEntity
  8
2
  6
Continuous
100
AcDbLine
 10
413.3174999999998
 20
262.963221
 30
0.0
 11
413.3174999999998
 21
249.563073
 31
0.0
  0
LINE
  5
C31E
330
C148
100
AcDbEntity
  8
1
  6
Continuous
100
AcDbLine
 10
400.3999999999998
 20
262.963221
 30
0.0
 11
400.3999999999998
 21
245.563073
 31
0.0
  0
LINE
  5
C31F
330
C148
100
AcDbEntity
  8
1
  6
Continuous
100
AcDbLine
 10
414.4
 20
262.963221
 30
0.0
 11
414.4
 21
245.563073
 31
0.0
  0
LINE
  5
C320
330
C148
100
AcDbEntity
  8
1
  6
Continuous
100
AcDbLine
 10
414.4
 20
249.563073
 30
0.0
 11
400.3999999999998
 21
249.563073
 31
0.0
  0
LINE
  5
C321
330
C148
100
AcDbEntity
  8
1
  6
Continuous
100
AcDbLine
 10
419.3999999999999
 20
245.563073
 30
0.0
 11
395.3999999999999
 21
245.563073
 31
0.0
  0
LINE
  5
C322
330
C148
100
AcDbEntity
  8
2
  6
Continuous
100
AcDbLine
 10
401.4825
 20
249.563073
 30
0.0
 11
400.3999999999998
 21
247.6881279999998
 31
0.0
  0
LINE
  5
C323
330
C148
100
AcDbEntity
  8
2
  6
Continuous
100
AcDbLine
 10
413.3174999999998
 20
249.563073
 30
0.0
 11
414.4
 21
247.6881279999998
 31
0.0
  0
LINE
  5
C324
330
C148
100
AcDbEntity
  8
1
  6
Continuous
100
AcDbLine
 10
419.3999999999999
 20
245.563073
 30
0.0
 11
419.3999999999999
 21
240.5630729999999
 31
0.0
  0
LINE
  5
C325
330
C148
100
AcDbEntity
  8
1
  6
Continuous
100
AcDbLine
 10
395.3999999999999
 20
245.563073
 30
0.0
 11
395.3999999999999
 21
240.5630729999999
 31
0.0
  0
ARC
  5
C326
330
C148
100
AcDbEntity
  8
1
  6
Continuous
100
AcDbCircle
 10
401.4
 20
257.462052
 30
0.0
 40
16.898979
100
AcDbArc
 50
249.2034279999999
 51
290.7965720000001
  0
LINE
  5
C327
330
C148
100
AcDbEntity
  8
1
  6
Continuous
100
AcDbLine
 10
407.3999999999998
 20
241.664094
 30
0.0
 11
407.3999999999998
 21
245.563073
 31
0.0
  0
ARC
  5
C328
330
C148
100
AcDbEntity
  8
1
  6
Continuous
100
AcDbCircle
 10
413.3999999999998
 20
257.462052
 30
0.0
 40
16.898979
100
AcDbArc
 50
249.2034279999999
 51
290.7965720000001
  0
LINE
  5
C329
330
C148
100
AcDbEntity
  8
1
  6
Continuous
100
AcDbLine
 10
398.3023989999999
 20
262.963221
 30
0.0
 11
416.497601
 21
262.963221
 31
0.0
  0
ARC
  5
C32A
330
C148
100
AcDbEntity
  8
1
  6
Continuous
100
AcDbCircle
 10
418.9
 20
282.9693459999999
 30
0.0
 40
4.599999999999997
100
AcDbArc
 50
0.0
 51
90.0
  0
LINE
  5
C32B
330
C148
100
AcDbEntity
  8
1
  6
Continuous
100
AcDbLine
 10
423.5
 20
282.9693459999999
 30
0.0
 11
423.5
 21
269.569346
 31
0.0
  0
LINE
  5
C32C
330
C148
100
AcDbEntity
  8
1
  6
Continuous
100
AcDbLine
 10
425.5894579999998
 20
269.569346
 30
0.0
 11
389.210542
 21
269.569346
 31
0.0
  0
LINE
  5
C32D
330
C148
100
AcDbEntity
  8
1
  6
Continuous
100
AcDbLine
 10
391.3
 20
282.9693459999999
 30
0.0
 11
391.3
 21
269.569346
 31
0.0
  0
ARC
  5
C32E
330
C148
100
AcDbEntity
  8
1
  6
Continuous
100
AcDbCircle
 10
395.8999999999999
 20
282.9693459999999
 30
0.0
 40
4.599999999999997
100
AcDbArc
 50
90.0
 51
180.0
  0
LINE
  5
C32F
330
C148
100
AcDbEntity
  8
1
  6
Continuous
100
AcDbLine
 10
395.8999999999999
 20
287.5693459999999
 30
0.0
 11
418.9
 21
287.5693459999999
 31
0.0
  0
LINE
  5
C330
330
C148
100
AcDbEntity
  8
1
  6
Continuous
100
AcDbLine
 10
401.9151719999999
 20
269.569346
 30
0.0
 11
401.9151719999999
 21
264.463293
 31
0.0
  0
LINE
  5
C331
330
C148
100
AcDbEntity
  8
1
  6
Continuous
100
AcDbLine
 10
418.3696549999998
 20
269.569346
 30
0.0
 11
418.3696549999998
 21
264.044052
 31
0.0
  0
LINE
  5
C332
330
C148
100
AcDbEntity
  8
1
  6
Continuous
100
AcDbLine
 10
412.8848279999998
 20
269.569346
 30
0.0
 11
412.8848279999998
 21
264.463293
 31
0.0
  0
ARC
  5
C333
330
C148
100
AcDbEntity
  8
1
  6
Continuous
100
AcDbCircle
 10
407.3999999999998
 20
273.7405519999999
 30
0.0
 40
10.777331
100
AcDbArc
 50
239.407908
 51
300.5920919999998
  0
ARC
  5
C334
330
C148
100
AcDbEntity
  8
1
  6
Continuous
100
AcDbCircle
 10
415.627241
 20
266.2200809999998
 30
0.0
 40
3.256859999999998
100
AcDbArc
 50
212.643586
 51
301.527
  0
LINE
  5
C335
330
C148
100
AcDbEntity
  8
1
  6
Continuous
100
AcDbLine
 10
412.8848279999998
 20
295.5633129999998
 30
0.0
 11
412.8848279999998
 21
287.5693459999999
 31
0.0
  0
LINE
  5
C336
330
C148
100
AcDbEntity
  8
1
  6
Continuous
100
AcDbLine
 10
418.3696549999998
 20
295.5633129999998
 30
0.0
 11
418.3696549999998
 21
287.5693459999999
 31
0.0
  0
LINE
  5
C337
330
C148
100
AcDbEntity
  8
1
  6
Continuous
100
AcDbLine
 10
396.430345
 20
295.5633129999998
 30
0.0
 11
396.430345
 21
287.5693459999999
 31
0.0
  0
LINE
  5
C338
330
C148
100
AcDbEntity
  8
1
  6
Continuous
100
AcDbLine
 10
401.9151719999999
 20
295.5633129999998
 30
0.0
 11
401.9151719999999
 21
287.5693459999999
 31
0.0
  0
LINE
  5
C339
330
C148
100
AcDbEntity
  8
1
  6
Continuous
100
AcDbLine
 10
418.3696549999998
 20
288.569274
 30
0.0
 11
430.4
 21
288.569274
 31
0.0
  0
LINE
  5
C33A
330
C148
100
AcDbEntity
  8
1
  6
Continuous
100
AcDbLine
 10
418.3696549999998
 20
290.545135
 30
0.0
 11
430.4
 21
290.545135
 31
0.0
  0
LINE
  5
C33B
330
C148
100
AcDbEntity
  8
1
  6
Continuous
100
AcDbLine
 10
396.430345
 20
292.5301349999998
 30
0.0
 11
384.4099979999999
 21
292.5301349999998
 31
0.0
  0
LINE
  5
C33C
330
C148
100
AcDbEntity
  8
1
  6
Continuous
100
AcDbLine
 10
396.430345
 20
293.7651349999999
 30
0.0
 11
385.1278399999998
 21
293.7651349999999
 31
0.0
  0
LINE
  5
C33D
330
C148
100
AcDbEntity
  8
1
  6
Continuous
100
AcDbLine
 10
418.3696549999998
 20
264.044052
 30
0.0
 11
416.497601
 21
262.963221
 31
0.0
  0
ARC
  5
C33E
330
C148
100
AcDbEntity
  8
1
  6
Continuous
100
AcDbCircle
 10
399.1727589999999
 20
266.2200809999998
 30
0.0
 40
3.256859999999998
100
AcDbArc
 50
238.4729999999999
 51
327.3564139999999
  0
LINE
  5
C33F
330
C148
100
AcDbEntity
  8
1
  6
Continuous
100
AcDbLine
 10
396.430345
 20
264.044052
 30
0.0
 11
398.3023989999999
 21
262.963221
 31
0.0
  0
LINE
  5
C340
330
C148
100
AcDbEntity
  8
1
  6
Continuous
100
AcDbLine
 10
396.430345
 20
269.569346
 30
0.0
 11
396.430345
 21
264.044052
 31
0.0
  0
LINE
  5
C341
330
C148
100
AcDbEntity
  8
1
  6
Continuous
100
AcDbLine
 10
288.7
 20
41.0
 30
0.0
 11
198.6999999999999
 21
41.0
 31
0.0
  0
LINE
  5
C342
330
C148
100
AcDbEntity
  8
1
  6
Continuous
100
AcDbLine
 10
288.7
 20
151.0
 30
0.0
 11
198.6999999999999
 21
151.0
 31
0.0
  0
CIRCLE
  5
C343
330
C148
100
AcDbEntity
  8
1
  6
Continuous
100
AcDbCircle
 10
198.6999999999999
 20
51.0
 30
0.0
 40
4.25
  0
CIRCLE
  5
C344
330
C148
100
AcDbEntity
  8
1
  6
Continuous
100
AcDbCircle
 10
198.6999999999999
 20
141.0
 30
0.0
 40
4.25
  0
LINE
  5
C345
330
C148
100
AcDbEntity
  8
4
  6
CENTER
100
AcDbLine
 10
311.7003199999999
 20
96.0
 30
0.0
 11
183.6999999999999
 21
96.0
 31
0.0
  0
LINE
  5
C346
330
C148
100
AcDbEntity
  8
4
  6
CENTER
100
AcDbLine
 10
205.9499999999999
 20
141.0
 30
0.0
 11
191.4499999999999
 21
141.0
 31
0.0
  0
LINE
  5
C347
330
C148
100
AcDbEntity
  8
4
  6
CENTER
100
AcDbLine
 10
205.9499999999999
 20
51.0
 30
0.0
 11
191.4499999999999
 21
51.0
 31
0.0
  0
LINE
  5
C348
330
C148
100
AcDbEntity
  8
1
  6
Continuous
100
AcDbLine
 10
188.7
 20
51.0
 30
0.0
 11
188.7
 21
141.0
 31
0.0
  0
ARC
  5
C349
330
C148
100
AcDbEntity
  8
1
  6
Continuous
100
AcDbCircle
 10
198.6999999999999
 20
141.0
 30
0.0
 40
10.0
100
AcDbArc
 50
90.0
 51
180.0
  0
LINE
  5
C34A
330
C148
100
AcDbEntity
  8
4
  6
CENTER
100
AcDbLine
 10
198.6999999999999
 20
148.2499999999998
 30
0.0
 11
198.6999999999999
 21
133.75
 31
0.0
  0
ARC
  5
C34B
330
C148
100
AcDbEntity
  8
1
  6
Continuous
100
AcDbCircle
 10
198.6999999999999
 20
51.0
 30
0.0
 40
10.0
100
AcDbArc
 50
180.0
 51
270.0
  0
LINE
  5
C34C
330
C148
100
AcDbEntity
  8
4
  6
CENTER
100
AcDbLine
 10
198.6999999999999
 20
58.25
 30
0.0
 11
198.6999999999999
 21
43.75
 31
0.0
  0
LINE
  5
C34D
330
C148
100
AcDbEntity
  8
1
  6
Continuous
100
AcDbLine
 10
298.7
 20
141.0
 30
0.0
 11
298.7
 21
114.330321
 31
0.0
  0
LINE
  5
C34E
330
C148
100
AcDbEntity
  8
4
  6
CENTER
100
AcDbLine
 10
243.6999999999999
 20
36.0
 30
0.0
 11
243.6999999999999
 21
156.0
 31
0.0
  0
ARC
  5
C34F
330
C148
100
AcDbEntity
  8
1
  6
Continuous
100
AcDbCircle
 10
288.7
 20
141.0
 30
0.0
 40
10.0
100
AcDbArc
 50
0.0
 51
90.0
  0
CIRCLE
  5
C350
330
C148
100
AcDbEntity
  8
1
  6
Continuous
100
AcDbCircle
 10
288.7
 20
141.0
 30
0.0
 40
4.25
  0
LINE
  5
C351
330
C148
100
AcDbEntity
  8
4
  6
CENTER
100
AcDbLine
 10
295.9499999999998
 20
141.0
 30
0.0
 11
281.4499999999998
 21
141.0
 31
0.0
  0
LINE
  5
C352
330
C148
100
AcDbEntity
  8
4
  6
CENTER
100
AcDbLine
 10
288.7
 20
148.2499999999998
 30
0.0
 11
288.7
 21
133.75
 31
0.0
  0
ARC
  5
C353
330
C148
100
AcDbEntity
  8
1
  6
Continuous
100
AcDbCircle
 10
288.7
 20
51.0
 30
0.0
 40
10.0
100
AcDbArc
 50
270.0
 51
0.0
  0
CIRCLE
  5
C354
330
C148
100
AcDbEntity
  8
1
  6
Continuous
100
AcDbCircle
 10
288.7
 20
51.0
 30
0.0
 40
4.25
  0
LINE
  5
C355
330
C148
100
AcDbEntity
  8
4
  6
CENTER
100
AcDbLine
 10
295.9499999999998
 20
51.0
 30
0.0
 11
281.4499999999998
 21
51.0
 31
0.0
  0
LINE
  5
C356
330
C148
100
AcDbEntity
  8
4
  6
CENTER
100
AcDbLine
 10
288.7
 20
58.25
 30
0.0
 11
288.7
 21
43.75
 31
0.0
  0
CIRCLE
  5
C357
330
C148
100
AcDbEntity
  8
1
  6
Continuous
100
AcDbCircle
 10
281.7000199999998
 20
96.0
 30
0.0
 40
25.0
  0
CIRCLE
  5
C358
330
C148
100
AcDbEntity
  8
1
  6
Continuous
100
AcDbCircle
 10
281.7000199999998
 20
96.0
 30
0.0
 40
23.39999999999999
  0
LINE
  5
C359
330
C148
100
AcDbEntity
  8
4
  6
CENTER
100
AcDbLine
 10
281.6999999999998
 20
126.0
 30
0.0
 11
281.6999999999998
 21
66.0
 31
0.0
  0
LINE
  5
C35A
330
C148
100
AcDbEntity
  8
1
  6
Continuous
100
AcDbLine
 10
298.7
 20
77.669679
 30
0.0
 11
298.7
 21
51.0
 31
0.0
  0
LINE
  5
C35B
330
C148
100
AcDbEntity
  8
4
  6
CENTER
100
AcDbLine
 10
217.7
 20
67.9
 30
0.0
 11
217.7
 21
127.407375
 31
0.0
  0
LINE
  5
C35C
330
C148
100
AcDbEntity
  8
1
  6
Continuous
100
AcDbLine
 10
224.6999999999999
 20
75.573762
 30
0.0
 11
210.6999999999999
 21
75.573762
 31
0.0
  0
ARC
  5
C35D
330
C148
100
AcDbEntity
  8
1
  6
Continuous
100
AcDbCircle
 10
217.7
 20
83.40000000000001
 30
0.0
 40
10.5
100
AcDbArc
 50
228.1896849999998
 51
311.810315
  0
LINE
  5
C35E
330
C148
100
AcDbEntity
  8
1
  6
Continuous
100
AcDbLine
 10
224.6999999999999
 20
75.573762
 30
0.0
 11
224.6999999999999
 21
77.9
 31
0.0
  0
LINE
  5
C35F
330
C148
100
AcDbEntity
  8
1
  6
Continuous
100
AcDbLine
 10
210.6999999999999
 20
75.573762
 30
0.0
 11
210.6999999999999
 21
77.9
 31
0.0
  0
LINE
  5
C360
330
C148
100
AcDbEntity
  8
1
  6
Continuous
100
AcDbLine
 10
196.480884
 20
114.1
 30
0.0
 11
225.5126579999999
 21
114.1
 31
0.0
  0
LINE
  5
C361
330
C148
100
AcDbEntity
  8
2
  6
Continuous
100
AcDbLine
 10
221.0235
 20
121.1
 30
0.0
 11
221.0235
 21
122.3999999999999
 31
0.0
  0
LINE
  5
C362
330
C148
100
AcDbEntity
  8
2
  6
Continuous
100
AcDbLine
 10
214.3765
 20
121.1
 30
0.0
 11
214.3765
 21
122.3999999999999
 31
0.0
  0
LINE
  5
C363
330
C148
100
AcDbEntity
  8
1
  6
Continuous
100
AcDbLine
 10
221.7
 20
121.1
 30
0.0
 11
221.7
 21
121.7999999999999
 31
0.0
  0
LINE
  5
C364
330
C148
100
AcDbEntity
  8
1
  6
Continuous
100
AcDbLine
 10
213.7
 20
121.1
 30
0.0
 11
213.7
 21
121.7999999999999
 31
0.0
  0
LINE
  5
C365
330
C148
100
AcDbEntity
  8
1
  6
Continuous
100
AcDbLine
 10
225.1999999999999
 20
116.1
 30
0.0
 11
210.1999999999999
 21
116.1
 31
0.0
  0
LINE
  5
C366
330
C148
100
AcDbEntity
  8
1
  6
Continuous
100
AcDbLine
 10
195.399509
 20
111.4999999999999
 30
0.0
 11
225.7
 21
111.4999999999999
 31
0.0
  0
LINE
  5
C367
330
C148
100
AcDbEntity
  8
1
  6
Continuous
100
AcDbLine
 10
225.1999999999999
 20
114.1
 30
0.0
 11
225.1999999999999
 21
116.1
 31
0.0
  0
LINE
  5
C368
330
C148
100
AcDbEntity
  8
1
  6
Continuous
100
AcDbLine
 10
210.1999999999999
 20
114.1
 30
0.0
 11
210.1999999999999
 21
116.1
 31
0.0
  0
LINE
  5
C369
330
C148
100
AcDbEntity
  8
1
  6
Continuous
100
AcDbLine
 10
213.7
 20
121.7999999999999
 30
0.0
 11
221.7
 21
121.7999999999999
 31
0.0
  0
LINE
  5
C36A
330
C148
100
AcDbEntity
  8
1
  6
Continuous
100
AcDbLine
 10
221.0999999999999
 20
122.3999999999999
 30
0.0
 11
214.3
 21
122.3999999999999
 31
0.0
  0
LINE
  5
C36B
330
C148
100
AcDbEntity
  8
1
  6
Continuous
100
AcDbLine
 10
221.0999999999999
 20
122.3999999999999
 30
0.0
 11
221.7
 21
121.7999999999999
 31
0.0
  0
LINE
  5
C36C
330
C148
100
AcDbEntity
  8
1
  6
Continuous
100
AcDbLine
 10
214.3
 20
122.3999999999999
 30
0.0
 11
213.7
 21
121.7999999999999
 31
0.0
  0
ARC
  5
C36D
330
C148
100
AcDbEntity
  8
1
  6
Continuous
100
AcDbCircle
 10
264.380659
 20
96.0
 30
0.0
 40
72.636893
100
AcDbArc
 50
167.542649
 51
192.4573509999999
  0
ARC
  5
C36E
330
C148
100
AcDbEntity
  8
1
  6
Continuous
100
AcDbCircle
 10
245.447533
 20
96.0
 30
0.0
 40
52.747533
100
AcDbArc
 50
163.3158889999999
 51
164.8519359999999
  0
ARC
  5
C36F
330
C148
100
AcDbEntity
  8
1
  6
Continuous
100
AcDbCircle
 10
195.399509
 20
111.0
 30
0.0
 40
0.5
100
AcDbArc
 50
90.0
 51
163.3158889999999
  0
ARC
  5
C370
330
C148
100
AcDbEntity
  8
1
  6
Continuous
100
AcDbCircle
 10
195.399509
 20
81.0
 30
0.0
 40
0.5
100
AcDbArc
 50
196.684111
 51
270.0
  0
ARC
  5
C371
330
C148
100
AcDbEntity
  8
1
  6
Continuous
100
AcDbCircle
 10
196.480884
 20
81.0
 30
0.0
 40
3.1
100
AcDbArc
 50
192.4573509999999
 51
270.0
  0
ARC
  5
C372
330
C148
100
AcDbEntity
  8
1
  6
Continuous
100
AcDbCircle
 10
196.480884
 20
111.0
 30
0.0
 40
3.1
100
AcDbArc
 50
90.0
 51
167.542649
  0
ARC
  5
C373
330
C148
100
AcDbEntity
  8
1
  6
Continuous
100
AcDbCircle
 10
245.447533
 20
96.0
 30
0.0
 40
52.747533
100
AcDbArc
 50
195.1480639999998
 51
196.684111
  0
ARC
  5
C374
330
C148
100
AcDbEntity
  8
1
  6
Continuous
100
AcDbCircle
 10
281.6999999999998
 20
102.4999999999999
 30
0.0
 40
6.5
100
AcDbArc
 50
0.0
 51
180.0
  0
LINE
  5
C375
330
C148
100
AcDbEntity
  8
1
  6
Continuous
100
AcDbLine
 10
288.2
 20
102.4999999999999
 30
0.0
 11
288.2
 21
96.0
 31
0.0
  0
LINE
  5
C376
330
C148
100
AcDbEntity
  8
1
  6
Continuous
100
AcDbLine
 10
275.1999999999998
 20
102.4999999999999
 30
0.0
 11
275.1999999999998
 21
96.0
 31
0.0
  0
CIRCLE
  5
C377
330
C148
100
AcDbEntity
  8
1
  6
Continuous
100
AcDbCircle
 10
281.6999999999998
 20
96.0
 30
0.0
 40
3.5
  0
LINE
  5
C378
330
C148
100
AcDbEntity
  8
1
  6
Continuous
100
AcDbLine
 10
281.6999999999998
 20
96.92897999999999
 30
0.0
 11
281.207214
 21
97.108339
 31
0.0
  0
LINE
  5
C379
330
C148
100
AcDbEntity
  8
1
  6
Continuous
100
AcDbLine
 10
281.6999999999998
 20
96.92897999999999
 30
0.0
 11
282.192786
 21
97.108339
 31
0.0
  0
LINE
  5
C37A
330
C148
100
AcDbEntity
  8
1
  6
Continuous
100
AcDbLine
 10
282.8083389999998
 20
96.492786
 30
0.0
 11
283.4158049999999
 21
97.12183500000001
 31
0.0
  0
LINE
  5
C37B
330
C148
100
AcDbEntity
  8
1
  6
Continuous
100
AcDbLine
 10
280.591661
 20
96.492786
 30
0.0
 11
279.984195
 21
97.12183500000001
 31
0.0
  0
ARC
  5
C37C
330
C148
100
AcDbEntity
  8
1
  6
Continuous
100
AcDbCircle
 10
281.6999999999998
 20
96.0
 30
0.0
 40
4.299999999999998
100
AcDbArc
 50
5.886828999999999
 51
64.113162
  0
ARC
  5
C37D
330
C148
100
AcDbEntity
  8
1
  6
Continuous
100
AcDbCircle
 10
281.6999999999998
 20
96.0
 30
0.0
 40
4.299999999999998
100
AcDbArc
 50
115.8868629999999
 51
174.113188
  0
ARC
  5
C37E
330
C148
100
AcDbEntity
  8
1
  6
Continuous
100
AcDbCircle
 10
281.6999999999998
 20
96.0
 30
0.0
 40
5.5
100
AcDbArc
 50
318.5691279999999
 51
221.430826
  0
ARC
  5
C37F
330
C148
100
AcDbEntity
  8
1
  6
Continuous
100
AcDbCircle
 10
281.6999999999998
 20
96.0
 30
0.0
 40
6.5
100
AcDbArc
 50
180.0
 51
0.0
  0
LINE
  5
C380
330
C148
100
AcDbEntity
  8
1
  6
Continuous
100
AcDbLine
 10
277.8205669999999
 20
96.0
 30
0.0
 11
278.2
 21
96.0
 31
0.0
  0
ARC
  5
C381
330
C148
100
AcDbEntity
  8
1
  6
Continuous
100
AcDbCircle
 10
277.8205669999999
 20
96.40000200000001
 30
0.0
 40
0.4
100
AcDbArc
 50
174.1132429999999
 51
270.000001
  0
LINE
  5
C382
330
C148
100
AcDbEntity
  8
1
  6
Continuous
100
AcDbLine
 10
278.2226609999999
 20
92.42525500000001
 30
0.0
 11
279.0004259999999
 21
93.77237800000001
 31
0.0
  0
ARC
  5
C383
330
C148
100
AcDbEntity
  8
1
  6
Continuous
100
AcDbCircle
 10
277.87625
 20
92.625252
 30
0.0
 40
0.4
100
AcDbArc
 50
221.430871
 51
329.999948
  0
ARC
  5
C384
330
C148
100
AcDbEntity
  8
1
  6
Continuous
100
AcDbCircle
 10
281.6999999999998
 20
96.0
 30
0.0
 40
2.049999999999998
100
AcDbArc
 50
303.17764
 51
326.82236
  0
LINE
  5
C385
330
C148
100
AcDbEntity
  8
1
  6
Continuous
100
AcDbLine
 10
282.6289799999999
 20
96.0
 30
0.0
 11
282.8083389999998
 21
96.492786
 31
0.0
  0
LINE
  5
C386
330
C148
100
AcDbEntity
  8
1
  6
Continuous
100
AcDbLine
 10
282.8083389999998
 20
95.507214
 30
0.0
 11
283.4158049999999
 21
94.87816499999999
 31
0.0
  0
LINE
  5
C387
330
C148
100
AcDbEntity
  8
1
  6
Continuous
100
AcDbLine
 10
282.6289799999999
 20
96.0
 30
0.0
 11
282.8083389999998
 21
95.507214
 31
0.0
  0
LINE
  5
C388
330
C148
100
AcDbEntity
  8
1
  6
Continuous
100
AcDbLine
 10
281.6999999999998
 20
95.07102000000001
 30
0.0
 11
282.192786
 21
94.89166100000002
 31
0.0
  0
LINE
  5
C389
330
C148
100
AcDbEntity
  8
1
  6
Continuous
100
AcDbLine
 10
282.192786
 20
94.89166100000002
 30
0.0
 11
282.821835
 21
94.284195
 31
0.0
  0
ARC
  5
C38A
330
C148
100
AcDbEntity
  8
1
  6
Continuous
100
AcDbCircle
 10
281.6999999999998
 20
96.0
 30
0.0
 40
2.049999999999998
100
AcDbArc
 50
213.17764
 51
236.8223599999998
  0
LINE
  5
C38B
330
C148
100
AcDbEntity
  8
1
  6
Continuous
100
AcDbLine
 10
280.591661
 20
95.507214
 30
0.0
 11
279.984195
 21
94.87816499999999
 31
0.0
  0
LINE
  5
C38C
330
C148
100
AcDbEntity
  8
1
  6
Continuous
100
AcDbLine
 10
280.77102
 20
96.0
 30
0.0
 11
280.591661
 21
95.507214
 31
0.0
  0
LINE
  5
C38D
330
C148
100
AcDbEntity
  8
1
  6
Continuous
100
AcDbLine
 10
280.77102
 20
96.0
 30
0.0
 11
280.591661
 21
96.492786
 31
0.0
  0
LINE
  5
C38E
330
C148
100
AcDbEntity
  8
1
  6
Continuous
100
AcDbLine
 10
281.207214
 20
94.89166100000002
 30
0.0
 11
280.578165
 21
94.284195
 31
0.0
  0
LINE
  5
C38F
330
C148
100
AcDbEntity
  8
1
  6
Continuous
100
AcDbLine
 10
281.6999999999998
 20
95.07102000000001
 30
0.0
 11
281.207214
 21
94.89166100000002
 31
0.0
  0
LINE
  5
C390
330
C148
100
AcDbEntity
  8
1
  6
Continuous
100
AcDbLine
 10
285.1999999999998
 20
96.0
 30
0.0
 11
285.579433
 21
96.0
 31
0.0
  0
ARC
  5
C391
330
C148
100
AcDbEntity
  8
1
  6
Continuous
100
AcDbCircle
 10
285.579433
 20
96.40000200000001
 30
0.0
 40
0.4
100
AcDbArc
 50
270.0000179999999
 51
5.886752999999998
  0
LINE
  5
C392
330
C148
100
AcDbEntity
  8
1
  6
Continuous
100
AcDbLine
 10
284.399577
 20
93.77238099999999
 30
0.0
 11
285.177341
 21
92.42525500000001
 31
0.0
  0
ARC
  5
C393
330
C148
100
AcDbEntity
  8
1
  6
Continuous
100
AcDbCircle
 10
285.52375
 20
92.625252
 30
0.0
 40
0.4
100
AcDbArc
 50
209.999934
 51
318.568933
  0
ARC
  5
C394
330
C148
100
AcDbEntity
  8
1
  6
Continuous
100
AcDbCircle
 10
281.6999999999998
 20
96.0
 30
0.0
 40
2.049999999999998
100
AcDbArc
 50
33.17763999999999
 51
56.82235999999999
  0
LINE
  5
C395
330
C148
100
AcDbEntity
  8
1
  6
Continuous
100
AcDbLine
 10
282.192786
 20
97.108339
 30
0.0
 11
282.821835
 21
97.715805
 31
0.0
  0
ARC
  5
C396
330
C148
100
AcDbEntity
  8
1
  6
Continuous
100
AcDbCircle
 10
281.6999999999998
 20
96.0
 30
0.0
 40
2.049999999999998
100
AcDbArc
 50
123.1776399999999
 51
146.8223599999998
  0
LINE
  5
C397
330
C148
100
AcDbEntity
  8
1
  6
Continuous
100
AcDbLine
 10
281.207214
 20
97.108339
 30
0.0
 11
280.578165
 21
97.715805
 31
0.0
  0
LINE
  5
C398
330
C148
100
AcDbEntity
  8
1
  6
Continuous
100
AcDbLine
 10
280.373155
 20
99.645477
 30
0.0
 11
280.50293
 21
99.288924
 31
0.0
  0
LINE
  5
C399
330
C148
100
AcDbEntity
  8
1
  6
Continuous
100
AcDbLine
 10
282.8970689999998
 20
99.28892500000001
 30
0.0
 11
283.0268429999999
 21
99.645477
 31
0.0
  0
ARC
  5
C39A
330
C148
100
AcDbEntity
  8
1
  6
Continuous
100
AcDbCircle
 10
283.4027209999998
 20
99.508667
 30
0.0
 40
0.4
100
AcDbArc
 50
64.113073
 51
159.9999949999999
  0
ARC
  5
C39B
330
C148
100
AcDbEntity
  8
1
  6
Continuous
100
AcDbCircle
 10
279.9972789999998
 20
99.508667
 30
0.0
 40
0.4
100
AcDbArc
 50
20.000122
 51
115.886945
  0
ARC
  5
C39C
330
C148
100
AcDbEntity
  8
1
  6
Continuous
100
AcDbCircle
 10
243.6999999999999
 20
96.0
 30
0.0
 40
6.75
100
AcDbArc
 50
259.1113849999999
 51
100.888615
  0
ARC
  5
C39D
330
C148
100
AcDbEntity
  8
1
  6
Continuous
100
AcDbCircle
 10
243.6999999999999
 20
96.0
 30
0.0
 40
15.0
100
AcDbArc
 50
23.68178599999998
 51
111.03947
  0
ARC
  5
C39E
330
C148
100
AcDbEntity
  8
1
  6
Continuous
100
AcDbCircle
 10
243.6999999999999
 20
96.0
 30
0.0
 40
16.5
100
AcDbArc
 50
29.516243
 51
121.9527459999999
  0
ARC
  5
C39F
330
C148
100
AcDbEntity
  8
1
  6
Continuous
100
AcDbCircle
 10
243.6999999999999
 20
96.0
 30
0.0
 40
16.5
100
AcDbArc
 50
238.047254
 51
330.4837569999999
  0
ARC
  5
C3A0
330
C148
100
AcDbEntity
  8
1
  6
Continuous
100
AcDbCircle
 10
243.6999999999999
 20
96.0
 30
0.0
 40
15.0
100
AcDbArc
 50
248.96053
 51
336.318214
  0
LINE
  5
C3A1
330
C148
100
AcDbEntity
  8
1
  6
Continuous
100
AcDbLine
 10
94.0
 20
232.5632129999999
 30
0.0
 11
105.0
 21
232.5632129999999
 31
0.0
  0
LINE
  5
C3A2
330
C148
100
AcDbEntity
  8
1
  6
Continuous
100
AcDbLine
 10
98.1
 20
239.563213
 30
0.0
 11
102.0
 21
239.563213
 31
0.0
  0
LINE
  5
C3A3
330
C148
100
AcDbEntity
  8
1
  6
Continuous
100
AcDbLine
 10
64.5
 20
239.563213
 30
0.0
 11
65.52657700000001
 21
239.563213
 31
0.0
  0
LINE
  5
C3A4
330
C148
100
AcDbEntity
  8
5
  6
PHANTOM
100
AcDbLine
 10
306.7
 20
224.563213
 30
0.0
 11
256.6999999999998
 21
224.563213
 31
0.0
  0
LINE
  5
C3A5
330
C148
100
AcDbEntity
  8
5
  6
PHANTOM
100
AcDbLine
 10
303.6999999999999
 20
231.563213
 30
0.0
 11
259.6999999999998
 21
231.563213
 31
0.0
  0
LINE
  5
C3A6
330
C148
100
AcDbEntity
  8
5
  6
PHANTOM
100
AcDbLine
 10
302.1
 20
220.563213
 30
0.0
 11
261.2999999999999
 21
220.563213
 31
0.0
  0
ARC
  5
C3A7
330
C148
100
AcDbEntity
  8
5
  6
PHANTOM
100
AcDbCircle
 10
302.1
 20
223.5632129999999
 30
0.0
 40
3.0
100
AcDbArc
 50
270.0
 51
0.0
  0
ARC
  5
C3A8
330
C148
100
AcDbEntity
  8
5
  6
PHANTOM
100
AcDbCircle
 10
303.6999999999999
 20
228.5632129999999
 30
0.0
 40
3.0
100
AcDbArc
 50
0.0
 51
90.0
  0
LINE
  5
C3A9
330
C148
100
AcDbEntity
  8
5
  6
PHANTOM
100
AcDbLine
 10
306.7
 20
228.5632129999999
 30
0.0
 11
306.7
 21
224.563213
 31
0.0
  0
LINE
  5
C3AA
330
C148
100
AcDbEntity
  8
5
  6
PHANTOM
100
AcDbLine
 10
305.1
 20
224.563213
 30
0.0
 11
305.1
 21
223.5632129999999
 31
0.0
  0
ARC
  5
C3AB
330
C148
100
AcDbEntity
  8
5
  6
PHANTOM
100
AcDbCircle
 10
259.6999999999998
 20
228.5632129999999
 30
0.0
 40
3.0
100
AcDbArc
 50
90.0
 51
180.0
  0
ARC
  5
C3AC
330
C148
100
AcDbEntity
  8
5
  6
PHANTOM
100
AcDbCircle
 10
261.2999999999999
 20
223.5632129999999
 30
0.0
 40
3.0
100
AcDbArc
 50
180.0
 51
270.0
  0
LINE
  5
C3AD
330
C148
100
AcDbEntity
  8
5
  6
PHANTOM
100
AcDbLine
 10
256.6999999999998
 20
228.5632129999999
 30
0.0
 11
256.6999999999998
 21
224.563213
 31
0.0
  0
LINE
  5
C3AE
330
C148
100
AcDbEntity
  8
5
  6
PHANTOM
100
AcDbLine
 10
258.3
 20
224.563213
 30
0.0
 11
258.3
 21
223.5632129999999
 31
0.0
  0
LINE
  5
C3AF
330
C148
100
AcDbEntity
  8
1
  6
Continuous
100
AcDbLine
 10
557.8104299999998
 20
290.545135
 30
0.0
 11
559.7862919999998
 21
288.569274
 31
0.0
  0
LINE
  5
C3B0
330
C148
100
AcDbEntity
  8
1
  6
Continuous
100
AcDbLine
 10
559.224644
 20
290.545135
 30
0.0
 11
561.200505
 21
288.569274
 31
0.0
  0
LINE
  5
C3B1
330
C148
100
AcDbEntity
  8
1
  6
Continuous
100
AcDbLine
 10
560.34794
 20
290.545135
 30
0.0
 11
558.372078
 21
288.569274
 31
0.0
  0
LINE
  5
C3B2
330
C148
100
AcDbEntity
  8
1
  6
Continuous
100
AcDbLine
 10
519.630406
 20
295.5633129999998
 30
0.0
 11
622.5695940000001
 21
295.5633129999998
 31
0.0
  0
LINE
  5
C3B3
330
C148
100
AcDbEntity
  8
1
  6
Continuous
100
AcDbLine
 10
545.0916509999998
 20
295.5358529999998
 30
0.0
 11
597.1083489999997
 21
295.5358529999998
 31
0.0
  0
LINE
  5
C3B4
330
C148
100
AcDbEntity
  8
1
  6
Continuous
100
AcDbLine
 10
548.827841
 20
293.7651349999999
 30
0.0
 11
593.37216
 21
293.7651349999999
 31
0.0
  0
LINE
  5
C3B5
330
C148
100
AcDbEntity
  8
1
  6
Continuous
100
AcDbLine
 10
516.1
 20
295.9632669999999
 30
0.0
 11
626.1
 21
295.96332
 31
0.0
  0
LINE
  5
C3B6
330
C148
100
AcDbEntity
  8
1
  6
Continuous
100
AcDbLine
 10
594.09
 20
292.5301349999998
 30
0.0
 11
548.109999
 21
292.5301349999998
 31
0.0
  0
LINE
  5
C3B7
330
C148
100
AcDbEntity
  8
1
  6
Continuous
100
AcDbLine
 10
594.1
 20
288.569274
 30
0.0
 11
548.1
 21
288.569274
 31
0.0
  0
LINE
  5
C3B8
330
C148
100
AcDbEntity
  8
1
  6
Continuous
100
AcDbLine
 10
594.1
 20
290.545135
 30
0.0
 11
548.1
 21
290.545135
 31
0.0
  0
ARC
  5
C3B9
330
C148
100
AcDbEntity
  8
1
  6
Continuous
100
AcDbCircle
 10
555.5381109999998
 20
259.569274
 30
0.0
 40
10.0
100
AcDbArc
 50
45.24111099999998
 51
90.0
  0
LINE
  5
C3BA
330
C148
100
AcDbEntity
  8
4
  6
CENTER
100
AcDbLine
 10
597.1
 20
225.5632129999999
 30
0.0
 11
597.1
 21
281.5632129999999
 31
0.0
  0
ARC
  5
C3BB
330
C148
100
AcDbEntity
  8
1
  6
Continuous
100
AcDbCircle
 10
597.1
 20
253.5632129999999
 30
0.0
 40
25.0
100
AcDbArc
 50
172.1110089999999
 51
32.90010199999999
  0
LINE
  5
C3BC
330
C148
100
AcDbEntity
  8
1
  6
Continuous
100
AcDbLine
 10
611.1746819999998
 20
248.3763689999999
 30
0.0
 11
620.7649750000001
 21
274.3999679999999
 31
0.0
  0
LINE
  5
C3BD
330
C148
100
AcDbEntity
  8
1
  6
Continuous
100
AcDbLine
 10
586.5381269999998
 20
242.91207
 30
0.0
 11
562.5793599999998
 21
266.6700349999999
 31
0.0
  0
LINE
  5
C3BE
330
C148
100
AcDbEntity
  8
4
  6
CENTER
100
AcDbLine
 10
569.1
 20
253.5632129999999
 30
0.0
 11
625.1
 21
253.5632129999999
 31
0.0
  0
ARC
  5
C3BF
330
C148
100
AcDbEntity
  8
1
  6
Continuous
100
AcDbCircle
 10
597.1
 20
253.5632129999999
 30
0.0
 40
15.0
100
AcDbArc
 50
225.241111
 51
339.7699999999999
  0
ARC
  5
C3C0
330
C148
100
AcDbEntity
  8
1
  6
Continuous
100
AcDbCircle
 10
622.5695940000001
 20
300.763484
 30
0.0
 40
5.200171
100
AcDbArc
 50
270.0
 51
292.6181049999998
  0
ARC
  5
C3C1
330
C148
100
AcDbEntity
  8
1
  6
Continuous
100
AcDbCircle
 10
593.700118
 20
246.878095
 30
0.0
 40
38.6
100
AcDbArc
 50
40.489838
 51
91.121292
  0
LINE
  5
C3C2
330
C148
100
AcDbEntity
  8
1
  6
Continuous
100
AcDbLine
 10
626.1
 20
295.96332
 30
0.0
 11
626.1
 21
298.5633199999999
 31
0.0
  0
LINE
  5
C3C3
330
C148
100
AcDbEntity
  8
1
  6
Continuous
100
AcDbLine
 10
590.337342
 20
290.545135
 30
0.0
 11
592.313204
 21
288.569274
 31
0.0
  0
LINE
  5
C3C4
330
C148
100
AcDbEntity
  8
1
  6
Continuous
100
AcDbLine
 10
592.1677449999997
 20
290.545135
 30
0.0
 11
590.1918829999997
 21
288.569274
 31
0.0
  0
LINE
  5
C3C5
330
C148
100
AcDbEntity
  8
1
  6
Continuous
100
AcDbLine
 10
593.8200000000001
 20
290.545135
 30
0.0
 11
590.9769660000002
 21
290.545135
 31
0.0
  0
ARC
  5
C3C6
330
C148
100
AcDbEntity
  8
1
  6
Continuous
100
AcDbCircle
 10
587.0400499999998
 20
276.0735669999998
 30
0.0
 40
13.73005499999998
100
AcDbArc
 50
42.33363899999999
 51
65.51900899999999
  0
ARC
  5
C3C7
330
C148
100
AcDbEntity
  8
1
  6
Continuous
100
AcDbCircle
 10
593.700118
 20
246.878095
 30
0.0
 40
36.0
100
AcDbArc
 50
40.489838
 51
43.597852
  0
LINE
  5
C3C8
330
C148
100
AcDbEntity
  8
1
  6
Continuous
100
AcDbLine
 10
623.056234
 20
271.9415829999999
 30
0.0
 11
621.078879
 21
270.253369
 31
0.0
  0
LINE
  5
C3C9
330
C148
100
AcDbEntity
  8
4
  6
CENTER
100
AcDbLine
 10
616.1
 20
293.306038
 30
0.0
 11
616.1
 21
301.327896
 31
0.0
  0
LINE
  5
C3CA
330
C148
100
AcDbEntity
  8
1
  6
Continuous
100
AcDbLine
 10
593.1657689999998
 20
290.545135
 30
0.0
 11
594.1
 21
289.610904
 31
0.0
  0
LINE
  5
C3CB
330
C148
100
AcDbEntity
  8
1
  6
Continuous
100
AcDbLine
 10
591.7515559999999
 20
290.545135
 30
0.0
 11
593.7274169999998
 21
288.569274
 31
0.0
  0
LINE
  5
C3CC
330
C148
100
AcDbEntity
  8
1
  6
Continuous
100
AcDbLine
 10
594.1
 20
290.3560699999999
 30
0.0
 11
592.313204
 21
288.569274
 31
0.0
  0
ARC
  5
C3CD
330
C148
100
AcDbEntity
  8
1
  6
Continuous
100
AcDbCircle
 10
588.286418
 20
288.9791629999999
 30
0.0
 40
6.206
100
AcDbArc
 50
39.064301
 51
50.460397
  0
LINE
  5
C3CE
330
C148
100
AcDbEntity
  8
1
  6
Continuous
100
AcDbLine
 10
593.9500000000001
 20
290.905135
 30
0.0
 11
593.8200000000001
 21
290.545135
 31
0.0
  0
ARC
  5
C3CF
330
C148
100
AcDbEntity
  8
1
  6
Continuous
100
AcDbCircle
 10
590.4885179999999
 20
294.0803629999999
 30
0.0
 40
4.697225
100
AcDbArc
 50
317.4697509999999
 51
333.713305
  0
LINE
  5
C3D0
330
C148
100
AcDbEntity
  8
1
  6
Continuous
100
AcDbLine
 10
593.2749999999997
 20
292.5301349999998
 30
0.0
 11
593.1049999999998
 21
292.8901349999998
 31
0.0
  0
ARC
  5
C3D1
330
C148
100
AcDbEntity
  8
1
  6
Continuous
100
AcDbCircle
 10
593.8260299999998
 20
291.6102819999998
 30
0.0
 40
0.9569799999999998
100
AcDbArc
 50
24.04026499999999
 51
73.98808699999998
  0
ARC
  5
C3D2
330
C148
100
AcDbEntity
  8
1
  6
Continuous
100
AcDbCircle
 10
593.37216
 20
297.376284
 30
0.0
 40
3.611148999999998
100
AcDbArc
 50
270.0
 51
296.2888529999998
  0
LINE
  5
C3D3
330
C148
100
AcDbEntity
  8
1
  6
Continuous
100
AcDbLine
 10
597.1083489999997
 20
295.5358529999998
 30
0.0
 11
597.1108870000001
 21
295.5633129999998
 31
0.0
  0
ARC
  5
C3D4
330
C148
100
AcDbEntity
  8
1
  6
Continuous
100
AcDbCircle
 10
590.259318
 20
303.6777269999999
 30
0.0
 40
10.63951799999999
100
AcDbArc
 50
296.2888529999998
 51
310.0709029999998
  0
LINE
  5
C3D5
330
C148
100
AcDbEntity
  8
1
  6
Continuous
100
AcDbLine
 10
594.1
 20
288.569274
 30
0.0
 11
594.1
 21
290.545135
 31
0.0
  0
LINE
  5
C3D6
330
C148
100
AcDbEntity
  8
4
  6
CENTER
100
AcDbLine
 10
571.1
 20
302.757111
 30
0.0
 11
571.1
 21
276.5841029999999
 31
0.0
  0
LINE
  5
C3D7
330
C148
100
AcDbEntity
  8
1
  6
Continuous
100
AcDbLine
 10
574.7809929999997
 20
290.545135
 30
0.0
 11
576.756854
 21
288.569274
 31
0.0
  0
LINE
  5
C3D8
330
C148
100
AcDbEntity
  8
1
  6
Continuous
100
AcDbLine
 10
577.3185019999997
 20
290.545135
 30
0.0
 11
575.3426410000002
 21
288.569274
 31
0.0
  0
LINE
  5
C3D9
330
C148
100
AcDbEntity
  8
1
  6
Continuous
100
AcDbLine
 10
588.923128
 20
290.545135
 30
0.0
 11
590.89899
 21
288.569274
 31
0.0
  0
LINE
  5
C3DA
330
C148
100
AcDbEntity
  8
1
  6
Continuous
100
AcDbLine
 10
587.5089149999999
 20
290.545135
 30
0.0
 11
589.484776
 21
288.569274
 31
0.0
  0
LINE
  5
C3DB
330
C148
100
AcDbEntity
  8
1
  6
Continuous
100
AcDbLine
 10
586.094701
 20
290.545135
 30
0.0
 11
588.070563
 21
288.569274
 31
0.0
  0
LINE
  5
C3DC
330
C148
100
AcDbEntity
  8
1
  6
Continuous
100
AcDbLine
 10
584.6804879999997
 20
290.545135
 30
0.0
 11
586.6563489999997
 21
288.569274
 31
0.0
  0
LINE
  5
C3DD
330
C148
100
AcDbEntity
  8
1
  6
Continuous
100
AcDbLine
 10
583.2662739999998
 20
290.545135
 30
0.0
 11
585.2421360000001
 21
288.569274
 31
0.0
  0
LINE
  5
C3DE
330
C148
100
AcDbEntity
  8
1
  6
Continuous
100
AcDbLine
 10
581.8520610000001
 20
290.545135
 30
0.0
 11
583.8279219999998
 21
288.569274
 31
0.0
  0
LINE
  5
C3DF
330
C148
100
AcDbEntity
  8
1
  6
Continuous
100
AcDbLine
 10
580.4378469999997
 20
290.545135
 30
0.0
 11
582.413709
 21
288.569274
 31
0.0
  0
LINE
  5
C3E0
330
C148
100
AcDbEntity
  8
1
  6
Continuous
100
AcDbLine
 10
579.0236339999998
 20
290.545135
 30
0.0
 11
580.999495
 21
288.569274
 31
0.0
  0
LINE
  5
C3E1
330
C148
100
AcDbEntity
  8
1
  6
Continuous
100
AcDbLine
 10
577.60942
 20
290.545135
 30
0.0
 11
579.585282
 21
288.569274
 31
0.0
  0
LINE
  5
C3E2
330
C148
100
AcDbEntity
  8
1
  6
Continuous
100
AcDbLine
 10
576.1952059999997
 20
290.545135
 30
0.0
 11
578.1710679999997
 21
288.569274
 31
0.0
  0
LINE
  5
C3E3
330
C148
100
AcDbEntity
  8
1
  6
Continuous
100
AcDbLine
 10
590.0464239999998
 20
290.545135
 30
0.0
 11
588.070563
 21
288.569274
 31
0.0
  0
LINE
  5
C3E4
330
C148
100
AcDbEntity
  8
1
  6
Continuous
100
AcDbLine
 10
587.925104
 20
290.545135
 30
0.0
 11
585.949243
 21
288.569274
 31
0.0
  0
LINE
  5
C3E5
330
C148
100
AcDbEntity
  8
1
  6
Continuous
100
AcDbLine
 10
585.8037839999998
 20
290.545135
 30
0.0
 11
583.8279219999998
 21
288.569274
 31
0.0
  0
LINE
  5
C3E6
330
C148
100
AcDbEntity
  8
1
  6
Continuous
100
AcDbLine
 10
583.6824629999997
 20
290.545135
 30
0.0
 11
581.7066019999997
 21
288.569274
 31
0.0
  0
LINE
  5
C3E7
330
C148
100
AcDbEntity
  8
1
  6
Continuous
100
AcDbLine
 10
581.561143
 20
290.545135
 30
0.0
 11
579.585282
 21
288.569274
 31
0.0
  0
LINE
  5
C3E8
330
C148
100
AcDbEntity
  8
1
  6
Continuous
100
AcDbLine
 10
579.4398230000001
 20
290.545135
 30
0.0
 11
577.463961
 21
288.569274
 31
0.0
  0
LINE
  5
C3E9
330
C148
100
AcDbEntity
  8
1
  6
Continuous
100
AcDbLine
 10
560.638857
 20
290.545135
 30
0.0
 11
562.614719
 21
288.569274
 31
0.0
  0
LINE
  5
C3EA
330
C148
100
AcDbEntity
  8
1
  6
Continuous
100
AcDbLine
 10
562.053071
 20
290.545135
 30
0.0
 11
564.0289320000001
 21
288.569274
 31
0.0
  0
LINE
  5
C3EB
330
C148
100
AcDbEntity
  8
1
  6
Continuous
100
AcDbLine
 10
563.4672839999998
 20
290.545135
 30
0.0
 11
565.4431459999998
 21
288.569274
 31
0.0
  0
LINE
  5
C3EC
330
C148
100
AcDbEntity
  8
1
  6
Continuous
100
AcDbLine
 10
564.881498
 20
290.545135
 30
0.0
 11
566.857359
 21
288.569274
 31
0.0
  0
LINE
  5
C3ED
330
C148
100
AcDbEntity
  8
1
  6
Continuous
100
AcDbLine
 10
566.2957109999998
 20
290.545135
 30
0.0
 11
568.2715729999999
 21
288.569274
 31
0.0
  0
LINE
  5
C3EE
330
C148
100
AcDbEntity
  8
1
  6
Continuous
100
AcDbLine
 10
567.709925
 20
290.545135
 30
0.0
 11
569.685787
 21
288.569274
 31
0.0
  0
LINE
  5
C3EF
330
C148
100
AcDbEntity
  8
1
  6
Continuous
100
AcDbLine
 10
573.3667789999998
 20
290.545135
 30
0.0
 11
575.3426410000002
 21
288.569274
 31
0.0
  0
LINE
  5
C3F0
330
C148
100
AcDbEntity
  8
1
  6
Continuous
100
AcDbLine
 10
571.9525660000001
 20
290.545135
 30
0.0
 11
573.9284269999999
 21
288.569274
 31
0.0
  0
LINE
  5
C3F1
330
C148
100
AcDbEntity
  8
1
  6
Continuous
100
AcDbLine
 10
570.5383519999998
 20
290.545135
 30
0.0
 11
572.5142139999998
 21
288.569274
 31
0.0
  0
LINE
  5
C3F2
330
C148
100
AcDbEntity
  8
1
  6
Continuous
100
AcDbLine
 10
569.124139
 20
290.545135
 30
0.0
 11
571.1
 21
288.569274
 31
0.0
  0
LINE
  5
C3F3
330
C148
100
AcDbEntity
  8
1
  6
Continuous
100
AcDbLine
 10
562.4692599999998
 20
290.545135
 30
0.0
 11
560.4933980000001
 21
288.569274
 31
0.0
  0
LINE
  5
C3F4
330
C148
100
AcDbEntity
  8
1
  6
Continuous
100
AcDbLine
 10
564.5905799999998
 20
290.545135
 30
0.0
 11
562.614719
 21
288.569274
 31
0.0
  0
LINE
  5
C3F5
330
C148
100
AcDbEntity
  8
1
  6
Continuous
100
AcDbLine
 10
566.711901
 20
290.545135
 30
0.0
 11
564.736039
 21
288.569274
 31
0.0
  0
LINE
  5
C3F6
330
C148
100
AcDbEntity
  8
1
  6
Continuous
100
AcDbLine
 10
568.8332209999997
 20
290.545135
 30
0.0
 11
566.857359
 21
288.569274
 31
0.0
  0
LINE
  5
C3F7
330
C148
100
AcDbEntity
  8
1
  6
Continuous
100
AcDbLine
 10
570.9545409999998
 20
290.545135
 30
0.0
 11
568.9786799999999
 21
288.569274
 31
0.0
  0
LINE
  5
C3F8
330
C148
100
AcDbEntity
  8
1
  6
Continuous
100
AcDbLine
 10
575.197182
 20
290.545135
 30
0.0
 11
573.22132
 21
288.569274
 31
0.0
  0
LINE
  5
C3F9
330
C148
100
AcDbEntity
  8
1
  6
Continuous
100
AcDbLine
 10
573.075862
 20
290.545135
 30
0.0
 11
571.1
 21
288.569274
 31
0.0
  0
LINE
  5
C3FA
330
C148
100
AcDbEntity
  8
4
  6
CENTER
100
AcDbLine
 10
533.1
 20
301.6669729999999
 30
0.0
 11
533.1
 21
217.5632129999999
 31
0.0
  0
LINE
  5
C3FB
330
C148
100
AcDbEntity
  8
1
  6
Continuous
100
AcDbLine
 10
542.6
 20
269.569274
 30
0.0
 11
542.6
 21
262.963221
 31
0.0
  0
LINE
  5
C3FC
330
C148
100
AcDbEntity
  8
1
  6
Continuous
100
AcDbLine
 10
523.6
 20
269.569274
 30
0.0
 11
523.6
 21
262.963221
 31
0.0
  0
ARC
  5
C3FD
330
C148
100
AcDbEntity
  8
1
  6
Continuous
100
AcDbCircle
 10
537.85
 20
271.234054
 30
0.0
 40
8.270832999999997
100
AcDbArc
 50
234.948863
 51
305.0511369999999
  0
ARC
  5
C3FE
330
C148
100
AcDbEntity
  8
1
  6
Continuous
100
AcDbCircle
 10
528.35
 20
271.234054
 30
0.0
 40
8.270832999999997
100
AcDbArc
 50
234.948863
 51
305.0511369999999
  0
ARC
  5
C3FF
330
C148
100
AcDbEntity
  8
5
  6
PHANTOM
100
AcDbCircle
 10
553.5
 20
223.5632129999999
 30
0.0
 40
3.0
100
AcDbArc
 50
270.0
 51
0.0
  0
ARC
  5
C400
330
C148
100
AcDbEntity
  8
5
  6
PHANTOM
100
AcDbCircle
 10
512.7
 20
223.5632129999999
 30
0.0
 40
3.0
100
AcDbArc
 50
180.0
 51
270.0
  0
LINE
  5
C401
330
C148
100
AcDbEntity
  8
5
  6
PHANTOM
100
AcDbLine
 10
512.7
 20
220.563213
 30
0.0
 11
553.5
 21
220.563213
 31
0.0
  0
LINE
  5
C402
330
C148
100
AcDbEntity
  8
5
  6
PHANTOM
100
AcDbLine
 10
511.1
 20
231.563213
 30
0.0
 11
555.1
 21
231.563213
 31
0.0
  0
LINE
  5
C403
330
C148
100
AcDbEntity
  8
5
  6
PHANTOM
100
AcDbLine
 10
508.1
 20
224.563213
 30
0.0
 11
558.1
 21
224.563213
 31
0.0
  0
LINE
  5
C404
330
C148
100
AcDbEntity
  8
1
  6
Continuous
100
AcDbLine
 10
512.7
 20
228.5632129999999
 30
0.0
 11
553.5
 21
228.5632129999999
 31
0.0
  0
LINE
  5
C405
330
C148
100
AcDbEntity
  8
1
  6
Continuous
100
AcDbLine
 10
511.1
 20
239.563213
 30
0.0
 11
555.1
 21
239.563213
 31
0.0
  0
LINE
  5
C406
330
C148
100
AcDbEntity
  8
1
  6
Continuous
100
AcDbLine
 10
508.1
 20
232.5632129999999
 30
0.0
 11
558.1
 21
232.5632129999999
 31
0.0
  0
LINE
  5
C407
330
C148
100
AcDbEntity
  8
1
  6
Continuous
100
AcDbLine
 10
519.243594
 20
245.563213
 30
0.0
 11
546.956407
 21
245.563213
 31
0.0
  0
LINE
  5
C408
330
C148
100
AcDbEntity
  8
1
  6
Continuous
100
AcDbLine
 10
521.1
 20
240.5632129999999
 30
0.0
 11
545.1
 21
240.5632129999999
 31
0.0
  0
ARC
  5
C409
330
C148
100
AcDbEntity
  8
1
  6
Continuous
100
AcDbCircle
 10
533.1
 20
262.9116819999999
 30
0.0
 40
22.348469
100
AcDbArc
 50
251.94029
 51
288.05971
  0
LINE
  5
C40A
330
C148
100
AcDbEntity
  8
1
  6
Continuous
100
AcDbLine
 10
517.6
 20
240.0632129999999
 30
0.0
 11
548.6
 21
240.0632129999999
 31
0.0
  0
LINE
  5
C40B
330
C148
100
AcDbEntity
  8
1
  6
Continuous
100
AcDbLine
 10
526.1
 20
249.563213
 30
0.0
 11
540.1
 21
249.563213
 31
0.0
  0
LINE
  5
C40C
330
C148
100
AcDbEntity
  8
5
  6
PHANTOM
100
AcDbLine
 10
508.1
 20
248.5632129999999
 30
0.0
 11
558.1
 21
248.5632129999999
 31
0.0
  0
LINE
  5
C40D
330
C148
100
AcDbEntity
  8
5
  6
PHANTOM
100
AcDbLine
 10
511.1
 20
255.5632129999999
 30
0.0
 11
555.1
 21
255.5632129999999
 31
0.0
  0
LINE
  5
C40E
330
C148
100
AcDbEntity
  8
5
  6
PHANTOM
100
AcDbLine
 10
512.7
 20
244.5632129999999
 30
0.0
 11
553.5
 21
244.5632129999999
 31
0.0
  0
LINE
  5
C40F
330
C148
100
AcDbEntity
  8
1
  6
Continuous
100
AcDbLine
 10
523.6
 20
262.963221
 30
0.0
 11
542.6
 21
262.963221
 31
0.0
  0
LINE
  5
C410
330
C148
100
AcDbEntity
  8
1
  6
Continuous
100
AcDbLine
 10
540.0282029999998
 20
245.563213
 30
0.0
 11
540.0282029999998
 21
241.664233
 31
0.0
  0
LINE
  5
C411
330
C148
100
AcDbEntity
  8
1
  6
Continuous
100
AcDbLine
 10
546.956407
 20
245.563213
 30
0.0
 11
546.956407
 21
241.6350089999999
 31
0.0
  0
ARC
  5
C412
330
C148
100
AcDbEntity
  8
1
  6
Continuous
100
AcDbCircle
 10
543.492305
 20
246.5632129999999
 30
0.0
 40
6.0
100
AcDbArc
 50
234.73561
 51
300.0
  0
LINE
  5
C413
330
C148
100
AcDbEntity
  8
5
  6
PHANTOM
100
AcDbLine
 10
556.5
 20
224.563213
 30
0.0
 11
556.5
 21
223.5632129999999
 31
0.0
  0
LINE
  5
C414
330
C148
100
AcDbEntity
  8
5
  6
PHANTOM
100
AcDbLine
 10
558.1
 20
228.5632129999999
 30
0.0
 11
558.1
 21
224.563213
 31
0.0
  0
ARC
  5
C415
330
C148
100
AcDbEntity
  8
5
  6
PHANTOM
100
AcDbCircle
 10
555.1
 20
228.5632129999999
 30
0.0
 40
3.0
100
AcDbArc
 50
0.0
 51
90.0
  0
LINE
  5
C416
330
C148
100
AcDbEntity
  8
1
  6
Continuous
100
AcDbLine
 10
556.5
 20
232.5632129999999
 30
0.0
 11
556.5
 21
231.563213
 31
0.0
  0
LINE
  5
C417
330
C148
100
AcDbEntity
  8
1
  6
Continuous
100
AcDbLine
 10
558.1
 20
236.5632129999999
 30
0.0
 11
558.1
 21
232.5632129999999
 31
0.0
  0
ARC
  5
C418
330
C148
100
AcDbEntity
  8
1
  6
Continuous
100
AcDbCircle
 10
555.1
 20
236.5632129999999
 30
0.0
 40
3.0
100
AcDbArc
 50
0.0
 51
90.0
  0
LINE
  5
C419
330
C148
100
AcDbEntity
  8
1
  6
Continuous
100
AcDbLine
 10
545.1
 20
240.5632129999999
 30
0.0
 11
546.956407
 21
241.6350089999999
 31
0.0
  0
LINE
  5
C41A
330
C148
100
AcDbEntity
  8
1
  6
Continuous
100
AcDbLine
 10
548.6
 20
240.0632129999999
 30
0.0
 11
548.6
 21
239.563213
 31
0.0
  0
ARC
  5
C41B
330
C148
100
AcDbEntity
  8
1
  6
Continuous
100
AcDbCircle
 10
553.5
 20
231.563213
 30
0.0
 40
3.0
100
AcDbArc
 50
270.0
 51
0.0
  0
LINE
  5
C41C
330
C148
100
AcDbEntity
  8
1
  6
Continuous
100
AcDbLine
 10
528.2
 20
240.5632129999999
 30
0.0
 11
528.2
 21
240.0632129999999
 31
0.0
  0
LINE
  5
C41D
330
C148
100
AcDbEntity
  8
1
  6
Continuous
100
AcDbLine
 10
538.0
 20
240.0632129999999
 30
0.0
 11
538.0
 21
240.5632129999999
 31
0.0
  0
ARC
  5
C41E
330
C148
100
AcDbEntity
  8
5
  6
PHANTOM
100
AcDbCircle
 10
555.1
 20
252.5632129999999
 30
0.0
 40
3.0
100
AcDbArc
 50
0.0
 51
90.0
  0
ARC
  5
C41F
330
C148
100
AcDbEntity
  8
5
  6
PHANTOM
100
AcDbCircle
 10
553.5
 20
247.563213
 30
0.0
 40
3.0
100
AcDbArc
 50
270.0
 51
0.0
  0
LINE
  5
C420
330
C148
100
AcDbEntity
  8
5
  6
PHANTOM
100
AcDbLine
 10
558.1
 20
252.5632129999999
 30
0.0
 11
558.1
 21
248.5632129999999
 31
0.0
  0
LINE
  5
C421
330
C148
100
AcDbEntity
  8
5
  6
PHANTOM
100
AcDbLine
 10
556.5
 20
248.5632129999999
 30
0.0
 11
556.5
 21
247.563213
 31
0.0
  0
LINE
  5
C422
330
C148
100
AcDbEntity
  8
2
  6
Continuous
100
AcDbLine
 10
539.0175
 20
249.563213
 30
0.0
 11
540.1
 21
247.688268
 31
0.0
  0
LINE
  5
C423
330
C148
100
AcDbEntity
  8
1
  6
Continuous
100
AcDbLine
 10
540.1
 20
262.963221
 30
0.0
 11
540.1
 21
245.563213
 31
0.0
  0
LINE
  5
C424
330
C148
100
AcDbEntity
  8
2
  6
Continuous
100
AcDbLine
 10
539.0175
 20
262.963221
 30
0.0
 11
539.0175
 21
249.563213
 31
0.0
  0
LINE
  5
C425
330
C148
100
AcDbEntity
  8
1
  6
Continuous
100
AcDbLine
 10
519.243594
 20
245.563213
 30
0.0
 11
519.243594
 21
241.6350089999999
 31
0.0
  0
LINE
  5
C426
330
C148
100
AcDbEntity
  8
1
  6
Continuous
100
AcDbLine
 10
526.1717969999998
 20
245.563213
 30
0.0
 11
526.1717969999998
 21
241.664233
 31
0.0
  0
ARC
  5
C427
330
C148
100
AcDbEntity
  8
1
  6
Continuous
100
AcDbCircle
 10
512.7
 20
231.563213
 30
0.0
 40
3.0
100
AcDbArc
 50
180.0
 51
270.0
  0
LINE
  5
C428
330
C148
100
AcDbEntity
  8
1
  6
Continuous
100
AcDbLine
 10
521.1
 20
240.5632129999999
 30
0.0
 11
519.243594
 21
241.6350089999999
 31
0.0
  0
ARC
  5
C429
330
C148
100
AcDbEntity
  8
1
  6
Continuous
100
AcDbCircle
 10
522.7076949999998
 20
246.5632129999999
 30
0.0
 40
6.0
100
AcDbArc
 50
239.9999999999999
 51
305.26439
  0
LINE
  5
C42A
330
C148
100
AcDbEntity
  8
1
  6
Continuous
100
AcDbLine
 10
517.6
 20
240.0632129999999
 30
0.0
 11
517.6
 21
239.563213
 31
0.0
  0
LINE
  5
C42B
330
C148
100
AcDbEntity
  8
5
  6
PHANTOM
100
AcDbLine
 10
509.7
 20
224.563213
 30
0.0
 11
509.7
 21
223.5632129999999
 31
0.0
  0
LINE
  5
C42C
330
C148
100
AcDbEntity
  8
5
  6
PHANTOM
100
AcDbLine
 10
508.1
 20
228.5632129999999
 30
0.0
 11
508.1
 21
224.563213
 31
0.0
  0
ARC
  5
C42D
330
C148
100
AcDbEntity
  8
5
  6
PHANTOM
100
AcDbCircle
 10
511.1
 20
228.5632129999999
 30
0.0
 40
3.0
100
AcDbArc
 50
90.0
 51
180.0
  0
LINE
  5
C42E
330
C148
100
AcDbEntity
  8
1
  6
Continuous
100
AcDbLine
 10
509.7
 20
232.5632129999999
 30
0.0
 11
509.7
 21
231.563213
 31
0.0
  0
LINE
  5
C42F
330
C148
100
AcDbEntity
  8
1
  6
Continuous
100
AcDbLine
 10
508.1
 20
236.5632129999999
 30
0.0
 11
508.1
 21
232.5632129999999
 31
0.0
  0
ARC
  5
C430
330
C148
100
AcDbEntity
  8
1
  6
Continuous
100
AcDbCircle
 10
511.1
 20
236.5632129999999
 30
0.0
 40
3.0
100
AcDbArc
 50
90.0
 51
180.0
  0
ARC
  5
C431
330
C148
100
AcDbEntity
  8
5
  6
PHANTOM
100
AcDbCircle
 10
512.7
 20
247.563213
 30
0.0
 40
3.0
100
AcDbArc
 50
180.0
 51
270.0
  0
LINE
  5
C432
330
C148
100
AcDbEntity
  8
2
  6
Continuous
100
AcDbLine
 10
527.1824999999998
 20
249.563213
 30
0.0
 11
526.1
 21
247.688268
 31
0.0
  0
LINE
  5
C433
330
C148
100
AcDbEntity
  8
1
  6
Continuous
100
AcDbLine
 10
526.1
 20
262.963221
 30
0.0
 11
526.1
 21
245.563213
 31
0.0
  0
LINE
  5
C434
330
C148
100
AcDbEntity
  8
2
  6
Continuous
100
AcDbLine
 10
527.1824999999998
 20
262.963221
 30
0.0
 11
527.1824999999998
 21
249.563213
 31
0.0
  0
ARC
  5
C435
330
C148
100
AcDbEntity
  8
5
  6
PHANTOM
100
AcDbCircle
 10
511.1
 20
252.5632129999999
 30
0.0
 40
3.0
100
AcDbArc
 50
90.0
 51
180.0
  0
LINE
  5
C436
330
C148
100
AcDbEntity
  8
5
  6
PHANTOM
100
AcDbLine
 10
508.1
 20
252.5632129999999
 30
0.0
 11
508.1
 21
248.5632129999999
 31
0.0
  0
LINE
  5
C437
330
C148
100
AcDbEntity
  8
5
  6
PHANTOM
100
AcDbLine
 10
509.7
 20
248.5632129999999
 30
0.0
 11
509.7
 21
247.563213
 31
0.0
  0
LINE
  5
C438
330
C148
100
AcDbEntity
  8
1
  6
Continuous
100
AcDbLine
 10
517.0
 20
269.569274
 30
0.0
 11
555.5381109999998
 21
269.569274
 31
0.0
  0
LINE
  5
C439
330
C148
100
AcDbEntity
  8
1
  6
Continuous
100
AcDbLine
 10
548.0955419999998
 20
287.569274
 30
0.0
 11
521.6
 21
287.569274
 31
0.0
  0
LINE
  5
C43A
330
C148
100
AcDbEntity
  8
1
  6
Continuous
100
AcDbLine
 10
533.1
 20
269.569274
 30
0.0
 11
533.1
 21
264.4632209999999
 31
0.0
  0
LINE
  5
C43B
330
C148
100
AcDbEntity
  8
1
  6
Continuous
100
AcDbLine
 10
548.1
 20
288.9418569999999
 30
0.0
 11
548.472583
 21
288.569274
 31
0.0
  0
LINE
  5
C43C
330
C148
100
AcDbEntity
  8
1
  6
Continuous
100
AcDbLine
 10
548.1
 20
290.3560699999999
 30
0.0
 11
549.886797
 21
288.569274
 31
0.0
  0
LINE
  5
C43D
330
C148
100
AcDbEntity
  8
1
  6
Continuous
100
AcDbLine
 10
549.325149
 20
290.545135
 30
0.0
 11
551.30101
 21
288.569274
 31
0.0
  0
LINE
  5
C43E
330
C148
100
AcDbEntity
  8
1
  6
Continuous
100
AcDbLine
 10
550.739362
 20
290.545135
 30
0.0
 11
552.715224
 21
288.569274
 31
0.0
  0
LINE
  5
C43F
330
C148
100
AcDbEntity
  8
1
  6
Continuous
100
AcDbLine
 10
552.1535759999998
 20
290.545135
 30
0.0
 11
554.1294370000001
 21
288.569274
 31
0.0
  0
LINE
  5
C440
330
C148
100
AcDbEntity
  8
1
  6
Continuous
100
AcDbLine
 10
553.5677889999998
 20
290.545135
 30
0.0
 11
555.5436509999998
 21
288.569274
 31
0.0
  0
LINE
  5
C441
330
C148
100
AcDbEntity
  8
1
  6
Continuous
100
AcDbLine
 10
554.9820030000002
 20
290.545135
 30
0.0
 11
556.9578650000002
 21
288.569274
 31
0.0
  0
LINE
  5
C442
330
C148
100
AcDbEntity
  8
1
  6
Continuous
100
AcDbLine
 10
556.3962169999999
 20
290.545135
 30
0.0
 11
558.372078
 21
288.569274
 31
0.0
  0
LINE
  5
C443
330
C148
100
AcDbEntity
  8
1
  6
Continuous
100
AcDbLine
 10
548.1
 20
288.903797
 30
0.0
 11
549.741338
 21
290.545135
 31
0.0
  0
LINE
  5
C444
330
C148
100
AcDbEntity
  8
1
  6
Continuous
100
AcDbLine
 10
551.862658
 20
290.545135
 30
0.0
 11
549.886797
 21
288.569274
 31
0.0
  0
LINE
  5
C445
330
C148
100
AcDbEntity
  8
1
  6
Continuous
100
AcDbLine
 10
553.983979
 20
290.545135
 30
0.0
 11
552.008117
 21
288.569274
 31
0.0
  0
LINE
  5
C446
330
C148
100
AcDbEntity
  8
1
  6
Continuous
100
AcDbLine
 10
556.1052989999998
 20
290.545135
 30
0.0
 11
554.1294370000001
 21
288.569274
 31
0.0
  0
LINE
  5
C447
330
C148
100
AcDbEntity
  8
1
  6
Continuous
100
AcDbLine
 10
558.226619
 20
290.545135
 30
0.0
 11
556.250758
 21
288.569274
 31
0.0
  0
ARC
  5
C448
330
C148
100
AcDbEntity
  8
1
  6
Continuous
100
AcDbCircle
 10
553.913582
 20
288.9791629999999
 30
0.0
 40
6.206
100
AcDbArc
 50
129.539603
 51
140.935699
  0
LINE
  5
C449
330
C148
100
AcDbEntity
  8
1
  6
Continuous
100
AcDbLine
 10
548.2499999999999
 20
290.905135
 30
0.0
 11
548.38
 21
290.545135
 31
0.0
  0
ARC
  5
C44A
330
C148
100
AcDbEntity
  8
1
  6
Continuous
100
AcDbCircle
 10
551.711482
 20
294.0803629999999
 30
0.0
 40
4.697225
100
AcDbArc
 50
206.286695
 51
222.530249
  0
LINE
  5
C44B
330
C148
100
AcDbEntity
  8
1
  6
Continuous
100
AcDbLine
 10
548.9249999999998
 20
292.5301349999998
 30
0.0
 11
549.095
 21
292.8901349999998
 31
0.0
  0
ARC
  5
C44C
330
C148
100
AcDbEntity
  8
1
  6
Continuous
100
AcDbCircle
 10
548.373971
 20
291.6102819999998
 30
0.0
 40
0.9569799999999998
100
AcDbArc
 50
106.011913
 51
155.9597349999999
  0
ARC
  5
C44D
330
C148
100
AcDbEntity
  8
1
  6
Continuous
100
AcDbCircle
 10
548.827841
 20
297.376284
 30
0.0
 40
3.611148999999998
100
AcDbArc
 50
243.711147
 51
270.0
  0
LINE
  5
C44E
330
C148
100
AcDbEntity
  8
1
  6
Continuous
100
AcDbLine
 10
545.0916509999998
 20
295.5358529999998
 30
0.0
 11
545.089113
 21
295.5633129999998
 31
0.0
  0
ARC
  5
C44F
330
C148
100
AcDbEntity
  8
1
  6
Continuous
100
AcDbCircle
 10
551.940683
 20
303.6777269999999
 30
0.0
 40
10.63951799999999
100
AcDbArc
 50
229.929097
 51
243.711147
  0
LINE
  5
C450
330
C148
100
AcDbEntity
  8
1
  6
Continuous
100
AcDbLine
 10
548.1
 20
288.569274
 30
0.0
 11
548.1
 21
290.545135
 31
0.0
  0
ARC
  5
C451
330
C148
100
AcDbEntity
  8
1
  6
Continuous
100
AcDbCircle
 10
551.1621699999998
 20
284.4452959999999
 30
0.0
 40
4.377608
100
AcDbArc
 50
119.165428
 51
134.469229
  0
ARC
  5
C452
330
C148
100
AcDbEntity
  8
1
  6
Continuous
100
AcDbCircle
 10
550.187265
 20
286.192157
 30
0.0
 40
2.377116999999997
100
AcDbArc
 50
89.82134
 51
119.165428
  0
LINE
  5
C453
330
C148
100
AcDbEntity
  8
1
  6
Continuous
100
AcDbLine
 10
533.1
 20
291.763008
 30
0.0
 11
533.1
 21
295.5633129999998
 31
0.0
  0
LINE
  5
C454
330
C148
100
AcDbEntity
  8
1
  6
Continuous
100
AcDbLine
 10
533.1
 20
287.569274
 30
0.0
 11
533.1
 21
288.263008
 31
0.0
  0
LINE
  5
C455
330
C148
100
AcDbEntity
  8
1
  6
Continuous
100
AcDbLine
 10
533.85
 20
289.013008
 30
0.0
 11
533.85
 21
291.013008
 31
0.0
  0
LINE
  5
C456
330
C148
100
AcDbEntity
  8
1
  6
Continuous
100
AcDbLine
 10
532.35
 20
289.013008
 30
0.0
 11
532.35
 21
291.013008
 31
0.0
  0
ARC
  5
C457
330
C148
100
AcDbEntity
  8
1
  6
Continuous
100
AcDbCircle
 10
533.1
 20
289.013008
 30
0.0
 40
0.75
100
AcDbArc
 50
180.0
 51
0.0
  0
ARC
  5
C458
330
C148
100
AcDbEntity
  8
1
  6
Continuous
100
AcDbCircle
 10
533.1
 20
291.013008
 30
0.0
 40
0.75
100
AcDbArc
 50
0.0
 51
180.0
  0
LINE
  5
C459
330
C148
100
AcDbEntity
  8
1
  6
Continuous
100
AcDbLine
 10
542.6
 20
295.5633129999998
 30
0.0
 11
542.6
 21
287.569274
 31
0.0
  0
ARC
  5
C45A
330
C148
100
AcDbEntity
  8
1
  6
Continuous
100
AcDbCircle
 10
521.6
 20
282.969274
 30
0.0
 40
4.599999999999997
100
AcDbArc
 50
90.0
 51
180.0
  0
LINE
  5
C45B
330
C148
100
AcDbEntity
  8
1
  6
Continuous
100
AcDbLine
 10
517.0
 20
282.969274
 30
0.0
 11
517.0
 21
269.569274
 31
0.0
  0
LINE
  5
C45C
330
C148
100
AcDbEntity
  8
4
  6
CENTER
100
AcDbLine
 10
526.1
 20
293.306038
 30
0.0
 11
526.1
 21
301.327896
 31
0.0
  0
ARC
  5
C45D
330
C148
100
AcDbEntity
  8
1
  6
Continuous
100
AcDbCircle
 10
519.630406
 20
300.763484
 30
0.0
 40
5.200171
100
AcDbArc
 50
247.3818949999999
 51
270.0
  0
LINE
  5
C45E
330
C148
100
AcDbEntity
  8
1
  6
Continuous
100
AcDbLine
 10
523.6
 20
295.5633129999998
 30
0.0
 11
523.6
 21
287.569274
 31
0.0
  0
ARC
  5
C45F
330
C148
100
AcDbEntity
  8
1
  6
Continuous
100
AcDbCircle
 10
243.6999999999999
 20
96.0
 30
0.0
 40
24.4005
100
AcDbArc
 50
45.862782
 51
128.214448
  0
ARC
  5
C460
330
C148
100
AcDbEntity
  8
1
  6
Continuous
100
AcDbCircle
 10
243.6999999999999
 20
96.0
 30
0.0
 40
53.469512
100
AcDbArc
 50
25.164939
 51
334.835061
  0
ARC
  5
C461
330
C148
100
AcDbEntity
  8
1
  6
Continuous
100
AcDbCircle
 10
243.6999999999999
 20
96.0
 30
0.0
 40
49.469512
100
AcDbArc
 50
29.68605199999999
 51
158.5381329999999
  0
ARC
  5
C462
330
C148
100
AcDbEntity
  8
1
  6
Continuous
100
AcDbCircle
 10
243.6999999999999
 20
96.0
 30
0.0
 40
49.469512
100
AcDbArc
 50
201.4618669999999
 51
330.313948
  0
LINE
  5
C463
330
C148
100
AcDbEntity
  8
1
  6
Continuous
100
AcDbLine
 10
227.336186
 20
247.767233
 30
0.0
 11
227.336186
 21
279.9172529999998
 31
0.0
  0
LINE
  5
C464
330
C148
100
AcDbEntity
  8
1
  6
Continuous
100
AcDbLine
 10
587.463814
 20
247.767233
 30
0.0
 11
587.463814
 21
279.9172529999998
 31
0.0
  0
ARC
  5
C465
330
C148
100
AcDbEntity
  8
1
  6
Continuous
100
AcDbCircle
 10
264.173894
 20
117.0999769999999
 30
0.0
 40
5.0
100
AcDbArc
 50
225.8627819999999
 51
253.459862
  0
ARC
  5
C466
330
C148
100
AcDbEntity
  8
1
  6
Continuous
100
AcDbCircle
 10
225.5126579999999
 20
119.1
 30
0.0
 40
5.0
100
AcDbArc
 50
270.0
 51
308.214448
  0
ARC
  5
C467
330
C148
100
AcDbEntity
  8
1
  6
Continuous
100
AcDbCircle
 10
264.173894
 20
117.0999769999999
 30
0.0
 40
7.599999999999998
100
AcDbArc
 50
225.8627819999999
 51
246.075988
  0
ARC
  5
C468
330
C148
100
AcDbEntity
  8
1
  6
Continuous
100
AcDbCircle
 10
243.6999999999999
 20
96.0
 30
0.0
 40
21.8005
100
AcDbArc
 50
45.862782
 51
128.214448
  0
ARC
  5
C469
330
C148
100
AcDbEntity
  8
1
  6
Continuous
100
AcDbCircle
 10
225.5126579999999
 20
119.1
 30
0.0
 40
7.599999999999998
100
AcDbArc
 50
270.0
 51
308.214448
  0
ARC
  5
C46A
330
C148
100
AcDbEntity
  8
1
  6
Continuous
100
AcDbCircle
 10
264.173894
 20
74.900023
 30
0.0
 40
7.599999999999998
100
AcDbArc
 50
113.9240119999999
 51
134.137218
  0
ARC
  5
C46B
330
C148
100
AcDbEntity
  8
1
  6
Continuous
100
AcDbCircle
 10
264.173894
 20
74.900023
 30
0.0
 40
5.0
100
AcDbArc
 50
106.5401379999998
 51
134.137218
  0
ARC
  5
C46C
330
C148
100
AcDbEntity
  8
1
  6
Continuous
100
AcDbCircle
 10
243.6999999999999
 20
96.0
 30
0.0
 40
21.8005
100
AcDbArc
 50
231.785552
 51
314.137218
  0
ARC
  5
C46D
330
C148
100
AcDbEntity
  8
1
  6
Continuous
100
AcDbCircle
 10
243.6999999999999
 20
96.0
 30
0.0
 40
24.4005
100
AcDbArc
 50
231.785552
 51
314.137218
  0
ARC
  5
C46E
330
C148
100
AcDbEntity
  8
1
  6
Continuous
100
AcDbCircle
 10
225.5126579999999
 20
72.9
 30
0.0
 40
7.599999999999998
100
AcDbArc
 50
51.785552
 51
90.0
  0
ARC
  5
C46F
330
C148
100
AcDbEntity
  8
1
  6
Continuous
100
AcDbCircle
 10
225.5126579999999
 20
72.9
 30
0.0
 40
5.0
100
AcDbArc
 50
51.785552
 51
90.0
  0
LINE
  5
C470
330
C148
100
AcDbEntity
  8
1
  6
Continuous
100
AcDbLine
 10
196.480884
 20
77.9
 30
0.0
 11
225.5126579999999
 21
77.9
 31
0.0
  0
LINE
  5
C471
330
C148
100
AcDbEntity
  8
1
  6
Continuous
100
AcDbLine
 10
195.399509
 20
80.5
 30
0.0
 11
225.7
 21
80.5
 31
0.0
  0
ARC
  5
C472
330
C148
100
AcDbEntity
  8
1
  6
Continuous
100
AcDbCircle
 10
407.3999999999998
 20
258.220808
 30
0.0
 40
24.400544
100
AcDbArc
 50
321.919752
 51
18.67667199999998
  0
ARC
  5
C473
330
C148
100
AcDbEntity
  8
1
  6
Continuous
100
AcDbCircle
 10
425.5894579999998
 20
264.369346
 30
0.0
 40
5.2
100
AcDbArc
 50
18.67667199999998
 51
90.0
  0
ARC
  5
C474
330
C148
100
AcDbEntity
  8
1
  6
Continuous
100
AcDbCircle
 10
430.7
 20
239.9642419999999
 30
0.0
 40
5.2
100
AcDbArc
 50
141.9197519999999
 51
180.0
  0
ARC
  5
C475
330
C148
100
AcDbEntity
  8
1
  6
Continuous
100
AcDbCircle
 10
407.3999999999998
 20
258.220808
 30
0.0
 40
21.80054399999999
100
AcDbArc
 50
321.919752
 51
31.313754
  0
ARC
  5
C476
330
C148
100
AcDbEntity
  8
1
  6
Continuous
100
AcDbCircle
 10
430.7
 20
239.9642419999999
 30
0.0
 40
7.799999999999998
100
AcDbArc
 50
141.9197519999999
 51
180.0
  0
ARC
  5
C477
330
C148
100
AcDbEntity
  8
1
  6
Continuous
100
AcDbCircle
 10
407.3999999999998
 20
258.220808
 30
0.0
 40
21.80054399999999
100
AcDbArc
 50
148.6862459999999
 51
218.080248
  0
ARC
  5
C478
330
C148
100
AcDbEntity
  8
1
  6
Continuous
100
AcDbCircle
 10
389.210542
 20
264.369346
 30
0.0
 40
5.2
100
AcDbArc
 50
90.0
 51
161.323328
  0
ARC
  5
C479
330
C148
100
AcDbEntity
  8
1
  6
Continuous
100
AcDbCircle
 10
407.3999999999998
 20
258.220808
 30
0.0
 40
24.400544
100
AcDbArc
 50
161.323328
 51
218.080248
  0
ARC
  5
C47A
330
C148
100
AcDbEntity
  8
1
  6
Continuous
100
AcDbCircle
 10
384.1
 20
239.9642419999999
 30
0.0
 40
5.2
100
AcDbArc
 50
0.0
 51
38.080248
  0
ARC
  5
C47B
330
C148
100
AcDbEntity
  8
1
  6
Continuous
100
AcDbCircle
 10
384.1
 20
239.9642419999999
 30
0.0
 40
7.799999999999998
100
AcDbArc
 50
0.0
 51
38.080248
  0
LINE
  5
C47C
330
C148
100
AcDbEntity
  8
1
  6
Continuous
100
AcDbLine
 10
389.3
 20
239.9642419999999
 30
0.0
 11
389.3
 21
239.563073
 31
0.0
  0
CIRCLE
  5
C47D
330
C148
100
AcDbEntity
  8
1
  6
Continuous
100
AcDbCircle
 10
243.6999999999999
 20
423.126324
 30
0.0
 40
51.95
  0
CIRCLE
  5
C47E
330
C148
100
AcDbEntity
  8
1
  6
Continuous
100
AcDbCircle
 10
243.6999999999999
 20
423.126324
 30
0.0
 40
50.95
  0
ARC
  5
C47F
330
C148
100
AcDbEntity
  8
1
  6
Continuous
100
AcDbCircle
 10
80.0
 20
258.220808
 30
0.0
 40
24.400544
100
AcDbArc
 50
180.0
 51
218.080248
  0
ARC
  5
C480
330
C148
100
AcDbEntity
  8
1
  6
Continuous
100
AcDbCircle
 10
80.0
 20
258.220808
 30
0.0
 40
24.400544
100
AcDbArc
 50
321.919752
 51
331.652683
  0
LINE
  5
C481
330
C148
100
AcDbEntity
  8
1
  6
Continuous
100
AcDbLine
 10
55.599456
 20
285.9692739999999
 30
0.0
 11
55.599456
 21
258.220808
 31
0.0
  0
LINE
  5
C482
330
C148
100
AcDbEntity
  8
1
  6
Continuous
100
AcDbLine
 10
104.400544
 20
285.9692739999999
 30
0.0
 11
104.400544
 21
260.4914659999999
 31
0.0
  0
ARC
  5
C483
330
C148
100
AcDbEntity
  8
1
  6
Continuous
100
AcDbCircle
 10
56.7
 20
239.9642419999999
 30
0.0
 40
5.2
100
AcDbArc
 50
0.0
 51
38.080248
  0
ARC
  5
C484
330
C148
100
AcDbEntity
  8
1
  6
Continuous
100
AcDbCircle
 10
103.2999999999999
 20
239.9642419999999
 30
0.0
 40
5.2
100
AcDbArc
 50
141.9197519999999
 51
180.0
  0
ARC
  5
C485
330
C148
100
AcDbEntity
  8
1
  6
Continuous
100
AcDbCircle
 10
111.5641019999999
 20
253.5632629999998
 30
0.0
 40
11.464102
100
AcDbArc
 50
162.412046
 51
197.5879539999999
  0
ARC
  5
C486
330
C148
100
AcDbEntity
  8
1
  6
Continuous
100
AcDbCircle
 10
93.63589799999996
 20
253.5632629999998
 30
0.0
 40
11.464102
100
AcDbArc
 50
342.4120459999999
 51
17.587954
  0
LINE
  5
C487
330
C148
100
AcDbEntity
  8
1
  6
Continuous
100
AcDbLine
 10
105.0999999999998
 20
247.5632629999998
 30
0.0
 11
105.0999999999998
 21
259.563263
 31
0.0
  0
LINE
  5
C488
330
C148
100
AcDbEntity
  8
1
  6
Continuous
100
AcDbLine
 10
100.6358979999999
 20
260.4914659999999
 30
0.0
 11
100.0999999999998
 21
259.563263
 31
0.0
  0
LINE
  5
C489
330
C148
100
AcDbEntity
  8
1
  6
Continuous
100
AcDbLine
 10
104.564102
 20
260.4914659999999
 30
0.0
 11
105.0999999999998
 21
259.563263
 31
0.0
  0
LINE
  5
C48A
330
C148
100
AcDbEntity
  8
1
  6
Continuous
100
AcDbLine
 10
104.564102
 20
260.4914659999999
 30
0.0
 11
100.6358979999999
 21
260.4914659999999
 31
0.0
  0
LINE
  5
C48B
330
C148
100
AcDbEntity
  8
1
  6
Continuous
100
AcDbLine
 10
104.564102
 20
257.0273649999999
 30
0.0
 11
100.6358979999999
 21
257.0273649999999
 31
0.0
  0
ARC
  5
C48C
330
C148
100
AcDbEntity
  8
1
  6
Continuous
100
AcDbCircle
 10
102.033013
 20
258.759415
 30
0.0
 40
3.066986999999998
100
AcDbArc
 50
325.6157529999999
 51
25.615753
  0
ARC
  5
C48D
330
C148
100
AcDbEntity
  8
1
  6
Continuous
100
AcDbCircle
 10
103.1669869999999
 20
258.759415
 30
0.0
 40
3.066986999999998
100
AcDbArc
 50
154.3842469999999
 51
214.384247
  0
ARC
  5
C48E
330
C148
100
AcDbEntity
  8
1
  6
Continuous
100
AcDbCircle
 10
103.1669869999999
 20
248.3671109999999
 30
0.0
 40
3.066986999999998
100
AcDbArc
 50
145.615753
 51
205.615753
  0
ARC
  5
C48F
330
C148
100
AcDbEntity
  8
1
  6
Continuous
100
AcDbCircle
 10
102.033013
 20
248.3671109999999
 30
0.0
 40
3.066986999999998
100
AcDbArc
 50
334.384247
 51
34.38424699999998
  0
LINE
  5
C490
330
C148
100
AcDbEntity
  8
1
  6
Continuous
100
AcDbLine
 10
104.564102
 20
250.0991609999999
 30
0.0
 11
100.6358979999999
 21
250.0991609999999
 31
0.0
  0
LINE
  5
C491
330
C148
100
AcDbEntity
  8
1
  6
Continuous
100
AcDbLine
 10
104.564102
 20
246.63506
 30
0.0
 11
100.6358979999999
 21
246.63506
 31
0.0
  0
LINE
  5
C492
330
C148
100
AcDbEntity
  8
1
  6
Continuous
100
AcDbLine
 10
104.564102
 20
246.63506
 30
0.0
 11
105.0999999999998
 21
247.5632629999998
 31
0.0
  0
LINE
  5
C493
330
C148
100
AcDbEntity
  8
1
  6
Continuous
100
AcDbLine
 10
100.6358979999999
 20
246.63506
 30
0.0
 11
100.0999999999998
 21
247.5632629999998
 31
0.0
  0
LINE
  5
C494
330
C148
100
AcDbEntity
  8
1
  6
Continuous
100
AcDbLine
 10
100.0999999999998
 20
255.5632629999998
 30
0.0
 11
98.1
 21
253.5632629999998
 31
0.0
  0
LINE
  5
C495
330
C148
100
AcDbEntity
  8
1
  6
Continuous
100
AcDbLine
 10
100.0999999999998
 20
253.5632629999998
 30
0.0
 11
98.1
 21
251.5632629999998
 31
0.0
  0
LINE
  5
C496
330
C148
100
AcDbEntity
  8
1
  6
Continuous
100
AcDbLine
 10
211.6999999999999
 20
257.0273149999998
 30
0.0
 11
211.6999999999999
 21
250.099111
 31
0.0
  0
LINE
  5
C497
330
C148
100
AcDbEntity
  8
1
  6
Continuous
100
AcDbLine
 10
223.7
 20
257.0273149999998
 30
0.0
 11
223.7
 21
250.099111
 31
0.0
  0
CIRCLE
  5
C498
330
C148
100
AcDbEntity
  8
1
  6
Continuous
100
AcDbCircle
 10
217.7
 20
253.5632129999999
 30
0.0
 40
6.0
  0
LINE
  5
C499
330
C148
100
AcDbEntity
  8
1
  6
Continuous
100
AcDbLine
 10
217.7
 20
246.63501
 30
0.0
 11
223.7
 21
250.099111
 31
0.0
  0
LINE
  5
C49A
330
C148
100
AcDbEntity
  8
1
  6
Continuous
100
AcDbLine
 10
217.7
 20
246.63501
 30
0.0
 11
211.6999999999999
 21
250.099111
 31
0.0
  0
LINE
  5
C49B
330
C148
100
AcDbEntity
  8
1
  6
Continuous
100
AcDbLine
 10
223.7
 20
257.0273149999998
 30
0.0
 11
217.7
 21
260.491416
 31
0.0
  0
LINE
  5
C49C
330
C148
100
AcDbEntity
  8
1
  6
Continuous
100
AcDbLine
 10
211.6999999999999
 20
257.0273149999998
 30
0.0
 11
217.7
 21
260.491416
 31
0.0
  0
LINE
  5
C49D
330
C148
100
AcDbEntity
  8
1
  6
Continuous
100
AcDbLine
 10
382.8358979999999
 20
246.63506
 30
0.0
 11
382.3
 21
247.5632629999998
 31
0.0
  0
LINE
  5
C49E
330
C148
100
AcDbEntity
  8
1
  6
Continuous
100
AcDbLine
 10
382.8358979999999
 20
246.63506
 30
0.0
 11
385.925434
 21
246.63506
 31
0.0
  0
LINE
  5
C49F
330
C148
100
AcDbEntity
  8
1
  6
Continuous
100
AcDbLine
 10
382.8358979999999
 20
250.0991609999999
 30
0.0
 11
384.390754
 21
250.0991609999999
 31
0.0
  0
ARC
  5
C4A0
330
C148
100
AcDbEntity
  8
1
  6
Continuous
100
AcDbCircle
 10
385.366987
 20
248.3671109999999
 30
0.0
 40
3.066986999999998
100
AcDbArc
 50
145.615753
 51
205.615753
  0
ARC
  5
C4A1
330
C148
100
AcDbEntity
  8
1
  6
Continuous
100
AcDbCircle
 10
385.366987
 20
258.759415
 30
0.0
 40
3.066986999999998
100
AcDbArc
 50
154.3842469999999
 51
214.384247
  0
LINE
  5
C4A2
330
C148
100
AcDbEntity
  8
1
  6
Continuous
100
AcDbLine
 10
382.8358979999999
 20
257.0273649999999
 30
0.0
 11
383.028659
 21
257.0273649999999
 31
0.0
  0
LINE
  5
C4A3
330
C148
100
AcDbEntity
  8
1
  6
Continuous
100
AcDbLine
 10
382.8358979999999
 20
260.4914659999999
 30
0.0
 11
382.999456
 21
260.4914659999999
 31
0.0
  0
LINE
  5
C4A4
330
C148
100
AcDbEntity
  8
1
  6
Continuous
100
AcDbLine
 10
382.8358979999999
 20
260.4914659999999
 30
0.0
 11
382.3
 21
259.563263
 31
0.0
  0
LINE
  5
C4A5
330
C148
100
AcDbEntity
  8
1
  6
Continuous
100
AcDbLine
 10
382.3
 20
247.5632629999998
 30
0.0
 11
382.3
 21
259.563263
 31
0.0
  0
ARC
  5
C4A6
330
C148
100
AcDbEntity
  8
1
  6
Continuous
100
AcDbCircle
 10
393.764102
 20
253.5632629999998
 30
0.0
 40
11.464102
100
AcDbArc
 50
162.412046
 51
197.5879539999999
  0
ARC
  5
C4A7
330
C148
100
AcDbEntity
  8
1
  6
Continuous
100
AcDbCircle
 10
214.6999999999999
 20
112.4349359999999
 30
0.0
 40
8.665063999999999
100
AcDbArc
 50
69.743842
 51
110.256158
  0
ARC
  5
C4A8
330
C148
100
AcDbEntity
  8
1
  6
Continuous
100
AcDbCircle
 10
214.6999999999999
 20
124.765064
 30
0.0
 40
8.665063999999999
100
AcDbArc
 50
249.7438419999999
 51
290.256158
  0
LINE
  5
C4A9
330
C148
100
AcDbEntity
  8
1
  6
Continuous
100
AcDbLine
 10
223.7
 20
121.1
 30
0.0
 11
211.6999999999999
 21
121.1
 31
0.0
  0
LINE
  5
C4AA
330
C148
100
AcDbEntity
  8
1
  6
Continuous
100
AcDbLine
 10
211.6999999999999
 20
116.1
 30
0.0
 11
211.6999999999999
 21
121.1
 31
0.0
  0
ARC
  5
C4AB
330
C148
100
AcDbEntity
  8
1
  6
Continuous
100
AcDbCircle
 10
220.6999999999999
 20
112.4349359999999
 30
0.0
 40
8.665063999999999
100
AcDbArc
 50
69.743842
 51
110.256158
  0
ARC
  5
C4AC
330
C148
100
AcDbEntity
  8
1
  6
Continuous
100
AcDbCircle
 10
220.6999999999999
 20
124.765064
 30
0.0
 40
8.665063999999999
100
AcDbArc
 50
249.7438419999999
 51
290.256158
  0
LINE
  5
C4AD
330
C148
100
AcDbEntity
  8
1
  6
Continuous
100
AcDbLine
 10
217.7
 20
120.564102
 30
0.0
 11
217.7
 21
116.635898
 31
0.0
  0
LINE
  5
C4AE
330
C148
100
AcDbEntity
  8
1
  6
Continuous
100
AcDbLine
 10
223.7
 20
116.1
 30
0.0
 11
223.7
 21
121.1
 31
0.0
  0
LINE
  5
C4AF
330
C148
100
AcDbEntity
  8
1
  6
Continuous
100
AcDbLine
 10
217.7
 20
116.1
 30
0.0
 11
219.7
 21
114.1
 31
0.0
  0
LINE
  5
C4B0
330
C148
100
AcDbEntity
  8
1
  6
Continuous
100
AcDbLine
 10
215.7
 20
116.1
 30
0.0
 11
217.7
 21
114.1
 31
0.0
  0
LINE
  5
C4B1
330
C148
100
AcDbEntity
  8
4
  6
CENTER
100
AcDbLine
 10
281.6999999999998
 20
453.126324
 30
0.0
 11
281.6999999999998
 21
393.126324
 31
0.0
  0
LINE
  5
C4B2
330
C148
100
AcDbEntity
  8
4
  6
CENTER
100
AcDbLine
 10
217.7
 20
395.0263239999999
 30
0.0
 11
217.7
 21
454.533699
 31
0.0
  0
LINE
  5
C4B3
330
C148
100
AcDbEntity
  8
1
  6
Continuous
100
AcDbLine
 10
298.7
 20
295.96332
 30
0.0
 11
298.7
 21
298.5633199999999
 31
0.0
  0
LINE
  5
C4B4
330
C148
100
AcDbEntity
  8
1
  6
Continuous
100
AcDbLine
 10
188.7
 20
298.5633199999999
 30
0.0
 11
298.7
 21
298.5633199999999
 31
0.0
  0
LINE
  5
C4B5
330
C148
100
AcDbEntity
  8
1
  6
Continuous
100
AcDbLine
 10
188.7
 20
295.96332
 30
0.0
 11
298.7
 21
295.96332
 31
0.0
  0
LINE
  5
C4B6
330
C148
100
AcDbEntity
  8
1
  6
Continuous
100
AcDbLine
 10
626.1
 20
298.5633199999999
 30
0.0
 11
516.1
 21
298.5633199999999
 31
0.0
  0
LINE
  5
C4B7
330
C148
100
AcDbEntity
  8
1
  6
Continuous
100
AcDbLine
 10
516.1
 20
295.96332
 30
0.0
 11
516.1
 21
298.5633199999999
 31
0.0
  0
LINE
  5
C4B8
330
C148
100
AcDbEntity
  8
1
  6
Continuous
100
AcDbLine
 10
352.4
 20
298.5633199999999
 30
0.0
 11
462.3999999999998
 21
298.5633199999999
 31
0.0
  0
LINE
  5
C4B9
330
C148
100
AcDbEntity
  8
1
  6
Continuous
100
AcDbLine
 10
25.0
 20
298.5633199999999
 30
0.0
 11
25.0
 21
295.96332
 31
0.0
  0
LINE
  5
C4BA
330
C148
100
AcDbEntity
  8
1
  6
Continuous
100
AcDbLine
 10
135.0
 20
298.5633199999999
 30
0.0
 11
25.0
 21
298.5633199999999
 31
0.0
  0
LINE
  5
C4BB
330
C148
100
AcDbEntity
  8
1
  6
Continuous
100
AcDbLine
 10
239.962531
 20
110.0
 30
0.0
 11
195.437469
 21
110.0
 31
0.0
  0
LINE
  5
C4BC
330
C148
100
AcDbEntity
  8
1
  6
Continuous
100
AcDbLine
 10
227.1999999999999
 20
111.4999999999999
 30
0.0
 11
227.794095
 21
110.905905
 31
0.0
  0
ARC
  5
C4BD
330
C148
100
AcDbEntity
  8
1
  6
Continuous
100
AcDbCircle
 10
227.5566959999999
 20
90.90731400000001
 30
0.0
 40
20.0
100
AcDbArc
 50
72.675647
 51
89.31988599999998
  0
LINE
  5
C4BE
330
C148
100
AcDbEntity
  8
1
  6
Continuous
100
AcDbLine
 10
208.1999999999999
 20
111.4999999999999
 30
0.0
 11
207.605905
 21
110.905905
 31
0.0
  0
ARC
  5
C4BF
330
C148
100
AcDbEntity
  8
1
  6
Continuous
100
AcDbCircle
 10
207.8433039999999
 20
90.90731400000001
 30
0.0
 40
20.0
100
AcDbArc
 50
90.68011400000001
 51
107.3243529999998
  0
LINE
  5
C4C0
330
C148
100
AcDbEntity
  8
1
  6
Continuous
100
AcDbLine
 10
207.605905
 20
110.905905
 30
0.0
 11
227.794095
 21
110.905905
 31
0.0
  0
LINE
  5
C4C1
330
C148
100
AcDbEntity
  8
1
  6
Continuous
100
AcDbLine
 10
239.962531
 20
82.0
 30
0.0
 11
195.437469
 21
82.0
 31
0.0
  0
LINE
  5
C4C2
330
C148
100
AcDbEntity
  8
1
  6
Continuous
100
AcDbLine
 10
227.1999999999999
 20
80.5
 30
0.0
 11
227.794095
 21
81.09409599999997
 31
0.0
  0
ARC
  5
C4C3
330
C148
100
AcDbEntity
  8
1
  6
Continuous
100
AcDbCircle
 10
227.5566959999999
 20
101.092687
 30
0.0
 40
20.0
100
AcDbArc
 50
270.680114
 51
287.3243529999998
  0
LINE
  5
C4C4
330
C148
100
AcDbEntity
  8
1
  6
Continuous
100
AcDbLine
 10
208.1999999999999
 20
80.5
 30
0.0
 11
207.605905
 21
81.09409599999997
 31
0.0
  0
ARC
  5
C4C5
330
C148
100
AcDbEntity
  8
1
  6
Continuous
100
AcDbCircle
 10
207.8433039999999
 20
101.092687
 30
0.0
 40
20.0
100
AcDbArc
 50
252.675647
 51
269.3198859999998
  0
LINE
  5
C4C6
330
C148
100
AcDbEntity
  8
1
  6
Continuous
100
AcDbLine
 10
207.605905
 20
81.09409599999997
 30
0.0
 11
227.794095
 21
81.09409599999997
 31
0.0
  0
ARC
  5
C4C7
330
C148
100
AcDbEntity
  8
1
  6
Continuous
100
AcDbCircle
 10
597.1
 20
253.5632129999999
 30
0.0
 40
17.0
100
AcDbArc
 50
197.168626
 51
7.842482
  0
ARC
  5
C4C8
330
C148
100
AcDbEntity
  8
1
  6
Continuous
100
AcDbCircle
 10
597.1
 20
253.5632129999999
 30
0.0
 40
17.5
100
AcDbArc
 50
194.238394
 51
10.77271499999998
  0
ARC
  5
C4C9
330
C148
100
AcDbEntity
  8
1
  6
Continuous
100
AcDbCircle
 10
292.6999999999998
 20
96.0
 30
0.0
 40
100.0
100
AcDbArc
 50
172.9665389999999
 51
187.033461
  0
ARC
  5
C4CA
330
C148
100
AcDbEntity
  8
1
  6
Continuous
100
AcDbCircle
 10
195.437469
 20
108.0
 30
0.0
 40
2.0
100
AcDbArc
 50
90.0
 51
172.9665389999999
  0
ARC
  5
C4CB
330
C148
100
AcDbEntity
  8
1
  6
Continuous
100
AcDbCircle
 10
195.437469
 20
84.0
 30
0.0
 40
2.0
100
AcDbArc
 50
187.033461
 51
270.0
  0
ARC
  5
C4CC
330
C148
100
AcDbEntity
  8
1
  6
Continuous
100
AcDbCircle
 10
142.6999999999999
 20
96.0
 30
0.0
 40
100.0
100
AcDbArc
 50
352.966539
 51
7.033460999999999
  0
ARC
  5
C4CD
330
C148
100
AcDbEntity
  8
1
  6
Continuous
100
AcDbCircle
 10
239.962531
 20
108.0
 30
0.0
 40
2.0
100
AcDbArc
 50
7.033460999999999
 51
90.0
  0
ARC
  5
C4CE
330
C148
100
AcDbEntity
  8
1
  6
Continuous
100
AcDbCircle
 10
239.962531
 20
84.0
 30
0.0
 40
2.0
100
AcDbArc
 50
270.0
 51
352.966539
  0
ARC
  5
C4CF
330
C148
100
AcDbEntity
  8
1
  6
Continuous
100
AcDbCircle
 10
217.7
 20
253.5632129999999
 30
0.0
 40
17.5
100
AcDbArc
 50
169.227285
 51
345.7616059999998
  0
ARC
  5
C4D0
330
C148
100
AcDbEntity
  8
1
  6
Continuous
100
AcDbCircle
 10
217.7
 20
253.5632129999999
 30
0.0
 40
17.0
100
AcDbArc
 50
172.1575179999999
 51
342.831374
  0
LINE
  5
C4D1
330
C148
100
AcDbEntity
  8
1
  6
Continuous
100
AcDbLine
 10
94.0
 20
271.434429
 30
0.0
 11
94.0
 21
231.300732
 31
0.0
  0
LINE
  5
C4D2
330
C148
100
AcDbEntity
  8
1
  6
Continuous
100
AcDbLine
 10
94.905904
 20
243.469168
 30
0.0
 11
94.905904
 21
263.6573579999998
 31
0.0
  0
LINE
  5
C4D3
330
C148
100
AcDbEntity
  8
1
  6
Continuous
100
AcDbLine
 10
66.0
 20
271.434429
 30
0.0
 11
66.0
 21
231.300732
 31
0.0
  0
LINE
  5
C4D4
330
C148
100
AcDbEntity
  8
1
  6
Continuous
100
AcDbLine
 10
65.094095
 20
243.469168
 30
0.0
 11
65.094095
 21
263.6573579999998
 31
0.0
  0
ARC
  5
C4D5
330
C148
100
AcDbEntity
  8
1
  6
Continuous
100
AcDbCircle
 10
80.0
 20
328.563263
 30
0.0
 40
100.0
100
AcDbArc
 50
262.9665389999999
 51
277.0334609999998
  0
ARC
  5
C4D6
330
C148
100
AcDbEntity
  8
1
  6
Continuous
100
AcDbCircle
 10
68.0
 20
231.300732
 30
0.0
 40
2.0
100
AcDbArc
 50
180.0
 51
262.9665389999999
  0
ARC
  5
C4D7
330
C148
100
AcDbEntity
  8
1
  6
Continuous
100
AcDbCircle
 10
85.092686
 20
243.7065669999999
 30
0.0
 40
20.0
100
AcDbArc
 50
180.680114
 51
197.3243529999998
  0
LINE
  5
C4D8
330
C148
100
AcDbEntity
  8
1
  6
Continuous
100
AcDbLine
 10
64.5
 20
244.0632629999999
 30
0.0
 11
65.094095
 21
243.469168
 31
0.0
  0
ARC
  5
C4D9
330
C148
100
AcDbEntity
  8
1
  6
Continuous
100
AcDbCircle
 10
92.0
 20
231.300732
 30
0.0
 40
2.0
100
AcDbArc
 50
277.0334609999998
 51
0.0
  0
LINE
  5
C4DA
330
C148
100
AcDbEntity
  8
1
  6
Continuous
100
AcDbLine
 10
95.5
 20
244.0632629999999
 30
0.0
 11
94.905904
 21
243.469168
 31
0.0
  0
ARC
  5
C4DB
330
C148
100
AcDbEntity
  8
1
  6
Continuous
100
AcDbCircle
 10
74.907313
 20
243.7065669999999
 30
0.0
 40
20.0
100
AcDbArc
 50
342.675647
 51
359.319886
  0
ARC
  5
C4DC
330
C148
100
AcDbEntity
  8
1
  6
Continuous
100
AcDbCircle
 10
85.092686
 20
263.419959
 30
0.0
 40
20.0
100
AcDbArc
 50
162.675647
 51
179.3198859999999
  0
LINE
  5
C4DD
330
C148
100
AcDbEntity
  8
1
  6
Continuous
100
AcDbLine
 10
64.5
 20
263.063263
 30
0.0
 11
65.094095
 21
263.6573579999998
 31
0.0
  0
LINE
  5
C4DE
330
C148
100
AcDbEntity
  8
1
  6
Continuous
100
AcDbLine
 10
95.5
 20
263.063263
 30
0.0
 11
94.905904
 21
263.6573579999998
 31
0.0
  0
ARC
  5
C4DF
330
C148
100
AcDbEntity
  8
1
  6
Continuous
100
AcDbCircle
 10
74.907313
 20
263.419959
 30
0.0
 40
20.0
100
AcDbArc
 50
0.6801140000000001
 51
17.32435299999999
  0
LINE
  5
C4E0
330
C148
100
AcDbEntity
  8
1
  6
Continuous
100
AcDbLine
 10
421.3999999999998
 20
269.569346
 30
0.0
 11
421.3999999999998
 21
240.063073
 31
0.0
  0
ARC
  5
C4E1
330
C148
100
AcDbEntity
  8
1
  6
Continuous
100
AcDbCircle
 10
402.3073129999998
 20
263.419959
 30
0.0
 40
20.0
100
AcDbArc
 50
0.6801140000000001
 51
17.32435299999999
  0
LINE
  5
C4E2
330
C148
100
AcDbEntity
  8
1
  6
Continuous
100
AcDbLine
 10
422.9
 20
263.063263
 30
0.0
 11
422.3059039999998
 21
263.6573579999998
 31
0.0
  0
LINE
  5
C4E3
330
C148
100
AcDbEntity
  8
1
  6
Continuous
100
AcDbLine
 10
422.3059039999998
 20
243.469168
 30
0.0
 11
422.3059039999998
 21
263.6573579999998
 31
0.0
  0
ARC
  5
C4E4
330
C148
100
AcDbEntity
  8
1
  6
Continuous
100
AcDbCircle
 10
402.3073129999998
 20
243.7065669999999
 30
0.0
 40
20.0
100
AcDbArc
 50
349.5035449999999
 51
359.319886
  0
LINE
  5
C4E5
330
C148
100
AcDbEntity
  8
1
  6
Continuous
100
AcDbLine
 10
422.9
 20
244.0632629999999
 30
0.0
 11
422.3059039999998
 21
243.469168
 31
0.0
  0
LINE
  5
C4E6
330
C148
100
AcDbEntity
  8
1
  6
Continuous
100
AcDbLine
 10
393.3999999999999
 20
269.569346
 30
0.0
 11
393.3999999999999
 21
240.063073
 31
0.0
  0
ARC
  5
C4E7
330
C148
100
AcDbEntity
  8
1
  6
Continuous
100
AcDbCircle
 10
412.492686
 20
263.419959
 30
0.0
 40
20.0
100
AcDbArc
 50
162.675647
 51
179.3198859999999
  0
LINE
  5
C4E8
330
C148
100
AcDbEntity
  8
1
  6
Continuous
100
AcDbLine
 10
391.9
 20
263.063263
 30
0.0
 11
392.494095
 21
263.6573579999998
 31
0.0
  0
LINE
  5
C4E9
330
C148
100
AcDbEntity
  8
1
  6
Continuous
100
AcDbLine
 10
392.494095
 20
243.469168
 30
0.0
 11
392.494095
 21
263.6573579999998
 31
0.0
  0
ARC
  5
C4EA
330
C148
100
AcDbEntity
  8
1
  6
Continuous
100
AcDbCircle
 10
412.492686
 20
243.7065669999999
 30
0.0
 40
20.0
100
AcDbArc
 50
180.680114
 51
190.496455
  0
LINE
  5
C4EB
330
C148
100
AcDbEntity
  8
1
  6
Continuous
100
AcDbLine
 10
391.9
 20
244.0632629999999
 30
0.0
 11
392.494095
 21
243.469168
 31
0.0
  0
ENDSEC
  0
SECTION
  2
OBJECTS
  0
DICTIONARY
  5
C136
330
0
100
AcDbDictionary
281
     1
  3
ACAD_CIP_PREVIOUS_PRODUCT_INFO
350
C54D
  3
ACAD_COLOR
350
C52F
  3
ACAD_DETAILVIEWSTYLE
350
C548
  3
ACAD_GROUP
350
C137
  3
ACAD_LAYOUT
350
C143
  3
ACAD_MATERIAL
350
C4FD
  3
ACAD_MLEADERSTYLE
350
C544
  3
ACAD_MLINESTYLE
350
C140
  3
ACAD_PLOTSETTINGS
350
C142
  3
ACAD_PLOTSTYLENAME
350
C4FB
  3
ACAD_SCALELIST
350
C532
  3
ACAD_SECTIONVIEWSTYLE
350
C546
  3
ACAD_TABLESTYLE
350
C530
  3
ACAD_VISUALSTYLE
350
C516
  3
ACDB_RECOMPOSE_DATA
350
C56B
  3
AcDbVariableDictionary
350
C55E
  3
DWGPROPS
350
C56C
  0
DICTIONARY
  5
C54E
330
C13A
100
AcDbDictionary
280
     1
281
     1
  3
ADSK_XREC_LAYER_RECONCILED
360
C54F
  0
DICTIONARY
  5
C550
330
C150
100
AcDbDictionary
280
     1
281
     1
  3
ADSK_XREC_LAYER_RECONCILED
360
C551
  0
DICTIONARY
  5
C552
330
C151
100
AcDbDictionary
280
     1
281
     1
  3
ADSK_XREC_LAYER_RECONCILED
360
C553
  0
DICTIONARY
  5
C554
330
C152
100
AcDbDictionary
280
     1
281
     1
  3
ADSK_XREC_LAYER_RECONCILED
360
C555
  0
DICTIONARY
  5
C556
330
C153
100
AcDbDictionary
280
     1
281
     1
  3
ADSK_XREC_LAYER_RECONCILED
360
C557
  0
DICTIONARY
  5
C558
330
C154
100
AcDbDictionary
280
     1
281
     1
  3
ADSK_XREC_LAYER_RECONCILED
360
C559
  0
DICTIONARY
  5
C55A
330
C155
100
AcDbDictionary
280
     1
281
     1
  3
ADSK_XREC_LAYER_RECONCILED
360
C55B
  0
DICTIONARY
  5
C55C
330
C156
100
AcDbDictionary
280
     1
281
     1
  3
ADSK_XREC_LAYER_RECONCILED
360
C55D
  0
DICTIONARY
  5
C4F6
330
C148
100
AcDbDictionary
281
     1
  3
ACAD_LAYOUTSELFREF
350
C4F7
  0
DICTIONARY
  5
C4F4
330
C144
100
AcDbDictionary
281
     1
  3
ACAD_LAYOUTSELFREF
350
C4F5
  0
XRECORD
  5
C54D
102
{ACAD_REACTORS
330
C136
102
}
330
C136
100
AcDbXrecord
280
     1
300
ACDLT
300
2014
300
ACDLT_F_S
  0
DICTIONARY
  5
C52F
102
{ACAD_REACTORS
330
C136
102
}
330
C136
100
AcDbDictionary
281
     1
  0
DICTIONARY
  5
C548
102
{ACAD_REACTORS
330
C136
102
}
330
C136
100
AcDbDictionary
281
     1
  3
Imperial24
350
C549
  0
DICTIONARY
  5
C137
102
{ACAD_REACTORS
330
C136
102
}
330
C136
100
AcDbDictionary
281
     1
  0
DICTIONARY
  5
C143
102
{ACAD_REACTORS
330
C136
102
}
330
C136
100
AcDbDictionary
281
     1
  3
Model
350
C54A
  3
レイアウト1
350
C54B
  0
DICTIONARY
  5
C4FD
102
{ACAD_REACTORS
330
C136
102
}
330
C136
100
AcDbDictionary
281
     1
  3
ByBlock
350
C506
  3
ByLayer
350
C4FE
  3
Global
350
C50E
  0
DICTIONARY
  5
C544
102
{ACAD_REACTORS
330
C136
102
}
330
C136
100
AcDbDictionary
281
     1
  3
Standard
350
C545
  0
DICTIONARY
  5
C140
102
{ACAD_REACTORS
330
C136
102
}
330
C136
100
AcDbDictionary
281
     1
  3
STANDARD
350
C141
  0
DICTIONARY
  5
C142
102
{ACAD_REACTORS
330
C136
102
}
330
C136
100
AcDbDictionary
281
     1
  0
ACDBDICTIONARYWDFLT
  5
C4FB
102
{ACAD_REACTORS
330
C136
102
}
330
C136
100
AcDbDictionary
281
     1
  3
Normal
350
C4FC
100
AcDbDictionaryWithDefault
340
C4FC
  0
DICTIONARY
  5
C532
102
{ACAD_REACTORS
330
C136
102
}
330
C136
100
AcDbDictionary
281
     1
  3
A0
350
C533
  3
A1
350
C534
  3
A2
350
C535
  3
A3
350
C536
  3
A4
350
C537
  3
A5
350
C538
  3
A6
350
C539
  3
A7
350
C53A
  3
A8
350
C53B
  3
A9
350
C53C
  3
B0
350
C53D
  3
B1
350
C53E
  3
B2
350
C53F
  3
B3
350
C540
  3
B4
350
C541
  3
B5
350
C542
  3
B6
350
C543
  0
DICTIONARY
  5
C546
102
{ACAD_REACTORS
330
C136
102
}
330
C136
100
AcDbDictionary
281
     1
  3
Imperial24
350
C547
  0
DICTIONARY
  5
C530
102
{ACAD_REACTORS
330
C136
102
}
330
C136
100
AcDbDictionary
281
     1
  3
Standard
350
C531
  0
DICTIONARY
  5
C516
102
{ACAD_REACTORS
330
C136
102
}
330
C136
100
AcDbDictionary
281
     1
  3
2dWireframe
350
C51C
  3
Basic
350
C51B
  3
Brighten
350
C522
  3
ColorChange
350
C526
  3
Conceptual
350
C51F
  3
Dim
350
C521
  3
EdgeColorOff
350
C52E
  3
Facepattern
350
C525
  3
Flat
350
C517
  3
FlatWithEdges
350
C518
  3
Gouraud
350
C519
  3
GouraudWithEdges
350
C51A
  3
Hidden
350
C51E
  3
JitterOff
350
C52C
  3
Linepattern
350
C524
  3
OverhangOff
350
C52D
  3
Realistic
350
C520
  3
Shaded
350
C52B
  3
Shaded with edges
350
C52A
  3
Shades of Gray
350
C527
  3
Sketchy
350
C528
  3
Thicken
350
C523
  3
Wireframe
350
C51D
  3
X-Ray
350
C529
  0
XRECORD
  5
C56B
102
{ACAD_REACTORS
330
C136
102
}
330
C136
100
AcDbXrecord
280
     1
 90
        1
330
C531
  0
DICTIONARY
  5
C55E
102
{ACAD_REACTORS
330
C136
102
}
330
C136
100
AcDbDictionary
281
     1
  3
CANNOSCALE
350
C563
  3
CMLEADERSTYLE
350
C560
  3
CTABLESTYLE
350
C55F
  3
CVIEWDETAILSTYLE
350
C561
  3
CVIEWSECTIONSTYLE
350
C562
  3
DIMASSOC
350
C566
  3
INDEXCTL
350
C565
  3
SORTENTS
350
C564
  3
XCLIPFRAME
350
C567
  0
XRECORD
  5
C56C
102
{ACAD_REACTORS
330
C136
102
}
330
C136
100
AcDbXrecord
280
     1
  1
DWGPROPS COOKIE
  2

  3

  4

  6

  7

  8
Yoshitsune
  9

300
=
301
=
302
=
303
=
304
=
305
=
306
=
307
=
308
=
309
=
 40
0.0000121527777778
 41
2451302.61251331
 42
2457192.686598518
  1

 90
        0
  0
XRECORD
  5
C54F
102
{ACAD_REACTORS
330
C54E
102
}
330
C54E
100
AcDbXrecord
280
     1
290
     1
  0
XRECORD
  5
C551
102
{ACAD_REACTORS
330
C550
102
}
330
C550
100
AcDbXrecord
280
     1
290
     1
  0
XRECORD
  5
C553
102
{ACAD_REACTORS
330
C552
102
}
330
C552
100
AcDbXrecord
280
     1
290
     1
  0
XRECORD
  5
C555
102
{ACAD_REACTORS
330
C554
102
}
330
C554
100
AcDbXrecord
280
     1
290
     1
  0
XRECORD
  5
C557
102
{ACAD_REACTORS
330
C556
102
}
330
C556
100
AcDbXrecord
280
     1
290
     1
  0
XRECORD
  5
C559
102
{ACAD_REACTORS
330
C558
102
}
330
C558
100
AcDbXrecord
280
     1
290
     1
  0
XRECORD
  5
C55B
102
{ACAD_REACTORS
330
C55A
102
}
330
C55A
100
AcDbXrecord
280
     1
290
     1
  0
XRECORD
  5
C55D
102
{ACAD_REACTORS
330
C55C
102
}
330
C55C
100
AcDbXrecord
280
     1
290
     1
  0
XRECORD
  5
C4F7
102
{ACAD_REACTORS
330
C4F6
102
}
330
C4F6
100
AcDbXrecord
280
     1
340
C148
  0
XRECORD
  5
C4F5
102
{ACAD_REACTORS
330
C4F4
102
}
330
C4F4
100
AcDbXrecord
280
     1
340
C144
  0
ACDBDETAILVIEWSTYLE
  5
C549
102
{ACAD_XDICTIONARY
360
C5A4
102
}
102
{ACAD_REACTORS
330
C548
102
}
330
C548
100
AcDbModelDocViewStyle
 70
     0
  3
Imperial24
290
     0
100
AcDbDetailViewStyle
 70
     0
 71
     0
 90
        3
 71
     1
340
C13B
 40
0.24
340
0
 40
0.24
300

 40
0.36
280
     3
 71
     2
340
C13F
 90
       25
 71
     3
340
C13B
 40
0.24
 90
        1
 40
0.75
 90
        1
300
%<\AcVar ViewType \f "%tc1">% %<\AcVar ViewDetailId>%\PSCALE %<\AcVar ViewScale \f "%sn">%
 71
     4
340
C13F
 90
       25
340
C13F
 90
       25
280
     0
  0
LAYOUT
  5
C54A
102
{ACAD_XDICTIONARY
360
C5A6
102
}
102
{ACAD_REACTORS
330
C143
102
}
330
C143
100
AcDbPlotSettings
  1

  2
Canon LBP9100C
  4

  6

 40
0.0
 41
0.0
 42
0.0
 43
0.0
 44
0.0
 45
0.0
 46
0.0
 47
0.0
 48
0.0
 49
0.0
140
0.0
141
0.0
142
1.0
143
1.0
 70
  1712
 72
     0
 73
     0
 74
     0
  7

 75
     0
147
1.0
148
0.0
149
0.0
100
AcDbLayout
  1
Model
 70
     1
 71
     0
 10
0.0
 20
0.0
 11
12.0
 21
9.0
 12
0.0
 22
0.0
 32
0.0
 14
0.0
 24
0.0
 34
0.0
 15
0.0
 25
0.0
 35
0.0
146
0.0
 13
0.0
 23
0.0
 33
0.0
 16
1.0
 26
0.0
 36
0.0
 17
0.0
 27
1.0
 37
0.0
 76
     0
330
C148
331
C4F3
  0
LAYOUT
  5
C54B
102
{ACAD_XDICTIONARY
360
C5A8
102
}
102
{ACAD_REACTORS
330
C143
102
}
330
C143
100
AcDbPlotSettings
  1

  2
Canon LBP9100C
  4

  6

 40
0.0
 41
0.0
 42
0.0
 43
0.0
 44
0.0
 45
0.0
 46
0.0
 47
0.0
 48
0.0
 49
0.0
140
0.0
141
0.0
142
1.0
143
1.0
 70
   688
 72
     0
 73
     0
 74
     5
  7

 75
    16
147
1.0
148
0.0
149
0.0
100
AcDbLayout
  1
レイアウト1
 70
     0
 71
     1
 10
0.0
 20
0.0
 11
420.0
 21
297.0
 12
0.0
 22
0.0
 32
0.0
 14
1.000000000000000E+20
 24
1.000000000000000E+20
 34
1.000000000000000E+20
 15
-1.000000000000000E+20
 25
-1.000000000000000E+20
 35
-1.000000000000000E+20
146
0.0
 13
0.0
 23
0.0
 33
0.0
 16
1.0
 26
0.0
 36
0.0
 17
0.0
 27
1.0
 37
0.0
 76
     0
330
C144
  0
MATERIAL
  5
C506
102
{ACAD_XDICTIONARY
360
C507
102
}
102
{ACAD_REACTORS
330
C4FD
102
}
330
C4FD
100
AcDbMaterial
  1
ByBlock
 72
     0
 43
0.0208333333333333
 43
0.0
 43
0.0
 43
0.0
 43
0.0
 43
0.0208333333333333
 43
0.0
 43
0.0
 43
0.0
 43
0.0
 43
1.0
 43
0.0
 43
0.0
 43
0.0
 43
0.0
 43
1.0
 77
     0
 47
0.0208333333333333
 47
0.0
 47
0.0
 47
0.0
 47
0.0
 47
0.0208333333333333
 47
0.0
 47
0.0
 47
0.0
 47
0.0
 47
1.0
 47
0.0
 47
0.0
 47
0.0
 47
0.0
 47
1.0
171
     0
 49
0.0208333333333333
 49
0.0
 49
0.0
 49
0.0
 49
0.0
 49
0.0208333333333333
 49
0.0
 49
0.0
 49
0.0
 49
0.0
 49
1.0
 49
0.0
 49
0.0
 49
0.0
 49
0.0
 49
1.0
175
     0
142
0.0208333333333333
142
0.0
142
0.0
142
0.0
142
0.0
142
0.0208333333333333
142
0.0
142
0.0
142
0.0
142
0.0
142
1.0
142
0.0
142
0.0
142
0.0
142
0.0
142
1.0
179
     0
144
0.0208333333333333
144
0.0
144
0.0
144
0.0
144
0.0
144
0.0208333333333333
144
0.0
144
0.0
144
0.0
144
0.0
144
1.0
144
0.0
144
0.0
144
0.0
144
0.0
144
1.0
147
0.0208333333333333
147
0.0
147
0.0
147
0.0
147
0.0
147
0.0208333333333333
147
0.0
147
0.0
147
0.0
147
0.0
147
1.0
147
0.0
147
0.0
147
0.0
147
0.0
147
1.0
  0
MATERIAL
  5
C4FE
102
{ACAD_XDICTIONARY
360
C4FF
102
}
102
{ACAD_REACTORS
330
C4FD
102
}
330
C4FD
100
AcDbMaterial
  1
ByLayer
 72
     0
 43
0.0208333333333333
 43
0.0
 43
0.0
 43
0.0
 43
0.0
 43
0.0208333333333333
 43
0.0
 43
0.0
 43
0.0
 43
0.0
 43
1.0
 43
0.0
 43
0.0
 43
0.0
 43
0.0
 43
1.0
 77
     0
 47
0.0208333333333333
 47
0.0
 47
0.0
 47
0.0
 47
0.0
 47
0.0208333333333333
 47
0.0
 47
0.0
 47
0.0
 47
0.0
 47
1.0
 47
0.0
 47
0.0
 47
0.0
 47
0.0
 47
1.0
171
     0
 49
0.0208333333333333
 49
0.0
 49
0.0
 49
0.0
 49
0.0
 49
0.0208333333333333
 49
0.0
 49
0.0
 49
0.0
 49
0.0
 49
1.0
 49
0.0
 49
0.0
 49
0.0
 49
0.0
 49
1.0
175
     0
142
0.0208333333333333
142
0.0
142
0.0
142
0.0
142
0.0
142
0.0208333333333333
142
0.0
142
0.0
142
0.0
142
0.0
142
1.0
142
0.0
142
0.0
142
0.0
142
0.0
142
1.0
179
     0
144
0.0208333333333333
144
0.0
144
0.0
144
0.0
144
0.0
144
0.0208333333333333
144
0.0
144
0.0
144
0.0
144
0.0
144
1.0
144
0.0
144
0.0
144
0.0
144
0.0
144
1.0
147
0.0208333333333333
147
0.0
147
0.0
147
0.0
147
0.0
147
0.0208333333333333
147
0.0
147
0.0
147
0.0
147
0.0
147
1.0
147
0.0
147
0.0
147
0.0
147
0.0
147
1.0
  0
MATERIAL
  5
C50E
102
{ACAD_XDICTIONARY
360
C50F
102
}
102
{ACAD_REACTORS
330
C4FD
102
}
330
C4FD
100
AcDbMaterial
  1
Global
 72
     0
 43
0.0208333333333333
 43
0.0
 43
0.0
 43
0.0
 43
0.0
 43
0.0208333333333333
 43
0.0
 43
0.0
 43
0.0
 43
0.0
 43
1.0
 43
0.0
 43
0.0
 43
0.0
 43
0.0
 43
1.0
 77
     0
 47
0.0208333333333333
 47
0.0
 47
0.0
 47
0.0
 47
0.0
 47
0.0208333333333333
 47
0.0
 47
0.0
 47
0.0
 47
0.0
 47
1.0
 47
0.0
 47
0.0
 47
0.0
 47
0.0
 47
1.0
171
     0
 49
0.0208333333333333
 49
0.0
 49
0.0
 49
0.0
 49
0.0
 49
0.0208333333333333
 49
0.0
 49
0.0
 49
0.0
 49
0.0
 49
1.0
 49
0.0
 49
0.0
 49
0.0
 49
0.0
 49
1.0
175
     0
142
0.0208333333333333
142
0.0
142
0.0
142
0.0
142
0.0
142
0.0208333333333333
142
0.0
142
0.0
142
0.0
142
0.0
142
1.0
142
0.0
142
0.0
142
0.0
142
0.0
142
1.0
179
     0
144
0.0208333333333333
144
0.0
144
0.0
144
0.0
144
0.0
144
0.0208333333333333
144
0.0
144
0.0
144
0.0
144
0.0
144
1.0
144
0.0
144
0.0
144
0.0
144
0.0
144
1.0
147
0.0208333333333333
147
0.0
147
0.0
147
0.0
147
0.0
147
0.0208333333333333
147
0.0
147
0.0
147
0.0
147
0.0
147
1.0
147
0.0
147
0.0
147
0.0
147
0.0
147
1.0
  0
MLEADERSTYLE
  5
C545
102
{ACAD_REACTORS
330
C544
102
}
330
C544
100
AcDbMLeaderStyle
170
     2
171
     1
172
     0
 90
        2
 40
0.0
 41
0.0
173
     1
 91
-1056964608
340
C13D
 92
       -2
290
     1
 42
0.09
291
     1
 43
0.36
  3
Standard
 44
0.18
300

342
C13B
174
     1
178
     6
175
     1
176
     0
 93
-1056964608
 45
0.18
292
     0
297
     0
 46
0.18
 94
-1056964608
 47
1.0
 49
1.0
140
1.0
293
     1
141
0.0
294
     1
177
     0
142
1.0
295
     0
296
     0
143
0.125
1001
ACAD_MLEADERVER
1070
     2
  0
MLINESTYLE
  5
C141
102
{ACAD_REACTORS
330
C140
102
}
330
C140
100
AcDbMlineStyle
  2
STANDARD
 70
     0
  3

 62
   256
 51
90.0
 52
90.0
 71
     2
 49
0.5
 62
   256
  6
BYLAYER
 49
-0.5
 62
   256
  6
BYLAYER
  0
ACDBPLACEHOLDER
  5
C4FC
102
{ACAD_REACTORS
330
C4FB
102
}
330
C4FB
  0
SCALE
  5
C533
102
{ACAD_REACTORS
330
C532
102
}
330
C532
100
AcDbScale
 70
     0
300
1:1
140
1.0
141
1.0
290
     1
  0
SCALE
  5
C534
102
{ACAD_REACTORS
330
C532
102
}
330
C532
100
AcDbScale
 70
     0
300
1/128" = 1'-0"
140
0.0078125
141
12.0
290
     0
  0
SCALE
  5
C535
102
{ACAD_REACTORS
330
C532
102
}
330
C532
100
AcDbScale
 70
     0
300
1/64" = 1'-0"
140
0.015625
141
12.0
290
     0
  0
SCALE
  5
C536
102
{ACAD_REACTORS
330
C532
102
}
330
C532
100
AcDbScale
 70
     0
300
1/32" = 1'-0"
140
0.03125
141
12.0
290
     0
  0
SCALE
  5
C537
102
{ACAD_REACTORS
330
C532
102
}
330
C532
100
AcDbScale
 70
     0
300
1/16" = 1'-0"
140
0.0625
141
12.0
290
     0
  0
SCALE
  5
C538
102
{ACAD_REACTORS
330
C532
102
}
330
C532
100
AcDbScale
 70
     0
300
3/32" = 1'-0"
140
0.09375
141
12.0
290
     0
  0
SCALE
  5
C539
102
{ACAD_REACTORS
330
C532
102
}
330
C532
100
AcDbScale
 70
     0
300
1/8" = 1'-0"
140
0.125
141
12.0
290
     0
  0
SCALE
  5
C53A
102
{ACAD_REACTORS
330
C532
102
}
330
C532
100
AcDbScale
 70
     0
300
3/16" = 1'-0"
140
0.1875
141
12.0
290
     0
  0
SCALE
  5
C53B
102
{ACAD_REACTORS
330
C532
102
}
330
C532
100
AcDbScale
 70
     0
300
1/4" = 1'-0"
140
0.25
141
12.0
290
     0
  0
SCALE
  5
C53C
102
{ACAD_REACTORS
330
C532
102
}
330
C532
100
AcDbScale
 70
     0
300
3/8" = 1'-0"
140
0.375
141
12.0
290
     0
  0
SCALE
  5
C53D
102
{ACAD_REACTORS
330
C532
102
}
330
C532
100
AcDbScale
 70
     0
300
1/2" = 1'-0"
140
0.5
141
12.0
290
     0
  0
SCALE
  5
C53E
102
{ACAD_REACTORS
330
C532
102
}
330
C532
100
AcDbScale
 70
     0
300
3/4" = 1'-0"
140
0.75
141
12.0
290
     0
  0
SCALE
  5
C53F
102
{ACAD_REACTORS
330
C532
102
}
330
C532
100
AcDbScale
 70
     0
300
1" = 1'-0"
140
1.0
141
12.0
290
     0
  0
SCALE
  5
C540
102
{ACAD_REACTORS
330
C532
102
}
330
C532
100
AcDbScale
 70
     0
300
1-1/2" = 1'-0"
140
1.5
141
12.0
290
     0
  0
SCALE
  5
C541
102
{ACAD_REACTORS
330
C532
102
}
330
C532
100
AcDbScale
 70
     0
300
3" = 1'-0"
140
3.0
141
12.0
290
     0
  0
SCALE
  5
C542
102
{ACAD_REACTORS
330
C532
102
}
330
C532
100
AcDbScale
 70
     0
300
6" = 1'-0"
140
6.0
141
12.0
290
     0
  0
SCALE
  5
C543
102
{ACAD_REACTORS
330
C532
102
}
330
C532
100
AcDbScale
 70
     0
300
1'-0" = 1'-0"
140
12.0
141
12.0
290
     0
  0
ACDBSECTIONVIEWSTYLE
  5
C547
102
{ACAD_XDICTIONARY
360
C5A2
102
}
102
{ACAD_REACTORS
330
C546
102
}
330
C546
100
AcDbModelDocViewStyle
 70
     0
  3
Imperial24
290
     0
100
AcDbSectionViewStyle
 70
     0
 71
     0
 90
       78
 71
     1
340
C13B
 40
0.24
340
0
340
0
 40
0.24
300
I, O, Q, S, X, Z
 40
0.48
 90
        3
 40
0.18
 90
        1
 71
     2
340
C13F
 90
       25
340
C13F
 90
       50
 40
0.24
 40
0.0
 40
0.24
 71
     3
340
C13B
 40
0.24
 90
        1
 40
0.75
 90
        1
300
%<\AcVar ViewType \f "%tc1">% %<\AcVar ViewSectionStartId>%-%<\AcVar ViewSectionEndId>%\PSCALE %<\AcVar ViewScale \f "%sn">%
 71
     4
300
ANSI31
 40
1.0
 90
        0
290
     0
290
     0
 90
        6
 40
0.0
 40
1.570796326794896
 40
0.2617993877991494
 40
1.308996938995747
 40
-0.2617993877991494
 40
1.832595714594046
  0
TABLESTYLE
  5
C531
102
{ACAD_XDICTIONARY
360
C569
102
}
102
{ACAD_REACTORS
330
C530
102
}
330
C530
100
AcDbTableStyle
  3
Standard
 70
     0
 71
     0
 40
0.06
 41
0.06
280
     0
281
     0
  7
STANDARD
140
0.18
170
     2
 62
     0
 63
     7
283
     0
274
    -2
284
     1
 64
     0
275
    -2
285
     1
 65
     0
276
    -2
286
     1
 66
     0
277
    -2
287
     1
 67
     0
278
    -2
288
     1
 68
     0
279
    -2
289
     1
 69
     0
  7
STANDARD
140
0.25
170
     5
 62
     0
 63
     7
283
     0
274
    -2
284
     1
 64
     0
275
    -2
285
     1
 65
     0
276
    -2
286
     1
 66
     0
277
    -2
287
     1
 67
     0
278
    -2
288
     1
 68
     0
279
    -2
289
     1
 69
     0
  7
STANDARD
140
0.18
170
     5
 62
     0
 63
     7
283
     0
274
    -2
284
     1
 64
     0
275
    -2
285
     1
 65
     0
276
    -2
286
     1
 66
     0
277
    -2
287
     1
 67
     0
278
    -2
288
     1
 68
     0
279
    -2
289
     1
 69
     0
  0
VISUALSTYLE
  5
C51C
102
{ACAD_XDICTIONARY
360
C57A
102
}
102
{ACAD_REACTORS
330
C516
102
}
330
C516
100
AcDbVisualStyle
  2
2dWireframe
 70
     4
 71
     0
 72
     2
 73
     0
 90
        0
 40
-0.6
 41
-30.0
 62
     5
 63
     7
 74
     1
 91
        4
 64
     7
 65
   257
 75
     1
175
     1
 42
1.0
 92
        0
 66
   257
 43
1.0
 76
     1
 77
     6
 78
     2
 67
     7
 79
     5
170
     0
171
     0
290
     0
174
     0
 93
        1
 44
0.0
173
     0
291
     0
 45
0.0
1001
ACAD
1000
AcDbSavedByObjectVersion
1070
     0
  0
VISUALSTYLE
  5
C51B
102
{ACAD_XDICTIONARY
360
C578
102
}
102
{ACAD_REACTORS
330
C516
102
}
330
C516
100
AcDbVisualStyle
  2
Basic
 70
     7
 71
     1
 72
     0
 73
     1
 90
        0
 40
-0.6
 41
-30.0
 62
     5
 63
     7
 74
     0
 91
        4
 64
     7
 65
   257
 75
     1
175
     1
 42
1.0
 92
        8
 66
     7
 43
1.0
 76
     1
 77
     6
 78
     2
 67
     7
 79
     5
170
     0
171
     0
290
     0
174
     0
 93
        1
 44
0.0
173
     0
291
     1
 45
0.0
1001
ACAD
1000
AcDbSavedByObjectVersion
1070
     0
  0
VISUALSTYLE
  5
C522
102
{ACAD_XDICTIONARY
360
C586
102
}
102
{ACAD_REACTORS
330
C516
102
}
330
C516
100
AcDbVisualStyle
  2
Brighten
 70
    12
 71
     2
 72
     2
 73
     0
 90
        0
 40
-0.6
 41
-30.0
 62
     5
 63
     7
 74
     1
 91
        4
 64
     7
 65
   257
 75
     1
175
     1
 42
1.0
 92
        8
 66
     7
 43
1.0
 76
     1
 77
     6
 78
     2
 67
     7
 79
     5
170
     0
171
     0
290
     0
174
     0
 93
        1
 44
50.0
173
     0
291
     1
 45
0.0
1001
ACAD
1000
AcDbSavedByObjectVersion
1070
     0
  0
VISUALSTYLE
  5
C526
102
{ACAD_XDICTIONARY
360
C58E
102
}
102
{ACAD_REACTORS
330
C516
102
}
330
C516
100
AcDbVisualStyle
  2
ColorChange
 70
    16
 71
     2
 72
     2
 73
     3
 90
        0
 40
-0.6
 41
-30.0
 62
     5
 63
     8
 74
     1
 91
        4
 64
     7
 65
   257
 75
     1
175
     1
 42
1.0
 92
        8
 66
     8
 43
1.0
 76
     1
 77
     6
 78
     2
 67
     7
 79
     5
170
     0
171
     0
290
     0
174
     0
 93
        1
 44
0.0
173
     0
291
     1
 45
0.0
1001
ACAD
1000
AcDbSavedByObjectVersion
1070
     0
  0
VISUALSTYLE
  5
C51F
102
{ACAD_XDICTIONARY
360
C580
102
}
102
{ACAD_REACTORS
330
C516
102
}
330
C516
100
AcDbVisualStyle
  2
Conceptual
 70
     9
 71
     3
 72
     2
 73
     0
 90
        0
 40
-0.6
 41
-30.0
 62
     5
 63
     7
 74
     2
 91
        2
 64
     7
 65
   257
 75
     1
175
     1
 42
179.0
 92
        8
 66
     7
 43
1.0
 76
     1
 77
     6
 78
     2
 67
     7
 79
     3
170
     0
171
     0
290
     0
174
     0
 93
        1
 44
0.0
173
     0
291
     0
 45
0.0
1001
ACAD
1000
AcDbSavedByObjectVersion
1070
     0
  0
VISUALSTYLE
  5
C521
102
{ACAD_XDICTIONARY
360
C584
102
}
102
{ACAD_REACTORS
330
C516
102
}
330
C516
100
AcDbVisualStyle
  2
Dim
 70
    11
 71
     2
 72
     2
 73
     0
 90
        0
 40
-0.6
 41
-30.0
 62
     5
 63
     7
 74
     1
 91
        4
 64
     7
 65
   257
 75
     1
175
     1
 42
1.0
 92
        8
 66
     7
 43
1.0
 76
     1
 77
     6
 78
     2
 67
     7
 79
     5
170
     0
171
     0
290
     0
174
     0
 93
        1
 44
-50.0
173
     0
291
     1
 45
0.0
1001
ACAD
1000
AcDbSavedByObjectVersion
1070
     0
  0
VISUALSTYLE
  5
C52E
102
{ACAD_XDICTIONARY
360
C59E
102
}
102
{ACAD_REACTORS
330
C516
102
}
330
C516
100
AcDbVisualStyle
  2
EdgeColorOff
 70
    22
 71
     2
 72
     2
 73
     0
 90
        0
 40
-0.6
 41
-30.0
 62
     5
 63
     7
 74
     1
 91
        4
 64
     7
 65
   257
 75
     1
175
     1
 42
1.0
 92
        8
 66
     7
 43
1.0
 76
     1
 77
     6
 78
     2
 67
     7
 79
     5
170
     0
171
     0
290
     0
174
     0
 93
        1
 44
0.0
173
     0
291
     1
 45
0.0
1001
ACAD
1000
AcDbSavedByObjectVersion
1070
     0
  0
VISUALSTYLE
  5
C525
102
{ACAD_XDICTIONARY
360
C58C
102
}
102
{ACAD_REACTORS
330
C516
102
}
330
C516
100
AcDbVisualStyle
  2
Facepattern
 70
    15
 71
     2
 72
     2
 73
     0
 90
        0
 40
-0.6
 41
-30.0
 62
     5
 63
     7
 74
     1
 91
        4
 64
     7
 65
   257
 75
     1
175
     1
 42
1.0
 92
        8
 66
     7
 43
1.0
 76
     1
 77
     6
 78
     2
 67
     7
 79
     5
170
     0
171
     0
290
     0
174
     0
 93
        1
 44
0.0
173
     0
291
     1
 45
0.0
1001
ACAD
1000
AcDbSavedByObjectVersion
1070
     0
  0
VISUALSTYLE
  5
C517
102
{ACAD_XDICTIONARY
360
C570
102
}
102
{ACAD_REACTORS
330
C516
102
}
330
C516
100
AcDbVisualStyle
  2
Flat
 70
     0
 71
     2
 72
     1
 73
     1
 90
        2
 40
-0.6
 41
30.0
 62
     5
 63
     7
 74
     0
 91
        0
 64
     7
 65
   257
 75
     1
175
     1
 42
1.0
 92
        8
 66
     7
 43
1.0
 76
     1
 77
     6
 78
     2
 67
     7
 79
     5
170
     0
171
     0
290
     0
174
     0
 93
       13
 44
0.0
173
     0
291
     1
 45
0.0
1001
ACAD
1000
AcDbSavedByObjectVersion
1070
     0
  0
VISUALSTYLE
  5
C518
102
{ACAD_XDICTIONARY
360
C572
102
}
102
{ACAD_REACTORS
330
C516
102
}
330
C516
100
AcDbVisualStyle
  2
FlatWithEdges
 70
     1
 71
     2
 72
     1
 73
     1
 90
        2
 40
-0.6
 41
30.0
 62
     5
 63
     7
 74
     1
 91
        0
 64
     7
 65
   257
 75
     1
175
     1
 42
1.0
 92
        0
 66
   257
 43
1.0
 76
     1
 77
     6
 78
     2
 67
     7
 79
     5
170
     0
171
     0
290
     0
174
     0
 93
       13
 44
0.0
173
     0
291
     1
 45
0.0
1001
ACAD
1000
AcDbSavedByObjectVersion
1070
     0
  0
VISUALSTYLE
  5
C519
102
{ACAD_XDICTIONARY
360
C574
102
}
102
{ACAD_REACTORS
330
C516
102
}
330
C516
100
AcDbVisualStyle
  2
Gouraud
 70
     2
 71
     2
 72
     2
 73
     1
 90
        2
 40
-0.6
 41
30.0
 62
     5
 63
     7
 74
     0
 91
        0
 64
     7
 65
   257
 75
     1
175
     1
 42
1.0
 92
        0
 66
     7
 43
1.0
 76
     1
 77
     6
 78
     2
 67
     7
 79
     5
170
     0
171
     0
290
     0
174
     0
 93
       13
 44
0.0
173
     0
291
     1
 45
0.0
1001
ACAD
1000
AcDbSavedByObjectVersion
1070
     0
  0
VISUALSTYLE
  5
C51A
102
{ACAD_XDICTIONARY
360
C576
102
}
102
{ACAD_REACTORS
330
C516
102
}
330
C516
100
AcDbVisualStyle
  2
GouraudWithEdges
 70
     3
 71
     2
 72
     2
 73
     1
 90
        2
 40
-0.6
 41
30.0
 62
     5
 63
     7
 74
     1
 91
        0
 64
     7
 65
   257
 75
     1
175
     1
 42
1.0
 92
        0
 66
   257
 43
1.0
 76
     1
 77
     6
 78
     2
 67
     7
 79
     5
170
     0
171
     0
290
     0
174
     0
 93
       13
 44
0.0
173
     0
291
     1
 45
0.0
1001
ACAD
1000
AcDbSavedByObjectVersion
1070
     0
  0
VISUALSTYLE
  5
C51E
102
{ACAD_XDICTIONARY
360
C57E
102
}
102
{ACAD_REACTORS
330
C516
102
}
330
C516
100
AcDbVisualStyle
  2
Hidden
 70
     6
 71
     1
 72
     2
 73
     2
 90
        0
 40
-0.6
 41
-30.0
 62
     5
 63
     7
 74
     2
 91
        2
 64
     7
 65
   257
 75
     2
175
     1
 42
40.0
 92
        0
 66
   257
 43
1.0
 76
     1
 77
     6
 78
     2
 67
     7
 79
     3
170
     0
171
     0
290
     0
174
     0
 93
        1
 44
0.0
173
     0
291
     0
 45
0.0
1001
ACAD
1000
AcDbSavedByObjectVersion
1070
     0
  0
VISUALSTYLE
  5
C52C
102
{ACAD_XDICTIONARY
360
C59A
102
}
102
{ACAD_REACTORS
330
C516
102
}
330
C516
100
AcDbVisualStyle
  2
JitterOff
 70
    20
 71
     2
 72
     2
 73
     0
 90
        0
 40
-0.6
 41
-30.0
 62
     5
 63
     7
 74
     1
 91
        4
 64
     7
 65
   257
 75
     1
175
     1
 42
1.0
 92
       10
 66
     7
 43
1.0
 76
     1
 77
     6
 78
     2
 67
     7
 79
     5
170
     0
171
     0
290
     0
174
     0
 93
        1
 44
0.0
173
     0
291
     1
 45
0.0
1001
ACAD
1000
AcDbSavedByObjectVersion
1070
     0
  0
VISUALSTYLE
  5
C524
102
{ACAD_XDICTIONARY
360
C58A
102
}
102
{ACAD_REACTORS
330
C516
102
}
330
C516
100
AcDbVisualStyle
  2
Linepattern
 70
    14
 71
     2
 72
     2
 73
     0
 90
        0
 40
-0.6
 41
-30.0
 62
     5
 63
     7
 74
     1
 91
        4
 64
     7
 65
   257
 75
     7
175
     7
 42
1.0
 92
        8
 66
     7
 43
1.0
 76
     1
 77
     6
 78
     2
 67
     7
 79
     5
170
     0
171
     0
290
     0
174
     0
 93
        1
 44
0.0
173
     0
291
     1
 45
0.0
1001
ACAD
1000
AcDbSavedByObjectVersion
1070
     0
  0
VISUALSTYLE
  5
C52D
102
{ACAD_XDICTIONARY
360
C59C
102
}
102
{ACAD_REACTORS
330
C516
102
}
330
C516
100
AcDbVisualStyle
  2
OverhangOff
 70
    21
 71
     2
 72
     2
 73
     0
 90
        0
 40
-0.6
 41
-30.0
 62
     5
 63
     7
 74
     1
 91
        4
 64
     7
 65
   257
 75
     1
175
     1
 42
1.0
 92
        9
 66
     7
 43
1.0
 76
     1
 77
     6
 78
     2
 67
     7
 79
     5
170
     0
171
     0
290
     0
174
     0
 93
        1
 44
0.0
173
     0
291
     1
 45
0.0
1001
ACAD
1000
AcDbSavedByObjectVersion
1070
     0
  0
VISUALSTYLE
  5
C520
102
{ACAD_XDICTIONARY
360
C582
102
}
102
{ACAD_REACTORS
330
C516
102
}
330
C516
100
AcDbVisualStyle
  2
Realistic
 70
     8
 71
     2
 72
     3
 73
     0
 90
        2
 40
-0.6
 41
30.0
 62
     5
 63
     7
 74
     0
 91
        0
 64
     7
 65
   257
 75
     1
175
     1
 42
1.0
 92
        8
 66
   257
 43
1.0
 76
     1
 77
     6
 78
     2
 67
     7
 79
     3
170
     0
171
     0
290
     0
174
     0
 93
       13
 44
0.0
173
     0
291
     0
 45
0.0
1001
ACAD
1000
AcDbSavedByObjectVersion
1070
     0
  0
VISUALSTYLE
  5
C52B
102
{ACAD_XDICTIONARY
360
C598
102
}
102
{ACAD_REACTORS
330
C516
102
}
330
C516
100
AcDbVisualStyle
  2
Shaded
 70
    27
 71
     2
 72
     2
 73
     1
 90
        2
 40
-0.6
 41
30.0
 62
     5
 63
     7
 74
     0
 91
        4
 64
     7
 65
   257
 75
     1
175
     1
 42
1.0
 92
        8
 66
   257
 43
1.0
 76
     1
 77
     6
 78
     2
 67
     8
 79
     3
170
     0
171
     0
290
     0
174
     0
 93
        5
 44
0.0
173
     0
291
     0
 45
0.0
1001
ACAD
1000
AcDbSavedByObjectVersion
1070
     0
  0
VISUALSTYLE
  5
C52A
102
{ACAD_XDICTIONARY
360
C596
102
}
102
{ACAD_REACTORS
330
C516
102
}
330
C516
100
AcDbVisualStyle
  2
Shaded with edges
 70
    26
 71
     2
 72
     2
 73
     1
 90
        2
 40
-0.6
 41
30.0
 62
     5
 63
     7
 74
     1
 91
       10
 64
     7
 65
   257
 75
     2
175
     1
 42
1.0
 92
        8
 66
   257
 43
1.0
 76
     1
 77
     6
 78
     2
 67
     7
 79
     3
170
     0
171
     0
290
     0
174
     0
 93
        5
 44
0.0
173
     0
291
     0
 45
0.0
1001
ACAD
1000
AcDbSavedByObjectVersion
1070
     0
  0
VISUALSTYLE
  5
C527
102
{ACAD_XDICTIONARY
360
C590
102
}
102
{ACAD_REACTORS
330
C516
102
}
330
C516
100
AcDbVisualStyle
  2
Shades of Gray
 70
    23
 71
     2
 72
     2
 73
     3
 90
        0
 40
-0.6
 41
-30.0
 62
     5
 63
     7
 74
     2
 91
        2
 64
     7
 65
     7
 75
     1
175
     1
 42
40.0
 92
        8
 66
     7
 43
1.0
 76
     1
 77
     6
 78
     2
 67
     7
 79
     3
170
     0
171
     0
290
     0
174
     0
 93
        1
 44
0.0
173
     0
291
     0
 45
0.0
1001
ACAD
1000
AcDbSavedByObjectVersion
1070
     0
  0
VISUALSTYLE
  5
C528
102
{ACAD_XDICTIONARY
360
C592
102
}
102
{ACAD_REACTORS
330
C516
102
}
330
C516
100
AcDbVisualStyle
  2
Sketchy
 70
    24
 71
     1
 72
     2
 73
     2
 90
        0
 40
-0.6
 41
-30.0
 62
     5
 63
     7
 74
     2
 91
        2
 64
     7
 65
     7
 75
     1
175
     1
 42
40.0
 92
       11
 66
     7
 43
1.0
 76
     1
 77
     6
 78
     2
 67
     7
 79
     6
170
     0
171
     0
290
     0
174
     0
 93
        1
 44
0.0
173
     0
291
     0
 45
0.0
1001
ACAD
1000
AcDbSavedByObjectVersion
1070
     0
  0
VISUALSTYLE
  5
C523
102
{ACAD_XDICTIONARY
360
C588
102
}
102
{ACAD_REACTORS
330
C516
102
}
330
C516
100
AcDbVisualStyle
  2
Thicken
 70
    13
 71
     2
 72
     2
 73
     0
 90
        0
 40
-0.6
 41
-30.0
 62
     5
 63
     7
 74
     1
 91
        4
 64
     7
 65
   257
 75
     1
175
     1
 42
1.0
 92
       12
 66
     7
 43
1.0
 76
     1
 77
     6
 78
     2
 67
     7
 79
     5
170
     0
171
     0
290
     0
174
     0
 93
        1
 44
0.0
173
     0
291
     1
 45
0.0
1001
ACAD
1000
AcDbSavedByObjectVersion
1070
     0
  0
VISUALSTYLE
  5
C51D
102
{ACAD_XDICTIONARY
360
C57C
102
}
102
{ACAD_REACTORS
330
C516
102
}
330
C516
100
AcDbVisualStyle
  2
Wireframe
 70
     5
 71
     0
 72
     2
 73
     0
 90
        0
 40
-0.6
 41
-30.0
 62
     5
 63
     7
 74
     1
 91
        4
 64
     7
 65
   257
 75
     1
175
     1
 42
1.0
 92
        0
 66
   257
 43
1.0
 76
     1
 77
     6
 78
     2
 67
     7
 79
     3
170
     0
171
     0
290
     0
174
     0
 93
        1
 44
0.0
173
     0
291
     0
 45
0.0
1001
ACAD
1000
AcDbSavedByObjectVersion
1070
     0
  0
VISUALSTYLE
  5
C529
102
{ACAD_XDICTIONARY
360
C594
102
}
102
{ACAD_REACTORS
330
C516
102
}
330
C516
100
AcDbVisualStyle
  2
X-Ray
 70
    25
 71
     2
 72
     2
 73
     1
 90
        1
 40
0.5
 41
-30.0
 62
     5
 63
     7
 74
     1
 91
        0
 64
     7
 65
   257
 75
     1
175
     1
 42
1.0
 92
        8
 66
     7
 43
1.0
 76
     1
 77
     6
 78
     2
 67
     7
 79
     3
170
     0
171
     0
290
     0
174
     0
 93
       13
 44
0.0
173
     0
291
     0
 45
0.0
1001
ACAD
1000
AcDbSavedByObjectVersion
1070
     0
  0
DICTIONARYVAR
  5
C563
102
{ACAD_REACTORS
330
C55E
102
}
330
C55E
100
DictionaryVariables
280
     0
  1
1:1
  0
DICTIONARYVAR
  5
C560
102
{ACAD_REACTORS
330
C55E
102
}
330
C55E
100
DictionaryVariables
280
     0
  1
STANDARD
  0
DICTIONARYVAR
  5
C55F
102
{ACAD_REACTORS
330
C55E
102
}
330
C55E
100
DictionaryVariables
280
     0
  1
STANDARD
  0
DICTIONARYVAR
  5
C561
102
{ACAD_REACTORS
330
C55E
102
}
330
C55E
100
DictionaryVariables
280
     0
  1
Imperial24
  0
DICTIONARYVAR
  5
C562
102
{ACAD_REACTORS
330
C55E
102
}
330
C55E
100
DictionaryVariables
280
     0
  1
Imperial24
  0
DICTIONARYVAR
  5
C566
102
{ACAD_REACTORS
330
C55E
102
}
330
C55E
100
DictionaryVariables
280
     0
  1
1
  0
DICTIONARYVAR
  5
C565
102
{ACAD_REACTORS
330
C55E
102
}
330
C55E
100
DictionaryVariables
280
     0
  1
0
  0
DICTIONARYVAR
  5
C564
102
{ACAD_REACTORS
330
C55E
102
}
330
C55E
100
DictionaryVariables
280
     0
  1
127
  0
DICTIONARYVAR
  5
C567
102
{ACAD_REACTORS
330
C55E
102
}
330
C55E
100
DictionaryVariables
280
     0
  1
2
  0
DICTIONARY
  5
C5A4
330
C549
100
AcDbDictionary
280
     1
281
     1
  3
ACAD_XREC_ROUNDTRIP
360
C5A5
  0
DICTIONARY
  5
C5A6
330
C54A
100
AcDbDictionary
280
     1
281
     1
  3
ACAD_XREC_ROUNDTRIP
360
C5A7
  0
DICTIONARY
  5
C5A8
330
C54B
100
AcDbDictionary
280
     1
281
     1
  3
ACAD_XREC_ROUNDTRIP
360
C5A9
  0
DICTIONARY
  5
C507
330
C506
100
AcDbDictionary
280
     1
281
     1
  3
ACAD_XREC_ROUNDTRIP
360
C56E
  3
BUMPTILE
360
C509
  3
DIFFUSETILE
360
C508
  3
OPACITYTILE
360
C50C
  3
REFLECTIONTILE
360
C50B
  3
REFRACTIONTILE
360
C50D
  3
SPECULARTILE
360
C50A
  0
DICTIONARY
  5
C4FF
330
C4FE
100
AcDbDictionary
280
     1
281
     1
  3
ACAD_XREC_ROUNDTRIP
360
C56D
  3
BUMPTILE
360
C501
  3
DIFFUSETILE
360
C500
  3
OPACITYTILE
360
C504
  3
REFLECTIONTILE
360
C503
  3
REFRACTIONTILE
360
C505
  3
SPECULARTILE
360
C502
  0
DICTIONARY
  5
C50F
330
C50E
100
AcDbDictionary
280
     1
281
     1
  3
ACAD_XREC_ROUNDTRIP
360
C56F
  3
BUMPTILE
360
C511
  3
DIFFUSETILE
360
C510
  3
OPACITYTILE
360
C514
  3
REFLECTIONTILE
360
C513
  3
REFRACTIONTILE
360
C515
  3
SPECULARTILE
360
C512
  0
DICTIONARY
  5
C5A2
330
C547
100
AcDbDictionary
280
     1
281
     1
  3
ACAD_XREC_ROUNDTRIP
360
C5A3
  0
DICTIONARY
  5
C569
330
C531
100
AcDbDictionary
280
     1
281
     1
  3
ACAD_ROUNDTRIP_2008_TABLESTYLE_CELLSTYLEMAP
360
C56A
  3
ACAD_XREC_ROUNDTRIP
360
C5A0
  0
DICTIONARY
  5
C57A
330
C51C
100
AcDbDictionary
280
     1
281
     1
  3
ACAD_XREC_ROUNDTRIP
360
C57B
  0
DICTIONARY
  5
C578
330
C51B
100
AcDbDictionary
280
     1
281
     1
  3
ACAD_XREC_ROUNDTRIP
360
C579
  0
DICTIONARY
  5
C586
330
C522
100
AcDbDictionary
280
     1
281
     1
  3
ACAD_XREC_ROUNDTRIP
360
C587
  0
DICTIONARY
  5
C58E
330
C526
100
AcDbDictionary
280
     1
281
     1
  3
ACAD_XREC_ROUNDTRIP
360
C58F
  0
DICTIONARY
  5
C580
330
C51F
100
AcDbDictionary
280
     1
281
     1
  3
ACAD_XREC_ROUNDTRIP
360
C581
  0
DICTIONARY
  5
C584
330
C521
100
AcDbDictionary
280
     1
281
     1
  3
ACAD_XREC_ROUNDTRIP
360
C585
  0
DICTIONARY
  5
C59E
330
C52E
100
AcDbDictionary
280
     1
281
     1
  3
ACAD_XREC_ROUNDTRIP
360
C59F
  0
DICTIONARY
  5
C58C
330
C525
100
AcDbDictionary
280
     1
281
     1
  3
ACAD_XREC_ROUNDTRIP
360
C58D
  0
DICTIONARY
  5
C570
330
C517
100
AcDbDictionary
280
     1
281
     1
  3
ACAD_XREC_ROUNDTRIP
360
C571
  0
DICTIONARY
  5
C572
330
C518
100
AcDbDictionary
280
     1
281
     1
  3
ACAD_XREC_ROUNDTRIP
360
C573
  0
DICTIONARY
  5
C574
330
C519
100
AcDbDictionary
280
     1
281
     1
  3
ACAD_XREC_ROUNDTRIP
360
C575
  0
DICTIONARY
  5
C576
330
C51A
100
AcDbDictionary
280
     1
281
     1
  3
ACAD_XREC_ROUNDTRIP
360
C577
  0
DICTIONARY
  5
C57E
330
C51E
100
AcDbDictionary
280
     1
281
     1
  3
ACAD_XREC_ROUNDTRIP
360
C57F
  0
DICTIONARY
  5
C59A
330
C52C
100
AcDbDictionary
280
     1
281
     1
  3
ACAD_XREC_ROUNDTRIP
360
C59B
  0
DICTIONARY
  5
C58A
330
C524
100
AcDbDictionary
280
     1
281
     1
  3
ACAD_XREC_ROUNDTRIP
360
C58B
  0
DICTIONARY
  5
C59C
330
C52D
100
AcDbDictionary
280
     1
281
     1
  3
ACAD_XREC_ROUNDTRIP
360
C59D
  0
DICTIONARY
  5
C582
330
C520
100
AcDbDictionary
280
     1
281
     1
  3
ACAD_XREC_ROUNDTRIP
360
C583
  0
DICTIONARY
  5
C598
330
C52B
100
AcDbDictionary
280
     1
281
     1
  3
ACAD_XREC_ROUNDTRIP
360
C599
  0
DICTIONARY
  5
C596
330
C52A
100
AcDbDictionary
280
     1
281
     1
  3
ACAD_XREC_ROUNDTRIP
360
C597
  0
DICTIONARY
  5
C590
330
C527
100
AcDbDictionary
280
     1
281
     1
  3
ACAD_XREC_ROUNDTRIP
360
C591
  0
DICTIONARY
  5
C592
330
C528
100
AcDbDictionary
280
     1
281
     1
  3
ACAD_XREC_ROUNDTRIP
360
C593
  0
DICTIONARY
  5
C588
330
C523
100
AcDbDictionary
280
     1
281
     1
  3
ACAD_XREC_ROUNDTRIP
360
C589
  0
DICTIONARY
  5
C57C
330
C51D
100
AcDbDictionary
280
     1
281
     1
  3
ACAD_XREC_ROUNDTRIP
360
C57D
  0
DICTIONARY
  5
C594
330
C529
100
AcDbDictionary
280
     1
281
     1
  3
ACAD_XREC_ROUNDTRIP
360
C595
  0
XRECORD
  5
C5A5
102
{ACAD_REACTORS
330
C5A4
102
}
330
C5A4
100
AcDbXrecord
280
     1
102
DISPLAYNAME
  1
Imperial24
102
FLAGS
 90
        0
  0
XRECORD
  5
C5A7
102
{ACAD_REACTORS
330
C5A6
102
}
330
C5A6
100
AcDbXrecord
280
     1
102
SHADEPLOT
 70
     0
102
SHADEPLOTRESLEVEL
 70
     2
102
SHADEPLOTCUSTOMDPI
 70
   300
  0
XRECORD
  5
C5A9
102
{ACAD_REACTORS
330
C5A8
102
}
330
C5A8
100
AcDbXrecord
280
     1
102
SHADEPLOT
 70
     0
102
SHADEPLOTRESLEVEL
 70
     2
102
SHADEPLOTCUSTOMDPI
 70
   300
  0
XRECORD
  5
C56E
102
{ACAD_REACTORS
330
C507
102
}
330
C507
100
AcDbXrecord
280
     1
102
MATERIAL
148
0.0
149
0.0
149
0.0
 93
        0
 94
      127
282
     0
 72
     0
 77
     0
171
     0
175
     0
179
     0
273
     0
  0
XRECORD
  5
C509
102
{ACAD_REACTORS
330
C507
102
}
330
C507
100
AcDbXrecord
280
     1
270
     1
271
     1
  0
XRECORD
  5
C508
102
{ACAD_REACTORS
330
C507
102
}
330
C507
100
AcDbXrecord
280
     1
270
     1
271
     1
  0
XRECORD
  5
C50C
102
{ACAD_REACTORS
330
C507
102
}
330
C507
100
AcDbXrecord
280
     1
270
     1
271
     1
  0
XRECORD
  5
C50B
102
{ACAD_REACTORS
330
C507
102
}
330
C507
100
AcDbXrecord
280
     1
270
     1
271
     1
  0
XRECORD
  5
C50D
102
{ACAD_REACTORS
330
C507
102
}
330
C507
100
AcDbXrecord
280
     1
270
     1
271
     1
  0
XRECORD
  5
C50A
102
{ACAD_REACTORS
330
C507
102
}
330
C507
100
AcDbXrecord
280
     1
270
     1
271
     1
  0
XRECORD
  5
C56D
102
{ACAD_REACTORS
330
C4FF
102
}
330
C4FF
100
AcDbXrecord
280
     1
102
MATERIAL
148
0.0
149
0.0
149
0.0
 93
        0
 94
      127
282
     0
 72
     0
 77
     0
171
     0
175
     0
179
     0
273
     0
  0
XRECORD
  5
C501
102
{ACAD_REACTORS
330
C4FF
102
}
330
C4FF
100
AcDbXrecord
280
     1
270
     1
271
     1
  0
XRECORD
  5
C500
102
{ACAD_REACTORS
330
C4FF
102
}
330
C4FF
100
AcDbXrecord
280
     1
270
     1
271
     1
  0
XRECORD
  5
C504
102
{ACAD_REACTORS
330
C4FF
102
}
330
C4FF
100
AcDbXrecord
280
     1
270
     1
271
     1
  0
XRECORD
  5
C503
102
{ACAD_REACTORS
330
C4FF
102
}
330
C4FF
100
AcDbXrecord
280
     1
270
     1
271
     1
  0
XRECORD
  5
C505
102
{ACAD_REACTORS
330
C4FF
102
}
330
C4FF
100
AcDbXrecord
280
     1
270
     1
271
     1
  0
XRECORD
  5
C502
102
{ACAD_REACTORS
330
C4FF
102
}
330
C4FF
100
AcDbXrecord
280
     1
270
     1
271
     1
  0
XRECORD
  5
C56F
102
{ACAD_REACTORS
330
C50F
102
}
330
C50F
100
AcDbXrecord
280
     1
102
MATERIAL
148
0.0
149
0.0
149
0.0
 93
        0
 94
      127
282
     0
 72
     0
 77
     0
171
     0
175
     0
179
     0
273
     0
  0
XRECORD
  5
C511
102
{ACAD_REACTORS
330
C50F
102
}
330
C50F
100
AcDbXrecord
280
     1
270
     1
271
     1
  0
XRECORD
  5
C510
102
{ACAD_REACTORS
330
C50F
102
}
330
C50F
100
AcDbXrecord
280
     1
270
     1
271
     1
  0
XRECORD
  5
C514
102
{ACAD_REACTORS
330
C50F
102
}
330
C50F
100
AcDbXrecord
280
     1
270
     1
271
     1
  0
XRECORD
  5
C513
102
{ACAD_REACTORS
330
C50F
102
}
330
C50F
100
AcDbXrecord
280
     1
270
     1
271
     1
  0
XRECORD
  5
C515
102
{ACAD_REACTORS
330
C50F
102
}
330
C50F
100
AcDbXrecord
280
     1
270
     1
271
     1
  0
XRECORD
  5
C512
102
{ACAD_REACTORS
330
C50F
102
}
330
C50F
100
AcDbXrecord
280
     1
270
     1
271
     1
  0
XRECORD
  5
C5A3
102
{ACAD_REACTORS
330
C5A2
102
}
330
C5A2
100
AcDbXrecord
280
     1
102
DISPLAYNAME
  1
Imperial24
102
FLAGS
 90
        0
  0
CELLSTYLEMAP
  5
C56A
102
{ACAD_REACTORS
330
C569
102
}
330
C569
100
AcDbCellStyleMap
 90
        3
300
CELLSTYLE
  1
TABLEFORMAT_BEGIN
 90
        5
170
     1
 91
        0
 92
    32768
 62
   257
 93
        1
300
CONTENTFORMAT
  1
CONTENTFORMAT_BEGIN
 90
        0
 91
        0
 92
      512
 93
        0
300

 40
0.0
140
1.0
 94
        5
 62
     0
340
C13B
144
0.25
309
CONTENTFORMAT_END
171
     0
 94
        0
309
TABLEFORMAT_END
  1
CELLSTYLE_BEGIN
 90
        1
 91
        1
300
_TITLE
309
CELLSTYLE_END
300
CELLSTYLE
  1
TABLEFORMAT_BEGIN
 90
        5
170
     1
 91
        0
 92
        0
 62
   257
 93
        1
300
CONTENTFORMAT
  1
CONTENTFORMAT_BEGIN
 90
        0
 91
        0
 92
      512
 93
        0
300

 40
0.0
140
1.0
 94
        5
 62
     0
340
C13B
144
0.18
309
CONTENTFORMAT_END
171
     0
 94
        0
309
TABLEFORMAT_END
  1
CELLSTYLE_BEGIN
 90
        2
 91
        1
300
_HEADER
309
CELLSTYLE_END
300
CELLSTYLE
  1
TABLEFORMAT_BEGIN
 90
        5
170
     1
 91
        0
 92
        0
 62
   257
 93
        1
300
CONTENTFORMAT
  1
CONTENTFORMAT_BEGIN
 90
        0
 91
        0
 92
      512
 93
        0
300

 40
0.0
140
1.0
 94
        2
 62
     0
340
C13B
144
0.18
309
CONTENTFORMAT_END
171
     0
 94
        0
309
TABLEFORMAT_END
  1
CELLSTYLE_BEGIN
 90
        3
 91
        2
300
_DATA
309
CELLSTYLE_END
  0
XRECORD
  5
C5A0
102
{ACAD_REACTORS
330
C569
102
}
330
C569
100
AcDbXrecord
280
     1
102
ACAD_ROUNDTRIP_PRE2007_TABLESTYLE
 90
      512
 91
        0
  1

 92
      512
 93
        0
  2

 94
      512
 95
        0
  3

  0
XRECORD
  5
C57B
102
{ACAD_REACTORS
330
C57A
102
}
330
C57A
100
AcDbXrecord
280
     1
102
RTVSPost2010Prop28
280
     1
102
RTVSPost2010PropOp28
 70
     1
102
RTVSPost2010Prop29
280
     1
102
RTVSPost2010PropOp29
 70
     1
102
RTVSPost2010Prop30
280
     0
102
RTVSPost2010PropOp30
 70
     1
102
RTVSPost2010Prop31
280
     0
102
RTVSPost2010PropOp31
 70
     1
102
RTVSPost2010Prop32
280
     0
102
RTVSPost2010PropOp32
 70
     1
102
RTVSPost2010Prop33
280
     0
102
RTVSPost2010PropOp33
 70
     1
102
RTVSPost2010Prop34
280
     0
102
RTVSPost2010PropOp34
 70
     1
102
RTVSPost2010Prop35
280
     0
102
RTVSPost2010PropOp35
 70
     1
102
RTVSPost2010Prop36
280
     0
102
RTVSPost2010PropOp36
 70
     1
102
RTVSPost2010Prop37
 90
       50
102
RTVSPost2010PropOp37
 70
     1
102
RTVSPost2010Prop38
140
0.0
102
RTVSPost2010PropOp38
 70
     1
102
RTVSPost2010Prop39
140
1.0
102
RTVSPost2010PropOp39
 70
     1
102
RTVSPost2010Prop40
 90
        0
102
RTVSPost2010PropOp40
 70
     1
102
RTVSPost2010Prop41ColorIndex
 90
       18
102
RTVSPost2010Prop41ColorRGB
 90
        0
102
RTVSPost2010PropOp41
 70
     1
102
RTVSPost2010Prop42
 90
       50
102
RTVSPost2010PropOp42
 70
     1
102
RTVSPost2010Prop43
 90
        3
102
RTVSPost2010PropOp43
 70
     1
102
RTVSPost2010Prop44ColorIndex
 90
        5
102
RTVSPost2010Prop44ColorRGB
 90
      255
102
RTVSPost2010PropOp44
 70
     1
102
RTVSPost2010Prop45
280
     0
102
RTVSPost2010PropOp45
 70
     1
102
RTVSPost2010Prop46
 90
       50
102
RTVSPost2010PropOp46
 70
     1
102
RTVSPost2010Prop47
 90
       50
102
RTVSPost2010PropOp47
 70
     1
102
RTVSPost2010Prop48
 90
       50
102
RTVSPost2010PropOp48
 70
     1
102
RTVSPost2010Prop49
280
     0
102
RTVSPost2010PropOp49
 70
     1
102
RTVSPost2010Prop50
 90
       50
102
RTVSPost2010PropOp50
 70
     1
102
RTVSPost2010Prop51ColorIndex
 90
      256
102
RTVSPost2010Prop51ColorRGB
 90
-16777216
102
RTVSPost2010PropOp51
 70
     0
102
RTVSPost2010Prop52
140
1.0
102
RTVSPost2010PropOp52
 70
     0
102
RTVSPost2010Prop53
 90
        2
102
RTVSPost2010PropOp53
 70
     1
102
RTVSPost2010Prop54
  1
strokes_ogs.tif
102
RTVSPost2010PropOp54
 70
     1
102
RTVSPost2010Prop55
280
     0
102
RTVSPost2010PropOp55
 70
     1
102
RTVSPost2010Prop56
140
1.0
102
RTVSPost2010PropOp56
 70
     1
102
RTVSPost2010Prop57
140
1.0
102
RTVSPost2010PropOp57
 70
     1
102
RTVSPropertyOp0
 70
     1
102
RTVSPropertyOp1
 70
     1
102
RTVSPropertyOp2
 70
     1
102
RTVSPropertyOp3
 70
     1
102
RTVSPropertyOp4
 70
     1
102
RTVSPropertyOp5
 70
     1
102
RTVSPropertyOp6
 70
     1
102
RTVSPropertyOp7
 70
     1
102
RTVSPropertyOp8
 70
     1
102
RTVSPropertyOp9
 70
     1
102
RTVSPropertyOp10
 70
     1
102
RTVSPropertyOp11
 70
     1
102
RTVSPropertyOp12
 70
     1
102
RTVSPropertyOp13
 70
     1
102
RTVSPropertyOp14
 70
     1
102
RTVSPropertyOp15
 70
     1
102
RTVSPropertyOp16
 70
     1
102
RTVSPropertyOp17
 70
     1
102
RTVSPropertyOp18
 70
     1
102
RTVSPropertyOp19
 70
     1
102
RTVSPropertyOp20
 70
     1
102
RTVSPropertyOp21
 70
     1
102
RTVSPropertyOp22
 70
     1
102
RTVSPropertyOp23
 70
     1
102
RTVSPropertyOp24
 70
     1
102
RTVSPropertyOp25
 70
     1
102
RTVSPropertyOp26
 70
     1
102
RTVSPropertyOp27
 70
     1
102
RTVSPropertyOp28
 70
     1
102
RTVSPropertyOp29
 70
     1
102
RTVSPropertyOp30
 70
     1
102
RTVSPropertyOp31
 70
     1
102
RTVSPropertyOp32
 70
     1
102
RTVSPropertyOp33
 70
     1
102
RTVSPropertyOp34
 70
     1
102
RTVSPropertyOp35
 70
     1
102
RTVSPropertyOp36
 70
     1
102
RTVSPropertyOp37
 70
     1
102
RTVSPropertyOp38
 70
     1
102
RTVSPropertyOp39
 70
     1
102
RTVSPropertyOp40
 70
     1
102
RTVSPropertyOp41
 70
     1
102
RTVSPropertyOp42
 70
     1
102
RTVSPropertyOp43
 70
     1
102
RTVSPropertyOp44
 70
     1
102
RTVSPropertyOp45
 70
     1
102
RTVSPropertyOp46
 70
     1
102
RTVSPropertyOp47
 70
     1
102
RTVSPropertyOp48
 70
     1
102
RTVSPropertyOp49
 70
     1
102
RTVSPropertyOp50
 70
     1
102
RTVSPropertyOp51
 70
     0
102
RTVSPropertyOp52
 70
     0
102
RTVSPropertyOp53
 70
     1
102
RTVSPropertyOp54
 70
     1
102
RTVSPropertyOp55
 70
     1
102
RTVSPropertyOp56
 70
     1
102
RTVSPropertyOp57
 70
     1
102
RTVSPropertyOp58
 70
     1
102
RTVSPropertyOp59
 70
     1
102
RTVSPropertyOp60
 70
     1
102
RTVSPropertyOp61
 70
     1
102
RTVSPropertyOp62
 70
     1
  0
XRECORD
  5
C579
102
{ACAD_REACTORS
330
C578
102
}
330
C578
100
AcDbXrecord
280
     1
102
RTVSPost2010Prop28
280
     0
102
RTVSPost2010PropOp28
 70
     1
102
RTVSPost2010Prop29
280
     1
102
RTVSPost2010PropOp29
 70
     1
102
RTVSPost2010Prop30
280
     1
102
RTVSPost2010PropOp30
 70
     1
102
RTVSPost2010Prop31
280
     0
102
RTVSPost2010PropOp31
 70
     1
102
RTVSPost2010Prop32
280
     0
102
RTVSPost2010PropOp32
 70
     1
102
RTVSPost2010Prop33
280
     0
102
RTVSPost2010PropOp33
 70
     1
102
RTVSPost2010Prop34
280
     0
102
RTVSPost2010PropOp34
 70
     1
102
RTVSPost2010Prop35
280
     0
102
RTVSPost2010PropOp35
 70
     1
102
RTVSPost2010Prop36
280
     0
102
RTVSPost2010PropOp36
 70
     1
102
RTVSPost2010Prop37
 90
       50
102
RTVSPost2010PropOp37
 70
     1
102
RTVSPost2010Prop38
140
0.0
102
RTVSPost2010PropOp38
 70
     1
102
RTVSPost2010Prop39
140
1.0
102
RTVSPost2010PropOp39
 70
     1
102
RTVSPost2010Prop40
 90
        0
102
RTVSPost2010PropOp40
 70
     1
102
RTVSPost2010Prop41ColorIndex
 90
       18
102
RTVSPost2010Prop41ColorRGB
 90
        0
102
RTVSPost2010PropOp41
 70
     1
102
RTVSPost2010Prop42
 90
       50
102
RTVSPost2010PropOp42
 70
     1
102
RTVSPost2010Prop43
 90
        3
102
RTVSPost2010PropOp43
 70
     1
102
RTVSPost2010Prop44ColorIndex
 90
        5
102
RTVSPost2010Prop44ColorRGB
 90
      255
102
RTVSPost2010PropOp44
 70
     1
102
RTVSPost2010Prop45
280
     0
102
RTVSPost2010PropOp45
 70
     1
102
RTVSPost2010Prop46
 90
       50
102
RTVSPost2010PropOp46
 70
     1
102
RTVSPost2010Prop47
 90
       50
102
RTVSPost2010PropOp47
 70
     1
102
RTVSPost2010Prop48
 90
       50
102
RTVSPost2010PropOp48
 70
     1
102
RTVSPost2010Prop49
280
     0
102
RTVSPost2010PropOp49
 70
     1
102
RTVSPost2010Prop50
 90
       50
102
RTVSPost2010PropOp50
 70
     1
102
RTVSPost2010Prop51ColorIndex
 90
      256
102
RTVSPost2010Prop51ColorRGB
 90
-16777216
102
RTVSPost2010PropOp51
 70
     0
102
RTVSPost2010Prop52
140
1.0
102
RTVSPost2010PropOp52
 70
     0
102
RTVSPost2010Prop53
 90
        2
102
RTVSPost2010PropOp53
 70
     1
102
RTVSPost2010Prop54
  1
strokes_ogs.tif
102
RTVSPost2010PropOp54
 70
     1
102
RTVSPost2010Prop55
280
     0
102
RTVSPost2010PropOp55
 70
     1
102
RTVSPost2010Prop56
140
1.0
102
RTVSPost2010PropOp56
 70
     1
102
RTVSPost2010Prop57
140
1.0
102
RTVSPost2010PropOp57
 70
     1
102
RTVSPropertyOp0
 70
     1
102
RTVSPropertyOp1
 70
     1
102
RTVSPropertyOp2
 70
     1
102
RTVSPropertyOp3
 70
     1
102
RTVSPropertyOp4
 70
     1
102
RTVSPropertyOp5
 70
     1
102
RTVSPropertyOp6
 70
     1
102
RTVSPropertyOp7
 70
     1
102
RTVSPropertyOp8
 70
     1
102
RTVSPropertyOp9
 70
     1
102
RTVSPropertyOp10
 70
     1
102
RTVSPropertyOp11
 70
     1
102
RTVSPropertyOp12
 70
     1
102
RTVSPropertyOp13
 70
     1
102
RTVSPropertyOp14
 70
     1
102
RTVSPropertyOp15
 70
     1
102
RTVSPropertyOp16
 70
     1
102
RTVSPropertyOp17
 70
     1
102
RTVSPropertyOp18
 70
     1
102
RTVSPropertyOp19
 70
     1
102
RTVSPropertyOp20
 70
     1
102
RTVSPropertyOp21
 70
     1
102
RTVSPropertyOp22
 70
     1
102
RTVSPropertyOp23
 70
     1
102
RTVSPropertyOp24
 70
     1
102
RTVSPropertyOp25
 70
     1
102
RTVSPropertyOp26
 70
     1
102
RTVSPropertyOp27
 70
     1
102
RTVSPropertyOp28
 70
     1
102
RTVSPropertyOp29
 70
     1
102
RTVSPropertyOp30
 70
     1
102
RTVSPropertyOp31
 70
     1
102
RTVSPropertyOp32
 70
     1
102
RTVSPropertyOp33
 70
     1
102
RTVSPropertyOp34
 70
     1
102
RTVSPropertyOp35
 70
     1
102
RTVSPropertyOp36
 70
     1
102
RTVSPropertyOp37
 70
     1
102
RTVSPropertyOp38
 70
     1
102
RTVSPropertyOp39
 70
     1
102
RTVSPropertyOp40
 70
     1
102
RTVSPropertyOp41
 70
     1
102
RTVSPropertyOp42
 70
     1
102
RTVSPropertyOp43
 70
     1
102
RTVSPropertyOp44
 70
     1
102
RTVSPropertyOp45
 70
     1
102
RTVSPropertyOp46
 70
     1
102
RTVSPropertyOp47
 70
     1
102
RTVSPropertyOp48
 70
     1
102
RTVSPropertyOp49
 70
     1
102
RTVSPropertyOp50
 70
     1
102
RTVSPropertyOp51
 70
     0
102
RTVSPropertyOp52
 70
     0
102
RTVSPropertyOp53
 70
     1
102
RTVSPropertyOp54
 70
     1
102
RTVSPropertyOp55
 70
     1
102
RTVSPropertyOp56
 70
     1
102
RTVSPropertyOp57
 70
     1
102
RTVSPropertyOp58
 70
     1
102
RTVSPropertyOp59
 70
     1
102
RTVSPropertyOp60
 70
     1
102
RTVSPropertyOp61
 70
     1
102
RTVSPropertyOp62
 70
     1
  0
XRECORD
  5
C587
102
{ACAD_REACTORS
330
C586
102
}
330
C586
100
AcDbXrecord
280
     1
102
RTVSPost2010Prop28
280
     0
102
RTVSPost2010PropOp28
 70
     1
102
RTVSPost2010Prop29
280
     1
102
RTVSPost2010PropOp29
 70
     1
102
RTVSPost2010Prop30
280
     1
102
RTVSPost2010PropOp30
 70
     1
102
RTVSPost2010Prop31
280
     0
102
RTVSPost2010PropOp31
 70
     1
102
RTVSPost2010Prop32
280
     0
102
RTVSPost2010PropOp32
 70
     1
102
RTVSPost2010Prop33
280
     0
102
RTVSPost2010PropOp33
 70
     1
102
RTVSPost2010Prop34
280
     0
102
RTVSPost2010PropOp34
 70
     1
102
RTVSPost2010Prop35
280
     0
102
RTVSPost2010PropOp35
 70
     1
102
RTVSPost2010Prop36
280
     0
102
RTVSPost2010PropOp36
 70
     1
102
RTVSPost2010Prop37
 90
       50
102
RTVSPost2010PropOp37
 70
     1
102
RTVSPost2010Prop38
140
0.0
102
RTVSPost2010PropOp38
 70
     1
102
RTVSPost2010Prop39
140
1.0
102
RTVSPost2010PropOp39
 70
     1
102
RTVSPost2010Prop40
 90
        0
102
RTVSPost2010PropOp40
 70
     1
102
RTVSPost2010Prop41ColorIndex
 90
       18
102
RTVSPost2010Prop41ColorRGB
 90
        0
102
RTVSPost2010PropOp41
 70
     1
102
RTVSPost2010Prop42
 90
       50
102
RTVSPost2010PropOp42
 70
     1
102
RTVSPost2010Prop43
 90
        3
102
RTVSPost2010PropOp43
 70
     1
102
RTVSPost2010Prop44ColorIndex
 90
        5
102
RTVSPost2010Prop44ColorRGB
 90
      255
102
RTVSPost2010PropOp44
 70
     1
102
RTVSPost2010Prop45
280
     0
102
RTVSPost2010PropOp45
 70
     1
102
RTVSPost2010Prop46
 90
       50
102
RTVSPost2010PropOp46
 70
     1
102
RTVSPost2010Prop47
 90
       50
102
RTVSPost2010PropOp47
 70
     1
102
RTVSPost2010Prop48
 90
       50
102
RTVSPost2010PropOp48
 70
     1
102
RTVSPost2010Prop49
280
     0
102
RTVSPost2010PropOp49
 70
     1
102
RTVSPost2010Prop50
 90
       50
102
RTVSPost2010PropOp50
 70
     1
102
RTVSPost2010Prop51ColorIndex
 90
      256
102
RTVSPost2010Prop51ColorRGB
 90
-16777216
102
RTVSPost2010PropOp51
 70
     0
102
RTVSPost2010Prop52
140
1.0
102
RTVSPost2010PropOp52
 70
     0
102
RTVSPost2010Prop53
 90
        2
102
RTVSPost2010PropOp53
 70
     1
102
RTVSPost2010Prop54
  1
strokes_ogs.tif
102
RTVSPost2010PropOp54
 70
     1
102
RTVSPost2010Prop55
280
     0
102
RTVSPost2010PropOp55
 70
     1
102
RTVSPost2010Prop56
140
1.0
102
RTVSPost2010PropOp56
 70
     1
102
RTVSPost2010Prop57
140
1.0
102
RTVSPost2010PropOp57
 70
     1
102
RTVSPropertyOp0
 70
     1
102
RTVSPropertyOp1
 70
     1
102
RTVSPropertyOp2
 70
     1
102
RTVSPropertyOp3
 70
     1
102
RTVSPropertyOp4
 70
     1
102
RTVSPropertyOp5
 70
     1
102
RTVSPropertyOp6
 70
     1
102
RTVSPropertyOp7
 70
     1
102
RTVSPropertyOp8
 70
     1
102
RTVSPropertyOp9
 70
     1
102
RTVSPropertyOp10
 70
     1
102
RTVSPropertyOp11
 70
     1
102
RTVSPropertyOp12
 70
     1
102
RTVSPropertyOp13
 70
     1
102
RTVSPropertyOp14
 70
     1
102
RTVSPropertyOp15
 70
     1
102
RTVSPropertyOp16
 70
     1
102
RTVSPropertyOp17
 70
     1
102
RTVSPropertyOp18
 70
     1
102
RTVSPropertyOp19
 70
     1
102
RTVSPropertyOp20
 70
     1
102
RTVSPropertyOp21
 70
     1
102
RTVSPropertyOp22
 70
     1
102
RTVSPropertyOp23
 70
     1
102
RTVSPropertyOp24
 70
     1
102
RTVSPropertyOp25
 70
     1
102
RTVSPropertyOp26
 70
     1
102
RTVSPropertyOp27
 70
     1
102
RTVSPropertyOp28
 70
     1
102
RTVSPropertyOp29
 70
     1
102
RTVSPropertyOp30
 70
     1
102
RTVSPropertyOp31
 70
     1
102
RTVSPropertyOp32
 70
     1
102
RTVSPropertyOp33
 70
     1
102
RTVSPropertyOp34
 70
     1
102
RTVSPropertyOp35
 70
     1
102
RTVSPropertyOp36
 70
     1
102
RTVSPropertyOp37
 70
     1
102
RTVSPropertyOp38
 70
     1
102
RTVSPropertyOp39
 70
     1
102
RTVSPropertyOp40
 70
     1
102
RTVSPropertyOp41
 70
     1
102
RTVSPropertyOp42
 70
     1
102
RTVSPropertyOp43
 70
     1
102
RTVSPropertyOp44
 70
     1
102
RTVSPropertyOp45
 70
     1
102
RTVSPropertyOp46
 70
     1
102
RTVSPropertyOp47
 70
     1
102
RTVSPropertyOp48
 70
     1
102
RTVSPropertyOp49
 70
     1
102
RTVSPropertyOp50
 70
     1
102
RTVSPropertyOp51
 70
     0
102
RTVSPropertyOp52
 70
     0
102
RTVSPropertyOp53
 70
     1
102
RTVSPropertyOp54
 70
     1
102
RTVSPropertyOp55
 70
     1
102
RTVSPropertyOp56
 70
     1
102
RTVSPropertyOp57
 70
     1
102
RTVSPropertyOp58
 70
     1
102
RTVSPropertyOp59
 70
     1
102
RTVSPropertyOp60
 70
     1
102
RTVSPropertyOp61
 70
     1
102
RTVSPropertyOp62
 70
     1
  0
XRECORD
  5
C58F
102
{ACAD_REACTORS
330
C58E
102
}
330
C58E
100
AcDbXrecord
280
     1
102
RTVSPost2010Prop28
280
     0
102
RTVSPost2010PropOp28
 70
     1
102
RTVSPost2010Prop29
280
     1
102
RTVSPost2010PropOp29
 70
     1
102
RTVSPost2010Prop30
280
     1
102
RTVSPost2010PropOp30
 70
     1
102
RTVSPost2010Prop31
280
     0
102
RTVSPost2010PropOp31
 70
     1
102
RTVSPost2010Prop32
280
     0
102
RTVSPost2010PropOp32
 70
     1
102
RTVSPost2010Prop33
280
     0
102
RTVSPost2010PropOp33
 70
     1
102
RTVSPost2010Prop34
280
     0
102
RTVSPost2010PropOp34
 70
     1
102
RTVSPost2010Prop35
280
     0
102
RTVSPost2010PropOp35
 70
     1
102
RTVSPost2010Prop36
280
     0
102
RTVSPost2010PropOp36
 70
     1
102
RTVSPost2010Prop37
 90
       50
102
RTVSPost2010PropOp37
 70
     1
102
RTVSPost2010Prop38
140
0.0
102
RTVSPost2010PropOp38
 70
     1
102
RTVSPost2010Prop39
140
1.0
102
RTVSPost2010PropOp39
 70
     1
102
RTVSPost2010Prop40
 90
        0
102
RTVSPost2010PropOp40
 70
     1
102
RTVSPost2010Prop41ColorIndex
 90
       18
102
RTVSPost2010Prop41ColorRGB
 90
        0
102
RTVSPost2010PropOp41
 70
     1
102
RTVSPost2010Prop42
 90
       50
102
RTVSPost2010PropOp42
 70
     1
102
RTVSPost2010Prop43
 90
        3
102
RTVSPost2010PropOp43
 70
     1
102
RTVSPost2010Prop44ColorIndex
 90
        5
102
RTVSPost2010Prop44ColorRGB
 90
      255
102
RTVSPost2010PropOp44
 70
     1
102
RTVSPost2010Prop45
280
     0
102
RTVSPost2010PropOp45
 70
     1
102
RTVSPost2010Prop46
 90
       50
102
RTVSPost2010PropOp46
 70
     1
102
RTVSPost2010Prop47
 90
       50
102
RTVSPost2010PropOp47
 70
     1
102
RTVSPost2010Prop48
 90
       50
102
RTVSPost2010PropOp48
 70
     1
102
RTVSPost2010Prop49
280
     0
102
RTVSPost2010PropOp49
 70
     1
102
RTVSPost2010Prop50
 90
       50
102
RTVSPost2010PropOp50
 70
     1
102
RTVSPost2010Prop51ColorIndex
 90
      256
102
RTVSPost2010Prop51ColorRGB
 90
-16777216
102
RTVSPost2010PropOp51
 70
     0
102
RTVSPost2010Prop52
140
1.0
102
RTVSPost2010PropOp52
 70
     0
102
RTVSPost2010Prop53
 90
        2
102
RTVSPost2010PropOp53
 70
     1
102
RTVSPost2010Prop54
  1
strokes_ogs.tif
102
RTVSPost2010PropOp54
 70
     1
102
RTVSPost2010Prop55
280
     0
102
RTVSPost2010PropOp55
 70
     1
102
RTVSPost2010Prop56
140
1.0
102
RTVSPost2010PropOp56
 70
     1
102
RTVSPost2010Prop57
140
1.0
102
RTVSPost2010PropOp57
 70
     1
102
RTVSPropertyOp0
 70
     1
102
RTVSPropertyOp1
 70
     1
102
RTVSPropertyOp2
 70
     1
102
RTVSPropertyOp3
 70
     1
102
RTVSPropertyOp4
 70
     1
102
RTVSPropertyOp5
 70
     1
102
RTVSPropertyOp6
 70
     1
102
RTVSPropertyOp7
 70
     1
102
RTVSPropertyOp8
 70
     1
102
RTVSPropertyOp9
 70
     1
102
RTVSPropertyOp10
 70
     1
102
RTVSPropertyOp11
 70
     1
102
RTVSPropertyOp12
 70
     1
102
RTVSPropertyOp13
 70
     1
102
RTVSPropertyOp14
 70
     1
102
RTVSPropertyOp15
 70
     1
102
RTVSPropertyOp16
 70
     1
102
RTVSPropertyOp17
 70
     1
102
RTVSPropertyOp18
 70
     1
102
RTVSPropertyOp19
 70
     1
102
RTVSPropertyOp20
 70
     1
102
RTVSPropertyOp21
 70
     1
102
RTVSPropertyOp22
 70
     1
102
RTVSPropertyOp23
 70
     1
102
RTVSPropertyOp24
 70
     1
102
RTVSPropertyOp25
 70
     1
102
RTVSPropertyOp26
 70
     1
102
RTVSPropertyOp27
 70
     1
102
RTVSPropertyOp28
 70
     1
102
RTVSPropertyOp29
 70
     1
102
RTVSPropertyOp30
 70
     1
102
RTVSPropertyOp31
 70
     1
102
RTVSPropertyOp32
 70
     1
102
RTVSPropertyOp33
 70
     1
102
RTVSPropertyOp34
 70
     1
102
RTVSPropertyOp35
 70
     1
102
RTVSPropertyOp36
 70
     1
102
RTVSPropertyOp37
 70
     1
102
RTVSPropertyOp38
 70
     1
102
RTVSPropertyOp39
 70
     1
102
RTVSPropertyOp40
 70
     1
102
RTVSPropertyOp41
 70
     1
102
RTVSPropertyOp42
 70
     1
102
RTVSPropertyOp43
 70
     1
102
RTVSPropertyOp44
 70
     1
102
RTVSPropertyOp45
 70
     1
102
RTVSPropertyOp46
 70
     1
102
RTVSPropertyOp47
 70
     1
102
RTVSPropertyOp48
 70
     1
102
RTVSPropertyOp49
 70
     1
102
RTVSPropertyOp50
 70
     1
102
RTVSPropertyOp51
 70
     0
102
RTVSPropertyOp52
 70
     0
102
RTVSPropertyOp53
 70
     1
102
RTVSPropertyOp54
 70
     1
102
RTVSPropertyOp55
 70
     1
102
RTVSPropertyOp56
 70
     1
102
RTVSPropertyOp57
 70
     1
102
RTVSPropertyOp58
 70
     1
102
RTVSPropertyOp59
 70
     1
102
RTVSPropertyOp60
 70
     1
102
RTVSPropertyOp61
 70
     1
102
RTVSPropertyOp62
 70
     1
  0
XRECORD
  5
C581
102
{ACAD_REACTORS
330
C580
102
}
330
C580
100
AcDbXrecord
280
     1
102
RTVSPost2010Prop28
280
     0
102
RTVSPost2010PropOp28
 70
     1
102
RTVSPost2010Prop29
280
     1
102
RTVSPost2010PropOp29
 70
     1
102
RTVSPost2010Prop30
280
     1
102
RTVSPost2010PropOp30
 70
     1
102
RTVSPost2010Prop31
280
     0
102
RTVSPost2010PropOp31
 70
     1
102
RTVSPost2010Prop32
280
     0
102
RTVSPost2010PropOp32
 70
     1
102
RTVSPost2010Prop33
280
     0
102
RTVSPost2010PropOp33
 70
     1
102
RTVSPost2010Prop34
280
     0
102
RTVSPost2010PropOp34
 70
     1
102
RTVSPost2010Prop35
280
     0
102
RTVSPost2010PropOp35
 70
     1
102
RTVSPost2010Prop36
280
     0
102
RTVSPost2010PropOp36
 70
     1
102
RTVSPost2010Prop37
 90
       50
102
RTVSPost2010PropOp37
 70
     1
102
RTVSPost2010Prop38
140
0.0
102
RTVSPost2010PropOp38
 70
     1
102
RTVSPost2010Prop39
140
1.0
102
RTVSPost2010PropOp39
 70
     1
102
RTVSPost2010Prop40
 90
        0
102
RTVSPost2010PropOp40
 70
     1
102
RTVSPost2010Prop41ColorIndex
 90
       18
102
RTVSPost2010Prop41ColorRGB
 90
        0
102
RTVSPost2010PropOp41
 70
     1
102
RTVSPost2010Prop42
 90
       50
102
RTVSPost2010PropOp42
 70
     1
102
RTVSPost2010Prop43
 90
        3
102
RTVSPost2010PropOp43
 70
     1
102
RTVSPost2010Prop44ColorIndex
 90
        5
102
RTVSPost2010Prop44ColorRGB
 90
      255
102
RTVSPost2010PropOp44
 70
     1
102
RTVSPost2010Prop45
280
     0
102
RTVSPost2010PropOp45
 70
     1
102
RTVSPost2010Prop46
 90
       50
102
RTVSPost2010PropOp46
 70
     1
102
RTVSPost2010Prop47
 90
       50
102
RTVSPost2010PropOp47
 70
     1
102
RTVSPost2010Prop48
 90
       50
102
RTVSPost2010PropOp48
 70
     1
102
RTVSPost2010Prop49
280
     0
102
RTVSPost2010PropOp49
 70
     1
102
RTVSPost2010Prop50
 90
       50
102
RTVSPost2010PropOp50
 70
     1
102
RTVSPost2010Prop51ColorIndex
 90
      256
102
RTVSPost2010Prop51ColorRGB
 90
-16777216
102
RTVSPost2010PropOp51
 70
     0
102
RTVSPost2010Prop52
140
1.0
102
RTVSPost2010PropOp52
 70
     0
102
RTVSPost2010Prop53
 90
        2
102
RTVSPost2010PropOp53
 70
     1
102
RTVSPost2010Prop54
  1
strokes_ogs.tif
102
RTVSPost2010PropOp54
 70
     1
102
RTVSPost2010Prop55
280
     0
102
RTVSPost2010PropOp55
 70
     1
102
RTVSPost2010Prop56
140
1.0
102
RTVSPost2010PropOp56
 70
     1
102
RTVSPost2010Prop57
140
1.0
102
RTVSPost2010PropOp57
 70
     1
102
RTVSPropertyOp0
 70
     1
102
RTVSPropertyOp1
 70
     1
102
RTVSPropertyOp2
 70
     1
102
RTVSPropertyOp3
 70
     1
102
RTVSPropertyOp4
 70
     1
102
RTVSPropertyOp5
 70
     1
102
RTVSPropertyOp6
 70
     1
102
RTVSPropertyOp7
 70
     1
102
RTVSPropertyOp8
 70
     1
102
RTVSPropertyOp9
 70
     1
102
RTVSPropertyOp10
 70
     1
102
RTVSPropertyOp11
 70
     1
102
RTVSPropertyOp12
 70
     1
102
RTVSPropertyOp13
 70
     1
102
RTVSPropertyOp14
 70
     1
102
RTVSPropertyOp15
 70
     1
102
RTVSPropertyOp16
 70
     1
102
RTVSPropertyOp17
 70
     1
102
RTVSPropertyOp18
 70
     1
102
RTVSPropertyOp19
 70
     1
102
RTVSPropertyOp20
 70
     1
102
RTVSPropertyOp21
 70
     1
102
RTVSPropertyOp22
 70
     1
102
RTVSPropertyOp23
 70
     1
102
RTVSPropertyOp24
 70
     1
102
RTVSPropertyOp25
 70
     1
102
RTVSPropertyOp26
 70
     1
102
RTVSPropertyOp27
 70
     1
102
RTVSPropertyOp28
 70
     1
102
RTVSPropertyOp29
 70
     1
102
RTVSPropertyOp30
 70
     1
102
RTVSPropertyOp31
 70
     1
102
RTVSPropertyOp32
 70
     1
102
RTVSPropertyOp33
 70
     1
102
RTVSPropertyOp34
 70
     1
102
RTVSPropertyOp35
 70
     1
102
RTVSPropertyOp36
 70
     1
102
RTVSPropertyOp37
 70
     1
102
RTVSPropertyOp38
 70
     1
102
RTVSPropertyOp39
 70
     1
102
RTVSPropertyOp40
 70
     1
102
RTVSPropertyOp41
 70
     1
102
RTVSPropertyOp42
 70
     1
102
RTVSPropertyOp43
 70
     1
102
RTVSPropertyOp44
 70
     1
102
RTVSPropertyOp45
 70
     1
102
RTVSPropertyOp46
 70
     1
102
RTVSPropertyOp47
 70
     1
102
RTVSPropertyOp48
 70
     1
102
RTVSPropertyOp49
 70
     1
102
RTVSPropertyOp50
 70
     1
102
RTVSPropertyOp51
 70
     0
102
RTVSPropertyOp52
 70
     0
102
RTVSPropertyOp53
 70
     1
102
RTVSPropertyOp54
 70
     1
102
RTVSPropertyOp55
 70
     1
102
RTVSPropertyOp56
 70
     1
102
RTVSPropertyOp57
 70
     1
102
RTVSPropertyOp58
 70
     1
102
RTVSPropertyOp59
 70
     1
102
RTVSPropertyOp60
 70
     1
102
RTVSPropertyOp61
 70
     1
102
RTVSPropertyOp62
 70
     1
  0
XRECORD
  5
C585
102
{ACAD_REACTORS
330
C584
102
}
330
C584
100
AcDbXrecord
280
     1
102
RTVSPost2010Prop28
280
     0
102
RTVSPost2010PropOp28
 70
     1
102
RTVSPost2010Prop29
280
     1
102
RTVSPost2010PropOp29
 70
     1
102
RTVSPost2010Prop30
280
     1
102
RTVSPost2010PropOp30
 70
     1
102
RTVSPost2010Prop31
280
     0
102
RTVSPost2010PropOp31
 70
     1
102
RTVSPost2010Prop32
280
     0
102
RTVSPost2010PropOp32
 70
     1
102
RTVSPost2010Prop33
280
     0
102
RTVSPost2010PropOp33
 70
     1
102
RTVSPost2010Prop34
280
     0
102
RTVSPost2010PropOp34
 70
     1
102
RTVSPost2010Prop35
280
     0
102
RTVSPost2010PropOp35
 70
     1
102
RTVSPost2010Prop36
280
     0
102
RTVSPost2010PropOp36
 70
     1
102
RTVSPost2010Prop37
 90
       50
102
RTVSPost2010PropOp37
 70
     1
102
RTVSPost2010Prop38
140
0.0
102
RTVSPost2010PropOp38
 70
     1
102
RTVSPost2010Prop39
140
1.0
102
RTVSPost2010PropOp39
 70
     1
102
RTVSPost2010Prop40
 90
        0
102
RTVSPost2010PropOp40
 70
     1
102
RTVSPost2010Prop41ColorIndex
 90
       18
102
RTVSPost2010Prop41ColorRGB
 90
        0
102
RTVSPost2010PropOp41
 70
     1
102
RTVSPost2010Prop42
 90
       50
102
RTVSPost2010PropOp42
 70
     1
102
RTVSPost2010Prop43
 90
        3
102
RTVSPost2010PropOp43
 70
     1
102
RTVSPost2010Prop44ColorIndex
 90
        5
102
RTVSPost2010Prop44ColorRGB
 90
      255
102
RTVSPost2010PropOp44
 70
     1
102
RTVSPost2010Prop45
280
     0
102
RTVSPost2010PropOp45
 70
     1
102
RTVSPost2010Prop46
 90
       50
102
RTVSPost2010PropOp46
 70
     1
102
RTVSPost2010Prop47
 90
       50
102
RTVSPost2010PropOp47
 70
     1
102
RTVSPost2010Prop48
 90
       50
102
RTVSPost2010PropOp48
 70
     1
102
RTVSPost2010Prop49
280
     0
102
RTVSPost2010PropOp49
 70
     1
102
RTVSPost2010Prop50
 90
       50
102
RTVSPost2010PropOp50
 70
     1
102
RTVSPost2010Prop51ColorIndex
 90
      256
102
RTVSPost2010Prop51ColorRGB
 90
-16777216
102
RTVSPost2010PropOp51
 70
     0
102
RTVSPost2010Prop52
140
1.0
102
RTVSPost2010PropOp52
 70
     0
102
RTVSPost2010Prop53
 90
        2
102
RTVSPost2010PropOp53
 70
     1
102
RTVSPost2010Prop54
  1
strokes_ogs.tif
102
RTVSPost2010PropOp54
 70
     1
102
RTVSPost2010Prop55
280
     0
102
RTVSPost2010PropOp55
 70
     1
102
RTVSPost2010Prop56
140
1.0
102
RTVSPost2010PropOp56
 70
     1
102
RTVSPost2010Prop57
140
1.0
102
RTVSPost2010PropOp57
 70
     1
102
RTVSPropertyOp0
 70
     1
102
RTVSPropertyOp1
 70
     1
102
RTVSPropertyOp2
 70
     1
102
RTVSPropertyOp3
 70
     1
102
RTVSPropertyOp4
 70
     1
102
RTVSPropertyOp5
 70
     1
102
RTVSPropertyOp6
 70
     1
102
RTVSPropertyOp7
 70
     1
102
RTVSPropertyOp8
 70
     1
102
RTVSPropertyOp9
 70
     1
102
RTVSPropertyOp10
 70
     1
102
RTVSPropertyOp11
 70
     1
102
RTVSPropertyOp12
 70
     1
102
RTVSPropertyOp13
 70
     1
102
RTVSPropertyOp14
 70
     1
102
RTVSPropertyOp15
 70
     1
102
RTVSPropertyOp16
 70
     1
102
RTVSPropertyOp17
 70
     1
102
RTVSPropertyOp18
 70
     1
102
RTVSPropertyOp19
 70
     1
102
RTVSPropertyOp20
 70
     1
102
RTVSPropertyOp21
 70
     1
102
RTVSPropertyOp22
 70
     1
102
RTVSPropertyOp23
 70
     1
102
RTVSPropertyOp24
 70
     1
102
RTVSPropertyOp25
 70
     1
102
RTVSPropertyOp26
 70
     1
102
RTVSPropertyOp27
 70
     1
102
RTVSPropertyOp28
 70
     1
102
RTVSPropertyOp29
 70
     1
102
RTVSPropertyOp30
 70
     1
102
RTVSPropertyOp31
 70
     1
102
RTVSPropertyOp32
 70
     1
102
RTVSPropertyOp33
 70
     1
102
RTVSPropertyOp34
 70
     1
102
RTVSPropertyOp35
 70
     1
102
RTVSPropertyOp36
 70
     1
102
RTVSPropertyOp37
 70
     1
102
RTVSPropertyOp38
 70
     1
102
RTVSPropertyOp39
 70
     1
102
RTVSPropertyOp40
 70
     1
102
RTVSPropertyOp41
 70
     1
102
RTVSPropertyOp42
 70
     1
102
RTVSPropertyOp43
 70
     1
102
RTVSPropertyOp44
 70
     1
102
RTVSPropertyOp45
 70
     1
102
RTVSPropertyOp46
 70
     1
102
RTVSPropertyOp47
 70
     1
102
RTVSPropertyOp48
 70
     1
102
RTVSPropertyOp49
 70
     1
102
RTVSPropertyOp50
 70
     1
102
RTVSPropertyOp51
 70
     0
102
RTVSPropertyOp52
 70
     0
102
RTVSPropertyOp53
 70
     1
102
RTVSPropertyOp54
 70
     1
102
RTVSPropertyOp55
 70
     1
102
RTVSPropertyOp56
 70
     1
102
RTVSPropertyOp57
 70
     1
102
RTVSPropertyOp58
 70
     1
102
RTVSPropertyOp59
 70
     1
102
RTVSPropertyOp60
 70
     1
102
RTVSPropertyOp61
 70
     1
102
RTVSPropertyOp62
 70
     1
  0
XRECORD
  5
C59F
102
{ACAD_REACTORS
330
C59E
102
}
330
C59E
100
AcDbXrecord
280
     1
102
RTVSPost2010Prop28
280
     0
102
RTVSPost2010PropOp28
 70
     1
102
RTVSPost2010Prop29
280
     1
102
RTVSPost2010PropOp29
 70
     1
102
RTVSPost2010Prop30
280
     1
102
RTVSPost2010PropOp30
 70
     1
102
RTVSPost2010Prop31
280
     0
102
RTVSPost2010PropOp31
 70
     1
102
RTVSPost2010Prop32
280
     0
102
RTVSPost2010PropOp32
 70
     1
102
RTVSPost2010Prop33
280
     0
102
RTVSPost2010PropOp33
 70
     1
102
RTVSPost2010Prop34
280
     0
102
RTVSPost2010PropOp34
 70
     1
102
RTVSPost2010Prop35
280
     0
102
RTVSPost2010PropOp35
 70
     1
102
RTVSPost2010Prop36
280
     0
102
RTVSPost2010PropOp36
 70
     1
102
RTVSPost2010Prop37
 90
       50
102
RTVSPost2010PropOp37
 70
     0
102
RTVSPost2010Prop38
140
0.0
102
RTVSPost2010PropOp38
 70
     0
102
RTVSPost2010Prop39
140
1.0
102
RTVSPost2010PropOp39
 70
     0
102
RTVSPost2010Prop40
 90
        0
102
RTVSPost2010PropOp40
 70
     0
102
RTVSPost2010Prop41ColorIndex
 90
       18
102
RTVSPost2010Prop41ColorRGB
 90
        0
102
RTVSPost2010PropOp41
 70
     0
102
RTVSPost2010Prop42
 90
       50
102
RTVSPost2010PropOp42
 70
     0
102
RTVSPost2010Prop43
 90
        3
102
RTVSPost2010PropOp43
 70
     0
102
RTVSPost2010Prop44ColorIndex
 90
        5
102
RTVSPost2010Prop44ColorRGB
 90
      255
102
RTVSPost2010PropOp44
 70
     0
102
RTVSPost2010Prop45
280
     0
102
RTVSPost2010PropOp45
 70
     1
102
RTVSPost2010Prop46
 90
       50
102
RTVSPost2010PropOp46
 70
     0
102
RTVSPost2010Prop47
 90
       50
102
RTVSPost2010PropOp47
 70
     0
102
RTVSPost2010Prop48
 90
       50
102
RTVSPost2010PropOp48
 70
     0
102
RTVSPost2010Prop49
280
     0
102
RTVSPost2010PropOp49
 70
     1
102
RTVSPost2010Prop50
 90
       50
102
RTVSPost2010PropOp50
 70
     0
102
RTVSPost2010Prop51ColorIndex
 90
      256
102
RTVSPost2010Prop51ColorRGB
 90
-16777216
102
RTVSPost2010PropOp51
 70
     0
102
RTVSPost2010Prop52
140
1.0
102
RTVSPost2010PropOp52
 70
     0
102
RTVSPost2010Prop53
 90
        2
102
RTVSPost2010PropOp53
 70
     0
102
RTVSPost2010Prop54
  1
strokes_ogs.tif
102
RTVSPost2010PropOp54
 70
     0
102
RTVSPost2010Prop55
280
     0
102
RTVSPost2010PropOp55
 70
     1
102
RTVSPost2010Prop56
140
1.0
102
RTVSPost2010PropOp56
 70
     0
102
RTVSPost2010Prop57
140
1.0
102
RTVSPost2010PropOp57
 70
     0
102
RTVSPropertyOp0
 70
     0
102
RTVSPropertyOp1
 70
     0
102
RTVSPropertyOp2
 70
     0
102
RTVSPropertyOp3
 70
     0
102
RTVSPropertyOp4
 70
     0
102
RTVSPropertyOp5
 70
     0
102
RTVSPropertyOp6
 70
     0
102
RTVSPropertyOp7
 70
     0
102
RTVSPropertyOp8
 70
     0
102
RTVSPropertyOp9
 70
     0
102
RTVSPropertyOp10
 70
     0
102
RTVSPropertyOp11
 70
     0
102
RTVSPropertyOp12
 70
     0
102
RTVSPropertyOp13
 70
     0
102
RTVSPropertyOp14
 70
     2
102
RTVSPropertyOp15
 70
     0
102
RTVSPropertyOp16
 70
     0
102
RTVSPropertyOp17
 70
     0
102
RTVSPropertyOp18
 70
     0
102
RTVSPropertyOp19
 70
     0
102
RTVSPropertyOp20
 70
     0
102
RTVSPropertyOp21
 70
     0
102
RTVSPropertyOp22
 70
     0
102
RTVSPropertyOp23
 70
     0
102
RTVSPropertyOp24
 70
     0
102
RTVSPropertyOp25
 70
     0
102
RTVSPropertyOp26
 70
     0
102
RTVSPropertyOp27
 70
     0
102
RTVSPropertyOp28
 70
     1
102
RTVSPropertyOp29
 70
     1
102
RTVSPropertyOp30
 70
     1
102
RTVSPropertyOp31
 70
     1
102
RTVSPropertyOp32
 70
     1
102
RTVSPropertyOp33
 70
     1
102
RTVSPropertyOp34
 70
     1
102
RTVSPropertyOp35
 70
     1
102
RTVSPropertyOp36
 70
     1
102
RTVSPropertyOp37
 70
     0
102
RTVSPropertyOp38
 70
     0
102
RTVSPropertyOp39
 70
     0
102
RTVSPropertyOp40
 70
     0
102
RTVSPropertyOp41
 70
     0
102
RTVSPropertyOp42
 70
     0
102
RTVSPropertyOp43
 70
     0
102
RTVSPropertyOp44
 70
     0
102
RTVSPropertyOp45
 70
     1
102
RTVSPropertyOp46
 70
     0
102
RTVSPropertyOp47
 70
     0
102
RTVSPropertyOp48
 70
     0
102
RTVSPropertyOp49
 70
     1
102
RTVSPropertyOp50
 70
     0
102
RTVSPropertyOp51
 70
     0
102
RTVSPropertyOp52
 70
     0
102
RTVSPropertyOp53
 70
     0
102
RTVSPropertyOp54
 70
     0
102
RTVSPropertyOp55
 70
     1
102
RTVSPropertyOp56
 70
     0
102
RTVSPropertyOp57
 70
     0
102
RTVSPropertyOp58
 70
     0
102
RTVSPropertyOp59
 70
     0
102
RTVSPropertyOp60
 70
     0
102
RTVSPropertyOp61
 70
     0
102
RTVSPropertyOp62
 70
     0
  0
XRECORD
  5
C58D
102
{ACAD_REACTORS
330
C58C
102
}
330
C58C
100
AcDbXrecord
280
     1
102
RTVSPost2010Prop28
280
     0
102
RTVSPost2010PropOp28
 70
     1
102
RTVSPost2010Prop29
280
     1
102
RTVSPost2010PropOp29
 70
     1
102
RTVSPost2010Prop30
280
     1
102
RTVSPost2010PropOp30
 70
     1
102
RTVSPost2010Prop31
280
     0
102
RTVSPost2010PropOp31
 70
     1
102
RTVSPost2010Prop32
280
     0
102
RTVSPost2010PropOp32
 70
     1
102
RTVSPost2010Prop33
280
     0
102
RTVSPost2010PropOp33
 70
     1
102
RTVSPost2010Prop34
280
     0
102
RTVSPost2010PropOp34
 70
     1
102
RTVSPost2010Prop35
280
     0
102
RTVSPost2010PropOp35
 70
     1
102
RTVSPost2010Prop36
280
     0
102
RTVSPost2010PropOp36
 70
     1
102
RTVSPost2010Prop37
 90
       50
102
RTVSPost2010PropOp37
 70
     1
102
RTVSPost2010Prop38
140
0.0
102
RTVSPost2010PropOp38
 70
     1
102
RTVSPost2010Prop39
140
1.0
102
RTVSPost2010PropOp39
 70
     1
102
RTVSPost2010Prop40
 90
        0
102
RTVSPost2010PropOp40
 70
     1
102
RTVSPost2010Prop41ColorIndex
 90
       18
102
RTVSPost2010Prop41ColorRGB
 90
        0
102
RTVSPost2010PropOp41
 70
     1
102
RTVSPost2010Prop42
 90
       50
102
RTVSPost2010PropOp42
 70
     1
102
RTVSPost2010Prop43
 90
        3
102
RTVSPost2010PropOp43
 70
     1
102
RTVSPost2010Prop44ColorIndex
 90
        5
102
RTVSPost2010Prop44ColorRGB
 90
      255
102
RTVSPost2010PropOp44
 70
     1
102
RTVSPost2010Prop45
280
     0
102
RTVSPost2010PropOp45
 70
     1
102
RTVSPost2010Prop46
 90
       50
102
RTVSPost2010PropOp46
 70
     1
102
RTVSPost2010Prop47
 90
       50
102
RTVSPost2010PropOp47
 70
     1
102
RTVSPost2010Prop48
 90
       50
102
RTVSPost2010PropOp48
 70
     1
102
RTVSPost2010Prop49
280
     0
102
RTVSPost2010PropOp49
 70
     1
102
RTVSPost2010Prop50
 90
       50
102
RTVSPost2010PropOp50
 70
     1
102
RTVSPost2010Prop51ColorIndex
 90
      256
102
RTVSPost2010Prop51ColorRGB
 90
-16777216
102
RTVSPost2010PropOp51
 70
     0
102
RTVSPost2010Prop52
140
1.0
102
RTVSPost2010PropOp52
 70
     0
102
RTVSPost2010Prop53
 90
        2
102
RTVSPost2010PropOp53
 70
     1
102
RTVSPost2010Prop54
  1
strokes_ogs.tif
102
RTVSPost2010PropOp54
 70
     1
102
RTVSPost2010Prop55
280
     0
102
RTVSPost2010PropOp55
 70
     1
102
RTVSPost2010Prop56
140
1.0
102
RTVSPost2010PropOp56
 70
     1
102
RTVSPost2010Prop57
140
1.0
102
RTVSPost2010PropOp57
 70
     1
102
RTVSPropertyOp0
 70
     1
102
RTVSPropertyOp1
 70
     1
102
RTVSPropertyOp2
 70
     1
102
RTVSPropertyOp3
 70
     1
102
RTVSPropertyOp4
 70
     1
102
RTVSPropertyOp5
 70
     1
102
RTVSPropertyOp6
 70
     1
102
RTVSPropertyOp7
 70
     1
102
RTVSPropertyOp8
 70
     1
102
RTVSPropertyOp9
 70
     1
102
RTVSPropertyOp10
 70
     1
102
RTVSPropertyOp11
 70
     1
102
RTVSPropertyOp12
 70
     1
102
RTVSPropertyOp13
 70
     1
102
RTVSPropertyOp14
 70
     1
102
RTVSPropertyOp15
 70
     1
102
RTVSPropertyOp16
 70
     1
102
RTVSPropertyOp17
 70
     1
102
RTVSPropertyOp18
 70
     1
102
RTVSPropertyOp19
 70
     1
102
RTVSPropertyOp20
 70
     1
102
RTVSPropertyOp21
 70
     1
102
RTVSPropertyOp22
 70
     1
102
RTVSPropertyOp23
 70
     1
102
RTVSPropertyOp24
 70
     1
102
RTVSPropertyOp25
 70
     1
102
RTVSPropertyOp26
 70
     1
102
RTVSPropertyOp27
 70
     1
102
RTVSPropertyOp28
 70
     1
102
RTVSPropertyOp29
 70
     1
102
RTVSPropertyOp30
 70
     1
102
RTVSPropertyOp31
 70
     1
102
RTVSPropertyOp32
 70
     1
102
RTVSPropertyOp33
 70
     1
102
RTVSPropertyOp34
 70
     1
102
RTVSPropertyOp35
 70
     1
102
RTVSPropertyOp36
 70
     1
102
RTVSPropertyOp37
 70
     1
102
RTVSPropertyOp38
 70
     1
102
RTVSPropertyOp39
 70
     1
102
RTVSPropertyOp40
 70
     1
102
RTVSPropertyOp41
 70
     1
102
RTVSPropertyOp42
 70
     1
102
RTVSPropertyOp43
 70
     1
102
RTVSPropertyOp44
 70
     1
102
RTVSPropertyOp45
 70
     1
102
RTVSPropertyOp46
 70
     1
102
RTVSPropertyOp47
 70
     1
102
RTVSPropertyOp48
 70
     1
102
RTVSPropertyOp49
 70
     1
102
RTVSPropertyOp50
 70
     1
102
RTVSPropertyOp51
 70
     0
102
RTVSPropertyOp52
 70
     0
102
RTVSPropertyOp53
 70
     1
102
RTVSPropertyOp54
 70
     1
102
RTVSPropertyOp55
 70
     1
102
RTVSPropertyOp56
 70
     1
102
RTVSPropertyOp57
 70
     1
102
RTVSPropertyOp58
 70
     1
102
RTVSPropertyOp59
 70
     1
102
RTVSPropertyOp60
 70
     1
102
RTVSPropertyOp61
 70
     1
102
RTVSPropertyOp62
 70
     1
  0
XRECORD
  5
C571
102
{ACAD_REACTORS
330
C570
102
}
330
C570
100
AcDbXrecord
280
     1
102
RTVSPost2010Prop28
280
     0
102
RTVSPost2010PropOp28
 70
     1
102
RTVSPost2010Prop29
280
     1
102
RTVSPost2010PropOp29
 70
     1
102
RTVSPost2010Prop30
280
     1
102
RTVSPost2010PropOp30
 70
     1
102
RTVSPost2010Prop31
280
     0
102
RTVSPost2010PropOp31
 70
     1
102
RTVSPost2010Prop32
280
     0
102
RTVSPost2010PropOp32
 70
     1
102
RTVSPost2010Prop33
280
     0
102
RTVSPost2010PropOp33
 70
     1
102
RTVSPost2010Prop34
280
     0
102
RTVSPost2010PropOp34
 70
     1
102
RTVSPost2010Prop35
280
     0
102
RTVSPost2010PropOp35
 70
     1
102
RTVSPost2010Prop36
280
     0
102
RTVSPost2010PropOp36
 70
     1
102
RTVSPost2010Prop37
 90
       50
102
RTVSPost2010PropOp37
 70
     1
102
RTVSPost2010Prop38
140
0.0
102
RTVSPost2010PropOp38
 70
     1
102
RTVSPost2010Prop39
140
1.0
102
RTVSPost2010PropOp39
 70
     1
102
RTVSPost2010Prop40
 90
        0
102
RTVSPost2010PropOp40
 70
     1
102
RTVSPost2010Prop41ColorIndex
 90
       18
102
RTVSPost2010Prop41ColorRGB
 90
        0
102
RTVSPost2010PropOp41
 70
     1
102
RTVSPost2010Prop42
 90
       50
102
RTVSPost2010PropOp42
 70
     1
102
RTVSPost2010Prop43
 90
        3
102
RTVSPost2010PropOp43
 70
     1
102
RTVSPost2010Prop44ColorIndex
 90
        5
102
RTVSPost2010Prop44ColorRGB
 90
      255
102
RTVSPost2010PropOp44
 70
     1
102
RTVSPost2010Prop45
280
     0
102
RTVSPost2010PropOp45
 70
     1
102
RTVSPost2010Prop46
 90
       50
102
RTVSPost2010PropOp46
 70
     1
102
RTVSPost2010Prop47
 90
       50
102
RTVSPost2010PropOp47
 70
     1
102
RTVSPost2010Prop48
 90
       50
102
RTVSPost2010PropOp48
 70
     1
102
RTVSPost2010Prop49
280
     0
102
RTVSPost2010PropOp49
 70
     1
102
RTVSPost2010Prop50
 90
       50
102
RTVSPost2010PropOp50
 70
     1
102
RTVSPost2010Prop51ColorIndex
 90
      256
102
RTVSPost2010Prop51ColorRGB
 90
-16777216
102
RTVSPost2010PropOp51
 70
     0
102
RTVSPost2010Prop52
140
1.0
102
RTVSPost2010PropOp52
 70
     0
102
RTVSPost2010Prop53
 90
        2
102
RTVSPost2010PropOp53
 70
     1
102
RTVSPost2010Prop54
  1
strokes_ogs.tif
102
RTVSPost2010PropOp54
 70
     1
102
RTVSPost2010Prop55
280
     0
102
RTVSPost2010PropOp55
 70
     1
102
RTVSPost2010Prop56
140
1.0
102
RTVSPost2010PropOp56
 70
     1
102
RTVSPost2010Prop57
140
1.0
102
RTVSPost2010PropOp57
 70
     1
102
RTVSPropertyOp0
 70
     1
102
RTVSPropertyOp1
 70
     1
102
RTVSPropertyOp2
 70
     1
102
RTVSPropertyOp3
 70
     1
102
RTVSPropertyOp4
 70
     1
102
RTVSPropertyOp5
 70
     1
102
RTVSPropertyOp6
 70
     1
102
RTVSPropertyOp7
 70
     1
102
RTVSPropertyOp8
 70
     1
102
RTVSPropertyOp9
 70
     1
102
RTVSPropertyOp10
 70
     1
102
RTVSPropertyOp11
 70
     1
102
RTVSPropertyOp12
 70
     1
102
RTVSPropertyOp13
 70
     1
102
RTVSPropertyOp14
 70
     1
102
RTVSPropertyOp15
 70
     1
102
RTVSPropertyOp16
 70
     1
102
RTVSPropertyOp17
 70
     1
102
RTVSPropertyOp18
 70
     1
102
RTVSPropertyOp19
 70
     1
102
RTVSPropertyOp20
 70
     1
102
RTVSPropertyOp21
 70
     1
102
RTVSPropertyOp22
 70
     1
102
RTVSPropertyOp23
 70
     1
102
RTVSPropertyOp24
 70
     1
102
RTVSPropertyOp25
 70
     1
102
RTVSPropertyOp26
 70
     1
102
RTVSPropertyOp27
 70
     1
102
RTVSPropertyOp28
 70
     1
102
RTVSPropertyOp29
 70
     1
102
RTVSPropertyOp30
 70
     1
102
RTVSPropertyOp31
 70
     1
102
RTVSPropertyOp32
 70
     1
102
RTVSPropertyOp33
 70
     1
102
RTVSPropertyOp34
 70
     1
102
RTVSPropertyOp35
 70
     1
102
RTVSPropertyOp36
 70
     1
102
RTVSPropertyOp37
 70
     1
102
RTVSPropertyOp38
 70
     1
102
RTVSPropertyOp39
 70
     1
102
RTVSPropertyOp40
 70
     1
102
RTVSPropertyOp41
 70
     1
102
RTVSPropertyOp42
 70
     1
102
RTVSPropertyOp43
 70
     1
102
RTVSPropertyOp44
 70
     1
102
RTVSPropertyOp45
 70
     1
102
RTVSPropertyOp46
 70
     1
102
RTVSPropertyOp47
 70
     1
102
RTVSPropertyOp48
 70
     1
102
RTVSPropertyOp49
 70
     1
102
RTVSPropertyOp50
 70
     1
102
RTVSPropertyOp51
 70
     0
102
RTVSPropertyOp52
 70
     0
102
RTVSPropertyOp53
 70
     1
102
RTVSPropertyOp54
 70
     1
102
RTVSPropertyOp55
 70
     1
102
RTVSPropertyOp56
 70
     1
102
RTVSPropertyOp57
 70
     1
102
RTVSPropertyOp58
 70
     1
102
RTVSPropertyOp59
 70
     1
102
RTVSPropertyOp60
 70
     1
102
RTVSPropertyOp61
 70
     1
102
RTVSPropertyOp62
 70
     1
  0
XRECORD
  5
C573
102
{ACAD_REACTORS
330
C572
102
}
330
C572
100
AcDbXrecord
280
     1
102
RTVSPost2010Prop28
280
     0
102
RTVSPost2010PropOp28
 70
     1
102
RTVSPost2010Prop29
280
     1
102
RTVSPost2010PropOp29
 70
     1
102
RTVSPost2010Prop30
280
     1
102
RTVSPost2010PropOp30
 70
     1
102
RTVSPost2010Prop31
280
     0
102
RTVSPost2010PropOp31
 70
     1
102
RTVSPost2010Prop32
280
     0
102
RTVSPost2010PropOp32
 70
     1
102
RTVSPost2010Prop33
280
     0
102
RTVSPost2010PropOp33
 70
     1
102
RTVSPost2010Prop34
280
     0
102
RTVSPost2010PropOp34
 70
     1
102
RTVSPost2010Prop35
280
     0
102
RTVSPost2010PropOp35
 70
     1
102
RTVSPost2010Prop36
280
     0
102
RTVSPost2010PropOp36
 70
     1
102
RTVSPost2010Prop37
 90
       50
102
RTVSPost2010PropOp37
 70
     1
102
RTVSPost2010Prop38
140
0.0
102
RTVSPost2010PropOp38
 70
     1
102
RTVSPost2010Prop39
140
1.0
102
RTVSPost2010PropOp39
 70
     1
102
RTVSPost2010Prop40
 90
        0
102
RTVSPost2010PropOp40
 70
     1
102
RTVSPost2010Prop41ColorIndex
 90
       18
102
RTVSPost2010Prop41ColorRGB
 90
        0
102
RTVSPost2010PropOp41
 70
     1
102
RTVSPost2010Prop42
 90
       50
102
RTVSPost2010PropOp42
 70
     1
102
RTVSPost2010Prop43
 90
        3
102
RTVSPost2010PropOp43
 70
     1
102
RTVSPost2010Prop44ColorIndex
 90
        5
102
RTVSPost2010Prop44ColorRGB
 90
      255
102
RTVSPost2010PropOp44
 70
     1
102
RTVSPost2010Prop45
280
     0
102
RTVSPost2010PropOp45
 70
     1
102
RTVSPost2010Prop46
 90
       50
102
RTVSPost2010PropOp46
 70
     1
102
RTVSPost2010Prop47
 90
       50
102
RTVSPost2010PropOp47
 70
     1
102
RTVSPost2010Prop48
 90
       50
102
RTVSPost2010PropOp48
 70
     1
102
RTVSPost2010Prop49
280
     0
102
RTVSPost2010PropOp49
 70
     1
102
RTVSPost2010Prop50
 90
       50
102
RTVSPost2010PropOp50
 70
     1
102
RTVSPost2010Prop51ColorIndex
 90
      256
102
RTVSPost2010Prop51ColorRGB
 90
-16777216
102
RTVSPost2010PropOp51
 70
     0
102
RTVSPost2010Prop52
140
1.0
102
RTVSPost2010PropOp52
 70
     0
102
RTVSPost2010Prop53
 90
        2
102
RTVSPost2010PropOp53
 70
     1
102
RTVSPost2010Prop54
  1
strokes_ogs.tif
102
RTVSPost2010PropOp54
 70
     1
102
RTVSPost2010Prop55
280
     0
102
RTVSPost2010PropOp55
 70
     1
102
RTVSPost2010Prop56
140
1.0
102
RTVSPost2010PropOp56
 70
     1
102
RTVSPost2010Prop57
140
1.0
102
RTVSPost2010PropOp57
 70
     1
102
RTVSPropertyOp0
 70
     1
102
RTVSPropertyOp1
 70
     1
102
RTVSPropertyOp2
 70
     1
102
RTVSPropertyOp3
 70
     1
102
RTVSPropertyOp4
 70
     1
102
RTVSPropertyOp5
 70
     1
102
RTVSPropertyOp6
 70
     1
102
RTVSPropertyOp7
 70
     1
102
RTVSPropertyOp8
 70
     1
102
RTVSPropertyOp9
 70
     1
102
RTVSPropertyOp10
 70
     1
102
RTVSPropertyOp11
 70
     1
102
RTVSPropertyOp12
 70
     1
102
RTVSPropertyOp13
 70
     1
102
RTVSPropertyOp14
 70
     1
102
RTVSPropertyOp15
 70
     1
102
RTVSPropertyOp16
 70
     1
102
RTVSPropertyOp17
 70
     1
102
RTVSPropertyOp18
 70
     1
102
RTVSPropertyOp19
 70
     1
102
RTVSPropertyOp20
 70
     1
102
RTVSPropertyOp21
 70
     1
102
RTVSPropertyOp22
 70
     1
102
RTVSPropertyOp23
 70
     1
102
RTVSPropertyOp24
 70
     1
102
RTVSPropertyOp25
 70
     1
102
RTVSPropertyOp26
 70
     1
102
RTVSPropertyOp27
 70
     1
102
RTVSPropertyOp28
 70
     1
102
RTVSPropertyOp29
 70
     1
102
RTVSPropertyOp30
 70
     1
102
RTVSPropertyOp31
 70
     1
102
RTVSPropertyOp32
 70
     1
102
RTVSPropertyOp33
 70
     1
102
RTVSPropertyOp34
 70
     1
102
RTVSPropertyOp35
 70
     1
102
RTVSPropertyOp36
 70
     1
102
RTVSPropertyOp37
 70
     1
102
RTVSPropertyOp38
 70
     1
102
RTVSPropertyOp39
 70
     1
102
RTVSPropertyOp40
 70
     1
102
RTVSPropertyOp41
 70
     1
102
RTVSPropertyOp42
 70
     1
102
RTVSPropertyOp43
 70
     1
102
RTVSPropertyOp44
 70
     1
102
RTVSPropertyOp45
 70
     1
102
RTVSPropertyOp46
 70
     1
102
RTVSPropertyOp47
 70
     1
102
RTVSPropertyOp48
 70
     1
102
RTVSPropertyOp49
 70
     1
102
RTVSPropertyOp50
 70
     1
102
RTVSPropertyOp51
 70
     0
102
RTVSPropertyOp52
 70
     0
102
RTVSPropertyOp53
 70
     1
102
RTVSPropertyOp54
 70
     1
102
RTVSPropertyOp55
 70
     1
102
RTVSPropertyOp56
 70
     1
102
RTVSPropertyOp57
 70
     1
102
RTVSPropertyOp58
 70
     1
102
RTVSPropertyOp59
 70
     1
102
RTVSPropertyOp60
 70
     1
102
RTVSPropertyOp61
 70
     1
102
RTVSPropertyOp62
 70
     1
  0
XRECORD
  5
C575
102
{ACAD_REACTORS
330
C574
102
}
330
C574
100
AcDbXrecord
280
     1
102
RTVSPost2010Prop28
280
     0
102
RTVSPost2010PropOp28
 70
     1
102
RTVSPost2010Prop29
280
     1
102
RTVSPost2010PropOp29
 70
     1
102
RTVSPost2010Prop30
280
     1
102
RTVSPost2010PropOp30
 70
     1
102
RTVSPost2010Prop31
280
     0
102
RTVSPost2010PropOp31
 70
     1
102
RTVSPost2010Prop32
280
     0
102
RTVSPost2010PropOp32
 70
     1
102
RTVSPost2010Prop33
280
     0
102
RTVSPost2010PropOp33
 70
     1
102
RTVSPost2010Prop34
280
     0
102
RTVSPost2010PropOp34
 70
     1
102
RTVSPost2010Prop35
280
     0
102
RTVSPost2010PropOp35
 70
     1
102
RTVSPost2010Prop36
280
     0
102
RTVSPost2010PropOp36
 70
     1
102
RTVSPost2010Prop37
 90
       50
102
RTVSPost2010PropOp37
 70
     1
102
RTVSPost2010Prop38
140
0.0
102
RTVSPost2010PropOp38
 70
     1
102
RTVSPost2010Prop39
140
1.0
102
RTVSPost2010PropOp39
 70
     1
102
RTVSPost2010Prop40
 90
        0
102
RTVSPost2010PropOp40
 70
     1
102
RTVSPost2010Prop41ColorIndex
 90
       18
102
RTVSPost2010Prop41ColorRGB
 90
        0
102
RTVSPost2010PropOp41
 70
     1
102
RTVSPost2010Prop42
 90
       50
102
RTVSPost2010PropOp42
 70
     1
102
RTVSPost2010Prop43
 90
        3
102
RTVSPost2010PropOp43
 70
     1
102
RTVSPost2010Prop44ColorIndex
 90
        5
102
RTVSPost2010Prop44ColorRGB
 90
      255
102
RTVSPost2010PropOp44
 70
     1
102
RTVSPost2010Prop45
280
     0
102
RTVSPost2010PropOp45
 70
     1
102
RTVSPost2010Prop46
 90
       50
102
RTVSPost2010PropOp46
 70
     1
102
RTVSPost2010Prop47
 90
       50
102
RTVSPost2010PropOp47
 70
     1
102
RTVSPost2010Prop48
 90
       50
102
RTVSPost2010PropOp48
 70
     1
102
RTVSPost2010Prop49
280
     0
102
RTVSPost2010PropOp49
 70
     1
102
RTVSPost2010Prop50
 90
       50
102
RTVSPost2010PropOp50
 70
     1
102
RTVSPost2010Prop51ColorIndex
 90
      256
102
RTVSPost2010Prop51ColorRGB
 90
-16777216
102
RTVSPost2010PropOp51
 70
     0
102
RTVSPost2010Prop52
140
1.0
102
RTVSPost2010PropOp52
 70
     0
102
RTVSPost2010Prop53
 90
        2
102
RTVSPost2010PropOp53
 70
     1
102
RTVSPost2010Prop54
  1
strokes_ogs.tif
102
RTVSPost2010PropOp54
 70
     1
102
RTVSPost2010Prop55
280
     0
102
RTVSPost2010PropOp55
 70
     1
102
RTVSPost2010Prop56
140
1.0
102
RTVSPost2010PropOp56
 70
     1
102
RTVSPost2010Prop57
140
1.0
102
RTVSPost2010PropOp57
 70
     1
102
RTVSPropertyOp0
 70
     1
102
RTVSPropertyOp1
 70
     1
102
RTVSPropertyOp2
 70
     1
102
RTVSPropertyOp3
 70
     1
102
RTVSPropertyOp4
 70
     1
102
RTVSPropertyOp5
 70
     1
102
RTVSPropertyOp6
 70
     1
102
RTVSPropertyOp7
 70
     1
102
RTVSPropertyOp8
 70
     1
102
RTVSPropertyOp9
 70
     1
102
RTVSPropertyOp10
 70
     1
102
RTVSPropertyOp11
 70
     1
102
RTVSPropertyOp12
 70
     1
102
RTVSPropertyOp13
 70
     1
102
RTVSPropertyOp14
 70
     1
102
RTVSPropertyOp15
 70
     1
102
RTVSPropertyOp16
 70
     1
102
RTVSPropertyOp17
 70
     1
102
RTVSPropertyOp18
 70
     1
102
RTVSPropertyOp19
 70
     1
102
RTVSPropertyOp20
 70
     1
102
RTVSPropertyOp21
 70
     1
102
RTVSPropertyOp22
 70
     1
102
RTVSPropertyOp23
 70
     1
102
RTVSPropertyOp24
 70
     1
102
RTVSPropertyOp25
 70
     1
102
RTVSPropertyOp26
 70
     1
102
RTVSPropertyOp27
 70
     1
102
RTVSPropertyOp28
 70
     1
102
RTVSPropertyOp29
 70
     1
102
RTVSPropertyOp30
 70
     1
102
RTVSPropertyOp31
 70
     1
102
RTVSPropertyOp32
 70
     1
102
RTVSPropertyOp33
 70
     1
102
RTVSPropertyOp34
 70
     1
102
RTVSPropertyOp35
 70
     1
102
RTVSPropertyOp36
 70
     1
102
RTVSPropertyOp37
 70
     1
102
RTVSPropertyOp38
 70
     1
102
RTVSPropertyOp39
 70
     1
102
RTVSPropertyOp40
 70
     1
102
RTVSPropertyOp41
 70
     1
102
RTVSPropertyOp42
 70
     1
102
RTVSPropertyOp43
 70
     1
102
RTVSPropertyOp44
 70
     1
102
RTVSPropertyOp45
 70
     1
102
RTVSPropertyOp46
 70
     1
102
RTVSPropertyOp47
 70
     1
102
RTVSPropertyOp48
 70
     1
102
RTVSPropertyOp49
 70
     1
102
RTVSPropertyOp50
 70
     1
102
RTVSPropertyOp51
 70
     0
102
RTVSPropertyOp52
 70
     0
102
RTVSPropertyOp53
 70
     1
102
RTVSPropertyOp54
 70
     1
102
RTVSPropertyOp55
 70
     1
102
RTVSPropertyOp56
 70
     1
102
RTVSPropertyOp57
 70
     1
102
RTVSPropertyOp58
 70
     1
102
RTVSPropertyOp59
 70
     1
102
RTVSPropertyOp60
 70
     1
102
RTVSPropertyOp61
 70
     1
102
RTVSPropertyOp62
 70
     1
  0
XRECORD
  5
C577
102
{ACAD_REACTORS
330
C576
102
}
330
C576
100
AcDbXrecord
280
     1
102
RTVSPost2010Prop28
280
     0
102
RTVSPost2010PropOp28
 70
     1
102
RTVSPost2010Prop29
280
     1
102
RTVSPost2010PropOp29
 70
     1
102
RTVSPost2010Prop30
280
     1
102
RTVSPost2010PropOp30
 70
     1
102
RTVSPost2010Prop31
280
     0
102
RTVSPost2010PropOp31
 70
     1
102
RTVSPost2010Prop32
280
     0
102
RTVSPost2010PropOp32
 70
     1
102
RTVSPost2010Prop33
280
     0
102
RTVSPost2010PropOp33
 70
     1
102
RTVSPost2010Prop34
280
     0
102
RTVSPost2010PropOp34
 70
     1
102
RTVSPost2010Prop35
280
     0
102
RTVSPost2010PropOp35
 70
     1
102
RTVSPost2010Prop36
280
     0
102
RTVSPost2010PropOp36
 70
     1
102
RTVSPost2010Prop37
 90
       50
102
RTVSPost2010PropOp37
 70
     1
102
RTVSPost2010Prop38
140
0.0
102
RTVSPost2010PropOp38
 70
     1
102
RTVSPost2010Prop39
140
1.0
102
RTVSPost2010PropOp39
 70
     1
102
RTVSPost2010Prop40
 90
        0
102
RTVSPost2010PropOp40
 70
     1
102
RTVSPost2010Prop41ColorIndex
 90
       18
102
RTVSPost2010Prop41ColorRGB
 90
        0
102
RTVSPost2010PropOp41
 70
     1
102
RTVSPost2010Prop42
 90
       50
102
RTVSPost2010PropOp42
 70
     1
102
RTVSPost2010Prop43
 90
        3
102
RTVSPost2010PropOp43
 70
     1
102
RTVSPost2010Prop44ColorIndex
 90
        5
102
RTVSPost2010Prop44ColorRGB
 90
      255
102
RTVSPost2010PropOp44
 70
     1
102
RTVSPost2010Prop45
280
     0
102
RTVSPost2010PropOp45
 70
     1
102
RTVSPost2010Prop46
 90
       50
102
RTVSPost2010PropOp46
 70
     1
102
RTVSPost2010Prop47
 90
       50
102
RTVSPost2010PropOp47
 70
     1
102
RTVSPost2010Prop48
 90
       50
102
RTVSPost2010PropOp48
 70
     1
102
RTVSPost2010Prop49
280
     0
102
RTVSPost2010PropOp49
 70
     1
102
RTVSPost2010Prop50
 90
       50
102
RTVSPost2010PropOp50
 70
     1
102
RTVSPost2010Prop51ColorIndex
 90
      256
102
RTVSPost2010Prop51ColorRGB
 90
-16777216
102
RTVSPost2010PropOp51
 70
     0
102
RTVSPost2010Prop52
140
1.0
102
RTVSPost2010PropOp52
 70
     0
102
RTVSPost2010Prop53
 90
        2
102
RTVSPost2010PropOp53
 70
     1
102
RTVSPost2010Prop54
  1
strokes_ogs.tif
102
RTVSPost2010PropOp54
 70
     1
102
RTVSPost2010Prop55
280
     0
102
RTVSPost2010PropOp55
 70
     1
102
RTVSPost2010Prop56
140
1.0
102
RTVSPost2010PropOp56
 70
     1
102
RTVSPost2010Prop57
140
1.0
102
RTVSPost2010PropOp57
 70
     1
102
RTVSPropertyOp0
 70
     1
102
RTVSPropertyOp1
 70
     1
102
RTVSPropertyOp2
 70
     1
102
RTVSPropertyOp3
 70
     1
102
RTVSPropertyOp4
 70
     1
102
RTVSPropertyOp5
 70
     1
102
RTVSPropertyOp6
 70
     1
102
RTVSPropertyOp7
 70
     1
102
RTVSPropertyOp8
 70
     1
102
RTVSPropertyOp9
 70
     1
102
RTVSPropertyOp10
 70
     1
102
RTVSPropertyOp11
 70
     1
102
RTVSPropertyOp12
 70
     1
102
RTVSPropertyOp13
 70
     1
102
RTVSPropertyOp14
 70
     1
102
RTVSPropertyOp15
 70
     1
102
RTVSPropertyOp16
 70
     1
102
RTVSPropertyOp17
 70
     1
102
RTVSPropertyOp18
 70
     1
102
RTVSPropertyOp19
 70
     1
102
RTVSPropertyOp20
 70
     1
102
RTVSPropertyOp21
 70
     1
102
RTVSPropertyOp22
 70
     1
102
RTVSPropertyOp23
 70
     1
102
RTVSPropertyOp24
 70
     1
102
RTVSPropertyOp25
 70
     1
102
RTVSPropertyOp26
 70
     1
102
RTVSPropertyOp27
 70
     1
102
RTVSPropertyOp28
 70
     1
102
RTVSPropertyOp29
 70
     1
102
RTVSPropertyOp30
 70
     1
102
RTVSPropertyOp31
 70
     1
102
RTVSPropertyOp32
 70
     1
102
RTVSPropertyOp33
 70
     1
102
RTVSPropertyOp34
 70
     1
102
RTVSPropertyOp35
 70
     1
102
RTVSPropertyOp36
 70
     1
102
RTVSPropertyOp37
 70
     1
102
RTVSPropertyOp38
 70
     1
102
RTVSPropertyOp39
 70
     1
102
RTVSPropertyOp40
 70
     1
102
RTVSPropertyOp41
 70
     1
102
RTVSPropertyOp42
 70
     1
102
RTVSPropertyOp43
 70
     1
102
RTVSPropertyOp44
 70
     1
102
RTVSPropertyOp45
 70
     1
102
RTVSPropertyOp46
 70
     1
102
RTVSPropertyOp47
 70
     1
102
RTVSPropertyOp48
 70
     1
102
RTVSPropertyOp49
 70
     1
102
RTVSPropertyOp50
 70
     1
102
RTVSPropertyOp51
 70
     0
102
RTVSPropertyOp52
 70
     0
102
RTVSPropertyOp53
 70
     1
102
RTVSPropertyOp54
 70
     1
102
RTVSPropertyOp55
 70
     1
102
RTVSPropertyOp56
 70
     1
102
RTVSPropertyOp57
 70
     1
102
RTVSPropertyOp58
 70
     1
102
RTVSPropertyOp59
 70
     1
102
RTVSPropertyOp60
 70
     1
102
RTVSPropertyOp61
 70
     1
102
RTVSPropertyOp62
 70
     1
  0
XRECORD
  5
C57F
102
{ACAD_REACTORS
330
C57E
102
}
330
C57E
100
AcDbXrecord
280
     1
102
RTVSPost2010Prop28
280
     0
102
RTVSPost2010PropOp28
 70
     1
102
RTVSPost2010Prop29
280
     1
102
RTVSPost2010PropOp29
 70
     1
102
RTVSPost2010Prop30
280
     1
102
RTVSPost2010PropOp30
 70
     1
102
RTVSPost2010Prop31
280
     0
102
RTVSPost2010PropOp31
 70
     1
102
RTVSPost2010Prop32
280
     0
102
RTVSPost2010PropOp32
 70
     1
102
RTVSPost2010Prop33
280
     0
102
RTVSPost2010PropOp33
 70
     1
102
RTVSPost2010Prop34
280
     0
102
RTVSPost2010PropOp34
 70
     1
102
RTVSPost2010Prop35
280
     0
102
RTVSPost2010PropOp35
 70
     1
102
RTVSPost2010Prop36
280
     0
102
RTVSPost2010PropOp36
 70
     1
102
RTVSPost2010Prop37
 90
       50
102
RTVSPost2010PropOp37
 70
     1
102
RTVSPost2010Prop38
140
0.0
102
RTVSPost2010PropOp38
 70
     1
102
RTVSPost2010Prop39
140
1.0
102
RTVSPost2010PropOp39
 70
     1
102
RTVSPost2010Prop40
 90
        0
102
RTVSPost2010PropOp40
 70
     1
102
RTVSPost2010Prop41ColorIndex
 90
       18
102
RTVSPost2010Prop41ColorRGB
 90
        0
102
RTVSPost2010PropOp41
 70
     1
102
RTVSPost2010Prop42
 90
       50
102
RTVSPost2010PropOp42
 70
     1
102
RTVSPost2010Prop43
 90
        3
102
RTVSPost2010PropOp43
 70
     1
102
RTVSPost2010Prop44ColorIndex
 90
        5
102
RTVSPost2010Prop44ColorRGB
 90
      255
102
RTVSPost2010PropOp44
 70
     1
102
RTVSPost2010Prop45
280
     0
102
RTVSPost2010PropOp45
 70
     1
102
RTVSPost2010Prop46
 90
       50
102
RTVSPost2010PropOp46
 70
     1
102
RTVSPost2010Prop47
 90
       50
102
RTVSPost2010PropOp47
 70
     1
102
RTVSPost2010Prop48
 90
       50
102
RTVSPost2010PropOp48
 70
     1
102
RTVSPost2010Prop49
280
     0
102
RTVSPost2010PropOp49
 70
     1
102
RTVSPost2010Prop50
 90
       50
102
RTVSPost2010PropOp50
 70
     1
102
RTVSPost2010Prop51ColorIndex
 90
      256
102
RTVSPost2010Prop51ColorRGB
 90
-16777216
102
RTVSPost2010PropOp51
 70
     0
102
RTVSPost2010Prop52
140
1.0
102
RTVSPost2010PropOp52
 70
     0
102
RTVSPost2010Prop53
 90
        2
102
RTVSPost2010PropOp53
 70
     1
102
RTVSPost2010Prop54
  1
strokes_ogs.tif
102
RTVSPost2010PropOp54
 70
     1
102
RTVSPost2010Prop55
280
     0
102
RTVSPost2010PropOp55
 70
     1
102
RTVSPost2010Prop56
140
1.0
102
RTVSPost2010PropOp56
 70
     1
102
RTVSPost2010Prop57
140
1.0
102
RTVSPost2010PropOp57
 70
     1
102
RTVSPropertyOp0
 70
     1
102
RTVSPropertyOp1
 70
     1
102
RTVSPropertyOp2
 70
     1
102
RTVSPropertyOp3
 70
     1
102
RTVSPropertyOp4
 70
     1
102
RTVSPropertyOp5
 70
     1
102
RTVSPropertyOp6
 70
     1
102
RTVSPropertyOp7
 70
     1
102
RTVSPropertyOp8
 70
     1
102
RTVSPropertyOp9
 70
     1
102
RTVSPropertyOp10
 70
     1
102
RTVSPropertyOp11
 70
     1
102
RTVSPropertyOp12
 70
     1
102
RTVSPropertyOp13
 70
     1
102
RTVSPropertyOp14
 70
     1
102
RTVSPropertyOp15
 70
     1
102
RTVSPropertyOp16
 70
     1
102
RTVSPropertyOp17
 70
     1
102
RTVSPropertyOp18
 70
     1
102
RTVSPropertyOp19
 70
     1
102
RTVSPropertyOp20
 70
     1
102
RTVSPropertyOp21
 70
     1
102
RTVSPropertyOp22
 70
     1
102
RTVSPropertyOp23
 70
     1
102
RTVSPropertyOp24
 70
     1
102
RTVSPropertyOp25
 70
     1
102
RTVSPropertyOp26
 70
     1
102
RTVSPropertyOp27
 70
     1
102
RTVSPropertyOp28
 70
     1
102
RTVSPropertyOp29
 70
     1
102
RTVSPropertyOp30
 70
     1
102
RTVSPropertyOp31
 70
     1
102
RTVSPropertyOp32
 70
     1
102
RTVSPropertyOp33
 70
     1
102
RTVSPropertyOp34
 70
     1
102
RTVSPropertyOp35
 70
     1
102
RTVSPropertyOp36
 70
     1
102
RTVSPropertyOp37
 70
     1
102
RTVSPropertyOp38
 70
     1
102
RTVSPropertyOp39
 70
     1
102
RTVSPropertyOp40
 70
     1
102
RTVSPropertyOp41
 70
     1
102
RTVSPropertyOp42
 70
     1
102
RTVSPropertyOp43
 70
     1
102
RTVSPropertyOp44
 70
     1
102
RTVSPropertyOp45
 70
     1
102
RTVSPropertyOp46
 70
     1
102
RTVSPropertyOp47
 70
     1
102
RTVSPropertyOp48
 70
     1
102
RTVSPropertyOp49
 70
     1
102
RTVSPropertyOp50
 70
     1
102
RTVSPropertyOp51
 70
     0
102
RTVSPropertyOp52
 70
     0
102
RTVSPropertyOp53
 70
     1
102
RTVSPropertyOp54
 70
     1
102
RTVSPropertyOp55
 70
     1
102
RTVSPropertyOp56
 70
     1
102
RTVSPropertyOp57
 70
     1
102
RTVSPropertyOp58
 70
     1
102
RTVSPropertyOp59
 70
     1
102
RTVSPropertyOp60
 70
     1
102
RTVSPropertyOp61
 70
     1
102
RTVSPropertyOp62
 70
     1
  0
XRECORD
  5
C59B
102
{ACAD_REACTORS
330
C59A
102
}
330
C59A
100
AcDbXrecord
280
     1
102
RTVSPost2010Prop28
280
     0
102
RTVSPost2010PropOp28
 70
     1
102
RTVSPost2010Prop29
280
     1
102
RTVSPost2010PropOp29
 70
     1
102
RTVSPost2010Prop30
280
     1
102
RTVSPost2010PropOp30
 70
     1
102
RTVSPost2010Prop31
280
     0
102
RTVSPost2010PropOp31
 70
     1
102
RTVSPost2010Prop32
280
     0
102
RTVSPost2010PropOp32
 70
     1
102
RTVSPost2010Prop33
280
     0
102
RTVSPost2010PropOp33
 70
     1
102
RTVSPost2010Prop34
280
     0
102
RTVSPost2010PropOp34
 70
     1
102
RTVSPost2010Prop35
280
     0
102
RTVSPost2010PropOp35
 70
     1
102
RTVSPost2010Prop36
280
     0
102
RTVSPost2010PropOp36
 70
     1
102
RTVSPost2010Prop37
 90
       50
102
RTVSPost2010PropOp37
 70
     0
102
RTVSPost2010Prop38
140
0.0
102
RTVSPost2010PropOp38
 70
     0
102
RTVSPost2010Prop39
140
1.0
102
RTVSPost2010PropOp39
 70
     0
102
RTVSPost2010Prop40
 90
        0
102
RTVSPost2010PropOp40
 70
     0
102
RTVSPost2010Prop41ColorIndex
 90
       18
102
RTVSPost2010Prop41ColorRGB
 90
        0
102
RTVSPost2010PropOp41
 70
     0
102
RTVSPost2010Prop42
 90
       50
102
RTVSPost2010PropOp42
 70
     0
102
RTVSPost2010Prop43
 90
        3
102
RTVSPost2010PropOp43
 70
     0
102
RTVSPost2010Prop44ColorIndex
 90
        5
102
RTVSPost2010Prop44ColorRGB
 90
      255
102
RTVSPost2010PropOp44
 70
     0
102
RTVSPost2010Prop45
280
     0
102
RTVSPost2010PropOp45
 70
     1
102
RTVSPost2010Prop46
 90
       50
102
RTVSPost2010PropOp46
 70
     0
102
RTVSPost2010Prop47
 90
       50
102
RTVSPost2010PropOp47
 70
     0
102
RTVSPost2010Prop48
 90
       50
102
RTVSPost2010PropOp48
 70
     0
102
RTVSPost2010Prop49
280
     0
102
RTVSPost2010PropOp49
 70
     1
102
RTVSPost2010Prop50
 90
       50
102
RTVSPost2010PropOp50
 70
     0
102
RTVSPost2010Prop51ColorIndex
 90
      256
102
RTVSPost2010Prop51ColorRGB
 90
-16777216
102
RTVSPost2010PropOp51
 70
     0
102
RTVSPost2010Prop52
140
1.0
102
RTVSPost2010PropOp52
 70
     0
102
RTVSPost2010Prop53
 90
        2
102
RTVSPost2010PropOp53
 70
     0
102
RTVSPost2010Prop54
  1
strokes_ogs.tif
102
RTVSPost2010PropOp54
 70
     0
102
RTVSPost2010Prop55
280
     0
102
RTVSPost2010PropOp55
 70
     1
102
RTVSPost2010Prop56
140
1.0
102
RTVSPost2010PropOp56
 70
     0
102
RTVSPost2010Prop57
140
1.0
102
RTVSPost2010PropOp57
 70
     0
102
RTVSPropertyOp0
 70
     0
102
RTVSPropertyOp1
 70
     0
102
RTVSPropertyOp2
 70
     0
102
RTVSPropertyOp3
 70
     0
102
RTVSPropertyOp4
 70
     0
102
RTVSPropertyOp5
 70
     0
102
RTVSPropertyOp6
 70
     0
102
RTVSPropertyOp7
 70
     0
102
RTVSPropertyOp8
 70
     0
102
RTVSPropertyOp9
 70
     0
102
RTVSPropertyOp10
 70
     0
102
RTVSPropertyOp11
 70
     0
102
RTVSPropertyOp12
 70
     0
102
RTVSPropertyOp13
 70
     0
102
RTVSPropertyOp14
 70
     2
102
RTVSPropertyOp15
 70
     0
102
RTVSPropertyOp16
 70
     0
102
RTVSPropertyOp17
 70
     0
102
RTVSPropertyOp18
 70
     0
102
RTVSPropertyOp19
 70
     0
102
RTVSPropertyOp20
 70
     0
102
RTVSPropertyOp21
 70
     0
102
RTVSPropertyOp22
 70
     0
102
RTVSPropertyOp23
 70
     0
102
RTVSPropertyOp24
 70
     0
102
RTVSPropertyOp25
 70
     0
102
RTVSPropertyOp26
 70
     0
102
RTVSPropertyOp27
 70
     0
102
RTVSPropertyOp28
 70
     1
102
RTVSPropertyOp29
 70
     1
102
RTVSPropertyOp30
 70
     1
102
RTVSPropertyOp31
 70
     1
102
RTVSPropertyOp32
 70
     1
102
RTVSPropertyOp33
 70
     1
102
RTVSPropertyOp34
 70
     1
102
RTVSPropertyOp35
 70
     1
102
RTVSPropertyOp36
 70
     1
102
RTVSPropertyOp37
 70
     0
102
RTVSPropertyOp38
 70
     0
102
RTVSPropertyOp39
 70
     0
102
RTVSPropertyOp40
 70
     0
102
RTVSPropertyOp41
 70
     0
102
RTVSPropertyOp42
 70
     0
102
RTVSPropertyOp43
 70
     0
102
RTVSPropertyOp44
 70
     0
102
RTVSPropertyOp45
 70
     1
102
RTVSPropertyOp46
 70
     0
102
RTVSPropertyOp47
 70
     0
102
RTVSPropertyOp48
 70
     0
102
RTVSPropertyOp49
 70
     1
102
RTVSPropertyOp50
 70
     0
102
RTVSPropertyOp51
 70
     0
102
RTVSPropertyOp52
 70
     0
102
RTVSPropertyOp53
 70
     0
102
RTVSPropertyOp54
 70
     0
102
RTVSPropertyOp55
 70
     1
102
RTVSPropertyOp56
 70
     0
102
RTVSPropertyOp57
 70
     0
102
RTVSPropertyOp58
 70
     0
102
RTVSPropertyOp59
 70
     0
102
RTVSPropertyOp60
 70
     0
102
RTVSPropertyOp61
 70
     0
102
RTVSPropertyOp62
 70
     0
  0
XRECORD
  5
C58B
102
{ACAD_REACTORS
330
C58A
102
}
330
C58A
100
AcDbXrecord
280
     1
102
RTVSPost2010Prop28
280
     0
102
RTVSPost2010PropOp28
 70
     1
102
RTVSPost2010Prop29
280
     1
102
RTVSPost2010PropOp29
 70
     1
102
RTVSPost2010Prop30
280
     1
102
RTVSPost2010PropOp30
 70
     1
102
RTVSPost2010Prop31
280
     0
102
RTVSPost2010PropOp31
 70
     1
102
RTVSPost2010Prop32
280
     0
102
RTVSPost2010PropOp32
 70
     1
102
RTVSPost2010Prop33
280
     0
102
RTVSPost2010PropOp33
 70
     1
102
RTVSPost2010Prop34
280
     0
102
RTVSPost2010PropOp34
 70
     1
102
RTVSPost2010Prop35
280
     0
102
RTVSPost2010PropOp35
 70
     1
102
RTVSPost2010Prop36
280
     0
102
RTVSPost2010PropOp36
 70
     1
102
RTVSPost2010Prop37
 90
       50
102
RTVSPost2010PropOp37
 70
     1
102
RTVSPost2010Prop38
140
0.0
102
RTVSPost2010PropOp38
 70
     1
102
RTVSPost2010Prop39
140
1.0
102
RTVSPost2010PropOp39
 70
     1
102
RTVSPost2010Prop40
 90
        0
102
RTVSPost2010PropOp40
 70
     1
102
RTVSPost2010Prop41ColorIndex
 90
       18
102
RTVSPost2010Prop41ColorRGB
 90
        0
102
RTVSPost2010PropOp41
 70
     1
102
RTVSPost2010Prop42
 90
       50
102
RTVSPost2010PropOp42
 70
     1
102
RTVSPost2010Prop43
 90
        3
102
RTVSPost2010PropOp43
 70
     1
102
RTVSPost2010Prop44ColorIndex
 90
        5
102
RTVSPost2010Prop44ColorRGB
 90
      255
102
RTVSPost2010PropOp44
 70
     1
102
RTVSPost2010Prop45
280
     0
102
RTVSPost2010PropOp45
 70
     1
102
RTVSPost2010Prop46
 90
       50
102
RTVSPost2010PropOp46
 70
     1
102
RTVSPost2010Prop47
 90
       50
102
RTVSPost2010PropOp47
 70
     1
102
RTVSPost2010Prop48
 90
       50
102
RTVSPost2010PropOp48
 70
     1
102
RTVSPost2010Prop49
280
     0
102
RTVSPost2010PropOp49
 70
     1
102
RTVSPost2010Prop50
 90
       50
102
RTVSPost2010PropOp50
 70
     1
102
RTVSPost2010Prop51ColorIndex
 90
      256
102
RTVSPost2010Prop51ColorRGB
 90
-16777216
102
RTVSPost2010PropOp51
 70
     0
102
RTVSPost2010Prop52
140
1.0
102
RTVSPost2010PropOp52
 70
     0
102
RTVSPost2010Prop53
 90
        2
102
RTVSPost2010PropOp53
 70
     1
102
RTVSPost2010Prop54
  1
strokes_ogs.tif
102
RTVSPost2010PropOp54
 70
     1
102
RTVSPost2010Prop55
280
     0
102
RTVSPost2010PropOp55
 70
     1
102
RTVSPost2010Prop56
140
1.0
102
RTVSPost2010PropOp56
 70
     1
102
RTVSPost2010Prop57
140
1.0
102
RTVSPost2010PropOp57
 70
     1
102
RTVSPropertyOp0
 70
     1
102
RTVSPropertyOp1
 70
     1
102
RTVSPropertyOp2
 70
     1
102
RTVSPropertyOp3
 70
     1
102
RTVSPropertyOp4
 70
     1
102
RTVSPropertyOp5
 70
     1
102
RTVSPropertyOp6
 70
     1
102
RTVSPropertyOp7
 70
     1
102
RTVSPropertyOp8
 70
     1
102
RTVSPropertyOp9
 70
     1
102
RTVSPropertyOp10
 70
     1
102
RTVSPropertyOp11
 70
     1
102
RTVSPropertyOp12
 70
     1
102
RTVSPropertyOp13
 70
     1
102
RTVSPropertyOp14
 70
     1
102
RTVSPropertyOp15
 70
     1
102
RTVSPropertyOp16
 70
     1
102
RTVSPropertyOp17
 70
     1
102
RTVSPropertyOp18
 70
     1
102
RTVSPropertyOp19
 70
     1
102
RTVSPropertyOp20
 70
     1
102
RTVSPropertyOp21
 70
     1
102
RTVSPropertyOp22
 70
     1
102
RTVSPropertyOp23
 70
     1
102
RTVSPropertyOp24
 70
     1
102
RTVSPropertyOp25
 70
     1
102
RTVSPropertyOp26
 70
     1
102
RTVSPropertyOp27
 70
     1
102
RTVSPropertyOp28
 70
     1
102
RTVSPropertyOp29
 70
     1
102
RTVSPropertyOp30
 70
     1
102
RTVSPropertyOp31
 70
     1
102
RTVSPropertyOp32
 70
     1
102
RTVSPropertyOp33
 70
     1
102
RTVSPropertyOp34
 70
     1
102
RTVSPropertyOp35
 70
     1
102
RTVSPropertyOp36
 70
     1
102
RTVSPropertyOp37
 70
     1
102
RTVSPropertyOp38
 70
     1
102
RTVSPropertyOp39
 70
     1
102
RTVSPropertyOp40
 70
     1
102
RTVSPropertyOp41
 70
     1
102
RTVSPropertyOp42
 70
     1
102
RTVSPropertyOp43
 70
     1
102
RTVSPropertyOp44
 70
     1
102
RTVSPropertyOp45
 70
     1
102
RTVSPropertyOp46
 70
     1
102
RTVSPropertyOp47
 70
     1
102
RTVSPropertyOp48
 70
     1
102
RTVSPropertyOp49
 70
     1
102
RTVSPropertyOp50
 70
     1
102
RTVSPropertyOp51
 70
     0
102
RTVSPropertyOp52
 70
     0
102
RTVSPropertyOp53
 70
     1
102
RTVSPropertyOp54
 70
     1
102
RTVSPropertyOp55
 70
     1
102
RTVSPropertyOp56
 70
     1
102
RTVSPropertyOp57
 70
     1
102
RTVSPropertyOp58
 70
     1
102
RTVSPropertyOp59
 70
     1
102
RTVSPropertyOp60
 70
     1
102
RTVSPropertyOp61
 70
     1
102
RTVSPropertyOp62
 70
     1
  0
XRECORD
  5
C59D
102
{ACAD_REACTORS
330
C59C
102
}
330
C59C
100
AcDbXrecord
280
     1
102
RTVSPost2010Prop28
280
     0
102
RTVSPost2010PropOp28
 70
     1
102
RTVSPost2010Prop29
280
     1
102
RTVSPost2010PropOp29
 70
     1
102
RTVSPost2010Prop30
280
     1
102
RTVSPost2010PropOp30
 70
     1
102
RTVSPost2010Prop31
280
     0
102
RTVSPost2010PropOp31
 70
     1
102
RTVSPost2010Prop32
280
     0
102
RTVSPost2010PropOp32
 70
     1
102
RTVSPost2010Prop33
280
     0
102
RTVSPost2010PropOp33
 70
     1
102
RTVSPost2010Prop34
280
     0
102
RTVSPost2010PropOp34
 70
     1
102
RTVSPost2010Prop35
280
     0
102
RTVSPost2010PropOp35
 70
     1
102
RTVSPost2010Prop36
280
     0
102
RTVSPost2010PropOp36
 70
     1
102
RTVSPost2010Prop37
 90
       50
102
RTVSPost2010PropOp37
 70
     0
102
RTVSPost2010Prop38
140
0.0
102
RTVSPost2010PropOp38
 70
     0
102
RTVSPost2010Prop39
140
1.0
102
RTVSPost2010PropOp39
 70
     0
102
RTVSPost2010Prop40
 90
        0
102
RTVSPost2010PropOp40
 70
     0
102
RTVSPost2010Prop41ColorIndex
 90
       18
102
RTVSPost2010Prop41ColorRGB
 90
        0
102
RTVSPost2010PropOp41
 70
     0
102
RTVSPost2010Prop42
 90
       50
102
RTVSPost2010PropOp42
 70
     0
102
RTVSPost2010Prop43
 90
        3
102
RTVSPost2010PropOp43
 70
     0
102
RTVSPost2010Prop44ColorIndex
 90
        5
102
RTVSPost2010Prop44ColorRGB
 90
      255
102
RTVSPost2010PropOp44
 70
     0
102
RTVSPost2010Prop45
280
     0
102
RTVSPost2010PropOp45
 70
     1
102
RTVSPost2010Prop46
 90
       50
102
RTVSPost2010PropOp46
 70
     0
102
RTVSPost2010Prop47
 90
       50
102
RTVSPost2010PropOp47
 70
     0
102
RTVSPost2010Prop48
 90
       50
102
RTVSPost2010PropOp48
 70
     0
102
RTVSPost2010Prop49
280
     0
102
RTVSPost2010PropOp49
 70
     1
102
RTVSPost2010Prop50
 90
       50
102
RTVSPost2010PropOp50
 70
     0
102
RTVSPost2010Prop51ColorIndex
 90
      256
102
RTVSPost2010Prop51ColorRGB
 90
-16777216
102
RTVSPost2010PropOp51
 70
     0
102
RTVSPost2010Prop52
140
1.0
102
RTVSPost2010PropOp52
 70
     0
102
RTVSPost2010Prop53
 90
        2
102
RTVSPost2010PropOp53
 70
     0
102
RTVSPost2010Prop54
  1
strokes_ogs.tif
102
RTVSPost2010PropOp54
 70
     0
102
RTVSPost2010Prop55
280
     0
102
RTVSPost2010PropOp55
 70
     1
102
RTVSPost2010Prop56
140
1.0
102
RTVSPost2010PropOp56
 70
     0
102
RTVSPost2010Prop57
140
1.0
102
RTVSPost2010PropOp57
 70
     0
102
RTVSPropertyOp0
 70
     0
102
RTVSPropertyOp1
 70
     0
102
RTVSPropertyOp2
 70
     0
102
RTVSPropertyOp3
 70
     0
102
RTVSPropertyOp4
 70
     0
102
RTVSPropertyOp5
 70
     0
102
RTVSPropertyOp6
 70
     0
102
RTVSPropertyOp7
 70
     0
102
RTVSPropertyOp8
 70
     0
102
RTVSPropertyOp9
 70
     0
102
RTVSPropertyOp10
 70
     0
102
RTVSPropertyOp11
 70
     0
102
RTVSPropertyOp12
 70
     0
102
RTVSPropertyOp13
 70
     0
102
RTVSPropertyOp14
 70
     2
102
RTVSPropertyOp15
 70
     0
102
RTVSPropertyOp16
 70
     0
102
RTVSPropertyOp17
 70
     0
102
RTVSPropertyOp18
 70
     0
102
RTVSPropertyOp19
 70
     0
102
RTVSPropertyOp20
 70
     0
102
RTVSPropertyOp21
 70
     0
102
RTVSPropertyOp22
 70
     0
102
RTVSPropertyOp23
 70
     0
102
RTVSPropertyOp24
 70
     0
102
RTVSPropertyOp25
 70
     0
102
RTVSPropertyOp26
 70
     0
102
RTVSPropertyOp27
 70
     0
102
RTVSPropertyOp28
 70
     1
102
RTVSPropertyOp29
 70
     1
102
RTVSPropertyOp30
 70
     1
102
RTVSPropertyOp31
 70
     1
102
RTVSPropertyOp32
 70
     1
102
RTVSPropertyOp33
 70
     1
102
RTVSPropertyOp34
 70
     1
102
RTVSPropertyOp35
 70
     1
102
RTVSPropertyOp36
 70
     1
102
RTVSPropertyOp37
 70
     0
102
RTVSPropertyOp38
 70
     0
102
RTVSPropertyOp39
 70
     0
102
RTVSPropertyOp40
 70
     0
102
RTVSPropertyOp41
 70
     0
102
RTVSPropertyOp42
 70
     0
102
RTVSPropertyOp43
 70
     0
102
RTVSPropertyOp44
 70
     0
102
RTVSPropertyOp45
 70
     1
102
RTVSPropertyOp46
 70
     0
102
RTVSPropertyOp47
 70
     0
102
RTVSPropertyOp48
 70
     0
102
RTVSPropertyOp49
 70
     1
102
RTVSPropertyOp50
 70
     0
102
RTVSPropertyOp51
 70
     0
102
RTVSPropertyOp52
 70
     0
102
RTVSPropertyOp53
 70
     0
102
RTVSPropertyOp54
 70
     0
102
RTVSPropertyOp55
 70
     1
102
RTVSPropertyOp56
 70
     0
102
RTVSPropertyOp57
 70
     0
102
RTVSPropertyOp58
 70
     0
102
RTVSPropertyOp59
 70
     0
102
RTVSPropertyOp60
 70
     0
102
RTVSPropertyOp61
 70
     0
102
RTVSPropertyOp62
 70
     0
  0
XRECORD
  5
C583
102
{ACAD_REACTORS
330
C582
102
}
330
C582
100
AcDbXrecord
280
     1
102
RTVSPost2010Prop28
280
     0
102
RTVSPost2010PropOp28
 70
     1
102
RTVSPost2010Prop29
280
     1
102
RTVSPost2010PropOp29
 70
     1
102
RTVSPost2010Prop30
280
     1
102
RTVSPost2010PropOp30
 70
     1
102
RTVSPost2010Prop31
280
     0
102
RTVSPost2010PropOp31
 70
     1
102
RTVSPost2010Prop32
280
     0
102
RTVSPost2010PropOp32
 70
     1
102
RTVSPost2010Prop33
280
     0
102
RTVSPost2010PropOp33
 70
     1
102
RTVSPost2010Prop34
280
     0
102
RTVSPost2010PropOp34
 70
     1
102
RTVSPost2010Prop35
280
     0
102
RTVSPost2010PropOp35
 70
     1
102
RTVSPost2010Prop36
280
     0
102
RTVSPost2010PropOp36
 70
     1
102
RTVSPost2010Prop37
 90
       50
102
RTVSPost2010PropOp37
 70
     1
102
RTVSPost2010Prop38
140
0.0
102
RTVSPost2010PropOp38
 70
     1
102
RTVSPost2010Prop39
140
1.0
102
RTVSPost2010PropOp39
 70
     1
102
RTVSPost2010Prop40
 90
        0
102
RTVSPost2010PropOp40
 70
     1
102
RTVSPost2010Prop41ColorIndex
 90
       18
102
RTVSPost2010Prop41ColorRGB
 90
        0
102
RTVSPost2010PropOp41
 70
     1
102
RTVSPost2010Prop42
 90
       50
102
RTVSPost2010PropOp42
 70
     1
102
RTVSPost2010Prop43
 90
        3
102
RTVSPost2010PropOp43
 70
     1
102
RTVSPost2010Prop44ColorIndex
 90
        5
102
RTVSPost2010Prop44ColorRGB
 90
      255
102
RTVSPost2010PropOp44
 70
     1
102
RTVSPost2010Prop45
280
     0
102
RTVSPost2010PropOp45
 70
     1
102
RTVSPost2010Prop46
 90
       50
102
RTVSPost2010PropOp46
 70
     1
102
RTVSPost2010Prop47
 90
       50
102
RTVSPost2010PropOp47
 70
     1
102
RTVSPost2010Prop48
 90
       50
102
RTVSPost2010PropOp48
 70
     1
102
RTVSPost2010Prop49
280
     0
102
RTVSPost2010PropOp49
 70
     1
102
RTVSPost2010Prop50
 90
       50
102
RTVSPost2010PropOp50
 70
     1
102
RTVSPost2010Prop51ColorIndex
 90
      256
102
RTVSPost2010Prop51ColorRGB
 90
-16777216
102
RTVSPost2010PropOp51
 70
     0
102
RTVSPost2010Prop52
140
1.0
102
RTVSPost2010PropOp52
 70
     0
102
RTVSPost2010Prop53
 90
        2
102
RTVSPost2010PropOp53
 70
     1
102
RTVSPost2010Prop54
  1
strokes_ogs.tif
102
RTVSPost2010PropOp54
 70
     1
102
RTVSPost2010Prop55
280
     0
102
RTVSPost2010PropOp55
 70
     1
102
RTVSPost2010Prop56
140
1.0
102
RTVSPost2010PropOp56
 70
     1
102
RTVSPost2010Prop57
140
1.0
102
RTVSPost2010PropOp57
 70
     1
102
RTVSPropertyOp0
 70
     1
102
RTVSPropertyOp1
 70
     1
102
RTVSPropertyOp2
 70
     1
102
RTVSPropertyOp3
 70
     1
102
RTVSPropertyOp4
 70
     1
102
RTVSPropertyOp5
 70
     1
102
RTVSPropertyOp6
 70
     1
102
RTVSPropertyOp7
 70
     1
102
RTVSPropertyOp8
 70
     1
102
RTVSPropertyOp9
 70
     1
102
RTVSPropertyOp10
 70
     1
102
RTVSPropertyOp11
 70
     1
102
RTVSPropertyOp12
 70
     1
102
RTVSPropertyOp13
 70
     1
102
RTVSPropertyOp14
 70
     1
102
RTVSPropertyOp15
 70
     1
102
RTVSPropertyOp16
 70
     1
102
RTVSPropertyOp17
 70
     1
102
RTVSPropertyOp18
 70
     1
102
RTVSPropertyOp19
 70
     1
102
RTVSPropertyOp20
 70
     1
102
RTVSPropertyOp21
 70
     1
102
RTVSPropertyOp22
 70
     1
102
RTVSPropertyOp23
 70
     1
102
RTVSPropertyOp24
 70
     1
102
RTVSPropertyOp25
 70
     1
102
RTVSPropertyOp26
 70
     1
102
RTVSPropertyOp27
 70
     1
102
RTVSPropertyOp28
 70
     1
102
RTVSPropertyOp29
 70
     1
102
RTVSPropertyOp30
 70
     1
102
RTVSPropertyOp31
 70
     1
102
RTVSPropertyOp32
 70
     1
102
RTVSPropertyOp33
 70
     1
102
RTVSPropertyOp34
 70
     1
102
RTVSPropertyOp35
 70
     1
102
RTVSPropertyOp36
 70
     1
102
RTVSPropertyOp37
 70
     1
102
RTVSPropertyOp38
 70
     1
102
RTVSPropertyOp39
 70
     1
102
RTVSPropertyOp40
 70
     1
102
RTVSPropertyOp41
 70
     1
102
RTVSPropertyOp42
 70
     1
102
RTVSPropertyOp43
 70
     1
102
RTVSPropertyOp44
 70
     1
102
RTVSPropertyOp45
 70
     1
102
RTVSPropertyOp46
 70
     1
102
RTVSPropertyOp47
 70
     1
102
RTVSPropertyOp48
 70
     1
102
RTVSPropertyOp49
 70
     1
102
RTVSPropertyOp50
 70
     1
102
RTVSPropertyOp51
 70
     0
102
RTVSPropertyOp52
 70
     0
102
RTVSPropertyOp53
 70
     1
102
RTVSPropertyOp54
 70
     1
102
RTVSPropertyOp55
 70
     1
102
RTVSPropertyOp56
 70
     1
102
RTVSPropertyOp57
 70
     1
102
RTVSPropertyOp58
 70
     1
102
RTVSPropertyOp59
 70
     1
102
RTVSPropertyOp60
 70
     1
102
RTVSPropertyOp61
 70
     1
102
RTVSPropertyOp62
 70
     1
  0
XRECORD
  5
C599
102
{ACAD_REACTORS
330
C598
102
}
330
C598
100
AcDbXrecord
280
     1
102
RTVSPost2010Prop28
280
     0
102
RTVSPost2010PropOp28
 70
     1
102
RTVSPost2010Prop29
280
     1
102
RTVSPost2010PropOp29
 70
     1
102
RTVSPost2010Prop30
280
     1
102
RTVSPost2010PropOp30
 70
     1
102
RTVSPost2010Prop31
280
     0
102
RTVSPost2010PropOp31
 70
     1
102
RTVSPost2010Prop32
280
     0
102
RTVSPost2010PropOp32
 70
     1
102
RTVSPost2010Prop33
280
     0
102
RTVSPost2010PropOp33
 70
     1
102
RTVSPost2010Prop34
280
     0
102
RTVSPost2010PropOp34
 70
     1
102
RTVSPost2010Prop35
280
     0
102
RTVSPost2010PropOp35
 70
     1
102
RTVSPost2010Prop36
280
     0
102
RTVSPost2010PropOp36
 70
     1
102
RTVSPost2010Prop37
 90
       50
102
RTVSPost2010PropOp37
 70
     1
102
RTVSPost2010Prop38
140
0.0
102
RTVSPost2010PropOp38
 70
     1
102
RTVSPost2010Prop39
140
1.0
102
RTVSPost2010PropOp39
 70
     1
102
RTVSPost2010Prop40
 90
        0
102
RTVSPost2010PropOp40
 70
     1
102
RTVSPost2010Prop41ColorIndex
 90
       18
102
RTVSPost2010Prop41ColorRGB
 90
        0
102
RTVSPost2010PropOp41
 70
     1
102
RTVSPost2010Prop42
 90
       50
102
RTVSPost2010PropOp42
 70
     1
102
RTVSPost2010Prop43
 90
        3
102
RTVSPost2010PropOp43
 70
     1
102
RTVSPost2010Prop44ColorIndex
 90
        5
102
RTVSPost2010Prop44ColorRGB
 90
      255
102
RTVSPost2010PropOp44
 70
     1
102
RTVSPost2010Prop45
280
     0
102
RTVSPost2010PropOp45
 70
     1
102
RTVSPost2010Prop46
 90
       50
102
RTVSPost2010PropOp46
 70
     1
102
RTVSPost2010Prop47
 90
       50
102
RTVSPost2010PropOp47
 70
     1
102
RTVSPost2010Prop48
 90
       50
102
RTVSPost2010PropOp48
 70
     1
102
RTVSPost2010Prop49
280
     0
102
RTVSPost2010PropOp49
 70
     1
102
RTVSPost2010Prop50
 90
       50
102
RTVSPost2010PropOp50
 70
     1
102
RTVSPost2010Prop51ColorIndex
 90
      256
102
RTVSPost2010Prop51ColorRGB
 90
-16777216
102
RTVSPost2010PropOp51
 70
     0
102
RTVSPost2010Prop52
140
1.0
102
RTVSPost2010PropOp52
 70
     0
102
RTVSPost2010Prop53
 90
        2
102
RTVSPost2010PropOp53
 70
     1
102
RTVSPost2010Prop54
  1
strokes_ogs.tif
102
RTVSPost2010PropOp54
 70
     1
102
RTVSPost2010Prop55
280
     0
102
RTVSPost2010PropOp55
 70
     1
102
RTVSPost2010Prop56
140
1.0
102
RTVSPost2010PropOp56
 70
     1
102
RTVSPost2010Prop57
140
1.0
102
RTVSPost2010PropOp57
 70
     1
102
RTVSPropertyOp0
 70
     1
102
RTVSPropertyOp1
 70
     1
102
RTVSPropertyOp2
 70
     1
102
RTVSPropertyOp3
 70
     1
102
RTVSPropertyOp4
 70
     1
102
RTVSPropertyOp5
 70
     1
102
RTVSPropertyOp6
 70
     1
102
RTVSPropertyOp7
 70
     1
102
RTVSPropertyOp8
 70
     1
102
RTVSPropertyOp9
 70
     1
102
RTVSPropertyOp10
 70
     1
102
RTVSPropertyOp11
 70
     1
102
RTVSPropertyOp12
 70
     1
102
RTVSPropertyOp13
 70
     1
102
RTVSPropertyOp14
 70
     1
102
RTVSPropertyOp15
 70
     1
102
RTVSPropertyOp16
 70
     1
102
RTVSPropertyOp17
 70
     1
102
RTVSPropertyOp18
 70
     1
102
RTVSPropertyOp19
 70
     1
102
RTVSPropertyOp20
 70
     1
102
RTVSPropertyOp21
 70
     1
102
RTVSPropertyOp22
 70
     1
102
RTVSPropertyOp23
 70
     1
102
RTVSPropertyOp24
 70
     1
102
RTVSPropertyOp25
 70
     1
102
RTVSPropertyOp26
 70
     1
102
RTVSPropertyOp27
 70
     1
102
RTVSPropertyOp28
 70
     1
102
RTVSPropertyOp29
 70
     1
102
RTVSPropertyOp30
 70
     1
102
RTVSPropertyOp31
 70
     1
102
RTVSPropertyOp32
 70
     1
102
RTVSPropertyOp33
 70
     1
102
RTVSPropertyOp34
 70
     1
102
RTVSPropertyOp35
 70
     1
102
RTVSPropertyOp36
 70
     1
102
RTVSPropertyOp37
 70
     1
102
RTVSPropertyOp38
 70
     1
102
RTVSPropertyOp39
 70
     1
102
RTVSPropertyOp40
 70
     1
102
RTVSPropertyOp41
 70
     1
102
RTVSPropertyOp42
 70
     1
102
RTVSPropertyOp43
 70
     1
102
RTVSPropertyOp44
 70
     1
102
RTVSPropertyOp45
 70
     1
102
RTVSPropertyOp46
 70
     1
102
RTVSPropertyOp47
 70
     1
102
RTVSPropertyOp48
 70
     1
102
RTVSPropertyOp49
 70
     1
102
RTVSPropertyOp50
 70
     1
102
RTVSPropertyOp51
 70
     0
102
RTVSPropertyOp52
 70
     0
102
RTVSPropertyOp53
 70
     1
102
RTVSPropertyOp54
 70
     1
102
RTVSPropertyOp55
 70
     1
102
RTVSPropertyOp56
 70
     1
102
RTVSPropertyOp57
 70
     1
102
RTVSPropertyOp58
 70
     1
102
RTVSPropertyOp59
 70
     1
102
RTVSPropertyOp60
 70
     1
102
RTVSPropertyOp61
 70
     1
102
RTVSPropertyOp62
 70
     1
  0
XRECORD
  5
C597
102
{ACAD_REACTORS
330
C596
102
}
330
C596
100
AcDbXrecord
280
     1
102
RTVSPost2010Prop28
280
     0
102
RTVSPost2010PropOp28
 70
     1
102
RTVSPost2010Prop29
280
     1
102
RTVSPost2010PropOp29
 70
     1
102
RTVSPost2010Prop30
280
     1
102
RTVSPost2010PropOp30
 70
     1
102
RTVSPost2010Prop31
280
     0
102
RTVSPost2010PropOp31
 70
     1
102
RTVSPost2010Prop32
280
     0
102
RTVSPost2010PropOp32
 70
     1
102
RTVSPost2010Prop33
280
     0
102
RTVSPost2010PropOp33
 70
     1
102
RTVSPost2010Prop34
280
     0
102
RTVSPost2010PropOp34
 70
     1
102
RTVSPost2010Prop35
280
     0
102
RTVSPost2010PropOp35
 70
     1
102
RTVSPost2010Prop36
280
     0
102
RTVSPost2010PropOp36
 70
     1
102
RTVSPost2010Prop37
 90
       50
102
RTVSPost2010PropOp37
 70
     1
102
RTVSPost2010Prop38
140
0.0
102
RTVSPost2010PropOp38
 70
     1
102
RTVSPost2010Prop39
140
1.0
102
RTVSPost2010PropOp39
 70
     1
102
RTVSPost2010Prop40
 90
        0
102
RTVSPost2010PropOp40
 70
     1
102
RTVSPost2010Prop41ColorIndex
 90
       18
102
RTVSPost2010Prop41ColorRGB
 90
        0
102
RTVSPost2010PropOp41
 70
     1
102
RTVSPost2010Prop42
 90
       50
102
RTVSPost2010PropOp42
 70
     1
102
RTVSPost2010Prop43
 90
        3
102
RTVSPost2010PropOp43
 70
     1
102
RTVSPost2010Prop44ColorIndex
 90
        5
102
RTVSPost2010Prop44ColorRGB
 90
      255
102
RTVSPost2010PropOp44
 70
     1
102
RTVSPost2010Prop45
280
     0
102
RTVSPost2010PropOp45
 70
     1
102
RTVSPost2010Prop46
 90
       50
102
RTVSPost2010PropOp46
 70
     1
102
RTVSPost2010Prop47
 90
       50
102
RTVSPost2010PropOp47
 70
     1
102
RTVSPost2010Prop48
 90
       50
102
RTVSPost2010PropOp48
 70
     1
102
RTVSPost2010Prop49
280
     0
102
RTVSPost2010PropOp49
 70
     1
102
RTVSPost2010Prop50
 90
       50
102
RTVSPost2010PropOp50
 70
     1
102
RTVSPost2010Prop51ColorIndex
 90
      256
102
RTVSPost2010Prop51ColorRGB
 90
-16777216
102
RTVSPost2010PropOp51
 70
     0
102
RTVSPost2010Prop52
140
1.0
102
RTVSPost2010PropOp52
 70
     0
102
RTVSPost2010Prop53
 90
        2
102
RTVSPost2010PropOp53
 70
     1
102
RTVSPost2010Prop54
  1
strokes_ogs.tif
102
RTVSPost2010PropOp54
 70
     1
102
RTVSPost2010Prop55
280
     0
102
RTVSPost2010PropOp55
 70
     1
102
RTVSPost2010Prop56
140
1.0
102
RTVSPost2010PropOp56
 70
     1
102
RTVSPost2010Prop57
140
1.0
102
RTVSPost2010PropOp57
 70
     1
102
RTVSPropertyOp0
 70
     1
102
RTVSPropertyOp1
 70
     1
102
RTVSPropertyOp2
 70
     1
102
RTVSPropertyOp3
 70
     1
102
RTVSPropertyOp4
 70
     1
102
RTVSPropertyOp5
 70
     1
102
RTVSPropertyOp6
 70
     1
102
RTVSPropertyOp7
 70
     1
102
RTVSPropertyOp8
 70
     1
102
RTVSPropertyOp9
 70
     1
102
RTVSPropertyOp10
 70
     1
102
RTVSPropertyOp11
 70
     1
102
RTVSPropertyOp12
 70
     1
102
RTVSPropertyOp13
 70
     1
102
RTVSPropertyOp14
 70
     1
102
RTVSPropertyOp15
 70
     1
102
RTVSPropertyOp16
 70
     1
102
RTVSPropertyOp17
 70
     1
102
RTVSPropertyOp18
 70
     1
102
RTVSPropertyOp19
 70
     1
102
RTVSPropertyOp20
 70
     1
102
RTVSPropertyOp21
 70
     1
102
RTVSPropertyOp22
 70
     1
102
RTVSPropertyOp23
 70
     1
102
RTVSPropertyOp24
 70
     1
102
RTVSPropertyOp25
 70
     1
102
RTVSPropertyOp26
 70
     1
102
RTVSPropertyOp27
 70
     1
102
RTVSPropertyOp28
 70
     1
102
RTVSPropertyOp29
 70
     1
102
RTVSPropertyOp30
 70
     1
102
RTVSPropertyOp31
 70
     1
102
RTVSPropertyOp32
 70
     1
102
RTVSPropertyOp33
 70
     1
102
RTVSPropertyOp34
 70
     1
102
RTVSPropertyOp35
 70
     1
102
RTVSPropertyOp36
 70
     1
102
RTVSPropertyOp37
 70
     1
102
RTVSPropertyOp38
 70
     1
102
RTVSPropertyOp39
 70
     1
102
RTVSPropertyOp40
 70
     1
102
RTVSPropertyOp41
 70
     1
102
RTVSPropertyOp42
 70
     1
102
RTVSPropertyOp43
 70
     1
102
RTVSPropertyOp44
 70
     1
102
RTVSPropertyOp45
 70
     1
102
RTVSPropertyOp46
 70
     1
102
RTVSPropertyOp47
 70
     1
102
RTVSPropertyOp48
 70
     1
102
RTVSPropertyOp49
 70
     1
102
RTVSPropertyOp50
 70
     1
102
RTVSPropertyOp51
 70
     0
102
RTVSPropertyOp52
 70
     0
102
RTVSPropertyOp53
 70
     1
102
RTVSPropertyOp54
 70
     1
102
RTVSPropertyOp55
 70
     1
102
RTVSPropertyOp56
 70
     1
102
RTVSPropertyOp57
 70
     1
102
RTVSPropertyOp58
 70
     1
102
RTVSPropertyOp59
 70
     1
102
RTVSPropertyOp60
 70
     1
102
RTVSPropertyOp61
 70
     1
102
RTVSPropertyOp62
 70
     1
  0
XRECORD
  5
C591
102
{ACAD_REACTORS
330
C590
102
}
330
C590
100
AcDbXrecord
280
     1
102
RTVSPost2010Prop28
280
     0
102
RTVSPost2010PropOp28
 70
     1
102
RTVSPost2010Prop29
280
     1
102
RTVSPost2010PropOp29
 70
     1
102
RTVSPost2010Prop30
280
     1
102
RTVSPost2010PropOp30
 70
     1
102
RTVSPost2010Prop31
280
     0
102
RTVSPost2010PropOp31
 70
     1
102
RTVSPost2010Prop32
280
     0
102
RTVSPost2010PropOp32
 70
     1
102
RTVSPost2010Prop33
280
     0
102
RTVSPost2010PropOp33
 70
     1
102
RTVSPost2010Prop34
280
     0
102
RTVSPost2010PropOp34
 70
     1
102
RTVSPost2010Prop35
280
     0
102
RTVSPost2010PropOp35
 70
     1
102
RTVSPost2010Prop36
280
     0
102
RTVSPost2010PropOp36
 70
     1
102
RTVSPost2010Prop37
 90
       50
102
RTVSPost2010PropOp37
 70
     1
102
RTVSPost2010Prop38
140
0.0
102
RTVSPost2010PropOp38
 70
     1
102
RTVSPost2010Prop39
140
1.0
102
RTVSPost2010PropOp39
 70
     1
102
RTVSPost2010Prop40
 90
        0
102
RTVSPost2010PropOp40
 70
     1
102
RTVSPost2010Prop41ColorIndex
 90
       18
102
RTVSPost2010Prop41ColorRGB
 90
        0
102
RTVSPost2010PropOp41
 70
     1
102
RTVSPost2010Prop42
 90
       50
102
RTVSPost2010PropOp42
 70
     1
102
RTVSPost2010Prop43
 90
        3
102
RTVSPost2010PropOp43
 70
     1
102
RTVSPost2010Prop44ColorIndex
 90
        5
102
RTVSPost2010Prop44ColorRGB
 90
      255
102
RTVSPost2010PropOp44
 70
     1
102
RTVSPost2010Prop45
280
     0
102
RTVSPost2010PropOp45
 70
     1
102
RTVSPost2010Prop46
 90
       50
102
RTVSPost2010PropOp46
 70
     1
102
RTVSPost2010Prop47
 90
       50
102
RTVSPost2010PropOp47
 70
     1
102
RTVSPost2010Prop48
 90
       50
102
RTVSPost2010PropOp48
 70
     1
102
RTVSPost2010Prop49
280
     0
102
RTVSPost2010PropOp49
 70
     1
102
RTVSPost2010Prop50
 90
       50
102
RTVSPost2010PropOp50
 70
     1
102
RTVSPost2010Prop51ColorIndex
 90
      256
102
RTVSPost2010Prop51ColorRGB
 90
-16777216
102
RTVSPost2010PropOp51
 70
     0
102
RTVSPost2010Prop52
140
1.0
102
RTVSPost2010PropOp52
 70
     0
102
RTVSPost2010Prop53
 90
        2
102
RTVSPost2010PropOp53
 70
     1
102
RTVSPost2010Prop54
  1
strokes_ogs.tif
102
RTVSPost2010PropOp54
 70
     1
102
RTVSPost2010Prop55
280
     0
102
RTVSPost2010PropOp55
 70
     1
102
RTVSPost2010Prop56
140
1.0
102
RTVSPost2010PropOp56
 70
     1
102
RTVSPost2010Prop57
140
1.0
102
RTVSPost2010PropOp57
 70
     1
102
RTVSPropertyOp0
 70
     1
102
RTVSPropertyOp1
 70
     1
102
RTVSPropertyOp2
 70
     1
102
RTVSPropertyOp3
 70
     1
102
RTVSPropertyOp4
 70
     1
102
RTVSPropertyOp5
 70
     1
102
RTVSPropertyOp6
 70
     1
102
RTVSPropertyOp7
 70
     1
102
RTVSPropertyOp8
 70
     1
102
RTVSPropertyOp9
 70
     1
102
RTVSPropertyOp10
 70
     1
102
RTVSPropertyOp11
 70
     1
102
RTVSPropertyOp12
 70
     1
102
RTVSPropertyOp13
 70
     1
102
RTVSPropertyOp14
 70
     1
102
RTVSPropertyOp15
 70
     1
102
RTVSPropertyOp16
 70
     1
102
RTVSPropertyOp17
 70
     1
102
RTVSPropertyOp18
 70
     1
102
RTVSPropertyOp19
 70
     1
102
RTVSPropertyOp20
 70
     1
102
RTVSPropertyOp21
 70
     1
102
RTVSPropertyOp22
 70
     1
102
RTVSPropertyOp23
 70
     1
102
RTVSPropertyOp24
 70
     1
102
RTVSPropertyOp25
 70
     1
102
RTVSPropertyOp26
 70
     1
102
RTVSPropertyOp27
 70
     1
102
RTVSPropertyOp28
 70
     1
102
RTVSPropertyOp29
 70
     1
102
RTVSPropertyOp30
 70
     1
102
RTVSPropertyOp31
 70
     1
102
RTVSPropertyOp32
 70
     1
102
RTVSPropertyOp33
 70
     1
102
RTVSPropertyOp34
 70
     1
102
RTVSPropertyOp35
 70
     1
102
RTVSPropertyOp36
 70
     1
102
RTVSPropertyOp37
 70
     1
102
RTVSPropertyOp38
 70
     1
102
RTVSPropertyOp39
 70
     1
102
RTVSPropertyOp40
 70
     1
102
RTVSPropertyOp41
 70
     1
102
RTVSPropertyOp42
 70
     1
102
RTVSPropertyOp43
 70
     1
102
RTVSPropertyOp44
 70
     1
102
RTVSPropertyOp45
 70
     1
102
RTVSPropertyOp46
 70
     1
102
RTVSPropertyOp47
 70
     1
102
RTVSPropertyOp48
 70
     1
102
RTVSPropertyOp49
 70
     1
102
RTVSPropertyOp50
 70
     1
102
RTVSPropertyOp51
 70
     0
102
RTVSPropertyOp52
 70
     0
102
RTVSPropertyOp53
 70
     1
102
RTVSPropertyOp54
 70
     1
102
RTVSPropertyOp55
 70
     1
102
RTVSPropertyOp56
 70
     1
102
RTVSPropertyOp57
 70
     1
102
RTVSPropertyOp58
 70
     1
102
RTVSPropertyOp59
 70
     1
102
RTVSPropertyOp60
 70
     1
102
RTVSPropertyOp61
 70
     1
102
RTVSPropertyOp62
 70
     1
  0
XRECORD
  5
C593
102
{ACAD_REACTORS
330
C592
102
}
330
C592
100
AcDbXrecord
280
     1
102
RTVSPost2010Prop28
280
     0
102
RTVSPost2010PropOp28
 70
     1
102
RTVSPost2010Prop29
280
     1
102
RTVSPost2010PropOp29
 70
     1
102
RTVSPost2010Prop30
280
     1
102
RTVSPost2010PropOp30
 70
     1
102
RTVSPost2010Prop31
280
     0
102
RTVSPost2010PropOp31
 70
     1
102
RTVSPost2010Prop32
280
     0
102
RTVSPost2010PropOp32
 70
     1
102
RTVSPost2010Prop33
280
     0
102
RTVSPost2010PropOp33
 70
     1
102
RTVSPost2010Prop34
280
     0
102
RTVSPost2010PropOp34
 70
     1
102
RTVSPost2010Prop35
280
     0
102
RTVSPost2010PropOp35
 70
     1
102
RTVSPost2010Prop36
280
     0
102
RTVSPost2010PropOp36
 70
     1
102
RTVSPost2010Prop37
 90
       50
102
RTVSPost2010PropOp37
 70
     1
102
RTVSPost2010Prop38
140
0.0
102
RTVSPost2010PropOp38
 70
     1
102
RTVSPost2010Prop39
140
1.0
102
RTVSPost2010PropOp39
 70
     1
102
RTVSPost2010Prop40
 90
        0
102
RTVSPost2010PropOp40
 70
     1
102
RTVSPost2010Prop41ColorIndex
 90
       18
102
RTVSPost2010Prop41ColorRGB
 90
        0
102
RTVSPost2010PropOp41
 70
     1
102
RTVSPost2010Prop42
 90
       50
102
RTVSPost2010PropOp42
 70
     1
102
RTVSPost2010Prop43
 90
        3
102
RTVSPost2010PropOp43
 70
     1
102
RTVSPost2010Prop44ColorIndex
 90
        5
102
RTVSPost2010Prop44ColorRGB
 90
      255
102
RTVSPost2010PropOp44
 70
     1
102
RTVSPost2010Prop45
280
     0
102
RTVSPost2010PropOp45
 70
     1
102
RTVSPost2010Prop46
 90
       50
102
RTVSPost2010PropOp46
 70
     1
102
RTVSPost2010Prop47
 90
       50
102
RTVSPost2010PropOp47
 70
     1
102
RTVSPost2010Prop48
 90
       50
102
RTVSPost2010PropOp48
 70
     1
102
RTVSPost2010Prop49
280
     0
102
RTVSPost2010PropOp49
 70
     1
102
RTVSPost2010Prop50
 90
       50
102
RTVSPost2010PropOp50
 70
     1
102
RTVSPost2010Prop51ColorIndex
 90
      256
102
RTVSPost2010Prop51ColorRGB
 90
-16777216
102
RTVSPost2010PropOp51
 70
     0
102
RTVSPost2010Prop52
140
1.0
102
RTVSPost2010PropOp52
 70
     0
102
RTVSPost2010Prop53
 90
        2
102
RTVSPost2010PropOp53
 70
     1
102
RTVSPost2010Prop54
  1
strokes_ogs.tif
102
RTVSPost2010PropOp54
 70
     1
102
RTVSPost2010Prop55
280
     0
102
RTVSPost2010PropOp55
 70
     1
102
RTVSPost2010Prop56
140
1.0
102
RTVSPost2010PropOp56
 70
     1
102
RTVSPost2010Prop57
140
1.0
102
RTVSPost2010PropOp57
 70
     1
102
RTVSPropertyOp0
 70
     1
102
RTVSPropertyOp1
 70
     1
102
RTVSPropertyOp2
 70
     1
102
RTVSPropertyOp3
 70
     1
102
RTVSPropertyOp4
 70
     1
102
RTVSPropertyOp5
 70
     1
102
RTVSPropertyOp6
 70
     1
102
RTVSPropertyOp7
 70
     1
102
RTVSPropertyOp8
 70
     1
102
RTVSPropertyOp9
 70
     1
102
RTVSPropertyOp10
 70
     1
102
RTVSPropertyOp11
 70
     1
102
RTVSPropertyOp12
 70
     1
102
RTVSPropertyOp13
 70
     1
102
RTVSPropertyOp14
 70
     1
102
RTVSPropertyOp15
 70
     1
102
RTVSPropertyOp16
 70
     1
102
RTVSPropertyOp17
 70
     1
102
RTVSPropertyOp18
 70
     1
102
RTVSPropertyOp19
 70
     1
102
RTVSPropertyOp20
 70
     1
102
RTVSPropertyOp21
 70
     1
102
RTVSPropertyOp22
 70
     1
102
RTVSPropertyOp23
 70
     1
102
RTVSPropertyOp24
 70
     1
102
RTVSPropertyOp25
 70
     1
102
RTVSPropertyOp26
 70
     1
102
RTVSPropertyOp27
 70
     1
102
RTVSPropertyOp28
 70
     1
102
RTVSPropertyOp29
 70
     1
102
RTVSPropertyOp30
 70
     1
102
RTVSPropertyOp31
 70
     1
102
RTVSPropertyOp32
 70
     1
102
RTVSPropertyOp33
 70
     1
102
RTVSPropertyOp34
 70
     1
102
RTVSPropertyOp35
 70
     1
102
RTVSPropertyOp36
 70
     1
102
RTVSPropertyOp37
 70
     1
102
RTVSPropertyOp38
 70
     1
102
RTVSPropertyOp39
 70
     1
102
RTVSPropertyOp40
 70
     1
102
RTVSPropertyOp41
 70
     1
102
RTVSPropertyOp42
 70
     1
102
RTVSPropertyOp43
 70
     1
102
RTVSPropertyOp44
 70
     1
102
RTVSPropertyOp45
 70
     1
102
RTVSPropertyOp46
 70
     1
102
RTVSPropertyOp47
 70
     1
102
RTVSPropertyOp48
 70
     1
102
RTVSPropertyOp49
 70
     1
102
RTVSPropertyOp50
 70
     1
102
RTVSPropertyOp51
 70
     0
102
RTVSPropertyOp52
 70
     0
102
RTVSPropertyOp53
 70
     1
102
RTVSPropertyOp54
 70
     1
102
RTVSPropertyOp55
 70
     1
102
RTVSPropertyOp56
 70
     1
102
RTVSPropertyOp57
 70
     1
102
RTVSPropertyOp58
 70
     1
102
RTVSPropertyOp59
 70
     1
102
RTVSPropertyOp60
 70
     1
102
RTVSPropertyOp61
 70
     1
102
RTVSPropertyOp62
 70
     1
  0
XRECORD
  5
C589
102
{ACAD_REACTORS
330
C588
102
}
330
C588
100
AcDbXrecord
280
     1
102
RTVSPost2010Prop28
280
     0
102
RTVSPost2010PropOp28
 70
     1
102
RTVSPost2010Prop29
280
     1
102
RTVSPost2010PropOp29
 70
     1
102
RTVSPost2010Prop30
280
     1
102
RTVSPost2010PropOp30
 70
     1
102
RTVSPost2010Prop31
280
     0
102
RTVSPost2010PropOp31
 70
     1
102
RTVSPost2010Prop32
280
     0
102
RTVSPost2010PropOp32
 70
     1
102
RTVSPost2010Prop33
280
     0
102
RTVSPost2010PropOp33
 70
     1
102
RTVSPost2010Prop34
280
     0
102
RTVSPost2010PropOp34
 70
     1
102
RTVSPost2010Prop35
280
     0
102
RTVSPost2010PropOp35
 70
     1
102
RTVSPost2010Prop36
280
     0
102
RTVSPost2010PropOp36
 70
     1
102
RTVSPost2010Prop37
 90
       50
102
RTVSPost2010PropOp37
 70
     1
102
RTVSPost2010Prop38
140
0.0
102
RTVSPost2010PropOp38
 70
     1
102
RTVSPost2010Prop39
140
1.0
102
RTVSPost2010PropOp39
 70
     1
102
RTVSPost2010Prop40
 90
        0
102
RTVSPost2010PropOp40
 70
     1
102
RTVSPost2010Prop41ColorIndex
 90
       18
102
RTVSPost2010Prop41ColorRGB
 90
        0
102
RTVSPost2010PropOp41
 70
     1
102
RTVSPost2010Prop42
 90
       50
102
RTVSPost2010PropOp42
 70
     1
102
RTVSPost2010Prop43
 90
        3
102
RTVSPost2010PropOp43
 70
     1
102
RTVSPost2010Prop44ColorIndex
 90
        5
102
RTVSPost2010Prop44ColorRGB
 90
      255
102
RTVSPost2010PropOp44
 70
     1
102
RTVSPost2010Prop45
280
     0
102
RTVSPost2010PropOp45
 70
     1
102
RTVSPost2010Prop46
 90
       50
102
RTVSPost2010PropOp46
 70
     1
102
RTVSPost2010Prop47
 90
       50
102
RTVSPost2010PropOp47
 70
     1
102
RTVSPost2010Prop48
 90
       50
102
RTVSPost2010PropOp48
 70
     1
102
RTVSPost2010Prop49
280
     0
102
RTVSPost2010PropOp49
 70
     1
102
RTVSPost2010Prop50
 90
       50
102
RTVSPost2010PropOp50
 70
     1
102
RTVSPost2010Prop51ColorIndex
 90
      256
102
RTVSPost2010Prop51ColorRGB
 90
-16777216
102
RTVSPost2010PropOp51
 70
     0
102
RTVSPost2010Prop52
140
1.0
102
RTVSPost2010PropOp52
 70
     0
102
RTVSPost2010Prop53
 90
        2
102
RTVSPost2010PropOp53
 70
     1
102
RTVSPost2010Prop54
  1
strokes_ogs.tif
102
RTVSPost2010PropOp54
 70
     1
102
RTVSPost2010Prop55
280
     0
102
RTVSPost2010PropOp55
 70
     1
102
RTVSPost2010Prop56
140
1.0
102
RTVSPost2010PropOp56
 70
     1
102
RTVSPost2010Prop57
140
1.0
102
RTVSPost2010PropOp57
 70
     1
102
RTVSPropertyOp0
 70
     1
102
RTVSPropertyOp1
 70
     1
102
RTVSPropertyOp2
 70
     1
102
RTVSPropertyOp3
 70
     1
102
RTVSPropertyOp4
 70
     1
102
RTVSPropertyOp5
 70
     1
102
RTVSPropertyOp6
 70
     1
102
RTVSPropertyOp7
 70
     1
102
RTVSPropertyOp8
 70
     1
102
RTVSPropertyOp9
 70
     1
102
RTVSPropertyOp10
 70
     1
102
RTVSPropertyOp11
 70
     1
102
RTVSPropertyOp12
 70
     1
102
RTVSPropertyOp13
 70
     1
102
RTVSPropertyOp14
 70
     1
102
RTVSPropertyOp15
 70
     1
102
RTVSPropertyOp16
 70
     1
102
RTVSPropertyOp17
 70
     1
102
RTVSPropertyOp18
 70
     1
102
RTVSPropertyOp19
 70
     1
102
RTVSPropertyOp20
 70
     1
102
RTVSPropertyOp21
 70
     1
102
RTVSPropertyOp22
 70
     1
102
RTVSPropertyOp23
 70
     1
102
RTVSPropertyOp24
 70
     1
102
RTVSPropertyOp25
 70
     1
102
RTVSPropertyOp26
 70
     1
102
RTVSPropertyOp27
 70
     1
102
RTVSPropertyOp28
 70
     1
102
RTVSPropertyOp29
 70
     1
102
RTVSPropertyOp30
 70
     1
102
RTVSPropertyOp31
 70
     1
102
RTVSPropertyOp32
 70
     1
102
RTVSPropertyOp33
 70
     1
102
RTVSPropertyOp34
 70
     1
102
RTVSPropertyOp35
 70
     1
102
RTVSPropertyOp36
 70
     1
102
RTVSPropertyOp37
 70
     1
102
RTVSPropertyOp38
 70
     1
102
RTVSPropertyOp39
 70
     1
102
RTVSPropertyOp40
 70
     1
102
RTVSPropertyOp41
 70
     1
102
RTVSPropertyOp42
 70
     1
102
RTVSPropertyOp43
 70
     1
102
RTVSPropertyOp44
 70
     1
102
RTVSPropertyOp45
 70
     1
102
RTVSPropertyOp46
 70
     1
102
RTVSPropertyOp47
 70
     1
102
RTVSPropertyOp48
 70
     1
102
RTVSPropertyOp49
 70
     1
102
RTVSPropertyOp50
 70
     1
102
RTVSPropertyOp51
 70
     0
102
RTVSPropertyOp52
 70
     0
102
RTVSPropertyOp53
 70
     1
102
RTVSPropertyOp54
 70
     1
102
RTVSPropertyOp55
 70
     1
102
RTVSPropertyOp56
 70
     1
102
RTVSPropertyOp57
 70
     1
102
RTVSPropertyOp58
 70
     1
102
RTVSPropertyOp59
 70
     1
102
RTVSPropertyOp60
 70
     1
102
RTVSPropertyOp61
 70
     1
102
RTVSPropertyOp62
 70
     1
  0
XRECORD
  5
C57D
102
{ACAD_REACTORS
330
C57C
102
}
330
C57C
100
AcDbXrecord
280
     1
102
RTVSPost2010Prop28
280
     0
102
RTVSPost2010PropOp28
 70
     1
102
RTVSPost2010Prop29
280
     1
102
RTVSPost2010PropOp29
 70
     1
102
RTVSPost2010Prop30
280
     1
102
RTVSPost2010PropOp30
 70
     1
102
RTVSPost2010Prop31
280
     0
102
RTVSPost2010PropOp31
 70
     1
102
RTVSPost2010Prop32
280
     0
102
RTVSPost2010PropOp32
 70
     1
102
RTVSPost2010Prop33
280
     0
102
RTVSPost2010PropOp33
 70
     1
102
RTVSPost2010Prop34
280
     0
102
RTVSPost2010PropOp34
 70
     1
102
RTVSPost2010Prop35
280
     0
102
RTVSPost2010PropOp35
 70
     1
102
RTVSPost2010Prop36
280
     0
102
RTVSPost2010PropOp36
 70
     1
102
RTVSPost2010Prop37
 90
       50
102
RTVSPost2010PropOp37
 70
     1
102
RTVSPost2010Prop38
140
0.0
102
RTVSPost2010PropOp38
 70
     1
102
RTVSPost2010Prop39
140
1.0
102
RTVSPost2010PropOp39
 70
     1
102
RTVSPost2010Prop40
 90
        0
102
RTVSPost2010PropOp40
 70
     1
102
RTVSPost2010Prop41ColorIndex
 90
       18
102
RTVSPost2010Prop41ColorRGB
 90
        0
102
RTVSPost2010PropOp41
 70
     1
102
RTVSPost2010Prop42
 90
       50
102
RTVSPost2010PropOp42
 70
     1
102
RTVSPost2010Prop43
 90
        3
102
RTVSPost2010PropOp43
 70
     1
102
RTVSPost2010Prop44ColorIndex
 90
        5
102
RTVSPost2010Prop44ColorRGB
 90
      255
102
RTVSPost2010PropOp44
 70
     1
102
RTVSPost2010Prop45
280
     0
102
RTVSPost2010PropOp45
 70
     1
102
RTVSPost2010Prop46
 90
       50
102
RTVSPost2010PropOp46
 70
     1
102
RTVSPost2010Prop47
 90
       50
102
RTVSPost2010PropOp47
 70
     1
102
RTVSPost2010Prop48
 90
       50
102
RTVSPost2010PropOp48
 70
     1
102
RTVSPost2010Prop49
280
     0
102
RTVSPost2010PropOp49
 70
     1
102
RTVSPost2010Prop50
 90
       50
102
RTVSPost2010PropOp50
 70
     1
102
RTVSPost2010Prop51ColorIndex
 90
      256
102
RTVSPost2010Prop51ColorRGB
 90
-16777216
102
RTVSPost2010PropOp51
 70
     0
102
RTVSPost2010Prop52
140
1.0
102
RTVSPost2010PropOp52
 70
     0
102
RTVSPost2010Prop53
 90
        2
102
RTVSPost2010PropOp53
 70
     1
102
RTVSPost2010Prop54
  1
strokes_ogs.tif
102
RTVSPost2010PropOp54
 70
     1
102
RTVSPost2010Prop55
280
     0
102
RTVSPost2010PropOp55
 70
     1
102
RTVSPost2010Prop56
140
1.0
102
RTVSPost2010PropOp56
 70
     1
102
RTVSPost2010Prop57
140
1.0
102
RTVSPost2010PropOp57
 70
     1
102
RTVSPropertyOp0
 70
     1
102
RTVSPropertyOp1
 70
     1
102
RTVSPropertyOp2
 70
     1
102
RTVSPropertyOp3
 70
     1
102
RTVSPropertyOp4
 70
     1
102
RTVSPropertyOp5
 70
     1
102
RTVSPropertyOp6
 70
     1
102
RTVSPropertyOp7
 70
     1
102
RTVSPropertyOp8
 70
     1
102
RTVSPropertyOp9
 70
     1
102
RTVSPropertyOp10
 70
     1
102
RTVSPropertyOp11
 70
     1
102
RTVSPropertyOp12
 70
     1
102
RTVSPropertyOp13
 70
     1
102
RTVSPropertyOp14
 70
     1
102
RTVSPropertyOp15
 70
     1
102
RTVSPropertyOp16
 70
     1
102
RTVSPropertyOp17
 70
     1
102
RTVSPropertyOp18
 70
     1
102
RTVSPropertyOp19
 70
     1
102
RTVSPropertyOp20
 70
     1
102
RTVSPropertyOp21
 70
     1
102
RTVSPropertyOp22
 70
     1
102
RTVSPropertyOp23
 70
     1
102
RTVSPropertyOp24
 70
     1
102
RTVSPropertyOp25
 70
     1
102
RTVSPropertyOp26
 70
     1
102
RTVSPropertyOp27
 70
     1
102
RTVSPropertyOp28
 70
     1
102
RTVSPropertyOp29
 70
     1
102
RTVSPropertyOp30
 70
     1
102
RTVSPropertyOp31
 70
     1
102
RTVSPropertyOp32
 70
     1
102
RTVSPropertyOp33
 70
     1
102
RTVSPropertyOp34
 70
     1
102
RTVSPropertyOp35
 70
     1
102
RTVSPropertyOp36
 70
     1
102
RTVSPropertyOp37
 70
     1
102
RTVSPropertyOp38
 70
     1
102
RTVSPropertyOp39
 70
     1
102
RTVSPropertyOp40
 70
     1
102
RTVSPropertyOp41
 70
     1
102
RTVSPropertyOp42
 70
     1
102
RTVSPropertyOp43
 70
     1
102
RTVSPropertyOp44
 70
     1
102
RTVSPropertyOp45
 70
     1
102
RTVSPropertyOp46
 70
     1
102
RTVSPropertyOp47
 70
     1
102
RTVSPropertyOp48
 70
     1
102
RTVSPropertyOp49
 70
     1
102
RTVSPropertyOp50
 70
     1
102
RTVSPropertyOp51
 70
     0
102
RTVSPropertyOp52
 70
     0
102
RTVSPropertyOp53
 70
     1
102
RTVSPropertyOp54
 70
     1
102
RTVSPropertyOp55
 70
     1
102
RTVSPropertyOp56
 70
     1
102
RTVSPropertyOp57
 70
     1
102
RTVSPropertyOp58
 70
     1
102
RTVSPropertyOp59
 70
     1
102
RTVSPropertyOp60
 70
     1
102
RTVSPropertyOp61
 70
     1
102
RTVSPropertyOp62
 70
     1
  0
XRECORD
  5
C595
102
{ACAD_REACTORS
330
C594
102
}
330
C594
100
AcDbXrecord
280
     1
102
RTVSPost2010Prop28
280
     0
102
RTVSPost2010PropOp28
 70
     1
102
RTVSPost2010Prop29
280
     1
102
RTVSPost2010PropOp29
 70
     1
102
RTVSPost2010Prop30
280
     1
102
RTVSPost2010PropOp30
 70
     1
102
RTVSPost2010Prop31
280
     0
102
RTVSPost2010PropOp31
 70
     1
102
RTVSPost2010Prop32
280
     0
102
RTVSPost2010PropOp32
 70
     1
102
RTVSPost2010Prop33
280
     0
102
RTVSPost2010PropOp33
 70
     1
102
RTVSPost2010Prop34
280
     0
102
RTVSPost2010PropOp34
 70
     1
102
RTVSPost2010Prop35
280
     0
102
RTVSPost2010PropOp35
 70
     1
102
RTVSPost2010Prop36
280
     0
102
RTVSPost2010PropOp36
 70
     1
102
RTVSPost2010Prop37
 90
       50
102
RTVSPost2010PropOp37
 70
     1
102
RTVSPost2010Prop38
140
0.0
102
RTVSPost2010PropOp38
 70
     1
102
RTVSPost2010Prop39
140
1.0
102
RTVSPost2010PropOp39
 70
     1
102
RTVSPost2010Prop40
 90
        0
102
RTVSPost2010PropOp40
 70
     1
102
RTVSPost2010Prop41ColorIndex
 90
       18
102
RTVSPost2010Prop41ColorRGB
 90
        0
102
RTVSPost2010PropOp41
 70
     1
102
RTVSPost2010Prop42
 90
       50
102
RTVSPost2010PropOp42
 70
     1
102
RTVSPost2010Prop43
 90
        3
102
RTVSPost2010PropOp43
 70
     1
102
RTVSPost2010Prop44ColorIndex
 90
        5
102
RTVSPost2010Prop44ColorRGB
 90
      255
102
RTVSPost2010PropOp44
 70
     1
102
RTVSPost2010Prop45
280
     0
102
RTVSPost2010PropOp45
 70
     1
102
RTVSPost2010Prop46
 90
       50
102
RTVSPost2010PropOp46
 70
     1
102
RTVSPost2010Prop47
 90
       50
102
RTVSPost2010PropOp47
 70
     1
102
RTVSPost2010Prop48
 90
       50
102
RTVSPost2010PropOp48
 70
     1
102
RTVSPost2010Prop49
280
     0
102
RTVSPost2010PropOp49
 70
     1
102
RTVSPost2010Prop50
 90
       50
102
RTVSPost2010PropOp50
 70
     1
102
RTVSPost2010Prop51ColorIndex
 90
      256
102
RTVSPost2010Prop51ColorRGB
 90
-16777216
102
RTVSPost2010PropOp51
 70
     0
102
RTVSPost2010Prop52
140
1.0
102
RTVSPost2010PropOp52
 70
     0
102
RTVSPost2010Prop53
 90
        2
102
RTVSPost2010PropOp53
 70
     1
102
RTVSPost2010Prop54
  1
strokes_ogs.tif
102
RTVSPost2010PropOp54
 70
     1
102
RTVSPost2010Prop55
280
     0
102
RTVSPost2010PropOp55
 70
     1
102
RTVSPost2010Prop56
140
1.0
102
RTVSPost2010PropOp56
 70
     1
102
RTVSPost2010Prop57
140
1.0
102
RTVSPost2010PropOp57
 70
     1
102
RTVSPropertyOp0
 70
     1
102
RTVSPropertyOp1
 70
     1
102
RTVSPropertyOp2
 70
     1
102
RTVSPropertyOp3
 70
     1
102
RTVSPropertyOp4
 70
     1
102
RTVSPropertyOp5
 70
     1
102
RTVSPropertyOp6
 70
     1
102
RTVSPropertyOp7
 70
     1
102
RTVSPropertyOp8
 70
     1
102
RTVSPropertyOp9
 70
     1
102
RTVSPropertyOp10
 70
     1
102
RTVSPropertyOp11
 70
     1
102
RTVSPropertyOp12
 70
     1
102
RTVSPropertyOp13
 70
     1
102
RTVSPropertyOp14
 70
     1
102
RTVSPropertyOp15
 70
     1
102
RTVSPropertyOp16
 70
     1
102
RTVSPropertyOp17
 70
     1
102
RTVSPropertyOp18
 70
     1
102
RTVSPropertyOp19
 70
     1
102
RTVSPropertyOp20
 70
     1
102
RTVSPropertyOp21
 70
     1
102
RTVSPropertyOp22
 70
     1
102
RTVSPropertyOp23
 70
     1
102
RTVSPropertyOp24
 70
     1
102
RTVSPropertyOp25
 70
     1
102
RTVSPropertyOp26
 70
     1
102
RTVSPropertyOp27
 70
     1
102
RTVSPropertyOp28
 70
     1
102
RTVSPropertyOp29
 70
     1
102
RTVSPropertyOp30
 70
     1
102
RTVSPropertyOp31
 70
     1
102
RTVSPropertyOp32
 70
     1
102
RTVSPropertyOp33
 70
     1
102
RTVSPropertyOp34
 70
     1
102
RTVSPropertyOp35
 70
     1
102
RTVSPropertyOp36
 70
     1
102
RTVSPropertyOp37
 70
     1
102
RTVSPropertyOp38
 70
     1
102
RTVSPropertyOp39
 70
     1
102
RTVSPropertyOp40
 70
     1
102
RTVSPropertyOp41
 70
     1
102
RTVSPropertyOp42
 70
     1
102
RTVSPropertyOp43
 70
     1
102
RTVSPropertyOp44
 70
     1
102
RTVSPropertyOp45
 70
     1
102
RTVSPropertyOp46
 70
     1
102
RTVSPropertyOp47
 70
     1
102
RTVSPropertyOp48
 70
     1
102
RTVSPropertyOp49
 70
     1
102
RTVSPropertyOp50
 70
     1
102
RTVSPropertyOp51
 70
     0
102
RTVSPropertyOp52
 70
     0
102
RTVSPropertyOp53
 70
     1
102
RTVSPropertyOp54
 70
     1
102
RTVSPropertyOp55
 70
     1
102
RTVSPropertyOp56
 70
     1
102
RTVSPropertyOp57
 70
     1
102
RTVSPropertyOp58
 70
     1
102
RTVSPropertyOp59
 70
     1
102
RTVSPropertyOp60
 70
     1
102
RTVSPropertyOp61
 70
     1
102
RTVSPropertyOp62
 70
     1
  0
ENDSEC
  0
EOF
