  0
SECTION
  2
HEADER
  9
$ACADVER
  1
AC1015
  9
$ACADMAINTVER
 70
    20
  9
$DWGCODEPAGE
  3
ANSI_932
  9
$INSBASE
 10
0.0
 20
0.0
 30
0.0
  9
$EXTMIN
 10
10.0
 20
9.999999999999998
 30
0.0
  9
$EXTMAX
 10
626.1
 20
483.126324
 30
0.0
  9
$LIMMIN
 10
0.0
 20
0.0
  9
$LIMMAX
 10
792.0
 20
546.0
  9
$ORTHOMODE
 70
     1
  9
$REGENMODE
 70
     1
  9
$FILLMODE
 70
     1
  9
$QTEXTMODE
 70
     0
  9
$MIRRTEXT
 70
     1
  9
$LTSCALE
 40
20.0
  9
$ATTMODE
 70
     1
  9
$TEXTSIZE
 40
5.0
  9
$TRACEWID
 40
1.0
  9
$TEXTSTYLE
  7
STANDARD
  9
$CLAYER
  8
0
  9
$CELTYPE
  6
BYLAYER
  9
$CECOLOR
 62
   256
  9
$CELTSCALE
 40
1.0
  9
$DISPSILH
 70
     0
  9
$DIMSCALE
 40
1.0
  9
$DIMASZ
 40
3.0
  9
$DIMEXO
 40
1.0
  9
$DIMDLI
 40
10.0
  9
$DIMRND
 40
0.0
  9
$DIMDLE
 40
0.0
  9
$DIMEXE
 40
1.0
  9
$DIMTP
 40
0.0
  9
$DIMTM
 40
0.0
  9
$DIMTXT
 40
3.2
  9
$DIMCEN
 40
0.0
  9
$DIMTSZ
 40
0.0
  9
$DIMTOL
 70
     0
  9
$DIMLIM
 70
     0
  9
$DIMTIH
 70
     0
  9
$DIMTOH
 70
     0
  9
$DIMSE1
 70
     0
  9
$DIMSE2
 70
     0
  9
$DIMTAD
 70
     3
  9
$DIMZIN
 70
     8
  9
$DIMBLK
  1

  9
$DIMASO
 70
     1
  9
$DIMSHO
 70
     1
  9
$DIMPOST
  1

  9
$DIMAPOST
  1

  9
$DIMALT
 70
     0
  9
$DIMALTD
 70
     2
  9
$DIMALTF
 40
25.4
  9
$DIMLFAC
 40
1.0
  9
$DIMTOFL
 70
     1
  9
$DIMTVP
 40
0.0
  9
$DIMTIX
 70
     0
  9
$DIMSOXD
 70
     0
  9
$DIMSAH
 70
     1
  9
$DIMBLK1
  1
OPEN
  9
$DIMBLK2
  1
OPEN
  9
$DIMSTYLE
  2
STANDARD
  9
$DIMCLRD
 70
     0
  9
$DIMCLRE
 70
     0
  9
$DIMCLRT
 70
     0
  9
$DIMTFAC
 40
1.0
  9
$DIMGAP
 40
1.0
  9
$DIMJUST
 70
     0
  9
$DIMSD1
 70
     0
  9
$DIMSD2
 70
     0
  9
$DIMTOLJ
 70
     1
  9
$DIMTZIN
 70
     0
  9
$DIMALTZ
 70
     0
  9
$DIMALTTZ
 70
     0
  9
$DIMUPT
 70
     0
  9
$DIMDEC
 70
     4
  9
$DIMTDEC
 70
     4
  9
$DIMALTU
 70
     2
  9
$DIMALTTD
 70
     2
  9
$DIMTXSTY
  7
STANDARD
  9
$DIMAUNIT
 70
     0
  9
$DIMADEC
 70
     0
  9
$DIMALTRND
 40
0.0
  9
$DIMAZIN
 70
     0
  9
$DIMDSEP
 70
    46
  9
$DIMATFIT
 70
     3
  9
$DIMFRAC
 70
     0
  9
$DIMLDRBLK
  1
OPEN
  9
$DIMLUNIT
 70
     2
  9
$DIMLWD
 70
    -2
  9
$DIMLWE
 70
    -2
  9
$DIMTMOVE
 70
     0
  9
$LUNITS
 70
     2
  9
$LUPREC
 70
     4
  9
$SKETCHINC
 40
1.0
  9
$FILLETRAD
 40
0.0
  9
$AUNITS
 70
     0
  9
$AUPREC
 70
     2
  9
$MENU
  1
.
  9
$ELEVATION
 40
0.0
  9
$PELEVATION
 40
0.0
  9
$THICKNESS
 40
0.0
  9
$LIMCHECK
 70
     0
  9
$CHAMFERA
 40
10.0
  9
$CHAMFERB
 40
10.0
  9
$CHAMFERC
 40
0.0
  9
$CHAMFERD
 40
0.0
  9
$SKPOLY
 70
     0
  9
$TDCREATE
 40
2451302.611470718
  9
$TDUCREATE
 40
2451302.236470718
  9
$TDUPDATE
 40
2457192.686608264
  9
$TDUUPDATE
 40
2457192.311608264
  9
$TDINDWG
 40
0.0000118519
  9
$TDUSRTIMER
 40
0.0000113773
  9
$USRTIMER
 70
     1
  9
$ANGBASE
 50
0.0
  9
$ANGDIR
 70
     0
  9
$PDMODE
 70
     0
  9
$PDSIZE
 40
0.0
  9
$PLINEWID
 40
0.0
  9
$SPLFRAME
 70
     0
  9
$SPLINETYPE
 70
     6
  9
$SPLINESEGS
 70
     8
  9
$HANDSEED
  5
C412
  9
$SURFTAB1
 70
     6
  9
$SURFTAB2
 70
     6
  9
$SURFTYPE
 70
     6
  9
$SURFU
 70
     6
  9
$SURFV
 70
     6
  9
$UCSBASE
  2

  9
$UCSNAME
  2

  9
$UCSORG
 10
0.0
 20
0.0
 30
0.0
  9
$UCSXDIR
 10
1.0
 20
0.0
 30
0.0
  9
$UCSYDIR
 10
0.0
 20
1.0
 30
0.0
  9
$UCSORTHOREF
  2

  9
$UCSORTHOVIEW
 70
     0
  9
$UCSORGTOP
 10
0.0
 20
0.0
 30
0.0
  9
$UCSORGBOTTOM
 10
0.0
 20
0.0
 30
0.0
  9
$UCSORGLEFT
 10
0.0
 20
0.0
 30
0.0
  9
$UCSORGRIGHT
 10
0.0
 20
0.0
 30
0.0
  9
$UCSORGFRONT
 10
0.0
 20
0.0
 30
0.0
  9
$UCSORGBACK
 10
0.0
 20
0.0
 30
0.0
  9
$PUCSBASE
  2

  9
$PUCSNAME
  2

  9
$PUCSORG
 10
0.0
 20
0.0
 30
0.0
  9
$PUCSXDIR
 10
1.0
 20
0.0
 30
0.0
  9
$PUCSYDIR
 10
0.0
 20
1.0
 30
0.0
  9
$PUCSORTHOREF
  2

  9
$PUCSORTHOVIEW
 70
     0
  9
$PUCSORGTOP
 10
0.0
 20
0.0
 30
0.0
  9
$PUCSORGBOTTOM
 10
0.0
 20
0.0
 30
0.0
  9
$PUCSORGLEFT
 10
0.0
 20
0.0
 30
0.0
  9
$PUCSORGRIGHT
 10
0.0
 20
0.0
 30
0.0
  9
$PUCSORGFRONT
 10
0.0
 20
0.0
 30
0.0
  9
$PUCSORGBACK
 10
0.0
 20
0.0
 30
0.0
  9
$USERI1
 70
     0
  9
$USERI2
 70
     0
  9
$USERI3
 70
     0
  9
$USERI4
 70
     0
  9
$USERI5
 70
     0
  9
$USERR1
 40
0.0
  9
$USERR2
 40
0.0
  9
$USERR3
 40
0.0
  9
$USERR4
 40
0.0
  9
$USERR5
 40
0.0
  9
$WORLDVIEW
 70
     1
  9
$SHADEDGE
 70
     3
  9
$SHADEDIF
 70
    70
  9
$TILEMODE
 70
     1
  9
$MAXACTVP
 70
    16
  9
$PINSBASE
 10
0.0
 20
0.0
 30
0.0
  9
$PLIMCHECK
 70
     0
  9
$PEXTMIN
 10
1.000000000000000E+20
 20
1.000000000000000E+20
 30
1.000000000000000E+20
  9
$PEXTMAX
 10
-1.000000000000000E+20
 20
-1.000000000000000E+20
 30
-1.000000000000000E+20
  9
$PLIMMIN
 10
0.0
 20
0.0
  9
$PLIMMAX
 10
420.0
 20
297.0
  9
$UNITMODE
 70
     0
  9
$VISRETAIN
 70
     0
  9
$PLINEGEN
 70
     0
  9
$PSLTSCALE
 70
     0
  9
$TREEDEPTH
 70
  3020
  9
$CMLSTYLE
  2
STANDARD
  9
$CMLJUST
 70
     0
  9
$CMLSCALE
 40
1.0
  9
$PROXYGRAPHICS
 70
     1
  9
$MEASUREMENT
 70
     0
  9
$CELWEIGHT
370
    -1
  9
$ENDCAPS
280
     0
  9
$JOINSTYLE
280
     0
  9
$LWDISPLAY
290
     0
  9
$INSUNITS
 70
     0
  9
$HYPERLINKBASE
  1

  9
$STYLESHEET
  1

  9
$XEDIT
290
     1
  9
$CEPSNTYPE
380
     0
  9
$PSTYLEMODE
290
     1
  9
$FINGERPRINTGUID
  2
{EDA5968C-708B-4A31-9D5F-3BB4348CADCE}
  9
$VERSIONGUID
  2
{6E02AD3E-3E18-4DA3-ADB9-766DB11AD9D3}
  9
$EXTNAMES
290
     1
  9
$PSVPSCALE
 40
0.0
  9
$OLESTARTUP
290
     0
  0
ENDSEC
  0
SECTION
  2
CLASSES
  0
CLASS
  1
ACDBDICTIONARYWDFLT
  2
AcDbDictionaryWithDefault
  3
ObjectDBX Classes
 90
        0
280
     0
281
     0
  0
CLASS
  1
ACDBPLACEHOLDER
  2
AcDbPlaceHolder
  3
ObjectDBX Classes
 90
        0
280
     0
281
     0
  0
CLASS
  1
LAYOUT
  2
AcDbLayout
  3
ObjectDBX Classes
 90
        0
280
     0
281
     0
  0
CLASS
  1
DICTIONARYVAR
  2
AcDbDictionaryVar
  3
ObjectDBX Classes
 90
        0
280
     0
281
     0
  0
CLASS
  1
MATERIAL
  2
AcDbMaterial
  3
ObjectDBX Classes
 90
     1153
280
     0
281
     0
  0
CLASS
  1
VISUALSTYLE
  2
AcDbVisualStyle
  3
ObjectDBX Classes
 90
     4095
280
     0
281
     0
  0
CLASS
  1
TABLESTYLE
  2
AcDbTableStyle
  3
ObjectDBX Classes
 90
     4095
280
     0
281
     0
  0
CLASS
  1
SCALE
  2
AcDbScale
  3
ObjectDBX Classes
 90
     1153
280
     0
281
     0
  0
CLASS
  1
MLEADERSTYLE
  2
AcDbMLeaderStyle
  3
ACDB_MLEADERSTYLE_CLASS
 90
     4095
280
     0
281
     0
  0
CLASS
  1
ACDBSECTIONVIEWSTYLE
  2
AcDbSectionViewStyle
  3
ObjectDBX Classes
 90
     1025
280
     0
281
     0
  0
CLASS
  1
ACDBDETAILVIEWSTYLE
  2
AcDbDetailViewStyle
  3
ObjectDBX Classes
 90
     1025
280
     0
281
     0
  0
CLASS
  1
CELLSTYLEMAP
  2
AcDbCellStyleMap
  3
ObjectDBX Classes
 90
     1152
280
     0
281
     0
  0
ENDSEC
  0
SECTION
  2
TABLES
  0
TABLE
  2
VPORT
  5
BF92
330
0
100
AcDbSymbolTable
 70
     1
  0
VPORT
  5
C35B
330
BF92
100
AcDbSymbolTableRecord
100
AcDbViewportTableRecord
  2
*ACTIVE
 70
     0
 10
0.0
 20
0.0
 11
1.0
 21
1.0
 12
461.3685114163764
 22
246.5689557082588
 13
0.0
 23
0.0
 14
10.0
 24
10.0
 15
10.0
 25
10.0
 16
0.0
 26
0.0
 36
1.0
 17
0.0
 27
0.0
 37
0.0
 40
478.4045822382338
 41
2.35006605019815
 42
50.0
 43
0.0
 44
0.0
 50
0.0
 51
0.0
 71
     0
 72
   100
 73
     1
 74
     0
 75
     0
 76
     0
 77
     0
 78
     0
281
     0
 65
     1
110
0.0
120
0.0
130
0.0
111
1.0
121
0.0
131
0.0
112
0.0
122
1.0
132
0.0
 79
     0
146
0.0
1001
ACAD_NAV_VCDISPLAY
1070
     3
  0
ENDTAB
  0
TABLE
  2
LTYPE
  5
BF8F
330
0
100
AcDbSymbolTable
 70
     4
  0
LTYPE
  5
BF9D
330
BF8F
100
AcDbSymbolTableRecord
100
AcDbLinetypeTableRecord
  2
BYBLOCK
 70
     0
  3

 72
    65
 73
     0
 40
0.0
  0
LTYPE
  5
BF9E
330
BF8F
100
AcDbSymbolTableRecord
100
AcDbLinetypeTableRecord
  2
BYLAYER
 70
     0
  3

 72
    65
 73
     0
 40
0.0
  0
LTYPE
  5
BF9F
330
BF8F
100
AcDbSymbolTableRecord
100
AcDbLinetypeTableRecord
  2
CONTINUOUS
 70
     0
  3
Solid line
 72
    65
 73
     0
 40
0.0
  0
LTYPE
  5
BFAD
330
BF8F
100
AcDbSymbolTableRecord
100
AcDbLinetypeTableRecord
  2
DASHED
 70
     0
  3
__ __ __ __ __ __ __ __ __ __ __ __ __ __ __ __
 72
    65
 73
     2
 40
0.75
 49
0.5
 74
     0
 49
-0.25
 74
     0
  0
LTYPE
  5
BFAE
330
BF8F
100
AcDbSymbolTableRecord
100
AcDbLinetypeTableRecord
  2
CENTER
 70
     0
  3
____ _ ____ _ ____ _ ____ _ ____ _ ____ _ ____ 
 72
    65
 73
     4
 40
2.0
 49
1.25
 74
     0
 49
-0.25
 74
     0
 49
0.25
 74
     0
 49
-0.25
 74
     0
  0
LTYPE
  5
BFAF
330
BF8F
100
AcDbSymbolTableRecord
100
AcDbLinetypeTableRecord
  2
PHANTOM
 70
     0
  3
______  __  __  ______  __  __  ______  __  __ 
 72
    65
 73
     6
 40
2.5
 49
1.25
 74
     0
 49
-0.25
 74
     0
 49
0.25
 74
     0
 49
-0.25
 74
     0
 49
0.25
 74
     0
 49
-0.25
 74
     0
  0
ENDTAB
  0
TABLE
  2
LAYER
  5
BF8C
330
0
100
AcDbSymbolTable
 70
     8
  0
LAYER
  5
BF9A
102
{ACAD_XDICTIONARY
360
C3B6
102
}
330
BF8C
100
AcDbSymbolTableRecord
100
AcDbLayerTableRecord
  2
0
 70
     0
 62
     7
  6
CONTINUOUS
370
    -3
390
C364
  0
LAYER
  5
BFB0
102
{ACAD_XDICTIONARY
360
C3B8
102
}
330
BF8C
100
AcDbSymbolTableRecord
100
AcDbLayerTableRecord
  2
4
 70
     0
 62
     1
  6
CENTER
370
    -3
390
C364
  0
LAYER
  5
BFB1
102
{ACAD_XDICTIONARY
360
C3BA
102
}
330
BF8C
100
AcDbSymbolTableRecord
100
AcDbLayerTableRecord
  2
5
 70
     0
 62
     6
  6
PHANTOM
370
    -3
390
C364
  0
LAYER
  5
BFB2
102
{ACAD_XDICTIONARY
360
C3BC
102
}
330
BF8C
100
AcDbSymbolTableRecord
100
AcDbLayerTableRecord
  2
1
 70
     0
 62
     7
  6
CONTINUOUS
370
    -3
390
C364
  0
LAYER
  5
BFB3
102
{ACAD_XDICTIONARY
360
C3BE
102
}
330
BF8C
100
AcDbSymbolTableRecord
100
AcDbLayerTableRecord
  2
2
 70
     0
 62
     4
  6
CONTINUOUS
370
    -3
390
C364
  0
LAYER
  5
BFB4
102
{ACAD_XDICTIONARY
360
C3C0
102
}
330
BF8C
100
AcDbSymbolTableRecord
100
AcDbLayerTableRecord
  2
3
 70
     0
 62
     2
  6
DASHED
370
    -3
390
C364
  0
LAYER
  5
BFB5
102
{ACAD_XDICTIONARY
360
C3C2
102
}
330
BF8C
100
AcDbSymbolTableRecord
100
AcDbLayerTableRecord
  2
6
 70
     0
 62
     5
  6
CONTINUOUS
370
    -3
390
C364
  0
LAYER
  5
BFB6
102
{ACAD_XDICTIONARY
360
C3C4
102
}
330
BF8C
100
AcDbSymbolTableRecord
100
AcDbLayerTableRecord
  2
7
 70
     0
 62
     3
  6
CONTINUOUS
370
    -3
390
C364
  0
ENDTAB
  0
TABLE
  2
STYLE
  5
BF8D
330
0
100
AcDbSymbolTable
 70
     1
  0
STYLE
  5
BF9B
330
BF8D
100
AcDbSymbolTableRecord
100
AcDbTextStyleTableRecord
  2
STANDARD
 70
     0
 40
0.0
 41
1.0
 50
0.0
 71
     0
 42
5.0
  3
txt
  4

  0
ENDTAB
  0
TABLE
  2
VIEW
  5
BF90
330
0
100
AcDbSymbolTable
 70
     0
  0
ENDTAB
  0
TABLE
  2
UCS
  5
BF91
330
0
100
AcDbSymbolTable
 70
     0
  0
ENDTAB
  0
TABLE
  2
APPID
  5
BF93
330
0
100
AcDbSymbolTable
 70
     3
  0
APPID
  5
BF9C
330
BF93
100
AcDbSymbolTableRecord
100
AcDbRegAppTableRecord
  2
ACAD
 70
     0
  0
APPID
  5
C3D0
330
BF93
100
AcDbSymbolTableRecord
100
AcDbRegAppTableRecord
  2
ACAD_NAV_VCDISPLAY
 70
     0
  0
APPID
  5
C409
330
BF93
100
AcDbSymbolTableRecord
100
AcDbRegAppTableRecord
  2
ACAD_MLEADERVER
 70
     0
  0
ENDTAB
  0
TABLE
  2
DIMSTYLE
  5
BF94
330
0
100
AcDbSymbolTable
 70
     1
100
AcDbDimStyleTable
 71
     0
  0
DIMSTYLE
105
BFB8
330
BF94
100
AcDbSymbolTableRecord
100
AcDbDimStyleTableRecord
  2
STANDARD
 70
     0
 41
3.0
 42
1.0
 43
10.0
 44
1.0
 73
     0
 74
     0
 77
     3
 78
     8
140
3.2
141
0.0
147
1.0
172
     1
173
     1
284
     8
285
     8
286
     8
340
BF9B
  0
ENDTAB
  0
TABLE
  2
BLOCK_RECORD
  5
BF8B
330
0
100
AcDbSymbolTable
 70
     1
  0
BLOCK_RECORD
  5
BFA8
102
{ACAD_XDICTIONARY
360
C35E
102
}
330
BF8B
100
AcDbSymbolTableRecord
100
AcDbBlockTableRecord
  2
*MODEL_SPACE
340
C3B2
  0
BLOCK_RECORD
  5
BFA4
102
{ACAD_XDICTIONARY
360
C35C
102
}
330
BF8B
100
AcDbSymbolTableRecord
100
AcDbBlockTableRecord
  2
*PAPER_SPACE
340
C3B3
  0
BLOCK_RECORD
  5
BFC0
330
BF8B
100
AcDbSymbolTableRecord
100
AcDbBlockTableRecord
  2
_OPEN
340
0
  0
ENDTAB
  0
ENDSEC
  0
SECTION
  2
BLOCKS
  0
BLOCK
  5
BFA9
330
BFA8
100
AcDbEntity
  8
0
100
AcDbBlockBegin
  2
*MODEL_SPACE
 70
     0
 10
0.0
 20
0.0
 30
0.0
  3
*MODEL_SPACE
  1

  0
ENDBLK
  5
BFAA
330
BFA8
100
AcDbEntity
  8
0
100
AcDbBlockEnd
  0
BLOCK
  5
BFA5
330
BFA4
100
AcDbEntity
 67
     1
  8
0
100
AcDbBlockBegin
  2
*PAPER_SPACE
 70
     0
 10
0.0
 20
0.0
 30
0.0
  3
*PAPER_SPACE
  1

  0
ENDBLK
  5
BFA6
330
BFA4
100
AcDbEntity
 67
     1
  8
0
100
AcDbBlockEnd
  0
BLOCK
  5
BFC1
330
BFC0
100
AcDbEntity
  8
0
100
AcDbBlockBegin
  2
_OPEN
 70
     0
 10
0.0
 20
0.0
 30
0.0
  3
_OPEN
  1

  0
LINE
  5
BFC2
330
BFC0
100
AcDbEntity
  8
0
  6
ByBlock
 62
     0
100
AcDbLine
 10
-1.0
 20
0.166667
 30
0.0
 11
0.0
 21
0.0
 31
0.0
  0
LINE
  5
BFC3
330
BFC0
100
AcDbEntity
  8
0
  6
ByBlock
 62
     0
100
AcDbLine
 10
0.0
 20
0.0
 30
0.0
 11
-1.0
 21
-0.166667
 31
0.0
  0
LINE
  5
BFC4
330
BFC0
100
AcDbEntity
  8
0
  6
ByBlock
 62
     0
100
AcDbLine
 10
0.0
 20
0.0
 30
0.0
 11
-1.0
 21
0.0
 31
0.0
  0
ENDBLK
  5
BFC5
330
BFC0
100
AcDbEntity
  8
0
100
AcDbBlockEnd
  0
ENDSEC
  0
SECTION
  2
ENTITIES
  0
TEXT
  5
BFC6
330
BFA8
100
AcDbEntity
  8
7
  6
Continuous
100
AcDbText
 10
10.0
 20
18.0
 30
0.0
 40
3.0
  1
TYPE No.104HB2A.F-PA
100
AcDbText
  0
TEXT
  5
BFC7
330
BFA8
100
AcDbEntity
  8
7
  6
Continuous
100
AcDbText
 10
10.0
 20
26.0
 30
0.0
 40
3.0
  1
CODE No.19091
100
AcDbText
  0
TEXT
  5
BFC8
330
BFA8
100
AcDbEntity
  8
1
  6
Continuous
100
AcDbText
 10
10.0
 20
10.0
 30
0.0
 40
1.399999999999999
  1
LAYER
100
AcDbText
  0
TEXT
  5
BFC9
330
BFA8
100
AcDbEntity
  8
1
  6
Continuous
100
AcDbText
 10
17.97951099999998
 20
10.04873699999998
 30
0.0
 40
1.399999999999999
  1
1
100
AcDbText
  0
TEXT
  5
BFCA
330
BFA8
100
AcDbEntity
  8
7
  6
Continuous
100
AcDbText
 10
29.97951099999999
 20
10.04873699999998
 30
0.0
 40
1.399999999999999
  1
7
100
AcDbText
  0
TEXT
  5
BFCB
330
BFA8
100
AcDbEntity
  8
4
  6
CENTER
100
AcDbText
 10
23.97951099999999
 20
10.04873699999998
 30
0.0
 40
1.399999999999999
  1
4
100
AcDbText
  0
TEXT
  5
BFCC
330
BFA8
100
AcDbEntity
  8
3
  6
DASHED
100
AcDbText
 10
21.979511
 20
10.04873699999998
 30
0.0
 40
1.399999999999999
  1
3
100
AcDbText
  0
TEXT
  5
BFCD
330
BFA8
100
AcDbEntity
  8
2
  6
Continuous
100
AcDbText
 10
19.97951099999999
 20
10.04873699999998
 30
0.0
 40
1.399999999999999
  1
2
100
AcDbText
  0
TEXT
  5
BFCE
330
BFA8
100
AcDbEntity
  8
6
  6
Continuous
100
AcDbText
 10
27.979511
 20
10.04873699999998
 30
0.0
 40
1.399999999999999
  1
6
100
AcDbText
  0
TEXT
  5
BFCF
330
BFA8
100
AcDbEntity
  8
5
  6
PHANTOM
100
AcDbText
 10
25.97951099999999
 20
10.04873699999998
 30
0.0
 40
1.399999999999999
  1
5
100
AcDbText
  0
LINE
  5
BFD0
330
BFA8
100
AcDbEntity
  8
1
  6
Continuous
100
AcDbLine
 10
188.7
 20
468.1263239999998
 30
0.0
 11
188.7
 21
378.126324
 31
0.0
  0
LINE
  5
BFD1
330
BFA8
100
AcDbEntity
  8
1
  6
Continuous
100
AcDbLine
 10
288.7
 20
478.126324
 30
0.0
 11
198.6999999999999
 21
478.126324
 31
0.0
  0
LINE
  5
BFD2
330
BFA8
100
AcDbEntity
  8
1
  6
Continuous
100
AcDbLine
 10
288.7
 20
368.126324
 30
0.0
 11
198.6999999999999
 21
368.126324
 31
0.0
  0
CIRCLE
  5
BFD3
330
BFA8
100
AcDbEntity
  8
1
  6
Continuous
100
AcDbCircle
 10
288.7
 20
378.126324
 30
0.0
 40
4.25
  0
CIRCLE
  5
BFD4
330
BFA8
100
AcDbEntity
  8
1
  6
Continuous
100
AcDbCircle
 10
198.6999999999999
 20
468.1263239999998
 30
0.0
 40
4.25
  0
CIRCLE
  5
BFD5
330
BFA8
100
AcDbEntity
  8
1
  6
Continuous
100
AcDbCircle
 10
288.7
 20
468.1263239999998
 30
0.0
 40
4.25
  0
CIRCLE
  5
BFD6
330
BFA8
100
AcDbEntity
  8
1
  6
Continuous
100
AcDbCircle
 10
198.6999999999999
 20
378.126324
 30
0.0
 40
4.25
  0
LINE
  5
BFD7
330
BFA8
100
AcDbEntity
  8
1
  6
Continuous
100
AcDbLine
 10
298.7
 20
378.126324
 30
0.0
 11
298.7
 21
468.1263239999998
 31
0.0
  0
ARC
  5
BFD8
330
BFA8
100
AcDbEntity
  8
1
  6
Continuous
100
AcDbCircle
 10
288.7
 20
468.1263239999998
 30
0.0
 40
10.0
100
AcDbArc
 50
0.0
 51
90.0
  0
ARC
  5
BFD9
330
BFA8
100
AcDbEntity
  8
1
  6
Continuous
100
AcDbCircle
 10
288.7
 20
378.126324
 30
0.0
 40
10.0
100
AcDbArc
 50
270.0
 51
0.0
  0
ARC
  5
BFDA
330
BFA8
100
AcDbEntity
  8
1
  6
Continuous
100
AcDbCircle
 10
198.6999999999999
 20
468.1263239999998
 30
0.0
 40
10.0
100
AcDbArc
 50
90.0
 51
180.0
  0
ARC
  5
BFDB
330
BFA8
100
AcDbEntity
  8
1
  6
Continuous
100
AcDbCircle
 10
198.6999999999999
 20
378.126324
 30
0.0
 40
10.0
100
AcDbArc
 50
180.0
 51
270.0
  0
ARC
  5
BFDC
330
BFA8
100
AcDbEntity
  8
1
  6
Continuous
100
AcDbCircle
 10
281.7000199999998
 20
423.126324
 30
0.0
 40
25.0003
100
AcDbArc
 50
312.8429419999999
 51
47.15705800000001
  0
CIRCLE
  5
BFDD
330
BFA8
100
AcDbEntity
  8
1
  6
Continuous
100
AcDbCircle
 10
243.6999999999999
 20
423.126324
 30
0.0
 40
12.0
  0
ARC
  5
BFDE
330
BFA8
100
AcDbEntity
  8
1
  6
Continuous
100
AcDbCircle
 10
264.6127349999998
 20
286.192157
 30
0.0
 40
2.377116999999997
100
AcDbArc
 50
60.83457199999998
 51
90.17865999999999
  0
ARC
  5
BFDF
330
BFA8
100
AcDbEntity
  8
1
  6
Continuous
100
AcDbCircle
 10
263.63783
 20
284.4452959999999
 30
0.0
 40
4.377608
100
AcDbArc
 50
45.530771
 51
60.83457199999998
  0
LINE
  5
BFE0
330
BFA8
100
AcDbEntity
  8
1
  6
Continuous
100
AcDbLine
 10
266.7044579999998
 20
287.569274
 30
0.0
 11
293.2
 21
287.569274
 31
0.0
  0
ARC
  5
BFE1
330
BFA8
100
AcDbEntity
  8
1
  6
Continuous
100
AcDbCircle
 10
217.7
 20
253.5632129999999
 30
0.0
 40
15.0
100
AcDbArc
 50
200.2299999999999
 51
314.758889
  0
LINE
  5
BFE2
330
BFA8
100
AcDbEntity
  8
1
  6
Continuous
100
AcDbLine
 10
297.8
 20
282.969274
 30
0.0
 11
297.8
 21
269.569274
 31
0.0
  0
ARC
  5
BFE3
330
BFA8
100
AcDbEntity
  8
1
  6
Continuous
100
AcDbCircle
 10
293.2
 20
282.969274
 30
0.0
 40
4.599999999999997
100
AcDbArc
 50
0.0
 51
90.0
  0
LINE
  5
BFE4
330
BFA8
100
AcDbEntity
  8
1
  6
Continuous
100
AcDbLine
 10
291.1999999999998
 20
262.963221
 30
0.0
 11
272.1999999999998
 21
262.963221
 31
0.0
  0
LINE
  5
BFE5
330
BFA8
100
AcDbEntity
  8
1
  6
Continuous
100
AcDbLine
 10
57.0
 20
288.569274
 30
0.0
 11
57.0
 21
290.545135
 31
0.0
  0
LINE
  5
BFE6
330
BFA8
100
AcDbEntity
  8
1
  6
Continuous
100
AcDbLine
 10
103.0
 20
288.569274
 30
0.0
 11
103.0
 21
290.545135
 31
0.0
  0
LINE
  5
BFE7
330
BFA8
100
AcDbEntity
  8
1
  6
Continuous
100
AcDbLine
 10
103.0
 20
290.545135
 30
0.0
 11
57.0
 21
290.545135
 31
0.0
  0
LINE
  5
BFE8
330
BFA8
100
AcDbEntity
  8
1
  6
Continuous
100
AcDbLine
 10
103.0
 20
288.569274
 30
0.0
 11
57.0
 21
288.569274
 31
0.0
  0
ARC
  5
BFE9
330
BFA8
100
AcDbEntity
  8
1
  6
Continuous
100
AcDbCircle
 10
60.840683
 20
303.6777269999999
 30
0.0
 40
10.63951799999999
100
AcDbArc
 50
229.929097
 51
243.711147
  0
LINE
  5
BFEA
330
BFA8
100
AcDbEntity
  8
1
  6
Continuous
100
AcDbLine
 10
53.991651
 20
295.5358529999998
 30
0.0
 11
53.989113
 21
295.5633129999998
 31
0.0
  0
ARC
  5
BFEB
330
BFA8
100
AcDbEntity
  8
1
  6
Continuous
100
AcDbCircle
 10
57.72784099999999
 20
297.376284
 30
0.0
 40
3.611148999999998
100
AcDbArc
 50
243.711147
 51
270.0
  0
ARC
  5
BFEC
330
BFA8
100
AcDbEntity
  8
1
  6
Continuous
100
AcDbCircle
 10
99.15931800000002
 20
303.6777269999999
 30
0.0
 40
10.63951799999999
100
AcDbArc
 50
296.2888529999998
 51
310.0709029999998
  0
LINE
  5
BFED
330
BFA8
100
AcDbEntity
  8
1
  6
Continuous
100
AcDbLine
 10
106.008349
 20
295.5358529999998
 30
0.0
 11
106.010887
 21
295.5633129999998
 31
0.0
  0
ARC
  5
BFEE
330
BFA8
100
AcDbEntity
  8
1
  6
Continuous
100
AcDbCircle
 10
102.27216
 20
297.376284
 30
0.0
 40
3.611148999999998
100
AcDbArc
 50
270.0
 51
296.2888529999998
  0
ARC
  5
BFEF
330
BFA8
100
AcDbEntity
  8
1
  6
Continuous
100
AcDbCircle
 10
57.27397100000001
 20
291.6102819999998
 30
0.0
 40
0.9569799999999998
100
AcDbArc
 50
106.011913
 51
155.9597349999999
  0
LINE
  5
BFF0
330
BFA8
100
AcDbEntity
  8
1
  6
Continuous
100
AcDbLine
 10
57.01
 20
292.5301349999998
 30
0.0
 11
102.990002
 21
292.5301349999998
 31
0.0
  0
LINE
  5
BFF1
330
BFA8
100
AcDbEntity
  8
1
  6
Continuous
100
AcDbLine
 10
57.825
 20
292.5301349999998
 30
0.0
 11
57.995
 21
292.8901349999998
 31
0.0
  0
ARC
  5
BFF2
330
BFA8
100
AcDbEntity
  8
1
  6
Continuous
100
AcDbCircle
 10
60.61148199999998
 20
294.0803629999999
 30
0.0
 40
4.697225
100
AcDbArc
 50
206.286695
 51
222.530249
  0
LINE
  5
BFF3
330
BFA8
100
AcDbEntity
  8
1
  6
Continuous
100
AcDbLine
 10
57.14999999999999
 20
290.905135
 30
0.0
 11
57.28
 21
290.545135
 31
0.0
  0
ARC
  5
BFF4
330
BFA8
100
AcDbEntity
  8
1
  6
Continuous
100
AcDbCircle
 10
62.81358199999999
 20
288.9791629999999
 30
0.0
 40
6.206
100
AcDbArc
 50
129.539603
 51
140.935699
  0
ARC
  5
BFF5
330
BFA8
100
AcDbEntity
  8
1
  6
Continuous
100
AcDbCircle
 10
102.72603
 20
291.6102819999998
 30
0.0
 40
0.9569799999999998
100
AcDbArc
 50
24.04026499999999
 51
73.98808699999998
  0
LINE
  5
BFF6
330
BFA8
100
AcDbEntity
  8
1
  6
Continuous
100
AcDbLine
 10
102.1749999999999
 20
292.5301349999998
 30
0.0
 11
102.0049999999999
 21
292.8901349999998
 31
0.0
  0
ARC
  5
BFF7
330
BFA8
100
AcDbEntity
  8
1
  6
Continuous
100
AcDbCircle
 10
99.38851800000001
 20
294.0803629999999
 30
0.0
 40
4.697225
100
AcDbArc
 50
317.4697509999999
 51
333.713305
  0
LINE
  5
BFF8
330
BFA8
100
AcDbEntity
  8
1
  6
Continuous
100
AcDbLine
 10
102.8499999999998
 20
290.905135
 30
0.0
 11
102.72
 21
290.545135
 31
0.0
  0
ARC
  5
BFF9
330
BFA8
100
AcDbEntity
  8
1
  6
Continuous
100
AcDbCircle
 10
97.186418
 20
288.9791629999999
 30
0.0
 40
6.206
100
AcDbArc
 50
39.064301
 51
50.460397
  0
LINE
  5
BFFA
330
BFA8
100
AcDbEntity
  8
1
  6
Continuous
100
AcDbLine
 10
102.72
 20
290.545135
 30
0.0
 11
99.87696599999999
 21
290.545135
 31
0.0
  0
ARC
  5
BFFB
330
BFA8
100
AcDbEntity
  8
1
  6
Continuous
100
AcDbCircle
 10
131.469594
 20
300.763484
 30
0.0
 40
5.200171
100
AcDbArc
 50
270.0
 51
292.6181049999998
  0
LINE
  5
BFFC
330
BFA8
100
AcDbEntity
  8
1
  6
Continuous
100
AcDbLine
 10
25.0
 20
295.9632669999999
 30
0.0
 11
135.0
 21
295.96332
 31
0.0
  0
ARC
  5
BFFD
330
BFA8
100
AcDbEntity
  8
1
  6
Continuous
100
AcDbCircle
 10
28.53040599999999
 20
300.763484
 30
0.0
 40
5.200171
100
AcDbArc
 50
247.3818949999999
 51
270.0
  0
LINE
  5
BFFE
330
BFA8
100
AcDbEntity
  8
1
  6
Continuous
100
AcDbLine
 10
57.72784099999999
 20
293.7651349999999
 30
0.0
 11
102.27216
 21
293.7651349999999
 31
0.0
  0
LINE
  5
BFFF
330
BFA8
100
AcDbEntity
  8
1
  6
Continuous
100
AcDbLine
 10
53.991651
 20
295.5358529999998
 30
0.0
 11
106.008349
 21
295.5358529999998
 31
0.0
  0
ARC
  5
C000
330
BFA8
100
AcDbEntity
  8
1
  6
Continuous
100
AcDbCircle
 10
101.8005439999999
 20
285.9692739999999
 30
0.0
 40
2.6
100
AcDbArc
 50
0.0
 51
90.0
  0
ARC
  5
C001
330
BFA8
100
AcDbEntity
  8
1
  6
Continuous
100
AcDbCircle
 10
58.199456
 20
285.9692739999999
 30
0.0
 40
2.6
100
AcDbArc
 50
90.0
 51
180.0
  0
LINE
  5
C002
330
BFA8
100
AcDbEntity
  8
1
  6
Continuous
100
AcDbLine
 10
228.261873
 20
242.91207
 30
0.0
 11
252.2206399999999
 21
266.6700349999999
 31
0.0
  0
LINE
  5
C003
330
BFA8
100
AcDbEntity
  8
1
  6
Continuous
100
AcDbLine
 10
203.625318
 20
248.3763689999999
 30
0.0
 11
194.035025
 21
274.3999679999999
 31
0.0
  0
LINE
  5
C004
330
BFA8
100
AcDbEntity
  8
1
  6
Continuous
100
AcDbLine
 10
28.53040599999999
 20
295.5633129999998
 30
0.0
 11
131.469594
 21
295.5633129999998
 31
0.0
  0
LINE
  5
C005
330
BFA8
100
AcDbEntity
  8
1
  6
Continuous
100
AcDbLine
 10
297.8
 20
269.569274
 30
0.0
 11
259.261889
 21
269.569274
 31
0.0
  0
ARC
  5
C006
330
BFA8
100
AcDbEntity
  8
1
  6
Continuous
100
AcDbCircle
 10
286.4499999999998
 20
271.234054
 30
0.0
 40
8.270832999999997
100
AcDbArc
 50
234.948863
 51
305.0511369999999
  0
ARC
  5
C007
330
BFA8
100
AcDbEntity
  8
1
  6
Continuous
100
AcDbCircle
 10
276.9499999999998
 20
271.234054
 30
0.0
 40
8.270832999999997
100
AcDbArc
 50
234.948863
 51
305.0511369999999
  0
LINE
  5
C008
330
BFA8
100
AcDbEntity
  8
1
  6
Continuous
100
AcDbLine
 10
100.0999999999998
 20
246.0632629999998
 30
0.0
 11
100.0999999999998
 21
261.063263
 31
0.0
  0
LINE
  5
C009
330
BFA8
100
AcDbEntity
  8
1
  6
Continuous
100
AcDbLine
 10
98.1
 20
246.0632629999998
 30
0.0
 11
100.0999999999998
 21
246.0632629999998
 31
0.0
  0
LINE
  5
C00A
330
BFA8
100
AcDbEntity
  8
1
  6
Continuous
100
AcDbLine
 10
98.1
 20
261.063263
 30
0.0
 11
100.0999999999998
 21
261.063263
 31
0.0
  0
LINE
  5
C00B
330
BFA8
100
AcDbEntity
  8
1
  6
Continuous
100
AcDbLine
 10
106.4
 20
250.163263
 30
0.0
 11
106.4
 21
256.963263
 31
0.0
  0
LINE
  5
C00C
330
BFA8
100
AcDbEntity
  8
1
  6
Continuous
100
AcDbLine
 10
105.0999999999998
 20
257.563263
 30
0.0
 11
105.8
 21
257.563263
 31
0.0
  0
LINE
  5
C00D
330
BFA8
100
AcDbEntity
  8
1
  6
Continuous
100
AcDbLine
 10
59.573762
 20
246.5632629999999
 30
0.0
 11
61.9
 21
246.5632629999999
 31
0.0
  0
LINE
  5
C00E
330
BFA8
100
AcDbEntity
  8
1
  6
Continuous
100
AcDbLine
 10
59.573762
 20
260.563263
 30
0.0
 11
61.9
 21
260.563263
 31
0.0
  0
ARC
  5
C00F
330
BFA8
100
AcDbEntity
  8
1
  6
Continuous
100
AcDbCircle
 10
67.40000000000001
 20
253.5632629999998
 30
0.0
 40
10.5
100
AcDbArc
 50
138.1896849999999
 51
221.810315
  0
LINE
  5
C010
330
BFA8
100
AcDbEntity
  8
1
  6
Continuous
100
AcDbLine
 10
59.573762
 20
246.5632629999999
 30
0.0
 11
59.573762
 21
260.563263
 31
0.0
  0
LINE
  5
C011
330
BFA8
100
AcDbEntity
  8
1
  6
Continuous
100
AcDbLine
 10
61.9
 20
282.8360829999999
 30
0.0
 11
61.9
 21
238.5632129999999
 31
0.0
  0
LINE
  5
C012
330
BFA8
100
AcDbEntity
  8
1
  6
Continuous
100
AcDbLine
 10
98.1
 20
282.8360829999999
 30
0.0
 11
98.1
 21
238.5632129999999
 31
0.0
  0
LINE
  5
C013
330
BFA8
100
AcDbEntity
  8
1
  6
Continuous
100
AcDbLine
 10
64.5
 20
271.102413
 30
0.0
 11
64.5
 21
238.5632129999999
 31
0.0
  0
LINE
  5
C014
330
BFA8
100
AcDbEntity
  8
1
  6
Continuous
100
AcDbLine
 10
95.5
 20
271.102413
 30
0.0
 11
95.5
 21
238.5632129999999
 31
0.0
  0
LINE
  5
C015
330
BFA8
100
AcDbEntity
  8
1
  6
Continuous
100
AcDbLine
 10
61.9
 20
238.5632129999999
 30
0.0
 11
64.5
 21
238.5632129999999
 31
0.0
  0
LINE
  5
C016
330
BFA8
100
AcDbEntity
  8
1
  6
Continuous
100
AcDbLine
 10
95.5
 20
238.5632129999999
 30
0.0
 11
98.1
 21
238.5632129999999
 31
0.0
  0
ARC
  5
C017
330
BFA8
100
AcDbEntity
  8
1
  6
Continuous
100
AcDbCircle
 10
65.5
 20
261.5632629999999
 30
0.0
 40
1.0
100
AcDbArc
 50
90.0
 51
180.0
  0
ARC
  5
C018
330
BFA8
100
AcDbEntity
  8
1
  6
Continuous
100
AcDbCircle
 10
65.5
 20
245.5632629999998
 30
0.0
 40
1.0
100
AcDbArc
 50
180.0
 51
270.0
  0
ARC
  5
C019
330
BFA8
100
AcDbEntity
  8
1
  6
Continuous
100
AcDbCircle
 10
94.50000000000001
 20
261.5632629999999
 30
0.0
 40
1.0
100
AcDbArc
 50
0.0
 51
90.0
  0
ARC
  5
C01A
330
BFA8
100
AcDbEntity
  8
1
  6
Continuous
100
AcDbCircle
 10
94.50000000000001
 20
245.5632629999998
 30
0.0
 40
1.0
100
AcDbArc
 50
270.0
 51
0.0
  0
ARC
  5
C01B
330
BFA8
100
AcDbEntity
  8
1
  6
Continuous
100
AcDbCircle
 10
85.490688
 20
261.953013
 30
0.0
 40
20.0
100
AcDbArc
 50
167.041919
 51
178.2514909999999
  0
ARC
  5
C01C
330
BFA8
100
AcDbEntity
  8
1
  6
Continuous
100
AcDbCircle
 10
85.490688
 20
245.1735129999999
 30
0.0
 40
20.0
100
AcDbArc
 50
181.748509
 51
192.9580809999999
  0
ARC
  5
C01D
330
BFA8
100
AcDbEntity
  8
1
  6
Continuous
100
AcDbCircle
 10
74.50931199999998
 20
261.953013
 30
0.0
 40
20.0
100
AcDbArc
 50
1.748509
 51
12.958081
  0
ARC
  5
C01E
330
BFA8
100
AcDbEntity
  8
1
  6
Continuous
100
AcDbCircle
 10
74.50931199999998
 20
245.1735129999999
 30
0.0
 40
20.0
100
AcDbArc
 50
347.041919
 51
358.2514909999999
  0
LINE
  5
C01F
330
BFA8
100
AcDbEntity
  8
1
  6
Continuous
100
AcDbLine
 10
65.5
 20
262.563263
 30
0.0
 11
65.5
 21
244.5632629999999
 31
0.0
  0
LINE
  5
C020
330
BFA8
100
AcDbEntity
  8
1
  6
Continuous
100
AcDbLine
 10
94.50000000000001
 20
262.563263
 30
0.0
 11
94.50000000000001
 21
244.5632629999999
 31
0.0
  0
ARC
  5
C021
330
BFA8
100
AcDbEntity
  8
1
  6
Continuous
100
AcDbCircle
 10
259.261889
 20
259.569274
 30
0.0
 40
10.0
100
AcDbArc
 50
90.0
 51
134.7588889999999
  0
ARC
  5
C022
330
BFA8
100
AcDbEntity
  8
1
  6
Continuous
100
AcDbCircle
 10
221.0998819999999
 20
246.878095
 30
0.0
 40
38.6
100
AcDbArc
 50
88.87870799999998
 51
139.510162
  0
LINE
  5
C023
330
BFA8
100
AcDbEntity
  8
1
  6
Continuous
100
AcDbLine
 10
191.743766
 20
271.9415829999999
 30
0.0
 11
193.7211209999999
 21
270.253369
 31
0.0
  0
ARC
  5
C024
330
BFA8
100
AcDbEntity
  8
1
  6
Continuous
100
AcDbCircle
 10
12.357256
 20
242.91207
 30
0.0
 40
49.542745
100
AcDbArc
 50
0.0
 51
4.226405999999998
  0
ARC
  5
C025
330
BFA8
100
AcDbEntity
  8
1
  6
Continuous
100
AcDbCircle
 10
147.6427449999999
 20
242.91207
 30
0.0
 40
49.542745
100
AcDbArc
 50
176.3532099999999
 51
180.0
  0
LINE
  5
C026
330
BFA8
100
AcDbEntity
  8
1
  6
Continuous
100
AcDbLine
 10
61.9
 20
285.436083
 30
0.0
 11
98.1
 21
285.436083
 31
0.0
  0
ARC
  5
C027
330
BFA8
100
AcDbEntity
  8
1
  6
Continuous
100
AcDbCircle
 10
80.0
 20
339.801915
 30
0.0
 40
67.860332
100
AcDbArc
 50
257.2920279999999
 51
282.707972
  0
ARC
  5
C028
330
BFA8
100
AcDbEntity
  8
1
  6
Continuous
100
AcDbCircle
 10
80.0
 20
353.8202339999998
 30
0.0
 40
83.566865
100
AcDbArc
 50
259.7217099999999
 51
280.27829
  0
ARC
  5
C029
330
BFA8
100
AcDbEntity
  8
1
  6
Continuous
100
AcDbCircle
 10
64.5
 20
282.8360829999999
 30
0.0
 40
2.6
100
AcDbArc
 50
90.0
 51
180.0
  0
ARC
  5
C02A
330
BFA8
100
AcDbEntity
  8
1
  6
Continuous
100
AcDbCircle
 10
95.5
 20
282.8360829999999
 30
0.0
 40
2.6
100
AcDbArc
 50
0.0
 51
90.0
  0
ARC
  5
C02B
330
BFA8
100
AcDbEntity
  8
1
  6
Continuous
100
AcDbCircle
 10
64.5
 20
271.067583
 30
0.0
 40
2.6
100
AcDbArc
 50
77.292028
 51
180.0
  0
ARC
  5
C02C
330
BFA8
100
AcDbEntity
  8
1
  6
Continuous
100
AcDbCircle
 10
95.5
 20
271.067583
 30
0.0
 40
2.6
100
AcDbArc
 50
0.0
 51
102.7079719999999
  0
ARC
  5
C02D
330
BFA8
100
AcDbEntity
  8
1
  6
Continuous
100
AcDbCircle
 10
65.0
 20
271.102413
 30
0.0
 40
0.5
100
AcDbArc
 50
79.72171000000002
 51
180.0
  0
ARC
  5
C02E
330
BFA8
100
AcDbEntity
  8
1
  6
Continuous
100
AcDbCircle
 10
95.0
 20
271.102413
 30
0.0
 40
0.5
100
AcDbArc
 50
0.0
 51
100.2782899999999
  0
LINE
  5
C02F
330
BFA8
100
AcDbEntity
  8
1
  6
Continuous
100
AcDbLine
 10
302.1
 20
228.5632129999999
 30
0.0
 11
261.2999999999999
 21
228.5632129999999
 31
0.0
  0
LINE
  5
C030
330
BFA8
100
AcDbEntity
  8
1
  6
Continuous
100
AcDbLine
 10
303.6999999999999
 20
239.563213
 30
0.0
 11
259.6999999999998
 21
239.563213
 31
0.0
  0
LINE
  5
C031
330
BFA8
100
AcDbEntity
  8
1
  6
Continuous
100
AcDbLine
 10
288.7
 20
262.963221
 30
0.0
 11
288.7
 21
245.563213
 31
0.0
  0
LINE
  5
C032
330
BFA8
100
AcDbEntity
  8
1
  6
Continuous
100
AcDbLine
 10
274.6999999999998
 20
262.963221
 30
0.0
 11
274.6999999999998
 21
245.563213
 31
0.0
  0
LINE
  5
C033
330
BFA8
100
AcDbEntity
  8
1
  6
Continuous
100
AcDbLine
 10
305.1
 20
232.5632129999999
 30
0.0
 11
305.1
 21
231.563213
 31
0.0
  0
LINE
  5
C034
330
BFA8
100
AcDbEntity
  8
1
  6
Continuous
100
AcDbLine
 10
258.3
 20
232.5632129999999
 30
0.0
 11
258.3
 21
231.563213
 31
0.0
  0
LINE
  5
C035
330
BFA8
100
AcDbEntity
  8
1
  6
Continuous
100
AcDbLine
 10
256.6999999999998
 20
236.5632129999999
 30
0.0
 11
256.6999999999998
 21
232.5632129999999
 31
0.0
  0
LINE
  5
C036
330
BFA8
100
AcDbEntity
  8
1
  6
Continuous
100
AcDbLine
 10
306.7
 20
236.5632129999999
 30
0.0
 11
306.7
 21
232.5632129999999
 31
0.0
  0
ARC
  5
C037
330
BFA8
100
AcDbEntity
  8
1
  6
Continuous
100
AcDbCircle
 10
302.1
 20
231.563213
 30
0.0
 40
3.0
100
AcDbArc
 50
270.0
 51
0.0
  0
ARC
  5
C038
330
BFA8
100
AcDbEntity
  8
1
  6
Continuous
100
AcDbCircle
 10
261.2999999999999
 20
231.563213
 30
0.0
 40
3.0
100
AcDbArc
 50
180.0
 51
270.0
  0
ARC
  5
C039
330
BFA8
100
AcDbEntity
  8
1
  6
Continuous
100
AcDbCircle
 10
303.6999999999999
 20
236.5632129999999
 30
0.0
 40
3.0
100
AcDbArc
 50
0.0
 51
90.0
  0
ARC
  5
C03A
330
BFA8
100
AcDbEntity
  8
1
  6
Continuous
100
AcDbCircle
 10
259.6999999999998
 20
236.5632129999999
 30
0.0
 40
3.0
100
AcDbArc
 50
90.0
 51
180.0
  0
LINE
  5
C03B
330
BFA8
100
AcDbEntity
  8
1
  6
Continuous
100
AcDbLine
 10
306.7
 20
232.5632129999999
 30
0.0
 11
256.6999999999998
 21
232.5632129999999
 31
0.0
  0
LINE
  5
C03C
330
BFA8
100
AcDbEntity
  8
1
  6
Continuous
100
AcDbLine
 10
295.556406
 20
245.563213
 30
0.0
 11
295.556406
 21
241.6350089999999
 31
0.0
  0
LINE
  5
C03D
330
BFA8
100
AcDbEntity
  8
1
  6
Continuous
100
AcDbLine
 10
267.843593
 20
245.563213
 30
0.0
 11
267.843593
 21
241.6350089999999
 31
0.0
  0
LINE
  5
C03E
330
BFA8
100
AcDbEntity
  8
1
  6
Continuous
100
AcDbLine
 10
295.556406
 20
245.563213
 30
0.0
 11
267.843593
 21
245.563213
 31
0.0
  0
LINE
  5
C03F
330
BFA8
100
AcDbEntity
  8
1
  6
Continuous
100
AcDbLine
 10
293.6999999999999
 20
240.5632129999999
 30
0.0
 11
269.7
 21
240.5632129999999
 31
0.0
  0
LINE
  5
C040
330
BFA8
100
AcDbEntity
  8
1
  6
Continuous
100
AcDbLine
 10
288.6282029999999
 20
245.563213
 30
0.0
 11
288.6282029999999
 21
241.664233
 31
0.0
  0
LINE
  5
C041
330
BFA8
100
AcDbEntity
  8
1
  6
Continuous
100
AcDbLine
 10
274.771797
 20
245.563213
 30
0.0
 11
274.771797
 21
241.664233
 31
0.0
  0
LINE
  5
C042
330
BFA8
100
AcDbEntity
  8
1
  6
Continuous
100
AcDbLine
 10
293.6999999999999
 20
240.5632129999999
 30
0.0
 11
295.556406
 21
241.6350089999999
 31
0.0
  0
LINE
  5
C043
330
BFA8
100
AcDbEntity
  8
1
  6
Continuous
100
AcDbLine
 10
269.7
 20
240.5632129999999
 30
0.0
 11
267.843593
 21
241.6350089999999
 31
0.0
  0
ARC
  5
C044
330
BFA8
100
AcDbEntity
  8
1
  6
Continuous
100
AcDbCircle
 10
292.0923049999998
 20
246.5632129999999
 30
0.0
 40
6.0
100
AcDbArc
 50
234.73561
 51
300.0
  0
ARC
  5
C045
330
BFA8
100
AcDbEntity
  8
1
  6
Continuous
100
AcDbCircle
 10
271.307695
 20
246.5632129999999
 30
0.0
 40
6.0
100
AcDbArc
 50
239.9999999999999
 51
305.26439
  0
ARC
  5
C046
330
BFA8
100
AcDbEntity
  8
1
  6
Continuous
100
AcDbCircle
 10
281.6999999999998
 20
262.9116819999999
 30
0.0
 40
22.348469
100
AcDbArc
 50
251.94029
 51
288.05971
  0
LINE
  5
C047
330
BFA8
100
AcDbEntity
  8
1
  6
Continuous
100
AcDbLine
 10
266.1999999999998
 20
240.0632129999999
 30
0.0
 11
266.1999999999998
 21
239.563213
 31
0.0
  0
LINE
  5
C048
330
BFA8
100
AcDbEntity
  8
1
  6
Continuous
100
AcDbLine
 10
297.1999999999998
 20
240.0632129999999
 30
0.0
 11
266.1999999999998
 21
240.0632129999999
 31
0.0
  0
LINE
  5
C049
330
BFA8
100
AcDbEntity
  8
1
  6
Continuous
100
AcDbLine
 10
286.6
 20
240.5632129999999
 30
0.0
 11
286.6
 21
240.0632129999999
 31
0.0
  0
LINE
  5
C04A
330
BFA8
100
AcDbEntity
  8
1
  6
Continuous
100
AcDbLine
 10
276.8
 20
240.0632129999999
 30
0.0
 11
276.8
 21
240.5632129999999
 31
0.0
  0
LINE
  5
C04B
330
BFA8
100
AcDbEntity
  8
1
  6
Continuous
100
AcDbLine
 10
59.6
 20
228.5632129999999
 30
0.0
 11
100.4
 21
228.5632129999999
 31
0.0
  0
LINE
  5
C04C
330
BFA8
100
AcDbEntity
  8
1
  6
Continuous
100
AcDbLine
 10
56.6
 20
232.5632129999999
 30
0.0
 11
56.6
 21
231.563213
 31
0.0
  0
LINE
  5
C04D
330
BFA8
100
AcDbEntity
  8
1
  6
Continuous
100
AcDbLine
 10
103.4
 20
232.5632129999999
 30
0.0
 11
103.4
 21
231.563213
 31
0.0
  0
LINE
  5
C04E
330
BFA8
100
AcDbEntity
  8
1
  6
Continuous
100
AcDbLine
 10
105.0
 20
236.5632129999999
 30
0.0
 11
105.0
 21
232.5632129999999
 31
0.0
  0
LINE
  5
C04F
330
BFA8
100
AcDbEntity
  8
1
  6
Continuous
100
AcDbLine
 10
55.0
 20
236.5632129999999
 30
0.0
 11
55.0
 21
232.5632129999999
 31
0.0
  0
ARC
  5
C050
330
BFA8
100
AcDbEntity
  8
1
  6
Continuous
100
AcDbCircle
 10
59.6
 20
231.563213
 30
0.0
 40
3.0
100
AcDbArc
 50
180.0
 51
270.0
  0
ARC
  5
C051
330
BFA8
100
AcDbEntity
  8
1
  6
Continuous
100
AcDbCircle
 10
100.4
 20
231.563213
 30
0.0
 40
3.0
100
AcDbArc
 50
270.0
 51
0.0
  0
ARC
  5
C052
330
BFA8
100
AcDbEntity
  8
1
  6
Continuous
100
AcDbCircle
 10
58.0
 20
236.5632129999999
 30
0.0
 40
3.0
100
AcDbArc
 50
90.0
 51
180.0
  0
ARC
  5
C053
330
BFA8
100
AcDbEntity
  8
1
  6
Continuous
100
AcDbCircle
 10
102.0
 20
236.5632129999999
 30
0.0
 40
3.0
100
AcDbArc
 50
0.0
 51
90.0
  0
LINE
  5
C054
330
BFA8
100
AcDbEntity
  8
1
  6
Continuous
100
AcDbLine
 10
55.0
 20
232.5632129999999
 30
0.0
 11
66.37339399999999
 21
232.5632129999999
 31
0.0
  0
LINE
  5
C055
330
BFA8
100
AcDbEntity
  8
1
  6
Continuous
100
AcDbLine
 10
58.0
 20
239.563213
 30
0.0
 11
61.9
 21
239.563213
 31
0.0
  0
LINE
  5
C056
330
BFA8
100
AcDbEntity
  8
1
  6
Continuous
100
AcDbLine
 10
94.0
 20
239.563213
 30
0.0
 11
95.5
 21
239.563213
 31
0.0
  0
LINE
  5
C057
330
BFA8
100
AcDbEntity
  8
1
  6
Continuous
100
AcDbLine
 10
291.1999999999998
 20
295.5633129999998
 30
0.0
 11
291.1999999999998
 21
287.569274
 31
0.0
  0
LINE
  5
C058
330
BFA8
100
AcDbEntity
  8
1
  6
Continuous
100
AcDbLine
 10
291.1999999999998
 20
269.569274
 30
0.0
 11
291.1999999999998
 21
262.963221
 31
0.0
  0
LINE
  5
C059
330
BFA8
100
AcDbEntity
  8
1
  6
Continuous
100
AcDbLine
 10
272.1999999999998
 20
295.5633129999998
 30
0.0
 11
272.1999999999998
 21
287.569274
 31
0.0
  0
LINE
  5
C05A
330
BFA8
100
AcDbEntity
  8
1
  6
Continuous
100
AcDbLine
 10
272.1999999999998
 20
269.569274
 30
0.0
 11
272.1999999999998
 21
262.963221
 31
0.0
  0
ARC
  5
C05B
330
BFA8
100
AcDbEntity
  8
1
  6
Continuous
100
AcDbCircle
 10
217.7
 20
253.5632129999999
 30
0.0
 40
25.0
100
AcDbArc
 50
147.099898
 51
7.888990999999999
  0
ARC
  5
C05C
330
BFA8
100
AcDbEntity
  8
1
  6
Continuous
100
AcDbCircle
 10
227.7599499999999
 20
276.0735669999998
 30
0.0
 40
13.73005499999998
100
AcDbArc
 50
114.4809909999999
 51
137.666361
  0
ARC
  5
C05D
330
BFA8
100
AcDbEntity
  8
1
  6
Continuous
100
AcDbCircle
 10
221.0998819999999
 20
246.878095
 30
0.0
 40
36.0
100
AcDbArc
 50
136.402148
 51
139.510162
  0
LINE
  5
C05E
330
BFA8
100
AcDbEntity
  8
1
  6
Continuous
100
AcDbLine
 10
266.6999999999998
 20
288.569274
 30
0.0
 11
266.6999999999998
 21
290.545135
 31
0.0
  0
LINE
  5
C05F
330
BFA8
100
AcDbEntity
  8
1
  6
Continuous
100
AcDbLine
 10
220.6999999999999
 20
288.569274
 30
0.0
 11
220.6999999999999
 21
290.545135
 31
0.0
  0
LINE
  5
C060
330
BFA8
100
AcDbEntity
  8
1
  6
Continuous
100
AcDbLine
 10
220.6999999999999
 20
290.545135
 30
0.0
 11
266.6999999999998
 21
290.545135
 31
0.0
  0
LINE
  5
C061
330
BFA8
100
AcDbEntity
  8
1
  6
Continuous
100
AcDbLine
 10
220.6999999999999
 20
288.569274
 30
0.0
 11
266.6999999999998
 21
288.569274
 31
0.0
  0
ARC
  5
C062
330
BFA8
100
AcDbEntity
  8
1
  6
Continuous
100
AcDbCircle
 10
262.8593169999999
 20
303.6777269999999
 30
0.0
 40
10.63951799999999
100
AcDbArc
 50
296.2888529999998
 51
310.0709029999998
  0
LINE
  5
C063
330
BFA8
100
AcDbEntity
  8
1
  6
Continuous
100
AcDbLine
 10
269.708349
 20
295.5358529999998
 30
0.0
 11
269.710887
 21
295.5633129999998
 31
0.0
  0
ARC
  5
C064
330
BFA8
100
AcDbEntity
  8
1
  6
Continuous
100
AcDbCircle
 10
265.9721589999999
 20
297.376284
 30
0.0
 40
3.611148999999998
100
AcDbArc
 50
270.0
 51
296.2888529999998
  0
ARC
  5
C065
330
BFA8
100
AcDbEntity
  8
1
  6
Continuous
100
AcDbCircle
 10
224.5406819999999
 20
303.6777269999999
 30
0.0
 40
10.63951799999999
100
AcDbArc
 50
229.929097
 51
243.711147
  0
LINE
  5
C066
330
BFA8
100
AcDbEntity
  8
1
  6
Continuous
100
AcDbLine
 10
217.6916509999998
 20
295.5358529999998
 30
0.0
 11
217.689113
 21
295.5633129999998
 31
0.0
  0
ARC
  5
C067
330
BFA8
100
AcDbEntity
  8
1
  6
Continuous
100
AcDbCircle
 10
221.4278399999999
 20
297.376284
 30
0.0
 40
3.611148999999998
100
AcDbArc
 50
243.711147
 51
270.0
  0
ARC
  5
C068
330
BFA8
100
AcDbEntity
  8
1
  6
Continuous
100
AcDbCircle
 10
266.426029
 20
291.6102819999998
 30
0.0
 40
0.9569799999999998
100
AcDbArc
 50
24.04026499999999
 51
73.98808699999998
  0
LINE
  5
C069
330
BFA8
100
AcDbEntity
  8
1
  6
Continuous
100
AcDbLine
 10
265.8749999999999
 20
292.5301349999998
 30
0.0
 11
265.7049999999999
 21
292.8901349999998
 31
0.0
  0
ARC
  5
C06A
330
BFA8
100
AcDbEntity
  8
1
  6
Continuous
100
AcDbCircle
 10
263.088518
 20
294.0803629999999
 30
0.0
 40
4.697225
100
AcDbArc
 50
317.4697509999999
 51
333.713305
  0
LINE
  5
C06B
330
BFA8
100
AcDbEntity
  8
1
  6
Continuous
100
AcDbLine
 10
266.55
 20
290.905135
 30
0.0
 11
266.42
 21
290.545135
 31
0.0
  0
ARC
  5
C06C
330
BFA8
100
AcDbEntity
  8
1
  6
Continuous
100
AcDbCircle
 10
260.8864179999998
 20
288.9791629999999
 30
0.0
 40
6.206
100
AcDbArc
 50
39.064301
 51
50.460397
  0
ARC
  5
C06D
330
BFA8
100
AcDbEntity
  8
1
  6
Continuous
100
AcDbCircle
 10
220.97397
 20
291.6102819999998
 30
0.0
 40
0.9569799999999998
100
AcDbArc
 50
106.011913
 51
155.9597349999999
  0
LINE
  5
C06E
330
BFA8
100
AcDbEntity
  8
1
  6
Continuous
100
AcDbLine
 10
220.71
 20
292.5301349999998
 30
0.0
 11
266.6900009999998
 21
292.5301349999998
 31
0.0
  0
LINE
  5
C06F
330
BFA8
100
AcDbEntity
  8
1
  6
Continuous
100
AcDbLine
 10
221.525
 20
292.5301349999998
 30
0.0
 11
221.695
 21
292.8901349999998
 31
0.0
  0
ARC
  5
C070
330
BFA8
100
AcDbEntity
  8
1
  6
Continuous
100
AcDbCircle
 10
224.3114819999999
 20
294.0803629999999
 30
0.0
 40
4.697225
100
AcDbArc
 50
206.286695
 51
222.530249
  0
LINE
  5
C071
330
BFA8
100
AcDbEntity
  8
1
  6
Continuous
100
AcDbLine
 10
220.8499999999999
 20
290.905135
 30
0.0
 11
220.9799999999999
 21
290.545135
 31
0.0
  0
ARC
  5
C072
330
BFA8
100
AcDbEntity
  8
1
  6
Continuous
100
AcDbCircle
 10
226.5135819999999
 20
288.9791629999999
 30
0.0
 40
6.206
100
AcDbArc
 50
129.539603
 51
140.935699
  0
LINE
  5
C073
330
BFA8
100
AcDbEntity
  8
1
  6
Continuous
100
AcDbLine
 10
220.9799999999999
 20
290.545135
 30
0.0
 11
223.8230339999998
 21
290.545135
 31
0.0
  0
LINE
  5
C074
330
BFA8
100
AcDbEntity
  8
1
  6
Continuous
100
AcDbLine
 10
188.7
 20
295.96332
 30
0.0
 11
188.7
 21
298.5633199999999
 31
0.0
  0
ARC
  5
C075
330
BFA8
100
AcDbEntity
  8
1
  6
Continuous
100
AcDbCircle
 10
192.2304059999999
 20
300.763484
 30
0.0
 40
5.200171
100
AcDbArc
 50
247.3818949999999
 51
270.0
  0
ARC
  5
C076
330
BFA8
100
AcDbEntity
  8
1
  6
Continuous
100
AcDbCircle
 10
295.169594
 20
300.763484
 30
0.0
 40
5.200171
100
AcDbArc
 50
270.0
 51
292.6181049999998
  0
LINE
  5
C077
330
BFA8
100
AcDbEntity
  8
1
  6
Continuous
100
AcDbLine
 10
265.9721589999999
 20
293.7651349999999
 30
0.0
 11
221.4278399999999
 21
293.7651349999999
 31
0.0
  0
LINE
  5
C078
330
BFA8
100
AcDbEntity
  8
1
  6
Continuous
100
AcDbLine
 10
269.708349
 20
295.5358529999998
 30
0.0
 11
217.6916509999998
 21
295.5358529999998
 31
0.0
  0
LINE
  5
C079
330
BFA8
100
AcDbEntity
  8
1
  6
Continuous
100
AcDbLine
 10
295.169594
 20
295.5633129999998
 30
0.0
 11
192.2304059999999
 21
295.5633129999998
 31
0.0
  0
ARC
  5
C07A
330
BFA8
100
AcDbEntity
  8
1
  6
Continuous
100
AcDbCircle
 10
281.6999999999998
 20
291.013008
 30
0.0
 40
0.75
100
AcDbArc
 50
0.0
 51
180.0
  0
ARC
  5
C07B
330
BFA8
100
AcDbEntity
  8
1
  6
Continuous
100
AcDbCircle
 10
281.6999999999998
 20
289.013008
 30
0.0
 40
0.75
100
AcDbArc
 50
180.0
 51
0.0
  0
LINE
  5
C07C
330
BFA8
100
AcDbEntity
  8
1
  6
Continuous
100
AcDbLine
 10
282.45
 20
289.013008
 30
0.0
 11
282.45
 21
291.013008
 31
0.0
  0
LINE
  5
C07D
330
BFA8
100
AcDbEntity
  8
1
  6
Continuous
100
AcDbLine
 10
280.9499999999998
 20
289.013008
 30
0.0
 11
280.9499999999998
 21
291.013008
 31
0.0
  0
LINE
  5
C07E
330
BFA8
100
AcDbEntity
  8
1
  6
Continuous
100
AcDbLine
 10
66.0
 20
271.434429
 30
0.0
 11
66.0
 21
233.5632629999998
 31
0.0
  0
LINE
  5
C07F
330
BFA8
100
AcDbEntity
  8
1
  6
Continuous
100
AcDbLine
 10
94.0
 20
271.434429
 30
0.0
 11
94.0
 21
233.5632629999998
 31
0.0
  0
CIRCLE
  5
C080
330
BFA8
100
AcDbEntity
  8
1
  6
Continuous
100
AcDbCircle
 10
243.6999999999999
 20
423.126324
 30
0.0
 40
21.3
  0
CIRCLE
  5
C081
330
BFA8
100
AcDbEntity
  8
1
  6
Continuous
100
AcDbCircle
 10
243.6999999999999
 20
423.126324
 30
0.0
 40
23.5
  0
LINE
  5
C082
330
BFA8
100
AcDbEntity
  8
1
  6
Continuous
100
AcDbLine
 10
135.0
 20
298.5633199999999
 30
0.0
 11
135.0
 21
295.96332
 31
0.0
  0
ARC
  5
C083
330
BFA8
100
AcDbEntity
  8
1
  6
Continuous
100
AcDbCircle
 10
217.7
 20
253.5632629999998
 30
0.0
 40
20.0
100
AcDbArc
 50
158.8204529999999
 51
356.1683569999999
  0
LINE
  5
C084
330
BFA8
100
AcDbEntity
  8
1
  6
Continuous
100
AcDbLine
 10
66.0
 20
233.5632629999998
 30
0.0
 11
67.08824200000001
 21
230.648658
 31
0.0
  0
LINE
  5
C085
330
BFA8
100
AcDbEntity
  8
1
  6
Continuous
100
AcDbLine
 10
94.0
 20
233.5632629999998
 30
0.0
 11
92.91175800000001
 21
230.648658
 31
0.0
  0
ARC
  5
C086
330
BFA8
100
AcDbEntity
  8
1
  6
Continuous
100
AcDbCircle
 10
68.961899
 20
231.348236
 30
0.0
 40
2.0
100
AcDbArc
 50
200.474401
 51
261.8645289999999
  0
ARC
  5
C087
330
BFA8
100
AcDbEntity
  8
1
  6
Continuous
100
AcDbCircle
 10
91.038101
 20
231.348236
 30
0.0
 40
2.0
100
AcDbArc
 50
278.135471
 51
339.5255989999999
  0
ARC
  5
C088
330
BFA8
100
AcDbEntity
  8
1
  6
Continuous
100
AcDbCircle
 10
80.0
 20
308.563263
 30
0.0
 40
80.0
100
AcDbArc
 50
261.8645289999999
 51
278.135471
  0
LINE
  5
C089
330
BFA8
100
AcDbEntity
  8
1
  6
Continuous
100
AcDbLine
 10
281.6999999999998
 20
287.569274
 30
0.0
 11
281.6999999999998
 21
288.263008
 31
0.0
  0
LINE
  5
C08A
330
BFA8
100
AcDbEntity
  8
1
  6
Continuous
100
AcDbLine
 10
281.6999999999998
 20
291.763008
 30
0.0
 11
281.6999999999998
 21
295.5633129999998
 31
0.0
  0
LINE
  5
C08B
330
BFA8
100
AcDbEntity
  8
1
  6
Continuous
100
AcDbLine
 10
281.6999999999998
 20
269.569274
 30
0.0
 11
281.6999999999998
 21
264.4632209999999
 31
0.0
  0
ARC
  5
C08C
330
BFA8
100
AcDbEntity
  8
1
  6
Continuous
100
AcDbCircle
 10
217.7
 20
253.5632629999998
 30
0.0
 40
17.5
100
AcDbArc
 50
169.2273909999999
 51
345.7613819999999
  0
ARC
  5
C08D
330
BFA8
100
AcDbEntity
  8
1
  6
Continuous
100
AcDbCircle
 10
217.7
 20
253.5632629999998
 30
0.0
 40
17.0
100
AcDbArc
 50
172.157637
 51
342.8311219999998
  0
LINE
  5
C08E
330
BFA8
100
AcDbEntity
  8
1
  6
Continuous
100
AcDbLine
 10
106.4
 20
256.963263
 30
0.0
 11
105.8
 21
257.563263
 31
0.0
  0
LINE
  5
C08F
330
BFA8
100
AcDbEntity
  8
1
  6
Continuous
100
AcDbLine
 10
105.8
 20
257.563263
 30
0.0
 11
105.8
 21
249.5632629999998
 31
0.0
  0
LINE
  5
C090
330
BFA8
100
AcDbEntity
  8
1
  6
Continuous
100
AcDbLine
 10
105.0999999999998
 20
249.5632629999998
 30
0.0
 11
105.8
 21
249.5632629999998
 31
0.0
  0
LINE
  5
C091
330
BFA8
100
AcDbEntity
  8
1
  6
Continuous
100
AcDbLine
 10
106.4
 20
250.163263
 30
0.0
 11
105.8
 21
249.5632629999998
 31
0.0
  0
LINE
  5
C092
330
BFA8
100
AcDbEntity
  8
2
  6
Continuous
100
AcDbLine
 10
287.6174999999999
 20
262.963221
 30
0.0
 11
287.6174999999999
 21
249.563213
 31
0.0
  0
LINE
  5
C093
330
BFA8
100
AcDbEntity
  8
1
  6
Continuous
100
AcDbLine
 10
81.97586200000001
 20
290.545135
 30
0.0
 11
80.0
 21
288.569274
 31
0.0
  0
LINE
  5
C094
330
BFA8
100
AcDbEntity
  8
1
  6
Continuous
100
AcDbLine
 10
84.09718199999998
 20
290.545135
 30
0.0
 11
82.12131999999998
 21
288.569274
 31
0.0
  0
LINE
  5
C095
330
BFA8
100
AcDbEntity
  8
1
  6
Continuous
100
AcDbLine
 10
86.218502
 20
290.545135
 30
0.0
 11
84.242641
 21
288.569274
 31
0.0
  0
LINE
  5
C096
330
BFA8
100
AcDbEntity
  8
1
  6
Continuous
100
AcDbLine
 10
88.33982299999998
 20
290.545135
 30
0.0
 11
86.363961
 21
288.569274
 31
0.0
  0
LINE
  5
C097
330
BFA8
100
AcDbEntity
  8
1
  6
Continuous
100
AcDbLine
 10
90.46114300000001
 20
290.545135
 30
0.0
 11
88.485282
 21
288.569274
 31
0.0
  0
LINE
  5
C098
330
BFA8
100
AcDbEntity
  8
1
  6
Continuous
100
AcDbLine
 10
92.58246300000001
 20
290.545135
 30
0.0
 11
90.60660199999999
 21
288.569274
 31
0.0
  0
LINE
  5
C099
330
BFA8
100
AcDbEntity
  8
1
  6
Continuous
100
AcDbLine
 10
94.70378399999999
 20
290.545135
 30
0.0
 11
92.72792200000001
 21
288.569274
 31
0.0
  0
LINE
  5
C09A
330
BFA8
100
AcDbEntity
  8
1
  6
Continuous
100
AcDbLine
 10
96.82510399999999
 20
290.545135
 30
0.0
 11
94.84924300000001
 21
288.569274
 31
0.0
  0
LINE
  5
C09B
330
BFA8
100
AcDbEntity
  8
1
  6
Continuous
100
AcDbLine
 10
98.946424
 20
290.545135
 30
0.0
 11
96.97056299999999
 21
288.569274
 31
0.0
  0
LINE
  5
C09C
330
BFA8
100
AcDbEntity
  8
1
  6
Continuous
100
AcDbLine
 10
101.0677449999999
 20
290.545135
 30
0.0
 11
99.091883
 21
288.569274
 31
0.0
  0
LINE
  5
C09D
330
BFA8
100
AcDbEntity
  8
1
  6
Continuous
100
AcDbLine
 10
103.0
 20
290.3560699999999
 30
0.0
 11
101.213204
 21
288.569274
 31
0.0
  0
LINE
  5
C09E
330
BFA8
100
AcDbEntity
  8
1
  6
Continuous
100
AcDbLine
 10
79.854541
 20
290.545135
 30
0.0
 11
77.87868
 21
288.569274
 31
0.0
  0
LINE
  5
C09F
330
BFA8
100
AcDbEntity
  8
1
  6
Continuous
100
AcDbLine
 10
77.733221
 20
290.545135
 30
0.0
 11
75.75735899999997
 21
288.569274
 31
0.0
  0
LINE
  5
C0A0
330
BFA8
100
AcDbEntity
  8
1
  6
Continuous
100
AcDbLine
 10
75.61190100000001
 20
290.545135
 30
0.0
 11
73.63603899999998
 21
288.569274
 31
0.0
  0
LINE
  5
C0A1
330
BFA8
100
AcDbEntity
  8
1
  6
Continuous
100
AcDbLine
 10
73.49057999999998
 20
290.545135
 30
0.0
 11
71.514719
 21
288.569274
 31
0.0
  0
LINE
  5
C0A2
330
BFA8
100
AcDbEntity
  8
1
  6
Continuous
100
AcDbLine
 10
71.36925999999998
 20
290.545135
 30
0.0
 11
69.393398
 21
288.569274
 31
0.0
  0
LINE
  5
C0A3
330
BFA8
100
AcDbEntity
  8
1
  6
Continuous
100
AcDbLine
 10
69.24794
 20
290.545135
 30
0.0
 11
67.27207800000001
 21
288.569274
 31
0.0
  0
LINE
  5
C0A4
330
BFA8
100
AcDbEntity
  8
1
  6
Continuous
100
AcDbLine
 10
67.12661899999999
 20
290.545135
 30
0.0
 11
65.15075799999999
 21
288.569274
 31
0.0
  0
LINE
  5
C0A5
330
BFA8
100
AcDbEntity
  8
1
  6
Continuous
100
AcDbLine
 10
65.005299
 20
290.545135
 30
0.0
 11
63.029437
 21
288.569274
 31
0.0
  0
LINE
  5
C0A6
330
BFA8
100
AcDbEntity
  8
1
  6
Continuous
100
AcDbLine
 10
62.88397899999999
 20
290.545135
 30
0.0
 11
60.90811699999999
 21
288.569274
 31
0.0
  0
LINE
  5
C0A7
330
BFA8
100
AcDbEntity
  8
1
  6
Continuous
100
AcDbLine
 10
60.76265799999998
 20
290.545135
 30
0.0
 11
58.786797
 21
288.569274
 31
0.0
  0
LINE
  5
C0A8
330
BFA8
100
AcDbEntity
  8
1
  6
Continuous
100
AcDbLine
 10
57.0
 20
288.903797
 30
0.0
 11
58.641338
 21
290.545135
 31
0.0
  0
LINE
  5
C0A9
330
BFA8
100
AcDbEntity
  8
1
  6
Continuous
100
AcDbLine
 10
78.02413900000002
 20
290.545135
 30
0.0
 11
80.0
 21
288.569274
 31
0.0
  0
LINE
  5
C0AA
330
BFA8
100
AcDbEntity
  8
1
  6
Continuous
100
AcDbLine
 10
79.43835200000002
 20
290.545135
 30
0.0
 11
81.414214
 21
288.569274
 31
0.0
  0
LINE
  5
C0AB
330
BFA8
100
AcDbEntity
  8
1
  6
Continuous
100
AcDbLine
 10
80.85256600000002
 20
290.545135
 30
0.0
 11
82.82842700000001
 21
288.569274
 31
0.0
  0
LINE
  5
C0AC
330
BFA8
100
AcDbEntity
  8
1
  6
Continuous
100
AcDbLine
 10
82.266779
 20
290.545135
 30
0.0
 11
84.242641
 21
288.569274
 31
0.0
  0
LINE
  5
C0AD
330
BFA8
100
AcDbEntity
  8
1
  6
Continuous
100
AcDbLine
 10
83.680993
 20
290.545135
 30
0.0
 11
85.65685400000003
 21
288.569274
 31
0.0
  0
LINE
  5
C0AE
330
BFA8
100
AcDbEntity
  8
1
  6
Continuous
100
AcDbLine
 10
85.095206
 20
290.545135
 30
0.0
 11
87.07106800000003
 21
288.569274
 31
0.0
  0
LINE
  5
C0AF
330
BFA8
100
AcDbEntity
  8
1
  6
Continuous
100
AcDbLine
 10
86.50941999999997
 20
290.545135
 30
0.0
 11
88.485282
 21
288.569274
 31
0.0
  0
LINE
  5
C0B0
330
BFA8
100
AcDbEntity
  8
1
  6
Continuous
100
AcDbLine
 10
87.92363399999997
 20
290.545135
 30
0.0
 11
89.89949499999999
 21
288.569274
 31
0.0
  0
LINE
  5
C0B1
330
BFA8
100
AcDbEntity
  8
1
  6
Continuous
100
AcDbLine
 10
89.33784699999998
 20
290.545135
 30
0.0
 11
91.313709
 21
288.569274
 31
0.0
  0
LINE
  5
C0B2
330
BFA8
100
AcDbEntity
  8
1
  6
Continuous
100
AcDbLine
 10
90.752061
 20
290.545135
 30
0.0
 11
92.72792200000001
 21
288.569274
 31
0.0
  0
LINE
  5
C0B3
330
BFA8
100
AcDbEntity
  8
1
  6
Continuous
100
AcDbLine
 10
92.166274
 20
290.545135
 30
0.0
 11
94.142136
 21
288.569274
 31
0.0
  0
LINE
  5
C0B4
330
BFA8
100
AcDbEntity
  8
1
  6
Continuous
100
AcDbLine
 10
93.580488
 20
290.545135
 30
0.0
 11
95.55634899999999
 21
288.569274
 31
0.0
  0
LINE
  5
C0B5
330
BFA8
100
AcDbEntity
  8
1
  6
Continuous
100
AcDbLine
 10
94.99470100000001
 20
290.545135
 30
0.0
 11
96.97056299999999
 21
288.569274
 31
0.0
  0
LINE
  5
C0B6
330
BFA8
100
AcDbEntity
  8
1
  6
Continuous
100
AcDbLine
 10
96.40891500000002
 20
290.545135
 30
0.0
 11
98.384776
 21
288.569274
 31
0.0
  0
LINE
  5
C0B7
330
BFA8
100
AcDbEntity
  8
1
  6
Continuous
100
AcDbLine
 10
97.82312799999999
 20
290.545135
 30
0.0
 11
99.79899000000001
 21
288.569274
 31
0.0
  0
LINE
  5
C0B8
330
BFA8
100
AcDbEntity
  8
1
  6
Continuous
100
AcDbLine
 10
99.237342
 20
290.545135
 30
0.0
 11
101.213204
 21
288.569274
 31
0.0
  0
LINE
  5
C0B9
330
BFA8
100
AcDbEntity
  8
1
  6
Continuous
100
AcDbLine
 10
100.6515559999999
 20
290.545135
 30
0.0
 11
102.6274169999999
 21
288.569274
 31
0.0
  0
LINE
  5
C0BA
330
BFA8
100
AcDbEntity
  8
1
  6
Continuous
100
AcDbLine
 10
102.0657689999999
 20
290.545135
 30
0.0
 11
103.0
 21
289.610904
 31
0.0
  0
LINE
  5
C0BB
330
BFA8
100
AcDbEntity
  8
1
  6
Continuous
100
AcDbLine
 10
76.609925
 20
290.545135
 30
0.0
 11
78.58578699999998
 21
288.569274
 31
0.0
  0
LINE
  5
C0BC
330
BFA8
100
AcDbEntity
  8
1
  6
Continuous
100
AcDbLine
 10
75.195711
 20
290.545135
 30
0.0
 11
77.17157299999998
 21
288.569274
 31
0.0
  0
LINE
  5
C0BD
330
BFA8
100
AcDbEntity
  8
1
  6
Continuous
100
AcDbLine
 10
73.781498
 20
290.545135
 30
0.0
 11
75.75735899999997
 21
288.569274
 31
0.0
  0
LINE
  5
C0BE
330
BFA8
100
AcDbEntity
  8
1
  6
Continuous
100
AcDbLine
 10
72.367284
 20
290.545135
 30
0.0
 11
74.34314599999997
 21
288.569274
 31
0.0
  0
LINE
  5
C0BF
330
BFA8
100
AcDbEntity
  8
1
  6
Continuous
100
AcDbLine
 10
70.95307099999998
 20
290.545135
 30
0.0
 11
72.92893199999999
 21
288.569274
 31
0.0
  0
LINE
  5
C0C0
330
BFA8
100
AcDbEntity
  8
1
  6
Continuous
100
AcDbLine
 10
69.53885699999999
 20
290.545135
 30
0.0
 11
71.514719
 21
288.569274
 31
0.0
  0
LINE
  5
C0C1
330
BFA8
100
AcDbEntity
  8
1
  6
Continuous
100
AcDbLine
 10
68.12464399999999
 20
290.545135
 30
0.0
 11
70.100505
 21
288.569274
 31
0.0
  0
LINE
  5
C0C2
330
BFA8
100
AcDbEntity
  8
1
  6
Continuous
100
AcDbLine
 10
66.71043
 20
290.545135
 30
0.0
 11
68.68629199999999
 21
288.569274
 31
0.0
  0
LINE
  5
C0C3
330
BFA8
100
AcDbEntity
  8
1
  6
Continuous
100
AcDbLine
 10
65.29621699999998
 20
290.545135
 30
0.0
 11
67.27207800000001
 21
288.569274
 31
0.0
  0
LINE
  5
C0C4
330
BFA8
100
AcDbEntity
  8
1
  6
Continuous
100
AcDbLine
 10
63.88200300000001
 20
290.545135
 30
0.0
 11
65.85786500000001
 21
288.569274
 31
0.0
  0
LINE
  5
C0C5
330
BFA8
100
AcDbEntity
  8
1
  6
Continuous
100
AcDbLine
 10
62.467789
 20
290.545135
 30
0.0
 11
64.443651
 21
288.569274
 31
0.0
  0
LINE
  5
C0C6
330
BFA8
100
AcDbEntity
  8
1
  6
Continuous
100
AcDbLine
 10
61.053576
 20
290.545135
 30
0.0
 11
63.029437
 21
288.569274
 31
0.0
  0
LINE
  5
C0C7
330
BFA8
100
AcDbEntity
  8
1
  6
Continuous
100
AcDbLine
 10
59.639362
 20
290.545135
 30
0.0
 11
61.61522399999999
 21
288.569274
 31
0.0
  0
LINE
  5
C0C8
330
BFA8
100
AcDbEntity
  8
1
  6
Continuous
100
AcDbLine
 10
58.225149
 20
290.545135
 30
0.0
 11
60.20101
 21
288.569274
 31
0.0
  0
LINE
  5
C0C9
330
BFA8
100
AcDbEntity
  8
1
  6
Continuous
100
AcDbLine
 10
57.0
 20
290.3560699999999
 30
0.0
 11
58.786797
 21
288.569274
 31
0.0
  0
LINE
  5
C0CA
330
BFA8
100
AcDbEntity
  8
1
  6
Continuous
100
AcDbLine
 10
57.0
 20
288.9418569999999
 30
0.0
 11
57.372583
 21
288.569274
 31
0.0
  0
LINE
  5
C0CB
330
BFA8
100
AcDbEntity
  8
1
  6
Continuous
100
AcDbLine
 10
241.7241379999999
 20
290.545135
 30
0.0
 11
243.6999999999999
 21
288.569274
 31
0.0
  0
LINE
  5
C0CC
330
BFA8
100
AcDbEntity
  8
1
  6
Continuous
100
AcDbLine
 10
239.602818
 20
290.545135
 30
0.0
 11
241.5786799999999
 21
288.569274
 31
0.0
  0
LINE
  5
C0CD
330
BFA8
100
AcDbEntity
  8
1
  6
Continuous
100
AcDbLine
 10
237.481498
 20
290.545135
 30
0.0
 11
239.4573589999999
 21
288.569274
 31
0.0
  0
LINE
  5
C0CE
330
BFA8
100
AcDbEntity
  8
1
  6
Continuous
100
AcDbLine
 10
235.360177
 20
290.545135
 30
0.0
 11
237.336039
 21
288.569274
 31
0.0
  0
LINE
  5
C0CF
330
BFA8
100
AcDbEntity
  8
1
  6
Continuous
100
AcDbLine
 10
233.2388569999999
 20
290.545135
 30
0.0
 11
235.214718
 21
288.569274
 31
0.0
  0
LINE
  5
C0D0
330
BFA8
100
AcDbEntity
  8
1
  6
Continuous
100
AcDbLine
 10
231.1175369999999
 20
290.545135
 30
0.0
 11
233.093398
 21
288.569274
 31
0.0
  0
LINE
  5
C0D1
330
BFA8
100
AcDbEntity
  8
1
  6
Continuous
100
AcDbLine
 10
228.9962159999999
 20
290.545135
 30
0.0
 11
230.9720779999999
 21
288.569274
 31
0.0
  0
LINE
  5
C0D2
330
BFA8
100
AcDbEntity
  8
1
  6
Continuous
100
AcDbLine
 10
226.8748959999999
 20
290.545135
 30
0.0
 11
228.8507569999999
 21
288.569274
 31
0.0
  0
LINE
  5
C0D3
330
BFA8
100
AcDbEntity
  8
1
  6
Continuous
100
AcDbLine
 10
224.7535759999999
 20
290.545135
 30
0.0
 11
226.729437
 21
288.569274
 31
0.0
  0
LINE
  5
C0D4
330
BFA8
100
AcDbEntity
  8
1
  6
Continuous
100
AcDbLine
 10
222.6322549999999
 20
290.545135
 30
0.0
 11
224.608117
 21
288.569274
 31
0.0
  0
LINE
  5
C0D5
330
BFA8
100
AcDbEntity
  8
1
  6
Continuous
100
AcDbLine
 10
220.6999999999999
 20
290.3560699999999
 30
0.0
 11
222.486796
 21
288.569274
 31
0.0
  0
LINE
  5
C0D6
330
BFA8
100
AcDbEntity
  8
1
  6
Continuous
100
AcDbLine
 10
243.8454589999998
 20
290.545135
 30
0.0
 11
245.8213199999999
 21
288.569274
 31
0.0
  0
LINE
  5
C0D7
330
BFA8
100
AcDbEntity
  8
1
  6
Continuous
100
AcDbLine
 10
245.966779
 20
290.545135
 30
0.0
 11
247.942641
 21
288.569274
 31
0.0
  0
LINE
  5
C0D8
330
BFA8
100
AcDbEntity
  8
1
  6
Continuous
100
AcDbLine
 10
248.088099
 20
290.545135
 30
0.0
 11
250.0639609999999
 21
288.569274
 31
0.0
  0
LINE
  5
C0D9
330
BFA8
100
AcDbEntity
  8
1
  6
Continuous
100
AcDbLine
 10
250.20942
 20
290.545135
 30
0.0
 11
252.1852809999999
 21
288.569274
 31
0.0
  0
LINE
  5
C0DA
330
BFA8
100
AcDbEntity
  8
1
  6
Continuous
100
AcDbLine
 10
252.3307399999999
 20
290.545135
 30
0.0
 11
254.3066019999999
 21
288.569274
 31
0.0
  0
LINE
  5
C0DB
330
BFA8
100
AcDbEntity
  8
1
  6
Continuous
100
AcDbLine
 10
254.4520599999999
 20
290.545135
 30
0.0
 11
256.427922
 21
288.569274
 31
0.0
  0
LINE
  5
C0DC
330
BFA8
100
AcDbEntity
  8
1
  6
Continuous
100
AcDbLine
 10
256.5733809999999
 20
290.545135
 30
0.0
 11
258.549242
 21
288.569274
 31
0.0
  0
LINE
  5
C0DD
330
BFA8
100
AcDbEntity
  8
1
  6
Continuous
100
AcDbLine
 10
258.6947009999998
 20
290.545135
 30
0.0
 11
260.6705629999999
 21
288.569274
 31
0.0
  0
LINE
  5
C0DE
330
BFA8
100
AcDbEntity
  8
1
  6
Continuous
100
AcDbLine
 10
260.8160209999999
 20
290.545135
 30
0.0
 11
262.791883
 21
288.569274
 31
0.0
  0
LINE
  5
C0DF
330
BFA8
100
AcDbEntity
  8
1
  6
Continuous
100
AcDbLine
 10
262.9373419999998
 20
290.545135
 30
0.0
 11
264.9132029999999
 21
288.569274
 31
0.0
  0
LINE
  5
C0E0
330
BFA8
100
AcDbEntity
  8
1
  6
Continuous
100
AcDbLine
 10
266.6999999999998
 20
288.903797
 30
0.0
 11
265.058662
 21
290.545135
 31
0.0
  0
LINE
  5
C0E1
330
BFA8
100
AcDbEntity
  8
1
  6
Continuous
100
AcDbLine
 10
245.675861
 20
290.545135
 30
0.0
 11
243.6999999999999
 21
288.569274
 31
0.0
  0
LINE
  5
C0E2
330
BFA8
100
AcDbEntity
  8
1
  6
Continuous
100
AcDbLine
 10
244.261648
 20
290.545135
 30
0.0
 11
242.2857859999998
 21
288.569274
 31
0.0
  0
LINE
  5
C0E3
330
BFA8
100
AcDbEntity
  8
1
  6
Continuous
100
AcDbLine
 10
242.847434
 20
290.545135
 30
0.0
 11
240.871573
 21
288.569274
 31
0.0
  0
LINE
  5
C0E4
330
BFA8
100
AcDbEntity
  8
1
  6
Continuous
100
AcDbLine
 10
241.4332209999999
 20
290.545135
 30
0.0
 11
239.4573589999999
 21
288.569274
 31
0.0
  0
LINE
  5
C0E5
330
BFA8
100
AcDbEntity
  8
1
  6
Continuous
100
AcDbLine
 10
240.0190069999999
 20
290.545135
 30
0.0
 11
238.043146
 21
288.569274
 31
0.0
  0
LINE
  5
C0E6
330
BFA8
100
AcDbEntity
  8
1
  6
Continuous
100
AcDbLine
 10
238.604794
 20
290.545135
 30
0.0
 11
236.6289319999999
 21
288.569274
 31
0.0
  0
LINE
  5
C0E7
330
BFA8
100
AcDbEntity
  8
1
  6
Continuous
100
AcDbLine
 10
237.1905799999999
 20
290.545135
 30
0.0
 11
235.214718
 21
288.569274
 31
0.0
  0
LINE
  5
C0E8
330
BFA8
100
AcDbEntity
  8
1
  6
Continuous
100
AcDbLine
 10
235.776366
 20
290.545135
 30
0.0
 11
233.800505
 21
288.569274
 31
0.0
  0
LINE
  5
C0E9
330
BFA8
100
AcDbEntity
  8
1
  6
Continuous
100
AcDbLine
 10
234.3621529999999
 20
290.545135
 30
0.0
 11
232.386291
 21
288.569274
 31
0.0
  0
LINE
  5
C0EA
330
BFA8
100
AcDbEntity
  8
1
  6
Continuous
100
AcDbLine
 10
232.9479389999999
 20
290.545135
 30
0.0
 11
230.9720779999999
 21
288.569274
 31
0.0
  0
LINE
  5
C0EB
330
BFA8
100
AcDbEntity
  8
1
  6
Continuous
100
AcDbLine
 10
231.5337259999998
 20
290.545135
 30
0.0
 11
229.557864
 21
288.569274
 31
0.0
  0
LINE
  5
C0EC
330
BFA8
100
AcDbEntity
  8
1
  6
Continuous
100
AcDbLine
 10
230.119512
 20
290.545135
 30
0.0
 11
228.1436509999998
 21
288.569274
 31
0.0
  0
LINE
  5
C0ED
330
BFA8
100
AcDbEntity
  8
1
  6
Continuous
100
AcDbLine
 10
228.705299
 20
290.545135
 30
0.0
 11
226.729437
 21
288.569274
 31
0.0
  0
LINE
  5
C0EE
330
BFA8
100
AcDbEntity
  8
1
  6
Continuous
100
AcDbLine
 10
227.291085
 20
290.545135
 30
0.0
 11
225.315224
 21
288.569274
 31
0.0
  0
LINE
  5
C0EF
330
BFA8
100
AcDbEntity
  8
1
  6
Continuous
100
AcDbLine
 10
225.8768719999999
 20
290.545135
 30
0.0
 11
223.90101
 21
288.569274
 31
0.0
  0
LINE
  5
C0F0
330
BFA8
100
AcDbEntity
  8
1
  6
Continuous
100
AcDbLine
 10
224.462658
 20
290.545135
 30
0.0
 11
222.486796
 21
288.569274
 31
0.0
  0
LINE
  5
C0F1
330
BFA8
100
AcDbEntity
  8
1
  6
Continuous
100
AcDbLine
 10
223.048444
 20
290.545135
 30
0.0
 11
221.072583
 21
288.569274
 31
0.0
  0
LINE
  5
C0F2
330
BFA8
100
AcDbEntity
  8
1
  6
Continuous
100
AcDbLine
 10
221.6342309999999
 20
290.545135
 30
0.0
 11
220.6999999999999
 21
289.610904
 31
0.0
  0
LINE
  5
C0F3
330
BFA8
100
AcDbEntity
  8
1
  6
Continuous
100
AcDbLine
 10
247.090075
 20
290.545135
 30
0.0
 11
245.114213
 21
288.569274
 31
0.0
  0
LINE
  5
C0F4
330
BFA8
100
AcDbEntity
  8
1
  6
Continuous
100
AcDbLine
 10
248.5042889999999
 20
290.545135
 30
0.0
 11
246.528427
 21
288.569274
 31
0.0
  0
LINE
  5
C0F5
330
BFA8
100
AcDbEntity
  8
1
  6
Continuous
100
AcDbLine
 10
249.918502
 20
290.545135
 30
0.0
 11
247.942641
 21
288.569274
 31
0.0
  0
LINE
  5
C0F6
330
BFA8
100
AcDbEntity
  8
1
  6
Continuous
100
AcDbLine
 10
251.332716
 20
290.545135
 30
0.0
 11
249.356854
 21
288.569274
 31
0.0
  0
LINE
  5
C0F7
330
BFA8
100
AcDbEntity
  8
1
  6
Continuous
100
AcDbLine
 10
252.7469289999999
 20
290.545135
 30
0.0
 11
250.771068
 21
288.569274
 31
0.0
  0
LINE
  5
C0F8
330
BFA8
100
AcDbEntity
  8
1
  6
Continuous
100
AcDbLine
 10
254.161143
 20
290.545135
 30
0.0
 11
252.1852809999999
 21
288.569274
 31
0.0
  0
LINE
  5
C0F9
330
BFA8
100
AcDbEntity
  8
1
  6
Continuous
100
AcDbLine
 10
255.5753559999998
 20
290.545135
 30
0.0
 11
253.599495
 21
288.569274
 31
0.0
  0
LINE
  5
C0FA
330
BFA8
100
AcDbEntity
  8
1
  6
Continuous
100
AcDbLine
 10
256.98957
 20
290.545135
 30
0.0
 11
255.013708
 21
288.569274
 31
0.0
  0
LINE
  5
C0FB
330
BFA8
100
AcDbEntity
  8
1
  6
Continuous
100
AcDbLine
 10
258.4037829999999
 20
290.545135
 30
0.0
 11
256.427922
 21
288.569274
 31
0.0
  0
LINE
  5
C0FC
330
BFA8
100
AcDbEntity
  8
1
  6
Continuous
100
AcDbLine
 10
259.8179969999999
 20
290.545135
 30
0.0
 11
257.8421349999999
 21
288.569274
 31
0.0
  0
LINE
  5
C0FD
330
BFA8
100
AcDbEntity
  8
1
  6
Continuous
100
AcDbLine
 10
261.232211
 20
290.545135
 30
0.0
 11
259.2563489999998
 21
288.569274
 31
0.0
  0
LINE
  5
C0FE
330
BFA8
100
AcDbEntity
  8
1
  6
Continuous
100
AcDbLine
 10
262.646424
 20
290.545135
 30
0.0
 11
260.6705629999999
 21
288.569274
 31
0.0
  0
LINE
  5
C0FF
330
BFA8
100
AcDbEntity
  8
1
  6
Continuous
100
AcDbLine
 10
264.0606379999999
 20
290.545135
 30
0.0
 11
262.0847759999999
 21
288.569274
 31
0.0
  0
LINE
  5
C100
330
BFA8
100
AcDbEntity
  8
1
  6
Continuous
100
AcDbLine
 10
265.474851
 20
290.545135
 30
0.0
 11
263.4989899999998
 21
288.569274
 31
0.0
  0
LINE
  5
C101
330
BFA8
100
AcDbEntity
  8
1
  6
Continuous
100
AcDbLine
 10
266.6999999999998
 20
290.3560699999999
 30
0.0
 11
264.9132029999999
 21
288.569274
 31
0.0
  0
LINE
  5
C102
330
BFA8
100
AcDbEntity
  8
1
  6
Continuous
100
AcDbLine
 10
266.6999999999998
 20
288.9418569999999
 30
0.0
 11
266.3274169999999
 21
288.569274
 31
0.0
  0
LINE
  5
C103
330
BFA8
100
AcDbEntity
  8
2
  6
Continuous
100
AcDbLine
 10
105.0999999999998
 20
256.8867629999999
 30
0.0
 11
106.4
 21
256.8867629999999
 31
0.0
  0
LINE
  5
C104
330
BFA8
100
AcDbEntity
  8
5
  6
PHANTOM
100
AcDbLine
 10
302.1
 20
244.5632129999999
 30
0.0
 11
261.2999999999999
 21
244.5632129999999
 31
0.0
  0
LINE
  5
C105
330
BFA8
100
AcDbEntity
  8
5
  6
PHANTOM
100
AcDbLine
 10
303.6999999999999
 20
255.5632129999999
 30
0.0
 11
259.6999999999998
 21
255.5632129999999
 31
0.0
  0
LINE
  5
C106
330
BFA8
100
AcDbEntity
  8
5
  6
PHANTOM
100
AcDbLine
 10
305.1
 20
248.5632129999999
 30
0.0
 11
305.1
 21
247.563213
 31
0.0
  0
LINE
  5
C107
330
BFA8
100
AcDbEntity
  8
5
  6
PHANTOM
100
AcDbLine
 10
258.3
 20
248.5632129999999
 30
0.0
 11
258.3
 21
247.563213
 31
0.0
  0
LINE
  5
C108
330
BFA8
100
AcDbEntity
  8
5
  6
PHANTOM
100
AcDbLine
 10
256.6999999999998
 20
252.5632129999999
 30
0.0
 11
256.6999999999998
 21
248.5632129999999
 31
0.0
  0
LINE
  5
C109
330
BFA8
100
AcDbEntity
  8
5
  6
PHANTOM
100
AcDbLine
 10
306.7
 20
252.5632129999999
 30
0.0
 11
306.7
 21
248.5632129999999
 31
0.0
  0
ARC
  5
C10A
330
BFA8
100
AcDbEntity
  8
5
  6
PHANTOM
100
AcDbCircle
 10
302.1
 20
247.563213
 30
0.0
 40
3.0
100
AcDbArc
 50
270.0
 51
0.0
  0
ARC
  5
C10B
330
BFA8
100
AcDbEntity
  8
5
  6
PHANTOM
100
AcDbCircle
 10
261.2999999999999
 20
247.563213
 30
0.0
 40
3.0
100
AcDbArc
 50
180.0
 51
270.0
  0
ARC
  5
C10C
330
BFA8
100
AcDbEntity
  8
5
  6
PHANTOM
100
AcDbCircle
 10
303.6999999999999
 20
252.5632129999999
 30
0.0
 40
3.0
100
AcDbArc
 50
0.0
 51
90.0
  0
ARC
  5
C10D
330
BFA8
100
AcDbEntity
  8
5
  6
PHANTOM
100
AcDbCircle
 10
259.6999999999998
 20
252.5632129999999
 30
0.0
 40
3.0
100
AcDbArc
 50
90.0
 51
180.0
  0
LINE
  5
C10E
330
BFA8
100
AcDbEntity
  8
5
  6
PHANTOM
100
AcDbLine
 10
306.7
 20
248.5632129999999
 30
0.0
 11
256.6999999999998
 21
248.5632129999999
 31
0.0
  0
LINE
  5
C10F
330
BFA8
100
AcDbEntity
  8
4
  6
CENTER
100
AcDbLine
 10
243.6999999999999
 20
302.757111
 30
0.0
 11
243.6999999999999
 21
276.5841029999999
 31
0.0
  0
LINE
  5
C110
330
BFA8
100
AcDbEntity
  8
4
  6
CENTER
100
AcDbLine
 10
311.7003199999999
 20
423.126324
 30
0.0
 11
183.6999999999999
 21
423.126324
 31
0.0
  0
LINE
  5
C111
330
BFA8
100
AcDbEntity
  8
4
  6
CENTER
100
AcDbLine
 10
295.9499999999998
 20
468.1263239999998
 30
0.0
 11
281.4499999999998
 21
468.1263239999998
 31
0.0
  0
LINE
  5
C112
330
BFA8
100
AcDbEntity
  8
4
  6
CENTER
100
AcDbLine
 10
288.7
 20
460.876324
 30
0.0
 11
288.7
 21
475.376324
 31
0.0
  0
LINE
  5
C113
330
BFA8
100
AcDbEntity
  8
4
  6
CENTER
100
AcDbLine
 10
295.9499999999998
 20
378.126324
 30
0.0
 11
281.4499999999998
 21
378.126324
 31
0.0
  0
LINE
  5
C114
330
BFA8
100
AcDbEntity
  8
4
  6
CENTER
100
AcDbLine
 10
288.7
 20
370.876324
 30
0.0
 11
288.7
 21
385.376324
 31
0.0
  0
LINE
  5
C115
330
BFA8
100
AcDbEntity
  8
4
  6
CENTER
100
AcDbLine
 10
205.9499999999999
 20
378.126324
 30
0.0
 11
191.4499999999999
 21
378.126324
 31
0.0
  0
LINE
  5
C116
330
BFA8
100
AcDbEntity
  8
4
  6
CENTER
100
AcDbLine
 10
198.6999999999999
 20
370.876324
 30
0.0
 11
198.6999999999999
 21
385.376324
 31
0.0
  0
LINE
  5
C117
330
BFA8
100
AcDbEntity
  8
4
  6
CENTER
100
AcDbLine
 10
205.9499999999999
 20
468.1263239999998
 30
0.0
 11
191.4499999999999
 21
468.1263239999998
 31
0.0
  0
LINE
  5
C118
330
BFA8
100
AcDbEntity
  8
4
  6
CENTER
100
AcDbLine
 10
198.6999999999999
 20
460.876324
 30
0.0
 11
198.6999999999999
 21
475.376324
 31
0.0
  0
LINE
  5
C119
330
BFA8
100
AcDbEntity
  8
4
  6
CENTER
100
AcDbLine
 10
80.0
 20
301.1652149999998
 30
0.0
 11
80.0
 21
225.5632129999999
 31
0.0
  0
LINE
  5
C11A
330
BFA8
100
AcDbEntity
  8
4
  6
CENTER
100
AcDbLine
 10
243.6999999999999
 20
483.126324
 30
0.0
 11
243.6999999999999
 21
363.126324
 31
0.0
  0
LINE
  5
C11B
330
BFA8
100
AcDbEntity
  8
4
  6
CENTER
100
AcDbLine
 10
281.6999999999998
 20
301.6669729999999
 30
0.0
 11
281.6999999999998
 21
217.5632129999999
 31
0.0
  0
LINE
  5
C11C
330
BFA8
100
AcDbEntity
  8
4
  6
CENTER
100
AcDbLine
 10
245.6999999999999
 20
253.5632129999999
 30
0.0
 11
189.7
 21
253.5632129999999
 31
0.0
  0
LINE
  5
C11D
330
BFA8
100
AcDbEntity
  8
4
  6
CENTER
100
AcDbLine
 10
217.7
 20
225.5632129999999
 30
0.0
 11
217.7
 21
281.5632129999999
 31
0.0
  0
LINE
  5
C11E
330
BFA8
100
AcDbEntity
  8
4
  6
CENTER
100
AcDbLine
 10
288.7
 20
293.306038
 30
0.0
 11
288.7
 21
301.327896
 31
0.0
  0
LINE
  5
C11F
330
BFA8
100
AcDbEntity
  8
4
  6
CENTER
100
AcDbLine
 10
198.6999999999999
 20
293.306038
 30
0.0
 11
198.6999999999999
 21
301.327896
 31
0.0
  0
LINE
  5
C120
330
BFA8
100
AcDbEntity
  8
4
  6
CENTER
100
AcDbLine
 10
35.0
 20
292.6255499999999
 30
0.0
 11
35.0
 21
301.639944
 31
0.0
  0
LINE
  5
C121
330
BFA8
100
AcDbEntity
  8
4
  6
CENTER
100
AcDbLine
 10
125.0
 20
292.6255499999999
 30
0.0
 11
125.0
 21
301.639944
 31
0.0
  0
LINE
  5
C122
330
BFA8
100
AcDbEntity
  8
4
  6
CENTER
100
AcDbLine
 10
54.21603000000001
 20
253.5632629999998
 30
0.0
 11
109.111515
 21
253.5632629999998
 31
0.0
  0
LINE
  5
C123
330
BFA8
100
AcDbEntity
  8
2
  6
Continuous
100
AcDbLine
 10
105.0999999999998
 20
250.2397629999999
 30
0.0
 11
106.4
 21
250.2397629999999
 31
0.0
  0
LINE
  5
C124
330
BFA8
100
AcDbEntity
  8
1
  6
Continuous
100
AcDbLine
 10
288.7
 20
249.563213
 30
0.0
 11
274.6999999999998
 21
249.563213
 31
0.0
  0
LINE
  5
C125
330
BFA8
100
AcDbEntity
  8
2
  6
Continuous
100
AcDbLine
 10
287.6174999999999
 20
249.563213
 30
0.0
 11
288.7
 21
247.688268
 31
0.0
  0
LINE
  5
C126
330
BFA8
100
AcDbEntity
  8
2
  6
Continuous
100
AcDbLine
 10
275.7825
 20
249.563213
 30
0.0
 11
274.6999999999998
 21
247.688268
 31
0.0
  0
LINE
  5
C127
330
BFA8
100
AcDbEntity
  8
2
  6
Continuous
100
AcDbLine
 10
275.7825
 20
262.963221
 30
0.0
 11
275.7825
 21
249.563213
 31
0.0
  0
LINE
  5
C128
330
BFA8
100
AcDbEntity
  8
1
  6
Continuous
100
AcDbLine
 10
297.1999999999998
 20
240.0632129999999
 30
0.0
 11
297.1999999999998
 21
239.563213
 31
0.0
  0
CIRCLE
  5
C129
330
BFA8
100
AcDbEntity
  8
1
  6
Continuous
100
AcDbCircle
 10
217.7
 20
253.5632129999999
 30
0.0
 40
4.000049999999998
  0
CIRCLE
  5
C12A
330
BFA8
100
AcDbEntity
  8
2
  6
Continuous
100
AcDbCircle
 10
217.7
 20
253.5632129999999
 30
0.0
 40
3.32355
  0
LINE
  5
C12B
330
BFA8
100
AcDbEntity
  8
4
  6
CENTER
100
AcDbLine
 10
407.3999999999998
 20
301.1652149999998
 30
0.0
 11
407.3999999999998
 21
217.5632129999999
 31
0.0
  0
LINE
  5
C12C
330
BFA8
100
AcDbEntity
  8
1
  6
Continuous
100
AcDbLine
 10
425.4999999999998
 20
239.9642419999999
 30
0.0
 11
425.4999999999998
 21
239.563073
 31
0.0
  0
LINE
  5
C12D
330
BFA8
100
AcDbEntity
  8
1
  6
Continuous
100
AcDbLine
 10
431.800544
 20
285.9692739999999
 30
0.0
 11
431.800544
 21
258.220808
 31
0.0
  0
LINE
  5
C12E
330
BFA8
100
AcDbEntity
  8
1
  6
Continuous
100
AcDbLine
 10
382.999456
 20
285.9692739999999
 30
0.0
 11
382.999456
 21
258.220808
 31
0.0
  0
LINE
  5
C12F
330
BFA8
100
AcDbEntity
  8
4
  6
CENTER
100
AcDbLine
 10
433.1839699999998
 20
253.5632629999998
 30
0.0
 11
378.2884849999998
 21
253.5632629999998
 31
0.0
  0
LINE
  5
C130
330
BFA8
100
AcDbEntity
  8
1
  6
Continuous
100
AcDbLine
 10
421.3999999999998
 20
269.569346
 30
0.0
 11
421.3999999999998
 21
240.063073
 31
0.0
  0
LINE
  5
C131
330
BFA8
100
AcDbEntity
  8
1
  6
Continuous
100
AcDbLine
 10
421.8999999999998
 20
262.563263
 30
0.0
 11
421.8999999999998
 21
244.5632629999999
 31
0.0
  0
LINE
  5
C132
330
BFA8
100
AcDbEntity
  8
1
  6
Continuous
100
AcDbLine
 10
422.9
 20
269.569346
 30
0.0
 11
422.9
 21
239.563073
 31
0.0
  0
ARC
  5
C133
330
BFA8
100
AcDbEntity
  8
1
  6
Continuous
100
AcDbCircle
 10
401.9093119999998
 20
245.1735129999999
 30
0.0
 40
20.0
100
AcDbArc
 50
347.041919
 51
358.2514909999999
  0
ARC
  5
C134
330
BFA8
100
AcDbEntity
  8
1
  6
Continuous
100
AcDbCircle
 10
421.8999999999998
 20
245.5632629999998
 30
0.0
 40
1.0
100
AcDbArc
 50
270.0
 51
0.0
  0
ARC
  5
C135
330
BFA8
100
AcDbEntity
  8
1
  6
Continuous
100
AcDbCircle
 10
401.9093119999998
 20
261.953013
 30
0.0
 40
20.0
100
AcDbArc
 50
1.748509
 51
12.958081
  0
ARC
  5
C136
330
BFA8
100
AcDbEntity
  8
1
  6
Continuous
100
AcDbCircle
 10
421.8999999999998
 20
261.5632629999999
 30
0.0
 40
1.0
100
AcDbArc
 50
0.0
 51
90.0
  0
LINE
  5
C137
330
BFA8
100
AcDbEntity
  8
1
  6
Continuous
100
AcDbLine
 10
393.3999999999999
 20
269.569346
 30
0.0
 11
393.3999999999999
 21
240.063073
 31
0.0
  0
LINE
  5
C138
330
BFA8
100
AcDbEntity
  8
2
  6
Continuous
100
AcDbLine
 10
382.3
 20
250.2397629999999
 30
0.0
 11
381.0
 21
250.2397629999999
 31
0.0
  0
LINE
  5
C139
330
BFA8
100
AcDbEntity
  8
2
  6
Continuous
100
AcDbLine
 10
382.3
 20
256.8867629999999
 30
0.0
 11
381.0
 21
256.8867629999999
 31
0.0
  0
LINE
  5
C13A
330
BFA8
100
AcDbEntity
  8
1
  6
Continuous
100
AcDbLine
 10
382.3
 20
249.5632629999998
 30
0.0
 11
381.6
 21
249.5632629999998
 31
0.0
  0
LINE
  5
C13B
330
BFA8
100
AcDbEntity
  8
1
  6
Continuous
100
AcDbLine
 10
382.3
 20
257.563263
 30
0.0
 11
381.6
 21
257.563263
 31
0.0
  0
LINE
  5
C13C
330
BFA8
100
AcDbEntity
  8
1
  6
Continuous
100
AcDbLine
 10
392.8999999999999
 20
262.563263
 30
0.0
 11
392.8999999999999
 21
244.5632629999999
 31
0.0
  0
LINE
  5
C13D
330
BFA8
100
AcDbEntity
  8
1
  6
Continuous
100
AcDbLine
 10
391.9
 20
269.569346
 30
0.0
 11
391.9
 21
239.563073
 31
0.0
  0
LINE
  5
C13E
330
BFA8
100
AcDbEntity
  8
1
  6
Continuous
100
AcDbLine
 10
382.3
 20
248.36711
 30
0.0
 11
382.3
 21
258.759415
 31
0.0
  0
ARC
  5
C13F
330
BFA8
100
AcDbEntity
  8
1
  6
Continuous
100
AcDbCircle
 10
412.890688
 20
245.1735129999999
 30
0.0
 40
20.0
100
AcDbArc
 50
181.748509
 51
192.9580809999999
  0
ARC
  5
C140
330
BFA8
100
AcDbEntity
  8
1
  6
Continuous
100
AcDbCircle
 10
392.8999999999999
 20
245.5632629999998
 30
0.0
 40
1.0
100
AcDbArc
 50
180.0
 51
270.0
  0
ARC
  5
C141
330
BFA8
100
AcDbEntity
  8
1
  6
Continuous
100
AcDbCircle
 10
412.890688
 20
261.953013
 30
0.0
 40
20.0
100
AcDbArc
 50
167.041919
 51
178.2514909999999
  0
ARC
  5
C142
330
BFA8
100
AcDbEntity
  8
1
  6
Continuous
100
AcDbCircle
 10
392.8999999999999
 20
261.5632629999999
 30
0.0
 40
1.0
100
AcDbArc
 50
90.0
 51
180.0
  0
LINE
  5
C143
330
BFA8
100
AcDbEntity
  8
1
  6
Continuous
100
AcDbLine
 10
381.6
 20
257.563263
 30
0.0
 11
381.6
 21
249.5632629999998
 31
0.0
  0
LINE
  5
C144
330
BFA8
100
AcDbEntity
  8
1
  6
Continuous
100
AcDbLine
 10
381.0
 20
250.163263
 30
0.0
 11
381.0
 21
256.963263
 31
0.0
  0
LINE
  5
C145
330
BFA8
100
AcDbEntity
  8
1
  6
Continuous
100
AcDbLine
 10
381.0
 20
250.163263
 30
0.0
 11
381.6
 21
249.5632629999998
 31
0.0
  0
LINE
  5
C146
330
BFA8
100
AcDbEntity
  8
1
  6
Continuous
100
AcDbLine
 10
381.0
 20
256.963263
 30
0.0
 11
381.6
 21
257.563263
 31
0.0
  0
LINE
  5
C147
330
BFA8
100
AcDbEntity
  8
1
  6
Continuous
100
AcDbLine
 10
458.869594
 20
295.5633129999998
 30
0.0
 11
355.930406
 21
295.5633129999998
 31
0.0
  0
LINE
  5
C148
330
BFA8
100
AcDbEntity
  8
1
  6
Continuous
100
AcDbLine
 10
433.408349
 20
295.5358529999998
 30
0.0
 11
381.3916509999998
 21
295.5358529999998
 31
0.0
  0
LINE
  5
C149
330
BFA8
100
AcDbEntity
  8
1
  6
Continuous
100
AcDbLine
 10
429.6721589999998
 20
293.7651349999999
 30
0.0
 11
418.3696549999998
 21
293.7651349999999
 31
0.0
  0
LINE
  5
C14A
330
BFA8
100
AcDbEntity
  8
1
  6
Continuous
100
AcDbLine
 10
462.3999999999998
 20
295.9632669999999
 30
0.0
 11
352.4
 21
295.96332
 31
0.0
  0
LINE
  5
C14B
330
BFA8
100
AcDbEntity
  8
1
  6
Continuous
100
AcDbLine
 10
430.3899999999998
 20
292.5301349999998
 30
0.0
 11
418.3696549999998
 21
292.5301349999998
 31
0.0
  0
LINE
  5
C14C
330
BFA8
100
AcDbEntity
  8
1
  6
Continuous
100
AcDbLine
 10
384.3999999999999
 20
288.569274
 30
0.0
 11
396.430345
 21
288.569274
 31
0.0
  0
LINE
  5
C14D
330
BFA8
100
AcDbEntity
  8
1
  6
Continuous
100
AcDbLine
 10
384.3999999999999
 20
290.545135
 30
0.0
 11
396.430345
 21
290.545135
 31
0.0
  0
LINE
  5
C14E
330
BFA8
100
AcDbEntity
  8
4
  6
CENTER
100
AcDbLine
 10
452.4
 20
292.6255499999999
 30
0.0
 11
452.4
 21
301.639944
 31
0.0
  0
LINE
  5
C14F
330
BFA8
100
AcDbEntity
  8
1
  6
Continuous
100
AcDbLine
 10
462.3999999999998
 20
295.9632669999999
 30
0.0
 11
462.3999999999998
 21
298.5633199999999
 31
0.0
  0
ARC
  5
C150
330
BFA8
100
AcDbEntity
  8
1
  6
Continuous
100
AcDbCircle
 10
458.869594
 20
300.763484
 30
0.0
 40
5.200171
100
AcDbArc
 50
270.0
 51
292.6181049999998
  0
LINE
  5
C151
330
BFA8
100
AcDbEntity
  8
1
  6
Continuous
100
AcDbLine
 10
430.4
 20
290.3560699999999
 30
0.0
 11
428.613203
 21
288.569274
 31
0.0
  0
LINE
  5
C152
330
BFA8
100
AcDbEntity
  8
1
  6
Continuous
100
AcDbLine
 10
430.4
 20
288.903797
 30
0.0
 11
428.7586619999998
 21
290.545135
 31
0.0
  0
ARC
  5
C153
330
BFA8
100
AcDbEntity
  8
1
  6
Continuous
100
AcDbCircle
 10
429.2005439999998
 20
285.9692739999999
 30
0.0
 40
2.6
100
AcDbArc
 50
0.0
 51
90.0
  0
ARC
  5
C154
330
BFA8
100
AcDbEntity
  8
1
  6
Continuous
100
AcDbCircle
 10
429.6721589999998
 20
297.376284
 30
0.0
 40
3.611148999999998
100
AcDbArc
 50
270.0
 51
296.2888529999998
  0
LINE
  5
C155
330
BFA8
100
AcDbEntity
  8
1
  6
Continuous
100
AcDbLine
 10
430.4
 20
288.9418569999999
 30
0.0
 11
430.027417
 21
288.569274
 31
0.0
  0
LINE
  5
C156
330
BFA8
100
AcDbEntity
  8
1
  6
Continuous
100
AcDbLine
 10
430.25
 20
290.905135
 30
0.0
 11
430.12
 21
290.545135
 31
0.0
  0
ARC
  5
C157
330
BFA8
100
AcDbEntity
  8
1
  6
Continuous
100
AcDbCircle
 10
426.7885179999998
 20
294.0803629999999
 30
0.0
 40
4.697225
100
AcDbArc
 50
317.4697509999999
 51
333.713305
  0
ARC
  5
C158
330
BFA8
100
AcDbEntity
  8
1
  6
Continuous
100
AcDbCircle
 10
430.126029
 20
291.6102819999998
 30
0.0
 40
0.9569799999999998
100
AcDbArc
 50
24.04026499999999
 51
73.98808699999998
  0
LINE
  5
C159
330
BFA8
100
AcDbEntity
  8
1
  6
Continuous
100
AcDbLine
 10
433.408349
 20
295.5358529999998
 30
0.0
 11
433.410887
 21
295.5633129999998
 31
0.0
  0
ARC
  5
C15A
330
BFA8
100
AcDbEntity
  8
1
  6
Continuous
100
AcDbCircle
 10
426.5593169999998
 20
303.6777269999999
 30
0.0
 40
10.63951799999999
100
AcDbArc
 50
296.2888529999998
 51
310.0709029999998
  0
LINE
  5
C15B
330
BFA8
100
AcDbEntity
  8
1
  6
Continuous
100
AcDbLine
 10
430.4
 20
288.569274
 30
0.0
 11
430.4
 21
290.545135
 31
0.0
  0
LINE
  5
C15C
330
BFA8
100
AcDbEntity
  8
1
  6
Continuous
100
AcDbLine
 10
429.1748509999997
 20
290.545135
 30
0.0
 11
427.19899
 21
288.569274
 31
0.0
  0
LINE
  5
C15D
330
BFA8
100
AcDbEntity
  8
1
  6
Continuous
100
AcDbLine
 10
427.7606379999999
 20
290.545135
 30
0.0
 11
425.7847759999998
 21
288.569274
 31
0.0
  0
LINE
  5
C15E
330
BFA8
100
AcDbEntity
  8
1
  6
Continuous
100
AcDbLine
 10
426.346424
 20
290.545135
 30
0.0
 11
424.370563
 21
288.569274
 31
0.0
  0
LINE
  5
C15F
330
BFA8
100
AcDbEntity
  8
1
  6
Continuous
100
AcDbLine
 10
424.932211
 20
290.545135
 30
0.0
 11
422.956349
 21
288.569274
 31
0.0
  0
LINE
  5
C160
330
BFA8
100
AcDbEntity
  8
1
  6
Continuous
100
AcDbLine
 10
423.5179969999999
 20
290.545135
 30
0.0
 11
421.5421349999998
 21
288.569274
 31
0.0
  0
LINE
  5
C161
330
BFA8
100
AcDbEntity
  8
1
  6
Continuous
100
AcDbLine
 10
422.103783
 20
290.545135
 30
0.0
 11
420.1279219999998
 21
288.569274
 31
0.0
  0
LINE
  5
C162
330
BFA8
100
AcDbEntity
  8
1
  6
Continuous
100
AcDbLine
 10
420.68957
 20
290.545135
 30
0.0
 11
418.713708
 21
288.569274
 31
0.0
  0
LINE
  5
C163
330
BFA8
100
AcDbEntity
  8
1
  6
Continuous
100
AcDbLine
 10
419.2753559999998
 20
290.545135
 30
0.0
 11
418.3696549999998
 21
289.639434
 31
0.0
  0
LINE
  5
C164
330
BFA8
100
AcDbEntity
  8
1
  6
Continuous
100
AcDbLine
 10
426.6373419999998
 20
290.545135
 30
0.0
 11
428.613203
 21
288.569274
 31
0.0
  0
LINE
  5
C165
330
BFA8
100
AcDbEntity
  8
1
  6
Continuous
100
AcDbLine
 10
424.5160209999998
 20
290.545135
 30
0.0
 11
426.491883
 21
288.569274
 31
0.0
  0
LINE
  5
C166
330
BFA8
100
AcDbEntity
  8
1
  6
Continuous
100
AcDbLine
 10
422.3947009999998
 20
290.545135
 30
0.0
 11
424.370563
 21
288.569274
 31
0.0
  0
LINE
  5
C167
330
BFA8
100
AcDbEntity
  8
1
  6
Continuous
100
AcDbLine
 10
420.2733809999998
 20
290.545135
 30
0.0
 11
422.249242
 21
288.569274
 31
0.0
  0
LINE
  5
C168
330
BFA8
100
AcDbEntity
  8
1
  6
Continuous
100
AcDbLine
 10
418.3696549999998
 20
290.32754
 30
0.0
 11
420.1279219999998
 21
288.569274
 31
0.0
  0
ARC
  5
C169
330
BFA8
100
AcDbEntity
  8
1
  6
Continuous
100
AcDbCircle
 10
424.5864179999998
 20
288.9791629999999
 30
0.0
 40
6.206
100
AcDbArc
 50
39.064301
 51
50.460397
  0
LINE
  5
C16A
330
BFA8
100
AcDbEntity
  8
1
  6
Continuous
100
AcDbLine
 10
429.5749999999999
 20
292.5301349999998
 30
0.0
 11
429.4049999999998
 21
292.8901349999998
 31
0.0
  0
ARC
  5
C16B
330
BFA8
100
AcDbEntity
  8
1
  6
Continuous
100
AcDbCircle
 10
388.2406819999998
 20
303.6777269999999
 30
0.0
 40
10.63951799999999
100
AcDbArc
 50
229.929097
 51
243.711147
  0
LINE
  5
C16C
330
BFA8
100
AcDbEntity
  8
1
  6
Continuous
100
AcDbLine
 10
396.430345
 20
288.9133279999999
 30
0.0
 11
396.086291
 21
288.569274
 31
0.0
  0
LINE
  5
C16D
330
BFA8
100
AcDbEntity
  8
1
  6
Continuous
100
AcDbLine
 10
385.334231
 20
290.545135
 30
0.0
 11
384.3999999999999
 21
289.610904
 31
0.0
  0
LINE
  5
C16E
330
BFA8
100
AcDbEntity
  8
1
  6
Continuous
100
AcDbLine
 10
386.748444
 20
290.545135
 30
0.0
 11
384.7725829999999
 21
288.569274
 31
0.0
  0
LINE
  5
C16F
330
BFA8
100
AcDbEntity
  8
1
  6
Continuous
100
AcDbLine
 10
388.162658
 20
290.545135
 30
0.0
 11
386.186796
 21
288.569274
 31
0.0
  0
LINE
  5
C170
330
BFA8
100
AcDbEntity
  8
1
  6
Continuous
100
AcDbLine
 10
389.5768719999999
 20
290.545135
 30
0.0
 11
387.6010099999999
 21
288.569274
 31
0.0
  0
LINE
  5
C171
330
BFA8
100
AcDbEntity
  8
1
  6
Continuous
100
AcDbLine
 10
390.991085
 20
290.545135
 30
0.0
 11
389.0152239999999
 21
288.569274
 31
0.0
  0
LINE
  5
C172
330
BFA8
100
AcDbEntity
  8
1
  6
Continuous
100
AcDbLine
 10
392.405299
 20
290.545135
 30
0.0
 11
390.429437
 21
288.569274
 31
0.0
  0
LINE
  5
C173
330
BFA8
100
AcDbEntity
  8
1
  6
Continuous
100
AcDbLine
 10
393.8195119999999
 20
290.545135
 30
0.0
 11
391.8436509999999
 21
288.569274
 31
0.0
  0
LINE
  5
C174
330
BFA8
100
AcDbEntity
  8
1
  6
Continuous
100
AcDbLine
 10
395.233726
 20
290.545135
 30
0.0
 11
393.257864
 21
288.569274
 31
0.0
  0
LINE
  5
C175
330
BFA8
100
AcDbEntity
  8
1
  6
Continuous
100
AcDbLine
 10
396.430345
 20
290.327541
 30
0.0
 11
394.672078
 21
288.569274
 31
0.0
  0
LINE
  5
C176
330
BFA8
100
AcDbEntity
  8
1
  6
Continuous
100
AcDbLine
 10
384.3999999999999
 20
290.3560699999999
 30
0.0
 11
386.186796
 21
288.569274
 31
0.0
  0
LINE
  5
C177
330
BFA8
100
AcDbEntity
  8
1
  6
Continuous
100
AcDbLine
 10
386.3322549999999
 20
290.545135
 30
0.0
 11
388.308117
 21
288.569274
 31
0.0
  0
LINE
  5
C178
330
BFA8
100
AcDbEntity
  8
1
  6
Continuous
100
AcDbLine
 10
388.4535759999998
 20
290.545135
 30
0.0
 11
390.429437
 21
288.569274
 31
0.0
  0
LINE
  5
C179
330
BFA8
100
AcDbEntity
  8
1
  6
Continuous
100
AcDbLine
 10
390.574896
 20
290.545135
 30
0.0
 11
392.5507569999999
 21
288.569274
 31
0.0
  0
LINE
  5
C17A
330
BFA8
100
AcDbEntity
  8
1
  6
Continuous
100
AcDbLine
 10
392.696216
 20
290.545135
 30
0.0
 11
394.672078
 21
288.569274
 31
0.0
  0
LINE
  5
C17B
330
BFA8
100
AcDbEntity
  8
1
  6
Continuous
100
AcDbLine
 10
394.817537
 20
290.545135
 30
0.0
 11
396.430345
 21
288.9323269999998
 31
0.0
  0
ARC
  5
C17C
330
BFA8
100
AcDbEntity
  8
1
  6
Continuous
100
AcDbCircle
 10
385.5994559999999
 20
285.9692739999999
 30
0.0
 40
2.6
100
AcDbArc
 50
90.0
 51
180.0
  0
LINE
  5
C17D
330
BFA8
100
AcDbEntity
  8
1
  6
Continuous
100
AcDbLine
 10
384.6799999999999
 20
290.545135
 30
0.0
 11
387.5230339999998
 21
290.545135
 31
0.0
  0
ARC
  5
C17E
330
BFA8
100
AcDbEntity
  8
1
  6
Continuous
100
AcDbCircle
 10
390.2135819999998
 20
288.9791629999999
 30
0.0
 40
6.206
100
AcDbArc
 50
129.539603
 51
140.935699
  0
LINE
  5
C17F
330
BFA8
100
AcDbEntity
  8
1
  6
Continuous
100
AcDbLine
 10
384.55
 20
290.905135
 30
0.0
 11
384.6799999999999
 21
290.545135
 31
0.0
  0
ARC
  5
C180
330
BFA8
100
AcDbEntity
  8
1
  6
Continuous
100
AcDbCircle
 10
388.011482
 20
294.0803629999999
 30
0.0
 40
4.697225
100
AcDbArc
 50
206.286695
 51
222.530249
  0
LINE
  5
C181
330
BFA8
100
AcDbEntity
  8
1
  6
Continuous
100
AcDbLine
 10
385.225
 20
292.5301349999998
 30
0.0
 11
385.3949999999999
 21
292.8901349999998
 31
0.0
  0
ARC
  5
C182
330
BFA8
100
AcDbEntity
  8
1
  6
Continuous
100
AcDbCircle
 10
384.67397
 20
291.6102819999998
 30
0.0
 40
0.9569799999999998
100
AcDbArc
 50
106.011913
 51
155.9597349999999
  0
ARC
  5
C183
330
BFA8
100
AcDbEntity
  8
1
  6
Continuous
100
AcDbCircle
 10
385.1278399999998
 20
297.376284
 30
0.0
 40
3.611148999999998
100
AcDbArc
 50
243.711147
 51
270.0
  0
LINE
  5
C184
330
BFA8
100
AcDbEntity
  8
1
  6
Continuous
100
AcDbLine
 10
384.3999999999999
 20
288.569274
 30
0.0
 11
384.3999999999999
 21
290.545135
 31
0.0
  0
LINE
  5
C185
330
BFA8
100
AcDbEntity
  8
4
  6
CENTER
100
AcDbLine
 10
362.3999999999999
 20
292.6255499999999
 30
0.0
 11
362.3999999999999
 21
301.639944
 31
0.0
  0
LINE
  5
C186
330
BFA8
100
AcDbEntity
  8
1
  6
Continuous
100
AcDbLine
 10
381.3916509999998
 20
295.5358529999998
 30
0.0
 11
381.389113
 21
295.5633129999998
 31
0.0
  0
LINE
  5
C187
330
BFA8
100
AcDbEntity
  8
1
  6
Continuous
100
AcDbLine
 10
352.4
 20
298.5633199999999
 30
0.0
 11
352.4
 21
295.96332
 31
0.0
  0
ARC
  5
C188
330
BFA8
100
AcDbEntity
  8
1
  6
Continuous
100
AcDbCircle
 10
355.930406
 20
300.763484
 30
0.0
 40
5.200171
100
AcDbArc
 50
247.3818949999999
 51
270.0
  0
CIRCLE
  5
C189
330
BFA8
100
AcDbEntity
  8
1
  6
Continuous
100
AcDbCircle
 10
597.1
 20
253.5632129999999
 30
0.0
 40
7.0
  0
CIRCLE
  5
C18A
330
BFA8
100
AcDbEntity
  8
1
  6
Continuous
100
AcDbCircle
 10
217.7
 20
253.5632129999999
 30
0.0
 40
7.5
  0
LINE
  5
C18B
330
BFA8
100
AcDbEntity
  8
1
  6
Continuous
100
AcDbLine
 10
432.3999999999998
 20
232.5630729999998
 30
0.0
 11
382.3999999999998
 21
232.5630729999998
 31
0.0
  0
LINE
  5
C18C
330
BFA8
100
AcDbEntity
  8
1
  6
Continuous
100
AcDbLine
 10
429.3999999999998
 20
239.563073
 30
0.0
 11
385.3999999999999
 21
239.563073
 31
0.0
  0
LINE
  5
C18D
330
BFA8
100
AcDbEntity
  8
1
  6
Continuous
100
AcDbLine
 10
427.8
 20
228.563073
 30
0.0
 11
387.0
 21
228.563073
 31
0.0
  0
ARC
  5
C18E
330
BFA8
100
AcDbEntity
  8
1
  6
Continuous
100
AcDbCircle
 10
385.3999999999999
 20
236.5630729999999
 30
0.0
 40
3.0
100
AcDbArc
 50
90.0
 51
180.0
  0
ARC
  5
C18F
330
BFA8
100
AcDbEntity
  8
1
  6
Continuous
100
AcDbCircle
 10
387.0
 20
231.563073
 30
0.0
 40
3.0
100
AcDbArc
 50
180.0
 51
270.0
  0
LINE
  5
C190
330
BFA8
100
AcDbEntity
  8
1
  6
Continuous
100
AcDbLine
 10
382.3999999999998
 20
236.5630729999999
 30
0.0
 11
382.3999999999998
 21
232.5630729999998
 31
0.0
  0
LINE
  5
C191
330
BFA8
100
AcDbEntity
  8
1
  6
Continuous
100
AcDbLine
 10
384.0
 20
232.5630729999998
 30
0.0
 11
384.0
 21
231.563073
 31
0.0
  0
LINE
  5
C192
330
BFA8
100
AcDbEntity
  8
1
  6
Continuous
100
AcDbLine
 10
422.9
 20
240.063073
 30
0.0
 11
391.9
 21
240.063073
 31
0.0
  0
LINE
  5
C193
330
BFA8
100
AcDbEntity
  8
1
  6
Continuous
100
AcDbLine
 10
419.3999999999999
 20
240.5630729999999
 30
0.0
 11
395.3999999999999
 21
240.5630729999999
 31
0.0
  0
LINE
  5
C194
330
BFA8
100
AcDbEntity
  8
1
  6
Continuous
100
AcDbLine
 10
402.5
 20
240.063073
 30
0.0
 11
402.5
 21
240.5630729999999
 31
0.0
  0
LINE
  5
C195
330
BFA8
100
AcDbEntity
  8
1
  6
Continuous
100
AcDbLine
 10
391.9
 20
240.063073
 30
0.0
 11
391.9
 21
239.563073
 31
0.0
  0
LINE
  5
C196
330
BFA8
100
AcDbEntity
  8
1
  6
Continuous
100
AcDbLine
 10
412.3
 20
240.5630729999999
 30
0.0
 11
412.3
 21
240.063073
 31
0.0
  0
LINE
  5
C197
330
BFA8
100
AcDbEntity
  8
1
  6
Continuous
100
AcDbLine
 10
422.9
 20
240.063073
 30
0.0
 11
422.9
 21
239.563073
 31
0.0
  0
ARC
  5
C198
330
BFA8
100
AcDbEntity
  8
1
  6
Continuous
100
AcDbCircle
 10
429.3999999999998
 20
236.5630729999999
 30
0.0
 40
3.0
100
AcDbArc
 50
0.0
 51
90.0
  0
ARC
  5
C199
330
BFA8
100
AcDbEntity
  8
1
  6
Continuous
100
AcDbCircle
 10
427.8
 20
231.563073
 30
0.0
 40
3.0
100
AcDbArc
 50
270.0
 51
0.0
  0
LINE
  5
C19A
330
BFA8
100
AcDbEntity
  8
1
  6
Continuous
100
AcDbLine
 10
432.3999999999998
 20
236.5630729999999
 30
0.0
 11
432.3999999999998
 21
232.5630729999998
 31
0.0
  0
LINE
  5
C19B
330
BFA8
100
AcDbEntity
  8
1
  6
Continuous
100
AcDbLine
 10
430.7999999999998
 20
232.5630729999998
 30
0.0
 11
430.7999999999998
 21
231.563073
 31
0.0
  0
LINE
  5
C19C
330
BFA8
100
AcDbEntity
  8
2
  6
Continuous
100
AcDbLine
 10
401.4825
 20
262.963221
 30
0.0
 11
401.4825
 21
249.563073
 31
0.0
  0
LINE
  5
C19D
330
BFA8
100
AcDbEntity
  8
2
  6
Continuous
100
AcDbLine
 10
413.3174999999998
 20
262.963221
 30
0.0
 11
413.3174999999998
 21
249.563073
 31
0.0
  0
LINE
  5
C19E
330
BFA8
100
AcDbEntity
  8
1
  6
Continuous
100
AcDbLine
 10
400.3999999999998
 20
262.963221
 30
0.0
 11
400.3999999999998
 21
245.563073
 31
0.0
  0
LINE
  5
C19F
330
BFA8
100
AcDbEntity
  8
1
  6
Continuous
100
AcDbLine
 10
414.4
 20
262.963221
 30
0.0
 11
414.4
 21
245.563073
 31
0.0
  0
LINE
  5
C1A0
330
BFA8
100
AcDbEntity
  8
1
  6
Continuous
100
AcDbLine
 10
414.4
 20
249.563073
 30
0.0
 11
400.3999999999998
 21
249.563073
 31
0.0
  0
LINE
  5
C1A1
330
BFA8
100
AcDbEntity
  8
1
  6
Continuous
100
AcDbLine
 10
419.3999999999999
 20
245.563073
 30
0.0
 11
395.3999999999999
 21
245.563073
 31
0.0
  0
LINE
  5
C1A2
330
BFA8
100
AcDbEntity
  8
2
  6
Continuous
100
AcDbLine
 10
401.4825
 20
249.563073
 30
0.0
 11
400.3999999999998
 21
247.6881279999998
 31
0.0
  0
LINE
  5
C1A3
330
BFA8
100
AcDbEntity
  8
2
  6
Continuous
100
AcDbLine
 10
413.3174999999998
 20
249.563073
 30
0.0
 11
414.4
 21
247.6881279999998
 31
0.0
  0
LINE
  5
C1A4
330
BFA8
100
AcDbEntity
  8
1
  6
Continuous
100
AcDbLine
 10
419.3999999999999
 20
245.563073
 30
0.0
 11
419.3999999999999
 21
240.5630729999999
 31
0.0
  0
LINE
  5
C1A5
330
BFA8
100
AcDbEntity
  8
1
  6
Continuous
100
AcDbLine
 10
395.3999999999999
 20
245.563073
 30
0.0
 11
395.3999999999999
 21
240.5630729999999
 31
0.0
  0
ARC
  5
C1A6
330
BFA8
100
AcDbEntity
  8
1
  6
Continuous
100
AcDbCircle
 10
401.4
 20
257.462052
 30
0.0
 40
16.898979
100
AcDbArc
 50
249.2034279999999
 51
290.7965720000001
  0
LINE
  5
C1A7
330
BFA8
100
AcDbEntity
  8
1
  6
Continuous
100
AcDbLine
 10
407.3999999999998
 20
241.664094
 30
0.0
 11
407.3999999999998
 21
245.563073
 31
0.0
  0
ARC
  5
C1A8
330
BFA8
100
AcDbEntity
  8
1
  6
Continuous
100
AcDbCircle
 10
413.3999999999998
 20
257.462052
 30
0.0
 40
16.898979
100
AcDbArc
 50
249.2034279999999
 51
290.7965720000001
  0
LINE
  5
C1A9
330
BFA8
100
AcDbEntity
  8
1
  6
Continuous
100
AcDbLine
 10
398.3023989999999
 20
262.963221
 30
0.0
 11
416.497601
 21
262.963221
 31
0.0
  0
ARC
  5
C1AA
330
BFA8
100
AcDbEntity
  8
1
  6
Continuous
100
AcDbCircle
 10
418.9
 20
282.9693459999999
 30
0.0
 40
4.599999999999997
100
AcDbArc
 50
0.0
 51
90.0
  0
LINE
  5
C1AB
330
BFA8
100
AcDbEntity
  8
1
  6
Continuous
100
AcDbLine
 10
423.5
 20
282.9693459999999
 30
0.0
 11
423.5
 21
269.569346
 31
0.0
  0
LINE
  5
C1AC
330
BFA8
100
AcDbEntity
  8
1
  6
Continuous
100
AcDbLine
 10
425.5894579999998
 20
269.569346
 30
0.0
 11
389.210542
 21
269.569346
 31
0.0
  0
LINE
  5
C1AD
330
BFA8
100
AcDbEntity
  8
1
  6
Continuous
100
AcDbLine
 10
391.3
 20
282.9693459999999
 30
0.0
 11
391.3
 21
269.569346
 31
0.0
  0
ARC
  5
C1AE
330
BFA8
100
AcDbEntity
  8
1
  6
Continuous
100
AcDbCircle
 10
395.8999999999999
 20
282.9693459999999
 30
0.0
 40
4.599999999999997
100
AcDbArc
 50
90.0
 51
180.0
  0
LINE
  5
C1AF
330
BFA8
100
AcDbEntity
  8
1
  6
Continuous
100
AcDbLine
 10
395.8999999999999
 20
287.5693459999999
 30
0.0
 11
418.9
 21
287.5693459999999
 31
0.0
  0
LINE
  5
C1B0
330
BFA8
100
AcDbEntity
  8
1
  6
Continuous
100
AcDbLine
 10
401.9151719999999
 20
269.569346
 30
0.0
 11
401.9151719999999
 21
264.463293
 31
0.0
  0
LINE
  5
C1B1
330
BFA8
100
AcDbEntity
  8
1
  6
Continuous
100
AcDbLine
 10
418.3696549999998
 20
269.569346
 30
0.0
 11
418.3696549999998
 21
264.044052
 31
0.0
  0
LINE
  5
C1B2
330
BFA8
100
AcDbEntity
  8
1
  6
Continuous
100
AcDbLine
 10
412.8848279999998
 20
269.569346
 30
0.0
 11
412.8848279999998
 21
264.463293
 31
0.0
  0
ARC
  5
C1B3
330
BFA8
100
AcDbEntity
  8
1
  6
Continuous
100
AcDbCircle
 10
407.3999999999998
 20
273.7405519999999
 30
0.0
 40
10.777331
100
AcDbArc
 50
239.407908
 51
300.5920919999998
  0
ARC
  5
C1B4
330
BFA8
100
AcDbEntity
  8
1
  6
Continuous
100
AcDbCircle
 10
415.627241
 20
266.2200809999998
 30
0.0
 40
3.256859999999998
100
AcDbArc
 50
212.643586
 51
301.527
  0
LINE
  5
C1B5
330
BFA8
100
AcDbEntity
  8
1
  6
Continuous
100
AcDbLine
 10
412.8848279999998
 20
295.5633129999998
 30
0.0
 11
412.8848279999998
 21
287.5693459999999
 31
0.0
  0
LINE
  5
C1B6
330
BFA8
100
AcDbEntity
  8
1
  6
Continuous
100
AcDbLine
 10
418.3696549999998
 20
295.5633129999998
 30
0.0
 11
418.3696549999998
 21
287.5693459999999
 31
0.0
  0
LINE
  5
C1B7
330
BFA8
100
AcDbEntity
  8
1
  6
Continuous
100
AcDbLine
 10
396.430345
 20
295.5633129999998
 30
0.0
 11
396.430345
 21
287.5693459999999
 31
0.0
  0
LINE
  5
C1B8
330
BFA8
100
AcDbEntity
  8
1
  6
Continuous
100
AcDbLine
 10
401.9151719999999
 20
295.5633129999998
 30
0.0
 11
401.9151719999999
 21
287.5693459999999
 31
0.0
  0
LINE
  5
C1B9
330
BFA8
100
AcDbEntity
  8
1
  6
Continuous
100
AcDbLine
 10
418.3696549999998
 20
288.569274
 30
0.0
 11
430.4
 21
288.569274
 31
0.0
  0
LINE
  5
C1BA
330
BFA8
100
AcDbEntity
  8
1
  6
Continuous
100
AcDbLine
 10
418.3696549999998
 20
290.545135
 30
0.0
 11
430.4
 21
290.545135
 31
0.0
  0
LINE
  5
C1BB
330
BFA8
100
AcDbEntity
  8
1
  6
Continuous
100
AcDbLine
 10
396.430345
 20
292.5301349999998
 30
0.0
 11
384.4099979999999
 21
292.5301349999998
 31
0.0
  0
LINE
  5
C1BC
330
BFA8
100
AcDbEntity
  8
1
  6
Continuous
100
AcDbLine
 10
396.430345
 20
293.7651349999999
 30
0.0
 11
385.1278399999998
 21
293.7651349999999
 31
0.0
  0
LINE
  5
C1BD
330
BFA8
100
AcDbEntity
  8
1
  6
Continuous
100
AcDbLine
 10
418.3696549999998
 20
264.044052
 30
0.0
 11
416.497601
 21
262.963221
 31
0.0
  0
ARC
  5
C1BE
330
BFA8
100
AcDbEntity
  8
1
  6
Continuous
100
AcDbCircle
 10
399.1727589999999
 20
266.2200809999998
 30
0.0
 40
3.256859999999998
100
AcDbArc
 50
238.4729999999999
 51
327.3564139999999
  0
LINE
  5
C1BF
330
BFA8
100
AcDbEntity
  8
1
  6
Continuous
100
AcDbLine
 10
396.430345
 20
264.044052
 30
0.0
 11
398.3023989999999
 21
262.963221
 31
0.0
  0
LINE
  5
C1C0
330
BFA8
100
AcDbEntity
  8
1
  6
Continuous
100
AcDbLine
 10
396.430345
 20
269.569346
 30
0.0
 11
396.430345
 21
264.044052
 31
0.0
  0
LINE
  5
C1C1
330
BFA8
100
AcDbEntity
  8
1
  6
Continuous
100
AcDbLine
 10
288.7
 20
41.0
 30
0.0
 11
198.6999999999999
 21
41.0
 31
0.0
  0
LINE
  5
C1C2
330
BFA8
100
AcDbEntity
  8
1
  6
Continuous
100
AcDbLine
 10
288.7
 20
151.0
 30
0.0
 11
198.6999999999999
 21
151.0
 31
0.0
  0
CIRCLE
  5
C1C3
330
BFA8
100
AcDbEntity
  8
1
  6
Continuous
100
AcDbCircle
 10
198.6999999999999
 20
51.0
 30
0.0
 40
4.25
  0
CIRCLE
  5
C1C4
330
BFA8
100
AcDbEntity
  8
1
  6
Continuous
100
AcDbCircle
 10
198.6999999999999
 20
141.0
 30
0.0
 40
4.25
  0
LINE
  5
C1C5
330
BFA8
100
AcDbEntity
  8
4
  6
CENTER
100
AcDbLine
 10
311.7003199999999
 20
96.0
 30
0.0
 11
183.6999999999999
 21
96.0
 31
0.0
  0
LINE
  5
C1C6
330
BFA8
100
AcDbEntity
  8
4
  6
CENTER
100
AcDbLine
 10
205.9499999999999
 20
141.0
 30
0.0
 11
191.4499999999999
 21
141.0
 31
0.0
  0
LINE
  5
C1C7
330
BFA8
100
AcDbEntity
  8
4
  6
CENTER
100
AcDbLine
 10
205.9499999999999
 20
51.0
 30
0.0
 11
191.4499999999999
 21
51.0
 31
0.0
  0
LINE
  5
C1C8
330
BFA8
100
AcDbEntity
  8
1
  6
Continuous
100
AcDbLine
 10
188.7
 20
51.0
 30
0.0
 11
188.7
 21
141.0
 31
0.0
  0
ARC
  5
C1C9
330
BFA8
100
AcDbEntity
  8
1
  6
Continuous
100
AcDbCircle
 10
198.6999999999999
 20
141.0
 30
0.0
 40
10.0
100
AcDbArc
 50
90.0
 51
180.0
  0
LINE
  5
C1CA
330
BFA8
100
AcDbEntity
  8
4
  6
CENTER
100
AcDbLine
 10
198.6999999999999
 20
148.2499999999998
 30
0.0
 11
198.6999999999999
 21
133.75
 31
0.0
  0
ARC
  5
C1CB
330
BFA8
100
AcDbEntity
  8
1
  6
Continuous
100
AcDbCircle
 10
198.6999999999999
 20
51.0
 30
0.0
 40
10.0
100
AcDbArc
 50
180.0
 51
270.0
  0
LINE
  5
C1CC
330
BFA8
100
AcDbEntity
  8
4
  6
CENTER
100
AcDbLine
 10
198.6999999999999
 20
58.25
 30
0.0
 11
198.6999999999999
 21
43.75
 31
0.0
  0
LINE
  5
C1CD
330
BFA8
100
AcDbEntity
  8
1
  6
Continuous
100
AcDbLine
 10
298.7
 20
141.0
 30
0.0
 11
298.7
 21
114.330321
 31
0.0
  0
LINE
  5
C1CE
330
BFA8
100
AcDbEntity
  8
4
  6
CENTER
100
AcDbLine
 10
243.6999999999999
 20
36.0
 30
0.0
 11
243.6999999999999
 21
156.0
 31
0.0
  0
ARC
  5
C1CF
330
BFA8
100
AcDbEntity
  8
1
  6
Continuous
100
AcDbCircle
 10
288.7
 20
141.0
 30
0.0
 40
10.0
100
AcDbArc
 50
0.0
 51
90.0
  0
CIRCLE
  5
C1D0
330
BFA8
100
AcDbEntity
  8
1
  6
Continuous
100
AcDbCircle
 10
288.7
 20
141.0
 30
0.0
 40
4.25
  0
LINE
  5
C1D1
330
BFA8
100
AcDbEntity
  8
4
  6
CENTER
100
AcDbLine
 10
295.9499999999998
 20
141.0
 30
0.0
 11
281.4499999999998
 21
141.0
 31
0.0
  0
LINE
  5
C1D2
330
BFA8
100
AcDbEntity
  8
4
  6
CENTER
100
AcDbLine
 10
288.7
 20
148.2499999999998
 30
0.0
 11
288.7
 21
133.75
 31
0.0
  0
ARC
  5
C1D3
330
BFA8
100
AcDbEntity
  8
1
  6
Continuous
100
AcDbCircle
 10
288.7
 20
51.0
 30
0.0
 40
10.0
100
AcDbArc
 50
270.0
 51
0.0
  0
CIRCLE
  5
C1D4
330
BFA8
100
AcDbEntity
  8
1
  6
Continuous
100
AcDbCircle
 10
288.7
 20
51.0
 30
0.0
 40
4.25
  0
LINE
  5
C1D5
330
BFA8
100
AcDbEntity
  8
4
  6
CENTER
100
AcDbLine
 10
295.9499999999998
 20
51.0
 30
0.0
 11
281.4499999999998
 21
51.0
 31
0.0
  0
LINE
  5
C1D6
330
BFA8
100
AcDbEntity
  8
4
  6
CENTER
100
AcDbLine
 10
288.7
 20
58.25
 30
0.0
 11
288.7
 21
43.75
 31
0.0
  0
CIRCLE
  5
C1D7
330
BFA8
100
AcDbEntity
  8
1
  6
Continuous
100
AcDbCircle
 10
281.7000199999998
 20
96.0
 30
0.0
 40
25.0
  0
CIRCLE
  5
C1D8
330
BFA8
100
AcDbEntity
  8
1
  6
Continuous
100
AcDbCircle
 10
281.7000199999998
 20
96.0
 30
0.0
 40
23.39999999999999
  0
LINE
  5
C1D9
330
BFA8
100
AcDbEntity
  8
4
  6
CENTER
100
AcDbLine
 10
281.6999999999998
 20
126.0
 30
0.0
 11
281.6999999999998
 21
66.0
 31
0.0
  0
LINE
  5
C1DA
330
BFA8
100
AcDbEntity
  8
1
  6
Continuous
100
AcDbLine
 10
298.7
 20
77.669679
 30
0.0
 11
298.7
 21
51.0
 31
0.0
  0
LINE
  5
C1DB
330
BFA8
100
AcDbEntity
  8
4
  6
CENTER
100
AcDbLine
 10
217.7
 20
67.9
 30
0.0
 11
217.7
 21
127.407375
 31
0.0
  0
ARC
  5
C1DC
330
BFA8
100
AcDbEntity
  8
1
  6
Continuous
100
AcDbCircle
 10
162.6999999999999
 20
96.0
 30
0.0
 40
80.0
100
AcDbArc
 50
351.864529
 51
8.135471
  0
ARC
  5
C1DD
330
BFA8
100
AcDbEntity
  8
1
  6
Continuous
100
AcDbCircle
 10
239.915027
 20
84.961899
 30
0.0
 40
2.0
100
AcDbArc
 50
290.4744009999999
 51
351.864529
  0
LINE
  5
C1DE
330
BFA8
100
AcDbEntity
  8
1
  6
Continuous
100
AcDbLine
 10
224.6999999999999
 20
75.573762
 30
0.0
 11
210.6999999999999
 21
75.573762
 31
0.0
  0
ARC
  5
C1DF
330
BFA8
100
AcDbEntity
  8
1
  6
Continuous
100
AcDbCircle
 10
217.7
 20
83.40000000000001
 30
0.0
 40
10.5
100
AcDbArc
 50
228.1896849999998
 51
311.810315
  0
LINE
  5
C1E0
330
BFA8
100
AcDbEntity
  8
1
  6
Continuous
100
AcDbLine
 10
208.6999999999999
 20
81.5
 30
0.0
 11
226.6999999999999
 21
81.5
 31
0.0
  0
LINE
  5
C1E1
330
BFA8
100
AcDbEntity
  8
1
  6
Continuous
100
AcDbLine
 10
197.6999999999999
 20
82.0
 30
0.0
 11
237.6999999999999
 21
82.0
 31
0.0
  0
ARC
  5
C1E2
330
BFA8
100
AcDbEntity
  8
1
  6
Continuous
100
AcDbCircle
 10
226.08975
 20
101.490688
 30
0.0
 40
20.0
100
AcDbArc
 50
271.748509
 51
282.9580809999999
  0
ARC
  5
C1E3
330
BFA8
100
AcDbEntity
  8
1
  6
Continuous
100
AcDbCircle
 10
225.7
 20
81.5
 30
0.0
 40
1.0
100
AcDbArc
 50
270.0
 51
0.0
  0
LINE
  5
C1E4
330
BFA8
100
AcDbEntity
  8
1
  6
Continuous
100
AcDbLine
 10
224.6999999999999
 20
75.573762
 30
0.0
 11
224.6999999999999
 21
77.9
 31
0.0
  0
LINE
  5
C1E5
330
BFA8
100
AcDbEntity
  8
1
  6
Continuous
100
AcDbLine
 10
237.6999999999999
 20
82.0
 30
0.0
 11
240.6146049999999
 21
83.08824200000001
 31
0.0
  0
ARC
  5
C1E6
330
BFA8
100
AcDbEntity
  8
1
  6
Continuous
100
AcDbCircle
 10
209.31025
 20
101.490688
 30
0.0
 40
20.0
100
AcDbArc
 50
257.0419189999999
 51
268.251491
  0
LINE
  5
C1E7
330
BFA8
100
AcDbEntity
  8
1
  6
Continuous
100
AcDbLine
 10
210.6999999999999
 20
75.573762
 30
0.0
 11
210.6999999999999
 21
77.9
 31
0.0
  0
ARC
  5
C1E8
330
BFA8
100
AcDbEntity
  8
1
  6
Continuous
100
AcDbCircle
 10
209.6999999999999
 20
81.5
 30
0.0
 40
1.0
100
AcDbArc
 50
180.0
 51
270.0
  0
ARC
  5
C1E9
330
BFA8
100
AcDbEntity
  8
1
  6
Continuous
100
AcDbCircle
 10
239.915027
 20
107.0381009999999
 30
0.0
 40
2.0
100
AcDbArc
 50
8.135471
 51
69.525599
  0
LINE
  5
C1EA
330
BFA8
100
AcDbEntity
  8
1
  6
Continuous
100
AcDbLine
 10
196.480884
 20
114.1
 30
0.0
 11
225.5126579999999
 21
114.1
 31
0.0
  0
LINE
  5
C1EB
330
BFA8
100
AcDbEntity
  8
2
  6
Continuous
100
AcDbLine
 10
221.0235
 20
121.1
 30
0.0
 11
221.0235
 21
122.3999999999999
 31
0.0
  0
LINE
  5
C1EC
330
BFA8
100
AcDbEntity
  8
2
  6
Continuous
100
AcDbLine
 10
214.3765
 20
121.1
 30
0.0
 11
214.3765
 21
122.3999999999999
 31
0.0
  0
LINE
  5
C1ED
330
BFA8
100
AcDbEntity
  8
1
  6
Continuous
100
AcDbLine
 10
221.7
 20
121.1
 30
0.0
 11
221.7
 21
121.7999999999999
 31
0.0
  0
LINE
  5
C1EE
330
BFA8
100
AcDbEntity
  8
1
  6
Continuous
100
AcDbLine
 10
213.7
 20
121.1
 30
0.0
 11
213.7
 21
121.7999999999999
 31
0.0
  0
LINE
  5
C1EF
330
BFA8
100
AcDbEntity
  8
1
  6
Continuous
100
AcDbLine
 10
225.1999999999999
 20
116.1
 30
0.0
 11
210.1999999999999
 21
116.1
 31
0.0
  0
LINE
  5
C1F0
330
BFA8
100
AcDbEntity
  8
1
  6
Continuous
100
AcDbLine
 10
208.6999999999999
 20
110.4999999999999
 30
0.0
 11
226.6999999999999
 21
110.4999999999999
 31
0.0
  0
LINE
  5
C1F1
330
BFA8
100
AcDbEntity
  8
1
  6
Continuous
100
AcDbLine
 10
197.6999999999999
 20
110.0
 30
0.0
 11
237.6999999999999
 21
110.0
 31
0.0
  0
LINE
  5
C1F2
330
BFA8
100
AcDbEntity
  8
1
  6
Continuous
100
AcDbLine
 10
195.399509
 20
111.4999999999999
 30
0.0
 11
225.7
 21
111.4999999999999
 31
0.0
  0
ARC
  5
C1F3
330
BFA8
100
AcDbEntity
  8
1
  6
Continuous
100
AcDbCircle
 10
226.08975
 20
90.50931199999999
 30
0.0
 40
20.0
100
AcDbArc
 50
77.04191899999996
 51
88.251491
  0
ARC
  5
C1F4
330
BFA8
100
AcDbEntity
  8
1
  6
Continuous
100
AcDbCircle
 10
225.7
 20
110.4999999999999
 30
0.0
 40
1.0
100
AcDbArc
 50
0.0
 51
90.0
  0
LINE
  5
C1F5
330
BFA8
100
AcDbEntity
  8
1
  6
Continuous
100
AcDbLine
 10
225.1999999999999
 20
114.1
 30
0.0
 11
225.1999999999999
 21
116.1
 31
0.0
  0
LINE
  5
C1F6
330
BFA8
100
AcDbEntity
  8
1
  6
Continuous
100
AcDbLine
 10
237.6999999999999
 20
110.0
 30
0.0
 11
240.6146049999999
 21
108.911758
 31
0.0
  0
ARC
  5
C1F7
330
BFA8
100
AcDbEntity
  8
1
  6
Continuous
100
AcDbCircle
 10
209.31025
 20
90.50931199999999
 30
0.0
 40
20.0
100
AcDbArc
 50
91.748509
 51
102.958081
  0
LINE
  5
C1F8
330
BFA8
100
AcDbEntity
  8
1
  6
Continuous
100
AcDbLine
 10
210.1999999999999
 20
114.1
 30
0.0
 11
210.1999999999999
 21
116.1
 31
0.0
  0
ARC
  5
C1F9
330
BFA8
100
AcDbEntity
  8
1
  6
Continuous
100
AcDbCircle
 10
209.6999999999999
 20
110.4999999999999
 30
0.0
 40
1.0
100
AcDbArc
 50
90.0
 51
180.0
  0
LINE
  5
C1FA
330
BFA8
100
AcDbEntity
  8
1
  6
Continuous
100
AcDbLine
 10
213.7
 20
121.7999999999999
 30
0.0
 11
221.7
 21
121.7999999999999
 31
0.0
  0
LINE
  5
C1FB
330
BFA8
100
AcDbEntity
  8
1
  6
Continuous
100
AcDbLine
 10
221.0999999999999
 20
122.3999999999999
 30
0.0
 11
214.3
 21
122.3999999999999
 31
0.0
  0
LINE
  5
C1FC
330
BFA8
100
AcDbEntity
  8
1
  6
Continuous
100
AcDbLine
 10
221.0999999999999
 20
122.3999999999999
 30
0.0
 11
221.7
 21
121.7999999999999
 31
0.0
  0
LINE
  5
C1FD
330
BFA8
100
AcDbEntity
  8
1
  6
Continuous
100
AcDbLine
 10
214.3
 20
122.3999999999999
 30
0.0
 11
213.7
 21
121.7999999999999
 31
0.0
  0
ARC
  5
C1FE
330
BFA8
100
AcDbEntity
  8
1
  6
Continuous
100
AcDbCircle
 10
272.6999999999998
 20
96.0
 30
0.0
 40
80.0
100
AcDbArc
 50
171.8645289999998
 51
188.135471
  0
ARC
  5
C1FF
330
BFA8
100
AcDbEntity
  8
1
  6
Continuous
100
AcDbCircle
 10
195.484973
 20
84.961899
 30
0.0
 40
2.0
100
AcDbArc
 50
188.135471
 51
249.525599
  0
LINE
  5
C200
330
BFA8
100
AcDbEntity
  8
1
  6
Continuous
100
AcDbLine
 10
197.6999999999999
 20
82.0
 30
0.0
 11
194.785395
 21
83.08824200000001
 31
0.0
  0
ARC
  5
C201
330
BFA8
100
AcDbEntity
  8
1
  6
Continuous
100
AcDbCircle
 10
195.484973
 20
107.0381009999999
 30
0.0
 40
2.0
100
AcDbArc
 50
110.474401
 51
171.8645289999998
  0
LINE
  5
C202
330
BFA8
100
AcDbEntity
  8
1
  6
Continuous
100
AcDbLine
 10
197.6999999999999
 20
110.0
 30
0.0
 11
194.785395
 21
108.911758
 31
0.0
  0
ARC
  5
C203
330
BFA8
100
AcDbEntity
  8
1
  6
Continuous
100
AcDbCircle
 10
264.380659
 20
96.0
 30
0.0
 40
72.636893
100
AcDbArc
 50
167.542649
 51
192.4573509999999
  0
ARC
  5
C204
330
BFA8
100
AcDbEntity
  8
1
  6
Continuous
100
AcDbCircle
 10
245.447533
 20
96.0
 30
0.0
 40
52.747533
100
AcDbArc
 50
163.3158889999999
 51
166.189786
  0
ARC
  5
C205
330
BFA8
100
AcDbEntity
  8
1
  6
Continuous
100
AcDbCircle
 10
195.399509
 20
111.0
 30
0.0
 40
0.5
100
AcDbArc
 50
90.0
 51
163.3158889999999
  0
ARC
  5
C206
330
BFA8
100
AcDbEntity
  8
1
  6
Continuous
100
AcDbCircle
 10
195.399509
 20
81.0
 30
0.0
 40
0.5
100
AcDbArc
 50
196.684111
 51
270.0
  0
ARC
  5
C207
330
BFA8
100
AcDbEntity
  8
1
  6
Continuous
100
AcDbCircle
 10
196.480884
 20
81.0
 30
0.0
 40
3.1
100
AcDbArc
 50
192.4573509999999
 51
270.0
  0
ARC
  5
C208
330
BFA8
100
AcDbEntity
  8
1
  6
Continuous
100
AcDbCircle
 10
196.480884
 20
111.0
 30
0.0
 40
3.1
100
AcDbArc
 50
90.0
 51
167.542649
  0
ARC
  5
C209
330
BFA8
100
AcDbEntity
  8
1
  6
Continuous
100
AcDbCircle
 10
245.447533
 20
96.0
 30
0.0
 40
52.747533
100
AcDbArc
 50
193.8102139999999
 51
196.684111
  0
ARC
  5
C20A
330
BFA8
100
AcDbEntity
  8
1
  6
Continuous
100
AcDbCircle
 10
281.6999999999998
 20
102.4999999999999
 30
0.0
 40
6.5
100
AcDbArc
 50
0.0
 51
180.0
  0
LINE
  5
C20B
330
BFA8
100
AcDbEntity
  8
1
  6
Continuous
100
AcDbLine
 10
288.2
 20
102.4999999999999
 30
0.0
 11
288.2
 21
96.0
 31
0.0
  0
LINE
  5
C20C
330
BFA8
100
AcDbEntity
  8
1
  6
Continuous
100
AcDbLine
 10
275.1999999999998
 20
102.4999999999999
 30
0.0
 11
275.1999999999998
 21
96.0
 31
0.0
  0
CIRCLE
  5
C20D
330
BFA8
100
AcDbEntity
  8
1
  6
Continuous
100
AcDbCircle
 10
281.6999999999998
 20
96.0
 30
0.0
 40
3.5
  0
LINE
  5
C20E
330
BFA8
100
AcDbEntity
  8
1
  6
Continuous
100
AcDbLine
 10
281.6999999999998
 20
96.92897999999999
 30
0.0
 11
281.207214
 21
97.108339
 31
0.0
  0
LINE
  5
C20F
330
BFA8
100
AcDbEntity
  8
1
  6
Continuous
100
AcDbLine
 10
281.6999999999998
 20
96.92897999999999
 30
0.0
 11
282.192786
 21
97.108339
 31
0.0
  0
LINE
  5
C210
330
BFA8
100
AcDbEntity
  8
1
  6
Continuous
100
AcDbLine
 10
282.8083389999998
 20
96.492786
 30
0.0
 11
283.4158049999999
 21
97.12183500000001
 31
0.0
  0
LINE
  5
C211
330
BFA8
100
AcDbEntity
  8
1
  6
Continuous
100
AcDbLine
 10
280.591661
 20
96.492786
 30
0.0
 11
279.984195
 21
97.12183500000001
 31
0.0
  0
ARC
  5
C212
330
BFA8
100
AcDbEntity
  8
1
  6
Continuous
100
AcDbCircle
 10
281.6999999999998
 20
96.0
 30
0.0
 40
4.299999999999998
100
AcDbArc
 50
5.886828999999999
 51
64.113162
  0
ARC
  5
C213
330
BFA8
100
AcDbEntity
  8
1
  6
Continuous
100
AcDbCircle
 10
281.6999999999998
 20
96.0
 30
0.0
 40
4.299999999999998
100
AcDbArc
 50
115.8868629999999
 51
174.113188
  0
ARC
  5
C214
330
BFA8
100
AcDbEntity
  8
1
  6
Continuous
100
AcDbCircle
 10
281.6999999999998
 20
96.0
 30
0.0
 40
5.5
100
AcDbArc
 50
318.5691279999999
 51
221.430826
  0
ARC
  5
C215
330
BFA8
100
AcDbEntity
  8
1
  6
Continuous
100
AcDbCircle
 10
281.6999999999998
 20
96.0
 30
0.0
 40
6.5
100
AcDbArc
 50
180.0
 51
0.0
  0
LINE
  5
C216
330
BFA8
100
AcDbEntity
  8
1
  6
Continuous
100
AcDbLine
 10
277.8205669999999
 20
96.0
 30
0.0
 11
278.2
 21
96.0
 31
0.0
  0
ARC
  5
C217
330
BFA8
100
AcDbEntity
  8
1
  6
Continuous
100
AcDbCircle
 10
277.8205669999999
 20
96.40000200000001
 30
0.0
 40
0.4
100
AcDbArc
 50
174.1132429999999
 51
270.000001
  0
LINE
  5
C218
330
BFA8
100
AcDbEntity
  8
1
  6
Continuous
100
AcDbLine
 10
278.2226609999999
 20
92.42525500000001
 30
0.0
 11
279.0004259999999
 21
93.77237800000001
 31
0.0
  0
ARC
  5
C219
330
BFA8
100
AcDbEntity
  8
1
  6
Continuous
100
AcDbCircle
 10
277.87625
 20
92.625252
 30
0.0
 40
0.4
100
AcDbArc
 50
221.430871
 51
329.999948
  0
ARC
  5
C21A
330
BFA8
100
AcDbEntity
  8
1
  6
Continuous
100
AcDbCircle
 10
281.6999999999998
 20
96.0
 30
0.0
 40
2.049999999999998
100
AcDbArc
 50
303.17764
 51
326.82236
  0
LINE
  5
C21B
330
BFA8
100
AcDbEntity
  8
1
  6
Continuous
100
AcDbLine
 10
282.6289799999999
 20
96.0
 30
0.0
 11
282.8083389999998
 21
96.492786
 31
0.0
  0
LINE
  5
C21C
330
BFA8
100
AcDbEntity
  8
1
  6
Continuous
100
AcDbLine
 10
282.8083389999998
 20
95.507214
 30
0.0
 11
283.4158049999999
 21
94.87816499999999
 31
0.0
  0
LINE
  5
C21D
330
BFA8
100
AcDbEntity
  8
1
  6
Continuous
100
AcDbLine
 10
282.6289799999999
 20
96.0
 30
0.0
 11
282.8083389999998
 21
95.507214
 31
0.0
  0
LINE
  5
C21E
330
BFA8
100
AcDbEntity
  8
1
  6
Continuous
100
AcDbLine
 10
281.6999999999998
 20
95.07102000000001
 30
0.0
 11
282.192786
 21
94.89166100000002
 31
0.0
  0
LINE
  5
C21F
330
BFA8
100
AcDbEntity
  8
1
  6
Continuous
100
AcDbLine
 10
282.192786
 20
94.89166100000002
 30
0.0
 11
282.821835
 21
94.284195
 31
0.0
  0
ARC
  5
C220
330
BFA8
100
AcDbEntity
  8
1
  6
Continuous
100
AcDbCircle
 10
281.6999999999998
 20
96.0
 30
0.0
 40
2.049999999999998
100
AcDbArc
 50
213.17764
 51
236.8223599999998
  0
LINE
  5
C221
330
BFA8
100
AcDbEntity
  8
1
  6
Continuous
100
AcDbLine
 10
280.591661
 20
95.507214
 30
0.0
 11
279.984195
 21
94.87816499999999
 31
0.0
  0
LINE
  5
C222
330
BFA8
100
AcDbEntity
  8
1
  6
Continuous
100
AcDbLine
 10
280.77102
 20
96.0
 30
0.0
 11
280.591661
 21
95.507214
 31
0.0
  0
LINE
  5
C223
330
BFA8
100
AcDbEntity
  8
1
  6
Continuous
100
AcDbLine
 10
280.77102
 20
96.0
 30
0.0
 11
280.591661
 21
96.492786
 31
0.0
  0
LINE
  5
C224
330
BFA8
100
AcDbEntity
  8
1
  6
Continuous
100
AcDbLine
 10
281.207214
 20
94.89166100000002
 30
0.0
 11
280.578165
 21
94.284195
 31
0.0
  0
LINE
  5
C225
330
BFA8
100
AcDbEntity
  8
1
  6
Continuous
100
AcDbLine
 10
281.6999999999998
 20
95.07102000000001
 30
0.0
 11
281.207214
 21
94.89166100000002
 31
0.0
  0
LINE
  5
C226
330
BFA8
100
AcDbEntity
  8
1
  6
Continuous
100
AcDbLine
 10
285.1999999999998
 20
96.0
 30
0.0
 11
285.579433
 21
96.0
 31
0.0
  0
ARC
  5
C227
330
BFA8
100
AcDbEntity
  8
1
  6
Continuous
100
AcDbCircle
 10
285.579433
 20
96.40000200000001
 30
0.0
 40
0.4
100
AcDbArc
 50
270.0000179999999
 51
5.886752999999998
  0
LINE
  5
C228
330
BFA8
100
AcDbEntity
  8
1
  6
Continuous
100
AcDbLine
 10
284.399577
 20
93.77238099999999
 30
0.0
 11
285.177341
 21
92.42525500000001
 31
0.0
  0
ARC
  5
C229
330
BFA8
100
AcDbEntity
  8
1
  6
Continuous
100
AcDbCircle
 10
285.52375
 20
92.625252
 30
0.0
 40
0.4
100
AcDbArc
 50
209.999934
 51
318.568933
  0
ARC
  5
C22A
330
BFA8
100
AcDbEntity
  8
1
  6
Continuous
100
AcDbCircle
 10
281.6999999999998
 20
96.0
 30
0.0
 40
2.049999999999998
100
AcDbArc
 50
33.17763999999999
 51
56.82235999999999
  0
LINE
  5
C22B
330
BFA8
100
AcDbEntity
  8
1
  6
Continuous
100
AcDbLine
 10
282.192786
 20
97.108339
 30
0.0
 11
282.821835
 21
97.715805
 31
0.0
  0
ARC
  5
C22C
330
BFA8
100
AcDbEntity
  8
1
  6
Continuous
100
AcDbCircle
 10
281.6999999999998
 20
96.0
 30
0.0
 40
2.049999999999998
100
AcDbArc
 50
123.1776399999999
 51
146.8223599999998
  0
LINE
  5
C22D
330
BFA8
100
AcDbEntity
  8
1
  6
Continuous
100
AcDbLine
 10
281.207214
 20
97.108339
 30
0.0
 11
280.578165
 21
97.715805
 31
0.0
  0
LINE
  5
C22E
330
BFA8
100
AcDbEntity
  8
1
  6
Continuous
100
AcDbLine
 10
280.373155
 20
99.645477
 30
0.0
 11
280.50293
 21
99.288924
 31
0.0
  0
LINE
  5
C22F
330
BFA8
100
AcDbEntity
  8
1
  6
Continuous
100
AcDbLine
 10
282.8970689999998
 20
99.28892500000001
 30
0.0
 11
283.0268429999999
 21
99.645477
 31
0.0
  0
ARC
  5
C230
330
BFA8
100
AcDbEntity
  8
1
  6
Continuous
100
AcDbCircle
 10
283.4027209999998
 20
99.508667
 30
0.0
 40
0.4
100
AcDbArc
 50
64.113073
 51
159.9999949999999
  0
ARC
  5
C231
330
BFA8
100
AcDbEntity
  8
1
  6
Continuous
100
AcDbCircle
 10
279.9972789999998
 20
99.508667
 30
0.0
 40
0.4
100
AcDbArc
 50
20.000122
 51
115.886945
  0
ARC
  5
C232
330
BFA8
100
AcDbEntity
  8
1
  6
Continuous
100
AcDbCircle
 10
243.6999999999999
 20
96.0
 30
0.0
 40
6.75
100
AcDbArc
 50
259.1113849999999
 51
100.888615
  0
ARC
  5
C233
330
BFA8
100
AcDbEntity
  8
1
  6
Continuous
100
AcDbCircle
 10
243.6999999999999
 20
96.0
 30
0.0
 40
15.0
100
AcDbArc
 50
23.68178599999998
 51
112.264179
  0
ARC
  5
C234
330
BFA8
100
AcDbEntity
  8
1
  6
Continuous
100
AcDbCircle
 10
243.6999999999999
 20
96.0
 30
0.0
 40
16.5
100
AcDbArc
 50
29.516243
 51
121.9527459999999
  0
ARC
  5
C235
330
BFA8
100
AcDbEntity
  8
1
  6
Continuous
100
AcDbCircle
 10
243.6999999999999
 20
96.0
 30
0.0
 40
16.5
100
AcDbArc
 50
238.047254
 51
330.4837569999999
  0
ARC
  5
C236
330
BFA8
100
AcDbEntity
  8
1
  6
Continuous
100
AcDbCircle
 10
243.6999999999999
 20
96.0
 30
0.0
 40
15.0
100
AcDbArc
 50
247.735821
 51
336.318214
  0
LINE
  5
C237
330
BFA8
100
AcDbEntity
  8
1
  6
Continuous
100
AcDbLine
 10
93.62660599999999
 20
232.5632129999999
 30
0.0
 11
105.0
 21
232.5632129999999
 31
0.0
  0
LINE
  5
C238
330
BFA8
100
AcDbEntity
  8
1
  6
Continuous
100
AcDbLine
 10
98.1
 20
239.563213
 30
0.0
 11
102.0
 21
239.563213
 31
0.0
  0
LINE
  5
C239
330
BFA8
100
AcDbEntity
  8
1
  6
Continuous
100
AcDbLine
 10
64.5
 20
239.563213
 30
0.0
 11
66.0
 21
239.563213
 31
0.0
  0
LINE
  5
C23A
330
BFA8
100
AcDbEntity
  8
5
  6
PHANTOM
100
AcDbLine
 10
306.7
 20
224.563213
 30
0.0
 11
256.6999999999998
 21
224.563213
 31
0.0
  0
LINE
  5
C23B
330
BFA8
100
AcDbEntity
  8
5
  6
PHANTOM
100
AcDbLine
 10
303.6999999999999
 20
231.563213
 30
0.0
 11
259.6999999999998
 21
231.563213
 31
0.0
  0
LINE
  5
C23C
330
BFA8
100
AcDbEntity
  8
5
  6
PHANTOM
100
AcDbLine
 10
302.1
 20
220.563213
 30
0.0
 11
261.2999999999999
 21
220.563213
 31
0.0
  0
ARC
  5
C23D
330
BFA8
100
AcDbEntity
  8
5
  6
PHANTOM
100
AcDbCircle
 10
302.1
 20
223.5632129999999
 30
0.0
 40
3.0
100
AcDbArc
 50
270.0
 51
0.0
  0
ARC
  5
C23E
330
BFA8
100
AcDbEntity
  8
5
  6
PHANTOM
100
AcDbCircle
 10
303.6999999999999
 20
228.5632129999999
 30
0.0
 40
3.0
100
AcDbArc
 50
0.0
 51
90.0
  0
LINE
  5
C23F
330
BFA8
100
AcDbEntity
  8
5
  6
PHANTOM
100
AcDbLine
 10
306.7
 20
228.5632129999999
 30
0.0
 11
306.7
 21
224.563213
 31
0.0
  0
LINE
  5
C240
330
BFA8
100
AcDbEntity
  8
5
  6
PHANTOM
100
AcDbLine
 10
305.1
 20
224.563213
 30
0.0
 11
305.1
 21
223.5632129999999
 31
0.0
  0
ARC
  5
C241
330
BFA8
100
AcDbEntity
  8
5
  6
PHANTOM
100
AcDbCircle
 10
259.6999999999998
 20
228.5632129999999
 30
0.0
 40
3.0
100
AcDbArc
 50
90.0
 51
180.0
  0
ARC
  5
C242
330
BFA8
100
AcDbEntity
  8
5
  6
PHANTOM
100
AcDbCircle
 10
261.2999999999999
 20
223.5632129999999
 30
0.0
 40
3.0
100
AcDbArc
 50
180.0
 51
270.0
  0
LINE
  5
C243
330
BFA8
100
AcDbEntity
  8
5
  6
PHANTOM
100
AcDbLine
 10
256.6999999999998
 20
228.5632129999999
 30
0.0
 11
256.6999999999998
 21
224.563213
 31
0.0
  0
LINE
  5
C244
330
BFA8
100
AcDbEntity
  8
5
  6
PHANTOM
100
AcDbLine
 10
258.3
 20
224.563213
 30
0.0
 11
258.3
 21
223.5632129999999
 31
0.0
  0
LINE
  5
C245
330
BFA8
100
AcDbEntity
  8
1
  6
Continuous
100
AcDbLine
 10
557.8104299999998
 20
290.545135
 30
0.0
 11
559.7862919999998
 21
288.569274
 31
0.0
  0
LINE
  5
C246
330
BFA8
100
AcDbEntity
  8
1
  6
Continuous
100
AcDbLine
 10
559.224644
 20
290.545135
 30
0.0
 11
561.200505
 21
288.569274
 31
0.0
  0
LINE
  5
C247
330
BFA8
100
AcDbEntity
  8
1
  6
Continuous
100
AcDbLine
 10
560.34794
 20
290.545135
 30
0.0
 11
558.372078
 21
288.569274
 31
0.0
  0
LINE
  5
C248
330
BFA8
100
AcDbEntity
  8
1
  6
Continuous
100
AcDbLine
 10
519.630406
 20
295.5633129999998
 30
0.0
 11
622.5695940000001
 21
295.5633129999998
 31
0.0
  0
LINE
  5
C249
330
BFA8
100
AcDbEntity
  8
1
  6
Continuous
100
AcDbLine
 10
545.0916509999998
 20
295.5358529999998
 30
0.0
 11
597.1083489999997
 21
295.5358529999998
 31
0.0
  0
LINE
  5
C24A
330
BFA8
100
AcDbEntity
  8
1
  6
Continuous
100
AcDbLine
 10
548.827841
 20
293.7651349999999
 30
0.0
 11
593.37216
 21
293.7651349999999
 31
0.0
  0
LINE
  5
C24B
330
BFA8
100
AcDbEntity
  8
1
  6
Continuous
100
AcDbLine
 10
516.1
 20
295.9632669999999
 30
0.0
 11
626.1
 21
295.96332
 31
0.0
  0
LINE
  5
C24C
330
BFA8
100
AcDbEntity
  8
1
  6
Continuous
100
AcDbLine
 10
594.09
 20
292.5301349999998
 30
0.0
 11
548.109999
 21
292.5301349999998
 31
0.0
  0
LINE
  5
C24D
330
BFA8
100
AcDbEntity
  8
1
  6
Continuous
100
AcDbLine
 10
594.1
 20
288.569274
 30
0.0
 11
548.1
 21
288.569274
 31
0.0
  0
LINE
  5
C24E
330
BFA8
100
AcDbEntity
  8
1
  6
Continuous
100
AcDbLine
 10
594.1
 20
290.545135
 30
0.0
 11
548.1
 21
290.545135
 31
0.0
  0
ARC
  5
C24F
330
BFA8
100
AcDbEntity
  8
1
  6
Continuous
100
AcDbCircle
 10
555.5381109999998
 20
259.569274
 30
0.0
 40
10.0
100
AcDbArc
 50
45.24111099999998
 51
90.0
  0
LINE
  5
C250
330
BFA8
100
AcDbEntity
  8
4
  6
CENTER
100
AcDbLine
 10
597.1
 20
225.5632129999999
 30
0.0
 11
597.1
 21
281.5632129999999
 31
0.0
  0
ARC
  5
C251
330
BFA8
100
AcDbEntity
  8
1
  6
Continuous
100
AcDbCircle
 10
597.1
 20
253.5632629999998
 30
0.0
 40
20.0
100
AcDbArc
 50
183.8316429999999
 51
21.17954699999998
  0
ARC
  5
C252
330
BFA8
100
AcDbEntity
  8
1
  6
Continuous
100
AcDbCircle
 10
597.1
 20
253.5632129999999
 30
0.0
 40
25.0
100
AcDbArc
 50
172.1110089999999
 51
32.90010199999999
  0
LINE
  5
C253
330
BFA8
100
AcDbEntity
  8
1
  6
Continuous
100
AcDbLine
 10
611.1746819999998
 20
248.3763689999999
 30
0.0
 11
620.7649750000001
 21
274.3999679999999
 31
0.0
  0
LINE
  5
C254
330
BFA8
100
AcDbEntity
  8
1
  6
Continuous
100
AcDbLine
 10
586.5381269999998
 20
242.91207
 30
0.0
 11
562.5793599999998
 21
266.6700349999999
 31
0.0
  0
LINE
  5
C255
330
BFA8
100
AcDbEntity
  8
4
  6
CENTER
100
AcDbLine
 10
569.1
 20
253.5632129999999
 30
0.0
 11
625.1
 21
253.5632129999999
 31
0.0
  0
ARC
  5
C256
330
BFA8
100
AcDbEntity
  8
1
  6
Continuous
100
AcDbCircle
 10
597.1
 20
253.5632629999998
 30
0.0
 40
17.0
100
AcDbArc
 50
197.168878
 51
7.842362999999999
  0
ARC
  5
C257
330
BFA8
100
AcDbEntity
  8
1
  6
Continuous
100
AcDbCircle
 10
597.1
 20
253.5632629999998
 30
0.0
 40
17.5
100
AcDbArc
 50
194.2386179999998
 51
10.77260899999999
  0
ARC
  5
C258
330
BFA8
100
AcDbEntity
  8
1
  6
Continuous
100
AcDbCircle
 10
597.1
 20
253.5632129999999
 30
0.0
 40
15.0
100
AcDbArc
 50
225.241111
 51
339.7699999999999
  0
ARC
  5
C259
330
BFA8
100
AcDbEntity
  8
1
  6
Continuous
100
AcDbCircle
 10
622.5695940000001
 20
300.763484
 30
0.0
 40
5.200171
100
AcDbArc
 50
270.0
 51
292.6181049999998
  0
ARC
  5
C25A
330
BFA8
100
AcDbEntity
  8
1
  6
Continuous
100
AcDbCircle
 10
593.700118
 20
246.878095
 30
0.0
 40
38.6
100
AcDbArc
 50
40.489838
 51
91.121292
  0
LINE
  5
C25B
330
BFA8
100
AcDbEntity
  8
1
  6
Continuous
100
AcDbLine
 10
626.1
 20
295.96332
 30
0.0
 11
626.1
 21
298.5633199999999
 31
0.0
  0
LINE
  5
C25C
330
BFA8
100
AcDbEntity
  8
1
  6
Continuous
100
AcDbLine
 10
590.337342
 20
290.545135
 30
0.0
 11
592.313204
 21
288.569274
 31
0.0
  0
LINE
  5
C25D
330
BFA8
100
AcDbEntity
  8
1
  6
Continuous
100
AcDbLine
 10
592.1677449999997
 20
290.545135
 30
0.0
 11
590.1918829999997
 21
288.569274
 31
0.0
  0
LINE
  5
C25E
330
BFA8
100
AcDbEntity
  8
1
  6
Continuous
100
AcDbLine
 10
593.8200000000001
 20
290.545135
 30
0.0
 11
590.9769660000002
 21
290.545135
 31
0.0
  0
ARC
  5
C25F
330
BFA8
100
AcDbEntity
  8
1
  6
Continuous
100
AcDbCircle
 10
587.0400499999998
 20
276.0735669999998
 30
0.0
 40
13.73005499999998
100
AcDbArc
 50
42.33363899999999
 51
65.51900899999999
  0
ARC
  5
C260
330
BFA8
100
AcDbEntity
  8
1
  6
Continuous
100
AcDbCircle
 10
593.700118
 20
246.878095
 30
0.0
 40
36.0
100
AcDbArc
 50
40.489838
 51
43.597852
  0
LINE
  5
C261
330
BFA8
100
AcDbEntity
  8
1
  6
Continuous
100
AcDbLine
 10
623.056234
 20
271.9415829999999
 30
0.0
 11
621.078879
 21
270.253369
 31
0.0
  0
LINE
  5
C262
330
BFA8
100
AcDbEntity
  8
4
  6
CENTER
100
AcDbLine
 10
616.1
 20
293.306038
 30
0.0
 11
616.1
 21
301.327896
 31
0.0
  0
LINE
  5
C263
330
BFA8
100
AcDbEntity
  8
1
  6
Continuous
100
AcDbLine
 10
593.1657689999998
 20
290.545135
 30
0.0
 11
594.1
 21
289.610904
 31
0.0
  0
LINE
  5
C264
330
BFA8
100
AcDbEntity
  8
1
  6
Continuous
100
AcDbLine
 10
591.7515559999999
 20
290.545135
 30
0.0
 11
593.7274169999998
 21
288.569274
 31
0.0
  0
LINE
  5
C265
330
BFA8
100
AcDbEntity
  8
1
  6
Continuous
100
AcDbLine
 10
594.1
 20
290.3560699999999
 30
0.0
 11
592.313204
 21
288.569274
 31
0.0
  0
ARC
  5
C266
330
BFA8
100
AcDbEntity
  8
1
  6
Continuous
100
AcDbCircle
 10
588.286418
 20
288.9791629999999
 30
0.0
 40
6.206
100
AcDbArc
 50
39.064301
 51
50.460397
  0
LINE
  5
C267
330
BFA8
100
AcDbEntity
  8
1
  6
Continuous
100
AcDbLine
 10
593.9500000000001
 20
290.905135
 30
0.0
 11
593.8200000000001
 21
290.545135
 31
0.0
  0
ARC
  5
C268
330
BFA8
100
AcDbEntity
  8
1
  6
Continuous
100
AcDbCircle
 10
590.4885179999999
 20
294.0803629999999
 30
0.0
 40
4.697225
100
AcDbArc
 50
317.4697509999999
 51
333.713305
  0
LINE
  5
C269
330
BFA8
100
AcDbEntity
  8
1
  6
Continuous
100
AcDbLine
 10
593.2749999999997
 20
292.5301349999998
 30
0.0
 11
593.1049999999998
 21
292.8901349999998
 31
0.0
  0
ARC
  5
C26A
330
BFA8
100
AcDbEntity
  8
1
  6
Continuous
100
AcDbCircle
 10
593.8260299999998
 20
291.6102819999998
 30
0.0
 40
0.9569799999999998
100
AcDbArc
 50
24.04026499999999
 51
73.98808699999998
  0
ARC
  5
C26B
330
BFA8
100
AcDbEntity
  8
1
  6
Continuous
100
AcDbCircle
 10
593.37216
 20
297.376284
 30
0.0
 40
3.611148999999998
100
AcDbArc
 50
270.0
 51
296.2888529999998
  0
LINE
  5
C26C
330
BFA8
100
AcDbEntity
  8
1
  6
Continuous
100
AcDbLine
 10
597.1083489999997
 20
295.5358529999998
 30
0.0
 11
597.1108870000001
 21
295.5633129999998
 31
0.0
  0
ARC
  5
C26D
330
BFA8
100
AcDbEntity
  8
1
  6
Continuous
100
AcDbCircle
 10
590.259318
 20
303.6777269999999
 30
0.0
 40
10.63951799999999
100
AcDbArc
 50
296.2888529999998
 51
310.0709029999998
  0
LINE
  5
C26E
330
BFA8
100
AcDbEntity
  8
1
  6
Continuous
100
AcDbLine
 10
594.1
 20
288.569274
 30
0.0
 11
594.1
 21
290.545135
 31
0.0
  0
LINE
  5
C26F
330
BFA8
100
AcDbEntity
  8
4
  6
CENTER
100
AcDbLine
 10
571.1
 20
302.757111
 30
0.0
 11
571.1
 21
276.5841029999999
 31
0.0
  0
LINE
  5
C270
330
BFA8
100
AcDbEntity
  8
1
  6
Continuous
100
AcDbLine
 10
574.7809929999997
 20
290.545135
 30
0.0
 11
576.756854
 21
288.569274
 31
0.0
  0
LINE
  5
C271
330
BFA8
100
AcDbEntity
  8
1
  6
Continuous
100
AcDbLine
 10
577.3185019999997
 20
290.545135
 30
0.0
 11
575.3426410000002
 21
288.569274
 31
0.0
  0
LINE
  5
C272
330
BFA8
100
AcDbEntity
  8
1
  6
Continuous
100
AcDbLine
 10
588.923128
 20
290.545135
 30
0.0
 11
590.89899
 21
288.569274
 31
0.0
  0
LINE
  5
C273
330
BFA8
100
AcDbEntity
  8
1
  6
Continuous
100
AcDbLine
 10
587.5089149999999
 20
290.545135
 30
0.0
 11
589.484776
 21
288.569274
 31
0.0
  0
LINE
  5
C274
330
BFA8
100
AcDbEntity
  8
1
  6
Continuous
100
AcDbLine
 10
586.094701
 20
290.545135
 30
0.0
 11
588.070563
 21
288.569274
 31
0.0
  0
LINE
  5
C275
330
BFA8
100
AcDbEntity
  8
1
  6
Continuous
100
AcDbLine
 10
584.6804879999997
 20
290.545135
 30
0.0
 11
586.6563489999997
 21
288.569274
 31
0.0
  0
LINE
  5
C276
330
BFA8
100
AcDbEntity
  8
1
  6
Continuous
100
AcDbLine
 10
583.2662739999998
 20
290.545135
 30
0.0
 11
585.2421360000001
 21
288.569274
 31
0.0
  0
LINE
  5
C277
330
BFA8
100
AcDbEntity
  8
1
  6
Continuous
100
AcDbLine
 10
581.8520610000001
 20
290.545135
 30
0.0
 11
583.8279219999998
 21
288.569274
 31
0.0
  0
LINE
  5
C278
330
BFA8
100
AcDbEntity
  8
1
  6
Continuous
100
AcDbLine
 10
580.4378469999997
 20
290.545135
 30
0.0
 11
582.413709
 21
288.569274
 31
0.0
  0
LINE
  5
C279
330
BFA8
100
AcDbEntity
  8
1
  6
Continuous
100
AcDbLine
 10
579.0236339999998
 20
290.545135
 30
0.0
 11
580.999495
 21
288.569274
 31
0.0
  0
LINE
  5
C27A
330
BFA8
100
AcDbEntity
  8
1
  6
Continuous
100
AcDbLine
 10
577.60942
 20
290.545135
 30
0.0
 11
579.585282
 21
288.569274
 31
0.0
  0
LINE
  5
C27B
330
BFA8
100
AcDbEntity
  8
1
  6
Continuous
100
AcDbLine
 10
576.1952059999997
 20
290.545135
 30
0.0
 11
578.1710679999997
 21
288.569274
 31
0.0
  0
LINE
  5
C27C
330
BFA8
100
AcDbEntity
  8
1
  6
Continuous
100
AcDbLine
 10
590.0464239999998
 20
290.545135
 30
0.0
 11
588.070563
 21
288.569274
 31
0.0
  0
LINE
  5
C27D
330
BFA8
100
AcDbEntity
  8
1
  6
Continuous
100
AcDbLine
 10
587.925104
 20
290.545135
 30
0.0
 11
585.949243
 21
288.569274
 31
0.0
  0
LINE
  5
C27E
330
BFA8
100
AcDbEntity
  8
1
  6
Continuous
100
AcDbLine
 10
585.8037839999998
 20
290.545135
 30
0.0
 11
583.8279219999998
 21
288.569274
 31
0.0
  0
LINE
  5
C27F
330
BFA8
100
AcDbEntity
  8
1
  6
Continuous
100
AcDbLine
 10
583.6824629999997
 20
290.545135
 30
0.0
 11
581.7066019999997
 21
288.569274
 31
0.0
  0
LINE
  5
C280
330
BFA8
100
AcDbEntity
  8
1
  6
Continuous
100
AcDbLine
 10
581.561143
 20
290.545135
 30
0.0
 11
579.585282
 21
288.569274
 31
0.0
  0
LINE
  5
C281
330
BFA8
100
AcDbEntity
  8
1
  6
Continuous
100
AcDbLine
 10
579.4398230000001
 20
290.545135
 30
0.0
 11
577.463961
 21
288.569274
 31
0.0
  0
LINE
  5
C282
330
BFA8
100
AcDbEntity
  8
1
  6
Continuous
100
AcDbLine
 10
560.638857
 20
290.545135
 30
0.0
 11
562.614719
 21
288.569274
 31
0.0
  0
LINE
  5
C283
330
BFA8
100
AcDbEntity
  8
1
  6
Continuous
100
AcDbLine
 10
562.053071
 20
290.545135
 30
0.0
 11
564.0289320000001
 21
288.569274
 31
0.0
  0
LINE
  5
C284
330
BFA8
100
AcDbEntity
  8
1
  6
Continuous
100
AcDbLine
 10
563.4672839999998
 20
290.545135
 30
0.0
 11
565.4431459999998
 21
288.569274
 31
0.0
  0
LINE
  5
C285
330
BFA8
100
AcDbEntity
  8
1
  6
Continuous
100
AcDbLine
 10
564.881498
 20
290.545135
 30
0.0
 11
566.857359
 21
288.569274
 31
0.0
  0
LINE
  5
C286
330
BFA8
100
AcDbEntity
  8
1
  6
Continuous
100
AcDbLine
 10
566.2957109999998
 20
290.545135
 30
0.0
 11
568.2715729999999
 21
288.569274
 31
0.0
  0
LINE
  5
C287
330
BFA8
100
AcDbEntity
  8
1
  6
Continuous
100
AcDbLine
 10
567.709925
 20
290.545135
 30
0.0
 11
569.685787
 21
288.569274
 31
0.0
  0
LINE
  5
C288
330
BFA8
100
AcDbEntity
  8
1
  6
Continuous
100
AcDbLine
 10
573.3667789999998
 20
290.545135
 30
0.0
 11
575.3426410000002
 21
288.569274
 31
0.0
  0
LINE
  5
C289
330
BFA8
100
AcDbEntity
  8
1
  6
Continuous
100
AcDbLine
 10
571.9525660000001
 20
290.545135
 30
0.0
 11
573.9284269999999
 21
288.569274
 31
0.0
  0
LINE
  5
C28A
330
BFA8
100
AcDbEntity
  8
1
  6
Continuous
100
AcDbLine
 10
570.5383519999998
 20
290.545135
 30
0.0
 11
572.5142139999998
 21
288.569274
 31
0.0
  0
LINE
  5
C28B
330
BFA8
100
AcDbEntity
  8
1
  6
Continuous
100
AcDbLine
 10
569.124139
 20
290.545135
 30
0.0
 11
571.1
 21
288.569274
 31
0.0
  0
LINE
  5
C28C
330
BFA8
100
AcDbEntity
  8
1
  6
Continuous
100
AcDbLine
 10
562.4692599999998
 20
290.545135
 30
0.0
 11
560.4933980000001
 21
288.569274
 31
0.0
  0
LINE
  5
C28D
330
BFA8
100
AcDbEntity
  8
1
  6
Continuous
100
AcDbLine
 10
564.5905799999998
 20
290.545135
 30
0.0
 11
562.614719
 21
288.569274
 31
0.0
  0
LINE
  5
C28E
330
BFA8
100
AcDbEntity
  8
1
  6
Continuous
100
AcDbLine
 10
566.711901
 20
290.545135
 30
0.0
 11
564.736039
 21
288.569274
 31
0.0
  0
LINE
  5
C28F
330
BFA8
100
AcDbEntity
  8
1
  6
Continuous
100
AcDbLine
 10
568.8332209999997
 20
290.545135
 30
0.0
 11
566.857359
 21
288.569274
 31
0.0
  0
LINE
  5
C290
330
BFA8
100
AcDbEntity
  8
1
  6
Continuous
100
AcDbLine
 10
570.9545409999998
 20
290.545135
 30
0.0
 11
568.9786799999999
 21
288.569274
 31
0.0
  0
LINE
  5
C291
330
BFA8
100
AcDbEntity
  8
1
  6
Continuous
100
AcDbLine
 10
575.197182
 20
290.545135
 30
0.0
 11
573.22132
 21
288.569274
 31
0.0
  0
LINE
  5
C292
330
BFA8
100
AcDbEntity
  8
1
  6
Continuous
100
AcDbLine
 10
573.075862
 20
290.545135
 30
0.0
 11
571.1
 21
288.569274
 31
0.0
  0
LINE
  5
C293
330
BFA8
100
AcDbEntity
  8
4
  6
CENTER
100
AcDbLine
 10
533.1
 20
301.6669729999999
 30
0.0
 11
533.1
 21
217.5632129999999
 31
0.0
  0
LINE
  5
C294
330
BFA8
100
AcDbEntity
  8
1
  6
Continuous
100
AcDbLine
 10
542.6
 20
269.569274
 30
0.0
 11
542.6
 21
262.963221
 31
0.0
  0
LINE
  5
C295
330
BFA8
100
AcDbEntity
  8
1
  6
Continuous
100
AcDbLine
 10
523.6
 20
269.569274
 30
0.0
 11
523.6
 21
262.963221
 31
0.0
  0
ARC
  5
C296
330
BFA8
100
AcDbEntity
  8
1
  6
Continuous
100
AcDbCircle
 10
537.85
 20
271.234054
 30
0.0
 40
8.270832999999997
100
AcDbArc
 50
234.948863
 51
305.0511369999999
  0
ARC
  5
C297
330
BFA8
100
AcDbEntity
  8
1
  6
Continuous
100
AcDbCircle
 10
528.35
 20
271.234054
 30
0.0
 40
8.270832999999997
100
AcDbArc
 50
234.948863
 51
305.0511369999999
  0
ARC
  5
C298
330
BFA8
100
AcDbEntity
  8
5
  6
PHANTOM
100
AcDbCircle
 10
553.5
 20
223.5632129999999
 30
0.0
 40
3.0
100
AcDbArc
 50
270.0
 51
0.0
  0
ARC
  5
C299
330
BFA8
100
AcDbEntity
  8
5
  6
PHANTOM
100
AcDbCircle
 10
512.7
 20
223.5632129999999
 30
0.0
 40
3.0
100
AcDbArc
 50
180.0
 51
270.0
  0
LINE
  5
C29A
330
BFA8
100
AcDbEntity
  8
5
  6
PHANTOM
100
AcDbLine
 10
512.7
 20
220.563213
 30
0.0
 11
553.5
 21
220.563213
 31
0.0
  0
LINE
  5
C29B
330
BFA8
100
AcDbEntity
  8
5
  6
PHANTOM
100
AcDbLine
 10
511.1
 20
231.563213
 30
0.0
 11
555.1
 21
231.563213
 31
0.0
  0
LINE
  5
C29C
330
BFA8
100
AcDbEntity
  8
5
  6
PHANTOM
100
AcDbLine
 10
508.1
 20
224.563213
 30
0.0
 11
558.1
 21
224.563213
 31
0.0
  0
LINE
  5
C29D
330
BFA8
100
AcDbEntity
  8
1
  6
Continuous
100
AcDbLine
 10
512.7
 20
228.5632129999999
 30
0.0
 11
553.5
 21
228.5632129999999
 31
0.0
  0
LINE
  5
C29E
330
BFA8
100
AcDbEntity
  8
1
  6
Continuous
100
AcDbLine
 10
511.1
 20
239.563213
 30
0.0
 11
555.1
 21
239.563213
 31
0.0
  0
LINE
  5
C29F
330
BFA8
100
AcDbEntity
  8
1
  6
Continuous
100
AcDbLine
 10
508.1
 20
232.5632129999999
 30
0.0
 11
558.1
 21
232.5632129999999
 31
0.0
  0
LINE
  5
C2A0
330
BFA8
100
AcDbEntity
  8
1
  6
Continuous
100
AcDbLine
 10
519.243594
 20
245.563213
 30
0.0
 11
546.956407
 21
245.563213
 31
0.0
  0
LINE
  5
C2A1
330
BFA8
100
AcDbEntity
  8
1
  6
Continuous
100
AcDbLine
 10
521.1
 20
240.5632129999999
 30
0.0
 11
545.1
 21
240.5632129999999
 31
0.0
  0
ARC
  5
C2A2
330
BFA8
100
AcDbEntity
  8
1
  6
Continuous
100
AcDbCircle
 10
533.1
 20
262.9116819999999
 30
0.0
 40
22.348469
100
AcDbArc
 50
251.94029
 51
288.05971
  0
LINE
  5
C2A3
330
BFA8
100
AcDbEntity
  8
1
  6
Continuous
100
AcDbLine
 10
517.6
 20
240.0632129999999
 30
0.0
 11
548.6
 21
240.0632129999999
 31
0.0
  0
LINE
  5
C2A4
330
BFA8
100
AcDbEntity
  8
1
  6
Continuous
100
AcDbLine
 10
526.1
 20
249.563213
 30
0.0
 11
540.1
 21
249.563213
 31
0.0
  0
LINE
  5
C2A5
330
BFA8
100
AcDbEntity
  8
5
  6
PHANTOM
100
AcDbLine
 10
508.1
 20
248.5632129999999
 30
0.0
 11
558.1
 21
248.5632129999999
 31
0.0
  0
LINE
  5
C2A6
330
BFA8
100
AcDbEntity
  8
5
  6
PHANTOM
100
AcDbLine
 10
511.1
 20
255.5632129999999
 30
0.0
 11
555.1
 21
255.5632129999999
 31
0.0
  0
LINE
  5
C2A7
330
BFA8
100
AcDbEntity
  8
5
  6
PHANTOM
100
AcDbLine
 10
512.7
 20
244.5632129999999
 30
0.0
 11
553.5
 21
244.5632129999999
 31
0.0
  0
LINE
  5
C2A8
330
BFA8
100
AcDbEntity
  8
1
  6
Continuous
100
AcDbLine
 10
523.6
 20
262.963221
 30
0.0
 11
542.6
 21
262.963221
 31
0.0
  0
LINE
  5
C2A9
330
BFA8
100
AcDbEntity
  8
1
  6
Continuous
100
AcDbLine
 10
540.0282029999998
 20
245.563213
 30
0.0
 11
540.0282029999998
 21
241.664233
 31
0.0
  0
LINE
  5
C2AA
330
BFA8
100
AcDbEntity
  8
1
  6
Continuous
100
AcDbLine
 10
546.956407
 20
245.563213
 30
0.0
 11
546.956407
 21
241.6350089999999
 31
0.0
  0
ARC
  5
C2AB
330
BFA8
100
AcDbEntity
  8
1
  6
Continuous
100
AcDbCircle
 10
543.492305
 20
246.5632129999999
 30
0.0
 40
6.0
100
AcDbArc
 50
234.73561
 51
300.0
  0
LINE
  5
C2AC
330
BFA8
100
AcDbEntity
  8
5
  6
PHANTOM
100
AcDbLine
 10
556.5
 20
224.563213
 30
0.0
 11
556.5
 21
223.5632129999999
 31
0.0
  0
LINE
  5
C2AD
330
BFA8
100
AcDbEntity
  8
5
  6
PHANTOM
100
AcDbLine
 10
558.1
 20
228.5632129999999
 30
0.0
 11
558.1
 21
224.563213
 31
0.0
  0
ARC
  5
C2AE
330
BFA8
100
AcDbEntity
  8
5
  6
PHANTOM
100
AcDbCircle
 10
555.1
 20
228.5632129999999
 30
0.0
 40
3.0
100
AcDbArc
 50
0.0
 51
90.0
  0
LINE
  5
C2AF
330
BFA8
100
AcDbEntity
  8
1
  6
Continuous
100
AcDbLine
 10
556.5
 20
232.5632129999999
 30
0.0
 11
556.5
 21
231.563213
 31
0.0
  0
LINE
  5
C2B0
330
BFA8
100
AcDbEntity
  8
1
  6
Continuous
100
AcDbLine
 10
558.1
 20
236.5632129999999
 30
0.0
 11
558.1
 21
232.5632129999999
 31
0.0
  0
ARC
  5
C2B1
330
BFA8
100
AcDbEntity
  8
1
  6
Continuous
100
AcDbCircle
 10
555.1
 20
236.5632129999999
 30
0.0
 40
3.0
100
AcDbArc
 50
0.0
 51
90.0
  0
LINE
  5
C2B2
330
BFA8
100
AcDbEntity
  8
1
  6
Continuous
100
AcDbLine
 10
545.1
 20
240.5632129999999
 30
0.0
 11
546.956407
 21
241.6350089999999
 31
0.0
  0
LINE
  5
C2B3
330
BFA8
100
AcDbEntity
  8
1
  6
Continuous
100
AcDbLine
 10
548.6
 20
240.0632129999999
 30
0.0
 11
548.6
 21
239.563213
 31
0.0
  0
ARC
  5
C2B4
330
BFA8
100
AcDbEntity
  8
1
  6
Continuous
100
AcDbCircle
 10
553.5
 20
231.563213
 30
0.0
 40
3.0
100
AcDbArc
 50
270.0
 51
0.0
  0
LINE
  5
C2B5
330
BFA8
100
AcDbEntity
  8
1
  6
Continuous
100
AcDbLine
 10
528.2
 20
240.5632129999999
 30
0.0
 11
528.2
 21
240.0632129999999
 31
0.0
  0
LINE
  5
C2B6
330
BFA8
100
AcDbEntity
  8
1
  6
Continuous
100
AcDbLine
 10
538.0
 20
240.0632129999999
 30
0.0
 11
538.0
 21
240.5632129999999
 31
0.0
  0
ARC
  5
C2B7
330
BFA8
100
AcDbEntity
  8
5
  6
PHANTOM
100
AcDbCircle
 10
555.1
 20
252.5632129999999
 30
0.0
 40
3.0
100
AcDbArc
 50
0.0
 51
90.0
  0
ARC
  5
C2B8
330
BFA8
100
AcDbEntity
  8
5
  6
PHANTOM
100
AcDbCircle
 10
553.5
 20
247.563213
 30
0.0
 40
3.0
100
AcDbArc
 50
270.0
 51
0.0
  0
LINE
  5
C2B9
330
BFA8
100
AcDbEntity
  8
5
  6
PHANTOM
100
AcDbLine
 10
558.1
 20
252.5632129999999
 30
0.0
 11
558.1
 21
248.5632129999999
 31
0.0
  0
LINE
  5
C2BA
330
BFA8
100
AcDbEntity
  8
5
  6
PHANTOM
100
AcDbLine
 10
556.5
 20
248.5632129999999
 30
0.0
 11
556.5
 21
247.563213
 31
0.0
  0
LINE
  5
C2BB
330
BFA8
100
AcDbEntity
  8
2
  6
Continuous
100
AcDbLine
 10
539.0175
 20
249.563213
 30
0.0
 11
540.1
 21
247.688268
 31
0.0
  0
LINE
  5
C2BC
330
BFA8
100
AcDbEntity
  8
1
  6
Continuous
100
AcDbLine
 10
540.1
 20
262.963221
 30
0.0
 11
540.1
 21
245.563213
 31
0.0
  0
LINE
  5
C2BD
330
BFA8
100
AcDbEntity
  8
2
  6
Continuous
100
AcDbLine
 10
539.0175
 20
262.963221
 30
0.0
 11
539.0175
 21
249.563213
 31
0.0
  0
LINE
  5
C2BE
330
BFA8
100
AcDbEntity
  8
1
  6
Continuous
100
AcDbLine
 10
519.243594
 20
245.563213
 30
0.0
 11
519.243594
 21
241.6350089999999
 31
0.0
  0
LINE
  5
C2BF
330
BFA8
100
AcDbEntity
  8
1
  6
Continuous
100
AcDbLine
 10
526.1717969999998
 20
245.563213
 30
0.0
 11
526.1717969999998
 21
241.664233
 31
0.0
  0
ARC
  5
C2C0
330
BFA8
100
AcDbEntity
  8
1
  6
Continuous
100
AcDbCircle
 10
512.7
 20
231.563213
 30
0.0
 40
3.0
100
AcDbArc
 50
180.0
 51
270.0
  0
LINE
  5
C2C1
330
BFA8
100
AcDbEntity
  8
1
  6
Continuous
100
AcDbLine
 10
521.1
 20
240.5632129999999
 30
0.0
 11
519.243594
 21
241.6350089999999
 31
0.0
  0
ARC
  5
C2C2
330
BFA8
100
AcDbEntity
  8
1
  6
Continuous
100
AcDbCircle
 10
522.7076949999998
 20
246.5632129999999
 30
0.0
 40
6.0
100
AcDbArc
 50
239.9999999999999
 51
305.26439
  0
LINE
  5
C2C3
330
BFA8
100
AcDbEntity
  8
1
  6
Continuous
100
AcDbLine
 10
517.6
 20
240.0632129999999
 30
0.0
 11
517.6
 21
239.563213
 31
0.0
  0
LINE
  5
C2C4
330
BFA8
100
AcDbEntity
  8
5
  6
PHANTOM
100
AcDbLine
 10
509.7
 20
224.563213
 30
0.0
 11
509.7
 21
223.5632129999999
 31
0.0
  0
LINE
  5
C2C5
330
BFA8
100
AcDbEntity
  8
5
  6
PHANTOM
100
AcDbLine
 10
508.1
 20
228.5632129999999
 30
0.0
 11
508.1
 21
224.563213
 31
0.0
  0
ARC
  5
C2C6
330
BFA8
100
AcDbEntity
  8
5
  6
PHANTOM
100
AcDbCircle
 10
511.1
 20
228.5632129999999
 30
0.0
 40
3.0
100
AcDbArc
 50
90.0
 51
180.0
  0
LINE
  5
C2C7
330
BFA8
100
AcDbEntity
  8
1
  6
Continuous
100
AcDbLine
 10
509.7
 20
232.5632129999999
 30
0.0
 11
509.7
 21
231.563213
 31
0.0
  0
LINE
  5
C2C8
330
BFA8
100
AcDbEntity
  8
1
  6
Continuous
100
AcDbLine
 10
508.1
 20
236.5632129999999
 30
0.0
 11
508.1
 21
232.5632129999999
 31
0.0
  0
ARC
  5
C2C9
330
BFA8
100
AcDbEntity
  8
1
  6
Continuous
100
AcDbCircle
 10
511.1
 20
236.5632129999999
 30
0.0
 40
3.0
100
AcDbArc
 50
90.0
 51
180.0
  0
ARC
  5
C2CA
330
BFA8
100
AcDbEntity
  8
5
  6
PHANTOM
100
AcDbCircle
 10
512.7
 20
247.563213
 30
0.0
 40
3.0
100
AcDbArc
 50
180.0
 51
270.0
  0
LINE
  5
C2CB
330
BFA8
100
AcDbEntity
  8
2
  6
Continuous
100
AcDbLine
 10
527.1824999999998
 20
249.563213
 30
0.0
 11
526.1
 21
247.688268
 31
0.0
  0
LINE
  5
C2CC
330
BFA8
100
AcDbEntity
  8
1
  6
Continuous
100
AcDbLine
 10
526.1
 20
262.963221
 30
0.0
 11
526.1
 21
245.563213
 31
0.0
  0
LINE
  5
C2CD
330
BFA8
100
AcDbEntity
  8
2
  6
Continuous
100
AcDbLine
 10
527.1824999999998
 20
262.963221
 30
0.0
 11
527.1824999999998
 21
249.563213
 31
0.0
  0
ARC
  5
C2CE
330
BFA8
100
AcDbEntity
  8
5
  6
PHANTOM
100
AcDbCircle
 10
511.1
 20
252.5632129999999
 30
0.0
 40
3.0
100
AcDbArc
 50
90.0
 51
180.0
  0
LINE
  5
C2CF
330
BFA8
100
AcDbEntity
  8
5
  6
PHANTOM
100
AcDbLine
 10
508.1
 20
252.5632129999999
 30
0.0
 11
508.1
 21
248.5632129999999
 31
0.0
  0
LINE
  5
C2D0
330
BFA8
100
AcDbEntity
  8
5
  6
PHANTOM
100
AcDbLine
 10
509.7
 20
248.5632129999999
 30
0.0
 11
509.7
 21
247.563213
 31
0.0
  0
LINE
  5
C2D1
330
BFA8
100
AcDbEntity
  8
1
  6
Continuous
100
AcDbLine
 10
517.0
 20
269.569274
 30
0.0
 11
555.5381109999998
 21
269.569274
 31
0.0
  0
LINE
  5
C2D2
330
BFA8
100
AcDbEntity
  8
1
  6
Continuous
100
AcDbLine
 10
548.0955419999998
 20
287.569274
 30
0.0
 11
521.6
 21
287.569274
 31
0.0
  0
LINE
  5
C2D3
330
BFA8
100
AcDbEntity
  8
1
  6
Continuous
100
AcDbLine
 10
533.1
 20
269.569274
 30
0.0
 11
533.1
 21
264.4632209999999
 31
0.0
  0
LINE
  5
C2D4
330
BFA8
100
AcDbEntity
  8
1
  6
Continuous
100
AcDbLine
 10
548.1
 20
288.9418569999999
 30
0.0
 11
548.472583
 21
288.569274
 31
0.0
  0
LINE
  5
C2D5
330
BFA8
100
AcDbEntity
  8
1
  6
Continuous
100
AcDbLine
 10
548.1
 20
290.3560699999999
 30
0.0
 11
549.886797
 21
288.569274
 31
0.0
  0
LINE
  5
C2D6
330
BFA8
100
AcDbEntity
  8
1
  6
Continuous
100
AcDbLine
 10
549.325149
 20
290.545135
 30
0.0
 11
551.30101
 21
288.569274
 31
0.0
  0
LINE
  5
C2D7
330
BFA8
100
AcDbEntity
  8
1
  6
Continuous
100
AcDbLine
 10
550.739362
 20
290.545135
 30
0.0
 11
552.715224
 21
288.569274
 31
0.0
  0
LINE
  5
C2D8
330
BFA8
100
AcDbEntity
  8
1
  6
Continuous
100
AcDbLine
 10
552.1535759999998
 20
290.545135
 30
0.0
 11
554.1294370000001
 21
288.569274
 31
0.0
  0
LINE
  5
C2D9
330
BFA8
100
AcDbEntity
  8
1
  6
Continuous
100
AcDbLine
 10
553.5677889999998
 20
290.545135
 30
0.0
 11
555.5436509999998
 21
288.569274
 31
0.0
  0
LINE
  5
C2DA
330
BFA8
100
AcDbEntity
  8
1
  6
Continuous
100
AcDbLine
 10
554.9820030000002
 20
290.545135
 30
0.0
 11
556.9578650000002
 21
288.569274
 31
0.0
  0
LINE
  5
C2DB
330
BFA8
100
AcDbEntity
  8
1
  6
Continuous
100
AcDbLine
 10
556.3962169999999
 20
290.545135
 30
0.0
 11
558.372078
 21
288.569274
 31
0.0
  0
LINE
  5
C2DC
330
BFA8
100
AcDbEntity
  8
1
  6
Continuous
100
AcDbLine
 10
548.1
 20
288.903797
 30
0.0
 11
549.741338
 21
290.545135
 31
0.0
  0
LINE
  5
C2DD
330
BFA8
100
AcDbEntity
  8
1
  6
Continuous
100
AcDbLine
 10
551.862658
 20
290.545135
 30
0.0
 11
549.886797
 21
288.569274
 31
0.0
  0
LINE
  5
C2DE
330
BFA8
100
AcDbEntity
  8
1
  6
Continuous
100
AcDbLine
 10
553.983979
 20
290.545135
 30
0.0
 11
552.008117
 21
288.569274
 31
0.0
  0
LINE
  5
C2DF
330
BFA8
100
AcDbEntity
  8
1
  6
Continuous
100
AcDbLine
 10
556.1052989999998
 20
290.545135
 30
0.0
 11
554.1294370000001
 21
288.569274
 31
0.0
  0
LINE
  5
C2E0
330
BFA8
100
AcDbEntity
  8
1
  6
Continuous
100
AcDbLine
 10
558.226619
 20
290.545135
 30
0.0
 11
556.250758
 21
288.569274
 31
0.0
  0
ARC
  5
C2E1
330
BFA8
100
AcDbEntity
  8
1
  6
Continuous
100
AcDbCircle
 10
553.913582
 20
288.9791629999999
 30
0.0
 40
6.206
100
AcDbArc
 50
129.539603
 51
140.935699
  0
LINE
  5
C2E2
330
BFA8
100
AcDbEntity
  8
1
  6
Continuous
100
AcDbLine
 10
548.2499999999999
 20
290.905135
 30
0.0
 11
548.38
 21
290.545135
 31
0.0
  0
ARC
  5
C2E3
330
BFA8
100
AcDbEntity
  8
1
  6
Continuous
100
AcDbCircle
 10
551.711482
 20
294.0803629999999
 30
0.0
 40
4.697225
100
AcDbArc
 50
206.286695
 51
222.530249
  0
LINE
  5
C2E4
330
BFA8
100
AcDbEntity
  8
1
  6
Continuous
100
AcDbLine
 10
548.9249999999998
 20
292.5301349999998
 30
0.0
 11
549.095
 21
292.8901349999998
 31
0.0
  0
ARC
  5
C2E5
330
BFA8
100
AcDbEntity
  8
1
  6
Continuous
100
AcDbCircle
 10
548.373971
 20
291.6102819999998
 30
0.0
 40
0.9569799999999998
100
AcDbArc
 50
106.011913
 51
155.9597349999999
  0
ARC
  5
C2E6
330
BFA8
100
AcDbEntity
  8
1
  6
Continuous
100
AcDbCircle
 10
548.827841
 20
297.376284
 30
0.0
 40
3.611148999999998
100
AcDbArc
 50
243.711147
 51
270.0
  0
LINE
  5
C2E7
330
BFA8
100
AcDbEntity
  8
1
  6
Continuous
100
AcDbLine
 10
545.0916509999998
 20
295.5358529999998
 30
0.0
 11
545.089113
 21
295.5633129999998
 31
0.0
  0
ARC
  5
C2E8
330
BFA8
100
AcDbEntity
  8
1
  6
Continuous
100
AcDbCircle
 10
551.940683
 20
303.6777269999999
 30
0.0
 40
10.63951799999999
100
AcDbArc
 50
229.929097
 51
243.711147
  0
LINE
  5
C2E9
330
BFA8
100
AcDbEntity
  8
1
  6
Continuous
100
AcDbLine
 10
548.1
 20
288.569274
 30
0.0
 11
548.1
 21
290.545135
 31
0.0
  0
ARC
  5
C2EA
330
BFA8
100
AcDbEntity
  8
1
  6
Continuous
100
AcDbCircle
 10
551.1621699999998
 20
284.4452959999999
 30
0.0
 40
4.377608
100
AcDbArc
 50
119.165428
 51
134.469229
  0
ARC
  5
C2EB
330
BFA8
100
AcDbEntity
  8
1
  6
Continuous
100
AcDbCircle
 10
550.187265
 20
286.192157
 30
0.0
 40
2.377116999999997
100
AcDbArc
 50
89.82134
 51
119.165428
  0
LINE
  5
C2EC
330
BFA8
100
AcDbEntity
  8
1
  6
Continuous
100
AcDbLine
 10
533.1
 20
291.763008
 30
0.0
 11
533.1
 21
295.5633129999998
 31
0.0
  0
LINE
  5
C2ED
330
BFA8
100
AcDbEntity
  8
1
  6
Continuous
100
AcDbLine
 10
533.1
 20
287.569274
 30
0.0
 11
533.1
 21
288.263008
 31
0.0
  0
LINE
  5
C2EE
330
BFA8
100
AcDbEntity
  8
1
  6
Continuous
100
AcDbLine
 10
533.85
 20
289.013008
 30
0.0
 11
533.85
 21
291.013008
 31
0.0
  0
LINE
  5
C2EF
330
BFA8
100
AcDbEntity
  8
1
  6
Continuous
100
AcDbLine
 10
532.35
 20
289.013008
 30
0.0
 11
532.35
 21
291.013008
 31
0.0
  0
ARC
  5
C2F0
330
BFA8
100
AcDbEntity
  8
1
  6
Continuous
100
AcDbCircle
 10
533.1
 20
289.013008
 30
0.0
 40
0.75
100
AcDbArc
 50
180.0
 51
0.0
  0
ARC
  5
C2F1
330
BFA8
100
AcDbEntity
  8
1
  6
Continuous
100
AcDbCircle
 10
533.1
 20
291.013008
 30
0.0
 40
0.75
100
AcDbArc
 50
0.0
 51
180.0
  0
LINE
  5
C2F2
330
BFA8
100
AcDbEntity
  8
1
  6
Continuous
100
AcDbLine
 10
542.6
 20
295.5633129999998
 30
0.0
 11
542.6
 21
287.569274
 31
0.0
  0
ARC
  5
C2F3
330
BFA8
100
AcDbEntity
  8
1
  6
Continuous
100
AcDbCircle
 10
521.6
 20
282.969274
 30
0.0
 40
4.599999999999997
100
AcDbArc
 50
90.0
 51
180.0
  0
LINE
  5
C2F4
330
BFA8
100
AcDbEntity
  8
1
  6
Continuous
100
AcDbLine
 10
517.0
 20
282.969274
 30
0.0
 11
517.0
 21
269.569274
 31
0.0
  0
LINE
  5
C2F5
330
BFA8
100
AcDbEntity
  8
4
  6
CENTER
100
AcDbLine
 10
526.1
 20
293.306038
 30
0.0
 11
526.1
 21
301.327896
 31
0.0
  0
ARC
  5
C2F6
330
BFA8
100
AcDbEntity
  8
1
  6
Continuous
100
AcDbCircle
 10
519.630406
 20
300.763484
 30
0.0
 40
5.200171
100
AcDbArc
 50
247.3818949999999
 51
270.0
  0
LINE
  5
C2F7
330
BFA8
100
AcDbEntity
  8
1
  6
Continuous
100
AcDbLine
 10
523.6
 20
295.5633129999998
 30
0.0
 11
523.6
 21
287.569274
 31
0.0
  0
ARC
  5
C2F8
330
BFA8
100
AcDbEntity
  8
1
  6
Continuous
100
AcDbCircle
 10
243.6999999999999
 20
96.0
 30
0.0
 40
24.4005
100
AcDbArc
 50
45.862782
 51
128.214448
  0
ARC
  5
C2F9
330
BFA8
100
AcDbEntity
  8
1
  6
Continuous
100
AcDbCircle
 10
243.6999999999999
 20
96.0
 30
0.0
 40
53.469512
100
AcDbArc
 50
25.164939
 51
334.835061
  0
ARC
  5
C2FA
330
BFA8
100
AcDbEntity
  8
1
  6
Continuous
100
AcDbCircle
 10
243.6999999999999
 20
96.0
 30
0.0
 40
49.469512
100
AcDbArc
 50
29.68605199999999
 51
158.5381329999999
  0
ARC
  5
C2FB
330
BFA8
100
AcDbEntity
  8
1
  6
Continuous
100
AcDbCircle
 10
243.6999999999999
 20
96.0
 30
0.0
 40
49.469512
100
AcDbArc
 50
201.4618669999999
 51
330.313948
  0
LINE
  5
C2FC
330
BFA8
100
AcDbEntity
  8
1
  6
Continuous
100
AcDbLine
 10
227.336186
 20
247.767233
 30
0.0
 11
227.336186
 21
279.9172529999998
 31
0.0
  0
LINE
  5
C2FD
330
BFA8
100
AcDbEntity
  8
1
  6
Continuous
100
AcDbLine
 10
587.463814
 20
247.767233
 30
0.0
 11
587.463814
 21
279.9172529999998
 31
0.0
  0
ARC
  5
C2FE
330
BFA8
100
AcDbEntity
  8
1
  6
Continuous
100
AcDbCircle
 10
264.173894
 20
117.0999769999999
 30
0.0
 40
5.0
100
AcDbArc
 50
225.8627819999999
 51
253.459862
  0
ARC
  5
C2FF
330
BFA8
100
AcDbEntity
  8
1
  6
Continuous
100
AcDbCircle
 10
225.5126579999999
 20
119.1
 30
0.0
 40
5.0
100
AcDbArc
 50
270.0
 51
308.214448
  0
ARC
  5
C300
330
BFA8
100
AcDbEntity
  8
1
  6
Continuous
100
AcDbCircle
 10
264.173894
 20
117.0999769999999
 30
0.0
 40
7.599999999999998
100
AcDbArc
 50
225.8627819999999
 51
246.075988
  0
ARC
  5
C301
330
BFA8
100
AcDbEntity
  8
1
  6
Continuous
100
AcDbCircle
 10
243.6999999999999
 20
96.0
 30
0.0
 40
21.8005
100
AcDbArc
 50
45.862782
 51
128.214448
  0
ARC
  5
C302
330
BFA8
100
AcDbEntity
  8
1
  6
Continuous
100
AcDbCircle
 10
225.5126579999999
 20
119.1
 30
0.0
 40
7.599999999999998
100
AcDbArc
 50
270.0
 51
308.214448
  0
ARC
  5
C303
330
BFA8
100
AcDbEntity
  8
1
  6
Continuous
100
AcDbCircle
 10
264.173894
 20
74.900023
 30
0.0
 40
7.599999999999998
100
AcDbArc
 50
113.9240119999999
 51
134.137218
  0
ARC
  5
C304
330
BFA8
100
AcDbEntity
  8
1
  6
Continuous
100
AcDbCircle
 10
264.173894
 20
74.900023
 30
0.0
 40
5.0
100
AcDbArc
 50
106.5401379999998
 51
134.137218
  0
ARC
  5
C305
330
BFA8
100
AcDbEntity
  8
1
  6
Continuous
100
AcDbCircle
 10
243.6999999999999
 20
96.0
 30
0.0
 40
21.8005
100
AcDbArc
 50
231.785552
 51
314.137218
  0
ARC
  5
C306
330
BFA8
100
AcDbEntity
  8
1
  6
Continuous
100
AcDbCircle
 10
243.6999999999999
 20
96.0
 30
0.0
 40
24.4005
100
AcDbArc
 50
231.785552
 51
314.137218
  0
ARC
  5
C307
330
BFA8
100
AcDbEntity
  8
1
  6
Continuous
100
AcDbCircle
 10
225.5126579999999
 20
72.9
 30
0.0
 40
7.599999999999998
100
AcDbArc
 50
51.785552
 51
90.0
  0
ARC
  5
C308
330
BFA8
100
AcDbEntity
  8
1
  6
Continuous
100
AcDbCircle
 10
225.5126579999999
 20
72.9
 30
0.0
 40
5.0
100
AcDbArc
 50
51.785552
 51
90.0
  0
LINE
  5
C309
330
BFA8
100
AcDbEntity
  8
1
  6
Continuous
100
AcDbLine
 10
196.480884
 20
77.9
 30
0.0
 11
225.5126579999999
 21
77.9
 31
0.0
  0
LINE
  5
C30A
330
BFA8
100
AcDbEntity
  8
1
  6
Continuous
100
AcDbLine
 10
195.399509
 20
80.5
 30
0.0
 11
225.7
 21
80.5
 31
0.0
  0
ARC
  5
C30B
330
BFA8
100
AcDbEntity
  8
1
  6
Continuous
100
AcDbCircle
 10
407.3999999999998
 20
258.220808
 30
0.0
 40
24.400544
100
AcDbArc
 50
321.919752
 51
18.67667199999998
  0
ARC
  5
C30C
330
BFA8
100
AcDbEntity
  8
1
  6
Continuous
100
AcDbCircle
 10
425.5894579999998
 20
264.369346
 30
0.0
 40
5.2
100
AcDbArc
 50
18.67667199999998
 51
90.0
  0
ARC
  5
C30D
330
BFA8
100
AcDbEntity
  8
1
  6
Continuous
100
AcDbCircle
 10
430.7
 20
239.9642419999999
 30
0.0
 40
5.2
100
AcDbArc
 50
141.9197519999999
 51
180.0
  0
ARC
  5
C30E
330
BFA8
100
AcDbEntity
  8
1
  6
Continuous
100
AcDbCircle
 10
407.3999999999998
 20
258.220808
 30
0.0
 40
21.80054399999999
100
AcDbArc
 50
321.919752
 51
31.313754
  0
ARC
  5
C30F
330
BFA8
100
AcDbEntity
  8
1
  6
Continuous
100
AcDbCircle
 10
430.7
 20
239.9642419999999
 30
0.0
 40
7.799999999999998
100
AcDbArc
 50
141.9197519999999
 51
180.0
  0
ARC
  5
C310
330
BFA8
100
AcDbEntity
  8
1
  6
Continuous
100
AcDbCircle
 10
407.3999999999998
 20
258.220808
 30
0.0
 40
21.80054399999999
100
AcDbArc
 50
148.6862459999999
 51
218.080248
  0
ARC
  5
C311
330
BFA8
100
AcDbEntity
  8
1
  6
Continuous
100
AcDbCircle
 10
389.210542
 20
264.369346
 30
0.0
 40
5.2
100
AcDbArc
 50
90.0
 51
161.323328
  0
ARC
  5
C312
330
BFA8
100
AcDbEntity
  8
1
  6
Continuous
100
AcDbCircle
 10
407.3999999999998
 20
258.220808
 30
0.0
 40
24.400544
100
AcDbArc
 50
161.323328
 51
218.080248
  0
ARC
  5
C313
330
BFA8
100
AcDbEntity
  8
1
  6
Continuous
100
AcDbCircle
 10
384.1
 20
239.9642419999999
 30
0.0
 40
5.2
100
AcDbArc
 50
0.0
 51
38.080248
  0
ARC
  5
C314
330
BFA8
100
AcDbEntity
  8
1
  6
Continuous
100
AcDbCircle
 10
384.1
 20
239.9642419999999
 30
0.0
 40
7.799999999999998
100
AcDbArc
 50
0.0
 51
38.080248
  0
LINE
  5
C315
330
BFA8
100
AcDbEntity
  8
1
  6
Continuous
100
AcDbLine
 10
389.3
 20
239.9642419999999
 30
0.0
 11
389.3
 21
239.563073
 31
0.0
  0
CIRCLE
  5
C316
330
BFA8
100
AcDbEntity
  8
1
  6
Continuous
100
AcDbCircle
 10
243.6999999999999
 20
423.126324
 30
0.0
 40
51.95
  0
CIRCLE
  5
C317
330
BFA8
100
AcDbEntity
  8
1
  6
Continuous
100
AcDbCircle
 10
243.6999999999999
 20
423.126324
 30
0.0
 40
50.95
  0
ARC
  5
C318
330
BFA8
100
AcDbEntity
  8
1
  6
Continuous
100
AcDbCircle
 10
80.0
 20
258.220808
 30
0.0
 40
24.400544
100
AcDbArc
 50
180.0
 51
218.080248
  0
ARC
  5
C319
330
BFA8
100
AcDbEntity
  8
1
  6
Continuous
100
AcDbCircle
 10
80.0
 20
258.220808
 30
0.0
 40
24.400544
100
AcDbArc
 50
321.919752
 51
331.652683
  0
LINE
  5
C31A
330
BFA8
100
AcDbEntity
  8
1
  6
Continuous
100
AcDbLine
 10
55.599456
 20
285.9692739999999
 30
0.0
 11
55.599456
 21
258.220808
 31
0.0
  0
LINE
  5
C31B
330
BFA8
100
AcDbEntity
  8
1
  6
Continuous
100
AcDbLine
 10
104.400544
 20
285.9692739999999
 30
0.0
 11
104.400544
 21
260.4914659999999
 31
0.0
  0
ARC
  5
C31C
330
BFA8
100
AcDbEntity
  8
1
  6
Continuous
100
AcDbCircle
 10
56.7
 20
239.9642419999999
 30
0.0
 40
5.2
100
AcDbArc
 50
0.0
 51
38.080248
  0
ARC
  5
C31D
330
BFA8
100
AcDbEntity
  8
1
  6
Continuous
100
AcDbCircle
 10
103.2999999999999
 20
239.9642419999999
 30
0.0
 40
5.2
100
AcDbArc
 50
141.9197519999999
 51
180.0
  0
ARC
  5
C31E
330
BFA8
100
AcDbEntity
  8
1
  6
Continuous
100
AcDbCircle
 10
111.5641019999999
 20
253.5632629999998
 30
0.0
 40
11.464102
100
AcDbArc
 50
162.412046
 51
197.5879539999999
  0
ARC
  5
C31F
330
BFA8
100
AcDbEntity
  8
1
  6
Continuous
100
AcDbCircle
 10
93.63589799999996
 20
253.5632629999998
 30
0.0
 40
11.464102
100
AcDbArc
 50
342.4120459999999
 51
17.587954
  0
LINE
  5
C320
330
BFA8
100
AcDbEntity
  8
1
  6
Continuous
100
AcDbLine
 10
105.0999999999998
 20
247.5632629999998
 30
0.0
 11
105.0999999999998
 21
259.563263
 31
0.0
  0
LINE
  5
C321
330
BFA8
100
AcDbEntity
  8
1
  6
Continuous
100
AcDbLine
 10
100.6358979999999
 20
260.4914659999999
 30
0.0
 11
100.0999999999998
 21
259.563263
 31
0.0
  0
LINE
  5
C322
330
BFA8
100
AcDbEntity
  8
1
  6
Continuous
100
AcDbLine
 10
104.564102
 20
260.4914659999999
 30
0.0
 11
105.0999999999998
 21
259.563263
 31
0.0
  0
LINE
  5
C323
330
BFA8
100
AcDbEntity
  8
1
  6
Continuous
100
AcDbLine
 10
104.564102
 20
260.4914659999999
 30
0.0
 11
100.6358979999999
 21
260.4914659999999
 31
0.0
  0
LINE
  5
C324
330
BFA8
100
AcDbEntity
  8
1
  6
Continuous
100
AcDbLine
 10
104.564102
 20
257.0273649999999
 30
0.0
 11
100.6358979999999
 21
257.0273649999999
 31
0.0
  0
ARC
  5
C325
330
BFA8
100
AcDbEntity
  8
1
  6
Continuous
100
AcDbCircle
 10
102.033013
 20
258.759415
 30
0.0
 40
3.066986999999998
100
AcDbArc
 50
325.6157529999999
 51
25.615753
  0
ARC
  5
C326
330
BFA8
100
AcDbEntity
  8
1
  6
Continuous
100
AcDbCircle
 10
103.1669869999999
 20
258.759415
 30
0.0
 40
3.066986999999998
100
AcDbArc
 50
154.3842469999999
 51
214.384247
  0
ARC
  5
C327
330
BFA8
100
AcDbEntity
  8
1
  6
Continuous
100
AcDbCircle
 10
103.1669869999999
 20
248.3671109999999
 30
0.0
 40
3.066986999999998
100
AcDbArc
 50
145.615753
 51
205.615753
  0
ARC
  5
C328
330
BFA8
100
AcDbEntity
  8
1
  6
Continuous
100
AcDbCircle
 10
102.033013
 20
248.3671109999999
 30
0.0
 40
3.066986999999998
100
AcDbArc
 50
334.384247
 51
34.38424699999998
  0
LINE
  5
C329
330
BFA8
100
AcDbEntity
  8
1
  6
Continuous
100
AcDbLine
 10
104.564102
 20
250.0991609999999
 30
0.0
 11
100.6358979999999
 21
250.0991609999999
 31
0.0
  0
LINE
  5
C32A
330
BFA8
100
AcDbEntity
  8
1
  6
Continuous
100
AcDbLine
 10
104.564102
 20
246.63506
 30
0.0
 11
100.6358979999999
 21
246.63506
 31
0.0
  0
LINE
  5
C32B
330
BFA8
100
AcDbEntity
  8
1
  6
Continuous
100
AcDbLine
 10
104.564102
 20
246.63506
 30
0.0
 11
105.0999999999998
 21
247.5632629999998
 31
0.0
  0
LINE
  5
C32C
330
BFA8
100
AcDbEntity
  8
1
  6
Continuous
100
AcDbLine
 10
100.6358979999999
 20
246.63506
 30
0.0
 11
100.0999999999998
 21
247.5632629999998
 31
0.0
  0
LINE
  5
C32D
330
BFA8
100
AcDbEntity
  8
1
  6
Continuous
100
AcDbLine
 10
100.0999999999998
 20
255.5632629999998
 30
0.0
 11
98.1
 21
253.5632629999998
 31
0.0
  0
LINE
  5
C32E
330
BFA8
100
AcDbEntity
  8
1
  6
Continuous
100
AcDbLine
 10
100.0999999999998
 20
253.5632629999998
 30
0.0
 11
98.1
 21
251.5632629999998
 31
0.0
  0
LINE
  5
C32F
330
BFA8
100
AcDbEntity
  8
1
  6
Continuous
100
AcDbLine
 10
211.6999999999999
 20
257.0273149999998
 30
0.0
 11
211.6999999999999
 21
250.099111
 31
0.0
  0
LINE
  5
C330
330
BFA8
100
AcDbEntity
  8
1
  6
Continuous
100
AcDbLine
 10
223.7
 20
257.0273149999998
 30
0.0
 11
223.7
 21
250.099111
 31
0.0
  0
CIRCLE
  5
C331
330
BFA8
100
AcDbEntity
  8
1
  6
Continuous
100
AcDbCircle
 10
217.7
 20
253.5632129999999
 30
0.0
 40
6.0
  0
LINE
  5
C332
330
BFA8
100
AcDbEntity
  8
1
  6
Continuous
100
AcDbLine
 10
217.7
 20
246.63501
 30
0.0
 11
223.7
 21
250.099111
 31
0.0
  0
LINE
  5
C333
330
BFA8
100
AcDbEntity
  8
1
  6
Continuous
100
AcDbLine
 10
217.7
 20
246.63501
 30
0.0
 11
211.6999999999999
 21
250.099111
 31
0.0
  0
LINE
  5
C334
330
BFA8
100
AcDbEntity
  8
1
  6
Continuous
100
AcDbLine
 10
223.7
 20
257.0273149999998
 30
0.0
 11
217.7
 21
260.491416
 31
0.0
  0
LINE
  5
C335
330
BFA8
100
AcDbEntity
  8
1
  6
Continuous
100
AcDbLine
 10
211.6999999999999
 20
257.0273149999998
 30
0.0
 11
217.7
 21
260.491416
 31
0.0
  0
LINE
  5
C336
330
BFA8
100
AcDbEntity
  8
1
  6
Continuous
100
AcDbLine
 10
382.8358979999999
 20
246.63506
 30
0.0
 11
382.3
 21
247.5632629999998
 31
0.0
  0
LINE
  5
C337
330
BFA8
100
AcDbEntity
  8
1
  6
Continuous
100
AcDbLine
 10
382.8358979999999
 20
246.63506
 30
0.0
 11
385.925434
 21
246.63506
 31
0.0
  0
LINE
  5
C338
330
BFA8
100
AcDbEntity
  8
1
  6
Continuous
100
AcDbLine
 10
382.8358979999999
 20
250.0991609999999
 30
0.0
 11
384.390754
 21
250.0991609999999
 31
0.0
  0
ARC
  5
C339
330
BFA8
100
AcDbEntity
  8
1
  6
Continuous
100
AcDbCircle
 10
385.366987
 20
248.3671109999999
 30
0.0
 40
3.066986999999998
100
AcDbArc
 50
145.615753
 51
205.615753
  0
ARC
  5
C33A
330
BFA8
100
AcDbEntity
  8
1
  6
Continuous
100
AcDbCircle
 10
385.366987
 20
258.759415
 30
0.0
 40
3.066986999999998
100
AcDbArc
 50
154.3842469999999
 51
214.384247
  0
LINE
  5
C33B
330
BFA8
100
AcDbEntity
  8
1
  6
Continuous
100
AcDbLine
 10
382.8358979999999
 20
257.0273649999999
 30
0.0
 11
383.028659
 21
257.0273649999999
 31
0.0
  0
LINE
  5
C33C
330
BFA8
100
AcDbEntity
  8
1
  6
Continuous
100
AcDbLine
 10
382.8358979999999
 20
260.4914659999999
 30
0.0
 11
382.999456
 21
260.4914659999999
 31
0.0
  0
LINE
  5
C33D
330
BFA8
100
AcDbEntity
  8
1
  6
Continuous
100
AcDbLine
 10
382.8358979999999
 20
260.4914659999999
 30
0.0
 11
382.3
 21
259.563263
 31
0.0
  0
LINE
  5
C33E
330
BFA8
100
AcDbEntity
  8
1
  6
Continuous
100
AcDbLine
 10
382.3
 20
247.5632629999998
 30
0.0
 11
382.3
 21
259.563263
 31
0.0
  0
ARC
  5
C33F
330
BFA8
100
AcDbEntity
  8
1
  6
Continuous
100
AcDbCircle
 10
393.764102
 20
253.5632629999998
 30
0.0
 40
11.464102
100
AcDbArc
 50
162.412046
 51
197.5879539999999
  0
ARC
  5
C340
330
BFA8
100
AcDbEntity
  8
1
  6
Continuous
100
AcDbCircle
 10
214.6999999999999
 20
112.4349359999999
 30
0.0
 40
8.665063999999999
100
AcDbArc
 50
69.743842
 51
110.256158
  0
ARC
  5
C341
330
BFA8
100
AcDbEntity
  8
1
  6
Continuous
100
AcDbCircle
 10
214.6999999999999
 20
124.765064
 30
0.0
 40
8.665063999999999
100
AcDbArc
 50
249.7438419999999
 51
290.256158
  0
LINE
  5
C342
330
BFA8
100
AcDbEntity
  8
1
  6
Continuous
100
AcDbLine
 10
223.7
 20
121.1
 30
0.0
 11
211.6999999999999
 21
121.1
 31
0.0
  0
LINE
  5
C343
330
BFA8
100
AcDbEntity
  8
1
  6
Continuous
100
AcDbLine
 10
211.6999999999999
 20
116.1
 30
0.0
 11
211.6999999999999
 21
121.1
 31
0.0
  0
ARC
  5
C344
330
BFA8
100
AcDbEntity
  8
1
  6
Continuous
100
AcDbCircle
 10
220.6999999999999
 20
112.4349359999999
 30
0.0
 40
8.665063999999999
100
AcDbArc
 50
69.743842
 51
110.256158
  0
ARC
  5
C345
330
BFA8
100
AcDbEntity
  8
1
  6
Continuous
100
AcDbCircle
 10
220.6999999999999
 20
124.765064
 30
0.0
 40
8.665063999999999
100
AcDbArc
 50
249.7438419999999
 51
290.256158
  0
LINE
  5
C346
330
BFA8
100
AcDbEntity
  8
1
  6
Continuous
100
AcDbLine
 10
217.7
 20
120.564102
 30
0.0
 11
217.7
 21
116.635898
 31
0.0
  0
LINE
  5
C347
330
BFA8
100
AcDbEntity
  8
1
  6
Continuous
100
AcDbLine
 10
223.7
 20
116.1
 30
0.0
 11
223.7
 21
121.1
 31
0.0
  0
LINE
  5
C348
330
BFA8
100
AcDbEntity
  8
1
  6
Continuous
100
AcDbLine
 10
217.7
 20
116.1
 30
0.0
 11
219.7
 21
114.1
 31
0.0
  0
LINE
  5
C349
330
BFA8
100
AcDbEntity
  8
1
  6
Continuous
100
AcDbLine
 10
215.7
 20
116.1
 30
0.0
 11
217.7
 21
114.1
 31
0.0
  0
LINE
  5
C34A
330
BFA8
100
AcDbEntity
  8
4
  6
CENTER
100
AcDbLine
 10
281.6999999999998
 20
453.126324
 30
0.0
 11
281.6999999999998
 21
393.126324
 31
0.0
  0
LINE
  5
C34B
330
BFA8
100
AcDbEntity
  8
4
  6
CENTER
100
AcDbLine
 10
217.7
 20
395.0263239999999
 30
0.0
 11
217.7
 21
454.533699
 31
0.0
  0
LINE
  5
C34C
330
BFA8
100
AcDbEntity
  8
1
  6
Continuous
100
AcDbLine
 10
298.7
 20
295.96332
 30
0.0
 11
298.7
 21
298.5633199999999
 31
0.0
  0
LINE
  5
C34D
330
BFA8
100
AcDbEntity
  8
1
  6
Continuous
100
AcDbLine
 10
188.7
 20
298.5633199999999
 30
0.0
 11
298.7
 21
298.5633199999999
 31
0.0
  0
LINE
  5
C34E
330
BFA8
100
AcDbEntity
  8
1
  6
Continuous
100
AcDbLine
 10
188.7
 20
295.96332
 30
0.0
 11
298.7
 21
295.96332
 31
0.0
  0
LINE
  5
C34F
330
BFA8
100
AcDbEntity
  8
1
  6
Continuous
100
AcDbLine
 10
626.1
 20
298.5633199999999
 30
0.0
 11
516.1
 21
298.5633199999999
 31
0.0
  0
LINE
  5
C350
330
BFA8
100
AcDbEntity
  8
1
  6
Continuous
100
AcDbLine
 10
516.1
 20
295.96332
 30
0.0
 11
516.1
 21
298.5633199999999
 31
0.0
  0
LINE
  5
C351
330
BFA8
100
AcDbEntity
  8
1
  6
Continuous
100
AcDbLine
 10
352.4
 20
298.5633199999999
 30
0.0
 11
462.3999999999998
 21
298.5633199999999
 31
0.0
  0
LINE
  5
C352
330
BFA8
100
AcDbEntity
  8
1
  6
Continuous
100
AcDbLine
 10
25.0
 20
298.5633199999999
 30
0.0
 11
25.0
 21
295.96332
 31
0.0
  0
LINE
  5
C353
330
BFA8
100
AcDbEntity
  8
1
  6
Continuous
100
AcDbLine
 10
135.0
 20
298.5633199999999
 30
0.0
 11
25.0
 21
298.5633199999999
 31
0.0
  0
ENDSEC
  0
SECTION
  2
OBJECTS
  0
DICTIONARY
  5
BF96
330
0
100
AcDbDictionary
281
     1
  3
ACAD_CIP_PREVIOUS_PRODUCT_INFO
350
C3B5
  3
ACAD_COLOR
350
C397
  3
ACAD_DETAILVIEWSTYLE
350
C3B0
  3
ACAD_GROUP
350
BF97
  3
ACAD_LAYOUT
350
BFA3
  3
ACAD_MATERIAL
350
C365
  3
ACAD_MLEADERSTYLE
350
C3AC
  3
ACAD_MLINESTYLE
350
BFA0
  3
ACAD_PLOTSETTINGS
350
BFA2
  3
ACAD_PLOTSTYLENAME
350
C363
  3
ACAD_SCALELIST
350
C39A
  3
ACAD_SECTIONVIEWSTYLE
350
C3AE
  3
ACAD_TABLESTYLE
350
C398
  3
ACAD_VISUALSTYLE
350
C37E
  3
ACDB_RECOMPOSE_DATA
350
C3D3
  3
AcDbVariableDictionary
350
C3C6
  3
DWGPROPS
350
C3D4
  0
DICTIONARY
  5
C3B6
330
BF9A
100
AcDbDictionary
280
     1
281
     1
  3
ADSK_XREC_LAYER_RECONCILED
360
C3B7
  0
DICTIONARY
  5
C3B8
330
BFB0
100
AcDbDictionary
280
     1
281
     1
  3
ADSK_XREC_LAYER_RECONCILED
360
C3B9
  0
DICTIONARY
  5
C3BA
330
BFB1
100
AcDbDictionary
280
     1
281
     1
  3
ADSK_XREC_LAYER_RECONCILED
360
C3BB
  0
DICTIONARY
  5
C3BC
330
BFB2
100
AcDbDictionary
280
     1
281
     1
  3
ADSK_XREC_LAYER_RECONCILED
360
C3BD
  0
DICTIONARY
  5
C3BE
330
BFB3
100
AcDbDictionary
280
     1
281
     1
  3
ADSK_XREC_LAYER_RECONCILED
360
C3BF
  0
DICTIONARY
  5
C3C0
330
BFB4
100
AcDbDictionary
280
     1
281
     1
  3
ADSK_XREC_LAYER_RECONCILED
360
C3C1
  0
DICTIONARY
  5
C3C2
330
BFB5
100
AcDbDictionary
280
     1
281
     1
  3
ADSK_XREC_LAYER_RECONCILED
360
C3C3
  0
DICTIONARY
  5
C3C4
330
BFB6
100
AcDbDictionary
280
     1
281
     1
  3
ADSK_XREC_LAYER_RECONCILED
360
C3C5
  0
DICTIONARY
  5
C35E
330
BFA8
100
AcDbDictionary
281
     1
  3
ACAD_LAYOUTSELFREF
350
C35F
  0
DICTIONARY
  5
C35C
330
BFA4
100
AcDbDictionary
281
     1
  3
ACAD_LAYOUTSELFREF
350
C35D
  0
XRECORD
  5
C3B5
102
{ACAD_REACTORS
330
BF96
102
}
330
BF96
100
AcDbXrecord
280
     1
300
ACDLT
300
2014
300
ACDLT_F_S
  0
DICTIONARY
  5
C397
102
{ACAD_REACTORS
330
BF96
102
}
330
BF96
100
AcDbDictionary
281
     1
  0
DICTIONARY
  5
C3B0
102
{ACAD_REACTORS
330
BF96
102
}
330
BF96
100
AcDbDictionary
281
     1
  3
Imperial24
350
C3B1
  0
DICTIONARY
  5
BF97
102
{ACAD_REACTORS
330
BF96
102
}
330
BF96
100
AcDbDictionary
281
     1
  0
DICTIONARY
  5
BFA3
102
{ACAD_REACTORS
330
BF96
102
}
330
BF96
100
AcDbDictionary
281
     1
  3
Model
350
C3B2
  3
レイアウト1
350
C3B3
  0
DICTIONARY
  5
C365
102
{ACAD_REACTORS
330
BF96
102
}
330
BF96
100
AcDbDictionary
281
     1
  3
ByBlock
350
C36E
  3
ByLayer
350
C366
  3
Global
350
C376
  0
DICTIONARY
  5
C3AC
102
{ACAD_REACTORS
330
BF96
102
}
330
BF96
100
AcDbDictionary
281
     1
  3
Standard
350
C3AD
  0
DICTIONARY
  5
BFA0
102
{ACAD_REACTORS
330
BF96
102
}
330
BF96
100
AcDbDictionary
281
     1
  3
STANDARD
350
BFA1
  0
DICTIONARY
  5
BFA2
102
{ACAD_REACTORS
330
BF96
102
}
330
BF96
100
AcDbDictionary
281
     1
  0
ACDBDICTIONARYWDFLT
  5
C363
102
{ACAD_REACTORS
330
BF96
102
}
330
BF96
100
AcDbDictionary
281
     1
  3
Normal
350
C364
100
AcDbDictionaryWithDefault
340
C364
  0
DICTIONARY
  5
C39A
102
{ACAD_REACTORS
330
BF96
102
}
330
BF96
100
AcDbDictionary
281
     1
  3
A0
350
C39B
  3
A1
350
C39C
  3
A2
350
C39D
  3
A3
350
C39E
  3
A4
350
C39F
  3
A5
350
C3A0
  3
A6
350
C3A1
  3
A7
350
C3A2
  3
A8
350
C3A3
  3
A9
350
C3A4
  3
B0
350
C3A5
  3
B1
350
C3A6
  3
B2
350
C3A7
  3
B3
350
C3A8
  3
B4
350
C3A9
  3
B5
350
C3AA
  3
B6
350
C3AB
  0
DICTIONARY
  5
C3AE
102
{ACAD_REACTORS
330
BF96
102
}
330
BF96
100
AcDbDictionary
281
     1
  3
Imperial24
350
C3AF
  0
DICTIONARY
  5
C398
102
{ACAD_REACTORS
330
BF96
102
}
330
BF96
100
AcDbDictionary
281
     1
  3
Standard
350
C399
  0
DICTIONARY
  5
C37E
102
{ACAD_REACTORS
330
BF96
102
}
330
BF96
100
AcDbDictionary
281
     1
  3
2dWireframe
350
C384
  3
Basic
350
C383
  3
Brighten
350
C38A
  3
ColorChange
350
C38E
  3
Conceptual
350
C387
  3
Dim
350
C389
  3
EdgeColorOff
350
C396
  3
Facepattern
350
C38D
  3
Flat
350
C37F
  3
FlatWithEdges
350
C380
  3
Gouraud
350
C381
  3
GouraudWithEdges
350
C382
  3
Hidden
350
C386
  3
JitterOff
350
C394
  3
Linepattern
350
C38C
  3
OverhangOff
350
C395
  3
Realistic
350
C388
  3
Shaded
350
C393
  3
Shaded with edges
350
C392
  3
Shades of Gray
350
C38F
  3
Sketchy
350
C390
  3
Thicken
350
C38B
  3
Wireframe
350
C385
  3
X-Ray
350
C391
  0
XRECORD
  5
C3D3
102
{ACAD_REACTORS
330
BF96
102
}
330
BF96
100
AcDbXrecord
280
     1
 90
        1
330
C399
  0
DICTIONARY
  5
C3C6
102
{ACAD_REACTORS
330
BF96
102
}
330
BF96
100
AcDbDictionary
281
     1
  3
CANNOSCALE
350
C3CB
  3
CMLEADERSTYLE
350
C3C8
  3
CTABLESTYLE
350
C3C7
  3
CVIEWDETAILSTYLE
350
C3C9
  3
CVIEWSECTIONSTYLE
350
C3CA
  3
DIMASSOC
350
C3CE
  3
INDEXCTL
350
C3CD
  3
SORTENTS
350
C3CC
  3
XCLIPFRAME
350
C3CF
  0
XRECORD
  5
C3D4
102
{ACAD_REACTORS
330
BF96
102
}
330
BF96
100
AcDbXrecord
280
     1
  1
DWGPROPS COOKIE
  2

  3

  4

  6

  7

  8
Yoshitsune
  9

300
=
301
=
302
=
303
=
304
=
305
=
306
=
307
=
308
=
309
=
 40
0.0000111574074074
 41
2451302.611470718
 42
2457192.686608264
  1

 90
        0
  0
XRECORD
  5
C3B7
102
{ACAD_REACTORS
330
C3B6
102
}
330
C3B6
100
AcDbXrecord
280
     1
290
     1
  0
XRECORD
  5
C3B9
102
{ACAD_REACTORS
330
C3B8
102
}
330
C3B8
100
AcDbXrecord
280
     1
290
     1
  0
XRECORD
  5
C3BB
102
{ACAD_REACTORS
330
C3BA
102
}
330
C3BA
100
AcDbXrecord
280
     1
290
     1
  0
XRECORD
  5
C3BD
102
{ACAD_REACTORS
330
C3BC
102
}
330
C3BC
100
AcDbXrecord
280
     1
290
     1
  0
XRECORD
  5
C3BF
102
{ACAD_REACTORS
330
C3BE
102
}
330
C3BE
100
AcDbXrecord
280
     1
290
     1
  0
XRECORD
  5
C3C1
102
{ACAD_REACTORS
330
C3C0
102
}
330
C3C0
100
AcDbXrecord
280
     1
290
     1
  0
XRECORD
  5
C3C3
102
{ACAD_REACTORS
330
C3C2
102
}
330
C3C2
100
AcDbXrecord
280
     1
290
     1
  0
XRECORD
  5
C3C5
102
{ACAD_REACTORS
330
C3C4
102
}
330
C3C4
100
AcDbXrecord
280
     1
290
     1
  0
XRECORD
  5
C35F
102
{ACAD_REACTORS
330
C35E
102
}
330
C35E
100
AcDbXrecord
280
     1
340
BFA8
  0
XRECORD
  5
C35D
102
{ACAD_REACTORS
330
C35C
102
}
330
C35C
100
AcDbXrecord
280
     1
340
BFA4
  0
ACDBDETAILVIEWSTYLE
  5
C3B1
102
{ACAD_XDICTIONARY
360
C40C
102
}
102
{ACAD_REACTORS
330
C3B0
102
}
330
C3B0
100
AcDbModelDocViewStyle
 70
     0
  3
Imperial24
290
     0
100
AcDbDetailViewStyle
 70
     0
 71
     0
 90
        3
 71
     1
340
BF9B
 40
0.24
340
0
 40
0.24
300

 40
0.36
280
     3
 71
     2
340
BF9F
 90
       25
 71
     3
340
BF9B
 40
0.24
 90
        1
 40
0.75
 90
        1
300
%<\AcVar ViewType \f "%tc1">% %<\AcVar ViewDetailId>%\PSCALE %<\AcVar ViewScale \f "%sn">%
 71
     4
340
BF9F
 90
       25
340
BF9F
 90
       25
280
     0
  0
LAYOUT
  5
C3B2
102
{ACAD_XDICTIONARY
360
C40E
102
}
102
{ACAD_REACTORS
330
BFA3
102
}
330
BFA3
100
AcDbPlotSettings
  1

  2
Canon LBP9100C
  4

  6

 40
0.0
 41
0.0
 42
0.0
 43
0.0
 44
0.0
 45
0.0
 46
0.0
 47
0.0
 48
0.0
 49
0.0
140
0.0
141
0.0
142
1.0
143
1.0
 70
  1712
 72
     0
 73
     0
 74
     0
  7

 75
     0
147
1.0
148
0.0
149
0.0
100
AcDbLayout
  1
Model
 70
     1
 71
     0
 10
0.0
 20
0.0
 11
12.0
 21
9.0
 12
0.0
 22
0.0
 32
0.0
 14
0.0
 24
0.0
 34
0.0
 15
0.0
 25
0.0
 35
0.0
146
0.0
 13
0.0
 23
0.0
 33
0.0
 16
1.0
 26
0.0
 36
0.0
 17
0.0
 27
1.0
 37
0.0
 76
     0
330
BFA8
331
C35B
  0
LAYOUT
  5
C3B3
102
{ACAD_XDICTIONARY
360
C410
102
}
102
{ACAD_REACTORS
330
BFA3
102
}
330
BFA3
100
AcDbPlotSettings
  1

  2
Canon LBP9100C
  4

  6

 40
0.0
 41
0.0
 42
0.0
 43
0.0
 44
0.0
 45
0.0
 46
0.0
 47
0.0
 48
0.0
 49
0.0
140
0.0
141
0.0
142
1.0
143
1.0
 70
   688
 72
     0
 73
     0
 74
     5
  7

 75
    16
147
1.0
148
0.0
149
0.0
100
AcDbLayout
  1
レイアウト1
 70
     0
 71
     1
 10
0.0
 20
0.0
 11
420.0
 21
297.0
 12
0.0
 22
0.0
 32
0.0
 14
1.000000000000000E+20
 24
1.000000000000000E+20
 34
1.000000000000000E+20
 15
-1.000000000000000E+20
 25
-1.000000000000000E+20
 35
-1.000000000000000E+20
146
0.0
 13
0.0
 23
0.0
 33
0.0
 16
1.0
 26
0.0
 36
0.0
 17
0.0
 27
1.0
 37
0.0
 76
     0
330
BFA4
  0
MATERIAL
  5
C36E
102
{ACAD_XDICTIONARY
360
C36F
102
}
102
{ACAD_REACTORS
330
C365
102
}
330
C365
100
AcDbMaterial
  1
ByBlock
 72
     0
 43
0.0208333333333333
 43
0.0
 43
0.0
 43
0.0
 43
0.0
 43
0.0208333333333333
 43
0.0
 43
0.0
 43
0.0
 43
0.0
 43
1.0
 43
0.0
 43
0.0
 43
0.0
 43
0.0
 43
1.0
 77
     0
 47
0.0208333333333333
 47
0.0
 47
0.0
 47
0.0
 47
0.0
 47
0.0208333333333333
 47
0.0
 47
0.0
 47
0.0
 47
0.0
 47
1.0
 47
0.0
 47
0.0
 47
0.0
 47
0.0
 47
1.0
171
     0
 49
0.0208333333333333
 49
0.0
 49
0.0
 49
0.0
 49
0.0
 49
0.0208333333333333
 49
0.0
 49
0.0
 49
0.0
 49
0.0
 49
1.0
 49
0.0
 49
0.0
 49
0.0
 49
0.0
 49
1.0
175
     0
142
0.0208333333333333
142
0.0
142
0.0
142
0.0
142
0.0
142
0.0208333333333333
142
0.0
142
0.0
142
0.0
142
0.0
142
1.0
142
0.0
142
0.0
142
0.0
142
0.0
142
1.0
179
     0
144
0.0208333333333333
144
0.0
144
0.0
144
0.0
144
0.0
144
0.0208333333333333
144
0.0
144
0.0
144
0.0
144
0.0
144
1.0
144
0.0
144
0.0
144
0.0
144
0.0
144
1.0
147
0.0208333333333333
147
0.0
147
0.0
147
0.0
147
0.0
147
0.0208333333333333
147
0.0
147
0.0
147
0.0
147
0.0
147
1.0
147
0.0
147
0.0
147
0.0
147
0.0
147
1.0
  0
MATERIAL
  5
C366
102
{ACAD_XDICTIONARY
360
C367
102
}
102
{ACAD_REACTORS
330
C365
102
}
330
C365
100
AcDbMaterial
  1
ByLayer
 72
     0
 43
0.0208333333333333
 43
0.0
 43
0.0
 43
0.0
 43
0.0
 43
0.0208333333333333
 43
0.0
 43
0.0
 43
0.0
 43
0.0
 43
1.0
 43
0.0
 43
0.0
 43
0.0
 43
0.0
 43
1.0
 77
     0
 47
0.0208333333333333
 47
0.0
 47
0.0
 47
0.0
 47
0.0
 47
0.0208333333333333
 47
0.0
 47
0.0
 47
0.0
 47
0.0
 47
1.0
 47
0.0
 47
0.0
 47
0.0
 47
0.0
 47
1.0
171
     0
 49
0.0208333333333333
 49
0.0
 49
0.0
 49
0.0
 49
0.0
 49
0.0208333333333333
 49
0.0
 49
0.0
 49
0.0
 49
0.0
 49
1.0
 49
0.0
 49
0.0
 49
0.0
 49
0.0
 49
1.0
175
     0
142
0.0208333333333333
142
0.0
142
0.0
142
0.0
142
0.0
142
0.0208333333333333
142
0.0
142
0.0
142
0.0
142
0.0
142
1.0
142
0.0
142
0.0
142
0.0
142
0.0
142
1.0
179
     0
144
0.0208333333333333
144
0.0
144
0.0
144
0.0
144
0.0
144
0.0208333333333333
144
0.0
144
0.0
144
0.0
144
0.0
144
1.0
144
0.0
144
0.0
144
0.0
144
0.0
144
1.0
147
0.0208333333333333
147
0.0
147
0.0
147
0.0
147
0.0
147
0.0208333333333333
147
0.0
147
0.0
147
0.0
147
0.0
147
1.0
147
0.0
147
0.0
147
0.0
147
0.0
147
1.0
  0
MATERIAL
  5
C376
102
{ACAD_XDICTIONARY
360
C377
102
}
102
{ACAD_REACTORS
330
C365
102
}
330
C365
100
AcDbMaterial
  1
Global
 72
     0
 43
0.0208333333333333
 43
0.0
 43
0.0
 43
0.0
 43
0.0
 43
0.0208333333333333
 43
0.0
 43
0.0
 43
0.0
 43
0.0
 43
1.0
 43
0.0
 43
0.0
 43
0.0
 43
0.0
 43
1.0
 77
     0
 47
0.0208333333333333
 47
0.0
 47
0.0
 47
0.0
 47
0.0
 47
0.0208333333333333
 47
0.0
 47
0.0
 47
0.0
 47
0.0
 47
1.0
 47
0.0
 47
0.0
 47
0.0
 47
0.0
 47
1.0
171
     0
 49
0.0208333333333333
 49
0.0
 49
0.0
 49
0.0
 49
0.0
 49
0.0208333333333333
 49
0.0
 49
0.0
 49
0.0
 49
0.0
 49
1.0
 49
0.0
 49
0.0
 49
0.0
 49
0.0
 49
1.0
175
     0
142
0.0208333333333333
142
0.0
142
0.0
142
0.0
142
0.0
142
0.0208333333333333
142
0.0
142
0.0
142
0.0
142
0.0
142
1.0
142
0.0
142
0.0
142
0.0
142
0.0
142
1.0
179
     0
144
0.0208333333333333
144
0.0
144
0.0
144
0.0
144
0.0
144
0.0208333333333333
144
0.0
144
0.0
144
0.0
144
0.0
144
1.0
144
0.0
144
0.0
144
0.0
144
0.0
144
1.0
147
0.0208333333333333
147
0.0
147
0.0
147
0.0
147
0.0
147
0.0208333333333333
147
0.0
147
0.0
147
0.0
147
0.0
147
1.0
147
0.0
147
0.0
147
0.0
147
0.0
147
1.0
  0
MLEADERSTYLE
  5
C3AD
102
{ACAD_REACTORS
330
C3AC
102
}
330
C3AC
100
AcDbMLeaderStyle
170
     2
171
     1
172
     0
 90
        2
 40
0.0
 41
0.0
173
     1
 91
-1056964608
340
BF9D
 92
       -2
290
     1
 42
0.09
291
     1
 43
0.36
  3
Standard
 44
0.18
300

342
BF9B
174
     1
178
     6
175
     1
176
     0
 93
-1056964608
 45
0.18
292
     0
297
     0
 46
0.18
 94
-1056964608
 47
1.0
 49
1.0
140
1.0
293
     1
141
0.0
294
     1
177
     0
142
1.0
295
     0
296
     0
143
0.125
1001
ACAD_MLEADERVER
1070
     2
  0
MLINESTYLE
  5
BFA1
102
{ACAD_REACTORS
330
BFA0
102
}
330
BFA0
100
AcDbMlineStyle
  2
STANDARD
 70
     0
  3

 62
   256
 51
90.0
 52
90.0
 71
     2
 49
0.5
 62
   256
  6
BYLAYER
 49
-0.5
 62
   256
  6
BYLAYER
  0
ACDBPLACEHOLDER
  5
C364
102
{ACAD_REACTORS
330
C363
102
}
330
C363
  0
SCALE
  5
C39B
102
{ACAD_REACTORS
330
C39A
102
}
330
C39A
100
AcDbScale
 70
     0
300
1:1
140
1.0
141
1.0
290
     1
  0
SCALE
  5
C39C
102
{ACAD_REACTORS
330
C39A
102
}
330
C39A
100
AcDbScale
 70
     0
300
1/128" = 1'-0"
140
0.0078125
141
12.0
290
     0
  0
SCALE
  5
C39D
102
{ACAD_REACTORS
330
C39A
102
}
330
C39A
100
AcDbScale
 70
     0
300
1/64" = 1'-0"
140
0.015625
141
12.0
290
     0
  0
SCALE
  5
C39E
102
{ACAD_REACTORS
330
C39A
102
}
330
C39A
100
AcDbScale
 70
     0
300
1/32" = 1'-0"
140
0.03125
141
12.0
290
     0
  0
SCALE
  5
C39F
102
{ACAD_REACTORS
330
C39A
102
}
330
C39A
100
AcDbScale
 70
     0
300
1/16" = 1'-0"
140
0.0625
141
12.0
290
     0
  0
SCALE
  5
C3A0
102
{ACAD_REACTORS
330
C39A
102
}
330
C39A
100
AcDbScale
 70
     0
300
3/32" = 1'-0"
140
0.09375
141
12.0
290
     0
  0
SCALE
  5
C3A1
102
{ACAD_REACTORS
330
C39A
102
}
330
C39A
100
AcDbScale
 70
     0
300
1/8" = 1'-0"
140
0.125
141
12.0
290
     0
  0
SCALE
  5
C3A2
102
{ACAD_REACTORS
330
C39A
102
}
330
C39A
100
AcDbScale
 70
     0
300
3/16" = 1'-0"
140
0.1875
141
12.0
290
     0
  0
SCALE
  5
C3A3
102
{ACAD_REACTORS
330
C39A
102
}
330
C39A
100
AcDbScale
 70
     0
300
1/4" = 1'-0"
140
0.25
141
12.0
290
     0
  0
SCALE
  5
C3A4
102
{ACAD_REACTORS
330
C39A
102
}
330
C39A
100
AcDbScale
 70
     0
300
3/8" = 1'-0"
140
0.375
141
12.0
290
     0
  0
SCALE
  5
C3A5
102
{ACAD_REACTORS
330
C39A
102
}
330
C39A
100
AcDbScale
 70
     0
300
1/2" = 1'-0"
140
0.5
141
12.0
290
     0
  0
SCALE
  5
C3A6
102
{ACAD_REACTORS
330
C39A
102
}
330
C39A
100
AcDbScale
 70
     0
300
3/4" = 1'-0"
140
0.75
141
12.0
290
     0
  0
SCALE
  5
C3A7
102
{ACAD_REACTORS
330
C39A
102
}
330
C39A
100
AcDbScale
 70
     0
300
1" = 1'-0"
140
1.0
141
12.0
290
     0
  0
SCALE
  5
C3A8
102
{ACAD_REACTORS
330
C39A
102
}
330
C39A
100
AcDbScale
 70
     0
300
1-1/2" = 1'-0"
140
1.5
141
12.0
290
     0
  0
SCALE
  5
C3A9
102
{ACAD_REACTORS
330
C39A
102
}
330
C39A
100
AcDbScale
 70
     0
300
3" = 1'-0"
140
3.0
141
12.0
290
     0
  0
SCALE
  5
C3AA
102
{ACAD_REACTORS
330
C39A
102
}
330
C39A
100
AcDbScale
 70
     0
300
6" = 1'-0"
140
6.0
141
12.0
290
     0
  0
SCALE
  5
C3AB
102
{ACAD_REACTORS
330
C39A
102
}
330
C39A
100
AcDbScale
 70
     0
300
1'-0" = 1'-0"
140
12.0
141
12.0
290
     0
  0
ACDBSECTIONVIEWSTYLE
  5
C3AF
102
{ACAD_XDICTIONARY
360
C40A
102
}
102
{ACAD_REACTORS
330
C3AE
102
}
330
C3AE
100
AcDbModelDocViewStyle
 70
     0
  3
Imperial24
290
     0
100
AcDbSectionViewStyle
 70
     0
 71
     0
 90
       78
 71
     1
340
BF9B
 40
0.24
340
0
340
0
 40
0.24
300
I, O, Q, S, X, Z
 40
0.48
 90
        3
 40
0.18
 90
        1
 71
     2
340
BF9F
 90
       25
340
BF9F
 90
       50
 40
0.24
 40
0.0
 40
0.24
 71
     3
340
BF9B
 40
0.24
 90
        1
 40
0.75
 90
        1
300
%<\AcVar ViewType \f "%tc1">% %<\AcVar ViewSectionStartId>%-%<\AcVar ViewSectionEndId>%\PSCALE %<\AcVar ViewScale \f "%sn">%
 71
     4
300
ANSI31
 40
1.0
 90
        0
290
     0
290
     0
 90
        6
 40
0.0
 40
1.570796326794896
 40
0.2617993877991494
 40
1.308996938995747
 40
-0.2617993877991494
 40
1.832595714594046
  0
TABLESTYLE
  5
C399
102
{ACAD_XDICTIONARY
360
C3D1
102
}
102
{ACAD_REACTORS
330
C398
102
}
330
C398
100
AcDbTableStyle
  3
Standard
 70
     0
 71
     0
 40
0.06
 41
0.06
280
     0
281
     0
  7
STANDARD
140
0.18
170
     2
 62
     0
 63
     7
283
     0
274
    -2
284
     1
 64
     0
275
    -2
285
     1
 65
     0
276
    -2
286
     1
 66
     0
277
    -2
287
     1
 67
     0
278
    -2
288
     1
 68
     0
279
    -2
289
     1
 69
     0
  7
STANDARD
140
0.25
170
     5
 62
     0
 63
     7
283
     0
274
    -2
284
     1
 64
     0
275
    -2
285
     1
 65
     0
276
    -2
286
     1
 66
     0
277
    -2
287
     1
 67
     0
278
    -2
288
     1
 68
     0
279
    -2
289
     1
 69
     0
  7
STANDARD
140
0.18
170
     5
 62
     0
 63
     7
283
     0
274
    -2
284
     1
 64
     0
275
    -2
285
     1
 65
     0
276
    -2
286
     1
 66
     0
277
    -2
287
     1
 67
     0
278
    -2
288
     1
 68
     0
279
    -2
289
     1
 69
     0
  0
VISUALSTYLE
  5
C384
102
{ACAD_XDICTIONARY
360
C3E2
102
}
102
{ACAD_REACTORS
330
C37E
102
}
330
C37E
100
AcDbVisualStyle
  2
2dWireframe
 70
     4
 71
     0
 72
     2
 73
     0
 90
        0
 40
-0.6
 41
-30.0
 62
     5
 63
     7
 74
     1
 91
        4
 64
     7
 65
   257
 75
     1
175
     1
 42
1.0
 92
        0
 66
   257
 43
1.0
 76
     1
 77
     6
 78
     2
 67
     7
 79
     5
170
     0
171
     0
290
     0
174
     0
 93
        1
 44
0.0
173
     0
291
     0
 45
0.0
1001
ACAD
1000
AcDbSavedByObjectVersion
1070
     0
  0
VISUALSTYLE
  5
C383
102
{ACAD_XDICTIONARY
360
C3E0
102
}
102
{ACAD_REACTORS
330
C37E
102
}
330
C37E
100
AcDbVisualStyle
  2
Basic
 70
     7
 71
     1
 72
     0
 73
     1
 90
        0
 40
-0.6
 41
-30.0
 62
     5
 63
     7
 74
     0
 91
        4
 64
     7
 65
   257
 75
     1
175
     1
 42
1.0
 92
        8
 66
     7
 43
1.0
 76
     1
 77
     6
 78
     2
 67
     7
 79
     5
170
     0
171
     0
290
     0
174
     0
 93
        1
 44
0.0
173
     0
291
     1
 45
0.0
1001
ACAD
1000
AcDbSavedByObjectVersion
1070
     0
  0
VISUALSTYLE
  5
C38A
102
{ACAD_XDICTIONARY
360
C3EE
102
}
102
{ACAD_REACTORS
330
C37E
102
}
330
C37E
100
AcDbVisualStyle
  2
Brighten
 70
    12
 71
     2
 72
     2
 73
     0
 90
        0
 40
-0.6
 41
-30.0
 62
     5
 63
     7
 74
     1
 91
        4
 64
     7
 65
   257
 75
     1
175
     1
 42
1.0
 92
        8
 66
     7
 43
1.0
 76
     1
 77
     6
 78
     2
 67
     7
 79
     5
170
     0
171
     0
290
     0
174
     0
 93
        1
 44
50.0
173
     0
291
     1
 45
0.0
1001
ACAD
1000
AcDbSavedByObjectVersion
1070
     0
  0
VISUALSTYLE
  5
C38E
102
{ACAD_XDICTIONARY
360
C3F6
102
}
102
{ACAD_REACTORS
330
C37E
102
}
330
C37E
100
AcDbVisualStyle
  2
ColorChange
 70
    16
 71
     2
 72
     2
 73
     3
 90
        0
 40
-0.6
 41
-30.0
 62
     5
 63
     8
 74
     1
 91
        4
 64
     7
 65
   257
 75
     1
175
     1
 42
1.0
 92
        8
 66
     8
 43
1.0
 76
     1
 77
     6
 78
     2
 67
     7
 79
     5
170
     0
171
     0
290
     0
174
     0
 93
        1
 44
0.0
173
     0
291
     1
 45
0.0
1001
ACAD
1000
AcDbSavedByObjectVersion
1070
     0
  0
VISUALSTYLE
  5
C387
102
{ACAD_XDICTIONARY
360
C3E8
102
}
102
{ACAD_REACTORS
330
C37E
102
}
330
C37E
100
AcDbVisualStyle
  2
Conceptual
 70
     9
 71
     3
 72
     2
 73
     0
 90
        0
 40
-0.6
 41
-30.0
 62
     5
 63
     7
 74
     2
 91
        2
 64
     7
 65
   257
 75
     1
175
     1
 42
179.0
 92
        8
 66
     7
 43
1.0
 76
     1
 77
     6
 78
     2
 67
     7
 79
     3
170
     0
171
     0
290
     0
174
     0
 93
        1
 44
0.0
173
     0
291
     0
 45
0.0
1001
ACAD
1000
AcDbSavedByObjectVersion
1070
     0
  0
VISUALSTYLE
  5
C389
102
{ACAD_XDICTIONARY
360
C3EC
102
}
102
{ACAD_REACTORS
330
C37E
102
}
330
C37E
100
AcDbVisualStyle
  2
Dim
 70
    11
 71
     2
 72
     2
 73
     0
 90
        0
 40
-0.6
 41
-30.0
 62
     5
 63
     7
 74
     1
 91
        4
 64
     7
 65
   257
 75
     1
175
     1
 42
1.0
 92
        8
 66
     7
 43
1.0
 76
     1
 77
     6
 78
     2
 67
     7
 79
     5
170
     0
171
     0
290
     0
174
     0
 93
        1
 44
-50.0
173
     0
291
     1
 45
0.0
1001
ACAD
1000
AcDbSavedByObjectVersion
1070
     0
  0
VISUALSTYLE
  5
C396
102
{ACAD_XDICTIONARY
360
C406
102
}
102
{ACAD_REACTORS
330
C37E
102
}
330
C37E
100
AcDbVisualStyle
  2
EdgeColorOff
 70
    22
 71
     2
 72
     2
 73
     0
 90
        0
 40
-0.6
 41
-30.0
 62
     5
 63
     7
 74
     1
 91
        4
 64
     7
 65
   257
 75
     1
175
     1
 42
1.0
 92
        8
 66
     7
 43
1.0
 76
     1
 77
     6
 78
     2
 67
     7
 79
     5
170
     0
171
     0
290
     0
174
     0
 93
        1
 44
0.0
173
     0
291
     1
 45
0.0
1001
ACAD
1000
AcDbSavedByObjectVersion
1070
     0
  0
VISUALSTYLE
  5
C38D
102
{ACAD_XDICTIONARY
360
C3F4
102
}
102
{ACAD_REACTORS
330
C37E
102
}
330
C37E
100
AcDbVisualStyle
  2
Facepattern
 70
    15
 71
     2
 72
     2
 73
     0
 90
        0
 40
-0.6
 41
-30.0
 62
     5
 63
     7
 74
     1
 91
        4
 64
     7
 65
   257
 75
     1
175
     1
 42
1.0
 92
        8
 66
     7
 43
1.0
 76
     1
 77
     6
 78
     2
 67
     7
 79
     5
170
     0
171
     0
290
     0
174
     0
 93
        1
 44
0.0
173
     0
291
     1
 45
0.0
1001
ACAD
1000
AcDbSavedByObjectVersion
1070
     0
  0
VISUALSTYLE
  5
C37F
102
{ACAD_XDICTIONARY
360
C3D8
102
}
102
{ACAD_REACTORS
330
C37E
102
}
330
C37E
100
AcDbVisualStyle
  2
Flat
 70
     0
 71
     2
 72
     1
 73
     1
 90
        2
 40
-0.6
 41
30.0
 62
     5
 63
     7
 74
     0
 91
        0
 64
     7
 65
   257
 75
     1
175
     1
 42
1.0
 92
        8
 66
     7
 43
1.0
 76
     1
 77
     6
 78
     2
 67
     7
 79
     5
170
     0
171
     0
290
     0
174
     0
 93
       13
 44
0.0
173
     0
291
     1
 45
0.0
1001
ACAD
1000
AcDbSavedByObjectVersion
1070
     0
  0
VISUALSTYLE
  5
C380
102
{ACAD_XDICTIONARY
360
C3DA
102
}
102
{ACAD_REACTORS
330
C37E
102
}
330
C37E
100
AcDbVisualStyle
  2
FlatWithEdges
 70
     1
 71
     2
 72
     1
 73
     1
 90
        2
 40
-0.6
 41
30.0
 62
     5
 63
     7
 74
     1
 91
        0
 64
     7
 65
   257
 75
     1
175
     1
 42
1.0
 92
        0
 66
   257
 43
1.0
 76
     1
 77
     6
 78
     2
 67
     7
 79
     5
170
     0
171
     0
290
     0
174
     0
 93
       13
 44
0.0
173
     0
291
     1
 45
0.0
1001
ACAD
1000
AcDbSavedByObjectVersion
1070
     0
  0
VISUALSTYLE
  5
C381
102
{ACAD_XDICTIONARY
360
C3DC
102
}
102
{ACAD_REACTORS
330
C37E
102
}
330
C37E
100
AcDbVisualStyle
  2
Gouraud
 70
     2
 71
     2
 72
     2
 73
     1
 90
        2
 40
-0.6
 41
30.0
 62
     5
 63
     7
 74
     0
 91
        0
 64
     7
 65
   257
 75
     1
175
     1
 42
1.0
 92
        0
 66
     7
 43
1.0
 76
     1
 77
     6
 78
     2
 67
     7
 79
     5
170
     0
171
     0
290
     0
174
     0
 93
       13
 44
0.0
173
     0
291
     1
 45
0.0
1001
ACAD
1000
AcDbSavedByObjectVersion
1070
     0
  0
VISUALSTYLE
  5
C382
102
{ACAD_XDICTIONARY
360
C3DE
102
}
102
{ACAD_REACTORS
330
C37E
102
}
330
C37E
100
AcDbVisualStyle
  2
GouraudWithEdges
 70
     3
 71
     2
 72
     2
 73
     1
 90
        2
 40
-0.6
 41
30.0
 62
     5
 63
     7
 74
     1
 91
        0
 64
     7
 65
   257
 75
     1
175
     1
 42
1.0
 92
        0
 66
   257
 43
1.0
 76
     1
 77
     6
 78
     2
 67
     7
 79
     5
170
     0
171
     0
290
     0
174
     0
 93
       13
 44
0.0
173
     0
291
     1
 45
0.0
1001
ACAD
1000
AcDbSavedByObjectVersion
1070
     0
  0
VISUALSTYLE
  5
C386
102
{ACAD_XDICTIONARY
360
C3E6
102
}
102
{ACAD_REACTORS
330
C37E
102
}
330
C37E
100
AcDbVisualStyle
  2
Hidden
 70
     6
 71
     1
 72
     2
 73
     2
 90
        0
 40
-0.6
 41
-30.0
 62
     5
 63
     7
 74
     2
 91
        2
 64
     7
 65
   257
 75
     2
175
     1
 42
40.0
 92
        0
 66
   257
 43
1.0
 76
     1
 77
     6
 78
     2
 67
     7
 79
     3
170
     0
171
     0
290
     0
174
     0
 93
        1
 44
0.0
173
     0
291
     0
 45
0.0
1001
ACAD
1000
AcDbSavedByObjectVersion
1070
     0
  0
VISUALSTYLE
  5
C394
102
{ACAD_XDICTIONARY
360
C402
102
}
102
{ACAD_REACTORS
330
C37E
102
}
330
C37E
100
AcDbVisualStyle
  2
JitterOff
 70
    20
 71
     2
 72
     2
 73
     0
 90
        0
 40
-0.6
 41
-30.0
 62
     5
 63
     7
 74
     1
 91
        4
 64
     7
 65
   257
 75
     1
175
     1
 42
1.0
 92
       10
 66
     7
 43
1.0
 76
     1
 77
     6
 78
     2
 67
     7
 79
     5
170
     0
171
     0
290
     0
174
     0
 93
        1
 44
0.0
173
     0
291
     1
 45
0.0
1001
ACAD
1000
AcDbSavedByObjectVersion
1070
     0
  0
VISUALSTYLE
  5
C38C
102
{ACAD_XDICTIONARY
360
C3F2
102
}
102
{ACAD_REACTORS
330
C37E
102
}
330
C37E
100
AcDbVisualStyle
  2
Linepattern
 70
    14
 71
     2
 72
     2
 73
     0
 90
        0
 40
-0.6
 41
-30.0
 62
     5
 63
     7
 74
     1
 91
        4
 64
     7
 65
   257
 75
     7
175
     7
 42
1.0
 92
        8
 66
     7
 43
1.0
 76
     1
 77
     6
 78
     2
 67
     7
 79
     5
170
     0
171
     0
290
     0
174
     0
 93
        1
 44
0.0
173
     0
291
     1
 45
0.0
1001
ACAD
1000
AcDbSavedByObjectVersion
1070
     0
  0
VISUALSTYLE
  5
C395
102
{ACAD_XDICTIONARY
360
C404
102
}
102
{ACAD_REACTORS
330
C37E
102
}
330
C37E
100
AcDbVisualStyle
  2
OverhangOff
 70
    21
 71
     2
 72
     2
 73
     0
 90
        0
 40
-0.6
 41
-30.0
 62
     5
 63
     7
 74
     1
 91
        4
 64
     7
 65
   257
 75
     1
175
     1
 42
1.0
 92
        9
 66
     7
 43
1.0
 76
     1
 77
     6
 78
     2
 67
     7
 79
     5
170
     0
171
     0
290
     0
174
     0
 93
        1
 44
0.0
173
     0
291
     1
 45
0.0
1001
ACAD
1000
AcDbSavedByObjectVersion
1070
     0
  0
VISUALSTYLE
  5
C388
102
{ACAD_XDICTIONARY
360
C3EA
102
}
102
{ACAD_REACTORS
330
C37E
102
}
330
C37E
100
AcDbVisualStyle
  2
Realistic
 70
     8
 71
     2
 72
     3
 73
     0
 90
        2
 40
-0.6
 41
30.0
 62
     5
 63
     7
 74
     0
 91
        0
 64
     7
 65
   257
 75
     1
175
     1
 42
1.0
 92
        8
 66
   257
 43
1.0
 76
     1
 77
     6
 78
     2
 67
     7
 79
     3
170
     0
171
     0
290
     0
174
     0
 93
       13
 44
0.0
173
     0
291
     0
 45
0.0
1001
ACAD
1000
AcDbSavedByObjectVersion
1070
     0
  0
VISUALSTYLE
  5
C393
102
{ACAD_XDICTIONARY
360
C400
102
}
102
{ACAD_REACTORS
330
C37E
102
}
330
C37E
100
AcDbVisualStyle
  2
Shaded
 70
    27
 71
     2
 72
     2
 73
     1
 90
        2
 40
-0.6
 41
30.0
 62
     5
 63
     7
 74
     0
 91
        4
 64
     7
 65
   257
 75
     1
175
     1
 42
1.0
 92
        8
 66
   257
 43
1.0
 76
     1
 77
     6
 78
     2
 67
     8
 79
     3
170
     0
171
     0
290
     0
174
     0
 93
        5
 44
0.0
173
     0
291
     0
 45
0.0
1001
ACAD
1000
AcDbSavedByObjectVersion
1070
     0
  0
VISUALSTYLE
  5
C392
102
{ACAD_XDICTIONARY
360
C3FE
102
}
102
{ACAD_REACTORS
330
C37E
102
}
330
C37E
100
AcDbVisualStyle
  2
Shaded with edges
 70
    26
 71
     2
 72
     2
 73
     1
 90
        2
 40
-0.6
 41
30.0
 62
     5
 63
     7
 74
     1
 91
       10
 64
     7
 65
   257
 75
     2
175
     1
 42
1.0
 92
        8
 66
   257
 43
1.0
 76
     1
 77
     6
 78
     2
 67
     7
 79
     3
170
     0
171
     0
290
     0
174
     0
 93
        5
 44
0.0
173
     0
291
     0
 45
0.0
1001
ACAD
1000
AcDbSavedByObjectVersion
1070
     0
  0
VISUALSTYLE
  5
C38F
102
{ACAD_XDICTIONARY
360
C3F8
102
}
102
{ACAD_REACTORS
330
C37E
102
}
330
C37E
100
AcDbVisualStyle
  2
Shades of Gray
 70
    23
 71
     2
 72
     2
 73
     3
 90
        0
 40
-0.6
 41
-30.0
 62
     5
 63
     7
 74
     2
 91
        2
 64
     7
 65
     7
 75
     1
175
     1
 42
40.0
 92
        8
 66
     7
 43
1.0
 76
     1
 77
     6
 78
     2
 67
     7
 79
     3
170
     0
171
     0
290
     0
174
     0
 93
        1
 44
0.0
173
     0
291
     0
 45
0.0
1001
ACAD
1000
AcDbSavedByObjectVersion
1070
     0
  0
VISUALSTYLE
  5
C390
102
{ACAD_XDICTIONARY
360
C3FA
102
}
102
{ACAD_REACTORS
330
C37E
102
}
330
C37E
100
AcDbVisualStyle
  2
Sketchy
 70
    24
 71
     1
 72
     2
 73
     2
 90
        0
 40
-0.6
 41
-30.0
 62
     5
 63
     7
 74
     2
 91
        2
 64
     7
 65
     7
 75
     1
175
     1
 42
40.0
 92
       11
 66
     7
 43
1.0
 76
     1
 77
     6
 78
     2
 67
     7
 79
     6
170
     0
171
     0
290
     0
174
     0
 93
        1
 44
0.0
173
     0
291
     0
 45
0.0
1001
ACAD
1000
AcDbSavedByObjectVersion
1070
     0
  0
VISUALSTYLE
  5
C38B
102
{ACAD_XDICTIONARY
360
C3F0
102
}
102
{ACAD_REACTORS
330
C37E
102
}
330
C37E
100
AcDbVisualStyle
  2
Thicken
 70
    13
 71
     2
 72
     2
 73
     0
 90
        0
 40
-0.6
 41
-30.0
 62
     5
 63
     7
 74
     1
 91
        4
 64
     7
 65
   257
 75
     1
175
     1
 42
1.0
 92
       12
 66
     7
 43
1.0
 76
     1
 77
     6
 78
     2
 67
     7
 79
     5
170
     0
171
     0
290
     0
174
     0
 93
        1
 44
0.0
173
     0
291
     1
 45
0.0
1001
ACAD
1000
AcDbSavedByObjectVersion
1070
     0
  0
VISUALSTYLE
  5
C385
102
{ACAD_XDICTIONARY
360
C3E4
102
}
102
{ACAD_REACTORS
330
C37E
102
}
330
C37E
100
AcDbVisualStyle
  2
Wireframe
 70
     5
 71
     0
 72
     2
 73
     0
 90
        0
 40
-0.6
 41
-30.0
 62
     5
 63
     7
 74
     1
 91
        4
 64
     7
 65
   257
 75
     1
175
     1
 42
1.0
 92
        0
 66
   257
 43
1.0
 76
     1
 77
     6
 78
     2
 67
     7
 79
     3
170
     0
171
     0
290
     0
174
     0
 93
        1
 44
0.0
173
     0
291
     0
 45
0.0
1001
ACAD
1000
AcDbSavedByObjectVersion
1070
     0
  0
VISUALSTYLE
  5
C391
102
{ACAD_XDICTIONARY
360
C3FC
102
}
102
{ACAD_REACTORS
330
C37E
102
}
330
C37E
100
AcDbVisualStyle
  2
X-Ray
 70
    25
 71
     2
 72
     2
 73
     1
 90
        1
 40
0.5
 41
-30.0
 62
     5
 63
     7
 74
     1
 91
        0
 64
     7
 65
   257
 75
     1
175
     1
 42
1.0
 92
        8
 66
     7
 43
1.0
 76
     1
 77
     6
 78
     2
 67
     7
 79
     3
170
     0
171
     0
290
     0
174
     0
 93
       13
 44
0.0
173
     0
291
     0
 45
0.0
1001
ACAD
1000
AcDbSavedByObjectVersion
1070
     0
  0
DICTIONARYVAR
  5
C3CB
102
{ACAD_REACTORS
330
C3C6
102
}
330
C3C6
100
DictionaryVariables
280
     0
  1
1:1
  0
DICTIONARYVAR
  5
C3C8
102
{ACAD_REACTORS
330
C3C6
102
}
330
C3C6
100
DictionaryVariables
280
     0
  1
STANDARD
  0
DICTIONARYVAR
  5
C3C7
102
{ACAD_REACTORS
330
C3C6
102
}
330
C3C6
100
DictionaryVariables
280
     0
  1
STANDARD
  0
DICTIONARYVAR
  5
C3C9
102
{ACAD_REACTORS
330
C3C6
102
}
330
C3C6
100
DictionaryVariables
280
     0
  1
Imperial24
  0
DICTIONARYVAR
  5
C3CA
102
{ACAD_REACTORS
330
C3C6
102
}
330
C3C6
100
DictionaryVariables
280
     0
  1
Imperial24
  0
DICTIONARYVAR
  5
C3CE
102
{ACAD_REACTORS
330
C3C6
102
}
330
C3C6
100
DictionaryVariables
280
     0
  1
1
  0
DICTIONARYVAR
  5
C3CD
102
{ACAD_REACTORS
330
C3C6
102
}
330
C3C6
100
DictionaryVariables
280
     0
  1
0
  0
DICTIONARYVAR
  5
C3CC
102
{ACAD_REACTORS
330
C3C6
102
}
330
C3C6
100
DictionaryVariables
280
     0
  1
127
  0
DICTIONARYVAR
  5
C3CF
102
{ACAD_REACTORS
330
C3C6
102
}
330
C3C6
100
DictionaryVariables
280
     0
  1
2
  0
DICTIONARY
  5
C40C
330
C3B1
100
AcDbDictionary
280
     1
281
     1
  3
ACAD_XREC_ROUNDTRIP
360
C40D
  0
DICTIONARY
  5
C40E
330
C3B2
100
AcDbDictionary
280
     1
281
     1
  3
ACAD_XREC_ROUNDTRIP
360
C40F
  0
DICTIONARY
  5
C410
330
C3B3
100
AcDbDictionary
280
     1
281
     1
  3
ACAD_XREC_ROUNDTRIP
360
C411
  0
DICTIONARY
  5
C36F
330
C36E
100
AcDbDictionary
280
     1
281
     1
  3
ACAD_XREC_ROUNDTRIP
360
C3D6
  3
BUMPTILE
360
C371
  3
DIFFUSETILE
360
C370
  3
OPACITYTILE
360
C374
  3
REFLECTIONTILE
360
C373
  3
REFRACTIONTILE
360
C375
  3
SPECULARTILE
360
C372
  0
DICTIONARY
  5
C367
330
C366
100
AcDbDictionary
280
     1
281
     1
  3
ACAD_XREC_ROUNDTRIP
360
C3D5
  3
BUMPTILE
360
C369
  3
DIFFUSETILE
360
C368
  3
OPACITYTILE
360
C36C
  3
REFLECTIONTILE
360
C36B
  3
REFRACTIONTILE
360
C36D
  3
SPECULARTILE
360
C36A
  0
DICTIONARY
  5
C377
330
C376
100
AcDbDictionary
280
     1
281
     1
  3
ACAD_XREC_ROUNDTRIP
360
C3D7
  3
BUMPTILE
360
C379
  3
DIFFUSETILE
360
C378
  3
OPACITYTILE
360
C37C
  3
REFLECTIONTILE
360
C37B
  3
REFRACTIONTILE
360
C37D
  3
SPECULARTILE
360
C37A
  0
DICTIONARY
  5
C40A
330
C3AF
100
AcDbDictionary
280
     1
281
     1
  3
ACAD_XREC_ROUNDTRIP
360
C40B
  0
DICTIONARY
  5
C3D1
330
C399
100
AcDbDictionary
280
     1
281
     1
  3
ACAD_ROUNDTRIP_2008_TABLESTYLE_CELLSTYLEMAP
360
C3D2
  3
ACAD_XREC_ROUNDTRIP
360
C408
  0
DICTIONARY
  5
C3E2
330
C384
100
AcDbDictionary
280
     1
281
     1
  3
ACAD_XREC_ROUNDTRIP
360
C3E3
  0
DICTIONARY
  5
C3E0
330
C383
100
AcDbDictionary
280
     1
281
     1
  3
ACAD_XREC_ROUNDTRIP
360
C3E1
  0
DICTIONARY
  5
C3EE
330
C38A
100
AcDbDictionary
280
     1
281
     1
  3
ACAD_XREC_ROUNDTRIP
360
C3EF
  0
DICTIONARY
  5
C3F6
330
C38E
100
AcDbDictionary
280
     1
281
     1
  3
ACAD_XREC_ROUNDTRIP
360
C3F7
  0
DICTIONARY
  5
C3E8
330
C387
100
AcDbDictionary
280
     1
281
     1
  3
ACAD_XREC_ROUNDTRIP
360
C3E9
  0
DICTIONARY
  5
C3EC
330
C389
100
AcDbDictionary
280
     1
281
     1
  3
ACAD_XREC_ROUNDTRIP
360
C3ED
  0
DICTIONARY
  5
C406
330
C396
100
AcDbDictionary
280
     1
281
     1
  3
ACAD_XREC_ROUNDTRIP
360
C407
  0
DICTIONARY
  5
C3F4
330
C38D
100
AcDbDictionary
280
     1
281
     1
  3
ACAD_XREC_ROUNDTRIP
360
C3F5
  0
DICTIONARY
  5
C3D8
330
C37F
100
AcDbDictionary
280
     1
281
     1
  3
ACAD_XREC_ROUNDTRIP
360
C3D9
  0
DICTIONARY
  5
C3DA
330
C380
100
AcDbDictionary
280
     1
281
     1
  3
ACAD_XREC_ROUNDTRIP
360
C3DB
  0
DICTIONARY
  5
C3DC
330
C381
100
AcDbDictionary
280
     1
281
     1
  3
ACAD_XREC_ROUNDTRIP
360
C3DD
  0
DICTIONARY
  5
C3DE
330
C382
100
AcDbDictionary
280
     1
281
     1
  3
ACAD_XREC_ROUNDTRIP
360
C3DF
  0
DICTIONARY
  5
C3E6
330
C386
100
AcDbDictionary
280
     1
281
     1
  3
ACAD_XREC_ROUNDTRIP
360
C3E7
  0
DICTIONARY
  5
C402
330
C394
100
AcDbDictionary
280
     1
281
     1
  3
ACAD_XREC_ROUNDTRIP
360
C403
  0
DICTIONARY
  5
C3F2
330
C38C
100
AcDbDictionary
280
     1
281
     1
  3
ACAD_XREC_ROUNDTRIP
360
C3F3
  0
DICTIONARY
  5
C404
330
C395
100
AcDbDictionary
280
     1
281
     1
  3
ACAD_XREC_ROUNDTRIP
360
C405
  0
DICTIONARY
  5
C3EA
330
C388
100
AcDbDictionary
280
     1
281
     1
  3
ACAD_XREC_ROUNDTRIP
360
C3EB
  0
DICTIONARY
  5
C400
330
C393
100
AcDbDictionary
280
     1
281
     1
  3
ACAD_XREC_ROUNDTRIP
360
C401
  0
DICTIONARY
  5
C3FE
330
C392
100
AcDbDictionary
280
     1
281
     1
  3
ACAD_XREC_ROUNDTRIP
360
C3FF
  0
DICTIONARY
  5
C3F8
330
C38F
100
AcDbDictionary
280
     1
281
     1
  3
ACAD_XREC_ROUNDTRIP
360
C3F9
  0
DICTIONARY
  5
C3FA
330
C390
100
AcDbDictionary
280
     1
281
     1
  3
ACAD_XREC_ROUNDTRIP
360
C3FB
  0
DICTIONARY
  5
C3F0
330
C38B
100
AcDbDictionary
280
     1
281
     1
  3
ACAD_XREC_ROUNDTRIP
360
C3F1
  0
DICTIONARY
  5
C3E4
330
C385
100
AcDbDictionary
280
     1
281
     1
  3
ACAD_XREC_ROUNDTRIP
360
C3E5
  0
DICTIONARY
  5
C3FC
330
C391
100
AcDbDictionary
280
     1
281
     1
  3
ACAD_XREC_ROUNDTRIP
360
C3FD
  0
XRECORD
  5
C40D
102
{ACAD_REACTORS
330
C40C
102
}
330
C40C
100
AcDbXrecord
280
     1
102
DISPLAYNAME
  1
Imperial24
102
FLAGS
 90
        0
  0
XRECORD
  5
C40F
102
{ACAD_REACTORS
330
C40E
102
}
330
C40E
100
AcDbXrecord
280
     1
102
SHADEPLOT
 70
     0
102
SHADEPLOTRESLEVEL
 70
     2
102
SHADEPLOTCUSTOMDPI
 70
   300
  0
XRECORD
  5
C411
102
{ACAD_REACTORS
330
C410
102
}
330
C410
100
AcDbXrecord
280
     1
102
SHADEPLOT
 70
     0
102
SHADEPLOTRESLEVEL
 70
     2
102
SHADEPLOTCUSTOMDPI
 70
   300
  0
XRECORD
  5
C3D6
102
{ACAD_REACTORS
330
C36F
102
}
330
C36F
100
AcDbXrecord
280
     1
102
MATERIAL
148
0.0
149
0.0
149
0.0
 93
        0
 94
      127
282
     0
 72
     0
 77
     0
171
     0
175
     0
179
     0
273
     0
  0
XRECORD
  5
C371
102
{ACAD_REACTORS
330
C36F
102
}
330
C36F
100
AcDbXrecord
280
     1
270
     1
271
     1
  0
XRECORD
  5
C370
102
{ACAD_REACTORS
330
C36F
102
}
330
C36F
100
AcDbXrecord
280
     1
270
     1
271
     1
  0
XRECORD
  5
C374
102
{ACAD_REACTORS
330
C36F
102
}
330
C36F
100
AcDbXrecord
280
     1
270
     1
271
     1
  0
XRECORD
  5
C373
102
{ACAD_REACTORS
330
C36F
102
}
330
C36F
100
AcDbXrecord
280
     1
270
     1
271
     1
  0
XRECORD
  5
C375
102
{ACAD_REACTORS
330
C36F
102
}
330
C36F
100
AcDbXrecord
280
     1
270
     1
271
     1
  0
XRECORD
  5
C372
102
{ACAD_REACTORS
330
C36F
102
}
330
C36F
100
AcDbXrecord
280
     1
270
     1
271
     1
  0
XRECORD
  5
C3D5
102
{ACAD_REACTORS
330
C367
102
}
330
C367
100
AcDbXrecord
280
     1
102
MATERIAL
148
0.0
149
0.0
149
0.0
 93
        0
 94
      127
282
     0
 72
     0
 77
     0
171
     0
175
     0
179
     0
273
     0
  0
XRECORD
  5
C369
102
{ACAD_REACTORS
330
C367
102
}
330
C367
100
AcDbXrecord
280
     1
270
     1
271
     1
  0
XRECORD
  5
C368
102
{ACAD_REACTORS
330
C367
102
}
330
C367
100
AcDbXrecord
280
     1
270
     1
271
     1
  0
XRECORD
  5
C36C
102
{ACAD_REACTORS
330
C367
102
}
330
C367
100
AcDbXrecord
280
     1
270
     1
271
     1
  0
XRECORD
  5
C36B
102
{ACAD_REACTORS
330
C367
102
}
330
C367
100
AcDbXrecord
280
     1
270
     1
271
     1
  0
XRECORD
  5
C36D
102
{ACAD_REACTORS
330
C367
102
}
330
C367
100
AcDbXrecord
280
     1
270
     1
271
     1
  0
XRECORD
  5
C36A
102
{ACAD_REACTORS
330
C367
102
}
330
C367
100
AcDbXrecord
280
     1
270
     1
271
     1
  0
XRECORD
  5
C3D7
102
{ACAD_REACTORS
330
C377
102
}
330
C377
100
AcDbXrecord
280
     1
102
MATERIAL
148
0.0
149
0.0
149
0.0
 93
        0
 94
      127
282
     0
 72
     0
 77
     0
171
     0
175
     0
179
     0
273
     0
  0
XRECORD
  5
C379
102
{ACAD_REACTORS
330
C377
102
}
330
C377
100
AcDbXrecord
280
     1
270
     1
271
     1
  0
XRECORD
  5
C378
102
{ACAD_REACTORS
330
C377
102
}
330
C377
100
AcDbXrecord
280
     1
270
     1
271
     1
  0
XRECORD
  5
C37C
102
{ACAD_REACTORS
330
C377
102
}
330
C377
100
AcDbXrecord
280
     1
270
     1
271
     1
  0
XRECORD
  5
C37B
102
{ACAD_REACTORS
330
C377
102
}
330
C377
100
AcDbXrecord
280
     1
270
     1
271
     1
  0
XRECORD
  5
C37D
102
{ACAD_REACTORS
330
C377
102
}
330
C377
100
AcDbXrecord
280
     1
270
     1
271
     1
  0
XRECORD
  5
C37A
102
{ACAD_REACTORS
330
C377
102
}
330
C377
100
AcDbXrecord
280
     1
270
     1
271
     1
  0
XRECORD
  5
C40B
102
{ACAD_REACTORS
330
C40A
102
}
330
C40A
100
AcDbXrecord
280
     1
102
DISPLAYNAME
  1
Imperial24
102
FLAGS
 90
        0
  0
CELLSTYLEMAP
  5
C3D2
102
{ACAD_REACTORS
330
C3D1
102
}
330
C3D1
100
AcDbCellStyleMap
 90
        3
300
CELLSTYLE
  1
TABLEFORMAT_BEGIN
 90
        5
170
     1
 91
        0
 92
    32768
 62
   257
 93
        1
300
CONTENTFORMAT
  1
CONTENTFORMAT_BEGIN
 90
        0
 91
        0
 92
      512
 93
        0
300

 40
0.0
140
1.0
 94
        5
 62
     0
340
BF9B
144
0.25
309
CONTENTFORMAT_END
171
     0
 94
        0
309
TABLEFORMAT_END
  1
CELLSTYLE_BEGIN
 90
        1
 91
        1
300
_TITLE
309
CELLSTYLE_END
300
CELLSTYLE
  1
TABLEFORMAT_BEGIN
 90
        5
170
     1
 91
        0
 92
        0
 62
   257
 93
        1
300
CONTENTFORMAT
  1
CONTENTFORMAT_BEGIN
 90
        0
 91
        0
 92
      512
 93
        0
300

 40
0.0
140
1.0
 94
        5
 62
     0
340
BF9B
144
0.18
309
CONTENTFORMAT_END
171
     0
 94
        0
309
TABLEFORMAT_END
  1
CELLSTYLE_BEGIN
 90
        2
 91
        1
300
_HEADER
309
CELLSTYLE_END
300
CELLSTYLE
  1
TABLEFORMAT_BEGIN
 90
        5
170
     1
 91
        0
 92
        0
 62
   257
 93
        1
300
CONTENTFORMAT
  1
CONTENTFORMAT_BEGIN
 90
        0
 91
        0
 92
      512
 93
        0
300

 40
0.0
140
1.0
 94
        2
 62
     0
340
BF9B
144
0.18
309
CONTENTFORMAT_END
171
     0
 94
        0
309
TABLEFORMAT_END
  1
CELLSTYLE_BEGIN
 90
        3
 91
        2
300
_DATA
309
CELLSTYLE_END
  0
XRECORD
  5
C408
102
{ACAD_REACTORS
330
C3D1
102
}
330
C3D1
100
AcDbXrecord
280
     1
102
ACAD_ROUNDTRIP_PRE2007_TABLESTYLE
 90
      512
 91
        0
  1

 92
      512
 93
        0
  2

 94
      512
 95
        0
  3

  0
XRECORD
  5
C3E3
102
{ACAD_REACTORS
330
C3E2
102
}
330
C3E2
100
AcDbXrecord
280
     1
102
RTVSPost2010Prop28
280
     1
102
RTVSPost2010PropOp28
 70
     1
102
RTVSPost2010Prop29
280
     1
102
RTVSPost2010PropOp29
 70
     1
102
RTVSPost2010Prop30
280
     0
102
RTVSPost2010PropOp30
 70
     1
102
RTVSPost2010Prop31
280
     0
102
RTVSPost2010PropOp31
 70
     1
102
RTVSPost2010Prop32
280
     0
102
RTVSPost2010PropOp32
 70
     1
102
RTVSPost2010Prop33
280
     0
102
RTVSPost2010PropOp33
 70
     1
102
RTVSPost2010Prop34
280
     0
102
RTVSPost2010PropOp34
 70
     1
102
RTVSPost2010Prop35
280
     0
102
RTVSPost2010PropOp35
 70
     1
102
RTVSPost2010Prop36
280
     0
102
RTVSPost2010PropOp36
 70
     1
102
RTVSPost2010Prop37
 90
       50
102
RTVSPost2010PropOp37
 70
     1
102
RTVSPost2010Prop38
140
0.0
102
RTVSPost2010PropOp38
 70
     1
102
RTVSPost2010Prop39
140
1.0
102
RTVSPost2010PropOp39
 70
     1
102
RTVSPost2010Prop40
 90
        0
102
RTVSPost2010PropOp40
 70
     1
102
RTVSPost2010Prop41ColorIndex
 90
       18
102
RTVSPost2010Prop41ColorRGB
 90
        0
102
RTVSPost2010PropOp41
 70
     1
102
RTVSPost2010Prop42
 90
       50
102
RTVSPost2010PropOp42
 70
     1
102
RTVSPost2010Prop43
 90
        3
102
RTVSPost2010PropOp43
 70
     1
102
RTVSPost2010Prop44ColorIndex
 90
        5
102
RTVSPost2010Prop44ColorRGB
 90
      255
102
RTVSPost2010PropOp44
 70
     1
102
RTVSPost2010Prop45
280
     0
102
RTVSPost2010PropOp45
 70
     1
102
RTVSPost2010Prop46
 90
       50
102
RTVSPost2010PropOp46
 70
     1
102
RTVSPost2010Prop47
 90
       50
102
RTVSPost2010PropOp47
 70
     1
102
RTVSPost2010Prop48
 90
       50
102
RTVSPost2010PropOp48
 70
     1
102
RTVSPost2010Prop49
280
     0
102
RTVSPost2010PropOp49
 70
     1
102
RTVSPost2010Prop50
 90
       50
102
RTVSPost2010PropOp50
 70
     1
102
RTVSPost2010Prop51ColorIndex
 90
      256
102
RTVSPost2010Prop51ColorRGB
 90
-16777216
102
RTVSPost2010PropOp51
 70
     0
102
RTVSPost2010Prop52
140
1.0
102
RTVSPost2010PropOp52
 70
     0
102
RTVSPost2010Prop53
 90
        2
102
RTVSPost2010PropOp53
 70
     1
102
RTVSPost2010Prop54
  1
strokes_ogs.tif
102
RTVSPost2010PropOp54
 70
     1
102
RTVSPost2010Prop55
280
     0
102
RTVSPost2010PropOp55
 70
     1
102
RTVSPost2010Prop56
140
1.0
102
RTVSPost2010PropOp56
 70
     1
102
RTVSPost2010Prop57
140
1.0
102
RTVSPost2010PropOp57
 70
     1
102
RTVSPropertyOp0
 70
     1
102
RTVSPropertyOp1
 70
     1
102
RTVSPropertyOp2
 70
     1
102
RTVSPropertyOp3
 70
     1
102
RTVSPropertyOp4
 70
     1
102
RTVSPropertyOp5
 70
     1
102
RTVSPropertyOp6
 70
     1
102
RTVSPropertyOp7
 70
     1
102
RTVSPropertyOp8
 70
     1
102
RTVSPropertyOp9
 70
     1
102
RTVSPropertyOp10
 70
     1
102
RTVSPropertyOp11
 70
     1
102
RTVSPropertyOp12
 70
     1
102
RTVSPropertyOp13
 70
     1
102
RTVSPropertyOp14
 70
     1
102
RTVSPropertyOp15
 70
     1
102
RTVSPropertyOp16
 70
     1
102
RTVSPropertyOp17
 70
     1
102
RTVSPropertyOp18
 70
     1
102
RTVSPropertyOp19
 70
     1
102
RTVSPropertyOp20
 70
     1
102
RTVSPropertyOp21
 70
     1
102
RTVSPropertyOp22
 70
     1
102
RTVSPropertyOp23
 70
     1
102
RTVSPropertyOp24
 70
     1
102
RTVSPropertyOp25
 70
     1
102
RTVSPropertyOp26
 70
     1
102
RTVSPropertyOp27
 70
     1
102
RTVSPropertyOp28
 70
     1
102
RTVSPropertyOp29
 70
     1
102
RTVSPropertyOp30
 70
     1
102
RTVSPropertyOp31
 70
     1
102
RTVSPropertyOp32
 70
     1
102
RTVSPropertyOp33
 70
     1
102
RTVSPropertyOp34
 70
     1
102
RTVSPropertyOp35
 70
     1
102
RTVSPropertyOp36
 70
     1
102
RTVSPropertyOp37
 70
     1
102
RTVSPropertyOp38
 70
     1
102
RTVSPropertyOp39
 70
     1
102
RTVSPropertyOp40
 70
     1
102
RTVSPropertyOp41
 70
     1
102
RTVSPropertyOp42
 70
     1
102
RTVSPropertyOp43
 70
     1
102
RTVSPropertyOp44
 70
     1
102
RTVSPropertyOp45
 70
     1
102
RTVSPropertyOp46
 70
     1
102
RTVSPropertyOp47
 70
     1
102
RTVSPropertyOp48
 70
     1
102
RTVSPropertyOp49
 70
     1
102
RTVSPropertyOp50
 70
     1
102
RTVSPropertyOp51
 70
     0
102
RTVSPropertyOp52
 70
     0
102
RTVSPropertyOp53
 70
     1
102
RTVSPropertyOp54
 70
     1
102
RTVSPropertyOp55
 70
     1
102
RTVSPropertyOp56
 70
     1
102
RTVSPropertyOp57
 70
     1
102
RTVSPropertyOp58
 70
     1
102
RTVSPropertyOp59
 70
     1
102
RTVSPropertyOp60
 70
     1
102
RTVSPropertyOp61
 70
     1
102
RTVSPropertyOp62
 70
     1
  0
XRECORD
  5
C3E1
102
{ACAD_REACTORS
330
C3E0
102
}
330
C3E0
100
AcDbXrecord
280
     1
102
RTVSPost2010Prop28
280
     0
102
RTVSPost2010PropOp28
 70
     1
102
RTVSPost2010Prop29
280
     1
102
RTVSPost2010PropOp29
 70
     1
102
RTVSPost2010Prop30
280
     1
102
RTVSPost2010PropOp30
 70
     1
102
RTVSPost2010Prop31
280
     0
102
RTVSPost2010PropOp31
 70
     1
102
RTVSPost2010Prop32
280
     0
102
RTVSPost2010PropOp32
 70
     1
102
RTVSPost2010Prop33
280
     0
102
RTVSPost2010PropOp33
 70
     1
102
RTVSPost2010Prop34
280
     0
102
RTVSPost2010PropOp34
 70
     1
102
RTVSPost2010Prop35
280
     0
102
RTVSPost2010PropOp35
 70
     1
102
RTVSPost2010Prop36
280
     0
102
RTVSPost2010PropOp36
 70
     1
102
RTVSPost2010Prop37
 90
       50
102
RTVSPost2010PropOp37
 70
     1
102
RTVSPost2010Prop38
140
0.0
102
RTVSPost2010PropOp38
 70
     1
102
RTVSPost2010Prop39
140
1.0
102
RTVSPost2010PropOp39
 70
     1
102
RTVSPost2010Prop40
 90
        0
102
RTVSPost2010PropOp40
 70
     1
102
RTVSPost2010Prop41ColorIndex
 90
       18
102
RTVSPost2010Prop41ColorRGB
 90
        0
102
RTVSPost2010PropOp41
 70
     1
102
RTVSPost2010Prop42
 90
       50
102
RTVSPost2010PropOp42
 70
     1
102
RTVSPost2010Prop43
 90
        3
102
RTVSPost2010PropOp43
 70
     1
102
RTVSPost2010Prop44ColorIndex
 90
        5
102
RTVSPost2010Prop44ColorRGB
 90
      255
102
RTVSPost2010PropOp44
 70
     1
102
RTVSPost2010Prop45
280
     0
102
RTVSPost2010PropOp45
 70
     1
102
RTVSPost2010Prop46
 90
       50
102
RTVSPost2010PropOp46
 70
     1
102
RTVSPost2010Prop47
 90
       50
102
RTVSPost2010PropOp47
 70
     1
102
RTVSPost2010Prop48
 90
       50
102
RTVSPost2010PropOp48
 70
     1
102
RTVSPost2010Prop49
280
     0
102
RTVSPost2010PropOp49
 70
     1
102
RTVSPost2010Prop50
 90
       50
102
RTVSPost2010PropOp50
 70
     1
102
RTVSPost2010Prop51ColorIndex
 90
      256
102
RTVSPost2010Prop51ColorRGB
 90
-16777216
102
RTVSPost2010PropOp51
 70
     0
102
RTVSPost2010Prop52
140
1.0
102
RTVSPost2010PropOp52
 70
     0
102
RTVSPost2010Prop53
 90
        2
102
RTVSPost2010PropOp53
 70
     1
102
RTVSPost2010Prop54
  1
strokes_ogs.tif
102
RTVSPost2010PropOp54
 70
     1
102
RTVSPost2010Prop55
280
     0
102
RTVSPost2010PropOp55
 70
     1
102
RTVSPost2010Prop56
140
1.0
102
RTVSPost2010PropOp56
 70
     1
102
RTVSPost2010Prop57
140
1.0
102
RTVSPost2010PropOp57
 70
     1
102
RTVSPropertyOp0
 70
     1
102
RTVSPropertyOp1
 70
     1
102
RTVSPropertyOp2
 70
     1
102
RTVSPropertyOp3
 70
     1
102
RTVSPropertyOp4
 70
     1
102
RTVSPropertyOp5
 70
     1
102
RTVSPropertyOp6
 70
     1
102
RTVSPropertyOp7
 70
     1
102
RTVSPropertyOp8
 70
     1
102
RTVSPropertyOp9
 70
     1
102
RTVSPropertyOp10
 70
     1
102
RTVSPropertyOp11
 70
     1
102
RTVSPropertyOp12
 70
     1
102
RTVSPropertyOp13
 70
     1
102
RTVSPropertyOp14
 70
     1
102
RTVSPropertyOp15
 70
     1
102
RTVSPropertyOp16
 70
     1
102
RTVSPropertyOp17
 70
     1
102
RTVSPropertyOp18
 70
     1
102
RTVSPropertyOp19
 70
     1
102
RTVSPropertyOp20
 70
     1
102
RTVSPropertyOp21
 70
     1
102
RTVSPropertyOp22
 70
     1
102
RTVSPropertyOp23
 70
     1
102
RTVSPropertyOp24
 70
     1
102
RTVSPropertyOp25
 70
     1
102
RTVSPropertyOp26
 70
     1
102
RTVSPropertyOp27
 70
     1
102
RTVSPropertyOp28
 70
     1
102
RTVSPropertyOp29
 70
     1
102
RTVSPropertyOp30
 70
     1
102
RTVSPropertyOp31
 70
     1
102
RTVSPropertyOp32
 70
     1
102
RTVSPropertyOp33
 70
     1
102
RTVSPropertyOp34
 70
     1
102
RTVSPropertyOp35
 70
     1
102
RTVSPropertyOp36
 70
     1
102
RTVSPropertyOp37
 70
     1
102
RTVSPropertyOp38
 70
     1
102
RTVSPropertyOp39
 70
     1
102
RTVSPropertyOp40
 70
     1
102
RTVSPropertyOp41
 70
     1
102
RTVSPropertyOp42
 70
     1
102
RTVSPropertyOp43
 70
     1
102
RTVSPropertyOp44
 70
     1
102
RTVSPropertyOp45
 70
     1
102
RTVSPropertyOp46
 70
     1
102
RTVSPropertyOp47
 70
     1
102
RTVSPropertyOp48
 70
     1
102
RTVSPropertyOp49
 70
     1
102
RTVSPropertyOp50
 70
     1
102
RTVSPropertyOp51
 70
     0
102
RTVSPropertyOp52
 70
     0
102
RTVSPropertyOp53
 70
     1
102
RTVSPropertyOp54
 70
     1
102
RTVSPropertyOp55
 70
     1
102
RTVSPropertyOp56
 70
     1
102
RTVSPropertyOp57
 70
     1
102
RTVSPropertyOp58
 70
     1
102
RTVSPropertyOp59
 70
     1
102
RTVSPropertyOp60
 70
     1
102
RTVSPropertyOp61
 70
     1
102
RTVSPropertyOp62
 70
     1
  0
XRECORD
  5
C3EF
102
{ACAD_REACTORS
330
C3EE
102
}
330
C3EE
100
AcDbXrecord
280
     1
102
RTVSPost2010Prop28
280
     0
102
RTVSPost2010PropOp28
 70
     1
102
RTVSPost2010Prop29
280
     1
102
RTVSPost2010PropOp29
 70
     1
102
RTVSPost2010Prop30
280
     1
102
RTVSPost2010PropOp30
 70
     1
102
RTVSPost2010Prop31
280
     0
102
RTVSPost2010PropOp31
 70
     1
102
RTVSPost2010Prop32
280
     0
102
RTVSPost2010PropOp32
 70
     1
102
RTVSPost2010Prop33
280
     0
102
RTVSPost2010PropOp33
 70
     1
102
RTVSPost2010Prop34
280
     0
102
RTVSPost2010PropOp34
 70
     1
102
RTVSPost2010Prop35
280
     0
102
RTVSPost2010PropOp35
 70
     1
102
RTVSPost2010Prop36
280
     0
102
RTVSPost2010PropOp36
 70
     1
102
RTVSPost2010Prop37
 90
       50
102
RTVSPost2010PropOp37
 70
     1
102
RTVSPost2010Prop38
140
0.0
102
RTVSPost2010PropOp38
 70
     1
102
RTVSPost2010Prop39
140
1.0
102
RTVSPost2010PropOp39
 70
     1
102
RTVSPost2010Prop40
 90
        0
102
RTVSPost2010PropOp40
 70
     1
102
RTVSPost2010Prop41ColorIndex
 90
       18
102
RTVSPost2010Prop41ColorRGB
 90
        0
102
RTVSPost2010PropOp41
 70
     1
102
RTVSPost2010Prop42
 90
       50
102
RTVSPost2010PropOp42
 70
     1
102
RTVSPost2010Prop43
 90
        3
102
RTVSPost2010PropOp43
 70
     1
102
RTVSPost2010Prop44ColorIndex
 90
        5
102
RTVSPost2010Prop44ColorRGB
 90
      255
102
RTVSPost2010PropOp44
 70
     1
102
RTVSPost2010Prop45
280
     0
102
RTVSPost2010PropOp45
 70
     1
102
RTVSPost2010Prop46
 90
       50
102
RTVSPost2010PropOp46
 70
     1
102
RTVSPost2010Prop47
 90
       50
102
RTVSPost2010PropOp47
 70
     1
102
RTVSPost2010Prop48
 90
       50
102
RTVSPost2010PropOp48
 70
     1
102
RTVSPost2010Prop49
280
     0
102
RTVSPost2010PropOp49
 70
     1
102
RTVSPost2010Prop50
 90
       50
102
RTVSPost2010PropOp50
 70
     1
102
RTVSPost2010Prop51ColorIndex
 90
      256
102
RTVSPost2010Prop51ColorRGB
 90
-16777216
102
RTVSPost2010PropOp51
 70
     0
102
RTVSPost2010Prop52
140
1.0
102
RTVSPost2010PropOp52
 70
     0
102
RTVSPost2010Prop53
 90
        2
102
RTVSPost2010PropOp53
 70
     1
102
RTVSPost2010Prop54
  1
strokes_ogs.tif
102
RTVSPost2010PropOp54
 70
     1
102
RTVSPost2010Prop55
280
     0
102
RTVSPost2010PropOp55
 70
     1
102
RTVSPost2010Prop56
140
1.0
102
RTVSPost2010PropOp56
 70
     1
102
RTVSPost2010Prop57
140
1.0
102
RTVSPost2010PropOp57
 70
     1
102
RTVSPropertyOp0
 70
     1
102
RTVSPropertyOp1
 70
     1
102
RTVSPropertyOp2
 70
     1
102
RTVSPropertyOp3
 70
     1
102
RTVSPropertyOp4
 70
     1
102
RTVSPropertyOp5
 70
     1
102
RTVSPropertyOp6
 70
     1
102
RTVSPropertyOp7
 70
     1
102
RTVSPropertyOp8
 70
     1
102
RTVSPropertyOp9
 70
     1
102
RTVSPropertyOp10
 70
     1
102
RTVSPropertyOp11
 70
     1
102
RTVSPropertyOp12
 70
     1
102
RTVSPropertyOp13
 70
     1
102
RTVSPropertyOp14
 70
     1
102
RTVSPropertyOp15
 70
     1
102
RTVSPropertyOp16
 70
     1
102
RTVSPropertyOp17
 70
     1
102
RTVSPropertyOp18
 70
     1
102
RTVSPropertyOp19
 70
     1
102
RTVSPropertyOp20
 70
     1
102
RTVSPropertyOp21
 70
     1
102
RTVSPropertyOp22
 70
     1
102
RTVSPropertyOp23
 70
     1
102
RTVSPropertyOp24
 70
     1
102
RTVSPropertyOp25
 70
     1
102
RTVSPropertyOp26
 70
     1
102
RTVSPropertyOp27
 70
     1
102
RTVSPropertyOp28
 70
     1
102
RTVSPropertyOp29
 70
     1
102
RTVSPropertyOp30
 70
     1
102
RTVSPropertyOp31
 70
     1
102
RTVSPropertyOp32
 70
     1
102
RTVSPropertyOp33
 70
     1
102
RTVSPropertyOp34
 70
     1
102
RTVSPropertyOp35
 70
     1
102
RTVSPropertyOp36
 70
     1
102
RTVSPropertyOp37
 70
     1
102
RTVSPropertyOp38
 70
     1
102
RTVSPropertyOp39
 70
     1
102
RTVSPropertyOp40
 70
     1
102
RTVSPropertyOp41
 70
     1
102
RTVSPropertyOp42
 70
     1
102
RTVSPropertyOp43
 70
     1
102
RTVSPropertyOp44
 70
     1
102
RTVSPropertyOp45
 70
     1
102
RTVSPropertyOp46
 70
     1
102
RTVSPropertyOp47
 70
     1
102
RTVSPropertyOp48
 70
     1
102
RTVSPropertyOp49
 70
     1
102
RTVSPropertyOp50
 70
     1
102
RTVSPropertyOp51
 70
     0
102
RTVSPropertyOp52
 70
     0
102
RTVSPropertyOp53
 70
     1
102
RTVSPropertyOp54
 70
     1
102
RTVSPropertyOp55
 70
     1
102
RTVSPropertyOp56
 70
     1
102
RTVSPropertyOp57
 70
     1
102
RTVSPropertyOp58
 70
     1
102
RTVSPropertyOp59
 70
     1
102
RTVSPropertyOp60
 70
     1
102
RTVSPropertyOp61
 70
     1
102
RTVSPropertyOp62
 70
     1
  0
XRECORD
  5
C3F7
102
{ACAD_REACTORS
330
C3F6
102
}
330
C3F6
100
AcDbXrecord
280
     1
102
RTVSPost2010Prop28
280
     0
102
RTVSPost2010PropOp28
 70
     1
102
RTVSPost2010Prop29
280
     1
102
RTVSPost2010PropOp29
 70
     1
102
RTVSPost2010Prop30
280
     1
102
RTVSPost2010PropOp30
 70
     1
102
RTVSPost2010Prop31
280
     0
102
RTVSPost2010PropOp31
 70
     1
102
RTVSPost2010Prop32
280
     0
102
RTVSPost2010PropOp32
 70
     1
102
RTVSPost2010Prop33
280
     0
102
RTVSPost2010PropOp33
 70
     1
102
RTVSPost2010Prop34
280
     0
102
RTVSPost2010PropOp34
 70
     1
102
RTVSPost2010Prop35
280
     0
102
RTVSPost2010PropOp35
 70
     1
102
RTVSPost2010Prop36
280
     0
102
RTVSPost2010PropOp36
 70
     1
102
RTVSPost2010Prop37
 90
       50
102
RTVSPost2010PropOp37
 70
     1
102
RTVSPost2010Prop38
140
0.0
102
RTVSPost2010PropOp38
 70
     1
102
RTVSPost2010Prop39
140
1.0
102
RTVSPost2010PropOp39
 70
     1
102
RTVSPost2010Prop40
 90
        0
102
RTVSPost2010PropOp40
 70
     1
102
RTVSPost2010Prop41ColorIndex
 90
       18
102
RTVSPost2010Prop41ColorRGB
 90
        0
102
RTVSPost2010PropOp41
 70
     1
102
RTVSPost2010Prop42
 90
       50
102
RTVSPost2010PropOp42
 70
     1
102
RTVSPost2010Prop43
 90
        3
102
RTVSPost2010PropOp43
 70
     1
102
RTVSPost2010Prop44ColorIndex
 90
        5
102
RTVSPost2010Prop44ColorRGB
 90
      255
102
RTVSPost2010PropOp44
 70
     1
102
RTVSPost2010Prop45
280
     0
102
RTVSPost2010PropOp45
 70
     1
102
RTVSPost2010Prop46
 90
       50
102
RTVSPost2010PropOp46
 70
     1
102
RTVSPost2010Prop47
 90
       50
102
RTVSPost2010PropOp47
 70
     1
102
RTVSPost2010Prop48
 90
       50
102
RTVSPost2010PropOp48
 70
     1
102
RTVSPost2010Prop49
280
     0
102
RTVSPost2010PropOp49
 70
     1
102
RTVSPost2010Prop50
 90
       50
102
RTVSPost2010PropOp50
 70
     1
102
RTVSPost2010Prop51ColorIndex
 90
      256
102
RTVSPost2010Prop51ColorRGB
 90
-16777216
102
RTVSPost2010PropOp51
 70
     0
102
RTVSPost2010Prop52
140
1.0
102
RTVSPost2010PropOp52
 70
     0
102
RTVSPost2010Prop53
 90
        2
102
RTVSPost2010PropOp53
 70
     1
102
RTVSPost2010Prop54
  1
strokes_ogs.tif
102
RTVSPost2010PropOp54
 70
     1
102
RTVSPost2010Prop55
280
     0
102
RTVSPost2010PropOp55
 70
     1
102
RTVSPost2010Prop56
140
1.0
102
RTVSPost2010PropOp56
 70
     1
102
RTVSPost2010Prop57
140
1.0
102
RTVSPost2010PropOp57
 70
     1
102
RTVSPropertyOp0
 70
     1
102
RTVSPropertyOp1
 70
     1
102
RTVSPropertyOp2
 70
     1
102
RTVSPropertyOp3
 70
     1
102
RTVSPropertyOp4
 70
     1
102
RTVSPropertyOp5
 70
     1
102
RTVSPropertyOp6
 70
     1
102
RTVSPropertyOp7
 70
     1
102
RTVSPropertyOp8
 70
     1
102
RTVSPropertyOp9
 70
     1
102
RTVSPropertyOp10
 70
     1
102
RTVSPropertyOp11
 70
     1
102
RTVSPropertyOp12
 70
     1
102
RTVSPropertyOp13
 70
     1
102
RTVSPropertyOp14
 70
     1
102
RTVSPropertyOp15
 70
     1
102
RTVSPropertyOp16
 70
     1
102
RTVSPropertyOp17
 70
     1
102
RTVSPropertyOp18
 70
     1
102
RTVSPropertyOp19
 70
     1
102
RTVSPropertyOp20
 70
     1
102
RTVSPropertyOp21
 70
     1
102
RTVSPropertyOp22
 70
     1
102
RTVSPropertyOp23
 70
     1
102
RTVSPropertyOp24
 70
     1
102
RTVSPropertyOp25
 70
     1
102
RTVSPropertyOp26
 70
     1
102
RTVSPropertyOp27
 70
     1
102
RTVSPropertyOp28
 70
     1
102
RTVSPropertyOp29
 70
     1
102
RTVSPropertyOp30
 70
     1
102
RTVSPropertyOp31
 70
     1
102
RTVSPropertyOp32
 70
     1
102
RTVSPropertyOp33
 70
     1
102
RTVSPropertyOp34
 70
     1
102
RTVSPropertyOp35
 70
     1
102
RTVSPropertyOp36
 70
     1
102
RTVSPropertyOp37
 70
     1
102
RTVSPropertyOp38
 70
     1
102
RTVSPropertyOp39
 70
     1
102
RTVSPropertyOp40
 70
     1
102
RTVSPropertyOp41
 70
     1
102
RTVSPropertyOp42
 70
     1
102
RTVSPropertyOp43
 70
     1
102
RTVSPropertyOp44
 70
     1
102
RTVSPropertyOp45
 70
     1
102
RTVSPropertyOp46
 70
     1
102
RTVSPropertyOp47
 70
     1
102
RTVSPropertyOp48
 70
     1
102
RTVSPropertyOp49
 70
     1
102
RTVSPropertyOp50
 70
     1
102
RTVSPropertyOp51
 70
     0
102
RTVSPropertyOp52
 70
     0
102
RTVSPropertyOp53
 70
     1
102
RTVSPropertyOp54
 70
     1
102
RTVSPropertyOp55
 70
     1
102
RTVSPropertyOp56
 70
     1
102
RTVSPropertyOp57
 70
     1
102
RTVSPropertyOp58
 70
     1
102
RTVSPropertyOp59
 70
     1
102
RTVSPropertyOp60
 70
     1
102
RTVSPropertyOp61
 70
     1
102
RTVSPropertyOp62
 70
     1
  0
XRECORD
  5
C3E9
102
{ACAD_REACTORS
330
C3E8
102
}
330
C3E8
100
AcDbXrecord
280
     1
102
RTVSPost2010Prop28
280
     0
102
RTVSPost2010PropOp28
 70
     1
102
RTVSPost2010Prop29
280
     1
102
RTVSPost2010PropOp29
 70
     1
102
RTVSPost2010Prop30
280
     1
102
RTVSPost2010PropOp30
 70
     1
102
RTVSPost2010Prop31
280
     0
102
RTVSPost2010PropOp31
 70
     1
102
RTVSPost2010Prop32
280
     0
102
RTVSPost2010PropOp32
 70
     1
102
RTVSPost2010Prop33
280
     0
102
RTVSPost2010PropOp33
 70
     1
102
RTVSPost2010Prop34
280
     0
102
RTVSPost2010PropOp34
 70
     1
102
RTVSPost2010Prop35
280
     0
102
RTVSPost2010PropOp35
 70
     1
102
RTVSPost2010Prop36
280
     0
102
RTVSPost2010PropOp36
 70
     1
102
RTVSPost2010Prop37
 90
       50
102
RTVSPost2010PropOp37
 70
     1
102
RTVSPost2010Prop38
140
0.0
102
RTVSPost2010PropOp38
 70
     1
102
RTVSPost2010Prop39
140
1.0
102
RTVSPost2010PropOp39
 70
     1
102
RTVSPost2010Prop40
 90
        0
102
RTVSPost2010PropOp40
 70
     1
102
RTVSPost2010Prop41ColorIndex
 90
       18
102
RTVSPost2010Prop41ColorRGB
 90
        0
102
RTVSPost2010PropOp41
 70
     1
102
RTVSPost2010Prop42
 90
       50
102
RTVSPost2010PropOp42
 70
     1
102
RTVSPost2010Prop43
 90
        3
102
RTVSPost2010PropOp43
 70
     1
102
RTVSPost2010Prop44ColorIndex
 90
        5
102
RTVSPost2010Prop44ColorRGB
 90
      255
102
RTVSPost2010PropOp44
 70
     1
102
RTVSPost2010Prop45
280
     0
102
RTVSPost2010PropOp45
 70
     1
102
RTVSPost2010Prop46
 90
       50
102
RTVSPost2010PropOp46
 70
     1
102
RTVSPost2010Prop47
 90
       50
102
RTVSPost2010PropOp47
 70
     1
102
RTVSPost2010Prop48
 90
       50
102
RTVSPost2010PropOp48
 70
     1
102
RTVSPost2010Prop49
280
     0
102
RTVSPost2010PropOp49
 70
     1
102
RTVSPost2010Prop50
 90
       50
102
RTVSPost2010PropOp50
 70
     1
102
RTVSPost2010Prop51ColorIndex
 90
      256
102
RTVSPost2010Prop51ColorRGB
 90
-16777216
102
RTVSPost2010PropOp51
 70
     0
102
RTVSPost2010Prop52
140
1.0
102
RTVSPost2010PropOp52
 70
     0
102
RTVSPost2010Prop53
 90
        2
102
RTVSPost2010PropOp53
 70
     1
102
RTVSPost2010Prop54
  1
strokes_ogs.tif
102
RTVSPost2010PropOp54
 70
     1
102
RTVSPost2010Prop55
280
     0
102
RTVSPost2010PropOp55
 70
     1
102
RTVSPost2010Prop56
140
1.0
102
RTVSPost2010PropOp56
 70
     1
102
RTVSPost2010Prop57
140
1.0
102
RTVSPost2010PropOp57
 70
     1
102
RTVSPropertyOp0
 70
     1
102
RTVSPropertyOp1
 70
     1
102
RTVSPropertyOp2
 70
     1
102
RTVSPropertyOp3
 70
     1
102
RTVSPropertyOp4
 70
     1
102
RTVSPropertyOp5
 70
     1
102
RTVSPropertyOp6
 70
     1
102
RTVSPropertyOp7
 70
     1
102
RTVSPropertyOp8
 70
     1
102
RTVSPropertyOp9
 70
     1
102
RTVSPropertyOp10
 70
     1
102
RTVSPropertyOp11
 70
     1
102
RTVSPropertyOp12
 70
     1
102
RTVSPropertyOp13
 70
     1
102
RTVSPropertyOp14
 70
     1
102
RTVSPropertyOp15
 70
     1
102
RTVSPropertyOp16
 70
     1
102
RTVSPropertyOp17
 70
     1
102
RTVSPropertyOp18
 70
     1
102
RTVSPropertyOp19
 70
     1
102
RTVSPropertyOp20
 70
     1
102
RTVSPropertyOp21
 70
     1
102
RTVSPropertyOp22
 70
     1
102
RTVSPropertyOp23
 70
     1
102
RTVSPropertyOp24
 70
     1
102
RTVSPropertyOp25
 70
     1
102
RTVSPropertyOp26
 70
     1
102
RTVSPropertyOp27
 70
     1
102
RTVSPropertyOp28
 70
     1
102
RTVSPropertyOp29
 70
     1
102
RTVSPropertyOp30
 70
     1
102
RTVSPropertyOp31
 70
     1
102
RTVSPropertyOp32
 70
     1
102
RTVSPropertyOp33
 70
     1
102
RTVSPropertyOp34
 70
     1
102
RTVSPropertyOp35
 70
     1
102
RTVSPropertyOp36
 70
     1
102
RTVSPropertyOp37
 70
     1
102
RTVSPropertyOp38
 70
     1
102
RTVSPropertyOp39
 70
     1
102
RTVSPropertyOp40
 70
     1
102
RTVSPropertyOp41
 70
     1
102
RTVSPropertyOp42
 70
     1
102
RTVSPropertyOp43
 70
     1
102
RTVSPropertyOp44
 70
     1
102
RTVSPropertyOp45
 70
     1
102
RTVSPropertyOp46
 70
     1
102
RTVSPropertyOp47
 70
     1
102
RTVSPropertyOp48
 70
     1
102
RTVSPropertyOp49
 70
     1
102
RTVSPropertyOp50
 70
     1
102
RTVSPropertyOp51
 70
     0
102
RTVSPropertyOp52
 70
     0
102
RTVSPropertyOp53
 70
     1
102
RTVSPropertyOp54
 70
     1
102
RTVSPropertyOp55
 70
     1
102
RTVSPropertyOp56
 70
     1
102
RTVSPropertyOp57
 70
     1
102
RTVSPropertyOp58
 70
     1
102
RTVSPropertyOp59
 70
     1
102
RTVSPropertyOp60
 70
     1
102
RTVSPropertyOp61
 70
     1
102
RTVSPropertyOp62
 70
     1
  0
XRECORD
  5
C3ED
102
{ACAD_REACTORS
330
C3EC
102
}
330
C3EC
100
AcDbXrecord
280
     1
102
RTVSPost2010Prop28
280
     0
102
RTVSPost2010PropOp28
 70
     1
102
RTVSPost2010Prop29
280
     1
102
RTVSPost2010PropOp29
 70
     1
102
RTVSPost2010Prop30
280
     1
102
RTVSPost2010PropOp30
 70
     1
102
RTVSPost2010Prop31
280
     0
102
RTVSPost2010PropOp31
 70
     1
102
RTVSPost2010Prop32
280
     0
102
RTVSPost2010PropOp32
 70
     1
102
RTVSPost2010Prop33
280
     0
102
RTVSPost2010PropOp33
 70
     1
102
RTVSPost2010Prop34
280
     0
102
RTVSPost2010PropOp34
 70
     1
102
RTVSPost2010Prop35
280
     0
102
RTVSPost2010PropOp35
 70
     1
102
RTVSPost2010Prop36
280
     0
102
RTVSPost2010PropOp36
 70
     1
102
RTVSPost2010Prop37
 90
       50
102
RTVSPost2010PropOp37
 70
     1
102
RTVSPost2010Prop38
140
0.0
102
RTVSPost2010PropOp38
 70
     1
102
RTVSPost2010Prop39
140
1.0
102
RTVSPost2010PropOp39
 70
     1
102
RTVSPost2010Prop40
 90
        0
102
RTVSPost2010PropOp40
 70
     1
102
RTVSPost2010Prop41ColorIndex
 90
       18
102
RTVSPost2010Prop41ColorRGB
 90
        0
102
RTVSPost2010PropOp41
 70
     1
102
RTVSPost2010Prop42
 90
       50
102
RTVSPost2010PropOp42
 70
     1
102
RTVSPost2010Prop43
 90
        3
102
RTVSPost2010PropOp43
 70
     1
102
RTVSPost2010Prop44ColorIndex
 90
        5
102
RTVSPost2010Prop44ColorRGB
 90
      255
102
RTVSPost2010PropOp44
 70
     1
102
RTVSPost2010Prop45
280
     0
102
RTVSPost2010PropOp45
 70
     1
102
RTVSPost2010Prop46
 90
       50
102
RTVSPost2010PropOp46
 70
     1
102
RTVSPost2010Prop47
 90
       50
102
RTVSPost2010PropOp47
 70
     1
102
RTVSPost2010Prop48
 90
       50
102
RTVSPost2010PropOp48
 70
     1
102
RTVSPost2010Prop49
280
     0
102
RTVSPost2010PropOp49
 70
     1
102
RTVSPost2010Prop50
 90
       50
102
RTVSPost2010PropOp50
 70
     1
102
RTVSPost2010Prop51ColorIndex
 90
      256
102
RTVSPost2010Prop51ColorRGB
 90
-16777216
102
RTVSPost2010PropOp51
 70
     0
102
RTVSPost2010Prop52
140
1.0
102
RTVSPost2010PropOp52
 70
     0
102
RTVSPost2010Prop53
 90
        2
102
RTVSPost2010PropOp53
 70
     1
102
RTVSPost2010Prop54
  1
strokes_ogs.tif
102
RTVSPost2010PropOp54
 70
     1
102
RTVSPost2010Prop55
280
     0
102
RTVSPost2010PropOp55
 70
     1
102
RTVSPost2010Prop56
140
1.0
102
RTVSPost2010PropOp56
 70
     1
102
RTVSPost2010Prop57
140
1.0
102
RTVSPost2010PropOp57
 70
     1
102
RTVSPropertyOp0
 70
     1
102
RTVSPropertyOp1
 70
     1
102
RTVSPropertyOp2
 70
     1
102
RTVSPropertyOp3
 70
     1
102
RTVSPropertyOp4
 70
     1
102
RTVSPropertyOp5
 70
     1
102
RTVSPropertyOp6
 70
     1
102
RTVSPropertyOp7
 70
     1
102
RTVSPropertyOp8
 70
     1
102
RTVSPropertyOp9
 70
     1
102
RTVSPropertyOp10
 70
     1
102
RTVSPropertyOp11
 70
     1
102
RTVSPropertyOp12
 70
     1
102
RTVSPropertyOp13
 70
     1
102
RTVSPropertyOp14
 70
     1
102
RTVSPropertyOp15
 70
     1
102
RTVSPropertyOp16
 70
     1
102
RTVSPropertyOp17
 70
     1
102
RTVSPropertyOp18
 70
     1
102
RTVSPropertyOp19
 70
     1
102
RTVSPropertyOp20
 70
     1
102
RTVSPropertyOp21
 70
     1
102
RTVSPropertyOp22
 70
     1
102
RTVSPropertyOp23
 70
     1
102
RTVSPropertyOp24
 70
     1
102
RTVSPropertyOp25
 70
     1
102
RTVSPropertyOp26
 70
     1
102
RTVSPropertyOp27
 70
     1
102
RTVSPropertyOp28
 70
     1
102
RTVSPropertyOp29
 70
     1
102
RTVSPropertyOp30
 70
     1
102
RTVSPropertyOp31
 70
     1
102
RTVSPropertyOp32
 70
     1
102
RTVSPropertyOp33
 70
     1
102
RTVSPropertyOp34
 70
     1
102
RTVSPropertyOp35
 70
     1
102
RTVSPropertyOp36
 70
     1
102
RTVSPropertyOp37
 70
     1
102
RTVSPropertyOp38
 70
     1
102
RTVSPropertyOp39
 70
     1
102
RTVSPropertyOp40
 70
     1
102
RTVSPropertyOp41
 70
     1
102
RTVSPropertyOp42
 70
     1
102
RTVSPropertyOp43
 70
     1
102
RTVSPropertyOp44
 70
     1
102
RTVSPropertyOp45
 70
     1
102
RTVSPropertyOp46
 70
     1
102
RTVSPropertyOp47
 70
     1
102
RTVSPropertyOp48
 70
     1
102
RTVSPropertyOp49
 70
     1
102
RTVSPropertyOp50
 70
     1
102
RTVSPropertyOp51
 70
     0
102
RTVSPropertyOp52
 70
     0
102
RTVSPropertyOp53
 70
     1
102
RTVSPropertyOp54
 70
     1
102
RTVSPropertyOp55
 70
     1
102
RTVSPropertyOp56
 70
     1
102
RTVSPropertyOp57
 70
     1
102
RTVSPropertyOp58
 70
     1
102
RTVSPropertyOp59
 70
     1
102
RTVSPropertyOp60
 70
     1
102
RTVSPropertyOp61
 70
     1
102
RTVSPropertyOp62
 70
     1
  0
XRECORD
  5
C407
102
{ACAD_REACTORS
330
C406
102
}
330
C406
100
AcDbXrecord
280
     1
102
RTVSPost2010Prop28
280
     0
102
RTVSPost2010PropOp28
 70
     1
102
RTVSPost2010Prop29
280
     1
102
RTVSPost2010PropOp29
 70
     1
102
RTVSPost2010Prop30
280
     1
102
RTVSPost2010PropOp30
 70
     1
102
RTVSPost2010Prop31
280
     0
102
RTVSPost2010PropOp31
 70
     1
102
RTVSPost2010Prop32
280
     0
102
RTVSPost2010PropOp32
 70
     1
102
RTVSPost2010Prop33
280
     0
102
RTVSPost2010PropOp33
 70
     1
102
RTVSPost2010Prop34
280
     0
102
RTVSPost2010PropOp34
 70
     1
102
RTVSPost2010Prop35
280
     0
102
RTVSPost2010PropOp35
 70
     1
102
RTVSPost2010Prop36
280
     0
102
RTVSPost2010PropOp36
 70
     1
102
RTVSPost2010Prop37
 90
       50
102
RTVSPost2010PropOp37
 70
     0
102
RTVSPost2010Prop38
140
0.0
102
RTVSPost2010PropOp38
 70
     0
102
RTVSPost2010Prop39
140
1.0
102
RTVSPost2010PropOp39
 70
     0
102
RTVSPost2010Prop40
 90
        0
102
RTVSPost2010PropOp40
 70
     0
102
RTVSPost2010Prop41ColorIndex
 90
       18
102
RTVSPost2010Prop41ColorRGB
 90
        0
102
RTVSPost2010PropOp41
 70
     0
102
RTVSPost2010Prop42
 90
       50
102
RTVSPost2010PropOp42
 70
     0
102
RTVSPost2010Prop43
 90
        3
102
RTVSPost2010PropOp43
 70
     0
102
RTVSPost2010Prop44ColorIndex
 90
        5
102
RTVSPost2010Prop44ColorRGB
 90
      255
102
RTVSPost2010PropOp44
 70
     0
102
RTVSPost2010Prop45
280
     0
102
RTVSPost2010PropOp45
 70
     1
102
RTVSPost2010Prop46
 90
       50
102
RTVSPost2010PropOp46
 70
     0
102
RTVSPost2010Prop47
 90
       50
102
RTVSPost2010PropOp47
 70
     0
102
RTVSPost2010Prop48
 90
       50
102
RTVSPost2010PropOp48
 70
     0
102
RTVSPost2010Prop49
280
     0
102
RTVSPost2010PropOp49
 70
     1
102
RTVSPost2010Prop50
 90
       50
102
RTVSPost2010PropOp50
 70
     0
102
RTVSPost2010Prop51ColorIndex
 90
      256
102
RTVSPost2010Prop51ColorRGB
 90
-16777216
102
RTVSPost2010PropOp51
 70
     0
102
RTVSPost2010Prop52
140
1.0
102
RTVSPost2010PropOp52
 70
     0
102
RTVSPost2010Prop53
 90
        2
102
RTVSPost2010PropOp53
 70
     0
102
RTVSPost2010Prop54
  1
strokes_ogs.tif
102
RTVSPost2010PropOp54
 70
     0
102
RTVSPost2010Prop55
280
     0
102
RTVSPost2010PropOp55
 70
     1
102
RTVSPost2010Prop56
140
1.0
102
RTVSPost2010PropOp56
 70
     0
102
RTVSPost2010Prop57
140
1.0
102
RTVSPost2010PropOp57
 70
     0
102
RTVSPropertyOp0
 70
     0
102
RTVSPropertyOp1
 70
     0
102
RTVSPropertyOp2
 70
     0
102
RTVSPropertyOp3
 70
     0
102
RTVSPropertyOp4
 70
     0
102
RTVSPropertyOp5
 70
     0
102
RTVSPropertyOp6
 70
     0
102
RTVSPropertyOp7
 70
     0
102
RTVSPropertyOp8
 70
     0
102
RTVSPropertyOp9
 70
     0
102
RTVSPropertyOp10
 70
     0
102
RTVSPropertyOp11
 70
     0
102
RTVSPropertyOp12
 70
     0
102
RTVSPropertyOp13
 70
     0
102
RTVSPropertyOp14
 70
     2
102
RTVSPropertyOp15
 70
     0
102
RTVSPropertyOp16
 70
     0
102
RTVSPropertyOp17
 70
     0
102
RTVSPropertyOp18
 70
     0
102
RTVSPropertyOp19
 70
     0
102
RTVSPropertyOp20
 70
     0
102
RTVSPropertyOp21
 70
     0
102
RTVSPropertyOp22
 70
     0
102
RTVSPropertyOp23
 70
     0
102
RTVSPropertyOp24
 70
     0
102
RTVSPropertyOp25
 70
     0
102
RTVSPropertyOp26
 70
     0
102
RTVSPropertyOp27
 70
     0
102
RTVSPropertyOp28
 70
     1
102
RTVSPropertyOp29
 70
     1
102
RTVSPropertyOp30
 70
     1
102
RTVSPropertyOp31
 70
     1
102
RTVSPropertyOp32
 70
     1
102
RTVSPropertyOp33
 70
     1
102
RTVSPropertyOp34
 70
     1
102
RTVSPropertyOp35
 70
     1
102
RTVSPropertyOp36
 70
     1
102
RTVSPropertyOp37
 70
     0
102
RTVSPropertyOp38
 70
     0
102
RTVSPropertyOp39
 70
     0
102
RTVSPropertyOp40
 70
     0
102
RTVSPropertyOp41
 70
     0
102
RTVSPropertyOp42
 70
     0
102
RTVSPropertyOp43
 70
     0
102
RTVSPropertyOp44
 70
     0
102
RTVSPropertyOp45
 70
     1
102
RTVSPropertyOp46
 70
     0
102
RTVSPropertyOp47
 70
     0
102
RTVSPropertyOp48
 70
     0
102
RTVSPropertyOp49
 70
     1
102
RTVSPropertyOp50
 70
     0
102
RTVSPropertyOp51
 70
     0
102
RTVSPropertyOp52
 70
     0
102
RTVSPropertyOp53
 70
     0
102
RTVSPropertyOp54
 70
     0
102
RTVSPropertyOp55
 70
     1
102
RTVSPropertyOp56
 70
     0
102
RTVSPropertyOp57
 70
     0
102
RTVSPropertyOp58
 70
     0
102
RTVSPropertyOp59
 70
     0
102
RTVSPropertyOp60
 70
     0
102
RTVSPropertyOp61
 70
     0
102
RTVSPropertyOp62
 70
     0
  0
XRECORD
  5
C3F5
102
{ACAD_REACTORS
330
C3F4
102
}
330
C3F4
100
AcDbXrecord
280
     1
102
RTVSPost2010Prop28
280
     0
102
RTVSPost2010PropOp28
 70
     1
102
RTVSPost2010Prop29
280
     1
102
RTVSPost2010PropOp29
 70
     1
102
RTVSPost2010Prop30
280
     1
102
RTVSPost2010PropOp30
 70
     1
102
RTVSPost2010Prop31
280
     0
102
RTVSPost2010PropOp31
 70
     1
102
RTVSPost2010Prop32
280
     0
102
RTVSPost2010PropOp32
 70
     1
102
RTVSPost2010Prop33
280
     0
102
RTVSPost2010PropOp33
 70
     1
102
RTVSPost2010Prop34
280
     0
102
RTVSPost2010PropOp34
 70
     1
102
RTVSPost2010Prop35
280
     0
102
RTVSPost2010PropOp35
 70
     1
102
RTVSPost2010Prop36
280
     0
102
RTVSPost2010PropOp36
 70
     1
102
RTVSPost2010Prop37
 90
       50
102
RTVSPost2010PropOp37
 70
     1
102
RTVSPost2010Prop38
140
0.0
102
RTVSPost2010PropOp38
 70
     1
102
RTVSPost2010Prop39
140
1.0
102
RTVSPost2010PropOp39
 70
     1
102
RTVSPost2010Prop40
 90
        0
102
RTVSPost2010PropOp40
 70
     1
102
RTVSPost2010Prop41ColorIndex
 90
       18
102
RTVSPost2010Prop41ColorRGB
 90
        0
102
RTVSPost2010PropOp41
 70
     1
102
RTVSPost2010Prop42
 90
       50
102
RTVSPost2010PropOp42
 70
     1
102
RTVSPost2010Prop43
 90
        3
102
RTVSPost2010PropOp43
 70
     1
102
RTVSPost2010Prop44ColorIndex
 90
        5
102
RTVSPost2010Prop44ColorRGB
 90
      255
102
RTVSPost2010PropOp44
 70
     1
102
RTVSPost2010Prop45
280
     0
102
RTVSPost2010PropOp45
 70
     1
102
RTVSPost2010Prop46
 90
       50
102
RTVSPost2010PropOp46
 70
     1
102
RTVSPost2010Prop47
 90
       50
102
RTVSPost2010PropOp47
 70
     1
102
RTVSPost2010Prop48
 90
       50
102
RTVSPost2010PropOp48
 70
     1
102
RTVSPost2010Prop49
280
     0
102
RTVSPost2010PropOp49
 70
     1
102
RTVSPost2010Prop50
 90
       50
102
RTVSPost2010PropOp50
 70
     1
102
RTVSPost2010Prop51ColorIndex
 90
      256
102
RTVSPost2010Prop51ColorRGB
 90
-16777216
102
RTVSPost2010PropOp51
 70
     0
102
RTVSPost2010Prop52
140
1.0
102
RTVSPost2010PropOp52
 70
     0
102
RTVSPost2010Prop53
 90
        2
102
RTVSPost2010PropOp53
 70
     1
102
RTVSPost2010Prop54
  1
strokes_ogs.tif
102
RTVSPost2010PropOp54
 70
     1
102
RTVSPost2010Prop55
280
     0
102
RTVSPost2010PropOp55
 70
     1
102
RTVSPost2010Prop56
140
1.0
102
RTVSPost2010PropOp56
 70
     1
102
RTVSPost2010Prop57
140
1.0
102
RTVSPost2010PropOp57
 70
     1
102
RTVSPropertyOp0
 70
     1
102
RTVSPropertyOp1
 70
     1
102
RTVSPropertyOp2
 70
     1
102
RTVSPropertyOp3
 70
     1
102
RTVSPropertyOp4
 70
     1
102
RTVSPropertyOp5
 70
     1
102
RTVSPropertyOp6
 70
     1
102
RTVSPropertyOp7
 70
     1
102
RTVSPropertyOp8
 70
     1
102
RTVSPropertyOp9
 70
     1
102
RTVSPropertyOp10
 70
     1
102
RTVSPropertyOp11
 70
     1
102
RTVSPropertyOp12
 70
     1
102
RTVSPropertyOp13
 70
     1
102
RTVSPropertyOp14
 70
     1
102
RTVSPropertyOp15
 70
     1
102
RTVSPropertyOp16
 70
     1
102
RTVSPropertyOp17
 70
     1
102
RTVSPropertyOp18
 70
     1
102
RTVSPropertyOp19
 70
     1
102
RTVSPropertyOp20
 70
     1
102
RTVSPropertyOp21
 70
     1
102
RTVSPropertyOp22
 70
     1
102
RTVSPropertyOp23
 70
     1
102
RTVSPropertyOp24
 70
     1
102
RTVSPropertyOp25
 70
     1
102
RTVSPropertyOp26
 70
     1
102
RTVSPropertyOp27
 70
     1
102
RTVSPropertyOp28
 70
     1
102
RTVSPropertyOp29
 70
     1
102
RTVSPropertyOp30
 70
     1
102
RTVSPropertyOp31
 70
     1
102
RTVSPropertyOp32
 70
     1
102
RTVSPropertyOp33
 70
     1
102
RTVSPropertyOp34
 70
     1
102
RTVSPropertyOp35
 70
     1
102
RTVSPropertyOp36
 70
     1
102
RTVSPropertyOp37
 70
     1
102
RTVSPropertyOp38
 70
     1
102
RTVSPropertyOp39
 70
     1
102
RTVSPropertyOp40
 70
     1
102
RTVSPropertyOp41
 70
     1
102
RTVSPropertyOp42
 70
     1
102
RTVSPropertyOp43
 70
     1
102
RTVSPropertyOp44
 70
     1
102
RTVSPropertyOp45
 70
     1
102
RTVSPropertyOp46
 70
     1
102
RTVSPropertyOp47
 70
     1
102
RTVSPropertyOp48
 70
     1
102
RTVSPropertyOp49
 70
     1
102
RTVSPropertyOp50
 70
     1
102
RTVSPropertyOp51
 70
     0
102
RTVSPropertyOp52
 70
     0
102
RTVSPropertyOp53
 70
     1
102
RTVSPropertyOp54
 70
     1
102
RTVSPropertyOp55
 70
     1
102
RTVSPropertyOp56
 70
     1
102
RTVSPropertyOp57
 70
     1
102
RTVSPropertyOp58
 70
     1
102
RTVSPropertyOp59
 70
     1
102
RTVSPropertyOp60
 70
     1
102
RTVSPropertyOp61
 70
     1
102
RTVSPropertyOp62
 70
     1
  0
XRECORD
  5
C3D9
102
{ACAD_REACTORS
330
C3D8
102
}
330
C3D8
100
AcDbXrecord
280
     1
102
RTVSPost2010Prop28
280
     0
102
RTVSPost2010PropOp28
 70
     1
102
RTVSPost2010Prop29
280
     1
102
RTVSPost2010PropOp29
 70
     1
102
RTVSPost2010Prop30
280
     1
102
RTVSPost2010PropOp30
 70
     1
102
RTVSPost2010Prop31
280
     0
102
RTVSPost2010PropOp31
 70
     1
102
RTVSPost2010Prop32
280
     0
102
RTVSPost2010PropOp32
 70
     1
102
RTVSPost2010Prop33
280
     0
102
RTVSPost2010PropOp33
 70
     1
102
RTVSPost2010Prop34
280
     0
102
RTVSPost2010PropOp34
 70
     1
102
RTVSPost2010Prop35
280
     0
102
RTVSPost2010PropOp35
 70
     1
102
RTVSPost2010Prop36
280
     0
102
RTVSPost2010PropOp36
 70
     1
102
RTVSPost2010Prop37
 90
       50
102
RTVSPost2010PropOp37
 70
     1
102
RTVSPost2010Prop38
140
0.0
102
RTVSPost2010PropOp38
 70
     1
102
RTVSPost2010Prop39
140
1.0
102
RTVSPost2010PropOp39
 70
     1
102
RTVSPost2010Prop40
 90
        0
102
RTVSPost2010PropOp40
 70
     1
102
RTVSPost2010Prop41ColorIndex
 90
       18
102
RTVSPost2010Prop41ColorRGB
 90
        0
102
RTVSPost2010PropOp41
 70
     1
102
RTVSPost2010Prop42
 90
       50
102
RTVSPost2010PropOp42
 70
     1
102
RTVSPost2010Prop43
 90
        3
102
RTVSPost2010PropOp43
 70
     1
102
RTVSPost2010Prop44ColorIndex
 90
        5
102
RTVSPost2010Prop44ColorRGB
 90
      255
102
RTVSPost2010PropOp44
 70
     1
102
RTVSPost2010Prop45
280
     0
102
RTVSPost2010PropOp45
 70
     1
102
RTVSPost2010Prop46
 90
       50
102
RTVSPost2010PropOp46
 70
     1
102
RTVSPost2010Prop47
 90
       50
102
RTVSPost2010PropOp47
 70
     1
102
RTVSPost2010Prop48
 90
       50
102
RTVSPost2010PropOp48
 70
     1
102
RTVSPost2010Prop49
280
     0
102
RTVSPost2010PropOp49
 70
     1
102
RTVSPost2010Prop50
 90
       50
102
RTVSPost2010PropOp50
 70
     1
102
RTVSPost2010Prop51ColorIndex
 90
      256
102
RTVSPost2010Prop51ColorRGB
 90
-16777216
102
RTVSPost2010PropOp51
 70
     0
102
RTVSPost2010Prop52
140
1.0
102
RTVSPost2010PropOp52
 70
     0
102
RTVSPost2010Prop53
 90
        2
102
RTVSPost2010PropOp53
 70
     1
102
RTVSPost2010Prop54
  1
strokes_ogs.tif
102
RTVSPost2010PropOp54
 70
     1
102
RTVSPost2010Prop55
280
     0
102
RTVSPost2010PropOp55
 70
     1
102
RTVSPost2010Prop56
140
1.0
102
RTVSPost2010PropOp56
 70
     1
102
RTVSPost2010Prop57
140
1.0
102
RTVSPost2010PropOp57
 70
     1
102
RTVSPropertyOp0
 70
     1
102
RTVSPropertyOp1
 70
     1
102
RTVSPropertyOp2
 70
     1
102
RTVSPropertyOp3
 70
     1
102
RTVSPropertyOp4
 70
     1
102
RTVSPropertyOp5
 70
     1
102
RTVSPropertyOp6
 70
     1
102
RTVSPropertyOp7
 70
     1
102
RTVSPropertyOp8
 70
     1
102
RTVSPropertyOp9
 70
     1
102
RTVSPropertyOp10
 70
     1
102
RTVSPropertyOp11
 70
     1
102
RTVSPropertyOp12
 70
     1
102
RTVSPropertyOp13
 70
     1
102
RTVSPropertyOp14
 70
     1
102
RTVSPropertyOp15
 70
     1
102
RTVSPropertyOp16
 70
     1
102
RTVSPropertyOp17
 70
     1
102
RTVSPropertyOp18
 70
     1
102
RTVSPropertyOp19
 70
     1
102
RTVSPropertyOp20
 70
     1
102
RTVSPropertyOp21
 70
     1
102
RTVSPropertyOp22
 70
     1
102
RTVSPropertyOp23
 70
     1
102
RTVSPropertyOp24
 70
     1
102
RTVSPropertyOp25
 70
     1
102
RTVSPropertyOp26
 70
     1
102
RTVSPropertyOp27
 70
     1
102
RTVSPropertyOp28
 70
     1
102
RTVSPropertyOp29
 70
     1
102
RTVSPropertyOp30
 70
     1
102
RTVSPropertyOp31
 70
     1
102
RTVSPropertyOp32
 70
     1
102
RTVSPropertyOp33
 70
     1
102
RTVSPropertyOp34
 70
     1
102
RTVSPropertyOp35
 70
     1
102
RTVSPropertyOp36
 70
     1
102
RTVSPropertyOp37
 70
     1
102
RTVSPropertyOp38
 70
     1
102
RTVSPropertyOp39
 70
     1
102
RTVSPropertyOp40
 70
     1
102
RTVSPropertyOp41
 70
     1
102
RTVSPropertyOp42
 70
     1
102
RTVSPropertyOp43
 70
     1
102
RTVSPropertyOp44
 70
     1
102
RTVSPropertyOp45
 70
     1
102
RTVSPropertyOp46
 70
     1
102
RTVSPropertyOp47
 70
     1
102
RTVSPropertyOp48
 70
     1
102
RTVSPropertyOp49
 70
     1
102
RTVSPropertyOp50
 70
     1
102
RTVSPropertyOp51
 70
     0
102
RTVSPropertyOp52
 70
     0
102
RTVSPropertyOp53
 70
     1
102
RTVSPropertyOp54
 70
     1
102
RTVSPropertyOp55
 70
     1
102
RTVSPropertyOp56
 70
     1
102
RTVSPropertyOp57
 70
     1
102
RTVSPropertyOp58
 70
     1
102
RTVSPropertyOp59
 70
     1
102
RTVSPropertyOp60
 70
     1
102
RTVSPropertyOp61
 70
     1
102
RTVSPropertyOp62
 70
     1
  0
XRECORD
  5
C3DB
102
{ACAD_REACTORS
330
C3DA
102
}
330
C3DA
100
AcDbXrecord
280
     1
102
RTVSPost2010Prop28
280
     0
102
RTVSPost2010PropOp28
 70
     1
102
RTVSPost2010Prop29
280
     1
102
RTVSPost2010PropOp29
 70
     1
102
RTVSPost2010Prop30
280
     1
102
RTVSPost2010PropOp30
 70
     1
102
RTVSPost2010Prop31
280
     0
102
RTVSPost2010PropOp31
 70
     1
102
RTVSPost2010Prop32
280
     0
102
RTVSPost2010PropOp32
 70
     1
102
RTVSPost2010Prop33
280
     0
102
RTVSPost2010PropOp33
 70
     1
102
RTVSPost2010Prop34
280
     0
102
RTVSPost2010PropOp34
 70
     1
102
RTVSPost2010Prop35
280
     0
102
RTVSPost2010PropOp35
 70
     1
102
RTVSPost2010Prop36
280
     0
102
RTVSPost2010PropOp36
 70
     1
102
RTVSPost2010Prop37
 90
       50
102
RTVSPost2010PropOp37
 70
     1
102
RTVSPost2010Prop38
140
0.0
102
RTVSPost2010PropOp38
 70
     1
102
RTVSPost2010Prop39
140
1.0
102
RTVSPost2010PropOp39
 70
     1
102
RTVSPost2010Prop40
 90
        0
102
RTVSPost2010PropOp40
 70
     1
102
RTVSPost2010Prop41ColorIndex
 90
       18
102
RTVSPost2010Prop41ColorRGB
 90
        0
102
RTVSPost2010PropOp41
 70
     1
102
RTVSPost2010Prop42
 90
       50
102
RTVSPost2010PropOp42
 70
     1
102
RTVSPost2010Prop43
 90
        3
102
RTVSPost2010PropOp43
 70
     1
102
RTVSPost2010Prop44ColorIndex
 90
        5
102
RTVSPost2010Prop44ColorRGB
 90
      255
102
RTVSPost2010PropOp44
 70
     1
102
RTVSPost2010Prop45
280
     0
102
RTVSPost2010PropOp45
 70
     1
102
RTVSPost2010Prop46
 90
       50
102
RTVSPost2010PropOp46
 70
     1
102
RTVSPost2010Prop47
 90
       50
102
RTVSPost2010PropOp47
 70
     1
102
RTVSPost2010Prop48
 90
       50
102
RTVSPost2010PropOp48
 70
     1
102
RTVSPost2010Prop49
280
     0
102
RTVSPost2010PropOp49
 70
     1
102
RTVSPost2010Prop50
 90
       50
102
RTVSPost2010PropOp50
 70
     1
102
RTVSPost2010Prop51ColorIndex
 90
      256
102
RTVSPost2010Prop51ColorRGB
 90
-16777216
102
RTVSPost2010PropOp51
 70
     0
102
RTVSPost2010Prop52
140
1.0
102
RTVSPost2010PropOp52
 70
     0
102
RTVSPost2010Prop53
 90
        2
102
RTVSPost2010PropOp53
 70
     1
102
RTVSPost2010Prop54
  1
strokes_ogs.tif
102
RTVSPost2010PropOp54
 70
     1
102
RTVSPost2010Prop55
280
     0
102
RTVSPost2010PropOp55
 70
     1
102
RTVSPost2010Prop56
140
1.0
102
RTVSPost2010PropOp56
 70
     1
102
RTVSPost2010Prop57
140
1.0
102
RTVSPost2010PropOp57
 70
     1
102
RTVSPropertyOp0
 70
     1
102
RTVSPropertyOp1
 70
     1
102
RTVSPropertyOp2
 70
     1
102
RTVSPropertyOp3
 70
     1
102
RTVSPropertyOp4
 70
     1
102
RTVSPropertyOp5
 70
     1
102
RTVSPropertyOp6
 70
     1
102
RTVSPropertyOp7
 70
     1
102
RTVSPropertyOp8
 70
     1
102
RTVSPropertyOp9
 70
     1
102
RTVSPropertyOp10
 70
     1
102
RTVSPropertyOp11
 70
     1
102
RTVSPropertyOp12
 70
     1
102
RTVSPropertyOp13
 70
     1
102
RTVSPropertyOp14
 70
     1
102
RTVSPropertyOp15
 70
     1
102
RTVSPropertyOp16
 70
     1
102
RTVSPropertyOp17
 70
     1
102
RTVSPropertyOp18
 70
     1
102
RTVSPropertyOp19
 70
     1
102
RTVSPropertyOp20
 70
     1
102
RTVSPropertyOp21
 70
     1
102
RTVSPropertyOp22
 70
     1
102
RTVSPropertyOp23
 70
     1
102
RTVSPropertyOp24
 70
     1
102
RTVSPropertyOp25
 70
     1
102
RTVSPropertyOp26
 70
     1
102
RTVSPropertyOp27
 70
     1
102
RTVSPropertyOp28
 70
     1
102
RTVSPropertyOp29
 70
     1
102
RTVSPropertyOp30
 70
     1
102
RTVSPropertyOp31
 70
     1
102
RTVSPropertyOp32
 70
     1
102
RTVSPropertyOp33
 70
     1
102
RTVSPropertyOp34
 70
     1
102
RTVSPropertyOp35
 70
     1
102
RTVSPropertyOp36
 70
     1
102
RTVSPropertyOp37
 70
     1
102
RTVSPropertyOp38
 70
     1
102
RTVSPropertyOp39
 70
     1
102
RTVSPropertyOp40
 70
     1
102
RTVSPropertyOp41
 70
     1
102
RTVSPropertyOp42
 70
     1
102
RTVSPropertyOp43
 70
     1
102
RTVSPropertyOp44
 70
     1
102
RTVSPropertyOp45
 70
     1
102
RTVSPropertyOp46
 70
     1
102
RTVSPropertyOp47
 70
     1
102
RTVSPropertyOp48
 70
     1
102
RTVSPropertyOp49
 70
     1
102
RTVSPropertyOp50
 70
     1
102
RTVSPropertyOp51
 70
     0
102
RTVSPropertyOp52
 70
     0
102
RTVSPropertyOp53
 70
     1
102
RTVSPropertyOp54
 70
     1
102
RTVSPropertyOp55
 70
     1
102
RTVSPropertyOp56
 70
     1
102
RTVSPropertyOp57
 70
     1
102
RTVSPropertyOp58
 70
     1
102
RTVSPropertyOp59
 70
     1
102
RTVSPropertyOp60
 70
     1
102
RTVSPropertyOp61
 70
     1
102
RTVSPropertyOp62
 70
     1
  0
XRECORD
  5
C3DD
102
{ACAD_REACTORS
330
C3DC
102
}
330
C3DC
100
AcDbXrecord
280
     1
102
RTVSPost2010Prop28
280
     0
102
RTVSPost2010PropOp28
 70
     1
102
RTVSPost2010Prop29
280
     1
102
RTVSPost2010PropOp29
 70
     1
102
RTVSPost2010Prop30
280
     1
102
RTVSPost2010PropOp30
 70
     1
102
RTVSPost2010Prop31
280
     0
102
RTVSPost2010PropOp31
 70
     1
102
RTVSPost2010Prop32
280
     0
102
RTVSPost2010PropOp32
 70
     1
102
RTVSPost2010Prop33
280
     0
102
RTVSPost2010PropOp33
 70
     1
102
RTVSPost2010Prop34
280
     0
102
RTVSPost2010PropOp34
 70
     1
102
RTVSPost2010Prop35
280
     0
102
RTVSPost2010PropOp35
 70
     1
102
RTVSPost2010Prop36
280
     0
102
RTVSPost2010PropOp36
 70
     1
102
RTVSPost2010Prop37
 90
       50
102
RTVSPost2010PropOp37
 70
     1
102
RTVSPost2010Prop38
140
0.0
102
RTVSPost2010PropOp38
 70
     1
102
RTVSPost2010Prop39
140
1.0
102
RTVSPost2010PropOp39
 70
     1
102
RTVSPost2010Prop40
 90
        0
102
RTVSPost2010PropOp40
 70
     1
102
RTVSPost2010Prop41ColorIndex
 90
       18
102
RTVSPost2010Prop41ColorRGB
 90
        0
102
RTVSPost2010PropOp41
 70
     1
102
RTVSPost2010Prop42
 90
       50
102
RTVSPost2010PropOp42
 70
     1
102
RTVSPost2010Prop43
 90
        3
102
RTVSPost2010PropOp43
 70
     1
102
RTVSPost2010Prop44ColorIndex
 90
        5
102
RTVSPost2010Prop44ColorRGB
 90
      255
102
RTVSPost2010PropOp44
 70
     1
102
RTVSPost2010Prop45
280
     0
102
RTVSPost2010PropOp45
 70
     1
102
RTVSPost2010Prop46
 90
       50
102
RTVSPost2010PropOp46
 70
     1
102
RTVSPost2010Prop47
 90
       50
102
RTVSPost2010PropOp47
 70
     1
102
RTVSPost2010Prop48
 90
       50
102
RTVSPost2010PropOp48
 70
     1
102
RTVSPost2010Prop49
280
     0
102
RTVSPost2010PropOp49
 70
     1
102
RTVSPost2010Prop50
 90
       50
102
RTVSPost2010PropOp50
 70
     1
102
RTVSPost2010Prop51ColorIndex
 90
      256
102
RTVSPost2010Prop51ColorRGB
 90
-16777216
102
RTVSPost2010PropOp51
 70
     0
102
RTVSPost2010Prop52
140
1.0
102
RTVSPost2010PropOp52
 70
     0
102
RTVSPost2010Prop53
 90
        2
102
RTVSPost2010PropOp53
 70
     1
102
RTVSPost2010Prop54
  1
strokes_ogs.tif
102
RTVSPost2010PropOp54
 70
     1
102
RTVSPost2010Prop55
280
     0
102
RTVSPost2010PropOp55
 70
     1
102
RTVSPost2010Prop56
140
1.0
102
RTVSPost2010PropOp56
 70
     1
102
RTVSPost2010Prop57
140
1.0
102
RTVSPost2010PropOp57
 70
     1
102
RTVSPropertyOp0
 70
     1
102
RTVSPropertyOp1
 70
     1
102
RTVSPropertyOp2
 70
     1
102
RTVSPropertyOp3
 70
     1
102
RTVSPropertyOp4
 70
     1
102
RTVSPropertyOp5
 70
     1
102
RTVSPropertyOp6
 70
     1
102
RTVSPropertyOp7
 70
     1
102
RTVSPropertyOp8
 70
     1
102
RTVSPropertyOp9
 70
     1
102
RTVSPropertyOp10
 70
     1
102
RTVSPropertyOp11
 70
     1
102
RTVSPropertyOp12
 70
     1
102
RTVSPropertyOp13
 70
     1
102
RTVSPropertyOp14
 70
     1
102
RTVSPropertyOp15
 70
     1
102
RTVSPropertyOp16
 70
     1
102
RTVSPropertyOp17
 70
     1
102
RTVSPropertyOp18
 70
     1
102
RTVSPropertyOp19
 70
     1
102
RTVSPropertyOp20
 70
     1
102
RTVSPropertyOp21
 70
     1
102
RTVSPropertyOp22
 70
     1
102
RTVSPropertyOp23
 70
     1
102
RTVSPropertyOp24
 70
     1
102
RTVSPropertyOp25
 70
     1
102
RTVSPropertyOp26
 70
     1
102
RTVSPropertyOp27
 70
     1
102
RTVSPropertyOp28
 70
     1
102
RTVSPropertyOp29
 70
     1
102
RTVSPropertyOp30
 70
     1
102
RTVSPropertyOp31
 70
     1
102
RTVSPropertyOp32
 70
     1
102
RTVSPropertyOp33
 70
     1
102
RTVSPropertyOp34
 70
     1
102
RTVSPropertyOp35
 70
     1
102
RTVSPropertyOp36
 70
     1
102
RTVSPropertyOp37
 70
     1
102
RTVSPropertyOp38
 70
     1
102
RTVSPropertyOp39
 70
     1
102
RTVSPropertyOp40
 70
     1
102
RTVSPropertyOp41
 70
     1
102
RTVSPropertyOp42
 70
     1
102
RTVSPropertyOp43
 70
     1
102
RTVSPropertyOp44
 70
     1
102
RTVSPropertyOp45
 70
     1
102
RTVSPropertyOp46
 70
     1
102
RTVSPropertyOp47
 70
     1
102
RTVSPropertyOp48
 70
     1
102
RTVSPropertyOp49
 70
     1
102
RTVSPropertyOp50
 70
     1
102
RTVSPropertyOp51
 70
     0
102
RTVSPropertyOp52
 70
     0
102
RTVSPropertyOp53
 70
     1
102
RTVSPropertyOp54
 70
     1
102
RTVSPropertyOp55
 70
     1
102
RTVSPropertyOp56
 70
     1
102
RTVSPropertyOp57
 70
     1
102
RTVSPropertyOp58
 70
     1
102
RTVSPropertyOp59
 70
     1
102
RTVSPropertyOp60
 70
     1
102
RTVSPropertyOp61
 70
     1
102
RTVSPropertyOp62
 70
     1
  0
XRECORD
  5
C3DF
102
{ACAD_REACTORS
330
C3DE
102
}
330
C3DE
100
AcDbXrecord
280
     1
102
RTVSPost2010Prop28
280
     0
102
RTVSPost2010PropOp28
 70
     1
102
RTVSPost2010Prop29
280
     1
102
RTVSPost2010PropOp29
 70
     1
102
RTVSPost2010Prop30
280
     1
102
RTVSPost2010PropOp30
 70
     1
102
RTVSPost2010Prop31
280
     0
102
RTVSPost2010PropOp31
 70
     1
102
RTVSPost2010Prop32
280
     0
102
RTVSPost2010PropOp32
 70
     1
102
RTVSPost2010Prop33
280
     0
102
RTVSPost2010PropOp33
 70
     1
102
RTVSPost2010Prop34
280
     0
102
RTVSPost2010PropOp34
 70
     1
102
RTVSPost2010Prop35
280
     0
102
RTVSPost2010PropOp35
 70
     1
102
RTVSPost2010Prop36
280
     0
102
RTVSPost2010PropOp36
 70
     1
102
RTVSPost2010Prop37
 90
       50
102
RTVSPost2010PropOp37
 70
     1
102
RTVSPost2010Prop38
140
0.0
102
RTVSPost2010PropOp38
 70
     1
102
RTVSPost2010Prop39
140
1.0
102
RTVSPost2010PropOp39
 70
     1
102
RTVSPost2010Prop40
 90
        0
102
RTVSPost2010PropOp40
 70
     1
102
RTVSPost2010Prop41ColorIndex
 90
       18
102
RTVSPost2010Prop41ColorRGB
 90
        0
102
RTVSPost2010PropOp41
 70
     1
102
RTVSPost2010Prop42
 90
       50
102
RTVSPost2010PropOp42
 70
     1
102
RTVSPost2010Prop43
 90
        3
102
RTVSPost2010PropOp43
 70
     1
102
RTVSPost2010Prop44ColorIndex
 90
        5
102
RTVSPost2010Prop44ColorRGB
 90
      255
102
RTVSPost2010PropOp44
 70
     1
102
RTVSPost2010Prop45
280
     0
102
RTVSPost2010PropOp45
 70
     1
102
RTVSPost2010Prop46
 90
       50
102
RTVSPost2010PropOp46
 70
     1
102
RTVSPost2010Prop47
 90
       50
102
RTVSPost2010PropOp47
 70
     1
102
RTVSPost2010Prop48
 90
       50
102
RTVSPost2010PropOp48
 70
     1
102
RTVSPost2010Prop49
280
     0
102
RTVSPost2010PropOp49
 70
     1
102
RTVSPost2010Prop50
 90
       50
102
RTVSPost2010PropOp50
 70
     1
102
RTVSPost2010Prop51ColorIndex
 90
      256
102
RTVSPost2010Prop51ColorRGB
 90
-16777216
102
RTVSPost2010PropOp51
 70
     0
102
RTVSPost2010Prop52
140
1.0
102
RTVSPost2010PropOp52
 70
     0
102
RTVSPost2010Prop53
 90
        2
102
RTVSPost2010PropOp53
 70
     1
102
RTVSPost2010Prop54
  1
strokes_ogs.tif
102
RTVSPost2010PropOp54
 70
     1
102
RTVSPost2010Prop55
280
     0
102
RTVSPost2010PropOp55
 70
     1
102
RTVSPost2010Prop56
140
1.0
102
RTVSPost2010PropOp56
 70
     1
102
RTVSPost2010Prop57
140
1.0
102
RTVSPost2010PropOp57
 70
     1
102
RTVSPropertyOp0
 70
     1
102
RTVSPropertyOp1
 70
     1
102
RTVSPropertyOp2
 70
     1
102
RTVSPropertyOp3
 70
     1
102
RTVSPropertyOp4
 70
     1
102
RTVSPropertyOp5
 70
     1
102
RTVSPropertyOp6
 70
     1
102
RTVSPropertyOp7
 70
     1
102
RTVSPropertyOp8
 70
     1
102
RTVSPropertyOp9
 70
     1
102
RTVSPropertyOp10
 70
     1
102
RTVSPropertyOp11
 70
     1
102
RTVSPropertyOp12
 70
     1
102
RTVSPropertyOp13
 70
     1
102
RTVSPropertyOp14
 70
     1
102
RTVSPropertyOp15
 70
     1
102
RTVSPropertyOp16
 70
     1
102
RTVSPropertyOp17
 70
     1
102
RTVSPropertyOp18
 70
     1
102
RTVSPropertyOp19
 70
     1
102
RTVSPropertyOp20
 70
     1
102
RTVSPropertyOp21
 70
     1
102
RTVSPropertyOp22
 70
     1
102
RTVSPropertyOp23
 70
     1
102
RTVSPropertyOp24
 70
     1
102
RTVSPropertyOp25
 70
     1
102
RTVSPropertyOp26
 70
     1
102
RTVSPropertyOp27
 70
     1
102
RTVSPropertyOp28
 70
     1
102
RTVSPropertyOp29
 70
     1
102
RTVSPropertyOp30
 70
     1
102
RTVSPropertyOp31
 70
     1
102
RTVSPropertyOp32
 70
     1
102
RTVSPropertyOp33
 70
     1
102
RTVSPropertyOp34
 70
     1
102
RTVSPropertyOp35
 70
     1
102
RTVSPropertyOp36
 70
     1
102
RTVSPropertyOp37
 70
     1
102
RTVSPropertyOp38
 70
     1
102
RTVSPropertyOp39
 70
     1
102
RTVSPropertyOp40
 70
     1
102
RTVSPropertyOp41
 70
     1
102
RTVSPropertyOp42
 70
     1
102
RTVSPropertyOp43
 70
     1
102
RTVSPropertyOp44
 70
     1
102
RTVSPropertyOp45
 70
     1
102
RTVSPropertyOp46
 70
     1
102
RTVSPropertyOp47
 70
     1
102
RTVSPropertyOp48
 70
     1
102
RTVSPropertyOp49
 70
     1
102
RTVSPropertyOp50
 70
     1
102
RTVSPropertyOp51
 70
     0
102
RTVSPropertyOp52
 70
     0
102
RTVSPropertyOp53
 70
     1
102
RTVSPropertyOp54
 70
     1
102
RTVSPropertyOp55
 70
     1
102
RTVSPropertyOp56
 70
     1
102
RTVSPropertyOp57
 70
     1
102
RTVSPropertyOp58
 70
     1
102
RTVSPropertyOp59
 70
     1
102
RTVSPropertyOp60
 70
     1
102
RTVSPropertyOp61
 70
     1
102
RTVSPropertyOp62
 70
     1
  0
XRECORD
  5
C3E7
102
{ACAD_REACTORS
330
C3E6
102
}
330
C3E6
100
AcDbXrecord
280
     1
102
RTVSPost2010Prop28
280
     0
102
RTVSPost2010PropOp28
 70
     1
102
RTVSPost2010Prop29
280
     1
102
RTVSPost2010PropOp29
 70
     1
102
RTVSPost2010Prop30
280
     1
102
RTVSPost2010PropOp30
 70
     1
102
RTVSPost2010Prop31
280
     0
102
RTVSPost2010PropOp31
 70
     1
102
RTVSPost2010Prop32
280
     0
102
RTVSPost2010PropOp32
 70
     1
102
RTVSPost2010Prop33
280
     0
102
RTVSPost2010PropOp33
 70
     1
102
RTVSPost2010Prop34
280
     0
102
RTVSPost2010PropOp34
 70
     1
102
RTVSPost2010Prop35
280
     0
102
RTVSPost2010PropOp35
 70
     1
102
RTVSPost2010Prop36
280
     0
102
RTVSPost2010PropOp36
 70
     1
102
RTVSPost2010Prop37
 90
       50
102
RTVSPost2010PropOp37
 70
     1
102
RTVSPost2010Prop38
140
0.0
102
RTVSPost2010PropOp38
 70
     1
102
RTVSPost2010Prop39
140
1.0
102
RTVSPost2010PropOp39
 70
     1
102
RTVSPost2010Prop40
 90
        0
102
RTVSPost2010PropOp40
 70
     1
102
RTVSPost2010Prop41ColorIndex
 90
       18
102
RTVSPost2010Prop41ColorRGB
 90
        0
102
RTVSPost2010PropOp41
 70
     1
102
RTVSPost2010Prop42
 90
       50
102
RTVSPost2010PropOp42
 70
     1
102
RTVSPost2010Prop43
 90
        3
102
RTVSPost2010PropOp43
 70
     1
102
RTVSPost2010Prop44ColorIndex
 90
        5
102
RTVSPost2010Prop44ColorRGB
 90
      255
102
RTVSPost2010PropOp44
 70
     1
102
RTVSPost2010Prop45
280
     0
102
RTVSPost2010PropOp45
 70
     1
102
RTVSPost2010Prop46
 90
       50
102
RTVSPost2010PropOp46
 70
     1
102
RTVSPost2010Prop47
 90
       50
102
RTVSPost2010PropOp47
 70
     1
102
RTVSPost2010Prop48
 90
       50
102
RTVSPost2010PropOp48
 70
     1
102
RTVSPost2010Prop49
280
     0
102
RTVSPost2010PropOp49
 70
     1
102
RTVSPost2010Prop50
 90
       50
102
RTVSPost2010PropOp50
 70
     1
102
RTVSPost2010Prop51ColorIndex
 90
      256
102
RTVSPost2010Prop51ColorRGB
 90
-16777216
102
RTVSPost2010PropOp51
 70
     0
102
RTVSPost2010Prop52
140
1.0
102
RTVSPost2010PropOp52
 70
     0
102
RTVSPost2010Prop53
 90
        2
102
RTVSPost2010PropOp53
 70
     1
102
RTVSPost2010Prop54
  1
strokes_ogs.tif
102
RTVSPost2010PropOp54
 70
     1
102
RTVSPost2010Prop55
280
     0
102
RTVSPost2010PropOp55
 70
     1
102
RTVSPost2010Prop56
140
1.0
102
RTVSPost2010PropOp56
 70
     1
102
RTVSPost2010Prop57
140
1.0
102
RTVSPost2010PropOp57
 70
     1
102
RTVSPropertyOp0
 70
     1
102
RTVSPropertyOp1
 70
     1
102
RTVSPropertyOp2
 70
     1
102
RTVSPropertyOp3
 70
     1
102
RTVSPropertyOp4
 70
     1
102
RTVSPropertyOp5
 70
     1
102
RTVSPropertyOp6
 70
     1
102
RTVSPropertyOp7
 70
     1
102
RTVSPropertyOp8
 70
     1
102
RTVSPropertyOp9
 70
     1
102
RTVSPropertyOp10
 70
     1
102
RTVSPropertyOp11
 70
     1
102
RTVSPropertyOp12
 70
     1
102
RTVSPropertyOp13
 70
     1
102
RTVSPropertyOp14
 70
     1
102
RTVSPropertyOp15
 70
     1
102
RTVSPropertyOp16
 70
     1
102
RTVSPropertyOp17
 70
     1
102
RTVSPropertyOp18
 70
     1
102
RTVSPropertyOp19
 70
     1
102
RTVSPropertyOp20
 70
     1
102
RTVSPropertyOp21
 70
     1
102
RTVSPropertyOp22
 70
     1
102
RTVSPropertyOp23
 70
     1
102
RTVSPropertyOp24
 70
     1
102
RTVSPropertyOp25
 70
     1
102
RTVSPropertyOp26
 70
     1
102
RTVSPropertyOp27
 70
     1
102
RTVSPropertyOp28
 70
     1
102
RTVSPropertyOp29
 70
     1
102
RTVSPropertyOp30
 70
     1
102
RTVSPropertyOp31
 70
     1
102
RTVSPropertyOp32
 70
     1
102
RTVSPropertyOp33
 70
     1
102
RTVSPropertyOp34
 70
     1
102
RTVSPropertyOp35
 70
     1
102
RTVSPropertyOp36
 70
     1
102
RTVSPropertyOp37
 70
     1
102
RTVSPropertyOp38
 70
     1
102
RTVSPropertyOp39
 70
     1
102
RTVSPropertyOp40
 70
     1
102
RTVSPropertyOp41
 70
     1
102
RTVSPropertyOp42
 70
     1
102
RTVSPropertyOp43
 70
     1
102
RTVSPropertyOp44
 70
     1
102
RTVSPropertyOp45
 70
     1
102
RTVSPropertyOp46
 70
     1
102
RTVSPropertyOp47
 70
     1
102
RTVSPropertyOp48
 70
     1
102
RTVSPropertyOp49
 70
     1
102
RTVSPropertyOp50
 70
     1
102
RTVSPropertyOp51
 70
     0
102
RTVSPropertyOp52
 70
     0
102
RTVSPropertyOp53
 70
     1
102
RTVSPropertyOp54
 70
     1
102
RTVSPropertyOp55
 70
     1
102
RTVSPropertyOp56
 70
     1
102
RTVSPropertyOp57
 70
     1
102
RTVSPropertyOp58
 70
     1
102
RTVSPropertyOp59
 70
     1
102
RTVSPropertyOp60
 70
     1
102
RTVSPropertyOp61
 70
     1
102
RTVSPropertyOp62
 70
     1
  0
XRECORD
  5
C403
102
{ACAD_REACTORS
330
C402
102
}
330
C402
100
AcDbXrecord
280
     1
102
RTVSPost2010Prop28
280
     0
102
RTVSPost2010PropOp28
 70
     1
102
RTVSPost2010Prop29
280
     1
102
RTVSPost2010PropOp29
 70
     1
102
RTVSPost2010Prop30
280
     1
102
RTVSPost2010PropOp30
 70
     1
102
RTVSPost2010Prop31
280
     0
102
RTVSPost2010PropOp31
 70
     1
102
RTVSPost2010Prop32
280
     0
102
RTVSPost2010PropOp32
 70
     1
102
RTVSPost2010Prop33
280
     0
102
RTVSPost2010PropOp33
 70
     1
102
RTVSPost2010Prop34
280
     0
102
RTVSPost2010PropOp34
 70
     1
102
RTVSPost2010Prop35
280
     0
102
RTVSPost2010PropOp35
 70
     1
102
RTVSPost2010Prop36
280
     0
102
RTVSPost2010PropOp36
 70
     1
102
RTVSPost2010Prop37
 90
       50
102
RTVSPost2010PropOp37
 70
     0
102
RTVSPost2010Prop38
140
0.0
102
RTVSPost2010PropOp38
 70
     0
102
RTVSPost2010Prop39
140
1.0
102
RTVSPost2010PropOp39
 70
     0
102
RTVSPost2010Prop40
 90
        0
102
RTVSPost2010PropOp40
 70
     0
102
RTVSPost2010Prop41ColorIndex
 90
       18
102
RTVSPost2010Prop41ColorRGB
 90
        0
102
RTVSPost2010PropOp41
 70
     0
102
RTVSPost2010Prop42
 90
       50
102
RTVSPost2010PropOp42
 70
     0
102
RTVSPost2010Prop43
 90
        3
102
RTVSPost2010PropOp43
 70
     0
102
RTVSPost2010Prop44ColorIndex
 90
        5
102
RTVSPost2010Prop44ColorRGB
 90
      255
102
RTVSPost2010PropOp44
 70
     0
102
RTVSPost2010Prop45
280
     0
102
RTVSPost2010PropOp45
 70
     1
102
RTVSPost2010Prop46
 90
       50
102
RTVSPost2010PropOp46
 70
     0
102
RTVSPost2010Prop47
 90
       50
102
RTVSPost2010PropOp47
 70
     0
102
RTVSPost2010Prop48
 90
       50
102
RTVSPost2010PropOp48
 70
     0
102
RTVSPost2010Prop49
280
     0
102
RTVSPost2010PropOp49
 70
     1
102
RTVSPost2010Prop50
 90
       50
102
RTVSPost2010PropOp50
 70
     0
102
RTVSPost2010Prop51ColorIndex
 90
      256
102
RTVSPost2010Prop51ColorRGB
 90
-16777216
102
RTVSPost2010PropOp51
 70
     0
102
RTVSPost2010Prop52
140
1.0
102
RTVSPost2010PropOp52
 70
     0
102
RTVSPost2010Prop53
 90
        2
102
RTVSPost2010PropOp53
 70
     0
102
RTVSPost2010Prop54
  1
strokes_ogs.tif
102
RTVSPost2010PropOp54
 70
     0
102
RTVSPost2010Prop55
280
     0
102
RTVSPost2010PropOp55
 70
     1
102
RTVSPost2010Prop56
140
1.0
102
RTVSPost2010PropOp56
 70
     0
102
RTVSPost2010Prop57
140
1.0
102
RTVSPost2010PropOp57
 70
     0
102
RTVSPropertyOp0
 70
     0
102
RTVSPropertyOp1
 70
     0
102
RTVSPropertyOp2
 70
     0
102
RTVSPropertyOp3
 70
     0
102
RTVSPropertyOp4
 70
     0
102
RTVSPropertyOp5
 70
     0
102
RTVSPropertyOp6
 70
     0
102
RTVSPropertyOp7
 70
     0
102
RTVSPropertyOp8
 70
     0
102
RTVSPropertyOp9
 70
     0
102
RTVSPropertyOp10
 70
     0
102
RTVSPropertyOp11
 70
     0
102
RTVSPropertyOp12
 70
     0
102
RTVSPropertyOp13
 70
     0
102
RTVSPropertyOp14
 70
     2
102
RTVSPropertyOp15
 70
     0
102
RTVSPropertyOp16
 70
     0
102
RTVSPropertyOp17
 70
     0
102
RTVSPropertyOp18
 70
     0
102
RTVSPropertyOp19
 70
     0
102
RTVSPropertyOp20
 70
     0
102
RTVSPropertyOp21
 70
     0
102
RTVSPropertyOp22
 70
     0
102
RTVSPropertyOp23
 70
     0
102
RTVSPropertyOp24
 70
     0
102
RTVSPropertyOp25
 70
     0
102
RTVSPropertyOp26
 70
     0
102
RTVSPropertyOp27
 70
     0
102
RTVSPropertyOp28
 70
     1
102
RTVSPropertyOp29
 70
     1
102
RTVSPropertyOp30
 70
     1
102
RTVSPropertyOp31
 70
     1
102
RTVSPropertyOp32
 70
     1
102
RTVSPropertyOp33
 70
     1
102
RTVSPropertyOp34
 70
     1
102
RTVSPropertyOp35
 70
     1
102
RTVSPropertyOp36
 70
     1
102
RTVSPropertyOp37
 70
     0
102
RTVSPropertyOp38
 70
     0
102
RTVSPropertyOp39
 70
     0
102
RTVSPropertyOp40
 70
     0
102
RTVSPropertyOp41
 70
     0
102
RTVSPropertyOp42
 70
     0
102
RTVSPropertyOp43
 70
     0
102
RTVSPropertyOp44
 70
     0
102
RTVSPropertyOp45
 70
     1
102
RTVSPropertyOp46
 70
     0
102
RTVSPropertyOp47
 70
     0
102
RTVSPropertyOp48
 70
     0
102
RTVSPropertyOp49
 70
     1
102
RTVSPropertyOp50
 70
     0
102
RTVSPropertyOp51
 70
     0
102
RTVSPropertyOp52
 70
     0
102
RTVSPropertyOp53
 70
     0
102
RTVSPropertyOp54
 70
     0
102
RTVSPropertyOp55
 70
     1
102
RTVSPropertyOp56
 70
     0
102
RTVSPropertyOp57
 70
     0
102
RTVSPropertyOp58
 70
     0
102
RTVSPropertyOp59
 70
     0
102
RTVSPropertyOp60
 70
     0
102
RTVSPropertyOp61
 70
     0
102
RTVSPropertyOp62
 70
     0
  0
XRECORD
  5
C3F3
102
{ACAD_REACTORS
330
C3F2
102
}
330
C3F2
100
AcDbXrecord
280
     1
102
RTVSPost2010Prop28
280
     0
102
RTVSPost2010PropOp28
 70
     1
102
RTVSPost2010Prop29
280
     1
102
RTVSPost2010PropOp29
 70
     1
102
RTVSPost2010Prop30
280
     1
102
RTVSPost2010PropOp30
 70
     1
102
RTVSPost2010Prop31
280
     0
102
RTVSPost2010PropOp31
 70
     1
102
RTVSPost2010Prop32
280
     0
102
RTVSPost2010PropOp32
 70
     1
102
RTVSPost2010Prop33
280
     0
102
RTVSPost2010PropOp33
 70
     1
102
RTVSPost2010Prop34
280
     0
102
RTVSPost2010PropOp34
 70
     1
102
RTVSPost2010Prop35
280
     0
102
RTVSPost2010PropOp35
 70
     1
102
RTVSPost2010Prop36
280
     0
102
RTVSPost2010PropOp36
 70
     1
102
RTVSPost2010Prop37
 90
       50
102
RTVSPost2010PropOp37
 70
     1
102
RTVSPost2010Prop38
140
0.0
102
RTVSPost2010PropOp38
 70
     1
102
RTVSPost2010Prop39
140
1.0
102
RTVSPost2010PropOp39
 70
     1
102
RTVSPost2010Prop40
 90
        0
102
RTVSPost2010PropOp40
 70
     1
102
RTVSPost2010Prop41ColorIndex
 90
       18
102
RTVSPost2010Prop41ColorRGB
 90
        0
102
RTVSPost2010PropOp41
 70
     1
102
RTVSPost2010Prop42
 90
       50
102
RTVSPost2010PropOp42
 70
     1
102
RTVSPost2010Prop43
 90
        3
102
RTVSPost2010PropOp43
 70
     1
102
RTVSPost2010Prop44ColorIndex
 90
        5
102
RTVSPost2010Prop44ColorRGB
 90
      255
102
RTVSPost2010PropOp44
 70
     1
102
RTVSPost2010Prop45
280
     0
102
RTVSPost2010PropOp45
 70
     1
102
RTVSPost2010Prop46
 90
       50
102
RTVSPost2010PropOp46
 70
     1
102
RTVSPost2010Prop47
 90
       50
102
RTVSPost2010PropOp47
 70
     1
102
RTVSPost2010Prop48
 90
       50
102
RTVSPost2010PropOp48
 70
     1
102
RTVSPost2010Prop49
280
     0
102
RTVSPost2010PropOp49
 70
     1
102
RTVSPost2010Prop50
 90
       50
102
RTVSPost2010PropOp50
 70
     1
102
RTVSPost2010Prop51ColorIndex
 90
      256
102
RTVSPost2010Prop51ColorRGB
 90
-16777216
102
RTVSPost2010PropOp51
 70
     0
102
RTVSPost2010Prop52
140
1.0
102
RTVSPost2010PropOp52
 70
     0
102
RTVSPost2010Prop53
 90
        2
102
RTVSPost2010PropOp53
 70
     1
102
RTVSPost2010Prop54
  1
strokes_ogs.tif
102
RTVSPost2010PropOp54
 70
     1
102
RTVSPost2010Prop55
280
     0
102
RTVSPost2010PropOp55
 70
     1
102
RTVSPost2010Prop56
140
1.0
102
RTVSPost2010PropOp56
 70
     1
102
RTVSPost2010Prop57
140
1.0
102
RTVSPost2010PropOp57
 70
     1
102
RTVSPropertyOp0
 70
     1
102
RTVSPropertyOp1
 70
     1
102
RTVSPropertyOp2
 70
     1
102
RTVSPropertyOp3
 70
     1
102
RTVSPropertyOp4
 70
     1
102
RTVSPropertyOp5
 70
     1
102
RTVSPropertyOp6
 70
     1
102
RTVSPropertyOp7
 70
     1
102
RTVSPropertyOp8
 70
     1
102
RTVSPropertyOp9
 70
     1
102
RTVSPropertyOp10
 70
     1
102
RTVSPropertyOp11
 70
     1
102
RTVSPropertyOp12
 70
     1
102
RTVSPropertyOp13
 70
     1
102
RTVSPropertyOp14
 70
     1
102
RTVSPropertyOp15
 70
     1
102
RTVSPropertyOp16
 70
     1
102
RTVSPropertyOp17
 70
     1
102
RTVSPropertyOp18
 70
     1
102
RTVSPropertyOp19
 70
     1
102
RTVSPropertyOp20
 70
     1
102
RTVSPropertyOp21
 70
     1
102
RTVSPropertyOp22
 70
     1
102
RTVSPropertyOp23
 70
     1
102
RTVSPropertyOp24
 70
     1
102
RTVSPropertyOp25
 70
     1
102
RTVSPropertyOp26
 70
     1
102
RTVSPropertyOp27
 70
     1
102
RTVSPropertyOp28
 70
     1
102
RTVSPropertyOp29
 70
     1
102
RTVSPropertyOp30
 70
     1
102
RTVSPropertyOp31
 70
     1
102
RTVSPropertyOp32
 70
     1
102
RTVSPropertyOp33
 70
     1
102
RTVSPropertyOp34
 70
     1
102
RTVSPropertyOp35
 70
     1
102
RTVSPropertyOp36
 70
     1
102
RTVSPropertyOp37
 70
     1
102
RTVSPropertyOp38
 70
     1
102
RTVSPropertyOp39
 70
     1
102
RTVSPropertyOp40
 70
     1
102
RTVSPropertyOp41
 70
     1
102
RTVSPropertyOp42
 70
     1
102
RTVSPropertyOp43
 70
     1
102
RTVSPropertyOp44
 70
     1
102
RTVSPropertyOp45
 70
     1
102
RTVSPropertyOp46
 70
     1
102
RTVSPropertyOp47
 70
     1
102
RTVSPropertyOp48
 70
     1
102
RTVSPropertyOp49
 70
     1
102
RTVSPropertyOp50
 70
     1
102
RTVSPropertyOp51
 70
     0
102
RTVSPropertyOp52
 70
     0
102
RTVSPropertyOp53
 70
     1
102
RTVSPropertyOp54
 70
     1
102
RTVSPropertyOp55
 70
     1
102
RTVSPropertyOp56
 70
     1
102
RTVSPropertyOp57
 70
     1
102
RTVSPropertyOp58
 70
     1
102
RTVSPropertyOp59
 70
     1
102
RTVSPropertyOp60
 70
     1
102
RTVSPropertyOp61
 70
     1
102
RTVSPropertyOp62
 70
     1
  0
XRECORD
  5
C405
102
{ACAD_REACTORS
330
C404
102
}
330
C404
100
AcDbXrecord
280
     1
102
RTVSPost2010Prop28
280
     0
102
RTVSPost2010PropOp28
 70
     1
102
RTVSPost2010Prop29
280
     1
102
RTVSPost2010PropOp29
 70
     1
102
RTVSPost2010Prop30
280
     1
102
RTVSPost2010PropOp30
 70
     1
102
RTVSPost2010Prop31
280
     0
102
RTVSPost2010PropOp31
 70
     1
102
RTVSPost2010Prop32
280
     0
102
RTVSPost2010PropOp32
 70
     1
102
RTVSPost2010Prop33
280
     0
102
RTVSPost2010PropOp33
 70
     1
102
RTVSPost2010Prop34
280
     0
102
RTVSPost2010PropOp34
 70
     1
102
RTVSPost2010Prop35
280
     0
102
RTVSPost2010PropOp35
 70
     1
102
RTVSPost2010Prop36
280
     0
102
RTVSPost2010PropOp36
 70
     1
102
RTVSPost2010Prop37
 90
       50
102
RTVSPost2010PropOp37
 70
     0
102
RTVSPost2010Prop38
140
0.0
102
RTVSPost2010PropOp38
 70
     0
102
RTVSPost2010Prop39
140
1.0
102
RTVSPost2010PropOp39
 70
     0
102
RTVSPost2010Prop40
 90
        0
102
RTVSPost2010PropOp40
 70
     0
102
RTVSPost2010Prop41ColorIndex
 90
       18
102
RTVSPost2010Prop41ColorRGB
 90
        0
102
RTVSPost2010PropOp41
 70
     0
102
RTVSPost2010Prop42
 90
       50
102
RTVSPost2010PropOp42
 70
     0
102
RTVSPost2010Prop43
 90
        3
102
RTVSPost2010PropOp43
 70
     0
102
RTVSPost2010Prop44ColorIndex
 90
        5
102
RTVSPost2010Prop44ColorRGB
 90
      255
102
RTVSPost2010PropOp44
 70
     0
102
RTVSPost2010Prop45
280
     0
102
RTVSPost2010PropOp45
 70
     1
102
RTVSPost2010Prop46
 90
       50
102
RTVSPost2010PropOp46
 70
     0
102
RTVSPost2010Prop47
 90
       50
102
RTVSPost2010PropOp47
 70
     0
102
RTVSPost2010Prop48
 90
       50
102
RTVSPost2010PropOp48
 70
     0
102
RTVSPost2010Prop49
280
     0
102
RTVSPost2010PropOp49
 70
     1
102
RTVSPost2010Prop50
 90
       50
102
RTVSPost2010PropOp50
 70
     0
102
RTVSPost2010Prop51ColorIndex
 90
      256
102
RTVSPost2010Prop51ColorRGB
 90
-16777216
102
RTVSPost2010PropOp51
 70
     0
102
RTVSPost2010Prop52
140
1.0
102
RTVSPost2010PropOp52
 70
     0
102
RTVSPost2010Prop53
 90
        2
102
RTVSPost2010PropOp53
 70
     0
102
RTVSPost2010Prop54
  1
strokes_ogs.tif
102
RTVSPost2010PropOp54
 70
     0
102
RTVSPost2010Prop55
280
     0
102
RTVSPost2010PropOp55
 70
     1
102
RTVSPost2010Prop56
140
1.0
102
RTVSPost2010PropOp56
 70
     0
102
RTVSPost2010Prop57
140
1.0
102
RTVSPost2010PropOp57
 70
     0
102
RTVSPropertyOp0
 70
     0
102
RTVSPropertyOp1
 70
     0
102
RTVSPropertyOp2
 70
     0
102
RTVSPropertyOp3
 70
     0
102
RTVSPropertyOp4
 70
     0
102
RTVSPropertyOp5
 70
     0
102
RTVSPropertyOp6
 70
     0
102
RTVSPropertyOp7
 70
     0
102
RTVSPropertyOp8
 70
     0
102
RTVSPropertyOp9
 70
     0
102
RTVSPropertyOp10
 70
     0
102
RTVSPropertyOp11
 70
     0
102
RTVSPropertyOp12
 70
     0
102
RTVSPropertyOp13
 70
     0
102
RTVSPropertyOp14
 70
     2
102
RTVSPropertyOp15
 70
     0
102
RTVSPropertyOp16
 70
     0
102
RTVSPropertyOp17
 70
     0
102
RTVSPropertyOp18
 70
     0
102
RTVSPropertyOp19
 70
     0
102
RTVSPropertyOp20
 70
     0
102
RTVSPropertyOp21
 70
     0
102
RTVSPropertyOp22
 70
     0
102
RTVSPropertyOp23
 70
     0
102
RTVSPropertyOp24
 70
     0
102
RTVSPropertyOp25
 70
     0
102
RTVSPropertyOp26
 70
     0
102
RTVSPropertyOp27
 70
     0
102
RTVSPropertyOp28
 70
     1
102
RTVSPropertyOp29
 70
     1
102
RTVSPropertyOp30
 70
     1
102
RTVSPropertyOp31
 70
     1
102
RTVSPropertyOp32
 70
     1
102
RTVSPropertyOp33
 70
     1
102
RTVSPropertyOp34
 70
     1
102
RTVSPropertyOp35
 70
     1
102
RTVSPropertyOp36
 70
     1
102
RTVSPropertyOp37
 70
     0
102
RTVSPropertyOp38
 70
     0
102
RTVSPropertyOp39
 70
     0
102
RTVSPropertyOp40
 70
     0
102
RTVSPropertyOp41
 70
     0
102
RTVSPropertyOp42
 70
     0
102
RTVSPropertyOp43
 70
     0
102
RTVSPropertyOp44
 70
     0
102
RTVSPropertyOp45
 70
     1
102
RTVSPropertyOp46
 70
     0
102
RTVSPropertyOp47
 70
     0
102
RTVSPropertyOp48
 70
     0
102
RTVSPropertyOp49
 70
     1
102
RTVSPropertyOp50
 70
     0
102
RTVSPropertyOp51
 70
     0
102
RTVSPropertyOp52
 70
     0
102
RTVSPropertyOp53
 70
     0
102
RTVSPropertyOp54
 70
     0
102
RTVSPropertyOp55
 70
     1
102
RTVSPropertyOp56
 70
     0
102
RTVSPropertyOp57
 70
     0
102
RTVSPropertyOp58
 70
     0
102
RTVSPropertyOp59
 70
     0
102
RTVSPropertyOp60
 70
     0
102
RTVSPropertyOp61
 70
     0
102
RTVSPropertyOp62
 70
     0
  0
XRECORD
  5
C3EB
102
{ACAD_REACTORS
330
C3EA
102
}
330
C3EA
100
AcDbXrecord
280
     1
102
RTVSPost2010Prop28
280
     0
102
RTVSPost2010PropOp28
 70
     1
102
RTVSPost2010Prop29
280
     1
102
RTVSPost2010PropOp29
 70
     1
102
RTVSPost2010Prop30
280
     1
102
RTVSPost2010PropOp30
 70
     1
102
RTVSPost2010Prop31
280
     0
102
RTVSPost2010PropOp31
 70
     1
102
RTVSPost2010Prop32
280
     0
102
RTVSPost2010PropOp32
 70
     1
102
RTVSPost2010Prop33
280
     0
102
RTVSPost2010PropOp33
 70
     1
102
RTVSPost2010Prop34
280
     0
102
RTVSPost2010PropOp34
 70
     1
102
RTVSPost2010Prop35
280
     0
102
RTVSPost2010PropOp35
 70
     1
102
RTVSPost2010Prop36
280
     0
102
RTVSPost2010PropOp36
 70
     1
102
RTVSPost2010Prop37
 90
       50
102
RTVSPost2010PropOp37
 70
     1
102
RTVSPost2010Prop38
140
0.0
102
RTVSPost2010PropOp38
 70
     1
102
RTVSPost2010Prop39
140
1.0
102
RTVSPost2010PropOp39
 70
     1
102
RTVSPost2010Prop40
 90
        0
102
RTVSPost2010PropOp40
 70
     1
102
RTVSPost2010Prop41ColorIndex
 90
       18
102
RTVSPost2010Prop41ColorRGB
 90
        0
102
RTVSPost2010PropOp41
 70
     1
102
RTVSPost2010Prop42
 90
       50
102
RTVSPost2010PropOp42
 70
     1
102
RTVSPost2010Prop43
 90
        3
102
RTVSPost2010PropOp43
 70
     1
102
RTVSPost2010Prop44ColorIndex
 90
        5
102
RTVSPost2010Prop44ColorRGB
 90
      255
102
RTVSPost2010PropOp44
 70
     1
102
RTVSPost2010Prop45
280
     0
102
RTVSPost2010PropOp45
 70
     1
102
RTVSPost2010Prop46
 90
       50
102
RTVSPost2010PropOp46
 70
     1
102
RTVSPost2010Prop47
 90
       50
102
RTVSPost2010PropOp47
 70
     1
102
RTVSPost2010Prop48
 90
       50
102
RTVSPost2010PropOp48
 70
     1
102
RTVSPost2010Prop49
280
     0
102
RTVSPost2010PropOp49
 70
     1
102
RTVSPost2010Prop50
 90
       50
102
RTVSPost2010PropOp50
 70
     1
102
RTVSPost2010Prop51ColorIndex
 90
      256
102
RTVSPost2010Prop51ColorRGB
 90
-16777216
102
RTVSPost2010PropOp51
 70
     0
102
RTVSPost2010Prop52
140
1.0
102
RTVSPost2010PropOp52
 70
     0
102
RTVSPost2010Prop53
 90
        2
102
RTVSPost2010PropOp53
 70
     1
102
RTVSPost2010Prop54
  1
strokes_ogs.tif
102
RTVSPost2010PropOp54
 70
     1
102
RTVSPost2010Prop55
280
     0
102
RTVSPost2010PropOp55
 70
     1
102
RTVSPost2010Prop56
140
1.0
102
RTVSPost2010PropOp56
 70
     1
102
RTVSPost2010Prop57
140
1.0
102
RTVSPost2010PropOp57
 70
     1
102
RTVSPropertyOp0
 70
     1
102
RTVSPropertyOp1
 70
     1
102
RTVSPropertyOp2
 70
     1
102
RTVSPropertyOp3
 70
     1
102
RTVSPropertyOp4
 70
     1
102
RTVSPropertyOp5
 70
     1
102
RTVSPropertyOp6
 70
     1
102
RTVSPropertyOp7
 70
     1
102
RTVSPropertyOp8
 70
     1
102
RTVSPropertyOp9
 70
     1
102
RTVSPropertyOp10
 70
     1
102
RTVSPropertyOp11
 70
     1
102
RTVSPropertyOp12
 70
     1
102
RTVSPropertyOp13
 70
     1
102
RTVSPropertyOp14
 70
     1
102
RTVSPropertyOp15
 70
     1
102
RTVSPropertyOp16
 70
     1
102
RTVSPropertyOp17
 70
     1
102
RTVSPropertyOp18
 70
     1
102
RTVSPropertyOp19
 70
     1
102
RTVSPropertyOp20
 70
     1
102
RTVSPropertyOp21
 70
     1
102
RTVSPropertyOp22
 70
     1
102
RTVSPropertyOp23
 70
     1
102
RTVSPropertyOp24
 70
     1
102
RTVSPropertyOp25
 70
     1
102
RTVSPropertyOp26
 70
     1
102
RTVSPropertyOp27
 70
     1
102
RTVSPropertyOp28
 70
     1
102
RTVSPropertyOp29
 70
     1
102
RTVSPropertyOp30
 70
     1
102
RTVSPropertyOp31
 70
     1
102
RTVSPropertyOp32
 70
     1
102
RTVSPropertyOp33
 70
     1
102
RTVSPropertyOp34
 70
     1
102
RTVSPropertyOp35
 70
     1
102
RTVSPropertyOp36
 70
     1
102
RTVSPropertyOp37
 70
     1
102
RTVSPropertyOp38
 70
     1
102
RTVSPropertyOp39
 70
     1
102
RTVSPropertyOp40
 70
     1
102
RTVSPropertyOp41
 70
     1
102
RTVSPropertyOp42
 70
     1
102
RTVSPropertyOp43
 70
     1
102
RTVSPropertyOp44
 70
     1
102
RTVSPropertyOp45
 70
     1
102
RTVSPropertyOp46
 70
     1
102
RTVSPropertyOp47
 70
     1
102
RTVSPropertyOp48
 70
     1
102
RTVSPropertyOp49
 70
     1
102
RTVSPropertyOp50
 70
     1
102
RTVSPropertyOp51
 70
     0
102
RTVSPropertyOp52
 70
     0
102
RTVSPropertyOp53
 70
     1
102
RTVSPropertyOp54
 70
     1
102
RTVSPropertyOp55
 70
     1
102
RTVSPropertyOp56
 70
     1
102
RTVSPropertyOp57
 70
     1
102
RTVSPropertyOp58
 70
     1
102
RTVSPropertyOp59
 70
     1
102
RTVSPropertyOp60
 70
     1
102
RTVSPropertyOp61
 70
     1
102
RTVSPropertyOp62
 70
     1
  0
XRECORD
  5
C401
102
{ACAD_REACTORS
330
C400
102
}
330
C400
100
AcDbXrecord
280
     1
102
RTVSPost2010Prop28
280
     0
102
RTVSPost2010PropOp28
 70
     1
102
RTVSPost2010Prop29
280
     1
102
RTVSPost2010PropOp29
 70
     1
102
RTVSPost2010Prop30
280
     1
102
RTVSPost2010PropOp30
 70
     1
102
RTVSPost2010Prop31
280
     0
102
RTVSPost2010PropOp31
 70
     1
102
RTVSPost2010Prop32
280
     0
102
RTVSPost2010PropOp32
 70
     1
102
RTVSPost2010Prop33
280
     0
102
RTVSPost2010PropOp33
 70
     1
102
RTVSPost2010Prop34
280
     0
102
RTVSPost2010PropOp34
 70
     1
102
RTVSPost2010Prop35
280
     0
102
RTVSPost2010PropOp35
 70
     1
102
RTVSPost2010Prop36
280
     0
102
RTVSPost2010PropOp36
 70
     1
102
RTVSPost2010Prop37
 90
       50
102
RTVSPost2010PropOp37
 70
     1
102
RTVSPost2010Prop38
140
0.0
102
RTVSPost2010PropOp38
 70
     1
102
RTVSPost2010Prop39
140
1.0
102
RTVSPost2010PropOp39
 70
     1
102
RTVSPost2010Prop40
 90
        0
102
RTVSPost2010PropOp40
 70
     1
102
RTVSPost2010Prop41ColorIndex
 90
       18
102
RTVSPost2010Prop41ColorRGB
 90
        0
102
RTVSPost2010PropOp41
 70
     1
102
RTVSPost2010Prop42
 90
       50
102
RTVSPost2010PropOp42
 70
     1
102
RTVSPost2010Prop43
 90
        3
102
RTVSPost2010PropOp43
 70
     1
102
RTVSPost2010Prop44ColorIndex
 90
        5
102
RTVSPost2010Prop44ColorRGB
 90
      255
102
RTVSPost2010PropOp44
 70
     1
102
RTVSPost2010Prop45
280
     0
102
RTVSPost2010PropOp45
 70
     1
102
RTVSPost2010Prop46
 90
       50
102
RTVSPost2010PropOp46
 70
     1
102
RTVSPost2010Prop47
 90
       50
102
RTVSPost2010PropOp47
 70
     1
102
RTVSPost2010Prop48
 90
       50
102
RTVSPost2010PropOp48
 70
     1
102
RTVSPost2010Prop49
280
     0
102
RTVSPost2010PropOp49
 70
     1
102
RTVSPost2010Prop50
 90
       50
102
RTVSPost2010PropOp50
 70
     1
102
RTVSPost2010Prop51ColorIndex
 90
      256
102
RTVSPost2010Prop51ColorRGB
 90
-16777216
102
RTVSPost2010PropOp51
 70
     0
102
RTVSPost2010Prop52
140
1.0
102
RTVSPost2010PropOp52
 70
     0
102
RTVSPost2010Prop53
 90
        2
102
RTVSPost2010PropOp53
 70
     1
102
RTVSPost2010Prop54
  1
strokes_ogs.tif
102
RTVSPost2010PropOp54
 70
     1
102
RTVSPost2010Prop55
280
     0
102
RTVSPost2010PropOp55
 70
     1
102
RTVSPost2010Prop56
140
1.0
102
RTVSPost2010PropOp56
 70
     1
102
RTVSPost2010Prop57
140
1.0
102
RTVSPost2010PropOp57
 70
     1
102
RTVSPropertyOp0
 70
     1
102
RTVSPropertyOp1
 70
     1
102
RTVSPropertyOp2
 70
     1
102
RTVSPropertyOp3
 70
     1
102
RTVSPropertyOp4
 70
     1
102
RTVSPropertyOp5
 70
     1
102
RTVSPropertyOp6
 70
     1
102
RTVSPropertyOp7
 70
     1
102
RTVSPropertyOp8
 70
     1
102
RTVSPropertyOp9
 70
     1
102
RTVSPropertyOp10
 70
     1
102
RTVSPropertyOp11
 70
     1
102
RTVSPropertyOp12
 70
     1
102
RTVSPropertyOp13
 70
     1
102
RTVSPropertyOp14
 70
     1
102
RTVSPropertyOp15
 70
     1
102
RTVSPropertyOp16
 70
     1
102
RTVSPropertyOp17
 70
     1
102
RTVSPropertyOp18
 70
     1
102
RTVSPropertyOp19
 70
     1
102
RTVSPropertyOp20
 70
     1
102
RTVSPropertyOp21
 70
     1
102
RTVSPropertyOp22
 70
     1
102
RTVSPropertyOp23
 70
     1
102
RTVSPropertyOp24
 70
     1
102
RTVSPropertyOp25
 70
     1
102
RTVSPropertyOp26
 70
     1
102
RTVSPropertyOp27
 70
     1
102
RTVSPropertyOp28
 70
     1
102
RTVSPropertyOp29
 70
     1
102
RTVSPropertyOp30
 70
     1
102
RTVSPropertyOp31
 70
     1
102
RTVSPropertyOp32
 70
     1
102
RTVSPropertyOp33
 70
     1
102
RTVSPropertyOp34
 70
     1
102
RTVSPropertyOp35
 70
     1
102
RTVSPropertyOp36
 70
     1
102
RTVSPropertyOp37
 70
     1
102
RTVSPropertyOp38
 70
     1
102
RTVSPropertyOp39
 70
     1
102
RTVSPropertyOp40
 70
     1
102
RTVSPropertyOp41
 70
     1
102
RTVSPropertyOp42
 70
     1
102
RTVSPropertyOp43
 70
     1
102
RTVSPropertyOp44
 70
     1
102
RTVSPropertyOp45
 70
     1
102
RTVSPropertyOp46
 70
     1
102
RTVSPropertyOp47
 70
     1
102
RTVSPropertyOp48
 70
     1
102
RTVSPropertyOp49
 70
     1
102
RTVSPropertyOp50
 70
     1
102
RTVSPropertyOp51
 70
     0
102
RTVSPropertyOp52
 70
     0
102
RTVSPropertyOp53
 70
     1
102
RTVSPropertyOp54
 70
     1
102
RTVSPropertyOp55
 70
     1
102
RTVSPropertyOp56
 70
     1
102
RTVSPropertyOp57
 70
     1
102
RTVSPropertyOp58
 70
     1
102
RTVSPropertyOp59
 70
     1
102
RTVSPropertyOp60
 70
     1
102
RTVSPropertyOp61
 70
     1
102
RTVSPropertyOp62
 70
     1
  0
XRECORD
  5
C3FF
102
{ACAD_REACTORS
330
C3FE
102
}
330
C3FE
100
AcDbXrecord
280
     1
102
RTVSPost2010Prop28
280
     0
102
RTVSPost2010PropOp28
 70
     1
102
RTVSPost2010Prop29
280
     1
102
RTVSPost2010PropOp29
 70
     1
102
RTVSPost2010Prop30
280
     1
102
RTVSPost2010PropOp30
 70
     1
102
RTVSPost2010Prop31
280
     0
102
RTVSPost2010PropOp31
 70
     1
102
RTVSPost2010Prop32
280
     0
102
RTVSPost2010PropOp32
 70
     1
102
RTVSPost2010Prop33
280
     0
102
RTVSPost2010PropOp33
 70
     1
102
RTVSPost2010Prop34
280
     0
102
RTVSPost2010PropOp34
 70
     1
102
RTVSPost2010Prop35
280
     0
102
RTVSPost2010PropOp35
 70
     1
102
RTVSPost2010Prop36
280
     0
102
RTVSPost2010PropOp36
 70
     1
102
RTVSPost2010Prop37
 90
       50
102
RTVSPost2010PropOp37
 70
     1
102
RTVSPost2010Prop38
140
0.0
102
RTVSPost2010PropOp38
 70
     1
102
RTVSPost2010Prop39
140
1.0
102
RTVSPost2010PropOp39
 70
     1
102
RTVSPost2010Prop40
 90
        0
102
RTVSPost2010PropOp40
 70
     1
102
RTVSPost2010Prop41ColorIndex
 90
       18
102
RTVSPost2010Prop41ColorRGB
 90
        0
102
RTVSPost2010PropOp41
 70
     1
102
RTVSPost2010Prop42
 90
       50
102
RTVSPost2010PropOp42
 70
     1
102
RTVSPost2010Prop43
 90
        3
102
RTVSPost2010PropOp43
 70
     1
102
RTVSPost2010Prop44ColorIndex
 90
        5
102
RTVSPost2010Prop44ColorRGB
 90
      255
102
RTVSPost2010PropOp44
 70
     1
102
RTVSPost2010Prop45
280
     0
102
RTVSPost2010PropOp45
 70
     1
102
RTVSPost2010Prop46
 90
       50
102
RTVSPost2010PropOp46
 70
     1
102
RTVSPost2010Prop47
 90
       50
102
RTVSPost2010PropOp47
 70
     1
102
RTVSPost2010Prop48
 90
       50
102
RTVSPost2010PropOp48
 70
     1
102
RTVSPost2010Prop49
280
     0
102
RTVSPost2010PropOp49
 70
     1
102
RTVSPost2010Prop50
 90
       50
102
RTVSPost2010PropOp50
 70
     1
102
RTVSPost2010Prop51ColorIndex
 90
      256
102
RTVSPost2010Prop51ColorRGB
 90
-16777216
102
RTVSPost2010PropOp51
 70
     0
102
RTVSPost2010Prop52
140
1.0
102
RTVSPost2010PropOp52
 70
     0
102
RTVSPost2010Prop53
 90
        2
102
RTVSPost2010PropOp53
 70
     1
102
RTVSPost2010Prop54
  1
strokes_ogs.tif
102
RTVSPost2010PropOp54
 70
     1
102
RTVSPost2010Prop55
280
     0
102
RTVSPost2010PropOp55
 70
     1
102
RTVSPost2010Prop56
140
1.0
102
RTVSPost2010PropOp56
 70
     1
102
RTVSPost2010Prop57
140
1.0
102
RTVSPost2010PropOp57
 70
     1
102
RTVSPropertyOp0
 70
     1
102
RTVSPropertyOp1
 70
     1
102
RTVSPropertyOp2
 70
     1
102
RTVSPropertyOp3
 70
     1
102
RTVSPropertyOp4
 70
     1
102
RTVSPropertyOp5
 70
     1
102
RTVSPropertyOp6
 70
     1
102
RTVSPropertyOp7
 70
     1
102
RTVSPropertyOp8
 70
     1
102
RTVSPropertyOp9
 70
     1
102
RTVSPropertyOp10
 70
     1
102
RTVSPropertyOp11
 70
     1
102
RTVSPropertyOp12
 70
     1
102
RTVSPropertyOp13
 70
     1
102
RTVSPropertyOp14
 70
     1
102
RTVSPropertyOp15
 70
     1
102
RTVSPropertyOp16
 70
     1
102
RTVSPropertyOp17
 70
     1
102
RTVSPropertyOp18
 70
     1
102
RTVSPropertyOp19
 70
     1
102
RTVSPropertyOp20
 70
     1
102
RTVSPropertyOp21
 70
     1
102
RTVSPropertyOp22
 70
     1
102
RTVSPropertyOp23
 70
     1
102
RTVSPropertyOp24
 70
     1
102
RTVSPropertyOp25
 70
     1
102
RTVSPropertyOp26
 70
     1
102
RTVSPropertyOp27
 70
     1
102
RTVSPropertyOp28
 70
     1
102
RTVSPropertyOp29
 70
     1
102
RTVSPropertyOp30
 70
     1
102
RTVSPropertyOp31
 70
     1
102
RTVSPropertyOp32
 70
     1
102
RTVSPropertyOp33
 70
     1
102
RTVSPropertyOp34
 70
     1
102
RTVSPropertyOp35
 70
     1
102
RTVSPropertyOp36
 70
     1
102
RTVSPropertyOp37
 70
     1
102
RTVSPropertyOp38
 70
     1
102
RTVSPropertyOp39
 70
     1
102
RTVSPropertyOp40
 70
     1
102
RTVSPropertyOp41
 70
     1
102
RTVSPropertyOp42
 70
     1
102
RTVSPropertyOp43
 70
     1
102
RTVSPropertyOp44
 70
     1
102
RTVSPropertyOp45
 70
     1
102
RTVSPropertyOp46
 70
     1
102
RTVSPropertyOp47
 70
     1
102
RTVSPropertyOp48
 70
     1
102
RTVSPropertyOp49
 70
     1
102
RTVSPropertyOp50
 70
     1
102
RTVSPropertyOp51
 70
     0
102
RTVSPropertyOp52
 70
     0
102
RTVSPropertyOp53
 70
     1
102
RTVSPropertyOp54
 70
     1
102
RTVSPropertyOp55
 70
     1
102
RTVSPropertyOp56
 70
     1
102
RTVSPropertyOp57
 70
     1
102
RTVSPropertyOp58
 70
     1
102
RTVSPropertyOp59
 70
     1
102
RTVSPropertyOp60
 70
     1
102
RTVSPropertyOp61
 70
     1
102
RTVSPropertyOp62
 70
     1
  0
XRECORD
  5
C3F9
102
{ACAD_REACTORS
330
C3F8
102
}
330
C3F8
100
AcDbXrecord
280
     1
102
RTVSPost2010Prop28
280
     0
102
RTVSPost2010PropOp28
 70
     1
102
RTVSPost2010Prop29
280
     1
102
RTVSPost2010PropOp29
 70
     1
102
RTVSPost2010Prop30
280
     1
102
RTVSPost2010PropOp30
 70
     1
102
RTVSPost2010Prop31
280
     0
102
RTVSPost2010PropOp31
 70
     1
102
RTVSPost2010Prop32
280
     0
102
RTVSPost2010PropOp32
 70
     1
102
RTVSPost2010Prop33
280
     0
102
RTVSPost2010PropOp33
 70
     1
102
RTVSPost2010Prop34
280
     0
102
RTVSPost2010PropOp34
 70
     1
102
RTVSPost2010Prop35
280
     0
102
RTVSPost2010PropOp35
 70
     1
102
RTVSPost2010Prop36
280
     0
102
RTVSPost2010PropOp36
 70
     1
102
RTVSPost2010Prop37
 90
       50
102
RTVSPost2010PropOp37
 70
     1
102
RTVSPost2010Prop38
140
0.0
102
RTVSPost2010PropOp38
 70
     1
102
RTVSPost2010Prop39
140
1.0
102
RTVSPost2010PropOp39
 70
     1
102
RTVSPost2010Prop40
 90
        0
102
RTVSPost2010PropOp40
 70
     1
102
RTVSPost2010Prop41ColorIndex
 90
       18
102
RTVSPost2010Prop41ColorRGB
 90
        0
102
RTVSPost2010PropOp41
 70
     1
102
RTVSPost2010Prop42
 90
       50
102
RTVSPost2010PropOp42
 70
     1
102
RTVSPost2010Prop43
 90
        3
102
RTVSPost2010PropOp43
 70
     1
102
RTVSPost2010Prop44ColorIndex
 90
        5
102
RTVSPost2010Prop44ColorRGB
 90
      255
102
RTVSPost2010PropOp44
 70
     1
102
RTVSPost2010Prop45
280
     0
102
RTVSPost2010PropOp45
 70
     1
102
RTVSPost2010Prop46
 90
       50
102
RTVSPost2010PropOp46
 70
     1
102
RTVSPost2010Prop47
 90
       50
102
RTVSPost2010PropOp47
 70
     1
102
RTVSPost2010Prop48
 90
       50
102
RTVSPost2010PropOp48
 70
     1
102
RTVSPost2010Prop49
280
     0
102
RTVSPost2010PropOp49
 70
     1
102
RTVSPost2010Prop50
 90
       50
102
RTVSPost2010PropOp50
 70
     1
102
RTVSPost2010Prop51ColorIndex
 90
      256
102
RTVSPost2010Prop51ColorRGB
 90
-16777216
102
RTVSPost2010PropOp51
 70
     0
102
RTVSPost2010Prop52
140
1.0
102
RTVSPost2010PropOp52
 70
     0
102
RTVSPost2010Prop53
 90
        2
102
RTVSPost2010PropOp53
 70
     1
102
RTVSPost2010Prop54
  1
strokes_ogs.tif
102
RTVSPost2010PropOp54
 70
     1
102
RTVSPost2010Prop55
280
     0
102
RTVSPost2010PropOp55
 70
     1
102
RTVSPost2010Prop56
140
1.0
102
RTVSPost2010PropOp56
 70
     1
102
RTVSPost2010Prop57
140
1.0
102
RTVSPost2010PropOp57
 70
     1
102
RTVSPropertyOp0
 70
     1
102
RTVSPropertyOp1
 70
     1
102
RTVSPropertyOp2
 70
     1
102
RTVSPropertyOp3
 70
     1
102
RTVSPropertyOp4
 70
     1
102
RTVSPropertyOp5
 70
     1
102
RTVSPropertyOp6
 70
     1
102
RTVSPropertyOp7
 70
     1
102
RTVSPropertyOp8
 70
     1
102
RTVSPropertyOp9
 70
     1
102
RTVSPropertyOp10
 70
     1
102
RTVSPropertyOp11
 70
     1
102
RTVSPropertyOp12
 70
     1
102
RTVSPropertyOp13
 70
     1
102
RTVSPropertyOp14
 70
     1
102
RTVSPropertyOp15
 70
     1
102
RTVSPropertyOp16
 70
     1
102
RTVSPropertyOp17
 70
     1
102
RTVSPropertyOp18
 70
     1
102
RTVSPropertyOp19
 70
     1
102
RTVSPropertyOp20
 70
     1
102
RTVSPropertyOp21
 70
     1
102
RTVSPropertyOp22
 70
     1
102
RTVSPropertyOp23
 70
     1
102
RTVSPropertyOp24
 70
     1
102
RTVSPropertyOp25
 70
     1
102
RTVSPropertyOp26
 70
     1
102
RTVSPropertyOp27
 70
     1
102
RTVSPropertyOp28
 70
     1
102
RTVSPropertyOp29
 70
     1
102
RTVSPropertyOp30
 70
     1
102
RTVSPropertyOp31
 70
     1
102
RTVSPropertyOp32
 70
     1
102
RTVSPropertyOp33
 70
     1
102
RTVSPropertyOp34
 70
     1
102
RTVSPropertyOp35
 70
     1
102
RTVSPropertyOp36
 70
     1
102
RTVSPropertyOp37
 70
     1
102
RTVSPropertyOp38
 70
     1
102
RTVSPropertyOp39
 70
     1
102
RTVSPropertyOp40
 70
     1
102
RTVSPropertyOp41
 70
     1
102
RTVSPropertyOp42
 70
     1
102
RTVSPropertyOp43
 70
     1
102
RTVSPropertyOp44
 70
     1
102
RTVSPropertyOp45
 70
     1
102
RTVSPropertyOp46
 70
     1
102
RTVSPropertyOp47
 70
     1
102
RTVSPropertyOp48
 70
     1
102
RTVSPropertyOp49
 70
     1
102
RTVSPropertyOp50
 70
     1
102
RTVSPropertyOp51
 70
     0
102
RTVSPropertyOp52
 70
     0
102
RTVSPropertyOp53
 70
     1
102
RTVSPropertyOp54
 70
     1
102
RTVSPropertyOp55
 70
     1
102
RTVSPropertyOp56
 70
     1
102
RTVSPropertyOp57
 70
     1
102
RTVSPropertyOp58
 70
     1
102
RTVSPropertyOp59
 70
     1
102
RTVSPropertyOp60
 70
     1
102
RTVSPropertyOp61
 70
     1
102
RTVSPropertyOp62
 70
     1
  0
XRECORD
  5
C3FB
102
{ACAD_REACTORS
330
C3FA
102
}
330
C3FA
100
AcDbXrecord
280
     1
102
RTVSPost2010Prop28
280
     0
102
RTVSPost2010PropOp28
 70
     1
102
RTVSPost2010Prop29
280
     1
102
RTVSPost2010PropOp29
 70
     1
102
RTVSPost2010Prop30
280
     1
102
RTVSPost2010PropOp30
 70
     1
102
RTVSPost2010Prop31
280
     0
102
RTVSPost2010PropOp31
 70
     1
102
RTVSPost2010Prop32
280
     0
102
RTVSPost2010PropOp32
 70
     1
102
RTVSPost2010Prop33
280
     0
102
RTVSPost2010PropOp33
 70
     1
102
RTVSPost2010Prop34
280
     0
102
RTVSPost2010PropOp34
 70
     1
102
RTVSPost2010Prop35
280
     0
102
RTVSPost2010PropOp35
 70
     1
102
RTVSPost2010Prop36
280
     0
102
RTVSPost2010PropOp36
 70
     1
102
RTVSPost2010Prop37
 90
       50
102
RTVSPost2010PropOp37
 70
     1
102
RTVSPost2010Prop38
140
0.0
102
RTVSPost2010PropOp38
 70
     1
102
RTVSPost2010Prop39
140
1.0
102
RTVSPost2010PropOp39
 70
     1
102
RTVSPost2010Prop40
 90
        0
102
RTVSPost2010PropOp40
 70
     1
102
RTVSPost2010Prop41ColorIndex
 90
       18
102
RTVSPost2010Prop41ColorRGB
 90
        0
102
RTVSPost2010PropOp41
 70
     1
102
RTVSPost2010Prop42
 90
       50
102
RTVSPost2010PropOp42
 70
     1
102
RTVSPost2010Prop43
 90
        3
102
RTVSPost2010PropOp43
 70
     1
102
RTVSPost2010Prop44ColorIndex
 90
        5
102
RTVSPost2010Prop44ColorRGB
 90
      255
102
RTVSPost2010PropOp44
 70
     1
102
RTVSPost2010Prop45
280
     0
102
RTVSPost2010PropOp45
 70
     1
102
RTVSPost2010Prop46
 90
       50
102
RTVSPost2010PropOp46
 70
     1
102
RTVSPost2010Prop47
 90
       50
102
RTVSPost2010PropOp47
 70
     1
102
RTVSPost2010Prop48
 90
       50
102
RTVSPost2010PropOp48
 70
     1
102
RTVSPost2010Prop49
280
     0
102
RTVSPost2010PropOp49
 70
     1
102
RTVSPost2010Prop50
 90
       50
102
RTVSPost2010PropOp50
 70
     1
102
RTVSPost2010Prop51ColorIndex
 90
      256
102
RTVSPost2010Prop51ColorRGB
 90
-16777216
102
RTVSPost2010PropOp51
 70
     0
102
RTVSPost2010Prop52
140
1.0
102
RTVSPost2010PropOp52
 70
     0
102
RTVSPost2010Prop53
 90
        2
102
RTVSPost2010PropOp53
 70
     1
102
RTVSPost2010Prop54
  1
strokes_ogs.tif
102
RTVSPost2010PropOp54
 70
     1
102
RTVSPost2010Prop55
280
     0
102
RTVSPost2010PropOp55
 70
     1
102
RTVSPost2010Prop56
140
1.0
102
RTVSPost2010PropOp56
 70
     1
102
RTVSPost2010Prop57
140
1.0
102
RTVSPost2010PropOp57
 70
     1
102
RTVSPropertyOp0
 70
     1
102
RTVSPropertyOp1
 70
     1
102
RTVSPropertyOp2
 70
     1
102
RTVSPropertyOp3
 70
     1
102
RTVSPropertyOp4
 70
     1
102
RTVSPropertyOp5
 70
     1
102
RTVSPropertyOp6
 70
     1
102
RTVSPropertyOp7
 70
     1
102
RTVSPropertyOp8
 70
     1
102
RTVSPropertyOp9
 70
     1
102
RTVSPropertyOp10
 70
     1
102
RTVSPropertyOp11
 70
     1
102
RTVSPropertyOp12
 70
     1
102
RTVSPropertyOp13
 70
     1
102
RTVSPropertyOp14
 70
     1
102
RTVSPropertyOp15
 70
     1
102
RTVSPropertyOp16
 70
     1
102
RTVSPropertyOp17
 70
     1
102
RTVSPropertyOp18
 70
     1
102
RTVSPropertyOp19
 70
     1
102
RTVSPropertyOp20
 70
     1
102
RTVSPropertyOp21
 70
     1
102
RTVSPropertyOp22
 70
     1
102
RTVSPropertyOp23
 70
     1
102
RTVSPropertyOp24
 70
     1
102
RTVSPropertyOp25
 70
     1
102
RTVSPropertyOp26
 70
     1
102
RTVSPropertyOp27
 70
     1
102
RTVSPropertyOp28
 70
     1
102
RTVSPropertyOp29
 70
     1
102
RTVSPropertyOp30
 70
     1
102
RTVSPropertyOp31
 70
     1
102
RTVSPropertyOp32
 70
     1
102
RTVSPropertyOp33
 70
     1
102
RTVSPropertyOp34
 70
     1
102
RTVSPropertyOp35
 70
     1
102
RTVSPropertyOp36
 70
     1
102
RTVSPropertyOp37
 70
     1
102
RTVSPropertyOp38
 70
     1
102
RTVSPropertyOp39
 70
     1
102
RTVSPropertyOp40
 70
     1
102
RTVSPropertyOp41
 70
     1
102
RTVSPropertyOp42
 70
     1
102
RTVSPropertyOp43
 70
     1
102
RTVSPropertyOp44
 70
     1
102
RTVSPropertyOp45
 70
     1
102
RTVSPropertyOp46
 70
     1
102
RTVSPropertyOp47
 70
     1
102
RTVSPropertyOp48
 70
     1
102
RTVSPropertyOp49
 70
     1
102
RTVSPropertyOp50
 70
     1
102
RTVSPropertyOp51
 70
     0
102
RTVSPropertyOp52
 70
     0
102
RTVSPropertyOp53
 70
     1
102
RTVSPropertyOp54
 70
     1
102
RTVSPropertyOp55
 70
     1
102
RTVSPropertyOp56
 70
     1
102
RTVSPropertyOp57
 70
     1
102
RTVSPropertyOp58
 70
     1
102
RTVSPropertyOp59
 70
     1
102
RTVSPropertyOp60
 70
     1
102
RTVSPropertyOp61
 70
     1
102
RTVSPropertyOp62
 70
     1
  0
XRECORD
  5
C3F1
102
{ACAD_REACTORS
330
C3F0
102
}
330
C3F0
100
AcDbXrecord
280
     1
102
RTVSPost2010Prop28
280
     0
102
RTVSPost2010PropOp28
 70
     1
102
RTVSPost2010Prop29
280
     1
102
RTVSPost2010PropOp29
 70
     1
102
RTVSPost2010Prop30
280
     1
102
RTVSPost2010PropOp30
 70
     1
102
RTVSPost2010Prop31
280
     0
102
RTVSPost2010PropOp31
 70
     1
102
RTVSPost2010Prop32
280
     0
102
RTVSPost2010PropOp32
 70
     1
102
RTVSPost2010Prop33
280
     0
102
RTVSPost2010PropOp33
 70
     1
102
RTVSPost2010Prop34
280
     0
102
RTVSPost2010PropOp34
 70
     1
102
RTVSPost2010Prop35
280
     0
102
RTVSPost2010PropOp35
 70
     1
102
RTVSPost2010Prop36
280
     0
102
RTVSPost2010PropOp36
 70
     1
102
RTVSPost2010Prop37
 90
       50
102
RTVSPost2010PropOp37
 70
     1
102
RTVSPost2010Prop38
140
0.0
102
RTVSPost2010PropOp38
 70
     1
102
RTVSPost2010Prop39
140
1.0
102
RTVSPost2010PropOp39
 70
     1
102
RTVSPost2010Prop40
 90
        0
102
RTVSPost2010PropOp40
 70
     1
102
RTVSPost2010Prop41ColorIndex
 90
       18
102
RTVSPost2010Prop41ColorRGB
 90
        0
102
RTVSPost2010PropOp41
 70
     1
102
RTVSPost2010Prop42
 90
       50
102
RTVSPost2010PropOp42
 70
     1
102
RTVSPost2010Prop43
 90
        3
102
RTVSPost2010PropOp43
 70
     1
102
RTVSPost2010Prop44ColorIndex
 90
        5
102
RTVSPost2010Prop44ColorRGB
 90
      255
102
RTVSPost2010PropOp44
 70
     1
102
RTVSPost2010Prop45
280
     0
102
RTVSPost2010PropOp45
 70
     1
102
RTVSPost2010Prop46
 90
       50
102
RTVSPost2010PropOp46
 70
     1
102
RTVSPost2010Prop47
 90
       50
102
RTVSPost2010PropOp47
 70
     1
102
RTVSPost2010Prop48
 90
       50
102
RTVSPost2010PropOp48
 70
     1
102
RTVSPost2010Prop49
280
     0
102
RTVSPost2010PropOp49
 70
     1
102
RTVSPost2010Prop50
 90
       50
102
RTVSPost2010PropOp50
 70
     1
102
RTVSPost2010Prop51ColorIndex
 90
      256
102
RTVSPost2010Prop51ColorRGB
 90
-16777216
102
RTVSPost2010PropOp51
 70
     0
102
RTVSPost2010Prop52
140
1.0
102
RTVSPost2010PropOp52
 70
     0
102
RTVSPost2010Prop53
 90
        2
102
RTVSPost2010PropOp53
 70
     1
102
RTVSPost2010Prop54
  1
strokes_ogs.tif
102
RTVSPost2010PropOp54
 70
     1
102
RTVSPost2010Prop55
280
     0
102
RTVSPost2010PropOp55
 70
     1
102
RTVSPost2010Prop56
140
1.0
102
RTVSPost2010PropOp56
 70
     1
102
RTVSPost2010Prop57
140
1.0
102
RTVSPost2010PropOp57
 70
     1
102
RTVSPropertyOp0
 70
     1
102
RTVSPropertyOp1
 70
     1
102
RTVSPropertyOp2
 70
     1
102
RTVSPropertyOp3
 70
     1
102
RTVSPropertyOp4
 70
     1
102
RTVSPropertyOp5
 70
     1
102
RTVSPropertyOp6
 70
     1
102
RTVSPropertyOp7
 70
     1
102
RTVSPropertyOp8
 70
     1
102
RTVSPropertyOp9
 70
     1
102
RTVSPropertyOp10
 70
     1
102
RTVSPropertyOp11
 70
     1
102
RTVSPropertyOp12
 70
     1
102
RTVSPropertyOp13
 70
     1
102
RTVSPropertyOp14
 70
     1
102
RTVSPropertyOp15
 70
     1
102
RTVSPropertyOp16
 70
     1
102
RTVSPropertyOp17
 70
     1
102
RTVSPropertyOp18
 70
     1
102
RTVSPropertyOp19
 70
     1
102
RTVSPropertyOp20
 70
     1
102
RTVSPropertyOp21
 70
     1
102
RTVSPropertyOp22
 70
     1
102
RTVSPropertyOp23
 70
     1
102
RTVSPropertyOp24
 70
     1
102
RTVSPropertyOp25
 70
     1
102
RTVSPropertyOp26
 70
     1
102
RTVSPropertyOp27
 70
     1
102
RTVSPropertyOp28
 70
     1
102
RTVSPropertyOp29
 70
     1
102
RTVSPropertyOp30
 70
     1
102
RTVSPropertyOp31
 70
     1
102
RTVSPropertyOp32
 70
     1
102
RTVSPropertyOp33
 70
     1
102
RTVSPropertyOp34
 70
     1
102
RTVSPropertyOp35
 70
     1
102
RTVSPropertyOp36
 70
     1
102
RTVSPropertyOp37
 70
     1
102
RTVSPropertyOp38
 70
     1
102
RTVSPropertyOp39
 70
     1
102
RTVSPropertyOp40
 70
     1
102
RTVSPropertyOp41
 70
     1
102
RTVSPropertyOp42
 70
     1
102
RTVSPropertyOp43
 70
     1
102
RTVSPropertyOp44
 70
     1
102
RTVSPropertyOp45
 70
     1
102
RTVSPropertyOp46
 70
     1
102
RTVSPropertyOp47
 70
     1
102
RTVSPropertyOp48
 70
     1
102
RTVSPropertyOp49
 70
     1
102
RTVSPropertyOp50
 70
     1
102
RTVSPropertyOp51
 70
     0
102
RTVSPropertyOp52
 70
     0
102
RTVSPropertyOp53
 70
     1
102
RTVSPropertyOp54
 70
     1
102
RTVSPropertyOp55
 70
     1
102
RTVSPropertyOp56
 70
     1
102
RTVSPropertyOp57
 70
     1
102
RTVSPropertyOp58
 70
     1
102
RTVSPropertyOp59
 70
     1
102
RTVSPropertyOp60
 70
     1
102
RTVSPropertyOp61
 70
     1
102
RTVSPropertyOp62
 70
     1
  0
XRECORD
  5
C3E5
102
{ACAD_REACTORS
330
C3E4
102
}
330
C3E4
100
AcDbXrecord
280
     1
102
RTVSPost2010Prop28
280
     0
102
RTVSPost2010PropOp28
 70
     1
102
RTVSPost2010Prop29
280
     1
102
RTVSPost2010PropOp29
 70
     1
102
RTVSPost2010Prop30
280
     1
102
RTVSPost2010PropOp30
 70
     1
102
RTVSPost2010Prop31
280
     0
102
RTVSPost2010PropOp31
 70
     1
102
RTVSPost2010Prop32
280
     0
102
RTVSPost2010PropOp32
 70
     1
102
RTVSPost2010Prop33
280
     0
102
RTVSPost2010PropOp33
 70
     1
102
RTVSPost2010Prop34
280
     0
102
RTVSPost2010PropOp34
 70
     1
102
RTVSPost2010Prop35
280
     0
102
RTVSPost2010PropOp35
 70
     1
102
RTVSPost2010Prop36
280
     0
102
RTVSPost2010PropOp36
 70
     1
102
RTVSPost2010Prop37
 90
       50
102
RTVSPost2010PropOp37
 70
     1
102
RTVSPost2010Prop38
140
0.0
102
RTVSPost2010PropOp38
 70
     1
102
RTVSPost2010Prop39
140
1.0
102
RTVSPost2010PropOp39
 70
     1
102
RTVSPost2010Prop40
 90
        0
102
RTVSPost2010PropOp40
 70
     1
102
RTVSPost2010Prop41ColorIndex
 90
       18
102
RTVSPost2010Prop41ColorRGB
 90
        0
102
RTVSPost2010PropOp41
 70
     1
102
RTVSPost2010Prop42
 90
       50
102
RTVSPost2010PropOp42
 70
     1
102
RTVSPost2010Prop43
 90
        3
102
RTVSPost2010PropOp43
 70
     1
102
RTVSPost2010Prop44ColorIndex
 90
        5
102
RTVSPost2010Prop44ColorRGB
 90
      255
102
RTVSPost2010PropOp44
 70
     1
102
RTVSPost2010Prop45
280
     0
102
RTVSPost2010PropOp45
 70
     1
102
RTVSPost2010Prop46
 90
       50
102
RTVSPost2010PropOp46
 70
     1
102
RTVSPost2010Prop47
 90
       50
102
RTVSPost2010PropOp47
 70
     1
102
RTVSPost2010Prop48
 90
       50
102
RTVSPost2010PropOp48
 70
     1
102
RTVSPost2010Prop49
280
     0
102
RTVSPost2010PropOp49
 70
     1
102
RTVSPost2010Prop50
 90
       50
102
RTVSPost2010PropOp50
 70
     1
102
RTVSPost2010Prop51ColorIndex
 90
      256
102
RTVSPost2010Prop51ColorRGB
 90
-16777216
102
RTVSPost2010PropOp51
 70
     0
102
RTVSPost2010Prop52
140
1.0
102
RTVSPost2010PropOp52
 70
     0
102
RTVSPost2010Prop53
 90
        2
102
RTVSPost2010PropOp53
 70
     1
102
RTVSPost2010Prop54
  1
strokes_ogs.tif
102
RTVSPost2010PropOp54
 70
     1
102
RTVSPost2010Prop55
280
     0
102
RTVSPost2010PropOp55
 70
     1
102
RTVSPost2010Prop56
140
1.0
102
RTVSPost2010PropOp56
 70
     1
102
RTVSPost2010Prop57
140
1.0
102
RTVSPost2010PropOp57
 70
     1
102
RTVSPropertyOp0
 70
     1
102
RTVSPropertyOp1
 70
     1
102
RTVSPropertyOp2
 70
     1
102
RTVSPropertyOp3
 70
     1
102
RTVSPropertyOp4
 70
     1
102
RTVSPropertyOp5
 70
     1
102
RTVSPropertyOp6
 70
     1
102
RTVSPropertyOp7
 70
     1
102
RTVSPropertyOp8
 70
     1
102
RTVSPropertyOp9
 70
     1
102
RTVSPropertyOp10
 70
     1
102
RTVSPropertyOp11
 70
     1
102
RTVSPropertyOp12
 70
     1
102
RTVSPropertyOp13
 70
     1
102
RTVSPropertyOp14
 70
     1
102
RTVSPropertyOp15
 70
     1
102
RTVSPropertyOp16
 70
     1
102
RTVSPropertyOp17
 70
     1
102
RTVSPropertyOp18
 70
     1
102
RTVSPropertyOp19
 70
     1
102
RTVSPropertyOp20
 70
     1
102
RTVSPropertyOp21
 70
     1
102
RTVSPropertyOp22
 70
     1
102
RTVSPropertyOp23
 70
     1
102
RTVSPropertyOp24
 70
     1
102
RTVSPropertyOp25
 70
     1
102
RTVSPropertyOp26
 70
     1
102
RTVSPropertyOp27
 70
     1
102
RTVSPropertyOp28
 70
     1
102
RTVSPropertyOp29
 70
     1
102
RTVSPropertyOp30
 70
     1
102
RTVSPropertyOp31
 70
     1
102
RTVSPropertyOp32
 70
     1
102
RTVSPropertyOp33
 70
     1
102
RTVSPropertyOp34
 70
     1
102
RTVSPropertyOp35
 70
     1
102
RTVSPropertyOp36
 70
     1
102
RTVSPropertyOp37
 70
     1
102
RTVSPropertyOp38
 70
     1
102
RTVSPropertyOp39
 70
     1
102
RTVSPropertyOp40
 70
     1
102
RTVSPropertyOp41
 70
     1
102
RTVSPropertyOp42
 70
     1
102
RTVSPropertyOp43
 70
     1
102
RTVSPropertyOp44
 70
     1
102
RTVSPropertyOp45
 70
     1
102
RTVSPropertyOp46
 70
     1
102
RTVSPropertyOp47
 70
     1
102
RTVSPropertyOp48
 70
     1
102
RTVSPropertyOp49
 70
     1
102
RTVSPropertyOp50
 70
     1
102
RTVSPropertyOp51
 70
     0
102
RTVSPropertyOp52
 70
     0
102
RTVSPropertyOp53
 70
     1
102
RTVSPropertyOp54
 70
     1
102
RTVSPropertyOp55
 70
     1
102
RTVSPropertyOp56
 70
     1
102
RTVSPropertyOp57
 70
     1
102
RTVSPropertyOp58
 70
     1
102
RTVSPropertyOp59
 70
     1
102
RTVSPropertyOp60
 70
     1
102
RTVSPropertyOp61
 70
     1
102
RTVSPropertyOp62
 70
     1
  0
XRECORD
  5
C3FD
102
{ACAD_REACTORS
330
C3FC
102
}
330
C3FC
100
AcDbXrecord
280
     1
102
RTVSPost2010Prop28
280
     0
102
RTVSPost2010PropOp28
 70
     1
102
RTVSPost2010Prop29
280
     1
102
RTVSPost2010PropOp29
 70
     1
102
RTVSPost2010Prop30
280
     1
102
RTVSPost2010PropOp30
 70
     1
102
RTVSPost2010Prop31
280
     0
102
RTVSPost2010PropOp31
 70
     1
102
RTVSPost2010Prop32
280
     0
102
RTVSPost2010PropOp32
 70
     1
102
RTVSPost2010Prop33
280
     0
102
RTVSPost2010PropOp33
 70
     1
102
RTVSPost2010Prop34
280
     0
102
RTVSPost2010PropOp34
 70
     1
102
RTVSPost2010Prop35
280
     0
102
RTVSPost2010PropOp35
 70
     1
102
RTVSPost2010Prop36
280
     0
102
RTVSPost2010PropOp36
 70
     1
102
RTVSPost2010Prop37
 90
       50
102
RTVSPost2010PropOp37
 70
     1
102
RTVSPost2010Prop38
140
0.0
102
RTVSPost2010PropOp38
 70
     1
102
RTVSPost2010Prop39
140
1.0
102
RTVSPost2010PropOp39
 70
     1
102
RTVSPost2010Prop40
 90
        0
102
RTVSPost2010PropOp40
 70
     1
102
RTVSPost2010Prop41ColorIndex
 90
       18
102
RTVSPost2010Prop41ColorRGB
 90
        0
102
RTVSPost2010PropOp41
 70
     1
102
RTVSPost2010Prop42
 90
       50
102
RTVSPost2010PropOp42
 70
     1
102
RTVSPost2010Prop43
 90
        3
102
RTVSPost2010PropOp43
 70
     1
102
RTVSPost2010Prop44ColorIndex
 90
        5
102
RTVSPost2010Prop44ColorRGB
 90
      255
102
RTVSPost2010PropOp44
 70
     1
102
RTVSPost2010Prop45
280
     0
102
RTVSPost2010PropOp45
 70
     1
102
RTVSPost2010Prop46
 90
       50
102
RTVSPost2010PropOp46
 70
     1
102
RTVSPost2010Prop47
 90
       50
102
RTVSPost2010PropOp47
 70
     1
102
RTVSPost2010Prop48
 90
       50
102
RTVSPost2010PropOp48
 70
     1
102
RTVSPost2010Prop49
280
     0
102
RTVSPost2010PropOp49
 70
     1
102
RTVSPost2010Prop50
 90
       50
102
RTVSPost2010PropOp50
 70
     1
102
RTVSPost2010Prop51ColorIndex
 90
      256
102
RTVSPost2010Prop51ColorRGB
 90
-16777216
102
RTVSPost2010PropOp51
 70
     0
102
RTVSPost2010Prop52
140
1.0
102
RTVSPost2010PropOp52
 70
     0
102
RTVSPost2010Prop53
 90
        2
102
RTVSPost2010PropOp53
 70
     1
102
RTVSPost2010Prop54
  1
strokes_ogs.tif
102
RTVSPost2010PropOp54
 70
     1
102
RTVSPost2010Prop55
280
     0
102
RTVSPost2010PropOp55
 70
     1
102
RTVSPost2010Prop56
140
1.0
102
RTVSPost2010PropOp56
 70
     1
102
RTVSPost2010Prop57
140
1.0
102
RTVSPost2010PropOp57
 70
     1
102
RTVSPropertyOp0
 70
     1
102
RTVSPropertyOp1
 70
     1
102
RTVSPropertyOp2
 70
     1
102
RTVSPropertyOp3
 70
     1
102
RTVSPropertyOp4
 70
     1
102
RTVSPropertyOp5
 70
     1
102
RTVSPropertyOp6
 70
     1
102
RTVSPropertyOp7
 70
     1
102
RTVSPropertyOp8
 70
     1
102
RTVSPropertyOp9
 70
     1
102
RTVSPropertyOp10
 70
     1
102
RTVSPropertyOp11
 70
     1
102
RTVSPropertyOp12
 70
     1
102
RTVSPropertyOp13
 70
     1
102
RTVSPropertyOp14
 70
     1
102
RTVSPropertyOp15
 70
     1
102
RTVSPropertyOp16
 70
     1
102
RTVSPropertyOp17
 70
     1
102
RTVSPropertyOp18
 70
     1
102
RTVSPropertyOp19
 70
     1
102
RTVSPropertyOp20
 70
     1
102
RTVSPropertyOp21
 70
     1
102
RTVSPropertyOp22
 70
     1
102
RTVSPropertyOp23
 70
     1
102
RTVSPropertyOp24
 70
     1
102
RTVSPropertyOp25
 70
     1
102
RTVSPropertyOp26
 70
     1
102
RTVSPropertyOp27
 70
     1
102
RTVSPropertyOp28
 70
     1
102
RTVSPropertyOp29
 70
     1
102
RTVSPropertyOp30
 70
     1
102
RTVSPropertyOp31
 70
     1
102
RTVSPropertyOp32
 70
     1
102
RTVSPropertyOp33
 70
     1
102
RTVSPropertyOp34
 70
     1
102
RTVSPropertyOp35
 70
     1
102
RTVSPropertyOp36
 70
     1
102
RTVSPropertyOp37
 70
     1
102
RTVSPropertyOp38
 70
     1
102
RTVSPropertyOp39
 70
     1
102
RTVSPropertyOp40
 70
     1
102
RTVSPropertyOp41
 70
     1
102
RTVSPropertyOp42
 70
     1
102
RTVSPropertyOp43
 70
     1
102
RTVSPropertyOp44
 70
     1
102
RTVSPropertyOp45
 70
     1
102
RTVSPropertyOp46
 70
     1
102
RTVSPropertyOp47
 70
     1
102
RTVSPropertyOp48
 70
     1
102
RTVSPropertyOp49
 70
     1
102
RTVSPropertyOp50
 70
     1
102
RTVSPropertyOp51
 70
     0
102
RTVSPropertyOp52
 70
     0
102
RTVSPropertyOp53
 70
     1
102
RTVSPropertyOp54
 70
     1
102
RTVSPropertyOp55
 70
     1
102
RTVSPropertyOp56
 70
     1
102
RTVSPropertyOp57
 70
     1
102
RTVSPropertyOp58
 70
     1
102
RTVSPropertyOp59
 70
     1
102
RTVSPropertyOp60
 70
     1
102
RTVSPropertyOp61
 70
     1
102
RTVSPropertyOp62
 70
     1
  0
ENDSEC
  0
EOF
