  0
SECTION
  2
HEADER
  9
$ACADVER
  1
AC1015
  9
$ACADMAINTVER
 70
    20
  9
$DWGCODEPAGE
  3
ANSI_932
  9
$INSBASE
 10
0.0
 20
0.0
 30
0.0
  9
$EXTMIN
 10
9.99995
 20
9.999999999999998
 30
0.0
  9
$EXTMAX
 10
490.2210019999998
 20
322.0
 30
0.0
  9
$LIMMIN
 10
0.0
 20
0.0
  9
$LIMMAX
 10
495.0
 20
341.25
  9
$ORTHOMODE
 70
     0
  9
$REGENMODE
 70
     1
  9
$FILLMODE
 70
     1
  9
$QTEXTMODE
 70
     0
  9
$MIRRTEXT
 70
     1
  9
$LTSCALE
 40
20.0
  9
$ATTMODE
 70
     1
  9
$TEXTSIZE
 40
5.0
  9
$TRACEWID
 40
1.0
  9
$TEXTSTYLE
  7
STANDARD
  9
$CLAYER
  8
0
  9
$CELTYPE
  6
BYLAYER
  9
$CECOLOR
 62
   256
  9
$CELTSCALE
 40
1.0
  9
$DISPSILH
 70
     0
  9
$DIMSCALE
 40
1.0
  9
$DIMASZ
 40
3.0
  9
$DIMEXO
 40
1.0
  9
$DIMDLI
 40
10.0
  9
$DIMRND
 40
0.0
  9
$DIMDLE
 40
0.0
  9
$DIMEXE
 40
1.0
  9
$DIMTP
 40
0.0
  9
$DIMTM
 40
0.0
  9
$DIMTXT
 40
3.2
  9
$DIMCEN
 40
0.0
  9
$DIMTSZ
 40
0.0
  9
$DIMTOL
 70
     0
  9
$DIMLIM
 70
     0
  9
$DIMTIH
 70
     0
  9
$DIMTOH
 70
     0
  9
$DIMSE1
 70
     0
  9
$DIMSE2
 70
     0
  9
$DIMTAD
 70
     3
  9
$DIMZIN
 70
     8
  9
$DIMBLK
  1

  9
$DIMASO
 70
     1
  9
$DIMSHO
 70
     1
  9
$DIMPOST
  1

  9
$DIMAPOST
  1

  9
$DIMALT
 70
     0
  9
$DIMALTD
 70
     2
  9
$DIMALTF
 40
25.4
  9
$DIMLFAC
 40
1.0
  9
$DIMTOFL
 70
     1
  9
$DIMTVP
 40
0.0
  9
$DIMTIX
 70
     0
  9
$DIMSOXD
 70
     0
  9
$DIMSAH
 70
     1
  9
$DIMBLK1
  1
OPEN
  9
$DIMBLK2
  1
OPEN
  9
$DIMSTYLE
  2
STANDARD
  9
$DIMCLRD
 70
     0
  9
$DIMCLRE
 70
     0
  9
$DIMCLRT
 70
     0
  9
$DIMTFAC
 40
1.0
  9
$DIMGAP
 40
1.0
  9
$DIMJUST
 70
     0
  9
$DIMSD1
 70
     0
  9
$DIMSD2
 70
     0
  9
$DIMTOLJ
 70
     1
  9
$DIMTZIN
 70
     0
  9
$DIMALTZ
 70
     0
  9
$DIMALTTZ
 70
     0
  9
$DIMUPT
 70
     0
  9
$DIMDEC
 70
     4
  9
$DIMTDEC
 70
     4
  9
$DIMALTU
 70
     2
  9
$DIMALTTD
 70
     2
  9
$DIMTXSTY
  7
STANDARD
  9
$DIMAUNIT
 70
     0
  9
$DIMADEC
 70
     0
  9
$DIMALTRND
 40
0.0
  9
$DIMAZIN
 70
     0
  9
$DIMDSEP
 70
    46
  9
$DIMATFIT
 70
     3
  9
$DIMFRAC
 70
     0
  9
$DIMLDRBLK
  1
OPEN
  9
$DIMLUNIT
 70
     2
  9
$DIMLWD
 70
    -2
  9
$DIMLWE
 70
    -2
  9
$DIMTMOVE
 70
     0
  9
$LUNITS
 70
     2
  9
$LUPREC
 70
     4
  9
$SKETCHINC
 40
1.0
  9
$FILLETRAD
 40
3.0
  9
$AUNITS
 70
     0
  9
$AUPREC
 70
     2
  9
$MENU
  1
.
  9
$ELEVATION
 40
0.0
  9
$PELEVATION
 40
0.0
  9
$THICKNESS
 40
0.0
  9
$LIMCHECK
 70
     0
  9
$CHAMFERA
 40
10.0
  9
$CHAMFERB
 40
10.0
  9
$CHAMFERC
 40
0.0
  9
$CHAMFERD
 40
0.0
  9
$SKPOLY
 70
     0
  9
$TDCREATE
 40
2451302.480196875
  9
$TDUCREATE
 40
2451302.105196875
  9
$TDUPDATE
 40
2457192.686697512
  9
$TDUUPDATE
 40
2457192.311697512
  9
$TDINDWG
 40
0.0000126505
  9
$TDUSRTIMER
 40
0.0000123380
  9
$USRTIMER
 70
     1
  9
$ANGBASE
 50
0.0
  9
$ANGDIR
 70
     0
  9
$PDMODE
 70
    34
  9
$PDSIZE
 40
0.0
  9
$PLINEWID
 40
0.0
  9
$SPLFRAME
 70
     0
  9
$SPLINETYPE
 70
     6
  9
$SPLINESEGS
 70
     8
  9
$HANDSEED
  5
17B78
  9
$SURFTAB1
 70
     6
  9
$SURFTAB2
 70
     6
  9
$SURFTYPE
 70
     6
  9
$SURFU
 70
     6
  9
$SURFV
 70
     6
  9
$UCSBASE
  2

  9
$UCSNAME
  2

  9
$UCSORG
 10
0.0
 20
0.0
 30
0.0
  9
$UCSXDIR
 10
1.0
 20
0.0
 30
0.0
  9
$UCSYDIR
 10
0.0
 20
1.0
 30
0.0
  9
$UCSORTHOREF
  2

  9
$UCSORTHOVIEW
 70
     0
  9
$UCSORGTOP
 10
0.0
 20
0.0
 30
0.0
  9
$UCSORGBOTTOM
 10
0.0
 20
0.0
 30
0.0
  9
$UCSORGLEFT
 10
0.0
 20
0.0
 30
0.0
  9
$UCSORGRIGHT
 10
0.0
 20
0.0
 30
0.0
  9
$UCSORGFRONT
 10
0.0
 20
0.0
 30
0.0
  9
$UCSORGBACK
 10
0.0
 20
0.0
 30
0.0
  9
$PUCSBASE
  2

  9
$PUCSNAME
  2

  9
$PUCSORG
 10
0.0
 20
0.0
 30
0.0
  9
$PUCSXDIR
 10
1.0
 20
0.0
 30
0.0
  9
$PUCSYDIR
 10
0.0
 20
1.0
 30
0.0
  9
$PUCSORTHOREF
  2

  9
$PUCSORTHOVIEW
 70
     0
  9
$PUCSORGTOP
 10
0.0
 20
0.0
 30
0.0
  9
$PUCSORGBOTTOM
 10
0.0
 20
0.0
 30
0.0
  9
$PUCSORGLEFT
 10
0.0
 20
0.0
 30
0.0
  9
$PUCSORGRIGHT
 10
0.0
 20
0.0
 30
0.0
  9
$PUCSORGFRONT
 10
0.0
 20
0.0
 30
0.0
  9
$PUCSORGBACK
 10
0.0
 20
0.0
 30
0.0
  9
$USERI1
 70
     0
  9
$USERI2
 70
     0
  9
$USERI3
 70
     0
  9
$USERI4
 70
     0
  9
$USERI5
 70
     0
  9
$USERR1
 40
0.0
  9
$USERR2
 40
0.0
  9
$USERR3
 40
0.0
  9
$USERR4
 40
0.0
  9
$USERR5
 40
0.0
  9
$WORLDVIEW
 70
     1
  9
$SHADEDGE
 70
     3
  9
$SHADEDIF
 70
    70
  9
$TILEMODE
 70
     1
  9
$MAXACTVP
 70
    16
  9
$PINSBASE
 10
0.0
 20
0.0
 30
0.0
  9
$PLIMCHECK
 70
     0
  9
$PEXTMIN
 10
1.000000000000000E+20
 20
1.000000000000000E+20
 30
1.000000000000000E+20
  9
$PEXTMAX
 10
-1.000000000000000E+20
 20
-1.000000000000000E+20
 30
-1.000000000000000E+20
  9
$PLIMMIN
 10
0.0
 20
0.0
  9
$PLIMMAX
 10
420.0
 20
297.0
  9
$UNITMODE
 70
     0
  9
$VISRETAIN
 70
     0
  9
$PLINEGEN
 70
     0
  9
$PSLTSCALE
 70
     0
  9
$TREEDEPTH
 70
  3020
  9
$CMLSTYLE
  2
STANDARD
  9
$CMLJUST
 70
     0
  9
$CMLSCALE
 40
1.0
  9
$PROXYGRAPHICS
 70
     1
  9
$MEASUREMENT
 70
     0
  9
$CELWEIGHT
370
    -1
  9
$ENDCAPS
280
     0
  9
$JOINSTYLE
280
     0
  9
$LWDISPLAY
290
     0
  9
$INSUNITS
 70
     0
  9
$HYPERLINKBASE
  1

  9
$STYLESHEET
  1

  9
$XEDIT
290
     1
  9
$CEPSNTYPE
380
     0
  9
$PSTYLEMODE
290
     1
  9
$FINGERPRINTGUID
  2
{B0C5DB9E-319E-47EB-AD25-319BC47F0172}
  9
$VERSIONGUID
  2
{1A0CF465-2AA6-440E-AC2F-3060B04B54D3}
  9
$EXTNAMES
290
     1
  9
$PSVPSCALE
 40
0.0
  9
$OLESTARTUP
290
     0
  0
ENDSEC
  0
SECTION
  2
CLASSES
  0
CLASS
  1
ACDBDICTIONARYWDFLT
  2
AcDbDictionaryWithDefault
  3
ObjectDBX Classes
 90
        0
280
     0
281
     0
  0
CLASS
  1
ACDBPLACEHOLDER
  2
AcDbPlaceHolder
  3
ObjectDBX Classes
 90
        0
280
     0
281
     0
  0
CLASS
  1
LAYOUT
  2
AcDbLayout
  3
ObjectDBX Classes
 90
        0
280
     0
281
     0
  0
CLASS
  1
DICTIONARYVAR
  2
AcDbDictionaryVar
  3
ObjectDBX Classes
 90
        0
280
     0
281
     0
  0
CLASS
  1
MATERIAL
  2
AcDbMaterial
  3
ObjectDBX Classes
 90
     1153
280
     0
281
     0
  0
CLASS
  1
VISUALSTYLE
  2
AcDbVisualStyle
  3
ObjectDBX Classes
 90
     4095
280
     0
281
     0
  0
CLASS
  1
TABLESTYLE
  2
AcDbTableStyle
  3
ObjectDBX Classes
 90
     4095
280
     0
281
     0
  0
CLASS
  1
SCALE
  2
AcDbScale
  3
ObjectDBX Classes
 90
     1153
280
     0
281
     0
  0
CLASS
  1
MLEADERSTYLE
  2
AcDbMLeaderStyle
  3
ACDB_MLEADERSTYLE_CLASS
 90
     4095
280
     0
281
     0
  0
CLASS
  1
ACDBSECTIONVIEWSTYLE
  2
AcDbSectionViewStyle
  3
ObjectDBX Classes
 90
     1025
280
     0
281
     0
  0
CLASS
  1
ACDBDETAILVIEWSTYLE
  2
AcDbDetailViewStyle
  3
ObjectDBX Classes
 90
     1025
280
     0
281
     0
  0
CLASS
  1
CELLSTYLEMAP
  2
AcDbCellStyleMap
  3
ObjectDBX Classes
 90
     1152
280
     0
281
     0
  0
ENDSEC
  0
SECTION
  2
TABLES
  0
TABLE
  2
VPORT
  5
176C1
330
0
100
AcDbSymbolTable
 70
     1
  0
VPORT
  5
17AC1
330
176C1
100
AcDbSymbolTableRecord
100
AcDbViewportTableRecord
  2
*ACTIVE
 70
     0
 10
0.0
 20
0.0
 11
1.0
 21
1.0
 12
344.6339223467774
 22
166.003733470429
 13
0.0
 23
0.0
 14
10.0
 24
10.0
 15
10.0
 25
10.0
 16
0.0
 26
0.0
 36
1.0
 17
0.0
 27
0.0
 37
0.0
 40
315.4810567901847
 41
2.35006605019815
 42
50.0
 43
0.0
 44
0.0
 50
0.0
 51
0.0
 71
     0
 72
   100
 73
     1
 74
     0
 75
     0
 76
     0
 77
     0
 78
     0
281
     0
 65
     1
110
0.0
120
0.0
130
0.0
111
1.0
121
0.0
131
0.0
112
0.0
122
1.0
132
0.0
 79
     0
146
0.0
1001
ACAD_NAV_VCDISPLAY
1070
     3
  0
ENDTAB
  0
TABLE
  2
LTYPE
  5
176BE
330
0
100
AcDbSymbolTable
 70
     4
  0
LTYPE
  5
176CC
330
176BE
100
AcDbSymbolTableRecord
100
AcDbLinetypeTableRecord
  2
BYBLOCK
 70
     0
  3

 72
    65
 73
     0
 40
0.0
  0
LTYPE
  5
176CD
330
176BE
100
AcDbSymbolTableRecord
100
AcDbLinetypeTableRecord
  2
BYLAYER
 70
     0
  3

 72
    65
 73
     0
 40
0.0
  0
LTYPE
  5
176CE
330
176BE
100
AcDbSymbolTableRecord
100
AcDbLinetypeTableRecord
  2
CONTINUOUS
 70
     0
  3
Solid line
 72
    65
 73
     0
 40
0.0
  0
LTYPE
  5
176DC
330
176BE
100
AcDbSymbolTableRecord
100
AcDbLinetypeTableRecord
  2
DASHED
 70
     0
  3
__ __ __ __ __ __ __ __ __ __ __ __ __ __ __ __
 72
    65
 73
     2
 40
0.75
 49
0.5
 74
     0
 49
-0.25
 74
     0
  0
LTYPE
  5
176DD
330
176BE
100
AcDbSymbolTableRecord
100
AcDbLinetypeTableRecord
  2
CENTER
 70
     0
  3
____ _ ____ _ ____ _ ____ _ ____ _ ____ _ ____ 
 72
    65
 73
     4
 40
2.0
 49
1.25
 74
     0
 49
-0.25
 74
     0
 49
0.25
 74
     0
 49
-0.25
 74
     0
  0
LTYPE
  5
176DE
330
176BE
100
AcDbSymbolTableRecord
100
AcDbLinetypeTableRecord
  2
PHANTOM
 70
     0
  3
______  __  __  ______  __  __  ______  __  __ 
 72
    65
 73
     6
 40
2.5
 49
1.25
 74
     0
 49
-0.25
 74
     0
 49
0.25
 74
     0
 49
-0.25
 74
     0
 49
0.25
 74
     0
 49
-0.25
 74
     0
  0
ENDTAB
  0
TABLE
  2
LAYER
  5
176BB
330
0
100
AcDbSymbolTable
 70
     8
  0
LAYER
  5
176C9
102
{ACAD_XDICTIONARY
360
17B1C
102
}
330
176BB
100
AcDbSymbolTableRecord
100
AcDbLayerTableRecord
  2
0
 70
     0
 62
     7
  6
CONTINUOUS
370
    -3
390
17ACA
  0
LAYER
  5
176DF
102
{ACAD_XDICTIONARY
360
17B1E
102
}
330
176BB
100
AcDbSymbolTableRecord
100
AcDbLayerTableRecord
  2
4
 70
     0
 62
     1
  6
CENTER
370
    -3
390
17ACA
  0
LAYER
  5
176E0
102
{ACAD_XDICTIONARY
360
17B20
102
}
330
176BB
100
AcDbSymbolTableRecord
100
AcDbLayerTableRecord
  2
5
 70
     0
 62
     6
  6
PHANTOM
370
    -3
390
17ACA
  0
LAYER
  5
176E1
102
{ACAD_XDICTIONARY
360
17B22
102
}
330
176BB
100
AcDbSymbolTableRecord
100
AcDbLayerTableRecord
  2
1
 70
     0
 62
     7
  6
CONTINUOUS
370
    -3
390
17ACA
  0
LAYER
  5
176E2
102
{ACAD_XDICTIONARY
360
17B24
102
}
330
176BB
100
AcDbSymbolTableRecord
100
AcDbLayerTableRecord
  2
2
 70
     0
 62
     4
  6
CONTINUOUS
370
    -3
390
17ACA
  0
LAYER
  5
176E3
102
{ACAD_XDICTIONARY
360
17B26
102
}
330
176BB
100
AcDbSymbolTableRecord
100
AcDbLayerTableRecord
  2
3
 70
     0
 62
     2
  6
DASHED
370
    -3
390
17ACA
  0
LAYER
  5
176E4
102
{ACAD_XDICTIONARY
360
17B28
102
}
330
176BB
100
AcDbSymbolTableRecord
100
AcDbLayerTableRecord
  2
6
 70
     0
 62
     5
  6
CONTINUOUS
370
    -3
390
17ACA
  0
LAYER
  5
176E5
102
{ACAD_XDICTIONARY
360
17B2A
102
}
330
176BB
100
AcDbSymbolTableRecord
100
AcDbLayerTableRecord
  2
7
 70
     0
 62
     3
  6
CONTINUOUS
370
    -3
390
17ACA
  0
ENDTAB
  0
TABLE
  2
STYLE
  5
176BC
330
0
100
AcDbSymbolTable
 70
     1
  0
STYLE
  5
176CA
330
176BC
100
AcDbSymbolTableRecord
100
AcDbTextStyleTableRecord
  2
STANDARD
 70
     0
 40
0.0
 41
1.0
 50
0.0
 71
     0
 42
5.0
  3
txt
  4

  0
ENDTAB
  0
TABLE
  2
VIEW
  5
176BF
330
0
100
AcDbSymbolTable
 70
     2
  0
VIEW
  5
176E6
330
176BF
100
AcDbSymbolTableRecord
100
AcDbViewTableRecord
  2
7
 70
     0
 40
338.8708020000001
 10
326.426394
 20
169.435401
 41
652.8527889999998
 11
0.0
 21
0.0
 31
1.0
 12
0.0
 22
0.0
 32
0.0
 42
50.0
 43
0.0
 44
0.0
 50
0.0
 71
     0
281
     0
 72
     0
  0
VIEW
  5
176E7
330
176BF
100
AcDbSymbolTableRecord
100
AcDbViewTableRecord
  2
6
 70
     0
 40
267.146964
 10
253.9720659999999
 20
125.781695
 41
526.35887
 11
0.0
 21
0.0
 31
1.0
 12
0.0
 22
0.0
 32
0.0
 42
50.0
 43
0.0
 44
0.0
 50
0.0
 71
     0
281
     0
 72
     0
  0
ENDTAB
  0
TABLE
  2
UCS
  5
176C0
330
0
100
AcDbSymbolTable
 70
     0
  0
ENDTAB
  0
TABLE
  2
APPID
  5
176C2
330
0
100
AcDbSymbolTable
 70
     3
  0
APPID
  5
176CB
330
176C2
100
AcDbSymbolTableRecord
100
AcDbRegAppTableRecord
  2
ACAD
 70
     0
  0
APPID
  5
17B36
330
176C2
100
AcDbSymbolTableRecord
100
AcDbRegAppTableRecord
  2
ACAD_NAV_VCDISPLAY
 70
     0
  0
APPID
  5
17B6F
330
176C2
100
AcDbSymbolTableRecord
100
AcDbRegAppTableRecord
  2
ACAD_MLEADERVER
 70
     0
  0
ENDTAB
  0
TABLE
  2
DIMSTYLE
  5
176C3
330
0
100
AcDbSymbolTable
 70
     1
100
AcDbDimStyleTable
 71
     0
  0
DIMSTYLE
105
176E9
330
176C3
100
AcDbSymbolTableRecord
100
AcDbDimStyleTableRecord
  2
STANDARD
 70
     0
 41
3.0
 42
1.0
 43
10.0
 44
1.0
 73
     0
 74
     0
 77
     3
 78
     8
140
3.2
141
0.0
147
1.0
172
     1
173
     1
284
     8
285
     8
286
     8
340
176CA
  0
ENDTAB
  0
TABLE
  2
BLOCK_RECORD
  5
176BA
330
0
100
AcDbSymbolTable
 70
     1
  0
BLOCK_RECORD
  5
176D7
102
{ACAD_XDICTIONARY
360
17AC4
102
}
330
176BA
100
AcDbSymbolTableRecord
100
AcDbBlockTableRecord
  2
*MODEL_SPACE
340
17B18
  0
BLOCK_RECORD
  5
176D3
102
{ACAD_XDICTIONARY
360
17AC2
102
}
330
176BA
100
AcDbSymbolTableRecord
100
AcDbBlockTableRecord
  2
*PAPER_SPACE
340
17B19
  0
BLOCK_RECORD
  5
176F1
330
176BA
100
AcDbSymbolTableRecord
100
AcDbBlockTableRecord
  2
_OPEN
340
0
  0
ENDTAB
  0
ENDSEC
  0
SECTION
  2
BLOCKS
  0
BLOCK
  5
176D8
330
176D7
100
AcDbEntity
  8
0
100
AcDbBlockBegin
  2
*MODEL_SPACE
 70
     0
 10
0.0
 20
0.0
 30
0.0
  3
*MODEL_SPACE
  1

  0
ENDBLK
  5
176D9
330
176D7
100
AcDbEntity
  8
0
100
AcDbBlockEnd
  0
BLOCK
  5
176D4
330
176D3
100
AcDbEntity
 67
     1
  8
0
100
AcDbBlockBegin
  2
*PAPER_SPACE
 70
     0
 10
0.0
 20
0.0
 30
0.0
  3
*PAPER_SPACE
  1

  0
ENDBLK
  5
176D5
330
176D3
100
AcDbEntity
 67
     1
  8
0
100
AcDbBlockEnd
  0
BLOCK
  5
176F2
330
176F1
100
AcDbEntity
  8
0
100
AcDbBlockBegin
  2
_OPEN
 70
     0
 10
0.0
 20
0.0
 30
0.0
  3
_OPEN
  1

  0
LINE
  5
176F3
330
176F1
100
AcDbEntity
  8
0
  6
ByBlock
 62
     0
100
AcDbLine
 10
-1.0
 20
0.166667
 30
0.0
 11
0.0
 21
0.0
 31
0.0
  0
LINE
  5
176F4
330
176F1
100
AcDbEntity
  8
0
  6
ByBlock
 62
     0
100
AcDbLine
 10
0.0
 20
0.0
 30
0.0
 11
-1.0
 21
-0.166667
 31
0.0
  0
LINE
  5
176F5
330
176F1
100
AcDbEntity
  8
0
  6
ByBlock
 62
     0
100
AcDbLine
 10
0.0
 20
0.0
 30
0.0
 11
-1.0
 21
0.0
 31
0.0
  0
ENDBLK
  5
176F6
330
176F1
100
AcDbEntity
  8
0
100
AcDbBlockEnd
  0
ENDSEC
  0
SECTION
  2
ENTITIES
  0
TEXT
  5
176F7
330
176D7
100
AcDbEntity
  8
6
  6
Continuous
100
AcDbText
 10
27.97945
 20
10.0487
 30
0.0
 40
1.399999999999999
  1
6
 41
1.069393
100
AcDbText
  0
TEXT
  5
176F8
330
176D7
100
AcDbEntity
  8
1
  6
Continuous
100
AcDbText
 10
17.97945
 20
10.0487
 30
0.0
 40
1.399999999999999
  1
1
 41
1.069393
100
AcDbText
  0
TEXT
  5
176F9
330
176D7
100
AcDbEntity
  8
1
  6
Continuous
100
AcDbText
 10
9.99995
 20
10.0
 30
0.0
 40
1.399999999999999
  1
LAYER
 41
1.009912999999997
100
AcDbText
  0
TEXT
  5
176FA
330
176D7
100
AcDbEntity
  8
2
  6
Continuous
100
AcDbText
 10
19.97944999999998
 20
10.0487
 30
0.0
 40
1.399999999999999
  1
2
 41
1.069393
100
AcDbText
  0
TEXT
  5
176FB
330
176D7
100
AcDbEntity
  8
3
  6
DASHED
100
AcDbText
 10
21.97945
 20
10.0487
 30
0.0
 40
1.399999999999999
  1
3
 41
1.069393
100
AcDbText
  0
TEXT
  5
176FC
330
176D7
100
AcDbEntity
  8
4
  6
CENTER
100
AcDbText
 10
23.97944999999999
 20
10.0487
 30
0.0
 40
1.399999999999999
  1
4
 41
1.069393
100
AcDbText
  0
TEXT
  5
176FD
330
176D7
100
AcDbEntity
  8
5
  6
PHANTOM
100
AcDbText
 10
25.97945
 20
10.0487
 30
0.0
 40
1.399999999999999
  1
5
 41
1.069393
100
AcDbText
  0
TEXT
  5
176FE
330
176D7
100
AcDbEntity
  8
7
  6
Continuous
100
AcDbText
 10
10.00005
 20
26.0
 30
0.0
 40
3.0
  1
CODE No.9107
 41
1.003962999999999
100
AcDbText
  0
TEXT
  5
176FF
330
176D7
100
AcDbEntity
  8
7
  6
Continuous
100
AcDbText
 10
10.00005
 20
18.0
 30
0.0
 40
3.0
  1
TYPE No.104JH-PS
 41
1.002350999999998
100
AcDbText
  0
TEXT
  5
17700
330
176D7
100
AcDbEntity
  8
7
  6
Continuous
100
AcDbText
 10
29.97944999999999
 20
10.0487
 30
0.0
 40
1.399999999999999
  1
7
 41
1.069393
100
AcDbText
  0
LINE
  5
17701
330
176D7
100
AcDbEntity
  8
4
  6
CENTER
100
AcDbLine
 10
89.19999999999998
 20
170.0
 30
0.0
 11
29.19999999999999
 21
170.0
 31
0.0
  0
LINE
  5
17702
330
176D7
100
AcDbEntity
  8
1
  6
Continuous
100
AcDbLine
 10
41.0
 20
197.944747
 30
0.0
 11
42.155253
 21
199.0999999999999
 31
0.0
  0
LINE
  5
17703
330
176D7
100
AcDbEntity
  8
1
  6
Continuous
100
AcDbLine
 10
43.066234
 20
203.2
 30
0.0
 11
40.566234
 21
205.6999999999999
 31
0.0
  0
LINE
  5
17704
330
176D7
100
AcDbEntity
  8
1
  6
Continuous
100
AcDbLine
 10
40.566234
 20
203.2
 30
0.0
 11
43.066234
 21
205.6999999999999
 31
0.0
  0
LINE
  5
17705
330
176D7
100
AcDbEntity
  8
1
  6
Continuous
100
AcDbLine
 10
72.0
 20
200.8999999999999
 30
0.0
 11
42.0
 21
200.8999999999999
 31
0.0
  0
LINE
  5
17706
330
176D7
100
AcDbEntity
  8
1
  6
Continuous
100
AcDbLine
 10
80.5
 20
203.2
 30
0.0
 11
33.5
 21
203.2
 31
0.0
  0
LINE
  5
17707
330
176D7
100
AcDbEntity
  8
1
  6
Continuous
100
AcDbLine
 10
80.5
 20
205.6999999999999
 30
0.0
 11
33.5
 21
205.6999999999999
 31
0.0
  0
LINE
  5
17708
330
176D7
100
AcDbEntity
  8
1
  6
Continuous
100
AcDbLine
 10
80.5
 20
206.6999999999999
 30
0.0
 11
33.5
 21
206.6999999999999
 31
0.0
  0
LINE
  5
17709
330
176D7
100
AcDbEntity
  8
1
  6
Continuous
100
AcDbLine
 10
77.0
 20
208.6999999999999
 30
0.0
 11
37.0
 21
208.6999999999999
 31
0.0
  0
LINE
  5
1770A
330
176D7
100
AcDbEntity
  8
1
  6
Continuous
100
AcDbLine
 10
89.0
 20
210.6999999999999
 30
0.0
 11
25.0
 21
210.6999999999999
 31
0.0
  0
LINE
  5
1770B
330
176D7
100
AcDbEntity
  8
1
  6
Continuous
100
AcDbLine
 10
89.0
 20
213.0
 30
0.0
 11
25.0
 21
213.0
 31
0.0
  0
LINE
  5
1770C
330
176D7
100
AcDbEntity
  8
1
  6
Continuous
100
AcDbLine
 10
400.0
 20
210.6999999999999
 30
0.0
 11
464.0
 21
210.6999999999999
 31
0.0
  0
LINE
  5
1770D
330
176D7
100
AcDbEntity
  8
1
  6
Continuous
100
AcDbLine
 10
400.0
 20
213.0
 30
0.0
 11
464.0
 21
213.0
 31
0.0
  0
LINE
  5
1770E
330
176D7
100
AcDbEntity
  8
1
  6
Continuous
100
AcDbLine
 10
400.0
 20
213.0
 30
0.0
 11
400.0
 21
210.6999999999999
 31
0.0
  0
LINE
  5
1770F
330
176D7
100
AcDbEntity
  8
4
  6
CENTER
100
AcDbLine
 10
457.0
 20
140.0
 30
0.0
 11
457.0
 21
200.0
 31
0.0
  0
LINE
  5
17710
330
176D7
100
AcDbEntity
  8
4
  6
CENTER
100
AcDbLine
 10
427.0
 20
170.0
 30
0.0
 11
487.0
 21
170.0
 31
0.0
  0
ARC
  5
17711
330
176D7
100
AcDbEntity
  8
1
  6
Continuous
100
AcDbCircle
 10
456.557919
 20
171.433375
 30
0.0
 40
11.5
100
AcDbArc
 50
287.140775
 51
16.762554
  0
LINE
  5
17712
330
176D7
100
AcDbEntity
  8
1
  6
Continuous
100
AcDbLine
 10
459.0
 20
203.2
 30
0.0
 11
467.569264
 21
174.7500449999998
 31
0.0
  0
LINE
  5
17713
330
176D7
100
AcDbEntity
  8
4
  6
CENTER
100
AcDbLine
 10
432.0
 20
176.4602689999999
 30
0.0
 11
432.0
 21
218.0
 31
0.0
  0
LINE
  5
17714
330
176D7
100
AcDbEntity
  8
1
  6
Continuous
100
AcDbLine
 10
448.0
 20
199.098503
 30
0.0
 11
448.0
 21
167.88369
 31
0.0
  0
ARC
  5
17715
330
176D7
100
AcDbEntity
  8
1
  6
Continuous
100
AcDbCircle
 10
416.8807909999999
 20
186.6999999999999
 30
0.0
 40
10.0
100
AcDbArc
 50
40.00004699999997
 51
90.0
  0
LINE
  5
17716
330
176D7
100
AcDbEntity
  8
1
  6
Continuous
100
AcDbLine
 10
424.5412299999999
 20
193.1278819999998
 30
0.0
 11
449.2298269999998
 21
163.705207
 31
0.0
  0
LINE
  5
17717
330
176D7
100
AcDbEntity
  8
1
  6
Continuous
100
AcDbLine
 10
424.060094
 20
193.6611499999999
 30
0.0
 11
420.729401
 21
193.6619029999999
 31
0.0
  0
ARC
  5
17718
330
176D7
100
AcDbEntity
  8
1
  6
Continuous
100
AcDbCircle
 10
420.7341169999998
 20
214.5209009999999
 30
0.0
 40
20.85899799999999
100
AcDbArc
 50
268.368019
 51
269.987046
  0
CIRCLE
  5
17719
330
176D7
100
AcDbEntity
  8
1
  6
Continuous
100
AcDbCircle
 10
457.0
 20
170.0
 30
0.0
 40
7.0
  0
ARC
  5
1771A
330
176D7
100
AcDbEntity
  8
1
  6
Continuous
100
AcDbCircle
 10
457.0
 20
170.0
 30
0.0
 40
10.0
100
AcDbArc
 50
219.011714
 51
287.140775
  0
LINE
  5
1771B
330
176D7
100
AcDbEntity
  8
1
  6
Continuous
100
AcDbLine
 10
435.705844
 20
203.2
 30
0.0
 11
433.2058439999998
 21
205.6999999999999
 31
0.0
  0
LINE
  5
1771C
330
176D7
100
AcDbEntity
  8
1
  6
Continuous
100
AcDbLine
 10
433.584524
 20
203.2
 30
0.0
 11
431.0845239999999
 21
205.6999999999999
 31
0.0
  0
LINE
  5
1771D
330
176D7
100
AcDbEntity
  8
1
  6
Continuous
100
AcDbLine
 10
433.2058439999998
 20
203.2
 30
0.0
 11
435.705844
 21
205.6999999999999
 31
0.0
  0
LINE
  5
1771E
330
176D7
100
AcDbEntity
  8
1
  6
Continuous
100
AcDbLine
 10
431.0845239999999
 20
203.2
 30
0.0
 11
433.584524
 21
205.6999999999999
 31
0.0
  0
LINE
  5
1771F
330
176D7
100
AcDbEntity
  8
1
  6
Continuous
100
AcDbLine
 10
408.4999999999998
 20
203.2
 30
0.0
 11
462.0
 21
203.2
 31
0.0
  0
LINE
  5
17720
330
176D7
100
AcDbEntity
  8
1
  6
Continuous
100
AcDbLine
 10
408.4999999999998
 20
205.6999999999999
 30
0.0
 11
455.4999999999998
 21
205.6999999999999
 31
0.0
  0
LINE
  5
17721
330
176D7
100
AcDbEntity
  8
1
  6
Continuous
100
AcDbLine
 10
408.4999999999998
 20
206.6999999999999
 30
0.0
 11
455.4999999999998
 21
206.6999999999999
 31
0.0
  0
LINE
  5
17722
330
176D7
100
AcDbEntity
  8
1
  6
Continuous
100
AcDbLine
 10
412.0
 20
208.6999999999999
 30
0.0
 11
452.0
 21
208.6999999999999
 31
0.0
  0
LINE
  5
17723
330
176D7
100
AcDbEntity
  8
1
  6
Continuous
100
AcDbLine
 10
418.735281
 20
203.2
 30
0.0
 11
416.2352809999998
 21
205.6999999999999
 31
0.0
  0
LINE
  5
17724
330
176D7
100
AcDbEntity
  8
1
  6
Continuous
100
AcDbLine
 10
416.2352809999998
 20
203.2
 30
0.0
 11
418.735281
 21
205.6999999999999
 31
0.0
  0
ARC
  5
17725
330
176D7
100
AcDbEntity
  8
1
  6
Continuous
100
AcDbCircle
 10
412.0
 20
218.6999999999999
 30
0.0
 40
10.0
100
AcDbArc
 50
233.130102
 51
270.0
  0
ARC
  5
17726
330
176D7
100
AcDbEntity
  8
1
  6
Continuous
100
AcDbCircle
 10
412.0
 20
207.2
 30
0.0
 40
1.5
100
AcDbArc
 50
90.0
 51
180.0
  0
LINE
  5
17727
330
176D7
100
AcDbEntity
  8
1
  6
Continuous
100
AcDbLine
 10
407.5
 20
196.6999999999999
 30
0.0
 11
416.8807909999999
 21
196.6999999999999
 31
0.0
  0
ARC
  5
17728
330
176D7
100
AcDbEntity
  8
1
  6
Continuous
100
AcDbCircle
 10
409.4999999999997
 20
201.2
 30
0.0
 40
2.0
100
AcDbArc
 50
90.0
 51
180.0
  0
LINE
  5
17729
330
176D7
100
AcDbEntity
  8
1
  6
Continuous
100
AcDbLine
 10
407.5
 20
196.6999999999999
 30
0.0
 11
407.5
 21
201.2
 31
0.0
  0
LINE
  5
1772A
330
176D7
100
AcDbEntity
  8
1
  6
Continuous
100
AcDbLine
 10
414.492641
 20
203.2
 30
0.0
 11
411.9926409999997
 21
205.6999999999999
 31
0.0
  0
LINE
  5
1772B
330
176D7
100
AcDbEntity
  8
1
  6
Continuous
100
AcDbLine
 10
411.9926409999997
 20
203.2
 30
0.0
 11
414.492641
 21
205.6999999999999
 31
0.0
  0
LINE
  5
1772C
330
176D7
100
AcDbEntity
  8
1
  6
Continuous
100
AcDbLine
 10
412.37132
 20
203.2
 30
0.0
 11
409.87132
 21
205.6999999999999
 31
0.0
  0
LINE
  5
1772D
330
176D7
100
AcDbEntity
  8
1
  6
Continuous
100
AcDbLine
 10
410.25
 20
203.2
 30
0.0
 11
408.4999999999998
 21
204.95
 31
0.0
  0
LINE
  5
1772E
330
176D7
100
AcDbEntity
  8
1
  6
Continuous
100
AcDbLine
 10
409.87132
 20
203.2
 30
0.0
 11
412.37132
 21
205.6999999999999
 31
0.0
  0
LINE
  5
1772F
330
176D7
100
AcDbEntity
  8
1
  6
Continuous
100
AcDbLine
 10
410.25
 20
205.6999999999999
 30
0.0
 11
408.4999999999998
 21
203.9499999999999
 31
0.0
  0
LINE
  5
17730
330
176D7
100
AcDbEntity
  8
1
  6
Continuous
100
AcDbLine
 10
410.5
 20
206.6999999999999
 30
0.0
 11
410.5
 21
207.2
 31
0.0
  0
LINE
  5
17731
330
176D7
100
AcDbEntity
  8
1
  6
Continuous
100
AcDbLine
 10
416.613961
 20
203.2
 30
0.0
 11
414.1139609999998
 21
205.6999999999999
 31
0.0
  0
LINE
  5
17732
330
176D7
100
AcDbEntity
  8
1
  6
Continuous
100
AcDbLine
 10
414.1139609999998
 20
203.2
 30
0.0
 11
416.613961
 21
205.6999999999999
 31
0.0
  0
LINE
  5
17733
330
176D7
100
AcDbEntity
  8
4
  6
CENTER
100
AcDbLine
 10
407.0
 20
208.4
 30
0.0
 11
407.0
 21
215.3
 31
0.0
  0
LINE
  5
17734
330
176D7
100
AcDbEntity
  8
1
  6
Continuous
100
AcDbLine
 10
427.220563
 20
203.2
 30
0.0
 11
424.7205629999998
 21
205.6999999999999
 31
0.0
  0
LINE
  5
17735
330
176D7
100
AcDbEntity
  8
1
  6
Continuous
100
AcDbLine
 10
424.7205629999998
 20
203.2
 30
0.0
 11
427.220563
 21
205.6999999999999
 31
0.0
  0
LINE
  5
17736
330
176D7
100
AcDbEntity
  8
1
  6
Continuous
100
AcDbLine
 10
422.977922
 20
203.2
 30
0.0
 11
420.4779219999998
 21
205.6999999999999
 31
0.0
  0
LINE
  5
17737
330
176D7
100
AcDbEntity
  8
1
  6
Continuous
100
AcDbLine
 10
420.4779219999998
 20
203.2
 30
0.0
 11
422.977922
 21
205.6999999999999
 31
0.0
  0
LINE
  5
17738
330
176D7
100
AcDbEntity
  8
1
  6
Continuous
100
AcDbLine
 10
420.8566019999998
 20
203.2
 30
0.0
 11
418.3566019999998
 21
205.6999999999999
 31
0.0
  0
LINE
  5
17739
330
176D7
100
AcDbEntity
  8
1
  6
Continuous
100
AcDbLine
 10
418.3566019999998
 20
203.2
 30
0.0
 11
420.8566019999998
 21
205.6999999999999
 31
0.0
  0
LINE
  5
1773A
330
176D7
100
AcDbEntity
  8
1
  6
Continuous
100
AcDbLine
 10
425.099242
 20
203.2
 30
0.0
 11
422.5992419999998
 21
205.6999999999999
 31
0.0
  0
LINE
  5
1773B
330
176D7
100
AcDbEntity
  8
1
  6
Continuous
100
AcDbLine
 10
422.5992419999998
 20
203.2
 30
0.0
 11
425.099242
 21
205.6999999999999
 31
0.0
  0
LINE
  5
1773C
330
176D7
100
AcDbEntity
  8
1
  6
Continuous
100
AcDbLine
 10
431.463203
 20
203.2
 30
0.0
 11
428.9632029999999
 21
205.6999999999999
 31
0.0
  0
LINE
  5
1773D
330
176D7
100
AcDbEntity
  8
1
  6
Continuous
100
AcDbLine
 10
428.9632029999999
 20
203.2
 30
0.0
 11
431.463203
 21
205.6999999999999
 31
0.0
  0
LINE
  5
1773E
330
176D7
100
AcDbEntity
  8
1
  6
Continuous
100
AcDbLine
 10
429.341883
 20
203.2
 30
0.0
 11
426.8418829999998
 21
205.6999999999999
 31
0.0
  0
LINE
  5
1773F
330
176D7
100
AcDbEntity
  8
1
  6
Continuous
100
AcDbLine
 10
426.8418829999998
 20
203.2
 30
0.0
 11
429.341883
 21
205.6999999999999
 31
0.0
  0
LINE
  5
17740
330
176D7
100
AcDbEntity
  8
1
  6
Continuous
100
AcDbLine
 10
450.555087
 20
203.2
 30
0.0
 11
448.055087
 21
205.6999999999999
 31
0.0
  0
LINE
  5
17741
330
176D7
100
AcDbEntity
  8
1
  6
Continuous
100
AcDbLine
 10
448.055087
 20
203.2
 30
0.0
 11
450.555087
 21
205.6999999999999
 31
0.0
  0
LINE
  5
17742
330
176D7
100
AcDbEntity
  8
1
  6
Continuous
100
AcDbLine
 10
444.191126
 20
203.2
 30
0.0
 11
441.691126
 21
205.6999999999999
 31
0.0
  0
LINE
  5
17743
330
176D7
100
AcDbEntity
  8
1
  6
Continuous
100
AcDbLine
 10
442.0698049999998
 20
203.2
 30
0.0
 11
439.569805
 21
205.6999999999999
 31
0.0
  0
LINE
  5
17744
330
176D7
100
AcDbEntity
  8
1
  6
Continuous
100
AcDbLine
 10
441.691126
 20
203.2
 30
0.0
 11
444.191126
 21
205.6999999999999
 31
0.0
  0
LINE
  5
17745
330
176D7
100
AcDbEntity
  8
1
  6
Continuous
100
AcDbLine
 10
439.569805
 20
203.2
 30
0.0
 11
442.0698049999998
 21
205.6999999999999
 31
0.0
  0
LINE
  5
17746
330
176D7
100
AcDbEntity
  8
1
  6
Continuous
100
AcDbLine
 10
439.9484849999998
 20
203.2
 30
0.0
 11
437.4484849999998
 21
205.6999999999999
 31
0.0
  0
LINE
  5
17747
330
176D7
100
AcDbEntity
  8
1
  6
Continuous
100
AcDbLine
 10
437.827164
 20
203.2
 30
0.0
 11
435.3271639999999
 21
205.6999999999999
 31
0.0
  0
LINE
  5
17748
330
176D7
100
AcDbEntity
  8
1
  6
Continuous
100
AcDbLine
 10
437.4484849999998
 20
203.2
 30
0.0
 11
439.9484849999998
 21
205.6999999999999
 31
0.0
  0
LINE
  5
17749
330
176D7
100
AcDbEntity
  8
1
  6
Continuous
100
AcDbLine
 10
435.3271639999999
 20
203.2
 30
0.0
 11
437.827164
 21
205.6999999999999
 31
0.0
  0
LINE
  5
1774A
330
176D7
100
AcDbEntity
  8
1
  6
Continuous
100
AcDbLine
 10
446.312446
 20
203.2
 30
0.0
 11
443.812446
 21
205.6999999999999
 31
0.0
  0
LINE
  5
1774B
330
176D7
100
AcDbEntity
  8
1
  6
Continuous
100
AcDbLine
 10
443.812446
 20
203.2
 30
0.0
 11
446.312446
 21
205.6999999999999
 31
0.0
  0
LINE
  5
1774C
330
176D7
100
AcDbEntity
  8
1
  6
Continuous
100
AcDbLine
 10
448.433766
 20
203.2
 30
0.0
 11
445.933766
 21
205.6999999999999
 31
0.0
  0
LINE
  5
1774D
330
176D7
100
AcDbEntity
  8
1
  6
Continuous
100
AcDbLine
 10
445.933766
 20
203.2
 30
0.0
 11
448.433766
 21
205.6999999999999
 31
0.0
  0
ARC
  5
1774E
330
176D7
100
AcDbEntity
  8
1
  6
Continuous
100
AcDbCircle
 10
452.0
 20
218.6999999999999
 30
0.0
 40
10.0
100
AcDbArc
 50
270.0
 51
306.8698979999999
  0
ARC
  5
1774F
330
176D7
100
AcDbEntity
  8
1
  6
Continuous
100
AcDbCircle
 10
452.0
 20
207.2
 30
0.0
 40
1.5
100
AcDbArc
 50
0.0
 51
90.0
  0
LINE
  5
17750
330
176D7
100
AcDbEntity
  8
1
  6
Continuous
100
AcDbLine
 10
454.7977269999998
 20
203.2
 30
0.0
 11
452.2977269999998
 21
205.6999999999999
 31
0.0
  0
LINE
  5
17751
330
176D7
100
AcDbEntity
  8
1
  6
Continuous
100
AcDbLine
 10
452.2977269999998
 20
203.2
 30
0.0
 11
454.7977269999998
 21
205.6999999999999
 31
0.0
  0
LINE
  5
17752
330
176D7
100
AcDbEntity
  8
1
  6
Continuous
100
AcDbLine
 10
452.6764069999998
 20
203.2
 30
0.0
 11
450.176407
 21
205.6999999999999
 31
0.0
  0
LINE
  5
17753
330
176D7
100
AcDbEntity
  8
1
  6
Continuous
100
AcDbLine
 10
450.176407
 20
203.2
 30
0.0
 11
452.6764069999998
 21
205.6999999999999
 31
0.0
  0
LINE
  5
17754
330
176D7
100
AcDbEntity
  8
1
  6
Continuous
100
AcDbLine
 10
453.5
 20
206.6999999999999
 30
0.0
 11
453.5
 21
207.2
 31
0.0
  0
LINE
  5
17755
330
176D7
100
AcDbEntity
  8
1
  6
Continuous
100
AcDbLine
 10
455.4999999999998
 20
204.6190479999999
 30
0.0
 11
454.419048
 21
205.6999999999999
 31
0.0
  0
LINE
  5
17756
330
176D7
100
AcDbEntity
  8
1
  6
Continuous
100
AcDbLine
 10
454.419048
 20
203.2
 30
0.0
 11
455.4999999999998
 21
204.280952
 31
0.0
  0
LINE
  5
17757
330
176D7
100
AcDbEntity
  8
1
  6
Continuous
100
AcDbLine
 10
462.0
 20
200.8999999999999
 30
0.0
 11
462.0
 21
203.2
 31
0.0
  0
LINE
  5
17758
330
176D7
100
AcDbEntity
  8
1
  6
Continuous
100
AcDbLine
 10
459.692771
 20
200.8999999999999
 30
0.0
 11
462.0
 21
200.8999999999999
 31
0.0
  0
LINE
  5
17759
330
176D7
100
AcDbEntity
  8
4
  6
CENTER
100
AcDbLine
 10
457.0
 20
208.4
 30
0.0
 11
457.0
 21
215.3
 31
0.0
  0
LINE
  5
1775A
330
176D7
100
AcDbEntity
  8
1
  6
Continuous
100
AcDbLine
 10
464.0
 20
213.0
 30
0.0
 11
464.0
 21
210.6999999999999
 31
0.0
  0
LINE
  5
1775B
330
176D7
100
AcDbEntity
  8
1
  6
Continuous
100
AcDbLine
 10
38.7
 20
160.0
 30
0.0
 11
38.7
 21
200.7
 31
0.0
  0
LINE
  5
1775C
330
176D7
100
AcDbEntity
  8
1
  6
Continuous
100
AcDbLine
 10
41.0
 20
160.0
 30
0.0
 11
41.0
 21
199.9
 31
0.0
  0
LINE
  5
1775D
330
176D7
100
AcDbEntity
  8
1
  6
Continuous
100
AcDbLine
 10
32.5
 20
186.4790779999999
 30
0.0
 11
32.5
 21
201.2
 31
0.0
  0
LINE
  5
1775E
330
176D7
100
AcDbEntity
  8
1
  6
Continuous
100
AcDbLine
 10
36.2
 20
163.0
 30
0.0
 11
36.2
 21
177.0
 31
0.0
  0
LINE
  5
1775F
330
176D7
100
AcDbEntity
  8
1
  6
Continuous
100
AcDbLine
 10
41.0
 20
160.0
 30
0.0
 11
38.7
 21
160.0
 31
0.0
  0
LINE
  5
17760
330
176D7
100
AcDbEntity
  8
1
  6
Continuous
100
AcDbLine
 10
36.2
 20
163.0
 30
0.0
 11
38.7
 21
163.0
 31
0.0
  0
ARC
  5
17761
330
176D7
100
AcDbEntity
  8
1
  6
Continuous
100
AcDbCircle
 10
57.5
 20
186.4790779999999
 30
0.0
 40
25.0
100
AcDbArc
 50
180.0
 51
206.4776029999999
  0
LINE
  5
17762
330
176D7
100
AcDbEntity
  8
1
  6
Continuous
100
AcDbLine
 10
36.2
 20
177.0
 30
0.0
 11
38.7
 21
177.0
 31
0.0
  0
LINE
  5
17763
330
176D7
100
AcDbEntity
  8
1
  6
Continuous
100
AcDbLine
 10
25.0
 20
213.0
 30
0.0
 11
25.0
 21
210.6999999999999
 31
0.0
  0
LINE
  5
17764
330
176D7
100
AcDbEntity
  8
4
  6
CENTER
100
AcDbLine
 10
32.0
 20
208.4
 30
0.0
 11
32.0
 21
215.3
 31
0.0
  0
ARC
  5
17765
330
176D7
100
AcDbEntity
  8
1
  6
Continuous
100
AcDbCircle
 10
37.0
 20
218.6999999999999
 30
0.0
 40
10.0
100
AcDbArc
 50
233.130102
 51
270.0
  0
ARC
  5
17766
330
176D7
100
AcDbEntity
  8
1
  6
Continuous
100
AcDbCircle
 10
37.0
 20
207.2
 30
0.0
 40
1.5
100
AcDbArc
 50
90.0
 51
180.0
  0
ARC
  5
17767
330
176D7
100
AcDbEntity
  8
1
  6
Continuous
100
AcDbCircle
 10
34.5
 20
201.2
 30
0.0
 40
2.0
100
AcDbArc
 50
90.0
 51
180.0
  0
ARC
  5
17768
330
176D7
100
AcDbEntity
  8
1
  6
Continuous
100
AcDbCircle
 10
41.2
 20
200.7
 30
0.0
 40
2.5
100
AcDbArc
 50
90.0
 51
180.0
  0
LINE
  5
17769
330
176D7
100
AcDbEntity
  8
1
  6
Continuous
100
AcDbLine
 10
41.674942
 20
197.4499999999999
 30
0.0
 11
41.0
 21
198.124942
 31
0.0
  0
ARC
  5
1776A
330
176D7
100
AcDbEntity
  8
1
  6
Continuous
100
AcDbCircle
 10
42.0
 20
199.9
 30
0.0
 40
1.0
100
AcDbArc
 50
90.0
 51
180.0
  0
LINE
  5
1776B
330
176D7
100
AcDbEntity
  8
1
  6
Continuous
100
AcDbLine
 10
38.823593
 20
203.2
 30
0.0
 11
36.323593
 21
205.6999999999999
 31
0.0
  0
LINE
  5
1776C
330
176D7
100
AcDbEntity
  8
1
  6
Continuous
100
AcDbLine
 10
36.323593
 20
203.2
 30
0.0
 11
38.823593
 21
205.6999999999999
 31
0.0
  0
LINE
  5
1776D
330
176D7
100
AcDbEntity
  8
1
  6
Continuous
100
AcDbLine
 10
34.58095200000001
 20
203.2
 30
0.0
 11
33.5
 21
204.280952
 31
0.0
  0
LINE
  5
1776E
330
176D7
100
AcDbEntity
  8
1
  6
Continuous
100
AcDbLine
 10
36.702273
 20
203.2
 30
0.0
 11
34.202273
 21
205.6999999999999
 31
0.0
  0
LINE
  5
1776F
330
176D7
100
AcDbEntity
  8
1
  6
Continuous
100
AcDbLine
 10
33.5
 20
204.6190479999999
 30
0.0
 11
34.58095200000001
 21
205.6999999999999
 31
0.0
  0
LINE
  5
17770
330
176D7
100
AcDbEntity
  8
1
  6
Continuous
100
AcDbLine
 10
34.202273
 20
203.2
 30
0.0
 11
36.702273
 21
205.6999999999999
 31
0.0
  0
LINE
  5
17771
330
176D7
100
AcDbEntity
  8
1
  6
Continuous
100
AcDbLine
 10
35.5
 20
206.6999999999999
 30
0.0
 11
35.5
 21
207.2
 31
0.0
  0
LINE
  5
17772
330
176D7
100
AcDbEntity
  8
1
  6
Continuous
100
AcDbLine
 10
40.944913
 20
203.2
 30
0.0
 11
38.44491299999999
 21
205.6999999999999
 31
0.0
  0
LINE
  5
17773
330
176D7
100
AcDbEntity
  8
1
  6
Continuous
100
AcDbLine
 10
38.44491299999999
 20
203.2
 30
0.0
 11
40.944913
 21
205.6999999999999
 31
0.0
  0
ARC
  5
17774
330
176D7
100
AcDbEntity
  8
1
  6
Continuous
100
AcDbCircle
 10
219.0
 20
260.0
 30
0.0
 40
7.0
100
AcDbArc
 50
270.0
 51
0.0
  0
ARC
  5
17775
330
176D7
100
AcDbEntity
  8
1
  6
Continuous
100
AcDbCircle
 10
219.0
 20
310.0
 30
0.0
 40
7.0
100
AcDbArc
 50
0.0
 51
90.0
  0
LINE
  5
17776
330
176D7
100
AcDbEntity
  8
1
  6
Continuous
100
AcDbLine
 10
226.0
 20
260.0
 30
0.0
 11
226.0
 21
310.0
 31
0.0
  0
LINE
  5
17777
330
176D7
100
AcDbEntity
  8
1
  6
Continuous
100
AcDbLine
 10
162.0
 20
269.0
 30
0.0
 11
157.942081
 21
269.0
 31
0.0
  0
LINE
  5
17778
330
176D7
100
AcDbEntity
  8
1
  6
Continuous
100
AcDbLine
 10
162.0
 20
301.0
 30
0.0
 11
157.942081
 21
301.0
 31
0.0
  0
LINE
  5
17779
330
176D7
100
AcDbEntity
  8
1
  6
Continuous
100
AcDbLine
 10
162.0
 20
303.3
 30
0.0
 11
157.942081
 21
303.3
 31
0.0
  0
LINE
  5
1777A
330
176D7
100
AcDbEntity
  8
4
  6
CENTER
100
AcDbLine
 10
194.0
 20
248.0
 30
0.0
 11
194.0
 21
322.0
 31
0.0
  0
LINE
  5
1777B
330
176D7
100
AcDbEntity
  8
1
  6
Continuous
100
AcDbLine
 10
162.0
 20
260.0
 30
0.0
 11
162.0
 21
310.0
 31
0.0
  0
CIRCLE
  5
1777C
330
176D7
100
AcDbEntity
  8
1
  6
Continuous
100
AcDbCircle
 10
194.0
 20
285.0
 30
0.0
 40
23.5
  0
CIRCLE
  5
1777D
330
176D7
100
AcDbEntity
  8
1
  6
Continuous
100
AcDbCircle
 10
194.0
 20
285.0
 30
0.0
 40
21.0
  0
CIRCLE
  5
1777E
330
176D7
100
AcDbEntity
  8
1
  6
Continuous
100
AcDbCircle
 10
194.0
 20
285.0
 30
0.0
 40
11.5
  0
LINE
  5
1777F
330
176D7
100
AcDbEntity
  8
1
  6
Continuous
100
AcDbLine
 10
219.0
 20
253.0
 30
0.0
 11
169.0
 21
253.0
 31
0.0
  0
LINE
  5
17780
330
176D7
100
AcDbEntity
  8
4
  6
CENTER
100
AcDbLine
 10
219.0
 20
253.5
 30
0.0
 11
219.0
 21
266.5
 31
0.0
  0
CIRCLE
  5
17781
330
176D7
100
AcDbEntity
  8
1
  6
Continuous
100
AcDbCircle
 10
219.0
 20
260.0
 30
0.0
 40
3.25
  0
LINE
  5
17782
330
176D7
100
AcDbEntity
  8
4
  6
CENTER
100
AcDbLine
 10
225.4999999999999
 20
260.0
 30
0.0
 11
212.5
 21
260.0
 31
0.0
  0
ARC
  5
17783
330
176D7
100
AcDbEntity
  8
1
  6
Continuous
100
AcDbCircle
 10
169.0
 20
260.0
 30
0.0
 40
7.0
100
AcDbArc
 50
180.0
 51
270.0
  0
CIRCLE
  5
17784
330
176D7
100
AcDbEntity
  8
1
  6
Continuous
100
AcDbCircle
 10
169.0
 20
260.0
 30
0.0
 40
3.25
  0
LINE
  5
17785
330
176D7
100
AcDbEntity
  8
4
  6
CENTER
100
AcDbLine
 10
175.5
 20
260.0
 30
0.0
 11
162.5
 21
260.0
 31
0.0
  0
LINE
  5
17786
330
176D7
100
AcDbEntity
  8
1
  6
Continuous
100
AcDbLine
 10
219.0
 20
317.0
 30
0.0
 11
169.0
 21
317.0
 31
0.0
  0
LINE
  5
17787
330
176D7
100
AcDbEntity
  8
4
  6
CENTER
100
AcDbLine
 10
219.0
 20
303.5
 30
0.0
 11
219.0
 21
316.5
 31
0.0
  0
LINE
  5
17788
330
176D7
100
AcDbEntity
  8
4
  6
CENTER
100
AcDbLine
 10
225.4999999999999
 20
310.0
 30
0.0
 11
212.5
 21
310.0
 31
0.0
  0
CIRCLE
  5
17789
330
176D7
100
AcDbEntity
  8
1
  6
Continuous
100
AcDbCircle
 10
219.0
 20
310.0
 30
0.0
 40
3.25
  0
ARC
  5
1778A
330
176D7
100
AcDbEntity
  8
1
  6
Continuous
100
AcDbCircle
 10
169.0
 20
310.0
 30
0.0
 40
7.0
100
AcDbArc
 50
90.0
 51
180.0
  0
LINE
  5
1778B
330
176D7
100
AcDbEntity
  8
4
  6
CENTER
100
AcDbLine
 10
175.5
 20
310.0
 30
0.0
 11
162.5
 21
310.0
 31
0.0
  0
CIRCLE
  5
1778C
330
176D7
100
AcDbEntity
  8
1
  6
Continuous
100
AcDbCircle
 10
169.0
 20
310.0
 30
0.0
 40
3.25
  0
LINE
  5
1778D
330
176D7
100
AcDbEntity
  8
1
  6
Continuous
100
AcDbLine
 10
157.942081
 20
301.0
 30
0.0
 11
157.942081
 21
303.3
 31
0.0
  0
LINE
  5
1778E
330
176D7
100
AcDbEntity
  8
1
  6
Continuous
100
AcDbLine
 10
75.29999999999998
 20
165.950781
 30
0.0
 11
75.29999999999998
 21
166.3333029999998
 31
0.0
  0
LINE
  5
1778F
330
176D7
100
AcDbEntity
  8
1
  6
Continuous
100
AcDbLine
 10
73.0
 20
160.0
 30
0.0
 11
73.0
 21
163.831408
 31
0.0
  0
LINE
  5
17790
330
176D7
100
AcDbEntity
  8
1
  6
Continuous
100
AcDbLine
 10
81.5
 20
186.4790779999999
 30
0.0
 11
81.5
 21
201.2
 31
0.0
  0
LINE
  5
17791
330
176D7
100
AcDbEntity
  8
1
  6
Continuous
100
AcDbLine
 10
74.57155199999998
 20
160.0
 30
0.0
 11
73.0
 21
160.0
 31
0.0
  0
LINE
  5
17792
330
176D7
100
AcDbEntity
  8
1
  6
Continuous
100
AcDbLine
 10
83.767312
 20
162.5
 30
0.0
 11
83.86000000000001
 21
162.5
 31
0.0
  0
LINE
  5
17793
330
176D7
100
AcDbEntity
  8
1
  6
Continuous
100
AcDbLine
 10
89.95999999999998
 20
172.8
 30
0.0
 11
89.95999999999998
 21
167.1999999999998
 31
0.0
  0
ARC
  5
17794
330
176D7
100
AcDbEntity
  8
1
  6
Continuous
100
AcDbCircle
 10
56.5
 20
186.4790779999999
 30
0.0
 40
25.0
100
AcDbArc
 50
350.042144
 51
0.0
  0
LINE
  5
17795
330
176D7
100
AcDbEntity
  8
1
  6
Continuous
100
AcDbLine
 10
81.85999999999998
 20
177.5
 30
0.0
 11
83.86000000000001
 21
177.5
 31
0.0
  0
LINE
  5
17796
330
176D7
100
AcDbEntity
  8
1
  6
Continuous
100
AcDbLine
 10
74.88603899999998
 20
203.2
 30
0.0
 11
72.38603899999998
 21
205.6999999999999
 31
0.0
  0
LINE
  5
17797
330
176D7
100
AcDbEntity
  8
1
  6
Continuous
100
AcDbLine
 10
77.00735899999997
 20
203.2
 30
0.0
 11
74.50735899999997
 21
205.6999999999999
 31
0.0
  0
LINE
  5
17798
330
176D7
100
AcDbEntity
  8
1
  6
Continuous
100
AcDbLine
 10
72.38603899999998
 20
203.2
 30
0.0
 11
74.88603899999998
 21
205.6999999999999
 31
0.0
  0
LINE
  5
17799
330
176D7
100
AcDbEntity
  8
1
  6
Continuous
100
AcDbLine
 10
74.50735899999997
 20
203.2
 30
0.0
 11
77.00735899999997
 21
205.6999999999999
 31
0.0
  0
ARC
  5
1779A
330
176D7
100
AcDbEntity
  8
1
  6
Continuous
100
AcDbCircle
 10
72.79999999999998
 20
200.7
 30
0.0
 40
2.5
100
AcDbArc
 50
0.0
 51
90.0
  0
LINE
  5
1779B
330
176D7
100
AcDbEntity
  8
1
  6
Continuous
100
AcDbLine
 10
58.645505
 20
197.4499999999999
 30
0.0
 11
56.99550399999999
 21
199.0999999999999
 31
0.0
  0
LINE
  5
1779C
330
176D7
100
AcDbEntity
  8
1
  6
Continuous
100
AcDbLine
 10
57.475816
 20
197.4499999999999
 30
0.0
 11
59.125816
 21
199.0999999999999
 31
0.0
  0
LINE
  5
1779D
330
176D7
100
AcDbEntity
  8
1
  6
Continuous
100
AcDbLine
 10
60.036797
 20
203.2
 30
0.0
 11
57.536797
 21
205.6999999999999
 31
0.0
  0
LINE
  5
1779E
330
176D7
100
AcDbEntity
  8
1
  6
Continuous
100
AcDbLine
 10
57.536797
 20
203.2
 30
0.0
 11
60.036797
 21
205.6999999999999
 31
0.0
  0
LINE
  5
1779F
330
176D7
100
AcDbEntity
  8
1
  6
Continuous
100
AcDbLine
 10
48.99053399999999
 20
197.4499999999999
 30
0.0
 11
50.64053499999999
 21
199.0999999999999
 31
0.0
  0
LINE
  5
177A0
330
176D7
100
AcDbEntity
  8
1
  6
Continuous
100
AcDbLine
 10
51.551515
 20
203.2
 30
0.0
 11
49.051515
 21
205.6999999999999
 31
0.0
  0
LINE
  5
177A1
330
176D7
100
AcDbEntity
  8
1
  6
Continuous
100
AcDbLine
 10
49.051515
 20
203.2
 30
0.0
 11
51.551515
 21
205.6999999999999
 31
0.0
  0
LINE
  5
177A2
330
176D7
100
AcDbEntity
  8
1
  6
Continuous
100
AcDbLine
 10
44.747894
 20
197.4499999999999
 30
0.0
 11
46.397894
 21
199.0999999999999
 31
0.0
  0
LINE
  5
177A3
330
176D7
100
AcDbEntity
  8
1
  6
Continuous
100
AcDbLine
 10
43.79626199999999
 20
197.4499999999999
 30
0.0
 11
42.146262
 21
199.0999999999999
 31
0.0
  0
LINE
  5
177A4
330
176D7
100
AcDbEntity
  8
1
  6
Continuous
100
AcDbLine
 10
45.917583
 20
197.4499999999999
 30
0.0
 11
44.267583
 21
199.0999999999999
 31
0.0
  0
LINE
  5
177A5
330
176D7
100
AcDbEntity
  8
1
  6
Continuous
100
AcDbLine
 10
42.62657299999999
 20
197.4499999999999
 30
0.0
 11
44.276574
 21
199.0999999999999
 31
0.0
  0
LINE
  5
177A6
330
176D7
100
AcDbEntity
  8
1
  6
Continuous
100
AcDbLine
 10
48.03890299999999
 20
197.4499999999999
 30
0.0
 11
46.388902
 21
199.0999999999999
 31
0.0
  0
LINE
  5
177A7
330
176D7
100
AcDbEntity
  8
1
  6
Continuous
100
AcDbLine
 10
50.16022299999999
 20
197.4499999999999
 30
0.0
 11
48.510223
 21
199.0999999999999
 31
0.0
  0
LINE
  5
177A8
330
176D7
100
AcDbEntity
  8
1
  6
Continuous
100
AcDbLine
 10
46.869214
 20
197.4499999999999
 30
0.0
 11
48.519214
 21
199.0999999999999
 31
0.0
  0
LINE
  5
177A9
330
176D7
100
AcDbEntity
  8
1
  6
Continuous
100
AcDbLine
 10
47.30887399999999
 20
203.2
 30
0.0
 11
44.80887399999999
 21
205.6999999999999
 31
0.0
  0
LINE
  5
177AA
330
176D7
100
AcDbEntity
  8
1
  6
Continuous
100
AcDbLine
 10
44.80887399999999
 20
203.2
 30
0.0
 11
47.30887399999999
 21
205.6999999999999
 31
0.0
  0
LINE
  5
177AB
330
176D7
100
AcDbEntity
  8
1
  6
Continuous
100
AcDbLine
 10
45.18755399999998
 20
203.2
 30
0.0
 11
42.68755399999998
 21
205.6999999999999
 31
0.0
  0
LINE
  5
177AC
330
176D7
100
AcDbEntity
  8
1
  6
Continuous
100
AcDbLine
 10
42.68755399999998
 20
203.2
 30
0.0
 11
45.18755399999998
 21
205.6999999999999
 31
0.0
  0
LINE
  5
177AD
330
176D7
100
AcDbEntity
  8
1
  6
Continuous
100
AcDbLine
 10
49.430195
 20
203.2
 30
0.0
 11
46.930195
 21
205.6999999999999
 31
0.0
  0
LINE
  5
177AE
330
176D7
100
AcDbEntity
  8
1
  6
Continuous
100
AcDbLine
 10
46.930195
 20
203.2
 30
0.0
 11
49.430195
 21
205.6999999999999
 31
0.0
  0
LINE
  5
177AF
330
176D7
100
AcDbEntity
  8
1
  6
Continuous
100
AcDbLine
 10
54.402864
 20
197.4499999999999
 30
0.0
 11
52.752864
 21
199.0999999999999
 31
0.0
  0
LINE
  5
177B0
330
176D7
100
AcDbEntity
  8
1
  6
Continuous
100
AcDbLine
 10
53.233175
 20
197.4499999999999
 30
0.0
 11
54.883175
 21
199.0999999999999
 31
0.0
  0
LINE
  5
177B1
330
176D7
100
AcDbEntity
  8
1
  6
Continuous
100
AcDbLine
 10
52.281544
 20
197.4499999999999
 30
0.0
 11
50.631543
 21
199.0999999999999
 31
0.0
  0
LINE
  5
177B2
330
176D7
100
AcDbEntity
  8
1
  6
Continuous
100
AcDbLine
 10
51.111855
 20
197.4499999999999
 30
0.0
 11
52.761855
 21
199.0999999999999
 31
0.0
  0
LINE
  5
177B3
330
176D7
100
AcDbEntity
  8
1
  6
Continuous
100
AcDbLine
 10
56.524184
 20
197.4499999999999
 30
0.0
 11
54.874184
 21
199.0999999999999
 31
0.0
  0
LINE
  5
177B4
330
176D7
100
AcDbEntity
  8
1
  6
Continuous
100
AcDbLine
 10
55.35449499999999
 20
197.4499999999999
 30
0.0
 11
57.00449599999998
 21
199.0999999999999
 31
0.0
  0
LINE
  5
177B5
330
176D7
100
AcDbEntity
  8
1
  6
Continuous
100
AcDbLine
 10
55.794156
 20
203.2
 30
0.0
 11
53.294156
 21
205.6999999999999
 31
0.0
  0
LINE
  5
177B6
330
176D7
100
AcDbEntity
  8
1
  6
Continuous
100
AcDbLine
 10
53.294156
 20
203.2
 30
0.0
 11
55.794156
 21
205.6999999999999
 31
0.0
  0
LINE
  5
177B7
330
176D7
100
AcDbEntity
  8
1
  6
Continuous
100
AcDbLine
 10
53.672836
 20
203.2
 30
0.0
 11
51.172836
 21
205.6999999999999
 31
0.0
  0
LINE
  5
177B8
330
176D7
100
AcDbEntity
  8
1
  6
Continuous
100
AcDbLine
 10
51.172836
 20
203.2
 30
0.0
 11
53.672836
 21
205.6999999999999
 31
0.0
  0
LINE
  5
177B9
330
176D7
100
AcDbEntity
  8
1
  6
Continuous
100
AcDbLine
 10
57.915476
 20
203.2
 30
0.0
 11
55.415476
 21
205.6999999999999
 31
0.0
  0
LINE
  5
177BA
330
176D7
100
AcDbEntity
  8
1
  6
Continuous
100
AcDbLine
 10
55.415476
 20
203.2
 30
0.0
 11
57.915476
 21
205.6999999999999
 31
0.0
  0
LINE
  5
177BB
330
176D7
100
AcDbEntity
  8
1
  6
Continuous
100
AcDbLine
 10
67.130786
 20
197.4499999999999
 30
0.0
 11
65.480786
 21
199.0999999999999
 31
0.0
  0
LINE
  5
177BC
330
176D7
100
AcDbEntity
  8
1
  6
Continuous
100
AcDbLine
 10
65.96109699999999
 20
197.4499999999999
 30
0.0
 11
67.611097
 21
199.0999999999999
 31
0.0
  0
LINE
  5
177BD
330
176D7
100
AcDbEntity
  8
1
  6
Continuous
100
AcDbLine
 10
68.52207800000001
 20
203.2
 30
0.0
 11
66.02207800000001
 21
205.6999999999999
 31
0.0
  0
LINE
  5
177BE
330
176D7
100
AcDbEntity
  8
1
  6
Continuous
100
AcDbLine
 10
66.02207800000001
 20
203.2
 30
0.0
 11
68.52207800000001
 21
205.6999999999999
 31
0.0
  0
LINE
  5
177BF
330
176D7
100
AcDbEntity
  8
1
  6
Continuous
100
AcDbLine
 10
62.88814499999999
 20
197.4499999999999
 30
0.0
 11
61.23814499999999
 21
199.0999999999999
 31
0.0
  0
LINE
  5
177C0
330
176D7
100
AcDbEntity
  8
1
  6
Continuous
100
AcDbLine
 10
61.71845600000001
 20
197.4499999999999
 30
0.0
 11
63.36845699999999
 21
199.0999999999999
 31
0.0
  0
LINE
  5
177C1
330
176D7
100
AcDbEntity
  8
1
  6
Continuous
100
AcDbLine
 10
60.766825
 20
197.4499999999999
 30
0.0
 11
59.116825
 21
199.0999999999999
 31
0.0
  0
LINE
  5
177C2
330
176D7
100
AcDbEntity
  8
1
  6
Continuous
100
AcDbLine
 10
59.597136
 20
197.4499999999999
 30
0.0
 11
61.24713599999999
 21
199.0999999999999
 31
0.0
  0
LINE
  5
177C3
330
176D7
100
AcDbEntity
  8
1
  6
Continuous
100
AcDbLine
 10
65.009466
 20
197.4499999999999
 30
0.0
 11
63.35946599999999
 21
199.0999999999999
 31
0.0
  0
LINE
  5
177C4
330
176D7
100
AcDbEntity
  8
1
  6
Continuous
100
AcDbLine
 10
63.83977699999999
 20
197.4499999999999
 30
0.0
 11
65.489777
 21
199.0999999999999
 31
0.0
  0
LINE
  5
177C5
330
176D7
100
AcDbEntity
  8
1
  6
Continuous
100
AcDbLine
 10
64.279437
 20
203.2
 30
0.0
 11
61.779437
 21
205.6999999999999
 31
0.0
  0
LINE
  5
177C6
330
176D7
100
AcDbEntity
  8
1
  6
Continuous
100
AcDbLine
 10
61.779437
 20
203.2
 30
0.0
 11
64.279437
 21
205.6999999999999
 31
0.0
  0
LINE
  5
177C7
330
176D7
100
AcDbEntity
  8
1
  6
Continuous
100
AcDbLine
 10
62.15811699999999
 20
203.2
 30
0.0
 11
59.65811699999999
 21
205.6999999999999
 31
0.0
  0
LINE
  5
177C8
330
176D7
100
AcDbEntity
  8
1
  6
Continuous
100
AcDbLine
 10
59.65811699999999
 20
203.2
 30
0.0
 11
62.15811699999999
 21
205.6999999999999
 31
0.0
  0
LINE
  5
177C9
330
176D7
100
AcDbEntity
  8
1
  6
Continuous
100
AcDbLine
 10
66.40075799999999
 20
203.2
 30
0.0
 11
63.90075799999999
 21
205.6999999999999
 31
0.0
  0
LINE
  5
177CA
330
176D7
100
AcDbEntity
  8
1
  6
Continuous
100
AcDbLine
 10
63.90075799999999
 20
203.2
 30
0.0
 11
66.40075799999999
 21
205.6999999999999
 31
0.0
  0
LINE
  5
177CB
330
176D7
100
AcDbEntity
  8
1
  6
Continuous
100
AcDbLine
 10
71.37342700000002
 20
197.4499999999999
 30
0.0
 11
69.72342600000001
 21
199.0999999999999
 31
0.0
  0
LINE
  5
177CC
330
176D7
100
AcDbEntity
  8
1
  6
Continuous
100
AcDbLine
 10
70.203738
 20
197.4499999999999
 30
0.0
 11
71.85373800000002
 21
199.0999999999999
 31
0.0
  0
LINE
  5
177CD
330
176D7
100
AcDbEntity
  8
1
  6
Continuous
100
AcDbLine
 10
69.25210600000001
 20
197.4499999999999
 30
0.0
 11
67.60210699999999
 21
199.0999999999999
 31
0.0
  0
LINE
  5
177CE
330
176D7
100
AcDbEntity
  8
1
  6
Continuous
100
AcDbLine
 10
68.082417
 20
197.4499999999999
 30
0.0
 11
69.73241699999999
 21
199.0999999999999
 31
0.0
  0
LINE
  5
177CF
330
176D7
100
AcDbEntity
  8
1
  6
Continuous
100
AcDbLine
 10
73.0
 20
197.944747
 30
0.0
 11
71.84474699999999
 21
199.0999999999999
 31
0.0
  0
LINE
  5
177D0
330
176D7
100
AcDbEntity
  8
1
  6
Continuous
100
AcDbLine
 10
73.0
 20
198.124942
 30
0.0
 11
72.325058
 21
197.4499999999999
 31
0.0
  0
ARC
  5
177D1
330
176D7
100
AcDbEntity
  8
1
  6
Continuous
100
AcDbCircle
 10
72.0
 20
199.9
 30
0.0
 40
1.0
100
AcDbArc
 50
0.0
 51
90.0
  0
LINE
  5
177D2
330
176D7
100
AcDbEntity
  8
1
  6
Continuous
100
AcDbLine
 10
72.764719
 20
203.2
 30
0.0
 11
70.264719
 21
205.6999999999999
 31
0.0
  0
LINE
  5
177D3
330
176D7
100
AcDbEntity
  8
1
  6
Continuous
100
AcDbLine
 10
70.264719
 20
203.2
 30
0.0
 11
72.764719
 21
205.6999999999999
 31
0.0
  0
LINE
  5
177D4
330
176D7
100
AcDbEntity
  8
1
  6
Continuous
100
AcDbLine
 10
70.64339800000002
 20
203.2
 30
0.0
 11
68.143398
 21
205.6999999999999
 31
0.0
  0
LINE
  5
177D5
330
176D7
100
AcDbEntity
  8
1
  6
Continuous
100
AcDbLine
 10
68.143398
 20
203.2
 30
0.0
 11
70.64339800000002
 21
205.6999999999999
 31
0.0
  0
ARC
  5
177D6
330
176D7
100
AcDbEntity
  8
1
  6
Continuous
100
AcDbCircle
 10
77.0
 20
218.6999999999999
 30
0.0
 40
10.0
100
AcDbArc
 50
270.0
 51
306.8698979999999
  0
ARC
  5
177D7
330
176D7
100
AcDbEntity
  8
1
  6
Continuous
100
AcDbCircle
 10
77.0
 20
207.2
 30
0.0
 40
1.5
100
AcDbArc
 50
0.0
 51
90.0
  0
ARC
  5
177D8
330
176D7
100
AcDbEntity
  8
1
  6
Continuous
100
AcDbCircle
 10
79.5
 20
201.2
 30
0.0
 40
2.0
100
AcDbArc
 50
0.0
 51
90.0
  0
LINE
  5
177D9
330
176D7
100
AcDbEntity
  8
1
  6
Continuous
100
AcDbLine
 10
79.12868
 20
203.2
 30
0.0
 11
76.62868
 21
205.6999999999999
 31
0.0
  0
LINE
  5
177DA
330
176D7
100
AcDbEntity
  8
1
  6
Continuous
100
AcDbLine
 10
78.75
 20
205.6999999999999
 30
0.0
 11
80.5
 21
203.9499999999999
 31
0.0
  0
LINE
  5
177DB
330
176D7
100
AcDbEntity
  8
1
  6
Continuous
100
AcDbLine
 10
76.62868
 20
203.2
 30
0.0
 11
79.12868
 21
205.6999999999999
 31
0.0
  0
LINE
  5
177DC
330
176D7
100
AcDbEntity
  8
1
  6
Continuous
100
AcDbLine
 10
78.75
 20
203.2
 30
0.0
 11
80.5
 21
204.95
 31
0.0
  0
LINE
  5
177DD
330
176D7
100
AcDbEntity
  8
1
  6
Continuous
100
AcDbLine
 10
78.5
 20
206.6999999999999
 30
0.0
 11
78.5
 21
207.2
 31
0.0
  0
LINE
  5
177DE
330
176D7
100
AcDbEntity
  8
4
  6
CENTER
100
AcDbLine
 10
82.0
 20
208.4
 30
0.0
 11
82.0
 21
215.3
 31
0.0
  0
LINE
  5
177DF
330
176D7
100
AcDbEntity
  8
1
  6
Continuous
100
AcDbLine
 10
89.0
 20
213.0
 30
0.0
 11
89.0
 21
210.6999999999999
 31
0.0
  0
LINE
  5
177E0
330
176D7
100
AcDbEntity
  8
4
  6
CENTER
100
AcDbLine
 10
280.8999999999999
 20
170.0
 30
0.0
 11
340.8999999999999
 21
170.0
 31
0.0
  0
LINE
  5
177E1
330
176D7
100
AcDbEntity
  8
1
  6
Continuous
100
AcDbLine
 10
301.856602
 20
203.2
 30
0.0
 11
299.356602
 21
205.6999999999999
 31
0.0
  0
LINE
  5
177E2
330
176D7
100
AcDbEntity
  8
1
  6
Continuous
100
AcDbLine
 10
299.356602
 20
203.2
 30
0.0
 11
301.856602
 21
205.6999999999999
 31
0.0
  0
ARC
  5
177E3
330
176D7
100
AcDbEntity
  8
1
  6
Continuous
100
AcDbCircle
 10
301.0
 20
184.0
 30
0.0
 40
12.5
100
AcDbArc
 50
90.0
 51
179.2916779999999
  0
LINE
  5
177E4
330
176D7
100
AcDbEntity
  8
1
  6
Continuous
100
AcDbLine
 10
289.4999999999999
 20
203.2
 30
0.0
 11
336.5
 21
203.2
 31
0.0
  0
LINE
  5
177E5
330
176D7
100
AcDbEntity
  8
1
  6
Continuous
100
AcDbLine
 10
289.4999999999999
 20
205.6999999999999
 30
0.0
 11
336.5
 21
205.6999999999999
 31
0.0
  0
LINE
  5
177E6
330
176D7
100
AcDbEntity
  8
1
  6
Continuous
100
AcDbLine
 10
289.4999999999999
 20
206.6999999999999
 30
0.0
 11
336.5
 21
206.6999999999999
 31
0.0
  0
LINE
  5
177E7
330
176D7
100
AcDbEntity
  8
1
  6
Continuous
100
AcDbLine
 10
293.0
 20
208.6999999999999
 30
0.0
 11
333.0
 21
208.6999999999999
 31
0.0
  0
LINE
  5
177E8
330
176D7
100
AcDbEntity
  8
1
  6
Continuous
100
AcDbLine
 10
281.0
 20
210.6999999999999
 30
0.0
 11
345.0
 21
210.6999999999999
 31
0.0
  0
LINE
  5
177E9
330
176D7
100
AcDbEntity
  8
1
  6
Continuous
100
AcDbLine
 10
281.0
 20
213.0
 30
0.0
 11
345.0
 21
213.0
 31
0.0
  0
CIRCLE
  5
177EA
330
176D7
100
AcDbEntity
  8
1
  6
Continuous
100
AcDbCircle
 10
169.0
 20
170.0
 30
0.0
 40
4.0
  0
ARC
  5
177EB
330
176D7
100
AcDbEntity
  8
1
  6
Continuous
100
AcDbCircle
 10
300.377004
 20
187.068001
 30
0.0
 40
9.369384
100
AcDbArc
 50
101.478544
 51
172.941843
  0
LINE
  5
177EC
330
176D7
100
AcDbEntity
  8
1
  6
Continuous
100
AcDbLine
 10
297.0
 20
160.0
 30
0.0
 11
297.0
 21
195.8076349999998
 31
0.0
  0
LINE
  5
177ED
330
176D7
100
AcDbEntity
  8
1
  6
Continuous
100
AcDbLine
 10
288.5
 20
184.0699219999999
 30
0.0
 11
288.5
 21
200.7
 31
0.0
  0
LINE
  5
177EE
330
176D7
100
AcDbEntity
  8
1
  6
Continuous
100
AcDbLine
 10
294.7
 20
160.0
 30
0.0
 11
294.7
 21
161.189352
 31
0.0
  0
LINE
  5
177EF
330
176D7
100
AcDbEntity
  8
1
  6
Continuous
100
AcDbLine
 10
297.0
 20
160.0
 30
0.0
 11
294.7
 21
160.0
 31
0.0
  0
ARC
  5
177F0
330
176D7
100
AcDbEntity
  8
1
  6
Continuous
100
AcDbCircle
 10
290.2
 20
161.189352
 30
0.0
 40
4.5
100
AcDbArc
 50
0.0
 51
30.84897199999999
  0
ARC
  5
177F1
330
176D7
100
AcDbEntity
  8
1
  6
Continuous
100
AcDbCircle
 10
290.2
 20
161.189352
 30
0.0
 40
6.799999999999998
100
AcDbArc
 50
0.0
 51
30.84897199999999
  0
LINE
  5
177F2
330
176D7
100
AcDbEntity
  8
1
  6
Continuous
100
AcDbLine
 10
281.0
 20
213.0
 30
0.0
 11
281.0
 21
210.6999999999999
 31
0.0
  0
ARC
  5
177F3
330
176D7
100
AcDbEntity
  8
1
  6
Continuous
100
AcDbCircle
 10
293.0
 20
207.2
 30
0.0
 40
1.5
100
AcDbArc
 50
90.0
 51
180.0
  0
LINE
  5
177F4
330
176D7
100
AcDbEntity
  8
1
  6
Continuous
100
AcDbLine
 10
293.3713200000001
 20
203.2
 30
0.0
 11
290.87132
 21
205.6999999999999
 31
0.0
  0
LINE
  5
177F5
330
176D7
100
AcDbEntity
  8
1
  6
Continuous
100
AcDbLine
 10
290.87132
 20
203.2
 30
0.0
 11
293.3713200000001
 21
205.6999999999999
 31
0.0
  0
ARC
  5
177F6
330
176D7
100
AcDbEntity
  8
1
  6
Continuous
100
AcDbCircle
 10
291.0
 20
200.7
 30
0.0
 40
2.5
100
AcDbArc
 50
90.0
 51
180.0
  0
LINE
  5
177F7
330
176D7
100
AcDbEntity
  8
1
  6
Continuous
100
AcDbLine
 10
291.25
 20
203.2
 30
0.0
 11
289.4999999999999
 21
204.95
 31
0.0
  0
LINE
  5
177F8
330
176D7
100
AcDbEntity
  8
1
  6
Continuous
100
AcDbLine
 10
291.25
 20
205.6999999999999
 30
0.0
 11
289.4999999999999
 21
203.9499999999999
 31
0.0
  0
LINE
  5
177F9
330
176D7
100
AcDbEntity
  8
1
  6
Continuous
100
AcDbLine
 10
291.5
 20
206.6999999999999
 30
0.0
 11
291.5
 21
207.2
 31
0.0
  0
LINE
  5
177FA
330
176D7
100
AcDbEntity
  8
1
  6
Continuous
100
AcDbLine
 10
297.6139609999999
 20
203.2
 30
0.0
 11
295.1139609999998
 21
205.6999999999999
 31
0.0
  0
LINE
  5
177FB
330
176D7
100
AcDbEntity
  8
1
  6
Continuous
100
AcDbLine
 10
295.1139609999998
 20
203.2
 30
0.0
 11
297.6139609999999
 21
205.6999999999999
 31
0.0
  0
LINE
  5
177FC
330
176D7
100
AcDbEntity
  8
1
  6
Continuous
100
AcDbLine
 10
295.492641
 20
203.2
 30
0.0
 11
292.9926409999998
 21
205.6999999999999
 31
0.0
  0
LINE
  5
177FD
330
176D7
100
AcDbEntity
  8
1
  6
Continuous
100
AcDbLine
 10
292.9926409999998
 20
203.2
 30
0.0
 11
295.492641
 21
205.6999999999999
 31
0.0
  0
LINE
  5
177FE
330
176D7
100
AcDbEntity
  8
1
  6
Continuous
100
AcDbLine
 10
299.7352809999998
 20
203.2
 30
0.0
 11
297.2352809999998
 21
205.6999999999999
 31
0.0
  0
LINE
  5
177FF
330
176D7
100
AcDbEntity
  8
1
  6
Continuous
100
AcDbLine
 10
297.2352809999998
 20
203.2
 30
0.0
 11
299.7352809999998
 21
205.6999999999999
 31
0.0
  0
ARC
  5
17800
330
176D7
100
AcDbEntity
  8
1
  6
Continuous
100
AcDbCircle
 10
293.0
 20
218.6999999999999
 30
0.0
 40
10.0
100
AcDbArc
 50
233.130102
 51
270.0
  0
LINE
  5
17801
330
176D7
100
AcDbEntity
  8
4
  6
CENTER
100
AcDbLine
 10
313.0
 20
140.0
 30
0.0
 11
313.0
 21
218.0
 31
0.0
  0
ARC
  5
17802
330
176D7
100
AcDbEntity
  8
1
  6
Continuous
100
AcDbCircle
 10
325.622996
 20
187.068001
 30
0.0
 40
9.369384
100
AcDbArc
 50
7.058156999999998
 51
78.52145600000001
  0
ARC
  5
17803
330
176D7
100
AcDbEntity
  8
1
  6
Continuous
100
AcDbCircle
 10
325.0
 20
184.0
 30
0.0
 40
12.5
100
AcDbArc
 50
0.0
 51
90.0
  0
LINE
  5
17804
330
176D7
100
AcDbEntity
  8
1
  6
Continuous
100
AcDbLine
 10
329.0
 20
160.0
 30
0.0
 11
329.0
 21
195.8076349999998
 31
0.0
  0
LINE
  5
17805
330
176D7
100
AcDbEntity
  8
1
  6
Continuous
100
AcDbLine
 10
337.5
 20
184.0
 30
0.0
 11
337.5
 21
200.7
 31
0.0
  0
ARC
  5
17806
330
176D7
100
AcDbEntity
  8
1
  6
Continuous
100
AcDbCircle
 10
298.16451
 20
183.6682279999999
 30
0.0
 40
37.03754099999999
100
AcDbArc
 50
329.151028
 51
7.058156999999998
  0
ARC
  5
17807
330
176D7
100
AcDbEntity
  8
1
  6
Continuous
100
AcDbCircle
 10
298.16451
 20
183.6682279999999
 30
0.0
 40
39.33754099999998
100
AcDbArc
 50
329.151028
 51
0.7083220000000001
  0
LINE
  5
17808
330
176D7
100
AcDbEntity
  8
1
  6
Continuous
100
AcDbLine
 10
331.3
 20
160.0
 30
0.0
 11
331.3
 21
161.189352
 31
0.0
  0
LINE
  5
17809
330
176D7
100
AcDbEntity
  8
1
  6
Continuous
100
AcDbLine
 10
329.0
 20
160.0
 30
0.0
 11
331.3
 21
160.0
 31
0.0
  0
ARC
  5
1780A
330
176D7
100
AcDbEntity
  8
1
  6
Continuous
100
AcDbCircle
 10
335.8
 20
161.189352
 30
0.0
 40
6.799999999999998
100
AcDbArc
 50
149.1510279999999
 51
180.0
  0
ARC
  5
1780B
330
176D7
100
AcDbEntity
  8
1
  6
Continuous
100
AcDbCircle
 10
335.8
 20
161.189352
 30
0.0
 40
4.5
100
AcDbArc
 50
149.1510279999999
 51
180.0
  0
LINE
  5
1780C
330
176D7
100
AcDbEntity
  8
1
  6
Continuous
100
AcDbLine
 10
333.676407
 20
203.2
 30
0.0
 11
331.1764069999999
 21
205.6999999999999
 31
0.0
  0
LINE
  5
1780D
330
176D7
100
AcDbEntity
  8
1
  6
Continuous
100
AcDbLine
 10
331.1764069999999
 20
203.2
 30
0.0
 11
333.676407
 21
205.6999999999999
 31
0.0
  0
LINE
  5
1780E
330
176D7
100
AcDbEntity
  8
1
  6
Continuous
100
AcDbLine
 10
318.8271639999999
 20
203.2
 30
0.0
 11
316.327164
 21
205.6999999999999
 31
0.0
  0
LINE
  5
1780F
330
176D7
100
AcDbEntity
  8
1
  6
Continuous
100
AcDbLine
 10
316.705844
 20
203.2
 30
0.0
 11
314.205844
 21
205.6999999999999
 31
0.0
  0
LINE
  5
17810
330
176D7
100
AcDbEntity
  8
1
  6
Continuous
100
AcDbLine
 10
316.327164
 20
203.2
 30
0.0
 11
318.8271639999999
 21
205.6999999999999
 31
0.0
  0
LINE
  5
17811
330
176D7
100
AcDbEntity
  8
1
  6
Continuous
100
AcDbLine
 10
314.205844
 20
203.2
 30
0.0
 11
316.705844
 21
205.6999999999999
 31
0.0
  0
LINE
  5
17812
330
176D7
100
AcDbEntity
  8
1
  6
Continuous
100
AcDbLine
 10
310.3418829999998
 20
203.2
 30
0.0
 11
307.8418829999999
 21
205.6999999999999
 31
0.0
  0
LINE
  5
17813
330
176D7
100
AcDbEntity
  8
1
  6
Continuous
100
AcDbLine
 10
308.2205629999999
 20
203.2
 30
0.0
 11
305.7205629999999
 21
205.6999999999999
 31
0.0
  0
LINE
  5
17814
330
176D7
100
AcDbEntity
  8
1
  6
Continuous
100
AcDbLine
 10
307.8418829999999
 20
203.2
 30
0.0
 11
310.3418829999998
 21
205.6999999999999
 31
0.0
  0
LINE
  5
17815
330
176D7
100
AcDbEntity
  8
1
  6
Continuous
100
AcDbLine
 10
305.7205629999999
 20
203.2
 30
0.0
 11
308.2205629999999
 21
205.6999999999999
 31
0.0
  0
LINE
  5
17816
330
176D7
100
AcDbEntity
  8
1
  6
Continuous
100
AcDbLine
 10
325.0
 20
196.5
 30
0.0
 11
301.0
 21
196.5
 31
0.0
  0
LINE
  5
17817
330
176D7
100
AcDbEntity
  8
1
  6
Continuous
100
AcDbLine
 10
306.099242
 20
203.2
 30
0.0
 11
303.5992419999999
 21
205.6999999999999
 31
0.0
  0
LINE
  5
17818
330
176D7
100
AcDbEntity
  8
1
  6
Continuous
100
AcDbLine
 10
303.5992419999999
 20
203.2
 30
0.0
 11
306.099242
 21
205.6999999999999
 31
0.0
  0
LINE
  5
17819
330
176D7
100
AcDbEntity
  8
1
  6
Continuous
100
AcDbLine
 10
303.9779219999999
 20
203.2
 30
0.0
 11
301.4779219999998
 21
205.6999999999999
 31
0.0
  0
LINE
  5
1781A
330
176D7
100
AcDbEntity
  8
1
  6
Continuous
100
AcDbLine
 10
301.4779219999998
 20
203.2
 30
0.0
 11
303.9779219999999
 21
205.6999999999999
 31
0.0
  0
LINE
  5
1781B
330
176D7
100
AcDbEntity
  8
1
  6
Continuous
100
AcDbLine
 10
314.5845239999999
 20
203.2
 30
0.0
 11
312.0845239999999
 21
205.6999999999999
 31
0.0
  0
LINE
  5
1781C
330
176D7
100
AcDbEntity
  8
1
  6
Continuous
100
AcDbLine
 10
312.4632029999999
 20
203.2
 30
0.0
 11
309.9632029999999
 21
205.6999999999999
 31
0.0
  0
LINE
  5
1781D
330
176D7
100
AcDbEntity
  8
1
  6
Continuous
100
AcDbLine
 10
312.0845239999999
 20
203.2
 30
0.0
 11
314.5845239999999
 21
205.6999999999999
 31
0.0
  0
LINE
  5
1781E
330
176D7
100
AcDbEntity
  8
1
  6
Continuous
100
AcDbLine
 10
309.9632029999999
 20
203.2
 30
0.0
 11
312.4632029999999
 21
205.6999999999999
 31
0.0
  0
LINE
  5
1781F
330
176D7
100
AcDbEntity
  8
1
  6
Continuous
100
AcDbLine
 10
325.1911259999999
 20
203.2
 30
0.0
 11
322.691126
 21
205.6999999999999
 31
0.0
  0
LINE
  5
17820
330
176D7
100
AcDbEntity
  8
1
  6
Continuous
100
AcDbLine
 10
322.691126
 20
203.2
 30
0.0
 11
325.1911259999999
 21
205.6999999999999
 31
0.0
  0
LINE
  5
17821
330
176D7
100
AcDbEntity
  8
1
  6
Continuous
100
AcDbLine
 10
320.9484849999999
 20
203.2
 30
0.0
 11
318.448485
 21
205.6999999999999
 31
0.0
  0
LINE
  5
17822
330
176D7
100
AcDbEntity
  8
1
  6
Continuous
100
AcDbLine
 10
318.448485
 20
203.2
 30
0.0
 11
320.9484849999999
 21
205.6999999999999
 31
0.0
  0
LINE
  5
17823
330
176D7
100
AcDbEntity
  8
1
  6
Continuous
100
AcDbLine
 10
323.0698049999999
 20
203.2
 30
0.0
 11
320.5698049999999
 21
205.6999999999999
 31
0.0
  0
LINE
  5
17824
330
176D7
100
AcDbEntity
  8
1
  6
Continuous
100
AcDbLine
 10
320.5698049999999
 20
203.2
 30
0.0
 11
323.0698049999999
 21
205.6999999999999
 31
0.0
  0
LINE
  5
17825
330
176D7
100
AcDbEntity
  8
1
  6
Continuous
100
AcDbLine
 10
329.433766
 20
203.2
 30
0.0
 11
326.933766
 21
205.6999999999999
 31
0.0
  0
LINE
  5
17826
330
176D7
100
AcDbEntity
  8
1
  6
Continuous
100
AcDbLine
 10
326.933766
 20
203.2
 30
0.0
 11
329.433766
 21
205.6999999999999
 31
0.0
  0
LINE
  5
17827
330
176D7
100
AcDbEntity
  8
1
  6
Continuous
100
AcDbLine
 10
327.312446
 20
203.2
 30
0.0
 11
324.812446
 21
205.6999999999999
 31
0.0
  0
LINE
  5
17828
330
176D7
100
AcDbEntity
  8
1
  6
Continuous
100
AcDbLine
 10
324.812446
 20
203.2
 30
0.0
 11
327.312446
 21
205.6999999999999
 31
0.0
  0
LINE
  5
17829
330
176D7
100
AcDbEntity
  8
1
  6
Continuous
100
AcDbLine
 10
331.555087
 20
203.2
 30
0.0
 11
329.055087
 21
205.6999999999999
 31
0.0
  0
LINE
  5
1782A
330
176D7
100
AcDbEntity
  8
1
  6
Continuous
100
AcDbLine
 10
329.055087
 20
203.2
 30
0.0
 11
331.555087
 21
205.6999999999999
 31
0.0
  0
ARC
  5
1782B
330
176D7
100
AcDbEntity
  8
1
  6
Continuous
100
AcDbCircle
 10
333.0
 20
207.2
 30
0.0
 40
1.5
100
AcDbArc
 50
0.0
 51
90.0
  0
ARC
  5
1782C
330
176D7
100
AcDbEntity
  8
1
  6
Continuous
100
AcDbCircle
 10
335.0
 20
200.7
 30
0.0
 40
2.5
100
AcDbArc
 50
0.0
 51
90.0
  0
LINE
  5
1782D
330
176D7
100
AcDbEntity
  8
1
  6
Continuous
100
AcDbLine
 10
336.5
 20
204.6190479999999
 30
0.0
 11
335.4190479999999
 21
205.6999999999999
 31
0.0
  0
LINE
  5
1782E
330
176D7
100
AcDbEntity
  8
1
  6
Continuous
100
AcDbLine
 10
335.797727
 20
203.2
 30
0.0
 11
333.297727
 21
205.6999999999999
 31
0.0
  0
LINE
  5
1782F
330
176D7
100
AcDbEntity
  8
1
  6
Continuous
100
AcDbLine
 10
335.4190479999999
 20
203.2
 30
0.0
 11
336.5
 21
204.280952
 31
0.0
  0
LINE
  5
17830
330
176D7
100
AcDbEntity
  8
1
  6
Continuous
100
AcDbLine
 10
333.297727
 20
203.2
 30
0.0
 11
335.797727
 21
205.6999999999999
 31
0.0
  0
LINE
  5
17831
330
176D7
100
AcDbEntity
  8
1
  6
Continuous
100
AcDbLine
 10
334.5
 20
206.6999999999999
 30
0.0
 11
334.5
 21
207.2
 31
0.0
  0
ARC
  5
17832
330
176D7
100
AcDbEntity
  8
1
  6
Continuous
100
AcDbCircle
 10
333.0
 20
218.6999999999999
 30
0.0
 40
10.0
100
AcDbArc
 50
270.0
 51
306.8698979999999
  0
LINE
  5
17833
330
176D7
100
AcDbEntity
  8
1
  6
Continuous
100
AcDbLine
 10
345.0
 20
213.0
 30
0.0
 11
345.0
 21
210.6999999999999
 31
0.0
  0
LINE
  5
17834
330
176D7
100
AcDbEntity
  8
1
  6
Continuous
100
AcDbLine
 10
72.25896
 20
197.4499999999999
 30
0.0
 11
72.25896
 21
196.455507
 31
0.0
  0
LINE
  5
17835
330
176D7
100
AcDbEntity
  8
1
  6
Continuous
100
AcDbLine
 10
41.74103999999998
 20
197.4499999999999
 30
0.0
 11
41.74103999999998
 21
196.455507
 31
0.0
  0
LINE
  5
17836
330
176D7
100
AcDbEntity
  8
1
  6
Continuous
100
AcDbLine
 10
73.0
 20
199.0999999999999
 30
0.0
 11
41.0
 21
199.0999999999999
 31
0.0
  0
LINE
  5
17837
330
176D7
100
AcDbEntity
  8
1
  6
Continuous
100
AcDbLine
 10
73.0
 20
197.4499999999999
 30
0.0
 11
41.0
 21
197.4499999999999
 31
0.0
  0
LINE
  5
17838
330
176D7
100
AcDbEntity
  8
1
  6
Continuous
100
AcDbLine
 10
72.25896
 20
196.455507
 30
0.0
 11
41.74103999999998
 21
196.455507
 31
0.0
  0
ARC
  5
17839
330
176D7
100
AcDbEntity
  8
1
  6
Continuous
100
AcDbCircle
 10
67.313249
 20
198.684887
 30
0.0
 40
5.424959999999998
100
AcDbArc
 50
292.174096
 51
335.7355569999999
  0
ARC
  5
1783A
330
176D7
100
AcDbEntity
  8
1
  6
Continuous
100
AcDbCircle
 10
46.686751
 20
198.684887
 30
0.0
 40
5.424959999999998
100
AcDbArc
 50
204.264443
 51
247.8259039999998
  0
LINE
  5
1783B
330
176D7
100
AcDbEntity
  8
1
  6
Continuous
100
AcDbLine
 10
419.0785359999998
 20
196.455507
 30
0.0
 11
416.635166
 21
196.455507
 31
0.0
  0
ARC
  5
1783C
330
176D7
100
AcDbEntity
  8
1
  6
Continuous
100
AcDbCircle
 10
421.49168
 20
198.9691739999999
 30
0.0
 40
5.468479
100
AcDbArc
 50
207.365473
 51
256.086107
  0
LINE
  5
1783D
330
176D7
100
AcDbEntity
  8
1
  6
Continuous
100
AcDbLine
 10
416.635165
 20
196.455507
 30
0.0
 11
416.635165
 21
196.6999999999999
 31
0.0
  0
ARC
  5
1783E
330
176D7
100
AcDbEntity
  8
1
  6
Continuous
100
AcDbCircle
 10
174.0
 20
218.6999999999999
 30
0.0
 40
10.0
100
AcDbArc
 50
233.130102
 51
270.0
  0
LINE
  5
1783F
330
176D7
100
AcDbEntity
  8
1
  6
Continuous
100
AcDbLine
 10
217.5
 20
203.2
 30
0.0
 11
164.0
 21
203.2
 31
0.0
  0
LINE
  5
17840
330
176D7
100
AcDbEntity
  8
4
  6
CENTER
100
AcDbLine
 10
199.0
 20
170.0
 30
0.0
 11
139.0
 21
170.0
 31
0.0
  0
LINE
  5
17841
330
176D7
100
AcDbEntity
  8
1
  6
Continuous
100
AcDbLine
 10
226.0
 20
213.0
 30
0.0
 11
162.0
 21
213.0
 31
0.0
  0
LINE
  5
17842
330
176D7
100
AcDbEntity
  8
1
  6
Continuous
100
AcDbLine
 10
226.0
 20
210.6999999999999
 30
0.0
 11
162.0
 21
210.6999999999999
 31
0.0
  0
LINE
  5
17843
330
176D7
100
AcDbEntity
  8
1
  6
Continuous
100
AcDbLine
 10
201.4587699999999
 20
193.1278819999998
 30
0.0
 11
192.009305
 21
181.866467
 31
0.0
  0
LINE
  5
17844
330
176D7
100
AcDbEntity
  8
1
  6
Continuous
100
AcDbLine
 10
178.0
 20
199.098503
 30
0.0
 11
178.0
 21
181.1897339999999
 31
0.0
  0
LINE
  5
17845
330
176D7
100
AcDbEntity
  8
4
  6
CENTER
100
AcDbLine
 10
169.0
 20
140.0
 30
0.0
 11
169.0
 21
200.0
 31
0.0
  0
LINE
  5
17846
330
176D7
100
AcDbEntity
  8
1
  6
Continuous
100
AcDbLine
 10
201.2794369999999
 20
203.2
 30
0.0
 11
198.7794369999998
 21
205.6999999999999
 31
0.0
  0
LINE
  5
17847
330
176D7
100
AcDbEntity
  8
1
  6
Continuous
100
AcDbLine
 10
198.7794369999998
 20
203.2
 30
0.0
 11
201.2794369999999
 21
205.6999999999999
 31
0.0
  0
LINE
  5
17848
330
176D7
100
AcDbEntity
  8
1
  6
Continuous
100
AcDbLine
 10
214.0
 20
208.6999999999999
 30
0.0
 11
174.0
 21
208.6999999999999
 31
0.0
  0
LINE
  5
17849
330
176D7
100
AcDbEntity
  8
1
  6
Continuous
100
AcDbLine
 10
217.5
 20
206.6999999999999
 30
0.0
 11
170.5
 21
206.6999999999999
 31
0.0
  0
LINE
  5
1784A
330
176D7
100
AcDbEntity
  8
1
  6
Continuous
100
AcDbLine
 10
217.5
 20
205.6999999999999
 30
0.0
 11
170.5
 21
205.6999999999999
 31
0.0
  0
LINE
  5
1784B
330
176D7
100
AcDbEntity
  8
1
  6
Continuous
100
AcDbLine
 10
215.5
 20
206.6999999999999
 30
0.0
 11
215.5
 21
207.2
 31
0.0
  0
LINE
  5
1784C
330
176D7
100
AcDbEntity
  8
1
  6
Continuous
100
AcDbLine
 10
215.75
 20
205.6999999999999
 30
0.0
 11
217.5
 21
203.9499999999999
 31
0.0
  0
LINE
  5
1784D
330
176D7
100
AcDbEntity
  8
1
  6
Continuous
100
AcDbLine
 10
216.1286799999998
 20
203.2
 30
0.0
 11
213.6286799999998
 21
205.6999999999999
 31
0.0
  0
LINE
  5
1784E
330
176D7
100
AcDbEntity
  8
1
  6
Continuous
100
AcDbLine
 10
215.75
 20
203.2
 30
0.0
 11
217.5
 21
204.95
 31
0.0
  0
LINE
  5
1784F
330
176D7
100
AcDbEntity
  8
1
  6
Continuous
100
AcDbLine
 10
213.6286799999998
 20
203.2
 30
0.0
 11
216.1286799999998
 21
205.6999999999999
 31
0.0
  0
LINE
  5
17850
330
176D7
100
AcDbEntity
  8
1
  6
Continuous
100
AcDbLine
 10
218.5
 20
196.6999999999999
 30
0.0
 11
209.119209
 21
196.6999999999999
 31
0.0
  0
LINE
  5
17851
330
176D7
100
AcDbEntity
  8
1
  6
Continuous
100
AcDbLine
 10
218.5
 20
196.6999999999999
 30
0.0
 11
218.5
 21
201.2
 31
0.0
  0
ARC
  5
17852
330
176D7
100
AcDbEntity
  8
1
  6
Continuous
100
AcDbCircle
 10
216.5
 20
201.2
 30
0.0
 40
2.0
100
AcDbArc
 50
0.0
 51
90.0
  0
LINE
  5
17853
330
176D7
100
AcDbEntity
  8
1
  6
Continuous
100
AcDbLine
 10
209.364835
 20
196.455507
 30
0.0
 11
209.364835
 21
196.6999999999999
 31
0.0
  0
ARC
  5
17854
330
176D7
100
AcDbEntity
  8
1
  6
Continuous
100
AcDbCircle
 10
204.50832
 20
198.9691739999999
 30
0.0
 40
5.468479
100
AcDbArc
 50
283.9138929999998
 51
332.634527
  0
LINE
  5
17855
330
176D7
100
AcDbEntity
  8
1
  6
Continuous
100
AcDbLine
 10
206.9214639999999
 20
196.455507
 30
0.0
 11
209.364834
 21
196.455507
 31
0.0
  0
LINE
  5
17856
330
176D7
100
AcDbEntity
  8
1
  6
Continuous
100
AcDbLine
 10
203.4007579999999
 20
203.2
 30
0.0
 11
200.900758
 21
205.6999999999999
 31
0.0
  0
LINE
  5
17857
330
176D7
100
AcDbEntity
  8
1
  6
Continuous
100
AcDbLine
 10
200.900758
 20
203.2
 30
0.0
 11
203.4007579999999
 21
205.6999999999999
 31
0.0
  0
LINE
  5
17858
330
176D7
100
AcDbEntity
  8
1
  6
Continuous
100
AcDbLine
 10
207.643398
 20
203.2
 30
0.0
 11
205.143398
 21
205.6999999999999
 31
0.0
  0
LINE
  5
17859
330
176D7
100
AcDbEntity
  8
1
  6
Continuous
100
AcDbLine
 10
205.143398
 20
203.2
 30
0.0
 11
207.643398
 21
205.6999999999999
 31
0.0
  0
LINE
  5
1785A
330
176D7
100
AcDbEntity
  8
1
  6
Continuous
100
AcDbLine
 10
205.5220779999999
 20
203.2
 30
0.0
 11
203.022078
 21
205.6999999999999
 31
0.0
  0
LINE
  5
1785B
330
176D7
100
AcDbEntity
  8
1
  6
Continuous
100
AcDbLine
 10
203.022078
 20
203.2
 30
0.0
 11
205.5220779999999
 21
205.6999999999999
 31
0.0
  0
LINE
  5
1785C
330
176D7
100
AcDbEntity
  8
1
  6
Continuous
100
AcDbLine
 10
211.886039
 20
203.2
 30
0.0
 11
209.3860389999999
 21
205.6999999999999
 31
0.0
  0
LINE
  5
1785D
330
176D7
100
AcDbEntity
  8
1
  6
Continuous
100
AcDbLine
 10
209.3860389999999
 20
203.2
 30
0.0
 11
211.886039
 21
205.6999999999999
 31
0.0
  0
LINE
  5
1785E
330
176D7
100
AcDbEntity
  8
1
  6
Continuous
100
AcDbLine
 10
214.0073589999999
 20
203.2
 30
0.0
 11
211.5073589999998
 21
205.6999999999999
 31
0.0
  0
LINE
  5
1785F
330
176D7
100
AcDbEntity
  8
1
  6
Continuous
100
AcDbLine
 10
211.5073589999998
 20
203.2
 30
0.0
 11
214.0073589999999
 21
205.6999999999999
 31
0.0
  0
LINE
  5
17860
330
176D7
100
AcDbEntity
  8
1
  6
Continuous
100
AcDbLine
 10
209.7647189999999
 20
203.2
 30
0.0
 11
207.264719
 21
205.6999999999999
 31
0.0
  0
LINE
  5
17861
330
176D7
100
AcDbEntity
  8
1
  6
Continuous
100
AcDbLine
 10
207.264719
 20
203.2
 30
0.0
 11
209.7647189999999
 21
205.6999999999999
 31
0.0
  0
ARC
  5
17862
330
176D7
100
AcDbEntity
  8
1
  6
Continuous
100
AcDbCircle
 10
205.2658829999999
 20
214.5209009999999
 30
0.0
 40
20.85899799999999
100
AcDbArc
 50
270.0129539999999
 51
271.6319809999999
  0
LINE
  5
17863
330
176D7
100
AcDbEntity
  8
1
  6
Continuous
100
AcDbLine
 10
201.939906
 20
193.6611499999999
 30
0.0
 11
205.270599
 21
193.6619029999999
 31
0.0
  0
ARC
  5
17864
330
176D7
100
AcDbEntity
  8
1
  6
Continuous
100
AcDbCircle
 10
209.119209
 20
186.6999999999999
 30
0.0
 40
10.0
100
AcDbArc
 50
90.0
 51
139.999953
  0
ARC
  5
17865
330
176D7
100
AcDbEntity
  8
1
  6
Continuous
100
AcDbCircle
 10
214.0
 20
207.2
 30
0.0
 40
1.5
100
AcDbArc
 50
0.0
 51
90.0
  0
ARC
  5
17866
330
176D7
100
AcDbEntity
  8
1
  6
Continuous
100
AcDbCircle
 10
214.0
 20
218.6999999999999
 30
0.0
 40
10.0
100
AcDbArc
 50
270.0
 51
306.8698979999999
  0
LINE
  5
17867
330
176D7
100
AcDbEntity
  8
4
  6
CENTER
100
AcDbLine
 10
219.0
 20
208.4
 30
0.0
 11
219.0
 21
215.3
 31
0.0
  0
LINE
  5
17868
330
176D7
100
AcDbEntity
  8
1
  6
Continuous
100
AcDbLine
 10
226.0
 20
213.0
 30
0.0
 11
226.0
 21
210.6999999999999
 31
0.0
  0
LINE
  5
17869
330
176D7
100
AcDbEntity
  8
1
  6
Continuous
100
AcDbLine
 10
172.5
 20
206.6999999999999
 30
0.0
 11
172.5
 21
207.2
 31
0.0
  0
LINE
  5
1786A
330
176D7
100
AcDbEntity
  8
4
  6
CENTER
100
AcDbLine
 10
194.0
 20
176.4602689999999
 30
0.0
 11
194.0
 21
218.0
 31
0.0
  0
LINE
  5
1786B
330
176D7
100
AcDbEntity
  8
1
  6
Continuous
100
AcDbLine
 10
184.3088739999998
 20
203.2
 30
0.0
 11
181.808874
 21
205.6999999999999
 31
0.0
  0
LINE
  5
1786C
330
176D7
100
AcDbEntity
  8
1
  6
Continuous
100
AcDbLine
 10
181.808874
 20
203.2
 30
0.0
 11
184.3088739999998
 21
205.6999999999999
 31
0.0
  0
LINE
  5
1786D
330
176D7
100
AcDbEntity
  8
1
  6
Continuous
100
AcDbLine
 10
190.6728359999999
 20
203.2
 30
0.0
 11
188.1728359999999
 21
205.6999999999999
 31
0.0
  0
LINE
  5
1786E
330
176D7
100
AcDbEntity
  8
1
  6
Continuous
100
AcDbLine
 10
188.5515149999999
 20
203.2
 30
0.0
 11
186.0515149999999
 21
205.6999999999999
 31
0.0
  0
LINE
  5
1786F
330
176D7
100
AcDbEntity
  8
1
  6
Continuous
100
AcDbLine
 10
188.1728359999999
 20
203.2
 30
0.0
 11
190.6728359999999
 21
205.6999999999999
 31
0.0
  0
LINE
  5
17870
330
176D7
100
AcDbEntity
  8
1
  6
Continuous
100
AcDbLine
 10
186.0515149999999
 20
203.2
 30
0.0
 11
188.5515149999999
 21
205.6999999999999
 31
0.0
  0
LINE
  5
17871
330
176D7
100
AcDbEntity
  8
1
  6
Continuous
100
AcDbLine
 10
186.4301949999999
 20
203.2
 30
0.0
 11
183.930195
 21
205.6999999999999
 31
0.0
  0
LINE
  5
17872
330
176D7
100
AcDbEntity
  8
1
  6
Continuous
100
AcDbLine
 10
183.930195
 20
203.2
 30
0.0
 11
186.4301949999999
 21
205.6999999999999
 31
0.0
  0
LINE
  5
17873
330
176D7
100
AcDbEntity
  8
1
  6
Continuous
100
AcDbLine
 10
199.158117
 20
203.2
 30
0.0
 11
196.6581169999998
 21
205.6999999999999
 31
0.0
  0
LINE
  5
17874
330
176D7
100
AcDbEntity
  8
1
  6
Continuous
100
AcDbLine
 10
196.6581169999998
 20
203.2
 30
0.0
 11
199.158117
 21
205.6999999999999
 31
0.0
  0
LINE
  5
17875
330
176D7
100
AcDbEntity
  8
1
  6
Continuous
100
AcDbLine
 10
197.036797
 20
203.2
 30
0.0
 11
194.536797
 21
205.6999999999999
 31
0.0
  0
LINE
  5
17876
330
176D7
100
AcDbEntity
  8
1
  6
Continuous
100
AcDbLine
 10
194.536797
 20
203.2
 30
0.0
 11
197.036797
 21
205.6999999999999
 31
0.0
  0
LINE
  5
17877
330
176D7
100
AcDbEntity
  8
1
  6
Continuous
100
AcDbLine
 10
194.915476
 20
203.2
 30
0.0
 11
192.415476
 21
205.6999999999999
 31
0.0
  0
LINE
  5
17878
330
176D7
100
AcDbEntity
  8
1
  6
Continuous
100
AcDbLine
 10
192.7941559999999
 20
203.2
 30
0.0
 11
190.294156
 21
205.6999999999999
 31
0.0
  0
LINE
  5
17879
330
176D7
100
AcDbEntity
  8
1
  6
Continuous
100
AcDbLine
 10
192.415476
 20
203.2
 30
0.0
 11
194.915476
 21
205.6999999999999
 31
0.0
  0
LINE
  5
1787A
330
176D7
100
AcDbEntity
  8
1
  6
Continuous
100
AcDbLine
 10
190.294156
 20
203.2
 30
0.0
 11
192.7941559999999
 21
205.6999999999999
 31
0.0
  0
LINE
  5
1787B
330
176D7
100
AcDbEntity
  8
1
  6
Continuous
100
AcDbLine
 10
171.580952
 20
203.2
 30
0.0
 11
170.5
 21
204.280952
 31
0.0
  0
LINE
  5
1787C
330
176D7
100
AcDbEntity
  8
1
  6
Continuous
100
AcDbLine
 10
170.5
 20
204.6190479999999
 30
0.0
 11
171.580952
 21
205.6999999999999
 31
0.0
  0
LINE
  5
1787D
330
176D7
100
AcDbEntity
  8
1
  6
Continuous
100
AcDbLine
 10
175.8235929999999
 20
203.2
 30
0.0
 11
173.323593
 21
205.6999999999999
 31
0.0
  0
LINE
  5
1787E
330
176D7
100
AcDbEntity
  8
1
  6
Continuous
100
AcDbLine
 10
173.323593
 20
203.2
 30
0.0
 11
175.8235929999999
 21
205.6999999999999
 31
0.0
  0
LINE
  5
1787F
330
176D7
100
AcDbEntity
  8
1
  6
Continuous
100
AcDbLine
 10
173.7022729999999
 20
203.2
 30
0.0
 11
171.2022729999999
 21
205.6999999999999
 31
0.0
  0
LINE
  5
17880
330
176D7
100
AcDbEntity
  8
1
  6
Continuous
100
AcDbLine
 10
171.2022729999999
 20
203.2
 30
0.0
 11
173.7022729999999
 21
205.6999999999999
 31
0.0
  0
LINE
  5
17881
330
176D7
100
AcDbEntity
  8
1
  6
Continuous
100
AcDbLine
 10
180.066234
 20
203.2
 30
0.0
 11
177.566234
 21
205.6999999999999
 31
0.0
  0
LINE
  5
17882
330
176D7
100
AcDbEntity
  8
1
  6
Continuous
100
AcDbLine
 10
177.566234
 20
203.2
 30
0.0
 11
180.066234
 21
205.6999999999999
 31
0.0
  0
LINE
  5
17883
330
176D7
100
AcDbEntity
  8
1
  6
Continuous
100
AcDbLine
 10
182.187554
 20
203.2
 30
0.0
 11
179.687554
 21
205.6999999999999
 31
0.0
  0
LINE
  5
17884
330
176D7
100
AcDbEntity
  8
1
  6
Continuous
100
AcDbLine
 10
179.687554
 20
203.2
 30
0.0
 11
182.187554
 21
205.6999999999999
 31
0.0
  0
LINE
  5
17885
330
176D7
100
AcDbEntity
  8
1
  6
Continuous
100
AcDbLine
 10
177.9449129999999
 20
203.2
 30
0.0
 11
175.4449129999999
 21
205.6999999999999
 31
0.0
  0
LINE
  5
17886
330
176D7
100
AcDbEntity
  8
1
  6
Continuous
100
AcDbLine
 10
175.4449129999999
 20
203.2
 30
0.0
 11
177.9449129999999
 21
205.6999999999999
 31
0.0
  0
LINE
  5
17887
330
176D7
100
AcDbEntity
  8
4
  6
CENTER
100
AcDbLine
 10
169.0
 20
208.4
 30
0.0
 11
169.0
 21
215.3
 31
0.0
  0
ARC
  5
17888
330
176D7
100
AcDbEntity
  8
1
  6
Continuous
100
AcDbCircle
 10
174.0
 20
207.2
 30
0.0
 40
1.5
100
AcDbArc
 50
90.0
 51
180.0
  0
LINE
  5
17889
330
176D7
100
AcDbEntity
  8
1
  6
Continuous
100
AcDbLine
 10
167.0
 20
203.2
 30
0.0
 11
164.198689
 21
193.899649
 31
0.0
  0
LINE
  5
1788A
330
176D7
100
AcDbEntity
  8
1
  6
Continuous
100
AcDbLine
 10
166.307229
 20
200.8999999999999
 30
0.0
 11
164.0
 21
200.8999999999999
 31
0.0
  0
LINE
  5
1788B
330
176D7
100
AcDbEntity
  8
1
  6
Continuous
100
AcDbLine
 10
164.0
 20
200.8999999999999
 30
0.0
 11
164.0
 21
203.2
 31
0.0
  0
LINE
  5
1788C
330
176D7
100
AcDbEntity
  8
1
  6
Continuous
100
AcDbLine
 10
162.0
 20
213.0
 30
0.0
 11
162.0
 21
210.6999999999999
 31
0.0
  0
LINE
  5
1788D
330
176D7
100
AcDbEntity
  8
1
  6
Continuous
100
AcDbLine
 10
287.389092
 20
162.4996109999999
 30
0.0
 11
286.209675
 21
162.4996109999999
 31
0.0
  0
LINE
  5
1788E
330
176D7
100
AcDbEntity
  8
1
  6
Continuous
100
AcDbLine
 10
280.04
 20
172.799611
 30
0.0
 11
280.04
 21
167.199611
 31
0.0
  0
LINE
  5
1788F
330
176D7
100
AcDbEntity
  8
1
  6
Continuous
100
AcDbLine
 10
333.8
 20
162.9996109999999
 30
0.0
 11
333.8
 21
167.0082759999999
 31
0.0
  0
LINE
  5
17890
330
176D7
100
AcDbEntity
  8
1
  6
Continuous
100
AcDbLine
 10
333.8
 20
162.9996109999999
 30
0.0
 11
331.680174
 21
162.9996109999999
 31
0.0
  0
ARC
  5
17891
330
176D7
100
AcDbEntity
  8
1
  6
Continuous
100
AcDbCircle
 10
327.83549
 20
183.6682279999999
 30
0.0
 40
39.33754099999998
100
AcDbArc
 50
179.2916779999999
 51
195.3946779999999
  0
ARC
  5
17892
330
176D7
100
AcDbEntity
  8
1
  6
Continuous
100
AcDbCircle
 10
327.83549
 20
183.6682279999999
 30
0.0
 40
37.03754099999999
100
AcDbArc
 50
172.941843
 51
210.8489720000001
  0
LINE
  5
17893
330
176D7
100
AcDbEntity
  8
4
  6
CENTER
100
AcDbLine
 10
57.0
 20
140.0
 30
0.0
 11
57.0
 21
218.0
 31
0.0
  0
LINE
  5
17894
330
176D7
100
AcDbEntity
  8
4
  6
CENTER
100
AcDbLine
 10
231.0
 20
285.0
 30
0.0
 11
139.0004449999999
 21
285.0
 31
0.0
  0
LINE
  5
17895
330
176D7
100
AcDbEntity
  8
4
  6
CENTER
100
AcDbLine
 10
219.0
 20
54.5
 30
0.0
 11
219.0
 21
41.5
 31
0.0
  0
CIRCLE
  5
17896
330
176D7
100
AcDbEntity
  8
1
  6
Continuous
100
AcDbCircle
 10
219.0
 20
48.0
 30
0.0
 40
3.25
  0
LINE
  5
17897
330
176D7
100
AcDbEntity
  8
1
  6
Continuous
100
AcDbLine
 10
226.0
 20
98.0
 30
0.0
 11
226.0
 21
48.0
 31
0.0
  0
ARC
  5
17898
330
176D7
100
AcDbEntity
  8
1
  6
Continuous
100
AcDbCircle
 10
169.0
 20
48.0
 30
0.0
 40
3.25
100
AcDbArc
 50
137.3953159999998
 51
42.60468399999999
  0
LINE
  5
17899
330
176D7
100
AcDbEntity
  8
4
  6
CENTER
100
AcDbLine
 10
194.0
 20
110.0
 30
0.0
 11
194.0
 21
36.0
 31
0.0
  0
LINE
  5
1789A
330
176D7
100
AcDbEntity
  8
4
  6
CENTER
100
AcDbLine
 10
231.0
 20
73.0
 30
0.0
 11
139.0004449999999
 21
73.0
 31
0.0
  0
LINE
  5
1789B
330
176D7
100
AcDbEntity
  8
1
  6
Continuous
100
AcDbLine
 10
219.0
 20
105.0
 30
0.0
 11
203.169946
 21
105.0
 31
0.0
  0
ARC
  5
1789C
330
176D7
100
AcDbEntity
  8
1
  6
Continuous
100
AcDbCircle
 10
169.0
 20
98.0
 30
0.0
 40
7.0
100
AcDbArc
 50
148.9972809999999
 51
164.5940689999999
  0
LINE
  5
1789D
330
176D7
100
AcDbEntity
  8
1
  6
Continuous
100
AcDbLine
 10
175.9069069999999
 20
89.0
 30
0.0
 11
157.942081
 21
89.0
 31
0.0
  0
LINE
  5
1789E
330
176D7
100
AcDbEntity
  8
1
  6
Continuous
100
AcDbLine
 10
157.942081
 20
91.18993299999999
 30
0.0
 11
157.942081
 21
89.0
 31
0.0
  0
LINE
  5
1789F
330
176D7
100
AcDbEntity
  8
1
  6
Continuous
100
AcDbLine
 10
175.9069069999999
 20
57.0
 30
0.0
 11
157.942081
 21
57.0
 31
0.0
  0
LINE
  5
178A0
330
176D7
100
AcDbEntity
  8
1
  6
Continuous
100
AcDbLine
 10
175.9069069999999
 20
54.7
 30
0.0
 11
157.942081
 21
54.7
 31
0.0
  0
LINE
  5
178A1
330
176D7
100
AcDbEntity
  8
1
  6
Continuous
100
AcDbLine
 10
157.942081
 20
57.0
 30
0.0
 11
157.942081
 21
54.7
 31
0.0
  0
LINE
  5
178A2
330
176D7
100
AcDbEntity
  8
4
  6
CENTER
100
AcDbLine
 10
219.0
 20
104.4999999999999
 30
0.0
 11
219.0
 21
91.5
 31
0.0
  0
CIRCLE
  5
178A3
330
176D7
100
AcDbEntity
  8
1
  6
Continuous
100
AcDbCircle
 10
219.0
 20
98.0
 30
0.0
 40
3.25
  0
LINE
  5
178A4
330
176D7
100
AcDbEntity
  8
4
  6
CENTER
100
AcDbLine
 10
225.4999999999999
 20
98.0
 30
0.0
 11
212.5
 21
98.0
 31
0.0
  0
ARC
  5
178A5
330
176D7
100
AcDbEntity
  8
1
  6
Continuous
100
AcDbCircle
 10
219.0
 20
98.0
 30
0.0
 40
7.0
100
AcDbArc
 50
0.0
 51
90.0
  0
LINE
  5
178A6
330
176D7
100
AcDbEntity
  8
1
  6
Continuous
100
AcDbLine
 10
219.0
 20
41.0
 30
0.0
 11
169.0
 21
41.0
 31
0.0
  0
LINE
  5
178A7
330
176D7
100
AcDbEntity
  8
4
  6
CENTER
100
AcDbLine
 10
175.5
 20
48.0
 30
0.0
 11
162.5
 21
48.0
 31
0.0
  0
ARC
  5
178A8
330
176D7
100
AcDbEntity
  8
1
  6
Continuous
100
AcDbCircle
 10
169.0
 20
48.0
 30
0.0
 40
7.0
100
AcDbArc
 50
180.0
 51
270.0
  0
ARC
  5
178A9
330
176D7
100
AcDbEntity
  8
1
  6
Continuous
100
AcDbCircle
 10
219.0
 20
48.0
 30
0.0
 40
7.0
100
AcDbArc
 50
270.0
 51
0.0
  0
LINE
  5
178AA
330
176D7
100
AcDbEntity
  8
4
  6
CENTER
100
AcDbLine
 10
225.4999999999999
 20
48.0
 30
0.0
 11
212.5
 21
48.0
 31
0.0
  0
ARC
  5
178AB
330
176D7
100
AcDbEntity
  8
1
  6
Continuous
100
AcDbCircle
 10
194.0
 20
73.0
 30
0.0
 40
24.5
100
AcDbArc
 50
232.169675
 51
106.894932
  0
ARC
  5
178AC
330
176D7
100
AcDbEntity
  8
1
  6
Continuous
100
AcDbCircle
 10
194.0
 20
73.0
 30
0.0
 40
26.0
100
AcDbArc
 50
226.186939
 51
66.17636
  0
ARC
  5
178AD
330
176D7
100
AcDbEntity
  8
1
  6
Continuous
100
AcDbCircle
 10
194.0
 20
73.0
 30
0.0
 40
19.75
100
AcDbArc
 50
219.2652479999999
 51
140.7347519999999
  0
ARC
  5
178AE
330
176D7
100
AcDbEntity
  8
1
  6
Continuous
100
AcDbCircle
 10
194.0
 20
73.0
 30
0.0
 40
15.364835
100
AcDbArc
 50
234.443848
 51
125.556152
  0
ARC
  5
178AF
330
176D7
100
AcDbEntity
  8
1
  6
Continuous
100
AcDbCircle
 10
194.0
 20
73.0
 30
0.0
 40
6.9
100
AcDbArc
 50
269.007905
 51
90.99209499999997
  0
ARC
  5
178B0
330
176D7
100
AcDbEntity
  8
1
  6
Continuous
100
AcDbCircle
 10
194.0
 20
73.0
 30
0.0
 40
22.2
100
AcDbArc
 50
232.169675
 51
127.830325
  0
ARC
  5
178B1
330
176D7
100
AcDbEntity
  8
1
  6
Continuous
100
AcDbCircle
 10
175.9069069999999
 20
49.7
 30
0.0
 40
5.0
100
AcDbArc
 50
52.16967499999999
 51
90.0
  0
ARC
  5
178B2
330
176D7
100
AcDbEntity
  8
1
  6
Continuous
100
AcDbCircle
 10
175.9069069999999
 20
49.7
 30
0.0
 40
7.299999999999998
100
AcDbArc
 50
52.16967499999999
 51
90.0
  0
ARC
  5
178B3
330
176D7
100
AcDbEntity
  8
1
  6
Continuous
100
AcDbCircle
 10
175.9069069999999
 20
96.3
 30
0.0
 40
7.299999999999998
100
AcDbArc
 50
270.0
 51
307.830325
  0
LINE
  5
178B4
330
176D7
100
AcDbEntity
  8
4
  6
CENTER
100
AcDbLine
 10
169.0
 20
110.9595909999999
 30
0.0
 11
169.0
 21
41.5
 31
0.0
  0
LINE
  5
178B5
330
176D7
100
AcDbEntity
  8
1
  6
Continuous
100
AcDbLine
 10
171.8043959999999
 20
105.9595909999998
 30
0.0
 11
166.204396
 21
105.9595909999998
 31
0.0
  0
LINE
  5
178B6
330
176D7
100
AcDbEntity
  8
1
  6
Continuous
100
AcDbLine
 10
162.0
 20
52.20004199999999
 30
0.0
 11
176.0
 21
52.20004199999999
 31
0.0
  0
LINE
  5
178B7
330
176D7
100
AcDbEntity
  8
1
  6
Continuous
100
AcDbLine
 10
162.0
 20
89.0
 30
0.0
 11
162.0
 21
88.25000000000001
 31
0.0
  0
LINE
  5
178B8
330
176D7
100
AcDbEntity
  8
1
  6
Continuous
100
AcDbLine
 10
162.0043959999998
 20
57.0
 30
0.0
 11
162.0043959999998
 21
57.75
 31
0.0
  0
LINE
  5
178B9
330
176D7
100
AcDbEntity
  8
4
  6
CENTER
100
AcDbLine
 10
338.0
 20
208.4
 30
0.0
 11
338.0
 21
215.3
 31
0.0
  0
LINE
  5
178BA
330
176D7
100
AcDbEntity
  8
4
  6
CENTER
100
AcDbLine
 10
288.0
 20
208.4
 30
0.0
 11
288.0
 21
215.3
 31
0.0
  0
LINE
  5
178BB
330
176D7
100
AcDbEntity
  8
1
  6
Continuous
100
AcDbLine
 10
289.4999999999999
 20
206.6999999999999
 30
0.0
 11
289.4999999999999
 21
203.2
 31
0.0
  0
LINE
  5
178BC
330
176D7
100
AcDbEntity
  8
1
  6
Continuous
100
AcDbLine
 10
336.5
 20
206.6999999999999
 30
0.0
 11
336.5
 21
203.2
 31
0.0
  0
LINE
  5
178BD
330
176D7
100
AcDbEntity
  8
4
  6
CENTER
100
AcDbLine
 10
169.0
 20
317.2000419999998
 30
0.0
 11
169.0
 21
253.5
 31
0.0
  0
LINE
  5
178BE
330
176D7
100
AcDbEntity
  8
1
  6
Continuous
100
AcDbLine
 10
33.5
 20
206.6999999999999
 30
0.0
 11
33.5
 21
203.2
 31
0.0
  0
LINE
  5
178BF
330
176D7
100
AcDbEntity
  8
1
  6
Continuous
100
AcDbLine
 10
80.5
 20
206.6999999999999
 30
0.0
 11
80.5
 21
203.2
 31
0.0
  0
LINE
  5
178C0
330
176D7
100
AcDbEntity
  8
1
  6
Continuous
100
AcDbLine
 10
170.5
 20
206.6999999999999
 30
0.0
 11
170.5
 21
203.2
 31
0.0
  0
LINE
  5
178C1
330
176D7
100
AcDbEntity
  8
1
  6
Continuous
100
AcDbLine
 10
217.5
 20
203.2
 30
0.0
 11
217.5
 21
206.6999999999999
 31
0.0
  0
LINE
  5
178C2
330
176D7
100
AcDbEntity
  8
2
  6
Continuous
100
AcDbLine
 10
280.563889
 20
173.3235
 30
0.0
 11
281.1399999999998
 21
173.3235
 31
0.0
  0
LINE
  5
178C3
330
176D7
100
AcDbEntity
  8
2
  6
Continuous
100
AcDbLine
 10
280.5631109999998
 20
166.6765
 30
0.0
 11
281.1399999999998
 21
166.6765
 31
0.0
  0
LINE
  5
178C4
330
176D7
100
AcDbEntity
  8
1
  6
Continuous
100
AcDbLine
 10
281.1399999999998
 20
173.8996109999999
 30
0.0
 11
280.04
 21
172.799611
 31
0.0
  0
LINE
  5
178C5
330
176D7
100
AcDbEntity
  8
1
  6
Continuous
100
AcDbLine
 10
281.1399999999998
 20
166.099611
 30
0.0
 11
280.04
 21
167.199611
 31
0.0
  0
CIRCLE
  5
178C6
330
176D7
100
AcDbEntity
  8
2
  6
Continuous
100
AcDbCircle
 10
169.0
 20
170.0
 30
0.0
 40
3.3235
  0
CIRCLE
  5
178C7
330
176D7
100
AcDbEntity
  8
1
  6
Continuous
100
AcDbCircle
 10
169.0
 20
170.0
 30
0.0
 40
2.799999999999998
  0
LINE
  5
178C8
330
176D7
100
AcDbEntity
  8
2
  6
Continuous
100
AcDbLine
 10
89.43649999999998
 20
173.3235
 30
0.0
 11
88.86000000000001
 21
173.3235
 31
0.0
  0
LINE
  5
178C9
330
176D7
100
AcDbEntity
  8
2
  6
Continuous
100
AcDbLine
 10
89.43649999999998
 20
166.6765
 30
0.0
 11
88.86000000000001
 21
166.6765
 31
0.0
  0
LINE
  5
178CA
330
176D7
100
AcDbEntity
  8
1
  6
Continuous
100
AcDbLine
 10
89.95999999999998
 20
172.8
 30
0.0
 11
88.86000000000001
 21
173.9
 31
0.0
  0
LINE
  5
178CB
330
176D7
100
AcDbEntity
  8
1
  6
Continuous
100
AcDbLine
 10
89.95999999999998
 20
167.1999999999998
 30
0.0
 11
88.86000000000001
 21
166.1
 31
0.0
  0
LINE
  5
178CC
330
176D7
100
AcDbEntity
  8
1
  6
Continuous
100
AcDbLine
 10
455.4999999999998
 20
206.6999999999999
 30
0.0
 11
455.4999999999998
 21
203.2
 31
0.0
  0
LINE
  5
178CD
330
176D7
100
AcDbEntity
  8
1
  6
Continuous
100
AcDbLine
 10
408.4999999999998
 20
203.2
 30
0.0
 11
408.4999999999998
 21
206.6999999999999
 31
0.0
  0
LINE
  5
178CE
330
176D7
100
AcDbEntity
  8
2
  6
Continuous
100
AcDbLine
 10
165.6765
 20
105.431695
 30
0.0
 11
165.6765
 21
104.8595909999999
 31
0.0
  0
LINE
  5
178CF
330
176D7
100
AcDbEntity
  8
2
  6
Continuous
100
AcDbLine
 10
172.3235
 20
105.4404879999998
 30
0.0
 11
172.3235
 21
104.8595909999999
 31
0.0
  0
LINE
  5
178D0
330
176D7
100
AcDbEntity
  8
1
  6
Continuous
100
AcDbLine
 10
166.204396
 20
105.9595909999998
 30
0.0
 11
165.104396
 21
104.8595909999999
 31
0.0
  0
LINE
  5
178D1
330
176D7
100
AcDbEntity
  8
1
  6
Continuous
100
AcDbLine
 10
171.8043959999999
 20
105.9595909999998
 30
0.0
 11
172.904396
 21
104.8595909999999
 31
0.0
  0
LINE
  5
178D2
330
176D7
100
AcDbEntity
  8
4
  6
CENTER
100
AcDbLine
 10
175.5
 20
98.0
 30
0.0
 11
162.5
 21
98.0
 31
0.0
  0
LINE
  5
178D3
330
176D7
100
AcDbEntity
  8
1
  6
Continuous
100
AcDbLine
 10
281.1399999999998
 20
176.006894
 30
0.0
 11
281.1399999999998
 21
164.0068939999999
 31
0.0
  0
ARC
  5
178D4
330
176D7
100
AcDbEntity
  8
1
  6
Continuous
100
AcDbCircle
 10
292.6041019999999
 20
170.0068939999999
 30
0.0
 40
11.464102
100
AcDbArc
 50
162.412046
 51
197.5879539999999
  0
LINE
  5
178D5
330
176D7
100
AcDbEntity
  8
1
  6
Continuous
100
AcDbLine
 10
286.1399999999998
 20
177.5003889999999
 30
0.0
 11
286.1399999999998
 21
164.0707909999999
 31
0.0
  0
LINE
  5
178D6
330
176D7
100
AcDbEntity
  8
1
  6
Continuous
100
AcDbLine
 10
281.178399
 20
163.9403839999999
 30
0.0
 11
281.1399999999998
 21
164.0068939999999
 31
0.0
  0
LINE
  5
178D7
330
176D7
100
AcDbEntity
  8
1
  6
Continuous
100
AcDbLine
 10
281.675898
 20
166.5427919999999
 30
0.0
 11
285.604102
 21
166.5427919999999
 31
0.0
  0
ARC
  5
178D8
330
176D7
100
AcDbEntity
  8
1
  6
Continuous
100
AcDbCircle
 10
284.206987
 20
164.8107409999998
 30
0.0
 40
3.066986999999998
100
AcDbArc
 50
145.615753
 51
196.486083
  0
ARC
  5
178D9
330
176D7
100
AcDbEntity
  8
1
  6
Continuous
100
AcDbCircle
 10
283.073013
 20
164.8107409999998
 30
0.0
 40
3.066986999999998
100
AcDbArc
 50
345.0504049999998
 51
34.38424699999998
  0
ARC
  5
178DA
330
176D7
100
AcDbEntity
  8
1
  6
Continuous
100
AcDbCircle
 10
284.206987
 20
175.203046
 30
0.0
 40
3.066986999999998
100
AcDbArc
 50
154.3842469999999
 51
214.384247
  0
LINE
  5
178DB
330
176D7
100
AcDbEntity
  8
1
  6
Continuous
100
AcDbLine
 10
281.675898
 20
176.9350969999999
 30
0.0
 11
281.1399999999998
 21
176.006894
 31
0.0
  0
LINE
  5
178DC
330
176D7
100
AcDbEntity
  8
1
  6
Continuous
100
AcDbLine
 10
83.86000000000001
 20
177.5
 30
0.0
 11
83.86000000000001
 21
162.5
 31
0.0
  0
ARC
  5
178DD
330
176D7
100
AcDbEntity
  8
1
  6
Continuous
100
AcDbCircle
 10
95.32410199999999
 20
170.0
 30
0.0
 40
11.464102
100
AcDbArc
 50
162.412046
 51
197.5879539999999
  0
ARC
  5
178DE
330
176D7
100
AcDbEntity
  8
1
  6
Continuous
100
AcDbCircle
 10
77.395898
 20
170.0
 30
0.0
 40
11.464102
100
AcDbArc
 50
342.4120459999999
 51
17.587954
  0
LINE
  5
178DF
330
176D7
100
AcDbEntity
  8
1
  6
Continuous
100
AcDbLine
 10
88.86000000000001
 20
176.0
 30
0.0
 11
88.86000000000001
 21
164.0
 31
0.0
  0
LINE
  5
178E0
330
176D7
100
AcDbEntity
  8
1
  6
Continuous
100
AcDbLine
 10
84.395898
 20
163.071797
 30
0.0
 11
83.86000000000001
 21
164.0
 31
0.0
  0
LINE
  5
178E1
330
176D7
100
AcDbEntity
  8
1
  6
Continuous
100
AcDbLine
 10
88.32410199999998
 20
163.071797
 30
0.0
 11
88.86000000000001
 21
164.0
 31
0.0
  0
LINE
  5
178E2
330
176D7
100
AcDbEntity
  8
1
  6
Continuous
100
AcDbLine
 10
84.395898
 20
163.071797
 30
0.0
 11
88.32410199999998
 21
163.071797
 31
0.0
  0
LINE
  5
178E3
330
176D7
100
AcDbEntity
  8
1
  6
Continuous
100
AcDbLine
 10
84.395898
 20
166.535898
 30
0.0
 11
88.32410199999998
 21
166.535898
 31
0.0
  0
ARC
  5
178E4
330
176D7
100
AcDbEntity
  8
1
  6
Continuous
100
AcDbCircle
 10
86.92698699999999
 20
164.8038479999998
 30
0.0
 40
3.066986999999998
100
AcDbArc
 50
145.615753
 51
205.615753
  0
ARC
  5
178E5
330
176D7
100
AcDbEntity
  8
1
  6
Continuous
100
AcDbCircle
 10
85.793013
 20
164.8038479999998
 30
0.0
 40
3.066986999999998
100
AcDbArc
 50
334.384247
 51
34.38424699999998
  0
ARC
  5
178E6
330
176D7
100
AcDbEntity
  8
1
  6
Continuous
100
AcDbCircle
 10
86.92698699999999
 20
175.196152
 30
0.0
 40
3.066986999999998
100
AcDbArc
 50
154.3842469999999
 51
214.384247
  0
ARC
  5
178E7
330
176D7
100
AcDbEntity
  8
1
  6
Continuous
100
AcDbCircle
 10
85.793013
 20
175.196152
 30
0.0
 40
3.066986999999998
100
AcDbArc
 50
325.6157529999999
 51
25.615753
  0
LINE
  5
178E8
330
176D7
100
AcDbEntity
  8
1
  6
Continuous
100
AcDbLine
 10
84.395898
 20
173.4641019999999
 30
0.0
 11
88.32410199999998
 21
173.4641019999999
 31
0.0
  0
LINE
  5
178E9
330
176D7
100
AcDbEntity
  8
1
  6
Continuous
100
AcDbLine
 10
84.395898
 20
176.928203
 30
0.0
 11
88.32410199999998
 21
176.928203
 31
0.0
  0
LINE
  5
178EA
330
176D7
100
AcDbEntity
  8
1
  6
Continuous
100
AcDbLine
 10
84.395898
 20
176.928203
 30
0.0
 11
83.86000000000001
 21
176.0
 31
0.0
  0
LINE
  5
178EB
330
176D7
100
AcDbEntity
  8
1
  6
Continuous
100
AcDbLine
 10
88.32410199999998
 20
176.928203
 30
0.0
 11
88.86000000000001
 21
176.0
 31
0.0
  0
CIRCLE
  5
178EC
330
176D7
100
AcDbEntity
  8
1
  6
Continuous
100
AcDbCircle
 10
169.0
 20
170.0
 30
0.0
 40
6.0
  0
LINE
  5
178ED
330
176D7
100
AcDbEntity
  8
1
  6
Continuous
100
AcDbLine
 10
175.0
 20
173.4641019999999
 30
0.0
 11
175.0
 21
166.535898
 31
0.0
  0
LINE
  5
178EE
330
176D7
100
AcDbEntity
  8
1
  6
Continuous
100
AcDbLine
 10
163.0
 20
173.4641019999999
 30
0.0
 11
163.0
 21
166.535898
 31
0.0
  0
LINE
  5
178EF
330
176D7
100
AcDbEntity
  8
1
  6
Continuous
100
AcDbLine
 10
169.0
 20
163.071797
 30
0.0
 11
175.0
 21
166.535898
 31
0.0
  0
LINE
  5
178F0
330
176D7
100
AcDbEntity
  8
1
  6
Continuous
100
AcDbLine
 10
169.0
 20
163.071797
 30
0.0
 11
163.0
 21
166.535898
 31
0.0
  0
LINE
  5
178F1
330
176D7
100
AcDbEntity
  8
1
  6
Continuous
100
AcDbLine
 10
175.0
 20
173.4641019999999
 30
0.0
 11
169.0
 21
176.928203
 31
0.0
  0
LINE
  5
178F2
330
176D7
100
AcDbEntity
  8
1
  6
Continuous
100
AcDbLine
 10
163.0
 20
173.4641019999999
 30
0.0
 11
169.0
 21
176.928203
 31
0.0
  0
CIRCLE
  5
178F3
330
176D7
100
AcDbEntity
  8
1
  6
Continuous
100
AcDbCircle
 10
169.0
 20
170.0
 30
0.0
 40
7.5
  0
LINE
  5
178F4
330
176D7
100
AcDbEntity
  8
1
  6
Continuous
100
AcDbLine
 10
163.0
 20
104.8595909999999
 30
0.0
 11
175.0
 21
104.8595909999999
 31
0.0
  0
LINE
  5
178F5
330
176D7
100
AcDbEntity
  8
1
  6
Continuous
100
AcDbLine
 10
161.5
 20
99.85959100000002
 30
0.0
 11
176.5
 21
99.85959100000002
 31
0.0
  0
ARC
  5
178F6
330
176D7
100
AcDbEntity
  8
1
  6
Continuous
100
AcDbCircle
 10
172.0
 20
96.19452800000001
 30
0.0
 40
8.665063999999999
100
AcDbArc
 50
69.743842
 51
110.256158
  0
ARC
  5
178F7
330
176D7
100
AcDbEntity
  8
1
  6
Continuous
100
AcDbCircle
 10
172.0
 20
108.524655
 30
0.0
 40
8.665063999999999
100
AcDbArc
 50
249.7438419999999
 51
290.256158
  0
LINE
  5
178F8
330
176D7
100
AcDbEntity
  8
1
  6
Continuous
100
AcDbLine
 10
175.0
 20
104.8595909999999
 30
0.0
 11
175.0
 21
99.85959100000002
 31
0.0
  0
ARC
  5
178F9
330
176D7
100
AcDbEntity
  8
1
  6
Continuous
100
AcDbCircle
 10
166.0
 20
96.19452800000001
 30
0.0
 40
8.665063999999999
100
AcDbArc
 50
69.743842
 51
110.256158
  0
ARC
  5
178FA
330
176D7
100
AcDbEntity
  8
1
  6
Continuous
100
AcDbCircle
 10
166.0
 20
108.524655
 30
0.0
 40
8.665063999999999
100
AcDbArc
 50
249.7438419999999
 51
290.256158
  0
LINE
  5
178FB
330
176D7
100
AcDbEntity
  8
1
  6
Continuous
100
AcDbLine
 10
169.0
 20
100.3954899999999
 30
0.0
 11
169.0
 21
104.323693
 31
0.0
  0
LINE
  5
178FC
330
176D7
100
AcDbEntity
  8
1
  6
Continuous
100
AcDbLine
 10
163.0
 20
104.8595909999999
 30
0.0
 11
163.0
 21
99.85959100000002
 31
0.0
  0
ARC
  5
178FD
330
176D7
100
AcDbEntity
  8
1
  6
Continuous
100
AcDbCircle
 10
302.6867509999998
 20
198.684887
 30
0.0
 40
5.424959999999998
100
AcDbArc
 50
208.3644309999999
 51
247.8048419999999
  0
ARC
  5
178FE
330
176D7
100
AcDbEntity
  8
1
  6
Continuous
100
AcDbCircle
 10
323.313249
 20
198.684887
 30
0.0
 40
5.424959999999998
100
AcDbArc
 50
292.1951579999998
 51
331.6355689999999
  0
LINE
  5
178FF
330
176D7
100
AcDbEntity
  8
1
  6
Continuous
100
AcDbLine
 10
326.0537289999998
 20
196.455507
 30
0.0
 11
299.946271
 21
196.455507
 31
0.0
  0
LINE
  5
17900
330
176D7
100
AcDbEntity
  8
1
  6
Continuous
100
AcDbLine
 10
325.3625959999999
 20
193.6619029999999
 30
0.0
 11
300.637404
 21
193.6619029999999
 31
0.0
  0
ARC
  5
17901
330
176D7
100
AcDbEntity
  8
1
  6
Continuous
100
AcDbCircle
 10
161.3749419999998
 20
298.75
 30
0.0
 40
1.5
100
AcDbArc
 50
90.0
 51
175.0
  0
LINE
  5
17902
330
176D7
100
AcDbEntity
  8
1
  6
Continuous
100
AcDbLine
 10
159.88065
 20
298.8807339999999
 30
0.0
 11
159.759851
 21
297.5
 31
0.0
  0
LINE
  5
17903
330
176D7
100
AcDbEntity
  8
1
  6
Continuous
100
AcDbLine
 10
162.0004449999998
 20
300.2499999999999
 30
0.0
 11
161.3749419999998
 21
300.2499999999999
 31
0.0
  0
LINE
  5
17904
330
176D7
100
AcDbEntity
  8
1
  6
Continuous
100
AcDbLine
 10
147.2296389999999
 20
297.5
 30
0.0
 11
162.0004449999998
 21
297.5
 31
0.0
  0
ARC
  5
17905
330
176D7
100
AcDbEntity
  8
1
  6
Continuous
100
AcDbCircle
 10
147.2296389999999
 20
294.4999999999998
 30
0.0
 40
3.0
100
AcDbArc
 50
90.0
 51
177.2359339999999
  0
ARC
  5
17906
330
176D7
100
AcDbEntity
  8
1
  6
Continuous
100
AcDbCircle
 10
344.0004449999999
 20
285.0
 30
0.0
 40
200.0
100
AcDbArc
 50
177.2359339999999
 51
182.764412
  0
ARC
  5
17907
330
176D7
100
AcDbEntity
  8
1
  6
Continuous
100
AcDbCircle
 10
147.2296389999999
 20
275.4999999999999
 30
0.0
 40
3.0
100
AcDbArc
 50
182.7640659999999
 51
270.0
  0
LINE
  5
17908
330
176D7
100
AcDbEntity
  8
1
  6
Continuous
100
AcDbLine
 10
162.0004449999998
 20
272.5
 30
0.0
 11
147.2296389999999
 21
272.5
 31
0.0
  0
ARC
  5
17909
330
176D7
100
AcDbEntity
  8
1
  6
Continuous
100
AcDbCircle
 10
161.3749419999998
 20
271.2499999999999
 30
0.0
 40
1.5
100
AcDbArc
 50
185.0
 51
270.0
  0
LINE
  5
1790A
330
176D7
100
AcDbEntity
  8
1
  6
Continuous
100
AcDbLine
 10
159.88065
 20
271.119266
 30
0.0
 11
159.759851
 21
272.5
 31
0.0
  0
LINE
  5
1790B
330
176D7
100
AcDbEntity
  8
1
  6
Continuous
100
AcDbLine
 10
162.0004449999998
 20
269.75
 30
0.0
 11
161.3749419999998
 21
269.75
 31
0.0
  0
ARC
  5
1790C
330
176D7
100
AcDbEntity
  8
1
  6
Continuous
100
AcDbCircle
 10
169.0
 20
170.0
 30
0.0
 40
25.0
100
AcDbArc
 50
100.598999
 51
101.235783
  0
ARC
  5
1790D
330
176D7
100
AcDbEntity
  8
1
  6
Continuous
100
AcDbCircle
 10
299.25
 20
162.3744969999999
 30
0.0
 40
1.5
100
AcDbArc
 50
180.0
 51
265.0
  0
ARC
  5
1790E
330
176D7
100
AcDbEntity
  8
1
  6
Continuous
100
AcDbCircle
 10
299.25
 20
177.625503
 30
0.0
 40
1.5
100
AcDbArc
 50
95.0
 51
180.0
  0
LINE
  5
1790F
330
176D7
100
AcDbEntity
  8
1
  6
Continuous
100
AcDbLine
 10
297.75
 20
177.625503
 30
0.0
 11
297.75
 21
162.3744969999999
 31
0.0
  0
LINE
  5
17910
330
176D7
100
AcDbEntity
  8
1
  6
Continuous
100
AcDbLine
 10
297.0
 20
164.5
 30
0.0
 11
297.75
 21
164.5
 31
0.0
  0
LINE
  5
17911
330
176D7
100
AcDbEntity
  8
1
  6
Continuous
100
AcDbLine
 10
297.0
 20
175.5
 30
0.0
 11
297.75
 21
175.5
 31
0.0
  0
LINE
  5
17912
330
176D7
100
AcDbEntity
  8
1
  6
Continuous
100
AcDbLine
 10
299.1192659999999
 20
160.8802049999999
 30
0.0
 11
300.4999999999999
 21
160.759406
 31
0.0
  0
LINE
  5
17913
330
176D7
100
AcDbEntity
  8
1
  6
Continuous
100
AcDbLine
 10
299.1192659999999
 20
179.1197949999999
 30
0.0
 11
300.4999999999999
 21
179.2405939999999
 31
0.0
  0
LINE
  5
17914
330
176D7
100
AcDbEntity
  8
1
  6
Continuous
100
AcDbLine
 10
328.25
 20
177.625503
 30
0.0
 11
328.25
 21
162.3744969999999
 31
0.0
  0
ARC
  5
17915
330
176D7
100
AcDbEntity
  8
1
  6
Continuous
100
AcDbCircle
 10
326.75
 20
162.3744969999999
 30
0.0
 40
1.5
100
AcDbArc
 50
275.0
 51
0.0
  0
LINE
  5
17916
330
176D7
100
AcDbEntity
  8
1
  6
Continuous
100
AcDbLine
 10
326.8807339999999
 20
160.8802049999999
 30
0.0
 11
325.4999999999999
 21
160.759406
 31
0.0
  0
LINE
  5
17917
330
176D7
100
AcDbEntity
  8
1
  6
Continuous
100
AcDbLine
 10
328.25
 20
164.5
 30
0.0
 11
329.0
 21
164.5
 31
0.0
  0
LINE
  5
17918
330
176D7
100
AcDbEntity
  8
1
  6
Continuous
100
AcDbLine
 10
326.8807339999999
 20
179.1197949999999
 30
0.0
 11
325.4999999999999
 21
179.2405939999999
 31
0.0
  0
ARC
  5
17919
330
176D7
100
AcDbEntity
  8
1
  6
Continuous
100
AcDbCircle
 10
326.75
 20
177.625503
 30
0.0
 40
1.5
100
AcDbArc
 50
0.0
 51
85.0
  0
LINE
  5
1791A
330
176D7
100
AcDbEntity
  8
1
  6
Continuous
100
AcDbLine
 10
328.25
 20
175.5
 30
0.0
 11
329.0
 21
175.5
 31
0.0
  0
LINE
  5
1791B
330
176D7
100
AcDbEntity
  8
1
  6
Continuous
100
AcDbLine
 10
325.4999999999999
 20
148.229194
 30
0.0
 11
325.4999999999999
 21
191.770806
 31
0.0
  0
LINE
  5
1791C
330
176D7
100
AcDbEntity
  8
1
  6
Continuous
100
AcDbLine
 10
300.4999999999999
 20
191.770806
 30
0.0
 11
300.4999999999999
 21
148.229194
 31
0.0
  0
ARC
  5
1791D
330
176D7
100
AcDbEntity
  8
1
  6
Continuous
100
AcDbCircle
 10
313.0
 20
345.0
 30
0.0
 40
200.0
100
AcDbArc
 50
267.2359339999998
 51
272.7644119999999
  0
ARC
  5
1791E
330
176D7
100
AcDbEntity
  8
1
  6
Continuous
100
AcDbCircle
 10
303.5
 20
148.229194
 30
0.0
 40
3.0
100
AcDbArc
 50
180.0
 51
267.2359339999998
  0
ARC
  5
1791F
330
176D7
100
AcDbEntity
  8
1
  6
Continuous
100
AcDbCircle
 10
322.5
 20
148.229194
 30
0.0
 40
3.0
100
AcDbArc
 50
272.764066
 51
0.0
  0
ARC
  5
17920
330
176D7
100
AcDbEntity
  8
1
  6
Continuous
100
AcDbCircle
 10
303.5
 20
191.770806
 30
0.0
 40
3.0
100
AcDbArc
 50
140.922894
 51
180.0
  0
ARC
  5
17921
330
176D7
100
AcDbEntity
  8
1
  6
Continuous
100
AcDbCircle
 10
322.5
 20
191.770806
 30
0.0
 40
3.0
100
AcDbArc
 50
0.0
 51
39.077106
  0
ARC
  5
17922
330
176D7
100
AcDbEntity
  8
1
  6
Continuous
100
AcDbCircle
 10
457.0
 20
170.0
 30
0.0
 40
25.0
100
AcDbArc
 50
153.574506
 51
79.401002
  0
CIRCLE
  5
17923
330
176D7
100
AcDbEntity
  8
1
  6
Continuous
100
AcDbCircle
 10
457.0
 20
170.0
 30
0.0
 40
3.0
  0
ARC
  5
17924
330
176D7
100
AcDbEntity
  8
1
  6
Continuous
100
AcDbCircle
 10
47.5
 20
191.770806
 30
0.0
 40
3.0
100
AcDbArc
 50
92.76406599999999
 51
180.0
  0
ARC
  5
17925
330
176D7
100
AcDbEntity
  8
1
  6
Continuous
100
AcDbCircle
 10
47.5
 20
148.229194
 30
0.0
 40
3.0
100
AcDbArc
 50
180.0
 51
267.2359339999998
  0
LINE
  5
17926
330
176D7
100
AcDbEntity
  8
1
  6
Continuous
100
AcDbLine
 10
44.5
 20
191.770806
 30
0.0
 11
44.5
 21
148.229194
 31
0.0
  0
LINE
  5
17927
330
176D7
100
AcDbEntity
  8
1
  6
Continuous
100
AcDbLine
 10
41.74999999999999
 20
177.625503
 30
0.0
 11
41.74999999999999
 21
162.3744969999999
 31
0.0
  0
LINE
  5
17928
330
176D7
100
AcDbEntity
  8
1
  6
Continuous
100
AcDbLine
 10
43.11926599999998
 20
160.8802049999999
 30
0.0
 11
44.5
 21
160.759406
 31
0.0
  0
LINE
  5
17929
330
176D7
100
AcDbEntity
  8
1
  6
Continuous
100
AcDbLine
 10
41.0
 20
164.5
 30
0.0
 11
41.74999999999999
 21
164.5
 31
0.0
  0
ARC
  5
1792A
330
176D7
100
AcDbEntity
  8
1
  6
Continuous
100
AcDbCircle
 10
43.25
 20
162.3744969999999
 30
0.0
 40
1.5
100
AcDbArc
 50
180.0
 51
265.0
  0
LINE
  5
1792B
330
176D7
100
AcDbEntity
  8
1
  6
Continuous
100
AcDbLine
 10
43.11926599999998
 20
179.1197949999999
 30
0.0
 11
44.5
 21
179.2405939999999
 31
0.0
  0
LINE
  5
1792C
330
176D7
100
AcDbEntity
  8
1
  6
Continuous
100
AcDbLine
 10
41.0
 20
175.5
 30
0.0
 11
41.74999999999999
 21
175.5
 31
0.0
  0
ARC
  5
1792D
330
176D7
100
AcDbEntity
  8
1
  6
Continuous
100
AcDbCircle
 10
43.25
 20
177.625503
 30
0.0
 40
1.5
100
AcDbArc
 50
95.0
 51
180.0
  0
ARC
  5
1792E
330
176D7
100
AcDbEntity
  8
1
  6
Continuous
100
AcDbCircle
 10
66.5
 20
148.229194
 30
0.0
 40
3.0
100
AcDbArc
 50
272.764066
 51
0.0
  0
ARC
  5
1792F
330
176D7
100
AcDbEntity
  8
1
  6
Continuous
100
AcDbCircle
 10
57.0
 20
345.0
 30
0.0
 40
200.0
100
AcDbArc
 50
267.2359339999998
 51
272.7644119999999
  0
LINE
  5
17930
330
176D7
100
AcDbEntity
  8
1
  6
Continuous
100
AcDbLine
 10
69.5
 20
148.229194
 30
0.0
 11
69.5
 21
191.770806
 31
0.0
  0
LINE
  5
17931
330
176D7
100
AcDbEntity
  8
1
  6
Continuous
100
AcDbLine
 10
72.25
 20
177.625503
 30
0.0
 11
72.25
 21
162.3744969999999
 31
0.0
  0
LINE
  5
17932
330
176D7
100
AcDbEntity
  8
1
  6
Continuous
100
AcDbLine
 10
72.25
 20
164.5
 30
0.0
 11
72.72575999999998
 21
164.5
 31
0.0
  0
LINE
  5
17933
330
176D7
100
AcDbEntity
  8
1
  6
Continuous
100
AcDbLine
 10
70.88073399999998
 20
160.8802049999999
 30
0.0
 11
69.5
 21
160.759406
 31
0.0
  0
ARC
  5
17934
330
176D7
100
AcDbEntity
  8
1
  6
Continuous
100
AcDbCircle
 10
70.75
 20
162.3744969999999
 30
0.0
 40
1.5
100
AcDbArc
 50
275.0
 51
0.0
  0
LINE
  5
17935
330
176D7
100
AcDbEntity
  8
1
  6
Continuous
100
AcDbLine
 10
72.25
 20
175.5
 30
0.0
 11
73.0
 21
175.5
 31
0.0
  0
ARC
  5
17936
330
176D7
100
AcDbEntity
  8
1
  6
Continuous
100
AcDbCircle
 10
70.75
 20
177.625503
 30
0.0
 40
1.5
100
AcDbArc
 50
0.0
 51
85.0
  0
LINE
  5
17937
330
176D7
100
AcDbEntity
  8
1
  6
Continuous
100
AcDbLine
 10
70.88073399999998
 20
179.1197949999999
 30
0.0
 11
69.5
 21
179.2405939999999
 31
0.0
  0
ARC
  5
17938
330
176D7
100
AcDbEntity
  8
1
  6
Continuous
100
AcDbCircle
 10
57.0
 20
-5.0
 30
0.0
 40
200.0
100
AcDbArc
 50
87.23558800000002
 51
92.76406599999999
  0
ARC
  5
17939
330
176D7
100
AcDbEntity
  8
1
  6
Continuous
100
AcDbCircle
 10
66.5
 20
191.770806
 30
0.0
 40
3.0
100
AcDbArc
 50
0.0
 51
87.235934
  0
LINE
  5
1793A
330
176D7
100
AcDbEntity
  8
1
  6
Continuous
100
AcDbLine
 10
44.63925099999999
 20
193.6611499999999
 30
0.0
 11
45.170494
 21
193.6611499999999
 31
0.0
  0
LINE
  5
1793B
330
176D7
100
AcDbEntity
  8
1
  6
Continuous
100
AcDbLine
 10
68.829506
 20
193.6611499999999
 30
0.0
 11
69.360749
 21
193.6611499999999
 31
0.0
  0
ARC
  5
1793C
330
176D7
100
AcDbEntity
  8
1
  6
Continuous
100
AcDbCircle
 10
45.2
 20
170.0
 30
0.0
 40
11.40175399999999
100
AcDbArc
 50
142.1250159999999
 51
164.744881
  0
LINE
  5
1793D
330
176D7
100
AcDbEntity
  8
1
  6
Continuous
100
AcDbLine
 10
34.2
 20
167.0
 30
0.0
 11
34.2
 21
173.0
 31
0.0
  0
ARC
  5
1793E
330
176D7
100
AcDbEntity
  8
1
  6
Continuous
100
AcDbCircle
 10
45.2
 20
170.0
 30
0.0
 40
11.40175399999999
100
AcDbArc
 50
195.255119
 51
217.874984
  0
LINE
  5
1793F
330
176D7
100
AcDbEntity
  8
1
  6
Continuous
100
AcDbLine
 10
335.8
 20
166.9996109999999
 30
0.0
 11
335.8
 21
172.2221799999999
 31
0.0
  0
ARC
  5
17940
330
176D7
100
AcDbEntity
  8
1
  6
Continuous
100
AcDbCircle
 10
324.8
 20
169.9996109999999
 30
0.0
 40
11.40175399999999
100
AcDbArc
 50
322.125016
 51
344.744881
  0
LINE
  5
17941
330
176D7
100
AcDbEntity
  8
1
  6
Continuous
100
AcDbLine
 10
161.3744969999999
 20
88.25000000000001
 30
0.0
 11
176.625503
 21
88.25000000000001
 31
0.0
  0
LINE
  5
17942
330
176D7
100
AcDbEntity
  8
1
  6
Continuous
100
AcDbLine
 10
190.770806
 20
85.5
 30
0.0
 11
147.229194
 21
85.5
 31
0.0
  0
LINE
  5
17943
330
176D7
100
AcDbEntity
  8
1
  6
Continuous
100
AcDbLine
 10
161.3744969999999
 20
57.75
 30
0.0
 11
176.625503
 21
57.75
 31
0.0
  0
LINE
  5
17944
330
176D7
100
AcDbEntity
  8
1
  6
Continuous
100
AcDbLine
 10
147.229194
 20
60.5
 30
0.0
 11
190.770806
 21
60.5
 31
0.0
  0
ARC
  5
17945
330
176D7
100
AcDbEntity
  8
1
  6
Continuous
100
AcDbCircle
 10
-6.0
 20
73.0
 30
0.0
 40
200.0
100
AcDbArc
 50
357.2359339999999
 51
2.764412
  0
ARC
  5
17946
330
176D7
100
AcDbEntity
  8
1
  6
Continuous
100
AcDbCircle
 10
190.770806
 20
63.5
 30
0.0
 40
3.0
100
AcDbArc
 50
270.0
 51
357.2359339999999
  0
LINE
  5
17947
330
176D7
100
AcDbEntity
  8
1
  6
Continuous
100
AcDbLine
 10
163.4999999999998
 20
57.0
 30
0.0
 11
163.4999999999998
 21
57.75
 31
0.0
  0
ARC
  5
17948
330
176D7
100
AcDbEntity
  8
1
  6
Continuous
100
AcDbCircle
 10
176.625503
 20
59.25
 30
0.0
 40
1.5
100
AcDbArc
 50
270.0
 51
355.0
  0
LINE
  5
17949
330
176D7
100
AcDbEntity
  8
1
  6
Continuous
100
AcDbLine
 10
174.5
 20
57.0
 30
0.0
 11
174.5
 21
57.75
 31
0.0
  0
LINE
  5
1794A
330
176D7
100
AcDbEntity
  8
1
  6
Continuous
100
AcDbLine
 10
178.1197949999999
 20
59.11926600000001
 30
0.0
 11
178.2405939999999
 21
60.5
 31
0.0
  0
ARC
  5
1794B
330
176D7
100
AcDbEntity
  8
1
  6
Continuous
100
AcDbCircle
 10
190.770806
 20
82.5
 30
0.0
 40
3.0
100
AcDbArc
 50
2.764066
 51
90.0
  0
LINE
  5
1794C
330
176D7
100
AcDbEntity
  8
1
  6
Continuous
100
AcDbLine
 10
163.4999999999998
 20
88.25000000000001
 30
0.0
 11
163.4999999999998
 21
89.0
 31
0.0
  0
ARC
  5
1794D
330
176D7
100
AcDbEntity
  8
1
  6
Continuous
100
AcDbCircle
 10
176.625503
 20
86.75
 30
0.0
 40
1.5
100
AcDbArc
 50
5.0
 51
90.0
  0
LINE
  5
1794E
330
176D7
100
AcDbEntity
  8
1
  6
Continuous
100
AcDbLine
 10
178.1197949999999
 20
86.88073399999996
 30
0.0
 11
178.2405939999999
 21
85.5
 31
0.0
  0
LINE
  5
1794F
330
176D7
100
AcDbEntity
  8
1
  6
Continuous
100
AcDbLine
 10
174.5
 20
88.25000000000001
 30
0.0
 11
174.5
 21
89.0
 31
0.0
  0
ARC
  5
17950
330
176D7
100
AcDbEntity
  8
1
  6
Continuous
100
AcDbCircle
 10
344.0
 20
73.0
 30
0.0
 40
200.0
100
AcDbArc
 50
177.2355879999999
 51
182.7640659999999
  0
ARC
  5
17951
330
176D7
100
AcDbEntity
  8
1
  6
Continuous
100
AcDbCircle
 10
161.3744969999999
 20
59.25
 30
0.0
 40
1.5
100
AcDbArc
 50
185.0
 51
270.0
  0
LINE
  5
17952
330
176D7
100
AcDbEntity
  8
1
  6
Continuous
100
AcDbLine
 10
159.8802049999999
 20
59.11926600000001
 30
0.0
 11
159.759406
 21
60.5
 31
0.0
  0
ARC
  5
17953
330
176D7
100
AcDbEntity
  8
1
  6
Continuous
100
AcDbCircle
 10
147.229194
 20
63.5
 30
0.0
 40
3.0
100
AcDbArc
 50
182.7640659999999
 51
270.0
  0
ARC
  5
17954
330
176D7
100
AcDbEntity
  8
1
  6
Continuous
100
AcDbCircle
 10
147.229194
 20
82.5
 30
0.0
 40
3.0
100
AcDbArc
 50
90.0
 51
177.2359339999999
  0
LINE
  5
17955
330
176D7
100
AcDbEntity
  8
1
  6
Continuous
100
AcDbLine
 10
159.8802049999999
 20
86.88073399999996
 30
0.0
 11
159.759406
 21
85.5
 31
0.0
  0
ARC
  5
17956
330
176D7
100
AcDbEntity
  8
1
  6
Continuous
100
AcDbCircle
 10
161.3744969999999
 20
86.75
 30
0.0
 40
1.5
100
AcDbArc
 50
90.0
 51
175.0
  0
LINE
  5
17957
330
176D7
100
AcDbEntity
  8
1
  6
Continuous
100
AcDbLine
 10
172.0043949999999
 20
50.20004199999998
 30
0.0
 11
166.0
 21
50.20004199999998
 31
0.0
  0
ARC
  5
17958
330
176D7
100
AcDbEntity
  8
1
  6
Continuous
100
AcDbCircle
 10
168.975176
 20
61.13506799999999
 30
0.0
 40
11.332539
100
AcDbArc
 50
232.0399509999998
 51
254.779533
  0
ARC
  5
17959
330
176D7
100
AcDbEntity
  8
1
  6
Continuous
100
AcDbCircle
 10
169.029221
 20
61.13506799999999
 30
0.0
 40
11.332539
100
AcDbArc
 50
285.2204669999998
 51
307.960049
  0
ARC
  5
1795A
330
176D7
100
AcDbEntity
  8
1
  6
Continuous
100
AcDbCircle
 10
169.0
 20
170.0
 30
0.0
 40
17.5
100
AcDbArc
 50
226.353512
 51
343.2894839999999
  0
ARC
  5
1795B
330
176D7
100
AcDbEntity
  8
1
  6
Continuous
100
AcDbCircle
 10
457.0
 20
170.0
 30
0.0
 40
17.5
100
AcDbArc
 50
164.844018
 51
65.723215
  0
LINE
  5
1795C
330
176D7
100
AcDbEntity
  8
1
  6
Continuous
100
AcDbLine
 10
176.0
 20
54.69913299999999
 30
0.0
 11
176.0
 21
52.20004199999999
 31
0.0
  0
LINE
  5
1795D
330
176D7
100
AcDbEntity
  8
1
  6
Continuous
100
AcDbLine
 10
162.0
 20
54.7
 30
0.0
 11
162.0
 21
48.0
 31
0.0
  0
ARC
  5
1795E
330
176D7
100
AcDbEntity
  8
1
  6
Continuous
100
AcDbCircle
 10
158.8864059999998
 20
93.988495
 30
0.0
 40
4.694833999999998
100
AcDbArc
 50
18.350821
 51
98.731266
  0
ARC
  5
1795F
330
176D7
100
AcDbEntity
  8
1
  6
Continuous
100
AcDbCircle
 10
158.8864059999998
 20
93.988495
 30
0.0
 40
6.294833999999998
100
AcDbArc
 50
18.350821
 51
98.731266
  0
LINE
  5
17960
330
176D7
100
AcDbEntity
  8
1
  6
Continuous
100
AcDbLine
 10
175.9069069999999
 20
91.80000300000001
 30
0.0
 11
158.2550579999999
 21
91.80000300000001
 31
0.0
  0
LINE
  5
17961
330
176D7
100
AcDbEntity
  8
1
  6
Continuous
100
AcDbLine
 10
175.9069069999999
 20
91.300003
 30
0.0
 11
158.2550579999999
 21
91.300003
 31
0.0
  0
LINE
  5
17962
330
176D7
100
AcDbEntity
  8
1
  6
Continuous
100
AcDbLine
 10
156.6687409999999
 20
93.0
 30
0.0
 11
179.0000009999999
 21
93.0
 31
0.0
  0
LINE
  5
17963
330
176D7
100
AcDbEntity
  8
1
  6
Continuous
100
AcDbLine
 10
146.0301229999998
 20
98.30318100000004
 30
0.0
 11
143.030127
 21
96.30318100000003
 31
0.0
  0
LINE
  5
17964
330
176D7
100
AcDbEntity
  8
1
  6
Continuous
100
AcDbLine
 10
146.03013
 20
98.30318100000004
 30
0.0
 11
145.827776
 21
95.56063499999996
 31
0.0
  0
ARC
  5
17965
330
176D7
100
AcDbEntity
  8
1
  6
Continuous
100
AcDbCircle
 10
143.0271929999999
 20
101.0
 30
0.0
 40
6.0
100
AcDbArc
 50
0.0
 51
180.00001
  0
LINE
  5
17966
330
176D7
100
AcDbEntity
  8
1
  6
Continuous
100
AcDbLine
 10
146.6227129999998
 20
92.744507
 30
0.0
 11
143.6226979999998
 21
90.744488
 31
0.0
  0
LINE
  5
17967
330
176D7
100
AcDbEntity
  8
1
  6
Continuous
100
AcDbLine
 10
146.82506
 20
95.48705299999999
 30
0.0
 11
143.8250639999999
 21
93.487053
 31
0.0
  0
LINE
  5
17968
330
176D7
100
AcDbEntity
  8
1
  6
Continuous
100
AcDbLine
 10
145.827776
 20
95.56063499999996
 30
0.0
 11
157.7952439999999
 21
94.677635
 31
0.0
  0
LINE
  5
17969
330
176D7
100
AcDbEntity
  8
1
  6
Continuous
100
AcDbLine
 10
142.2568379999999
 20
89.03498799999999
 30
0.0
 11
156.7550599999999
 21
89.03498799999999
 31
0.0
  0
LINE
  5
1796A
330
176D7
100
AcDbEntity
  8
1
  6
Continuous
100
AcDbLine
 10
143.6227089999999
 20
90.744503
 30
0.0
 11
153.5955979999999
 21
90.00867099999997
 31
0.0
  0
LINE
  5
1796B
330
176D7
100
AcDbEntity
  8
1
  6
Continuous
100
AcDbLine
 10
139.571798
 20
97.39079700000001
 30
0.0
 11
157.930855
 21
100.210381
 31
0.0
  0
ARC
  5
1796C
330
176D7
100
AcDbEntity
  8
1
  6
Continuous
100
AcDbCircle
 10
142.2568379999999
 20
90.67884799999999
 30
0.0
 40
1.643872
100
AcDbArc
 50
103.94573
 51
270.0
  0
ARC
  5
1796D
330
176D7
100
AcDbEntity
  8
1
  6
Continuous
100
AcDbCircle
 10
138.0271929999999
 20
94.52310200000002
 30
0.0
 40
1.0
100
AcDbArc
 50
98.731266
 51
180.00001
  0
ARC
  5
1796E
330
176D7
100
AcDbEntity
  8
1
  6
Continuous
100
AcDbCircle
 10
140.0271929999999
 20
94.425568
 30
0.0
 40
3.0
100
AcDbArc
 50
98.731266
 51
180.00001
  0
LINE
  5
1796F
330
176D7
100
AcDbEntity
  8
1
  6
Continuous
100
AcDbLine
 10
145.827765
 20
95.56063100000001
 30
0.0
 11
142.827772
 21
93.560631
 31
0.0
  0
LINE
  5
17970
330
176D7
100
AcDbEntity
  8
1
  6
Continuous
100
AcDbLine
 10
143.770575
 20
92.74854299999999
 30
0.0
 11
141.8606659999998
 21
92.274273
 31
0.0
  0
LINE
  5
17971
330
176D7
100
AcDbEntity
  8
1
  6
Continuous
100
AcDbLine
 10
142.827772
 20
93.560631
 30
0.0
 11
143.8250639999999
 21
93.48704899999999
 31
0.0
  0
LINE
  5
17972
330
176D7
100
AcDbEntity
  8
1
  6
Continuous
100
AcDbLine
 10
143.8250639999999
 20
93.48704899999999
 30
0.0
 11
143.6227089999999
 21
90.744503
 31
0.0
  0
LINE
  5
17973
330
176D7
100
AcDbEntity
  8
1
  6
Continuous
100
AcDbLine
 10
143.030127
 20
96.303177
 30
0.0
 11
142.827772
 21
93.560631
 31
0.0
  0
LINE
  5
17974
330
176D7
100
AcDbEntity
  8
1
  6
Continuous
100
AcDbLine
 10
137.8753949999999
 20
95.51151299999999
 30
0.0
 11
143.0301379999999
 21
96.303177
 31
0.0
  0
LINE
  5
17975
330
176D7
100
AcDbEntity
  8
1
  6
Continuous
100
AcDbLine
 10
137.0271929999999
 20
93.0
 30
0.0
 11
143.789125
 21
93.0
 31
0.0
  0
LINE
  5
17976
330
176D7
100
AcDbEntity
  8
1
  6
Continuous
100
AcDbLine
 10
137.0271929999999
 20
93.0
 30
0.0
 11
137.0271929999999
 21
101.0
 31
0.0
  0
ARC
  5
17977
330
176D7
100
AcDbEntity
  8
1
  6
Continuous
100
AcDbCircle
 10
154.53647
 20
90.034988
 30
0.0
 40
0.5
100
AcDbArc
 50
123.69011
 51
270.0
  0
ARC
  5
17978
330
176D7
100
AcDbEntity
  8
1
  6
Continuous
100
AcDbCircle
 10
158.2550579999999
 20
90.800003
 30
0.0
 40
0.5
100
AcDbArc
 50
90.00000300000001
 51
180.00001
  0
ARC
  5
17979
330
176D7
100
AcDbEntity
  8
1
  6
Continuous
100
AcDbCircle
 10
158.2550579999999
 20
90.800003
 30
0.0
 40
1.0
100
AcDbArc
 50
90.00000300000001
 51
180.00001
  0
ARC
  5
1797A
330
176D7
100
AcDbEntity
  8
1
  6
Continuous
100
AcDbCircle
 10
156.7550599999999
 20
90.034988
 30
0.0
 40
0.5
100
AcDbArc
 50
270.0
 51
0.0
  0
ARC
  5
1797B
330
176D7
100
AcDbEntity
  8
1
  6
Continuous
100
AcDbCircle
 10
156.7550599999999
 20
90.034988
 30
0.0
 40
1.0
100
AcDbArc
 50
270.0
 51
0.0
  0
LINE
  5
1797C
330
176D7
100
AcDbEntity
  8
1
  6
Continuous
100
AcDbLine
 10
152.8001839999998
 20
97.80366100000001
 30
0.0
 11
158.173735
 21
98.62893300000001
 31
0.0
  0
LINE
  5
1797D
330
176D7
100
AcDbEntity
  8
1
  6
Continuous
100
AcDbLine
 10
157.7952479999999
 20
94.677631
 30
0.0
 11
156.740648
 21
93.97456400000001
 31
0.0
  0
LINE
  5
1797E
330
176D7
100
AcDbEntity
  8
1
  6
Continuous
100
AcDbLine
 10
156.5956059999998
 20
92.00867100000001
 30
0.0
 11
153.5955979999999
 21
90.008663
 31
0.0
  0
LINE
  5
1797F
330
176D7
100
AcDbEntity
  8
1
  6
Continuous
100
AcDbLine
 10
146.6227129999998
 20
92.744507
 30
0.0
 11
156.595602
 21
92.00867499999999
 31
0.0
  0
LINE
  5
17980
330
176D7
100
AcDbEntity
  8
1
  6
Continuous
100
AcDbLine
 10
147.0274179999998
 20
98.22959500000001
 30
0.0
 11
146.6227129999998
 21
92.744507
 31
0.0
  0
LINE
  5
17981
330
176D7
100
AcDbEntity
  8
1
  6
Continuous
100
AcDbLine
 10
154.53647
 20
89.534988
 30
0.0
 11
156.7550599999999
 21
89.534988
 31
0.0
  0
LINE
  5
17982
330
176D7
100
AcDbEntity
  8
1
  6
Continuous
100
AcDbLine
 10
157.2550599999999
 20
90.800003
 30
0.0
 11
157.2550599999999
 21
90.034988
 31
0.0
  0
LINE
  5
17983
330
176D7
100
AcDbEntity
  8
1
  6
Continuous
100
AcDbLine
 10
157.7550599999999
 20
90.800003
 30
0.0
 11
157.7550599999999
 21
90.034988
 31
0.0
  0
LINE
  5
17984
330
176D7
100
AcDbEntity
  8
1
  6
Continuous
100
AcDbLine
 10
157.000311
 20
97.49376300000001
 30
0.0
 11
156.595602
 21
92.00867499999999
 31
0.0
  0
LINE
  5
17985
330
176D7
100
AcDbEntity
  8
1
  6
Continuous
100
AcDbLine
 10
146.6962949999999
 20
93.741795
 30
0.0
 11
156.669188
 21
93.00596199999999
 31
0.0
  0
LINE
  5
17986
330
176D7
100
AcDbEntity
  8
1
  6
Continuous
100
AcDbLine
 10
157.997601
 20
97.42018100000001
 30
0.0
 11
157.7952439999999
 21
94.677635
 31
0.0
  0
LINE
  5
17987
330
176D7
100
AcDbEntity
  8
1
  6
Continuous
100
AcDbLine
 10
149.0271929999998
 20
98.842957
 30
0.0
 11
149.0271929999998
 21
101.0
 31
0.0
  0
LINE
  5
17988
330
176D7
100
AcDbEntity
  8
1
  6
Continuous
100
AcDbLine
 10
146.03013
 20
98.30318100000004
 30
0.0
 11
157.997601
 21
97.42018100000001
 31
0.0
  0
LINE
  5
17989
330
176D7
100
AcDbEntity
  8
1
  6
Continuous
100
AcDbLine
 10
188.958832
 20
98.0
 30
0.0
 11
203.169946
 21
98.0
 31
0.0
  0
ARC
  5
1798A
330
176D7
100
AcDbEntity
  8
1
  6
Continuous
100
AcDbCircle
 10
196.9965979999998
 20
108.82666
 30
0.0
 40
6.173344
100
AcDbArc
 50
0.0
 51
180.00001
  0
LINE
  5
1798B
330
176D7
100
AcDbEntity
  8
1
  6
Continuous
100
AcDbLine
 10
190.823258
 20
99.600006
 30
0.0
 11
190.823258
 21
108.82666
 31
0.0
  0
ARC
  5
1798C
330
176D7
100
AcDbEntity
  8
1
  6
Continuous
100
AcDbCircle
 10
175.9069069999999
 20
96.300003
 30
0.0
 40
4.5
100
AcDbArc
 50
270.0
 51
307.8303299999999
  0
ARC
  5
1798D
330
176D7
100
AcDbEntity
  8
1
  6
Continuous
100
AcDbCircle
 10
175.9069069999999
 20
96.300003
 30
0.0
 40
5.0
100
AcDbArc
 50
270.0
 51
307.8303299999999
  0
LINE
  5
1798E
330
176D7
100
AcDbEntity
  8
1
  6
Continuous
100
AcDbLine
 10
186.145008
 20
97.51469
 30
0.0
 11
175.3311939999999
 21
93.67018100000001
 31
0.0
  0
LINE
  5
1798F
330
176D7
100
AcDbEntity
  8
1
  6
Continuous
100
AcDbLine
 10
185.60904
 20
99.02225900000001
 30
0.0
 11
174.7952249999999
 21
95.177746
 31
0.0
  0
ARC
  5
17990
330
176D7
100
AcDbEntity
  8
1
  6
Continuous
100
AcDbCircle
 10
169.026833
 20
96.859909
 30
0.0
 40
1.0
100
AcDbArc
 50
49.15761599999999
 51
133.1283399999998
  0
ARC
  5
17991
330
176D7
100
AcDbEntity
  8
1
  6
Continuous
100
AcDbCircle
 10
171.445435
 20
104.6000059999999
 30
0.0
 40
11.59999999999999
100
AcDbArc
 50
270.0
 51
289.5712399999998
  0
ARC
  5
17992
330
176D7
100
AcDbEntity
  8
1
  6
Continuous
100
AcDbCircle
 10
171.445435
 20
104.6000059999999
 30
0.0
 40
10.0
100
AcDbArc
 50
270.0
 51
289.5712399999998
  0
ARC
  5
17993
330
176D7
100
AcDbEntity
  8
1
  6
Continuous
100
AcDbCircle
 10
166.7594219999998
 20
96.60000600000001
 30
0.0
 40
3.6
100
AcDbArc
 50
198.3508099999999
 51
270.0
  0
ARC
  5
17994
330
176D7
100
AcDbEntity
  8
1
  6
Continuous
100
AcDbCircle
 10
166.7594219999998
 20
96.60000600000001
 30
0.0
 40
2.0
100
AcDbArc
 50
198.3508099999999
 51
270.0
  0
LINE
  5
17995
330
176D7
100
AcDbEntity
  8
1
  6
Continuous
100
AcDbLine
 10
173.024944
 20
94.725529
 30
0.0
 11
169.680824
 21
97.616413
 31
0.0
  0
LINE
  5
17996
330
176D7
100
AcDbEntity
  8
1
  6
Continuous
100
AcDbLine
 10
168.343208
 20
97.589725
 30
0.0
 11
165.570053
 21
94.99207699999999
 31
0.0
  0
LINE
  5
17997
330
176D7
100
AcDbEntity
  8
1
  6
Continuous
100
AcDbLine
 10
166.7594219999998
 20
94.60000599999998
 30
0.0
 11
171.445435
 21
94.60000599999998
 31
0.0
  0
ARC
  5
17998
330
176D7
100
AcDbEntity
  8
1
  6
Continuous
100
AcDbCircle
 10
189.823258
 20
100.6000059999999
 30
0.0
 40
1.0
100
AcDbArc
 50
270.0
 51
0.0
  0
ARC
  5
17999
330
176D7
100
AcDbEntity
  8
1
  6
Continuous
100
AcDbCircle
 10
188.823258
 20
100.0
 30
0.0
 40
2.0
100
AcDbArc
 50
270.0
 51
0.0
  0
ARC
  5
1799A
330
176D7
100
AcDbEntity
  8
1
  6
Continuous
100
AcDbCircle
 10
177.940156
 20
102.7193299999999
 30
0.0
 40
10.0
100
AcDbArc
 50
322.60471
 51
329.5418899999999
  0
ARC
  5
1799B
330
176D7
100
AcDbEntity
  8
1
  6
Continuous
100
AcDbCircle
 10
182.152924
 20
93.29524199999999
 30
0.0
 40
1.0
100
AcDbArc
 50
49.00000299999999
 51
120.27368
  0
ARC
  5
1799C
330
176D7
100
AcDbEntity
  8
1
  6
Continuous
100
AcDbCircle
 10
184.3029939999999
 20
94.07624799999997
 30
0.0
 40
1.0
100
AcDbArc
 50
228.9999999999999
 51
294.70677
  0
ARC
  5
1799D
330
176D7
100
AcDbEntity
  8
1
  6
Continuous
100
AcDbCircle
 10
186.9110649999998
 20
95.09042400000002
 30
0.0
 40
1.0
100
AcDbArc
 50
287.79171
 51
49.00000299999999
  0
ARC
  5
1799E
330
176D7
100
AcDbEntity
  8
1
  6
Continuous
100
AcDbCircle
 10
186.2094119999999
 20
95.70036299999999
 30
0.0
 40
1.0
100
AcDbArc
 50
49.00000299999999
 51
108.94182
  0
ARC
  5
1799F
330
176D7
100
AcDbEntity
  8
1
  6
Continuous
100
AcDbCircle
 10
194.000001
 20
73.0
 30
0.0
 40
25.0
100
AcDbArc
 50
108.94182
 51
127.83032
  0
ARC
  5
179A0
330
176D7
100
AcDbEntity
  8
1
  6
Continuous
100
AcDbCircle
 10
194.000001
 20
73.0
 30
0.0
 40
24.5
100
AcDbArc
 50
120.27368
 51
127.83032
  0
ARC
  5
179A1
330
176D7
100
AcDbEntity
  8
1
  6
Continuous
100
AcDbCircle
 10
188.958832
 20
89.60000599999998
 30
0.0
 40
8.4
100
AcDbArc
 50
90.00000300000001
 51
109.5712399999999
  0
ARC
  5
179A2
330
176D7
100
AcDbEntity
  8
1
  6
Continuous
100
AcDbCircle
 10
188.958832
 20
89.60000599999998
 30
0.0
 40
10.0
100
AcDbArc
 50
90.00000300000001
 51
109.5712399999999
  0
LINE
  5
179A3
330
176D7
100
AcDbEntity
  8
1
  6
Continuous
100
AcDbLine
 10
188.958832
 20
99.600006
 30
0.0
 11
189.823258
 21
99.600006
 31
0.0
  0
LINE
  5
179A4
330
176D7
100
AcDbEntity
  8
1
  6
Continuous
100
AcDbLine
 10
182.8089819999999
 20
94.04994999999999
 30
0.0
 11
183.646935
 21
93.321529
 31
0.0
  0
LINE
  5
179A5
330
176D7
100
AcDbEntity
  8
1
  6
Continuous
100
AcDbLine
 10
186.865473
 20
96.455078
 30
0.0
 11
187.5671289999999
 21
95.84513900000001
 31
0.0
  0
LINE
  5
179A6
330
176D7
100
AcDbEntity
  8
1
  6
Continuous
100
AcDbLine
 10
203.169946
 20
98.0
 30
0.0
 11
203.169946
 21
108.82666
 31
0.0
  0
ARC
  5
179A7
330
176D7
100
AcDbEntity
  8
1
  6
Continuous
100
AcDbCircle
 10
202.501992
 20
97.60000599999999
 30
0.0
 40
2.0
100
AcDbArc
 50
0.0
 51
70.489676
  0
LINE
  5
179A8
330
176D7
100
AcDbEntity
  8
1
  6
Continuous
100
AcDbLine
 10
202.9019939999999
 20
95.600006
 30
0.0
 11
202.9019939999999
 21
98.0
 31
0.0
  0
LINE
  5
179A9
330
176D7
100
AcDbEntity
  8
1
  6
Continuous
100
AcDbLine
 10
202.9019939999999
 20
95.600006
 30
0.0
 11
204.501992
 21
95.600006
 31
0.0
  0
LINE
  5
179AA
330
176D7
100
AcDbEntity
  8
1
  6
Continuous
100
AcDbLine
 10
204.501992
 20
95.600006
 30
0.0
 11
204.501992
 21
97.60000599999999
 31
0.0
  0
LINE
  5
179AB
330
176D7
100
AcDbEntity
  8
1
  6
Continuous
100
AcDbLine
 10
164.102037
 20
194.7590379999999
 30
0.0
 11
164.681801
 21
189.604037
 31
0.0
  0
LINE
  5
179AC
330
176D7
100
AcDbEntity
  8
1
  6
Continuous
100
AcDbLine
 10
156.39665
 20
178.7946969999999
 30
0.0
 11
157.9042229999998
 21
194.451455
 31
0.0
  0
ARC
  5
179AD
330
176D7
100
AcDbEntity
  8
5
  6
PHANTOM
100
AcDbCircle
 10
165.386267
 20
190.8111279999999
 30
0.0
 40
9.0
100
AcDbArc
 50
208.9168799999999
 51
283.51909
  0
ARC
  5
179AE
330
176D7
100
AcDbEntity
  8
5
  6
PHANTOM
100
AcDbCircle
 10
166.3562109999998
 20
175.9380439999999
 30
0.0
 40
4.0
100
AcDbArc
 50
24.0
 51
203.9999999999998
  0
LINE
  5
179AF
330
176D7
100
AcDbEntity
  8
1
  6
Continuous
100
AcDbLine
 10
165.208149
 20
158.286872
 30
0.0
 11
158.839199
 21
170.645262
 31
0.0
  0
ARC
  5
179B0
330
176D7
100
AcDbEntity
  8
5
  6
PHANTOM
100
AcDbCircle
 10
131.276374
 20
350.5918129999998
 30
0.0
 40
196.7422599999999
100
AcDbArc
 50
274.7708
 51
281.5309899999999
  0
LINE
  5
179B1
330
176D7
100
AcDbEntity
  8
5
  6
PHANTOM
100
AcDbLine
 10
169.979206
 20
157.727403
 30
0.0
 11
159.3657129999998
 21
166.707774
 31
0.0
  0
ARC
  5
179B2
330
176D7
100
AcDbEntity
  8
1
  6
Continuous
100
AcDbCircle
 10
203.2574089999999
 20
351.281287
 30
0.0
 40
196.7422599999999
100
AcDbArc
 50
252.2707999999998
 51
259.0309899999999
  0
LINE
  5
179B3
330
176D7
100
AcDbEntity
  8
5
  6
PHANTOM
100
AcDbLine
 10
147.000002
 20
171.0000039999999
 30
0.0
 11
147.7184929999999
 21
169.563017
 31
0.0
  0
ARC
  5
179B4
330
176D7
100
AcDbEntity
  8
1
  6
Continuous
100
AcDbCircle
 10
152.324228
 20
167.2877429999998
 30
0.0
 40
7.329238
100
AcDbArc
 50
27.264519
 51
85.903699
  0
ARC
  5
179B5
330
176D7
100
AcDbEntity
  8
5
  6
PHANTOM
100
AcDbCircle
 10
151.360599
 20
172.498129
 30
0.0
 40
2.75
100
AcDbArc
 50
266.17655
 51
17.0
  0
ARC
  5
179B6
330
176D7
100
AcDbEntity
  8
1
  6
Continuous
100
AcDbCircle
 10
146.086405
 20
172.455574
 30
0.0
 40
9.0
100
AcDbArc
 50
180.6087599999999
 51
252.2707999999998
  0
LINE
  5
179B7
330
176D7
100
AcDbEntity
  8
5
  6
PHANTOM
100
AcDbLine
 10
135.7789979999998
 20
166.6091739999998
 30
0.0
 11
146.9999989999998
 21
171.0
 31
0.0
  0
LINE
  5
179B8
330
176D7
100
AcDbEntity
  8
1
  6
Continuous
100
AcDbLine
 10
144.1914079999999
 20
163.614759
 30
0.0
 11
146.514387
 21
157.232429
 31
0.0
  0
LINE
  5
179B9
330
176D7
100
AcDbEntity
  8
1
  6
Continuous
100
AcDbLine
 10
143.3325519999999
 20
163.887238
 30
0.0
 11
146.514387
 21
155.1452199999999
 31
0.0
  0
LINE
  5
179BA
330
176D7
100
AcDbEntity
  8
5
  6
PHANTOM
100
AcDbLine
 10
147.7184959999999
 20
169.563017
 30
0.0
 11
136.407254
 21
165.136879
 31
0.0
  0
LINE
  5
179BB
330
176D7
100
AcDbEntity
  8
5
  6
PHANTOM
100
AcDbLine
 10
152.317611
 20
168.0670459999998
 30
0.0
 11
144.233104
 21
165.377108
 31
0.0
  0
ARC
  5
179BC
330
176D7
100
AcDbEntity
  8
5
  6
PHANTOM
100
AcDbCircle
 10
146.8908909999998
 20
163.5000009999999
 30
0.0
 40
9.0
100
AcDbArc
 50
203.1087599999999
 51
274.7708
  0
ARC
  5
179BD
330
176D7
100
AcDbEntity
  8
5
  6
PHANTOM
100
AcDbCircle
 10
146.9166449999999
 20
157.311836
 30
0.0
 40
8.5
100
AcDbArc
 50
108.4036989999998
 51
163.92827
  0
LINE
  5
179BE
330
176D7
100
AcDbEntity
  8
5
  6
PHANTOM
100
AcDbLine
 10
135.7789979999998
 20
166.6091729999999
 30
0.0
 11
138.61303
 21
159.967699
 31
0.0
  0
LINE
  5
179BF
330
176D7
100
AcDbEntity
  8
1
  6
Continuous
100
AcDbLine
 10
148.436956
 20
156.3359209999999
 30
0.0
 11
157.9975949999998
 21
159.8157089999999
 31
0.0
  0
LINE
  5
179C0
330
176D7
100
AcDbEntity
  8
1
  6
Continuous
100
AcDbLine
 10
148.436956
 20
154.248712
 30
0.0
 11
157.9975969999999
 21
157.728499
 31
0.0
  0
LINE
  5
179C1
330
176D7
100
AcDbEntity
  8
1
  6
Continuous
100
AcDbLine
 10
157.9975969999999
 20
159.8157099999999
 30
0.0
 11
157.9975969999999
 21
157.7285
 31
0.0
  0
ARC
  5
179C2
330
176D7
100
AcDbEntity
  8
5
  6
PHANTOM
100
AcDbCircle
 10
154.6315319999999
 20
161.112659
 30
0.0
 40
7.329238
100
AcDbArc
 50
49.764519
 51
108.4036989999998
  0
LINE
  5
179C3
330
176D7
100
AcDbEntity
  8
5
  6
PHANTOM
100
AcDbLine
 10
151.1772179999999
 20
169.75425
 30
0.0
 11
147.4999949999999
 21
170.0000029999999
 31
0.0
  0
ARC
  5
179C4
330
176D7
100
AcDbEntity
  8
1
  6
Continuous
100
AcDbCircle
 10
147.923925
 20
157.74546
 30
0.0
 40
1.5
100
AcDbArc
 50
200.0
 51
290.0
  0
ARC
  5
179C5
330
176D7
100
AcDbEntity
  8
1
  6
Continuous
100
AcDbCircle
 10
147.923925
 20
155.658251
 30
0.0
 40
1.5
100
AcDbArc
 50
200.0
 51
290.0
  0
ARC
  5
179C6
330
176D7
100
AcDbEntity
  8
1
  6
Continuous
100
AcDbCircle
 10
164.280617
 20
171.7400059999999
 30
0.0
 40
20.0
100
AcDbArc
 50
109.7261299999999
 51
157.4588
  0
LINE
  5
179C7
330
176D7
100
AcDbEntity
  8
1
  6
Continuous
100
AcDbLine
 10
152.8477729999998
 20
174.5982579999999
 30
0.0
 11
144.349268
 21
175.206886
 31
0.0
  0
LINE
  5
179C8
330
176D7
100
AcDbEntity
  8
1
  6
Continuous
100
AcDbLine
 10
149.171228
 20
177.74036
 30
0.0
 11
137.0271929999999
 21
177.9797669999999
 31
0.0
  0
LINE
  5
179C9
330
176D7
100
AcDbEntity
  8
1
  6
Continuous
100
AcDbLine
 10
137.010183
 20
179.580413
 30
0.0
 11
149.0573329999998
 21
179.342916
 31
0.0
  0
LINE
  5
179CA
330
176D7
100
AcDbEntity
  8
1
  6
Continuous
100
AcDbLine
 10
137.010183
 20
179.580412
 30
0.0
 11
137.086905
 21
172.359952
 31
0.0
  0
ARC
  5
179CB
330
176D7
100
AcDbEntity
  8
1
  6
Continuous
100
AcDbCircle
 10
143.74209
 20
166.728599
 30
0.0
 40
8.5
100
AcDbArc
 50
85.903699
 51
141.42827
  0
ARC
  5
179CC
330
176D7
100
AcDbEntity
  8
1
  6
Continuous
100
AcDbCircle
 10
153.659311
 20
179.058277
 30
0.0
 40
2.75
100
AcDbArc
 50
243.6765499999999
 51
354.4999999999998
  0
LINE
  5
179CD
330
176D7
100
AcDbEntity
  8
1
  6
Continuous
100
AcDbLine
 10
149.0573369999999
 20
179.3429179999999
 30
0.0
 11
149.1712249999999
 21
177.740361
 31
0.0
  0
LINE
  5
179CE
330
176D7
100
AcDbEntity
  8
1
  6
Continuous
100
AcDbLine
 10
152.439852
 20
176.5934409999999
 30
0.0
 11
149.1365869999999
 21
178.2276989999998
 31
0.0
  0
LINE
  5
179CF
330
176D7
100
AcDbEntity
  8
5
  6
PHANTOM
100
AcDbLine
 10
153.9904379999998
 20
173.3021469999999
 30
0.0
 11
149.391672
 21
188.344028
 31
0.0
  0
LINE
  5
179D0
330
176D7
100
AcDbEntity
  8
5
  6
PHANTOM
100
AcDbLine
 10
154.999999
 20
190.999999
 30
0.0
 11
157.508364
 21
186.4592649999999
 31
0.0
  0
LINE
  5
179D1
330
176D7
100
AcDbEntity
  8
5
  6
PHANTOM
100
AcDbLine
 10
155.000004
 20
191.000001
 30
0.0
 11
149.391669
 21
188.344027
 31
0.0
  0
ARC
  5
179D2
330
176D7
100
AcDbEntity
  8
1
  6
Continuous
100
AcDbCircle
 10
189.508584
 20
169.555725
 30
0.0
 40
12.562165
100
AcDbArc
 50
18.109101
 51
100.43131
  0
LINE
  5
179D3
330
176D7
100
AcDbEntity
  8
5
  6
PHANTOM
100
AcDbLine
 10
191.4169609999999
 20
172.9899859999999
 30
0.0
 11
202.916962
 21
177.4899859999999
 31
0.0
  0
ARC
  5
179D4
330
176D7
100
AcDbEntity
  8
5
  6
PHANTOM
100
AcDbCircle
 10
188.117477
 20
177.437839
 30
0.0
 40
12.562165
100
AcDbArc
 50
40.609101
 51
122.9313099999999
  0
LINE
  5
179D5
330
176D7
100
AcDbEntity
  8
1
  6
Continuous
100
AcDbLine
 10
190.8547899999998
 20
164.183787
 30
0.0
 11
203.201481
 21
163.9403849999999
 31
0.0
  0
LINE
  5
179D6
330
176D7
100
AcDbEntity
  8
1
  6
Continuous
100
AcDbLine
 10
190.823253
 20
162.584099
 30
0.0
 11
203.169945
 21
162.340698
 31
0.0
  0
LINE
  5
179D7
330
176D7
100
AcDbEntity
  8
5
  6
PHANTOM
100
AcDbLine
 10
192.0
 20
171.499999
 30
0.0
 11
203.500001
 21
175.999999
 31
0.0
  0
ARC
  5
179D8
330
176D7
100
AcDbEntity
  8
5
  6
PHANTOM
100
AcDbCircle
 10
188.311831
 20
169.4445479999999
 30
0.0
 40
3.0
100
AcDbArc
 50
73.85411899999998
 51
159.2845899999998
  0
LINE
  5
179D9
330
176D7
100
AcDbEntity
  8
1
  6
Continuous
100
AcDbLine
 10
164.831219
 20
176.393067
 30
0.0
 11
164.835295
 21
176.2374059999999
 31
0.0
  0
ARC
  5
179DA
330
176D7
100
AcDbEntity
  8
1
  6
Continuous
100
AcDbCircle
 10
160.956162
 20
169.394935
 30
0.0
 40
16.5
100
AcDbArc
 50
320.4163899999999
 51
39.77835199999999
  0
LINE
  5
179DB
330
176D7
100
AcDbEntity
  8
1
  6
Continuous
100
AcDbLine
 10
172.8284779999999
 20
176.60248
 30
0.0
 11
172.8325539999999
 21
176.446823
 31
0.0
  0
LINE
  5
179DC
330
176D7
100
AcDbEntity
  8
5
  6
PHANTOM
100
AcDbLine
 10
170.010393
 20
177.564991
 30
0.0
 11
170.0737259999999
 21
177.422743
 31
0.0
  0
LINE
  5
179DD
330
176D7
100
AcDbEntity
  8
5
  6
PHANTOM
100
AcDbLine
 10
162.702028
 20
174.3111
 30
0.0
 11
162.765362
 21
174.168848
 31
0.0
  0
ARC
  5
179DE
330
176D7
100
AcDbEntity
  8
5
  6
PHANTOM
100
AcDbCircle
 10
161.800011
 20
166.36275
 30
0.0
 40
16.5
100
AcDbArc
 50
342.9163899999999
 51
62.27835200000002
  0
ARC
  5
179DF
330
176D7
100
AcDbEntity
  8
1
  6
Continuous
100
AcDbCircle
 10
169.6769179999998
 20
178.0243839999999
 30
0.0
 40
20.26109899999999
100
AcDbArc
 50
259.0309899999999
 51
316.7845899999999
  0
ARC
  5
179E0
330
176D7
100
AcDbEntity
  8
5
  6
PHANTOM
100
AcDbCircle
 10
166.5545919999999
 20
177.6726089999999
 30
0.0
 40
20.26109899999999
100
AcDbArc
 50
281.5309899999999
 51
339.2845899999999
  0
ARC
  5
179E1
330
176D7
100
AcDbEntity
  8
1
  6
Continuous
100
AcDbCircle
 10
169.170151
 20
163.502228
 30
0.0
 40
4.0
100
AcDbArc
 50
181.4999999999998
 51
1.5
  0
ARC
  5
179E2
330
176D7
100
AcDbEntity
  8
5
  6
PHANTOM
100
AcDbCircle
 10
171.6437889999999
 20
164.061955
 30
0.0
 40
4.0
100
AcDbArc
 50
203.9999999999998
 51
24.0
  0
ARC
  5
179E3
330
176D7
100
AcDbEntity
  8
1
  6
Continuous
100
AcDbCircle
 10
186.629243
 20
162.0965119999999
 30
0.0
 40
3.0
100
AcDbArc
 50
51.354119
 51
136.7845899999998
  0
LINE
  5
179E4
330
176D7
100
AcDbEntity
  8
1
  6
Continuous
100
AcDbLine
 10
190.823253
 20
162.584099
 30
0.0
 11
188.5027609999999
 21
164.4395669999999
 31
0.0
  0
LINE
  5
179E5
330
176D7
100
AcDbEntity
  8
1
  6
Continuous
100
AcDbLine
 10
190.8547909999998
 20
164.1837929999998
 30
0.0
 11
190.8232549999999
 21
162.5840969999998
 31
0.0
  0
ARC
  5
179E6
330
176D7
100
AcDbEntity
  8
1
  6
Continuous
100
AcDbCircle
 10
179.171762
 20
225.7037799999999
 30
0.0
 40
44.529465
100
AcDbArc
 50
261.01909
 51
280.43132
  0
ARC
  5
179E7
330
176D7
100
AcDbEntity
  8
5
  6
PHANTOM
100
AcDbCircle
 10
157.080569
 20
225.356147
 30
0.0
 40
44.529465
100
AcDbArc
 50
283.51909
 51
302.93132
  0
ARC
  5
179E8
330
176D7
100
AcDbEntity
  8
1
  6
Continuous
100
AcDbCircle
 10
160.0823899999998
 20
176.3125459999999
 30
0.0
 40
14.0
100
AcDbArc
 50
22.17917299999999
 51
70.78566999999998
  0
ARC
  5
179E9
330
176D7
100
AcDbEntity
  8
1
  6
Continuous
100
AcDbCircle
 10
168.829849
 20
176.497772
 30
0.0
 40
4.0
100
AcDbArc
 50
1.5
 51
181.4999999999998
  0
ARC
  5
179EA
330
176D7
100
AcDbEntity
  8
1
  6
Continuous
100
AcDbCircle
 10
173.6254199999999
 20
190.609891
 30
0.0
 40
9.0
100
AcDbArc
 50
186.4168799999999
 51
261.01909
  0
LINE
  5
179EB
330
176D7
100
AcDbEntity
  8
5
  6
PHANTOM
100
AcDbLine
 10
191.4169609999999
 20
172.989992
 30
0.0
 11
192.0000019999999
 21
171.499997
 31
0.0
  0
LINE
  5
179EC
330
176D7
100
AcDbEntity
  8
5
  6
PHANTOM
100
AcDbLine
 10
192.0
 20
171.4999979999998
 30
0.0
 11
189.1460869999999
 21
172.3262139999999
 31
0.0
  0
LINE
  5
179ED
330
176D7
100
AcDbEntity
  8
1
  6
Continuous
100
AcDbLine
 10
204.501993
 20
165.9151409999998
 30
0.0
 11
204.646112
 21
173.2254199999999
 31
0.0
  0
LINE
  5
179EE
330
176D7
100
AcDbEntity
  8
1
  6
Continuous
100
AcDbLine
 10
202.241097
 20
165.9597109999999
 30
0.0
 11
204.501991
 21
165.9151389999999
 31
0.0
  0
LINE
  5
179EF
330
176D7
100
AcDbEntity
  8
1
  6
Continuous
100
AcDbLine
 10
202.241096
 20
165.95971
 30
0.0
 11
202.201674
 21
163.9600989999999
 31
0.0
  0
LINE
  5
179F0
330
176D7
100
AcDbEntity
  8
1
  6
Continuous
100
AcDbLine
 10
203.201483
 20
163.9403849999999
 30
0.0
 11
203.1699479999999
 21
162.340697
 31
0.0
  0
LINE
  5
179F1
330
176D7
100
AcDbEntity
  8
1
  6
Continuous
100
AcDbLine
 10
201.448498
 20
173.4603859999998
 30
0.0
 11
204.646111
 21
173.225423
 31
0.0
  0
LINE
  5
179F2
330
176D7
100
AcDbEntity
  8
5
  6
PHANTOM
100
AcDbLine
 10
203.362772
 20
179.812107
 30
0.0
 11
200.698398
 21
186.6210759999999
 31
0.0
  0
LINE
  5
179F3
330
176D7
100
AcDbEntity
  8
5
  6
PHANTOM
100
AcDbLine
 10
202.9169639999998
 20
177.489987
 30
0.0
 11
203.5000039999999
 21
176.0
 31
0.0
  0
LINE
  5
179F4
330
176D7
100
AcDbEntity
  8
5
  6
PHANTOM
100
AcDbLine
 10
201.25692
 20
178.988076
 30
0.0
 11
201.9857169999999
 21
177.1255899999999
 31
0.0
  0
LINE
  5
179F5
330
176D7
100
AcDbEntity
  8
5
  6
PHANTOM
100
AcDbLine
 10
201.256921
 20
178.988077
 30
0.0
 11
203.362771
 21
179.8121049999998
 31
0.0
  0
LINE
  5
179F6
330
176D7
100
AcDbEntity
  8
5
  6
PHANTOM
100
AcDbLine
 10
197.654271
 20
185.614483
 30
0.0
 11
200.6983959999999
 21
186.621078
 31
0.0
  0
LINE
  5
179F7
330
176D7
100
AcDbEntity
  8
1
  6
Continuous
100
AcDbLine
 10
164.1020429999999
 20
194.7590379999999
 30
0.0
 11
157.9042189999999
 21
194.451455
 31
0.0
  0
ARC
  5
179F8
330
176D7
100
AcDbEntity
  8
1
  6
Continuous
100
AcDbCircle
 10
158.2550579999999
 20
267.1999969999999
 30
0.0
 40
1.0
100
AcDbArc
 50
179.9999899999999
 51
249.4614299999999
  0
ARC
  5
179F9
330
176D7
100
AcDbEntity
  8
1
  6
Continuous
100
AcDbCircle
 10
156.7550579999999
 20
267.965011
 30
0.0
 40
1.0
100
AcDbArc
 50
0.0
 51
90.00000300000001
  0
LINE
  5
179FA
330
176D7
100
AcDbEntity
  8
1
  6
Continuous
100
AcDbLine
 10
137.0271929999999
 20
265.0
 30
0.0
 11
157.904221
 21
265.0
 31
0.0
  0
LINE
  5
179FB
330
176D7
100
AcDbEntity
  8
1
  6
Continuous
100
AcDbLine
 10
149.0271889999999
 20
259.1570429999999
 30
0.0
 11
157.930855
 21
257.789619
 31
0.0
  0
LINE
  5
179FC
330
176D7
100
AcDbEntity
  8
1
  6
Continuous
100
AcDbLine
 10
150.0271929999998
 20
263.3999939999998
 30
0.0
 11
162.0
 21
263.3999939999998
 31
0.0
  0
ARC
  5
179FD
330
176D7
100
AcDbEntity
  8
1
  6
Continuous
100
AcDbCircle
 10
150.0271929999998
 20
262.399994
 30
0.0
 40
1.0
100
AcDbArc
 50
90.00000300000001
 51
180.00001
  0
ARC
  5
179FE
330
176D7
100
AcDbEntity
  8
1
  6
Continuous
100
AcDbCircle
 10
143.0271929999999
 20
257.0
 30
0.0
 40
6.0
100
AcDbArc
 50
179.9999899999999
 51
0.00001
  0
LINE
  5
179FF
330
176D7
100
AcDbEntity
  8
1
  6
Continuous
100
AcDbLine
 10
137.0271929999999
 20
265.0
 30
0.0
 11
137.0271929999999
 21
257.0
 31
0.0
  0
LINE
  5
17A00
330
176D7
100
AcDbEntity
  8
1
  6
Continuous
100
AcDbLine
 10
149.0271929999998
 20
262.399994
 30
0.0
 11
149.0271929999998
 21
257.0
 31
0.0
  0
ARC
  5
17A01
330
176D7
100
AcDbEntity
  8
1
  6
Continuous
100
AcDbCircle
 10
141.629244
 20
267.4650109999999
 30
0.0
 40
1.0
100
AcDbArc
 50
90.00000300000001
 51
167.08946
  0
ARC
  5
17A02
330
176D7
100
AcDbEntity
  8
1
  6
Continuous
100
AcDbCircle
 10
142.2568379999999
 20
267.3211519999999
 30
0.0
 40
1.643872
100
AcDbArc
 50
90.00000300000001
 51
256.0542799999999
  0
ARC
  5
17A03
330
176D7
100
AcDbEntity
  8
1
  6
Continuous
100
AcDbCircle
 10
154.5364689999999
 20
267.965011
 30
0.0
 40
0.5
100
AcDbArc
 50
90.00000300000001
 51
196.44661
  0
ARC
  5
17A04
330
176D7
100
AcDbEntity
  8
1
  6
Continuous
100
AcDbCircle
 10
156.7550579999999
 20
267.965011
 30
0.0
 40
0.5
100
AcDbArc
 50
0.0
 51
90.00000300000001
  0
LINE
  5
17A05
330
176D7
100
AcDbEntity
  8
1
  6
Continuous
100
AcDbLine
 10
154.890411
 20
264.999992
 30
0.0
 11
154.0569269999998
 21
267.8234479999999
 31
0.0
  0
LINE
  5
17A06
330
176D7
100
AcDbEntity
  8
1
  6
Continuous
100
AcDbLine
 10
157.2550579999999
 20
267.1999969999999
 30
0.0
 11
157.2550579999999
 21
267.965011
 31
0.0
  0
LINE
  5
17A07
330
176D7
100
AcDbEntity
  8
1
  6
Continuous
100
AcDbLine
 10
142.2568379999999
 20
268.965011
 30
0.0
 11
156.7550579999999
 21
268.965011
 31
0.0
  0
LINE
  5
17A08
330
176D7
100
AcDbEntity
  8
1
  6
Continuous
100
AcDbLine
 10
141.629244
 20
268.465011
 30
0.0
 11
156.7550579999999
 21
268.465011
 31
0.0
  0
LINE
  5
17A09
330
176D7
100
AcDbEntity
  8
1
  6
Continuous
100
AcDbLine
 10
144.783197
 20
264.999992
 30
0.0
 11
141.8606659999998
 21
265.725723
 31
0.0
  0
ARC
  5
17A0A
330
176D7
100
AcDbEntity
  8
1
  6
Continuous
100
AcDbCircle
 10
169.026833
 20
261.1400909999999
 30
0.0
 40
1.0
100
AcDbArc
 50
226.87166
 51
310.84238
  0
ARC
  5
17A0B
330
176D7
100
AcDbEntity
  8
1
  6
Continuous
100
AcDbCircle
 10
158.8864059999998
 20
264.0115049999999
 30
0.0
 40
6.294833999999998
100
AcDbArc
 50
261.26873
 51
301.092306
  0
ARC
  5
17A0C
330
176D7
100
AcDbEntity
  8
1
  6
Continuous
100
AcDbCircle
 10
196.9965979999998
 20
249.173336
 30
0.0
 40
6.173344
100
AcDbArc
 50
179.9999899999999
 51
0.00001
  0
LINE
  5
17A0D
330
176D7
100
AcDbEntity
  8
1
  6
Continuous
100
AcDbLine
 10
190.823258
 20
253.0
 30
0.0
 11
190.823258
 21
249.173336
 31
0.0
  0
LINE
  5
17A0E
330
176D7
100
AcDbEntity
  8
1
  6
Continuous
100
AcDbLine
 10
203.169945
 20
253.0
 30
0.0
 11
203.169945
 21
249.173336
 31
0.0
  0
ARC
  5
17A0F
330
176D7
100
AcDbEntity
  8
1
  6
Continuous
100
AcDbCircle
 10
158.2550579999999
 20
267.1999969999999
 30
0.0
 40
0.5
100
AcDbArc
 50
179.9999899999999
 51
225.43843
  0
LINE
  5
17A10
330
176D7
100
AcDbEntity
  8
1
  6
Continuous
100
AcDbLine
 10
157.755058
 20
267.1999969999999
 30
0.0
 11
157.755058
 21
267.965011
 31
0.0
  0
LINE
  5
17A11
330
176D7
100
AcDbEntity
  8
1
  6
Continuous
100
AcDbLine
 10
162.0
 20
269.0
 30
0.0
 11
157.904221
 21
269.0
 31
0.0
  0
LINE
  5
17A12
330
176D7
100
AcDbEntity
  8
1
  6
Continuous
100
AcDbLine
 10
157.904221
 20
269.0
 30
0.0
 11
157.904221
 21
263.3999939999998
 31
0.0
  0
LINE
  5
17A13
330
176D7
100
AcDbEntity
  8
1
  6
Continuous
100
AcDbLine
 10
77.0
 20
192.6590299999998
 30
0.0
 11
77.0
 21
167.1885
 31
0.0
  0
LINE
  5
17A14
330
176D7
100
AcDbEntity
  8
1
  6
Continuous
100
AcDbLine
 10
78.60000599999998
 20
192.7590399999999
 30
0.0
 11
78.60000599999998
 21
185.11788
 31
0.0
  0
LINE
  5
17A15
330
176D7
100
AcDbEntity
  8
1
  6
Continuous
100
AcDbLine
 10
78.60000599999998
 20
192.6590299999998
 30
0.0
 11
78.60000599999998
 21
179.3429099999999
 31
0.0
  0
LINE
  5
17A16
330
176D7
100
AcDbEntity
  8
1
  6
Continuous
100
AcDbLine
 10
73.60000599999998
 20
190.0663299999999
 30
0.0
 11
73.60000599999998
 21
175.3441
 31
0.0
  0
LINE
  5
17A17
330
176D7
100
AcDbEntity
  8
1
  6
Continuous
100
AcDbLine
 10
74.10000599999998
 20
190.56633
 30
0.0
 11
74.10000599999998
 21
175.3441
 31
0.0
  0
LINE
  5
17A18
330
176D7
100
AcDbEntity
  8
1
  6
Continuous
100
AcDbLine
 10
75.89999399999998
 20
190.56633
 30
0.0
 11
75.89999399999998
 21
176.52684
 31
0.0
  0
LINE
  5
17A19
330
176D7
100
AcDbEntity
  8
1
  6
Continuous
100
AcDbLine
 10
79.0
 20
179.3429099999999
 30
0.0
 11
91.0
 21
179.3429099999999
 31
0.0
  0
LINE
  5
17A1A
330
176D7
100
AcDbEntity
  8
1
  6
Continuous
100
AcDbLine
 10
79.10000599999998
 20
177.74036
 30
0.0
 11
91.0
 21
177.74036
 31
0.0
  0
LINE
  5
17A1B
330
176D7
100
AcDbEntity
  8
1
  6
Continuous
100
AcDbLine
 10
88.82557799999998
 20
163.94038
 30
0.0
 11
99.0
 21
163.94038
 31
0.0
  0
LINE
  5
17A1C
330
176D7
100
AcDbEntity
  8
1
  6
Continuous
100
AcDbLine
 10
84.75376899999998
 20
162.3406899999999
 30
0.0
 11
99.0
 21
162.3406899999999
 31
0.0
  0
LINE
  5
17A1D
330
176D7
100
AcDbEntity
  8
1
  6
Continuous
100
AcDbLine
 10
77.67568399999998
 20
166.92523
 30
0.0
 11
82.22959499999998
 21
155.82289
 31
0.0
  0
LINE
  5
17A1E
330
176D7
100
AcDbEntity
  8
1
  6
Continuous
100
AcDbLine
 10
83.35377499999998
 20
177.5
 30
0.0
 11
83.35377499999998
 21
177.74036
 31
0.0
  0
LINE
  5
17A1F
330
176D7
100
AcDbEntity
  8
1
  6
Continuous
100
AcDbLine
 10
80.56974399999999
 20
169.8147899999999
 30
0.0
 11
84.171124
 21
161.03471
 31
0.0
  0
LINE
  5
17A20
330
176D7
100
AcDbEntity
  8
1
  6
Continuous
100
AcDbLine
 10
79.089426
 20
169.2076099999999
 30
0.0
 11
82.63755000000001
 21
160.55735
 31
0.0
  0
LINE
  5
17A21
330
176D7
100
AcDbEntity
  8
1
  6
Continuous
100
AcDbLine
 10
80.929146
 20
172.54741
 30
0.0
 11
84.22684099999997
 21
160.87322
 31
0.0
  0
LINE
  5
17A22
330
176D7
100
AcDbEntity
  8
1
  6
Continuous
100
AcDbLine
 10
72.587112
 20
164.83802
 30
0.0
 11
77.67568399999998
 21
166.92523
 31
0.0
  0
ARC
  5
17A23
330
176D7
100
AcDbEntity
  8
1
  6
Continuous
100
AcDbCircle
 10
75.760986
 20
167.22071
 30
0.0
 40
1.0
100
AcDbArc
 50
196.2671699999999
 51
292.3022599999999
  0
LINE
  5
17A24
330
176D7
100
AcDbEntity
  8
1
  6
Continuous
100
AcDbLine
 10
72.587112
 20
164.83802
 30
0.0
 11
77.14102599999998
 21
153.7356799999998
 31
0.0
  0
LINE
  5
17A25
330
176D7
100
AcDbEntity
  8
1
  6
Continuous
100
AcDbLine
 10
75.131399
 20
165.8816199999999
 30
0.0
 11
79.68531
 21
154.77929
 31
0.0
  0
LINE
  5
17A26
330
176D7
100
AcDbEntity
  8
1
  6
Continuous
100
AcDbLine
 10
77.14102599999998
 20
153.7356799999998
 30
0.0
 11
82.22959499999998
 21
155.82289
 31
0.0
  0
LINE
  5
17A27
330
176D7
100
AcDbEntity
  8
1
  6
Continuous
100
AcDbLine
 10
81.14725099999999
 20
158.4616
 30
0.0
 11
83.17991999999998
 21
159.01885
 31
0.0
  0
LINE
  5
17A28
330
176D7
100
AcDbEntity
  8
1
  6
Continuous
100
AcDbLine
 10
80.840946
 20
159.2083899999998
 30
0.0
 11
82.28688400000001
 21
159.7523999999999
 31
0.0
  0
ARC
  5
17A29
330
176D7
100
AcDbEntity
  8
1
  6
Continuous
100
AcDbCircle
 10
84.75376899999998
 20
165.34069
 30
0.0
 40
3.0
100
AcDbArc
 50
250.7553399999999
 51
270.0
  0
ARC
  5
17A2A
330
176D7
100
AcDbEntity
  8
1
  6
Continuous
100
AcDbCircle
 10
82.78332500000002
 20
160.4654699999999
 30
0.0
 40
1.5
100
AcDbArc
 50
285.330734
 51
22.30226
  0
ARC
  5
17A2B
330
176D7
100
AcDbEntity
  8
1
  6
Continuous
100
AcDbCircle
 10
82.07141099999999
 20
160.3251399999998
 30
0.0
 40
0.6119200000000001
100
AcDbArc
 50
290.6182149999998
 51
22.30226
  0
ARC
  5
17A2C
330
176D7
100
AcDbEntity
  8
1
  6
Continuous
100
AcDbCircle
 10
103.6000059999999
 20
175.3441
 30
0.0
 40
30.0
100
AcDbArc
 50
180.0
 51
196.2671699999999
  0
LINE
  5
17A2D
330
176D7
100
AcDbEntity
  8
1
  6
Continuous
100
AcDbLine
 10
75.89999399999998
 20
176.52684
 30
0.0
 11
74.10000599999998
 21
176.52684
 31
0.0
  0
ARC
  5
17A2E
330
176D7
100
AcDbEntity
  8
1
  6
Continuous
100
AcDbCircle
 10
103.6000059999999
 20
175.3441
 30
0.0
 40
29.5
100
AcDbArc
 50
180.0
 51
196.2671699999999
  0
LINE
  5
17A2F
330
176D7
100
AcDbEntity
  8
1
  6
Continuous
100
AcDbLine
 10
81.60000600000001
 20
182.11788
 30
0.0
 11
83.35377499999998
 21
182.11788
 31
0.0
  0
LINE
  5
17A30
330
176D7
100
AcDbEntity
  8
1
  6
Continuous
100
AcDbLine
 10
78.60000599999998
 20
177.24036
 30
0.0
 11
78.60000599999998
 21
171.9236399999998
 31
0.0
  0
LINE
  5
17A31
330
176D7
100
AcDbEntity
  8
1
  6
Continuous
100
AcDbLine
 10
83.35377499999998
 20
179.3429099999999
 30
0.0
 11
83.35377499999998
 21
182.11788
 31
0.0
  0
ARC
  5
17A32
330
176D7
100
AcDbEntity
  8
1
  6
Continuous
100
AcDbCircle
 10
81.60000600000001
 20
185.11788
 30
0.0
 40
3.0
100
AcDbArc
 50
180.0
 51
270.0
  0
ARC
  5
17A33
330
176D7
100
AcDbEntity
  8
1
  6
Continuous
100
AcDbCircle
 10
79.0
 20
177.3429099999999
 30
0.0
 40
2.0
100
AcDbArc
 50
90.00001000000002
 51
180.0
  0
ARC
  5
17A34
330
176D7
100
AcDbEntity
  8
1
  6
Continuous
100
AcDbCircle
 10
79.10000599999998
 20
177.24036
 30
0.0
 40
0.5
100
AcDbArc
 50
90.00001000000002
 51
180.0
  0
ARC
  5
17A35
330
176D7
100
AcDbEntity
  8
1
  6
Continuous
100
AcDbCircle
 10
78.71934499999998
 20
169.05581
 30
0.0
 40
2.0
100
AcDbArc
 50
22.30226
 51
72.9294
  0
ARC
  5
17A36
330
176D7
100
AcDbEntity
  8
1
  6
Continuous
100
AcDbCircle
 10
79.60000599999998
 20
171.9236399999998
 30
0.0
 40
1.0
100
AcDbArc
 50
180.0
 51
252.9294
  0
ARC
  5
17A37
330
176D7
100
AcDbEntity
  8
1
  6
Continuous
100
AcDbCircle
 10
79.60000599999998
 20
171.9236399999998
 30
0.0
 40
2.6
100
AcDbArc
 50
180.0
 51
252.9294
  0
ARC
  5
17A38
330
176D7
100
AcDbEntity
  8
1
  6
Continuous
100
AcDbCircle
 10
78.71934499999998
 20
169.05581
 30
0.0
 40
0.4
100
AcDbArc
 50
22.30226
 51
72.9294
  0
ARC
  5
17A39
330
176D7
100
AcDbEntity
  8
1
  6
Continuous
100
AcDbCircle
 10
78.04211399999998
 20
171.7318999999999
 30
0.0
 40
3.0
100
AcDbArc
 50
15.77379
 51
79.28289000000003
  0
LINE
  5
17A3A
330
176D7
100
AcDbEntity
  8
1
  6
Continuous
100
AcDbLine
 10
75.94853999999997
 20
166.757219
 30
0.0
 11
77.02334
 21
167.19808
 31
0.0
  0
ARC
  5
17A3B
330
176D7
100
AcDbEntity
  8
1
  6
Continuous
100
AcDbCircle
 10
75.760986
 20
167.22071
 30
0.0
 40
0.5
100
AcDbArc
 50
196.2671699999999
 51
292.3022599999999
  0
ARC
  5
17A3C
330
176D7
100
AcDbEntity
  8
1
  6
Continuous
100
AcDbCircle
 10
77.21308899999998
 20
166.73548
 30
0.0
 40
0.5
100
AcDbArc
 50
22.30226
 51
112.3022699999998
  0
LINE
  5
17A3D
330
176D7
100
AcDbEntity
  8
1
  6
Continuous
100
AcDbLine
 10
99.0
 20
162.3406899999999
 30
0.0
 11
99.0
 21
163.94038
 31
0.0
  0
LINE
  5
17A3E
330
176D7
100
AcDbEntity
  8
1
  6
Continuous
100
AcDbLine
 10
91.0
 20
179.3429099999999
 30
0.0
 11
91.0
 21
177.74036
 31
0.0
  0
LINE
  5
17A3F
330
176D7
100
AcDbEntity
  8
1
  6
Continuous
100
AcDbLine
 10
73.0
 20
194.7590399999999
 30
0.0
 11
76.60000599999998
 21
194.7590399999999
 31
0.0
  0
LINE
  5
17A40
330
176D7
100
AcDbEntity
  8
1
  6
Continuous
100
AcDbLine
 10
73.0
 20
193.15903
 30
0.0
 11
76.5
 21
193.15903
 31
0.0
  0
LINE
  5
17A41
330
176D7
100
AcDbEntity
  8
1
  6
Continuous
100
AcDbLine
 10
74.10000599999998
 20
190.56633
 30
0.0
 11
75.89999399999998
 21
190.56633
 31
0.0
  0
LINE
  5
17A42
330
176D7
100
AcDbEntity
  8
1
  6
Continuous
100
AcDbLine
 10
73.0
 20
194.7590399999999
 30
0.0
 11
73.0
 21
193.15903
 31
0.0
  0
ARC
  5
17A43
330
176D7
100
AcDbEntity
  8
1
  6
Continuous
100
AcDbCircle
 10
74.10000599999998
 20
190.0663299999999
 30
0.0
 40
0.5
100
AcDbArc
 50
90.00001000000002
 51
180.0
  0
ARC
  5
17A44
330
176D7
100
AcDbEntity
  8
1
  6
Continuous
100
AcDbCircle
 10
76.60000599999998
 20
192.7590399999999
 30
0.0
 40
2.0
100
AcDbArc
 50
0.000003
 51
90.00001000000002
  0
ARC
  5
17A45
330
176D7
100
AcDbEntity
  8
1
  6
Continuous
100
AcDbCircle
 10
76.5
 20
192.6590299999998
 30
0.0
 40
0.5
100
AcDbArc
 50
0.000003
 51
90.00001000000002
  0
LINE
  5
17A46
330
176D7
100
AcDbEntity
  8
1
  6
Continuous
100
AcDbLine
 10
288.5285109999998
 20
182.1178899999999
 30
0.0
 11
286.64623
 21
182.1178899999999
 31
0.0
  0
ARC
  5
17A47
330
176D7
100
AcDbEntity
  8
1
  6
Continuous
100
AcDbCircle
 10
293.2462299999999
 20
165.121971
 30
0.0
 40
5.0
100
AcDbArc
 50
180.0000029999999
 51
232.31004
  0
ARC
  5
17A48
330
176D7
100
AcDbEntity
  8
1
  6
Continuous
100
AcDbCircle
 10
282.4754040000001
 20
153.2520179999998
 30
0.0
 40
10.0
100
AcDbArc
 50
26.81602
 51
52.31004
  0
LINE
  5
17A49
330
176D7
100
AcDbEntity
  8
1
  6
Continuous
100
AcDbLine
 10
291.4000009999999
 20
157.7632909999999
 30
0.0
 11
286.36939
 21
159.626274
 31
0.0
  0
LINE
  5
17A4A
330
176D7
100
AcDbEntity
  8
1
  6
Continuous
100
AcDbLine
 10
289.9999989999999
 20
165.9151379999999
 30
0.0
 11
286.64623
 21
165.9151379999999
 31
0.0
  0
LINE
  5
17A4B
330
176D7
100
AcDbEntity
  8
1
  6
Continuous
100
AcDbLine
 10
289.9999989999999
 20
173.2254259999999
 30
0.0
 11
286.64623
 21
173.2254259999999
 31
0.0
  0
LINE
  5
17A4C
330
176D7
100
AcDbEntity
  8
1
  6
Continuous
100
AcDbLine
 10
292.8589769999998
 20
153.7356799999998
 30
0.0
 11
287.7704059999999
 21
155.8228909999999
 31
0.0
  0
LINE
  5
17A4D
330
176D7
100
AcDbEntity
  8
1
  6
Continuous
100
AcDbLine
 10
288.2462299999999
 20
173.2254259999999
 30
0.0
 11
288.2462299999999
 21
182.1178899999999
 31
0.0
  0
LINE
  5
17A4E
330
176D7
100
AcDbEntity
  8
1
  6
Continuous
100
AcDbLine
 10
286.64623
 20
165.121971
 30
0.0
 11
286.64623
 21
182.1178899999999
 31
0.0
  0
LINE
  5
17A4F
330
176D7
100
AcDbEntity
  8
1
  6
Continuous
100
AcDbLine
 10
285.2462299999999
 20
162.340698
 30
0.0
 11
270.999997
 21
162.340698
 31
0.0
  0
LINE
  5
17A50
330
176D7
100
AcDbEntity
  8
1
  6
Continuous
100
AcDbLine
 10
285.64623
 20
163.9403839999999
 30
0.0
 11
270.999997
 21
163.9403839999999
 31
0.0
  0
LINE
  5
17A51
330
176D7
100
AcDbEntity
  8
1
  6
Continuous
100
AcDbLine
 10
270.999997
 20
162.340698
 30
0.0
 11
270.999997
 21
163.9403839999999
 31
0.0
  0
ARC
  5
17A52
330
176D7
100
AcDbEntity
  8
1
  6
Continuous
100
AcDbCircle
 10
286.71667
 20
160.5640339999999
 30
0.0
 40
1.0
100
AcDbArc
 50
157.018807
 51
249.6789099999999
  0
ARC
  5
17A53
330
176D7
100
AcDbEntity
  8
1
  6
Continuous
100
AcDbCircle
 10
291.64623
 20
165.121971
 30
0.0
 40
5.0
100
AcDbArc
 50
205.1407499999998
 51
232.31004
  0
ARC
  5
17A54
330
176D7
100
AcDbEntity
  8
1
  6
Continuous
100
AcDbCircle
 10
285.64623
 20
164.9403839999999
 30
0.0
 40
1.0
100
AcDbArc
 50
269.9999899999999
 51
0.0
  0
ARC
  5
17A55
330
176D7
100
AcDbEntity
  8
1
  6
Continuous
100
AcDbCircle
 10
285.2462299999999
 20
165.3406979999998
 30
0.0
 40
3.0
100
AcDbArc
 50
269.9999899999999
 51
0.0
  0
LINE
  5
17A56
330
176D7
100
AcDbEntity
  8
1
  6
Continuous
100
AcDbLine
 10
288.9399879999999
 20
158.6743089999999
 30
0.0
 11
287.7704059999999
 21
155.8228909999999
 31
0.0
  0
LINE
  5
17A57
330
176D7
100
AcDbEntity
  8
1
  6
Continuous
100
AcDbLine
 10
286.429745
 20
162.4996109999999
 30
0.0
 11
285.7914759999998
 21
160.9435269999998
 31
0.0
  0
LINE
  5
17A58
330
176D7
100
AcDbEntity
  8
1
  6
Continuous
100
AcDbLine
 10
288.2462299999999
 20
165.121971
 30
0.0
 11
288.2462299999999
 21
165.9151379999999
 31
0.0
  0
LINE
  5
17A59
330
176D7
100
AcDbEntity
  8
1
  6
Continuous
100
AcDbLine
 10
286.64623
 20
177.7403639999998
 30
0.0
 11
278.999997
 21
177.7403639999998
 31
0.0
  0
LINE
  5
17A5A
330
176D7
100
AcDbEntity
  8
1
  6
Continuous
100
AcDbLine
 10
286.64623
 20
179.3429189999999
 30
0.0
 11
278.999997
 21
179.3429189999999
 31
0.0
  0
LINE
  5
17A5B
330
176D7
100
AcDbEntity
  8
1
  6
Continuous
100
AcDbLine
 10
278.999997
 20
179.3429189999999
 30
0.0
 11
278.999997
 21
177.7403639999998
 31
0.0
  0
LINE
  5
17A5C
330
176D7
100
AcDbEntity
  8
1
  6
Continuous
100
AcDbLine
 10
292.999999
 20
165.394456
 30
0.0
 11
292.999999
 21
157.7632829999998
 31
0.0
  0
ARC
  5
17A5D
330
176D7
100
AcDbEntity
  8
1
  6
Continuous
100
AcDbCircle
 10
289.9999989999999
 20
166.9151379999999
 30
0.0
 40
1.0
100
AcDbArc
 50
269.9999899999999
 51
0.0
  0
ARC
  5
17A5E
330
176D7
100
AcDbEntity
  8
1
  6
Continuous
100
AcDbCircle
 10
284.0754039999998
 20
153.2520179999998
 30
0.0
 40
10.0
100
AcDbArc
 50
26.81602
 51
52.31004
  0
ARC
  5
17A5F
330
176D7
100
AcDbEntity
  8
1
  6
Continuous
100
AcDbCircle
 10
289.9999989999999
 20
172.2254259999999
 30
0.0
 40
1.0
100
AcDbArc
 50
0.0
 51
90.00000300000001
  0
LINE
  5
17A60
330
176D7
100
AcDbEntity
  8
1
  6
Continuous
100
AcDbLine
 10
294.496737
 20
157.728508
 30
0.0
 11
293.000003
 21
158.34243
 31
0.0
  0
LINE
  5
17A61
330
176D7
100
AcDbEntity
  8
1
  6
Continuous
100
AcDbLine
 10
291.5386569999999
 20
157.7632829999998
 30
0.0
 11
290.3146919999999
 21
154.779286
 31
0.0
  0
LINE
  5
17A62
330
176D7
100
AcDbEntity
  8
1
  6
Continuous
100
AcDbLine
 10
293.961071
 20
163.66908
 30
0.0
 11
293.000001
 21
161.3260119999999
 31
0.0
  0
LINE
  5
17A63
330
176D7
100
AcDbEntity
  8
1
  6
Continuous
100
AcDbLine
 10
292.999999
 20
157.7632829999998
 30
0.0
 11
291.3999989999999
 21
157.7632829999998
 31
0.0
  0
LINE
  5
17A64
330
176D7
100
AcDbEntity
  8
1
  6
Continuous
100
AcDbLine
 10
290.999999
 20
166.9151379999999
 30
0.0
 11
290.999999
 21
172.2254259999999
 31
0.0
  0
LINE
  5
17A65
330
176D7
100
AcDbEntity
  8
1
  6
Continuous
100
AcDbLine
 10
297.274243
 20
164.5
 30
0.0
 11
297.0
 21
163.831401
 31
0.0
  0
LINE
  5
17A66
330
176D7
100
AcDbEntity
  8
1
  6
Continuous
100
AcDbLine
 10
281.675898
 20
173.457208
 30
0.0
 11
285.604102
 21
173.457208
 31
0.0
  0
LINE
  5
17A67
330
176D7
100
AcDbEntity
  8
1
  6
Continuous
100
AcDbLine
 10
281.675898
 20
176.9213099999998
 30
0.0
 11
285.604102
 21
176.9213099999998
 31
0.0
  0
LINE
  5
17A68
330
176D7
100
AcDbEntity
  8
1
  6
Continuous
100
AcDbLine
 10
285.604102
 20
176.9213099999998
 30
0.0
 11
286.1399999999998
 21
175.993106
 31
0.0
  0
ARC
  5
17A69
330
176D7
100
AcDbEntity
  8
1
  6
Continuous
100
AcDbCircle
 10
283.073013
 20
175.1892589999999
 30
0.0
 40
3.066986999999998
100
AcDbArc
 50
325.6157529999999
 51
25.615753
  0
LINE
  5
17A6A
330
176D7
100
AcDbEntity
  8
1
  6
Continuous
100
AcDbLine
 10
286.64623
 20
177.5003889999999
 30
0.0
 11
286.1399999999998
 21
177.5003889999999
 31
0.0
  0
ARC
  5
17A6B
330
176D7
100
AcDbEntity
  8
1
  6
Continuous
100
AcDbCircle
 10
274.675898
 20
170.0068939999999
 30
0.0
 40
11.464102
100
AcDbArc
 50
342.4120459999999
 51
17.587954
  0
LINE
  5
17A6C
330
176D7
100
AcDbEntity
  8
1
  6
Continuous
100
AcDbLine
 10
176.5
 20
99.85959100000002
 30
0.0
 11
176.5
 21
97.85959100000004
 31
0.0
  0
LINE
  5
17A6D
330
176D7
100
AcDbEntity
  8
1
  6
Continuous
100
AcDbLine
 10
161.5
 20
99.85959100000002
 30
0.0
 11
161.5
 21
99.715105
 31
0.0
  0
LINE
  5
17A6E
330
176D7
100
AcDbEntity
  8
1
  6
Continuous
100
AcDbLine
 10
163.85023
 20
97.85959100000004
 30
0.0
 11
176.5
 21
97.85959100000004
 31
0.0
  0
LINE
  5
17A6F
330
176D7
100
AcDbEntity
  8
1
  6
Continuous
100
AcDbLine
 10
190.823258
 20
105.0
 30
0.0
 11
172.7639879999999
 21
105.0
 31
0.0
  0
ARC
  5
17A70
330
176D7
100
AcDbEntity
  8
1
  6
Continuous
100
AcDbCircle
 10
194.0
 20
73.0
 30
0.0
 40
26.0
100
AcDbArc
 50
69.97779
 51
74.05763100000001
  0
LINE
  5
17A71
330
176D7
100
AcDbEntity
  8
1
  6
Continuous
100
AcDbLine
 10
174.5
 20
91.80000300000001
 30
0.0
 11
174.5
 21
93.0
 31
0.0
  0
LINE
  5
17A72
330
176D7
100
AcDbEntity
  8
1
  6
Continuous
100
AcDbLine
 10
163.4999999999998
 20
93.0
 30
0.0
 11
163.4999999999998
 21
91.80000300000001
 31
0.0
  0
LINE
  5
17A73
330
176D7
100
AcDbEntity
  8
1
  6
Continuous
100
AcDbLine
 10
174.5
 20
95.077946
 30
0.0
 11
174.5
 21
97.85959100000004
 31
0.0
  0
ARC
  5
17A74
330
176D7
100
AcDbEntity
  8
1
  6
Continuous
100
AcDbCircle
 10
169.0
 20
170.0
 30
0.0
 40
25.0
100
AcDbArc
 50
116.879895
 51
157.8980399999998
  0
ARC
  5
17A75
330
176D7
100
AcDbEntity
  8
1
  6
Continuous
100
AcDbCircle
 10
169.0
 20
170.0
 30
0.0
 40
25.0
100
AcDbArc
 50
218.103577
 51
342.647843
  0
LINE
  5
17A76
330
176D7
100
AcDbEntity
  8
1
  6
Continuous
100
AcDbLine
 10
165.1674459999999
 20
163.553177
 30
0.0
 11
165.1715219999998
 21
163.397518
 31
0.0
  0
LINE
  5
17A77
330
176D7
100
AcDbEntity
  8
1
  6
Continuous
100
AcDbLine
 10
173.1647029999998
 20
163.7625929999998
 30
0.0
 11
173.168779
 21
163.6069339999998
 31
0.0
  0
LINE
  5
17A78
330
176D7
100
AcDbEntity
  8
5
  6
PHANTOM
100
AcDbLine
 10
167.926274
 20
162.577257
 30
0.0
 11
167.9896079999998
 21
162.435007
 31
0.0
  0
LINE
  5
17A79
330
176D7
100
AcDbEntity
  8
5
  6
PHANTOM
100
AcDbLine
 10
175.2346359999999
 20
165.83115
 30
0.0
 11
175.29797
 21
165.6888999999999
 31
0.0
  0
LINE
  5
17A7A
330
176D7
100
AcDbEntity
  8
1
  6
Continuous
100
AcDbLine
 10
75.29999999999998
 20
194.7590399999999
 30
0.0
 11
75.29999999999998
 21
200.7
 31
0.0
  0
LINE
  5
17A7B
330
176D7
100
AcDbEntity
  8
1
  6
Continuous
100
AcDbLine
 10
75.29999999999998
 20
190.56633
 30
0.0
 11
75.29999999999998
 21
193.15903
 31
0.0
  0
LINE
  5
17A7C
330
176D7
100
AcDbEntity
  8
1
  6
Continuous
100
AcDbLine
 10
75.29999999999998
 20
167.027082
 30
0.0
 11
75.29999999999998
 21
176.52684
 31
0.0
  0
LINE
  5
17A7D
330
176D7
100
AcDbEntity
  8
1
  6
Continuous
100
AcDbLine
 10
73.0
 20
165.0073769999998
 30
0.0
 11
73.0
 21
199.9
 31
0.0
  0
LINE
  5
17A7E
330
176D7
100
AcDbEntity
  8
1
  6
Continuous
100
AcDbLine
 10
81.85999999999998
 20
177.5
 30
0.0
 11
81.85999999999998
 21
169.252088
 31
0.0
  0
LINE
  5
17A7F
330
176D7
100
AcDbEntity
  8
1
  6
Continuous
100
AcDbLine
 10
81.85999999999998
 20
175.5
 30
0.0
 11
79.71794099999998
 21
175.5
 31
0.0
  0
LINE
  5
17A80
330
176D7
100
AcDbEntity
  8
1
  6
Continuous
100
AcDbLine
 10
295.4284509999999
 20
160.0
 30
0.0
 11
292.8589769999998
 21
153.7356799999998
 31
0.0
  0
ARC
  5
17A81
330
176D7
100
AcDbEntity
  8
1
  6
Continuous
100
AcDbCircle
 10
327.83549
 20
183.6682279999999
 30
0.0
 40
39.33754099999998
100
AcDbArc
 50
200.545244
 51
210.8489720000001
  0
LINE
  5
17A82
330
176D7
100
AcDbEntity
  8
1
  6
Continuous
100
AcDbLine
 10
161.5
 20
258.1404089999999
 30
0.0
 11
161.5
 21
258.284895
 31
0.0
  0
LINE
  5
17A83
330
176D7
100
AcDbEntity
  8
1
  6
Continuous
100
AcDbLine
 10
163.0
 20
253.1404089999998
 30
0.0
 11
163.0
 21
256.394449
 31
0.0
  0
LINE
  5
17A84
330
176D7
100
AcDbEntity
  8
1
  6
Continuous
100
AcDbLine
 10
169.0
 20
257.6045099999999
 30
0.0
 11
169.0
 21
256.7499999999999
 31
0.0
  0
ARC
  5
17A85
330
176D7
100
AcDbEntity
  8
1
  6
Continuous
100
AcDbCircle
 10
166.0
 20
249.4753450000001
 30
0.0
 40
8.665063999999999
100
AcDbArc
 50
69.743842
 51
87.75631
  0
ARC
  5
17A86
330
176D7
100
AcDbEntity
  8
1
  6
Continuous
100
AcDbCircle
 10
166.0
 20
261.8054719999999
 30
0.0
 40
8.665063999999999
100
AcDbArc
 50
249.7438419999999
 51
278.149489
  0
ARC
  5
17A87
330
176D7
100
AcDbEntity
  8
1
  6
Continuous
100
AcDbCircle
 10
172.0
 20
249.4753450000001
 30
0.0
 40
8.665063999999999
100
AcDbArc
 50
92.24369000000001
 51
110.256158
  0
LINE
  5
17A88
330
176D7
100
AcDbEntity
  8
1
  6
Continuous
100
AcDbLine
 10
163.0
 20
253.1404089999998
 30
0.0
 11
167.605007
 21
253.1404089999998
 31
0.0
  0
LINE
  5
17A89
330
176D7
100
AcDbEntity
  8
1
  6
Continuous
100
AcDbLine
 10
171.8043959999999
 20
252.0404089999999
 30
0.0
 11
172.7639879999999
 21
253.0
 31
0.0
  0
LINE
  5
17A8A
330
176D7
100
AcDbEntity
  8
1
  6
Continuous
100
AcDbLine
 10
166.204396
 20
252.0404089999999
 30
0.0
 11
165.104396
 21
253.1404089999998
 31
0.0
  0
LINE
  5
17A8B
330
176D7
100
AcDbEntity
  8
2
  6
Continuous
100
AcDbLine
 10
172.3235
 20
252.559512
 30
0.0
 11
172.3235
 21
253.0
 31
0.0
  0
LINE
  5
17A8C
330
176D7
100
AcDbEntity
  8
2
  6
Continuous
100
AcDbLine
 10
165.6765
 20
252.568305
 30
0.0
 11
165.6765
 21
253.1404089999998
 31
0.0
  0
LINE
  5
17A8D
330
176D7
100
AcDbEntity
  8
1
  6
Continuous
100
AcDbLine
 10
171.8043959999999
 20
252.0404089999999
 30
0.0
 11
166.204396
 21
252.0404089999999
 31
0.0
  0
LINE
  5
17A8E
330
176D7
100
AcDbEntity
  8
1
  6
Continuous
100
AcDbLine
 10
161.5
 20
258.1404089999999
 30
0.0
 11
162.251525
 21
258.1404089999999
 31
0.0
  0
LINE
  5
17A8F
330
176D7
100
AcDbEntity
  8
1
  6
Continuous
100
AcDbLine
 10
165.753034
 20
260.1404089999999
 30
0.0
 11
172.2469659999999
 21
260.1404089999999
 31
0.0
  0
LINE
  5
17A90
330
176D7
100
AcDbEntity
  8
1
  6
Continuous
100
AcDbLine
 10
171.557268
 20
262.005712
 30
0.0
 11
169.680824
 21
260.3835869999999
 31
0.0
  0
LINE
  5
17A91
330
176D7
100
AcDbEntity
  8
1
  6
Continuous
100
AcDbLine
 10
168.343208
 20
260.410275
 30
0.0
 11
166.528329
 21
262.110294
 31
0.0
  0
LINE
  5
17A92
330
176D7
100
AcDbEntity
  8
1
  6
Continuous
100
AcDbLine
 10
171.392136
 20
307.799958
 30
0.0
 11
166.6078639999998
 21
307.799958
 31
0.0
  0
LINE
  5
17A93
330
176D7
100
AcDbEntity
  8
1
  6
Continuous
100
AcDbLine
 10
166.334588
 20
258.1404089999999
 30
0.0
 11
171.665412
 21
258.1404089999999
 31
0.0
  0
ARC
  5
17A94
330
176D7
100
AcDbEntity
  8
1
  6
Continuous
100
AcDbCircle
 10
436.491416
 20
169.555725
 30
0.0
 40
12.562165
100
AcDbArc
 50
101.482448
 51
161.8908989999999
  0
LINE
  5
17A95
330
176D7
100
AcDbEntity
  8
5
  6
PHANTOM
100
AcDbLine
 10
475.9760729999999
 20
186.2760149999998
 30
0.0
 11
476.608328
 21
188.344028
 31
0.0
  0
ARC
  5
17A96
330
176D7
100
AcDbEntity
  8
1
  6
Continuous
100
AcDbCircle
 10
482.2579099999998
 20
166.728599
 30
0.0
 40
8.5
100
AcDbArc
 50
38.57173
 51
94.09630099999999
  0
LINE
  5
17A97
330
176D7
100
AcDbEntity
  8
1
  6
Continuous
100
AcDbLine
 10
488.989817
 20
179.580412
 30
0.0
 11
488.913095
 21
172.359952
 31
0.0
  0
LINE
  5
17A98
330
176D7
100
AcDbEntity
  8
1
  6
Continuous
100
AcDbLine
 10
433.137758
 20
162.543903
 30
0.0
 11
423.829864
 21
162.3604079999998
 31
0.0
  0
ARC
  5
17A99
330
176D7
100
AcDbEntity
  8
1
  6
Continuous
100
AcDbCircle
 10
422.742591
 20
351.281287
 30
0.0
 40
196.7422599999999
100
AcDbArc
 50
287.2583549999998
 51
287.7292
  0
ARC
  5
17A9A
330
176D7
100
AcDbEntity
  8
5
  6
PHANTOM
100
AcDbCircle
 10
494.7236259999998
 20
350.5918129999998
 30
0.0
 40
196.7422599999999
100
AcDbArc
 50
264.7583549999998
 51
265.2292
  0
ARC
  5
17A9B
330
176D7
100
AcDbEntity
  8
1
  6
Continuous
100
AcDbCircle
 10
478.0760749999998
 20
155.658251
 30
0.0
 40
1.5
100
AcDbArc
 50
250.0
 51
340.0
  0
ARC
  5
17A9C
330
176D7
100
AcDbEntity
  8
5
  6
PHANTOM
100
AcDbCircle
 10
479.109109
 20
163.5000009999999
 30
0.0
 40
9.0
100
AcDbArc
 50
265.2292
 51
336.8912399999999
  0
ARC
  5
17A9D
330
176D7
100
AcDbEntity
  8
5
  6
PHANTOM
100
AcDbCircle
 10
479.083355
 20
157.311836
 30
0.0
 40
8.5
100
AcDbArc
 50
16.07172999999999
 51
71.596301
  0
LINE
  5
17A9E
330
176D7
100
AcDbEntity
  8
1
  6
Continuous
100
AcDbLine
 10
482.667448
 20
163.887238
 30
0.0
 11
479.485613
 21
155.1452199999999
 31
0.0
  0
LINE
  5
17A9F
330
176D7
100
AcDbEntity
  8
5
  6
PHANTOM
100
AcDbLine
 10
490.2210019999998
 20
166.6091739999998
 30
0.0
 11
481.9993969999998
 21
169.8263239999998
 31
0.0
  0
LINE
  5
17AA0
330
176D7
100
AcDbEntity
  8
5
  6
PHANTOM
100
AcDbLine
 10
490.2210019999998
 20
166.6091729999999
 30
0.0
 11
487.38697
 21
159.967699
 31
0.0
  0
ARC
  5
17AA1
330
176D7
100
AcDbEntity
  8
1
  6
Continuous
100
AcDbCircle
 10
479.913595
 20
172.455574
 30
0.0
 40
9.0
100
AcDbArc
 50
287.7292
 51
359.3912399999999
  0
LINE
  5
17AA2
330
176D7
100
AcDbEntity
  8
1
  6
Continuous
100
AcDbLine
 10
481.45474
 20
175.1928499999999
 30
0.0
 11
481.650732
 21
175.206886
 31
0.0
  0
ARC
  5
17AA3
330
176D7
100
AcDbEntity
  8
1
  6
Continuous
100
AcDbCircle
 10
478.0760749999998
 20
157.74546
 30
0.0
 40
1.5
100
AcDbArc
 50
262.6521829999999
 51
340.0
  0
LINE
  5
17AA4
330
176D7
100
AcDbEntity
  8
1
  6
Continuous
100
AcDbLine
 10
477.5630439999998
 20
154.248712
 30
0.0
 11
476.672412
 21
154.572875
 31
0.0
  0
LINE
  5
17AA5
330
176D7
100
AcDbEntity
  8
5
  6
PHANTOM
100
AcDbLine
 10
481.5804509999998
 20
165.4391439999999
 30
0.0
 11
481.7668959999998
 21
165.377108
 31
0.0
  0
LINE
  5
17AA6
330
176D7
100
AcDbEntity
  8
1
  6
Continuous
100
AcDbLine
 10
481.8085919999998
 20
163.614759
 30
0.0
 11
479.485613
 21
157.232429
 31
0.0
  0
LINE
  5
17AA7
330
176D7
100
AcDbEntity
  8
1
  6
Continuous
100
AcDbLine
 10
424.551502
 20
173.4603859999998
 30
0.0
 11
421.3538889999998
 21
173.225423
 31
0.0
  0
LINE
  5
17AA8
330
176D7
100
AcDbEntity
  8
1
  6
Continuous
100
AcDbLine
 10
423.7589039999998
 20
165.95971
 30
0.0
 11
423.829864
 21
162.3604079999998
 31
0.0
  0
LINE
  5
17AA9
330
176D7
100
AcDbEntity
  8
1
  6
Continuous
100
AcDbLine
 10
423.7589029999998
 20
165.9597109999999
 30
0.0
 11
421.498009
 21
165.9151389999999
 31
0.0
  0
LINE
  5
17AAA
330
176D7
100
AcDbEntity
  8
1
  6
Continuous
100
AcDbLine
 10
421.498007
 20
165.9151409999998
 30
0.0
 11
421.3538879999998
 21
173.2254199999999
 31
0.0
  0
LINE
  5
17AAB
330
176D7
100
AcDbEntity
  8
5
  6
PHANTOM
100
AcDbLine
 10
432.100838
 20
172.2431489999999
 30
0.0
 11
423.431245
 21
175.6355989999999
 31
0.0
  0
ARC
  5
17AAC
330
176D7
100
AcDbEntity
  8
5
  6
PHANTOM
100
AcDbCircle
 10
437.882523
 20
177.437839
 30
0.0
 40
12.562165
100
AcDbArc
 50
130.6141519999999
 51
139.3908989999999
  0
LINE
  5
17AAD
330
176D7
100
AcDbEntity
  8
1
  6
Continuous
100
AcDbLine
 10
461.897957
 20
194.7590379999999
 30
0.0
 11
468.0957809999998
 21
194.451455
 31
0.0
  0
LINE
  5
17AAE
330
176D7
100
AcDbEntity
  8
1
  6
Continuous
100
AcDbLine
 10
488.989817
 20
179.580413
 30
0.0
 11
480.1628939999998
 21
179.4063989999999
 31
0.0
  0
LINE
  5
17AAF
330
176D7
100
AcDbEntity
  8
5
  6
PHANTOM
100
AcDbLine
 10
470.999996
 20
191.000001
 30
0.0
 11
476.6083309999998
 21
188.344027
 31
0.0
  0
LINE
  5
17AB0
330
176D7
100
AcDbEntity
  8
5
  6
PHANTOM
100
AcDbLine
 10
471.0000009999998
 20
190.999999
 30
0.0
 11
470.8840979999997
 21
190.790186
 31
0.0
  0
ARC
  5
17AB1
330
176D7
100
AcDbEntity
  8
1
  6
Continuous
100
AcDbCircle
 10
461.7193829999997
 20
171.7400059999999
 30
0.0
 40
20.0
100
AcDbArc
 50
22.54119999999999
 51
27.233219
  0
LINE
  5
17AB2
330
176D7
100
AcDbEntity
  8
1
  6
Continuous
100
AcDbLine
 10
468.303044
 20
192.2989059999999
 30
0.0
 11
468.0957769999998
 21
194.451455
 31
0.0
  0
LINE
  5
17AB3
330
176D7
100
AcDbEntity
  8
1
  6
Continuous
100
AcDbLine
 10
461.897963
 20
194.7590379999999
 30
0.0
 11
461.871174
 21
194.520841
 31
0.0
  0
LINE
  5
17AB4
330
176D7
100
AcDbEntity
  8
5
  6
PHANTOM
100
AcDbLine
 10
428.345729
 20
185.614483
 30
0.0
 11
425.301604
 21
186.621078
 31
0.0
  0
LINE
  5
17AB5
330
176D7
100
AcDbEntity
  8
5
  6
PHANTOM
100
AcDbLine
 10
424.743079
 20
178.988077
 30
0.0
 11
422.6372289999998
 21
179.8121049999998
 31
0.0
  0
LINE
  5
17AB6
330
176D7
100
AcDbEntity
  8
5
  6
PHANTOM
100
AcDbLine
 10
424.74308
 20
178.988076
 30
0.0
 11
423.431245
 21
175.6355989999999
 31
0.0
  0
LINE
  5
17AB7
330
176D7
100
AcDbEntity
  8
5
  6
PHANTOM
100
AcDbLine
 10
422.6372279999997
 20
179.812107
 30
0.0
 11
425.3016019999998
 21
186.6210759999999
 31
0.0
  0
ARC
  5
17AB8
330
176D7
100
AcDbEntity
  8
1
  6
Continuous
100
AcDbCircle
 10
78.560625
 20
174.1176639999999
 30
0.0
 40
4.082555
100
AcDbArc
 50
36.083047
 51
62.54335699999999
  0
ARC
  5
17AB9
330
176D7
100
AcDbEntity
  8
1
  6
Continuous
100
AcDbCircle
 10
85.07554399999998
 20
167.0276279999999
 30
0.0
 40
10.024221
100
AcDbArc
 50
108.709951
 51
130.2398839999999
  0
ENDSEC
  0
SECTION
  2
OBJECTS
  0
DICTIONARY
  5
176C5
330
0
100
AcDbDictionary
281
     1
  3
ACAD_CIP_PREVIOUS_PRODUCT_INFO
350
17B1B
  3
ACAD_COLOR
350
17AFD
  3
ACAD_DETAILVIEWSTYLE
350
17B16
  3
ACAD_GROUP
350
176C6
  3
ACAD_LAYOUT
350
176D2
  3
ACAD_MATERIAL
350
17ACB
  3
ACAD_MLEADERSTYLE
350
17B12
  3
ACAD_MLINESTYLE
350
176CF
  3
ACAD_PLOTSETTINGS
350
176D1
  3
ACAD_PLOTSTYLENAME
350
17AC9
  3
ACAD_SCALELIST
350
17B00
  3
ACAD_SECTIONVIEWSTYLE
350
17B14
  3
ACAD_TABLESTYLE
350
17AFE
  3
ACAD_VISUALSTYLE
350
17AE4
  3
ACDB_RECOMPOSE_DATA
350
17B39
  3
AcDbVariableDictionary
350
17B2C
  3
DWGPROPS
350
17B3A
  0
DICTIONARY
  5
17B1C
330
176C9
100
AcDbDictionary
280
     1
281
     1
  3
ADSK_XREC_LAYER_RECONCILED
360
17B1D
  0
DICTIONARY
  5
17B1E
330
176DF
100
AcDbDictionary
280
     1
281
     1
  3
ADSK_XREC_LAYER_RECONCILED
360
17B1F
  0
DICTIONARY
  5
17B20
330
176E0
100
AcDbDictionary
280
     1
281
     1
  3
ADSK_XREC_LAYER_RECONCILED
360
17B21
  0
DICTIONARY
  5
17B22
330
176E1
100
AcDbDictionary
280
     1
281
     1
  3
ADSK_XREC_LAYER_RECONCILED
360
17B23
  0
DICTIONARY
  5
17B24
330
176E2
100
AcDbDictionary
280
     1
281
     1
  3
ADSK_XREC_LAYER_RECONCILED
360
17B25
  0
DICTIONARY
  5
17B26
330
176E3
100
AcDbDictionary
280
     1
281
     1
  3
ADSK_XREC_LAYER_RECONCILED
360
17B27
  0
DICTIONARY
  5
17B28
330
176E4
100
AcDbDictionary
280
     1
281
     1
  3
ADSK_XREC_LAYER_RECONCILED
360
17B29
  0
DICTIONARY
  5
17B2A
330
176E5
100
AcDbDictionary
280
     1
281
     1
  3
ADSK_XREC_LAYER_RECONCILED
360
17B2B
  0
DICTIONARY
  5
17AC4
330
176D7
100
AcDbDictionary
281
     1
  3
ACAD_LAYOUTSELFREF
350
17AC5
  0
DICTIONARY
  5
17AC2
330
176D3
100
AcDbDictionary
281
     1
  3
ACAD_LAYOUTSELFREF
350
17AC3
  0
XRECORD
  5
17B1B
102
{ACAD_REACTORS
330
176C5
102
}
330
176C5
100
AcDbXrecord
280
     1
300
ACDLT
300
2014
300
ACDLT_F_S
  0
DICTIONARY
  5
17AFD
102
{ACAD_REACTORS
330
176C5
102
}
330
176C5
100
AcDbDictionary
281
     1
  0
DICTIONARY
  5
17B16
102
{ACAD_REACTORS
330
176C5
102
}
330
176C5
100
AcDbDictionary
281
     1
  3
Imperial24
350
17B17
  0
DICTIONARY
  5
176C6
102
{ACAD_REACTORS
330
176C5
102
}
330
176C5
100
AcDbDictionary
281
     1
  0
DICTIONARY
  5
176D2
102
{ACAD_REACTORS
330
176C5
102
}
330
176C5
100
AcDbDictionary
281
     1
  3
Model
350
17B18
  3
レイアウト1
350
17B19
  0
DICTIONARY
  5
17ACB
102
{ACAD_REACTORS
330
176C5
102
}
330
176C5
100
AcDbDictionary
281
     1
  3
ByBlock
350
17AD4
  3
ByLayer
350
17ACC
  3
Global
350
17ADC
  0
DICTIONARY
  5
17B12
102
{ACAD_REACTORS
330
176C5
102
}
330
176C5
100
AcDbDictionary
281
     1
  3
Standard
350
17B13
  0
DICTIONARY
  5
176CF
102
{ACAD_REACTORS
330
176C5
102
}
330
176C5
100
AcDbDictionary
281
     1
  3
STANDARD
350
176D0
  0
DICTIONARY
  5
176D1
102
{ACAD_REACTORS
330
176C5
102
}
330
176C5
100
AcDbDictionary
281
     1
  0
ACDBDICTIONARYWDFLT
  5
17AC9
102
{ACAD_REACTORS
330
176C5
102
}
330
176C5
100
AcDbDictionary
281
     1
  3
Normal
350
17ACA
100
AcDbDictionaryWithDefault
340
17ACA
  0
DICTIONARY
  5
17B00
102
{ACAD_REACTORS
330
176C5
102
}
330
176C5
100
AcDbDictionary
281
     1
  3
A0
350
17B01
  3
A1
350
17B02
  3
A2
350
17B03
  3
A3
350
17B04
  3
A4
350
17B05
  3
A5
350
17B06
  3
A6
350
17B07
  3
A7
350
17B08
  3
A8
350
17B09
  3
A9
350
17B0A
  3
B0
350
17B0B
  3
B1
350
17B0C
  3
B2
350
17B0D
  3
B3
350
17B0E
  3
B4
350
17B0F
  3
B5
350
17B10
  3
B6
350
17B11
  0
DICTIONARY
  5
17B14
102
{ACAD_REACTORS
330
176C5
102
}
330
176C5
100
AcDbDictionary
281
     1
  3
Imperial24
350
17B15
  0
DICTIONARY
  5
17AFE
102
{ACAD_REACTORS
330
176C5
102
}
330
176C5
100
AcDbDictionary
281
     1
  3
Standard
350
17AFF
  0
DICTIONARY
  5
17AE4
102
{ACAD_REACTORS
330
176C5
102
}
330
176C5
100
AcDbDictionary
281
     1
  3
2dWireframe
350
17AEA
  3
Basic
350
17AE9
  3
Brighten
350
17AF0
  3
ColorChange
350
17AF4
  3
Conceptual
350
17AED
  3
Dim
350
17AEF
  3
EdgeColorOff
350
17AFC
  3
Facepattern
350
17AF3
  3
Flat
350
17AE5
  3
FlatWithEdges
350
17AE6
  3
Gouraud
350
17AE7
  3
GouraudWithEdges
350
17AE8
  3
Hidden
350
17AEC
  3
JitterOff
350
17AFA
  3
Linepattern
350
17AF2
  3
OverhangOff
350
17AFB
  3
Realistic
350
17AEE
  3
Shaded
350
17AF9
  3
Shaded with edges
350
17AF8
  3
Shades of Gray
350
17AF5
  3
Sketchy
350
17AF6
  3
Thicken
350
17AF1
  3
Wireframe
350
17AEB
  3
X-Ray
350
17AF7
  0
XRECORD
  5
17B39
102
{ACAD_REACTORS
330
176C5
102
}
330
176C5
100
AcDbXrecord
280
     1
 90
        1
330
17AFF
  0
DICTIONARY
  5
17B2C
102
{ACAD_REACTORS
330
176C5
102
}
330
176C5
100
AcDbDictionary
281
     1
  3
CANNOSCALE
350
17B31
  3
CMLEADERSTYLE
350
17B2E
  3
CTABLESTYLE
350
17B2D
  3
CVIEWDETAILSTYLE
350
17B2F
  3
CVIEWSECTIONSTYLE
350
17B30
  3
DIMASSOC
350
17B34
  3
INDEXCTL
350
17B33
  3
SORTENTS
350
17B32
  3
XCLIPFRAME
350
17B35
  0
XRECORD
  5
17B3A
102
{ACAD_REACTORS
330
176C5
102
}
330
176C5
100
AcDbXrecord
280
     1
  1
DWGPROPS COOKIE
  2

  3

  4

  6

  7

  8
Yoshitsune
  9

300
=
301
=
302
=
303
=
304
=
305
=
306
=
307
=
308
=
309
=
 40
0.0000119560185185
 41
2451302.480196875
 42
2457192.686697512
  1

 90
        0
  0
XRECORD
  5
17B1D
102
{ACAD_REACTORS
330
17B1C
102
}
330
17B1C
100
AcDbXrecord
280
     1
290
     1
  0
XRECORD
  5
17B1F
102
{ACAD_REACTORS
330
17B1E
102
}
330
17B1E
100
AcDbXrecord
280
     1
290
     1
  0
XRECORD
  5
17B21
102
{ACAD_REACTORS
330
17B20
102
}
330
17B20
100
AcDbXrecord
280
     1
290
     1
  0
XRECORD
  5
17B23
102
{ACAD_REACTORS
330
17B22
102
}
330
17B22
100
AcDbXrecord
280
     1
290
     1
  0
XRECORD
  5
17B25
102
{ACAD_REACTORS
330
17B24
102
}
330
17B24
100
AcDbXrecord
280
     1
290
     1
  0
XRECORD
  5
17B27
102
{ACAD_REACTORS
330
17B26
102
}
330
17B26
100
AcDbXrecord
280
     1
290
     1
  0
XRECORD
  5
17B29
102
{ACAD_REACTORS
330
17B28
102
}
330
17B28
100
AcDbXrecord
280
     1
290
     1
  0
XRECORD
  5
17B2B
102
{ACAD_REACTORS
330
17B2A
102
}
330
17B2A
100
AcDbXrecord
280
     1
290
     1
  0
XRECORD
  5
17AC5
102
{ACAD_REACTORS
330
17AC4
102
}
330
17AC4
100
AcDbXrecord
280
     1
340
176D7
  0
XRECORD
  5
17AC3
102
{ACAD_REACTORS
330
17AC2
102
}
330
17AC2
100
AcDbXrecord
280
     1
340
176D3
  0
ACDBDETAILVIEWSTYLE
  5
17B17
102
{ACAD_XDICTIONARY
360
17B72
102
}
102
{ACAD_REACTORS
330
17B16
102
}
330
17B16
100
AcDbModelDocViewStyle
 70
     0
  3
Imperial24
290
     0
100
AcDbDetailViewStyle
 70
     0
 71
     0
 90
        3
 71
     1
340
176CA
 40
0.24
340
0
 40
0.24
300

 40
0.36
280
     3
 71
     2
340
176CE
 90
       25
 71
     3
340
176CA
 40
0.24
 90
        1
 40
0.75
 90
        1
300
%<\AcVar ViewType \f "%tc1">% %<\AcVar ViewDetailId>%\PSCALE %<\AcVar ViewScale \f "%sn">%
 71
     4
340
176CE
 90
       25
340
176CE
 90
       25
280
     0
  0
LAYOUT
  5
17B18
102
{ACAD_XDICTIONARY
360
17B74
102
}
102
{ACAD_REACTORS
330
176D2
102
}
330
176D2
100
AcDbPlotSettings
  1

  2
Canon LBP9100C
  4

  6

 40
0.0
 41
0.0
 42
0.0
 43
0.0
 44
0.0
 45
0.0
 46
0.0
 47
0.0
 48
0.0
 49
0.0
140
0.0
141
0.0
142
1.0
143
1.0
 70
  1712
 72
     0
 73
     0
 74
     0
  7

 75
     0
147
1.0
148
0.0
149
0.0
100
AcDbLayout
  1
Model
 70
     1
 71
     0
 10
0.0
 20
0.0
 11
12.0
 21
9.0
 12
0.0
 22
0.0
 32
0.0
 14
0.0
 24
0.0
 34
0.0
 15
0.0
 25
0.0
 35
0.0
146
0.0
 13
0.0
 23
0.0
 33
0.0
 16
1.0
 26
0.0
 36
0.0
 17
0.0
 27
1.0
 37
0.0
 76
     0
330
176D7
331
17AC1
  0
LAYOUT
  5
17B19
102
{ACAD_XDICTIONARY
360
17B76
102
}
102
{ACAD_REACTORS
330
176D2
102
}
330
176D2
100
AcDbPlotSettings
  1

  2
Canon LBP9100C
  4

  6

 40
0.0
 41
0.0
 42
0.0
 43
0.0
 44
0.0
 45
0.0
 46
0.0
 47
0.0
 48
0.0
 49
0.0
140
0.0
141
0.0
142
1.0
143
1.0
 70
   688
 72
     0
 73
     0
 74
     5
  7

 75
    16
147
1.0
148
0.0
149
0.0
100
AcDbLayout
  1
レイアウト1
 70
     0
 71
     1
 10
0.0
 20
0.0
 11
420.0
 21
297.0
 12
0.0
 22
0.0
 32
0.0
 14
1.000000000000000E+20
 24
1.000000000000000E+20
 34
1.000000000000000E+20
 15
-1.000000000000000E+20
 25
-1.000000000000000E+20
 35
-1.000000000000000E+20
146
0.0
 13
0.0
 23
0.0
 33
0.0
 16
1.0
 26
0.0
 36
0.0
 17
0.0
 27
1.0
 37
0.0
 76
     0
330
176D3
  0
MATERIAL
  5
17AD4
102
{ACAD_XDICTIONARY
360
17AD5
102
}
102
{ACAD_REACTORS
330
17ACB
102
}
330
17ACB
100
AcDbMaterial
  1
ByBlock
 72
     0
 43
0.0208333333333333
 43
0.0
 43
0.0
 43
0.0
 43
0.0
 43
0.0208333333333333
 43
0.0
 43
0.0
 43
0.0
 43
0.0
 43
1.0
 43
0.0
 43
0.0
 43
0.0
 43
0.0
 43
1.0
 77
     0
 47
0.0208333333333333
 47
0.0
 47
0.0
 47
0.0
 47
0.0
 47
0.0208333333333333
 47
0.0
 47
0.0
 47
0.0
 47
0.0
 47
1.0
 47
0.0
 47
0.0
 47
0.0
 47
0.0
 47
1.0
171
     0
 49
0.0208333333333333
 49
0.0
 49
0.0
 49
0.0
 49
0.0
 49
0.0208333333333333
 49
0.0
 49
0.0
 49
0.0
 49
0.0
 49
1.0
 49
0.0
 49
0.0
 49
0.0
 49
0.0
 49
1.0
175
     0
142
0.0208333333333333
142
0.0
142
0.0
142
0.0
142
0.0
142
0.0208333333333333
142
0.0
142
0.0
142
0.0
142
0.0
142
1.0
142
0.0
142
0.0
142
0.0
142
0.0
142
1.0
179
     0
144
0.0208333333333333
144
0.0
144
0.0
144
0.0
144
0.0
144
0.0208333333333333
144
0.0
144
0.0
144
0.0
144
0.0
144
1.0
144
0.0
144
0.0
144
0.0
144
0.0
144
1.0
147
0.0208333333333333
147
0.0
147
0.0
147
0.0
147
0.0
147
0.0208333333333333
147
0.0
147
0.0
147
0.0
147
0.0
147
1.0
147
0.0
147
0.0
147
0.0
147
0.0
147
1.0
  0
MATERIAL
  5
17ACC
102
{ACAD_XDICTIONARY
360
17ACD
102
}
102
{ACAD_REACTORS
330
17ACB
102
}
330
17ACB
100
AcDbMaterial
  1
ByLayer
 72
     0
 43
0.0208333333333333
 43
0.0
 43
0.0
 43
0.0
 43
0.0
 43
0.0208333333333333
 43
0.0
 43
0.0
 43
0.0
 43
0.0
 43
1.0
 43
0.0
 43
0.0
 43
0.0
 43
0.0
 43
1.0
 77
     0
 47
0.0208333333333333
 47
0.0
 47
0.0
 47
0.0
 47
0.0
 47
0.0208333333333333
 47
0.0
 47
0.0
 47
0.0
 47
0.0
 47
1.0
 47
0.0
 47
0.0
 47
0.0
 47
0.0
 47
1.0
171
     0
 49
0.0208333333333333
 49
0.0
 49
0.0
 49
0.0
 49
0.0
 49
0.0208333333333333
 49
0.0
 49
0.0
 49
0.0
 49
0.0
 49
1.0
 49
0.0
 49
0.0
 49
0.0
 49
0.0
 49
1.0
175
     0
142
0.0208333333333333
142
0.0
142
0.0
142
0.0
142
0.0
142
0.0208333333333333
142
0.0
142
0.0
142
0.0
142
0.0
142
1.0
142
0.0
142
0.0
142
0.0
142
0.0
142
1.0
179
     0
144
0.0208333333333333
144
0.0
144
0.0
144
0.0
144
0.0
144
0.0208333333333333
144
0.0
144
0.0
144
0.0
144
0.0
144
1.0
144
0.0
144
0.0
144
0.0
144
0.0
144
1.0
147
0.0208333333333333
147
0.0
147
0.0
147
0.0
147
0.0
147
0.0208333333333333
147
0.0
147
0.0
147
0.0
147
0.0
147
1.0
147
0.0
147
0.0
147
0.0
147
0.0
147
1.0
  0
MATERIAL
  5
17ADC
102
{ACAD_XDICTIONARY
360
17ADD
102
}
102
{ACAD_REACTORS
330
17ACB
102
}
330
17ACB
100
AcDbMaterial
  1
Global
 72
     0
 43
0.0208333333333333
 43
0.0
 43
0.0
 43
0.0
 43
0.0
 43
0.0208333333333333
 43
0.0
 43
0.0
 43
0.0
 43
0.0
 43
1.0
 43
0.0
 43
0.0
 43
0.0
 43
0.0
 43
1.0
 77
     0
 47
0.0208333333333333
 47
0.0
 47
0.0
 47
0.0
 47
0.0
 47
0.0208333333333333
 47
0.0
 47
0.0
 47
0.0
 47
0.0
 47
1.0
 47
0.0
 47
0.0
 47
0.0
 47
0.0
 47
1.0
171
     0
 49
0.0208333333333333
 49
0.0
 49
0.0
 49
0.0
 49
0.0
 49
0.0208333333333333
 49
0.0
 49
0.0
 49
0.0
 49
0.0
 49
1.0
 49
0.0
 49
0.0
 49
0.0
 49
0.0
 49
1.0
175
     0
142
0.0208333333333333
142
0.0
142
0.0
142
0.0
142
0.0
142
0.0208333333333333
142
0.0
142
0.0
142
0.0
142
0.0
142
1.0
142
0.0
142
0.0
142
0.0
142
0.0
142
1.0
179
     0
144
0.0208333333333333
144
0.0
144
0.0
144
0.0
144
0.0
144
0.0208333333333333
144
0.0
144
0.0
144
0.0
144
0.0
144
1.0
144
0.0
144
0.0
144
0.0
144
0.0
144
1.0
147
0.0208333333333333
147
0.0
147
0.0
147
0.0
147
0.0
147
0.0208333333333333
147
0.0
147
0.0
147
0.0
147
0.0
147
1.0
147
0.0
147
0.0
147
0.0
147
0.0
147
1.0
  0
MLEADERSTYLE
  5
17B13
102
{ACAD_REACTORS
330
17B12
102
}
330
17B12
100
AcDbMLeaderStyle
170
     2
171
     1
172
     0
 90
        2
 40
0.0
 41
0.0
173
     1
 91
-1056964608
340
176CC
 92
       -2
290
     1
 42
0.09
291
     1
 43
0.36
  3
Standard
 44
0.18
300

342
176CA
174
     1
178
     6
175
     1
176
     0
 93
-1056964608
 45
0.18
292
     0
297
     0
 46
0.18
 94
-1056964608
 47
1.0
 49
1.0
140
1.0
293
     1
141
0.0
294
     1
177
     0
142
1.0
295
     0
296
     0
143
0.125
1001
ACAD_MLEADERVER
1070
     2
  0
MLINESTYLE
  5
176D0
102
{ACAD_REACTORS
330
176CF
102
}
330
176CF
100
AcDbMlineStyle
  2
STANDARD
 70
     0
  3

 62
   256
 51
90.0
 52
90.0
 71
     2
 49
0.5
 62
   256
  6
BYLAYER
 49
-0.5
 62
   256
  6
BYLAYER
  0
ACDBPLACEHOLDER
  5
17ACA
102
{ACAD_REACTORS
330
17AC9
102
}
330
17AC9
  0
SCALE
  5
17B01
102
{ACAD_REACTORS
330
17B00
102
}
330
17B00
100
AcDbScale
 70
     0
300
1:1
140
1.0
141
1.0
290
     1
  0
SCALE
  5
17B02
102
{ACAD_REACTORS
330
17B00
102
}
330
17B00
100
AcDbScale
 70
     0
300
1/128" = 1'-0"
140
0.0078125
141
12.0
290
     0
  0
SCALE
  5
17B03
102
{ACAD_REACTORS
330
17B00
102
}
330
17B00
100
AcDbScale
 70
     0
300
1/64" = 1'-0"
140
0.015625
141
12.0
290
     0
  0
SCALE
  5
17B04
102
{ACAD_REACTORS
330
17B00
102
}
330
17B00
100
AcDbScale
 70
     0
300
1/32" = 1'-0"
140
0.03125
141
12.0
290
     0
  0
SCALE
  5
17B05
102
{ACAD_REACTORS
330
17B00
102
}
330
17B00
100
AcDbScale
 70
     0
300
1/16" = 1'-0"
140
0.0625
141
12.0
290
     0
  0
SCALE
  5
17B06
102
{ACAD_REACTORS
330
17B00
102
}
330
17B00
100
AcDbScale
 70
     0
300
3/32" = 1'-0"
140
0.09375
141
12.0
290
     0
  0
SCALE
  5
17B07
102
{ACAD_REACTORS
330
17B00
102
}
330
17B00
100
AcDbScale
 70
     0
300
1/8" = 1'-0"
140
0.125
141
12.0
290
     0
  0
SCALE
  5
17B08
102
{ACAD_REACTORS
330
17B00
102
}
330
17B00
100
AcDbScale
 70
     0
300
3/16" = 1'-0"
140
0.1875
141
12.0
290
     0
  0
SCALE
  5
17B09
102
{ACAD_REACTORS
330
17B00
102
}
330
17B00
100
AcDbScale
 70
     0
300
1/4" = 1'-0"
140
0.25
141
12.0
290
     0
  0
SCALE
  5
17B0A
102
{ACAD_REACTORS
330
17B00
102
}
330
17B00
100
AcDbScale
 70
     0
300
3/8" = 1'-0"
140
0.375
141
12.0
290
     0
  0
SCALE
  5
17B0B
102
{ACAD_REACTORS
330
17B00
102
}
330
17B00
100
AcDbScale
 70
     0
300
1/2" = 1'-0"
140
0.5
141
12.0
290
     0
  0
SCALE
  5
17B0C
102
{ACAD_REACTORS
330
17B00
102
}
330
17B00
100
AcDbScale
 70
     0
300
3/4" = 1'-0"
140
0.75
141
12.0
290
     0
  0
SCALE
  5
17B0D
102
{ACAD_REACTORS
330
17B00
102
}
330
17B00
100
AcDbScale
 70
     0
300
1" = 1'-0"
140
1.0
141
12.0
290
     0
  0
SCALE
  5
17B0E
102
{ACAD_REACTORS
330
17B00
102
}
330
17B00
100
AcDbScale
 70
     0
300
1-1/2" = 1'-0"
140
1.5
141
12.0
290
     0
  0
SCALE
  5
17B0F
102
{ACAD_REACTORS
330
17B00
102
}
330
17B00
100
AcDbScale
 70
     0
300
3" = 1'-0"
140
3.0
141
12.0
290
     0
  0
SCALE
  5
17B10
102
{ACAD_REACTORS
330
17B00
102
}
330
17B00
100
AcDbScale
 70
     0
300
6" = 1'-0"
140
6.0
141
12.0
290
     0
  0
SCALE
  5
17B11
102
{ACAD_REACTORS
330
17B00
102
}
330
17B00
100
AcDbScale
 70
     0
300
1'-0" = 1'-0"
140
12.0
141
12.0
290
     0
  0
ACDBSECTIONVIEWSTYLE
  5
17B15
102
{ACAD_XDICTIONARY
360
17B70
102
}
102
{ACAD_REACTORS
330
17B14
102
}
330
17B14
100
AcDbModelDocViewStyle
 70
     0
  3
Imperial24
290
     0
100
AcDbSectionViewStyle
 70
     0
 71
     0
 90
       78
 71
     1
340
176CA
 40
0.24
340
0
340
0
 40
0.24
300
I, O, Q, S, X, Z
 40
0.48
 90
        3
 40
0.18
 90
        1
 71
     2
340
176CE
 90
       25
340
176CE
 90
       50
 40
0.24
 40
0.0
 40
0.24
 71
     3
340
176CA
 40
0.24
 90
        1
 40
0.75
 90
        1
300
%<\AcVar ViewType \f "%tc1">% %<\AcVar ViewSectionStartId>%-%<\AcVar ViewSectionEndId>%\PSCALE %<\AcVar ViewScale \f "%sn">%
 71
     4
300
ANSI31
 40
1.0
 90
        0
290
     0
290
     0
 90
        6
 40
0.0
 40
1.570796326794896
 40
0.2617993877991494
 40
1.308996938995747
 40
-0.2617993877991494
 40
1.832595714594046
  0
TABLESTYLE
  5
17AFF
102
{ACAD_XDICTIONARY
360
17B37
102
}
102
{ACAD_REACTORS
330
17AFE
102
}
330
17AFE
100
AcDbTableStyle
  3
Standard
 70
     0
 71
     0
 40
0.06
 41
0.06
280
     0
281
     0
  7
STANDARD
140
0.18
170
     2
 62
     0
 63
     7
283
     0
274
    -2
284
     1
 64
     0
275
    -2
285
     1
 65
     0
276
    -2
286
     1
 66
     0
277
    -2
287
     1
 67
     0
278
    -2
288
     1
 68
     0
279
    -2
289
     1
 69
     0
  7
STANDARD
140
0.25
170
     5
 62
     0
 63
     7
283
     0
274
    -2
284
     1
 64
     0
275
    -2
285
     1
 65
     0
276
    -2
286
     1
 66
     0
277
    -2
287
     1
 67
     0
278
    -2
288
     1
 68
     0
279
    -2
289
     1
 69
     0
  7
STANDARD
140
0.18
170
     5
 62
     0
 63
     7
283
     0
274
    -2
284
     1
 64
     0
275
    -2
285
     1
 65
     0
276
    -2
286
     1
 66
     0
277
    -2
287
     1
 67
     0
278
    -2
288
     1
 68
     0
279
    -2
289
     1
 69
     0
  0
VISUALSTYLE
  5
17AEA
102
{ACAD_XDICTIONARY
360
17B48
102
}
102
{ACAD_REACTORS
330
17AE4
102
}
330
17AE4
100
AcDbVisualStyle
  2
2dWireframe
 70
     4
 71
     0
 72
     2
 73
     0
 90
        0
 40
-0.6
 41
-30.0
 62
     5
 63
     7
 74
     1
 91
        4
 64
     7
 65
   257
 75
     1
175
     1
 42
1.0
 92
        0
 66
   257
 43
1.0
 76
     1
 77
     6
 78
     2
 67
     7
 79
     5
170
     0
171
     0
290
     0
174
     0
 93
        1
 44
0.0
173
     0
291
     0
 45
0.0
1001
ACAD
1000
AcDbSavedByObjectVersion
1070
     0
  0
VISUALSTYLE
  5
17AE9
102
{ACAD_XDICTIONARY
360
17B46
102
}
102
{ACAD_REACTORS
330
17AE4
102
}
330
17AE4
100
AcDbVisualStyle
  2
Basic
 70
     7
 71
     1
 72
     0
 73
     1
 90
        0
 40
-0.6
 41
-30.0
 62
     5
 63
     7
 74
     0
 91
        4
 64
     7
 65
   257
 75
     1
175
     1
 42
1.0
 92
        8
 66
     7
 43
1.0
 76
     1
 77
     6
 78
     2
 67
     7
 79
     5
170
     0
171
     0
290
     0
174
     0
 93
        1
 44
0.0
173
     0
291
     1
 45
0.0
1001
ACAD
1000
AcDbSavedByObjectVersion
1070
     0
  0
VISUALSTYLE
  5
17AF0
102
{ACAD_XDICTIONARY
360
17B54
102
}
102
{ACAD_REACTORS
330
17AE4
102
}
330
17AE4
100
AcDbVisualStyle
  2
Brighten
 70
    12
 71
     2
 72
     2
 73
     0
 90
        0
 40
-0.6
 41
-30.0
 62
     5
 63
     7
 74
     1
 91
        4
 64
     7
 65
   257
 75
     1
175
     1
 42
1.0
 92
        8
 66
     7
 43
1.0
 76
     1
 77
     6
 78
     2
 67
     7
 79
     5
170
     0
171
     0
290
     0
174
     0
 93
        1
 44
50.0
173
     0
291
     1
 45
0.0
1001
ACAD
1000
AcDbSavedByObjectVersion
1070
     0
  0
VISUALSTYLE
  5
17AF4
102
{ACAD_XDICTIONARY
360
17B5C
102
}
102
{ACAD_REACTORS
330
17AE4
102
}
330
17AE4
100
AcDbVisualStyle
  2
ColorChange
 70
    16
 71
     2
 72
     2
 73
     3
 90
        0
 40
-0.6
 41
-30.0
 62
     5
 63
     8
 74
     1
 91
        4
 64
     7
 65
   257
 75
     1
175
     1
 42
1.0
 92
        8
 66
     8
 43
1.0
 76
     1
 77
     6
 78
     2
 67
     7
 79
     5
170
     0
171
     0
290
     0
174
     0
 93
        1
 44
0.0
173
     0
291
     1
 45
0.0
1001
ACAD
1000
AcDbSavedByObjectVersion
1070
     0
  0
VISUALSTYLE
  5
17AED
102
{ACAD_XDICTIONARY
360
17B4E
102
}
102
{ACAD_REACTORS
330
17AE4
102
}
330
17AE4
100
AcDbVisualStyle
  2
Conceptual
 70
     9
 71
     3
 72
     2
 73
     0
 90
        0
 40
-0.6
 41
-30.0
 62
     5
 63
     7
 74
     2
 91
        2
 64
     7
 65
   257
 75
     1
175
     1
 42
179.0
 92
        8
 66
     7
 43
1.0
 76
     1
 77
     6
 78
     2
 67
     7
 79
     3
170
     0
171
     0
290
     0
174
     0
 93
        1
 44
0.0
173
     0
291
     0
 45
0.0
1001
ACAD
1000
AcDbSavedByObjectVersion
1070
     0
  0
VISUALSTYLE
  5
17AEF
102
{ACAD_XDICTIONARY
360
17B52
102
}
102
{ACAD_REACTORS
330
17AE4
102
}
330
17AE4
100
AcDbVisualStyle
  2
Dim
 70
    11
 71
     2
 72
     2
 73
     0
 90
        0
 40
-0.6
 41
-30.0
 62
     5
 63
     7
 74
     1
 91
        4
 64
     7
 65
   257
 75
     1
175
     1
 42
1.0
 92
        8
 66
     7
 43
1.0
 76
     1
 77
     6
 78
     2
 67
     7
 79
     5
170
     0
171
     0
290
     0
174
     0
 93
        1
 44
-50.0
173
     0
291
     1
 45
0.0
1001
ACAD
1000
AcDbSavedByObjectVersion
1070
     0
  0
VISUALSTYLE
  5
17AFC
102
{ACAD_XDICTIONARY
360
17B6C
102
}
102
{ACAD_REACTORS
330
17AE4
102
}
330
17AE4
100
AcDbVisualStyle
  2
EdgeColorOff
 70
    22
 71
     2
 72
     2
 73
     0
 90
        0
 40
-0.6
 41
-30.0
 62
     5
 63
     7
 74
     1
 91
        4
 64
     7
 65
   257
 75
     1
175
     1
 42
1.0
 92
        8
 66
     7
 43
1.0
 76
     1
 77
     6
 78
     2
 67
     7
 79
     5
170
     0
171
     0
290
     0
174
     0
 93
        1
 44
0.0
173
     0
291
     1
 45
0.0
1001
ACAD
1000
AcDbSavedByObjectVersion
1070
     0
  0
VISUALSTYLE
  5
17AF3
102
{ACAD_XDICTIONARY
360
17B5A
102
}
102
{ACAD_REACTORS
330
17AE4
102
}
330
17AE4
100
AcDbVisualStyle
  2
Facepattern
 70
    15
 71
     2
 72
     2
 73
     0
 90
        0
 40
-0.6
 41
-30.0
 62
     5
 63
     7
 74
     1
 91
        4
 64
     7
 65
   257
 75
     1
175
     1
 42
1.0
 92
        8
 66
     7
 43
1.0
 76
     1
 77
     6
 78
     2
 67
     7
 79
     5
170
     0
171
     0
290
     0
174
     0
 93
        1
 44
0.0
173
     0
291
     1
 45
0.0
1001
ACAD
1000
AcDbSavedByObjectVersion
1070
     0
  0
VISUALSTYLE
  5
17AE5
102
{ACAD_XDICTIONARY
360
17B3E
102
}
102
{ACAD_REACTORS
330
17AE4
102
}
330
17AE4
100
AcDbVisualStyle
  2
Flat
 70
     0
 71
     2
 72
     1
 73
     1
 90
        2
 40
-0.6
 41
30.0
 62
     5
 63
     7
 74
     0
 91
        0
 64
     7
 65
   257
 75
     1
175
     1
 42
1.0
 92
        8
 66
     7
 43
1.0
 76
     1
 77
     6
 78
     2
 67
     7
 79
     5
170
     0
171
     0
290
     0
174
     0
 93
       13
 44
0.0
173
     0
291
     1
 45
0.0
1001
ACAD
1000
AcDbSavedByObjectVersion
1070
     0
  0
VISUALSTYLE
  5
17AE6
102
{ACAD_XDICTIONARY
360
17B40
102
}
102
{ACAD_REACTORS
330
17AE4
102
}
330
17AE4
100
AcDbVisualStyle
  2
FlatWithEdges
 70
     1
 71
     2
 72
     1
 73
     1
 90
        2
 40
-0.6
 41
30.0
 62
     5
 63
     7
 74
     1
 91
        0
 64
     7
 65
   257
 75
     1
175
     1
 42
1.0
 92
        0
 66
   257
 43
1.0
 76
     1
 77
     6
 78
     2
 67
     7
 79
     5
170
     0
171
     0
290
     0
174
     0
 93
       13
 44
0.0
173
     0
291
     1
 45
0.0
1001
ACAD
1000
AcDbSavedByObjectVersion
1070
     0
  0
VISUALSTYLE
  5
17AE7
102
{ACAD_XDICTIONARY
360
17B42
102
}
102
{ACAD_REACTORS
330
17AE4
102
}
330
17AE4
100
AcDbVisualStyle
  2
Gouraud
 70
     2
 71
     2
 72
     2
 73
     1
 90
        2
 40
-0.6
 41
30.0
 62
     5
 63
     7
 74
     0
 91
        0
 64
     7
 65
   257
 75
     1
175
     1
 42
1.0
 92
        0
 66
     7
 43
1.0
 76
     1
 77
     6
 78
     2
 67
     7
 79
     5
170
     0
171
     0
290
     0
174
     0
 93
       13
 44
0.0
173
     0
291
     1
 45
0.0
1001
ACAD
1000
AcDbSavedByObjectVersion
1070
     0
  0
VISUALSTYLE
  5
17AE8
102
{ACAD_XDICTIONARY
360
17B44
102
}
102
{ACAD_REACTORS
330
17AE4
102
}
330
17AE4
100
AcDbVisualStyle
  2
GouraudWithEdges
 70
     3
 71
     2
 72
     2
 73
     1
 90
        2
 40
-0.6
 41
30.0
 62
     5
 63
     7
 74
     1
 91
        0
 64
     7
 65
   257
 75
     1
175
     1
 42
1.0
 92
        0
 66
   257
 43
1.0
 76
     1
 77
     6
 78
     2
 67
     7
 79
     5
170
     0
171
     0
290
     0
174
     0
 93
       13
 44
0.0
173
     0
291
     1
 45
0.0
1001
ACAD
1000
AcDbSavedByObjectVersion
1070
     0
  0
VISUALSTYLE
  5
17AEC
102
{ACAD_XDICTIONARY
360
17B4C
102
}
102
{ACAD_REACTORS
330
17AE4
102
}
330
17AE4
100
AcDbVisualStyle
  2
Hidden
 70
     6
 71
     1
 72
     2
 73
     2
 90
        0
 40
-0.6
 41
-30.0
 62
     5
 63
     7
 74
     2
 91
        2
 64
     7
 65
   257
 75
     2
175
     1
 42
40.0
 92
        0
 66
   257
 43
1.0
 76
     1
 77
     6
 78
     2
 67
     7
 79
     3
170
     0
171
     0
290
     0
174
     0
 93
        1
 44
0.0
173
     0
291
     0
 45
0.0
1001
ACAD
1000
AcDbSavedByObjectVersion
1070
     0
  0
VISUALSTYLE
  5
17AFA
102
{ACAD_XDICTIONARY
360
17B68
102
}
102
{ACAD_REACTORS
330
17AE4
102
}
330
17AE4
100
AcDbVisualStyle
  2
JitterOff
 70
    20
 71
     2
 72
     2
 73
     0
 90
        0
 40
-0.6
 41
-30.0
 62
     5
 63
     7
 74
     1
 91
        4
 64
     7
 65
   257
 75
     1
175
     1
 42
1.0
 92
       10
 66
     7
 43
1.0
 76
     1
 77
     6
 78
     2
 67
     7
 79
     5
170
     0
171
     0
290
     0
174
     0
 93
        1
 44
0.0
173
     0
291
     1
 45
0.0
1001
ACAD
1000
AcDbSavedByObjectVersion
1070
     0
  0
VISUALSTYLE
  5
17AF2
102
{ACAD_XDICTIONARY
360
17B58
102
}
102
{ACAD_REACTORS
330
17AE4
102
}
330
17AE4
100
AcDbVisualStyle
  2
Linepattern
 70
    14
 71
     2
 72
     2
 73
     0
 90
        0
 40
-0.6
 41
-30.0
 62
     5
 63
     7
 74
     1
 91
        4
 64
     7
 65
   257
 75
     7
175
     7
 42
1.0
 92
        8
 66
     7
 43
1.0
 76
     1
 77
     6
 78
     2
 67
     7
 79
     5
170
     0
171
     0
290
     0
174
     0
 93
        1
 44
0.0
173
     0
291
     1
 45
0.0
1001
ACAD
1000
AcDbSavedByObjectVersion
1070
     0
  0
VISUALSTYLE
  5
17AFB
102
{ACAD_XDICTIONARY
360
17B6A
102
}
102
{ACAD_REACTORS
330
17AE4
102
}
330
17AE4
100
AcDbVisualStyle
  2
OverhangOff
 70
    21
 71
     2
 72
     2
 73
     0
 90
        0
 40
-0.6
 41
-30.0
 62
     5
 63
     7
 74
     1
 91
        4
 64
     7
 65
   257
 75
     1
175
     1
 42
1.0
 92
        9
 66
     7
 43
1.0
 76
     1
 77
     6
 78
     2
 67
     7
 79
     5
170
     0
171
     0
290
     0
174
     0
 93
        1
 44
0.0
173
     0
291
     1
 45
0.0
1001
ACAD
1000
AcDbSavedByObjectVersion
1070
     0
  0
VISUALSTYLE
  5
17AEE
102
{ACAD_XDICTIONARY
360
17B50
102
}
102
{ACAD_REACTORS
330
17AE4
102
}
330
17AE4
100
AcDbVisualStyle
  2
Realistic
 70
     8
 71
     2
 72
     3
 73
     0
 90
        2
 40
-0.6
 41
30.0
 62
     5
 63
     7
 74
     0
 91
        0
 64
     7
 65
   257
 75
     1
175
     1
 42
1.0
 92
        8
 66
   257
 43
1.0
 76
     1
 77
     6
 78
     2
 67
     7
 79
     3
170
     0
171
     0
290
     0
174
     0
 93
       13
 44
0.0
173
     0
291
     0
 45
0.0
1001
ACAD
1000
AcDbSavedByObjectVersion
1070
     0
  0
VISUALSTYLE
  5
17AF9
102
{ACAD_XDICTIONARY
360
17B66
102
}
102
{ACAD_REACTORS
330
17AE4
102
}
330
17AE4
100
AcDbVisualStyle
  2
Shaded
 70
    27
 71
     2
 72
     2
 73
     1
 90
        2
 40
-0.6
 41
30.0
 62
     5
 63
     7
 74
     0
 91
        4
 64
     7
 65
   257
 75
     1
175
     1
 42
1.0
 92
        8
 66
   257
 43
1.0
 76
     1
 77
     6
 78
     2
 67
     8
 79
     3
170
     0
171
     0
290
     0
174
     0
 93
        5
 44
0.0
173
     0
291
     0
 45
0.0
1001
ACAD
1000
AcDbSavedByObjectVersion
1070
     0
  0
VISUALSTYLE
  5
17AF8
102
{ACAD_XDICTIONARY
360
17B64
102
}
102
{ACAD_REACTORS
330
17AE4
102
}
330
17AE4
100
AcDbVisualStyle
  2
Shaded with edges
 70
    26
 71
     2
 72
     2
 73
     1
 90
        2
 40
-0.6
 41
30.0
 62
     5
 63
     7
 74
     1
 91
       10
 64
     7
 65
   257
 75
     2
175
     1
 42
1.0
 92
        8
 66
   257
 43
1.0
 76
     1
 77
     6
 78
     2
 67
     7
 79
     3
170
     0
171
     0
290
     0
174
     0
 93
        5
 44
0.0
173
     0
291
     0
 45
0.0
1001
ACAD
1000
AcDbSavedByObjectVersion
1070
     0
  0
VISUALSTYLE
  5
17AF5
102
{ACAD_XDICTIONARY
360
17B5E
102
}
102
{ACAD_REACTORS
330
17AE4
102
}
330
17AE4
100
AcDbVisualStyle
  2
Shades of Gray
 70
    23
 71
     2
 72
     2
 73
     3
 90
        0
 40
-0.6
 41
-30.0
 62
     5
 63
     7
 74
     2
 91
        2
 64
     7
 65
     7
 75
     1
175
     1
 42
40.0
 92
        8
 66
     7
 43
1.0
 76
     1
 77
     6
 78
     2
 67
     7
 79
     3
170
     0
171
     0
290
     0
174
     0
 93
        1
 44
0.0
173
     0
291
     0
 45
0.0
1001
ACAD
1000
AcDbSavedByObjectVersion
1070
     0
  0
VISUALSTYLE
  5
17AF6
102
{ACAD_XDICTIONARY
360
17B60
102
}
102
{ACAD_REACTORS
330
17AE4
102
}
330
17AE4
100
AcDbVisualStyle
  2
Sketchy
 70
    24
 71
     1
 72
     2
 73
     2
 90
        0
 40
-0.6
 41
-30.0
 62
     5
 63
     7
 74
     2
 91
        2
 64
     7
 65
     7
 75
     1
175
     1
 42
40.0
 92
       11
 66
     7
 43
1.0
 76
     1
 77
     6
 78
     2
 67
     7
 79
     6
170
     0
171
     0
290
     0
174
     0
 93
        1
 44
0.0
173
     0
291
     0
 45
0.0
1001
ACAD
1000
AcDbSavedByObjectVersion
1070
     0
  0
VISUALSTYLE
  5
17AF1
102
{ACAD_XDICTIONARY
360
17B56
102
}
102
{ACAD_REACTORS
330
17AE4
102
}
330
17AE4
100
AcDbVisualStyle
  2
Thicken
 70
    13
 71
     2
 72
     2
 73
     0
 90
        0
 40
-0.6
 41
-30.0
 62
     5
 63
     7
 74
     1
 91
        4
 64
     7
 65
   257
 75
     1
175
     1
 42
1.0
 92
       12
 66
     7
 43
1.0
 76
     1
 77
     6
 78
     2
 67
     7
 79
     5
170
     0
171
     0
290
     0
174
     0
 93
        1
 44
0.0
173
     0
291
     1
 45
0.0
1001
ACAD
1000
AcDbSavedByObjectVersion
1070
     0
  0
VISUALSTYLE
  5
17AEB
102
{ACAD_XDICTIONARY
360
17B4A
102
}
102
{ACAD_REACTORS
330
17AE4
102
}
330
17AE4
100
AcDbVisualStyle
  2
Wireframe
 70
     5
 71
     0
 72
     2
 73
     0
 90
        0
 40
-0.6
 41
-30.0
 62
     5
 63
     7
 74
     1
 91
        4
 64
     7
 65
   257
 75
     1
175
     1
 42
1.0
 92
        0
 66
   257
 43
1.0
 76
     1
 77
     6
 78
     2
 67
     7
 79
     3
170
     0
171
     0
290
     0
174
     0
 93
        1
 44
0.0
173
     0
291
     0
 45
0.0
1001
ACAD
1000
AcDbSavedByObjectVersion
1070
     0
  0
VISUALSTYLE
  5
17AF7
102
{ACAD_XDICTIONARY
360
17B62
102
}
102
{ACAD_REACTORS
330
17AE4
102
}
330
17AE4
100
AcDbVisualStyle
  2
X-Ray
 70
    25
 71
     2
 72
     2
 73
     1
 90
        1
 40
0.5
 41
-30.0
 62
     5
 63
     7
 74
     1
 91
        0
 64
     7
 65
   257
 75
     1
175
     1
 42
1.0
 92
        8
 66
     7
 43
1.0
 76
     1
 77
     6
 78
     2
 67
     7
 79
     3
170
     0
171
     0
290
     0
174
     0
 93
       13
 44
0.0
173
     0
291
     0
 45
0.0
1001
ACAD
1000
AcDbSavedByObjectVersion
1070
     0
  0
DICTIONARYVAR
  5
17B31
102
{ACAD_REACTORS
330
17B2C
102
}
330
17B2C
100
DictionaryVariables
280
     0
  1
1:1
  0
DICTIONARYVAR
  5
17B2E
102
{ACAD_REACTORS
330
17B2C
102
}
330
17B2C
100
DictionaryVariables
280
     0
  1
STANDARD
  0
DICTIONARYVAR
  5
17B2D
102
{ACAD_REACTORS
330
17B2C
102
}
330
17B2C
100
DictionaryVariables
280
     0
  1
STANDARD
  0
DICTIONARYVAR
  5
17B2F
102
{ACAD_REACTORS
330
17B2C
102
}
330
17B2C
100
DictionaryVariables
280
     0
  1
Imperial24
  0
DICTIONARYVAR
  5
17B30
102
{ACAD_REACTORS
330
17B2C
102
}
330
17B2C
100
DictionaryVariables
280
     0
  1
Imperial24
  0
DICTIONARYVAR
  5
17B34
102
{ACAD_REACTORS
330
17B2C
102
}
330
17B2C
100
DictionaryVariables
280
     0
  1
1
  0
DICTIONARYVAR
  5
17B33
102
{ACAD_REACTORS
330
17B2C
102
}
330
17B2C
100
DictionaryVariables
280
     0
  1
0
  0
DICTIONARYVAR
  5
17B32
102
{ACAD_REACTORS
330
17B2C
102
}
330
17B2C
100
DictionaryVariables
280
     0
  1
127
  0
DICTIONARYVAR
  5
17B35
102
{ACAD_REACTORS
330
17B2C
102
}
330
17B2C
100
DictionaryVariables
280
     0
  1
2
  0
DICTIONARY
  5
17B72
330
17B17
100
AcDbDictionary
280
     1
281
     1
  3
ACAD_XREC_ROUNDTRIP
360
17B73
  0
DICTIONARY
  5
17B74
330
17B18
100
AcDbDictionary
280
     1
281
     1
  3
ACAD_XREC_ROUNDTRIP
360
17B75
  0
DICTIONARY
  5
17B76
330
17B19
100
AcDbDictionary
280
     1
281
     1
  3
ACAD_XREC_ROUNDTRIP
360
17B77
  0
DICTIONARY
  5
17AD5
330
17AD4
100
AcDbDictionary
280
     1
281
     1
  3
ACAD_XREC_ROUNDTRIP
360
17B3C
  3
BUMPTILE
360
17AD7
  3
DIFFUSETILE
360
17AD6
  3
OPACITYTILE
360
17ADA
  3
REFLECTIONTILE
360
17AD9
  3
REFRACTIONTILE
360
17ADB
  3
SPECULARTILE
360
17AD8
  0
DICTIONARY
  5
17ACD
330
17ACC
100
AcDbDictionary
280
     1
281
     1
  3
ACAD_XREC_ROUNDTRIP
360
17B3B
  3
BUMPTILE
360
17ACF
  3
DIFFUSETILE
360
17ACE
  3
OPACITYTILE
360
17AD2
  3
REFLECTIONTILE
360
17AD1
  3
REFRACTIONTILE
360
17AD3
  3
SPECULARTILE
360
17AD0
  0
DICTIONARY
  5
17ADD
330
17ADC
100
AcDbDictionary
280
     1
281
     1
  3
ACAD_XREC_ROUNDTRIP
360
17B3D
  3
BUMPTILE
360
17ADF
  3
DIFFUSETILE
360
17ADE
  3
OPACITYTILE
360
17AE2
  3
REFLECTIONTILE
360
17AE1
  3
REFRACTIONTILE
360
17AE3
  3
SPECULARTILE
360
17AE0
  0
DICTIONARY
  5
17B70
330
17B15
100
AcDbDictionary
280
     1
281
     1
  3
ACAD_XREC_ROUNDTRIP
360
17B71
  0
DICTIONARY
  5
17B37
330
17AFF
100
AcDbDictionary
280
     1
281
     1
  3
ACAD_ROUNDTRIP_2008_TABLESTYLE_CELLSTYLEMAP
360
17B38
  3
ACAD_XREC_ROUNDTRIP
360
17B6E
  0
DICTIONARY
  5
17B48
330
17AEA
100
AcDbDictionary
280
     1
281
     1
  3
ACAD_XREC_ROUNDTRIP
360
17B49
  0
DICTIONARY
  5
17B46
330
17AE9
100
AcDbDictionary
280
     1
281
     1
  3
ACAD_XREC_ROUNDTRIP
360
17B47
  0
DICTIONARY
  5
17B54
330
17AF0
100
AcDbDictionary
280
     1
281
     1
  3
ACAD_XREC_ROUNDTRIP
360
17B55
  0
DICTIONARY
  5
17B5C
330
17AF4
100
AcDbDictionary
280
     1
281
     1
  3
ACAD_XREC_ROUNDTRIP
360
17B5D
  0
DICTIONARY
  5
17B4E
330
17AED
100
AcDbDictionary
280
     1
281
     1
  3
ACAD_XREC_ROUNDTRIP
360
17B4F
  0
DICTIONARY
  5
17B52
330
17AEF
100
AcDbDictionary
280
     1
281
     1
  3
ACAD_XREC_ROUNDTRIP
360
17B53
  0
DICTIONARY
  5
17B6C
330
17AFC
100
AcDbDictionary
280
     1
281
     1
  3
ACAD_XREC_ROUNDTRIP
360
17B6D
  0
DICTIONARY
  5
17B5A
330
17AF3
100
AcDbDictionary
280
     1
281
     1
  3
ACAD_XREC_ROUNDTRIP
360
17B5B
  0
DICTIONARY
  5
17B3E
330
17AE5
100
AcDbDictionary
280
     1
281
     1
  3
ACAD_XREC_ROUNDTRIP
360
17B3F
  0
DICTIONARY
  5
17B40
330
17AE6
100
AcDbDictionary
280
     1
281
     1
  3
ACAD_XREC_ROUNDTRIP
360
17B41
  0
DICTIONARY
  5
17B42
330
17AE7
100
AcDbDictionary
280
     1
281
     1
  3
ACAD_XREC_ROUNDTRIP
360
17B43
  0
DICTIONARY
  5
17B44
330
17AE8
100
AcDbDictionary
280
     1
281
     1
  3
ACAD_XREC_ROUNDTRIP
360
17B45
  0
DICTIONARY
  5
17B4C
330
17AEC
100
AcDbDictionary
280
     1
281
     1
  3
ACAD_XREC_ROUNDTRIP
360
17B4D
  0
DICTIONARY
  5
17B68
330
17AFA
100
AcDbDictionary
280
     1
281
     1
  3
ACAD_XREC_ROUNDTRIP
360
17B69
  0
DICTIONARY
  5
17B58
330
17AF2
100
AcDbDictionary
280
     1
281
     1
  3
ACAD_XREC_ROUNDTRIP
360
17B59
  0
DICTIONARY
  5
17B6A
330
17AFB
100
AcDbDictionary
280
     1
281
     1
  3
ACAD_XREC_ROUNDTRIP
360
17B6B
  0
DICTIONARY
  5
17B50
330
17AEE
100
AcDbDictionary
280
     1
281
     1
  3
ACAD_XREC_ROUNDTRIP
360
17B51
  0
DICTIONARY
  5
17B66
330
17AF9
100
AcDbDictionary
280
     1
281
     1
  3
ACAD_XREC_ROUNDTRIP
360
17B67
  0
DICTIONARY
  5
17B64
330
17AF8
100
AcDbDictionary
280
     1
281
     1
  3
ACAD_XREC_ROUNDTRIP
360
17B65
  0
DICTIONARY
  5
17B5E
330
17AF5
100
AcDbDictionary
280
     1
281
     1
  3
ACAD_XREC_ROUNDTRIP
360
17B5F
  0
DICTIONARY
  5
17B60
330
17AF6
100
AcDbDictionary
280
     1
281
     1
  3
ACAD_XREC_ROUNDTRIP
360
17B61
  0
DICTIONARY
  5
17B56
330
17AF1
100
AcDbDictionary
280
     1
281
     1
  3
ACAD_XREC_ROUNDTRIP
360
17B57
  0
DICTIONARY
  5
17B4A
330
17AEB
100
AcDbDictionary
280
     1
281
     1
  3
ACAD_XREC_ROUNDTRIP
360
17B4B
  0
DICTIONARY
  5
17B62
330
17AF7
100
AcDbDictionary
280
     1
281
     1
  3
ACAD_XREC_ROUNDTRIP
360
17B63
  0
XRECORD
  5
17B73
102
{ACAD_REACTORS
330
17B72
102
}
330
17B72
100
AcDbXrecord
280
     1
102
DISPLAYNAME
  1
Imperial24
102
FLAGS
 90
        0
  0
XRECORD
  5
17B75
102
{ACAD_REACTORS
330
17B74
102
}
330
17B74
100
AcDbXrecord
280
     1
102
SHADEPLOT
 70
     0
102
SHADEPLOTRESLEVEL
 70
     2
102
SHADEPLOTCUSTOMDPI
 70
   300
  0
XRECORD
  5
17B77
102
{ACAD_REACTORS
330
17B76
102
}
330
17B76
100
AcDbXrecord
280
     1
102
SHADEPLOT
 70
     0
102
SHADEPLOTRESLEVEL
 70
     2
102
SHADEPLOTCUSTOMDPI
 70
   300
  0
XRECORD
  5
17B3C
102
{ACAD_REACTORS
330
17AD5
102
}
330
17AD5
100
AcDbXrecord
280
     1
102
MATERIAL
148
0.0
149
0.0
149
0.0
 93
        0
 94
      127
282
     0
 72
     0
 77
     0
171
     0
175
     0
179
     0
273
     0
  0
XRECORD
  5
17AD7
102
{ACAD_REACTORS
330
17AD5
102
}
330
17AD5
100
AcDbXrecord
280
     1
270
     1
271
     1
  0
XRECORD
  5
17AD6
102
{ACAD_REACTORS
330
17AD5
102
}
330
17AD5
100
AcDbXrecord
280
     1
270
     1
271
     1
  0
XRECORD
  5
17ADA
102
{ACAD_REACTORS
330
17AD5
102
}
330
17AD5
100
AcDbXrecord
280
     1
270
     1
271
     1
  0
XRECORD
  5
17AD9
102
{ACAD_REACTORS
330
17AD5
102
}
330
17AD5
100
AcDbXrecord
280
     1
270
     1
271
     1
  0
XRECORD
  5
17ADB
102
{ACAD_REACTORS
330
17AD5
102
}
330
17AD5
100
AcDbXrecord
280
     1
270
     1
271
     1
  0
XRECORD
  5
17AD8
102
{ACAD_REACTORS
330
17AD5
102
}
330
17AD5
100
AcDbXrecord
280
     1
270
     1
271
     1
  0
XRECORD
  5
17B3B
102
{ACAD_REACTORS
330
17ACD
102
}
330
17ACD
100
AcDbXrecord
280
     1
102
MATERIAL
148
0.0
149
0.0
149
0.0
 93
        0
 94
      127
282
     0
 72
     0
 77
     0
171
     0
175
     0
179
     0
273
     0
  0
XRECORD
  5
17ACF
102
{ACAD_REACTORS
330
17ACD
102
}
330
17ACD
100
AcDbXrecord
280
     1
270
     1
271
     1
  0
XRECORD
  5
17ACE
102
{ACAD_REACTORS
330
17ACD
102
}
330
17ACD
100
AcDbXrecord
280
     1
270
     1
271
     1
  0
XRECORD
  5
17AD2
102
{ACAD_REACTORS
330
17ACD
102
}
330
17ACD
100
AcDbXrecord
280
     1
270
     1
271
     1
  0
XRECORD
  5
17AD1
102
{ACAD_REACTORS
330
17ACD
102
}
330
17ACD
100
AcDbXrecord
280
     1
270
     1
271
     1
  0
XRECORD
  5
17AD3
102
{ACAD_REACTORS
330
17ACD
102
}
330
17ACD
100
AcDbXrecord
280
     1
270
     1
271
     1
  0
XRECORD
  5
17AD0
102
{ACAD_REACTORS
330
17ACD
102
}
330
17ACD
100
AcDbXrecord
280
     1
270
     1
271
     1
  0
XRECORD
  5
17B3D
102
{ACAD_REACTORS
330
17ADD
102
}
330
17ADD
100
AcDbXrecord
280
     1
102
MATERIAL
148
0.0
149
0.0
149
0.0
 93
        0
 94
      127
282
     0
 72
     0
 77
     0
171
     0
175
     0
179
     0
273
     0
  0
XRECORD
  5
17ADF
102
{ACAD_REACTORS
330
17ADD
102
}
330
17ADD
100
AcDbXrecord
280
     1
270
     1
271
     1
  0
XRECORD
  5
17ADE
102
{ACAD_REACTORS
330
17ADD
102
}
330
17ADD
100
AcDbXrecord
280
     1
270
     1
271
     1
  0
XRECORD
  5
17AE2
102
{ACAD_REACTORS
330
17ADD
102
}
330
17ADD
100
AcDbXrecord
280
     1
270
     1
271
     1
  0
XRECORD
  5
17AE1
102
{ACAD_REACTORS
330
17ADD
102
}
330
17ADD
100
AcDbXrecord
280
     1
270
     1
271
     1
  0
XRECORD
  5
17AE3
102
{ACAD_REACTORS
330
17ADD
102
}
330
17ADD
100
AcDbXrecord
280
     1
270
     1
271
     1
  0
XRECORD
  5
17AE0
102
{ACAD_REACTORS
330
17ADD
102
}
330
17ADD
100
AcDbXrecord
280
     1
270
     1
271
     1
  0
XRECORD
  5
17B71
102
{ACAD_REACTORS
330
17B70
102
}
330
17B70
100
AcDbXrecord
280
     1
102
DISPLAYNAME
  1
Imperial24
102
FLAGS
 90
        0
  0
CELLSTYLEMAP
  5
17B38
102
{ACAD_REACTORS
330
17B37
102
}
330
17B37
100
AcDbCellStyleMap
 90
        3
300
CELLSTYLE
  1
TABLEFORMAT_BEGIN
 90
        5
170
     1
 91
        0
 92
    32768
 62
   257
 93
        1
300
CONTENTFORMAT
  1
CONTENTFORMAT_BEGIN
 90
        0
 91
        0
 92
      512
 93
        0
300

 40
0.0
140
1.0
 94
        5
 62
     0
340
176CA
144
0.25
309
CONTENTFORMAT_END
171
     0
 94
        0
309
TABLEFORMAT_END
  1
CELLSTYLE_BEGIN
 90
        1
 91
        1
300
_TITLE
309
CELLSTYLE_END
300
CELLSTYLE
  1
TABLEFORMAT_BEGIN
 90
        5
170
     1
 91
        0
 92
        0
 62
   257
 93
        1
300
CONTENTFORMAT
  1
CONTENTFORMAT_BEGIN
 90
        0
 91
        0
 92
      512
 93
        0
300

 40
0.0
140
1.0
 94
        5
 62
     0
340
176CA
144
0.18
309
CONTENTFORMAT_END
171
     0
 94
        0
309
TABLEFORMAT_END
  1
CELLSTYLE_BEGIN
 90
        2
 91
        1
300
_HEADER
309
CELLSTYLE_END
300
CELLSTYLE
  1
TABLEFORMAT_BEGIN
 90
        5
170
     1
 91
        0
 92
        0
 62
   257
 93
        1
300
CONTENTFORMAT
  1
CONTENTFORMAT_BEGIN
 90
        0
 91
        0
 92
      512
 93
        0
300

 40
0.0
140
1.0
 94
        2
 62
     0
340
176CA
144
0.18
309
CONTENTFORMAT_END
171
     0
 94
        0
309
TABLEFORMAT_END
  1
CELLSTYLE_BEGIN
 90
        3
 91
        2
300
_DATA
309
CELLSTYLE_END
  0
XRECORD
  5
17B6E
102
{ACAD_REACTORS
330
17B37
102
}
330
17B37
100
AcDbXrecord
280
     1
102
ACAD_ROUNDTRIP_PRE2007_TABLESTYLE
 90
      512
 91
        0
  1

 92
      512
 93
        0
  2

 94
      512
 95
        0
  3

  0
XRECORD
  5
17B49
102
{ACAD_REACTORS
330
17B48
102
}
330
17B48
100
AcDbXrecord
280
     1
102
RTVSPost2010Prop28
280
     1
102
RTVSPost2010PropOp28
 70
     1
102
RTVSPost2010Prop29
280
     1
102
RTVSPost2010PropOp29
 70
     1
102
RTVSPost2010Prop30
280
     0
102
RTVSPost2010PropOp30
 70
     1
102
RTVSPost2010Prop31
280
     0
102
RTVSPost2010PropOp31
 70
     1
102
RTVSPost2010Prop32
280
     0
102
RTVSPost2010PropOp32
 70
     1
102
RTVSPost2010Prop33
280
     0
102
RTVSPost2010PropOp33
 70
     1
102
RTVSPost2010Prop34
280
     0
102
RTVSPost2010PropOp34
 70
     1
102
RTVSPost2010Prop35
280
     0
102
RTVSPost2010PropOp35
 70
     1
102
RTVSPost2010Prop36
280
     0
102
RTVSPost2010PropOp36
 70
     1
102
RTVSPost2010Prop37
 90
       50
102
RTVSPost2010PropOp37
 70
     1
102
RTVSPost2010Prop38
140
0.0
102
RTVSPost2010PropOp38
 70
     1
102
RTVSPost2010Prop39
140
1.0
102
RTVSPost2010PropOp39
 70
     1
102
RTVSPost2010Prop40
 90
        0
102
RTVSPost2010PropOp40
 70
     1
102
RTVSPost2010Prop41ColorIndex
 90
       18
102
RTVSPost2010Prop41ColorRGB
 90
        0
102
RTVSPost2010PropOp41
 70
     1
102
RTVSPost2010Prop42
 90
       50
102
RTVSPost2010PropOp42
 70
     1
102
RTVSPost2010Prop43
 90
        3
102
RTVSPost2010PropOp43
 70
     1
102
RTVSPost2010Prop44ColorIndex
 90
        5
102
RTVSPost2010Prop44ColorRGB
 90
      255
102
RTVSPost2010PropOp44
 70
     1
102
RTVSPost2010Prop45
280
     0
102
RTVSPost2010PropOp45
 70
     1
102
RTVSPost2010Prop46
 90
       50
102
RTVSPost2010PropOp46
 70
     1
102
RTVSPost2010Prop47
 90
       50
102
RTVSPost2010PropOp47
 70
     1
102
RTVSPost2010Prop48
 90
       50
102
RTVSPost2010PropOp48
 70
     1
102
RTVSPost2010Prop49
280
     0
102
RTVSPost2010PropOp49
 70
     1
102
RTVSPost2010Prop50
 90
       50
102
RTVSPost2010PropOp50
 70
     1
102
RTVSPost2010Prop51ColorIndex
 90
      256
102
RTVSPost2010Prop51ColorRGB
 90
-16777216
102
RTVSPost2010PropOp51
 70
     0
102
RTVSPost2010Prop52
140
1.0
102
RTVSPost2010PropOp52
 70
     0
102
RTVSPost2010Prop53
 90
        2
102
RTVSPost2010PropOp53
 70
     1
102
RTVSPost2010Prop54
  1
strokes_ogs.tif
102
RTVSPost2010PropOp54
 70
     1
102
RTVSPost2010Prop55
280
     0
102
RTVSPost2010PropOp55
 70
     1
102
RTVSPost2010Prop56
140
1.0
102
RTVSPost2010PropOp56
 70
     1
102
RTVSPost2010Prop57
140
1.0
102
RTVSPost2010PropOp57
 70
     1
102
RTVSPropertyOp0
 70
     1
102
RTVSPropertyOp1
 70
     1
102
RTVSPropertyOp2
 70
     1
102
RTVSPropertyOp3
 70
     1
102
RTVSPropertyOp4
 70
     1
102
RTVSPropertyOp5
 70
     1
102
RTVSPropertyOp6
 70
     1
102
RTVSPropertyOp7
 70
     1
102
RTVSPropertyOp8
 70
     1
102
RTVSPropertyOp9
 70
     1
102
RTVSPropertyOp10
 70
     1
102
RTVSPropertyOp11
 70
     1
102
RTVSPropertyOp12
 70
     1
102
RTVSPropertyOp13
 70
     1
102
RTVSPropertyOp14
 70
     1
102
RTVSPropertyOp15
 70
     1
102
RTVSPropertyOp16
 70
     1
102
RTVSPropertyOp17
 70
     1
102
RTVSPropertyOp18
 70
     1
102
RTVSPropertyOp19
 70
     1
102
RTVSPropertyOp20
 70
     1
102
RTVSPropertyOp21
 70
     1
102
RTVSPropertyOp22
 70
     1
102
RTVSPropertyOp23
 70
     1
102
RTVSPropertyOp24
 70
     1
102
RTVSPropertyOp25
 70
     1
102
RTVSPropertyOp26
 70
     1
102
RTVSPropertyOp27
 70
     1
102
RTVSPropertyOp28
 70
     1
102
RTVSPropertyOp29
 70
     1
102
RTVSPropertyOp30
 70
     1
102
RTVSPropertyOp31
 70
     1
102
RTVSPropertyOp32
 70
     1
102
RTVSPropertyOp33
 70
     1
102
RTVSPropertyOp34
 70
     1
102
RTVSPropertyOp35
 70
     1
102
RTVSPropertyOp36
 70
     1
102
RTVSPropertyOp37
 70
     1
102
RTVSPropertyOp38
 70
     1
102
RTVSPropertyOp39
 70
     1
102
RTVSPropertyOp40
 70
     1
102
RTVSPropertyOp41
 70
     1
102
RTVSPropertyOp42
 70
     1
102
RTVSPropertyOp43
 70
     1
102
RTVSPropertyOp44
 70
     1
102
RTVSPropertyOp45
 70
     1
102
RTVSPropertyOp46
 70
     1
102
RTVSPropertyOp47
 70
     1
102
RTVSPropertyOp48
 70
     1
102
RTVSPropertyOp49
 70
     1
102
RTVSPropertyOp50
 70
     1
102
RTVSPropertyOp51
 70
     0
102
RTVSPropertyOp52
 70
     0
102
RTVSPropertyOp53
 70
     1
102
RTVSPropertyOp54
 70
     1
102
RTVSPropertyOp55
 70
     1
102
RTVSPropertyOp56
 70
     1
102
RTVSPropertyOp57
 70
     1
102
RTVSPropertyOp58
 70
     1
102
RTVSPropertyOp59
 70
     1
102
RTVSPropertyOp60
 70
     1
102
RTVSPropertyOp61
 70
     1
102
RTVSPropertyOp62
 70
     1
  0
XRECORD
  5
17B47
102
{ACAD_REACTORS
330
17B46
102
}
330
17B46
100
AcDbXrecord
280
     1
102
RTVSPost2010Prop28
280
     0
102
RTVSPost2010PropOp28
 70
     1
102
RTVSPost2010Prop29
280
     1
102
RTVSPost2010PropOp29
 70
     1
102
RTVSPost2010Prop30
280
     1
102
RTVSPost2010PropOp30
 70
     1
102
RTVSPost2010Prop31
280
     0
102
RTVSPost2010PropOp31
 70
     1
102
RTVSPost2010Prop32
280
     0
102
RTVSPost2010PropOp32
 70
     1
102
RTVSPost2010Prop33
280
     0
102
RTVSPost2010PropOp33
 70
     1
102
RTVSPost2010Prop34
280
     0
102
RTVSPost2010PropOp34
 70
     1
102
RTVSPost2010Prop35
280
     0
102
RTVSPost2010PropOp35
 70
     1
102
RTVSPost2010Prop36
280
     0
102
RTVSPost2010PropOp36
 70
     1
102
RTVSPost2010Prop37
 90
       50
102
RTVSPost2010PropOp37
 70
     1
102
RTVSPost2010Prop38
140
0.0
102
RTVSPost2010PropOp38
 70
     1
102
RTVSPost2010Prop39
140
1.0
102
RTVSPost2010PropOp39
 70
     1
102
RTVSPost2010Prop40
 90
        0
102
RTVSPost2010PropOp40
 70
     1
102
RTVSPost2010Prop41ColorIndex
 90
       18
102
RTVSPost2010Prop41ColorRGB
 90
        0
102
RTVSPost2010PropOp41
 70
     1
102
RTVSPost2010Prop42
 90
       50
102
RTVSPost2010PropOp42
 70
     1
102
RTVSPost2010Prop43
 90
        3
102
RTVSPost2010PropOp43
 70
     1
102
RTVSPost2010Prop44ColorIndex
 90
        5
102
RTVSPost2010Prop44ColorRGB
 90
      255
102
RTVSPost2010PropOp44
 70
     1
102
RTVSPost2010Prop45
280
     0
102
RTVSPost2010PropOp45
 70
     1
102
RTVSPost2010Prop46
 90
       50
102
RTVSPost2010PropOp46
 70
     1
102
RTVSPost2010Prop47
 90
       50
102
RTVSPost2010PropOp47
 70
     1
102
RTVSPost2010Prop48
 90
       50
102
RTVSPost2010PropOp48
 70
     1
102
RTVSPost2010Prop49
280
     0
102
RTVSPost2010PropOp49
 70
     1
102
RTVSPost2010Prop50
 90
       50
102
RTVSPost2010PropOp50
 70
     1
102
RTVSPost2010Prop51ColorIndex
 90
      256
102
RTVSPost2010Prop51ColorRGB
 90
-16777216
102
RTVSPost2010PropOp51
 70
     0
102
RTVSPost2010Prop52
140
1.0
102
RTVSPost2010PropOp52
 70
     0
102
RTVSPost2010Prop53
 90
        2
102
RTVSPost2010PropOp53
 70
     1
102
RTVSPost2010Prop54
  1
strokes_ogs.tif
102
RTVSPost2010PropOp54
 70
     1
102
RTVSPost2010Prop55
280
     0
102
RTVSPost2010PropOp55
 70
     1
102
RTVSPost2010Prop56
140
1.0
102
RTVSPost2010PropOp56
 70
     1
102
RTVSPost2010Prop57
140
1.0
102
RTVSPost2010PropOp57
 70
     1
102
RTVSPropertyOp0
 70
     1
102
RTVSPropertyOp1
 70
     1
102
RTVSPropertyOp2
 70
     1
102
RTVSPropertyOp3
 70
     1
102
RTVSPropertyOp4
 70
     1
102
RTVSPropertyOp5
 70
     1
102
RTVSPropertyOp6
 70
     1
102
RTVSPropertyOp7
 70
     1
102
RTVSPropertyOp8
 70
     1
102
RTVSPropertyOp9
 70
     1
102
RTVSPropertyOp10
 70
     1
102
RTVSPropertyOp11
 70
     1
102
RTVSPropertyOp12
 70
     1
102
RTVSPropertyOp13
 70
     1
102
RTVSPropertyOp14
 70
     1
102
RTVSPropertyOp15
 70
     1
102
RTVSPropertyOp16
 70
     1
102
RTVSPropertyOp17
 70
     1
102
RTVSPropertyOp18
 70
     1
102
RTVSPropertyOp19
 70
     1
102
RTVSPropertyOp20
 70
     1
102
RTVSPropertyOp21
 70
     1
102
RTVSPropertyOp22
 70
     1
102
RTVSPropertyOp23
 70
     1
102
RTVSPropertyOp24
 70
     1
102
RTVSPropertyOp25
 70
     1
102
RTVSPropertyOp26
 70
     1
102
RTVSPropertyOp27
 70
     1
102
RTVSPropertyOp28
 70
     1
102
RTVSPropertyOp29
 70
     1
102
RTVSPropertyOp30
 70
     1
102
RTVSPropertyOp31
 70
     1
102
RTVSPropertyOp32
 70
     1
102
RTVSPropertyOp33
 70
     1
102
RTVSPropertyOp34
 70
     1
102
RTVSPropertyOp35
 70
     1
102
RTVSPropertyOp36
 70
     1
102
RTVSPropertyOp37
 70
     1
102
RTVSPropertyOp38
 70
     1
102
RTVSPropertyOp39
 70
     1
102
RTVSPropertyOp40
 70
     1
102
RTVSPropertyOp41
 70
     1
102
RTVSPropertyOp42
 70
     1
102
RTVSPropertyOp43
 70
     1
102
RTVSPropertyOp44
 70
     1
102
RTVSPropertyOp45
 70
     1
102
RTVSPropertyOp46
 70
     1
102
RTVSPropertyOp47
 70
     1
102
RTVSPropertyOp48
 70
     1
102
RTVSPropertyOp49
 70
     1
102
RTVSPropertyOp50
 70
     1
102
RTVSPropertyOp51
 70
     0
102
RTVSPropertyOp52
 70
     0
102
RTVSPropertyOp53
 70
     1
102
RTVSPropertyOp54
 70
     1
102
RTVSPropertyOp55
 70
     1
102
RTVSPropertyOp56
 70
     1
102
RTVSPropertyOp57
 70
     1
102
RTVSPropertyOp58
 70
     1
102
RTVSPropertyOp59
 70
     1
102
RTVSPropertyOp60
 70
     1
102
RTVSPropertyOp61
 70
     1
102
RTVSPropertyOp62
 70
     1
  0
XRECORD
  5
17B55
102
{ACAD_REACTORS
330
17B54
102
}
330
17B54
100
AcDbXrecord
280
     1
102
RTVSPost2010Prop28
280
     0
102
RTVSPost2010PropOp28
 70
     1
102
RTVSPost2010Prop29
280
     1
102
RTVSPost2010PropOp29
 70
     1
102
RTVSPost2010Prop30
280
     1
102
RTVSPost2010PropOp30
 70
     1
102
RTVSPost2010Prop31
280
     0
102
RTVSPost2010PropOp31
 70
     1
102
RTVSPost2010Prop32
280
     0
102
RTVSPost2010PropOp32
 70
     1
102
RTVSPost2010Prop33
280
     0
102
RTVSPost2010PropOp33
 70
     1
102
RTVSPost2010Prop34
280
     0
102
RTVSPost2010PropOp34
 70
     1
102
RTVSPost2010Prop35
280
     0
102
RTVSPost2010PropOp35
 70
     1
102
RTVSPost2010Prop36
280
     0
102
RTVSPost2010PropOp36
 70
     1
102
RTVSPost2010Prop37
 90
       50
102
RTVSPost2010PropOp37
 70
     1
102
RTVSPost2010Prop38
140
0.0
102
RTVSPost2010PropOp38
 70
     1
102
RTVSPost2010Prop39
140
1.0
102
RTVSPost2010PropOp39
 70
     1
102
RTVSPost2010Prop40
 90
        0
102
RTVSPost2010PropOp40
 70
     1
102
RTVSPost2010Prop41ColorIndex
 90
       18
102
RTVSPost2010Prop41ColorRGB
 90
        0
102
RTVSPost2010PropOp41
 70
     1
102
RTVSPost2010Prop42
 90
       50
102
RTVSPost2010PropOp42
 70
     1
102
RTVSPost2010Prop43
 90
        3
102
RTVSPost2010PropOp43
 70
     1
102
RTVSPost2010Prop44ColorIndex
 90
        5
102
RTVSPost2010Prop44ColorRGB
 90
      255
102
RTVSPost2010PropOp44
 70
     1
102
RTVSPost2010Prop45
280
     0
102
RTVSPost2010PropOp45
 70
     1
102
RTVSPost2010Prop46
 90
       50
102
RTVSPost2010PropOp46
 70
     1
102
RTVSPost2010Prop47
 90
       50
102
RTVSPost2010PropOp47
 70
     1
102
RTVSPost2010Prop48
 90
       50
102
RTVSPost2010PropOp48
 70
     1
102
RTVSPost2010Prop49
280
     0
102
RTVSPost2010PropOp49
 70
     1
102
RTVSPost2010Prop50
 90
       50
102
RTVSPost2010PropOp50
 70
     1
102
RTVSPost2010Prop51ColorIndex
 90
      256
102
RTVSPost2010Prop51ColorRGB
 90
-16777216
102
RTVSPost2010PropOp51
 70
     0
102
RTVSPost2010Prop52
140
1.0
102
RTVSPost2010PropOp52
 70
     0
102
RTVSPost2010Prop53
 90
        2
102
RTVSPost2010PropOp53
 70
     1
102
RTVSPost2010Prop54
  1
strokes_ogs.tif
102
RTVSPost2010PropOp54
 70
     1
102
RTVSPost2010Prop55
280
     0
102
RTVSPost2010PropOp55
 70
     1
102
RTVSPost2010Prop56
140
1.0
102
RTVSPost2010PropOp56
 70
     1
102
RTVSPost2010Prop57
140
1.0
102
RTVSPost2010PropOp57
 70
     1
102
RTVSPropertyOp0
 70
     1
102
RTVSPropertyOp1
 70
     1
102
RTVSPropertyOp2
 70
     1
102
RTVSPropertyOp3
 70
     1
102
RTVSPropertyOp4
 70
     1
102
RTVSPropertyOp5
 70
     1
102
RTVSPropertyOp6
 70
     1
102
RTVSPropertyOp7
 70
     1
102
RTVSPropertyOp8
 70
     1
102
RTVSPropertyOp9
 70
     1
102
RTVSPropertyOp10
 70
     1
102
RTVSPropertyOp11
 70
     1
102
RTVSPropertyOp12
 70
     1
102
RTVSPropertyOp13
 70
     1
102
RTVSPropertyOp14
 70
     1
102
RTVSPropertyOp15
 70
     1
102
RTVSPropertyOp16
 70
     1
102
RTVSPropertyOp17
 70
     1
102
RTVSPropertyOp18
 70
     1
102
RTVSPropertyOp19
 70
     1
102
RTVSPropertyOp20
 70
     1
102
RTVSPropertyOp21
 70
     1
102
RTVSPropertyOp22
 70
     1
102
RTVSPropertyOp23
 70
     1
102
RTVSPropertyOp24
 70
     1
102
RTVSPropertyOp25
 70
     1
102
RTVSPropertyOp26
 70
     1
102
RTVSPropertyOp27
 70
     1
102
RTVSPropertyOp28
 70
     1
102
RTVSPropertyOp29
 70
     1
102
RTVSPropertyOp30
 70
     1
102
RTVSPropertyOp31
 70
     1
102
RTVSPropertyOp32
 70
     1
102
RTVSPropertyOp33
 70
     1
102
RTVSPropertyOp34
 70
     1
102
RTVSPropertyOp35
 70
     1
102
RTVSPropertyOp36
 70
     1
102
RTVSPropertyOp37
 70
     1
102
RTVSPropertyOp38
 70
     1
102
RTVSPropertyOp39
 70
     1
102
RTVSPropertyOp40
 70
     1
102
RTVSPropertyOp41
 70
     1
102
RTVSPropertyOp42
 70
     1
102
RTVSPropertyOp43
 70
     1
102
RTVSPropertyOp44
 70
     1
102
RTVSPropertyOp45
 70
     1
102
RTVSPropertyOp46
 70
     1
102
RTVSPropertyOp47
 70
     1
102
RTVSPropertyOp48
 70
     1
102
RTVSPropertyOp49
 70
     1
102
RTVSPropertyOp50
 70
     1
102
RTVSPropertyOp51
 70
     0
102
RTVSPropertyOp52
 70
     0
102
RTVSPropertyOp53
 70
     1
102
RTVSPropertyOp54
 70
     1
102
RTVSPropertyOp55
 70
     1
102
RTVSPropertyOp56
 70
     1
102
RTVSPropertyOp57
 70
     1
102
RTVSPropertyOp58
 70
     1
102
RTVSPropertyOp59
 70
     1
102
RTVSPropertyOp60
 70
     1
102
RTVSPropertyOp61
 70
     1
102
RTVSPropertyOp62
 70
     1
  0
XRECORD
  5
17B5D
102
{ACAD_REACTORS
330
17B5C
102
}
330
17B5C
100
AcDbXrecord
280
     1
102
RTVSPost2010Prop28
280
     0
102
RTVSPost2010PropOp28
 70
     1
102
RTVSPost2010Prop29
280
     1
102
RTVSPost2010PropOp29
 70
     1
102
RTVSPost2010Prop30
280
     1
102
RTVSPost2010PropOp30
 70
     1
102
RTVSPost2010Prop31
280
     0
102
RTVSPost2010PropOp31
 70
     1
102
RTVSPost2010Prop32
280
     0
102
RTVSPost2010PropOp32
 70
     1
102
RTVSPost2010Prop33
280
     0
102
RTVSPost2010PropOp33
 70
     1
102
RTVSPost2010Prop34
280
     0
102
RTVSPost2010PropOp34
 70
     1
102
RTVSPost2010Prop35
280
     0
102
RTVSPost2010PropOp35
 70
     1
102
RTVSPost2010Prop36
280
     0
102
RTVSPost2010PropOp36
 70
     1
102
RTVSPost2010Prop37
 90
       50
102
RTVSPost2010PropOp37
 70
     1
102
RTVSPost2010Prop38
140
0.0
102
RTVSPost2010PropOp38
 70
     1
102
RTVSPost2010Prop39
140
1.0
102
RTVSPost2010PropOp39
 70
     1
102
RTVSPost2010Prop40
 90
        0
102
RTVSPost2010PropOp40
 70
     1
102
RTVSPost2010Prop41ColorIndex
 90
       18
102
RTVSPost2010Prop41ColorRGB
 90
        0
102
RTVSPost2010PropOp41
 70
     1
102
RTVSPost2010Prop42
 90
       50
102
RTVSPost2010PropOp42
 70
     1
102
RTVSPost2010Prop43
 90
        3
102
RTVSPost2010PropOp43
 70
     1
102
RTVSPost2010Prop44ColorIndex
 90
        5
102
RTVSPost2010Prop44ColorRGB
 90
      255
102
RTVSPost2010PropOp44
 70
     1
102
RTVSPost2010Prop45
280
     0
102
RTVSPost2010PropOp45
 70
     1
102
RTVSPost2010Prop46
 90
       50
102
RTVSPost2010PropOp46
 70
     1
102
RTVSPost2010Prop47
 90
       50
102
RTVSPost2010PropOp47
 70
     1
102
RTVSPost2010Prop48
 90
       50
102
RTVSPost2010PropOp48
 70
     1
102
RTVSPost2010Prop49
280
     0
102
RTVSPost2010PropOp49
 70
     1
102
RTVSPost2010Prop50
 90
       50
102
RTVSPost2010PropOp50
 70
     1
102
RTVSPost2010Prop51ColorIndex
 90
      256
102
RTVSPost2010Prop51ColorRGB
 90
-16777216
102
RTVSPost2010PropOp51
 70
     0
102
RTVSPost2010Prop52
140
1.0
102
RTVSPost2010PropOp52
 70
     0
102
RTVSPost2010Prop53
 90
        2
102
RTVSPost2010PropOp53
 70
     1
102
RTVSPost2010Prop54
  1
strokes_ogs.tif
102
RTVSPost2010PropOp54
 70
     1
102
RTVSPost2010Prop55
280
     0
102
RTVSPost2010PropOp55
 70
     1
102
RTVSPost2010Prop56
140
1.0
102
RTVSPost2010PropOp56
 70
     1
102
RTVSPost2010Prop57
140
1.0
102
RTVSPost2010PropOp57
 70
     1
102
RTVSPropertyOp0
 70
     1
102
RTVSPropertyOp1
 70
     1
102
RTVSPropertyOp2
 70
     1
102
RTVSPropertyOp3
 70
     1
102
RTVSPropertyOp4
 70
     1
102
RTVSPropertyOp5
 70
     1
102
RTVSPropertyOp6
 70
     1
102
RTVSPropertyOp7
 70
     1
102
RTVSPropertyOp8
 70
     1
102
RTVSPropertyOp9
 70
     1
102
RTVSPropertyOp10
 70
     1
102
RTVSPropertyOp11
 70
     1
102
RTVSPropertyOp12
 70
     1
102
RTVSPropertyOp13
 70
     1
102
RTVSPropertyOp14
 70
     1
102
RTVSPropertyOp15
 70
     1
102
RTVSPropertyOp16
 70
     1
102
RTVSPropertyOp17
 70
     1
102
RTVSPropertyOp18
 70
     1
102
RTVSPropertyOp19
 70
     1
102
RTVSPropertyOp20
 70
     1
102
RTVSPropertyOp21
 70
     1
102
RTVSPropertyOp22
 70
     1
102
RTVSPropertyOp23
 70
     1
102
RTVSPropertyOp24
 70
     1
102
RTVSPropertyOp25
 70
     1
102
RTVSPropertyOp26
 70
     1
102
RTVSPropertyOp27
 70
     1
102
RTVSPropertyOp28
 70
     1
102
RTVSPropertyOp29
 70
     1
102
RTVSPropertyOp30
 70
     1
102
RTVSPropertyOp31
 70
     1
102
RTVSPropertyOp32
 70
     1
102
RTVSPropertyOp33
 70
     1
102
RTVSPropertyOp34
 70
     1
102
RTVSPropertyOp35
 70
     1
102
RTVSPropertyOp36
 70
     1
102
RTVSPropertyOp37
 70
     1
102
RTVSPropertyOp38
 70
     1
102
RTVSPropertyOp39
 70
     1
102
RTVSPropertyOp40
 70
     1
102
RTVSPropertyOp41
 70
     1
102
RTVSPropertyOp42
 70
     1
102
RTVSPropertyOp43
 70
     1
102
RTVSPropertyOp44
 70
     1
102
RTVSPropertyOp45
 70
     1
102
RTVSPropertyOp46
 70
     1
102
RTVSPropertyOp47
 70
     1
102
RTVSPropertyOp48
 70
     1
102
RTVSPropertyOp49
 70
     1
102
RTVSPropertyOp50
 70
     1
102
RTVSPropertyOp51
 70
     0
102
RTVSPropertyOp52
 70
     0
102
RTVSPropertyOp53
 70
     1
102
RTVSPropertyOp54
 70
     1
102
RTVSPropertyOp55
 70
     1
102
RTVSPropertyOp56
 70
     1
102
RTVSPropertyOp57
 70
     1
102
RTVSPropertyOp58
 70
     1
102
RTVSPropertyOp59
 70
     1
102
RTVSPropertyOp60
 70
     1
102
RTVSPropertyOp61
 70
     1
102
RTVSPropertyOp62
 70
     1
  0
XRECORD
  5
17B4F
102
{ACAD_REACTORS
330
17B4E
102
}
330
17B4E
100
AcDbXrecord
280
     1
102
RTVSPost2010Prop28
280
     0
102
RTVSPost2010PropOp28
 70
     1
102
RTVSPost2010Prop29
280
     1
102
RTVSPost2010PropOp29
 70
     1
102
RTVSPost2010Prop30
280
     1
102
RTVSPost2010PropOp30
 70
     1
102
RTVSPost2010Prop31
280
     0
102
RTVSPost2010PropOp31
 70
     1
102
RTVSPost2010Prop32
280
     0
102
RTVSPost2010PropOp32
 70
     1
102
RTVSPost2010Prop33
280
     0
102
RTVSPost2010PropOp33
 70
     1
102
RTVSPost2010Prop34
280
     0
102
RTVSPost2010PropOp34
 70
     1
102
RTVSPost2010Prop35
280
     0
102
RTVSPost2010PropOp35
 70
     1
102
RTVSPost2010Prop36
280
     0
102
RTVSPost2010PropOp36
 70
     1
102
RTVSPost2010Prop37
 90
       50
102
RTVSPost2010PropOp37
 70
     1
102
RTVSPost2010Prop38
140
0.0
102
RTVSPost2010PropOp38
 70
     1
102
RTVSPost2010Prop39
140
1.0
102
RTVSPost2010PropOp39
 70
     1
102
RTVSPost2010Prop40
 90
        0
102
RTVSPost2010PropOp40
 70
     1
102
RTVSPost2010Prop41ColorIndex
 90
       18
102
RTVSPost2010Prop41ColorRGB
 90
        0
102
RTVSPost2010PropOp41
 70
     1
102
RTVSPost2010Prop42
 90
       50
102
RTVSPost2010PropOp42
 70
     1
102
RTVSPost2010Prop43
 90
        3
102
RTVSPost2010PropOp43
 70
     1
102
RTVSPost2010Prop44ColorIndex
 90
        5
102
RTVSPost2010Prop44ColorRGB
 90
      255
102
RTVSPost2010PropOp44
 70
     1
102
RTVSPost2010Prop45
280
     0
102
RTVSPost2010PropOp45
 70
     1
102
RTVSPost2010Prop46
 90
       50
102
RTVSPost2010PropOp46
 70
     1
102
RTVSPost2010Prop47
 90
       50
102
RTVSPost2010PropOp47
 70
     1
102
RTVSPost2010Prop48
 90
       50
102
RTVSPost2010PropOp48
 70
     1
102
RTVSPost2010Prop49
280
     0
102
RTVSPost2010PropOp49
 70
     1
102
RTVSPost2010Prop50
 90
       50
102
RTVSPost2010PropOp50
 70
     1
102
RTVSPost2010Prop51ColorIndex
 90
      256
102
RTVSPost2010Prop51ColorRGB
 90
-16777216
102
RTVSPost2010PropOp51
 70
     0
102
RTVSPost2010Prop52
140
1.0
102
RTVSPost2010PropOp52
 70
     0
102
RTVSPost2010Prop53
 90
        2
102
RTVSPost2010PropOp53
 70
     1
102
RTVSPost2010Prop54
  1
strokes_ogs.tif
102
RTVSPost2010PropOp54
 70
     1
102
RTVSPost2010Prop55
280
     0
102
RTVSPost2010PropOp55
 70
     1
102
RTVSPost2010Prop56
140
1.0
102
RTVSPost2010PropOp56
 70
     1
102
RTVSPost2010Prop57
140
1.0
102
RTVSPost2010PropOp57
 70
     1
102
RTVSPropertyOp0
 70
     1
102
RTVSPropertyOp1
 70
     1
102
RTVSPropertyOp2
 70
     1
102
RTVSPropertyOp3
 70
     1
102
RTVSPropertyOp4
 70
     1
102
RTVSPropertyOp5
 70
     1
102
RTVSPropertyOp6
 70
     1
102
RTVSPropertyOp7
 70
     1
102
RTVSPropertyOp8
 70
     1
102
RTVSPropertyOp9
 70
     1
102
RTVSPropertyOp10
 70
     1
102
RTVSPropertyOp11
 70
     1
102
RTVSPropertyOp12
 70
     1
102
RTVSPropertyOp13
 70
     1
102
RTVSPropertyOp14
 70
     1
102
RTVSPropertyOp15
 70
     1
102
RTVSPropertyOp16
 70
     1
102
RTVSPropertyOp17
 70
     1
102
RTVSPropertyOp18
 70
     1
102
RTVSPropertyOp19
 70
     1
102
RTVSPropertyOp20
 70
     1
102
RTVSPropertyOp21
 70
     1
102
RTVSPropertyOp22
 70
     1
102
RTVSPropertyOp23
 70
     1
102
RTVSPropertyOp24
 70
     1
102
RTVSPropertyOp25
 70
     1
102
RTVSPropertyOp26
 70
     1
102
RTVSPropertyOp27
 70
     1
102
RTVSPropertyOp28
 70
     1
102
RTVSPropertyOp29
 70
     1
102
RTVSPropertyOp30
 70
     1
102
RTVSPropertyOp31
 70
     1
102
RTVSPropertyOp32
 70
     1
102
RTVSPropertyOp33
 70
     1
102
RTVSPropertyOp34
 70
     1
102
RTVSPropertyOp35
 70
     1
102
RTVSPropertyOp36
 70
     1
102
RTVSPropertyOp37
 70
     1
102
RTVSPropertyOp38
 70
     1
102
RTVSPropertyOp39
 70
     1
102
RTVSPropertyOp40
 70
     1
102
RTVSPropertyOp41
 70
     1
102
RTVSPropertyOp42
 70
     1
102
RTVSPropertyOp43
 70
     1
102
RTVSPropertyOp44
 70
     1
102
RTVSPropertyOp45
 70
     1
102
RTVSPropertyOp46
 70
     1
102
RTVSPropertyOp47
 70
     1
102
RTVSPropertyOp48
 70
     1
102
RTVSPropertyOp49
 70
     1
102
RTVSPropertyOp50
 70
     1
102
RTVSPropertyOp51
 70
     0
102
RTVSPropertyOp52
 70
     0
102
RTVSPropertyOp53
 70
     1
102
RTVSPropertyOp54
 70
     1
102
RTVSPropertyOp55
 70
     1
102
RTVSPropertyOp56
 70
     1
102
RTVSPropertyOp57
 70
     1
102
RTVSPropertyOp58
 70
     1
102
RTVSPropertyOp59
 70
     1
102
RTVSPropertyOp60
 70
     1
102
RTVSPropertyOp61
 70
     1
102
RTVSPropertyOp62
 70
     1
  0
XRECORD
  5
17B53
102
{ACAD_REACTORS
330
17B52
102
}
330
17B52
100
AcDbXrecord
280
     1
102
RTVSPost2010Prop28
280
     0
102
RTVSPost2010PropOp28
 70
     1
102
RTVSPost2010Prop29
280
     1
102
RTVSPost2010PropOp29
 70
     1
102
RTVSPost2010Prop30
280
     1
102
RTVSPost2010PropOp30
 70
     1
102
RTVSPost2010Prop31
280
     0
102
RTVSPost2010PropOp31
 70
     1
102
RTVSPost2010Prop32
280
     0
102
RTVSPost2010PropOp32
 70
     1
102
RTVSPost2010Prop33
280
     0
102
RTVSPost2010PropOp33
 70
     1
102
RTVSPost2010Prop34
280
     0
102
RTVSPost2010PropOp34
 70
     1
102
RTVSPost2010Prop35
280
     0
102
RTVSPost2010PropOp35
 70
     1
102
RTVSPost2010Prop36
280
     0
102
RTVSPost2010PropOp36
 70
     1
102
RTVSPost2010Prop37
 90
       50
102
RTVSPost2010PropOp37
 70
     1
102
RTVSPost2010Prop38
140
0.0
102
RTVSPost2010PropOp38
 70
     1
102
RTVSPost2010Prop39
140
1.0
102
RTVSPost2010PropOp39
 70
     1
102
RTVSPost2010Prop40
 90
        0
102
RTVSPost2010PropOp40
 70
     1
102
RTVSPost2010Prop41ColorIndex
 90
       18
102
RTVSPost2010Prop41ColorRGB
 90
        0
102
RTVSPost2010PropOp41
 70
     1
102
RTVSPost2010Prop42
 90
       50
102
RTVSPost2010PropOp42
 70
     1
102
RTVSPost2010Prop43
 90
        3
102
RTVSPost2010PropOp43
 70
     1
102
RTVSPost2010Prop44ColorIndex
 90
        5
102
RTVSPost2010Prop44ColorRGB
 90
      255
102
RTVSPost2010PropOp44
 70
     1
102
RTVSPost2010Prop45
280
     0
102
RTVSPost2010PropOp45
 70
     1
102
RTVSPost2010Prop46
 90
       50
102
RTVSPost2010PropOp46
 70
     1
102
RTVSPost2010Prop47
 90
       50
102
RTVSPost2010PropOp47
 70
     1
102
RTVSPost2010Prop48
 90
       50
102
RTVSPost2010PropOp48
 70
     1
102
RTVSPost2010Prop49
280
     0
102
RTVSPost2010PropOp49
 70
     1
102
RTVSPost2010Prop50
 90
       50
102
RTVSPost2010PropOp50
 70
     1
102
RTVSPost2010Prop51ColorIndex
 90
      256
102
RTVSPost2010Prop51ColorRGB
 90
-16777216
102
RTVSPost2010PropOp51
 70
     0
102
RTVSPost2010Prop52
140
1.0
102
RTVSPost2010PropOp52
 70
     0
102
RTVSPost2010Prop53
 90
        2
102
RTVSPost2010PropOp53
 70
     1
102
RTVSPost2010Prop54
  1
strokes_ogs.tif
102
RTVSPost2010PropOp54
 70
     1
102
RTVSPost2010Prop55
280
     0
102
RTVSPost2010PropOp55
 70
     1
102
RTVSPost2010Prop56
140
1.0
102
RTVSPost2010PropOp56
 70
     1
102
RTVSPost2010Prop57
140
1.0
102
RTVSPost2010PropOp57
 70
     1
102
RTVSPropertyOp0
 70
     1
102
RTVSPropertyOp1
 70
     1
102
RTVSPropertyOp2
 70
     1
102
RTVSPropertyOp3
 70
     1
102
RTVSPropertyOp4
 70
     1
102
RTVSPropertyOp5
 70
     1
102
RTVSPropertyOp6
 70
     1
102
RTVSPropertyOp7
 70
     1
102
RTVSPropertyOp8
 70
     1
102
RTVSPropertyOp9
 70
     1
102
RTVSPropertyOp10
 70
     1
102
RTVSPropertyOp11
 70
     1
102
RTVSPropertyOp12
 70
     1
102
RTVSPropertyOp13
 70
     1
102
RTVSPropertyOp14
 70
     1
102
RTVSPropertyOp15
 70
     1
102
RTVSPropertyOp16
 70
     1
102
RTVSPropertyOp17
 70
     1
102
RTVSPropertyOp18
 70
     1
102
RTVSPropertyOp19
 70
     1
102
RTVSPropertyOp20
 70
     1
102
RTVSPropertyOp21
 70
     1
102
RTVSPropertyOp22
 70
     1
102
RTVSPropertyOp23
 70
     1
102
RTVSPropertyOp24
 70
     1
102
RTVSPropertyOp25
 70
     1
102
RTVSPropertyOp26
 70
     1
102
RTVSPropertyOp27
 70
     1
102
RTVSPropertyOp28
 70
     1
102
RTVSPropertyOp29
 70
     1
102
RTVSPropertyOp30
 70
     1
102
RTVSPropertyOp31
 70
     1
102
RTVSPropertyOp32
 70
     1
102
RTVSPropertyOp33
 70
     1
102
RTVSPropertyOp34
 70
     1
102
RTVSPropertyOp35
 70
     1
102
RTVSPropertyOp36
 70
     1
102
RTVSPropertyOp37
 70
     1
102
RTVSPropertyOp38
 70
     1
102
RTVSPropertyOp39
 70
     1
102
RTVSPropertyOp40
 70
     1
102
RTVSPropertyOp41
 70
     1
102
RTVSPropertyOp42
 70
     1
102
RTVSPropertyOp43
 70
     1
102
RTVSPropertyOp44
 70
     1
102
RTVSPropertyOp45
 70
     1
102
RTVSPropertyOp46
 70
     1
102
RTVSPropertyOp47
 70
     1
102
RTVSPropertyOp48
 70
     1
102
RTVSPropertyOp49
 70
     1
102
RTVSPropertyOp50
 70
     1
102
RTVSPropertyOp51
 70
     0
102
RTVSPropertyOp52
 70
     0
102
RTVSPropertyOp53
 70
     1
102
RTVSPropertyOp54
 70
     1
102
RTVSPropertyOp55
 70
     1
102
RTVSPropertyOp56
 70
     1
102
RTVSPropertyOp57
 70
     1
102
RTVSPropertyOp58
 70
     1
102
RTVSPropertyOp59
 70
     1
102
RTVSPropertyOp60
 70
     1
102
RTVSPropertyOp61
 70
     1
102
RTVSPropertyOp62
 70
     1
  0
XRECORD
  5
17B6D
102
{ACAD_REACTORS
330
17B6C
102
}
330
17B6C
100
AcDbXrecord
280
     1
102
RTVSPost2010Prop28
280
     0
102
RTVSPost2010PropOp28
 70
     1
102
RTVSPost2010Prop29
280
     1
102
RTVSPost2010PropOp29
 70
     1
102
RTVSPost2010Prop30
280
     1
102
RTVSPost2010PropOp30
 70
     1
102
RTVSPost2010Prop31
280
     0
102
RTVSPost2010PropOp31
 70
     1
102
RTVSPost2010Prop32
280
     0
102
RTVSPost2010PropOp32
 70
     1
102
RTVSPost2010Prop33
280
     0
102
RTVSPost2010PropOp33
 70
     1
102
RTVSPost2010Prop34
280
     0
102
RTVSPost2010PropOp34
 70
     1
102
RTVSPost2010Prop35
280
     0
102
RTVSPost2010PropOp35
 70
     1
102
RTVSPost2010Prop36
280
     0
102
RTVSPost2010PropOp36
 70
     1
102
RTVSPost2010Prop37
 90
       50
102
RTVSPost2010PropOp37
 70
     0
102
RTVSPost2010Prop38
140
0.0
102
RTVSPost2010PropOp38
 70
     0
102
RTVSPost2010Prop39
140
1.0
102
RTVSPost2010PropOp39
 70
     0
102
RTVSPost2010Prop40
 90
        0
102
RTVSPost2010PropOp40
 70
     0
102
RTVSPost2010Prop41ColorIndex
 90
       18
102
RTVSPost2010Prop41ColorRGB
 90
        0
102
RTVSPost2010PropOp41
 70
     0
102
RTVSPost2010Prop42
 90
       50
102
RTVSPost2010PropOp42
 70
     0
102
RTVSPost2010Prop43
 90
        3
102
RTVSPost2010PropOp43
 70
     0
102
RTVSPost2010Prop44ColorIndex
 90
        5
102
RTVSPost2010Prop44ColorRGB
 90
      255
102
RTVSPost2010PropOp44
 70
     0
102
RTVSPost2010Prop45
280
     0
102
RTVSPost2010PropOp45
 70
     1
102
RTVSPost2010Prop46
 90
       50
102
RTVSPost2010PropOp46
 70
     0
102
RTVSPost2010Prop47
 90
       50
102
RTVSPost2010PropOp47
 70
     0
102
RTVSPost2010Prop48
 90
       50
102
RTVSPost2010PropOp48
 70
     0
102
RTVSPost2010Prop49
280
     0
102
RTVSPost2010PropOp49
 70
     1
102
RTVSPost2010Prop50
 90
       50
102
RTVSPost2010PropOp50
 70
     0
102
RTVSPost2010Prop51ColorIndex
 90
      256
102
RTVSPost2010Prop51ColorRGB
 90
-16777216
102
RTVSPost2010PropOp51
 70
     0
102
RTVSPost2010Prop52
140
1.0
102
RTVSPost2010PropOp52
 70
     0
102
RTVSPost2010Prop53
 90
        2
102
RTVSPost2010PropOp53
 70
     0
102
RTVSPost2010Prop54
  1
strokes_ogs.tif
102
RTVSPost2010PropOp54
 70
     0
102
RTVSPost2010Prop55
280
     0
102
RTVSPost2010PropOp55
 70
     1
102
RTVSPost2010Prop56
140
1.0
102
RTVSPost2010PropOp56
 70
     0
102
RTVSPost2010Prop57
140
1.0
102
RTVSPost2010PropOp57
 70
     0
102
RTVSPropertyOp0
 70
     0
102
RTVSPropertyOp1
 70
     0
102
RTVSPropertyOp2
 70
     0
102
RTVSPropertyOp3
 70
     0
102
RTVSPropertyOp4
 70
     0
102
RTVSPropertyOp5
 70
     0
102
RTVSPropertyOp6
 70
     0
102
RTVSPropertyOp7
 70
     0
102
RTVSPropertyOp8
 70
     0
102
RTVSPropertyOp9
 70
     0
102
RTVSPropertyOp10
 70
     0
102
RTVSPropertyOp11
 70
     0
102
RTVSPropertyOp12
 70
     0
102
RTVSPropertyOp13
 70
     0
102
RTVSPropertyOp14
 70
     2
102
RTVSPropertyOp15
 70
     0
102
RTVSPropertyOp16
 70
     0
102
RTVSPropertyOp17
 70
     0
102
RTVSPropertyOp18
 70
     0
102
RTVSPropertyOp19
 70
     0
102
RTVSPropertyOp20
 70
     0
102
RTVSPropertyOp21
 70
     0
102
RTVSPropertyOp22
 70
     0
102
RTVSPropertyOp23
 70
     0
102
RTVSPropertyOp24
 70
     0
102
RTVSPropertyOp25
 70
     0
102
RTVSPropertyOp26
 70
     0
102
RTVSPropertyOp27
 70
     0
102
RTVSPropertyOp28
 70
     1
102
RTVSPropertyOp29
 70
     1
102
RTVSPropertyOp30
 70
     1
102
RTVSPropertyOp31
 70
     1
102
RTVSPropertyOp32
 70
     1
102
RTVSPropertyOp33
 70
     1
102
RTVSPropertyOp34
 70
     1
102
RTVSPropertyOp35
 70
     1
102
RTVSPropertyOp36
 70
     1
102
RTVSPropertyOp37
 70
     0
102
RTVSPropertyOp38
 70
     0
102
RTVSPropertyOp39
 70
     0
102
RTVSPropertyOp40
 70
     0
102
RTVSPropertyOp41
 70
     0
102
RTVSPropertyOp42
 70
     0
102
RTVSPropertyOp43
 70
     0
102
RTVSPropertyOp44
 70
     0
102
RTVSPropertyOp45
 70
     1
102
RTVSPropertyOp46
 70
     0
102
RTVSPropertyOp47
 70
     0
102
RTVSPropertyOp48
 70
     0
102
RTVSPropertyOp49
 70
     1
102
RTVSPropertyOp50
 70
     0
102
RTVSPropertyOp51
 70
     0
102
RTVSPropertyOp52
 70
     0
102
RTVSPropertyOp53
 70
     0
102
RTVSPropertyOp54
 70
     0
102
RTVSPropertyOp55
 70
     1
102
RTVSPropertyOp56
 70
     0
102
RTVSPropertyOp57
 70
     0
102
RTVSPropertyOp58
 70
     0
102
RTVSPropertyOp59
 70
     0
102
RTVSPropertyOp60
 70
     0
102
RTVSPropertyOp61
 70
     0
102
RTVSPropertyOp62
 70
     0
  0
XRECORD
  5
17B5B
102
{ACAD_REACTORS
330
17B5A
102
}
330
17B5A
100
AcDbXrecord
280
     1
102
RTVSPost2010Prop28
280
     0
102
RTVSPost2010PropOp28
 70
     1
102
RTVSPost2010Prop29
280
     1
102
RTVSPost2010PropOp29
 70
     1
102
RTVSPost2010Prop30
280
     1
102
RTVSPost2010PropOp30
 70
     1
102
RTVSPost2010Prop31
280
     0
102
RTVSPost2010PropOp31
 70
     1
102
RTVSPost2010Prop32
280
     0
102
RTVSPost2010PropOp32
 70
     1
102
RTVSPost2010Prop33
280
     0
102
RTVSPost2010PropOp33
 70
     1
102
RTVSPost2010Prop34
280
     0
102
RTVSPost2010PropOp34
 70
     1
102
RTVSPost2010Prop35
280
     0
102
RTVSPost2010PropOp35
 70
     1
102
RTVSPost2010Prop36
280
     0
102
RTVSPost2010PropOp36
 70
     1
102
RTVSPost2010Prop37
 90
       50
102
RTVSPost2010PropOp37
 70
     1
102
RTVSPost2010Prop38
140
0.0
102
RTVSPost2010PropOp38
 70
     1
102
RTVSPost2010Prop39
140
1.0
102
RTVSPost2010PropOp39
 70
     1
102
RTVSPost2010Prop40
 90
        0
102
RTVSPost2010PropOp40
 70
     1
102
RTVSPost2010Prop41ColorIndex
 90
       18
102
RTVSPost2010Prop41ColorRGB
 90
        0
102
RTVSPost2010PropOp41
 70
     1
102
RTVSPost2010Prop42
 90
       50
102
RTVSPost2010PropOp42
 70
     1
102
RTVSPost2010Prop43
 90
        3
102
RTVSPost2010PropOp43
 70
     1
102
RTVSPost2010Prop44ColorIndex
 90
        5
102
RTVSPost2010Prop44ColorRGB
 90
      255
102
RTVSPost2010PropOp44
 70
     1
102
RTVSPost2010Prop45
280
     0
102
RTVSPost2010PropOp45
 70
     1
102
RTVSPost2010Prop46
 90
       50
102
RTVSPost2010PropOp46
 70
     1
102
RTVSPost2010Prop47
 90
       50
102
RTVSPost2010PropOp47
 70
     1
102
RTVSPost2010Prop48
 90
       50
102
RTVSPost2010PropOp48
 70
     1
102
RTVSPost2010Prop49
280
     0
102
RTVSPost2010PropOp49
 70
     1
102
RTVSPost2010Prop50
 90
       50
102
RTVSPost2010PropOp50
 70
     1
102
RTVSPost2010Prop51ColorIndex
 90
      256
102
RTVSPost2010Prop51ColorRGB
 90
-16777216
102
RTVSPost2010PropOp51
 70
     0
102
RTVSPost2010Prop52
140
1.0
102
RTVSPost2010PropOp52
 70
     0
102
RTVSPost2010Prop53
 90
        2
102
RTVSPost2010PropOp53
 70
     1
102
RTVSPost2010Prop54
  1
strokes_ogs.tif
102
RTVSPost2010PropOp54
 70
     1
102
RTVSPost2010Prop55
280
     0
102
RTVSPost2010PropOp55
 70
     1
102
RTVSPost2010Prop56
140
1.0
102
RTVSPost2010PropOp56
 70
     1
102
RTVSPost2010Prop57
140
1.0
102
RTVSPost2010PropOp57
 70
     1
102
RTVSPropertyOp0
 70
     1
102
RTVSPropertyOp1
 70
     1
102
RTVSPropertyOp2
 70
     1
102
RTVSPropertyOp3
 70
     1
102
RTVSPropertyOp4
 70
     1
102
RTVSPropertyOp5
 70
     1
102
RTVSPropertyOp6
 70
     1
102
RTVSPropertyOp7
 70
     1
102
RTVSPropertyOp8
 70
     1
102
RTVSPropertyOp9
 70
     1
102
RTVSPropertyOp10
 70
     1
102
RTVSPropertyOp11
 70
     1
102
RTVSPropertyOp12
 70
     1
102
RTVSPropertyOp13
 70
     1
102
RTVSPropertyOp14
 70
     1
102
RTVSPropertyOp15
 70
     1
102
RTVSPropertyOp16
 70
     1
102
RTVSPropertyOp17
 70
     1
102
RTVSPropertyOp18
 70
     1
102
RTVSPropertyOp19
 70
     1
102
RTVSPropertyOp20
 70
     1
102
RTVSPropertyOp21
 70
     1
102
RTVSPropertyOp22
 70
     1
102
RTVSPropertyOp23
 70
     1
102
RTVSPropertyOp24
 70
     1
102
RTVSPropertyOp25
 70
     1
102
RTVSPropertyOp26
 70
     1
102
RTVSPropertyOp27
 70
     1
102
RTVSPropertyOp28
 70
     1
102
RTVSPropertyOp29
 70
     1
102
RTVSPropertyOp30
 70
     1
102
RTVSPropertyOp31
 70
     1
102
RTVSPropertyOp32
 70
     1
102
RTVSPropertyOp33
 70
     1
102
RTVSPropertyOp34
 70
     1
102
RTVSPropertyOp35
 70
     1
102
RTVSPropertyOp36
 70
     1
102
RTVSPropertyOp37
 70
     1
102
RTVSPropertyOp38
 70
     1
102
RTVSPropertyOp39
 70
     1
102
RTVSPropertyOp40
 70
     1
102
RTVSPropertyOp41
 70
     1
102
RTVSPropertyOp42
 70
     1
102
RTVSPropertyOp43
 70
     1
102
RTVSPropertyOp44
 70
     1
102
RTVSPropertyOp45
 70
     1
102
RTVSPropertyOp46
 70
     1
102
RTVSPropertyOp47
 70
     1
102
RTVSPropertyOp48
 70
     1
102
RTVSPropertyOp49
 70
     1
102
RTVSPropertyOp50
 70
     1
102
RTVSPropertyOp51
 70
     0
102
RTVSPropertyOp52
 70
     0
102
RTVSPropertyOp53
 70
     1
102
RTVSPropertyOp54
 70
     1
102
RTVSPropertyOp55
 70
     1
102
RTVSPropertyOp56
 70
     1
102
RTVSPropertyOp57
 70
     1
102
RTVSPropertyOp58
 70
     1
102
RTVSPropertyOp59
 70
     1
102
RTVSPropertyOp60
 70
     1
102
RTVSPropertyOp61
 70
     1
102
RTVSPropertyOp62
 70
     1
  0
XRECORD
  5
17B3F
102
{ACAD_REACTORS
330
17B3E
102
}
330
17B3E
100
AcDbXrecord
280
     1
102
RTVSPost2010Prop28
280
     0
102
RTVSPost2010PropOp28
 70
     1
102
RTVSPost2010Prop29
280
     1
102
RTVSPost2010PropOp29
 70
     1
102
RTVSPost2010Prop30
280
     1
102
RTVSPost2010PropOp30
 70
     1
102
RTVSPost2010Prop31
280
     0
102
RTVSPost2010PropOp31
 70
     1
102
RTVSPost2010Prop32
280
     0
102
RTVSPost2010PropOp32
 70
     1
102
RTVSPost2010Prop33
280
     0
102
RTVSPost2010PropOp33
 70
     1
102
RTVSPost2010Prop34
280
     0
102
RTVSPost2010PropOp34
 70
     1
102
RTVSPost2010Prop35
280
     0
102
RTVSPost2010PropOp35
 70
     1
102
RTVSPost2010Prop36
280
     0
102
RTVSPost2010PropOp36
 70
     1
102
RTVSPost2010Prop37
 90
       50
102
RTVSPost2010PropOp37
 70
     1
102
RTVSPost2010Prop38
140
0.0
102
RTVSPost2010PropOp38
 70
     1
102
RTVSPost2010Prop39
140
1.0
102
RTVSPost2010PropOp39
 70
     1
102
RTVSPost2010Prop40
 90
        0
102
RTVSPost2010PropOp40
 70
     1
102
RTVSPost2010Prop41ColorIndex
 90
       18
102
RTVSPost2010Prop41ColorRGB
 90
        0
102
RTVSPost2010PropOp41
 70
     1
102
RTVSPost2010Prop42
 90
       50
102
RTVSPost2010PropOp42
 70
     1
102
RTVSPost2010Prop43
 90
        3
102
RTVSPost2010PropOp43
 70
     1
102
RTVSPost2010Prop44ColorIndex
 90
        5
102
RTVSPost2010Prop44ColorRGB
 90
      255
102
RTVSPost2010PropOp44
 70
     1
102
RTVSPost2010Prop45
280
     0
102
RTVSPost2010PropOp45
 70
     1
102
RTVSPost2010Prop46
 90
       50
102
RTVSPost2010PropOp46
 70
     1
102
RTVSPost2010Prop47
 90
       50
102
RTVSPost2010PropOp47
 70
     1
102
RTVSPost2010Prop48
 90
       50
102
RTVSPost2010PropOp48
 70
     1
102
RTVSPost2010Prop49
280
     0
102
RTVSPost2010PropOp49
 70
     1
102
RTVSPost2010Prop50
 90
       50
102
RTVSPost2010PropOp50
 70
     1
102
RTVSPost2010Prop51ColorIndex
 90
      256
102
RTVSPost2010Prop51ColorRGB
 90
-16777216
102
RTVSPost2010PropOp51
 70
     0
102
RTVSPost2010Prop52
140
1.0
102
RTVSPost2010PropOp52
 70
     0
102
RTVSPost2010Prop53
 90
        2
102
RTVSPost2010PropOp53
 70
     1
102
RTVSPost2010Prop54
  1
strokes_ogs.tif
102
RTVSPost2010PropOp54
 70
     1
102
RTVSPost2010Prop55
280
     0
102
RTVSPost2010PropOp55
 70
     1
102
RTVSPost2010Prop56
140
1.0
102
RTVSPost2010PropOp56
 70
     1
102
RTVSPost2010Prop57
140
1.0
102
RTVSPost2010PropOp57
 70
     1
102
RTVSPropertyOp0
 70
     1
102
RTVSPropertyOp1
 70
     1
102
RTVSPropertyOp2
 70
     1
102
RTVSPropertyOp3
 70
     1
102
RTVSPropertyOp4
 70
     1
102
RTVSPropertyOp5
 70
     1
102
RTVSPropertyOp6
 70
     1
102
RTVSPropertyOp7
 70
     1
102
RTVSPropertyOp8
 70
     1
102
RTVSPropertyOp9
 70
     1
102
RTVSPropertyOp10
 70
     1
102
RTVSPropertyOp11
 70
     1
102
RTVSPropertyOp12
 70
     1
102
RTVSPropertyOp13
 70
     1
102
RTVSPropertyOp14
 70
     1
102
RTVSPropertyOp15
 70
     1
102
RTVSPropertyOp16
 70
     1
102
RTVSPropertyOp17
 70
     1
102
RTVSPropertyOp18
 70
     1
102
RTVSPropertyOp19
 70
     1
102
RTVSPropertyOp20
 70
     1
102
RTVSPropertyOp21
 70
     1
102
RTVSPropertyOp22
 70
     1
102
RTVSPropertyOp23
 70
     1
102
RTVSPropertyOp24
 70
     1
102
RTVSPropertyOp25
 70
     1
102
RTVSPropertyOp26
 70
     1
102
RTVSPropertyOp27
 70
     1
102
RTVSPropertyOp28
 70
     1
102
RTVSPropertyOp29
 70
     1
102
RTVSPropertyOp30
 70
     1
102
RTVSPropertyOp31
 70
     1
102
RTVSPropertyOp32
 70
     1
102
RTVSPropertyOp33
 70
     1
102
RTVSPropertyOp34
 70
     1
102
RTVSPropertyOp35
 70
     1
102
RTVSPropertyOp36
 70
     1
102
RTVSPropertyOp37
 70
     1
102
RTVSPropertyOp38
 70
     1
102
RTVSPropertyOp39
 70
     1
102
RTVSPropertyOp40
 70
     1
102
RTVSPropertyOp41
 70
     1
102
RTVSPropertyOp42
 70
     1
102
RTVSPropertyOp43
 70
     1
102
RTVSPropertyOp44
 70
     1
102
RTVSPropertyOp45
 70
     1
102
RTVSPropertyOp46
 70
     1
102
RTVSPropertyOp47
 70
     1
102
RTVSPropertyOp48
 70
     1
102
RTVSPropertyOp49
 70
     1
102
RTVSPropertyOp50
 70
     1
102
RTVSPropertyOp51
 70
     0
102
RTVSPropertyOp52
 70
     0
102
RTVSPropertyOp53
 70
     1
102
RTVSPropertyOp54
 70
     1
102
RTVSPropertyOp55
 70
     1
102
RTVSPropertyOp56
 70
     1
102
RTVSPropertyOp57
 70
     1
102
RTVSPropertyOp58
 70
     1
102
RTVSPropertyOp59
 70
     1
102
RTVSPropertyOp60
 70
     1
102
RTVSPropertyOp61
 70
     1
102
RTVSPropertyOp62
 70
     1
  0
XRECORD
  5
17B41
102
{ACAD_REACTORS
330
17B40
102
}
330
17B40
100
AcDbXrecord
280
     1
102
RTVSPost2010Prop28
280
     0
102
RTVSPost2010PropOp28
 70
     1
102
RTVSPost2010Prop29
280
     1
102
RTVSPost2010PropOp29
 70
     1
102
RTVSPost2010Prop30
280
     1
102
RTVSPost2010PropOp30
 70
     1
102
RTVSPost2010Prop31
280
     0
102
RTVSPost2010PropOp31
 70
     1
102
RTVSPost2010Prop32
280
     0
102
RTVSPost2010PropOp32
 70
     1
102
RTVSPost2010Prop33
280
     0
102
RTVSPost2010PropOp33
 70
     1
102
RTVSPost2010Prop34
280
     0
102
RTVSPost2010PropOp34
 70
     1
102
RTVSPost2010Prop35
280
     0
102
RTVSPost2010PropOp35
 70
     1
102
RTVSPost2010Prop36
280
     0
102
RTVSPost2010PropOp36
 70
     1
102
RTVSPost2010Prop37
 90
       50
102
RTVSPost2010PropOp37
 70
     1
102
RTVSPost2010Prop38
140
0.0
102
RTVSPost2010PropOp38
 70
     1
102
RTVSPost2010Prop39
140
1.0
102
RTVSPost2010PropOp39
 70
     1
102
RTVSPost2010Prop40
 90
        0
102
RTVSPost2010PropOp40
 70
     1
102
RTVSPost2010Prop41ColorIndex
 90
       18
102
RTVSPost2010Prop41ColorRGB
 90
        0
102
RTVSPost2010PropOp41
 70
     1
102
RTVSPost2010Prop42
 90
       50
102
RTVSPost2010PropOp42
 70
     1
102
RTVSPost2010Prop43
 90
        3
102
RTVSPost2010PropOp43
 70
     1
102
RTVSPost2010Prop44ColorIndex
 90
        5
102
RTVSPost2010Prop44ColorRGB
 90
      255
102
RTVSPost2010PropOp44
 70
     1
102
RTVSPost2010Prop45
280
     0
102
RTVSPost2010PropOp45
 70
     1
102
RTVSPost2010Prop46
 90
       50
102
RTVSPost2010PropOp46
 70
     1
102
RTVSPost2010Prop47
 90
       50
102
RTVSPost2010PropOp47
 70
     1
102
RTVSPost2010Prop48
 90
       50
102
RTVSPost2010PropOp48
 70
     1
102
RTVSPost2010Prop49
280
     0
102
RTVSPost2010PropOp49
 70
     1
102
RTVSPost2010Prop50
 90
       50
102
RTVSPost2010PropOp50
 70
     1
102
RTVSPost2010Prop51ColorIndex
 90
      256
102
RTVSPost2010Prop51ColorRGB
 90
-16777216
102
RTVSPost2010PropOp51
 70
     0
102
RTVSPost2010Prop52
140
1.0
102
RTVSPost2010PropOp52
 70
     0
102
RTVSPost2010Prop53
 90
        2
102
RTVSPost2010PropOp53
 70
     1
102
RTVSPost2010Prop54
  1
strokes_ogs.tif
102
RTVSPost2010PropOp54
 70
     1
102
RTVSPost2010Prop55
280
     0
102
RTVSPost2010PropOp55
 70
     1
102
RTVSPost2010Prop56
140
1.0
102
RTVSPost2010PropOp56
 70
     1
102
RTVSPost2010Prop57
140
1.0
102
RTVSPost2010PropOp57
 70
     1
102
RTVSPropertyOp0
 70
     1
102
RTVSPropertyOp1
 70
     1
102
RTVSPropertyOp2
 70
     1
102
RTVSPropertyOp3
 70
     1
102
RTVSPropertyOp4
 70
     1
102
RTVSPropertyOp5
 70
     1
102
RTVSPropertyOp6
 70
     1
102
RTVSPropertyOp7
 70
     1
102
RTVSPropertyOp8
 70
     1
102
RTVSPropertyOp9
 70
     1
102
RTVSPropertyOp10
 70
     1
102
RTVSPropertyOp11
 70
     1
102
RTVSPropertyOp12
 70
     1
102
RTVSPropertyOp13
 70
     1
102
RTVSPropertyOp14
 70
     1
102
RTVSPropertyOp15
 70
     1
102
RTVSPropertyOp16
 70
     1
102
RTVSPropertyOp17
 70
     1
102
RTVSPropertyOp18
 70
     1
102
RTVSPropertyOp19
 70
     1
102
RTVSPropertyOp20
 70
     1
102
RTVSPropertyOp21
 70
     1
102
RTVSPropertyOp22
 70
     1
102
RTVSPropertyOp23
 70
     1
102
RTVSPropertyOp24
 70
     1
102
RTVSPropertyOp25
 70
     1
102
RTVSPropertyOp26
 70
     1
102
RTVSPropertyOp27
 70
     1
102
RTVSPropertyOp28
 70
     1
102
RTVSPropertyOp29
 70
     1
102
RTVSPropertyOp30
 70
     1
102
RTVSPropertyOp31
 70
     1
102
RTVSPropertyOp32
 70
     1
102
RTVSPropertyOp33
 70
     1
102
RTVSPropertyOp34
 70
     1
102
RTVSPropertyOp35
 70
     1
102
RTVSPropertyOp36
 70
     1
102
RTVSPropertyOp37
 70
     1
102
RTVSPropertyOp38
 70
     1
102
RTVSPropertyOp39
 70
     1
102
RTVSPropertyOp40
 70
     1
102
RTVSPropertyOp41
 70
     1
102
RTVSPropertyOp42
 70
     1
102
RTVSPropertyOp43
 70
     1
102
RTVSPropertyOp44
 70
     1
102
RTVSPropertyOp45
 70
     1
102
RTVSPropertyOp46
 70
     1
102
RTVSPropertyOp47
 70
     1
102
RTVSPropertyOp48
 70
     1
102
RTVSPropertyOp49
 70
     1
102
RTVSPropertyOp50
 70
     1
102
RTVSPropertyOp51
 70
     0
102
RTVSPropertyOp52
 70
     0
102
RTVSPropertyOp53
 70
     1
102
RTVSPropertyOp54
 70
     1
102
RTVSPropertyOp55
 70
     1
102
RTVSPropertyOp56
 70
     1
102
RTVSPropertyOp57
 70
     1
102
RTVSPropertyOp58
 70
     1
102
RTVSPropertyOp59
 70
     1
102
RTVSPropertyOp60
 70
     1
102
RTVSPropertyOp61
 70
     1
102
RTVSPropertyOp62
 70
     1
  0
XRECORD
  5
17B43
102
{ACAD_REACTORS
330
17B42
102
}
330
17B42
100
AcDbXrecord
280
     1
102
RTVSPost2010Prop28
280
     0
102
RTVSPost2010PropOp28
 70
     1
102
RTVSPost2010Prop29
280
     1
102
RTVSPost2010PropOp29
 70
     1
102
RTVSPost2010Prop30
280
     1
102
RTVSPost2010PropOp30
 70
     1
102
RTVSPost2010Prop31
280
     0
102
RTVSPost2010PropOp31
 70
     1
102
RTVSPost2010Prop32
280
     0
102
RTVSPost2010PropOp32
 70
     1
102
RTVSPost2010Prop33
280
     0
102
RTVSPost2010PropOp33
 70
     1
102
RTVSPost2010Prop34
280
     0
102
RTVSPost2010PropOp34
 70
     1
102
RTVSPost2010Prop35
280
     0
102
RTVSPost2010PropOp35
 70
     1
102
RTVSPost2010Prop36
280
     0
102
RTVSPost2010PropOp36
 70
     1
102
RTVSPost2010Prop37
 90
       50
102
RTVSPost2010PropOp37
 70
     1
102
RTVSPost2010Prop38
140
0.0
102
RTVSPost2010PropOp38
 70
     1
102
RTVSPost2010Prop39
140
1.0
102
RTVSPost2010PropOp39
 70
     1
102
RTVSPost2010Prop40
 90
        0
102
RTVSPost2010PropOp40
 70
     1
102
RTVSPost2010Prop41ColorIndex
 90
       18
102
RTVSPost2010Prop41ColorRGB
 90
        0
102
RTVSPost2010PropOp41
 70
     1
102
RTVSPost2010Prop42
 90
       50
102
RTVSPost2010PropOp42
 70
     1
102
RTVSPost2010Prop43
 90
        3
102
RTVSPost2010PropOp43
 70
     1
102
RTVSPost2010Prop44ColorIndex
 90
        5
102
RTVSPost2010Prop44ColorRGB
 90
      255
102
RTVSPost2010PropOp44
 70
     1
102
RTVSPost2010Prop45
280
     0
102
RTVSPost2010PropOp45
 70
     1
102
RTVSPost2010Prop46
 90
       50
102
RTVSPost2010PropOp46
 70
     1
102
RTVSPost2010Prop47
 90
       50
102
RTVSPost2010PropOp47
 70
     1
102
RTVSPost2010Prop48
 90
       50
102
RTVSPost2010PropOp48
 70
     1
102
RTVSPost2010Prop49
280
     0
102
RTVSPost2010PropOp49
 70
     1
102
RTVSPost2010Prop50
 90
       50
102
RTVSPost2010PropOp50
 70
     1
102
RTVSPost2010Prop51ColorIndex
 90
      256
102
RTVSPost2010Prop51ColorRGB
 90
-16777216
102
RTVSPost2010PropOp51
 70
     0
102
RTVSPost2010Prop52
140
1.0
102
RTVSPost2010PropOp52
 70
     0
102
RTVSPost2010Prop53
 90
        2
102
RTVSPost2010PropOp53
 70
     1
102
RTVSPost2010Prop54
  1
strokes_ogs.tif
102
RTVSPost2010PropOp54
 70
     1
102
RTVSPost2010Prop55
280
     0
102
RTVSPost2010PropOp55
 70
     1
102
RTVSPost2010Prop56
140
1.0
102
RTVSPost2010PropOp56
 70
     1
102
RTVSPost2010Prop57
140
1.0
102
RTVSPost2010PropOp57
 70
     1
102
RTVSPropertyOp0
 70
     1
102
RTVSPropertyOp1
 70
     1
102
RTVSPropertyOp2
 70
     1
102
RTVSPropertyOp3
 70
     1
102
RTVSPropertyOp4
 70
     1
102
RTVSPropertyOp5
 70
     1
102
RTVSPropertyOp6
 70
     1
102
RTVSPropertyOp7
 70
     1
102
RTVSPropertyOp8
 70
     1
102
RTVSPropertyOp9
 70
     1
102
RTVSPropertyOp10
 70
     1
102
RTVSPropertyOp11
 70
     1
102
RTVSPropertyOp12
 70
     1
102
RTVSPropertyOp13
 70
     1
102
RTVSPropertyOp14
 70
     1
102
RTVSPropertyOp15
 70
     1
102
RTVSPropertyOp16
 70
     1
102
RTVSPropertyOp17
 70
     1
102
RTVSPropertyOp18
 70
     1
102
RTVSPropertyOp19
 70
     1
102
RTVSPropertyOp20
 70
     1
102
RTVSPropertyOp21
 70
     1
102
RTVSPropertyOp22
 70
     1
102
RTVSPropertyOp23
 70
     1
102
RTVSPropertyOp24
 70
     1
102
RTVSPropertyOp25
 70
     1
102
RTVSPropertyOp26
 70
     1
102
RTVSPropertyOp27
 70
     1
102
RTVSPropertyOp28
 70
     1
102
RTVSPropertyOp29
 70
     1
102
RTVSPropertyOp30
 70
     1
102
RTVSPropertyOp31
 70
     1
102
RTVSPropertyOp32
 70
     1
102
RTVSPropertyOp33
 70
     1
102
RTVSPropertyOp34
 70
     1
102
RTVSPropertyOp35
 70
     1
102
RTVSPropertyOp36
 70
     1
102
RTVSPropertyOp37
 70
     1
102
RTVSPropertyOp38
 70
     1
102
RTVSPropertyOp39
 70
     1
102
RTVSPropertyOp40
 70
     1
102
RTVSPropertyOp41
 70
     1
102
RTVSPropertyOp42
 70
     1
102
RTVSPropertyOp43
 70
     1
102
RTVSPropertyOp44
 70
     1
102
RTVSPropertyOp45
 70
     1
102
RTVSPropertyOp46
 70
     1
102
RTVSPropertyOp47
 70
     1
102
RTVSPropertyOp48
 70
     1
102
RTVSPropertyOp49
 70
     1
102
RTVSPropertyOp50
 70
     1
102
RTVSPropertyOp51
 70
     0
102
RTVSPropertyOp52
 70
     0
102
RTVSPropertyOp53
 70
     1
102
RTVSPropertyOp54
 70
     1
102
RTVSPropertyOp55
 70
     1
102
RTVSPropertyOp56
 70
     1
102
RTVSPropertyOp57
 70
     1
102
RTVSPropertyOp58
 70
     1
102
RTVSPropertyOp59
 70
     1
102
RTVSPropertyOp60
 70
     1
102
RTVSPropertyOp61
 70
     1
102
RTVSPropertyOp62
 70
     1
  0
XRECORD
  5
17B45
102
{ACAD_REACTORS
330
17B44
102
}
330
17B44
100
AcDbXrecord
280
     1
102
RTVSPost2010Prop28
280
     0
102
RTVSPost2010PropOp28
 70
     1
102
RTVSPost2010Prop29
280
     1
102
RTVSPost2010PropOp29
 70
     1
102
RTVSPost2010Prop30
280
     1
102
RTVSPost2010PropOp30
 70
     1
102
RTVSPost2010Prop31
280
     0
102
RTVSPost2010PropOp31
 70
     1
102
RTVSPost2010Prop32
280
     0
102
RTVSPost2010PropOp32
 70
     1
102
RTVSPost2010Prop33
280
     0
102
RTVSPost2010PropOp33
 70
     1
102
RTVSPost2010Prop34
280
     0
102
RTVSPost2010PropOp34
 70
     1
102
RTVSPost2010Prop35
280
     0
102
RTVSPost2010PropOp35
 70
     1
102
RTVSPost2010Prop36
280
     0
102
RTVSPost2010PropOp36
 70
     1
102
RTVSPost2010Prop37
 90
       50
102
RTVSPost2010PropOp37
 70
     1
102
RTVSPost2010Prop38
140
0.0
102
RTVSPost2010PropOp38
 70
     1
102
RTVSPost2010Prop39
140
1.0
102
RTVSPost2010PropOp39
 70
     1
102
RTVSPost2010Prop40
 90
        0
102
RTVSPost2010PropOp40
 70
     1
102
RTVSPost2010Prop41ColorIndex
 90
       18
102
RTVSPost2010Prop41ColorRGB
 90
        0
102
RTVSPost2010PropOp41
 70
     1
102
RTVSPost2010Prop42
 90
       50
102
RTVSPost2010PropOp42
 70
     1
102
RTVSPost2010Prop43
 90
        3
102
RTVSPost2010PropOp43
 70
     1
102
RTVSPost2010Prop44ColorIndex
 90
        5
102
RTVSPost2010Prop44ColorRGB
 90
      255
102
RTVSPost2010PropOp44
 70
     1
102
RTVSPost2010Prop45
280
     0
102
RTVSPost2010PropOp45
 70
     1
102
RTVSPost2010Prop46
 90
       50
102
RTVSPost2010PropOp46
 70
     1
102
RTVSPost2010Prop47
 90
       50
102
RTVSPost2010PropOp47
 70
     1
102
RTVSPost2010Prop48
 90
       50
102
RTVSPost2010PropOp48
 70
     1
102
RTVSPost2010Prop49
280
     0
102
RTVSPost2010PropOp49
 70
     1
102
RTVSPost2010Prop50
 90
       50
102
RTVSPost2010PropOp50
 70
     1
102
RTVSPost2010Prop51ColorIndex
 90
      256
102
RTVSPost2010Prop51ColorRGB
 90
-16777216
102
RTVSPost2010PropOp51
 70
     0
102
RTVSPost2010Prop52
140
1.0
102
RTVSPost2010PropOp52
 70
     0
102
RTVSPost2010Prop53
 90
        2
102
RTVSPost2010PropOp53
 70
     1
102
RTVSPost2010Prop54
  1
strokes_ogs.tif
102
RTVSPost2010PropOp54
 70
     1
102
RTVSPost2010Prop55
280
     0
102
RTVSPost2010PropOp55
 70
     1
102
RTVSPost2010Prop56
140
1.0
102
RTVSPost2010PropOp56
 70
     1
102
RTVSPost2010Prop57
140
1.0
102
RTVSPost2010PropOp57
 70
     1
102
RTVSPropertyOp0
 70
     1
102
RTVSPropertyOp1
 70
     1
102
RTVSPropertyOp2
 70
     1
102
RTVSPropertyOp3
 70
     1
102
RTVSPropertyOp4
 70
     1
102
RTVSPropertyOp5
 70
     1
102
RTVSPropertyOp6
 70
     1
102
RTVSPropertyOp7
 70
     1
102
RTVSPropertyOp8
 70
     1
102
RTVSPropertyOp9
 70
     1
102
RTVSPropertyOp10
 70
     1
102
RTVSPropertyOp11
 70
     1
102
RTVSPropertyOp12
 70
     1
102
RTVSPropertyOp13
 70
     1
102
RTVSPropertyOp14
 70
     1
102
RTVSPropertyOp15
 70
     1
102
RTVSPropertyOp16
 70
     1
102
RTVSPropertyOp17
 70
     1
102
RTVSPropertyOp18
 70
     1
102
RTVSPropertyOp19
 70
     1
102
RTVSPropertyOp20
 70
     1
102
RTVSPropertyOp21
 70
     1
102
RTVSPropertyOp22
 70
     1
102
RTVSPropertyOp23
 70
     1
102
RTVSPropertyOp24
 70
     1
102
RTVSPropertyOp25
 70
     1
102
RTVSPropertyOp26
 70
     1
102
RTVSPropertyOp27
 70
     1
102
RTVSPropertyOp28
 70
     1
102
RTVSPropertyOp29
 70
     1
102
RTVSPropertyOp30
 70
     1
102
RTVSPropertyOp31
 70
     1
102
RTVSPropertyOp32
 70
     1
102
RTVSPropertyOp33
 70
     1
102
RTVSPropertyOp34
 70
     1
102
RTVSPropertyOp35
 70
     1
102
RTVSPropertyOp36
 70
     1
102
RTVSPropertyOp37
 70
     1
102
RTVSPropertyOp38
 70
     1
102
RTVSPropertyOp39
 70
     1
102
RTVSPropertyOp40
 70
     1
102
RTVSPropertyOp41
 70
     1
102
RTVSPropertyOp42
 70
     1
102
RTVSPropertyOp43
 70
     1
102
RTVSPropertyOp44
 70
     1
102
RTVSPropertyOp45
 70
     1
102
RTVSPropertyOp46
 70
     1
102
RTVSPropertyOp47
 70
     1
102
RTVSPropertyOp48
 70
     1
102
RTVSPropertyOp49
 70
     1
102
RTVSPropertyOp50
 70
     1
102
RTVSPropertyOp51
 70
     0
102
RTVSPropertyOp52
 70
     0
102
RTVSPropertyOp53
 70
     1
102
RTVSPropertyOp54
 70
     1
102
RTVSPropertyOp55
 70
     1
102
RTVSPropertyOp56
 70
     1
102
RTVSPropertyOp57
 70
     1
102
RTVSPropertyOp58
 70
     1
102
RTVSPropertyOp59
 70
     1
102
RTVSPropertyOp60
 70
     1
102
RTVSPropertyOp61
 70
     1
102
RTVSPropertyOp62
 70
     1
  0
XRECORD
  5
17B4D
102
{ACAD_REACTORS
330
17B4C
102
}
330
17B4C
100
AcDbXrecord
280
     1
102
RTVSPost2010Prop28
280
     0
102
RTVSPost2010PropOp28
 70
     1
102
RTVSPost2010Prop29
280
     1
102
RTVSPost2010PropOp29
 70
     1
102
RTVSPost2010Prop30
280
     1
102
RTVSPost2010PropOp30
 70
     1
102
RTVSPost2010Prop31
280
     0
102
RTVSPost2010PropOp31
 70
     1
102
RTVSPost2010Prop32
280
     0
102
RTVSPost2010PropOp32
 70
     1
102
RTVSPost2010Prop33
280
     0
102
RTVSPost2010PropOp33
 70
     1
102
RTVSPost2010Prop34
280
     0
102
RTVSPost2010PropOp34
 70
     1
102
RTVSPost2010Prop35
280
     0
102
RTVSPost2010PropOp35
 70
     1
102
RTVSPost2010Prop36
280
     0
102
RTVSPost2010PropOp36
 70
     1
102
RTVSPost2010Prop37
 90
       50
102
RTVSPost2010PropOp37
 70
     1
102
RTVSPost2010Prop38
140
0.0
102
RTVSPost2010PropOp38
 70
     1
102
RTVSPost2010Prop39
140
1.0
102
RTVSPost2010PropOp39
 70
     1
102
RTVSPost2010Prop40
 90
        0
102
RTVSPost2010PropOp40
 70
     1
102
RTVSPost2010Prop41ColorIndex
 90
       18
102
RTVSPost2010Prop41ColorRGB
 90
        0
102
RTVSPost2010PropOp41
 70
     1
102
RTVSPost2010Prop42
 90
       50
102
RTVSPost2010PropOp42
 70
     1
102
RTVSPost2010Prop43
 90
        3
102
RTVSPost2010PropOp43
 70
     1
102
RTVSPost2010Prop44ColorIndex
 90
        5
102
RTVSPost2010Prop44ColorRGB
 90
      255
102
RTVSPost2010PropOp44
 70
     1
102
RTVSPost2010Prop45
280
     0
102
RTVSPost2010PropOp45
 70
     1
102
RTVSPost2010Prop46
 90
       50
102
RTVSPost2010PropOp46
 70
     1
102
RTVSPost2010Prop47
 90
       50
102
RTVSPost2010PropOp47
 70
     1
102
RTVSPost2010Prop48
 90
       50
102
RTVSPost2010PropOp48
 70
     1
102
RTVSPost2010Prop49
280
     0
102
RTVSPost2010PropOp49
 70
     1
102
RTVSPost2010Prop50
 90
       50
102
RTVSPost2010PropOp50
 70
     1
102
RTVSPost2010Prop51ColorIndex
 90
      256
102
RTVSPost2010Prop51ColorRGB
 90
-16777216
102
RTVSPost2010PropOp51
 70
     0
102
RTVSPost2010Prop52
140
1.0
102
RTVSPost2010PropOp52
 70
     0
102
RTVSPost2010Prop53
 90
        2
102
RTVSPost2010PropOp53
 70
     1
102
RTVSPost2010Prop54
  1
strokes_ogs.tif
102
RTVSPost2010PropOp54
 70
     1
102
RTVSPost2010Prop55
280
     0
102
RTVSPost2010PropOp55
 70
     1
102
RTVSPost2010Prop56
140
1.0
102
RTVSPost2010PropOp56
 70
     1
102
RTVSPost2010Prop57
140
1.0
102
RTVSPost2010PropOp57
 70
     1
102
RTVSPropertyOp0
 70
     1
102
RTVSPropertyOp1
 70
     1
102
RTVSPropertyOp2
 70
     1
102
RTVSPropertyOp3
 70
     1
102
RTVSPropertyOp4
 70
     1
102
RTVSPropertyOp5
 70
     1
102
RTVSPropertyOp6
 70
     1
102
RTVSPropertyOp7
 70
     1
102
RTVSPropertyOp8
 70
     1
102
RTVSPropertyOp9
 70
     1
102
RTVSPropertyOp10
 70
     1
102
RTVSPropertyOp11
 70
     1
102
RTVSPropertyOp12
 70
     1
102
RTVSPropertyOp13
 70
     1
102
RTVSPropertyOp14
 70
     1
102
RTVSPropertyOp15
 70
     1
102
RTVSPropertyOp16
 70
     1
102
RTVSPropertyOp17
 70
     1
102
RTVSPropertyOp18
 70
     1
102
RTVSPropertyOp19
 70
     1
102
RTVSPropertyOp20
 70
     1
102
RTVSPropertyOp21
 70
     1
102
RTVSPropertyOp22
 70
     1
102
RTVSPropertyOp23
 70
     1
102
RTVSPropertyOp24
 70
     1
102
RTVSPropertyOp25
 70
     1
102
RTVSPropertyOp26
 70
     1
102
RTVSPropertyOp27
 70
     1
102
RTVSPropertyOp28
 70
     1
102
RTVSPropertyOp29
 70
     1
102
RTVSPropertyOp30
 70
     1
102
RTVSPropertyOp31
 70
     1
102
RTVSPropertyOp32
 70
     1
102
RTVSPropertyOp33
 70
     1
102
RTVSPropertyOp34
 70
     1
102
RTVSPropertyOp35
 70
     1
102
RTVSPropertyOp36
 70
     1
102
RTVSPropertyOp37
 70
     1
102
RTVSPropertyOp38
 70
     1
102
RTVSPropertyOp39
 70
     1
102
RTVSPropertyOp40
 70
     1
102
RTVSPropertyOp41
 70
     1
102
RTVSPropertyOp42
 70
     1
102
RTVSPropertyOp43
 70
     1
102
RTVSPropertyOp44
 70
     1
102
RTVSPropertyOp45
 70
     1
102
RTVSPropertyOp46
 70
     1
102
RTVSPropertyOp47
 70
     1
102
RTVSPropertyOp48
 70
     1
102
RTVSPropertyOp49
 70
     1
102
RTVSPropertyOp50
 70
     1
102
RTVSPropertyOp51
 70
     0
102
RTVSPropertyOp52
 70
     0
102
RTVSPropertyOp53
 70
     1
102
RTVSPropertyOp54
 70
     1
102
RTVSPropertyOp55
 70
     1
102
RTVSPropertyOp56
 70
     1
102
RTVSPropertyOp57
 70
     1
102
RTVSPropertyOp58
 70
     1
102
RTVSPropertyOp59
 70
     1
102
RTVSPropertyOp60
 70
     1
102
RTVSPropertyOp61
 70
     1
102
RTVSPropertyOp62
 70
     1
  0
XRECORD
  5
17B69
102
{ACAD_REACTORS
330
17B68
102
}
330
17B68
100
AcDbXrecord
280
     1
102
RTVSPost2010Prop28
280
     0
102
RTVSPost2010PropOp28
 70
     1
102
RTVSPost2010Prop29
280
     1
102
RTVSPost2010PropOp29
 70
     1
102
RTVSPost2010Prop30
280
     1
102
RTVSPost2010PropOp30
 70
     1
102
RTVSPost2010Prop31
280
     0
102
RTVSPost2010PropOp31
 70
     1
102
RTVSPost2010Prop32
280
     0
102
RTVSPost2010PropOp32
 70
     1
102
RTVSPost2010Prop33
280
     0
102
RTVSPost2010PropOp33
 70
     1
102
RTVSPost2010Prop34
280
     0
102
RTVSPost2010PropOp34
 70
     1
102
RTVSPost2010Prop35
280
     0
102
RTVSPost2010PropOp35
 70
     1
102
RTVSPost2010Prop36
280
     0
102
RTVSPost2010PropOp36
 70
     1
102
RTVSPost2010Prop37
 90
       50
102
RTVSPost2010PropOp37
 70
     0
102
RTVSPost2010Prop38
140
0.0
102
RTVSPost2010PropOp38
 70
     0
102
RTVSPost2010Prop39
140
1.0
102
RTVSPost2010PropOp39
 70
     0
102
RTVSPost2010Prop40
 90
        0
102
RTVSPost2010PropOp40
 70
     0
102
RTVSPost2010Prop41ColorIndex
 90
       18
102
RTVSPost2010Prop41ColorRGB
 90
        0
102
RTVSPost2010PropOp41
 70
     0
102
RTVSPost2010Prop42
 90
       50
102
RTVSPost2010PropOp42
 70
     0
102
RTVSPost2010Prop43
 90
        3
102
RTVSPost2010PropOp43
 70
     0
102
RTVSPost2010Prop44ColorIndex
 90
        5
102
RTVSPost2010Prop44ColorRGB
 90
      255
102
RTVSPost2010PropOp44
 70
     0
102
RTVSPost2010Prop45
280
     0
102
RTVSPost2010PropOp45
 70
     1
102
RTVSPost2010Prop46
 90
       50
102
RTVSPost2010PropOp46
 70
     0
102
RTVSPost2010Prop47
 90
       50
102
RTVSPost2010PropOp47
 70
     0
102
RTVSPost2010Prop48
 90
       50
102
RTVSPost2010PropOp48
 70
     0
102
RTVSPost2010Prop49
280
     0
102
RTVSPost2010PropOp49
 70
     1
102
RTVSPost2010Prop50
 90
       50
102
RTVSPost2010PropOp50
 70
     0
102
RTVSPost2010Prop51ColorIndex
 90
      256
102
RTVSPost2010Prop51ColorRGB
 90
-16777216
102
RTVSPost2010PropOp51
 70
     0
102
RTVSPost2010Prop52
140
1.0
102
RTVSPost2010PropOp52
 70
     0
102
RTVSPost2010Prop53
 90
        2
102
RTVSPost2010PropOp53
 70
     0
102
RTVSPost2010Prop54
  1
strokes_ogs.tif
102
RTVSPost2010PropOp54
 70
     0
102
RTVSPost2010Prop55
280
     0
102
RTVSPost2010PropOp55
 70
     1
102
RTVSPost2010Prop56
140
1.0
102
RTVSPost2010PropOp56
 70
     0
102
RTVSPost2010Prop57
140
1.0
102
RTVSPost2010PropOp57
 70
     0
102
RTVSPropertyOp0
 70
     0
102
RTVSPropertyOp1
 70
     0
102
RTVSPropertyOp2
 70
     0
102
RTVSPropertyOp3
 70
     0
102
RTVSPropertyOp4
 70
     0
102
RTVSPropertyOp5
 70
     0
102
RTVSPropertyOp6
 70
     0
102
RTVSPropertyOp7
 70
     0
102
RTVSPropertyOp8
 70
     0
102
RTVSPropertyOp9
 70
     0
102
RTVSPropertyOp10
 70
     0
102
RTVSPropertyOp11
 70
     0
102
RTVSPropertyOp12
 70
     0
102
RTVSPropertyOp13
 70
     0
102
RTVSPropertyOp14
 70
     2
102
RTVSPropertyOp15
 70
     0
102
RTVSPropertyOp16
 70
     0
102
RTVSPropertyOp17
 70
     0
102
RTVSPropertyOp18
 70
     0
102
RTVSPropertyOp19
 70
     0
102
RTVSPropertyOp20
 70
     0
102
RTVSPropertyOp21
 70
     0
102
RTVSPropertyOp22
 70
     0
102
RTVSPropertyOp23
 70
     0
102
RTVSPropertyOp24
 70
     0
102
RTVSPropertyOp25
 70
     0
102
RTVSPropertyOp26
 70
     0
102
RTVSPropertyOp27
 70
     0
102
RTVSPropertyOp28
 70
     1
102
RTVSPropertyOp29
 70
     1
102
RTVSPropertyOp30
 70
     1
102
RTVSPropertyOp31
 70
     1
102
RTVSPropertyOp32
 70
     1
102
RTVSPropertyOp33
 70
     1
102
RTVSPropertyOp34
 70
     1
102
RTVSPropertyOp35
 70
     1
102
RTVSPropertyOp36
 70
     1
102
RTVSPropertyOp37
 70
     0
102
RTVSPropertyOp38
 70
     0
102
RTVSPropertyOp39
 70
     0
102
RTVSPropertyOp40
 70
     0
102
RTVSPropertyOp41
 70
     0
102
RTVSPropertyOp42
 70
     0
102
RTVSPropertyOp43
 70
     0
102
RTVSPropertyOp44
 70
     0
102
RTVSPropertyOp45
 70
     1
102
RTVSPropertyOp46
 70
     0
102
RTVSPropertyOp47
 70
     0
102
RTVSPropertyOp48
 70
     0
102
RTVSPropertyOp49
 70
     1
102
RTVSPropertyOp50
 70
     0
102
RTVSPropertyOp51
 70
     0
102
RTVSPropertyOp52
 70
     0
102
RTVSPropertyOp53
 70
     0
102
RTVSPropertyOp54
 70
     0
102
RTVSPropertyOp55
 70
     1
102
RTVSPropertyOp56
 70
     0
102
RTVSPropertyOp57
 70
     0
102
RTVSPropertyOp58
 70
     0
102
RTVSPropertyOp59
 70
     0
102
RTVSPropertyOp60
 70
     0
102
RTVSPropertyOp61
 70
     0
102
RTVSPropertyOp62
 70
     0
  0
XRECORD
  5
17B59
102
{ACAD_REACTORS
330
17B58
102
}
330
17B58
100
AcDbXrecord
280
     1
102
RTVSPost2010Prop28
280
     0
102
RTVSPost2010PropOp28
 70
     1
102
RTVSPost2010Prop29
280
     1
102
RTVSPost2010PropOp29
 70
     1
102
RTVSPost2010Prop30
280
     1
102
RTVSPost2010PropOp30
 70
     1
102
RTVSPost2010Prop31
280
     0
102
RTVSPost2010PropOp31
 70
     1
102
RTVSPost2010Prop32
280
     0
102
RTVSPost2010PropOp32
 70
     1
102
RTVSPost2010Prop33
280
     0
102
RTVSPost2010PropOp33
 70
     1
102
RTVSPost2010Prop34
280
     0
102
RTVSPost2010PropOp34
 70
     1
102
RTVSPost2010Prop35
280
     0
102
RTVSPost2010PropOp35
 70
     1
102
RTVSPost2010Prop36
280
     0
102
RTVSPost2010PropOp36
 70
     1
102
RTVSPost2010Prop37
 90
       50
102
RTVSPost2010PropOp37
 70
     1
102
RTVSPost2010Prop38
140
0.0
102
RTVSPost2010PropOp38
 70
     1
102
RTVSPost2010Prop39
140
1.0
102
RTVSPost2010PropOp39
 70
     1
102
RTVSPost2010Prop40
 90
        0
102
RTVSPost2010PropOp40
 70
     1
102
RTVSPost2010Prop41ColorIndex
 90
       18
102
RTVSPost2010Prop41ColorRGB
 90
        0
102
RTVSPost2010PropOp41
 70
     1
102
RTVSPost2010Prop42
 90
       50
102
RTVSPost2010PropOp42
 70
     1
102
RTVSPost2010Prop43
 90
        3
102
RTVSPost2010PropOp43
 70
     1
102
RTVSPost2010Prop44ColorIndex
 90
        5
102
RTVSPost2010Prop44ColorRGB
 90
      255
102
RTVSPost2010PropOp44
 70
     1
102
RTVSPost2010Prop45
280
     0
102
RTVSPost2010PropOp45
 70
     1
102
RTVSPost2010Prop46
 90
       50
102
RTVSPost2010PropOp46
 70
     1
102
RTVSPost2010Prop47
 90
       50
102
RTVSPost2010PropOp47
 70
     1
102
RTVSPost2010Prop48
 90
       50
102
RTVSPost2010PropOp48
 70
     1
102
RTVSPost2010Prop49
280
     0
102
RTVSPost2010PropOp49
 70
     1
102
RTVSPost2010Prop50
 90
       50
102
RTVSPost2010PropOp50
 70
     1
102
RTVSPost2010Prop51ColorIndex
 90
      256
102
RTVSPost2010Prop51ColorRGB
 90
-16777216
102
RTVSPost2010PropOp51
 70
     0
102
RTVSPost2010Prop52
140
1.0
102
RTVSPost2010PropOp52
 70
     0
102
RTVSPost2010Prop53
 90
        2
102
RTVSPost2010PropOp53
 70
     1
102
RTVSPost2010Prop54
  1
strokes_ogs.tif
102
RTVSPost2010PropOp54
 70
     1
102
RTVSPost2010Prop55
280
     0
102
RTVSPost2010PropOp55
 70
     1
102
RTVSPost2010Prop56
140
1.0
102
RTVSPost2010PropOp56
 70
     1
102
RTVSPost2010Prop57
140
1.0
102
RTVSPost2010PropOp57
 70
     1
102
RTVSPropertyOp0
 70
     1
102
RTVSPropertyOp1
 70
     1
102
RTVSPropertyOp2
 70
     1
102
RTVSPropertyOp3
 70
     1
102
RTVSPropertyOp4
 70
     1
102
RTVSPropertyOp5
 70
     1
102
RTVSPropertyOp6
 70
     1
102
RTVSPropertyOp7
 70
     1
102
RTVSPropertyOp8
 70
     1
102
RTVSPropertyOp9
 70
     1
102
RTVSPropertyOp10
 70
     1
102
RTVSPropertyOp11
 70
     1
102
RTVSPropertyOp12
 70
     1
102
RTVSPropertyOp13
 70
     1
102
RTVSPropertyOp14
 70
     1
102
RTVSPropertyOp15
 70
     1
102
RTVSPropertyOp16
 70
     1
102
RTVSPropertyOp17
 70
     1
102
RTVSPropertyOp18
 70
     1
102
RTVSPropertyOp19
 70
     1
102
RTVSPropertyOp20
 70
     1
102
RTVSPropertyOp21
 70
     1
102
RTVSPropertyOp22
 70
     1
102
RTVSPropertyOp23
 70
     1
102
RTVSPropertyOp24
 70
     1
102
RTVSPropertyOp25
 70
     1
102
RTVSPropertyOp26
 70
     1
102
RTVSPropertyOp27
 70
     1
102
RTVSPropertyOp28
 70
     1
102
RTVSPropertyOp29
 70
     1
102
RTVSPropertyOp30
 70
     1
102
RTVSPropertyOp31
 70
     1
102
RTVSPropertyOp32
 70
     1
102
RTVSPropertyOp33
 70
     1
102
RTVSPropertyOp34
 70
     1
102
RTVSPropertyOp35
 70
     1
102
RTVSPropertyOp36
 70
     1
102
RTVSPropertyOp37
 70
     1
102
RTVSPropertyOp38
 70
     1
102
RTVSPropertyOp39
 70
     1
102
RTVSPropertyOp40
 70
     1
102
RTVSPropertyOp41
 70
     1
102
RTVSPropertyOp42
 70
     1
102
RTVSPropertyOp43
 70
     1
102
RTVSPropertyOp44
 70
     1
102
RTVSPropertyOp45
 70
     1
102
RTVSPropertyOp46
 70
     1
102
RTVSPropertyOp47
 70
     1
102
RTVSPropertyOp48
 70
     1
102
RTVSPropertyOp49
 70
     1
102
RTVSPropertyOp50
 70
     1
102
RTVSPropertyOp51
 70
     0
102
RTVSPropertyOp52
 70
     0
102
RTVSPropertyOp53
 70
     1
102
RTVSPropertyOp54
 70
     1
102
RTVSPropertyOp55
 70
     1
102
RTVSPropertyOp56
 70
     1
102
RTVSPropertyOp57
 70
     1
102
RTVSPropertyOp58
 70
     1
102
RTVSPropertyOp59
 70
     1
102
RTVSPropertyOp60
 70
     1
102
RTVSPropertyOp61
 70
     1
102
RTVSPropertyOp62
 70
     1
  0
XRECORD
  5
17B6B
102
{ACAD_REACTORS
330
17B6A
102
}
330
17B6A
100
AcDbXrecord
280
     1
102
RTVSPost2010Prop28
280
     0
102
RTVSPost2010PropOp28
 70
     1
102
RTVSPost2010Prop29
280
     1
102
RTVSPost2010PropOp29
 70
     1
102
RTVSPost2010Prop30
280
     1
102
RTVSPost2010PropOp30
 70
     1
102
RTVSPost2010Prop31
280
     0
102
RTVSPost2010PropOp31
 70
     1
102
RTVSPost2010Prop32
280
     0
102
RTVSPost2010PropOp32
 70
     1
102
RTVSPost2010Prop33
280
     0
102
RTVSPost2010PropOp33
 70
     1
102
RTVSPost2010Prop34
280
     0
102
RTVSPost2010PropOp34
 70
     1
102
RTVSPost2010Prop35
280
     0
102
RTVSPost2010PropOp35
 70
     1
102
RTVSPost2010Prop36
280
     0
102
RTVSPost2010PropOp36
 70
     1
102
RTVSPost2010Prop37
 90
       50
102
RTVSPost2010PropOp37
 70
     0
102
RTVSPost2010Prop38
140
0.0
102
RTVSPost2010PropOp38
 70
     0
102
RTVSPost2010Prop39
140
1.0
102
RTVSPost2010PropOp39
 70
     0
102
RTVSPost2010Prop40
 90
        0
102
RTVSPost2010PropOp40
 70
     0
102
RTVSPost2010Prop41ColorIndex
 90
       18
102
RTVSPost2010Prop41ColorRGB
 90
        0
102
RTVSPost2010PropOp41
 70
     0
102
RTVSPost2010Prop42
 90
       50
102
RTVSPost2010PropOp42
 70
     0
102
RTVSPost2010Prop43
 90
        3
102
RTVSPost2010PropOp43
 70
     0
102
RTVSPost2010Prop44ColorIndex
 90
        5
102
RTVSPost2010Prop44ColorRGB
 90
      255
102
RTVSPost2010PropOp44
 70
     0
102
RTVSPost2010Prop45
280
     0
102
RTVSPost2010PropOp45
 70
     1
102
RTVSPost2010Prop46
 90
       50
102
RTVSPost2010PropOp46
 70
     0
102
RTVSPost2010Prop47
 90
       50
102
RTVSPost2010PropOp47
 70
     0
102
RTVSPost2010Prop48
 90
       50
102
RTVSPost2010PropOp48
 70
     0
102
RTVSPost2010Prop49
280
     0
102
RTVSPost2010PropOp49
 70
     1
102
RTVSPost2010Prop50
 90
       50
102
RTVSPost2010PropOp50
 70
     0
102
RTVSPost2010Prop51ColorIndex
 90
      256
102
RTVSPost2010Prop51ColorRGB
 90
-16777216
102
RTVSPost2010PropOp51
 70
     0
102
RTVSPost2010Prop52
140
1.0
102
RTVSPost2010PropOp52
 70
     0
102
RTVSPost2010Prop53
 90
        2
102
RTVSPost2010PropOp53
 70
     0
102
RTVSPost2010Prop54
  1
strokes_ogs.tif
102
RTVSPost2010PropOp54
 70
     0
102
RTVSPost2010Prop55
280
     0
102
RTVSPost2010PropOp55
 70
     1
102
RTVSPost2010Prop56
140
1.0
102
RTVSPost2010PropOp56
 70
     0
102
RTVSPost2010Prop57
140
1.0
102
RTVSPost2010PropOp57
 70
     0
102
RTVSPropertyOp0
 70
     0
102
RTVSPropertyOp1
 70
     0
102
RTVSPropertyOp2
 70
     0
102
RTVSPropertyOp3
 70
     0
102
RTVSPropertyOp4
 70
     0
102
RTVSPropertyOp5
 70
     0
102
RTVSPropertyOp6
 70
     0
102
RTVSPropertyOp7
 70
     0
102
RTVSPropertyOp8
 70
     0
102
RTVSPropertyOp9
 70
     0
102
RTVSPropertyOp10
 70
     0
102
RTVSPropertyOp11
 70
     0
102
RTVSPropertyOp12
 70
     0
102
RTVSPropertyOp13
 70
     0
102
RTVSPropertyOp14
 70
     2
102
RTVSPropertyOp15
 70
     0
102
RTVSPropertyOp16
 70
     0
102
RTVSPropertyOp17
 70
     0
102
RTVSPropertyOp18
 70
     0
102
RTVSPropertyOp19
 70
     0
102
RTVSPropertyOp20
 70
     0
102
RTVSPropertyOp21
 70
     0
102
RTVSPropertyOp22
 70
     0
102
RTVSPropertyOp23
 70
     0
102
RTVSPropertyOp24
 70
     0
102
RTVSPropertyOp25
 70
     0
102
RTVSPropertyOp26
 70
     0
102
RTVSPropertyOp27
 70
     0
102
RTVSPropertyOp28
 70
     1
102
RTVSPropertyOp29
 70
     1
102
RTVSPropertyOp30
 70
     1
102
RTVSPropertyOp31
 70
     1
102
RTVSPropertyOp32
 70
     1
102
RTVSPropertyOp33
 70
     1
102
RTVSPropertyOp34
 70
     1
102
RTVSPropertyOp35
 70
     1
102
RTVSPropertyOp36
 70
     1
102
RTVSPropertyOp37
 70
     0
102
RTVSPropertyOp38
 70
     0
102
RTVSPropertyOp39
 70
     0
102
RTVSPropertyOp40
 70
     0
102
RTVSPropertyOp41
 70
     0
102
RTVSPropertyOp42
 70
     0
102
RTVSPropertyOp43
 70
     0
102
RTVSPropertyOp44
 70
     0
102
RTVSPropertyOp45
 70
     1
102
RTVSPropertyOp46
 70
     0
102
RTVSPropertyOp47
 70
     0
102
RTVSPropertyOp48
 70
     0
102
RTVSPropertyOp49
 70
     1
102
RTVSPropertyOp50
 70
     0
102
RTVSPropertyOp51
 70
     0
102
RTVSPropertyOp52
 70
     0
102
RTVSPropertyOp53
 70
     0
102
RTVSPropertyOp54
 70
     0
102
RTVSPropertyOp55
 70
     1
102
RTVSPropertyOp56
 70
     0
102
RTVSPropertyOp57
 70
     0
102
RTVSPropertyOp58
 70
     0
102
RTVSPropertyOp59
 70
     0
102
RTVSPropertyOp60
 70
     0
102
RTVSPropertyOp61
 70
     0
102
RTVSPropertyOp62
 70
     0
  0
XRECORD
  5
17B51
102
{ACAD_REACTORS
330
17B50
102
}
330
17B50
100
AcDbXrecord
280
     1
102
RTVSPost2010Prop28
280
     0
102
RTVSPost2010PropOp28
 70
     1
102
RTVSPost2010Prop29
280
     1
102
RTVSPost2010PropOp29
 70
     1
102
RTVSPost2010Prop30
280
     1
102
RTVSPost2010PropOp30
 70
     1
102
RTVSPost2010Prop31
280
     0
102
RTVSPost2010PropOp31
 70
     1
102
RTVSPost2010Prop32
280
     0
102
RTVSPost2010PropOp32
 70
     1
102
RTVSPost2010Prop33
280
     0
102
RTVSPost2010PropOp33
 70
     1
102
RTVSPost2010Prop34
280
     0
102
RTVSPost2010PropOp34
 70
     1
102
RTVSPost2010Prop35
280
     0
102
RTVSPost2010PropOp35
 70
     1
102
RTVSPost2010Prop36
280
     0
102
RTVSPost2010PropOp36
 70
     1
102
RTVSPost2010Prop37
 90
       50
102
RTVSPost2010PropOp37
 70
     1
102
RTVSPost2010Prop38
140
0.0
102
RTVSPost2010PropOp38
 70
     1
102
RTVSPost2010Prop39
140
1.0
102
RTVSPost2010PropOp39
 70
     1
102
RTVSPost2010Prop40
 90
        0
102
RTVSPost2010PropOp40
 70
     1
102
RTVSPost2010Prop41ColorIndex
 90
       18
102
RTVSPost2010Prop41ColorRGB
 90
        0
102
RTVSPost2010PropOp41
 70
     1
102
RTVSPost2010Prop42
 90
       50
102
RTVSPost2010PropOp42
 70
     1
102
RTVSPost2010Prop43
 90
        3
102
RTVSPost2010PropOp43
 70
     1
102
RTVSPost2010Prop44ColorIndex
 90
        5
102
RTVSPost2010Prop44ColorRGB
 90
      255
102
RTVSPost2010PropOp44
 70
     1
102
RTVSPost2010Prop45
280
     0
102
RTVSPost2010PropOp45
 70
     1
102
RTVSPost2010Prop46
 90
       50
102
RTVSPost2010PropOp46
 70
     1
102
RTVSPost2010Prop47
 90
       50
102
RTVSPost2010PropOp47
 70
     1
102
RTVSPost2010Prop48
 90
       50
102
RTVSPost2010PropOp48
 70
     1
102
RTVSPost2010Prop49
280
     0
102
RTVSPost2010PropOp49
 70
     1
102
RTVSPost2010Prop50
 90
       50
102
RTVSPost2010PropOp50
 70
     1
102
RTVSPost2010Prop51ColorIndex
 90
      256
102
RTVSPost2010Prop51ColorRGB
 90
-16777216
102
RTVSPost2010PropOp51
 70
     0
102
RTVSPost2010Prop52
140
1.0
102
RTVSPost2010PropOp52
 70
     0
102
RTVSPost2010Prop53
 90
        2
102
RTVSPost2010PropOp53
 70
     1
102
RTVSPost2010Prop54
  1
strokes_ogs.tif
102
RTVSPost2010PropOp54
 70
     1
102
RTVSPost2010Prop55
280
     0
102
RTVSPost2010PropOp55
 70
     1
102
RTVSPost2010Prop56
140
1.0
102
RTVSPost2010PropOp56
 70
     1
102
RTVSPost2010Prop57
140
1.0
102
RTVSPost2010PropOp57
 70
     1
102
RTVSPropertyOp0
 70
     1
102
RTVSPropertyOp1
 70
     1
102
RTVSPropertyOp2
 70
     1
102
RTVSPropertyOp3
 70
     1
102
RTVSPropertyOp4
 70
     1
102
RTVSPropertyOp5
 70
     1
102
RTVSPropertyOp6
 70
     1
102
RTVSPropertyOp7
 70
     1
102
RTVSPropertyOp8
 70
     1
102
RTVSPropertyOp9
 70
     1
102
RTVSPropertyOp10
 70
     1
102
RTVSPropertyOp11
 70
     1
102
RTVSPropertyOp12
 70
     1
102
RTVSPropertyOp13
 70
     1
102
RTVSPropertyOp14
 70
     1
102
RTVSPropertyOp15
 70
     1
102
RTVSPropertyOp16
 70
     1
102
RTVSPropertyOp17
 70
     1
102
RTVSPropertyOp18
 70
     1
102
RTVSPropertyOp19
 70
     1
102
RTVSPropertyOp20
 70
     1
102
RTVSPropertyOp21
 70
     1
102
RTVSPropertyOp22
 70
     1
102
RTVSPropertyOp23
 70
     1
102
RTVSPropertyOp24
 70
     1
102
RTVSPropertyOp25
 70
     1
102
RTVSPropertyOp26
 70
     1
102
RTVSPropertyOp27
 70
     1
102
RTVSPropertyOp28
 70
     1
102
RTVSPropertyOp29
 70
     1
102
RTVSPropertyOp30
 70
     1
102
RTVSPropertyOp31
 70
     1
102
RTVSPropertyOp32
 70
     1
102
RTVSPropertyOp33
 70
     1
102
RTVSPropertyOp34
 70
     1
102
RTVSPropertyOp35
 70
     1
102
RTVSPropertyOp36
 70
     1
102
RTVSPropertyOp37
 70
     1
102
RTVSPropertyOp38
 70
     1
102
RTVSPropertyOp39
 70
     1
102
RTVSPropertyOp40
 70
     1
102
RTVSPropertyOp41
 70
     1
102
RTVSPropertyOp42
 70
     1
102
RTVSPropertyOp43
 70
     1
102
RTVSPropertyOp44
 70
     1
102
RTVSPropertyOp45
 70
     1
102
RTVSPropertyOp46
 70
     1
102
RTVSPropertyOp47
 70
     1
102
RTVSPropertyOp48
 70
     1
102
RTVSPropertyOp49
 70
     1
102
RTVSPropertyOp50
 70
     1
102
RTVSPropertyOp51
 70
     0
102
RTVSPropertyOp52
 70
     0
102
RTVSPropertyOp53
 70
     1
102
RTVSPropertyOp54
 70
     1
102
RTVSPropertyOp55
 70
     1
102
RTVSPropertyOp56
 70
     1
102
RTVSPropertyOp57
 70
     1
102
RTVSPropertyOp58
 70
     1
102
RTVSPropertyOp59
 70
     1
102
RTVSPropertyOp60
 70
     1
102
RTVSPropertyOp61
 70
     1
102
RTVSPropertyOp62
 70
     1
  0
XRECORD
  5
17B67
102
{ACAD_REACTORS
330
17B66
102
}
330
17B66
100
AcDbXrecord
280
     1
102
RTVSPost2010Prop28
280
     0
102
RTVSPost2010PropOp28
 70
     1
102
RTVSPost2010Prop29
280
     1
102
RTVSPost2010PropOp29
 70
     1
102
RTVSPost2010Prop30
280
     1
102
RTVSPost2010PropOp30
 70
     1
102
RTVSPost2010Prop31
280
     0
102
RTVSPost2010PropOp31
 70
     1
102
RTVSPost2010Prop32
280
     0
102
RTVSPost2010PropOp32
 70
     1
102
RTVSPost2010Prop33
280
     0
102
RTVSPost2010PropOp33
 70
     1
102
RTVSPost2010Prop34
280
     0
102
RTVSPost2010PropOp34
 70
     1
102
RTVSPost2010Prop35
280
     0
102
RTVSPost2010PropOp35
 70
     1
102
RTVSPost2010Prop36
280
     0
102
RTVSPost2010PropOp36
 70
     1
102
RTVSPost2010Prop37
 90
       50
102
RTVSPost2010PropOp37
 70
     1
102
RTVSPost2010Prop38
140
0.0
102
RTVSPost2010PropOp38
 70
     1
102
RTVSPost2010Prop39
140
1.0
102
RTVSPost2010PropOp39
 70
     1
102
RTVSPost2010Prop40
 90
        0
102
RTVSPost2010PropOp40
 70
     1
102
RTVSPost2010Prop41ColorIndex
 90
       18
102
RTVSPost2010Prop41ColorRGB
 90
        0
102
RTVSPost2010PropOp41
 70
     1
102
RTVSPost2010Prop42
 90
       50
102
RTVSPost2010PropOp42
 70
     1
102
RTVSPost2010Prop43
 90
        3
102
RTVSPost2010PropOp43
 70
     1
102
RTVSPost2010Prop44ColorIndex
 90
        5
102
RTVSPost2010Prop44ColorRGB
 90
      255
102
RTVSPost2010PropOp44
 70
     1
102
RTVSPost2010Prop45
280
     0
102
RTVSPost2010PropOp45
 70
     1
102
RTVSPost2010Prop46
 90
       50
102
RTVSPost2010PropOp46
 70
     1
102
RTVSPost2010Prop47
 90
       50
102
RTVSPost2010PropOp47
 70
     1
102
RTVSPost2010Prop48
 90
       50
102
RTVSPost2010PropOp48
 70
     1
102
RTVSPost2010Prop49
280
     0
102
RTVSPost2010PropOp49
 70
     1
102
RTVSPost2010Prop50
 90
       50
102
RTVSPost2010PropOp50
 70
     1
102
RTVSPost2010Prop51ColorIndex
 90
      256
102
RTVSPost2010Prop51ColorRGB
 90
-16777216
102
RTVSPost2010PropOp51
 70
     0
102
RTVSPost2010Prop52
140
1.0
102
RTVSPost2010PropOp52
 70
     0
102
RTVSPost2010Prop53
 90
        2
102
RTVSPost2010PropOp53
 70
     1
102
RTVSPost2010Prop54
  1
strokes_ogs.tif
102
RTVSPost2010PropOp54
 70
     1
102
RTVSPost2010Prop55
280
     0
102
RTVSPost2010PropOp55
 70
     1
102
RTVSPost2010Prop56
140
1.0
102
RTVSPost2010PropOp56
 70
     1
102
RTVSPost2010Prop57
140
1.0
102
RTVSPost2010PropOp57
 70
     1
102
RTVSPropertyOp0
 70
     1
102
RTVSPropertyOp1
 70
     1
102
RTVSPropertyOp2
 70
     1
102
RTVSPropertyOp3
 70
     1
102
RTVSPropertyOp4
 70
     1
102
RTVSPropertyOp5
 70
     1
102
RTVSPropertyOp6
 70
     1
102
RTVSPropertyOp7
 70
     1
102
RTVSPropertyOp8
 70
     1
102
RTVSPropertyOp9
 70
     1
102
RTVSPropertyOp10
 70
     1
102
RTVSPropertyOp11
 70
     1
102
RTVSPropertyOp12
 70
     1
102
RTVSPropertyOp13
 70
     1
102
RTVSPropertyOp14
 70
     1
102
RTVSPropertyOp15
 70
     1
102
RTVSPropertyOp16
 70
     1
102
RTVSPropertyOp17
 70
     1
102
RTVSPropertyOp18
 70
     1
102
RTVSPropertyOp19
 70
     1
102
RTVSPropertyOp20
 70
     1
102
RTVSPropertyOp21
 70
     1
102
RTVSPropertyOp22
 70
     1
102
RTVSPropertyOp23
 70
     1
102
RTVSPropertyOp24
 70
     1
102
RTVSPropertyOp25
 70
     1
102
RTVSPropertyOp26
 70
     1
102
RTVSPropertyOp27
 70
     1
102
RTVSPropertyOp28
 70
     1
102
RTVSPropertyOp29
 70
     1
102
RTVSPropertyOp30
 70
     1
102
RTVSPropertyOp31
 70
     1
102
RTVSPropertyOp32
 70
     1
102
RTVSPropertyOp33
 70
     1
102
RTVSPropertyOp34
 70
     1
102
RTVSPropertyOp35
 70
     1
102
RTVSPropertyOp36
 70
     1
102
RTVSPropertyOp37
 70
     1
102
RTVSPropertyOp38
 70
     1
102
RTVSPropertyOp39
 70
     1
102
RTVSPropertyOp40
 70
     1
102
RTVSPropertyOp41
 70
     1
102
RTVSPropertyOp42
 70
     1
102
RTVSPropertyOp43
 70
     1
102
RTVSPropertyOp44
 70
     1
102
RTVSPropertyOp45
 70
     1
102
RTVSPropertyOp46
 70
     1
102
RTVSPropertyOp47
 70
     1
102
RTVSPropertyOp48
 70
     1
102
RTVSPropertyOp49
 70
     1
102
RTVSPropertyOp50
 70
     1
102
RTVSPropertyOp51
 70
     0
102
RTVSPropertyOp52
 70
     0
102
RTVSPropertyOp53
 70
     1
102
RTVSPropertyOp54
 70
     1
102
RTVSPropertyOp55
 70
     1
102
RTVSPropertyOp56
 70
     1
102
RTVSPropertyOp57
 70
     1
102
RTVSPropertyOp58
 70
     1
102
RTVSPropertyOp59
 70
     1
102
RTVSPropertyOp60
 70
     1
102
RTVSPropertyOp61
 70
     1
102
RTVSPropertyOp62
 70
     1
  0
XRECORD
  5
17B65
102
{ACAD_REACTORS
330
17B64
102
}
330
17B64
100
AcDbXrecord
280
     1
102
RTVSPost2010Prop28
280
     0
102
RTVSPost2010PropOp28
 70
     1
102
RTVSPost2010Prop29
280
     1
102
RTVSPost2010PropOp29
 70
     1
102
RTVSPost2010Prop30
280
     1
102
RTVSPost2010PropOp30
 70
     1
102
RTVSPost2010Prop31
280
     0
102
RTVSPost2010PropOp31
 70
     1
102
RTVSPost2010Prop32
280
     0
102
RTVSPost2010PropOp32
 70
     1
102
RTVSPost2010Prop33
280
     0
102
RTVSPost2010PropOp33
 70
     1
102
RTVSPost2010Prop34
280
     0
102
RTVSPost2010PropOp34
 70
     1
102
RTVSPost2010Prop35
280
     0
102
RTVSPost2010PropOp35
 70
     1
102
RTVSPost2010Prop36
280
     0
102
RTVSPost2010PropOp36
 70
     1
102
RTVSPost2010Prop37
 90
       50
102
RTVSPost2010PropOp37
 70
     1
102
RTVSPost2010Prop38
140
0.0
102
RTVSPost2010PropOp38
 70
     1
102
RTVSPost2010Prop39
140
1.0
102
RTVSPost2010PropOp39
 70
     1
102
RTVSPost2010Prop40
 90
        0
102
RTVSPost2010PropOp40
 70
     1
102
RTVSPost2010Prop41ColorIndex
 90
       18
102
RTVSPost2010Prop41ColorRGB
 90
        0
102
RTVSPost2010PropOp41
 70
     1
102
RTVSPost2010Prop42
 90
       50
102
RTVSPost2010PropOp42
 70
     1
102
RTVSPost2010Prop43
 90
        3
102
RTVSPost2010PropOp43
 70
     1
102
RTVSPost2010Prop44ColorIndex
 90
        5
102
RTVSPost2010Prop44ColorRGB
 90
      255
102
RTVSPost2010PropOp44
 70
     1
102
RTVSPost2010Prop45
280
     0
102
RTVSPost2010PropOp45
 70
     1
102
RTVSPost2010Prop46
 90
       50
102
RTVSPost2010PropOp46
 70
     1
102
RTVSPost2010Prop47
 90
       50
102
RTVSPost2010PropOp47
 70
     1
102
RTVSPost2010Prop48
 90
       50
102
RTVSPost2010PropOp48
 70
     1
102
RTVSPost2010Prop49
280
     0
102
RTVSPost2010PropOp49
 70
     1
102
RTVSPost2010Prop50
 90
       50
102
RTVSPost2010PropOp50
 70
     1
102
RTVSPost2010Prop51ColorIndex
 90
      256
102
RTVSPost2010Prop51ColorRGB
 90
-16777216
102
RTVSPost2010PropOp51
 70
     0
102
RTVSPost2010Prop52
140
1.0
102
RTVSPost2010PropOp52
 70
     0
102
RTVSPost2010Prop53
 90
        2
102
RTVSPost2010PropOp53
 70
     1
102
RTVSPost2010Prop54
  1
strokes_ogs.tif
102
RTVSPost2010PropOp54
 70
     1
102
RTVSPost2010Prop55
280
     0
102
RTVSPost2010PropOp55
 70
     1
102
RTVSPost2010Prop56
140
1.0
102
RTVSPost2010PropOp56
 70
     1
102
RTVSPost2010Prop57
140
1.0
102
RTVSPost2010PropOp57
 70
     1
102
RTVSPropertyOp0
 70
     1
102
RTVSPropertyOp1
 70
     1
102
RTVSPropertyOp2
 70
     1
102
RTVSPropertyOp3
 70
     1
102
RTVSPropertyOp4
 70
     1
102
RTVSPropertyOp5
 70
     1
102
RTVSPropertyOp6
 70
     1
102
RTVSPropertyOp7
 70
     1
102
RTVSPropertyOp8
 70
     1
102
RTVSPropertyOp9
 70
     1
102
RTVSPropertyOp10
 70
     1
102
RTVSPropertyOp11
 70
     1
102
RTVSPropertyOp12
 70
     1
102
RTVSPropertyOp13
 70
     1
102
RTVSPropertyOp14
 70
     1
102
RTVSPropertyOp15
 70
     1
102
RTVSPropertyOp16
 70
     1
102
RTVSPropertyOp17
 70
     1
102
RTVSPropertyOp18
 70
     1
102
RTVSPropertyOp19
 70
     1
102
RTVSPropertyOp20
 70
     1
102
RTVSPropertyOp21
 70
     1
102
RTVSPropertyOp22
 70
     1
102
RTVSPropertyOp23
 70
     1
102
RTVSPropertyOp24
 70
     1
102
RTVSPropertyOp25
 70
     1
102
RTVSPropertyOp26
 70
     1
102
RTVSPropertyOp27
 70
     1
102
RTVSPropertyOp28
 70
     1
102
RTVSPropertyOp29
 70
     1
102
RTVSPropertyOp30
 70
     1
102
RTVSPropertyOp31
 70
     1
102
RTVSPropertyOp32
 70
     1
102
RTVSPropertyOp33
 70
     1
102
RTVSPropertyOp34
 70
     1
102
RTVSPropertyOp35
 70
     1
102
RTVSPropertyOp36
 70
     1
102
RTVSPropertyOp37
 70
     1
102
RTVSPropertyOp38
 70
     1
102
RTVSPropertyOp39
 70
     1
102
RTVSPropertyOp40
 70
     1
102
RTVSPropertyOp41
 70
     1
102
RTVSPropertyOp42
 70
     1
102
RTVSPropertyOp43
 70
     1
102
RTVSPropertyOp44
 70
     1
102
RTVSPropertyOp45
 70
     1
102
RTVSPropertyOp46
 70
     1
102
RTVSPropertyOp47
 70
     1
102
RTVSPropertyOp48
 70
     1
102
RTVSPropertyOp49
 70
     1
102
RTVSPropertyOp50
 70
     1
102
RTVSPropertyOp51
 70
     0
102
RTVSPropertyOp52
 70
     0
102
RTVSPropertyOp53
 70
     1
102
RTVSPropertyOp54
 70
     1
102
RTVSPropertyOp55
 70
     1
102
RTVSPropertyOp56
 70
     1
102
RTVSPropertyOp57
 70
     1
102
RTVSPropertyOp58
 70
     1
102
RTVSPropertyOp59
 70
     1
102
RTVSPropertyOp60
 70
     1
102
RTVSPropertyOp61
 70
     1
102
RTVSPropertyOp62
 70
     1
  0
XRECORD
  5
17B5F
102
{ACAD_REACTORS
330
17B5E
102
}
330
17B5E
100
AcDbXrecord
280
     1
102
RTVSPost2010Prop28
280
     0
102
RTVSPost2010PropOp28
 70
     1
102
RTVSPost2010Prop29
280
     1
102
RTVSPost2010PropOp29
 70
     1
102
RTVSPost2010Prop30
280
     1
102
RTVSPost2010PropOp30
 70
     1
102
RTVSPost2010Prop31
280
     0
102
RTVSPost2010PropOp31
 70
     1
102
RTVSPost2010Prop32
280
     0
102
RTVSPost2010PropOp32
 70
     1
102
RTVSPost2010Prop33
280
     0
102
RTVSPost2010PropOp33
 70
     1
102
RTVSPost2010Prop34
280
     0
102
RTVSPost2010PropOp34
 70
     1
102
RTVSPost2010Prop35
280
     0
102
RTVSPost2010PropOp35
 70
     1
102
RTVSPost2010Prop36
280
     0
102
RTVSPost2010PropOp36
 70
     1
102
RTVSPost2010Prop37
 90
       50
102
RTVSPost2010PropOp37
 70
     1
102
RTVSPost2010Prop38
140
0.0
102
RTVSPost2010PropOp38
 70
     1
102
RTVSPost2010Prop39
140
1.0
102
RTVSPost2010PropOp39
 70
     1
102
RTVSPost2010Prop40
 90
        0
102
RTVSPost2010PropOp40
 70
     1
102
RTVSPost2010Prop41ColorIndex
 90
       18
102
RTVSPost2010Prop41ColorRGB
 90
        0
102
RTVSPost2010PropOp41
 70
     1
102
RTVSPost2010Prop42
 90
       50
102
RTVSPost2010PropOp42
 70
     1
102
RTVSPost2010Prop43
 90
        3
102
RTVSPost2010PropOp43
 70
     1
102
RTVSPost2010Prop44ColorIndex
 90
        5
102
RTVSPost2010Prop44ColorRGB
 90
      255
102
RTVSPost2010PropOp44
 70
     1
102
RTVSPost2010Prop45
280
     0
102
RTVSPost2010PropOp45
 70
     1
102
RTVSPost2010Prop46
 90
       50
102
RTVSPost2010PropOp46
 70
     1
102
RTVSPost2010Prop47
 90
       50
102
RTVSPost2010PropOp47
 70
     1
102
RTVSPost2010Prop48
 90
       50
102
RTVSPost2010PropOp48
 70
     1
102
RTVSPost2010Prop49
280
     0
102
RTVSPost2010PropOp49
 70
     1
102
RTVSPost2010Prop50
 90
       50
102
RTVSPost2010PropOp50
 70
     1
102
RTVSPost2010Prop51ColorIndex
 90
      256
102
RTVSPost2010Prop51ColorRGB
 90
-16777216
102
RTVSPost2010PropOp51
 70
     0
102
RTVSPost2010Prop52
140
1.0
102
RTVSPost2010PropOp52
 70
     0
102
RTVSPost2010Prop53
 90
        2
102
RTVSPost2010PropOp53
 70
     1
102
RTVSPost2010Prop54
  1
strokes_ogs.tif
102
RTVSPost2010PropOp54
 70
     1
102
RTVSPost2010Prop55
280
     0
102
RTVSPost2010PropOp55
 70
     1
102
RTVSPost2010Prop56
140
1.0
102
RTVSPost2010PropOp56
 70
     1
102
RTVSPost2010Prop57
140
1.0
102
RTVSPost2010PropOp57
 70
     1
102
RTVSPropertyOp0
 70
     1
102
RTVSPropertyOp1
 70
     1
102
RTVSPropertyOp2
 70
     1
102
RTVSPropertyOp3
 70
     1
102
RTVSPropertyOp4
 70
     1
102
RTVSPropertyOp5
 70
     1
102
RTVSPropertyOp6
 70
     1
102
RTVSPropertyOp7
 70
     1
102
RTVSPropertyOp8
 70
     1
102
RTVSPropertyOp9
 70
     1
102
RTVSPropertyOp10
 70
     1
102
RTVSPropertyOp11
 70
     1
102
RTVSPropertyOp12
 70
     1
102
RTVSPropertyOp13
 70
     1
102
RTVSPropertyOp14
 70
     1
102
RTVSPropertyOp15
 70
     1
102
RTVSPropertyOp16
 70
     1
102
RTVSPropertyOp17
 70
     1
102
RTVSPropertyOp18
 70
     1
102
RTVSPropertyOp19
 70
     1
102
RTVSPropertyOp20
 70
     1
102
RTVSPropertyOp21
 70
     1
102
RTVSPropertyOp22
 70
     1
102
RTVSPropertyOp23
 70
     1
102
RTVSPropertyOp24
 70
     1
102
RTVSPropertyOp25
 70
     1
102
RTVSPropertyOp26
 70
     1
102
RTVSPropertyOp27
 70
     1
102
RTVSPropertyOp28
 70
     1
102
RTVSPropertyOp29
 70
     1
102
RTVSPropertyOp30
 70
     1
102
RTVSPropertyOp31
 70
     1
102
RTVSPropertyOp32
 70
     1
102
RTVSPropertyOp33
 70
     1
102
RTVSPropertyOp34
 70
     1
102
RTVSPropertyOp35
 70
     1
102
RTVSPropertyOp36
 70
     1
102
RTVSPropertyOp37
 70
     1
102
RTVSPropertyOp38
 70
     1
102
RTVSPropertyOp39
 70
     1
102
RTVSPropertyOp40
 70
     1
102
RTVSPropertyOp41
 70
     1
102
RTVSPropertyOp42
 70
     1
102
RTVSPropertyOp43
 70
     1
102
RTVSPropertyOp44
 70
     1
102
RTVSPropertyOp45
 70
     1
102
RTVSPropertyOp46
 70
     1
102
RTVSPropertyOp47
 70
     1
102
RTVSPropertyOp48
 70
     1
102
RTVSPropertyOp49
 70
     1
102
RTVSPropertyOp50
 70
     1
102
RTVSPropertyOp51
 70
     0
102
RTVSPropertyOp52
 70
     0
102
RTVSPropertyOp53
 70
     1
102
RTVSPropertyOp54
 70
     1
102
RTVSPropertyOp55
 70
     1
102
RTVSPropertyOp56
 70
     1
102
RTVSPropertyOp57
 70
     1
102
RTVSPropertyOp58
 70
     1
102
RTVSPropertyOp59
 70
     1
102
RTVSPropertyOp60
 70
     1
102
RTVSPropertyOp61
 70
     1
102
RTVSPropertyOp62
 70
     1
  0
XRECORD
  5
17B61
102
{ACAD_REACTORS
330
17B60
102
}
330
17B60
100
AcDbXrecord
280
     1
102
RTVSPost2010Prop28
280
     0
102
RTVSPost2010PropOp28
 70
     1
102
RTVSPost2010Prop29
280
     1
102
RTVSPost2010PropOp29
 70
     1
102
RTVSPost2010Prop30
280
     1
102
RTVSPost2010PropOp30
 70
     1
102
RTVSPost2010Prop31
280
     0
102
RTVSPost2010PropOp31
 70
     1
102
RTVSPost2010Prop32
280
     0
102
RTVSPost2010PropOp32
 70
     1
102
RTVSPost2010Prop33
280
     0
102
RTVSPost2010PropOp33
 70
     1
102
RTVSPost2010Prop34
280
     0
102
RTVSPost2010PropOp34
 70
     1
102
RTVSPost2010Prop35
280
     0
102
RTVSPost2010PropOp35
 70
     1
102
RTVSPost2010Prop36
280
     0
102
RTVSPost2010PropOp36
 70
     1
102
RTVSPost2010Prop37
 90
       50
102
RTVSPost2010PropOp37
 70
     1
102
RTVSPost2010Prop38
140
0.0
102
RTVSPost2010PropOp38
 70
     1
102
RTVSPost2010Prop39
140
1.0
102
RTVSPost2010PropOp39
 70
     1
102
RTVSPost2010Prop40
 90
        0
102
RTVSPost2010PropOp40
 70
     1
102
RTVSPost2010Prop41ColorIndex
 90
       18
102
RTVSPost2010Prop41ColorRGB
 90
        0
102
RTVSPost2010PropOp41
 70
     1
102
RTVSPost2010Prop42
 90
       50
102
RTVSPost2010PropOp42
 70
     1
102
RTVSPost2010Prop43
 90
        3
102
RTVSPost2010PropOp43
 70
     1
102
RTVSPost2010Prop44ColorIndex
 90
        5
102
RTVSPost2010Prop44ColorRGB
 90
      255
102
RTVSPost2010PropOp44
 70
     1
102
RTVSPost2010Prop45
280
     0
102
RTVSPost2010PropOp45
 70
     1
102
RTVSPost2010Prop46
 90
       50
102
RTVSPost2010PropOp46
 70
     1
102
RTVSPost2010Prop47
 90
       50
102
RTVSPost2010PropOp47
 70
     1
102
RTVSPost2010Prop48
 90
       50
102
RTVSPost2010PropOp48
 70
     1
102
RTVSPost2010Prop49
280
     0
102
RTVSPost2010PropOp49
 70
     1
102
RTVSPost2010Prop50
 90
       50
102
RTVSPost2010PropOp50
 70
     1
102
RTVSPost2010Prop51ColorIndex
 90
      256
102
RTVSPost2010Prop51ColorRGB
 90
-16777216
102
RTVSPost2010PropOp51
 70
     0
102
RTVSPost2010Prop52
140
1.0
102
RTVSPost2010PropOp52
 70
     0
102
RTVSPost2010Prop53
 90
        2
102
RTVSPost2010PropOp53
 70
     1
102
RTVSPost2010Prop54
  1
strokes_ogs.tif
102
RTVSPost2010PropOp54
 70
     1
102
RTVSPost2010Prop55
280
     0
102
RTVSPost2010PropOp55
 70
     1
102
RTVSPost2010Prop56
140
1.0
102
RTVSPost2010PropOp56
 70
     1
102
RTVSPost2010Prop57
140
1.0
102
RTVSPost2010PropOp57
 70
     1
102
RTVSPropertyOp0
 70
     1
102
RTVSPropertyOp1
 70
     1
102
RTVSPropertyOp2
 70
     1
102
RTVSPropertyOp3
 70
     1
102
RTVSPropertyOp4
 70
     1
102
RTVSPropertyOp5
 70
     1
102
RTVSPropertyOp6
 70
     1
102
RTVSPropertyOp7
 70
     1
102
RTVSPropertyOp8
 70
     1
102
RTVSPropertyOp9
 70
     1
102
RTVSPropertyOp10
 70
     1
102
RTVSPropertyOp11
 70
     1
102
RTVSPropertyOp12
 70
     1
102
RTVSPropertyOp13
 70
     1
102
RTVSPropertyOp14
 70
     1
102
RTVSPropertyOp15
 70
     1
102
RTVSPropertyOp16
 70
     1
102
RTVSPropertyOp17
 70
     1
102
RTVSPropertyOp18
 70
     1
102
RTVSPropertyOp19
 70
     1
102
RTVSPropertyOp20
 70
     1
102
RTVSPropertyOp21
 70
     1
102
RTVSPropertyOp22
 70
     1
102
RTVSPropertyOp23
 70
     1
102
RTVSPropertyOp24
 70
     1
102
RTVSPropertyOp25
 70
     1
102
RTVSPropertyOp26
 70
     1
102
RTVSPropertyOp27
 70
     1
102
RTVSPropertyOp28
 70
     1
102
RTVSPropertyOp29
 70
     1
102
RTVSPropertyOp30
 70
     1
102
RTVSPropertyOp31
 70
     1
102
RTVSPropertyOp32
 70
     1
102
RTVSPropertyOp33
 70
     1
102
RTVSPropertyOp34
 70
     1
102
RTVSPropertyOp35
 70
     1
102
RTVSPropertyOp36
 70
     1
102
RTVSPropertyOp37
 70
     1
102
RTVSPropertyOp38
 70
     1
102
RTVSPropertyOp39
 70
     1
102
RTVSPropertyOp40
 70
     1
102
RTVSPropertyOp41
 70
     1
102
RTVSPropertyOp42
 70
     1
102
RTVSPropertyOp43
 70
     1
102
RTVSPropertyOp44
 70
     1
102
RTVSPropertyOp45
 70
     1
102
RTVSPropertyOp46
 70
     1
102
RTVSPropertyOp47
 70
     1
102
RTVSPropertyOp48
 70
     1
102
RTVSPropertyOp49
 70
     1
102
RTVSPropertyOp50
 70
     1
102
RTVSPropertyOp51
 70
     0
102
RTVSPropertyOp52
 70
     0
102
RTVSPropertyOp53
 70
     1
102
RTVSPropertyOp54
 70
     1
102
RTVSPropertyOp55
 70
     1
102
RTVSPropertyOp56
 70
     1
102
RTVSPropertyOp57
 70
     1
102
RTVSPropertyOp58
 70
     1
102
RTVSPropertyOp59
 70
     1
102
RTVSPropertyOp60
 70
     1
102
RTVSPropertyOp61
 70
     1
102
RTVSPropertyOp62
 70
     1
  0
XRECORD
  5
17B57
102
{ACAD_REACTORS
330
17B56
102
}
330
17B56
100
AcDbXrecord
280
     1
102
RTVSPost2010Prop28
280
     0
102
RTVSPost2010PropOp28
 70
     1
102
RTVSPost2010Prop29
280
     1
102
RTVSPost2010PropOp29
 70
     1
102
RTVSPost2010Prop30
280
     1
102
RTVSPost2010PropOp30
 70
     1
102
RTVSPost2010Prop31
280
     0
102
RTVSPost2010PropOp31
 70
     1
102
RTVSPost2010Prop32
280
     0
102
RTVSPost2010PropOp32
 70
     1
102
RTVSPost2010Prop33
280
     0
102
RTVSPost2010PropOp33
 70
     1
102
RTVSPost2010Prop34
280
     0
102
RTVSPost2010PropOp34
 70
     1
102
RTVSPost2010Prop35
280
     0
102
RTVSPost2010PropOp35
 70
     1
102
RTVSPost2010Prop36
280
     0
102
RTVSPost2010PropOp36
 70
     1
102
RTVSPost2010Prop37
 90
       50
102
RTVSPost2010PropOp37
 70
     1
102
RTVSPost2010Prop38
140
0.0
102
RTVSPost2010PropOp38
 70
     1
102
RTVSPost2010Prop39
140
1.0
102
RTVSPost2010PropOp39
 70
     1
102
RTVSPost2010Prop40
 90
        0
102
RTVSPost2010PropOp40
 70
     1
102
RTVSPost2010Prop41ColorIndex
 90
       18
102
RTVSPost2010Prop41ColorRGB
 90
        0
102
RTVSPost2010PropOp41
 70
     1
102
RTVSPost2010Prop42
 90
       50
102
RTVSPost2010PropOp42
 70
     1
102
RTVSPost2010Prop43
 90
        3
102
RTVSPost2010PropOp43
 70
     1
102
RTVSPost2010Prop44ColorIndex
 90
        5
102
RTVSPost2010Prop44ColorRGB
 90
      255
102
RTVSPost2010PropOp44
 70
     1
102
RTVSPost2010Prop45
280
     0
102
RTVSPost2010PropOp45
 70
     1
102
RTVSPost2010Prop46
 90
       50
102
RTVSPost2010PropOp46
 70
     1
102
RTVSPost2010Prop47
 90
       50
102
RTVSPost2010PropOp47
 70
     1
102
RTVSPost2010Prop48
 90
       50
102
RTVSPost2010PropOp48
 70
     1
102
RTVSPost2010Prop49
280
     0
102
RTVSPost2010PropOp49
 70
     1
102
RTVSPost2010Prop50
 90
       50
102
RTVSPost2010PropOp50
 70
     1
102
RTVSPost2010Prop51ColorIndex
 90
      256
102
RTVSPost2010Prop51ColorRGB
 90
-16777216
102
RTVSPost2010PropOp51
 70
     0
102
RTVSPost2010Prop52
140
1.0
102
RTVSPost2010PropOp52
 70
     0
102
RTVSPost2010Prop53
 90
        2
102
RTVSPost2010PropOp53
 70
     1
102
RTVSPost2010Prop54
  1
strokes_ogs.tif
102
RTVSPost2010PropOp54
 70
     1
102
RTVSPost2010Prop55
280
     0
102
RTVSPost2010PropOp55
 70
     1
102
RTVSPost2010Prop56
140
1.0
102
RTVSPost2010PropOp56
 70
     1
102
RTVSPost2010Prop57
140
1.0
102
RTVSPost2010PropOp57
 70
     1
102
RTVSPropertyOp0
 70
     1
102
RTVSPropertyOp1
 70
     1
102
RTVSPropertyOp2
 70
     1
102
RTVSPropertyOp3
 70
     1
102
RTVSPropertyOp4
 70
     1
102
RTVSPropertyOp5
 70
     1
102
RTVSPropertyOp6
 70
     1
102
RTVSPropertyOp7
 70
     1
102
RTVSPropertyOp8
 70
     1
102
RTVSPropertyOp9
 70
     1
102
RTVSPropertyOp10
 70
     1
102
RTVSPropertyOp11
 70
     1
102
RTVSPropertyOp12
 70
     1
102
RTVSPropertyOp13
 70
     1
102
RTVSPropertyOp14
 70
     1
102
RTVSPropertyOp15
 70
     1
102
RTVSPropertyOp16
 70
     1
102
RTVSPropertyOp17
 70
     1
102
RTVSPropertyOp18
 70
     1
102
RTVSPropertyOp19
 70
     1
102
RTVSPropertyOp20
 70
     1
102
RTVSPropertyOp21
 70
     1
102
RTVSPropertyOp22
 70
     1
102
RTVSPropertyOp23
 70
     1
102
RTVSPropertyOp24
 70
     1
102
RTVSPropertyOp25
 70
     1
102
RTVSPropertyOp26
 70
     1
102
RTVSPropertyOp27
 70
     1
102
RTVSPropertyOp28
 70
     1
102
RTVSPropertyOp29
 70
     1
102
RTVSPropertyOp30
 70
     1
102
RTVSPropertyOp31
 70
     1
102
RTVSPropertyOp32
 70
     1
102
RTVSPropertyOp33
 70
     1
102
RTVSPropertyOp34
 70
     1
102
RTVSPropertyOp35
 70
     1
102
RTVSPropertyOp36
 70
     1
102
RTVSPropertyOp37
 70
     1
102
RTVSPropertyOp38
 70
     1
102
RTVSPropertyOp39
 70
     1
102
RTVSPropertyOp40
 70
     1
102
RTVSPropertyOp41
 70
     1
102
RTVSPropertyOp42
 70
     1
102
RTVSPropertyOp43
 70
     1
102
RTVSPropertyOp44
 70
     1
102
RTVSPropertyOp45
 70
     1
102
RTVSPropertyOp46
 70
     1
102
RTVSPropertyOp47
 70
     1
102
RTVSPropertyOp48
 70
     1
102
RTVSPropertyOp49
 70
     1
102
RTVSPropertyOp50
 70
     1
102
RTVSPropertyOp51
 70
     0
102
RTVSPropertyOp52
 70
     0
102
RTVSPropertyOp53
 70
     1
102
RTVSPropertyOp54
 70
     1
102
RTVSPropertyOp55
 70
     1
102
RTVSPropertyOp56
 70
     1
102
RTVSPropertyOp57
 70
     1
102
RTVSPropertyOp58
 70
     1
102
RTVSPropertyOp59
 70
     1
102
RTVSPropertyOp60
 70
     1
102
RTVSPropertyOp61
 70
     1
102
RTVSPropertyOp62
 70
     1
  0
XRECORD
  5
17B4B
102
{ACAD_REACTORS
330
17B4A
102
}
330
17B4A
100
AcDbXrecord
280
     1
102
RTVSPost2010Prop28
280
     0
102
RTVSPost2010PropOp28
 70
     1
102
RTVSPost2010Prop29
280
     1
102
RTVSPost2010PropOp29
 70
     1
102
RTVSPost2010Prop30
280
     1
102
RTVSPost2010PropOp30
 70
     1
102
RTVSPost2010Prop31
280
     0
102
RTVSPost2010PropOp31
 70
     1
102
RTVSPost2010Prop32
280
     0
102
RTVSPost2010PropOp32
 70
     1
102
RTVSPost2010Prop33
280
     0
102
RTVSPost2010PropOp33
 70
     1
102
RTVSPost2010Prop34
280
     0
102
RTVSPost2010PropOp34
 70
     1
102
RTVSPost2010Prop35
280
     0
102
RTVSPost2010PropOp35
 70
     1
102
RTVSPost2010Prop36
280
     0
102
RTVSPost2010PropOp36
 70
     1
102
RTVSPost2010Prop37
 90
       50
102
RTVSPost2010PropOp37
 70
     1
102
RTVSPost2010Prop38
140
0.0
102
RTVSPost2010PropOp38
 70
     1
102
RTVSPost2010Prop39
140
1.0
102
RTVSPost2010PropOp39
 70
     1
102
RTVSPost2010Prop40
 90
        0
102
RTVSPost2010PropOp40
 70
     1
102
RTVSPost2010Prop41ColorIndex
 90
       18
102
RTVSPost2010Prop41ColorRGB
 90
        0
102
RTVSPost2010PropOp41
 70
     1
102
RTVSPost2010Prop42
 90
       50
102
RTVSPost2010PropOp42
 70
     1
102
RTVSPost2010Prop43
 90
        3
102
RTVSPost2010PropOp43
 70
     1
102
RTVSPost2010Prop44ColorIndex
 90
        5
102
RTVSPost2010Prop44ColorRGB
 90
      255
102
RTVSPost2010PropOp44
 70
     1
102
RTVSPost2010Prop45
280
     0
102
RTVSPost2010PropOp45
 70
     1
102
RTVSPost2010Prop46
 90
       50
102
RTVSPost2010PropOp46
 70
     1
102
RTVSPost2010Prop47
 90
       50
102
RTVSPost2010PropOp47
 70
     1
102
RTVSPost2010Prop48
 90
       50
102
RTVSPost2010PropOp48
 70
     1
102
RTVSPost2010Prop49
280
     0
102
RTVSPost2010PropOp49
 70
     1
102
RTVSPost2010Prop50
 90
       50
102
RTVSPost2010PropOp50
 70
     1
102
RTVSPost2010Prop51ColorIndex
 90
      256
102
RTVSPost2010Prop51ColorRGB
 90
-16777216
102
RTVSPost2010PropOp51
 70
     0
102
RTVSPost2010Prop52
140
1.0
102
RTVSPost2010PropOp52
 70
     0
102
RTVSPost2010Prop53
 90
        2
102
RTVSPost2010PropOp53
 70
     1
102
RTVSPost2010Prop54
  1
strokes_ogs.tif
102
RTVSPost2010PropOp54
 70
     1
102
RTVSPost2010Prop55
280
     0
102
RTVSPost2010PropOp55
 70
     1
102
RTVSPost2010Prop56
140
1.0
102
RTVSPost2010PropOp56
 70
     1
102
RTVSPost2010Prop57
140
1.0
102
RTVSPost2010PropOp57
 70
     1
102
RTVSPropertyOp0
 70
     1
102
RTVSPropertyOp1
 70
     1
102
RTVSPropertyOp2
 70
     1
102
RTVSPropertyOp3
 70
     1
102
RTVSPropertyOp4
 70
     1
102
RTVSPropertyOp5
 70
     1
102
RTVSPropertyOp6
 70
     1
102
RTVSPropertyOp7
 70
     1
102
RTVSPropertyOp8
 70
     1
102
RTVSPropertyOp9
 70
     1
102
RTVSPropertyOp10
 70
     1
102
RTVSPropertyOp11
 70
     1
102
RTVSPropertyOp12
 70
     1
102
RTVSPropertyOp13
 70
     1
102
RTVSPropertyOp14
 70
     1
102
RTVSPropertyOp15
 70
     1
102
RTVSPropertyOp16
 70
     1
102
RTVSPropertyOp17
 70
     1
102
RTVSPropertyOp18
 70
     1
102
RTVSPropertyOp19
 70
     1
102
RTVSPropertyOp20
 70
     1
102
RTVSPropertyOp21
 70
     1
102
RTVSPropertyOp22
 70
     1
102
RTVSPropertyOp23
 70
     1
102
RTVSPropertyOp24
 70
     1
102
RTVSPropertyOp25
 70
     1
102
RTVSPropertyOp26
 70
     1
102
RTVSPropertyOp27
 70
     1
102
RTVSPropertyOp28
 70
     1
102
RTVSPropertyOp29
 70
     1
102
RTVSPropertyOp30
 70
     1
102
RTVSPropertyOp31
 70
     1
102
RTVSPropertyOp32
 70
     1
102
RTVSPropertyOp33
 70
     1
102
RTVSPropertyOp34
 70
     1
102
RTVSPropertyOp35
 70
     1
102
RTVSPropertyOp36
 70
     1
102
RTVSPropertyOp37
 70
     1
102
RTVSPropertyOp38
 70
     1
102
RTVSPropertyOp39
 70
     1
102
RTVSPropertyOp40
 70
     1
102
RTVSPropertyOp41
 70
     1
102
RTVSPropertyOp42
 70
     1
102
RTVSPropertyOp43
 70
     1
102
RTVSPropertyOp44
 70
     1
102
RTVSPropertyOp45
 70
     1
102
RTVSPropertyOp46
 70
     1
102
RTVSPropertyOp47
 70
     1
102
RTVSPropertyOp48
 70
     1
102
RTVSPropertyOp49
 70
     1
102
RTVSPropertyOp50
 70
     1
102
RTVSPropertyOp51
 70
     0
102
RTVSPropertyOp52
 70
     0
102
RTVSPropertyOp53
 70
     1
102
RTVSPropertyOp54
 70
     1
102
RTVSPropertyOp55
 70
     1
102
RTVSPropertyOp56
 70
     1
102
RTVSPropertyOp57
 70
     1
102
RTVSPropertyOp58
 70
     1
102
RTVSPropertyOp59
 70
     1
102
RTVSPropertyOp60
 70
     1
102
RTVSPropertyOp61
 70
     1
102
RTVSPropertyOp62
 70
     1
  0
XRECORD
  5
17B63
102
{ACAD_REACTORS
330
17B62
102
}
330
17B62
100
AcDbXrecord
280
     1
102
RTVSPost2010Prop28
280
     0
102
RTVSPost2010PropOp28
 70
     1
102
RTVSPost2010Prop29
280
     1
102
RTVSPost2010PropOp29
 70
     1
102
RTVSPost2010Prop30
280
     1
102
RTVSPost2010PropOp30
 70
     1
102
RTVSPost2010Prop31
280
     0
102
RTVSPost2010PropOp31
 70
     1
102
RTVSPost2010Prop32
280
     0
102
RTVSPost2010PropOp32
 70
     1
102
RTVSPost2010Prop33
280
     0
102
RTVSPost2010PropOp33
 70
     1
102
RTVSPost2010Prop34
280
     0
102
RTVSPost2010PropOp34
 70
     1
102
RTVSPost2010Prop35
280
     0
102
RTVSPost2010PropOp35
 70
     1
102
RTVSPost2010Prop36
280
     0
102
RTVSPost2010PropOp36
 70
     1
102
RTVSPost2010Prop37
 90
       50
102
RTVSPost2010PropOp37
 70
     1
102
RTVSPost2010Prop38
140
0.0
102
RTVSPost2010PropOp38
 70
     1
102
RTVSPost2010Prop39
140
1.0
102
RTVSPost2010PropOp39
 70
     1
102
RTVSPost2010Prop40
 90
        0
102
RTVSPost2010PropOp40
 70
     1
102
RTVSPost2010Prop41ColorIndex
 90
       18
102
RTVSPost2010Prop41ColorRGB
 90
        0
102
RTVSPost2010PropOp41
 70
     1
102
RTVSPost2010Prop42
 90
       50
102
RTVSPost2010PropOp42
 70
     1
102
RTVSPost2010Prop43
 90
        3
102
RTVSPost2010PropOp43
 70
     1
102
RTVSPost2010Prop44ColorIndex
 90
        5
102
RTVSPost2010Prop44ColorRGB
 90
      255
102
RTVSPost2010PropOp44
 70
     1
102
RTVSPost2010Prop45
280
     0
102
RTVSPost2010PropOp45
 70
     1
102
RTVSPost2010Prop46
 90
       50
102
RTVSPost2010PropOp46
 70
     1
102
RTVSPost2010Prop47
 90
       50
102
RTVSPost2010PropOp47
 70
     1
102
RTVSPost2010Prop48
 90
       50
102
RTVSPost2010PropOp48
 70
     1
102
RTVSPost2010Prop49
280
     0
102
RTVSPost2010PropOp49
 70
     1
102
RTVSPost2010Prop50
 90
       50
102
RTVSPost2010PropOp50
 70
     1
102
RTVSPost2010Prop51ColorIndex
 90
      256
102
RTVSPost2010Prop51ColorRGB
 90
-16777216
102
RTVSPost2010PropOp51
 70
     0
102
RTVSPost2010Prop52
140
1.0
102
RTVSPost2010PropOp52
 70
     0
102
RTVSPost2010Prop53
 90
        2
102
RTVSPost2010PropOp53
 70
     1
102
RTVSPost2010Prop54
  1
strokes_ogs.tif
102
RTVSPost2010PropOp54
 70
     1
102
RTVSPost2010Prop55
280
     0
102
RTVSPost2010PropOp55
 70
     1
102
RTVSPost2010Prop56
140
1.0
102
RTVSPost2010PropOp56
 70
     1
102
RTVSPost2010Prop57
140
1.0
102
RTVSPost2010PropOp57
 70
     1
102
RTVSPropertyOp0
 70
     1
102
RTVSPropertyOp1
 70
     1
102
RTVSPropertyOp2
 70
     1
102
RTVSPropertyOp3
 70
     1
102
RTVSPropertyOp4
 70
     1
102
RTVSPropertyOp5
 70
     1
102
RTVSPropertyOp6
 70
     1
102
RTVSPropertyOp7
 70
     1
102
RTVSPropertyOp8
 70
     1
102
RTVSPropertyOp9
 70
     1
102
RTVSPropertyOp10
 70
     1
102
RTVSPropertyOp11
 70
     1
102
RTVSPropertyOp12
 70
     1
102
RTVSPropertyOp13
 70
     1
102
RTVSPropertyOp14
 70
     1
102
RTVSPropertyOp15
 70
     1
102
RTVSPropertyOp16
 70
     1
102
RTVSPropertyOp17
 70
     1
102
RTVSPropertyOp18
 70
     1
102
RTVSPropertyOp19
 70
     1
102
RTVSPropertyOp20
 70
     1
102
RTVSPropertyOp21
 70
     1
102
RTVSPropertyOp22
 70
     1
102
RTVSPropertyOp23
 70
     1
102
RTVSPropertyOp24
 70
     1
102
RTVSPropertyOp25
 70
     1
102
RTVSPropertyOp26
 70
     1
102
RTVSPropertyOp27
 70
     1
102
RTVSPropertyOp28
 70
     1
102
RTVSPropertyOp29
 70
     1
102
RTVSPropertyOp30
 70
     1
102
RTVSPropertyOp31
 70
     1
102
RTVSPropertyOp32
 70
     1
102
RTVSPropertyOp33
 70
     1
102
RTVSPropertyOp34
 70
     1
102
RTVSPropertyOp35
 70
     1
102
RTVSPropertyOp36
 70
     1
102
RTVSPropertyOp37
 70
     1
102
RTVSPropertyOp38
 70
     1
102
RTVSPropertyOp39
 70
     1
102
RTVSPropertyOp40
 70
     1
102
RTVSPropertyOp41
 70
     1
102
RTVSPropertyOp42
 70
     1
102
RTVSPropertyOp43
 70
     1
102
RTVSPropertyOp44
 70
     1
102
RTVSPropertyOp45
 70
     1
102
RTVSPropertyOp46
 70
     1
102
RTVSPropertyOp47
 70
     1
102
RTVSPropertyOp48
 70
     1
102
RTVSPropertyOp49
 70
     1
102
RTVSPropertyOp50
 70
     1
102
RTVSPropertyOp51
 70
     0
102
RTVSPropertyOp52
 70
     0
102
RTVSPropertyOp53
 70
     1
102
RTVSPropertyOp54
 70
     1
102
RTVSPropertyOp55
 70
     1
102
RTVSPropertyOp56
 70
     1
102
RTVSPropertyOp57
 70
     1
102
RTVSPropertyOp58
 70
     1
102
RTVSPropertyOp59
 70
     1
102
RTVSPropertyOp60
 70
     1
102
RTVSPropertyOp61
 70
     1
102
RTVSPropertyOp62
 70
     1
  0
ENDSEC
  0
EOF
