  0
SECTION
  2
HEADER
  9
$ACADVER
  1
AC1015
  9
$ACADMAINTVER
 70
    20
  9
$DWGCODEPAGE
  3
ANSI_932
  9
$INSBASE
 10
0.0
 20
0.0
 30
0.0
  9
$EXTMIN
 10
9.999951537608113
 20
9.999999806846602
 30
0.0
  9
$EXTMAX
 10
540.9999875376081
 20
372.4000918068464
 30
0.0
  9
$LIMMIN
 10
0.0000015376083204
 20
-0.0000001931532552
  9
$LIMMAX
 10
555.0000015376081
 20
382.6136361704829
  9
$ORTHOMODE
 70
     1
  9
$REGENMODE
 70
     1
  9
$FILLMODE
 70
     1
  9
$QTEXTMODE
 70
     0
  9
$MIRRTEXT
 70
     1
  9
$LTSCALE
 40
1.0
  9
$ATTMODE
 70
     1
  9
$TEXTSIZE
 40
2.5
  9
$TRACEWID
 40
1.0
  9
$TEXTSTYLE
  7
STANDARD
  9
$CLAYER
  8
0
  9
$CELTYPE
  6
BYLAYER
  9
$CECOLOR
 62
   256
  9
$CELTSCALE
 40
1.0
  9
$DISPSILH
 70
     0
  9
$DIMSCALE
 40
1.0
  9
$DIMASZ
 40
3.0
  9
$DIMEXO
 40
1.0
  9
$DIMDLI
 40
10.0
  9
$DIMRND
 40
0.0
  9
$DIMDLE
 40
0.0
  9
$DIMEXE
 40
1.0
  9
$DIMTP
 40
0.0
  9
$DIMTM
 40
0.0
  9
$DIMTXT
 40
3.2
  9
$DIMCEN
 40
0.0
  9
$DIMTSZ
 40
0.0
  9
$DIMTOL
 70
     0
  9
$DIMLIM
 70
     0
  9
$DIMTIH
 70
     0
  9
$DIMTOH
 70
     0
  9
$DIMSE1
 70
     0
  9
$DIMSE2
 70
     0
  9
$DIMTAD
 70
     3
  9
$DIMZIN
 70
     8
  9
$DIMBLK
  1

  9
$DIMASO
 70
     1
  9
$DIMSHO
 70
     1
  9
$DIMPOST
  1

  9
$DIMAPOST
  1

  9
$DIMALT
 70
     0
  9
$DIMALTD
 70
     2
  9
$DIMALTF
 40
25.4
  9
$DIMLFAC
 40
1.0
  9
$DIMTOFL
 70
     1
  9
$DIMTVP
 40
0.0
  9
$DIMTIX
 70
     0
  9
$DIMSOXD
 70
     0
  9
$DIMSAH
 70
     1
  9
$DIMBLK1
  1
OPEN
  9
$DIMBLK2
  1
OPEN
  9
$DIMSTYLE
  2
STANDARD
  9
$DIMCLRD
 70
     0
  9
$DIMCLRE
 70
     0
  9
$DIMCLRT
 70
     0
  9
$DIMTFAC
 40
1.0
  9
$DIMGAP
 40
1.0
  9
$DIMJUST
 70
     0
  9
$DIMSD1
 70
     0
  9
$DIMSD2
 70
     0
  9
$DIMTOLJ
 70
     1
  9
$DIMTZIN
 70
     0
  9
$DIMALTZ
 70
     0
  9
$DIMALTTZ
 70
     0
  9
$DIMUPT
 70
     0
  9
$DIMDEC
 70
     4
  9
$DIMTDEC
 70
     4
  9
$DIMALTU
 70
     2
  9
$DIMALTTD
 70
     2
  9
$DIMTXSTY
  7
STANDARD
  9
$DIMAUNIT
 70
     0
  9
$DIMADEC
 70
     0
  9
$DIMALTRND
 40
0.0
  9
$DIMAZIN
 70
     0
  9
$DIMDSEP
 70
    46
  9
$DIMATFIT
 70
     3
  9
$DIMFRAC
 70
     0
  9
$DIMLDRBLK
  1
OPEN
  9
$DIMLUNIT
 70
     2
  9
$DIMLWD
 70
    -2
  9
$DIMLWE
 70
    -2
  9
$DIMTMOVE
 70
     0
  9
$LUNITS
 70
     2
  9
$LUPREC
 70
     4
  9
$SKETCHINC
 40
1.0
  9
$FILLETRAD
 40
0.0
  9
$AUNITS
 70
     0
  9
$AUPREC
 70
     0
  9
$MENU
  1
.
  9
$ELEVATION
 40
0.0
  9
$PELEVATION
 40
0.0
  9
$THICKNESS
 40
0.0
  9
$LIMCHECK
 70
     0
  9
$CHAMFERA
 40
10.0
  9
$CHAMFERB
 40
10.0
  9
$CHAMFERC
 40
20.0
  9
$CHAMFERD
 40
0.0
  9
$SKPOLY
 70
     0
  9
$TDCREATE
 40
2454875.544545834
  9
$TDUCREATE
 40
2454875.169545834
  9
$TDUPDATE
 40
2457192.686716574
  9
$TDUUPDATE
 40
2457192.311716574
  9
$TDINDWG
 40
0.0136917824
  9
$TDUSRTIMER
 40
0.0136917708
  9
$USRTIMER
 70
     1
  9
$ANGBASE
 50
0.0
  9
$ANGDIR
 70
     0
  9
$PDMODE
 70
     0
  9
$PDSIZE
 40
0.0
  9
$PLINEWID
 40
0.0
  9
$SPLFRAME
 70
     0
  9
$SPLINETYPE
 70
     6
  9
$SPLINESEGS
 70
     8
  9
$HANDSEED
  5
8DB
  9
$SURFTAB1
 70
     6
  9
$SURFTAB2
 70
     6
  9
$SURFTYPE
 70
     6
  9
$SURFU
 70
     6
  9
$SURFV
 70
     6
  9
$UCSBASE
  2

  9
$UCSNAME
  2

  9
$UCSORG
 10
0.0
 20
0.0
 30
0.0
  9
$UCSXDIR
 10
1.0
 20
0.0
 30
0.0
  9
$UCSYDIR
 10
0.0
 20
1.0
 30
0.0
  9
$UCSORTHOREF
  2

  9
$UCSORTHOVIEW
 70
     0
  9
$UCSORGTOP
 10
0.0
 20
0.0
 30
0.0
  9
$UCSORGBOTTOM
 10
0.0
 20
0.0
 30
0.0
  9
$UCSORGLEFT
 10
0.0
 20
0.0
 30
0.0
  9
$UCSORGRIGHT
 10
0.0
 20
0.0
 30
0.0
  9
$UCSORGFRONT
 10
0.0
 20
0.0
 30
0.0
  9
$UCSORGBACK
 10
0.0
 20
0.0
 30
0.0
  9
$PUCSBASE
  2

  9
$PUCSNAME
  2

  9
$PUCSORG
 10
0.0
 20
0.0
 30
0.0
  9
$PUCSXDIR
 10
1.0
 20
0.0
 30
0.0
  9
$PUCSYDIR
 10
0.0
 20
1.0
 30
0.0
  9
$PUCSORTHOREF
  2

  9
$PUCSORTHOVIEW
 70
     0
  9
$PUCSORGTOP
 10
0.0
 20
0.0
 30
0.0
  9
$PUCSORGBOTTOM
 10
0.0
 20
0.0
 30
0.0
  9
$PUCSORGLEFT
 10
0.0
 20
0.0
 30
0.0
  9
$PUCSORGRIGHT
 10
0.0
 20
0.0
 30
0.0
  9
$PUCSORGFRONT
 10
0.0
 20
0.0
 30
0.0
  9
$PUCSORGBACK
 10
0.0
 20
0.0
 30
0.0
  9
$USERI1
 70
     0
  9
$USERI2
 70
     0
  9
$USERI3
 70
     0
  9
$USERI4
 70
     0
  9
$USERI5
 70
     0
  9
$USERR1
 40
0.0
  9
$USERR2
 40
0.0
  9
$USERR3
 40
0.0
  9
$USERR4
 40
0.0
  9
$USERR5
 40
0.0
  9
$WORLDVIEW
 70
     1
  9
$SHADEDGE
 70
     3
  9
$SHADEDIF
 70
    70
  9
$TILEMODE
 70
     1
  9
$MAXACTVP
 70
    48
  9
$PINSBASE
 10
0.0
 20
0.0
 30
0.0
  9
$PLIMCHECK
 70
     0
  9
$PEXTMIN
 10
1.000000000000000E+20
 20
1.000000000000000E+20
 30
1.000000000000000E+20
  9
$PEXTMAX
 10
-1.000000000000000E+20
 20
-1.000000000000000E+20
 30
-1.000000000000000E+20
  9
$PLIMMIN
 10
0.0
 20
0.0
  9
$PLIMMAX
 10
420.0
 20
297.0
  9
$UNITMODE
 70
     0
  9
$VISRETAIN
 70
     1
  9
$PLINEGEN
 70
     0
  9
$PSLTSCALE
 70
     1
  9
$TREEDEPTH
 70
  3020
  9
$CMLSTYLE
  2
STANDARD
  9
$CMLJUST
 70
     0
  9
$CMLSCALE
 40
20.0
  9
$PROXYGRAPHICS
 70
     1
  9
$MEASUREMENT
 70
     0
  9
$CELWEIGHT
370
    -1
  9
$ENDCAPS
280
     0
  9
$JOINSTYLE
280
     0
  9
$LWDISPLAY
290
     0
  9
$INSUNITS
 70
     0
  9
$HYPERLINKBASE
  1

  9
$STYLESHEET
  1

  9
$XEDIT
290
     1
  9
$CEPSNTYPE
380
     0
  9
$PSTYLEMODE
290
     1
  9
$FINGERPRINTGUID
  2
{3391304F-492F-43DE-BB27-3636167F6E92}
  9
$VERSIONGUID
  2
{91D21687-EEAC-443C-AC95-3475D552F488}
  9
$EXTNAMES
290
     1
  9
$PSVPSCALE
 40
0.0
  9
$OLESTARTUP
290
     0
  0
ENDSEC
  0
SECTION
  2
CLASSES
  0
CLASS
  1
ACDBDICTIONARYWDFLT
  2
AcDbDictionaryWithDefault
  3
ObjectDBX Classes
 90
        0
280
     0
281
     0
  0
CLASS
  1
ACDBPLACEHOLDER
  2
AcDbPlaceHolder
  3
ObjectDBX Classes
 90
        0
280
     0
281
     0
  0
CLASS
  1
LAYOUT
  2
AcDbLayout
  3
ObjectDBX Classes
 90
        0
280
     0
281
     0
  0
CLASS
  1
MATERIAL
  2
AcDbMaterial
  3
ObjectDBX Classes
 90
     1153
280
     0
281
     0
  0
CLASS
  1
VISUALSTYLE
  2
AcDbVisualStyle
  3
ObjectDBX Classes
 90
     4095
280
     0
281
     0
  0
CLASS
  1
TABLESTYLE
  2
AcDbTableStyle
  3
ObjectDBX Classes
 90
     4095
280
     0
281
     0
  0
CLASS
  1
SCALE
  2
AcDbScale
  3
ObjectDBX Classes
 90
     1153
280
     0
281
     0
  0
CLASS
  1
MLEADERSTYLE
  2
AcDbMLeaderStyle
  3
ACDB_MLEADERSTYLE_CLASS
 90
     4095
280
     0
281
     0
  0
CLASS
  1
ACDBSECTIONVIEWSTYLE
  2
AcDbSectionViewStyle
  3
ObjectDBX Classes
 90
     1025
280
     0
281
     0
  0
CLASS
  1
ACDBDETAILVIEWSTYLE
  2
AcDbDetailViewStyle
  3
ObjectDBX Classes
 90
     1025
280
     0
281
     0
  0
CLASS
  1
DICTIONARYVAR
  2
AcDbDictionaryVar
  3
ObjectDBX Classes
 90
        0
280
     0
281
     0
  0
CLASS
  1
CELLSTYLEMAP
  2
AcDbCellStyleMap
  3
ObjectDBX Classes
 90
     1152
280
     0
281
     0
  0
ENDSEC
  0
SECTION
  2
TABLES
  0
TABLE
  2
VPORT
  5
8
330
0
100
AcDbSymbolTable
 70
     1
  0
VPORT
  5
825
330
8
100
AcDbSymbolTableRecord
100
AcDbViewportTableRecord
  2
*ACTIVE
 70
     0
 10
0.0
 20
0.0
 11
1.0
 21
1.0
 12
425.6098838287922
 22
191.1900544639763
 13
0.0
 23
0.0
 14
10.0
 24
10.0
 15
10.0
 25
10.0
 16
0.0
 26
0.0
 36
1.0
 17
0.0
 27
0.0
 37
0.0
 40
365.1929183285508
 41
2.35006605019815
 42
50.0
 43
0.0
 44
0.0
 50
0.0
 51
0.0
 71
     0
 72
   100
 73
     1
 74
     0
 75
     0
 76
     0
 77
     0
 78
     0
281
     0
 65
     1
110
0.0
120
0.0
130
0.0
111
1.0
121
0.0
131
0.0
112
0.0
122
1.0
132
0.0
 79
     0
146
0.0
1001
ACAD_NAV_VCDISPLAY
1070
     3
  0
ENDTAB
  0
TABLE
  2
LTYPE
  5
5
330
0
100
AcDbSymbolTable
 70
     4
  0
LTYPE
  5
12
330
5
100
AcDbSymbolTableRecord
100
AcDbLinetypeTableRecord
  2
BYBLOCK
 70
     0
  3

 72
    65
 73
     0
 40
0.0
  0
LTYPE
  5
13
330
5
100
AcDbSymbolTableRecord
100
AcDbLinetypeTableRecord
  2
BYLAYER
 70
     0
  3

 72
    65
 73
     0
 40
0.0
  0
LTYPE
  5
14
330
5
100
AcDbSymbolTableRecord
100
AcDbLinetypeTableRecord
  2
CONTINUOUS
 70
     0
  3
Solid line
 72
    65
 73
     0
 40
0.0
  0
LTYPE
  5
4B
330
5
100
AcDbSymbolTableRecord
100
AcDbLinetypeTableRecord
  2
DASHED
 70
     0
  3
Dashed __ __ __ __ __ __ __ __ __ __ __ __ __ _
 72
    65
 73
     2
 40
19.04999999999999
 49
12.7
 74
     0
 49
-6.349999999999998
 74
     0
  0
LTYPE
  5
4C
330
5
100
AcDbSymbolTableRecord
100
AcDbLinetypeTableRecord
  2
CENTER
 70
     0
  3
Center ____ _ ____ _ ____ _ ____ _ ____ _ ____
 72
    65
 73
     4
 40
50.8
 49
31.75
 74
     0
 49
-6.349999999999998
 74
     0
 49
6.349999999999998
 74
     0
 49
-6.349999999999998
 74
     0
  0
LTYPE
  5
4D
330
5
100
AcDbSymbolTableRecord
100
AcDbLinetypeTableRecord
  2
PHANTOM
 70
     0
  3
Phantom ______  __  __  ______  __  __  ______
 72
    65
 73
     6
 40
63.5
 49
31.75
 74
     0
 49
-6.349999999999998
 74
     0
 49
6.349999999999998
 74
     0
 49
-6.349999999999998
 74
     0
 49
6.349999999999998
 74
     0
 49
-6.349999999999998
 74
     0
  0
ENDTAB
  0
TABLE
  2
LAYER
  5
2
330
0
100
AcDbSymbolTable
 70
     8
  0
LAYER
  5
E
102
{ACAD_XDICTIONARY
360
87F
102
}
330
2
100
AcDbSymbolTableRecord
100
AcDbLayerTableRecord
  2
0
 70
     0
 62
     7
  6
CONTINUOUS
370
    -3
390
82E
  0
LAYER
  5
4E
102
{ACAD_XDICTIONARY
360
881
102
}
330
2
100
AcDbSymbolTableRecord
100
AcDbLayerTableRecord
  2
4
 70
     0
 62
     1
  6
CENTER
370
    -3
390
82E
  0
LAYER
  5
4F
102
{ACAD_XDICTIONARY
360
883
102
}
330
2
100
AcDbSymbolTableRecord
100
AcDbLayerTableRecord
  2
5
 70
     0
 62
     6
  6
PHANTOM
370
    -3
390
82E
  0
LAYER
  5
50
102
{ACAD_XDICTIONARY
360
885
102
}
330
2
100
AcDbSymbolTableRecord
100
AcDbLayerTableRecord
  2
1
 70
     0
 62
     7
  6
CONTINUOUS
370
    -3
390
82E
  0
LAYER
  5
51
102
{ACAD_XDICTIONARY
360
887
102
}
330
2
100
AcDbSymbolTableRecord
100
AcDbLayerTableRecord
  2
2
 70
     0
 62
     4
  6
CONTINUOUS
370
    -3
390
82E
  0
LAYER
  5
52
102
{ACAD_XDICTIONARY
360
889
102
}
330
2
100
AcDbSymbolTableRecord
100
AcDbLayerTableRecord
  2
3
 70
     0
 62
     2
  6
DASHED
370
    -3
390
82E
  0
LAYER
  5
53
102
{ACAD_XDICTIONARY
360
88B
102
}
330
2
100
AcDbSymbolTableRecord
100
AcDbLayerTableRecord
  2
6
 70
     0
 62
     5
  6
CONTINUOUS
370
    -3
390
82E
  0
LAYER
  5
54
102
{ACAD_XDICTIONARY
360
88D
102
}
330
2
100
AcDbSymbolTableRecord
100
AcDbLayerTableRecord
  2
7
 70
     0
 62
     3
  6
CONTINUOUS
370
    -3
390
82E
  0
ENDTAB
  0
TABLE
  2
STYLE
  5
3
330
0
100
AcDbSymbolTable
 70
     1
  0
STYLE
  5
F
330
3
100
AcDbSymbolTableRecord
100
AcDbTextStyleTableRecord
  2
STANDARD
 70
     0
 40
0.0
 41
1.0
 50
0.0
 71
     0
 42
2.5
  3
simplex.shx
  4

  0
ENDTAB
  0
TABLE
  2
VIEW
  5
6
330
0
100
AcDbSymbolTable
 70
     0
  0
ENDTAB
  0
TABLE
  2
UCS
  5
7
330
0
100
AcDbSymbolTable
 70
     0
  0
ENDTAB
  0
TABLE
  2
APPID
  5
9
330
0
100
AcDbSymbolTable
 70
     5
  0
APPID
  5
10
330
9
100
AcDbSymbolTableRecord
100
AcDbRegAppTableRecord
  2
ACAD
 70
     0
  0
APPID
  5
3E
330
9
100
AcDbSymbolTableRecord
100
AcDbRegAppTableRecord
  2
CONTENTTABDATA
 70
     0
  0
APPID
  5
3F
330
9
100
AcDbSymbolTableRecord
100
AcDbRegAppTableRecord
  2
CONTENTCURRENTTAB
 70
     0
  0
APPID
  5
899
330
9
100
AcDbSymbolTableRecord
100
AcDbRegAppTableRecord
  2
ACAD_NAV_VCDISPLAY
 70
     0
  0
APPID
  5
8D2
330
9
100
AcDbSymbolTableRecord
100
AcDbRegAppTableRecord
  2
ACAD_MLEADERVER
 70
     0
  0
ENDTAB
  0
TABLE
  2
DIMSTYLE
  5
A
330
0
100
AcDbSymbolTable
 70
     1
100
AcDbDimStyleTable
 71
     0
  0
DIMSTYLE
105
1D
330
A
100
AcDbSymbolTableRecord
100
AcDbDimStyleTableRecord
  2
STANDARD
 70
     0
 41
3.0
 42
1.0
 43
10.0
 44
1.0
 73
     0
 74
     0
 77
     3
 78
     8
140
3.2
141
0.0
147
1.0
172
     1
173
     1
340
F
341
2E
343
2E
344
2E
  0
ENDTAB
  0
TABLE
  2
BLOCK_RECORD
  5
1
330
0
100
AcDbSymbolTable
 70
     1
  0
BLOCK_RECORD
  5
18
102
{ACAD_XDICTIONARY
360
828
102
}
330
1
100
AcDbSymbolTableRecord
100
AcDbBlockTableRecord
  2
*MODEL_SPACE
340
87C
  0
BLOCK_RECORD
  5
15
102
{ACAD_XDICTIONARY
360
826
102
}
330
1
100
AcDbSymbolTableRecord
100
AcDbBlockTableRecord
  2
*PAPER_SPACE
340
87D
  0
BLOCK_RECORD
  5
2E
330
1
100
AcDbSymbolTableRecord
100
AcDbBlockTableRecord
  2
_OPEN
340
0
  0
ENDTAB
  0
ENDSEC
  0
SECTION
  2
BLOCKS
  0
BLOCK
  5
19
330
18
100
AcDbEntity
  8
0
100
AcDbBlockBegin
  2
*MODEL_SPACE
 70
     0
 10
0.0
 20
0.0
 30
0.0
  3
*MODEL_SPACE
  1

  0
ENDBLK
  5
1A
330
18
100
AcDbEntity
  8
0
100
AcDbBlockEnd
  0
BLOCK
  5
16
330
15
100
AcDbEntity
 67
     1
  8
0
100
AcDbBlockBegin
  2
*PAPER_SPACE
 70
     0
 10
0.0
 20
0.0
 30
0.0
  3
*PAPER_SPACE
  1

  0
ENDBLK
  5
17
330
15
100
AcDbEntity
 67
     1
  8
0
100
AcDbBlockEnd
  0
BLOCK
  5
2F
330
2E
100
AcDbEntity
  8
0
100
AcDbBlockBegin
  2
_OPEN
 70
     0
 10
0.0
 20
0.0
 30
0.0
  3
_OPEN
  1

  0
LINE
  5
30
330
2E
100
AcDbEntity
  8
0
  6
ByBlock
 62
     0
100
AcDbLine
 10
-1.0
 20
0.1666666666666666
 30
0.0
 11
0.0
 21
0.0
 31
0.0
  0
LINE
  5
31
330
2E
100
AcDbEntity
  8
0
  6
ByBlock
 62
     0
100
AcDbLine
 10
0.0
 20
0.0
 30
0.0
 11
-1.0
 21
-0.1666666666666666
 31
0.0
  0
LINE
  5
32
330
2E
100
AcDbEntity
  8
0
  6
ByBlock
 62
     0
100
AcDbLine
 10
0.0
 20
0.0
 30
0.0
 11
-1.0
 21
0.0
 31
0.0
  0
ENDBLK
  5
33
330
2E
100
AcDbEntity
  8
0
100
AcDbBlockEnd
  0
ENDSEC
  0
SECTION
  2
ENTITIES
  0
ARC
  5
3E5
330
18
100
AcDbEntity
  8
1
  6
Continuous
100
AcDbCircle
 10
86.04999753760806
 20
204.5000478068466
 30
0.0
 40
1.0
100
AcDbArc
 50
0.0
 51
90.0
  0
ARC
  5
3E6
330
18
100
AcDbEntity
  8
1
  6
Continuous
100
AcDbCircle
 10
44.40000053760811
 20
212.4028868068466
 30
0.0
 40
10.0
100
AcDbArc
 50
180.0
 51
251.150879
  0
LINE
  5
3E7
330
18
100
AcDbEntity
  8
1
  6
Continuous
100
AcDbLine
 10
43.19999553760809
 20
209.8000428068465
 30
0.0
 11
43.19999553760809
 21
177.6000418068466
 31
0.0
  0
LINE
  5
3E8
330
18
100
AcDbEntity
  8
1
  6
Continuous
100
AcDbLine
 10
45.9999985376081
 20
212.8000428068465
 30
0.0
 11
45.9999985376081
 21
177.6000418068466
 31
0.0
  0
LINE
  5
3E9
330
18
100
AcDbEntity
  8
1
  6
Continuous
100
AcDbLine
 10
34.40000053760811
 20
227.1000418068465
 30
0.0
 11
34.40000053760811
 21
187.1613560843914
 31
0.0
  0
LINE
  5
3EA
330
18
100
AcDbEntity
  8
1
  6
Continuous
100
AcDbLine
 10
85.99999853760806
 20
170.5032558068466
 30
0.0
 11
85.99999853760806
 21
209.4968318068465
 31
0.0
  0
LINE
  5
3EB
330
18
100
AcDbEntity
  8
1
  6
Continuous
100
AcDbLine
 10
47.99999853760811
 20
170.5032558068466
 30
0.0
 11
47.99999853760811
 21
209.4968318068465
 31
0.0
  0
LINE
  5
3EC
330
18
100
AcDbEntity
  8
4
  6
CENTER
100
AcDbLine
 10
66.99999853760811
 20
160.0000438068466
 30
0.0
 11
66.99999853760811
 21
249.0000818068466
 31
0.0
  0
ARC
  5
3ED
330
18
100
AcDbEntity
  8
1
  6
Continuous
100
AcDbCircle
 10
89.59999753760808
 20
212.4028908068466
 30
0.0
 40
10.0
100
AcDbArc
 50
288.8491209999999
 51
0.0
  0
LINE
  5
3EE
330
18
100
AcDbEntity
  8
1
  6
Continuous
100
AcDbLine
 10
90.80000153760812
 20
209.8000428068465
 30
0.0
 11
90.80000153760812
 21
177.6000498068466
 31
0.0
  0
LINE
  5
3EF
330
18
100
AcDbEntity
  8
1
  6
Continuous
100
AcDbLine
 10
87.99999853760809
 20
212.8000428068465
 30
0.0
 11
87.99999853760809
 21
177.6000498068466
 31
0.0
  0
LINE
  5
3F0
330
18
100
AcDbEntity
  8
1
  6
Continuous
100
AcDbLine
 10
99.59999753760813
 20
227.1000418068465
 30
0.0
 11
99.59999753760813
 21
194.7998318068466
 31
0.0
  0
ARC
  5
3F1
330
18
100
AcDbEntity
  8
1
  6
Continuous
100
AcDbCircle
 10
132.7492315376081
 20
201.9791088068465
 30
0.0
 40
55.0
100
AcDbArc
 50
348.873352
 51
10.78637699999999
  0
LINE
  5
3F2
330
18
100
AcDbEntity
  8
4
  6
CENTER
100
AcDbLine
 10
200.000031537608
 20
220.0000438068466
 30
0.0
 11
200.000031537608
 21
160.0000438068466
 31
0.0
  0
ARC
  5
3F3
330
18
100
AcDbEntity
  8
1
  6
Continuous
100
AcDbCircle
 10
204.4680955376081
 20
210.8097058068465
 30
0.0
 40
35.0
100
AcDbArc
 50
319.1615909999999
 51
356.45224
  0
ARC
  5
3F4
330
18
100
AcDbEntity
  8
1
  6
Continuous
100
AcDbCircle
 10
198.4992315376081
 20
190.6000498068466
 30
0.0
 40
12.5
100
AcDbArc
 50
0.0
 51
90.0
  0
ARC
  5
3F5
330
18
100
AcDbEntity
  8
1
  6
Continuous
100
AcDbCircle
 10
200.000031537608
 20
190.0000438068466
 30
0.0
 40
25.0
100
AcDbArc
 50
121.467574
 51
344.0522599999998
  0
LINE
  5
3F6
330
18
100
AcDbEntity
  8
4
  6
CENTER
100
AcDbLine
 10
210.9999865376081
 20
249.0000818068466
 30
0.0
 11
210.9999865376081
 21
162.0897698068465
 31
0.0
  0
ARC
  5
3F7
330
18
100
AcDbEntity
  8
1
  6
Continuous
100
AcDbCircle
 10
47.64999953760811
 20
204.5000478068466
 30
0.0
 40
1.0
100
AcDbArc
 50
90.0
 51
180.0
  0
TEXT
  5
3F8
330
18
100
AcDbEntity
  8
7
  6
Continuous
100
AcDbText
 10
10.0
 20
17.9999998068466
 30
0.0
 40
3.0
  1
TYPE No.104WHB-P
 41
1.002350999999997
100
AcDbText
  0
TEXT
  5
3F9
330
18
100
AcDbEntity
  8
7
  6
Continuous
100
AcDbText
 10
10.0
 20
25.9999998068466
 30
0.0
 40
3.0
  1
CODE No.9117
 41
1.003962999999999
100
AcDbText
  0
TEXT
  5
3FA
330
18
100
AcDbEntity
  8
1
  6
Continuous
100
AcDbText
 10
9.999951537608113
 20
9.999999806846602
 30
0.0
 40
1.399999999999999
  1
LAYER
 41
1.009912999999996
100
AcDbText
  0
TEXT
  5
3FB
330
18
100
AcDbEntity
  8
1
  6
Continuous
100
AcDbText
 10
17.97945153760811
 20
10.0486998068466
 30
0.0
 40
1.399999999999999
  1
1
 41
1.069393
100
AcDbText
  0
TEXT
  5
3FC
330
18
100
AcDbEntity
  8
7
  6
Continuous
100
AcDbText
 10
29.9794515376081
 20
10.0486998068466
 30
0.0
 40
1.399999999999999
  1
7
 41
1.069393
100
AcDbText
  0
TEXT
  5
3FD
330
18
100
AcDbEntity
  8
4
  6
CENTER
100
AcDbText
 10
23.9794515376081
 20
10.0486998068466
 30
0.0
 40
1.399999999999999
  1
4
 41
1.069393
100
AcDbText
  0
TEXT
  5
3FE
330
18
100
AcDbEntity
  8
3
  6
DASHED
100
AcDbText
 10
21.97945153760811
 20
10.0486998068466
 30
0.0
 40
1.399999999999999
  1
3
 41
1.069393
100
AcDbText
  0
TEXT
  5
3FF
330
18
100
AcDbEntity
  8
2
  6
Continuous
100
AcDbText
 10
19.97945153760809
 20
10.0486998068466
 30
0.0
 40
1.399999999999999
  1
2
 41
1.069393
100
AcDbText
  0
TEXT
  5
400
330
18
100
AcDbEntity
  8
5
  6
PHANTOM
100
AcDbText
 10
25.97945153760811
 20
10.0486998068466
 30
0.0
 40
1.399999999999999
  1
5
 41
1.069393
100
AcDbText
  0
TEXT
  5
401
330
18
100
AcDbEntity
  8
6
  6
Continuous
100
AcDbText
 10
27.97945153760811
 20
10.0486998068466
 30
0.0
 40
1.399999999999999
  1
6
 41
1.069393
100
AcDbText
  0
LINE
  5
402
330
18
100
AcDbEntity
  8
4
  6
CENTER
100
AcDbLine
 10
27.09995053760811
 20
190.0000438068466
 30
0.0
 11
105.2000235376081
 21
190.0000438068466
 31
0.0
  0
ARC
  5
403
330
18
100
AcDbEntity
  8
1
  6
Continuous
100
AcDbCircle
 10
66.99999853760811
 20
365.0000438068464
 30
0.0
 40
200.0
100
AcDbArc
 50
265.882904
 51
274.117096
  0
ARC
  5
404
330
18
100
AcDbEntity
  8
1
  6
Continuous
100
AcDbCircle
 10
52.99999853760811
 20
170.5032558068466
 30
0.0
 40
5.0
100
AcDbArc
 50
180.0
 51
265.882904
  0
ARC
  5
405
330
18
100
AcDbEntity
  8
1
  6
Continuous
100
AcDbCircle
 10
62.7855895376081
 20
225.6044448068466
 30
0.0
 40
50.0
100
AcDbArc
 50
240.8960529999998
 51
246.9389500000001
  0
ARC
  5
406
330
18
100
AcDbEntity
  8
1
  6
Continuous
100
AcDbCircle
 10
40.1999955376081
 20
200.1000418068465
 30
0.0
 40
3.0
100
AcDbArc
 50
0.0
 51
71.150879
  0
LINE
  5
407
330
18
100
AcDbEntity
  8
1
  6
Continuous
100
AcDbLine
 10
43.19999553760809
 20
198.0834408068465
 30
0.0
 11
37.97432753760811
 21
198.0834408068465
 31
0.0
  0
LINE
  5
408
330
18
100
AcDbEntity
  8
1
  6
Continuous
100
AcDbLine
 10
37.97432753760811
 20
194.0419598068466
 30
0.0
 11
43.19999553760809
 21
194.0419598068466
 31
0.0
  0
LINE
  5
409
330
18
100
AcDbEntity
  8
1
  6
Continuous
100
AcDbLine
 10
43.19999553760809
 20
181.9175088068465
 30
0.0
 11
37.97432753760811
 21
181.9175088068465
 31
0.0
  0
LINE
  5
40A
330
18
100
AcDbEntity
  8
1
  6
Continuous
100
AcDbLine
 10
37.97432753760811
 20
185.9589898068463
 30
0.0
 11
43.19999553760809
 21
185.9589898068463
 31
0.0
  0
LINE
  5
40C
330
18
100
AcDbEntity
  8
1
  6
Continuous
100
AcDbLine
 10
37.19999753760811
 20
183.9382538068466
 30
0.0
 11
37.19999753760811
 21
196.0626968068465
 31
0.0
  0
ARC
  5
40D
330
18
100
AcDbEntity
  8
1
  6
Continuous
100
AcDbCircle
 10
48.1341565376081
 20
190.0004708068466
 30
0.0
 40
10.93416399999999
100
AcDbArc
 50
158.3078309999999
 51
201.692184
  0
ARC
  5
40F
330
18
100
AcDbEntity
  8
1
  6
Continuous
100
AcDbCircle
 10
39.3999995376081
 20
187.1581938068465
 30
0.0
 40
5.0
100
AcDbArc
 50
179.9637629661891
 51
238.6892089999999
  0
ARC
  5
412
330
18
100
AcDbEntity
  8
1
  6
Continuous
100
AcDbCircle
 10
40.2239085376081
 20
183.9382538068466
 30
0.0
 40
3.023909999999998
100
AcDbArc
 50
138.0675349999999
 51
221.9324649999998
  0
ARC
  5
413
330
18
100
AcDbEntity
  8
1
  6
Continuous
100
AcDbCircle
 10
62.7855895376081
 20
225.6044448068466
 30
0.0
 40
50.0
100
AcDbArc
 50
238.68924
 51
239.7825899999999
  0
ARC
  5
414
330
18
100
AcDbEntity
  8
1
  6
Continuous
100
AcDbCircle
 10
40.2239085376081
 20
196.0626968068465
 30
0.0
 40
3.023909999999998
100
AcDbArc
 50
138.0675349999999
 51
221.9324649999998
  0
LINE
  5
418
330
18
100
AcDbEntity
  8
1
  6
Continuous
100
AcDbLine
 10
46.64999953760809
 20
175.5000438068466
 30
0.0
 11
46.64999953760809
 21
204.5000478068466
 31
0.0
  0
ARC
  5
419
330
18
100
AcDbEntity
  8
1
  6
Continuous
100
AcDbCircle
 10
47.64999953760811
 20
175.5000438068466
 30
0.0
 40
1.0
100
AcDbArc
 50
180.0
 51
270.0
  0
LINE
  5
41A
330
18
100
AcDbEntity
  8
1
  6
Continuous
100
AcDbLine
 10
43.19999553760809
 20
177.6000418068466
 30
0.0
 11
45.9999985376081
 21
177.6000418068466
 31
0.0
  0
LINE
  5
41B
330
18
100
AcDbEntity
  8
1
  6
Continuous
100
AcDbLine
 10
47.64999953760811
 20
174.5000438068466
 30
0.0
 11
47.99999853760811
 21
174.5000438068466
 31
0.0
  0
LINE
  5
41C
330
18
100
AcDbEntity
  8
1
  6
Continuous
100
AcDbLine
 10
45.9999985376081
 20
183.2500438068466
 30
0.0
 11
46.64999953760809
 21
183.2500438068466
 31
0.0
  0
LINE
  5
41D
330
18
100
AcDbEntity
  8
1
  6
Continuous
100
AcDbLine
 10
45.9999985376081
 20
196.7500438068466
 30
0.0
 11
46.64999953760809
 21
196.7500438068466
 31
0.0
  0
ARC
  5
41E
330
18
100
AcDbEntity
  8
1
  6
Continuous
100
AcDbCircle
 10
80.99999853760808
 20
170.5032558068466
 30
0.0
 40
5.0
100
AcDbArc
 50
274.117096
 51
0.0
  0
LINE
  5
41F
330
18
100
AcDbEntity
  8
1
  6
Continuous
100
AcDbLine
 10
87.99999853760809
 20
177.6000498068466
 30
0.0
 11
90.80000153760812
 21
177.6000498068466
 31
0.0
  0
LINE
  5
420
330
18
100
AcDbEntity
  8
1
  6
Continuous
100
AcDbLine
 10
87.04999753760809
 20
204.5000478068466
 30
0.0
 11
87.04999753760809
 21
175.5000438068466
 31
0.0
  0
LINE
  5
421
330
18
100
AcDbEntity
  8
1
  6
Continuous
100
AcDbLine
 10
87.34999653760809
 20
177.0000438068465
 30
0.0
 11
87.34999653760809
 21
203.0000438068466
 31
0.0
  0
LINE
  5
422
330
18
100
AcDbEntity
  8
1
  6
Continuous
100
AcDbLine
 10
87.04999753760809
 20
177.0000438068465
 30
0.0
 11
87.34999653760809
 21
177.0000438068465
 31
0.0
  0
LINE
  5
423
330
18
100
AcDbEntity
  8
1
  6
Continuous
100
AcDbLine
 10
85.99999853760806
 20
174.5000438068466
 30
0.0
 11
86.04999753760806
 21
174.5000438068466
 31
0.0
  0
ARC
  5
424
330
18
100
AcDbEntity
  8
1
  6
Continuous
100
AcDbCircle
 10
86.04999753760806
 20
175.5000438068466
 30
0.0
 40
1.0
100
AcDbArc
 50
270.0
 51
0.0
  0
LINE
  5
425
330
18
100
AcDbEntity
  8
1
  6
Continuous
100
AcDbLine
 10
87.99999853760809
 20
183.2500438068466
 30
0.0
 11
87.34999653760809
 21
183.2500438068466
 31
0.0
  0
LINE
  5
426
330
18
100
AcDbEntity
  8
1
  6
Continuous
100
AcDbLine
 10
87.99999853760809
 20
196.7500438068466
 30
0.0
 11
87.34999653760809
 21
196.7500438068466
 31
0.0
  0
LINE
  5
427
330
18
100
AcDbEntity
  8
1
  6
Continuous
100
AcDbLine
 10
87.04999753760809
 20
203.0000438068466
 30
0.0
 11
87.34999653760809
 21
203.0000438068466
 31
0.0
  0
ARC
  5
428
330
18
100
AcDbEntity
  8
1
  6
Continuous
100
AcDbCircle
 10
106.674570537608
 20
190.0000438068466
 30
0.0
 40
13.374785
100
AcDbArc
 50
162.412046
 51
197.5879539999999
  0
ARC
  5
429
330
18
100
AcDbEntity
  8
1
  6
Continuous
100
AcDbCircle
 10
85.92499953760812
 20
190.0000438068466
 30
0.0
 40
13.374785
100
AcDbArc
 50
342.4120459999998
 51
17.587954
  0
LINE
  5
42A
330
18
100
AcDbEntity
  8
1
  6
Continuous
100
AcDbLine
 10
93.29978553760813
 20
199.0000438068465
 30
0.0
 11
93.29978553760813
 21
181.0000438068463
 31
0.0
  0
LINE
  5
42B
330
18
100
AcDbEntity
  8
1
  6
Continuous
100
AcDbLine
 10
99.29978553760813
 20
197.0000438068464
 30
0.0
 11
99.29978553760813
 21
183.0000438068466
 31
0.0
  0
LINE
  5
42C
330
18
100
AcDbEntity
  8
1
  6
Continuous
100
AcDbLine
 10
99.39978553760813
 20
195.0000438068466
 30
0.0
 11
99.39978553760813
 21
185.0000438068466
 31
0.0
  0
LINE
  5
42D
330
18
100
AcDbEntity
  8
1
  6
Continuous
100
AcDbLine
 10
100.899785537608
 20
186.5000438068465
 30
0.0
 11
100.899785537608
 21
193.5000438068463
 31
0.0
  0
LINE
  5
42E
330
18
100
AcDbEntity
  8
1
  6
Continuous
100
AcDbLine
 10
90.80000153760812
 20
188.4579718068465
 30
0.0
 11
93.29978553760813
 21
190.0000438068466
 31
0.0
  0
LINE
  5
42F
330
18
100
AcDbEntity
  8
1
  6
Continuous
100
AcDbLine
 10
100.899785537608
 20
186.5000438068465
 30
0.0
 11
99.39978553760813
 21
185.0000438068466
 31
0.0
  0
LINE
  5
430
330
18
100
AcDbEntity
  8
2
  6
Continuous
100
AcDbLine
 10
99.29978553760813
 20
185.8120438068466
 30
0.0
 11
100.2117855376079
 21
185.8120438068466
 31
0.0
  0
ARC
  5
431
330
18
100
AcDbEntity
  8
1
  6
Continuous
100
AcDbCircle
 10
71.21439953760813
 20
225.6044368068466
 30
0.0
 40
50.0
100
AcDbArc
 50
293.0610659999998
 51
299.102722
  0
LINE
  5
432
330
18
100
AcDbEntity
  8
1
  6
Continuous
100
AcDbLine
 10
93.92499953760813
 20
185.9585918068465
 30
0.0
 11
98.67457053760809
 21
185.9585918068465
 31
0.0
  0
LINE
  5
433
330
18
100
AcDbEntity
  8
1
  6
Continuous
100
AcDbLine
 10
93.92499953760813
 20
181.9171398068465
 30
0.0
 11
98.67457053760809
 21
181.9171398068465
 31
0.0
  0
LINE
  5
434
330
18
100
AcDbEntity
  8
1
  6
Continuous
100
AcDbLine
 10
93.92499953760813
 20
181.9171398068465
 30
0.0
 11
93.29978553760813
 21
183.0000438068466
 31
0.0
  0
ARC
  5
435
330
18
100
AcDbEntity
  8
1
  6
Continuous
100
AcDbCircle
 10
96.87793653760813
 20
183.9378658068465
 30
0.0
 40
3.578151999999998
100
AcDbArc
 50
145.615753
 51
205.615753
  0
LINE
  5
436
330
18
100
AcDbEntity
  8
1
  6
Continuous
100
AcDbLine
 10
93.29978553760813
 20
181.0000438068463
 30
0.0
 11
90.80000153760812
 21
181.0000438068463
 31
0.0
  0
LINE
  5
437
330
18
100
AcDbEntity
  8
1
  6
Continuous
100
AcDbLine
 10
98.67457053760809
 20
181.9171398068465
 30
0.0
 11
99.29978553760813
 21
183.0000438068466
 31
0.0
  0
ARC
  5
438
330
18
100
AcDbEntity
  8
1
  6
Continuous
100
AcDbCircle
 10
95.72163353760812
 20
183.9378658068465
 30
0.0
 40
3.578151999999998
100
AcDbArc
 50
334.384247
 51
34.38424699999997
  0
LINE
  5
439
330
18
100
AcDbEntity
  8
1
  6
Continuous
100
AcDbLine
 10
99.29978553760813
 20
185.0000438068466
 30
0.0
 11
99.39978553760813
 21
185.0000438068466
 31
0.0
  0
LINE
  5
43A
330
18
100
AcDbEntity
  8
1
  6
Continuous
100
AcDbLine
 10
99.39978553760813
 20
195.0000438068466
 30
0.0
 11
100.899785537608
 21
193.5000438068463
 31
0.0
  0
LINE
  5
43B
330
18
100
AcDbEntity
  8
2
  6
Continuous
100
AcDbLine
 10
99.29978553760813
 20
194.1880438068466
 30
0.0
 11
100.2117855376079
 21
194.1880438068466
 31
0.0
  0
ARC
  5
43C
330
18
100
AcDbEntity
  8
1
  6
Continuous
100
AcDbCircle
 10
96.87793653760813
 20
196.0622218068465
 30
0.0
 40
3.578151999999998
100
AcDbArc
 50
154.3842469999999
 51
214.384247
  0
ARC
  5
43D
330
18
100
AcDbEntity
  8
1
  6
Continuous
100
AcDbCircle
 10
95.72163353760812
 20
196.0622218068465
 30
0.0
 40
3.578151999999998
100
AcDbArc
 50
325.6157529999998
 51
25.615753
  0
LINE
  5
43E
330
18
100
AcDbEntity
  8
1
  6
Continuous
100
AcDbLine
 10
93.92499953760813
 20
194.0414958068465
 30
0.0
 11
98.67457053760809
 21
194.0414958068465
 31
0.0
  0
LINE
  5
43F
330
18
100
AcDbEntity
  8
1
  6
Continuous
100
AcDbLine
 10
90.80000153760812
 20
190.0000438068466
 30
0.0
 11
93.29978553760813
 21
191.5421158068465
 31
0.0
  0
LINE
  5
440
330
18
100
AcDbEntity
  8
1
  6
Continuous
100
AcDbLine
 10
99.29978553760813
 20
195.0000438068466
 30
0.0
 11
99.39978553760813
 21
195.0000438068466
 31
0.0
  0
LINE
  5
441
330
18
100
AcDbEntity
  8
1
  6
Continuous
100
AcDbLine
 10
93.92499953760813
 20
198.0829478068465
 30
0.0
 11
98.67457053760809
 21
198.0829478068465
 31
0.0
  0
LINE
  5
442
330
18
100
AcDbEntity
  8
1
  6
Continuous
100
AcDbLine
 10
93.92499953760813
 20
198.0829478068465
 30
0.0
 11
93.29978553760813
 21
197.0000438068464
 31
0.0
  0
LINE
  5
443
330
18
100
AcDbEntity
  8
1
  6
Continuous
100
AcDbLine
 10
93.29978553760813
 20
199.0000438068465
 30
0.0
 11
90.80000153760812
 21
199.0000438068465
 31
0.0
  0
ARC
  5
444
330
18
100
AcDbEntity
  8
1
  6
Continuous
100
AcDbCircle
 10
93.80000153760812
 20
200.1000458068465
 30
0.0
 40
3.0
100
AcDbArc
 50
108.849121
 51
180.0
  0
LINE
  5
445
330
18
100
AcDbEntity
  8
1
  6
Continuous
100
AcDbLine
 10
98.67457053760809
 20
198.0829478068465
 30
0.0
 11
99.29978553760813
 21
197.0000438068464
 31
0.0
  0
ARC
  5
446
330
18
100
AcDbEntity
  8
1
  6
Continuous
100
AcDbCircle
 10
210.9999865376081
 20
82.99999980684658
 30
0.0
 40
27.14999999999999
100
AcDbArc
 50
283.9939079999998
 51
76.00609199999998
  0
ARC
  5
447
330
18
100
AcDbEntity
  8
1
  6
Continuous
100
AcDbCircle
 10
210.9999865376081
 20
82.99999980684658
 30
0.0
 40
28.14999999999999
100
AcDbArc
 50
284.579131
 51
75.42086899999998
  0
ARC
  5
448
330
18
100
AcDbEntity
  8
1
  6
Continuous
100
AcDbCircle
 10
210.9999865376081
 20
82.99999980684658
 30
0.0
 40
18.5
100
AcDbArc
 50
317.3462579999998
 51
42.653742
  0
ARC
  5
449
330
18
100
AcDbEntity
  8
1
  6
Continuous
100
AcDbCircle
 10
-674.0374124623919
 20
83.00003480684658
 30
0.0
 40
843.637451
100
AcDbArc
 50
357.8516539999998
 51
2.148331999999998
  0
ARC
  5
44A
330
18
100
AcDbEntity
  8
1
  6
Continuous
100
AcDbCircle
 10
1096.036501537608
 20
83.00001980684658
 30
0.0
 40
843.6365359999998
100
AcDbArc
 50
177.851669
 51
182.1483309999999
  0
ARC
  5
44B
330
18
100
AcDbEntity
  8
1
  6
Continuous
100
AcDbCircle
 10
210.9999865376081
 20
82.99999980684658
 30
0.0
 40
32.6
100
AcDbArc
 50
333.233873
 51
26.766127
  0
ARC
  5
44C
330
18
100
AcDbEntity
  8
1
  6
Continuous
100
AcDbCircle
 10
210.9999865376081
 20
82.99999980684658
 30
0.0
 40
29.8
100
AcDbArc
 50
333.233873
 51
26.766127
  0
ARC
  5
44D
330
18
100
AcDbEntity
  8
1
  6
Continuous
100
AcDbCircle
 10
25.00003153760811
 20
82.99999980684658
 30
0.0
 40
200.0
100
AcDbArc
 50
355.8829150000001
 51
4.117084999999998
  0
LINE
  5
44E
330
18
100
AcDbEntity
  8
4
  6
CENTER
100
AcDbLine
 10
200.000031537608
 20
43.09955180684659
 30
0.0
 11
200.000031537608
 21
121.1998058068466
 31
0.0
  0
ARC
  5
44F
330
18
100
AcDbEntity
  8
1
  6
Continuous
100
AcDbCircle
 10
375.0000315376079
 20
82.99999980684658
 30
0.0
 40
200.0
100
AcDbArc
 50
175.8829149999999
 51
184.117085
  0
LINE
  5
450
330
18
100
AcDbEntity
  8
4
  6
CENTER
100
AcDbLine
 10
210.9999865376081
 20
129.9999998068465
 30
0.0
 11
210.9999865376081
 21
36.5999798068466
 31
0.0
  0
ARC
  5
451
330
18
100
AcDbEntity
  8
1
  6
Continuous
100
AcDbCircle
 10
203.500040537608
 20
61.4969678068466
 30
0.0
 40
8.297169
100
AcDbArc
 50
245.049885
 51
294.9501149999998
  0
ARC
  5
452
330
18
100
AcDbEntity
  8
1
  6
Continuous
100
AcDbCircle
 10
210.9999865376081
 20
-802.0370441931534
 30
0.0
 40
843.637024
100
AcDbArc
 50
87.851669
 51
92.14833099999999
  0
LINE
  5
453
330
18
100
AcDbEntity
  8
1
  6
Continuous
100
AcDbLine
 10
186.4992315376081
 20
59.19980580684661
 30
0.0
 11
210.180928537608
 21
59.19980580684661
 31
0.0
  0
ARC
  5
454
330
18
100
AcDbEntity
  8
1
  6
Continuous
100
AcDbCircle
 10
210.9999865376081
 20
82.99999980684658
 30
0.0
 40
32.6
100
AcDbArc
 50
246.0805817313417
 51
270.0
  0
LINE
  5
455
330
18
100
AcDbEntity
  8
1
  6
Continuous
100
AcDbLine
 10
207.0000315376081
 20
53.19979880684659
 30
0.0
 11
193.0000315376081
 21
53.19979880684659
 31
0.0
  0
LINE
  5
456
330
18
100
AcDbEntity
  8
1
  6
Continuous
100
AcDbLine
 10
214.500035537608
 20
62.9500008068466
 30
0.0
 11
185.5000315376081
 21
62.9500008068466
 31
0.0
  0
LINE
  5
457
330
18
100
AcDbEntity
  8
1
  6
Continuous
100
AcDbLine
 10
187.0000315376081
 20
62.65000180684659
 30
0.0
 11
213.000031537608
 21
62.65000180684659
 31
0.0
  0
LINE
  5
458
330
18
100
AcDbEntity
  8
1
  6
Continuous
100
AcDbLine
 10
210.136883537608
 20
61.9999998068466
 30
0.0
 11
186.4992315376081
 21
61.9999998068466
 31
0.0
  0
LINE
  5
459
330
18
100
AcDbEntity
  8
1
  6
Continuous
100
AcDbLine
 10
180.503244537608
 20
63.9999998068466
 30
0.0
 11
219.496818537608
 21
63.9999998068466
 31
0.0
  0
ARC
  5
45A
330
18
100
AcDbEntity
  8
1
  6
Continuous
100
AcDbCircle
 10
178.9999865376081
 20
50.9999998068466
 30
0.0
 40
10.0
100
AcDbArc
 50
177.851669
 51
272.1483149999999
  0
LINE
  5
45B
330
18
100
AcDbEntity
  8
4
  6
CENTER
100
AcDbLine
 10
178.9999865376081
 20
41.74999980684659
 30
0.0
 11
178.9999865376081
 21
60.2499998068466
 31
0.0
  0
LINE
  5
45C
330
18
100
AcDbEntity
  8
4
  6
CENTER
100
AcDbLine
 10
188.2499865376081
 20
50.9999998068466
 30
0.0
 11
169.7499865376079
 21
50.9999998068466
 31
0.0
  0
CIRCLE
  5
45D
330
18
100
AcDbEntity
  8
1
  6
Continuous
100
AcDbCircle
 10
178.9999865376081
 20
50.9999998068466
 30
0.0
 40
4.25
  0
ARC
  5
45E
330
18
100
AcDbEntity
  8
1
  6
Continuous
100
AcDbCircle
 10
180.503244537608
 20
68.9999998068466
 30
0.0
 40
5.0
100
AcDbArc
 50
184.117085
 51
270.0
  0
LINE
  5
45F
330
18
100
AcDbEntity
  8
1
  6
Continuous
100
AcDbLine
 10
186.4992315376081
 20
61.9999998068466
 30
0.0
 11
186.4992315376081
 21
59.19980580684661
 31
0.0
  0
ARC
  5
460
330
18
100
AcDbEntity
  8
1
  6
Continuous
100
AcDbCircle
 10
210.9999865376081
 20
82.99999980684658
 30
0.0
 40
32.6
100
AcDbArc
 50
226.892036
 51
236.4856469999998
  0
ARC
  5
468
330
18
100
AcDbEntity
  8
1
  6
Continuous
100
AcDbCircle
 10
196.500018537608
 20
61.4969678068466
 30
0.0
 40
8.297169
100
AcDbArc
 50
245.049885
 51
294.9501149999998
  0
LINE
  5
469
330
18
100
AcDbEntity
  8
1
  6
Continuous
100
AcDbLine
 10
193.0000315376081
 20
53.19979880684659
 30
0.0
 11
193.0000315376081
 21
59.19980580684661
 31
0.0
  0
LINE
  5
46A
330
18
100
AcDbEntity
  8
1
  6
Continuous
100
AcDbLine
 10
200.0000295376081
 20
53.9741398068466
 30
0.0
 11
200.000031537608
 21
59.19980580684661
 31
0.0
  0
ARC
  5
46B
330
18
100
AcDbEntity
  8
1
  6
Continuous
100
AcDbCircle
 10
210.9999865376081
 20
82.99999980684658
 30
0.0
 40
32.6
100
AcDbArc
 50
217.896872
 51
221.274578
  0
LINE
  5
46C
330
18
100
AcDbEntity
  8
1
  6
Continuous
100
AcDbLine
 10
184.5000315376081
 20
63.9999998068466
 30
0.0
 11
184.5000315376081
 21
63.9500008068466
 31
0.0
  0
ARC
  5
46D
330
18
100
AcDbEntity
  8
1
  6
Continuous
100
AcDbCircle
 10
185.5000315376081
 20
63.9500008068466
 30
0.0
 40
1.0
100
AcDbArc
 50
180.0
 51
270.0
  0
ARC
  5
46E
330
18
100
AcDbEntity
  8
1
  6
Continuous
100
AcDbCircle
 10
210.9999865376081
 20
82.99999980684658
 30
0.0
 40
29.8
100
AcDbArc
 50
223.069566
 51
224.8051499999998
  0
LINE
  5
46F
330
18
100
AcDbEntity
  8
1
  6
Continuous
100
AcDbLine
 10
187.0000315376081
 20
62.9500008068466
 30
0.0
 11
187.0000315376081
 21
62.65000180684659
 31
0.0
  0
LINE
  5
470
330
18
100
AcDbEntity
  8
1
  6
Continuous
100
AcDbLine
 10
193.2500315376081
 20
61.9999998068466
 30
0.0
 11
193.2500315376081
 21
62.65000180684659
 31
0.0
  0
ARC
  5
471
330
18
100
AcDbEntity
  8
1
  6
Continuous
100
AcDbCircle
 10
242.9999865376081
 20
50.9999998068466
 30
0.0
 40
10.0
100
AcDbArc
 50
267.8516849999999
 51
2.148333
  0
LINE
  5
472
330
18
100
AcDbEntity
  8
4
  6
CENTER
100
AcDbLine
 10
252.249986537608
 20
50.9999998068466
 30
0.0
 11
233.749986537608
 21
50.9999998068466
 31
0.0
  0
LINE
  5
473
330
18
100
AcDbEntity
  8
4
  6
CENTER
100
AcDbLine
 10
242.9999865376081
 20
41.74999980684659
 30
0.0
 11
242.9999865376081
 21
60.2499998068466
 31
0.0
  0
ARC
  5
474
330
18
100
AcDbEntity
  8
1
  6
Continuous
100
AcDbCircle
 10
183.8572785376081
 20
96.6906328068466
 30
0.0
 40
60.2
100
AcDbArc
 50
316.2344489999998
 51
333.233873
  0
ARC
  5
475
330
18
100
AcDbEntity
  8
1
  6
Continuous
100
AcDbCircle
 10
222.999231537608
 20
59.19999980684661
 30
0.0
 40
8.8
100
AcDbArc
 50
201.242672
 51
316.2344489999998
  0
ARC
  5
476
330
18
100
AcDbEntity
  8
1
  6
Continuous
100
AcDbCircle
 10
210.136883537608
 20
54.19999980684661
 30
0.0
 40
7.799999999999998
100
AcDbArc
 50
21.24267199999998
 51
90.0
  0
LINE
  5
477
330
18
100
AcDbEntity
  8
1
  6
Continuous
100
AcDbLine
 10
222.999231537608
 20
50.3999998068466
 30
0.0
 11
210.9999865376081
 21
50.3999998068466
 31
0.0
  0
LINE
  5
478
330
18
100
AcDbEntity
  8
1
  6
Continuous
100
AcDbLine
 10
207.0000315376081
 20
53.19979880684659
 30
0.0
 11
207.0000315376081
 21
59.19980580684661
 31
0.0
  0
ARC
  5
479
330
18
100
AcDbEntity
  8
1
  6
Continuous
100
AcDbCircle
 10
210.136883537608
 20
54.19999980684661
 30
0.0
 40
5.0
100
AcDbArc
 50
21.24267199999998
 51
90.0
  0
ARC
  5
47A
330
18
100
AcDbEntity
  8
1
  6
Continuous
100
AcDbCircle
 10
222.999231537608
 20
59.19999980684661
 30
0.0
 40
6.0
100
AcDbArc
 50
201.242672
 51
316.2344489999998
  0
LINE
  5
47B
330
18
100
AcDbEntity
  8
1
  6
Continuous
100
AcDbLine
 10
206.7500315376081
 20
61.9999998068466
 30
0.0
 11
206.7500315376081
 21
62.65000180684659
 31
0.0
  0
LINE
  5
47C
330
18
100
AcDbEntity
  8
1
  6
Continuous
100
AcDbLine
 10
215.500035537608
 20
63.9999998068466
 30
0.0
 11
215.500035537608
 21
63.9500008068466
 31
0.0
  0
ARC
  5
47D
330
18
100
AcDbEntity
  8
1
  6
Continuous
100
AcDbCircle
 10
214.500035537608
 20
63.9500008068466
 30
0.0
 40
1.0
100
AcDbArc
 50
270.0
 51
0.0
  0
LINE
  5
47E
330
18
100
AcDbEntity
  8
1
  6
Continuous
100
AcDbLine
 10
213.000031537608
 20
62.9500008068466
 30
0.0
 11
213.000031537608
 21
62.65000180684659
 31
0.0
  0
ARC
  5
47F
330
18
100
AcDbEntity
  8
1
  6
Continuous
100
AcDbCircle
 10
219.496818537608
 20
68.9999998068466
 30
0.0
 40
5.0
100
AcDbArc
 50
270.0
 51
355.8829150000001
  0
ARC
  5
480
330
18
100
AcDbEntity
  8
1
  6
Continuous
100
AcDbCircle
 10
183.8572785376081
 20
96.6906328068466
 30
0.0
 40
63.0
100
AcDbArc
 50
316.2344489999998
 51
333.233873
  0
CIRCLE
  5
481
330
18
100
AcDbEntity
  8
1
  6
Continuous
100
AcDbCircle
 10
242.9999865376081
 20
50.9999998068466
 30
0.0
 40
4.25
  0
LINE
  5
482
330
18
100
AcDbEntity
  8
1
  6
Continuous
100
AcDbLine
 10
238.972493537608
 20
67.21923780684661
 30
0.0
 11
237.404343537608
 21
68.10388980684661
 31
0.0
  0
LINE
  5
483
330
18
100
AcDbEntity
  8
1
  6
Continuous
100
AcDbLine
 10
207.0000315376081
 20
185.9585918068465
 30
0.0
 11
200.000031537608
 21
181.9171398068465
 31
0.0
  0
CIRCLE
  5
484
330
18
100
AcDbEntity
  8
1
  6
Continuous
100
AcDbCircle
 10
200.000031537608
 20
190.0000438068466
 30
0.0
 40
7.0
  0
LINE
  5
485
330
18
100
AcDbEntity
  8
1
  6
Continuous
100
AcDbLine
 10
200.000031537608
 20
198.0829478068465
 30
0.0
 11
207.0000315376081
 21
194.0414958068465
 31
0.0
  0
LINE
  5
486
330
18
100
AcDbEntity
  8
1
  6
Continuous
100
AcDbLine
 10
209.0000315376081
 20
109.2997838068465
 30
0.0
 11
191.0000315376081
 21
109.2997838068465
 31
0.0
  0
LINE
  5
487
330
18
100
AcDbEntity
  8
1
  6
Continuous
100
AcDbLine
 10
207.0000315376081
 20
115.2997838068466
 30
0.0
 11
193.0000315376081
 21
115.2997838068466
 31
0.0
  0
ARC
  5
488
330
18
100
AcDbEntity
  8
1
  6
Continuous
100
AcDbCircle
 10
203.5000315376081
 20
119.4090248068466
 30
0.0
 40
10.109241
100
AcDbArc
 50
249.7438419999999
 51
290.256158
  0
ARC
  5
489
330
18
100
AcDbEntity
  8
1
  6
Continuous
100
AcDbCircle
 10
203.5000315376081
 20
105.1905428068465
 30
0.0
 40
10.109241
100
AcDbArc
 50
69.743842
 51
110.2561579999999
  0
CIRCLE
  5
48A
330
18
100
AcDbEntity
  8
1
  6
Continuous
100
AcDbCircle
 10
199.9992315376081
 20
190.0000438068466
 30
0.0
 40
9.0
  0
CIRCLE
  5
48B
330
18
100
AcDbEntity
  8
2
  6
Continuous
100
AcDbCircle
 10
200.000031537608
 20
190.0000438068466
 30
0.0
 40
4.187999999999997
  0
CIRCLE
  5
48C
330
18
100
AcDbEntity
  8
1
  6
Continuous
100
AcDbCircle
 10
200.000031537608
 20
190.0000438068466
 30
0.0
 40
5.0
  0
ARC
  5
48D
330
18
100
AcDbEntity
  8
1
  6
Continuous
100
AcDbCircle
 10
211.0004445376081
 20
968.0371138068466
 30
0.0
 40
843.637024
100
AcDbArc
 50
267.8516239999999
 51
272.148285
  0
LINE
  5
48E
330
18
100
AcDbEntity
  8
1
  6
Continuous
100
AcDbLine
 10
186.4992315376081
 20
103.9999998068465
 30
0.0
 11
210.136883537608
 21
103.9999998068465
 31
0.0
  0
LINE
  5
48F
330
18
100
AcDbEntity
  8
1
  6
Continuous
100
AcDbLine
 10
203.5000315376081
 20
116.8997838068466
 30
0.0
 11
205.0000315376081
 21
115.3997838068466
 31
0.0
  0
LINE
  5
490
330
18
100
AcDbEntity
  8
1
  6
Continuous
100
AcDbLine
 10
195.0000315376081
 20
115.3997838068466
 30
0.0
 11
205.0000315376081
 21
115.3997838068466
 31
0.0
  0
LINE
  5
491
330
18
100
AcDbEntity
  8
1
  6
Continuous
100
AcDbLine
 10
210.136883537608
 20
106.7999998068466
 30
0.0
 11
186.4992315376081
 21
106.7999998068466
 31
0.0
  0
LINE
  5
492
330
18
100
AcDbEntity
  8
1
  6
Continuous
100
AcDbLine
 10
185.5000315376081
 20
103.3499988068465
 30
0.0
 11
214.500835537608
 21
103.3499988068465
 31
0.0
  0
LINE
  5
493
330
18
100
AcDbEntity
  8
1
  6
Continuous
100
AcDbLine
 10
180.503244537608
 20
101.9999998068465
 30
0.0
 11
219.496818537608
 21
101.9999998068465
 31
0.0
  0
LINE
  5
494
330
18
100
AcDbEntity
  8
4
  6
CENTER
100
AcDbLine
 10
164.6000075376081
 20
82.99999980684658
 30
0.0
 11
257.399934537608
 21
82.99999980684658
 31
0.0
  0
ARC
  5
495
330
18
100
AcDbEntity
  8
1
  6
Continuous
100
AcDbCircle
 10
200.000031537608
 20
190.0000438068466
 30
0.0
 40
13.15
100
AcDbArc
 50
240.5791929999999
 51
292.2023759999999
  0
LINE
  5
496
330
18
100
AcDbEntity
  8
4
  6
CENTER
100
AcDbLine
 10
169.9992315376081
 20
190.0000438068466
 30
0.0
 11
229.999231537608
 21
190.0000438068466
 31
0.0
  0
ARC
  5
497
330
18
100
AcDbEntity
  8
1
  6
Continuous
100
AcDbCircle
 10
199.9992315376081
 20
232.6000458068465
 30
0.0
 40
55.0
100
AcDbArc
 50
267.364777
 51
299.3405759999999
  0
ARC
  5
498
330
18
100
AcDbEntity
  8
1
  6
Continuous
100
AcDbCircle
 10
200.000031537608
 20
190.0000438068466
 30
0.0
 40
15.5
100
AcDbArc
 50
142.581888
 51
312.735512
  0
LINE
  5
499
330
18
100
AcDbEntity
  8
1
  6
Continuous
100
AcDbLine
 10
201.5421035376081
 20
106.7999998068466
 30
0.0
 11
200.000031537608
 21
109.2997838068465
 31
0.0
  0
LINE
  5
49A
330
18
100
AcDbEntity
  8
1
  6
Continuous
100
AcDbLine
 10
200.000031537608
 20
106.7999998068466
 30
0.0
 11
198.457959537608
 21
109.2997838068465
 31
0.0
  0
LINE
  5
49B
330
18
100
AcDbEntity
  8
1
  6
Continuous
100
AcDbLine
 10
191.0000315376081
 20
109.2997838068465
 30
0.0
 11
191.0000315376081
 21
106.7999998068466
 31
0.0
  0
LINE
  5
49C
330
18
100
AcDbEntity
  8
4
  6
CENTER
100
AcDbLine
 10
178.9999865376081
 20
105.7500038068466
 30
0.0
 11
178.9999865376081
 21
124.2500038068466
 31
0.0
  0
ARC
  5
49D
330
18
100
AcDbEntity
  8
1
  6
Continuous
100
AcDbCircle
 10
180.503244537608
 20
96.9999998068466
 30
0.0
 40
5.0
100
AcDbArc
 50
90.0
 51
175.8829149999999
  0
ARC
  5
49E
330
18
100
AcDbEntity
  8
1
  6
Continuous
100
AcDbCircle
 10
210.9999865376081
 20
82.99999980684658
 30
0.0
 40
32.6
100
AcDbArc
 50
138.725422
 51
141.374079
  0
LINE
  5
49F
330
18
100
AcDbEntity
  8
1
  6
Continuous
100
AcDbLine
 10
186.4992315376081
 20
106.7999998068466
 30
0.0
 11
186.4992315376081
 21
103.9999998068465
 31
0.0
  0
LINE
  5
4A0
330
18
100
AcDbEntity
  8
1
  6
Continuous
100
AcDbLine
 10
184.5000315376081
 20
102.3499988068465
 30
0.0
 11
184.5000315376081
 21
101.9999998068465
 31
0.0
  0
ARC
  5
4A1
330
18
100
AcDbEntity
  8
1
  6
Continuous
100
AcDbCircle
 10
185.5000315376081
 20
102.3499988068465
 30
0.0
 40
1.0
100
AcDbArc
 50
90.0
 51
180.0
  0
ARC
  5
4A2
330
18
100
AcDbEntity
  8
1
  6
Continuous
100
AcDbCircle
 10
210.9999865376081
 20
82.99999980684658
 30
0.0
 40
32.6
100
AcDbArc
 50
127.842686
 51
133.108463
  0
ARC
  5
4A3
330
18
100
AcDbEntity
  8
1
  6
Continuous
100
AcDbCircle
 10
210.9999865376081
 20
82.99999980684658
 30
0.0
 40
29.8
100
AcDbArc
 50
135.1948499999997
 51
136.9304309999999
  0
LINE
  5
4A4
330
18
100
AcDbEntity
  8
1
  6
Continuous
100
AcDbLine
 10
193.2500315376081
 20
103.9999998068465
 30
0.0
 11
193.2500315376081
 21
103.3499988068465
 31
0.0
  0
CIRCLE
  5
4A5
330
18
100
AcDbEntity
  8
1
  6
Continuous
100
AcDbCircle
 10
178.9999865376081
 20
115.0000038068466
 30
0.0
 40
4.25
  0
LINE
  5
4A6
330
18
100
AcDbEntity
  8
4
  6
CENTER
100
AcDbLine
 10
188.2499865376081
 20
115.0000038068466
 30
0.0
 11
169.7499865376079
 21
115.0000038068466
 31
0.0
  0
ARC
  5
4A7
330
18
100
AcDbEntity
  8
1
  6
Continuous
100
AcDbCircle
 10
178.9999865376081
 20
115.0000728068466
 30
0.0
 40
10.0
100
AcDbArc
 50
87.851639
 51
182.1483309999999
  0
ARC
  5
4A8
330
18
100
AcDbEntity
  8
1
  6
Continuous
100
AcDbCircle
 10
210.9999865376081
 20
82.99999980684658
 30
0.0
 40
32.6
100
AcDbArc
 50
123.514353
 51
126.221189
  0
LINE
  5
4A9
330
18
100
AcDbEntity
  8
1
  6
Continuous
100
AcDbLine
 10
195.0000315376081
 20
115.3997838068466
 30
0.0
 11
196.5000315376079
 21
116.8997838068466
 31
0.0
  0
ARC
  5
4AA
330
18
100
AcDbEntity
  8
1
  6
Continuous
100
AcDbCircle
 10
196.5000315376079
 20
119.4090248068466
 30
0.0
 40
10.109241
100
AcDbArc
 50
249.7438419999999
 51
290.256158
  0
ARC
  5
4AB
330
18
100
AcDbEntity
  8
1
  6
Continuous
100
AcDbCircle
 10
196.5000315376079
 20
105.1905428068465
 30
0.0
 40
10.109241
100
AcDbArc
 50
69.743842
 51
110.2561579999999
  0
LINE
  5
4AC
330
18
100
AcDbEntity
  8
1
  6
Continuous
100
AcDbLine
 10
195.0000315376081
 20
115.2997838068466
 30
0.0
 11
195.0000315376081
 21
115.3997838068466
 31
0.0
  0
LINE
  5
4AD
330
18
100
AcDbEntity
  8
1
  6
Continuous
100
AcDbLine
 10
193.0000315376081
 20
115.2997838068466
 30
0.0
 11
193.0000315376081
 21
109.2997838068465
 31
0.0
  0
LINE
  5
4AE
330
18
100
AcDbEntity
  8
2
  6
Continuous
100
AcDbLine
 10
195.8120315376081
 20
115.2997838068466
 30
0.0
 11
195.8120315376081
 21
116.2117838068466
 31
0.0
  0
LINE
  5
4AF
330
18
100
AcDbEntity
  8
1
  6
Continuous
100
AcDbLine
 10
200.000031537608
 20
114.6745688068465
 30
0.0
 11
200.000031537608
 21
109.9249988068466
 31
0.0
  0
LINE
  5
4B0
330
18
100
AcDbEntity
  8
1
  6
Continuous
100
AcDbLine
 10
203.5000315376081
 20
116.8997838068466
 30
0.0
 11
196.5000315376079
 21
116.8997838068466
 31
0.0
  0
LINE
  5
4B1
330
18
100
AcDbEntity
  8
1
  6
Continuous
100
AcDbLine
 10
193.0000315376081
 20
185.9585918068465
 30
0.0
 11
193.0000315376081
 21
194.0414958068465
 31
0.0
  0
ARC
  5
4B3
330
18
100
AcDbEntity
  8
1
  6
Continuous
100
AcDbCircle
 10
197.9992315376081
 20
189.1460478068466
 30
0.0
 40
11.5
100
AcDbArc
 50
168.873352
 51
267.364777
  0
LINE
  5
4B4
330
18
100
AcDbEntity
  8
1
  6
Continuous
100
AcDbLine
 10
193.0000315376081
 20
185.9585918068465
 30
0.0
 11
200.000031537608
 21
181.9171398068465
 31
0.0
  0
LINE
  5
4B5
330
18
100
AcDbEntity
  8
1
  6
Continuous
100
AcDbLine
 10
187.7378105376081
 20
203.1000458068465
 30
0.0
 11
198.4992315376081
 21
203.1000458068465
 31
0.0
  0
LINE
  5
4B6
330
18
100
AcDbEntity
  8
1
  6
Continuous
100
AcDbLine
 10
200.000031537608
 20
198.0829478068465
 30
0.0
 11
193.0000315376081
 21
194.0414958068465
 31
0.0
  0
ARC
  5
4B7
330
18
100
AcDbEntity
  8
1
  6
Continuous
100
AcDbCircle
 10
242.9999865376081
 20
115.0000348068466
 30
0.0
 40
10.0
100
AcDbArc
 50
357.8516539999998
 51
92.1483
  0
LINE
  5
4B8
330
18
100
AcDbEntity
  8
4
  6
CENTER
100
AcDbLine
 10
252.249986537608
 20
115.0000038068466
 30
0.0
 11
233.749986537608
 21
115.0000038068466
 31
0.0
  0
ARC
  5
4B9
330
18
100
AcDbEntity
  8
1
  6
Continuous
100
AcDbCircle
 10
183.8572785376081
 20
69.30936680684661
 30
0.0
 40
60.2
100
AcDbArc
 50
26.766127
 51
43.765551
  0
ARC
  5
4BA
330
18
100
AcDbEntity
  8
1
  6
Continuous
100
AcDbCircle
 10
183.8572785376081
 20
69.30936680684661
 30
0.0
 40
63.0
100
AcDbArc
 50
26.766127
 51
43.765551
  0
ARC
  5
4BB
330
18
100
AcDbEntity
  8
1
  6
Continuous
100
AcDbCircle
 10
210.136883537608
 20
111.7999998068466
 30
0.0
 40
7.799999999999998
100
AcDbArc
 50
270.0
 51
338.7573279999998
  0
ARC
  5
4BC
330
18
100
AcDbEntity
  8
1
  6
Continuous
100
AcDbCircle
 10
210.136883537608
 20
111.7999998068466
 30
0.0
 40
5.0
100
AcDbArc
 50
270.0
 51
338.7573279999998
  0
LINE
  5
4BD
330
18
100
AcDbEntity
  8
1
  6
Continuous
100
AcDbLine
 10
209.0000315376081
 20
109.2997838068465
 30
0.0
 11
209.0000315376081
 21
106.7999998068466
 31
0.0
  0
LINE
  5
4BE
330
18
100
AcDbEntity
  8
4
  6
CENTER
100
AcDbLine
 10
242.9999865376081
 20
105.7500038068466
 30
0.0
 11
242.9999865376081
 21
124.2500038068466
 31
0.0
  0
LINE
  5
4BF
330
18
100
AcDbEntity
  8
1
  6
Continuous
100
AcDbLine
 10
206.7500315376081
 20
103.9999998068465
 30
0.0
 11
206.7500315376081
 21
103.3499988068465
 31
0.0
  0
LINE
  5
4C0
330
18
100
AcDbEntity
  8
1
  6
Continuous
100
AcDbLine
 10
215.500035537608
 20
102.3499988068465
 30
0.0
 11
215.500035537608
 21
101.9999998068465
 31
0.0
  0
ARC
  5
4C1
330
18
100
AcDbEntity
  8
1
  6
Continuous
100
AcDbCircle
 10
214.500835537608
 20
102.3499988068465
 30
0.0
 40
1.0
100
AcDbArc
 50
0.0
 51
90.0
  0
ARC
  5
4C2
330
18
100
AcDbEntity
  8
1
  6
Continuous
100
AcDbCircle
 10
219.496818537608
 20
96.9999998068466
 30
0.0
 40
5.0
100
AcDbArc
 50
4.117084999999998
 51
90.0
  0
LINE
  5
4C3
330
18
100
AcDbEntity
  8
1
  6
Continuous
100
AcDbLine
 10
238.972493537608
 20
98.7807618068466
 30
0.0
 11
237.404343537608
 21
97.8961098068466
 31
0.0
  0
ARC
  5
4C4
330
18
100
AcDbEntity
  8
1
  6
Continuous
100
AcDbCircle
 10
222.999231537608
 20
106.7999998068466
 30
0.0
 40
8.8
100
AcDbArc
 50
43.765551
 51
158.7573279999998
  0
LINE
  5
4C5
330
18
100
AcDbEntity
  8
1
  6
Continuous
100
AcDbLine
 10
222.999231537608
 20
115.5999998068464
 30
0.0
 11
210.9999865376081
 21
115.5999998068464
 31
0.0
  0
ARC
  5
4C6
330
18
100
AcDbEntity
  8
1
  6
Continuous
100
AcDbCircle
 10
210.9999865376081
 20
82.99999980684658
 30
0.0
 40
32.6
100
AcDbArc
 50
90.0
 51
97.78179200000003
  0
LINE
  5
4C7
330
18
100
AcDbEntity
  8
1
  6
Continuous
100
AcDbLine
 10
207.0000315376081
 20
115.2997838068466
 30
0.0
 11
207.0000315376081
 21
109.2997838068465
 31
0.0
  0
LINE
  5
4C8
330
18
100
AcDbEntity
  8
2
  6
Continuous
100
AcDbLine
 10
204.1880315376078
 20
115.2997838068466
 30
0.0
 11
204.1880315376078
 21
116.2117838068466
 31
0.0
  0
LINE
  5
4C9
330
18
100
AcDbEntity
  8
1
  6
Continuous
100
AcDbLine
 10
205.0000315376081
 20
115.2997838068466
 30
0.0
 11
205.0000315376081
 21
115.3997838068466
 31
0.0
  0
ARC
  5
4CA
330
18
100
AcDbEntity
  8
1
  6
Continuous
100
AcDbCircle
 10
222.999231537608
 20
106.7999998068466
 30
0.0
 40
6.0
100
AcDbArc
 50
43.765551
 51
158.7573279999998
  0
CIRCLE
  5
4CB
330
18
100
AcDbEntity
  8
1
  6
Continuous
100
AcDbCircle
 10
242.9999865376081
 20
115.0000038068466
 30
0.0
 40
4.25
  0
ARC
  5
4CC
330
18
100
AcDbEntity
  8
1
  6
Continuous
100
AcDbCircle
 10
219.599237537608
 20
197.7311458068465
 30
0.0
 40
15.0
100
AcDbArc
 50
299.3405759999999
 51
319.161575
  0
LINE
  5
4CD
330
18
100
AcDbEntity
  8
1
  6
Continuous
100
AcDbLine
 10
207.0000315376081
 20
185.9585918068465
 30
0.0
 11
207.0000315376081
 21
194.0414958068465
 31
0.0
  0
LINE
  5
4CE
330
18
100
AcDbEntity
  8
1
  6
Continuous
100
AcDbLine
 10
210.999231537608
 20
178.7112708068465
 30
0.0
 11
210.999231537608
 21
190.6000498068466
 31
0.0
  0
LINE
  5
4CF
330
18
100
AcDbEntity
  8
1
  6
Continuous
100
AcDbLine
 10
108.999994537608
 20
240.8000138068465
 30
0.0
 11
25.00000153760811
 21
240.8000138068465
 31
0.0
  0
LINE
  5
4D0
330
18
100
AcDbEntity
  8
1
  6
Continuous
100
AcDbLine
 10
25.00000153760811
 20
244.0000138068465
 30
0.0
 11
108.999994537608
 21
244.0000138068465
 31
0.0
  0
LINE
  5
4D1
330
18
100
AcDbEntity
  8
1
  6
Continuous
100
AcDbLine
 10
36.24162653760811
 20
234.9382608068465
 30
0.0
 11
97.75836953760814
 21
234.9382608068465
 31
0.0
  0
LINE
  5
4D2
330
18
100
AcDbEntity
  8
1
  6
Continuous
100
AcDbLine
 10
36.33029753760811
 20
235.8999978068466
 30
0.0
 11
97.6795105376081
 21
235.8999978068466
 31
0.0
  0
LINE
  5
4D3
330
18
100
AcDbEntity
  8
1
  6
Continuous
100
AcDbLine
 10
66.17152953760812
 20
230.6000418068466
 30
0.0
 11
64.17152953760812
 21
232.5000418068464
 31
0.0
  0
LINE
  5
4D4
330
18
100
AcDbEntity
  8
1
  6
Continuous
100
AcDbLine
 10
63.58574453760811
 20
230.6000418068466
 30
0.0
 11
65.58574453760812
 21
232.5000418068464
 31
0.0
  0
LINE
  5
4D5
330
18
100
AcDbEntity
  8
1
  6
Continuous
100
AcDbLine
 10
50.9999985376081
 20
217.8000428068465
 30
0.0
 11
82.99999853760809
 21
217.8000428068465
 31
0.0
  0
ARC
  5
4D6
330
18
100
AcDbEntity
  8
1
  6
Continuous
100
AcDbCircle
 10
66.99999853760811
 20
15.0000438068466
 30
0.0
 40
200.0
100
AcDbArc
 50
85.882912
 51
94.11708799999997
  0
LINE
  5
4D7
330
18
100
AcDbEntity
  8
1
  6
Continuous
100
AcDbLine
 10
35.49999853760811
 20
230.6000418068466
 30
0.0
 11
98.49999853760813
 21
230.6000418068466
 31
0.0
  0
LINE
  5
4D8
330
18
100
AcDbEntity
  8
1
  6
Continuous
100
AcDbLine
 10
98.49999853760813
 20
232.5000418068464
 30
0.0
 11
35.49999853760811
 21
232.5000418068464
 31
0.0
  0
ARC
  5
4D9
330
18
100
AcDbEntity
  8
1
  6
Continuous
100
AcDbCircle
 10
36.3204865376081
 20
240.8999978068466
 30
0.0
 40
5.0
100
AcDbArc
 50
211.789429
 51
270.0
  0
LINE
  5
4DA
330
18
100
AcDbEntity
  8
4
  6
CENTER
100
AcDbLine
 10
34.99999853760811
 20
249.0001108068464
 30
0.0
 11
34.99999853760811
 21
236.0775518068466
 31
0.0
  0
LINE
  5
4DB
330
18
100
AcDbEntity
  8
1
  6
Continuous
100
AcDbLine
 10
43.54408953760811
 20
230.6000418068466
 30
0.0
 11
41.5440895376081
 21
232.5000418068464
 31
0.0
  0
LINE
  5
4DC
330
18
100
AcDbEntity
  8
1
  6
Continuous
100
AcDbLine
 10
42.1298805376081
 20
230.6000418068466
 30
0.0
 11
40.1298805376081
 21
232.5000418068464
 31
0.0
  0
LINE
  5
4DD
330
18
100
AcDbEntity
  8
1
  6
Continuous
100
AcDbLine
 10
40.9583045376081
 20
230.6000418068466
 30
0.0
 11
42.9583045376081
 21
232.5000418068464
 31
0.0
  0
ARC
  5
4DE
330
18
100
AcDbEntity
  8
1
  6
Continuous
100
AcDbCircle
 10
51.19999553760814
 20
209.8000428068465
 30
0.0
 40
8.0
100
AcDbArc
 50
90.0
 51
180.0
  0
ARC
  5
4DF
330
18
100
AcDbEntity
  8
1
  6
Continuous
100
AcDbCircle
 10
37.90000053760811
 20
227.1000418068465
 30
0.0
 40
3.5
100
AcDbArc
 50
90.0
 51
180.0
  0
ARC
  5
4E0
330
18
100
AcDbEntity
  8
1
  6
Continuous
100
AcDbCircle
 10
37.80210653760811
 20
234.8007398068465
 30
0.0
 40
2.691070999999998
100
AcDbArc
 50
198.536835
 51
238.752838
  0
ARC
  5
4E1
330
18
100
AcDbEntity
  8
1
  6
Continuous
100
AcDbCircle
 10
39.96407153760811
 20
230.2325828068465
 30
0.0
 40
6.0
100
AcDbArc
 50
128.34589
 51
141.7735289999999
  0
LINE
  5
4E2
330
18
100
AcDbEntity
  8
1
  6
Continuous
100
AcDbLine
 10
36.47302853760811
 20
230.6000418068466
 30
0.0
 11
35.50005853760811
 21
231.5730118068465
 31
0.0
  0
LINE
  5
4E3
330
18
100
AcDbEntity
  8
1
  6
Continuous
100
AcDbLine
 10
35.50013653760811
 20
230.7987248068466
 30
0.0
 11
37.30145153760811
 21
232.5000418068464
 31
0.0
  0
LINE
  5
4E4
330
18
100
AcDbEntity
  8
1
  6
Continuous
100
AcDbLine
 10
37.88724453760811
 20
230.6000418068466
 30
0.0
 11
35.88724453760811
 21
232.5000418068464
 31
0.0
  0
LINE
  5
4E5
330
18
100
AcDbEntity
  8
1
  6
Continuous
100
AcDbLine
 10
35.49999853760811
 20
230.6000418068466
 30
0.0
 11
35.49999853760811
 21
232.5000418068464
 31
0.0
  0
LINE
  5
4E6
330
18
100
AcDbEntity
  8
1
  6
Continuous
100
AcDbLine
 10
35.49999853760811
 20
232.1128008068465
 30
0.0
 11
35.88724453760811
 21
232.5000418068464
 31
0.0
  0
ARC
  5
4E7
330
18
100
AcDbEntity
  8
1
  6
Continuous
100
AcDbCircle
 10
41.5734905376081
 20
233.2527638068466
 30
0.0
 40
4.180755999999997
100
AcDbArc
 50
140.7137699999997
 51
156.2243729999999
  0
LINE
  5
4E8
330
18
100
AcDbEntity
  8
1
  6
Continuous
100
AcDbLine
 10
40.7156665376081
 20
230.6000418068466
 30
0.0
 11
38.71566653760811
 21
232.5000418068464
 31
0.0
  0
LINE
  5
4E9
330
18
100
AcDbEntity
  8
1
  6
Continuous
100
AcDbLine
 10
39.54408953760811
 20
230.6000418068466
 30
0.0
 11
41.5440895376081
 21
232.5000418068464
 31
0.0
  0
LINE
  5
4EA
330
18
100
AcDbEntity
  8
1
  6
Continuous
100
AcDbLine
 10
38.1298805376081
 20
230.6000418068466
 30
0.0
 11
40.1298805376081
 21
232.5000418068464
 31
0.0
  0
LINE
  5
4EB
330
18
100
AcDbEntity
  8
1
  6
Continuous
100
AcDbLine
 10
39.30145153760811
 20
230.6000418068466
 30
0.0
 11
37.30145153760811
 21
232.5000418068464
 31
0.0
  0
LINE
  5
4EC
330
18
100
AcDbEntity
  8
1
  6
Continuous
100
AcDbLine
 10
36.71566653760811
 20
230.6000418068466
 30
0.0
 11
38.71566653760811
 21
232.5000418068464
 31
0.0
  0
ARC
  5
4ED
330
18
100
AcDbEntity
  8
1
  6
Continuous
100
AcDbCircle
 10
52.99999853760811
 20
209.4968318068465
 30
0.0
 40
5.0
100
AcDbArc
 50
94.11708799999997
 51
180.0
  0
LINE
  5
4EE
330
18
100
AcDbEntity
  8
1
  6
Continuous
100
AcDbLine
 10
47.64999953760811
 20
205.5000478068465
 30
0.0
 11
47.99999853760811
 21
205.5000478068465
 31
0.0
  0
ARC
  5
4EF
330
18
100
AcDbEntity
  8
1
  6
Continuous
100
AcDbCircle
 10
50.9999985376081
 20
212.8000428068465
 30
0.0
 40
5.0
100
AcDbArc
 50
90.0
 51
180.0
  0
LINE
  5
4F0
330
18
100
AcDbEntity
  8
1
  6
Continuous
100
AcDbLine
 10
53.44359353760811
 20
230.6000418068466
 30
0.0
 11
51.44359353760811
 21
232.5000418068464
 31
0.0
  0
LINE
  5
4F1
330
18
100
AcDbEntity
  8
1
  6
Continuous
100
AcDbLine
 10
54.85780853760811
 20
230.6000418068466
 30
0.0
 11
52.85780853760811
 21
232.5000418068464
 31
0.0
  0
LINE
  5
4F2
330
18
100
AcDbEntity
  8
1
  6
Continuous
100
AcDbLine
 10
52.27202453760811
 20
230.6000418068466
 30
0.0
 11
54.27202453760811
 21
232.5000418068464
 31
0.0
  0
LINE
  5
4F3
330
18
100
AcDbEntity
  8
1
  6
Continuous
100
AcDbLine
 10
49.20094953760811
 20
230.6000418068466
 30
0.0
 11
47.20094953760811
 21
232.5000418068464
 31
0.0
  0
LINE
  5
4F4
330
18
100
AcDbEntity
  8
1
  6
Continuous
100
AcDbLine
 10
46.6151645376081
 20
230.6000418068466
 30
0.0
 11
48.61516453760811
 21
232.5000418068464
 31
0.0
  0
LINE
  5
4F5
330
18
100
AcDbEntity
  8
1
  6
Continuous
100
AcDbLine
 10
47.78673453760811
 20
230.6000418068466
 30
0.0
 11
45.78673453760811
 21
232.5000418068464
 31
0.0
  0
LINE
  5
4F6
330
18
100
AcDbEntity
  8
1
  6
Continuous
100
AcDbLine
 10
44.9583045376081
 20
230.6000418068466
 30
0.0
 11
42.9583045376081
 21
232.5000418068464
 31
0.0
  0
LINE
  5
4F7
330
18
100
AcDbEntity
  8
1
  6
Continuous
100
AcDbLine
 10
43.7867345376081
 20
230.6000418068466
 30
0.0
 11
45.78673453760811
 21
232.5000418068464
 31
0.0
  0
LINE
  5
4F8
330
18
100
AcDbEntity
  8
1
  6
Continuous
100
AcDbLine
 10
42.3725195376081
 20
230.6000418068466
 30
0.0
 11
44.3725195376081
 21
232.5000418068464
 31
0.0
  0
LINE
  5
4F9
330
18
100
AcDbEntity
  8
1
  6
Continuous
100
AcDbLine
 10
46.3725195376081
 20
230.6000418068466
 30
0.0
 11
44.3725195376081
 21
232.5000418068464
 31
0.0
  0
LINE
  5
4FA
330
18
100
AcDbEntity
  8
1
  6
Continuous
100
AcDbLine
 10
45.2009485376081
 20
230.6000418068466
 30
0.0
 11
47.20094953760811
 21
232.5000418068464
 31
0.0
  0
LINE
  5
4FB
330
18
100
AcDbEntity
  8
1
  6
Continuous
100
AcDbLine
 10
48.0293795376081
 20
230.6000418068466
 30
0.0
 11
50.0293795376081
 21
232.5000418068464
 31
0.0
  0
LINE
  5
4FC
330
18
100
AcDbEntity
  8
1
  6
Continuous
100
AcDbLine
 10
50.85780853760812
 20
230.6000418068466
 30
0.0
 11
52.85780853760811
 21
232.5000418068464
 31
0.0
  0
LINE
  5
4FD
330
18
100
AcDbEntity
  8
1
  6
Continuous
100
AcDbLine
 10
52.02937953760812
 20
230.6000418068466
 30
0.0
 11
50.0293795376081
 21
232.5000418068464
 31
0.0
  0
LINE
  5
4FE
330
18
100
AcDbEntity
  8
1
  6
Continuous
100
AcDbLine
 10
50.61516453760812
 20
230.6000418068466
 30
0.0
 11
48.61516453760811
 21
232.5000418068464
 31
0.0
  0
LINE
  5
4FF
330
18
100
AcDbEntity
  8
1
  6
Continuous
100
AcDbLine
 10
49.44359353760811
 20
230.6000418068466
 30
0.0
 11
51.44359353760811
 21
232.5000418068464
 31
0.0
  0
LINE
  5
500
330
18
100
AcDbEntity
  8
1
  6
Continuous
100
AcDbLine
 10
60.51467053760811
 20
230.6000418068466
 30
0.0
 11
58.51467053760811
 21
232.5000418068464
 31
0.0
  0
LINE
  5
501
330
18
100
AcDbEntity
  8
1
  6
Continuous
100
AcDbLine
 10
57.9288845376081
 20
230.6000418068466
 30
0.0
 11
59.92888553760811
 21
232.5000418068464
 31
0.0
  0
LINE
  5
502
330
18
100
AcDbEntity
  8
1
  6
Continuous
100
AcDbLine
 10
57.68623953760812
 20
230.6000418068466
 30
0.0
 11
55.68623953760813
 21
232.5000418068464
 31
0.0
  0
LINE
  5
503
330
18
100
AcDbEntity
  8
1
  6
Continuous
100
AcDbLine
 10
56.27202453760811
 20
230.6000418068466
 30
0.0
 11
54.27202453760811
 21
232.5000418068464
 31
0.0
  0
LINE
  5
504
330
18
100
AcDbEntity
  8
1
  6
Continuous
100
AcDbLine
 10
55.10045553760812
 20
230.6000418068466
 30
0.0
 11
57.10045553760812
 21
232.5000418068464
 31
0.0
  0
LINE
  5
505
330
18
100
AcDbEntity
  8
1
  6
Continuous
100
AcDbLine
 10
59.10045553760812
 20
230.6000418068466
 30
0.0
 11
57.10045553760812
 21
232.5000418068464
 31
0.0
  0
LINE
  5
506
330
18
100
AcDbEntity
  8
1
  6
Continuous
100
AcDbLine
 10
56.51467053760811
 20
230.6000418068466
 30
0.0
 11
58.51467053760811
 21
232.5000418068464
 31
0.0
  0
LINE
  5
507
330
18
100
AcDbEntity
  8
1
  6
Continuous
100
AcDbLine
 10
53.68623953760812
 20
230.6000418068466
 30
0.0
 11
55.68623953760813
 21
232.5000418068464
 31
0.0
  0
LINE
  5
508
330
18
100
AcDbEntity
  8
1
  6
Continuous
100
AcDbLine
 10
61.92888553760811
 20
230.6000418068466
 30
0.0
 11
59.92888553760811
 21
232.5000418068464
 31
0.0
  0
LINE
  5
509
330
18
100
AcDbEntity
  8
1
  6
Continuous
100
AcDbLine
 10
59.3431005376081
 20
230.6000418068466
 30
0.0
 11
61.34310053760811
 21
232.5000418068464
 31
0.0
  0
LINE
  5
50A
330
18
100
AcDbEntity
  8
1
  6
Continuous
100
AcDbLine
 10
64.75731553760811
 20
230.6000418068466
 30
0.0
 11
62.7573155376081
 21
232.5000418068464
 31
0.0
  0
LINE
  5
50B
330
18
100
AcDbEntity
  8
1
  6
Continuous
100
AcDbLine
 10
63.34310053760812
 20
230.6000418068466
 30
0.0
 11
61.34310053760811
 21
232.5000418068464
 31
0.0
  0
LINE
  5
50C
330
18
100
AcDbEntity
  8
1
  6
Continuous
100
AcDbLine
 10
62.17152953760812
 20
230.6000418068466
 30
0.0
 11
64.17152953760812
 21
232.5000418068464
 31
0.0
  0
LINE
  5
50D
330
18
100
AcDbEntity
  8
1
  6
Continuous
100
AcDbLine
 10
60.7573155376081
 20
230.6000418068466
 30
0.0
 11
62.7573155376081
 21
232.5000418068464
 31
0.0
  0
LINE
  5
50E
330
18
100
AcDbEntity
  8
1
  6
Continuous
100
AcDbLine
 10
25.00000153760811
 20
244.0000138068465
 30
0.0
 11
25.00000153760811
 21
240.8000138068465
 31
0.0
  0
LINE
  5
50F
330
18
100
AcDbEntity
  8
1
  6
Continuous
100
AcDbLine
 10
32.07053253760811
 20
238.2659988068466
 30
0.0
 11
30.50002653760811
 21
240.8000138068465
 31
0.0
  0
ARC
  5
510
330
18
100
AcDbEntity
  8
1
  6
Continuous
100
AcDbCircle
 10
97.6795105376081
 20
240.8999978068466
 30
0.0
 40
5.0
100
AcDbArc
 50
270.0
 51
328.2105869999998
  0
LINE
  5
511
330
18
100
AcDbEntity
  8
4
  6
CENTER
100
AcDbLine
 10
98.9999985376081
 20
249.0001108068464
 30
0.0
 11
98.9999985376081
 21
236.0775518068466
 31
0.0
  0
LINE
  5
512
330
18
100
AcDbEntity
  8
1
  6
Continuous
100
AcDbLine
 10
87.62740153760809
 20
230.6000418068466
 30
0.0
 11
89.6274015376081
 21
232.5000418068464
 31
0.0
  0
ARC
  5
513
330
18
100
AcDbEntity
  8
1
  6
Continuous
100
AcDbCircle
 10
82.99999853760809
 20
212.8000428068465
 30
0.0
 40
5.0
100
AcDbArc
 50
0.0
 51
90.0
  0
ARC
  5
514
330
18
100
AcDbEntity
  8
1
  6
Continuous
100
AcDbCircle
 10
82.80000153760807
 20
209.8000428068465
 30
0.0
 40
8.0
100
AcDbArc
 50
0.0
 51
90.0
  0
LINE
  5
515
330
18
100
AcDbEntity
  8
1
  6
Continuous
100
AcDbLine
 10
88.79897153760806
 20
230.6000418068466
 30
0.0
 11
86.79897153760808
 21
232.5000418068464
 31
0.0
  0
LINE
  5
516
330
18
100
AcDbEntity
  8
1
  6
Continuous
100
AcDbLine
 10
86.21318653760809
 20
230.6000418068466
 30
0.0
 11
88.2131865376081
 21
232.5000418068464
 31
0.0
  0
ARC
  5
517
330
18
100
AcDbEntity
  8
1
  6
Continuous
100
AcDbCircle
 10
80.99999853760808
 20
209.4968318068465
 30
0.0
 40
5.0
100
AcDbArc
 50
0.0
 51
85.882912
  0
LINE
  5
518
330
18
100
AcDbEntity
  8
1
  6
Continuous
100
AcDbLine
 10
85.99999853760806
 20
205.5000478068465
 30
0.0
 11
86.04999753760806
 21
205.5000478068465
 31
0.0
  0
LINE
  5
519
330
18
100
AcDbEntity
  8
1
  6
Continuous
100
AcDbLine
 10
77.48525053760809
 20
230.6000418068466
 30
0.0
 11
75.48525053760809
 21
232.5000418068464
 31
0.0
  0
LINE
  5
51A
330
18
100
AcDbEntity
  8
1
  6
Continuous
100
AcDbLine
 10
74.89946553760809
 20
230.6000418068466
 30
0.0
 11
76.89946553760809
 21
232.5000418068464
 31
0.0
  0
LINE
  5
51B
330
18
100
AcDbEntity
  8
1
  6
Continuous
100
AcDbLine
 10
76.31368053760809
 20
230.6000418068466
 30
0.0
 11
78.31368053760809
 21
232.5000418068464
 31
0.0
  0
LINE
  5
51C
330
18
100
AcDbEntity
  8
1
  6
Continuous
100
AcDbLine
 10
70.65682053760811
 20
230.6000418068466
 30
0.0
 11
72.65682053760811
 21
232.5000418068464
 31
0.0
  0
LINE
  5
51D
330
18
100
AcDbEntity
  8
1
  6
Continuous
100
AcDbLine
 10
71.82839053760813
 20
230.6000418068466
 30
0.0
 11
69.82839053760812
 21
232.5000418068464
 31
0.0
  0
LINE
  5
51E
330
18
100
AcDbEntity
  8
1
  6
Continuous
100
AcDbLine
 10
69.24260553760811
 20
230.6000418068466
 30
0.0
 11
71.24260553760811
 21
232.5000418068464
 31
0.0
  0
LINE
  5
51F
330
18
100
AcDbEntity
  8
1
  6
Continuous
100
AcDbLine
 10
68.9999605376081
 20
230.6000418068466
 30
0.0
 11
66.9999605376081
 21
232.5000418068464
 31
0.0
  0
LINE
  5
520
330
18
100
AcDbEntity
  8
1
  6
Continuous
100
AcDbLine
 10
70.41417553760813
 20
230.6000418068466
 30
0.0
 11
68.41417553760812
 21
232.5000418068464
 31
0.0
  0
LINE
  5
521
330
18
100
AcDbEntity
  8
1
  6
Continuous
100
AcDbLine
 10
67.82839053760811
 20
230.6000418068466
 30
0.0
 11
69.82839053760812
 21
232.5000418068464
 31
0.0
  0
LINE
  5
522
330
18
100
AcDbEntity
  8
1
  6
Continuous
100
AcDbLine
 10
67.58574453760812
 20
230.6000418068466
 30
0.0
 11
65.58574453760812
 21
232.5000418068464
 31
0.0
  0
LINE
  5
523
330
18
100
AcDbEntity
  8
1
  6
Continuous
100
AcDbLine
 10
64.9999605376081
 20
230.6000418068466
 30
0.0
 11
66.9999605376081
 21
232.5000418068464
 31
0.0
  0
LINE
  5
524
330
18
100
AcDbEntity
  8
1
  6
Continuous
100
AcDbLine
 10
66.4141755376081
 20
230.6000418068466
 30
0.0
 11
68.41417553760812
 21
232.5000418068464
 31
0.0
  0
LINE
  5
525
330
18
100
AcDbEntity
  8
1
  6
Continuous
100
AcDbLine
 10
73.24260553760812
 20
230.6000418068466
 30
0.0
 11
71.24260553760811
 21
232.5000418068464
 31
0.0
  0
LINE
  5
526
330
18
100
AcDbEntity
  8
1
  6
Continuous
100
AcDbLine
 10
74.65682153760809
 20
230.6000418068466
 30
0.0
 11
72.65682053760811
 21
232.5000418068464
 31
0.0
  0
LINE
  5
527
330
18
100
AcDbEntity
  8
1
  6
Continuous
100
AcDbLine
 10
72.07103653760809
 20
230.6000418068466
 30
0.0
 11
74.0710365376081
 21
232.5000418068464
 31
0.0
  0
LINE
  5
528
330
18
100
AcDbEntity
  8
1
  6
Continuous
100
AcDbLine
 10
76.07103653760809
 20
230.6000418068466
 30
0.0
 11
74.0710365376081
 21
232.5000418068464
 31
0.0
  0
LINE
  5
529
330
18
100
AcDbEntity
  8
1
  6
Continuous
100
AcDbLine
 10
73.48525053760809
 20
230.6000418068466
 30
0.0
 11
75.48525053760809
 21
232.5000418068464
 31
0.0
  0
LINE
  5
52A
330
18
100
AcDbEntity
  8
1
  6
Continuous
100
AcDbLine
 10
80.55632653760808
 20
230.6000418068466
 30
0.0
 11
82.55632653760811
 21
232.5000418068464
 31
0.0
  0
LINE
  5
52B
330
18
100
AcDbEntity
  8
1
  6
Continuous
100
AcDbLine
 10
83.14211153760814
 20
230.6000418068466
 30
0.0
 11
81.14211153760811
 21
232.5000418068464
 31
0.0
  0
LINE
  5
52C
330
18
100
AcDbEntity
  8
1
  6
Continuous
100
AcDbLine
 10
81.97054153760808
 20
230.6000418068466
 30
0.0
 11
83.97054153760809
 21
232.5000418068464
 31
0.0
  0
LINE
  5
52D
330
18
100
AcDbEntity
  8
1
  6
Continuous
100
AcDbLine
 10
81.72789653760807
 20
230.6000418068466
 30
0.0
 11
79.72789653760809
 21
232.5000418068464
 31
0.0
  0
LINE
  5
52E
330
18
100
AcDbEntity
  8
1
  6
Continuous
100
AcDbLine
 10
79.1421115376081
 20
230.6000418068466
 30
0.0
 11
81.14211153760811
 21
232.5000418068464
 31
0.0
  0
LINE
  5
52F
330
18
100
AcDbEntity
  8
1
  6
Continuous
100
AcDbLine
 10
78.89946553760809
 20
230.6000418068466
 30
0.0
 11
76.89946553760809
 21
232.5000418068464
 31
0.0
  0
LINE
  5
530
330
18
100
AcDbEntity
  8
1
  6
Continuous
100
AcDbLine
 10
80.31368053760809
 20
230.6000418068466
 30
0.0
 11
78.31368053760809
 21
232.5000418068464
 31
0.0
  0
LINE
  5
531
330
18
100
AcDbEntity
  8
1
  6
Continuous
100
AcDbLine
 10
77.72789653760809
 20
230.6000418068466
 30
0.0
 11
79.72789653760809
 21
232.5000418068464
 31
0.0
  0
LINE
  5
532
330
18
100
AcDbEntity
  8
1
  6
Continuous
100
AcDbLine
 10
85.97054153760808
 20
230.6000418068466
 30
0.0
 11
83.97054153760809
 21
232.5000418068464
 31
0.0
  0
LINE
  5
533
330
18
100
AcDbEntity
  8
1
  6
Continuous
100
AcDbLine
 10
83.38475553760813
 20
230.6000418068466
 30
0.0
 11
85.38475553760813
 21
232.5000418068464
 31
0.0
  0
LINE
  5
534
330
18
100
AcDbEntity
  8
1
  6
Continuous
100
AcDbLine
 10
84.79897153760807
 20
230.6000418068466
 30
0.0
 11
86.79897153760808
 21
232.5000418068464
 31
0.0
  0
LINE
  5
535
330
18
100
AcDbEntity
  8
1
  6
Continuous
100
AcDbLine
 10
84.55632653760813
 20
230.6000418068466
 30
0.0
 11
82.55632653760811
 21
232.5000418068464
 31
0.0
  0
LINE
  5
536
330
18
100
AcDbEntity
  8
1
  6
Continuous
100
AcDbLine
 10
87.38475553760812
 20
230.6000418068466
 30
0.0
 11
85.38475553760813
 21
232.5000418068464
 31
0.0
  0
ARC
  5
537
330
18
100
AcDbEntity
  8
1
  6
Continuous
100
AcDbCircle
 10
96.09999753760813
 20
227.1000418068465
 30
0.0
 40
3.5
100
AcDbArc
 50
0.0
 51
90.0
  0
LINE
  5
538
330
18
100
AcDbEntity
  8
1
  6
Continuous
100
AcDbLine
 10
94.45583253760814
 20
230.6000418068466
 30
0.0
 11
92.45583153760813
 21
232.5000418068464
 31
0.0
  0
LINE
  5
539
330
18
100
AcDbEntity
  8
1
  6
Continuous
100
AcDbLine
 10
95.87004753760814
 20
230.6000418068466
 30
0.0
 11
93.87004753760813
 21
232.5000418068464
 31
0.0
  0
LINE
  5
53A
330
18
100
AcDbEntity
  8
1
  6
Continuous
100
AcDbLine
 10
93.28426253760813
 20
230.6000418068466
 30
0.0
 11
95.28426253760812
 21
232.5000418068464
 31
0.0
  0
LINE
  5
53B
330
18
100
AcDbEntity
  8
1
  6
Continuous
100
AcDbLine
 10
90.21318653760813
 20
230.6000418068466
 30
0.0
 11
88.2131865376081
 21
232.5000418068464
 31
0.0
  0
LINE
  5
53C
330
18
100
AcDbEntity
  8
1
  6
Continuous
100
AcDbLine
 10
89.04161653760809
 20
230.6000418068466
 30
0.0
 11
91.04161653760812
 21
232.5000418068464
 31
0.0
  0
LINE
  5
53D
330
18
100
AcDbEntity
  8
1
  6
Continuous
100
AcDbLine
 10
91.87004753760813
 20
230.6000418068466
 30
0.0
 11
93.87004753760813
 21
232.5000418068464
 31
0.0
  0
LINE
  5
53E
330
18
100
AcDbEntity
  8
1
  6
Continuous
100
AcDbLine
 10
91.62740153760813
 20
230.6000418068466
 30
0.0
 11
89.6274015376081
 21
232.5000418068464
 31
0.0
  0
LINE
  5
53F
330
18
100
AcDbEntity
  8
1
  6
Continuous
100
AcDbLine
 10
93.04161653760813
 20
230.6000418068466
 30
0.0
 11
91.04161653760812
 21
232.5000418068464
 31
0.0
  0
LINE
  5
540
330
18
100
AcDbEntity
  8
1
  6
Continuous
100
AcDbLine
 10
90.45583153760814
 20
230.6000418068466
 30
0.0
 11
92.45583153760813
 21
232.5000418068464
 31
0.0
  0
LINE
  5
541
330
18
100
AcDbEntity
  8
1
  6
Continuous
100
AcDbLine
 10
98.49999853760813
 20
230.6000418068466
 30
0.0
 11
98.49999853760813
 21
232.5000418068464
 31
0.0
  0
ARC
  5
542
330
18
100
AcDbEntity
  8
1
  6
Continuous
100
AcDbCircle
 10
94.03592553760812
 20
230.2325828068465
 30
0.0
 40
6.0
100
AcDbArc
 50
38.22647099999999
 51
51.65410999999998
  0
ARC
  5
543
330
18
100
AcDbEntity
  8
1
  6
Continuous
100
AcDbCircle
 10
96.19788953760815
 20
234.8007398068465
 30
0.0
 40
2.691070999999998
100
AcDbArc
 50
301.2471619999999
 51
341.463165
  0
ARC
  5
544
330
18
100
AcDbEntity
  8
1
  6
Continuous
100
AcDbCircle
 10
92.42661253760813
 20
233.2527638068466
 30
0.0
 40
4.180755999999997
100
AcDbArc
 50
23.775627
 51
39.28622999999999
  0
LINE
  5
545
330
18
100
AcDbEntity
  8
1
  6
Continuous
100
AcDbLine
 10
97.28426253760813
 20
230.6000418068466
 30
0.0
 11
95.28426253760812
 21
232.5000418068464
 31
0.0
  0
LINE
  5
546
330
18
100
AcDbEntity
  8
1
  6
Continuous
100
AcDbLine
 10
98.50013653760813
 20
230.7983878068466
 30
0.0
 11
96.69847753760812
 21
232.5000418068464
 31
0.0
  0
LINE
  5
547
330
18
100
AcDbEntity
  8
1
  6
Continuous
100
AcDbLine
 10
98.49999853760813
 20
232.1127358068465
 30
0.0
 11
98.11269253760812
 21
232.5000418068464
 31
0.0
  0
LINE
  5
548
330
18
100
AcDbEntity
  8
1
  6
Continuous
100
AcDbLine
 10
96.11269153760813
 20
230.6000418068466
 30
0.0
 11
98.11269253760812
 21
232.5000418068464
 31
0.0
  0
LINE
  5
549
330
18
100
AcDbEntity
  8
1
  6
Continuous
100
AcDbLine
 10
98.50005853760812
 20
231.5731928068466
 30
0.0
 11
97.52690753760813
 21
230.6000418068466
 31
0.0
  0
LINE
  5
54A
330
18
100
AcDbEntity
  8
1
  6
Continuous
100
AcDbLine
 10
94.69847753760813
 20
230.6000418068466
 30
0.0
 11
96.69847753760812
 21
232.5000418068464
 31
0.0
  0
LINE
  5
54B
330
18
100
AcDbEntity
  8
1
  6
Continuous
100
AcDbLine
 10
101.9294655376081
 20
238.2659988068466
 30
0.0
 11
103.4999775376081
 21
240.8000138068465
 31
0.0
  0
LINE
  5
54C
330
18
100
AcDbEntity
  8
1
  6
Continuous
100
AcDbLine
 10
108.999994537608
 20
244.0000138068465
 30
0.0
 11
108.999994537608
 21
240.8000138068465
 31
0.0
  0
LINE
  5
54D
330
18
100
AcDbEntity
  8
4
  6
CENTER
100
AcDbLine
 10
200.000031537608
 20
286.0995538068465
 30
0.0
 11
200.000031537608
 21
364.1998078068465
 31
0.0
  0
ARC
  5
54E
330
18
100
AcDbEntity
  8
1
  6
Continuous
100
AcDbCircle
 10
-674.0374124623919
 20
326.0000368068466
 30
0.0
 40
843.637451
100
AcDbArc
 50
357.851667
 51
2.148327999999998
  0
ARC
  5
54F
330
18
100
AcDbEntity
  8
1
  6
Continuous
100
AcDbCircle
 10
1096.036501537608
 20
326.0000218068465
 30
0.0
 40
843.6365359999998
100
AcDbArc
 50
177.8516679999999
 51
182.148334
  0
CIRCLE
  5
550
330
18
100
AcDbEntity
  8
1
  6
Continuous
100
AcDbCircle
 10
210.9999865376081
 20
326.0000018068465
 30
0.0
 40
16.0
  0
CIRCLE
  5
551
330
18
100
AcDbEntity
  8
1
  6
Continuous
100
AcDbCircle
 10
210.9999865376081
 20
326.0000018068465
 30
0.0
 40
29.575001
  0
CIRCLE
  5
552
330
18
100
AcDbEntity
  8
1
  6
Continuous
100
AcDbCircle
 10
210.9999865376081
 20
326.0000018068465
 30
0.0
 40
31.575001
  0
LINE
  5
553
330
18
100
AcDbEntity
  8
4
  6
CENTER
100
AcDbLine
 10
210.9999865376081
 20
372.4000918068464
 30
0.0
 11
210.9999865376081
 21
279.5999818068465
 31
0.0
  0
ARC
  5
554
330
18
100
AcDbEntity
  8
1
  6
Continuous
100
AcDbCircle
 10
210.9999865376081
 20
-559.0370421931534
 30
0.0
 40
843.637024
100
AcDbArc
 50
87.85167099999998
 51
92.14832699999998
  0
LINE
  5
555
330
18
100
AcDbEntity
  8
1
  6
Continuous
100
AcDbLine
 10
168.999994537608
 20
244.0000138068465
 30
0.0
 11
252.999994537608
 21
244.0000138068465
 31
0.0
  0
LINE
  5
556
330
18
100
AcDbEntity
  8
1
  6
Continuous
100
AcDbLine
 10
180.2416155376081
 20
234.9382608068465
 30
0.0
 11
241.7583575376081
 21
234.9382608068465
 31
0.0
  0
LINE
  5
557
330
18
100
AcDbEntity
  8
4
  6
CENTER
100
AcDbLine
 10
164.6000075376081
 20
326.0000018068465
 30
0.0
 11
257.399934537608
 21
326.0000018068465
 31
0.0
  0
LINE
  5
558
330
18
100
AcDbEntity
  8
1
  6
Continuous
100
AcDbLine
 10
180.3302865376081
 20
235.8999508068465
 30
0.0
 11
241.6794985376081
 21
235.8999508068465
 31
0.0
  0
LINE
  5
559
330
18
100
AcDbEntity
  8
1
  6
Continuous
100
AcDbLine
 10
205.929704537608
 20
230.6000418068466
 30
0.0
 11
203.929704537608
 21
232.5000418068464
 31
0.0
  0
LINE
  5
55A
330
18
100
AcDbEntity
  8
1
  6
Continuous
100
AcDbLine
 10
204.5154895376079
 20
230.6000418068466
 30
0.0
 11
202.5154895376079
 21
232.5000418068464
 31
0.0
  0
LINE
  5
55B
330
18
100
AcDbEntity
  8
1
  6
Continuous
100
AcDbLine
 10
203.3439195376081
 20
230.6000418068466
 30
0.0
 11
205.3439195376081
 21
232.5000418068464
 31
0.0
  0
LINE
  5
55C
330
18
100
AcDbEntity
  8
1
  6
Continuous
100
AcDbLine
 10
179.4998025376081
 20
230.6000418068466
 30
0.0
 11
242.5001705376081
 21
230.6000418068466
 31
0.0
  0
LINE
  5
55D
330
18
100
AcDbEntity
  8
1
  6
Continuous
100
AcDbLine
 10
242.4999865376081
 20
232.5000418068464
 30
0.0
 11
179.4999865376081
 21
232.5000418068464
 31
0.0
  0
LINE
  5
55E
330
18
100
AcDbEntity
  8
1
  6
Continuous
100
AcDbLine
 10
252.999994537608
 20
240.8000208068465
 30
0.0
 11
168.999994537608
 21
240.8000208068465
 31
0.0
  0
LINE
  5
55F
330
18
100
AcDbEntity
  8
4
  6
CENTER
100
AcDbLine
 10
178.9999865376081
 20
249.0000108068465
 30
0.0
 11
178.9999865376081
 21
236.0774518068466
 31
0.0
  0
ARC
  5
560
330
18
100
AcDbEntity
  8
1
  6
Continuous
100
AcDbCircle
 10
180.3204745376081
 20
240.8999508068466
 30
0.0
 40
5.0
100
AcDbArc
 50
211.789429
 51
270.0
  0
LINE
  5
561
330
18
100
AcDbEntity
  8
1
  6
Continuous
100
AcDbLine
 10
181.8880555376081
 20
230.6000418068466
 30
0.0
 11
179.8880555376081
 21
232.5000418068464
 31
0.0
  0
LINE
  5
562
330
18
100
AcDbEntity
  8
1
  6
Continuous
100
AcDbLine
 10
180.7164865376081
 20
230.6000418068466
 30
0.0
 11
182.7164865376081
 21
232.5000418068464
 31
0.0
  0
LINE
  5
563
330
18
100
AcDbEntity
  8
1
  6
Continuous
100
AcDbLine
 10
178.3992335376081
 20
217.8000428068465
 30
0.0
 11
181.3992335376081
 21
217.8000428068465
 31
0.0
  0
ARC
  5
564
330
18
100
AcDbEntity
  8
1
  6
Continuous
100
AcDbCircle
 10
181.8992335376081
 20
227.1000418068465
 30
0.0
 40
3.5
100
AcDbArc
 50
90.0
 51
180.0
  0
LINE
  5
565
330
18
100
AcDbEntity
  8
1
  6
Continuous
100
AcDbLine
 10
179.5009555376081
 20
230.7987248068466
 30
0.0
 11
181.302271537608
 21
232.5000418068464
 31
0.0
  0
LINE
  5
566
330
18
100
AcDbEntity
  8
1
  6
Continuous
100
AcDbLine
 10
178.3992335376081
 20
227.1000418068465
 30
0.0
 11
178.3992335376081
 21
217.8000428068465
 31
0.0
  0
LINE
  5
567
330
18
100
AcDbEntity
  8
1
  6
Continuous
100
AcDbLine
 10
179.4998025376081
 20
230.6000418068466
 30
0.0
 11
179.4999865376081
 21
232.5000418068464
 31
0.0
  0
ARC
  5
568
330
18
100
AcDbEntity
  8
1
  6
Continuous
100
AcDbCircle
 10
181.802095537608
 20
234.8007398068465
 30
0.0
 40
2.691070999999998
100
AcDbArc
 50
198.536835
 51
238.752838
  0
ARC
  5
569
330
18
100
AcDbEntity
  8
1
  6
Continuous
100
AcDbCircle
 10
183.9640595376081
 20
230.2325828068465
 30
0.0
 40
6.0
100
AcDbArc
 50
128.34589
 51
141.7735289999999
  0
LINE
  5
56A
330
18
100
AcDbEntity
  8
1
  6
Continuous
100
AcDbLine
 10
180.4738485376081
 20
230.6000418068466
 30
0.0
 11
179.5008795376081
 21
231.4730118068466
 31
0.0
  0
LINE
  5
56B
330
18
100
AcDbEntity
  8
1
  6
Continuous
100
AcDbLine
 10
179.500818537608
 20
232.1128008068465
 30
0.0
 11
179.8880555376081
 21
232.5000418068464
 31
0.0
  0
ARC
  5
56C
330
18
100
AcDbEntity
  8
1
  6
Continuous
100
AcDbCircle
 10
179.9011605376081
 20
210.9622338068465
 30
0.0
 40
6.999989999999997
100
AcDbArc
 50
10.78612
 51
77.64248000000003
  0
LINE
  5
56D
330
18
100
AcDbEntity
  8
1
  6
Continuous
100
AcDbLine
 10
192.030199537608
 20
230.6000418068466
 30
0.0
 11
194.030199537608
 21
232.5000418068464
 31
0.0
  0
LINE
  5
56E
330
18
100
AcDbEntity
  8
1
  6
Continuous
100
AcDbLine
 10
193.201769537608
 20
230.6000418068466
 30
0.0
 11
191.201769537608
 21
232.5000418068464
 31
0.0
  0
LINE
  5
56F
330
18
100
AcDbEntity
  8
1
  6
Continuous
100
AcDbLine
 10
190.6159845376079
 20
230.6000418068466
 30
0.0
 11
192.6159845376079
 21
232.5000418068464
 31
0.0
  0
LINE
  5
570
330
18
100
AcDbEntity
  8
1
  6
Continuous
100
AcDbLine
 10
187.5449165376081
 20
230.6000418068466
 30
0.0
 11
185.5449165376081
 21
232.5000418068464
 31
0.0
  0
LINE
  5
571
330
18
100
AcDbEntity
  8
1
  6
Continuous
100
AcDbLine
 10
184.9591235376081
 20
230.6000418068466
 30
0.0
 11
186.9591235376081
 21
232.5000418068464
 31
0.0
  0
LINE
  5
572
330
18
100
AcDbEntity
  8
1
  6
Continuous
100
AcDbLine
 10
186.3733385376081
 20
230.6000418068466
 30
0.0
 11
188.373338537608
 21
232.5000418068464
 31
0.0
  0
ARC
  5
573
330
18
100
AcDbEntity
  8
1
  6
Continuous
100
AcDbCircle
 10
185.5734625376081
 20
233.2527678068466
 30
0.0
 40
4.180738999999999
100
AcDbArc
 50
140.7144669999999
 51
156.2243229999999
  0
LINE
  5
574
330
18
100
AcDbEntity
  8
1
  6
Continuous
100
AcDbLine
 10
183.302271537608
 20
230.6000418068466
 30
0.0
 11
181.302271537608
 21
232.5000418068464
 31
0.0
  0
LINE
  5
575
330
18
100
AcDbEntity
  8
1
  6
Continuous
100
AcDbLine
 10
186.1307015376081
 20
230.6000418068466
 30
0.0
 11
184.1307015376081
 21
232.5000418068464
 31
0.0
  0
LINE
  5
576
330
18
100
AcDbEntity
  8
1
  6
Continuous
100
AcDbLine
 10
184.7164865376081
 20
230.6000418068466
 30
0.0
 11
182.7164865376081
 21
232.5000418068464
 31
0.0
  0
LINE
  5
577
330
18
100
AcDbEntity
  8
1
  6
Continuous
100
AcDbLine
 10
183.5449165376081
 20
230.6000418068466
 30
0.0
 11
185.5449165376081
 21
232.5000418068464
 31
0.0
  0
LINE
  5
578
330
18
100
AcDbEntity
  8
1
  6
Continuous
100
AcDbLine
 10
182.1307015376081
 20
230.6000418068466
 30
0.0
 11
184.1307015376081
 21
232.5000418068464
 31
0.0
  0
LINE
  5
579
330
18
100
AcDbEntity
  8
1
  6
Continuous
100
AcDbLine
 10
191.7875535376081
 20
230.6000418068466
 30
0.0
 11
189.7875535376081
 21
232.5000418068464
 31
0.0
  0
LINE
  5
57A
330
18
100
AcDbEntity
  8
1
  6
Continuous
100
AcDbLine
 10
190.373338537608
 20
230.6000418068466
 30
0.0
 11
188.373338537608
 21
232.5000418068464
 31
0.0
  0
LINE
  5
57B
330
18
100
AcDbEntity
  8
1
  6
Continuous
100
AcDbLine
 10
189.2017695376081
 20
230.6000418068466
 30
0.0
 11
191.201769537608
 21
232.5000418068464
 31
0.0
  0
LINE
  5
57C
330
18
100
AcDbEntity
  8
1
  6
Continuous
100
AcDbLine
 10
188.9591235376079
 20
230.6000418068466
 30
0.0
 11
186.9591235376081
 21
232.5000418068464
 31
0.0
  0
LINE
  5
57D
330
18
100
AcDbEntity
  8
1
  6
Continuous
100
AcDbLine
 10
187.7875535376081
 20
230.6000418068466
 30
0.0
 11
189.7875535376081
 21
232.5000418068464
 31
0.0
  0
LINE
  5
57E
330
18
100
AcDbEntity
  8
1
  6
Continuous
100
AcDbLine
 10
198.8586295376079
 20
230.6000418068466
 30
0.0
 11
196.8586295376081
 21
232.5000418068464
 31
0.0
  0
LINE
  5
57F
330
18
100
AcDbEntity
  8
1
  6
Continuous
100
AcDbLine
 10
197.6870595376081
 20
230.6000418068466
 30
0.0
 11
199.6870595376081
 21
232.5000418068464
 31
0.0
  0
LINE
  5
580
330
18
100
AcDbEntity
  8
1
  6
Continuous
100
AcDbLine
 10
200.272844537608
 20
230.6000418068466
 30
0.0
 11
198.2728445376081
 21
232.5000418068464
 31
0.0
  0
LINE
  5
581
330
18
100
AcDbEntity
  8
1
  6
Continuous
100
AcDbLine
 10
196.0301995376079
 20
230.6000418068466
 30
0.0
 11
194.030199537608
 21
232.5000418068464
 31
0.0
  0
LINE
  5
582
330
18
100
AcDbEntity
  8
1
  6
Continuous
100
AcDbLine
 10
194.6159845376081
 20
230.6000418068466
 30
0.0
 11
192.6159845376079
 21
232.5000418068464
 31
0.0
  0
LINE
  5
583
330
18
100
AcDbEntity
  8
1
  6
Continuous
100
AcDbLine
 10
193.444414537608
 20
230.6000418068466
 30
0.0
 11
195.444414537608
 21
232.5000418068464
 31
0.0
  0
LINE
  5
584
330
18
100
AcDbEntity
  8
1
  6
Continuous
100
AcDbLine
 10
196.2728445376081
 20
230.6000418068466
 30
0.0
 11
198.2728445376081
 21
232.5000418068464
 31
0.0
  0
LINE
  5
585
330
18
100
AcDbEntity
  8
1
  6
Continuous
100
AcDbLine
 10
197.4444145376081
 20
230.6000418068466
 30
0.0
 11
195.444414537608
 21
232.5000418068464
 31
0.0
  0
LINE
  5
586
330
18
100
AcDbEntity
  8
1
  6
Continuous
100
AcDbLine
 10
194.8586295376081
 20
230.6000418068466
 30
0.0
 11
196.8586295376081
 21
232.5000418068464
 31
0.0
  0
LINE
  5
587
330
18
100
AcDbEntity
  8
1
  6
Continuous
100
AcDbLine
 10
203.101274537608
 20
230.6000418068466
 30
0.0
 11
201.101274537608
 21
232.5000418068464
 31
0.0
  0
LINE
  5
588
330
18
100
AcDbEntity
  8
1
  6
Continuous
100
AcDbLine
 10
201.929704537608
 20
230.6000418068466
 30
0.0
 11
203.929704537608
 21
232.5000418068464
 31
0.0
  0
LINE
  5
589
330
18
100
AcDbEntity
  8
1
  6
Continuous
100
AcDbLine
 10
200.5154895376079
 20
230.6000418068466
 30
0.0
 11
202.5154895376079
 21
232.5000418068464
 31
0.0
  0
LINE
  5
58A
330
18
100
AcDbEntity
  8
1
  6
Continuous
100
AcDbLine
 10
201.687059537608
 20
230.6000418068466
 30
0.0
 11
199.6870595376081
 21
232.5000418068464
 31
0.0
  0
LINE
  5
58B
330
18
100
AcDbEntity
  8
1
  6
Continuous
100
AcDbLine
 10
199.101274537608
 20
230.6000418068466
 30
0.0
 11
201.101274537608
 21
232.5000418068464
 31
0.0
  0
LINE
  5
58C
330
18
100
AcDbEntity
  8
1
  6
Continuous
100
AcDbLine
 10
168.999994537608
 20
244.0000138068465
 30
0.0
 11
168.999994537608
 21
240.8000208068465
 31
0.0
  0
LINE
  5
58D
330
18
100
AcDbEntity
  8
1
  6
Continuous
100
AcDbLine
 10
176.070520537608
 20
238.2659518068466
 30
0.0
 11
174.499982537608
 21
240.8000208068465
 31
0.0
  0
LINE
  5
58E
330
18
100
AcDbEntity
  8
4
  6
CENTER
100
AcDbLine
 10
178.9999865376081
 20
284.7500018068465
 30
0.0
 11
178.9999865376081
 21
303.2500018068465
 31
0.0
  0
CIRCLE
  5
58F
330
18
100
AcDbEntity
  8
1
  6
Continuous
100
AcDbCircle
 10
178.9999865376081
 20
294.0000018068464
 30
0.0
 40
4.25
  0
LINE
  5
590
330
18
100
AcDbEntity
  8
4
  6
CENTER
100
AcDbLine
 10
188.2499865376081
 20
294.0000018068464
 30
0.0
 11
169.7499865376079
 21
294.0000018068464
 31
0.0
  0
ARC
  5
591
330
18
100
AcDbEntity
  8
1
  6
Continuous
100
AcDbCircle
 10
179.000039537608
 20
293.9999868068464
 30
0.0
 40
10.0
100
AcDbArc
 50
177.851667
 51
272.1483269999998
  0
LINE
  5
592
330
18
100
AcDbEntity
  8
4
  6
CENTER
100
AcDbLine
 10
242.9999865376081
 20
249.0000108068465
 30
0.0
 11
242.9999865376081
 21
236.0774518068466
 31
0.0
  0
ARC
  5
593
330
18
100
AcDbEntity
  8
1
  6
Continuous
100
AcDbCircle
 10
241.6794985376081
 20
240.8999508068466
 30
0.0
 40
5.0
100
AcDbArc
 50
270.0
 51
328.2105869999998
  0
LINE
  5
594
330
18
100
AcDbEntity
  8
1
  6
Continuous
100
AcDbLine
 10
228.557153537608
 20
230.6000418068466
 30
0.0
 11
226.557153537608
 21
232.5000418068464
 31
0.0
  0
LINE
  5
595
330
18
100
AcDbEntity
  8
1
  6
Continuous
100
AcDbLine
 10
225.971368537608
 20
230.6000418068466
 30
0.0
 11
227.971368537608
 21
232.5000418068464
 31
0.0
  0
LINE
  5
596
330
18
100
AcDbEntity
  8
1
  6
Continuous
100
AcDbLine
 10
227.3855845376081
 20
230.6000418068466
 30
0.0
 11
229.3855845376081
 21
232.5000418068464
 31
0.0
  0
LINE
  5
597
330
18
100
AcDbEntity
  8
1
  6
Continuous
100
AcDbLine
 10
215.829210537608
 20
230.6000418068466
 30
0.0
 11
213.829210537608
 21
232.5000418068464
 31
0.0
  0
LINE
  5
598
330
18
100
AcDbEntity
  8
1
  6
Continuous
100
AcDbLine
 10
217.2434255376081
 20
230.6000418068466
 30
0.0
 11
215.2434255376081
 21
232.5000418068464
 31
0.0
  0
LINE
  5
599
330
18
100
AcDbEntity
  8
1
  6
Continuous
100
AcDbLine
 10
214.657640537608
 20
230.6000418068466
 30
0.0
 11
216.657640537608
 21
232.5000418068464
 31
0.0
  0
LINE
  5
59A
330
18
100
AcDbEntity
  8
1
  6
Continuous
100
AcDbLine
 10
211.586565537608
 20
230.6000418068466
 30
0.0
 11
209.586565537608
 21
232.5000418068464
 31
0.0
  0
LINE
  5
59B
330
18
100
AcDbEntity
  8
1
  6
Continuous
100
AcDbLine
 10
209.0007805376081
 20
230.6000418068466
 30
0.0
 11
211.000780537608
 21
232.5000418068464
 31
0.0
  0
LINE
  5
59C
330
18
100
AcDbEntity
  8
1
  6
Continuous
100
AcDbLine
 10
210.1723505376081
 20
230.6000418068466
 30
0.0
 11
208.172350537608
 21
232.5000418068464
 31
0.0
  0
LINE
  5
59D
330
18
100
AcDbEntity
  8
1
  6
Continuous
100
AcDbLine
 10
207.3439195376081
 20
230.6000418068466
 30
0.0
 11
205.3439195376081
 21
232.5000418068464
 31
0.0
  0
LINE
  5
59E
330
18
100
AcDbEntity
  8
1
  6
Continuous
100
AcDbLine
 10
206.1723505376078
 20
230.6000418068466
 30
0.0
 11
208.172350537608
 21
232.5000418068464
 31
0.0
  0
LINE
  5
59F
330
18
100
AcDbEntity
  8
1
  6
Continuous
100
AcDbLine
 10
204.7581355376081
 20
230.6000418068466
 30
0.0
 11
206.7581355376081
 21
232.5000418068464
 31
0.0
  0
LINE
  5
5A0
330
18
100
AcDbEntity
  8
1
  6
Continuous
100
AcDbLine
 10
208.7581355376081
 20
230.6000418068466
 30
0.0
 11
206.7581355376081
 21
232.5000418068464
 31
0.0
  0
LINE
  5
5A1
330
18
100
AcDbEntity
  8
1
  6
Continuous
100
AcDbLine
 10
207.586565537608
 20
230.6000418068466
 30
0.0
 11
209.586565537608
 21
232.5000418068464
 31
0.0
  0
LINE
  5
5A2
330
18
100
AcDbEntity
  8
1
  6
Continuous
100
AcDbLine
 10
210.4149955376081
 20
230.6000418068466
 30
0.0
 11
212.4149955376081
 21
232.5000418068464
 31
0.0
  0
LINE
  5
5A3
330
18
100
AcDbEntity
  8
1
  6
Continuous
100
AcDbLine
 10
213.2434255376081
 20
230.6000418068466
 30
0.0
 11
215.2434255376081
 21
232.5000418068464
 31
0.0
  0
LINE
  5
5A4
330
18
100
AcDbEntity
  8
1
  6
Continuous
100
AcDbLine
 10
213.000780537608
 20
230.6000418068466
 30
0.0
 11
211.000780537608
 21
232.5000418068464
 31
0.0
  0
LINE
  5
5A5
330
18
100
AcDbEntity
  8
1
  6
Continuous
100
AcDbLine
 10
214.4149955376081
 20
230.6000418068466
 30
0.0
 11
212.4149955376081
 21
232.5000418068464
 31
0.0
  0
LINE
  5
5A6
330
18
100
AcDbEntity
  8
1
  6
Continuous
100
AcDbLine
 10
211.829210537608
 20
230.6000418068466
 30
0.0
 11
213.829210537608
 21
232.5000418068464
 31
0.0
  0
LINE
  5
5A7
330
18
100
AcDbEntity
  8
1
  6
Continuous
100
AcDbLine
 10
222.9002935376079
 20
230.6000418068466
 30
0.0
 11
220.900293537608
 21
232.5000418068464
 31
0.0
  0
LINE
  5
5A8
330
18
100
AcDbEntity
  8
1
  6
Continuous
100
AcDbLine
 10
220.3145085376081
 20
230.6000418068466
 30
0.0
 11
222.3145085376081
 21
232.5000418068464
 31
0.0
  0
LINE
  5
5A9
330
18
100
AcDbEntity
  8
1
  6
Continuous
100
AcDbLine
 10
218.657640537608
 20
230.6000418068466
 30
0.0
 11
216.657640537608
 21
232.5000418068464
 31
0.0
  0
LINE
  5
5AA
330
18
100
AcDbEntity
  8
1
  6
Continuous
100
AcDbLine
 10
220.071863537608
 20
230.6000418068466
 30
0.0
 11
218.071855537608
 21
232.5000418068464
 31
0.0
  0
LINE
  5
5AB
330
18
100
AcDbEntity
  8
1
  6
Continuous
100
AcDbLine
 10
217.486070537608
 20
230.6000418068466
 30
0.0
 11
219.4860785376081
 21
232.5000418068464
 31
0.0
  0
LINE
  5
5AC
330
18
100
AcDbEntity
  8
1
  6
Continuous
100
AcDbLine
 10
216.071855537608
 20
230.6000418068466
 30
0.0
 11
218.071855537608
 21
232.5000418068464
 31
0.0
  0
LINE
  5
5AD
330
18
100
AcDbEntity
  8
1
  6
Continuous
100
AcDbLine
 10
221.4860785376081
 20
230.6000418068466
 30
0.0
 11
219.4860785376081
 21
232.5000418068464
 31
0.0
  0
LINE
  5
5AE
330
18
100
AcDbEntity
  8
1
  6
Continuous
100
AcDbLine
 10
218.900285537608
 20
230.6000418068466
 30
0.0
 11
220.900293537608
 21
232.5000418068464
 31
0.0
  0
LINE
  5
5AF
330
18
100
AcDbEntity
  8
1
  6
Continuous
100
AcDbLine
 10
224.3145085376081
 20
230.6000418068466
 30
0.0
 11
222.3145085376081
 21
232.5000418068464
 31
0.0
  0
LINE
  5
5B0
330
18
100
AcDbEntity
  8
1
  6
Continuous
100
AcDbLine
 10
221.7287235376081
 20
230.6000418068466
 30
0.0
 11
223.7287235376081
 21
232.5000418068464
 31
0.0
  0
LINE
  5
5B1
330
18
100
AcDbEntity
  8
1
  6
Continuous
100
AcDbLine
 10
227.142938537608
 20
230.6000418068466
 30
0.0
 11
225.142938537608
 21
232.5000418068464
 31
0.0
  0
LINE
  5
5B2
330
18
100
AcDbEntity
  8
1
  6
Continuous
100
AcDbLine
 10
225.7287235376081
 20
230.6000418068466
 30
0.0
 11
223.7287235376081
 21
232.5000418068464
 31
0.0
  0
LINE
  5
5B3
330
18
100
AcDbEntity
  8
1
  6
Continuous
100
AcDbLine
 10
223.142938537608
 20
230.6000418068466
 30
0.0
 11
225.142938537608
 21
232.5000418068464
 31
0.0
  0
LINE
  5
5B4
330
18
100
AcDbEntity
  8
1
  6
Continuous
100
AcDbLine
 10
224.557153537608
 20
230.6000418068466
 30
0.0
 11
226.557153537608
 21
232.5000418068464
 31
0.0
  0
LINE
  5
5B5
330
18
100
AcDbEntity
  8
1
  6
Continuous
100
AcDbLine
 10
243.599237537608
 20
227.1000418068465
 30
0.0
 11
243.599237537608
 21
217.8000428068465
 31
0.0
  0
ARC
  5
5B6
330
18
100
AcDbEntity
  8
1
  6
Continuous
100
AcDbCircle
 10
253.374185537608
 20
207.7775588068464
 30
0.0
 40
14.0
100
AcDbArc
 50
134.283691
 51
176.4522399999999
  0
LINE
  5
5B7
330
18
100
AcDbEntity
  8
1
  6
Continuous
100
AcDbLine
 10
239.870874537608
 20
230.6000418068466
 30
0.0
 11
237.870874537608
 21
232.5000418068464
 31
0.0
  0
LINE
  5
5B8
330
18
100
AcDbEntity
  8
1
  6
Continuous
100
AcDbLine
 10
237.2850895376081
 20
230.6000418068466
 30
0.0
 11
239.2850895376081
 21
232.5000418068464
 31
0.0
  0
LINE
  5
5B9
330
18
100
AcDbEntity
  8
1
  6
Continuous
100
AcDbLine
 10
238.699304537608
 20
230.6000418068466
 30
0.0
 11
240.699304537608
 21
232.5000418068464
 31
0.0
  0
LINE
  5
5BA
330
18
100
AcDbEntity
  8
1
  6
Continuous
100
AcDbLine
 10
233.042444537608
 20
230.6000418068466
 30
0.0
 11
235.042444537608
 21
232.5000418068464
 31
0.0
  0
LINE
  5
5BB
330
18
100
AcDbEntity
  8
1
  6
Continuous
100
AcDbLine
 10
234.2140145376081
 20
230.6000418068466
 30
0.0
 11
232.2140145376081
 21
232.5000418068464
 31
0.0
  0
LINE
  5
5BC
330
18
100
AcDbEntity
  8
1
  6
Continuous
100
AcDbLine
 10
231.6282295376079
 20
230.6000418068466
 30
0.0
 11
233.6282295376079
 21
232.5000418068464
 31
0.0
  0
LINE
  5
5BD
330
18
100
AcDbEntity
  8
1
  6
Continuous
100
AcDbLine
 10
231.3855845376081
 20
230.6000418068466
 30
0.0
 11
229.3855845376081
 21
232.5000418068464
 31
0.0
  0
LINE
  5
5BE
330
18
100
AcDbEntity
  8
1
  6
Continuous
100
AcDbLine
 10
232.7997995376081
 20
230.6000418068466
 30
0.0
 11
230.7997995376081
 21
232.5000418068464
 31
0.0
  0
LINE
  5
5BF
330
18
100
AcDbEntity
  8
1
  6
Continuous
100
AcDbLine
 10
230.2140145376081
 20
230.6000418068466
 30
0.0
 11
232.2140145376081
 21
232.5000418068464
 31
0.0
  0
LINE
  5
5C0
330
18
100
AcDbEntity
  8
1
  6
Continuous
100
AcDbLine
 10
229.971368537608
 20
230.6000418068466
 30
0.0
 11
227.971368537608
 21
232.5000418068464
 31
0.0
  0
LINE
  5
5C1
330
18
100
AcDbEntity
  8
1
  6
Continuous
100
AcDbLine
 10
228.7997995376081
 20
230.6000418068466
 30
0.0
 11
230.7997995376081
 21
232.5000418068464
 31
0.0
  0
LINE
  5
5C2
330
18
100
AcDbEntity
  8
1
  6
Continuous
100
AcDbLine
 10
235.6282295376079
 20
230.6000418068466
 30
0.0
 11
233.6282295376079
 21
232.5000418068464
 31
0.0
  0
LINE
  5
5C3
330
18
100
AcDbEntity
  8
1
  6
Continuous
100
AcDbLine
 10
237.042444537608
 20
230.6000418068466
 30
0.0
 11
235.042444537608
 21
232.5000418068464
 31
0.0
  0
LINE
  5
5C4
330
18
100
AcDbEntity
  8
1
  6
Continuous
100
AcDbLine
 10
234.456659537608
 20
230.6000418068466
 30
0.0
 11
236.456659537608
 21
232.5000418068464
 31
0.0
  0
LINE
  5
5C5
330
18
100
AcDbEntity
  8
1
  6
Continuous
100
AcDbLine
 10
238.456659537608
 20
230.6000418068466
 30
0.0
 11
236.456659537608
 21
232.5000418068464
 31
0.0
  0
LINE
  5
5C6
330
18
100
AcDbEntity
  8
1
  6
Continuous
100
AcDbLine
 10
235.870874537608
 20
230.6000418068466
 30
0.0
 11
237.870874537608
 21
232.5000418068464
 31
0.0
  0
ARC
  5
5C7
330
18
100
AcDbEntity
  8
1
  6
Continuous
100
AcDbCircle
 10
240.099237537608
 20
227.1000418068465
 30
0.0
 40
3.5
100
AcDbArc
 50
0.0
 51
90.0
  0
ARC
  5
5C8
330
18
100
AcDbEntity
  8
1
  6
Continuous
100
AcDbCircle
 10
238.0359135376081
 20
230.2325828068465
 30
0.0
 40
6.0
100
AcDbArc
 50
38.22647099999999
 51
51.65410999999998
  0
ARC
  5
5C9
330
18
100
AcDbEntity
  8
1
  6
Continuous
100
AcDbCircle
 10
240.197877537608
 20
234.8007398068465
 30
0.0
 40
2.691070999999998
100
AcDbArc
 50
301.2471619999999
 51
341.463165
  0
ARC
  5
5CA
330
18
100
AcDbEntity
  8
1
  6
Continuous
100
AcDbCircle
 10
236.4266175376081
 20
233.2527678068466
 30
0.0
 40
4.180738999999999
100
AcDbArc
 50
23.77567699999999
 51
39.285533
  0
LINE
  5
5CB
330
18
100
AcDbEntity
  8
1
  6
Continuous
100
AcDbLine
 10
242.5001705376081
 20
230.6000418068466
 30
0.0
 11
242.4999865376081
 21
232.5000418068464
 31
0.0
  0
LINE
  5
5CC
330
18
100
AcDbEntity
  8
1
  6
Continuous
100
AcDbLine
 10
242.500818537608
 20
232.1127358068465
 30
0.0
 11
242.1135195376081
 21
232.5000418068464
 31
0.0
  0
LINE
  5
5CD
330
18
100
AcDbEntity
  8
1
  6
Continuous
100
AcDbLine
 10
242.5008795376079
 20
231.4731928068466
 30
0.0
 11
241.5277345376081
 21
230.6000418068466
 31
0.0
  0
LINE
  5
5CE
330
18
100
AcDbEntity
  8
1
  6
Continuous
100
AcDbLine
 10
241.285089537608
 20
230.6000418068466
 30
0.0
 11
239.2850895376081
 21
232.5000418068464
 31
0.0
  0
LINE
  5
5CF
330
18
100
AcDbEntity
  8
1
  6
Continuous
100
AcDbLine
 10
242.5009555376081
 20
230.7983878068466
 30
0.0
 11
240.699304537608
 21
232.5000418068464
 31
0.0
  0
LINE
  5
5D0
330
18
100
AcDbEntity
  8
1
  6
Continuous
100
AcDbLine
 10
240.1135195376081
 20
230.6000418068466
 30
0.0
 11
242.1135195376081
 21
232.5000418068464
 31
0.0
  0
LINE
  5
5D1
330
18
100
AcDbEntity
  8
1
  6
Continuous
100
AcDbLine
 10
245.929453537608
 20
238.2659518068466
 30
0.0
 11
247.4999945376081
 21
240.8000138068465
 31
0.0
  0
LINE
  5
5D2
330
18
100
AcDbEntity
  8
1
  6
Continuous
100
AcDbLine
 10
252.999994537608
 20
244.0000138068465
 30
0.0
 11
252.999994537608
 21
240.8000208068465
 31
0.0
  0
ARC
  5
5D3
330
18
100
AcDbEntity
  8
1
  6
Continuous
100
AcDbCircle
 10
242.9999645376079
 20
293.9999848068464
 30
0.0
 40
10.0
100
AcDbArc
 50
267.851671
 51
2.148334
  0
LINE
  5
5D4
330
18
100
AcDbEntity
  8
4
  6
CENTER
100
AcDbLine
 10
252.249986537608
 20
294.0000018068464
 30
0.0
 11
233.749986537608
 21
294.0000018068464
 31
0.0
  0
LINE
  5
5D5
330
18
100
AcDbEntity
  8
4
  6
CENTER
100
AcDbLine
 10
242.9999865376081
 20
284.7500018068465
 30
0.0
 11
242.9999865376081
 21
303.2500018068465
 31
0.0
  0
CIRCLE
  5
5D6
330
18
100
AcDbEntity
  8
1
  6
Continuous
100
AcDbCircle
 10
242.9999865376081
 20
294.0000018068464
 30
0.0
 40
4.25
  0
ARC
  5
5D7
330
18
100
AcDbEntity
  8
1
  6
Continuous
100
AcDbCircle
 10
210.9999865376081
 20
1211.037045806845
 30
0.0
 40
843.637024
100
AcDbArc
 50
267.851673
 51
272.148329
  0
ARC
  5
5D8
330
18
100
AcDbEntity
  8
1
  6
Continuous
100
AcDbCircle
 10
179.000042537608
 20
358.0000168068465
 30
0.0
 40
10.0
100
AcDbArc
 50
87.85167300000003
 51
182.1483279999999
  0
LINE
  5
5D9
330
18
100
AcDbEntity
  8
4
  6
CENTER
100
AcDbLine
 10
178.9999865376081
 20
348.7500058068464
 30
0.0
 11
178.9999865376081
 21
367.2500058068464
 31
0.0
  0
CIRCLE
  5
5DA
330
18
100
AcDbEntity
  8
1
  6
Continuous
100
AcDbCircle
 10
178.9999865376081
 20
358.0000058068464
 30
0.0
 40
4.25
  0
LINE
  5
5DB
330
18
100
AcDbEntity
  8
4
  6
CENTER
100
AcDbLine
 10
188.2499865376081
 20
358.0000058068464
 30
0.0
 11
169.7499865376079
 21
358.0000058068464
 31
0.0
  0
ARC
  5
5DC
330
18
100
AcDbEntity
  8
1
  6
Continuous
100
AcDbCircle
 10
242.9999635376081
 20
358.0000188068465
 30
0.0
 40
10.0
100
AcDbArc
 50
357.851668
 51
92.14832900000001
  0
LINE
  5
5DD
330
18
100
AcDbEntity
  8
4
  6
CENTER
100
AcDbLine
 10
252.249986537608
 20
358.0000058068464
 30
0.0
 11
233.749986537608
 21
358.0000058068464
 31
0.0
  0
LINE
  5
5DE
330
18
100
AcDbEntity
  8
4
  6
CENTER
100
AcDbLine
 10
242.9999865376081
 20
348.7500058068464
 30
0.0
 11
242.9999865376081
 21
367.2500058068464
 31
0.0
  0
CIRCLE
  5
5DF
330
18
100
AcDbEntity
  8
1
  6
Continuous
100
AcDbCircle
 10
242.9999865376081
 20
358.0000058068464
 30
0.0
 40
4.25
  0
ARC
  5
5E0
330
18
100
AcDbEntity
  8
1
  6
Continuous
100
AcDbCircle
 10
505.5318865376078
 20
210.8097058068465
 30
0.0
 40
35.0
100
AcDbArc
 50
183.5477599999999
 51
220.838409
  0
ARC
  5
5E1
330
18
100
AcDbEntity
  8
1
  6
Continuous
100
AcDbCircle
 10
511.5007505376079
 20
190.6000498068466
 30
0.0
 40
12.5
100
AcDbArc
 50
90.0
 51
180.0
  0
ARC
  5
5E2
330
18
100
AcDbEntity
  8
1
  6
Continuous
100
AcDbCircle
 10
577.2507505376081
 20
201.9791088068465
 30
0.0
 40
55.0
100
AcDbArc
 50
169.2136229999999
 51
191.1266479999999
  0
LINE
  5
5E3
330
18
100
AcDbEntity
  8
4
  6
CENTER
100
AcDbLine
 10
498.9999955376081
 20
249.0000818068466
 30
0.0
 11
498.9999955376081
 21
162.0897698068465
 31
0.0
  0
ARC
  5
5E4
330
18
100
AcDbEntity
  8
1
  6
Continuous
100
AcDbCircle
 10
509.9999505376081
 20
190.0000438068466
 30
0.0
 40
25.0
100
AcDbArc
 50
195.9477399999999
 51
58.532426
  0
LINE
  5
5E5
330
18
100
AcDbEntity
  8
4
  6
CENTER
100
AcDbLine
 10
509.9999505376081
 20
220.0000438068466
 30
0.0
 11
509.9999505376081
 21
160.0000438068466
 31
0.0
  0
ARC
  5
5E6
330
18
100
AcDbEntity
  8
1
  6
Continuous
100
AcDbCircle
 10
465.4764005376081
 20
253.3281348068466
 30
0.0
 40
102.8
100
AcDbArc
 50
202.083432
 51
216.977053
  0
ARC
  5
5E7
330
18
100
AcDbEntity
  8
1
  6
Continuous
100
AcDbCircle
 10
465.4764005376081
 20
253.3281348068466
 30
0.0
 40
100.0
100
AcDbArc
 50
203.7682289999999
 51
216.977053
  0
ARC
  5
5E8
330
18
100
AcDbEntity
  8
1
  6
Continuous
100
AcDbCircle
 10
244.523581537608
 20
253.3281348068466
 30
0.0
 40
102.8
100
AcDbArc
 50
323.0229469999998
 51
337.916568
  0
ARC
  5
5E9
330
18
100
AcDbEntity
  8
1
  6
Continuous
100
AcDbCircle
 10
244.523581537608
 20
253.3281348068466
 30
0.0
 40
100.0
100
AcDbArc
 50
323.0229469999998
 51
336.2317709999998
  0
LINE
  5
5EA
330
18
100
AcDbEntity
  8
1
  6
Continuous
100
AcDbLine
 10
387.599990537608
 20
227.1000418068465
 30
0.0
 11
387.599990537608
 21
187.1581938068465
 31
0.0
  0
LINE
  5
5EB
330
18
100
AcDbEntity
  8
4
  6
CENTER
100
AcDbLine
 10
354.9999915376079
 20
160.0000438068466
 30
0.0
 11
354.9999915376079
 21
249.0000818068466
 31
0.0
  0
LINE
  5
5EC
330
18
100
AcDbEntity
  8
1
  6
Continuous
100
AcDbLine
 10
373.9999915376079
 20
170.5032558068466
 30
0.0
 11
373.9999915376079
 21
206.4396688068465
 31
0.0
  0
LINE
  5
5ED
330
18
100
AcDbEntity
  8
1
  6
Continuous
100
AcDbLine
 10
322.3999935376081
 20
227.1000418068465
 30
0.0
 11
322.3999935376081
 21
187.1613558068466
 31
0.0
  0
LINE
  5
5EE
330
18
100
AcDbEntity
  8
1
  6
Continuous
100
AcDbLine
 10
335.999991537608
 20
170.5032558068466
 30
0.0
 11
335.999991537608
 21
206.4396688068465
 31
0.0
  0
ARC
  5
5EF
330
18
100
AcDbEntity
  8
1
  6
Continuous
100
AcDbCircle
 10
490.400744537608
 20
197.7311458068465
 30
0.0
 40
15.0
100
AcDbArc
 50
220.8384249999999
 51
240.659424
  0
LINE
  5
5F0
330
18
100
AcDbEntity
  8
4
  6
CENTER
100
AcDbLine
 10
540.0007505376081
 20
190.0000438068466
 30
0.0
 11
480.0007505376078
 21
190.0000438068466
 31
0.0
  0
ARC
  5
5F1
330
18
100
AcDbEntity
  8
1
  6
Continuous
100
AcDbCircle
 10
510.0007505376082
 20
232.6000458068465
 30
0.0
 40
55.0
100
AcDbArc
 50
240.659424
 51
272.6352229999998
  0
LINE
  5
5F2
330
18
100
AcDbEntity
  8
4
  6
CENTER
100
AcDbLine
 10
317.3999935376079
 20
190.0000438068466
 30
0.0
 11
392.5999905376079
 21
190.0000438068466
 31
0.0
  0
ARC
  5
5F3
330
18
100
AcDbEntity
  8
1
  6
Continuous
100
AcDbCircle
 10
354.9999915376079
 20
365.0000438068464
 30
0.0
 40
200.0
100
AcDbArc
 50
265.882904
 51
274.117096
  0
ARC
  5
5F4
330
18
100
AcDbEntity
  8
1
  6
Continuous
100
AcDbCircle
 10
340.9999915376078
 20
170.5032558068466
 30
0.0
 40
5.0
100
AcDbArc
 50
180.0
 51
265.882904
  0
ARC
  5
5F5
330
18
100
AcDbEntity
  8
1
  6
Continuous
100
AcDbCircle
 10
332.3999935376079
 20
187.1636708068465
 30
0.0
 40
7.2
100
AcDbArc
 50
143.022947
 51
180.0
  0
ARC
  5
5F6
330
18
100
AcDbEntity
  8
1
  6
Continuous
100
AcDbCircle
 10
332.3999935376079
 20
187.1636708068465
 30
0.0
 40
10.0
100
AcDbArc
 50
143.022947
 51
180.0
  0
LINE
  5
5F7
330
18
100
AcDbEntity
  8
1
  6
Continuous
100
AcDbLine
 10
334.9499925376081
 20
204.5000478068466
 30
0.0
 11
334.9499925376081
 21
175.5000438068466
 31
0.0
  0
LINE
  5
5F8
330
18
100
AcDbEntity
  8
1
  6
Continuous
100
AcDbLine
 10
334.6499935376079
 20
177.0000438068465
 30
0.0
 11
334.6499935376079
 21
203.0000438068466
 31
0.0
  0
LINE
  5
5F9
330
18
100
AcDbEntity
  8
1
  6
Continuous
100
AcDbLine
 10
333.9999915376079
 20
202.7241708068465
 30
0.0
 11
333.9999915376079
 21
177.6000418068466
 31
0.0
  0
ARC
  5
5FA
330
18
100
AcDbEntity
  8
1
  6
Continuous
100
AcDbCircle
 10
329.999991537608
 20
178.8134288068466
 30
0.0
 40
4.0
100
AcDbArc
 50
0.0
 51
66.048163
  0
LINE
  5
5FB
330
18
100
AcDbEntity
  8
1
  6
Continuous
100
AcDbLine
 10
331.1999885376081
 20
177.6000418068466
 30
0.0
 11
333.9999915376079
 21
177.6000418068466
 31
0.0
  0
ARC
  5
5FC
330
18
100
AcDbEntity
  8
1
  6
Continuous
100
AcDbCircle
 10
350.7855825376079
 20
225.6044448068466
 30
0.0
 40
50.0
100
AcDbArc
 50
238.68924
 51
244.776949
  0
ARC
  5
5FD
330
18
100
AcDbEntity
  8
1
  6
Continuous
100
AcDbCircle
 10
328.1999885376081
 20
177.6576938068465
 30
0.0
 40
3.0
100
AcDbArc
 50
0.0
 51
64.776949
  0
LINE
  5
5FE
330
18
100
AcDbEntity
  8
1
  6
Continuous
100
AcDbLine
 10
331.1999885376081
 20
177.6576938068465
 30
0.0
 11
331.1999885376081
 21
177.6000418068466
 31
0.0
  0
ARC
  5
5FF
330
18
100
AcDbEntity
  8
1
  6
Continuous
100
AcDbCircle
 10
327.3999925376081
 20
187.1581938068465
 30
0.0
 40
2.2
100
AcDbArc
 50
179.963763
 51
238.7132509999999
  0
ARC
  5
600
330
18
100
AcDbEntity
  8
1
  6
Continuous
100
AcDbCircle
 10
327.3999925376081
 20
187.1581938068465
 30
0.0
 40
5.0
100
AcDbArc
 50
179.963763
 51
238.7132509999999
  0
ARC
  5
601
330
18
100
AcDbEntity
  8
1
  6
Continuous
100
AcDbCircle
 10
350.7855825376079
 20
225.6044448068466
 30
0.0
 40
47.2
100
AcDbArc
 50
238.68924
 51
246.048163
  0
LINE
  5
602
330
18
100
AcDbEntity
  8
1
  6
Continuous
100
AcDbLine
 10
334.9499925376081
 20
177.0000438068465
 30
0.0
 11
334.6499935376079
 21
177.0000438068465
 31
0.0
  0
LINE
  5
603
330
18
100
AcDbEntity
  8
1
  6
Continuous
100
AcDbLine
 10
335.999991537608
 20
174.5000438068466
 30
0.0
 11
335.9499925376081
 21
174.5000438068466
 31
0.0
  0
ARC
  5
604
330
18
100
AcDbEntity
  8
1
  6
Continuous
100
AcDbCircle
 10
335.9499925376081
 20
175.5000438068466
 30
0.0
 40
1.0
100
AcDbArc
 50
180.0
 51
270.0
  0
LINE
  5
605
330
18
100
AcDbEntity
  8
1
  6
Continuous
100
AcDbLine
 10
333.9999915376079
 20
183.2500438068466
 30
0.0
 11
334.6499935376079
 21
183.2500438068466
 31
0.0
  0
LINE
  5
606
330
18
100
AcDbEntity
  8
1
  6
Continuous
100
AcDbLine
 10
333.9999915376079
 20
196.7500438068466
 30
0.0
 11
334.6499935376079
 21
196.7500438068466
 31
0.0
  0
LINE
  5
607
330
18
100
AcDbEntity
  8
1
  6
Continuous
100
AcDbLine
 10
334.9499925376081
 20
203.0000438068466
 30
0.0
 11
334.6499935376079
 21
203.0000438068466
 31
0.0
  0
ARC
  5
608
330
18
100
AcDbEntity
  8
1
  6
Continuous
100
AcDbCircle
 10
368.9999915376079
 20
170.5032558068466
 30
0.0
 40
5.0
100
AcDbArc
 50
274.117096
 51
0.0
  0
ARC
  5
609
330
18
100
AcDbEntity
  8
1
  6
Continuous
100
AcDbCircle
 10
377.5999895376081
 20
187.1636708068465
 30
0.0
 40
7.2
100
AcDbArc
 50
0.0
 51
36.95662
  0
ARC
  5
60A
330
18
100
AcDbEntity
  8
1
  6
Continuous
100
AcDbCircle
 10
377.5999895376081
 20
187.1636708068465
 30
0.0
 40
10.0
100
AcDbArc
 50
0.0
 51
36.95662
  0
LINE
  5
60B
330
18
100
AcDbEntity
  8
1
  6
Continuous
100
AcDbLine
 10
375.9999915376079
 20
202.7241708068465
 30
0.0
 11
375.9999915376079
 21
177.6000498068466
 31
0.0
  0
LINE
  5
60C
330
18
100
AcDbEntity
  8
1
  6
Continuous
100
AcDbLine
 10
375.3499905376081
 20
175.5000438068466
 30
0.0
 11
375.3499905376081
 21
203.8921628068465
 31
0.0
  0
ARC
  5
60D
330
18
100
AcDbEntity
  8
1
  6
Continuous
100
AcDbCircle
 10
379.9999915376079
 20
178.8134288068466
 30
0.0
 40
4.0
100
AcDbArc
 50
113.951837
 51
180.0
  0
LINE
  5
60E
330
18
100
AcDbEntity
  8
1
  6
Continuous
100
AcDbLine
 10
375.9999915376079
 20
177.6000498068466
 30
0.0
 11
378.7999945376079
 21
177.6000498068466
 31
0.0
  0
LINE
  5
60F
330
18
100
AcDbEntity
  8
1
  6
Continuous
100
AcDbLine
 10
374.3499905376079
 20
174.5000438068466
 30
0.0
 11
373.9999915376079
 21
174.5000438068466
 31
0.0
  0
ARC
  5
610
330
18
100
AcDbEntity
  8
1
  6
Continuous
100
AcDbCircle
 10
374.3499905376079
 20
175.5000438068466
 30
0.0
 40
1.0
100
AcDbArc
 50
270.0
 51
0.0
  0
LINE
  5
611
330
18
100
AcDbEntity
  8
1
  6
Continuous
100
AcDbLine
 10
375.9999915376079
 20
183.2500438068466
 30
0.0
 11
375.3499905376081
 21
183.2500438068466
 31
0.0
  0
ARC
  5
612
330
18
100
AcDbEntity
  8
1
  6
Continuous
100
AcDbCircle
 10
359.2143925376078
 20
225.6044368068466
 30
0.0
 40
50.0
100
AcDbArc
 50
295.2177279999999
 51
301.30311
  0
ARC
  5
613
330
18
100
AcDbEntity
  8
1
  6
Continuous
100
AcDbCircle
 10
381.799994537608
 20
177.6576938068465
 30
0.0
 40
3.0
100
AcDbArc
 50
115.223051
 51
180.0
  0
LINE
  5
614
330
18
100
AcDbEntity
  8
1
  6
Continuous
100
AcDbLine
 10
378.7999945376079
 20
177.6576938068465
 30
0.0
 11
378.7999945376079
 21
177.6000498068466
 31
0.0
  0
ARC
  5
615
330
18
100
AcDbEntity
  8
1
  6
Continuous
100
AcDbCircle
 10
382.5999905376079
 20
187.1581938068465
 30
0.0
 40
2.2
100
AcDbArc
 50
301.286749
 51
0.036237
  0
ARC
  5
616
330
18
100
AcDbEntity
  8
1
  6
Continuous
100
AcDbCircle
 10
359.2144005376081
 20
225.6044448068466
 30
0.0
 40
47.2
100
AcDbArc
 50
293.951837
 51
301.31076
  0
ARC
  5
617
330
18
100
AcDbEntity
  8
1
  6
Continuous
100
AcDbCircle
 10
382.5999905376079
 20
187.1581938068465
 30
0.0
 40
5.0
100
AcDbArc
 50
301.310791
 51
0.036237
  0
LINE
  5
618
330
18
100
AcDbEntity
  8
1
  6
Continuous
100
AcDbLine
 10
375.9999915376079
 20
196.7500438068466
 30
0.0
 11
375.3499905376081
 21
196.7500438068466
 31
0.0
  0
ARC
  5
619
330
18
100
AcDbEntity
  8
1
  6
Continuous
100
AcDbCircle
 10
509.9999505376081
 20
190.0000438068466
 30
0.0
 40
15.5
100
AcDbArc
 50
227.264488
 51
37.418112
  0
LINE
  5
61A
330
18
100
AcDbEntity
  8
1
  6
Continuous
100
AcDbLine
 10
502.9999505376081
 20
185.9585928068466
 30
0.0
 11
509.9999505376081
 21
181.9171428068465
 31
0.0
  0
CIRCLE
  5
61B
330
18
100
AcDbEntity
  8
1
  6
Continuous
100
AcDbCircle
 10
509.9999505376081
 20
190.0000438068466
 30
0.0
 40
7.000002
  0
LINE
  5
61D
330
18
100
AcDbEntity
  8
1
  6
Continuous
100
AcDbLine
 10
509.9999505376081
 20
198.0829528068466
 30
0.0
 11
502.9999505376081
 21
194.0415018068465
 31
0.0
  0
LINE
  5
61E
330
18
100
AcDbEntity
  8
1
  6
Continuous
100
AcDbLine
 10
502.9999505376081
 20
194.0415018068465
 30
0.0
 11
502.9999505376081
 21
185.9585928068466
 31
0.0
  0
LINE
  5
61F
330
18
100
AcDbEntity
  8
1
  6
Continuous
100
AcDbLine
 10
499.0007505376079
 20
178.7112708068465
 30
0.0
 11
499.0007505376079
 21
190.6000498068466
 31
0.0
  0
LINE
  5
620
330
18
100
AcDbEntity
  8
1
  6
Continuous
100
AcDbLine
 10
516.9999505376081
 20
185.9586008068465
 30
0.0
 11
516.9999505376081
 21
194.0415018068465
 31
0.0
  0
ARC
  5
624
330
18
100
AcDbEntity
  8
1
  6
Continuous
100
AcDbCircle
 10
512.0007505376081
 20
189.1460478068466
 30
0.0
 40
11.5
100
AcDbArc
 50
272.6352229999998
 51
11.12664799999999
  0
LINE
  5
625
330
18
100
AcDbEntity
  8
1
  6
Continuous
100
AcDbLine
 10
509.9999505376081
 20
181.9171428068465
 30
0.0
 11
516.9999505376081
 21
185.9586008068465
 31
0.0
  0
LINE
  5
626
330
18
100
AcDbEntity
  8
1
  6
Continuous
100
AcDbLine
 10
522.2621715376078
 20
203.1000458068465
 30
0.0
 11
511.5007505376079
 21
203.1000458068465
 31
0.0
  0
LINE
  5
627
330
18
100
AcDbEntity
  8
1
  6
Continuous
100
AcDbLine
 10
516.9999505376081
 20
194.0415018068465
 30
0.0
 11
509.9999505376081
 21
198.0829528068466
 31
0.0
  0
LINE
  5
629
330
18
100
AcDbEntity
  8
1
  6
Continuous
100
AcDbLine
 10
484.0286135376081
 20
230.6000418068466
 30
0.0
 11
482.0286135376081
 21
232.5000418068464
 31
0.0
  0
LINE
  5
62A
330
18
100
AcDbEntity
  8
1
  6
Continuous
100
AcDbLine
 10
481.4428285376078
 20
230.6000418068466
 30
0.0
 11
483.442828537608
 21
232.5000418068464
 31
0.0
  0
LINE
  5
62B
330
18
100
AcDbEntity
  8
1
  6
Continuous
100
AcDbLine
 10
456.9999875376081
 20
240.8000208068465
 30
0.0
 11
540.9999875376081
 21
240.8000208068465
 31
0.0
  0
LINE
  5
62C
330
18
100
AcDbEntity
  8
1
  6
Continuous
100
AcDbLine
 10
467.4999955376081
 20
232.5000418068464
 30
0.0
 11
530.4999955376081
 21
232.5000418068464
 31
0.0
  0
LINE
  5
62D
330
18
100
AcDbEntity
  8
1
  6
Continuous
100
AcDbLine
 10
530.5001795376081
 20
230.6000418068466
 30
0.0
 11
467.4998115376078
 21
230.6000418068466
 31
0.0
  0
LINE
  5
62E
330
18
100
AcDbEntity
  8
1
  6
Continuous
100
AcDbLine
 10
529.6696955376082
 20
235.8999508068465
 30
0.0
 11
468.3204835376081
 21
235.8999508068465
 31
0.0
  0
LINE
  5
62F
330
18
100
AcDbEntity
  8
1
  6
Continuous
100
AcDbLine
 10
529.7583665376079
 20
234.9382608068465
 30
0.0
 11
468.2416245376082
 21
234.9382608068465
 31
0.0
  0
LINE
  5
630
330
18
100
AcDbEntity
  8
1
  6
Continuous
100
AcDbLine
 10
540.9999875376081
 20
244.0000138068465
 30
0.0
 11
456.9999875376081
 21
244.0000138068465
 31
0.0
  0
ARC
  5
631
330
18
100
AcDbEntity
  8
1
  6
Continuous
100
AcDbCircle
 10
385.6795035376081
 20
240.8999978068466
 30
0.0
 40
5.0
100
AcDbArc
 50
270.0
 51
328.2105869999998
  0
LINE
  5
632
330
18
100
AcDbEntity
  8
1
  6
Continuous
100
AcDbLine
 10
396.9999875376079
 20
240.8000138068465
 30
0.0
 11
312.9999945376081
 21
240.8000138068465
 31
0.0
  0
LINE
  5
633
330
18
100
AcDbEntity
  8
1
  6
Continuous
100
AcDbLine
 10
312.9999945376081
 20
244.0000138068465
 30
0.0
 11
396.9999875376079
 21
244.0000138068465
 31
0.0
  0
ARC
  5
634
330
18
100
AcDbEntity
  8
1
  6
Continuous
100
AcDbCircle
 10
344.4150915376079
 20
212.8000428068465
 30
0.0
 40
5.0
100
AcDbArc
 50
90.0
 51
157.9165679999999
  0
LINE
  5
635
330
18
100
AcDbEntity
  8
1
  6
Continuous
100
AcDbLine
 10
341.6862325376081
 20
230.6000418068466
 30
0.0
 11
343.6862325376081
 21
232.5000418068464
 31
0.0
  0
LINE
  5
636
330
18
100
AcDbEntity
  8
1
  6
Continuous
100
AcDbLine
 10
343.1004485376079
 20
230.6000418068466
 30
0.0
 11
345.1004485376079
 21
232.5000418068464
 31
0.0
  0
LINE
  5
637
330
18
100
AcDbEntity
  8
1
  6
Continuous
100
AcDbLine
 10
344.2720175376081
 20
230.6000418068466
 30
0.0
 11
342.2720175376081
 21
232.5000418068464
 31
0.0
  0
LINE
  5
638
330
18
100
AcDbEntity
  8
1
  6
Continuous
100
AcDbLine
 10
324.2416195376081
 20
234.9382608068465
 30
0.0
 11
385.7583625376079
 21
234.9382608068465
 31
0.0
  0
LINE
  5
639
330
18
100
AcDbEntity
  8
1
  6
Continuous
100
AcDbLine
 10
324.3302915376079
 20
235.8999978068466
 30
0.0
 11
385.6795035376081
 21
235.8999978068466
 31
0.0
  0
LINE
  5
63A
330
18
100
AcDbEntity
  8
1
  6
Continuous
100
AcDbLine
 10
343.3633765376082
 20
217.8000428068465
 30
0.0
 11
366.6366055376079
 21
217.8000428068465
 31
0.0
  0
ARC
  5
63B
330
18
100
AcDbEntity
  8
1
  6
Continuous
100
AcDbCircle
 10
354.9999915376079
 20
15.0000438068466
 30
0.0
 40
200.0
100
AcDbArc
 50
85.882912
 51
94.11708799999997
  0
LINE
  5
63C
330
18
100
AcDbEntity
  8
1
  6
Continuous
100
AcDbLine
 10
323.499991537608
 20
230.6000418068466
 30
0.0
 11
386.4999915376079
 21
230.6000418068466
 31
0.0
  0
LINE
  5
63D
330
18
100
AcDbEntity
  8
1
  6
Continuous
100
AcDbLine
 10
386.4999915376079
 20
232.5000418068464
 30
0.0
 11
323.499991537608
 21
232.5000418068464
 31
0.0
  0
ARC
  5
63E
330
18
100
AcDbEntity
  8
1
  6
Continuous
100
AcDbCircle
 10
324.320479537608
 20
240.8999978068466
 30
0.0
 40
5.0
100
AcDbArc
 50
211.789429
 51
270.0
  0
LINE
  5
63F
330
18
100
AcDbEntity
  8
4
  6
CENTER
100
AcDbLine
 10
322.999991537608
 20
249.0001108068464
 30
0.0
 11
322.999991537608
 21
236.0775518068466
 31
0.0
  0
LINE
  5
640
330
18
100
AcDbEntity
  8
1
  6
Continuous
100
AcDbLine
 10
335.999991537608
 20
205.5000478068465
 30
0.0
 11
335.9499925376081
 21
205.5000478068465
 31
0.0
  0
ARC
  5
641
330
18
100
AcDbEntity
  8
1
  6
Continuous
100
AcDbCircle
 10
335.9499925376081
 20
204.5000478068466
 30
0.0
 40
1.0
100
AcDbArc
 50
90.0
 51
120.068869
  0
ARC
  5
642
330
18
100
AcDbEntity
  8
1
  6
Continuous
100
AcDbCircle
 10
343.3633765376082
 20
209.8000428068465
 30
0.0
 40
8.0
100
AcDbArc
 50
90.0
 51
156.231771
  0
ARC
  5
643
330
18
100
AcDbEntity
  8
1
  6
Continuous
100
AcDbCircle
 10
340.9999915376078
 20
209.4968318068465
 30
0.0
 40
5.0
100
AcDbArc
 50
94.11708799999997
 51
106.058551
  0
LINE
  5
644
330
18
100
AcDbEntity
  8
1
  6
Continuous
100
AcDbLine
 10
331.7867275376079
 20
230.6000418068466
 30
0.0
 11
333.7867275376079
 21
232.5000418068464
 31
0.0
  0
LINE
  5
645
330
18
100
AcDbEntity
  8
1
  6
Continuous
100
AcDbLine
 10
332.9582975376081
 20
230.6000418068466
 30
0.0
 11
330.9582975376081
 21
232.5000418068464
 31
0.0
  0
LINE
  5
646
330
18
100
AcDbEntity
  8
1
  6
Continuous
100
AcDbLine
 10
330.3725125376079
 20
230.6000418068466
 30
0.0
 11
332.3725125376079
 21
232.5000418068464
 31
0.0
  0
ARC
  5
647
330
18
100
AcDbEntity
  8
1
  6
Continuous
100
AcDbCircle
 10
325.8999935376079
 20
227.1000418068465
 30
0.0
 40
3.5
100
AcDbArc
 50
90.0
 51
180.0
  0
LINE
  5
648
330
18
100
AcDbEntity
  8
1
  6
Continuous
100
AcDbLine
 10
324.7156595376081
 20
230.6000418068466
 30
0.0
 11
326.7156595376081
 21
232.5000418068464
 31
0.0
  0
LINE
  5
649
330
18
100
AcDbEntity
  8
1
  6
Continuous
100
AcDbLine
 10
327.301444537608
 20
230.6000418068466
 30
0.0
 11
325.3014445376081
 21
232.5000418068464
 31
0.0
  0
ARC
  5
64A
330
18
100
AcDbEntity
  8
1
  6
Continuous
100
AcDbCircle
 10
329.5734835376078
 20
233.2527638068466
 30
0.0
 40
4.180755999999997
100
AcDbArc
 50
140.7137699999997
 51
156.2243729999999
  0
LINE
  5
64B
330
18
100
AcDbEntity
  8
1
  6
Continuous
100
AcDbLine
 10
325.8872375376079
 20
230.6000418068466
 30
0.0
 11
323.8872375376079
 21
232.5000418068464
 31
0.0
  0
LINE
  5
64C
330
18
100
AcDbEntity
  8
1
  6
Continuous
100
AcDbLine
 10
323.499991537608
 20
232.1128008068465
 30
0.0
 11
323.8872375376079
 21
232.5000418068464
 31
0.0
  0
LINE
  5
64D
330
18
100
AcDbEntity
  8
1
  6
Continuous
100
AcDbLine
 10
323.500129537608
 20
230.7987248068466
 30
0.0
 11
325.3014445376081
 21
232.5000418068464
 31
0.0
  0
LINE
  5
64E
330
18
100
AcDbEntity
  8
1
  6
Continuous
100
AcDbLine
 10
324.4730215376081
 20
230.6000418068466
 30
0.0
 11
323.5000525376079
 21
231.5730118068465
 31
0.0
  0
LINE
  5
64F
330
18
100
AcDbEntity
  8
1
  6
Continuous
100
AcDbLine
 10
323.499991537608
 20
230.6000418068466
 30
0.0
 11
323.499991537608
 21
232.5000418068464
 31
0.0
  0
ARC
  5
650
330
18
100
AcDbEntity
  8
1
  6
Continuous
100
AcDbCircle
 10
325.8021005376079
 20
234.8007398068465
 30
0.0
 40
2.691070999999998
100
AcDbArc
 50
198.536835
 51
238.752838
  0
ARC
  5
651
330
18
100
AcDbEntity
  8
1
  6
Continuous
100
AcDbCircle
 10
327.9640645376081
 20
230.2325828068465
 30
0.0
 40
6.0
100
AcDbArc
 50
128.34589
 51
141.7735289999999
  0
LINE
  5
652
330
18
100
AcDbEntity
  8
1
  6
Continuous
100
AcDbLine
 10
330.129874537608
 20
230.6000418068466
 30
0.0
 11
328.129874537608
 21
232.5000418068464
 31
0.0
  0
LINE
  5
653
330
18
100
AcDbEntity
  8
1
  6
Continuous
100
AcDbLine
 10
326.129874537608
 20
230.6000418068466
 30
0.0
 11
328.129874537608
 21
232.5000418068464
 31
0.0
  0
LINE
  5
654
330
18
100
AcDbEntity
  8
1
  6
Continuous
100
AcDbLine
 10
327.5440825376081
 20
230.6000418068466
 30
0.0
 11
329.5440825376081
 21
232.5000418068464
 31
0.0
  0
LINE
  5
655
330
18
100
AcDbEntity
  8
1
  6
Continuous
100
AcDbLine
 10
328.7156595376081
 20
230.6000418068466
 30
0.0
 11
326.7156595376081
 21
232.5000418068464
 31
0.0
  0
LINE
  5
656
330
18
100
AcDbEntity
  8
1
  6
Continuous
100
AcDbLine
 10
328.9582975376081
 20
230.6000418068466
 30
0.0
 11
330.9582975376081
 21
232.5000418068464
 31
0.0
  0
LINE
  5
657
330
18
100
AcDbEntity
  8
1
  6
Continuous
100
AcDbLine
 10
331.5440825376081
 20
230.6000418068466
 30
0.0
 11
329.5440825376081
 21
232.5000418068464
 31
0.0
  0
LINE
  5
658
330
18
100
AcDbEntity
  8
1
  6
Continuous
100
AcDbLine
 10
337.4435875376079
 20
230.6000418068466
 30
0.0
 11
339.4435875376079
 21
232.5000418068464
 31
0.0
  0
LINE
  5
659
330
18
100
AcDbEntity
  8
1
  6
Continuous
100
AcDbLine
 10
338.6151575376081
 20
230.6000418068466
 30
0.0
 11
336.6151575376081
 21
232.5000418068464
 31
0.0
  0
LINE
  5
65A
330
18
100
AcDbEntity
  8
1
  6
Continuous
100
AcDbLine
 10
336.029372537608
 20
230.6000418068466
 30
0.0
 11
338.029372537608
 21
232.5000418068464
 31
0.0
  0
LINE
  5
65B
330
18
100
AcDbEntity
  8
1
  6
Continuous
100
AcDbLine
 10
333.2009425376079
 20
230.6000418068466
 30
0.0
 11
335.2009425376079
 21
232.5000418068464
 31
0.0
  0
LINE
  5
65C
330
18
100
AcDbEntity
  8
1
  6
Continuous
100
AcDbLine
 10
335.7867275376079
 20
230.6000418068466
 30
0.0
 11
333.7867275376079
 21
232.5000418068464
 31
0.0
  0
LINE
  5
65D
330
18
100
AcDbEntity
  8
1
  6
Continuous
100
AcDbLine
 10
334.6151575376081
 20
230.6000418068466
 30
0.0
 11
336.6151575376081
 21
232.5000418068464
 31
0.0
  0
LINE
  5
65E
330
18
100
AcDbEntity
  8
1
  6
Continuous
100
AcDbLine
 10
337.2009425376079
 20
230.6000418068466
 30
0.0
 11
335.2009425376079
 21
232.5000418068464
 31
0.0
  0
LINE
  5
65F
330
18
100
AcDbEntity
  8
1
  6
Continuous
100
AcDbLine
 10
334.3725125376078
 20
230.6000418068466
 30
0.0
 11
332.3725125376079
 21
232.5000418068464
 31
0.0
  0
LINE
  5
660
330
18
100
AcDbEntity
  8
1
  6
Continuous
100
AcDbLine
 10
340.2720175376081
 20
230.6000418068466
 30
0.0
 11
342.2720175376081
 21
232.5000418068464
 31
0.0
  0
LINE
  5
661
330
18
100
AcDbEntity
  8
1
  6
Continuous
100
AcDbLine
 10
342.8578025376079
 20
230.6000418068466
 30
0.0
 11
340.8578025376079
 21
232.5000418068464
 31
0.0
  0
LINE
  5
662
330
18
100
AcDbEntity
  8
1
  6
Continuous
100
AcDbLine
 10
340.029372537608
 20
230.6000418068466
 30
0.0
 11
338.029372537608
 21
232.5000418068464
 31
0.0
  0
LINE
  5
663
330
18
100
AcDbEntity
  8
1
  6
Continuous
100
AcDbLine
 10
338.8578025376079
 20
230.6000418068466
 30
0.0
 11
340.8578025376079
 21
232.5000418068464
 31
0.0
  0
LINE
  5
664
330
18
100
AcDbEntity
  8
1
  6
Continuous
100
AcDbLine
 10
341.4435875376079
 20
230.6000418068466
 30
0.0
 11
339.4435875376079
 21
232.5000418068464
 31
0.0
  0
LINE
  5
665
330
18
100
AcDbEntity
  8
1
  6
Continuous
100
AcDbLine
 10
312.9999945376081
 20
244.0000138068465
 30
0.0
 11
312.9999945376081
 21
240.8000138068465
 31
0.0
  0
LINE
  5
666
330
18
100
AcDbEntity
  8
1
  6
Continuous
100
AcDbLine
 10
320.0705255376081
 20
238.2659988068466
 30
0.0
 11
318.5000195376081
 21
240.8000138068465
 31
0.0
  0
LINE
  5
667
330
18
100
AcDbEntity
  8
4
  6
CENTER
100
AcDbLine
 10
386.9999915376078
 20
249.0001108068464
 30
0.0
 11
386.9999915376078
 21
236.0775518068466
 31
0.0
  0
ARC
  5
668
330
18
100
AcDbEntity
  8
1
  6
Continuous
100
AcDbCircle
 10
365.5848905376079
 20
212.8000428068465
 30
0.0
 40
5.0
100
AcDbArc
 50
22.08343199999999
 51
90.0
  0
LINE
  5
669
330
18
100
AcDbEntity
  8
1
  6
Continuous
100
AcDbLine
 10
365.7278895376081
 20
230.6000418068466
 30
0.0
 11
367.7278895376081
 21
232.5000418068464
 31
0.0
  0
LINE
  5
66A
330
18
100
AcDbEntity
  8
1
  6
Continuous
100
AcDbLine
 10
368.3136745376081
 20
230.6000418068466
 30
0.0
 11
366.3136745376081
 21
232.5000418068464
 31
0.0
  0
LINE
  5
66B
330
18
100
AcDbEntity
  8
1
  6
Continuous
100
AcDbLine
 10
366.899459537608
 20
230.6000418068466
 30
0.0
 11
364.899459537608
 21
232.5000418068464
 31
0.0
  0
LINE
  5
66C
330
18
100
AcDbEntity
  8
1
  6
Continuous
100
AcDbLine
 10
354.4141685376081
 20
230.6000418068466
 30
0.0
 11
356.4141685376081
 21
232.5000418068464
 31
0.0
  0
LINE
  5
66D
330
18
100
AcDbEntity
  8
1
  6
Continuous
100
AcDbLine
 10
355.5857385376081
 20
230.6000418068466
 30
0.0
 11
353.5857385376079
 21
232.5000418068464
 31
0.0
  0
LINE
  5
66E
330
18
100
AcDbEntity
  8
1
  6
Continuous
100
AcDbLine
 10
356.9999535376081
 20
230.6000418068466
 30
0.0
 11
354.9999535376081
 21
232.5000418068464
 31
0.0
  0
LINE
  5
66F
330
18
100
AcDbEntity
  8
1
  6
Continuous
100
AcDbLine
 10
348.7573085376078
 20
230.6000418068466
 30
0.0
 11
350.7573085376078
 21
232.5000418068464
 31
0.0
  0
LINE
  5
670
330
18
100
AcDbEntity
  8
1
  6
Continuous
100
AcDbLine
 10
347.3430935376081
 20
230.6000418068466
 30
0.0
 11
349.3430935376081
 21
232.5000418068464
 31
0.0
  0
LINE
  5
671
330
18
100
AcDbEntity
  8
1
  6
Continuous
100
AcDbLine
 10
349.9288785376081
 20
230.6000418068466
 30
0.0
 11
347.928878537608
 21
232.5000418068464
 31
0.0
  0
LINE
  5
672
330
18
100
AcDbEntity
  8
1
  6
Continuous
100
AcDbLine
 10
344.514663537608
 20
230.6000418068466
 30
0.0
 11
346.514663537608
 21
232.5000418068464
 31
0.0
  0
LINE
  5
673
330
18
100
AcDbEntity
  8
1
  6
Continuous
100
AcDbLine
 10
345.6862325376081
 20
230.6000418068466
 30
0.0
 11
343.6862325376081
 21
232.5000418068464
 31
0.0
  0
LINE
  5
674
330
18
100
AcDbEntity
  8
1
  6
Continuous
100
AcDbLine
 10
345.9288785376081
 20
230.6000418068466
 30
0.0
 11
347.928878537608
 21
232.5000418068464
 31
0.0
  0
LINE
  5
675
330
18
100
AcDbEntity
  8
1
  6
Continuous
100
AcDbLine
 10
347.1004485376081
 20
230.6000418068466
 30
0.0
 11
345.1004485376079
 21
232.5000418068464
 31
0.0
  0
LINE
  5
676
330
18
100
AcDbEntity
  8
1
  6
Continuous
100
AcDbLine
 10
348.514663537608
 20
230.6000418068466
 30
0.0
 11
346.514663537608
 21
232.5000418068464
 31
0.0
  0
LINE
  5
677
330
18
100
AcDbEntity
  8
1
  6
Continuous
100
AcDbLine
 10
350.1715235376078
 20
230.6000418068466
 30
0.0
 11
352.1715235376079
 21
232.5000418068464
 31
0.0
  0
LINE
  5
678
330
18
100
AcDbEntity
  8
1
  6
Continuous
100
AcDbLine
 10
351.3430935376081
 20
230.6000418068466
 30
0.0
 11
349.3430935376081
 21
232.5000418068464
 31
0.0
  0
LINE
  5
679
330
18
100
AcDbEntity
  8
1
  6
Continuous
100
AcDbLine
 10
352.9999535376081
 20
230.6000418068466
 30
0.0
 11
354.9999535376081
 21
232.5000418068464
 31
0.0
  0
LINE
  5
67A
330
18
100
AcDbEntity
  8
1
  6
Continuous
100
AcDbLine
 10
351.5857385376079
 20
230.6000418068466
 30
0.0
 11
353.5857385376079
 21
232.5000418068464
 31
0.0
  0
LINE
  5
67B
330
18
100
AcDbEntity
  8
1
  6
Continuous
100
AcDbLine
 10
352.7573085376078
 20
230.6000418068466
 30
0.0
 11
350.7573085376078
 21
232.5000418068464
 31
0.0
  0
LINE
  5
67C
330
18
100
AcDbEntity
  8
1
  6
Continuous
100
AcDbLine
 10
354.1715235376079
 20
230.6000418068466
 30
0.0
 11
352.1715235376079
 21
232.5000418068464
 31
0.0
  0
LINE
  5
67D
330
18
100
AcDbEntity
  8
1
  6
Continuous
100
AcDbLine
 10
360.0710295376079
 20
230.6000418068466
 30
0.0
 11
362.0710295376079
 21
232.5000418068464
 31
0.0
  0
LINE
  5
67E
330
18
100
AcDbEntity
  8
1
  6
Continuous
100
AcDbLine
 10
361.2425985376079
 20
230.6000418068466
 30
0.0
 11
359.2425985376079
 21
232.5000418068464
 31
0.0
  0
LINE
  5
67F
330
18
100
AcDbEntity
  8
1
  6
Continuous
100
AcDbLine
 10
362.6568145376079
 20
230.6000418068466
 30
0.0
 11
360.6568145376079
 21
232.5000418068464
 31
0.0
  0
LINE
  5
680
330
18
100
AcDbEntity
  8
1
  6
Continuous
100
AcDbLine
 10
357.2425985376079
 20
230.6000418068466
 30
0.0
 11
359.2425985376079
 21
232.5000418068464
 31
0.0
  0
LINE
  5
681
330
18
100
AcDbEntity
  8
1
  6
Continuous
100
AcDbLine
 10
359.8283835376079
 20
230.6000418068466
 30
0.0
 11
357.8283835376079
 21
232.5000418068464
 31
0.0
  0
LINE
  5
682
330
18
100
AcDbEntity
  8
1
  6
Continuous
100
AcDbLine
 10
358.6568145376079
 20
230.6000418068466
 30
0.0
 11
360.6568145376079
 21
232.5000418068464
 31
0.0
  0
LINE
  5
683
330
18
100
AcDbEntity
  8
1
  6
Continuous
100
AcDbLine
 10
355.8283835376079
 20
230.6000418068466
 30
0.0
 11
357.8283835376079
 21
232.5000418068464
 31
0.0
  0
LINE
  5
684
330
18
100
AcDbEntity
  8
1
  6
Continuous
100
AcDbLine
 10
358.4141685376081
 20
230.6000418068466
 30
0.0
 11
356.4141685376081
 21
232.5000418068464
 31
0.0
  0
LINE
  5
685
330
18
100
AcDbEntity
  8
1
  6
Continuous
100
AcDbLine
 10
364.3136745376081
 20
230.6000418068466
 30
0.0
 11
366.3136745376081
 21
232.5000418068464
 31
0.0
  0
LINE
  5
686
330
18
100
AcDbEntity
  8
1
  6
Continuous
100
AcDbLine
 10
362.899459537608
 20
230.6000418068466
 30
0.0
 11
364.899459537608
 21
232.5000418068464
 31
0.0
  0
LINE
  5
687
330
18
100
AcDbEntity
  8
1
  6
Continuous
100
AcDbLine
 10
365.4852445376081
 20
230.6000418068466
 30
0.0
 11
363.4852445376081
 21
232.5000418068464
 31
0.0
  0
LINE
  5
688
330
18
100
AcDbEntity
  8
1
  6
Continuous
100
AcDbLine
 10
361.4852445376081
 20
230.6000418068466
 30
0.0
 11
363.4852445376081
 21
232.5000418068464
 31
0.0
  0
LINE
  5
689
330
18
100
AcDbEntity
  8
1
  6
Continuous
100
AcDbLine
 10
364.0710295376079
 20
230.6000418068466
 30
0.0
 11
362.0710295376079
 21
232.5000418068464
 31
0.0
  0
LINE
  5
68A
330
18
100
AcDbEntity
  8
1
  6
Continuous
100
AcDbLine
 10
374.3499905376079
 20
205.5000478068465
 30
0.0
 11
373.9999915376079
 21
205.5000478068465
 31
0.0
  0
ARC
  5
68B
330
18
100
AcDbEntity
  8
1
  6
Continuous
100
AcDbCircle
 10
374.3499905376079
 20
204.5000478068466
 30
0.0
 40
1.0
100
AcDbArc
 50
81.797272
 51
90.0
  0
ARC
  5
68C
330
18
100
AcDbEntity
  8
1
  6
Continuous
100
AcDbCircle
 10
366.6366055376079
 20
209.8000428068465
 30
0.0
 40
8.0
100
AcDbArc
 50
23.768229
 51
90.0
  0
ARC
  5
68D
330
18
100
AcDbEntity
  8
1
  6
Continuous
100
AcDbCircle
 10
368.9999915376079
 20
209.4968318068465
 30
0.0
 40
5.0
100
AcDbArc
 50
73.941449
 51
85.882912
  0
LINE
  5
68E
330
18
100
AcDbEntity
  8
1
  6
Continuous
100
AcDbLine
 10
378.2131805376081
 20
230.6000418068466
 30
0.0
 11
376.2131805376081
 21
232.5000418068464
 31
0.0
  0
LINE
  5
68F
330
18
100
AcDbEntity
  8
1
  6
Continuous
100
AcDbLine
 10
379.6273955376079
 20
230.6000418068466
 30
0.0
 11
377.6273955376079
 21
232.5000418068464
 31
0.0
  0
LINE
  5
690
330
18
100
AcDbEntity
  8
1
  6
Continuous
100
AcDbLine
 10
377.0416105376079
 20
230.6000418068466
 30
0.0
 11
379.0416105376079
 21
232.5000418068464
 31
0.0
  0
LINE
  5
691
330
18
100
AcDbEntity
  8
1
  6
Continuous
100
AcDbLine
 10
372.5563195376079
 20
230.6000418068466
 30
0.0
 11
370.5563195376079
 21
232.5000418068464
 31
0.0
  0
LINE
  5
692
330
18
100
AcDbEntity
  8
1
  6
Continuous
100
AcDbLine
 10
371.3847495376081
 20
230.6000418068466
 30
0.0
 11
373.3847495376081
 21
232.5000418068464
 31
0.0
  0
LINE
  5
693
330
18
100
AcDbEntity
  8
1
  6
Continuous
100
AcDbLine
 10
373.970534537608
 20
230.6000418068466
 30
0.0
 11
371.970534537608
 21
232.5000418068464
 31
0.0
  0
LINE
  5
694
330
18
100
AcDbEntity
  8
1
  6
Continuous
100
AcDbLine
 10
369.9705345376081
 20
230.6000418068466
 30
0.0
 11
371.970534537608
 21
232.5000418068464
 31
0.0
  0
LINE
  5
695
330
18
100
AcDbEntity
  8
1
  6
Continuous
100
AcDbLine
 10
371.1421045376079
 20
230.6000418068466
 30
0.0
 11
369.1421045376079
 21
232.5000418068464
 31
0.0
  0
LINE
  5
696
330
18
100
AcDbEntity
  8
1
  6
Continuous
100
AcDbLine
 10
368.5563195376079
 20
230.6000418068466
 30
0.0
 11
370.5563195376079
 21
232.5000418068464
 31
0.0
  0
LINE
  5
697
330
18
100
AcDbEntity
  8
1
  6
Continuous
100
AcDbLine
 10
367.1421045376079
 20
230.6000418068466
 30
0.0
 11
369.1421045376079
 21
232.5000418068464
 31
0.0
  0
LINE
  5
698
330
18
100
AcDbEntity
  8
1
  6
Continuous
100
AcDbLine
 10
369.7278895376081
 20
230.6000418068466
 30
0.0
 11
367.7278895376081
 21
232.5000418068464
 31
0.0
  0
LINE
  5
699
330
18
100
AcDbEntity
  8
1
  6
Continuous
100
AcDbLine
 10
374.2131805376081
 20
230.6000418068466
 30
0.0
 11
376.2131805376081
 21
232.5000418068464
 31
0.0
  0
LINE
  5
69A
330
18
100
AcDbEntity
  8
1
  6
Continuous
100
AcDbLine
 10
376.7989645376081
 20
230.6000418068466
 30
0.0
 11
374.7989645376081
 21
232.5000418068464
 31
0.0
  0
LINE
  5
69B
330
18
100
AcDbEntity
  8
1
  6
Continuous
100
AcDbLine
 10
375.3847495376081
 20
230.6000418068466
 30
0.0
 11
373.3847495376081
 21
232.5000418068464
 31
0.0
  0
LINE
  5
69C
330
18
100
AcDbEntity
  8
1
  6
Continuous
100
AcDbLine
 10
375.6273955376079
 20
230.6000418068466
 30
0.0
 11
377.6273955376079
 21
232.5000418068464
 31
0.0
  0
LINE
  5
69D
330
18
100
AcDbEntity
  8
1
  6
Continuous
100
AcDbLine
 10
372.7989645376081
 20
230.6000418068466
 30
0.0
 11
374.7989645376081
 21
232.5000418068464
 31
0.0
  0
ARC
  5
69E
330
18
100
AcDbEntity
  8
1
  6
Continuous
100
AcDbCircle
 10
384.0999905376079
 20
227.1000418068465
 30
0.0
 40
3.5
100
AcDbArc
 50
0.0
 51
90.0
  0
LINE
  5
69F
330
18
100
AcDbEntity
  8
1
  6
Continuous
100
AcDbLine
 10
382.698470537608
 20
230.6000418068466
 30
0.0
 11
384.6984705376081
 21
232.5000418068464
 31
0.0
  0
LINE
  5
6A0
330
18
100
AcDbEntity
  8
1
  6
Continuous
100
AcDbLine
 10
385.2842555376079
 20
230.6000418068466
 30
0.0
 11
383.2842555376079
 21
232.5000418068464
 31
0.0
  0
ARC
  5
6A1
330
18
100
AcDbEntity
  8
1
  6
Continuous
100
AcDbCircle
 10
380.4266055376079
 20
233.2527638068466
 30
0.0
 40
4.180755999999997
100
AcDbArc
 50
23.775627
 51
39.28622999999999
  0
LINE
  5
6A2
330
18
100
AcDbEntity
  8
1
  6
Continuous
100
AcDbLine
 10
381.2842555376079
 20
230.6000418068466
 30
0.0
 11
383.2842555376079
 21
232.5000418068464
 31
0.0
  0
LINE
  5
6A3
330
18
100
AcDbEntity
  8
1
  6
Continuous
100
AcDbLine
 10
383.8700405376079
 20
230.6000418068466
 30
0.0
 11
381.8700405376081
 21
232.5000418068464
 31
0.0
  0
LINE
  5
6A4
330
18
100
AcDbEntity
  8
1
  6
Continuous
100
AcDbLine
 10
381.0416105376081
 20
230.6000418068466
 30
0.0
 11
379.0416105376079
 21
232.5000418068464
 31
0.0
  0
LINE
  5
6A5
330
18
100
AcDbEntity
  8
1
  6
Continuous
100
AcDbLine
 10
379.8700405376081
 20
230.6000418068466
 30
0.0
 11
381.8700405376081
 21
232.5000418068464
 31
0.0
  0
LINE
  5
6A6
330
18
100
AcDbEntity
  8
1
  6
Continuous
100
AcDbLine
 10
382.4558255376079
 20
230.6000418068466
 30
0.0
 11
380.4558255376081
 21
232.5000418068464
 31
0.0
  0
LINE
  5
6A7
330
18
100
AcDbEntity
  8
1
  6
Continuous
100
AcDbLine
 10
378.4558255376079
 20
230.6000418068466
 30
0.0
 11
380.4558255376081
 21
232.5000418068464
 31
0.0
  0
LINE
  5
6A8
330
18
100
AcDbEntity
  8
1
  6
Continuous
100
AcDbLine
 10
386.5000525376079
 20
231.5731928068466
 30
0.0
 11
385.5269005376081
 21
230.6000418068466
 31
0.0
  0
LINE
  5
6A9
330
18
100
AcDbEntity
  8
1
  6
Continuous
100
AcDbLine
 10
384.1126855376081
 20
230.6000418068466
 30
0.0
 11
386.1126855376081
 21
232.5000418068464
 31
0.0
  0
LINE
  5
6AA
330
18
100
AcDbEntity
  8
1
  6
Continuous
100
AcDbLine
 10
386.4999915376079
 20
232.1127358068465
 30
0.0
 11
386.1126855376081
 21
232.5000418068464
 31
0.0
  0
LINE
  5
6AB
330
18
100
AcDbEntity
  8
1
  6
Continuous
100
AcDbLine
 10
386.5001295376079
 20
230.7983878068466
 30
0.0
 11
384.6984705376081
 21
232.5000418068464
 31
0.0
  0
LINE
  5
6AC
330
18
100
AcDbEntity
  8
1
  6
Continuous
100
AcDbLine
 10
386.4999915376079
 20
230.6000418068466
 30
0.0
 11
386.4999915376079
 21
232.5000418068464
 31
0.0
  0
ARC
  5
6AD
330
18
100
AcDbEntity
  8
1
  6
Continuous
100
AcDbCircle
 10
382.035918537608
 20
230.2325828068465
 30
0.0
 40
6.0
100
AcDbArc
 50
38.22647099999999
 51
51.65410999999998
  0
ARC
  5
6AE
330
18
100
AcDbEntity
  8
1
  6
Continuous
100
AcDbCircle
 10
384.1978825376081
 20
234.8007398068465
 30
0.0
 40
2.691070999999998
100
AcDbArc
 50
301.2471619999999
 51
341.463165
  0
LINE
  5
6AF
330
18
100
AcDbEntity
  8
1
  6
Continuous
100
AcDbLine
 10
389.9294585376079
 20
238.2659988068466
 30
0.0
 11
391.4999705376081
 21
240.8000138068465
 31
0.0
  0
LINE
  5
6B0
330
18
100
AcDbEntity
  8
1
  6
Continuous
100
AcDbLine
 10
396.9999875376079
 20
244.0000138068465
 30
0.0
 11
396.9999875376079
 21
240.8000138068465
 31
0.0
  0
ARC
  5
6B1
330
18
100
AcDbEntity
  8
1
  6
Continuous
100
AcDbCircle
 10
468.3204835376081
 20
240.8999508068466
 30
0.0
 40
5.0
100
AcDbArc
 50
211.7894129999998
 51
270.0
  0
LINE
  5
6B2
330
18
100
AcDbEntity
  8
4
  6
CENTER
100
AcDbLine
 10
466.9999955376081
 20
249.0000108068465
 30
0.0
 11
466.9999955376081
 21
236.0774518068466
 31
0.0
  0
LINE
  5
6B3
330
18
100
AcDbEntity
  8
1
  6
Continuous
100
AcDbLine
 10
466.4007445376078
 20
227.1000418068465
 30
0.0
 11
466.4007445376078
 21
217.8000428068465
 31
0.0
  0
ARC
  5
6B4
330
18
100
AcDbEntity
  8
1
  6
Continuous
100
AcDbCircle
 10
456.6257965376078
 20
207.7775588068464
 30
0.0
 40
14.0
100
AcDbArc
 50
3.547759999999998
 51
45.716309
  0
LINE
  5
6B5
330
18
100
AcDbEntity
  8
1
  6
Continuous
100
AcDbLine
 10
472.7148925376081
 20
230.6000418068466
 30
0.0
 11
470.7148925376078
 21
232.5000418068464
 31
0.0
  0
LINE
  5
6B6
330
18
100
AcDbEntity
  8
1
  6
Continuous
100
AcDbLine
 10
471.3006775376078
 20
230.6000418068466
 30
0.0
 11
469.3006775376079
 21
232.5000418068464
 31
0.0
  0
LINE
  5
6B7
330
18
100
AcDbEntity
  8
1
  6
Continuous
100
AcDbLine
 10
470.1291075376079
 20
230.6000418068466
 30
0.0
 11
472.1291075376078
 21
232.5000418068464
 31
0.0
  0
ARC
  5
6B8
330
18
100
AcDbEntity
  8
1
  6
Continuous
100
AcDbCircle
 10
469.9007445376079
 20
227.1000418068465
 30
0.0
 40
3.5
100
AcDbArc
 50
90.0
 51
180.0
  0
LINE
  5
6B9
330
18
100
AcDbEntity
  8
1
  6
Continuous
100
AcDbLine
 10
469.8864625376081
 20
230.6000418068466
 30
0.0
 11
467.8864625376081
 21
232.5000418068464
 31
0.0
  0
LINE
  5
6BA
330
18
100
AcDbEntity
  8
1
  6
Continuous
100
AcDbLine
 10
467.4990265376081
 20
230.7983878068466
 30
0.0
 11
469.3006775376079
 21
232.5000418068464
 31
0.0
  0
LINE
  5
6BB
330
18
100
AcDbEntity
  8
1
  6
Continuous
100
AcDbLine
 10
467.4991025376081
 20
231.5731928068466
 30
0.0
 11
468.4722475376078
 21
230.6000418068466
 31
0.0
  0
LINE
  5
6BC
330
18
100
AcDbEntity
  8
1
  6
Continuous
100
AcDbLine
 10
467.499163537608
 20
232.1127358068465
 30
0.0
 11
467.8864625376081
 21
232.5000418068464
 31
0.0
  0
LINE
  5
6BD
330
18
100
AcDbEntity
  8
1
  6
Continuous
100
AcDbLine
 10
467.4998115376078
 20
230.6000418068466
 30
0.0
 11
467.4999955376081
 21
232.5000418068464
 31
0.0
  0
ARC
  5
6BE
330
18
100
AcDbEntity
  8
1
  6
Continuous
100
AcDbCircle
 10
473.5733645376078
 20
233.2527678068466
 30
0.0
 40
4.180738999999999
100
AcDbArc
 50
140.7144669999999
 51
156.2243229999999
  0
ARC
  5
6BF
330
18
100
AcDbEntity
  8
1
  6
Continuous
100
AcDbCircle
 10
469.8021045376078
 20
234.8007398068465
 30
0.0
 40
2.691070999999998
100
AcDbArc
 50
198.536835
 51
238.752838
  0
ARC
  5
6C0
330
18
100
AcDbEntity
  8
1
  6
Continuous
100
AcDbCircle
 10
471.9640685376081
 20
230.2325828068465
 30
0.0
 40
6.0
100
AcDbArc
 50
128.34589
 51
141.7735289999999
  0
LINE
  5
6C1
330
18
100
AcDbEntity
  8
1
  6
Continuous
100
AcDbLine
 10
468.7148925376081
 20
230.6000418068466
 30
0.0
 11
470.7148925376078
 21
232.5000418068464
 31
0.0
  0
LINE
  5
6C2
330
18
100
AcDbEntity
  8
1
  6
Continuous
100
AcDbLine
 10
478.3717525376078
 20
230.6000418068466
 30
0.0
 11
476.3717525376079
 21
232.5000418068464
 31
0.0
  0
LINE
  5
6C3
330
18
100
AcDbEntity
  8
1
  6
Continuous
100
AcDbLine
 10
475.7859675376081
 20
230.6000418068466
 30
0.0
 11
477.7859675376078
 21
232.5000418068464
 31
0.0
  0
LINE
  5
6C4
330
18
100
AcDbEntity
  8
1
  6
Continuous
100
AcDbLine
 10
476.9575375376081
 20
230.6000418068466
 30
0.0
 11
474.9575375376081
 21
232.5000418068464
 31
0.0
  0
LINE
  5
6C5
330
18
100
AcDbEntity
  8
1
  6
Continuous
100
AcDbLine
 10
474.129107537608
 20
230.6000418068466
 30
0.0
 11
472.1291075376078
 21
232.5000418068464
 31
0.0
  0
LINE
  5
6C6
330
18
100
AcDbEntity
  8
1
  6
Continuous
100
AcDbLine
 10
471.5433225376078
 20
230.6000418068466
 30
0.0
 11
473.543322537608
 21
232.5000418068464
 31
0.0
  0
LINE
  5
6C7
330
18
100
AcDbEntity
  8
1
  6
Continuous
100
AcDbLine
 10
475.5433225376078
 20
230.6000418068466
 30
0.0
 11
473.543322537608
 21
232.5000418068464
 31
0.0
  0
LINE
  5
6C8
330
18
100
AcDbEntity
  8
1
  6
Continuous
100
AcDbLine
 10
472.9575375376081
 20
230.6000418068466
 30
0.0
 11
474.9575375376081
 21
232.5000418068464
 31
0.0
  0
LINE
  5
6C9
330
18
100
AcDbEntity
  8
1
  6
Continuous
100
AcDbLine
 10
474.3717525376078
 20
230.6000418068466
 30
0.0
 11
476.3717525376079
 21
232.5000418068464
 31
0.0
  0
LINE
  5
6CA
330
18
100
AcDbEntity
  8
1
  6
Continuous
100
AcDbLine
 10
481.2001825376079
 20
230.6000418068466
 30
0.0
 11
479.2001825376081
 21
232.5000418068464
 31
0.0
  0
LINE
  5
6CB
330
18
100
AcDbEntity
  8
1
  6
Continuous
100
AcDbLine
 10
482.6143975376081
 20
230.6000418068466
 30
0.0
 11
480.6143975376079
 21
232.5000418068464
 31
0.0
  0
LINE
  5
6CC
330
18
100
AcDbEntity
  8
1
  6
Continuous
100
AcDbLine
 10
480.0286135376079
 20
230.6000418068466
 30
0.0
 11
482.0286135376081
 21
232.5000418068464
 31
0.0
  0
LINE
  5
6CD
330
18
100
AcDbEntity
  8
1
  6
Continuous
100
AcDbLine
 10
479.785967537608
 20
230.6000418068466
 30
0.0
 11
477.7859675376078
 21
232.5000418068464
 31
0.0
  0
LINE
  5
6CE
330
18
100
AcDbEntity
  8
1
  6
Continuous
100
AcDbLine
 10
477.2001825376078
 20
230.6000418068466
 30
0.0
 11
479.2001825376081
 21
232.5000418068464
 31
0.0
  0
LINE
  5
6CF
330
18
100
AcDbEntity
  8
1
  6
Continuous
100
AcDbLine
 10
478.6143975376081
 20
230.6000418068466
 30
0.0
 11
480.6143975376079
 21
232.5000418068464
 31
0.0
  0
LINE
  5
6D0
330
18
100
AcDbEntity
  8
1
  6
Continuous
100
AcDbLine
 10
456.9999875376081
 20
244.0000138068465
 30
0.0
 11
456.9999875376081
 21
240.8000208068465
 31
0.0
  0
LINE
  5
6D1
330
18
100
AcDbEntity
  8
1
  6
Continuous
100
AcDbLine
 10
464.0705285376078
 20
238.2659518068466
 30
0.0
 11
462.4999875376079
 21
240.8000138068465
 31
0.0
  0
LINE
  5
6D2
330
18
100
AcDbEntity
  8
1
  6
Continuous
100
AcDbLine
 10
530.4990265376078
 20
230.7987248068466
 30
0.0
 11
528.6977105376081
 21
232.5000418068464
 31
0.0
  0
ARC
  5
6D3
330
18
100
AcDbEntity
  8
1
  6
Continuous
100
AcDbCircle
 10
528.1007485376078
 20
227.1000418068465
 30
0.0
 40
3.5
100
AcDbArc
 50
0.0
 51
90.0
  0
LINE
  5
6D4
330
18
100
AcDbEntity
  8
1
  6
Continuous
100
AcDbLine
 10
529.2834955376081
 20
230.6000418068466
 30
0.0
 11
527.2834955376081
 21
232.5000418068464
 31
0.0
  0
LINE
  5
6D5
330
18
100
AcDbEntity
  8
1
  6
Continuous
100
AcDbLine
 10
528.1119265376081
 20
230.6000418068466
 30
0.0
 11
530.1119265376081
 21
232.5000418068464
 31
0.0
  0
LINE
  5
6D6
330
18
100
AcDbEntity
  8
1
  6
Continuous
100
AcDbLine
 10
531.6007485376078
 20
217.8000428068465
 30
0.0
 11
528.6007485376078
 21
217.8000428068465
 31
0.0
  0
LINE
  5
6D7
330
18
100
AcDbEntity
  8
1
  6
Continuous
100
AcDbLine
 10
506.6560625376081
 20
230.6000418068466
 30
0.0
 11
504.6560625376081
 21
232.5000418068464
 31
0.0
  0
LINE
  5
6D8
330
18
100
AcDbEntity
  8
1
  6
Continuous
100
AcDbLine
 10
505.4844925376078
 20
230.6000418068466
 30
0.0
 11
507.4844925376081
 21
232.5000418068464
 31
0.0
  0
LINE
  5
6D9
330
18
100
AcDbEntity
  8
1
  6
Continuous
100
AcDbLine
 10
504.0702775376081
 20
230.6000418068466
 30
0.0
 11
506.0702775376078
 21
232.5000418068464
 31
0.0
  0
LINE
  5
6DA
330
18
100
AcDbEntity
  8
1
  6
Continuous
100
AcDbLine
 10
495.342341537608
 20
230.6000418068466
 30
0.0
 11
493.3423415376078
 21
232.5000418068464
 31
0.0
  0
LINE
  5
6DB
330
18
100
AcDbEntity
  8
1
  6
Continuous
100
AcDbLine
 10
492.7565565376078
 20
230.6000418068466
 30
0.0
 11
494.7565565376081
 21
232.5000418068464
 31
0.0
  0
LINE
  5
6DC
330
18
100
AcDbEntity
  8
1
  6
Continuous
100
AcDbLine
 10
494.1707715376081
 20
230.6000418068466
 30
0.0
 11
496.1707715376078
 21
232.5000418068464
 31
0.0
  0
LINE
  5
6DD
330
18
100
AcDbEntity
  8
1
  6
Continuous
100
AcDbLine
 10
489.6854735376079
 20
230.6000418068466
 30
0.0
 11
487.6854735376078
 21
232.5000418068464
 31
0.0
  0
LINE
  5
6DE
330
18
100
AcDbEntity
  8
1
  6
Continuous
100
AcDbLine
 10
487.0996885376078
 20
230.6000418068466
 30
0.0
 11
489.0996885376081
 21
232.5000418068464
 31
0.0
  0
LINE
  5
6DF
330
18
100
AcDbEntity
  8
1
  6
Continuous
100
AcDbLine
 10
485.4428285376078
 20
230.6000418068466
 30
0.0
 11
483.442828537608
 21
232.5000418068464
 31
0.0
  0
LINE
  5
6E0
330
18
100
AcDbEntity
  8
1
  6
Continuous
100
AcDbLine
 10
484.2712585376078
 20
230.6000418068466
 30
0.0
 11
486.2712585376081
 21
232.5000418068464
 31
0.0
  0
LINE
  5
6E1
330
18
100
AcDbEntity
  8
1
  6
Continuous
100
AcDbLine
 10
482.857043537608
 20
230.6000418068466
 30
0.0
 11
484.8570435376078
 21
232.5000418068464
 31
0.0
  0
LINE
  5
6E2
330
18
100
AcDbEntity
  8
1
  6
Continuous
100
AcDbLine
 10
486.8570435376081
 20
230.6000418068466
 30
0.0
 11
484.8570435376078
 21
232.5000418068464
 31
0.0
  0
LINE
  5
6E3
330
18
100
AcDbEntity
  8
1
  6
Continuous
100
AcDbLine
 10
488.2712585376078
 20
230.6000418068466
 30
0.0
 11
486.2712585376081
 21
232.5000418068464
 31
0.0
  0
LINE
  5
6E4
330
18
100
AcDbEntity
  8
1
  6
Continuous
100
AcDbLine
 10
485.6854735376079
 20
230.6000418068466
 30
0.0
 11
487.6854735376078
 21
232.5000418068464
 31
0.0
  0
LINE
  5
6E5
330
18
100
AcDbEntity
  8
1
  6
Continuous
100
AcDbLine
 10
491.0996965376081
 20
230.6000418068466
 30
0.0
 11
489.0996885376081
 21
232.5000418068464
 31
0.0
  0
LINE
  5
6E6
330
18
100
AcDbEntity
  8
1
  6
Continuous
100
AcDbLine
 10
488.5139035376078
 20
230.6000418068466
 30
0.0
 11
490.5139035376079
 21
232.5000418068464
 31
0.0
  0
LINE
  5
6E7
330
18
100
AcDbEntity
  8
1
  6
Continuous
100
AcDbLine
 10
493.9281265376081
 20
230.6000418068466
 30
0.0
 11
491.9281265376081
 21
232.5000418068464
 31
0.0
  0
LINE
  5
6E8
330
18
100
AcDbEntity
  8
1
  6
Continuous
100
AcDbLine
 10
492.5139115376079
 20
230.6000418068466
 30
0.0
 11
490.5139035376079
 21
232.5000418068464
 31
0.0
  0
LINE
  5
6E9
330
18
100
AcDbEntity
  8
1
  6
Continuous
100
AcDbLine
 10
489.928118537608
 20
230.6000418068466
 30
0.0
 11
491.9281265376081
 21
232.5000418068464
 31
0.0
  0
LINE
  5
6EA
330
18
100
AcDbEntity
  8
1
  6
Continuous
100
AcDbLine
 10
491.342341537608
 20
230.6000418068466
 30
0.0
 11
493.3423415376078
 21
232.5000418068464
 31
0.0
  0
LINE
  5
6EB
330
18
100
AcDbEntity
  8
1
  6
Continuous
100
AcDbLine
 10
499.8276315376078
 20
230.6000418068466
 30
0.0
 11
501.827631537608
 21
232.5000418068464
 31
0.0
  0
LINE
  5
6EC
330
18
100
AcDbEntity
  8
1
  6
Continuous
100
AcDbLine
 10
500.9992015376078
 20
230.6000418068466
 30
0.0
 11
498.9992015376079
 21
232.5000418068464
 31
0.0
  0
LINE
  5
6ED
330
18
100
AcDbEntity
  8
1
  6
Continuous
100
AcDbLine
 10
498.413416537608
 20
230.6000418068466
 30
0.0
 11
500.4134165376078
 21
232.5000418068464
 31
0.0
  0
LINE
  5
6EE
330
18
100
AcDbEntity
  8
1
  6
Continuous
100
AcDbLine
 10
498.1707715376081
 20
230.6000418068466
 30
0.0
 11
496.1707715376078
 21
232.5000418068464
 31
0.0
  0
LINE
  5
6EF
330
18
100
AcDbEntity
  8
1
  6
Continuous
100
AcDbLine
 10
495.5849865376078
 20
230.6000418068466
 30
0.0
 11
497.5849865376079
 21
232.5000418068464
 31
0.0
  0
LINE
  5
6F0
330
18
100
AcDbEntity
  8
1
  6
Continuous
100
AcDbLine
 10
496.9992015376078
 20
230.6000418068466
 30
0.0
 11
498.9992015376079
 21
232.5000418068464
 31
0.0
  0
LINE
  5
6F1
330
18
100
AcDbEntity
  8
1
  6
Continuous
100
AcDbLine
 10
496.7565565376078
 20
230.6000418068466
 30
0.0
 11
494.7565565376081
 21
232.5000418068464
 31
0.0
  0
LINE
  5
6F2
330
18
100
AcDbEntity
  8
1
  6
Continuous
100
AcDbLine
 10
499.5849865376079
 20
230.6000418068466
 30
0.0
 11
497.5849865376079
 21
232.5000418068464
 31
0.0
  0
LINE
  5
6F3
330
18
100
AcDbEntity
  8
1
  6
Continuous
100
AcDbLine
 10
502.413416537608
 20
230.6000418068466
 30
0.0
 11
500.4134165376078
 21
232.5000418068464
 31
0.0
  0
LINE
  5
6F4
330
18
100
AcDbEntity
  8
1
  6
Continuous
100
AcDbLine
 10
505.2418465376081
 20
230.6000418068466
 30
0.0
 11
503.2418465376081
 21
232.5000418068464
 31
0.0
  0
LINE
  5
6F5
330
18
100
AcDbEntity
  8
1
  6
Continuous
100
AcDbLine
 10
502.6560625376081
 20
230.6000418068466
 30
0.0
 11
504.6560625376081
 21
232.5000418068464
 31
0.0
  0
LINE
  5
6F6
330
18
100
AcDbEntity
  8
1
  6
Continuous
100
AcDbLine
 10
501.2418465376081
 20
230.6000418068466
 30
0.0
 11
503.2418465376081
 21
232.5000418068464
 31
0.0
  0
LINE
  5
6F7
330
18
100
AcDbEntity
  8
1
  6
Continuous
100
AcDbLine
 10
503.8276315376078
 20
230.6000418068466
 30
0.0
 11
501.827631537608
 21
232.5000418068464
 31
0.0
  0
ARC
  5
6F8
330
18
100
AcDbEntity
  8
1
  6
Continuous
100
AcDbCircle
 10
530.0988215376081
 20
210.9622338068465
 30
0.0
 40
6.999989999999997
100
AcDbArc
 50
102.35752
 51
169.2138799999999
  0
LINE
  5
6F9
330
18
100
AcDbEntity
  8
1
  6
Continuous
100
AcDbLine
 10
517.9697825376081
 20
230.6000418068466
 30
0.0
 11
515.9697825376079
 21
232.5000418068464
 31
0.0
  0
LINE
  5
6FA
330
18
100
AcDbEntity
  8
1
  6
Continuous
100
AcDbLine
 10
519.3839975376081
 20
230.6000418068466
 30
0.0
 11
517.3839975376081
 21
232.5000418068464
 31
0.0
  0
LINE
  5
6FB
330
18
100
AcDbEntity
  8
1
  6
Continuous
100
AcDbLine
 10
516.7982125376081
 20
230.6000418068466
 30
0.0
 11
518.7982125376081
 21
232.5000418068464
 31
0.0
  0
LINE
  5
6FC
330
18
100
AcDbEntity
  8
1
  6
Continuous
100
AcDbLine
 10
509.7271375376078
 20
230.6000418068466
 30
0.0
 11
511.7271375376081
 21
232.5000418068464
 31
0.0
  0
LINE
  5
6FD
330
18
100
AcDbEntity
  8
1
  6
Continuous
100
AcDbLine
 10
512.312922537608
 20
230.6000418068466
 30
0.0
 11
510.3129225376081
 21
232.5000418068464
 31
0.0
  0
LINE
  5
6FE
330
18
100
AcDbEntity
  8
1
  6
Continuous
100
AcDbLine
 10
511.1413525376081
 20
230.6000418068466
 30
0.0
 11
513.1413525376078
 21
232.5000418068464
 31
0.0
  0
LINE
  5
6FF
330
18
100
AcDbEntity
  8
1
  6
Continuous
100
AcDbLine
 10
510.8987075376078
 20
230.6000418068466
 30
0.0
 11
508.8987075376079
 21
232.5000418068464
 31
0.0
  0
LINE
  5
700
330
18
100
AcDbEntity
  8
1
  6
Continuous
100
AcDbLine
 10
508.3129225376081
 20
230.6000418068466
 30
0.0
 11
510.3129225376081
 21
232.5000418068464
 31
0.0
  0
LINE
  5
701
330
18
100
AcDbEntity
  8
1
  6
Continuous
100
AcDbLine
 10
509.4844925376079
 20
230.6000418068466
 30
0.0
 11
507.4844925376081
 21
232.5000418068464
 31
0.0
  0
LINE
  5
702
330
18
100
AcDbEntity
  8
1
  6
Continuous
100
AcDbLine
 10
508.0702775376081
 20
230.6000418068466
 30
0.0
 11
506.0702775376078
 21
232.5000418068464
 31
0.0
  0
LINE
  5
703
330
18
100
AcDbEntity
  8
1
  6
Continuous
100
AcDbLine
 10
506.8987075376078
 20
230.6000418068466
 30
0.0
 11
508.8987075376079
 21
232.5000418068464
 31
0.0
  0
LINE
  5
704
330
18
100
AcDbEntity
  8
1
  6
Continuous
100
AcDbLine
 10
515.1413525376081
 20
230.6000418068466
 30
0.0
 11
513.1413525376078
 21
232.5000418068464
 31
0.0
  0
LINE
  5
705
330
18
100
AcDbEntity
  8
1
  6
Continuous
100
AcDbLine
 10
512.5555675376078
 20
230.6000418068466
 30
0.0
 11
514.5555675376081
 21
232.5000418068464
 31
0.0
  0
LINE
  5
706
330
18
100
AcDbEntity
  8
1
  6
Continuous
100
AcDbLine
 10
513.7271375376078
 20
230.6000418068466
 30
0.0
 11
511.7271375376081
 21
232.5000418068464
 31
0.0
  0
LINE
  5
707
330
18
100
AcDbEntity
  8
1
  6
Continuous
100
AcDbLine
 10
516.5555675376078
 20
230.6000418068466
 30
0.0
 11
514.5555675376081
 21
232.5000418068464
 31
0.0
  0
LINE
  5
708
330
18
100
AcDbEntity
  8
1
  6
Continuous
100
AcDbLine
 10
515.3839975376079
 20
230.6000418068466
 30
0.0
 11
517.3839975376081
 21
232.5000418068464
 31
0.0
  0
LINE
  5
709
330
18
100
AcDbEntity
  8
1
  6
Continuous
100
AcDbLine
 10
513.9697825376081
 20
230.6000418068466
 30
0.0
 11
515.9697825376079
 21
232.5000418068464
 31
0.0
  0
LINE
  5
70A
330
18
100
AcDbEntity
  8
1
  6
Continuous
100
AcDbLine
 10
523.6266435376078
 20
230.6000418068466
 30
0.0
 11
521.6266435376078
 21
232.5000418068464
 31
0.0
  0
LINE
  5
70B
330
18
100
AcDbEntity
  8
1
  6
Continuous
100
AcDbLine
 10
525.0408585376082
 20
230.6000418068466
 30
0.0
 11
523.0408585376078
 21
232.5000418068464
 31
0.0
  0
LINE
  5
70C
330
18
100
AcDbEntity
  8
1
  6
Continuous
100
AcDbLine
 10
522.4550655376081
 20
230.6000418068466
 30
0.0
 11
524.4550655376079
 21
232.5000418068464
 31
0.0
  0
LINE
  5
70D
330
18
100
AcDbEntity
  8
1
  6
Continuous
100
AcDbLine
 10
522.2124285376079
 20
230.6000418068466
 30
0.0
 11
520.2124285376079
 21
232.5000418068464
 31
0.0
  0
LINE
  5
70E
330
18
100
AcDbEntity
  8
1
  6
Continuous
100
AcDbLine
 10
521.0408585376081
 20
230.6000418068466
 30
0.0
 11
523.0408585376078
 21
232.5000418068464
 31
0.0
  0
LINE
  5
70F
330
18
100
AcDbEntity
  8
1
  6
Continuous
100
AcDbLine
 10
520.7982125376081
 20
230.6000418068466
 30
0.0
 11
518.7982125376081
 21
232.5000418068464
 31
0.0
  0
LINE
  5
710
330
18
100
AcDbEntity
  8
1
  6
Continuous
100
AcDbLine
 10
519.6266435376078
 20
230.6000418068466
 30
0.0
 11
521.6266435376078
 21
232.5000418068464
 31
0.0
  0
LINE
  5
711
330
18
100
AcDbEntity
  8
1
  6
Continuous
100
AcDbLine
 10
518.2124285376079
 20
230.6000418068466
 30
0.0
 11
520.2124285376079
 21
232.5000418068464
 31
0.0
  0
LINE
  5
712
330
18
100
AcDbEntity
  8
1
  6
Continuous
100
AcDbLine
 10
527.8692805376079
 20
230.6000418068466
 30
0.0
 11
525.8692805376081
 21
232.5000418068464
 31
0.0
  0
LINE
  5
713
330
18
100
AcDbEntity
  8
1
  6
Continuous
100
AcDbLine
 10
526.4550655376081
 20
230.6000418068466
 30
0.0
 11
524.4550655376079
 21
232.5000418068464
 31
0.0
  0
LINE
  5
714
330
18
100
AcDbEntity
  8
1
  6
Continuous
100
AcDbLine
 10
525.2834955376081
 20
230.6000418068466
 30
0.0
 11
527.2834955376081
 21
232.5000418068464
 31
0.0
  0
LINE
  5
715
330
18
100
AcDbEntity
  8
1
  6
Continuous
100
AcDbLine
 10
523.8692805376079
 20
230.6000418068466
 30
0.0
 11
525.8692805376081
 21
232.5000418068464
 31
0.0
  0
LINE
  5
716
330
18
100
AcDbEntity
  8
1
  6
Continuous
100
AcDbLine
 10
526.6977105376081
 20
230.6000418068466
 30
0.0
 11
528.6977105376081
 21
232.5000418068464
 31
0.0
  0
ARC
  5
717
330
18
100
AcDbEntity
  8
1
  6
Continuous
100
AcDbCircle
 10
524.4265195376081
 20
233.2527678068466
 30
0.0
 40
4.180738999999999
100
AcDbArc
 50
23.77567699999999
 51
39.285533
  0
ARC
  5
718
330
18
100
AcDbEntity
  8
1
  6
Continuous
100
AcDbCircle
 10
529.6795075376078
 20
240.8999508068466
 30
0.0
 40
5.0
100
AcDbArc
 50
270.0
 51
328.210571
  0
LINE
  5
719
330
18
100
AcDbEntity
  8
4
  6
CENTER
100
AcDbLine
 10
530.9999955376079
 20
249.0000108068465
 30
0.0
 11
530.9999955376079
 21
236.0774518068466
 31
0.0
  0
LINE
  5
71A
330
18
100
AcDbEntity
  8
1
  6
Continuous
100
AcDbLine
 10
531.6007485376078
 20
227.1000418068465
 30
0.0
 11
531.6007485376078
 21
217.8000428068465
 31
0.0
  0
LINE
  5
71B
330
18
100
AcDbEntity
  8
1
  6
Continuous
100
AcDbLine
 10
530.499163537608
 20
232.1128008068465
 30
0.0
 11
530.1119265376081
 21
232.5000418068464
 31
0.0
  0
LINE
  5
71C
330
18
100
AcDbEntity
  8
1
  6
Continuous
100
AcDbLine
 10
529.5261335376078
 20
230.6000418068466
 30
0.0
 11
530.4991025376081
 21
231.5730118068465
 31
0.0
  0
ARC
  5
71D
330
18
100
AcDbEntity
  8
1
  6
Continuous
100
AcDbCircle
 10
526.0359225376081
 20
230.2325828068465
 30
0.0
 40
6.0
100
AcDbArc
 50
38.22647099999999
 51
51.65410999999998
  0
ARC
  5
71E
330
18
100
AcDbEntity
  8
1
  6
Continuous
100
AcDbCircle
 10
528.1978865376079
 20
234.8007398068465
 30
0.0
 40
2.691070999999998
100
AcDbArc
 50
301.2471619999999
 51
341.463165
  0
LINE
  5
71F
330
18
100
AcDbEntity
  8
1
  6
Continuous
100
AcDbLine
 10
530.5001795376081
 20
230.6000418068466
 30
0.0
 11
530.4999955376081
 21
232.5000418068464
 31
0.0
  0
LINE
  5
720
330
18
100
AcDbEntity
  8
1
  6
Continuous
100
AcDbLine
 10
533.9294615376078
 20
238.2659518068466
 30
0.0
 11
535.4999995376081
 21
240.8000208068465
 31
0.0
  0
LINE
  5
721
330
18
100
AcDbEntity
  8
1
  6
Continuous
100
AcDbLine
 10
540.9999875376081
 20
244.0000138068465
 30
0.0
 11
540.9999875376081
 21
240.8000208068465
 31
0.0
  0
LINE
  5
7FB
330
18
100
AcDbEntity
  8
1
  6
Continuous
100
AcDbLine
 10
322.7002045376079
 20
185.4517376090335
 30
0.0
 11
322.7002045376079
 21
183.0000438068466
 31
0.0
  0
LINE
  5
7FC
330
18
100
AcDbEntity
  8
1
  6
Continuous
100
AcDbLine
 10
322.6002045376079
 20
185.7574671543357
 30
0.0
 11
322.6002045376079
 21
185.0000438068466
 31
0.0
  0
LINE
  5
7FD
330
18
100
AcDbEntity
  8
1
  6
Continuous
100
AcDbLine
 10
321.100204537608
 20
186.5000438068465
 30
0.0
 11
321.100204537608
 21
193.5000438068463
 31
0.0
  0
LINE
  5
7FF
330
18
100
AcDbEntity
  8
1
  6
Continuous
100
AcDbLine
 10
326.4664669731601
 20
181.9171398068465
 30
0.0
 11
323.3254195376078
 21
181.9171398068465
 31
0.0
  0
LINE
  5
800
330
18
100
AcDbEntity
  8
1
  6
Continuous
100
AcDbLine
 10
321.100204537608
 20
186.5000438068465
 30
0.0
 11
322.6002045376079
 21
185.0000438068466
 31
0.0
  0
LINE
  5
801
330
18
100
AcDbEntity
  8
2
  6
Continuous
100
AcDbLine
 10
322.5846129910406
 20
185.8120438068466
 30
0.0
 11
321.7882045376081
 21
185.8120438068466
 31
0.0
  0
LINE
  5
802
330
18
100
AcDbEntity
  8
1
  6
Continuous
100
AcDbLine
 10
323.3254195376078
 20
181.9171398068465
 30
0.0
 11
322.7002045376079
 21
183.0000438068466
 31
0.0
  0
ARC
  5
803
330
18
100
AcDbEntity
  8
1
  6
Continuous
100
AcDbCircle
 10
326.2783565376079
 20
183.9378658068465
 30
0.0
 40
3.578151999999998
100
AcDbArc
 50
162.1311235644821
 51
205.6157529999999
  0
LINE
  5
804
330
18
100
AcDbEntity
  8
1
  6
Continuous
100
AcDbLine
 10
322.7002045376079
 20
185.0000438068466
 30
0.0
 11
322.6002045376079
 21
185.0000438068466
 31
0.0
  0
LINE
  5
80A
330
18
100
AcDbEntity
  8
1
  6
Continuous
100
AcDbLine
 10
322.399993537608
 20
194.7998328068467
 30
0.0
 11
321.100204537608
 21
193.5000438068463
 31
0.0
  0
LINE
  5
80B
330
18
100
AcDbEntity
  8
2
  6
Continuous
100
AcDbLine
 10
322.3999935376081
 20
194.1880438068466
 30
0.0
 11
321.7882045376081
 21
194.1880438068466
 31
0.0
  0
ENDSEC
  0
SECTION
  2
OBJECTS
  0
DICTIONARY
  5
C
330
0
100
AcDbDictionary
281
     1
  3
ACAD_CIP_PREVIOUS_PRODUCT_INFO
350
87E
  3
ACAD_COLOR
350
861
  3
ACAD_DETAILVIEWSTYLE
350
87A
  3
ACAD_GROUP
350
D
  3
ACAD_LAYOUT
350
94
  3
ACAD_MATERIAL
350
82F
  3
ACAD_MLEADERSTYLE
350
876
  3
ACAD_MLINESTYLE
350
1B
  3
ACAD_PLOTSETTINGS
350
95
  3
ACAD_PLOTSTYLENAME
350
82D
  3
ACAD_SCALELIST
350
864
  3
ACAD_SECTIONVIEWSTYLE
350
878
  3
ACAD_TABLESTYLE
350
862
  3
ACAD_VISUALSTYLE
350
848
  3
ACDB_RECOMPOSE_DATA
350
89C
  3
AcDbVariableDictionary
350
88F
  3
CONTENTDICTIONARY
350
3D
  3
DWGPROPS
350
89D
  0
DICTIONARY
  5
87F
330
E
100
AcDbDictionary
280
     1
281
     1
  3
ADSK_XREC_LAYER_RECONCILED
360
880
  0
DICTIONARY
  5
881
330
4E
100
AcDbDictionary
280
     1
281
     1
  3
ADSK_XREC_LAYER_RECONCILED
360
882
  0
DICTIONARY
  5
883
330
4F
100
AcDbDictionary
280
     1
281
     1
  3
ADSK_XREC_LAYER_RECONCILED
360
884
  0
DICTIONARY
  5
885
330
50
100
AcDbDictionary
280
     1
281
     1
  3
ADSK_XREC_LAYER_RECONCILED
360
886
  0
DICTIONARY
  5
887
330
51
100
AcDbDictionary
280
     1
281
     1
  3
ADSK_XREC_LAYER_RECONCILED
360
888
  0
DICTIONARY
  5
889
330
52
100
AcDbDictionary
280
     1
281
     1
  3
ADSK_XREC_LAYER_RECONCILED
360
88A
  0
DICTIONARY
  5
88B
330
53
100
AcDbDictionary
280
     1
281
     1
  3
ADSK_XREC_LAYER_RECONCILED
360
88C
  0
DICTIONARY
  5
88D
330
54
100
AcDbDictionary
280
     1
281
     1
  3
ADSK_XREC_LAYER_RECONCILED
360
88E
  0
DICTIONARY
  5
828
330
18
100
AcDbDictionary
281
     1
  3
ACAD_LAYOUTSELFREF
350
829
  0
DICTIONARY
  5
826
330
15
100
AcDbDictionary
281
     1
  3
ACAD_LAYOUTSELFREF
350
827
  0
XRECORD
  5
87E
102
{ACAD_REACTORS
330
C
102
}
330
C
100
AcDbXrecord
280
     1
300
ACDLT
300
2014
300
ACDLT_F_S
  0
DICTIONARY
  5
861
102
{ACAD_REACTORS
330
C
102
}
330
C
100
AcDbDictionary
281
     1
  0
DICTIONARY
  5
87A
102
{ACAD_REACTORS
330
C
102
}
330
C
100
AcDbDictionary
281
     1
  3
Imperial24
350
87B
  0
DICTIONARY
  5
D
102
{ACAD_REACTORS
330
C
102
}
330
C
100
AcDbDictionary
281
     1
  0
DICTIONARY
  5
94
102
{ACAD_REACTORS
330
C
102
}
330
C
100
AcDbDictionary
281
     1
  3
Model
350
87C
  3
レイアウト1
350
87D
  0
DICTIONARY
  5
82F
102
{ACAD_REACTORS
330
C
102
}
330
C
100
AcDbDictionary
281
     1
  3
ByBlock
350
838
  3
ByLayer
350
830
  3
Global
350
840
  0
DICTIONARY
  5
876
102
{ACAD_REACTORS
330
C
102
}
330
C
100
AcDbDictionary
281
     1
  3
Standard
350
877
  0
DICTIONARY
  5
1B
102
{ACAD_REACTORS
330
C
102
}
330
C
100
AcDbDictionary
281
     1
  3
STANDARD
350
1C
  0
DICTIONARY
  5
95
102
{ACAD_REACTORS
330
C
102
}
330
C
100
AcDbDictionary
281
     1
  0
ACDBDICTIONARYWDFLT
  5
82D
102
{ACAD_REACTORS
330
C
102
}
330
C
100
AcDbDictionary
281
     1
  3
Normal
350
82E
100
AcDbDictionaryWithDefault
340
82E
  0
DICTIONARY
  5
864
102
{ACAD_REACTORS
330
C
102
}
330
C
100
AcDbDictionary
281
     1
  3
A0
350
865
  3
A1
350
866
  3
A2
350
867
  3
A3
350
868
  3
A4
350
869
  3
A5
350
86A
  3
A6
350
86B
  3
A7
350
86C
  3
A8
350
86D
  3
A9
350
86E
  3
B0
350
86F
  3
B1
350
870
  3
B2
350
871
  3
B3
350
872
  3
B4
350
873
  3
B5
350
874
  3
B6
350
875
  0
DICTIONARY
  5
878
102
{ACAD_REACTORS
330
C
102
}
330
C
100
AcDbDictionary
281
     1
  3
Imperial24
350
879
  0
DICTIONARY
  5
862
102
{ACAD_REACTORS
330
C
102
}
330
C
100
AcDbDictionary
281
     1
  3
Standard
350
863
  0
DICTIONARY
  5
848
102
{ACAD_REACTORS
330
C
102
}
330
C
100
AcDbDictionary
281
     1
  3
2dWireframe
350
84E
  3
Basic
350
84D
  3
Brighten
350
854
  3
ColorChange
350
858
  3
Conceptual
350
851
  3
Dim
350
853
  3
EdgeColorOff
350
860
  3
Facepattern
350
857
  3
Flat
350
849
  3
FlatWithEdges
350
84A
  3
Gouraud
350
84B
  3
GouraudWithEdges
350
84C
  3
Hidden
350
850
  3
JitterOff
350
85E
  3
Linepattern
350
856
  3
OverhangOff
350
85F
  3
Realistic
350
852
  3
Shaded
350
85D
  3
Shaded with edges
350
85C
  3
Shades of Gray
350
859
  3
Sketchy
350
85A
  3
Thicken
350
855
  3
Wireframe
350
84F
  3
X-Ray
350
85B
  0
XRECORD
  5
89C
102
{ACAD_REACTORS
330
C
102
}
330
C
100
AcDbXrecord
280
     1
 90
        1
330
863
  0
DICTIONARY
  5
88F
102
{ACAD_REACTORS
330
C
102
}
330
C
100
AcDbDictionary
281
     1
  3
CANNOSCALE
350
894
  3
CMLEADERSTYLE
350
891
  3
CTABLESTYLE
350
890
  3
CVIEWDETAILSTYLE
350
892
  3
CVIEWSECTIONSTYLE
350
893
  3
DIMASSOC
350
897
  3
INDEXCTL
350
896
  3
SORTENTS
350
895
  3
XCLIPFRAME
350
898
  0
DICTIONARY
  5
3D
102
{ACAD_REACTORS
330
C
102
}
330
C
100
AcDbDictionary
281
     1
  0
XRECORD
  5
89D
102
{ACAD_REACTORS
330
C
102
}
330
C
100
AcDbXrecord
280
     1
  1
DWGPROPS COOKIE
  2

  3

  4

  6

  7

  8
Yoshitsune
  9

300
=
301
=
302
=
303
=
304
=
305
=
306
=
307
=
308
=
309
=
 40
0.013691099537037
 41
2454875.544545834
 42
2457192.686716574
  1

 90
        0
  0
XRECORD
  5
880
102
{ACAD_REACTORS
330
87F
102
}
330
87F
100
AcDbXrecord
280
     1
290
     1
  0
XRECORD
  5
882
102
{ACAD_REACTORS
330
881
102
}
330
881
100
AcDbXrecord
280
     1
290
     1
  0
XRECORD
  5
884
102
{ACAD_REACTORS
330
883
102
}
330
883
100
AcDbXrecord
280
     1
290
     1
  0
XRECORD
  5
886
102
{ACAD_REACTORS
330
885
102
}
330
885
100
AcDbXrecord
280
     1
290
     1
  0
XRECORD
  5
888
102
{ACAD_REACTORS
330
887
102
}
330
887
100
AcDbXrecord
280
     1
290
     1
  0
XRECORD
  5
88A
102
{ACAD_REACTORS
330
889
102
}
330
889
100
AcDbXrecord
280
     1
290
     1
  0
XRECORD
  5
88C
102
{ACAD_REACTORS
330
88B
102
}
330
88B
100
AcDbXrecord
280
     1
290
     1
  0
XRECORD
  5
88E
102
{ACAD_REACTORS
330
88D
102
}
330
88D
100
AcDbXrecord
280
     1
290
     1
  0
XRECORD
  5
829
102
{ACAD_REACTORS
330
828
102
}
330
828
100
AcDbXrecord
280
     1
340
18
  0
XRECORD
  5
827
102
{ACAD_REACTORS
330
826
102
}
330
826
100
AcDbXrecord
280
     1
340
15
  0
ACDBDETAILVIEWSTYLE
  5
87B
102
{ACAD_XDICTIONARY
360
8D5
102
}
102
{ACAD_REACTORS
330
87A
102
}
330
87A
100
AcDbModelDocViewStyle
 70
     0
  3
Imperial24
290
     0
100
AcDbDetailViewStyle
 70
     0
 71
     0
 90
        3
 71
     1
340
F
 40
0.24
340
0
 40
0.24
300

 40
0.36
280
     3
 71
     2
340
14
 90
       25
 71
     3
340
F
 40
0.24
 90
        1
 40
0.75
 90
        1
300
%<\AcVar ViewType \f "%tc1">% %<\AcVar ViewDetailId>%\PSCALE %<\AcVar ViewScale \f "%sn">%
 71
     4
340
14
 90
       25
340
14
 90
       25
280
     0
  0
LAYOUT
  5
87C
102
{ACAD_XDICTIONARY
360
8D7
102
}
102
{ACAD_REACTORS
330
94
102
}
330
94
100
AcDbPlotSettings
  1

  2
Canon LBP9100C
  4

  6

 40
0.0
 41
0.0
 42
0.0
 43
0.0
 44
0.0
 45
0.0
 46
0.0
 47
0.0
 48
0.0
 49
0.0
140
0.0
141
0.0
142
1.0
143
1.0
 70
  1712
 72
     0
 73
     0
 74
     0
  7

 75
     0
147
1.0
148
0.0
149
0.0
100
AcDbLayout
  1
Model
 70
     1
 71
     0
 10
0.0
 20
0.0
 11
12.0
 21
9.0
 12
0.0
 22
0.0
 32
0.0
 14
0.0
 24
0.0
 34
0.0
 15
0.0
 25
0.0
 35
0.0
146
0.0
 13
0.0
 23
0.0
 33
0.0
 16
1.0
 26
0.0
 36
0.0
 17
0.0
 27
1.0
 37
0.0
 76
     0
330
18
331
825
  0
LAYOUT
  5
87D
102
{ACAD_XDICTIONARY
360
8D9
102
}
102
{ACAD_REACTORS
330
94
102
}
330
94
100
AcDbPlotSettings
  1

  2
Canon LBP9100C
  4

  6

 40
0.0
 41
0.0
 42
0.0
 43
0.0
 44
0.0
 45
0.0
 46
0.0
 47
0.0
 48
0.0
 49
0.0
140
0.0
141
0.0
142
1.0
143
1.0
 70
   688
 72
     0
 73
     0
 74
     5
  7

 75
    16
147
1.0
148
0.0
149
0.0
100
AcDbLayout
  1
レイアウト1
 70
     1
 71
     1
 10
0.0
 20
0.0
 11
420.0
 21
297.0
 12
0.0
 22
0.0
 32
0.0
 14
1.000000000000000E+20
 24
1.000000000000000E+20
 34
1.000000000000000E+20
 15
-1.000000000000000E+20
 25
-1.000000000000000E+20
 35
-1.000000000000000E+20
146
0.0
 13
0.0
 23
0.0
 33
0.0
 16
1.0
 26
0.0
 36
0.0
 17
0.0
 27
1.0
 37
0.0
 76
     0
330
15
  0
MATERIAL
  5
838
102
{ACAD_XDICTIONARY
360
839
102
}
102
{ACAD_REACTORS
330
82F
102
}
330
82F
100
AcDbMaterial
  1
ByBlock
 72
     0
 43
0.0208333333333333
 43
0.0
 43
0.0
 43
0.0
 43
0.0
 43
0.0208333333333333
 43
0.0
 43
0.0
 43
0.0
 43
0.0
 43
1.0
 43
0.0
 43
0.0
 43
0.0
 43
0.0
 43
1.0
 77
     0
 47
0.0208333333333333
 47
0.0
 47
0.0
 47
0.0
 47
0.0
 47
0.0208333333333333
 47
0.0
 47
0.0
 47
0.0
 47
0.0
 47
1.0
 47
0.0
 47
0.0
 47
0.0
 47
0.0
 47
1.0
171
     0
 49
0.0208333333333333
 49
0.0
 49
0.0
 49
0.0
 49
0.0
 49
0.0208333333333333
 49
0.0
 49
0.0
 49
0.0
 49
0.0
 49
1.0
 49
0.0
 49
0.0
 49
0.0
 49
0.0
 49
1.0
175
     0
142
0.0208333333333333
142
0.0
142
0.0
142
0.0
142
0.0
142
0.0208333333333333
142
0.0
142
0.0
142
0.0
142
0.0
142
1.0
142
0.0
142
0.0
142
0.0
142
0.0
142
1.0
179
     0
144
0.0208333333333333
144
0.0
144
0.0
144
0.0
144
0.0
144
0.0208333333333333
144
0.0
144
0.0
144
0.0
144
0.0
144
1.0
144
0.0
144
0.0
144
0.0
144
0.0
144
1.0
147
0.0208333333333333
147
0.0
147
0.0
147
0.0
147
0.0
147
0.0208333333333333
147
0.0
147
0.0
147
0.0
147
0.0
147
1.0
147
0.0
147
0.0
147
0.0
147
0.0
147
1.0
  0
MATERIAL
  5
830
102
{ACAD_XDICTIONARY
360
831
102
}
102
{ACAD_REACTORS
330
82F
102
}
330
82F
100
AcDbMaterial
  1
ByLayer
 72
     0
 43
0.0208333333333333
 43
0.0
 43
0.0
 43
0.0
 43
0.0
 43
0.0208333333333333
 43
0.0
 43
0.0
 43
0.0
 43
0.0
 43
1.0
 43
0.0
 43
0.0
 43
0.0
 43
0.0
 43
1.0
 77
     0
 47
0.0208333333333333
 47
0.0
 47
0.0
 47
0.0
 47
0.0
 47
0.0208333333333333
 47
0.0
 47
0.0
 47
0.0
 47
0.0
 47
1.0
 47
0.0
 47
0.0
 47
0.0
 47
0.0
 47
1.0
171
     0
 49
0.0208333333333333
 49
0.0
 49
0.0
 49
0.0
 49
0.0
 49
0.0208333333333333
 49
0.0
 49
0.0
 49
0.0
 49
0.0
 49
1.0
 49
0.0
 49
0.0
 49
0.0
 49
0.0
 49
1.0
175
     0
142
0.0208333333333333
142
0.0
142
0.0
142
0.0
142
0.0
142
0.0208333333333333
142
0.0
142
0.0
142
0.0
142
0.0
142
1.0
142
0.0
142
0.0
142
0.0
142
0.0
142
1.0
179
     0
144
0.0208333333333333
144
0.0
144
0.0
144
0.0
144
0.0
144
0.0208333333333333
144
0.0
144
0.0
144
0.0
144
0.0
144
1.0
144
0.0
144
0.0
144
0.0
144
0.0
144
1.0
147
0.0208333333333333
147
0.0
147
0.0
147
0.0
147
0.0
147
0.0208333333333333
147
0.0
147
0.0
147
0.0
147
0.0
147
1.0
147
0.0
147
0.0
147
0.0
147
0.0
147
1.0
  0
MATERIAL
  5
840
102
{ACAD_XDICTIONARY
360
841
102
}
102
{ACAD_REACTORS
330
82F
102
}
330
82F
100
AcDbMaterial
  1
Global
 72
     0
 43
0.0208333333333333
 43
0.0
 43
0.0
 43
0.0
 43
0.0
 43
0.0208333333333333
 43
0.0
 43
0.0
 43
0.0
 43
0.0
 43
1.0
 43
0.0
 43
0.0
 43
0.0
 43
0.0
 43
1.0
 77
     0
 47
0.0208333333333333
 47
0.0
 47
0.0
 47
0.0
 47
0.0
 47
0.0208333333333333
 47
0.0
 47
0.0
 47
0.0
 47
0.0
 47
1.0
 47
0.0
 47
0.0
 47
0.0
 47
0.0
 47
1.0
171
     0
 49
0.0208333333333333
 49
0.0
 49
0.0
 49
0.0
 49
0.0
 49
0.0208333333333333
 49
0.0
 49
0.0
 49
0.0
 49
0.0
 49
1.0
 49
0.0
 49
0.0
 49
0.0
 49
0.0
 49
1.0
175
     0
142
0.0208333333333333
142
0.0
142
0.0
142
0.0
142
0.0
142
0.0208333333333333
142
0.0
142
0.0
142
0.0
142
0.0
142
1.0
142
0.0
142
0.0
142
0.0
142
0.0
142
1.0
179
     0
144
0.0208333333333333
144
0.0
144
0.0
144
0.0
144
0.0
144
0.0208333333333333
144
0.0
144
0.0
144
0.0
144
0.0
144
1.0
144
0.0
144
0.0
144
0.0
144
0.0
144
1.0
147
0.0208333333333333
147
0.0
147
0.0
147
0.0
147
0.0
147
0.0208333333333333
147
0.0
147
0.0
147
0.0
147
0.0
147
1.0
147
0.0
147
0.0
147
0.0
147
0.0
147
1.0
  0
MLEADERSTYLE
  5
877
102
{ACAD_REACTORS
330
876
102
}
330
876
100
AcDbMLeaderStyle
170
     2
171
     1
172
     0
 90
        2
 40
0.0
 41
0.0
173
     1
 91
-1056964608
340
12
 92
       -2
290
     1
 42
0.09
291
     1
 43
0.36
  3
Standard
 44
0.18
300

342
F
174
     1
178
     6
175
     1
176
     0
 93
-1056964608
 45
0.18
292
     0
297
     0
 46
0.18
 94
-1056964608
 47
1.0
 49
1.0
140
1.0
293
     1
141
0.0
294
     1
177
     0
142
1.0
295
     0
296
     0
143
0.125
1001
ACAD_MLEADERVER
1070
     2
  0
MLINESTYLE
  5
1C
102
{ACAD_REACTORS
330
1B
102
}
330
1B
100
AcDbMlineStyle
  2
STANDARD
 70
     0
  3

 62
   256
 51
90.0
 52
90.0
 71
     2
 49
0.5
 62
   256
  6
BYLAYER
 49
-0.5
 62
   256
  6
BYLAYER
  0
ACDBPLACEHOLDER
  5
82E
102
{ACAD_REACTORS
330
82D
102
}
330
82D
  0
SCALE
  5
865
102
{ACAD_REACTORS
330
864
102
}
330
864
100
AcDbScale
 70
     0
300
1:1
140
1.0
141
1.0
290
     1
  0
SCALE
  5
866
102
{ACAD_REACTORS
330
864
102
}
330
864
100
AcDbScale
 70
     0
300
1/128" = 1'-0"
140
0.0078125
141
12.0
290
     0
  0
SCALE
  5
867
102
{ACAD_REACTORS
330
864
102
}
330
864
100
AcDbScale
 70
     0
300
1/64" = 1'-0"
140
0.015625
141
12.0
290
     0
  0
SCALE
  5
868
102
{ACAD_REACTORS
330
864
102
}
330
864
100
AcDbScale
 70
     0
300
1/32" = 1'-0"
140
0.03125
141
12.0
290
     0
  0
SCALE
  5
869
102
{ACAD_REACTORS
330
864
102
}
330
864
100
AcDbScale
 70
     0
300
1/16" = 1'-0"
140
0.0625
141
12.0
290
     0
  0
SCALE
  5
86A
102
{ACAD_REACTORS
330
864
102
}
330
864
100
AcDbScale
 70
     0
300
3/32" = 1'-0"
140
0.09375
141
12.0
290
     0
  0
SCALE
  5
86B
102
{ACAD_REACTORS
330
864
102
}
330
864
100
AcDbScale
 70
     0
300
1/8" = 1'-0"
140
0.125
141
12.0
290
     0
  0
SCALE
  5
86C
102
{ACAD_REACTORS
330
864
102
}
330
864
100
AcDbScale
 70
     0
300
3/16" = 1'-0"
140
0.1875
141
12.0
290
     0
  0
SCALE
  5
86D
102
{ACAD_REACTORS
330
864
102
}
330
864
100
AcDbScale
 70
     0
300
1/4" = 1'-0"
140
0.25
141
12.0
290
     0
  0
SCALE
  5
86E
102
{ACAD_REACTORS
330
864
102
}
330
864
100
AcDbScale
 70
     0
300
3/8" = 1'-0"
140
0.375
141
12.0
290
     0
  0
SCALE
  5
86F
102
{ACAD_REACTORS
330
864
102
}
330
864
100
AcDbScale
 70
     0
300
1/2" = 1'-0"
140
0.5
141
12.0
290
     0
  0
SCALE
  5
870
102
{ACAD_REACTORS
330
864
102
}
330
864
100
AcDbScale
 70
     0
300
3/4" = 1'-0"
140
0.75
141
12.0
290
     0
  0
SCALE
  5
871
102
{ACAD_REACTORS
330
864
102
}
330
864
100
AcDbScale
 70
     0
300
1" = 1'-0"
140
1.0
141
12.0
290
     0
  0
SCALE
  5
872
102
{ACAD_REACTORS
330
864
102
}
330
864
100
AcDbScale
 70
     0
300
1-1/2" = 1'-0"
140
1.5
141
12.0
290
     0
  0
SCALE
  5
873
102
{ACAD_REACTORS
330
864
102
}
330
864
100
AcDbScale
 70
     0
300
3" = 1'-0"
140
3.0
141
12.0
290
     0
  0
SCALE
  5
874
102
{ACAD_REACTORS
330
864
102
}
330
864
100
AcDbScale
 70
     0
300
6" = 1'-0"
140
6.0
141
12.0
290
     0
  0
SCALE
  5
875
102
{ACAD_REACTORS
330
864
102
}
330
864
100
AcDbScale
 70
     0
300
1'-0" = 1'-0"
140
12.0
141
12.0
290
     0
  0
ACDBSECTIONVIEWSTYLE
  5
879
102
{ACAD_XDICTIONARY
360
8D3
102
}
102
{ACAD_REACTORS
330
878
102
}
330
878
100
AcDbModelDocViewStyle
 70
     0
  3
Imperial24
290
     0
100
AcDbSectionViewStyle
 70
     0
 71
     0
 90
       78
 71
     1
340
F
 40
0.24
340
0
340
0
 40
0.24
300
I, O, Q, S, X, Z
 40
0.48
 90
        3
 40
0.18
 90
        1
 71
     2
340
14
 90
       25
340
14
 90
       50
 40
0.24
 40
0.0
 40
0.24
 71
     3
340
F
 40
0.24
 90
        1
 40
0.75
 90
        1
300
%<\AcVar ViewType \f "%tc1">% %<\AcVar ViewSectionStartId>%-%<\AcVar ViewSectionEndId>%\PSCALE %<\AcVar ViewScale \f "%sn">%
 71
     4
300
ANSI31
 40
1.0
 90
        0
290
     0
290
     0
 90
        6
 40
0.0
 40
1.570796326794896
 40
0.2617993877991494
 40
1.308996938995747
 40
-0.2617993877991494
 40
1.832595714594046
  0
TABLESTYLE
  5
863
102
{ACAD_XDICTIONARY
360
89A
102
}
102
{ACAD_REACTORS
330
862
102
}
330
862
100
AcDbTableStyle
  3
Standard
 70
     0
 71
     0
 40
0.06
 41
0.06
280
     0
281
     0
  7
STANDARD
140
0.18
170
     2
 62
     0
 63
     7
283
     0
274
    -2
284
     1
 64
     0
275
    -2
285
     1
 65
     0
276
    -2
286
     1
 66
     0
277
    -2
287
     1
 67
     0
278
    -2
288
     1
 68
     0
279
    -2
289
     1
 69
     0
  7
STANDARD
140
0.25
170
     5
 62
     0
 63
     7
283
     0
274
    -2
284
     1
 64
     0
275
    -2
285
     1
 65
     0
276
    -2
286
     1
 66
     0
277
    -2
287
     1
 67
     0
278
    -2
288
     1
 68
     0
279
    -2
289
     1
 69
     0
  7
STANDARD
140
0.18
170
     5
 62
     0
 63
     7
283
     0
274
    -2
284
     1
 64
     0
275
    -2
285
     1
 65
     0
276
    -2
286
     1
 66
     0
277
    -2
287
     1
 67
     0
278
    -2
288
     1
 68
     0
279
    -2
289
     1
 69
     0
  0
VISUALSTYLE
  5
84E
102
{ACAD_XDICTIONARY
360
8AB
102
}
102
{ACAD_REACTORS
330
848
102
}
330
848
100
AcDbVisualStyle
  2
2dWireframe
 70
     4
 71
     0
 72
     2
 73
     0
 90
        0
 40
-0.6
 41
-30.0
 62
     5
 63
     7
 74
     1
 91
        4
 64
     7
 65
   257
 75
     1
175
     1
 42
1.0
 92
        0
 66
   257
 43
1.0
 76
     1
 77
     6
 78
     2
 67
     7
 79
     5
170
     0
171
     0
290
     0
174
     0
 93
        1
 44
0.0
173
     0
291
     0
 45
0.0
1001
ACAD
1000
AcDbSavedByObjectVersion
1070
     0
  0
VISUALSTYLE
  5
84D
102
{ACAD_XDICTIONARY
360
8A9
102
}
102
{ACAD_REACTORS
330
848
102
}
330
848
100
AcDbVisualStyle
  2
Basic
 70
     7
 71
     1
 72
     0
 73
     1
 90
        0
 40
-0.6
 41
-30.0
 62
     5
 63
     7
 74
     0
 91
        4
 64
     7
 65
   257
 75
     1
175
     1
 42
1.0
 92
        8
 66
     7
 43
1.0
 76
     1
 77
     6
 78
     2
 67
     7
 79
     5
170
     0
171
     0
290
     0
174
     0
 93
        1
 44
0.0
173
     0
291
     1
 45
0.0
1001
ACAD
1000
AcDbSavedByObjectVersion
1070
     0
  0
VISUALSTYLE
  5
854
102
{ACAD_XDICTIONARY
360
8B7
102
}
102
{ACAD_REACTORS
330
848
102
}
330
848
100
AcDbVisualStyle
  2
Brighten
 70
    12
 71
     2
 72
     2
 73
     0
 90
        0
 40
-0.6
 41
-30.0
 62
     5
 63
     7
 74
     1
 91
        4
 64
     7
 65
   257
 75
     1
175
     1
 42
1.0
 92
        8
 66
     7
 43
1.0
 76
     1
 77
     6
 78
     2
 67
     7
 79
     5
170
     0
171
     0
290
     0
174
     0
 93
        1
 44
50.0
173
     0
291
     1
 45
0.0
1001
ACAD
1000
AcDbSavedByObjectVersion
1070
     0
  0
VISUALSTYLE
  5
858
102
{ACAD_XDICTIONARY
360
8BF
102
}
102
{ACAD_REACTORS
330
848
102
}
330
848
100
AcDbVisualStyle
  2
ColorChange
 70
    16
 71
     2
 72
     2
 73
     3
 90
        0
 40
-0.6
 41
-30.0
 62
     5
 63
     8
 74
     1
 91
        4
 64
     7
 65
   257
 75
     1
175
     1
 42
1.0
 92
        8
 66
     8
 43
1.0
 76
     1
 77
     6
 78
     2
 67
     7
 79
     5
170
     0
171
     0
290
     0
174
     0
 93
        1
 44
0.0
173
     0
291
     1
 45
0.0
1001
ACAD
1000
AcDbSavedByObjectVersion
1070
     0
  0
VISUALSTYLE
  5
851
102
{ACAD_XDICTIONARY
360
8B1
102
}
102
{ACAD_REACTORS
330
848
102
}
330
848
100
AcDbVisualStyle
  2
Conceptual
 70
     9
 71
     3
 72
     2
 73
     0
 90
        0
 40
-0.6
 41
-30.0
 62
     5
 63
     7
 74
     2
 91
        2
 64
     7
 65
   257
 75
     1
175
     1
 42
179.0
 92
        8
 66
     7
 43
1.0
 76
     1
 77
     6
 78
     2
 67
     7
 79
     3
170
     0
171
     0
290
     0
174
     0
 93
        1
 44
0.0
173
     0
291
     0
 45
0.0
1001
ACAD
1000
AcDbSavedByObjectVersion
1070
     0
  0
VISUALSTYLE
  5
853
102
{ACAD_XDICTIONARY
360
8B5
102
}
102
{ACAD_REACTORS
330
848
102
}
330
848
100
AcDbVisualStyle
  2
Dim
 70
    11
 71
     2
 72
     2
 73
     0
 90
        0
 40
-0.6
 41
-30.0
 62
     5
 63
     7
 74
     1
 91
        4
 64
     7
 65
   257
 75
     1
175
     1
 42
1.0
 92
        8
 66
     7
 43
1.0
 76
     1
 77
     6
 78
     2
 67
     7
 79
     5
170
     0
171
     0
290
     0
174
     0
 93
        1
 44
-50.0
173
     0
291
     1
 45
0.0
1001
ACAD
1000
AcDbSavedByObjectVersion
1070
     0
  0
VISUALSTYLE
  5
860
102
{ACAD_XDICTIONARY
360
8CF
102
}
102
{ACAD_REACTORS
330
848
102
}
330
848
100
AcDbVisualStyle
  2
EdgeColorOff
 70
    22
 71
     2
 72
     2
 73
     0
 90
        0
 40
-0.6
 41
-30.0
 62
     5
 63
     7
 74
     1
 91
        4
 64
     7
 65
   257
 75
     1
175
     1
 42
1.0
 92
        8
 66
     7
 43
1.0
 76
     1
 77
     6
 78
     2
 67
     7
 79
     5
170
     0
171
     0
290
     0
174
     0
 93
        1
 44
0.0
173
     0
291
     1
 45
0.0
1001
ACAD
1000
AcDbSavedByObjectVersion
1070
     0
  0
VISUALSTYLE
  5
857
102
{ACAD_XDICTIONARY
360
8BD
102
}
102
{ACAD_REACTORS
330
848
102
}
330
848
100
AcDbVisualStyle
  2
Facepattern
 70
    15
 71
     2
 72
     2
 73
     0
 90
        0
 40
-0.6
 41
-30.0
 62
     5
 63
     7
 74
     1
 91
        4
 64
     7
 65
   257
 75
     1
175
     1
 42
1.0
 92
        8
 66
     7
 43
1.0
 76
     1
 77
     6
 78
     2
 67
     7
 79
     5
170
     0
171
     0
290
     0
174
     0
 93
        1
 44
0.0
173
     0
291
     1
 45
0.0
1001
ACAD
1000
AcDbSavedByObjectVersion
1070
     0
  0
VISUALSTYLE
  5
849
102
{ACAD_XDICTIONARY
360
8A1
102
}
102
{ACAD_REACTORS
330
848
102
}
330
848
100
AcDbVisualStyle
  2
Flat
 70
     0
 71
     2
 72
     1
 73
     1
 90
        2
 40
-0.6
 41
30.0
 62
     5
 63
     7
 74
     0
 91
        0
 64
     7
 65
   257
 75
     1
175
     1
 42
1.0
 92
        8
 66
     7
 43
1.0
 76
     1
 77
     6
 78
     2
 67
     7
 79
     5
170
     0
171
     0
290
     0
174
     0
 93
       13
 44
0.0
173
     0
291
     1
 45
0.0
1001
ACAD
1000
AcDbSavedByObjectVersion
1070
     0
  0
VISUALSTYLE
  5
84A
102
{ACAD_XDICTIONARY
360
8A3
102
}
102
{ACAD_REACTORS
330
848
102
}
330
848
100
AcDbVisualStyle
  2
FlatWithEdges
 70
     1
 71
     2
 72
     1
 73
     1
 90
        2
 40
-0.6
 41
30.0
 62
     5
 63
     7
 74
     1
 91
        0
 64
     7
 65
   257
 75
     1
175
     1
 42
1.0
 92
        0
 66
   257
 43
1.0
 76
     1
 77
     6
 78
     2
 67
     7
 79
     5
170
     0
171
     0
290
     0
174
     0
 93
       13
 44
0.0
173
     0
291
     1
 45
0.0
1001
ACAD
1000
AcDbSavedByObjectVersion
1070
     0
  0
VISUALSTYLE
  5
84B
102
{ACAD_XDICTIONARY
360
8A5
102
}
102
{ACAD_REACTORS
330
848
102
}
330
848
100
AcDbVisualStyle
  2
Gouraud
 70
     2
 71
     2
 72
     2
 73
     1
 90
        2
 40
-0.6
 41
30.0
 62
     5
 63
     7
 74
     0
 91
        0
 64
     7
 65
   257
 75
     1
175
     1
 42
1.0
 92
        0
 66
     7
 43
1.0
 76
     1
 77
     6
 78
     2
 67
     7
 79
     5
170
     0
171
     0
290
     0
174
     0
 93
       13
 44
0.0
173
     0
291
     1
 45
0.0
1001
ACAD
1000
AcDbSavedByObjectVersion
1070
     0
  0
VISUALSTYLE
  5
84C
102
{ACAD_XDICTIONARY
360
8A7
102
}
102
{ACAD_REACTORS
330
848
102
}
330
848
100
AcDbVisualStyle
  2
GouraudWithEdges
 70
     3
 71
     2
 72
     2
 73
     1
 90
        2
 40
-0.6
 41
30.0
 62
     5
 63
     7
 74
     1
 91
        0
 64
     7
 65
   257
 75
     1
175
     1
 42
1.0
 92
        0
 66
   257
 43
1.0
 76
     1
 77
     6
 78
     2
 67
     7
 79
     5
170
     0
171
     0
290
     0
174
     0
 93
       13
 44
0.0
173
     0
291
     1
 45
0.0
1001
ACAD
1000
AcDbSavedByObjectVersion
1070
     0
  0
VISUALSTYLE
  5
850
102
{ACAD_XDICTIONARY
360
8AF
102
}
102
{ACAD_REACTORS
330
848
102
}
330
848
100
AcDbVisualStyle
  2
Hidden
 70
     6
 71
     1
 72
     2
 73
     2
 90
        0
 40
-0.6
 41
-30.0
 62
     5
 63
     7
 74
     2
 91
        2
 64
     7
 65
   257
 75
     2
175
     1
 42
40.0
 92
        0
 66
   257
 43
1.0
 76
     1
 77
     6
 78
     2
 67
     7
 79
     3
170
     0
171
     0
290
     0
174
     0
 93
        1
 44
0.0
173
     0
291
     0
 45
0.0
1001
ACAD
1000
AcDbSavedByObjectVersion
1070
     0
  0
VISUALSTYLE
  5
85E
102
{ACAD_XDICTIONARY
360
8CB
102
}
102
{ACAD_REACTORS
330
848
102
}
330
848
100
AcDbVisualStyle
  2
JitterOff
 70
    20
 71
     2
 72
     2
 73
     0
 90
        0
 40
-0.6
 41
-30.0
 62
     5
 63
     7
 74
     1
 91
        4
 64
     7
 65
   257
 75
     1
175
     1
 42
1.0
 92
       10
 66
     7
 43
1.0
 76
     1
 77
     6
 78
     2
 67
     7
 79
     5
170
     0
171
     0
290
     0
174
     0
 93
        1
 44
0.0
173
     0
291
     1
 45
0.0
1001
ACAD
1000
AcDbSavedByObjectVersion
1070
     0
  0
VISUALSTYLE
  5
856
102
{ACAD_XDICTIONARY
360
8BB
102
}
102
{ACAD_REACTORS
330
848
102
}
330
848
100
AcDbVisualStyle
  2
Linepattern
 70
    14
 71
     2
 72
     2
 73
     0
 90
        0
 40
-0.6
 41
-30.0
 62
     5
 63
     7
 74
     1
 91
        4
 64
     7
 65
   257
 75
     7
175
     7
 42
1.0
 92
        8
 66
     7
 43
1.0
 76
     1
 77
     6
 78
     2
 67
     7
 79
     5
170
     0
171
     0
290
     0
174
     0
 93
        1
 44
0.0
173
     0
291
     1
 45
0.0
1001
ACAD
1000
AcDbSavedByObjectVersion
1070
     0
  0
VISUALSTYLE
  5
85F
102
{ACAD_XDICTIONARY
360
8CD
102
}
102
{ACAD_REACTORS
330
848
102
}
330
848
100
AcDbVisualStyle
  2
OverhangOff
 70
    21
 71
     2
 72
     2
 73
     0
 90
        0
 40
-0.6
 41
-30.0
 62
     5
 63
     7
 74
     1
 91
        4
 64
     7
 65
   257
 75
     1
175
     1
 42
1.0
 92
        9
 66
     7
 43
1.0
 76
     1
 77
     6
 78
     2
 67
     7
 79
     5
170
     0
171
     0
290
     0
174
     0
 93
        1
 44
0.0
173
     0
291
     1
 45
0.0
1001
ACAD
1000
AcDbSavedByObjectVersion
1070
     0
  0
VISUALSTYLE
  5
852
102
{ACAD_XDICTIONARY
360
8B3
102
}
102
{ACAD_REACTORS
330
848
102
}
330
848
100
AcDbVisualStyle
  2
Realistic
 70
     8
 71
     2
 72
     3
 73
     0
 90
        2
 40
-0.6
 41
30.0
 62
     5
 63
     7
 74
     0
 91
        0
 64
     7
 65
   257
 75
     1
175
     1
 42
1.0
 92
        8
 66
   257
 43
1.0
 76
     1
 77
     6
 78
     2
 67
     7
 79
     3
170
     0
171
     0
290
     0
174
     0
 93
       13
 44
0.0
173
     0
291
     0
 45
0.0
1001
ACAD
1000
AcDbSavedByObjectVersion
1070
     0
  0
VISUALSTYLE
  5
85D
102
{ACAD_XDICTIONARY
360
8C9
102
}
102
{ACAD_REACTORS
330
848
102
}
330
848
100
AcDbVisualStyle
  2
Shaded
 70
    27
 71
     2
 72
     2
 73
     1
 90
        2
 40
-0.6
 41
30.0
 62
     5
 63
     7
 74
     0
 91
        4
 64
     7
 65
   257
 75
     1
175
     1
 42
1.0
 92
        8
 66
   257
 43
1.0
 76
     1
 77
     6
 78
     2
 67
     8
 79
     3
170
     0
171
     0
290
     0
174
     0
 93
        5
 44
0.0
173
     0
291
     0
 45
0.0
1001
ACAD
1000
AcDbSavedByObjectVersion
1070
     0
  0
VISUALSTYLE
  5
85C
102
{ACAD_XDICTIONARY
360
8C7
102
}
102
{ACAD_REACTORS
330
848
102
}
330
848
100
AcDbVisualStyle
  2
Shaded with edges
 70
    26
 71
     2
 72
     2
 73
     1
 90
        2
 40
-0.6
 41
30.0
 62
     5
 63
     7
 74
     1
 91
       10
 64
     7
 65
   257
 75
     2
175
     1
 42
1.0
 92
        8
 66
   257
 43
1.0
 76
     1
 77
     6
 78
     2
 67
     7
 79
     3
170
     0
171
     0
290
     0
174
     0
 93
        5
 44
0.0
173
     0
291
     0
 45
0.0
1001
ACAD
1000
AcDbSavedByObjectVersion
1070
     0
  0
VISUALSTYLE
  5
859
102
{ACAD_XDICTIONARY
360
8C1
102
}
102
{ACAD_REACTORS
330
848
102
}
330
848
100
AcDbVisualStyle
  2
Shades of Gray
 70
    23
 71
     2
 72
     2
 73
     3
 90
        0
 40
-0.6
 41
-30.0
 62
     5
 63
     7
 74
     2
 91
        2
 64
     7
 65
     7
 75
     1
175
     1
 42
40.0
 92
        8
 66
     7
 43
1.0
 76
     1
 77
     6
 78
     2
 67
     7
 79
     3
170
     0
171
     0
290
     0
174
     0
 93
        1
 44
0.0
173
     0
291
     0
 45
0.0
1001
ACAD
1000
AcDbSavedByObjectVersion
1070
     0
  0
VISUALSTYLE
  5
85A
102
{ACAD_XDICTIONARY
360
8C3
102
}
102
{ACAD_REACTORS
330
848
102
}
330
848
100
AcDbVisualStyle
  2
Sketchy
 70
    24
 71
     1
 72
     2
 73
     2
 90
        0
 40
-0.6
 41
-30.0
 62
     5
 63
     7
 74
     2
 91
        2
 64
     7
 65
     7
 75
     1
175
     1
 42
40.0
 92
       11
 66
     7
 43
1.0
 76
     1
 77
     6
 78
     2
 67
     7
 79
     6
170
     0
171
     0
290
     0
174
     0
 93
        1
 44
0.0
173
     0
291
     0
 45
0.0
1001
ACAD
1000
AcDbSavedByObjectVersion
1070
     0
  0
VISUALSTYLE
  5
855
102
{ACAD_XDICTIONARY
360
8B9
102
}
102
{ACAD_REACTORS
330
848
102
}
330
848
100
AcDbVisualStyle
  2
Thicken
 70
    13
 71
     2
 72
     2
 73
     0
 90
        0
 40
-0.6
 41
-30.0
 62
     5
 63
     7
 74
     1
 91
        4
 64
     7
 65
   257
 75
     1
175
     1
 42
1.0
 92
       12
 66
     7
 43
1.0
 76
     1
 77
     6
 78
     2
 67
     7
 79
     5
170
     0
171
     0
290
     0
174
     0
 93
        1
 44
0.0
173
     0
291
     1
 45
0.0
1001
ACAD
1000
AcDbSavedByObjectVersion
1070
     0
  0
VISUALSTYLE
  5
84F
102
{ACAD_XDICTIONARY
360
8AD
102
}
102
{ACAD_REACTORS
330
848
102
}
330
848
100
AcDbVisualStyle
  2
Wireframe
 70
     5
 71
     0
 72
     2
 73
     0
 90
        0
 40
-0.6
 41
-30.0
 62
     5
 63
     7
 74
     1
 91
        4
 64
     7
 65
   257
 75
     1
175
     1
 42
1.0
 92
        0
 66
   257
 43
1.0
 76
     1
 77
     6
 78
     2
 67
     7
 79
     3
170
     0
171
     0
290
     0
174
     0
 93
        1
 44
0.0
173
     0
291
     0
 45
0.0
1001
ACAD
1000
AcDbSavedByObjectVersion
1070
     0
  0
VISUALSTYLE
  5
85B
102
{ACAD_XDICTIONARY
360
8C5
102
}
102
{ACAD_REACTORS
330
848
102
}
330
848
100
AcDbVisualStyle
  2
X-Ray
 70
    25
 71
     2
 72
     2
 73
     1
 90
        1
 40
0.5
 41
-30.0
 62
     5
 63
     7
 74
     1
 91
        0
 64
     7
 65
   257
 75
     1
175
     1
 42
1.0
 92
        8
 66
     7
 43
1.0
 76
     1
 77
     6
 78
     2
 67
     7
 79
     3
170
     0
171
     0
290
     0
174
     0
 93
       13
 44
0.0
173
     0
291
     0
 45
0.0
1001
ACAD
1000
AcDbSavedByObjectVersion
1070
     0
  0
DICTIONARYVAR
  5
894
102
{ACAD_REACTORS
330
88F
102
}
330
88F
100
DictionaryVariables
280
     0
  1
1:1
  0
DICTIONARYVAR
  5
891
102
{ACAD_REACTORS
330
88F
102
}
330
88F
100
DictionaryVariables
280
     0
  1
STANDARD
  0
DICTIONARYVAR
  5
890
102
{ACAD_REACTORS
330
88F
102
}
330
88F
100
DictionaryVariables
280
     0
  1
STANDARD
  0
DICTIONARYVAR
  5
892
102
{ACAD_REACTORS
330
88F
102
}
330
88F
100
DictionaryVariables
280
     0
  1
Imperial24
  0
DICTIONARYVAR
  5
893
102
{ACAD_REACTORS
330
88F
102
}
330
88F
100
DictionaryVariables
280
     0
  1
Imperial24
  0
DICTIONARYVAR
  5
897
102
{ACAD_REACTORS
330
88F
102
}
330
88F
100
DictionaryVariables
280
     0
  1
1
  0
DICTIONARYVAR
  5
896
102
{ACAD_REACTORS
330
88F
102
}
330
88F
100
DictionaryVariables
280
     0
  1
0
  0
DICTIONARYVAR
  5
895
102
{ACAD_REACTORS
330
88F
102
}
330
88F
100
DictionaryVariables
280
     0
  1
127
  0
DICTIONARYVAR
  5
898
102
{ACAD_REACTORS
330
88F
102
}
330
88F
100
DictionaryVariables
280
     0
  1
2
  0
DICTIONARY
  5
8D5
330
87B
100
AcDbDictionary
280
     1
281
     1
  3
ACAD_XREC_ROUNDTRIP
360
8D6
  0
DICTIONARY
  5
8D7
330
87C
100
AcDbDictionary
280
     1
281
     1
  3
ACAD_XREC_ROUNDTRIP
360
8D8
  0
DICTIONARY
  5
8D9
330
87D
100
AcDbDictionary
280
     1
281
     1
  3
ACAD_XREC_ROUNDTRIP
360
8DA
  0
DICTIONARY
  5
839
330
838
100
AcDbDictionary
280
     1
281
     1
  3
ACAD_XREC_ROUNDTRIP
360
89F
  3
BUMPTILE
360
83B
  3
DIFFUSETILE
360
83A
  3
OPACITYTILE
360
83E
  3
REFLECTIONTILE
360
83D
  3
REFRACTIONTILE
360
83F
  3
SPECULARTILE
360
83C
  0
DICTIONARY
  5
831
330
830
100
AcDbDictionary
280
     1
281
     1
  3
ACAD_XREC_ROUNDTRIP
360
89E
  3
BUMPTILE
360
833
  3
DIFFUSETILE
360
832
  3
OPACITYTILE
360
836
  3
REFLECTIONTILE
360
835
  3
REFRACTIONTILE
360
837
  3
SPECULARTILE
360
834
  0
DICTIONARY
  5
841
330
840
100
AcDbDictionary
280
     1
281
     1
  3
ACAD_XREC_ROUNDTRIP
360
8A0
  3
BUMPTILE
360
843
  3
DIFFUSETILE
360
842
  3
OPACITYTILE
360
846
  3
REFLECTIONTILE
360
845
  3
REFRACTIONTILE
360
847
  3
SPECULARTILE
360
844
  0
DICTIONARY
  5
8D3
330
879
100
AcDbDictionary
280
     1
281
     1
  3
ACAD_XREC_ROUNDTRIP
360
8D4
  0
DICTIONARY
  5
89A
330
863
100
AcDbDictionary
280
     1
281
     1
  3
ACAD_ROUNDTRIP_2008_TABLESTYLE_CELLSTYLEMAP
360
89B
  3
ACAD_XREC_ROUNDTRIP
360
8D1
  0
DICTIONARY
  5
8AB
330
84E
100
AcDbDictionary
280
     1
281
     1
  3
ACAD_XREC_ROUNDTRIP
360
8AC
  0
DICTIONARY
  5
8A9
330
84D
100
AcDbDictionary
280
     1
281
     1
  3
ACAD_XREC_ROUNDTRIP
360
8AA
  0
DICTIONARY
  5
8B7
330
854
100
AcDbDictionary
280
     1
281
     1
  3
ACAD_XREC_ROUNDTRIP
360
8B8
  0
DICTIONARY
  5
8BF
330
858
100
AcDbDictionary
280
     1
281
     1
  3
ACAD_XREC_ROUNDTRIP
360
8C0
  0
DICTIONARY
  5
8B1
330
851
100
AcDbDictionary
280
     1
281
     1
  3
ACAD_XREC_ROUNDTRIP
360
8B2
  0
DICTIONARY
  5
8B5
330
853
100
AcDbDictionary
280
     1
281
     1
  3
ACAD_XREC_ROUNDTRIP
360
8B6
  0
DICTIONARY
  5
8CF
330
860
100
AcDbDictionary
280
     1
281
     1
  3
ACAD_XREC_ROUNDTRIP
360
8D0
  0
DICTIONARY
  5
8BD
330
857
100
AcDbDictionary
280
     1
281
     1
  3
ACAD_XREC_ROUNDTRIP
360
8BE
  0
DICTIONARY
  5
8A1
330
849
100
AcDbDictionary
280
     1
281
     1
  3
ACAD_XREC_ROUNDTRIP
360
8A2
  0
DICTIONARY
  5
8A3
330
84A
100
AcDbDictionary
280
     1
281
     1
  3
ACAD_XREC_ROUNDTRIP
360
8A4
  0
DICTIONARY
  5
8A5
330
84B
100
AcDbDictionary
280
     1
281
     1
  3
ACAD_XREC_ROUNDTRIP
360
8A6
  0
DICTIONARY
  5
8A7
330
84C
100
AcDbDictionary
280
     1
281
     1
  3
ACAD_XREC_ROUNDTRIP
360
8A8
  0
DICTIONARY
  5
8AF
330
850
100
AcDbDictionary
280
     1
281
     1
  3
ACAD_XREC_ROUNDTRIP
360
8B0
  0
DICTIONARY
  5
8CB
330
85E
100
AcDbDictionary
280
     1
281
     1
  3
ACAD_XREC_ROUNDTRIP
360
8CC
  0
DICTIONARY
  5
8BB
330
856
100
AcDbDictionary
280
     1
281
     1
  3
ACAD_XREC_ROUNDTRIP
360
8BC
  0
DICTIONARY
  5
8CD
330
85F
100
AcDbDictionary
280
     1
281
     1
  3
ACAD_XREC_ROUNDTRIP
360
8CE
  0
DICTIONARY
  5
8B3
330
852
100
AcDbDictionary
280
     1
281
     1
  3
ACAD_XREC_ROUNDTRIP
360
8B4
  0
DICTIONARY
  5
8C9
330
85D
100
AcDbDictionary
280
     1
281
     1
  3
ACAD_XREC_ROUNDTRIP
360
8CA
  0
DICTIONARY
  5
8C7
330
85C
100
AcDbDictionary
280
     1
281
     1
  3
ACAD_XREC_ROUNDTRIP
360
8C8
  0
DICTIONARY
  5
8C1
330
859
100
AcDbDictionary
280
     1
281
     1
  3
ACAD_XREC_ROUNDTRIP
360
8C2
  0
DICTIONARY
  5
8C3
330
85A
100
AcDbDictionary
280
     1
281
     1
  3
ACAD_XREC_ROUNDTRIP
360
8C4
  0
DICTIONARY
  5
8B9
330
855
100
AcDbDictionary
280
     1
281
     1
  3
ACAD_XREC_ROUNDTRIP
360
8BA
  0
DICTIONARY
  5
8AD
330
84F
100
AcDbDictionary
280
     1
281
     1
  3
ACAD_XREC_ROUNDTRIP
360
8AE
  0
DICTIONARY
  5
8C5
330
85B
100
AcDbDictionary
280
     1
281
     1
  3
ACAD_XREC_ROUNDTRIP
360
8C6
  0
XRECORD
  5
8D6
102
{ACAD_REACTORS
330
8D5
102
}
330
8D5
100
AcDbXrecord
280
     1
102
DISPLAYNAME
  1
Imperial24
102
FLAGS
 90
        0
  0
XRECORD
  5
8D8
102
{ACAD_REACTORS
330
8D7
102
}
330
8D7
100
AcDbXrecord
280
     1
102
SHADEPLOT
 70
     0
102
SHADEPLOTRESLEVEL
 70
     2
102
SHADEPLOTCUSTOMDPI
 70
   300
  0
XRECORD
  5
8DA
102
{ACAD_REACTORS
330
8D9
102
}
330
8D9
100
AcDbXrecord
280
     1
102
SHADEPLOT
 70
     0
102
SHADEPLOTRESLEVEL
 70
     2
102
SHADEPLOTCUSTOMDPI
 70
   300
  0
XRECORD
  5
89F
102
{ACAD_REACTORS
330
839
102
}
330
839
100
AcDbXrecord
280
     1
102
MATERIAL
148
0.0
149
0.0
149
0.0
 93
        0
 94
      127
282
     0
 72
     0
 77
     0
171
     0
175
     0
179
     0
273
     0
  0
XRECORD
  5
83B
102
{ACAD_REACTORS
330
839
102
}
330
839
100
AcDbXrecord
280
     1
270
     1
271
     1
  0
XRECORD
  5
83A
102
{ACAD_REACTORS
330
839
102
}
330
839
100
AcDbXrecord
280
     1
270
     1
271
     1
  0
XRECORD
  5
83E
102
{ACAD_REACTORS
330
839
102
}
330
839
100
AcDbXrecord
280
     1
270
     1
271
     1
  0
XRECORD
  5
83D
102
{ACAD_REACTORS
330
839
102
}
330
839
100
AcDbXrecord
280
     1
270
     1
271
     1
  0
XRECORD
  5
83F
102
{ACAD_REACTORS
330
839
102
}
330
839
100
AcDbXrecord
280
     1
270
     1
271
     1
  0
XRECORD
  5
83C
102
{ACAD_REACTORS
330
839
102
}
330
839
100
AcDbXrecord
280
     1
270
     1
271
     1
  0
XRECORD
  5
89E
102
{ACAD_REACTORS
330
831
102
}
330
831
100
AcDbXrecord
280
     1
102
MATERIAL
148
0.0
149
0.0
149
0.0
 93
        0
 94
      127
282
     0
 72
     0
 77
     0
171
     0
175
     0
179
     0
273
     0
  0
XRECORD
  5
833
102
{ACAD_REACTORS
330
831
102
}
330
831
100
AcDbXrecord
280
     1
270
     1
271
     1
  0
XRECORD
  5
832
102
{ACAD_REACTORS
330
831
102
}
330
831
100
AcDbXrecord
280
     1
270
     1
271
     1
  0
XRECORD
  5
836
102
{ACAD_REACTORS
330
831
102
}
330
831
100
AcDbXrecord
280
     1
270
     1
271
     1
  0
XRECORD
  5
835
102
{ACAD_REACTORS
330
831
102
}
330
831
100
AcDbXrecord
280
     1
270
     1
271
     1
  0
XRECORD
  5
837
102
{ACAD_REACTORS
330
831
102
}
330
831
100
AcDbXrecord
280
     1
270
     1
271
     1
  0
XRECORD
  5
834
102
{ACAD_REACTORS
330
831
102
}
330
831
100
AcDbXrecord
280
     1
270
     1
271
     1
  0
XRECORD
  5
8A0
102
{ACAD_REACTORS
330
841
102
}
330
841
100
AcDbXrecord
280
     1
102
MATERIAL
148
0.0
149
0.0
149
0.0
 93
        0
 94
      127
282
     0
 72
     0
 77
     0
171
     0
175
     0
179
     0
273
     0
  0
XRECORD
  5
843
102
{ACAD_REACTORS
330
841
102
}
330
841
100
AcDbXrecord
280
     1
270
     1
271
     1
  0
XRECORD
  5
842
102
{ACAD_REACTORS
330
841
102
}
330
841
100
AcDbXrecord
280
     1
270
     1
271
     1
  0
XRECORD
  5
846
102
{ACAD_REACTORS
330
841
102
}
330
841
100
AcDbXrecord
280
     1
270
     1
271
     1
  0
XRECORD
  5
845
102
{ACAD_REACTORS
330
841
102
}
330
841
100
AcDbXrecord
280
     1
270
     1
271
     1
  0
XRECORD
  5
847
102
{ACAD_REACTORS
330
841
102
}
330
841
100
AcDbXrecord
280
     1
270
     1
271
     1
  0
XRECORD
  5
844
102
{ACAD_REACTORS
330
841
102
}
330
841
100
AcDbXrecord
280
     1
270
     1
271
     1
  0
XRECORD
  5
8D4
102
{ACAD_REACTORS
330
8D3
102
}
330
8D3
100
AcDbXrecord
280
     1
102
DISPLAYNAME
  1
Imperial24
102
FLAGS
 90
        0
  0
CELLSTYLEMAP
  5
89B
102
{ACAD_REACTORS
330
89A
102
}
330
89A
100
AcDbCellStyleMap
 90
        3
300
CELLSTYLE
  1
TABLEFORMAT_BEGIN
 90
        5
170
     1
 91
        0
 92
    32768
 62
   257
 93
        1
300
CONTENTFORMAT
  1
CONTENTFORMAT_BEGIN
 90
        0
 91
        0
 92
      512
 93
        0
300

 40
0.0
140
1.0
 94
        5
 62
     0
340
F
144
0.25
309
CONTENTFORMAT_END
171
     0
 94
        0
309
TABLEFORMAT_END
  1
CELLSTYLE_BEGIN
 90
        1
 91
        1
300
_TITLE
309
CELLSTYLE_END
300
CELLSTYLE
  1
TABLEFORMAT_BEGIN
 90
        5
170
     1
 91
        0
 92
        0
 62
   257
 93
        1
300
CONTENTFORMAT
  1
CONTENTFORMAT_BEGIN
 90
        0
 91
        0
 92
      512
 93
        0
300

 40
0.0
140
1.0
 94
        5
 62
     0
340
F
144
0.18
309
CONTENTFORMAT_END
171
     0
 94
        0
309
TABLEFORMAT_END
  1
CELLSTYLE_BEGIN
 90
        2
 91
        1
300
_HEADER
309
CELLSTYLE_END
300
CELLSTYLE
  1
TABLEFORMAT_BEGIN
 90
        5
170
     1
 91
        0
 92
        0
 62
   257
 93
        1
300
CONTENTFORMAT
  1
CONTENTFORMAT_BEGIN
 90
        0
 91
        0
 92
      512
 93
        0
300

 40
0.0
140
1.0
 94
        2
 62
     0
340
F
144
0.18
309
CONTENTFORMAT_END
171
     0
 94
        0
309
TABLEFORMAT_END
  1
CELLSTYLE_BEGIN
 90
        3
 91
        2
300
_DATA
309
CELLSTYLE_END
  0
XRECORD
  5
8D1
102
{ACAD_REACTORS
330
89A
102
}
330
89A
100
AcDbXrecord
280
     1
102
ACAD_ROUNDTRIP_PRE2007_TABLESTYLE
 90
      512
 91
        0
  1

 92
      512
 93
        0
  2

 94
      512
 95
        0
  3

  0
XRECORD
  5
8AC
102
{ACAD_REACTORS
330
8AB
102
}
330
8AB
100
AcDbXrecord
280
     1
102
RTVSPost2010Prop28
280
     1
102
RTVSPost2010PropOp28
 70
     1
102
RTVSPost2010Prop29
280
     1
102
RTVSPost2010PropOp29
 70
     1
102
RTVSPost2010Prop30
280
     0
102
RTVSPost2010PropOp30
 70
     1
102
RTVSPost2010Prop31
280
     0
102
RTVSPost2010PropOp31
 70
     1
102
RTVSPost2010Prop32
280
     0
102
RTVSPost2010PropOp32
 70
     1
102
RTVSPost2010Prop33
280
     0
102
RTVSPost2010PropOp33
 70
     1
102
RTVSPost2010Prop34
280
     0
102
RTVSPost2010PropOp34
 70
     1
102
RTVSPost2010Prop35
280
     0
102
RTVSPost2010PropOp35
 70
     1
102
RTVSPost2010Prop36
280
     0
102
RTVSPost2010PropOp36
 70
     1
102
RTVSPost2010Prop37
 90
       50
102
RTVSPost2010PropOp37
 70
     1
102
RTVSPost2010Prop38
140
0.0
102
RTVSPost2010PropOp38
 70
     1
102
RTVSPost2010Prop39
140
1.0
102
RTVSPost2010PropOp39
 70
     1
102
RTVSPost2010Prop40
 90
        0
102
RTVSPost2010PropOp40
 70
     1
102
RTVSPost2010Prop41ColorIndex
 90
       18
102
RTVSPost2010Prop41ColorRGB
 90
        0
102
RTVSPost2010PropOp41
 70
     1
102
RTVSPost2010Prop42
 90
       50
102
RTVSPost2010PropOp42
 70
     1
102
RTVSPost2010Prop43
 90
        3
102
RTVSPost2010PropOp43
 70
     1
102
RTVSPost2010Prop44ColorIndex
 90
        5
102
RTVSPost2010Prop44ColorRGB
 90
      255
102
RTVSPost2010PropOp44
 70
     1
102
RTVSPost2010Prop45
280
     0
102
RTVSPost2010PropOp45
 70
     1
102
RTVSPost2010Prop46
 90
       50
102
RTVSPost2010PropOp46
 70
     1
102
RTVSPost2010Prop47
 90
       50
102
RTVSPost2010PropOp47
 70
     1
102
RTVSPost2010Prop48
 90
       50
102
RTVSPost2010PropOp48
 70
     1
102
RTVSPost2010Prop49
280
     0
102
RTVSPost2010PropOp49
 70
     1
102
RTVSPost2010Prop50
 90
       50
102
RTVSPost2010PropOp50
 70
     1
102
RTVSPost2010Prop51ColorIndex
 90
      256
102
RTVSPost2010Prop51ColorRGB
 90
-16777216
102
RTVSPost2010PropOp51
 70
     0
102
RTVSPost2010Prop52
140
1.0
102
RTVSPost2010PropOp52
 70
     0
102
RTVSPost2010Prop53
 90
        2
102
RTVSPost2010PropOp53
 70
     1
102
RTVSPost2010Prop54
  1
strokes_ogs.tif
102
RTVSPost2010PropOp54
 70
     1
102
RTVSPost2010Prop55
280
     0
102
RTVSPost2010PropOp55
 70
     1
102
RTVSPost2010Prop56
140
1.0
102
RTVSPost2010PropOp56
 70
     1
102
RTVSPost2010Prop57
140
1.0
102
RTVSPost2010PropOp57
 70
     1
102
RTVSPropertyOp0
 70
     1
102
RTVSPropertyOp1
 70
     1
102
RTVSPropertyOp2
 70
     1
102
RTVSPropertyOp3
 70
     1
102
RTVSPropertyOp4
 70
     1
102
RTVSPropertyOp5
 70
     1
102
RTVSPropertyOp6
 70
     1
102
RTVSPropertyOp7
 70
     1
102
RTVSPropertyOp8
 70
     1
102
RTVSPropertyOp9
 70
     1
102
RTVSPropertyOp10
 70
     1
102
RTVSPropertyOp11
 70
     1
102
RTVSPropertyOp12
 70
     1
102
RTVSPropertyOp13
 70
     1
102
RTVSPropertyOp14
 70
     1
102
RTVSPropertyOp15
 70
     1
102
RTVSPropertyOp16
 70
     1
102
RTVSPropertyOp17
 70
     1
102
RTVSPropertyOp18
 70
     1
102
RTVSPropertyOp19
 70
     1
102
RTVSPropertyOp20
 70
     1
102
RTVSPropertyOp21
 70
     1
102
RTVSPropertyOp22
 70
     1
102
RTVSPropertyOp23
 70
     1
102
RTVSPropertyOp24
 70
     1
102
RTVSPropertyOp25
 70
     1
102
RTVSPropertyOp26
 70
     1
102
RTVSPropertyOp27
 70
     1
102
RTVSPropertyOp28
 70
     1
102
RTVSPropertyOp29
 70
     1
102
RTVSPropertyOp30
 70
     1
102
RTVSPropertyOp31
 70
     1
102
RTVSPropertyOp32
 70
     1
102
RTVSPropertyOp33
 70
     1
102
RTVSPropertyOp34
 70
     1
102
RTVSPropertyOp35
 70
     1
102
RTVSPropertyOp36
 70
     1
102
RTVSPropertyOp37
 70
     1
102
RTVSPropertyOp38
 70
     1
102
RTVSPropertyOp39
 70
     1
102
RTVSPropertyOp40
 70
     1
102
RTVSPropertyOp41
 70
     1
102
RTVSPropertyOp42
 70
     1
102
RTVSPropertyOp43
 70
     1
102
RTVSPropertyOp44
 70
     1
102
RTVSPropertyOp45
 70
     1
102
RTVSPropertyOp46
 70
     1
102
RTVSPropertyOp47
 70
     1
102
RTVSPropertyOp48
 70
     1
102
RTVSPropertyOp49
 70
     1
102
RTVSPropertyOp50
 70
     1
102
RTVSPropertyOp51
 70
     0
102
RTVSPropertyOp52
 70
     0
102
RTVSPropertyOp53
 70
     1
102
RTVSPropertyOp54
 70
     1
102
RTVSPropertyOp55
 70
     1
102
RTVSPropertyOp56
 70
     1
102
RTVSPropertyOp57
 70
     1
102
RTVSPropertyOp58
 70
     1
102
RTVSPropertyOp59
 70
     1
102
RTVSPropertyOp60
 70
     1
102
RTVSPropertyOp61
 70
     1
102
RTVSPropertyOp62
 70
     1
  0
XRECORD
  5
8AA
102
{ACAD_REACTORS
330
8A9
102
}
330
8A9
100
AcDbXrecord
280
     1
102
RTVSPost2010Prop28
280
     0
102
RTVSPost2010PropOp28
 70
     1
102
RTVSPost2010Prop29
280
     1
102
RTVSPost2010PropOp29
 70
     1
102
RTVSPost2010Prop30
280
     1
102
RTVSPost2010PropOp30
 70
     1
102
RTVSPost2010Prop31
280
     0
102
RTVSPost2010PropOp31
 70
     1
102
RTVSPost2010Prop32
280
     0
102
RTVSPost2010PropOp32
 70
     1
102
RTVSPost2010Prop33
280
     0
102
RTVSPost2010PropOp33
 70
     1
102
RTVSPost2010Prop34
280
     0
102
RTVSPost2010PropOp34
 70
     1
102
RTVSPost2010Prop35
280
     0
102
RTVSPost2010PropOp35
 70
     1
102
RTVSPost2010Prop36
280
     0
102
RTVSPost2010PropOp36
 70
     1
102
RTVSPost2010Prop37
 90
       50
102
RTVSPost2010PropOp37
 70
     1
102
RTVSPost2010Prop38
140
0.0
102
RTVSPost2010PropOp38
 70
     1
102
RTVSPost2010Prop39
140
1.0
102
RTVSPost2010PropOp39
 70
     1
102
RTVSPost2010Prop40
 90
        0
102
RTVSPost2010PropOp40
 70
     1
102
RTVSPost2010Prop41ColorIndex
 90
       18
102
RTVSPost2010Prop41ColorRGB
 90
        0
102
RTVSPost2010PropOp41
 70
     1
102
RTVSPost2010Prop42
 90
       50
102
RTVSPost2010PropOp42
 70
     1
102
RTVSPost2010Prop43
 90
        3
102
RTVSPost2010PropOp43
 70
     1
102
RTVSPost2010Prop44ColorIndex
 90
        5
102
RTVSPost2010Prop44ColorRGB
 90
      255
102
RTVSPost2010PropOp44
 70
     1
102
RTVSPost2010Prop45
280
     0
102
RTVSPost2010PropOp45
 70
     1
102
RTVSPost2010Prop46
 90
       50
102
RTVSPost2010PropOp46
 70
     1
102
RTVSPost2010Prop47
 90
       50
102
RTVSPost2010PropOp47
 70
     1
102
RTVSPost2010Prop48
 90
       50
102
RTVSPost2010PropOp48
 70
     1
102
RTVSPost2010Prop49
280
     0
102
RTVSPost2010PropOp49
 70
     1
102
RTVSPost2010Prop50
 90
       50
102
RTVSPost2010PropOp50
 70
     1
102
RTVSPost2010Prop51ColorIndex
 90
      256
102
RTVSPost2010Prop51ColorRGB
 90
-16777216
102
RTVSPost2010PropOp51
 70
     0
102
RTVSPost2010Prop52
140
1.0
102
RTVSPost2010PropOp52
 70
     0
102
RTVSPost2010Prop53
 90
        2
102
RTVSPost2010PropOp53
 70
     1
102
RTVSPost2010Prop54
  1
strokes_ogs.tif
102
RTVSPost2010PropOp54
 70
     1
102
RTVSPost2010Prop55
280
     0
102
RTVSPost2010PropOp55
 70
     1
102
RTVSPost2010Prop56
140
1.0
102
RTVSPost2010PropOp56
 70
     1
102
RTVSPost2010Prop57
140
1.0
102
RTVSPost2010PropOp57
 70
     1
102
RTVSPropertyOp0
 70
     1
102
RTVSPropertyOp1
 70
     1
102
RTVSPropertyOp2
 70
     1
102
RTVSPropertyOp3
 70
     1
102
RTVSPropertyOp4
 70
     1
102
RTVSPropertyOp5
 70
     1
102
RTVSPropertyOp6
 70
     1
102
RTVSPropertyOp7
 70
     1
102
RTVSPropertyOp8
 70
     1
102
RTVSPropertyOp9
 70
     1
102
RTVSPropertyOp10
 70
     1
102
RTVSPropertyOp11
 70
     1
102
RTVSPropertyOp12
 70
     1
102
RTVSPropertyOp13
 70
     1
102
RTVSPropertyOp14
 70
     1
102
RTVSPropertyOp15
 70
     1
102
RTVSPropertyOp16
 70
     1
102
RTVSPropertyOp17
 70
     1
102
RTVSPropertyOp18
 70
     1
102
RTVSPropertyOp19
 70
     1
102
RTVSPropertyOp20
 70
     1
102
RTVSPropertyOp21
 70
     1
102
RTVSPropertyOp22
 70
     1
102
RTVSPropertyOp23
 70
     1
102
RTVSPropertyOp24
 70
     1
102
RTVSPropertyOp25
 70
     1
102
RTVSPropertyOp26
 70
     1
102
RTVSPropertyOp27
 70
     1
102
RTVSPropertyOp28
 70
     1
102
RTVSPropertyOp29
 70
     1
102
RTVSPropertyOp30
 70
     1
102
RTVSPropertyOp31
 70
     1
102
RTVSPropertyOp32
 70
     1
102
RTVSPropertyOp33
 70
     1
102
RTVSPropertyOp34
 70
     1
102
RTVSPropertyOp35
 70
     1
102
RTVSPropertyOp36
 70
     1
102
RTVSPropertyOp37
 70
     1
102
RTVSPropertyOp38
 70
     1
102
RTVSPropertyOp39
 70
     1
102
RTVSPropertyOp40
 70
     1
102
RTVSPropertyOp41
 70
     1
102
RTVSPropertyOp42
 70
     1
102
RTVSPropertyOp43
 70
     1
102
RTVSPropertyOp44
 70
     1
102
RTVSPropertyOp45
 70
     1
102
RTVSPropertyOp46
 70
     1
102
RTVSPropertyOp47
 70
     1
102
RTVSPropertyOp48
 70
     1
102
RTVSPropertyOp49
 70
     1
102
RTVSPropertyOp50
 70
     1
102
RTVSPropertyOp51
 70
     0
102
RTVSPropertyOp52
 70
     0
102
RTVSPropertyOp53
 70
     1
102
RTVSPropertyOp54
 70
     1
102
RTVSPropertyOp55
 70
     1
102
RTVSPropertyOp56
 70
     1
102
RTVSPropertyOp57
 70
     1
102
RTVSPropertyOp58
 70
     1
102
RTVSPropertyOp59
 70
     1
102
RTVSPropertyOp60
 70
     1
102
RTVSPropertyOp61
 70
     1
102
RTVSPropertyOp62
 70
     1
  0
XRECORD
  5
8B8
102
{ACAD_REACTORS
330
8B7
102
}
330
8B7
100
AcDbXrecord
280
     1
102
RTVSPost2010Prop28
280
     0
102
RTVSPost2010PropOp28
 70
     1
102
RTVSPost2010Prop29
280
     1
102
RTVSPost2010PropOp29
 70
     1
102
RTVSPost2010Prop30
280
     1
102
RTVSPost2010PropOp30
 70
     1
102
RTVSPost2010Prop31
280
     0
102
RTVSPost2010PropOp31
 70
     1
102
RTVSPost2010Prop32
280
     0
102
RTVSPost2010PropOp32
 70
     1
102
RTVSPost2010Prop33
280
     0
102
RTVSPost2010PropOp33
 70
     1
102
RTVSPost2010Prop34
280
     0
102
RTVSPost2010PropOp34
 70
     1
102
RTVSPost2010Prop35
280
     0
102
RTVSPost2010PropOp35
 70
     1
102
RTVSPost2010Prop36
280
     0
102
RTVSPost2010PropOp36
 70
     1
102
RTVSPost2010Prop37
 90
       50
102
RTVSPost2010PropOp37
 70
     1
102
RTVSPost2010Prop38
140
0.0
102
RTVSPost2010PropOp38
 70
     1
102
RTVSPost2010Prop39
140
1.0
102
RTVSPost2010PropOp39
 70
     1
102
RTVSPost2010Prop40
 90
        0
102
RTVSPost2010PropOp40
 70
     1
102
RTVSPost2010Prop41ColorIndex
 90
       18
102
RTVSPost2010Prop41ColorRGB
 90
        0
102
RTVSPost2010PropOp41
 70
     1
102
RTVSPost2010Prop42
 90
       50
102
RTVSPost2010PropOp42
 70
     1
102
RTVSPost2010Prop43
 90
        3
102
RTVSPost2010PropOp43
 70
     1
102
RTVSPost2010Prop44ColorIndex
 90
        5
102
RTVSPost2010Prop44ColorRGB
 90
      255
102
RTVSPost2010PropOp44
 70
     1
102
RTVSPost2010Prop45
280
     0
102
RTVSPost2010PropOp45
 70
     1
102
RTVSPost2010Prop46
 90
       50
102
RTVSPost2010PropOp46
 70
     1
102
RTVSPost2010Prop47
 90
       50
102
RTVSPost2010PropOp47
 70
     1
102
RTVSPost2010Prop48
 90
       50
102
RTVSPost2010PropOp48
 70
     1
102
RTVSPost2010Prop49
280
     0
102
RTVSPost2010PropOp49
 70
     1
102
RTVSPost2010Prop50
 90
       50
102
RTVSPost2010PropOp50
 70
     1
102
RTVSPost2010Prop51ColorIndex
 90
      256
102
RTVSPost2010Prop51ColorRGB
 90
-16777216
102
RTVSPost2010PropOp51
 70
     0
102
RTVSPost2010Prop52
140
1.0
102
RTVSPost2010PropOp52
 70
     0
102
RTVSPost2010Prop53
 90
        2
102
RTVSPost2010PropOp53
 70
     1
102
RTVSPost2010Prop54
  1
strokes_ogs.tif
102
RTVSPost2010PropOp54
 70
     1
102
RTVSPost2010Prop55
280
     0
102
RTVSPost2010PropOp55
 70
     1
102
RTVSPost2010Prop56
140
1.0
102
RTVSPost2010PropOp56
 70
     1
102
RTVSPost2010Prop57
140
1.0
102
RTVSPost2010PropOp57
 70
     1
102
RTVSPropertyOp0
 70
     1
102
RTVSPropertyOp1
 70
     1
102
RTVSPropertyOp2
 70
     1
102
RTVSPropertyOp3
 70
     1
102
RTVSPropertyOp4
 70
     1
102
RTVSPropertyOp5
 70
     1
102
RTVSPropertyOp6
 70
     1
102
RTVSPropertyOp7
 70
     1
102
RTVSPropertyOp8
 70
     1
102
RTVSPropertyOp9
 70
     1
102
RTVSPropertyOp10
 70
     1
102
RTVSPropertyOp11
 70
     1
102
RTVSPropertyOp12
 70
     1
102
RTVSPropertyOp13
 70
     1
102
RTVSPropertyOp14
 70
     1
102
RTVSPropertyOp15
 70
     1
102
RTVSPropertyOp16
 70
     1
102
RTVSPropertyOp17
 70
     1
102
RTVSPropertyOp18
 70
     1
102
RTVSPropertyOp19
 70
     1
102
RTVSPropertyOp20
 70
     1
102
RTVSPropertyOp21
 70
     1
102
RTVSPropertyOp22
 70
     1
102
RTVSPropertyOp23
 70
     1
102
RTVSPropertyOp24
 70
     1
102
RTVSPropertyOp25
 70
     1
102
RTVSPropertyOp26
 70
     1
102
RTVSPropertyOp27
 70
     1
102
RTVSPropertyOp28
 70
     1
102
RTVSPropertyOp29
 70
     1
102
RTVSPropertyOp30
 70
     1
102
RTVSPropertyOp31
 70
     1
102
RTVSPropertyOp32
 70
     1
102
RTVSPropertyOp33
 70
     1
102
RTVSPropertyOp34
 70
     1
102
RTVSPropertyOp35
 70
     1
102
RTVSPropertyOp36
 70
     1
102
RTVSPropertyOp37
 70
     1
102
RTVSPropertyOp38
 70
     1
102
RTVSPropertyOp39
 70
     1
102
RTVSPropertyOp40
 70
     1
102
RTVSPropertyOp41
 70
     1
102
RTVSPropertyOp42
 70
     1
102
RTVSPropertyOp43
 70
     1
102
RTVSPropertyOp44
 70
     1
102
RTVSPropertyOp45
 70
     1
102
RTVSPropertyOp46
 70
     1
102
RTVSPropertyOp47
 70
     1
102
RTVSPropertyOp48
 70
     1
102
RTVSPropertyOp49
 70
     1
102
RTVSPropertyOp50
 70
     1
102
RTVSPropertyOp51
 70
     0
102
RTVSPropertyOp52
 70
     0
102
RTVSPropertyOp53
 70
     1
102
RTVSPropertyOp54
 70
     1
102
RTVSPropertyOp55
 70
     1
102
RTVSPropertyOp56
 70
     1
102
RTVSPropertyOp57
 70
     1
102
RTVSPropertyOp58
 70
     1
102
RTVSPropertyOp59
 70
     1
102
RTVSPropertyOp60
 70
     1
102
RTVSPropertyOp61
 70
     1
102
RTVSPropertyOp62
 70
     1
  0
XRECORD
  5
8C0
102
{ACAD_REACTORS
330
8BF
102
}
330
8BF
100
AcDbXrecord
280
     1
102
RTVSPost2010Prop28
280
     0
102
RTVSPost2010PropOp28
 70
     1
102
RTVSPost2010Prop29
280
     1
102
RTVSPost2010PropOp29
 70
     1
102
RTVSPost2010Prop30
280
     1
102
RTVSPost2010PropOp30
 70
     1
102
RTVSPost2010Prop31
280
     0
102
RTVSPost2010PropOp31
 70
     1
102
RTVSPost2010Prop32
280
     0
102
RTVSPost2010PropOp32
 70
     1
102
RTVSPost2010Prop33
280
     0
102
RTVSPost2010PropOp33
 70
     1
102
RTVSPost2010Prop34
280
     0
102
RTVSPost2010PropOp34
 70
     1
102
RTVSPost2010Prop35
280
     0
102
RTVSPost2010PropOp35
 70
     1
102
RTVSPost2010Prop36
280
     0
102
RTVSPost2010PropOp36
 70
     1
102
RTVSPost2010Prop37
 90
       50
102
RTVSPost2010PropOp37
 70
     1
102
RTVSPost2010Prop38
140
0.0
102
RTVSPost2010PropOp38
 70
     1
102
RTVSPost2010Prop39
140
1.0
102
RTVSPost2010PropOp39
 70
     1
102
RTVSPost2010Prop40
 90
        0
102
RTVSPost2010PropOp40
 70
     1
102
RTVSPost2010Prop41ColorIndex
 90
       18
102
RTVSPost2010Prop41ColorRGB
 90
        0
102
RTVSPost2010PropOp41
 70
     1
102
RTVSPost2010Prop42
 90
       50
102
RTVSPost2010PropOp42
 70
     1
102
RTVSPost2010Prop43
 90
        3
102
RTVSPost2010PropOp43
 70
     1
102
RTVSPost2010Prop44ColorIndex
 90
        5
102
RTVSPost2010Prop44ColorRGB
 90
      255
102
RTVSPost2010PropOp44
 70
     1
102
RTVSPost2010Prop45
280
     0
102
RTVSPost2010PropOp45
 70
     1
102
RTVSPost2010Prop46
 90
       50
102
RTVSPost2010PropOp46
 70
     1
102
RTVSPost2010Prop47
 90
       50
102
RTVSPost2010PropOp47
 70
     1
102
RTVSPost2010Prop48
 90
       50
102
RTVSPost2010PropOp48
 70
     1
102
RTVSPost2010Prop49
280
     0
102
RTVSPost2010PropOp49
 70
     1
102
RTVSPost2010Prop50
 90
       50
102
RTVSPost2010PropOp50
 70
     1
102
RTVSPost2010Prop51ColorIndex
 90
      256
102
RTVSPost2010Prop51ColorRGB
 90
-16777216
102
RTVSPost2010PropOp51
 70
     0
102
RTVSPost2010Prop52
140
1.0
102
RTVSPost2010PropOp52
 70
     0
102
RTVSPost2010Prop53
 90
        2
102
RTVSPost2010PropOp53
 70
     1
102
RTVSPost2010Prop54
  1
strokes_ogs.tif
102
RTVSPost2010PropOp54
 70
     1
102
RTVSPost2010Prop55
280
     0
102
RTVSPost2010PropOp55
 70
     1
102
RTVSPost2010Prop56
140
1.0
102
RTVSPost2010PropOp56
 70
     1
102
RTVSPost2010Prop57
140
1.0
102
RTVSPost2010PropOp57
 70
     1
102
RTVSPropertyOp0
 70
     1
102
RTVSPropertyOp1
 70
     1
102
RTVSPropertyOp2
 70
     1
102
RTVSPropertyOp3
 70
     1
102
RTVSPropertyOp4
 70
     1
102
RTVSPropertyOp5
 70
     1
102
RTVSPropertyOp6
 70
     1
102
RTVSPropertyOp7
 70
     1
102
RTVSPropertyOp8
 70
     1
102
RTVSPropertyOp9
 70
     1
102
RTVSPropertyOp10
 70
     1
102
RTVSPropertyOp11
 70
     1
102
RTVSPropertyOp12
 70
     1
102
RTVSPropertyOp13
 70
     1
102
RTVSPropertyOp14
 70
     1
102
RTVSPropertyOp15
 70
     1
102
RTVSPropertyOp16
 70
     1
102
RTVSPropertyOp17
 70
     1
102
RTVSPropertyOp18
 70
     1
102
RTVSPropertyOp19
 70
     1
102
RTVSPropertyOp20
 70
     1
102
RTVSPropertyOp21
 70
     1
102
RTVSPropertyOp22
 70
     1
102
RTVSPropertyOp23
 70
     1
102
RTVSPropertyOp24
 70
     1
102
RTVSPropertyOp25
 70
     1
102
RTVSPropertyOp26
 70
     1
102
RTVSPropertyOp27
 70
     1
102
RTVSPropertyOp28
 70
     1
102
RTVSPropertyOp29
 70
     1
102
RTVSPropertyOp30
 70
     1
102
RTVSPropertyOp31
 70
     1
102
RTVSPropertyOp32
 70
     1
102
RTVSPropertyOp33
 70
     1
102
RTVSPropertyOp34
 70
     1
102
RTVSPropertyOp35
 70
     1
102
RTVSPropertyOp36
 70
     1
102
RTVSPropertyOp37
 70
     1
102
RTVSPropertyOp38
 70
     1
102
RTVSPropertyOp39
 70
     1
102
RTVSPropertyOp40
 70
     1
102
RTVSPropertyOp41
 70
     1
102
RTVSPropertyOp42
 70
     1
102
RTVSPropertyOp43
 70
     1
102
RTVSPropertyOp44
 70
     1
102
RTVSPropertyOp45
 70
     1
102
RTVSPropertyOp46
 70
     1
102
RTVSPropertyOp47
 70
     1
102
RTVSPropertyOp48
 70
     1
102
RTVSPropertyOp49
 70
     1
102
RTVSPropertyOp50
 70
     1
102
RTVSPropertyOp51
 70
     0
102
RTVSPropertyOp52
 70
     0
102
RTVSPropertyOp53
 70
     1
102
RTVSPropertyOp54
 70
     1
102
RTVSPropertyOp55
 70
     1
102
RTVSPropertyOp56
 70
     1
102
RTVSPropertyOp57
 70
     1
102
RTVSPropertyOp58
 70
     1
102
RTVSPropertyOp59
 70
     1
102
RTVSPropertyOp60
 70
     1
102
RTVSPropertyOp61
 70
     1
102
RTVSPropertyOp62
 70
     1
  0
XRECORD
  5
8B2
102
{ACAD_REACTORS
330
8B1
102
}
330
8B1
100
AcDbXrecord
280
     1
102
RTVSPost2010Prop28
280
     0
102
RTVSPost2010PropOp28
 70
     1
102
RTVSPost2010Prop29
280
     1
102
RTVSPost2010PropOp29
 70
     1
102
RTVSPost2010Prop30
280
     1
102
RTVSPost2010PropOp30
 70
     1
102
RTVSPost2010Prop31
280
     0
102
RTVSPost2010PropOp31
 70
     1
102
RTVSPost2010Prop32
280
     0
102
RTVSPost2010PropOp32
 70
     1
102
RTVSPost2010Prop33
280
     0
102
RTVSPost2010PropOp33
 70
     1
102
RTVSPost2010Prop34
280
     0
102
RTVSPost2010PropOp34
 70
     1
102
RTVSPost2010Prop35
280
     0
102
RTVSPost2010PropOp35
 70
     1
102
RTVSPost2010Prop36
280
     0
102
RTVSPost2010PropOp36
 70
     1
102
RTVSPost2010Prop37
 90
       50
102
RTVSPost2010PropOp37
 70
     1
102
RTVSPost2010Prop38
140
0.0
102
RTVSPost2010PropOp38
 70
     1
102
RTVSPost2010Prop39
140
1.0
102
RTVSPost2010PropOp39
 70
     1
102
RTVSPost2010Prop40
 90
        0
102
RTVSPost2010PropOp40
 70
     1
102
RTVSPost2010Prop41ColorIndex
 90
       18
102
RTVSPost2010Prop41ColorRGB
 90
        0
102
RTVSPost2010PropOp41
 70
     1
102
RTVSPost2010Prop42
 90
       50
102
RTVSPost2010PropOp42
 70
     1
102
RTVSPost2010Prop43
 90
        3
102
RTVSPost2010PropOp43
 70
     1
102
RTVSPost2010Prop44ColorIndex
 90
        5
102
RTVSPost2010Prop44ColorRGB
 90
      255
102
RTVSPost2010PropOp44
 70
     1
102
RTVSPost2010Prop45
280
     0
102
RTVSPost2010PropOp45
 70
     1
102
RTVSPost2010Prop46
 90
       50
102
RTVSPost2010PropOp46
 70
     1
102
RTVSPost2010Prop47
 90
       50
102
RTVSPost2010PropOp47
 70
     1
102
RTVSPost2010Prop48
 90
       50
102
RTVSPost2010PropOp48
 70
     1
102
RTVSPost2010Prop49
280
     0
102
RTVSPost2010PropOp49
 70
     1
102
RTVSPost2010Prop50
 90
       50
102
RTVSPost2010PropOp50
 70
     1
102
RTVSPost2010Prop51ColorIndex
 90
      256
102
RTVSPost2010Prop51ColorRGB
 90
-16777216
102
RTVSPost2010PropOp51
 70
     0
102
RTVSPost2010Prop52
140
1.0
102
RTVSPost2010PropOp52
 70
     0
102
RTVSPost2010Prop53
 90
        2
102
RTVSPost2010PropOp53
 70
     1
102
RTVSPost2010Prop54
  1
strokes_ogs.tif
102
RTVSPost2010PropOp54
 70
     1
102
RTVSPost2010Prop55
280
     0
102
RTVSPost2010PropOp55
 70
     1
102
RTVSPost2010Prop56
140
1.0
102
RTVSPost2010PropOp56
 70
     1
102
RTVSPost2010Prop57
140
1.0
102
RTVSPost2010PropOp57
 70
     1
102
RTVSPropertyOp0
 70
     1
102
RTVSPropertyOp1
 70
     1
102
RTVSPropertyOp2
 70
     1
102
RTVSPropertyOp3
 70
     1
102
RTVSPropertyOp4
 70
     1
102
RTVSPropertyOp5
 70
     1
102
RTVSPropertyOp6
 70
     1
102
RTVSPropertyOp7
 70
     1
102
RTVSPropertyOp8
 70
     1
102
RTVSPropertyOp9
 70
     1
102
RTVSPropertyOp10
 70
     1
102
RTVSPropertyOp11
 70
     1
102
RTVSPropertyOp12
 70
     1
102
RTVSPropertyOp13
 70
     1
102
RTVSPropertyOp14
 70
     1
102
RTVSPropertyOp15
 70
     1
102
RTVSPropertyOp16
 70
     1
102
RTVSPropertyOp17
 70
     1
102
RTVSPropertyOp18
 70
     1
102
RTVSPropertyOp19
 70
     1
102
RTVSPropertyOp20
 70
     1
102
RTVSPropertyOp21
 70
     1
102
RTVSPropertyOp22
 70
     1
102
RTVSPropertyOp23
 70
     1
102
RTVSPropertyOp24
 70
     1
102
RTVSPropertyOp25
 70
     1
102
RTVSPropertyOp26
 70
     1
102
RTVSPropertyOp27
 70
     1
102
RTVSPropertyOp28
 70
     1
102
RTVSPropertyOp29
 70
     1
102
RTVSPropertyOp30
 70
     1
102
RTVSPropertyOp31
 70
     1
102
RTVSPropertyOp32
 70
     1
102
RTVSPropertyOp33
 70
     1
102
RTVSPropertyOp34
 70
     1
102
RTVSPropertyOp35
 70
     1
102
RTVSPropertyOp36
 70
     1
102
RTVSPropertyOp37
 70
     1
102
RTVSPropertyOp38
 70
     1
102
RTVSPropertyOp39
 70
     1
102
RTVSPropertyOp40
 70
     1
102
RTVSPropertyOp41
 70
     1
102
RTVSPropertyOp42
 70
     1
102
RTVSPropertyOp43
 70
     1
102
RTVSPropertyOp44
 70
     1
102
RTVSPropertyOp45
 70
     1
102
RTVSPropertyOp46
 70
     1
102
RTVSPropertyOp47
 70
     1
102
RTVSPropertyOp48
 70
     1
102
RTVSPropertyOp49
 70
     1
102
RTVSPropertyOp50
 70
     1
102
RTVSPropertyOp51
 70
     0
102
RTVSPropertyOp52
 70
     0
102
RTVSPropertyOp53
 70
     1
102
RTVSPropertyOp54
 70
     1
102
RTVSPropertyOp55
 70
     1
102
RTVSPropertyOp56
 70
     1
102
RTVSPropertyOp57
 70
     1
102
RTVSPropertyOp58
 70
     1
102
RTVSPropertyOp59
 70
     1
102
RTVSPropertyOp60
 70
     1
102
RTVSPropertyOp61
 70
     1
102
RTVSPropertyOp62
 70
     1
  0
XRECORD
  5
8B6
102
{ACAD_REACTORS
330
8B5
102
}
330
8B5
100
AcDbXrecord
280
     1
102
RTVSPost2010Prop28
280
     0
102
RTVSPost2010PropOp28
 70
     1
102
RTVSPost2010Prop29
280
     1
102
RTVSPost2010PropOp29
 70
     1
102
RTVSPost2010Prop30
280
     1
102
RTVSPost2010PropOp30
 70
     1
102
RTVSPost2010Prop31
280
     0
102
RTVSPost2010PropOp31
 70
     1
102
RTVSPost2010Prop32
280
     0
102
RTVSPost2010PropOp32
 70
     1
102
RTVSPost2010Prop33
280
     0
102
RTVSPost2010PropOp33
 70
     1
102
RTVSPost2010Prop34
280
     0
102
RTVSPost2010PropOp34
 70
     1
102
RTVSPost2010Prop35
280
     0
102
RTVSPost2010PropOp35
 70
     1
102
RTVSPost2010Prop36
280
     0
102
RTVSPost2010PropOp36
 70
     1
102
RTVSPost2010Prop37
 90
       50
102
RTVSPost2010PropOp37
 70
     1
102
RTVSPost2010Prop38
140
0.0
102
RTVSPost2010PropOp38
 70
     1
102
RTVSPost2010Prop39
140
1.0
102
RTVSPost2010PropOp39
 70
     1
102
RTVSPost2010Prop40
 90
        0
102
RTVSPost2010PropOp40
 70
     1
102
RTVSPost2010Prop41ColorIndex
 90
       18
102
RTVSPost2010Prop41ColorRGB
 90
        0
102
RTVSPost2010PropOp41
 70
     1
102
RTVSPost2010Prop42
 90
       50
102
RTVSPost2010PropOp42
 70
     1
102
RTVSPost2010Prop43
 90
        3
102
RTVSPost2010PropOp43
 70
     1
102
RTVSPost2010Prop44ColorIndex
 90
        5
102
RTVSPost2010Prop44ColorRGB
 90
      255
102
RTVSPost2010PropOp44
 70
     1
102
RTVSPost2010Prop45
280
     0
102
RTVSPost2010PropOp45
 70
     1
102
RTVSPost2010Prop46
 90
       50
102
RTVSPost2010PropOp46
 70
     1
102
RTVSPost2010Prop47
 90
       50
102
RTVSPost2010PropOp47
 70
     1
102
RTVSPost2010Prop48
 90
       50
102
RTVSPost2010PropOp48
 70
     1
102
RTVSPost2010Prop49
280
     0
102
RTVSPost2010PropOp49
 70
     1
102
RTVSPost2010Prop50
 90
       50
102
RTVSPost2010PropOp50
 70
     1
102
RTVSPost2010Prop51ColorIndex
 90
      256
102
RTVSPost2010Prop51ColorRGB
 90
-16777216
102
RTVSPost2010PropOp51
 70
     0
102
RTVSPost2010Prop52
140
1.0
102
RTVSPost2010PropOp52
 70
     0
102
RTVSPost2010Prop53
 90
        2
102
RTVSPost2010PropOp53
 70
     1
102
RTVSPost2010Prop54
  1
strokes_ogs.tif
102
RTVSPost2010PropOp54
 70
     1
102
RTVSPost2010Prop55
280
     0
102
RTVSPost2010PropOp55
 70
     1
102
RTVSPost2010Prop56
140
1.0
102
RTVSPost2010PropOp56
 70
     1
102
RTVSPost2010Prop57
140
1.0
102
RTVSPost2010PropOp57
 70
     1
102
RTVSPropertyOp0
 70
     1
102
RTVSPropertyOp1
 70
     1
102
RTVSPropertyOp2
 70
     1
102
RTVSPropertyOp3
 70
     1
102
RTVSPropertyOp4
 70
     1
102
RTVSPropertyOp5
 70
     1
102
RTVSPropertyOp6
 70
     1
102
RTVSPropertyOp7
 70
     1
102
RTVSPropertyOp8
 70
     1
102
RTVSPropertyOp9
 70
     1
102
RTVSPropertyOp10
 70
     1
102
RTVSPropertyOp11
 70
     1
102
RTVSPropertyOp12
 70
     1
102
RTVSPropertyOp13
 70
     1
102
RTVSPropertyOp14
 70
     1
102
RTVSPropertyOp15
 70
     1
102
RTVSPropertyOp16
 70
     1
102
RTVSPropertyOp17
 70
     1
102
RTVSPropertyOp18
 70
     1
102
RTVSPropertyOp19
 70
     1
102
RTVSPropertyOp20
 70
     1
102
RTVSPropertyOp21
 70
     1
102
RTVSPropertyOp22
 70
     1
102
RTVSPropertyOp23
 70
     1
102
RTVSPropertyOp24
 70
     1
102
RTVSPropertyOp25
 70
     1
102
RTVSPropertyOp26
 70
     1
102
RTVSPropertyOp27
 70
     1
102
RTVSPropertyOp28
 70
     1
102
RTVSPropertyOp29
 70
     1
102
RTVSPropertyOp30
 70
     1
102
RTVSPropertyOp31
 70
     1
102
RTVSPropertyOp32
 70
     1
102
RTVSPropertyOp33
 70
     1
102
RTVSPropertyOp34
 70
     1
102
RTVSPropertyOp35
 70
     1
102
RTVSPropertyOp36
 70
     1
102
RTVSPropertyOp37
 70
     1
102
RTVSPropertyOp38
 70
     1
102
RTVSPropertyOp39
 70
     1
102
RTVSPropertyOp40
 70
     1
102
RTVSPropertyOp41
 70
     1
102
RTVSPropertyOp42
 70
     1
102
RTVSPropertyOp43
 70
     1
102
RTVSPropertyOp44
 70
     1
102
RTVSPropertyOp45
 70
     1
102
RTVSPropertyOp46
 70
     1
102
RTVSPropertyOp47
 70
     1
102
RTVSPropertyOp48
 70
     1
102
RTVSPropertyOp49
 70
     1
102
RTVSPropertyOp50
 70
     1
102
RTVSPropertyOp51
 70
     0
102
RTVSPropertyOp52
 70
     0
102
RTVSPropertyOp53
 70
     1
102
RTVSPropertyOp54
 70
     1
102
RTVSPropertyOp55
 70
     1
102
RTVSPropertyOp56
 70
     1
102
RTVSPropertyOp57
 70
     1
102
RTVSPropertyOp58
 70
     1
102
RTVSPropertyOp59
 70
     1
102
RTVSPropertyOp60
 70
     1
102
RTVSPropertyOp61
 70
     1
102
RTVSPropertyOp62
 70
     1
  0
XRECORD
  5
8D0
102
{ACAD_REACTORS
330
8CF
102
}
330
8CF
100
AcDbXrecord
280
     1
102
RTVSPost2010Prop28
280
     0
102
RTVSPost2010PropOp28
 70
     1
102
RTVSPost2010Prop29
280
     1
102
RTVSPost2010PropOp29
 70
     1
102
RTVSPost2010Prop30
280
     1
102
RTVSPost2010PropOp30
 70
     1
102
RTVSPost2010Prop31
280
     0
102
RTVSPost2010PropOp31
 70
     1
102
RTVSPost2010Prop32
280
     0
102
RTVSPost2010PropOp32
 70
     1
102
RTVSPost2010Prop33
280
     0
102
RTVSPost2010PropOp33
 70
     1
102
RTVSPost2010Prop34
280
     0
102
RTVSPost2010PropOp34
 70
     1
102
RTVSPost2010Prop35
280
     0
102
RTVSPost2010PropOp35
 70
     1
102
RTVSPost2010Prop36
280
     0
102
RTVSPost2010PropOp36
 70
     1
102
RTVSPost2010Prop37
 90
       50
102
RTVSPost2010PropOp37
 70
     0
102
RTVSPost2010Prop38
140
0.0
102
RTVSPost2010PropOp38
 70
     0
102
RTVSPost2010Prop39
140
1.0
102
RTVSPost2010PropOp39
 70
     0
102
RTVSPost2010Prop40
 90
        0
102
RTVSPost2010PropOp40
 70
     0
102
RTVSPost2010Prop41ColorIndex
 90
       18
102
RTVSPost2010Prop41ColorRGB
 90
        0
102
RTVSPost2010PropOp41
 70
     0
102
RTVSPost2010Prop42
 90
       50
102
RTVSPost2010PropOp42
 70
     0
102
RTVSPost2010Prop43
 90
        3
102
RTVSPost2010PropOp43
 70
     0
102
RTVSPost2010Prop44ColorIndex
 90
        5
102
RTVSPost2010Prop44ColorRGB
 90
      255
102
RTVSPost2010PropOp44
 70
     0
102
RTVSPost2010Prop45
280
     0
102
RTVSPost2010PropOp45
 70
     1
102
RTVSPost2010Prop46
 90
       50
102
RTVSPost2010PropOp46
 70
     0
102
RTVSPost2010Prop47
 90
       50
102
RTVSPost2010PropOp47
 70
     0
102
RTVSPost2010Prop48
 90
       50
102
RTVSPost2010PropOp48
 70
     0
102
RTVSPost2010Prop49
280
     0
102
RTVSPost2010PropOp49
 70
     1
102
RTVSPost2010Prop50
 90
       50
102
RTVSPost2010PropOp50
 70
     0
102
RTVSPost2010Prop51ColorIndex
 90
      256
102
RTVSPost2010Prop51ColorRGB
 90
-16777216
102
RTVSPost2010PropOp51
 70
     0
102
RTVSPost2010Prop52
140
1.0
102
RTVSPost2010PropOp52
 70
     0
102
RTVSPost2010Prop53
 90
        2
102
RTVSPost2010PropOp53
 70
     0
102
RTVSPost2010Prop54
  1
strokes_ogs.tif
102
RTVSPost2010PropOp54
 70
     0
102
RTVSPost2010Prop55
280
     0
102
RTVSPost2010PropOp55
 70
     1
102
RTVSPost2010Prop56
140
1.0
102
RTVSPost2010PropOp56
 70
     0
102
RTVSPost2010Prop57
140
1.0
102
RTVSPost2010PropOp57
 70
     0
102
RTVSPropertyOp0
 70
     0
102
RTVSPropertyOp1
 70
     0
102
RTVSPropertyOp2
 70
     0
102
RTVSPropertyOp3
 70
     0
102
RTVSPropertyOp4
 70
     0
102
RTVSPropertyOp5
 70
     0
102
RTVSPropertyOp6
 70
     0
102
RTVSPropertyOp7
 70
     0
102
RTVSPropertyOp8
 70
     0
102
RTVSPropertyOp9
 70
     0
102
RTVSPropertyOp10
 70
     0
102
RTVSPropertyOp11
 70
     0
102
RTVSPropertyOp12
 70
     0
102
RTVSPropertyOp13
 70
     0
102
RTVSPropertyOp14
 70
     2
102
RTVSPropertyOp15
 70
     0
102
RTVSPropertyOp16
 70
     0
102
RTVSPropertyOp17
 70
     0
102
RTVSPropertyOp18
 70
     0
102
RTVSPropertyOp19
 70
     0
102
RTVSPropertyOp20
 70
     0
102
RTVSPropertyOp21
 70
     0
102
RTVSPropertyOp22
 70
     0
102
RTVSPropertyOp23
 70
     0
102
RTVSPropertyOp24
 70
     0
102
RTVSPropertyOp25
 70
     0
102
RTVSPropertyOp26
 70
     0
102
RTVSPropertyOp27
 70
     0
102
RTVSPropertyOp28
 70
     1
102
RTVSPropertyOp29
 70
     1
102
RTVSPropertyOp30
 70
     1
102
RTVSPropertyOp31
 70
     1
102
RTVSPropertyOp32
 70
     1
102
RTVSPropertyOp33
 70
     1
102
RTVSPropertyOp34
 70
     1
102
RTVSPropertyOp35
 70
     1
102
RTVSPropertyOp36
 70
     1
102
RTVSPropertyOp37
 70
     0
102
RTVSPropertyOp38
 70
     0
102
RTVSPropertyOp39
 70
     0
102
RTVSPropertyOp40
 70
     0
102
RTVSPropertyOp41
 70
     0
102
RTVSPropertyOp42
 70
     0
102
RTVSPropertyOp43
 70
     0
102
RTVSPropertyOp44
 70
     0
102
RTVSPropertyOp45
 70
     1
102
RTVSPropertyOp46
 70
     0
102
RTVSPropertyOp47
 70
     0
102
RTVSPropertyOp48
 70
     0
102
RTVSPropertyOp49
 70
     1
102
RTVSPropertyOp50
 70
     0
102
RTVSPropertyOp51
 70
     0
102
RTVSPropertyOp52
 70
     0
102
RTVSPropertyOp53
 70
     0
102
RTVSPropertyOp54
 70
     0
102
RTVSPropertyOp55
 70
     1
102
RTVSPropertyOp56
 70
     0
102
RTVSPropertyOp57
 70
     0
102
RTVSPropertyOp58
 70
     0
102
RTVSPropertyOp59
 70
     0
102
RTVSPropertyOp60
 70
     0
102
RTVSPropertyOp61
 70
     0
102
RTVSPropertyOp62
 70
     0
  0
XRECORD
  5
8BE
102
{ACAD_REACTORS
330
8BD
102
}
330
8BD
100
AcDbXrecord
280
     1
102
RTVSPost2010Prop28
280
     0
102
RTVSPost2010PropOp28
 70
     1
102
RTVSPost2010Prop29
280
     1
102
RTVSPost2010PropOp29
 70
     1
102
RTVSPost2010Prop30
280
     1
102
RTVSPost2010PropOp30
 70
     1
102
RTVSPost2010Prop31
280
     0
102
RTVSPost2010PropOp31
 70
     1
102
RTVSPost2010Prop32
280
     0
102
RTVSPost2010PropOp32
 70
     1
102
RTVSPost2010Prop33
280
     0
102
RTVSPost2010PropOp33
 70
     1
102
RTVSPost2010Prop34
280
     0
102
RTVSPost2010PropOp34
 70
     1
102
RTVSPost2010Prop35
280
     0
102
RTVSPost2010PropOp35
 70
     1
102
RTVSPost2010Prop36
280
     0
102
RTVSPost2010PropOp36
 70
     1
102
RTVSPost2010Prop37
 90
       50
102
RTVSPost2010PropOp37
 70
     1
102
RTVSPost2010Prop38
140
0.0
102
RTVSPost2010PropOp38
 70
     1
102
RTVSPost2010Prop39
140
1.0
102
RTVSPost2010PropOp39
 70
     1
102
RTVSPost2010Prop40
 90
        0
102
RTVSPost2010PropOp40
 70
     1
102
RTVSPost2010Prop41ColorIndex
 90
       18
102
RTVSPost2010Prop41ColorRGB
 90
        0
102
RTVSPost2010PropOp41
 70
     1
102
RTVSPost2010Prop42
 90
       50
102
RTVSPost2010PropOp42
 70
     1
102
RTVSPost2010Prop43
 90
        3
102
RTVSPost2010PropOp43
 70
     1
102
RTVSPost2010Prop44ColorIndex
 90
        5
102
RTVSPost2010Prop44ColorRGB
 90
      255
102
RTVSPost2010PropOp44
 70
     1
102
RTVSPost2010Prop45
280
     0
102
RTVSPost2010PropOp45
 70
     1
102
RTVSPost2010Prop46
 90
       50
102
RTVSPost2010PropOp46
 70
     1
102
RTVSPost2010Prop47
 90
       50
102
RTVSPost2010PropOp47
 70
     1
102
RTVSPost2010Prop48
 90
       50
102
RTVSPost2010PropOp48
 70
     1
102
RTVSPost2010Prop49
280
     0
102
RTVSPost2010PropOp49
 70
     1
102
RTVSPost2010Prop50
 90
       50
102
RTVSPost2010PropOp50
 70
     1
102
RTVSPost2010Prop51ColorIndex
 90
      256
102
RTVSPost2010Prop51ColorRGB
 90
-16777216
102
RTVSPost2010PropOp51
 70
     0
102
RTVSPost2010Prop52
140
1.0
102
RTVSPost2010PropOp52
 70
     0
102
RTVSPost2010Prop53
 90
        2
102
RTVSPost2010PropOp53
 70
     1
102
RTVSPost2010Prop54
  1
strokes_ogs.tif
102
RTVSPost2010PropOp54
 70
     1
102
RTVSPost2010Prop55
280
     0
102
RTVSPost2010PropOp55
 70
     1
102
RTVSPost2010Prop56
140
1.0
102
RTVSPost2010PropOp56
 70
     1
102
RTVSPost2010Prop57
140
1.0
102
RTVSPost2010PropOp57
 70
     1
102
RTVSPropertyOp0
 70
     1
102
RTVSPropertyOp1
 70
     1
102
RTVSPropertyOp2
 70
     1
102
RTVSPropertyOp3
 70
     1
102
RTVSPropertyOp4
 70
     1
102
RTVSPropertyOp5
 70
     1
102
RTVSPropertyOp6
 70
     1
102
RTVSPropertyOp7
 70
     1
102
RTVSPropertyOp8
 70
     1
102
RTVSPropertyOp9
 70
     1
102
RTVSPropertyOp10
 70
     1
102
RTVSPropertyOp11
 70
     1
102
RTVSPropertyOp12
 70
     1
102
RTVSPropertyOp13
 70
     1
102
RTVSPropertyOp14
 70
     1
102
RTVSPropertyOp15
 70
     1
102
RTVSPropertyOp16
 70
     1
102
RTVSPropertyOp17
 70
     1
102
RTVSPropertyOp18
 70
     1
102
RTVSPropertyOp19
 70
     1
102
RTVSPropertyOp20
 70
     1
102
RTVSPropertyOp21
 70
     1
102
RTVSPropertyOp22
 70
     1
102
RTVSPropertyOp23
 70
     1
102
RTVSPropertyOp24
 70
     1
102
RTVSPropertyOp25
 70
     1
102
RTVSPropertyOp26
 70
     1
102
RTVSPropertyOp27
 70
     1
102
RTVSPropertyOp28
 70
     1
102
RTVSPropertyOp29
 70
     1
102
RTVSPropertyOp30
 70
     1
102
RTVSPropertyOp31
 70
     1
102
RTVSPropertyOp32
 70
     1
102
RTVSPropertyOp33
 70
     1
102
RTVSPropertyOp34
 70
     1
102
RTVSPropertyOp35
 70
     1
102
RTVSPropertyOp36
 70
     1
102
RTVSPropertyOp37
 70
     1
102
RTVSPropertyOp38
 70
     1
102
RTVSPropertyOp39
 70
     1
102
RTVSPropertyOp40
 70
     1
102
RTVSPropertyOp41
 70
     1
102
RTVSPropertyOp42
 70
     1
102
RTVSPropertyOp43
 70
     1
102
RTVSPropertyOp44
 70
     1
102
RTVSPropertyOp45
 70
     1
102
RTVSPropertyOp46
 70
     1
102
RTVSPropertyOp47
 70
     1
102
RTVSPropertyOp48
 70
     1
102
RTVSPropertyOp49
 70
     1
102
RTVSPropertyOp50
 70
     1
102
RTVSPropertyOp51
 70
     0
102
RTVSPropertyOp52
 70
     0
102
RTVSPropertyOp53
 70
     1
102
RTVSPropertyOp54
 70
     1
102
RTVSPropertyOp55
 70
     1
102
RTVSPropertyOp56
 70
     1
102
RTVSPropertyOp57
 70
     1
102
RTVSPropertyOp58
 70
     1
102
RTVSPropertyOp59
 70
     1
102
RTVSPropertyOp60
 70
     1
102
RTVSPropertyOp61
 70
     1
102
RTVSPropertyOp62
 70
     1
  0
XRECORD
  5
8A2
102
{ACAD_REACTORS
330
8A1
102
}
330
8A1
100
AcDbXrecord
280
     1
102
RTVSPost2010Prop28
280
     0
102
RTVSPost2010PropOp28
 70
     1
102
RTVSPost2010Prop29
280
     1
102
RTVSPost2010PropOp29
 70
     1
102
RTVSPost2010Prop30
280
     1
102
RTVSPost2010PropOp30
 70
     1
102
RTVSPost2010Prop31
280
     0
102
RTVSPost2010PropOp31
 70
     1
102
RTVSPost2010Prop32
280
     0
102
RTVSPost2010PropOp32
 70
     1
102
RTVSPost2010Prop33
280
     0
102
RTVSPost2010PropOp33
 70
     1
102
RTVSPost2010Prop34
280
     0
102
RTVSPost2010PropOp34
 70
     1
102
RTVSPost2010Prop35
280
     0
102
RTVSPost2010PropOp35
 70
     1
102
RTVSPost2010Prop36
280
     0
102
RTVSPost2010PropOp36
 70
     1
102
RTVSPost2010Prop37
 90
       50
102
RTVSPost2010PropOp37
 70
     1
102
RTVSPost2010Prop38
140
0.0
102
RTVSPost2010PropOp38
 70
     1
102
RTVSPost2010Prop39
140
1.0
102
RTVSPost2010PropOp39
 70
     1
102
RTVSPost2010Prop40
 90
        0
102
RTVSPost2010PropOp40
 70
     1
102
RTVSPost2010Prop41ColorIndex
 90
       18
102
RTVSPost2010Prop41ColorRGB
 90
        0
102
RTVSPost2010PropOp41
 70
     1
102
RTVSPost2010Prop42
 90
       50
102
RTVSPost2010PropOp42
 70
     1
102
RTVSPost2010Prop43
 90
        3
102
RTVSPost2010PropOp43
 70
     1
102
RTVSPost2010Prop44ColorIndex
 90
        5
102
RTVSPost2010Prop44ColorRGB
 90
      255
102
RTVSPost2010PropOp44
 70
     1
102
RTVSPost2010Prop45
280
     0
102
RTVSPost2010PropOp45
 70
     1
102
RTVSPost2010Prop46
 90
       50
102
RTVSPost2010PropOp46
 70
     1
102
RTVSPost2010Prop47
 90
       50
102
RTVSPost2010PropOp47
 70
     1
102
RTVSPost2010Prop48
 90
       50
102
RTVSPost2010PropOp48
 70
     1
102
RTVSPost2010Prop49
280
     0
102
RTVSPost2010PropOp49
 70
     1
102
RTVSPost2010Prop50
 90
       50
102
RTVSPost2010PropOp50
 70
     1
102
RTVSPost2010Prop51ColorIndex
 90
      256
102
RTVSPost2010Prop51ColorRGB
 90
-16777216
102
RTVSPost2010PropOp51
 70
     0
102
RTVSPost2010Prop52
140
1.0
102
RTVSPost2010PropOp52
 70
     0
102
RTVSPost2010Prop53
 90
        2
102
RTVSPost2010PropOp53
 70
     1
102
RTVSPost2010Prop54
  1
strokes_ogs.tif
102
RTVSPost2010PropOp54
 70
     1
102
RTVSPost2010Prop55
280
     0
102
RTVSPost2010PropOp55
 70
     1
102
RTVSPost2010Prop56
140
1.0
102
RTVSPost2010PropOp56
 70
     1
102
RTVSPost2010Prop57
140
1.0
102
RTVSPost2010PropOp57
 70
     1
102
RTVSPropertyOp0
 70
     1
102
RTVSPropertyOp1
 70
     1
102
RTVSPropertyOp2
 70
     1
102
RTVSPropertyOp3
 70
     1
102
RTVSPropertyOp4
 70
     1
102
RTVSPropertyOp5
 70
     1
102
RTVSPropertyOp6
 70
     1
102
RTVSPropertyOp7
 70
     1
102
RTVSPropertyOp8
 70
     1
102
RTVSPropertyOp9
 70
     1
102
RTVSPropertyOp10
 70
     1
102
RTVSPropertyOp11
 70
     1
102
RTVSPropertyOp12
 70
     1
102
RTVSPropertyOp13
 70
     1
102
RTVSPropertyOp14
 70
     1
102
RTVSPropertyOp15
 70
     1
102
RTVSPropertyOp16
 70
     1
102
RTVSPropertyOp17
 70
     1
102
RTVSPropertyOp18
 70
     1
102
RTVSPropertyOp19
 70
     1
102
RTVSPropertyOp20
 70
     1
102
RTVSPropertyOp21
 70
     1
102
RTVSPropertyOp22
 70
     1
102
RTVSPropertyOp23
 70
     1
102
RTVSPropertyOp24
 70
     1
102
RTVSPropertyOp25
 70
     1
102
RTVSPropertyOp26
 70
     1
102
RTVSPropertyOp27
 70
     1
102
RTVSPropertyOp28
 70
     1
102
RTVSPropertyOp29
 70
     1
102
RTVSPropertyOp30
 70
     1
102
RTVSPropertyOp31
 70
     1
102
RTVSPropertyOp32
 70
     1
102
RTVSPropertyOp33
 70
     1
102
RTVSPropertyOp34
 70
     1
102
RTVSPropertyOp35
 70
     1
102
RTVSPropertyOp36
 70
     1
102
RTVSPropertyOp37
 70
     1
102
RTVSPropertyOp38
 70
     1
102
RTVSPropertyOp39
 70
     1
102
RTVSPropertyOp40
 70
     1
102
RTVSPropertyOp41
 70
     1
102
RTVSPropertyOp42
 70
     1
102
RTVSPropertyOp43
 70
     1
102
RTVSPropertyOp44
 70
     1
102
RTVSPropertyOp45
 70
     1
102
RTVSPropertyOp46
 70
     1
102
RTVSPropertyOp47
 70
     1
102
RTVSPropertyOp48
 70
     1
102
RTVSPropertyOp49
 70
     1
102
RTVSPropertyOp50
 70
     1
102
RTVSPropertyOp51
 70
     0
102
RTVSPropertyOp52
 70
     0
102
RTVSPropertyOp53
 70
     1
102
RTVSPropertyOp54
 70
     1
102
RTVSPropertyOp55
 70
     1
102
RTVSPropertyOp56
 70
     1
102
RTVSPropertyOp57
 70
     1
102
RTVSPropertyOp58
 70
     1
102
RTVSPropertyOp59
 70
     1
102
RTVSPropertyOp60
 70
     1
102
RTVSPropertyOp61
 70
     1
102
RTVSPropertyOp62
 70
     1
  0
XRECORD
  5
8A4
102
{ACAD_REACTORS
330
8A3
102
}
330
8A3
100
AcDbXrecord
280
     1
102
RTVSPost2010Prop28
280
     0
102
RTVSPost2010PropOp28
 70
     1
102
RTVSPost2010Prop29
280
     1
102
RTVSPost2010PropOp29
 70
     1
102
RTVSPost2010Prop30
280
     1
102
RTVSPost2010PropOp30
 70
     1
102
RTVSPost2010Prop31
280
     0
102
RTVSPost2010PropOp31
 70
     1
102
RTVSPost2010Prop32
280
     0
102
RTVSPost2010PropOp32
 70
     1
102
RTVSPost2010Prop33
280
     0
102
RTVSPost2010PropOp33
 70
     1
102
RTVSPost2010Prop34
280
     0
102
RTVSPost2010PropOp34
 70
     1
102
RTVSPost2010Prop35
280
     0
102
RTVSPost2010PropOp35
 70
     1
102
RTVSPost2010Prop36
280
     0
102
RTVSPost2010PropOp36
 70
     1
102
RTVSPost2010Prop37
 90
       50
102
RTVSPost2010PropOp37
 70
     1
102
RTVSPost2010Prop38
140
0.0
102
RTVSPost2010PropOp38
 70
     1
102
RTVSPost2010Prop39
140
1.0
102
RTVSPost2010PropOp39
 70
     1
102
RTVSPost2010Prop40
 90
        0
102
RTVSPost2010PropOp40
 70
     1
102
RTVSPost2010Prop41ColorIndex
 90
       18
102
RTVSPost2010Prop41ColorRGB
 90
        0
102
RTVSPost2010PropOp41
 70
     1
102
RTVSPost2010Prop42
 90
       50
102
RTVSPost2010PropOp42
 70
     1
102
RTVSPost2010Prop43
 90
        3
102
RTVSPost2010PropOp43
 70
     1
102
RTVSPost2010Prop44ColorIndex
 90
        5
102
RTVSPost2010Prop44ColorRGB
 90
      255
102
RTVSPost2010PropOp44
 70
     1
102
RTVSPost2010Prop45
280
     0
102
RTVSPost2010PropOp45
 70
     1
102
RTVSPost2010Prop46
 90
       50
102
RTVSPost2010PropOp46
 70
     1
102
RTVSPost2010Prop47
 90
       50
102
RTVSPost2010PropOp47
 70
     1
102
RTVSPost2010Prop48
 90
       50
102
RTVSPost2010PropOp48
 70
     1
102
RTVSPost2010Prop49
280
     0
102
RTVSPost2010PropOp49
 70
     1
102
RTVSPost2010Prop50
 90
       50
102
RTVSPost2010PropOp50
 70
     1
102
RTVSPost2010Prop51ColorIndex
 90
      256
102
RTVSPost2010Prop51ColorRGB
 90
-16777216
102
RTVSPost2010PropOp51
 70
     0
102
RTVSPost2010Prop52
140
1.0
102
RTVSPost2010PropOp52
 70
     0
102
RTVSPost2010Prop53
 90
        2
102
RTVSPost2010PropOp53
 70
     1
102
RTVSPost2010Prop54
  1
strokes_ogs.tif
102
RTVSPost2010PropOp54
 70
     1
102
RTVSPost2010Prop55
280
     0
102
RTVSPost2010PropOp55
 70
     1
102
RTVSPost2010Prop56
140
1.0
102
RTVSPost2010PropOp56
 70
     1
102
RTVSPost2010Prop57
140
1.0
102
RTVSPost2010PropOp57
 70
     1
102
RTVSPropertyOp0
 70
     1
102
RTVSPropertyOp1
 70
     1
102
RTVSPropertyOp2
 70
     1
102
RTVSPropertyOp3
 70
     1
102
RTVSPropertyOp4
 70
     1
102
RTVSPropertyOp5
 70
     1
102
RTVSPropertyOp6
 70
     1
102
RTVSPropertyOp7
 70
     1
102
RTVSPropertyOp8
 70
     1
102
RTVSPropertyOp9
 70
     1
102
RTVSPropertyOp10
 70
     1
102
RTVSPropertyOp11
 70
     1
102
RTVSPropertyOp12
 70
     1
102
RTVSPropertyOp13
 70
     1
102
RTVSPropertyOp14
 70
     1
102
RTVSPropertyOp15
 70
     1
102
RTVSPropertyOp16
 70
     1
102
RTVSPropertyOp17
 70
     1
102
RTVSPropertyOp18
 70
     1
102
RTVSPropertyOp19
 70
     1
102
RTVSPropertyOp20
 70
     1
102
RTVSPropertyOp21
 70
     1
102
RTVSPropertyOp22
 70
     1
102
RTVSPropertyOp23
 70
     1
102
RTVSPropertyOp24
 70
     1
102
RTVSPropertyOp25
 70
     1
102
RTVSPropertyOp26
 70
     1
102
RTVSPropertyOp27
 70
     1
102
RTVSPropertyOp28
 70
     1
102
RTVSPropertyOp29
 70
     1
102
RTVSPropertyOp30
 70
     1
102
RTVSPropertyOp31
 70
     1
102
RTVSPropertyOp32
 70
     1
102
RTVSPropertyOp33
 70
     1
102
RTVSPropertyOp34
 70
     1
102
RTVSPropertyOp35
 70
     1
102
RTVSPropertyOp36
 70
     1
102
RTVSPropertyOp37
 70
     1
102
RTVSPropertyOp38
 70
     1
102
RTVSPropertyOp39
 70
     1
102
RTVSPropertyOp40
 70
     1
102
RTVSPropertyOp41
 70
     1
102
RTVSPropertyOp42
 70
     1
102
RTVSPropertyOp43
 70
     1
102
RTVSPropertyOp44
 70
     1
102
RTVSPropertyOp45
 70
     1
102
RTVSPropertyOp46
 70
     1
102
RTVSPropertyOp47
 70
     1
102
RTVSPropertyOp48
 70
     1
102
RTVSPropertyOp49
 70
     1
102
RTVSPropertyOp50
 70
     1
102
RTVSPropertyOp51
 70
     0
102
RTVSPropertyOp52
 70
     0
102
RTVSPropertyOp53
 70
     1
102
RTVSPropertyOp54
 70
     1
102
RTVSPropertyOp55
 70
     1
102
RTVSPropertyOp56
 70
     1
102
RTVSPropertyOp57
 70
     1
102
RTVSPropertyOp58
 70
     1
102
RTVSPropertyOp59
 70
     1
102
RTVSPropertyOp60
 70
     1
102
RTVSPropertyOp61
 70
     1
102
RTVSPropertyOp62
 70
     1
  0
XRECORD
  5
8A6
102
{ACAD_REACTORS
330
8A5
102
}
330
8A5
100
AcDbXrecord
280
     1
102
RTVSPost2010Prop28
280
     0
102
RTVSPost2010PropOp28
 70
     1
102
RTVSPost2010Prop29
280
     1
102
RTVSPost2010PropOp29
 70
     1
102
RTVSPost2010Prop30
280
     1
102
RTVSPost2010PropOp30
 70
     1
102
RTVSPost2010Prop31
280
     0
102
RTVSPost2010PropOp31
 70
     1
102
RTVSPost2010Prop32
280
     0
102
RTVSPost2010PropOp32
 70
     1
102
RTVSPost2010Prop33
280
     0
102
RTVSPost2010PropOp33
 70
     1
102
RTVSPost2010Prop34
280
     0
102
RTVSPost2010PropOp34
 70
     1
102
RTVSPost2010Prop35
280
     0
102
RTVSPost2010PropOp35
 70
     1
102
RTVSPost2010Prop36
280
     0
102
RTVSPost2010PropOp36
 70
     1
102
RTVSPost2010Prop37
 90
       50
102
RTVSPost2010PropOp37
 70
     1
102
RTVSPost2010Prop38
140
0.0
102
RTVSPost2010PropOp38
 70
     1
102
RTVSPost2010Prop39
140
1.0
102
RTVSPost2010PropOp39
 70
     1
102
RTVSPost2010Prop40
 90
        0
102
RTVSPost2010PropOp40
 70
     1
102
RTVSPost2010Prop41ColorIndex
 90
       18
102
RTVSPost2010Prop41ColorRGB
 90
        0
102
RTVSPost2010PropOp41
 70
     1
102
RTVSPost2010Prop42
 90
       50
102
RTVSPost2010PropOp42
 70
     1
102
RTVSPost2010Prop43
 90
        3
102
RTVSPost2010PropOp43
 70
     1
102
RTVSPost2010Prop44ColorIndex
 90
        5
102
RTVSPost2010Prop44ColorRGB
 90
      255
102
RTVSPost2010PropOp44
 70
     1
102
RTVSPost2010Prop45
280
     0
102
RTVSPost2010PropOp45
 70
     1
102
RTVSPost2010Prop46
 90
       50
102
RTVSPost2010PropOp46
 70
     1
102
RTVSPost2010Prop47
 90
       50
102
RTVSPost2010PropOp47
 70
     1
102
RTVSPost2010Prop48
 90
       50
102
RTVSPost2010PropOp48
 70
     1
102
RTVSPost2010Prop49
280
     0
102
RTVSPost2010PropOp49
 70
     1
102
RTVSPost2010Prop50
 90
       50
102
RTVSPost2010PropOp50
 70
     1
102
RTVSPost2010Prop51ColorIndex
 90
      256
102
RTVSPost2010Prop51ColorRGB
 90
-16777216
102
RTVSPost2010PropOp51
 70
     0
102
RTVSPost2010Prop52
140
1.0
102
RTVSPost2010PropOp52
 70
     0
102
RTVSPost2010Prop53
 90
        2
102
RTVSPost2010PropOp53
 70
     1
102
RTVSPost2010Prop54
  1
strokes_ogs.tif
102
RTVSPost2010PropOp54
 70
     1
102
RTVSPost2010Prop55
280
     0
102
RTVSPost2010PropOp55
 70
     1
102
RTVSPost2010Prop56
140
1.0
102
RTVSPost2010PropOp56
 70
     1
102
RTVSPost2010Prop57
140
1.0
102
RTVSPost2010PropOp57
 70
     1
102
RTVSPropertyOp0
 70
     1
102
RTVSPropertyOp1
 70
     1
102
RTVSPropertyOp2
 70
     1
102
RTVSPropertyOp3
 70
     1
102
RTVSPropertyOp4
 70
     1
102
RTVSPropertyOp5
 70
     1
102
RTVSPropertyOp6
 70
     1
102
RTVSPropertyOp7
 70
     1
102
RTVSPropertyOp8
 70
     1
102
RTVSPropertyOp9
 70
     1
102
RTVSPropertyOp10
 70
     1
102
RTVSPropertyOp11
 70
     1
102
RTVSPropertyOp12
 70
     1
102
RTVSPropertyOp13
 70
     1
102
RTVSPropertyOp14
 70
     1
102
RTVSPropertyOp15
 70
     1
102
RTVSPropertyOp16
 70
     1
102
RTVSPropertyOp17
 70
     1
102
RTVSPropertyOp18
 70
     1
102
RTVSPropertyOp19
 70
     1
102
RTVSPropertyOp20
 70
     1
102
RTVSPropertyOp21
 70
     1
102
RTVSPropertyOp22
 70
     1
102
RTVSPropertyOp23
 70
     1
102
RTVSPropertyOp24
 70
     1
102
RTVSPropertyOp25
 70
     1
102
RTVSPropertyOp26
 70
     1
102
RTVSPropertyOp27
 70
     1
102
RTVSPropertyOp28
 70
     1
102
RTVSPropertyOp29
 70
     1
102
RTVSPropertyOp30
 70
     1
102
RTVSPropertyOp31
 70
     1
102
RTVSPropertyOp32
 70
     1
102
RTVSPropertyOp33
 70
     1
102
RTVSPropertyOp34
 70
     1
102
RTVSPropertyOp35
 70
     1
102
RTVSPropertyOp36
 70
     1
102
RTVSPropertyOp37
 70
     1
102
RTVSPropertyOp38
 70
     1
102
RTVSPropertyOp39
 70
     1
102
RTVSPropertyOp40
 70
     1
102
RTVSPropertyOp41
 70
     1
102
RTVSPropertyOp42
 70
     1
102
RTVSPropertyOp43
 70
     1
102
RTVSPropertyOp44
 70
     1
102
RTVSPropertyOp45
 70
     1
102
RTVSPropertyOp46
 70
     1
102
RTVSPropertyOp47
 70
     1
102
RTVSPropertyOp48
 70
     1
102
RTVSPropertyOp49
 70
     1
102
RTVSPropertyOp50
 70
     1
102
RTVSPropertyOp51
 70
     0
102
RTVSPropertyOp52
 70
     0
102
RTVSPropertyOp53
 70
     1
102
RTVSPropertyOp54
 70
     1
102
RTVSPropertyOp55
 70
     1
102
RTVSPropertyOp56
 70
     1
102
RTVSPropertyOp57
 70
     1
102
RTVSPropertyOp58
 70
     1
102
RTVSPropertyOp59
 70
     1
102
RTVSPropertyOp60
 70
     1
102
RTVSPropertyOp61
 70
     1
102
RTVSPropertyOp62
 70
     1
  0
XRECORD
  5
8A8
102
{ACAD_REACTORS
330
8A7
102
}
330
8A7
100
AcDbXrecord
280
     1
102
RTVSPost2010Prop28
280
     0
102
RTVSPost2010PropOp28
 70
     1
102
RTVSPost2010Prop29
280
     1
102
RTVSPost2010PropOp29
 70
     1
102
RTVSPost2010Prop30
280
     1
102
RTVSPost2010PropOp30
 70
     1
102
RTVSPost2010Prop31
280
     0
102
RTVSPost2010PropOp31
 70
     1
102
RTVSPost2010Prop32
280
     0
102
RTVSPost2010PropOp32
 70
     1
102
RTVSPost2010Prop33
280
     0
102
RTVSPost2010PropOp33
 70
     1
102
RTVSPost2010Prop34
280
     0
102
RTVSPost2010PropOp34
 70
     1
102
RTVSPost2010Prop35
280
     0
102
RTVSPost2010PropOp35
 70
     1
102
RTVSPost2010Prop36
280
     0
102
RTVSPost2010PropOp36
 70
     1
102
RTVSPost2010Prop37
 90
       50
102
RTVSPost2010PropOp37
 70
     1
102
RTVSPost2010Prop38
140
0.0
102
RTVSPost2010PropOp38
 70
     1
102
RTVSPost2010Prop39
140
1.0
102
RTVSPost2010PropOp39
 70
     1
102
RTVSPost2010Prop40
 90
        0
102
RTVSPost2010PropOp40
 70
     1
102
RTVSPost2010Prop41ColorIndex
 90
       18
102
RTVSPost2010Prop41ColorRGB
 90
        0
102
RTVSPost2010PropOp41
 70
     1
102
RTVSPost2010Prop42
 90
       50
102
RTVSPost2010PropOp42
 70
     1
102
RTVSPost2010Prop43
 90
        3
102
RTVSPost2010PropOp43
 70
     1
102
RTVSPost2010Prop44ColorIndex
 90
        5
102
RTVSPost2010Prop44ColorRGB
 90
      255
102
RTVSPost2010PropOp44
 70
     1
102
RTVSPost2010Prop45
280
     0
102
RTVSPost2010PropOp45
 70
     1
102
RTVSPost2010Prop46
 90
       50
102
RTVSPost2010PropOp46
 70
     1
102
RTVSPost2010Prop47
 90
       50
102
RTVSPost2010PropOp47
 70
     1
102
RTVSPost2010Prop48
 90
       50
102
RTVSPost2010PropOp48
 70
     1
102
RTVSPost2010Prop49
280
     0
102
RTVSPost2010PropOp49
 70
     1
102
RTVSPost2010Prop50
 90
       50
102
RTVSPost2010PropOp50
 70
     1
102
RTVSPost2010Prop51ColorIndex
 90
      256
102
RTVSPost2010Prop51ColorRGB
 90
-16777216
102
RTVSPost2010PropOp51
 70
     0
102
RTVSPost2010Prop52
140
1.0
102
RTVSPost2010PropOp52
 70
     0
102
RTVSPost2010Prop53
 90
        2
102
RTVSPost2010PropOp53
 70
     1
102
RTVSPost2010Prop54
  1
strokes_ogs.tif
102
RTVSPost2010PropOp54
 70
     1
102
RTVSPost2010Prop55
280
     0
102
RTVSPost2010PropOp55
 70
     1
102
RTVSPost2010Prop56
140
1.0
102
RTVSPost2010PropOp56
 70
     1
102
RTVSPost2010Prop57
140
1.0
102
RTVSPost2010PropOp57
 70
     1
102
RTVSPropertyOp0
 70
     1
102
RTVSPropertyOp1
 70
     1
102
RTVSPropertyOp2
 70
     1
102
RTVSPropertyOp3
 70
     1
102
RTVSPropertyOp4
 70
     1
102
RTVSPropertyOp5
 70
     1
102
RTVSPropertyOp6
 70
     1
102
RTVSPropertyOp7
 70
     1
102
RTVSPropertyOp8
 70
     1
102
RTVSPropertyOp9
 70
     1
102
RTVSPropertyOp10
 70
     1
102
RTVSPropertyOp11
 70
     1
102
RTVSPropertyOp12
 70
     1
102
RTVSPropertyOp13
 70
     1
102
RTVSPropertyOp14
 70
     1
102
RTVSPropertyOp15
 70
     1
102
RTVSPropertyOp16
 70
     1
102
RTVSPropertyOp17
 70
     1
102
RTVSPropertyOp18
 70
     1
102
RTVSPropertyOp19
 70
     1
102
RTVSPropertyOp20
 70
     1
102
RTVSPropertyOp21
 70
     1
102
RTVSPropertyOp22
 70
     1
102
RTVSPropertyOp23
 70
     1
102
RTVSPropertyOp24
 70
     1
102
RTVSPropertyOp25
 70
     1
102
RTVSPropertyOp26
 70
     1
102
RTVSPropertyOp27
 70
     1
102
RTVSPropertyOp28
 70
     1
102
RTVSPropertyOp29
 70
     1
102
RTVSPropertyOp30
 70
     1
102
RTVSPropertyOp31
 70
     1
102
RTVSPropertyOp32
 70
     1
102
RTVSPropertyOp33
 70
     1
102
RTVSPropertyOp34
 70
     1
102
RTVSPropertyOp35
 70
     1
102
RTVSPropertyOp36
 70
     1
102
RTVSPropertyOp37
 70
     1
102
RTVSPropertyOp38
 70
     1
102
RTVSPropertyOp39
 70
     1
102
RTVSPropertyOp40
 70
     1
102
RTVSPropertyOp41
 70
     1
102
RTVSPropertyOp42
 70
     1
102
RTVSPropertyOp43
 70
     1
102
RTVSPropertyOp44
 70
     1
102
RTVSPropertyOp45
 70
     1
102
RTVSPropertyOp46
 70
     1
102
RTVSPropertyOp47
 70
     1
102
RTVSPropertyOp48
 70
     1
102
RTVSPropertyOp49
 70
     1
102
RTVSPropertyOp50
 70
     1
102
RTVSPropertyOp51
 70
     0
102
RTVSPropertyOp52
 70
     0
102
RTVSPropertyOp53
 70
     1
102
RTVSPropertyOp54
 70
     1
102
RTVSPropertyOp55
 70
     1
102
RTVSPropertyOp56
 70
     1
102
RTVSPropertyOp57
 70
     1
102
RTVSPropertyOp58
 70
     1
102
RTVSPropertyOp59
 70
     1
102
RTVSPropertyOp60
 70
     1
102
RTVSPropertyOp61
 70
     1
102
RTVSPropertyOp62
 70
     1
  0
XRECORD
  5
8B0
102
{ACAD_REACTORS
330
8AF
102
}
330
8AF
100
AcDbXrecord
280
     1
102
RTVSPost2010Prop28
280
     0
102
RTVSPost2010PropOp28
 70
     1
102
RTVSPost2010Prop29
280
     1
102
RTVSPost2010PropOp29
 70
     1
102
RTVSPost2010Prop30
280
     1
102
RTVSPost2010PropOp30
 70
     1
102
RTVSPost2010Prop31
280
     0
102
RTVSPost2010PropOp31
 70
     1
102
RTVSPost2010Prop32
280
     0
102
RTVSPost2010PropOp32
 70
     1
102
RTVSPost2010Prop33
280
     0
102
RTVSPost2010PropOp33
 70
     1
102
RTVSPost2010Prop34
280
     0
102
RTVSPost2010PropOp34
 70
     1
102
RTVSPost2010Prop35
280
     0
102
RTVSPost2010PropOp35
 70
     1
102
RTVSPost2010Prop36
280
     0
102
RTVSPost2010PropOp36
 70
     1
102
RTVSPost2010Prop37
 90
       50
102
RTVSPost2010PropOp37
 70
     1
102
RTVSPost2010Prop38
140
0.0
102
RTVSPost2010PropOp38
 70
     1
102
RTVSPost2010Prop39
140
1.0
102
RTVSPost2010PropOp39
 70
     1
102
RTVSPost2010Prop40
 90
        0
102
RTVSPost2010PropOp40
 70
     1
102
RTVSPost2010Prop41ColorIndex
 90
       18
102
RTVSPost2010Prop41ColorRGB
 90
        0
102
RTVSPost2010PropOp41
 70
     1
102
RTVSPost2010Prop42
 90
       50
102
RTVSPost2010PropOp42
 70
     1
102
RTVSPost2010Prop43
 90
        3
102
RTVSPost2010PropOp43
 70
     1
102
RTVSPost2010Prop44ColorIndex
 90
        5
102
RTVSPost2010Prop44ColorRGB
 90
      255
102
RTVSPost2010PropOp44
 70
     1
102
RTVSPost2010Prop45
280
     0
102
RTVSPost2010PropOp45
 70
     1
102
RTVSPost2010Prop46
 90
       50
102
RTVSPost2010PropOp46
 70
     1
102
RTVSPost2010Prop47
 90
       50
102
RTVSPost2010PropOp47
 70
     1
102
RTVSPost2010Prop48
 90
       50
102
RTVSPost2010PropOp48
 70
     1
102
RTVSPost2010Prop49
280
     0
102
RTVSPost2010PropOp49
 70
     1
102
RTVSPost2010Prop50
 90
       50
102
RTVSPost2010PropOp50
 70
     1
102
RTVSPost2010Prop51ColorIndex
 90
      256
102
RTVSPost2010Prop51ColorRGB
 90
-16777216
102
RTVSPost2010PropOp51
 70
     0
102
RTVSPost2010Prop52
140
1.0
102
RTVSPost2010PropOp52
 70
     0
102
RTVSPost2010Prop53
 90
        2
102
RTVSPost2010PropOp53
 70
     1
102
RTVSPost2010Prop54
  1
strokes_ogs.tif
102
RTVSPost2010PropOp54
 70
     1
102
RTVSPost2010Prop55
280
     0
102
RTVSPost2010PropOp55
 70
     1
102
RTVSPost2010Prop56
140
1.0
102
RTVSPost2010PropOp56
 70
     1
102
RTVSPost2010Prop57
140
1.0
102
RTVSPost2010PropOp57
 70
     1
102
RTVSPropertyOp0
 70
     1
102
RTVSPropertyOp1
 70
     1
102
RTVSPropertyOp2
 70
     1
102
RTVSPropertyOp3
 70
     1
102
RTVSPropertyOp4
 70
     1
102
RTVSPropertyOp5
 70
     1
102
RTVSPropertyOp6
 70
     1
102
RTVSPropertyOp7
 70
     1
102
RTVSPropertyOp8
 70
     1
102
RTVSPropertyOp9
 70
     1
102
RTVSPropertyOp10
 70
     1
102
RTVSPropertyOp11
 70
     1
102
RTVSPropertyOp12
 70
     1
102
RTVSPropertyOp13
 70
     1
102
RTVSPropertyOp14
 70
     1
102
RTVSPropertyOp15
 70
     1
102
RTVSPropertyOp16
 70
     1
102
RTVSPropertyOp17
 70
     1
102
RTVSPropertyOp18
 70
     1
102
RTVSPropertyOp19
 70
     1
102
RTVSPropertyOp20
 70
     1
102
RTVSPropertyOp21
 70
     1
102
RTVSPropertyOp22
 70
     1
102
RTVSPropertyOp23
 70
     1
102
RTVSPropertyOp24
 70
     1
102
RTVSPropertyOp25
 70
     1
102
RTVSPropertyOp26
 70
     1
102
RTVSPropertyOp27
 70
     1
102
RTVSPropertyOp28
 70
     1
102
RTVSPropertyOp29
 70
     1
102
RTVSPropertyOp30
 70
     1
102
RTVSPropertyOp31
 70
     1
102
RTVSPropertyOp32
 70
     1
102
RTVSPropertyOp33
 70
     1
102
RTVSPropertyOp34
 70
     1
102
RTVSPropertyOp35
 70
     1
102
RTVSPropertyOp36
 70
     1
102
RTVSPropertyOp37
 70
     1
102
RTVSPropertyOp38
 70
     1
102
RTVSPropertyOp39
 70
     1
102
RTVSPropertyOp40
 70
     1
102
RTVSPropertyOp41
 70
     1
102
RTVSPropertyOp42
 70
     1
102
RTVSPropertyOp43
 70
     1
102
RTVSPropertyOp44
 70
     1
102
RTVSPropertyOp45
 70
     1
102
RTVSPropertyOp46
 70
     1
102
RTVSPropertyOp47
 70
     1
102
RTVSPropertyOp48
 70
     1
102
RTVSPropertyOp49
 70
     1
102
RTVSPropertyOp50
 70
     1
102
RTVSPropertyOp51
 70
     0
102
RTVSPropertyOp52
 70
     0
102
RTVSPropertyOp53
 70
     1
102
RTVSPropertyOp54
 70
     1
102
RTVSPropertyOp55
 70
     1
102
RTVSPropertyOp56
 70
     1
102
RTVSPropertyOp57
 70
     1
102
RTVSPropertyOp58
 70
     1
102
RTVSPropertyOp59
 70
     1
102
RTVSPropertyOp60
 70
     1
102
RTVSPropertyOp61
 70
     1
102
RTVSPropertyOp62
 70
     1
  0
XRECORD
  5
8CC
102
{ACAD_REACTORS
330
8CB
102
}
330
8CB
100
AcDbXrecord
280
     1
102
RTVSPost2010Prop28
280
     0
102
RTVSPost2010PropOp28
 70
     1
102
RTVSPost2010Prop29
280
     1
102
RTVSPost2010PropOp29
 70
     1
102
RTVSPost2010Prop30
280
     1
102
RTVSPost2010PropOp30
 70
     1
102
RTVSPost2010Prop31
280
     0
102
RTVSPost2010PropOp31
 70
     1
102
RTVSPost2010Prop32
280
     0
102
RTVSPost2010PropOp32
 70
     1
102
RTVSPost2010Prop33
280
     0
102
RTVSPost2010PropOp33
 70
     1
102
RTVSPost2010Prop34
280
     0
102
RTVSPost2010PropOp34
 70
     1
102
RTVSPost2010Prop35
280
     0
102
RTVSPost2010PropOp35
 70
     1
102
RTVSPost2010Prop36
280
     0
102
RTVSPost2010PropOp36
 70
     1
102
RTVSPost2010Prop37
 90
       50
102
RTVSPost2010PropOp37
 70
     0
102
RTVSPost2010Prop38
140
0.0
102
RTVSPost2010PropOp38
 70
     0
102
RTVSPost2010Prop39
140
1.0
102
RTVSPost2010PropOp39
 70
     0
102
RTVSPost2010Prop40
 90
        0
102
RTVSPost2010PropOp40
 70
     0
102
RTVSPost2010Prop41ColorIndex
 90
       18
102
RTVSPost2010Prop41ColorRGB
 90
        0
102
RTVSPost2010PropOp41
 70
     0
102
RTVSPost2010Prop42
 90
       50
102
RTVSPost2010PropOp42
 70
     0
102
RTVSPost2010Prop43
 90
        3
102
RTVSPost2010PropOp43
 70
     0
102
RTVSPost2010Prop44ColorIndex
 90
        5
102
RTVSPost2010Prop44ColorRGB
 90
      255
102
RTVSPost2010PropOp44
 70
     0
102
RTVSPost2010Prop45
280
     0
102
RTVSPost2010PropOp45
 70
     1
102
RTVSPost2010Prop46
 90
       50
102
RTVSPost2010PropOp46
 70
     0
102
RTVSPost2010Prop47
 90
       50
102
RTVSPost2010PropOp47
 70
     0
102
RTVSPost2010Prop48
 90
       50
102
RTVSPost2010PropOp48
 70
     0
102
RTVSPost2010Prop49
280
     0
102
RTVSPost2010PropOp49
 70
     1
102
RTVSPost2010Prop50
 90
       50
102
RTVSPost2010PropOp50
 70
     0
102
RTVSPost2010Prop51ColorIndex
 90
      256
102
RTVSPost2010Prop51ColorRGB
 90
-16777216
102
RTVSPost2010PropOp51
 70
     0
102
RTVSPost2010Prop52
140
1.0
102
RTVSPost2010PropOp52
 70
     0
102
RTVSPost2010Prop53
 90
        2
102
RTVSPost2010PropOp53
 70
     0
102
RTVSPost2010Prop54
  1
strokes_ogs.tif
102
RTVSPost2010PropOp54
 70
     0
102
RTVSPost2010Prop55
280
     0
102
RTVSPost2010PropOp55
 70
     1
102
RTVSPost2010Prop56
140
1.0
102
RTVSPost2010PropOp56
 70
     0
102
RTVSPost2010Prop57
140
1.0
102
RTVSPost2010PropOp57
 70
     0
102
RTVSPropertyOp0
 70
     0
102
RTVSPropertyOp1
 70
     0
102
RTVSPropertyOp2
 70
     0
102
RTVSPropertyOp3
 70
     0
102
RTVSPropertyOp4
 70
     0
102
RTVSPropertyOp5
 70
     0
102
RTVSPropertyOp6
 70
     0
102
RTVSPropertyOp7
 70
     0
102
RTVSPropertyOp8
 70
     0
102
RTVSPropertyOp9
 70
     0
102
RTVSPropertyOp10
 70
     0
102
RTVSPropertyOp11
 70
     0
102
RTVSPropertyOp12
 70
     0
102
RTVSPropertyOp13
 70
     0
102
RTVSPropertyOp14
 70
     2
102
RTVSPropertyOp15
 70
     0
102
RTVSPropertyOp16
 70
     0
102
RTVSPropertyOp17
 70
     0
102
RTVSPropertyOp18
 70
     0
102
RTVSPropertyOp19
 70
     0
102
RTVSPropertyOp20
 70
     0
102
RTVSPropertyOp21
 70
     0
102
RTVSPropertyOp22
 70
     0
102
RTVSPropertyOp23
 70
     0
102
RTVSPropertyOp24
 70
     0
102
RTVSPropertyOp25
 70
     0
102
RTVSPropertyOp26
 70
     0
102
RTVSPropertyOp27
 70
     0
102
RTVSPropertyOp28
 70
     1
102
RTVSPropertyOp29
 70
     1
102
RTVSPropertyOp30
 70
     1
102
RTVSPropertyOp31
 70
     1
102
RTVSPropertyOp32
 70
     1
102
RTVSPropertyOp33
 70
     1
102
RTVSPropertyOp34
 70
     1
102
RTVSPropertyOp35
 70
     1
102
RTVSPropertyOp36
 70
     1
102
RTVSPropertyOp37
 70
     0
102
RTVSPropertyOp38
 70
     0
102
RTVSPropertyOp39
 70
     0
102
RTVSPropertyOp40
 70
     0
102
RTVSPropertyOp41
 70
     0
102
RTVSPropertyOp42
 70
     0
102
RTVSPropertyOp43
 70
     0
102
RTVSPropertyOp44
 70
     0
102
RTVSPropertyOp45
 70
     1
102
RTVSPropertyOp46
 70
     0
102
RTVSPropertyOp47
 70
     0
102
RTVSPropertyOp48
 70
     0
102
RTVSPropertyOp49
 70
     1
102
RTVSPropertyOp50
 70
     0
102
RTVSPropertyOp51
 70
     0
102
RTVSPropertyOp52
 70
     0
102
RTVSPropertyOp53
 70
     0
102
RTVSPropertyOp54
 70
     0
102
RTVSPropertyOp55
 70
     1
102
RTVSPropertyOp56
 70
     0
102
RTVSPropertyOp57
 70
     0
102
RTVSPropertyOp58
 70
     0
102
RTVSPropertyOp59
 70
     0
102
RTVSPropertyOp60
 70
     0
102
RTVSPropertyOp61
 70
     0
102
RTVSPropertyOp62
 70
     0
  0
XRECORD
  5
8BC
102
{ACAD_REACTORS
330
8BB
102
}
330
8BB
100
AcDbXrecord
280
     1
102
RTVSPost2010Prop28
280
     0
102
RTVSPost2010PropOp28
 70
     1
102
RTVSPost2010Prop29
280
     1
102
RTVSPost2010PropOp29
 70
     1
102
RTVSPost2010Prop30
280
     1
102
RTVSPost2010PropOp30
 70
     1
102
RTVSPost2010Prop31
280
     0
102
RTVSPost2010PropOp31
 70
     1
102
RTVSPost2010Prop32
280
     0
102
RTVSPost2010PropOp32
 70
     1
102
RTVSPost2010Prop33
280
     0
102
RTVSPost2010PropOp33
 70
     1
102
RTVSPost2010Prop34
280
     0
102
RTVSPost2010PropOp34
 70
     1
102
RTVSPost2010Prop35
280
     0
102
RTVSPost2010PropOp35
 70
     1
102
RTVSPost2010Prop36
280
     0
102
RTVSPost2010PropOp36
 70
     1
102
RTVSPost2010Prop37
 90
       50
102
RTVSPost2010PropOp37
 70
     1
102
RTVSPost2010Prop38
140
0.0
102
RTVSPost2010PropOp38
 70
     1
102
RTVSPost2010Prop39
140
1.0
102
RTVSPost2010PropOp39
 70
     1
102
RTVSPost2010Prop40
 90
        0
102
RTVSPost2010PropOp40
 70
     1
102
RTVSPost2010Prop41ColorIndex
 90
       18
102
RTVSPost2010Prop41ColorRGB
 90
        0
102
RTVSPost2010PropOp41
 70
     1
102
RTVSPost2010Prop42
 90
       50
102
RTVSPost2010PropOp42
 70
     1
102
RTVSPost2010Prop43
 90
        3
102
RTVSPost2010PropOp43
 70
     1
102
RTVSPost2010Prop44ColorIndex
 90
        5
102
RTVSPost2010Prop44ColorRGB
 90
      255
102
RTVSPost2010PropOp44
 70
     1
102
RTVSPost2010Prop45
280
     0
102
RTVSPost2010PropOp45
 70
     1
102
RTVSPost2010Prop46
 90
       50
102
RTVSPost2010PropOp46
 70
     1
102
RTVSPost2010Prop47
 90
       50
102
RTVSPost2010PropOp47
 70
     1
102
RTVSPost2010Prop48
 90
       50
102
RTVSPost2010PropOp48
 70
     1
102
RTVSPost2010Prop49
280
     0
102
RTVSPost2010PropOp49
 70
     1
102
RTVSPost2010Prop50
 90
       50
102
RTVSPost2010PropOp50
 70
     1
102
RTVSPost2010Prop51ColorIndex
 90
      256
102
RTVSPost2010Prop51ColorRGB
 90
-16777216
102
RTVSPost2010PropOp51
 70
     0
102
RTVSPost2010Prop52
140
1.0
102
RTVSPost2010PropOp52
 70
     0
102
RTVSPost2010Prop53
 90
        2
102
RTVSPost2010PropOp53
 70
     1
102
RTVSPost2010Prop54
  1
strokes_ogs.tif
102
RTVSPost2010PropOp54
 70
     1
102
RTVSPost2010Prop55
280
     0
102
RTVSPost2010PropOp55
 70
     1
102
RTVSPost2010Prop56
140
1.0
102
RTVSPost2010PropOp56
 70
     1
102
RTVSPost2010Prop57
140
1.0
102
RTVSPost2010PropOp57
 70
     1
102
RTVSPropertyOp0
 70
     1
102
RTVSPropertyOp1
 70
     1
102
RTVSPropertyOp2
 70
     1
102
RTVSPropertyOp3
 70
     1
102
RTVSPropertyOp4
 70
     1
102
RTVSPropertyOp5
 70
     1
102
RTVSPropertyOp6
 70
     1
102
RTVSPropertyOp7
 70
     1
102
RTVSPropertyOp8
 70
     1
102
RTVSPropertyOp9
 70
     1
102
RTVSPropertyOp10
 70
     1
102
RTVSPropertyOp11
 70
     1
102
RTVSPropertyOp12
 70
     1
102
RTVSPropertyOp13
 70
     1
102
RTVSPropertyOp14
 70
     1
102
RTVSPropertyOp15
 70
     1
102
RTVSPropertyOp16
 70
     1
102
RTVSPropertyOp17
 70
     1
102
RTVSPropertyOp18
 70
     1
102
RTVSPropertyOp19
 70
     1
102
RTVSPropertyOp20
 70
     1
102
RTVSPropertyOp21
 70
     1
102
RTVSPropertyOp22
 70
     1
102
RTVSPropertyOp23
 70
     1
102
RTVSPropertyOp24
 70
     1
102
RTVSPropertyOp25
 70
     1
102
RTVSPropertyOp26
 70
     1
102
RTVSPropertyOp27
 70
     1
102
RTVSPropertyOp28
 70
     1
102
RTVSPropertyOp29
 70
     1
102
RTVSPropertyOp30
 70
     1
102
RTVSPropertyOp31
 70
     1
102
RTVSPropertyOp32
 70
     1
102
RTVSPropertyOp33
 70
     1
102
RTVSPropertyOp34
 70
     1
102
RTVSPropertyOp35
 70
     1
102
RTVSPropertyOp36
 70
     1
102
RTVSPropertyOp37
 70
     1
102
RTVSPropertyOp38
 70
     1
102
RTVSPropertyOp39
 70
     1
102
RTVSPropertyOp40
 70
     1
102
RTVSPropertyOp41
 70
     1
102
RTVSPropertyOp42
 70
     1
102
RTVSPropertyOp43
 70
     1
102
RTVSPropertyOp44
 70
     1
102
RTVSPropertyOp45
 70
     1
102
RTVSPropertyOp46
 70
     1
102
RTVSPropertyOp47
 70
     1
102
RTVSPropertyOp48
 70
     1
102
RTVSPropertyOp49
 70
     1
102
RTVSPropertyOp50
 70
     1
102
RTVSPropertyOp51
 70
     0
102
RTVSPropertyOp52
 70
     0
102
RTVSPropertyOp53
 70
     1
102
RTVSPropertyOp54
 70
     1
102
RTVSPropertyOp55
 70
     1
102
RTVSPropertyOp56
 70
     1
102
RTVSPropertyOp57
 70
     1
102
RTVSPropertyOp58
 70
     1
102
RTVSPropertyOp59
 70
     1
102
RTVSPropertyOp60
 70
     1
102
RTVSPropertyOp61
 70
     1
102
RTVSPropertyOp62
 70
     1
  0
XRECORD
  5
8CE
102
{ACAD_REACTORS
330
8CD
102
}
330
8CD
100
AcDbXrecord
280
     1
102
RTVSPost2010Prop28
280
     0
102
RTVSPost2010PropOp28
 70
     1
102
RTVSPost2010Prop29
280
     1
102
RTVSPost2010PropOp29
 70
     1
102
RTVSPost2010Prop30
280
     1
102
RTVSPost2010PropOp30
 70
     1
102
RTVSPost2010Prop31
280
     0
102
RTVSPost2010PropOp31
 70
     1
102
RTVSPost2010Prop32
280
     0
102
RTVSPost2010PropOp32
 70
     1
102
RTVSPost2010Prop33
280
     0
102
RTVSPost2010PropOp33
 70
     1
102
RTVSPost2010Prop34
280
     0
102
RTVSPost2010PropOp34
 70
     1
102
RTVSPost2010Prop35
280
     0
102
RTVSPost2010PropOp35
 70
     1
102
RTVSPost2010Prop36
280
     0
102
RTVSPost2010PropOp36
 70
     1
102
RTVSPost2010Prop37
 90
       50
102
RTVSPost2010PropOp37
 70
     0
102
RTVSPost2010Prop38
140
0.0
102
RTVSPost2010PropOp38
 70
     0
102
RTVSPost2010Prop39
140
1.0
102
RTVSPost2010PropOp39
 70
     0
102
RTVSPost2010Prop40
 90
        0
102
RTVSPost2010PropOp40
 70
     0
102
RTVSPost2010Prop41ColorIndex
 90
       18
102
RTVSPost2010Prop41ColorRGB
 90
        0
102
RTVSPost2010PropOp41
 70
     0
102
RTVSPost2010Prop42
 90
       50
102
RTVSPost2010PropOp42
 70
     0
102
RTVSPost2010Prop43
 90
        3
102
RTVSPost2010PropOp43
 70
     0
102
RTVSPost2010Prop44ColorIndex
 90
        5
102
RTVSPost2010Prop44ColorRGB
 90
      255
102
RTVSPost2010PropOp44
 70
     0
102
RTVSPost2010Prop45
280
     0
102
RTVSPost2010PropOp45
 70
     1
102
RTVSPost2010Prop46
 90
       50
102
RTVSPost2010PropOp46
 70
     0
102
RTVSPost2010Prop47
 90
       50
102
RTVSPost2010PropOp47
 70
     0
102
RTVSPost2010Prop48
 90
       50
102
RTVSPost2010PropOp48
 70
     0
102
RTVSPost2010Prop49
280
     0
102
RTVSPost2010PropOp49
 70
     1
102
RTVSPost2010Prop50
 90
       50
102
RTVSPost2010PropOp50
 70
     0
102
RTVSPost2010Prop51ColorIndex
 90
      256
102
RTVSPost2010Prop51ColorRGB
 90
-16777216
102
RTVSPost2010PropOp51
 70
     0
102
RTVSPost2010Prop52
140
1.0
102
RTVSPost2010PropOp52
 70
     0
102
RTVSPost2010Prop53
 90
        2
102
RTVSPost2010PropOp53
 70
     0
102
RTVSPost2010Prop54
  1
strokes_ogs.tif
102
RTVSPost2010PropOp54
 70
     0
102
RTVSPost2010Prop55
280
     0
102
RTVSPost2010PropOp55
 70
     1
102
RTVSPost2010Prop56
140
1.0
102
RTVSPost2010PropOp56
 70
     0
102
RTVSPost2010Prop57
140
1.0
102
RTVSPost2010PropOp57
 70
     0
102
RTVSPropertyOp0
 70
     0
102
RTVSPropertyOp1
 70
     0
102
RTVSPropertyOp2
 70
     0
102
RTVSPropertyOp3
 70
     0
102
RTVSPropertyOp4
 70
     0
102
RTVSPropertyOp5
 70
     0
102
RTVSPropertyOp6
 70
     0
102
RTVSPropertyOp7
 70
     0
102
RTVSPropertyOp8
 70
     0
102
RTVSPropertyOp9
 70
     0
102
RTVSPropertyOp10
 70
     0
102
RTVSPropertyOp11
 70
     0
102
RTVSPropertyOp12
 70
     0
102
RTVSPropertyOp13
 70
     0
102
RTVSPropertyOp14
 70
     2
102
RTVSPropertyOp15
 70
     0
102
RTVSPropertyOp16
 70
     0
102
RTVSPropertyOp17
 70
     0
102
RTVSPropertyOp18
 70
     0
102
RTVSPropertyOp19
 70
     0
102
RTVSPropertyOp20
 70
     0
102
RTVSPropertyOp21
 70
     0
102
RTVSPropertyOp22
 70
     0
102
RTVSPropertyOp23
 70
     0
102
RTVSPropertyOp24
 70
     0
102
RTVSPropertyOp25
 70
     0
102
RTVSPropertyOp26
 70
     0
102
RTVSPropertyOp27
 70
     0
102
RTVSPropertyOp28
 70
     1
102
RTVSPropertyOp29
 70
     1
102
RTVSPropertyOp30
 70
     1
102
RTVSPropertyOp31
 70
     1
102
RTVSPropertyOp32
 70
     1
102
RTVSPropertyOp33
 70
     1
102
RTVSPropertyOp34
 70
     1
102
RTVSPropertyOp35
 70
     1
102
RTVSPropertyOp36
 70
     1
102
RTVSPropertyOp37
 70
     0
102
RTVSPropertyOp38
 70
     0
102
RTVSPropertyOp39
 70
     0
102
RTVSPropertyOp40
 70
     0
102
RTVSPropertyOp41
 70
     0
102
RTVSPropertyOp42
 70
     0
102
RTVSPropertyOp43
 70
     0
102
RTVSPropertyOp44
 70
     0
102
RTVSPropertyOp45
 70
     1
102
RTVSPropertyOp46
 70
     0
102
RTVSPropertyOp47
 70
     0
102
RTVSPropertyOp48
 70
     0
102
RTVSPropertyOp49
 70
     1
102
RTVSPropertyOp50
 70
     0
102
RTVSPropertyOp51
 70
     0
102
RTVSPropertyOp52
 70
     0
102
RTVSPropertyOp53
 70
     0
102
RTVSPropertyOp54
 70
     0
102
RTVSPropertyOp55
 70
     1
102
RTVSPropertyOp56
 70
     0
102
RTVSPropertyOp57
 70
     0
102
RTVSPropertyOp58
 70
     0
102
RTVSPropertyOp59
 70
     0
102
RTVSPropertyOp60
 70
     0
102
RTVSPropertyOp61
 70
     0
102
RTVSPropertyOp62
 70
     0
  0
XRECORD
  5
8B4
102
{ACAD_REACTORS
330
8B3
102
}
330
8B3
100
AcDbXrecord
280
     1
102
RTVSPost2010Prop28
280
     0
102
RTVSPost2010PropOp28
 70
     1
102
RTVSPost2010Prop29
280
     1
102
RTVSPost2010PropOp29
 70
     1
102
RTVSPost2010Prop30
280
     1
102
RTVSPost2010PropOp30
 70
     1
102
RTVSPost2010Prop31
280
     0
102
RTVSPost2010PropOp31
 70
     1
102
RTVSPost2010Prop32
280
     0
102
RTVSPost2010PropOp32
 70
     1
102
RTVSPost2010Prop33
280
     0
102
RTVSPost2010PropOp33
 70
     1
102
RTVSPost2010Prop34
280
     0
102
RTVSPost2010PropOp34
 70
     1
102
RTVSPost2010Prop35
280
     0
102
RTVSPost2010PropOp35
 70
     1
102
RTVSPost2010Prop36
280
     0
102
RTVSPost2010PropOp36
 70
     1
102
RTVSPost2010Prop37
 90
       50
102
RTVSPost2010PropOp37
 70
     1
102
RTVSPost2010Prop38
140
0.0
102
RTVSPost2010PropOp38
 70
     1
102
RTVSPost2010Prop39
140
1.0
102
RTVSPost2010PropOp39
 70
     1
102
RTVSPost2010Prop40
 90
        0
102
RTVSPost2010PropOp40
 70
     1
102
RTVSPost2010Prop41ColorIndex
 90
       18
102
RTVSPost2010Prop41ColorRGB
 90
        0
102
RTVSPost2010PropOp41
 70
     1
102
RTVSPost2010Prop42
 90
       50
102
RTVSPost2010PropOp42
 70
     1
102
RTVSPost2010Prop43
 90
        3
102
RTVSPost2010PropOp43
 70
     1
102
RTVSPost2010Prop44ColorIndex
 90
        5
102
RTVSPost2010Prop44ColorRGB
 90
      255
102
RTVSPost2010PropOp44
 70
     1
102
RTVSPost2010Prop45
280
     0
102
RTVSPost2010PropOp45
 70
     1
102
RTVSPost2010Prop46
 90
       50
102
RTVSPost2010PropOp46
 70
     1
102
RTVSPost2010Prop47
 90
       50
102
RTVSPost2010PropOp47
 70
     1
102
RTVSPost2010Prop48
 90
       50
102
RTVSPost2010PropOp48
 70
     1
102
RTVSPost2010Prop49
280
     0
102
RTVSPost2010PropOp49
 70
     1
102
RTVSPost2010Prop50
 90
       50
102
RTVSPost2010PropOp50
 70
     1
102
RTVSPost2010Prop51ColorIndex
 90
      256
102
RTVSPost2010Prop51ColorRGB
 90
-16777216
102
RTVSPost2010PropOp51
 70
     0
102
RTVSPost2010Prop52
140
1.0
102
RTVSPost2010PropOp52
 70
     0
102
RTVSPost2010Prop53
 90
        2
102
RTVSPost2010PropOp53
 70
     1
102
RTVSPost2010Prop54
  1
strokes_ogs.tif
102
RTVSPost2010PropOp54
 70
     1
102
RTVSPost2010Prop55
280
     0
102
RTVSPost2010PropOp55
 70
     1
102
RTVSPost2010Prop56
140
1.0
102
RTVSPost2010PropOp56
 70
     1
102
RTVSPost2010Prop57
140
1.0
102
RTVSPost2010PropOp57
 70
     1
102
RTVSPropertyOp0
 70
     1
102
RTVSPropertyOp1
 70
     1
102
RTVSPropertyOp2
 70
     1
102
RTVSPropertyOp3
 70
     1
102
RTVSPropertyOp4
 70
     1
102
RTVSPropertyOp5
 70
     1
102
RTVSPropertyOp6
 70
     1
102
RTVSPropertyOp7
 70
     1
102
RTVSPropertyOp8
 70
     1
102
RTVSPropertyOp9
 70
     1
102
RTVSPropertyOp10
 70
     1
102
RTVSPropertyOp11
 70
     1
102
RTVSPropertyOp12
 70
     1
102
RTVSPropertyOp13
 70
     1
102
RTVSPropertyOp14
 70
     1
102
RTVSPropertyOp15
 70
     1
102
RTVSPropertyOp16
 70
     1
102
RTVSPropertyOp17
 70
     1
102
RTVSPropertyOp18
 70
     1
102
RTVSPropertyOp19
 70
     1
102
RTVSPropertyOp20
 70
     1
102
RTVSPropertyOp21
 70
     1
102
RTVSPropertyOp22
 70
     1
102
RTVSPropertyOp23
 70
     1
102
RTVSPropertyOp24
 70
     1
102
RTVSPropertyOp25
 70
     1
102
RTVSPropertyOp26
 70
     1
102
RTVSPropertyOp27
 70
     1
102
RTVSPropertyOp28
 70
     1
102
RTVSPropertyOp29
 70
     1
102
RTVSPropertyOp30
 70
     1
102
RTVSPropertyOp31
 70
     1
102
RTVSPropertyOp32
 70
     1
102
RTVSPropertyOp33
 70
     1
102
RTVSPropertyOp34
 70
     1
102
RTVSPropertyOp35
 70
     1
102
RTVSPropertyOp36
 70
     1
102
RTVSPropertyOp37
 70
     1
102
RTVSPropertyOp38
 70
     1
102
RTVSPropertyOp39
 70
     1
102
RTVSPropertyOp40
 70
     1
102
RTVSPropertyOp41
 70
     1
102
RTVSPropertyOp42
 70
     1
102
RTVSPropertyOp43
 70
     1
102
RTVSPropertyOp44
 70
     1
102
RTVSPropertyOp45
 70
     1
102
RTVSPropertyOp46
 70
     1
102
RTVSPropertyOp47
 70
     1
102
RTVSPropertyOp48
 70
     1
102
RTVSPropertyOp49
 70
     1
102
RTVSPropertyOp50
 70
     1
102
RTVSPropertyOp51
 70
     0
102
RTVSPropertyOp52
 70
     0
102
RTVSPropertyOp53
 70
     1
102
RTVSPropertyOp54
 70
     1
102
RTVSPropertyOp55
 70
     1
102
RTVSPropertyOp56
 70
     1
102
RTVSPropertyOp57
 70
     1
102
RTVSPropertyOp58
 70
     1
102
RTVSPropertyOp59
 70
     1
102
RTVSPropertyOp60
 70
     1
102
RTVSPropertyOp61
 70
     1
102
RTVSPropertyOp62
 70
     1
  0
XRECORD
  5
8CA
102
{ACAD_REACTORS
330
8C9
102
}
330
8C9
100
AcDbXrecord
280
     1
102
RTVSPost2010Prop28
280
     0
102
RTVSPost2010PropOp28
 70
     1
102
RTVSPost2010Prop29
280
     1
102
RTVSPost2010PropOp29
 70
     1
102
RTVSPost2010Prop30
280
     1
102
RTVSPost2010PropOp30
 70
     1
102
RTVSPost2010Prop31
280
     0
102
RTVSPost2010PropOp31
 70
     1
102
RTVSPost2010Prop32
280
     0
102
RTVSPost2010PropOp32
 70
     1
102
RTVSPost2010Prop33
280
     0
102
RTVSPost2010PropOp33
 70
     1
102
RTVSPost2010Prop34
280
     0
102
RTVSPost2010PropOp34
 70
     1
102
RTVSPost2010Prop35
280
     0
102
RTVSPost2010PropOp35
 70
     1
102
RTVSPost2010Prop36
280
     0
102
RTVSPost2010PropOp36
 70
     1
102
RTVSPost2010Prop37
 90
       50
102
RTVSPost2010PropOp37
 70
     1
102
RTVSPost2010Prop38
140
0.0
102
RTVSPost2010PropOp38
 70
     1
102
RTVSPost2010Prop39
140
1.0
102
RTVSPost2010PropOp39
 70
     1
102
RTVSPost2010Prop40
 90
        0
102
RTVSPost2010PropOp40
 70
     1
102
RTVSPost2010Prop41ColorIndex
 90
       18
102
RTVSPost2010Prop41ColorRGB
 90
        0
102
RTVSPost2010PropOp41
 70
     1
102
RTVSPost2010Prop42
 90
       50
102
RTVSPost2010PropOp42
 70
     1
102
RTVSPost2010Prop43
 90
        3
102
RTVSPost2010PropOp43
 70
     1
102
RTVSPost2010Prop44ColorIndex
 90
        5
102
RTVSPost2010Prop44ColorRGB
 90
      255
102
RTVSPost2010PropOp44
 70
     1
102
RTVSPost2010Prop45
280
     0
102
RTVSPost2010PropOp45
 70
     1
102
RTVSPost2010Prop46
 90
       50
102
RTVSPost2010PropOp46
 70
     1
102
RTVSPost2010Prop47
 90
       50
102
RTVSPost2010PropOp47
 70
     1
102
RTVSPost2010Prop48
 90
       50
102
RTVSPost2010PropOp48
 70
     1
102
RTVSPost2010Prop49
280
     0
102
RTVSPost2010PropOp49
 70
     1
102
RTVSPost2010Prop50
 90
       50
102
RTVSPost2010PropOp50
 70
     1
102
RTVSPost2010Prop51ColorIndex
 90
      256
102
RTVSPost2010Prop51ColorRGB
 90
-16777216
102
RTVSPost2010PropOp51
 70
     0
102
RTVSPost2010Prop52
140
1.0
102
RTVSPost2010PropOp52
 70
     0
102
RTVSPost2010Prop53
 90
        2
102
RTVSPost2010PropOp53
 70
     1
102
RTVSPost2010Prop54
  1
strokes_ogs.tif
102
RTVSPost2010PropOp54
 70
     1
102
RTVSPost2010Prop55
280
     0
102
RTVSPost2010PropOp55
 70
     1
102
RTVSPost2010Prop56
140
1.0
102
RTVSPost2010PropOp56
 70
     1
102
RTVSPost2010Prop57
140
1.0
102
RTVSPost2010PropOp57
 70
     1
102
RTVSPropertyOp0
 70
     1
102
RTVSPropertyOp1
 70
     1
102
RTVSPropertyOp2
 70
     1
102
RTVSPropertyOp3
 70
     1
102
RTVSPropertyOp4
 70
     1
102
RTVSPropertyOp5
 70
     1
102
RTVSPropertyOp6
 70
     1
102
RTVSPropertyOp7
 70
     1
102
RTVSPropertyOp8
 70
     1
102
RTVSPropertyOp9
 70
     1
102
RTVSPropertyOp10
 70
     1
102
RTVSPropertyOp11
 70
     1
102
RTVSPropertyOp12
 70
     1
102
RTVSPropertyOp13
 70
     1
102
RTVSPropertyOp14
 70
     1
102
RTVSPropertyOp15
 70
     1
102
RTVSPropertyOp16
 70
     1
102
RTVSPropertyOp17
 70
     1
102
RTVSPropertyOp18
 70
     1
102
RTVSPropertyOp19
 70
     1
102
RTVSPropertyOp20
 70
     1
102
RTVSPropertyOp21
 70
     1
102
RTVSPropertyOp22
 70
     1
102
RTVSPropertyOp23
 70
     1
102
RTVSPropertyOp24
 70
     1
102
RTVSPropertyOp25
 70
     1
102
RTVSPropertyOp26
 70
     1
102
RTVSPropertyOp27
 70
     1
102
RTVSPropertyOp28
 70
     1
102
RTVSPropertyOp29
 70
     1
102
RTVSPropertyOp30
 70
     1
102
RTVSPropertyOp31
 70
     1
102
RTVSPropertyOp32
 70
     1
102
RTVSPropertyOp33
 70
     1
102
RTVSPropertyOp34
 70
     1
102
RTVSPropertyOp35
 70
     1
102
RTVSPropertyOp36
 70
     1
102
RTVSPropertyOp37
 70
     1
102
RTVSPropertyOp38
 70
     1
102
RTVSPropertyOp39
 70
     1
102
RTVSPropertyOp40
 70
     1
102
RTVSPropertyOp41
 70
     1
102
RTVSPropertyOp42
 70
     1
102
RTVSPropertyOp43
 70
     1
102
RTVSPropertyOp44
 70
     1
102
RTVSPropertyOp45
 70
     1
102
RTVSPropertyOp46
 70
     1
102
RTVSPropertyOp47
 70
     1
102
RTVSPropertyOp48
 70
     1
102
RTVSPropertyOp49
 70
     1
102
RTVSPropertyOp50
 70
     1
102
RTVSPropertyOp51
 70
     0
102
RTVSPropertyOp52
 70
     0
102
RTVSPropertyOp53
 70
     1
102
RTVSPropertyOp54
 70
     1
102
RTVSPropertyOp55
 70
     1
102
RTVSPropertyOp56
 70
     1
102
RTVSPropertyOp57
 70
     1
102
RTVSPropertyOp58
 70
     1
102
RTVSPropertyOp59
 70
     1
102
RTVSPropertyOp60
 70
     1
102
RTVSPropertyOp61
 70
     1
102
RTVSPropertyOp62
 70
     1
  0
XRECORD
  5
8C8
102
{ACAD_REACTORS
330
8C7
102
}
330
8C7
100
AcDbXrecord
280
     1
102
RTVSPost2010Prop28
280
     0
102
RTVSPost2010PropOp28
 70
     1
102
RTVSPost2010Prop29
280
     1
102
RTVSPost2010PropOp29
 70
     1
102
RTVSPost2010Prop30
280
     1
102
RTVSPost2010PropOp30
 70
     1
102
RTVSPost2010Prop31
280
     0
102
RTVSPost2010PropOp31
 70
     1
102
RTVSPost2010Prop32
280
     0
102
RTVSPost2010PropOp32
 70
     1
102
RTVSPost2010Prop33
280
     0
102
RTVSPost2010PropOp33
 70
     1
102
RTVSPost2010Prop34
280
     0
102
RTVSPost2010PropOp34
 70
     1
102
RTVSPost2010Prop35
280
     0
102
RTVSPost2010PropOp35
 70
     1
102
RTVSPost2010Prop36
280
     0
102
RTVSPost2010PropOp36
 70
     1
102
RTVSPost2010Prop37
 90
       50
102
RTVSPost2010PropOp37
 70
     1
102
RTVSPost2010Prop38
140
0.0
102
RTVSPost2010PropOp38
 70
     1
102
RTVSPost2010Prop39
140
1.0
102
RTVSPost2010PropOp39
 70
     1
102
RTVSPost2010Prop40
 90
        0
102
RTVSPost2010PropOp40
 70
     1
102
RTVSPost2010Prop41ColorIndex
 90
       18
102
RTVSPost2010Prop41ColorRGB
 90
        0
102
RTVSPost2010PropOp41
 70
     1
102
RTVSPost2010Prop42
 90
       50
102
RTVSPost2010PropOp42
 70
     1
102
RTVSPost2010Prop43
 90
        3
102
RTVSPost2010PropOp43
 70
     1
102
RTVSPost2010Prop44ColorIndex
 90
        5
102
RTVSPost2010Prop44ColorRGB
 90
      255
102
RTVSPost2010PropOp44
 70
     1
102
RTVSPost2010Prop45
280
     0
102
RTVSPost2010PropOp45
 70
     1
102
RTVSPost2010Prop46
 90
       50
102
RTVSPost2010PropOp46
 70
     1
102
RTVSPost2010Prop47
 90
       50
102
RTVSPost2010PropOp47
 70
     1
102
RTVSPost2010Prop48
 90
       50
102
RTVSPost2010PropOp48
 70
     1
102
RTVSPost2010Prop49
280
     0
102
RTVSPost2010PropOp49
 70
     1
102
RTVSPost2010Prop50
 90
       50
102
RTVSPost2010PropOp50
 70
     1
102
RTVSPost2010Prop51ColorIndex
 90
      256
102
RTVSPost2010Prop51ColorRGB
 90
-16777216
102
RTVSPost2010PropOp51
 70
     0
102
RTVSPost2010Prop52
140
1.0
102
RTVSPost2010PropOp52
 70
     0
102
RTVSPost2010Prop53
 90
        2
102
RTVSPost2010PropOp53
 70
     1
102
RTVSPost2010Prop54
  1
strokes_ogs.tif
102
RTVSPost2010PropOp54
 70
     1
102
RTVSPost2010Prop55
280
     0
102
RTVSPost2010PropOp55
 70
     1
102
RTVSPost2010Prop56
140
1.0
102
RTVSPost2010PropOp56
 70
     1
102
RTVSPost2010Prop57
140
1.0
102
RTVSPost2010PropOp57
 70
     1
102
RTVSPropertyOp0
 70
     1
102
RTVSPropertyOp1
 70
     1
102
RTVSPropertyOp2
 70
     1
102
RTVSPropertyOp3
 70
     1
102
RTVSPropertyOp4
 70
     1
102
RTVSPropertyOp5
 70
     1
102
RTVSPropertyOp6
 70
     1
102
RTVSPropertyOp7
 70
     1
102
RTVSPropertyOp8
 70
     1
102
RTVSPropertyOp9
 70
     1
102
RTVSPropertyOp10
 70
     1
102
RTVSPropertyOp11
 70
     1
102
RTVSPropertyOp12
 70
     1
102
RTVSPropertyOp13
 70
     1
102
RTVSPropertyOp14
 70
     1
102
RTVSPropertyOp15
 70
     1
102
RTVSPropertyOp16
 70
     1
102
RTVSPropertyOp17
 70
     1
102
RTVSPropertyOp18
 70
     1
102
RTVSPropertyOp19
 70
     1
102
RTVSPropertyOp20
 70
     1
102
RTVSPropertyOp21
 70
     1
102
RTVSPropertyOp22
 70
     1
102
RTVSPropertyOp23
 70
     1
102
RTVSPropertyOp24
 70
     1
102
RTVSPropertyOp25
 70
     1
102
RTVSPropertyOp26
 70
     1
102
RTVSPropertyOp27
 70
     1
102
RTVSPropertyOp28
 70
     1
102
RTVSPropertyOp29
 70
     1
102
RTVSPropertyOp30
 70
     1
102
RTVSPropertyOp31
 70
     1
102
RTVSPropertyOp32
 70
     1
102
RTVSPropertyOp33
 70
     1
102
RTVSPropertyOp34
 70
     1
102
RTVSPropertyOp35
 70
     1
102
RTVSPropertyOp36
 70
     1
102
RTVSPropertyOp37
 70
     1
102
RTVSPropertyOp38
 70
     1
102
RTVSPropertyOp39
 70
     1
102
RTVSPropertyOp40
 70
     1
102
RTVSPropertyOp41
 70
     1
102
RTVSPropertyOp42
 70
     1
102
RTVSPropertyOp43
 70
     1
102
RTVSPropertyOp44
 70
     1
102
RTVSPropertyOp45
 70
     1
102
RTVSPropertyOp46
 70
     1
102
RTVSPropertyOp47
 70
     1
102
RTVSPropertyOp48
 70
     1
102
RTVSPropertyOp49
 70
     1
102
RTVSPropertyOp50
 70
     1
102
RTVSPropertyOp51
 70
     0
102
RTVSPropertyOp52
 70
     0
102
RTVSPropertyOp53
 70
     1
102
RTVSPropertyOp54
 70
     1
102
RTVSPropertyOp55
 70
     1
102
RTVSPropertyOp56
 70
     1
102
RTVSPropertyOp57
 70
     1
102
RTVSPropertyOp58
 70
     1
102
RTVSPropertyOp59
 70
     1
102
RTVSPropertyOp60
 70
     1
102
RTVSPropertyOp61
 70
     1
102
RTVSPropertyOp62
 70
     1
  0
XRECORD
  5
8C2
102
{ACAD_REACTORS
330
8C1
102
}
330
8C1
100
AcDbXrecord
280
     1
102
RTVSPost2010Prop28
280
     0
102
RTVSPost2010PropOp28
 70
     1
102
RTVSPost2010Prop29
280
     1
102
RTVSPost2010PropOp29
 70
     1
102
RTVSPost2010Prop30
280
     1
102
RTVSPost2010PropOp30
 70
     1
102
RTVSPost2010Prop31
280
     0
102
RTVSPost2010PropOp31
 70
     1
102
RTVSPost2010Prop32
280
     0
102
RTVSPost2010PropOp32
 70
     1
102
RTVSPost2010Prop33
280
     0
102
RTVSPost2010PropOp33
 70
     1
102
RTVSPost2010Prop34
280
     0
102
RTVSPost2010PropOp34
 70
     1
102
RTVSPost2010Prop35
280
     0
102
RTVSPost2010PropOp35
 70
     1
102
RTVSPost2010Prop36
280
     0
102
RTVSPost2010PropOp36
 70
     1
102
RTVSPost2010Prop37
 90
       50
102
RTVSPost2010PropOp37
 70
     1
102
RTVSPost2010Prop38
140
0.0
102
RTVSPost2010PropOp38
 70
     1
102
RTVSPost2010Prop39
140
1.0
102
RTVSPost2010PropOp39
 70
     1
102
RTVSPost2010Prop40
 90
        0
102
RTVSPost2010PropOp40
 70
     1
102
RTVSPost2010Prop41ColorIndex
 90
       18
102
RTVSPost2010Prop41ColorRGB
 90
        0
102
RTVSPost2010PropOp41
 70
     1
102
RTVSPost2010Prop42
 90
       50
102
RTVSPost2010PropOp42
 70
     1
102
RTVSPost2010Prop43
 90
        3
102
RTVSPost2010PropOp43
 70
     1
102
RTVSPost2010Prop44ColorIndex
 90
        5
102
RTVSPost2010Prop44ColorRGB
 90
      255
102
RTVSPost2010PropOp44
 70
     1
102
RTVSPost2010Prop45
280
     0
102
RTVSPost2010PropOp45
 70
     1
102
RTVSPost2010Prop46
 90
       50
102
RTVSPost2010PropOp46
 70
     1
102
RTVSPost2010Prop47
 90
       50
102
RTVSPost2010PropOp47
 70
     1
102
RTVSPost2010Prop48
 90
       50
102
RTVSPost2010PropOp48
 70
     1
102
RTVSPost2010Prop49
280
     0
102
RTVSPost2010PropOp49
 70
     1
102
RTVSPost2010Prop50
 90
       50
102
RTVSPost2010PropOp50
 70
     1
102
RTVSPost2010Prop51ColorIndex
 90
      256
102
RTVSPost2010Prop51ColorRGB
 90
-16777216
102
RTVSPost2010PropOp51
 70
     0
102
RTVSPost2010Prop52
140
1.0
102
RTVSPost2010PropOp52
 70
     0
102
RTVSPost2010Prop53
 90
        2
102
RTVSPost2010PropOp53
 70
     1
102
RTVSPost2010Prop54
  1
strokes_ogs.tif
102
RTVSPost2010PropOp54
 70
     1
102
RTVSPost2010Prop55
280
     0
102
RTVSPost2010PropOp55
 70
     1
102
RTVSPost2010Prop56
140
1.0
102
RTVSPost2010PropOp56
 70
     1
102
RTVSPost2010Prop57
140
1.0
102
RTVSPost2010PropOp57
 70
     1
102
RTVSPropertyOp0
 70
     1
102
RTVSPropertyOp1
 70
     1
102
RTVSPropertyOp2
 70
     1
102
RTVSPropertyOp3
 70
     1
102
RTVSPropertyOp4
 70
     1
102
RTVSPropertyOp5
 70
     1
102
RTVSPropertyOp6
 70
     1
102
RTVSPropertyOp7
 70
     1
102
RTVSPropertyOp8
 70
     1
102
RTVSPropertyOp9
 70
     1
102
RTVSPropertyOp10
 70
     1
102
RTVSPropertyOp11
 70
     1
102
RTVSPropertyOp12
 70
     1
102
RTVSPropertyOp13
 70
     1
102
RTVSPropertyOp14
 70
     1
102
RTVSPropertyOp15
 70
     1
102
RTVSPropertyOp16
 70
     1
102
RTVSPropertyOp17
 70
     1
102
RTVSPropertyOp18
 70
     1
102
RTVSPropertyOp19
 70
     1
102
RTVSPropertyOp20
 70
     1
102
RTVSPropertyOp21
 70
     1
102
RTVSPropertyOp22
 70
     1
102
RTVSPropertyOp23
 70
     1
102
RTVSPropertyOp24
 70
     1
102
RTVSPropertyOp25
 70
     1
102
RTVSPropertyOp26
 70
     1
102
RTVSPropertyOp27
 70
     1
102
RTVSPropertyOp28
 70
     1
102
RTVSPropertyOp29
 70
     1
102
RTVSPropertyOp30
 70
     1
102
RTVSPropertyOp31
 70
     1
102
RTVSPropertyOp32
 70
     1
102
RTVSPropertyOp33
 70
     1
102
RTVSPropertyOp34
 70
     1
102
RTVSPropertyOp35
 70
     1
102
RTVSPropertyOp36
 70
     1
102
RTVSPropertyOp37
 70
     1
102
RTVSPropertyOp38
 70
     1
102
RTVSPropertyOp39
 70
     1
102
RTVSPropertyOp40
 70
     1
102
RTVSPropertyOp41
 70
     1
102
RTVSPropertyOp42
 70
     1
102
RTVSPropertyOp43
 70
     1
102
RTVSPropertyOp44
 70
     1
102
RTVSPropertyOp45
 70
     1
102
RTVSPropertyOp46
 70
     1
102
RTVSPropertyOp47
 70
     1
102
RTVSPropertyOp48
 70
     1
102
RTVSPropertyOp49
 70
     1
102
RTVSPropertyOp50
 70
     1
102
RTVSPropertyOp51
 70
     0
102
RTVSPropertyOp52
 70
     0
102
RTVSPropertyOp53
 70
     1
102
RTVSPropertyOp54
 70
     1
102
RTVSPropertyOp55
 70
     1
102
RTVSPropertyOp56
 70
     1
102
RTVSPropertyOp57
 70
     1
102
RTVSPropertyOp58
 70
     1
102
RTVSPropertyOp59
 70
     1
102
RTVSPropertyOp60
 70
     1
102
RTVSPropertyOp61
 70
     1
102
RTVSPropertyOp62
 70
     1
  0
XRECORD
  5
8C4
102
{ACAD_REACTORS
330
8C3
102
}
330
8C3
100
AcDbXrecord
280
     1
102
RTVSPost2010Prop28
280
     0
102
RTVSPost2010PropOp28
 70
     1
102
RTVSPost2010Prop29
280
     1
102
RTVSPost2010PropOp29
 70
     1
102
RTVSPost2010Prop30
280
     1
102
RTVSPost2010PropOp30
 70
     1
102
RTVSPost2010Prop31
280
     0
102
RTVSPost2010PropOp31
 70
     1
102
RTVSPost2010Prop32
280
     0
102
RTVSPost2010PropOp32
 70
     1
102
RTVSPost2010Prop33
280
     0
102
RTVSPost2010PropOp33
 70
     1
102
RTVSPost2010Prop34
280
     0
102
RTVSPost2010PropOp34
 70
     1
102
RTVSPost2010Prop35
280
     0
102
RTVSPost2010PropOp35
 70
     1
102
RTVSPost2010Prop36
280
     0
102
RTVSPost2010PropOp36
 70
     1
102
RTVSPost2010Prop37
 90
       50
102
RTVSPost2010PropOp37
 70
     1
102
RTVSPost2010Prop38
140
0.0
102
RTVSPost2010PropOp38
 70
     1
102
RTVSPost2010Prop39
140
1.0
102
RTVSPost2010PropOp39
 70
     1
102
RTVSPost2010Prop40
 90
        0
102
RTVSPost2010PropOp40
 70
     1
102
RTVSPost2010Prop41ColorIndex
 90
       18
102
RTVSPost2010Prop41ColorRGB
 90
        0
102
RTVSPost2010PropOp41
 70
     1
102
RTVSPost2010Prop42
 90
       50
102
RTVSPost2010PropOp42
 70
     1
102
RTVSPost2010Prop43
 90
        3
102
RTVSPost2010PropOp43
 70
     1
102
RTVSPost2010Prop44ColorIndex
 90
        5
102
RTVSPost2010Prop44ColorRGB
 90
      255
102
RTVSPost2010PropOp44
 70
     1
102
RTVSPost2010Prop45
280
     0
102
RTVSPost2010PropOp45
 70
     1
102
RTVSPost2010Prop46
 90
       50
102
RTVSPost2010PropOp46
 70
     1
102
RTVSPost2010Prop47
 90
       50
102
RTVSPost2010PropOp47
 70
     1
102
RTVSPost2010Prop48
 90
       50
102
RTVSPost2010PropOp48
 70
     1
102
RTVSPost2010Prop49
280
     0
102
RTVSPost2010PropOp49
 70
     1
102
RTVSPost2010Prop50
 90
       50
102
RTVSPost2010PropOp50
 70
     1
102
RTVSPost2010Prop51ColorIndex
 90
      256
102
RTVSPost2010Prop51ColorRGB
 90
-16777216
102
RTVSPost2010PropOp51
 70
     0
102
RTVSPost2010Prop52
140
1.0
102
RTVSPost2010PropOp52
 70
     0
102
RTVSPost2010Prop53
 90
        2
102
RTVSPost2010PropOp53
 70
     1
102
RTVSPost2010Prop54
  1
strokes_ogs.tif
102
RTVSPost2010PropOp54
 70
     1
102
RTVSPost2010Prop55
280
     0
102
RTVSPost2010PropOp55
 70
     1
102
RTVSPost2010Prop56
140
1.0
102
RTVSPost2010PropOp56
 70
     1
102
RTVSPost2010Prop57
140
1.0
102
RTVSPost2010PropOp57
 70
     1
102
RTVSPropertyOp0
 70
     1
102
RTVSPropertyOp1
 70
     1
102
RTVSPropertyOp2
 70
     1
102
RTVSPropertyOp3
 70
     1
102
RTVSPropertyOp4
 70
     1
102
RTVSPropertyOp5
 70
     1
102
RTVSPropertyOp6
 70
     1
102
RTVSPropertyOp7
 70
     1
102
RTVSPropertyOp8
 70
     1
102
RTVSPropertyOp9
 70
     1
102
RTVSPropertyOp10
 70
     1
102
RTVSPropertyOp11
 70
     1
102
RTVSPropertyOp12
 70
     1
102
RTVSPropertyOp13
 70
     1
102
RTVSPropertyOp14
 70
     1
102
RTVSPropertyOp15
 70
     1
102
RTVSPropertyOp16
 70
     1
102
RTVSPropertyOp17
 70
     1
102
RTVSPropertyOp18
 70
     1
102
RTVSPropertyOp19
 70
     1
102
RTVSPropertyOp20
 70
     1
102
RTVSPropertyOp21
 70
     1
102
RTVSPropertyOp22
 70
     1
102
RTVSPropertyOp23
 70
     1
102
RTVSPropertyOp24
 70
     1
102
RTVSPropertyOp25
 70
     1
102
RTVSPropertyOp26
 70
     1
102
RTVSPropertyOp27
 70
     1
102
RTVSPropertyOp28
 70
     1
102
RTVSPropertyOp29
 70
     1
102
RTVSPropertyOp30
 70
     1
102
RTVSPropertyOp31
 70
     1
102
RTVSPropertyOp32
 70
     1
102
RTVSPropertyOp33
 70
     1
102
RTVSPropertyOp34
 70
     1
102
RTVSPropertyOp35
 70
     1
102
RTVSPropertyOp36
 70
     1
102
RTVSPropertyOp37
 70
     1
102
RTVSPropertyOp38
 70
     1
102
RTVSPropertyOp39
 70
     1
102
RTVSPropertyOp40
 70
     1
102
RTVSPropertyOp41
 70
     1
102
RTVSPropertyOp42
 70
     1
102
RTVSPropertyOp43
 70
     1
102
RTVSPropertyOp44
 70
     1
102
RTVSPropertyOp45
 70
     1
102
RTVSPropertyOp46
 70
     1
102
RTVSPropertyOp47
 70
     1
102
RTVSPropertyOp48
 70
     1
102
RTVSPropertyOp49
 70
     1
102
RTVSPropertyOp50
 70
     1
102
RTVSPropertyOp51
 70
     0
102
RTVSPropertyOp52
 70
     0
102
RTVSPropertyOp53
 70
     1
102
RTVSPropertyOp54
 70
     1
102
RTVSPropertyOp55
 70
     1
102
RTVSPropertyOp56
 70
     1
102
RTVSPropertyOp57
 70
     1
102
RTVSPropertyOp58
 70
     1
102
RTVSPropertyOp59
 70
     1
102
RTVSPropertyOp60
 70
     1
102
RTVSPropertyOp61
 70
     1
102
RTVSPropertyOp62
 70
     1
  0
XRECORD
  5
8BA
102
{ACAD_REACTORS
330
8B9
102
}
330
8B9
100
AcDbXrecord
280
     1
102
RTVSPost2010Prop28
280
     0
102
RTVSPost2010PropOp28
 70
     1
102
RTVSPost2010Prop29
280
     1
102
RTVSPost2010PropOp29
 70
     1
102
RTVSPost2010Prop30
280
     1
102
RTVSPost2010PropOp30
 70
     1
102
RTVSPost2010Prop31
280
     0
102
RTVSPost2010PropOp31
 70
     1
102
RTVSPost2010Prop32
280
     0
102
RTVSPost2010PropOp32
 70
     1
102
RTVSPost2010Prop33
280
     0
102
RTVSPost2010PropOp33
 70
     1
102
RTVSPost2010Prop34
280
     0
102
RTVSPost2010PropOp34
 70
     1
102
RTVSPost2010Prop35
280
     0
102
RTVSPost2010PropOp35
 70
     1
102
RTVSPost2010Prop36
280
     0
102
RTVSPost2010PropOp36
 70
     1
102
RTVSPost2010Prop37
 90
       50
102
RTVSPost2010PropOp37
 70
     1
102
RTVSPost2010Prop38
140
0.0
102
RTVSPost2010PropOp38
 70
     1
102
RTVSPost2010Prop39
140
1.0
102
RTVSPost2010PropOp39
 70
     1
102
RTVSPost2010Prop40
 90
        0
102
RTVSPost2010PropOp40
 70
     1
102
RTVSPost2010Prop41ColorIndex
 90
       18
102
RTVSPost2010Prop41ColorRGB
 90
        0
102
RTVSPost2010PropOp41
 70
     1
102
RTVSPost2010Prop42
 90
       50
102
RTVSPost2010PropOp42
 70
     1
102
RTVSPost2010Prop43
 90
        3
102
RTVSPost2010PropOp43
 70
     1
102
RTVSPost2010Prop44ColorIndex
 90
        5
102
RTVSPost2010Prop44ColorRGB
 90
      255
102
RTVSPost2010PropOp44
 70
     1
102
RTVSPost2010Prop45
280
     0
102
RTVSPost2010PropOp45
 70
     1
102
RTVSPost2010Prop46
 90
       50
102
RTVSPost2010PropOp46
 70
     1
102
RTVSPost2010Prop47
 90
       50
102
RTVSPost2010PropOp47
 70
     1
102
RTVSPost2010Prop48
 90
       50
102
RTVSPost2010PropOp48
 70
     1
102
RTVSPost2010Prop49
280
     0
102
RTVSPost2010PropOp49
 70
     1
102
RTVSPost2010Prop50
 90
       50
102
RTVSPost2010PropOp50
 70
     1
102
RTVSPost2010Prop51ColorIndex
 90
      256
102
RTVSPost2010Prop51ColorRGB
 90
-16777216
102
RTVSPost2010PropOp51
 70
     0
102
RTVSPost2010Prop52
140
1.0
102
RTVSPost2010PropOp52
 70
     0
102
RTVSPost2010Prop53
 90
        2
102
RTVSPost2010PropOp53
 70
     1
102
RTVSPost2010Prop54
  1
strokes_ogs.tif
102
RTVSPost2010PropOp54
 70
     1
102
RTVSPost2010Prop55
280
     0
102
RTVSPost2010PropOp55
 70
     1
102
RTVSPost2010Prop56
140
1.0
102
RTVSPost2010PropOp56
 70
     1
102
RTVSPost2010Prop57
140
1.0
102
RTVSPost2010PropOp57
 70
     1
102
RTVSPropertyOp0
 70
     1
102
RTVSPropertyOp1
 70
     1
102
RTVSPropertyOp2
 70
     1
102
RTVSPropertyOp3
 70
     1
102
RTVSPropertyOp4
 70
     1
102
RTVSPropertyOp5
 70
     1
102
RTVSPropertyOp6
 70
     1
102
RTVSPropertyOp7
 70
     1
102
RTVSPropertyOp8
 70
     1
102
RTVSPropertyOp9
 70
     1
102
RTVSPropertyOp10
 70
     1
102
RTVSPropertyOp11
 70
     1
102
RTVSPropertyOp12
 70
     1
102
RTVSPropertyOp13
 70
     1
102
RTVSPropertyOp14
 70
     1
102
RTVSPropertyOp15
 70
     1
102
RTVSPropertyOp16
 70
     1
102
RTVSPropertyOp17
 70
     1
102
RTVSPropertyOp18
 70
     1
102
RTVSPropertyOp19
 70
     1
102
RTVSPropertyOp20
 70
     1
102
RTVSPropertyOp21
 70
     1
102
RTVSPropertyOp22
 70
     1
102
RTVSPropertyOp23
 70
     1
102
RTVSPropertyOp24
 70
     1
102
RTVSPropertyOp25
 70
     1
102
RTVSPropertyOp26
 70
     1
102
RTVSPropertyOp27
 70
     1
102
RTVSPropertyOp28
 70
     1
102
RTVSPropertyOp29
 70
     1
102
RTVSPropertyOp30
 70
     1
102
RTVSPropertyOp31
 70
     1
102
RTVSPropertyOp32
 70
     1
102
RTVSPropertyOp33
 70
     1
102
RTVSPropertyOp34
 70
     1
102
RTVSPropertyOp35
 70
     1
102
RTVSPropertyOp36
 70
     1
102
RTVSPropertyOp37
 70
     1
102
RTVSPropertyOp38
 70
     1
102
RTVSPropertyOp39
 70
     1
102
RTVSPropertyOp40
 70
     1
102
RTVSPropertyOp41
 70
     1
102
RTVSPropertyOp42
 70
     1
102
RTVSPropertyOp43
 70
     1
102
RTVSPropertyOp44
 70
     1
102
RTVSPropertyOp45
 70
     1
102
RTVSPropertyOp46
 70
     1
102
RTVSPropertyOp47
 70
     1
102
RTVSPropertyOp48
 70
     1
102
RTVSPropertyOp49
 70
     1
102
RTVSPropertyOp50
 70
     1
102
RTVSPropertyOp51
 70
     0
102
RTVSPropertyOp52
 70
     0
102
RTVSPropertyOp53
 70
     1
102
RTVSPropertyOp54
 70
     1
102
RTVSPropertyOp55
 70
     1
102
RTVSPropertyOp56
 70
     1
102
RTVSPropertyOp57
 70
     1
102
RTVSPropertyOp58
 70
     1
102
RTVSPropertyOp59
 70
     1
102
RTVSPropertyOp60
 70
     1
102
RTVSPropertyOp61
 70
     1
102
RTVSPropertyOp62
 70
     1
  0
XRECORD
  5
8AE
102
{ACAD_REACTORS
330
8AD
102
}
330
8AD
100
AcDbXrecord
280
     1
102
RTVSPost2010Prop28
280
     0
102
RTVSPost2010PropOp28
 70
     1
102
RTVSPost2010Prop29
280
     1
102
RTVSPost2010PropOp29
 70
     1
102
RTVSPost2010Prop30
280
     1
102
RTVSPost2010PropOp30
 70
     1
102
RTVSPost2010Prop31
280
     0
102
RTVSPost2010PropOp31
 70
     1
102
RTVSPost2010Prop32
280
     0
102
RTVSPost2010PropOp32
 70
     1
102
RTVSPost2010Prop33
280
     0
102
RTVSPost2010PropOp33
 70
     1
102
RTVSPost2010Prop34
280
     0
102
RTVSPost2010PropOp34
 70
     1
102
RTVSPost2010Prop35
280
     0
102
RTVSPost2010PropOp35
 70
     1
102
RTVSPost2010Prop36
280
     0
102
RTVSPost2010PropOp36
 70
     1
102
RTVSPost2010Prop37
 90
       50
102
RTVSPost2010PropOp37
 70
     1
102
RTVSPost2010Prop38
140
0.0
102
RTVSPost2010PropOp38
 70
     1
102
RTVSPost2010Prop39
140
1.0
102
RTVSPost2010PropOp39
 70
     1
102
RTVSPost2010Prop40
 90
        0
102
RTVSPost2010PropOp40
 70
     1
102
RTVSPost2010Prop41ColorIndex
 90
       18
102
RTVSPost2010Prop41ColorRGB
 90
        0
102
RTVSPost2010PropOp41
 70
     1
102
RTVSPost2010Prop42
 90
       50
102
RTVSPost2010PropOp42
 70
     1
102
RTVSPost2010Prop43
 90
        3
102
RTVSPost2010PropOp43
 70
     1
102
RTVSPost2010Prop44ColorIndex
 90
        5
102
RTVSPost2010Prop44ColorRGB
 90
      255
102
RTVSPost2010PropOp44
 70
     1
102
RTVSPost2010Prop45
280
     0
102
RTVSPost2010PropOp45
 70
     1
102
RTVSPost2010Prop46
 90
       50
102
RTVSPost2010PropOp46
 70
     1
102
RTVSPost2010Prop47
 90
       50
102
RTVSPost2010PropOp47
 70
     1
102
RTVSPost2010Prop48
 90
       50
102
RTVSPost2010PropOp48
 70
     1
102
RTVSPost2010Prop49
280
     0
102
RTVSPost2010PropOp49
 70
     1
102
RTVSPost2010Prop50
 90
       50
102
RTVSPost2010PropOp50
 70
     1
102
RTVSPost2010Prop51ColorIndex
 90
      256
102
RTVSPost2010Prop51ColorRGB
 90
-16777216
102
RTVSPost2010PropOp51
 70
     0
102
RTVSPost2010Prop52
140
1.0
102
RTVSPost2010PropOp52
 70
     0
102
RTVSPost2010Prop53
 90
        2
102
RTVSPost2010PropOp53
 70
     1
102
RTVSPost2010Prop54
  1
strokes_ogs.tif
102
RTVSPost2010PropOp54
 70
     1
102
RTVSPost2010Prop55
280
     0
102
RTVSPost2010PropOp55
 70
     1
102
RTVSPost2010Prop56
140
1.0
102
RTVSPost2010PropOp56
 70
     1
102
RTVSPost2010Prop57
140
1.0
102
RTVSPost2010PropOp57
 70
     1
102
RTVSPropertyOp0
 70
     1
102
RTVSPropertyOp1
 70
     1
102
RTVSPropertyOp2
 70
     1
102
RTVSPropertyOp3
 70
     1
102
RTVSPropertyOp4
 70
     1
102
RTVSPropertyOp5
 70
     1
102
RTVSPropertyOp6
 70
     1
102
RTVSPropertyOp7
 70
     1
102
RTVSPropertyOp8
 70
     1
102
RTVSPropertyOp9
 70
     1
102
RTVSPropertyOp10
 70
     1
102
RTVSPropertyOp11
 70
     1
102
RTVSPropertyOp12
 70
     1
102
RTVSPropertyOp13
 70
     1
102
RTVSPropertyOp14
 70
     1
102
RTVSPropertyOp15
 70
     1
102
RTVSPropertyOp16
 70
     1
102
RTVSPropertyOp17
 70
     1
102
RTVSPropertyOp18
 70
     1
102
RTVSPropertyOp19
 70
     1
102
RTVSPropertyOp20
 70
     1
102
RTVSPropertyOp21
 70
     1
102
RTVSPropertyOp22
 70
     1
102
RTVSPropertyOp23
 70
     1
102
RTVSPropertyOp24
 70
     1
102
RTVSPropertyOp25
 70
     1
102
RTVSPropertyOp26
 70
     1
102
RTVSPropertyOp27
 70
     1
102
RTVSPropertyOp28
 70
     1
102
RTVSPropertyOp29
 70
     1
102
RTVSPropertyOp30
 70
     1
102
RTVSPropertyOp31
 70
     1
102
RTVSPropertyOp32
 70
     1
102
RTVSPropertyOp33
 70
     1
102
RTVSPropertyOp34
 70
     1
102
RTVSPropertyOp35
 70
     1
102
RTVSPropertyOp36
 70
     1
102
RTVSPropertyOp37
 70
     1
102
RTVSPropertyOp38
 70
     1
102
RTVSPropertyOp39
 70
     1
102
RTVSPropertyOp40
 70
     1
102
RTVSPropertyOp41
 70
     1
102
RTVSPropertyOp42
 70
     1
102
RTVSPropertyOp43
 70
     1
102
RTVSPropertyOp44
 70
     1
102
RTVSPropertyOp45
 70
     1
102
RTVSPropertyOp46
 70
     1
102
RTVSPropertyOp47
 70
     1
102
RTVSPropertyOp48
 70
     1
102
RTVSPropertyOp49
 70
     1
102
RTVSPropertyOp50
 70
     1
102
RTVSPropertyOp51
 70
     0
102
RTVSPropertyOp52
 70
     0
102
RTVSPropertyOp53
 70
     1
102
RTVSPropertyOp54
 70
     1
102
RTVSPropertyOp55
 70
     1
102
RTVSPropertyOp56
 70
     1
102
RTVSPropertyOp57
 70
     1
102
RTVSPropertyOp58
 70
     1
102
RTVSPropertyOp59
 70
     1
102
RTVSPropertyOp60
 70
     1
102
RTVSPropertyOp61
 70
     1
102
RTVSPropertyOp62
 70
     1
  0
XRECORD
  5
8C6
102
{ACAD_REACTORS
330
8C5
102
}
330
8C5
100
AcDbXrecord
280
     1
102
RTVSPost2010Prop28
280
     0
102
RTVSPost2010PropOp28
 70
     1
102
RTVSPost2010Prop29
280
     1
102
RTVSPost2010PropOp29
 70
     1
102
RTVSPost2010Prop30
280
     1
102
RTVSPost2010PropOp30
 70
     1
102
RTVSPost2010Prop31
280
     0
102
RTVSPost2010PropOp31
 70
     1
102
RTVSPost2010Prop32
280
     0
102
RTVSPost2010PropOp32
 70
     1
102
RTVSPost2010Prop33
280
     0
102
RTVSPost2010PropOp33
 70
     1
102
RTVSPost2010Prop34
280
     0
102
RTVSPost2010PropOp34
 70
     1
102
RTVSPost2010Prop35
280
     0
102
RTVSPost2010PropOp35
 70
     1
102
RTVSPost2010Prop36
280
     0
102
RTVSPost2010PropOp36
 70
     1
102
RTVSPost2010Prop37
 90
       50
102
RTVSPost2010PropOp37
 70
     1
102
RTVSPost2010Prop38
140
0.0
102
RTVSPost2010PropOp38
 70
     1
102
RTVSPost2010Prop39
140
1.0
102
RTVSPost2010PropOp39
 70
     1
102
RTVSPost2010Prop40
 90
        0
102
RTVSPost2010PropOp40
 70
     1
102
RTVSPost2010Prop41ColorIndex
 90
       18
102
RTVSPost2010Prop41ColorRGB
 90
        0
102
RTVSPost2010PropOp41
 70
     1
102
RTVSPost2010Prop42
 90
       50
102
RTVSPost2010PropOp42
 70
     1
102
RTVSPost2010Prop43
 90
        3
102
RTVSPost2010PropOp43
 70
     1
102
RTVSPost2010Prop44ColorIndex
 90
        5
102
RTVSPost2010Prop44ColorRGB
 90
      255
102
RTVSPost2010PropOp44
 70
     1
102
RTVSPost2010Prop45
280
     0
102
RTVSPost2010PropOp45
 70
     1
102
RTVSPost2010Prop46
 90
       50
102
RTVSPost2010PropOp46
 70
     1
102
RTVSPost2010Prop47
 90
       50
102
RTVSPost2010PropOp47
 70
     1
102
RTVSPost2010Prop48
 90
       50
102
RTVSPost2010PropOp48
 70
     1
102
RTVSPost2010Prop49
280
     0
102
RTVSPost2010PropOp49
 70
     1
102
RTVSPost2010Prop50
 90
       50
102
RTVSPost2010PropOp50
 70
     1
102
RTVSPost2010Prop51ColorIndex
 90
      256
102
RTVSPost2010Prop51ColorRGB
 90
-16777216
102
RTVSPost2010PropOp51
 70
     0
102
RTVSPost2010Prop52
140
1.0
102
RTVSPost2010PropOp52
 70
     0
102
RTVSPost2010Prop53
 90
        2
102
RTVSPost2010PropOp53
 70
     1
102
RTVSPost2010Prop54
  1
strokes_ogs.tif
102
RTVSPost2010PropOp54
 70
     1
102
RTVSPost2010Prop55
280
     0
102
RTVSPost2010PropOp55
 70
     1
102
RTVSPost2010Prop56
140
1.0
102
RTVSPost2010PropOp56
 70
     1
102
RTVSPost2010Prop57
140
1.0
102
RTVSPost2010PropOp57
 70
     1
102
RTVSPropertyOp0
 70
     1
102
RTVSPropertyOp1
 70
     1
102
RTVSPropertyOp2
 70
     1
102
RTVSPropertyOp3
 70
     1
102
RTVSPropertyOp4
 70
     1
102
RTVSPropertyOp5
 70
     1
102
RTVSPropertyOp6
 70
     1
102
RTVSPropertyOp7
 70
     1
102
RTVSPropertyOp8
 70
     1
102
RTVSPropertyOp9
 70
     1
102
RTVSPropertyOp10
 70
     1
102
RTVSPropertyOp11
 70
     1
102
RTVSPropertyOp12
 70
     1
102
RTVSPropertyOp13
 70
     1
102
RTVSPropertyOp14
 70
     1
102
RTVSPropertyOp15
 70
     1
102
RTVSPropertyOp16
 70
     1
102
RTVSPropertyOp17
 70
     1
102
RTVSPropertyOp18
 70
     1
102
RTVSPropertyOp19
 70
     1
102
RTVSPropertyOp20
 70
     1
102
RTVSPropertyOp21
 70
     1
102
RTVSPropertyOp22
 70
     1
102
RTVSPropertyOp23
 70
     1
102
RTVSPropertyOp24
 70
     1
102
RTVSPropertyOp25
 70
     1
102
RTVSPropertyOp26
 70
     1
102
RTVSPropertyOp27
 70
     1
102
RTVSPropertyOp28
 70
     1
102
RTVSPropertyOp29
 70
     1
102
RTVSPropertyOp30
 70
     1
102
RTVSPropertyOp31
 70
     1
102
RTVSPropertyOp32
 70
     1
102
RTVSPropertyOp33
 70
     1
102
RTVSPropertyOp34
 70
     1
102
RTVSPropertyOp35
 70
     1
102
RTVSPropertyOp36
 70
     1
102
RTVSPropertyOp37
 70
     1
102
RTVSPropertyOp38
 70
     1
102
RTVSPropertyOp39
 70
     1
102
RTVSPropertyOp40
 70
     1
102
RTVSPropertyOp41
 70
     1
102
RTVSPropertyOp42
 70
     1
102
RTVSPropertyOp43
 70
     1
102
RTVSPropertyOp44
 70
     1
102
RTVSPropertyOp45
 70
     1
102
RTVSPropertyOp46
 70
     1
102
RTVSPropertyOp47
 70
     1
102
RTVSPropertyOp48
 70
     1
102
RTVSPropertyOp49
 70
     1
102
RTVSPropertyOp50
 70
     1
102
RTVSPropertyOp51
 70
     0
102
RTVSPropertyOp52
 70
     0
102
RTVSPropertyOp53
 70
     1
102
RTVSPropertyOp54
 70
     1
102
RTVSPropertyOp55
 70
     1
102
RTVSPropertyOp56
 70
     1
102
RTVSPropertyOp57
 70
     1
102
RTVSPropertyOp58
 70
     1
102
RTVSPropertyOp59
 70
     1
102
RTVSPropertyOp60
 70
     1
102
RTVSPropertyOp61
 70
     1
102
RTVSPropertyOp62
 70
     1
  0
ENDSEC
  0
EOF
