  0
SECTION
  2
HEADER
  9
$ACADVER
  1
AC1015
  9
$ACADMAINTVER
 70
    20
  9
$DWGCODEPAGE
  3
ANSI_932
  9
$INSBASE
 10
0.0
 20
0.0
 30
0.0
  9
$EXTMIN
 10
9.99995
 20
9.999999999999998
 30
0.0
  9
$EXTMAX
 10
487.0
 20
322.0
 30
0.0
  9
$LIMMIN
 10
0.0
 20
0.0
  9
$LIMMAX
 10
495.0
 20
341.25
  9
$ORTHOMODE
 70
     0
  9
$REGENMODE
 70
     1
  9
$FILLMODE
 70
     1
  9
$QTEXTMODE
 70
     0
  9
$MIRRTEXT
 70
     1
  9
$LTSCALE
 40
20.0
  9
$ATTMODE
 70
     1
  9
$TEXTSIZE
 40
5.0
  9
$TRACEWID
 40
1.0
  9
$TEXTSTYLE
  7
STANDARD
  9
$CLAYER
  8
0
  9
$CELTYPE
  6
BYLAYER
  9
$CECOLOR
 62
   256
  9
$CELTSCALE
 40
1.0
  9
$DISPSILH
 70
     0
  9
$DIMSCALE
 40
1.0
  9
$DIMASZ
 40
3.0
  9
$DIMEXO
 40
1.0
  9
$DIMDLI
 40
10.0
  9
$DIMRND
 40
0.0
  9
$DIMDLE
 40
0.0
  9
$DIMEXE
 40
1.0
  9
$DIMTP
 40
0.0
  9
$DIMTM
 40
0.0
  9
$DIMTXT
 40
3.2
  9
$DIMCEN
 40
0.0
  9
$DIMTSZ
 40
0.0
  9
$DIMTOL
 70
     0
  9
$DIMLIM
 70
     0
  9
$DIMTIH
 70
     0
  9
$DIMTOH
 70
     0
  9
$DIMSE1
 70
     0
  9
$DIMSE2
 70
     0
  9
$DIMTAD
 70
     3
  9
$DIMZIN
 70
     8
  9
$DIMBLK
  1

  9
$DIMASO
 70
     1
  9
$DIMSHO
 70
     1
  9
$DIMPOST
  1

  9
$DIMAPOST
  1

  9
$DIMALT
 70
     0
  9
$DIMALTD
 70
     2
  9
$DIMALTF
 40
25.4
  9
$DIMLFAC
 40
1.0
  9
$DIMTOFL
 70
     1
  9
$DIMTVP
 40
0.0
  9
$DIMTIX
 70
     0
  9
$DIMSOXD
 70
     0
  9
$DIMSAH
 70
     1
  9
$DIMBLK1
  1
OPEN
  9
$DIMBLK2
  1
OPEN
  9
$DIMSTYLE
  2
STANDARD
  9
$DIMCLRD
 70
     0
  9
$DIMCLRE
 70
     0
  9
$DIMCLRT
 70
     0
  9
$DIMTFAC
 40
1.0
  9
$DIMGAP
 40
1.0
  9
$DIMJUST
 70
     0
  9
$DIMSD1
 70
     0
  9
$DIMSD2
 70
     0
  9
$DIMTOLJ
 70
     1
  9
$DIMTZIN
 70
     0
  9
$DIMALTZ
 70
     0
  9
$DIMALTTZ
 70
     0
  9
$DIMUPT
 70
     0
  9
$DIMDEC
 70
     4
  9
$DIMTDEC
 70
     4
  9
$DIMALTU
 70
     2
  9
$DIMALTTD
 70
     2
  9
$DIMTXSTY
  7
STANDARD
  9
$DIMAUNIT
 70
     0
  9
$DIMADEC
 70
     0
  9
$DIMALTRND
 40
0.0
  9
$DIMAZIN
 70
     0
  9
$DIMDSEP
 70
    46
  9
$DIMATFIT
 70
     3
  9
$DIMFRAC
 70
     0
  9
$DIMLDRBLK
  1
OPEN
  9
$DIMLUNIT
 70
     2
  9
$DIMLWD
 70
    -2
  9
$DIMLWE
 70
    -2
  9
$DIMTMOVE
 70
     0
  9
$LUNITS
 70
     2
  9
$LUPREC
 70
     4
  9
$SKETCHINC
 40
1.0
  9
$FILLETRAD
 40
3.0
  9
$AUNITS
 70
     0
  9
$AUPREC
 70
     2
  9
$MENU
  1
.
  9
$ELEVATION
 40
0.0
  9
$PELEVATION
 40
0.0
  9
$THICKNESS
 40
0.0
  9
$LIMCHECK
 70
     0
  9
$CHAMFERA
 40
10.0
  9
$CHAMFERB
 40
10.0
  9
$CHAMFERC
 40
0.0
  9
$CHAMFERD
 40
0.0
  9
$SKPOLY
 70
     0
  9
$TDCREATE
 40
2451301.408930440
  9
$TDUCREATE
 40
2451301.033930440
  9
$TDUPDATE
 40
2457192.686733923
  9
$TDUUPDATE
 40
2457192.311733924
  9
$TDINDWG
 40
0.0000110417
  9
$TDUSRTIMER
 40
0.0000107292
  9
$USRTIMER
 70
     1
  9
$ANGBASE
 50
0.0
  9
$ANGDIR
 70
     0
  9
$PDMODE
 70
    34
  9
$PDSIZE
 40
0.0
  9
$PLINEWID
 40
0.0
  9
$SPLFRAME
 70
     0
  9
$SPLINETYPE
 70
     6
  9
$SPLINESEGS
 70
     8
  9
$HANDSEED
  5
171F1
  9
$SURFTAB1
 70
     6
  9
$SURFTAB2
 70
     6
  9
$SURFTYPE
 70
     6
  9
$SURFU
 70
     6
  9
$SURFV
 70
     6
  9
$UCSBASE
  2

  9
$UCSNAME
  2

  9
$UCSORG
 10
0.0
 20
0.0
 30
0.0
  9
$UCSXDIR
 10
1.0
 20
0.0
 30
0.0
  9
$UCSYDIR
 10
0.0
 20
1.0
 30
0.0
  9
$UCSORTHOREF
  2

  9
$UCSORTHOVIEW
 70
     0
  9
$UCSORGTOP
 10
0.0
 20
0.0
 30
0.0
  9
$UCSORGBOTTOM
 10
0.0
 20
0.0
 30
0.0
  9
$UCSORGLEFT
 10
0.0
 20
0.0
 30
0.0
  9
$UCSORGRIGHT
 10
0.0
 20
0.0
 30
0.0
  9
$UCSORGFRONT
 10
0.0
 20
0.0
 30
0.0
  9
$UCSORGBACK
 10
0.0
 20
0.0
 30
0.0
  9
$PUCSBASE
  2

  9
$PUCSNAME
  2

  9
$PUCSORG
 10
0.0
 20
0.0
 30
0.0
  9
$PUCSXDIR
 10
1.0
 20
0.0
 30
0.0
  9
$PUCSYDIR
 10
0.0
 20
1.0
 30
0.0
  9
$PUCSORTHOREF
  2

  9
$PUCSORTHOVIEW
 70
     0
  9
$PUCSORGTOP
 10
0.0
 20
0.0
 30
0.0
  9
$PUCSORGBOTTOM
 10
0.0
 20
0.0
 30
0.0
  9
$PUCSORGLEFT
 10
0.0
 20
0.0
 30
0.0
  9
$PUCSORGRIGHT
 10
0.0
 20
0.0
 30
0.0
  9
$PUCSORGFRONT
 10
0.0
 20
0.0
 30
0.0
  9
$PUCSORGBACK
 10
0.0
 20
0.0
 30
0.0
  9
$USERI1
 70
     0
  9
$USERI2
 70
     0
  9
$USERI3
 70
     0
  9
$USERI4
 70
     0
  9
$USERI5
 70
     0
  9
$USERR1
 40
0.0
  9
$USERR2
 40
0.0
  9
$USERR3
 40
0.0
  9
$USERR4
 40
0.0
  9
$USERR5
 40
0.0
  9
$WORLDVIEW
 70
     1
  9
$SHADEDGE
 70
     3
  9
$SHADEDIF
 70
    70
  9
$TILEMODE
 70
     1
  9
$MAXACTVP
 70
    16
  9
$PINSBASE
 10
0.0
 20
0.0
 30
0.0
  9
$PLIMCHECK
 70
     0
  9
$PEXTMIN
 10
1.000000000000000E+20
 20
1.000000000000000E+20
 30
1.000000000000000E+20
  9
$PEXTMAX
 10
-1.000000000000000E+20
 20
-1.000000000000000E+20
 30
-1.000000000000000E+20
  9
$PLIMMIN
 10
0.0
 20
0.0
  9
$PLIMMAX
 10
420.0
 20
297.0
  9
$UNITMODE
 70
     0
  9
$VISRETAIN
 70
     0
  9
$PLINEGEN
 70
     0
  9
$PSLTSCALE
 70
     0
  9
$TREEDEPTH
 70
  3020
  9
$CMLSTYLE
  2
STANDARD
  9
$CMLJUST
 70
     0
  9
$CMLSCALE
 40
1.0
  9
$PROXYGRAPHICS
 70
     1
  9
$MEASUREMENT
 70
     0
  9
$CELWEIGHT
370
    -1
  9
$ENDCAPS
280
     0
  9
$JOINSTYLE
280
     0
  9
$LWDISPLAY
290
     0
  9
$INSUNITS
 70
     0
  9
$HYPERLINKBASE
  1

  9
$STYLESHEET
  1

  9
$XEDIT
290
     1
  9
$CEPSNTYPE
380
     0
  9
$PSTYLEMODE
290
     1
  9
$FINGERPRINTGUID
  2
{B7493283-DB4A-4FCF-A569-A1AEC1DABCB2}
  9
$VERSIONGUID
  2
{9D80152D-628C-42DC-94F1-35166E7CF55E}
  9
$EXTNAMES
290
     1
  9
$PSVPSCALE
 40
0.0
  9
$OLESTARTUP
290
     0
  0
ENDSEC
  0
SECTION
  2
CLASSES
  0
CLASS
  1
ACDBDICTIONARYWDFLT
  2
AcDbDictionaryWithDefault
  3
ObjectDBX Classes
 90
        0
280
     0
281
     0
  0
CLASS
  1
ACDBPLACEHOLDER
  2
AcDbPlaceHolder
  3
ObjectDBX Classes
 90
        0
280
     0
281
     0
  0
CLASS
  1
LAYOUT
  2
AcDbLayout
  3
ObjectDBX Classes
 90
        0
280
     0
281
     0
  0
CLASS
  1
DICTIONARYVAR
  2
AcDbDictionaryVar
  3
ObjectDBX Classes
 90
        0
280
     0
281
     0
  0
CLASS
  1
MATERIAL
  2
AcDbMaterial
  3
ObjectDBX Classes
 90
     1153
280
     0
281
     0
  0
CLASS
  1
VISUALSTYLE
  2
AcDbVisualStyle
  3
ObjectDBX Classes
 90
     4095
280
     0
281
     0
  0
CLASS
  1
TABLESTYLE
  2
AcDbTableStyle
  3
ObjectDBX Classes
 90
     4095
280
     0
281
     0
  0
CLASS
  1
SCALE
  2
AcDbScale
  3
ObjectDBX Classes
 90
     1153
280
     0
281
     0
  0
CLASS
  1
MLEADERSTYLE
  2
AcDbMLeaderStyle
  3
ACDB_MLEADERSTYLE_CLASS
 90
     4095
280
     0
281
     0
  0
CLASS
  1
ACDBSECTIONVIEWSTYLE
  2
AcDbSectionViewStyle
  3
ObjectDBX Classes
 90
     1025
280
     0
281
     0
  0
CLASS
  1
ACDBDETAILVIEWSTYLE
  2
AcDbDetailViewStyle
  3
ObjectDBX Classes
 90
     1025
280
     0
281
     0
  0
CLASS
  1
CELLSTYLEMAP
  2
AcDbCellStyleMap
  3
ObjectDBX Classes
 90
     1152
280
     0
281
     0
  0
ENDSEC
  0
SECTION
  2
TABLES
  0
TABLE
  2
VPORT
  5
16E86
330
0
100
AcDbSymbolTable
 70
     1
  0
VPORT
  5
1713A
330
16E86
100
AcDbSymbolTableRecord
100
AcDbViewportTableRecord
  2
*ACTIVE
 70
     0
 10
0.0
 20
0.0
 11
1.0
 21
1.0
 12
343.0100057189104
 22
166.003733470429
 13
0.0
 23
0.0
 14
10.0
 24
10.0
 15
10.0
 25
10.0
 16
0.0
 26
0.0
 36
1.0
 17
0.0
 27
0.0
 37
0.0
 40
315.4810567901847
 41
2.35006605019815
 42
50.0
 43
0.0
 44
0.0
 50
0.0
 51
0.0
 71
     0
 72
   100
 73
     1
 74
     0
 75
     0
 76
     0
 77
     0
 78
     0
281
     0
 65
     1
110
0.0
120
0.0
130
0.0
111
1.0
121
0.0
131
0.0
112
0.0
122
1.0
132
0.0
 79
     0
146
0.0
1001
ACAD_NAV_VCDISPLAY
1070
     3
  0
ENDTAB
  0
TABLE
  2
LTYPE
  5
16E83
330
0
100
AcDbSymbolTable
 70
     4
  0
LTYPE
  5
16E91
330
16E83
100
AcDbSymbolTableRecord
100
AcDbLinetypeTableRecord
  2
BYBLOCK
 70
     0
  3

 72
    65
 73
     0
 40
0.0
  0
LTYPE
  5
16E92
330
16E83
100
AcDbSymbolTableRecord
100
AcDbLinetypeTableRecord
  2
BYLAYER
 70
     0
  3

 72
    65
 73
     0
 40
0.0
  0
LTYPE
  5
16E93
330
16E83
100
AcDbSymbolTableRecord
100
AcDbLinetypeTableRecord
  2
CONTINUOUS
 70
     0
  3
Solid line
 72
    65
 73
     0
 40
0.0
  0
LTYPE
  5
16EA1
330
16E83
100
AcDbSymbolTableRecord
100
AcDbLinetypeTableRecord
  2
DASHED
 70
     0
  3
__ __ __ __ __ __ __ __ __ __ __ __ __ __ __ __
 72
    65
 73
     2
 40
0.75
 49
0.5
 74
     0
 49
-0.25
 74
     0
  0
LTYPE
  5
16EA2
330
16E83
100
AcDbSymbolTableRecord
100
AcDbLinetypeTableRecord
  2
CENTER
 70
     0
  3
____ _ ____ _ ____ _ ____ _ ____ _ ____ _ ____ 
 72
    65
 73
     4
 40
2.0
 49
1.25
 74
     0
 49
-0.25
 74
     0
 49
0.25
 74
     0
 49
-0.25
 74
     0
  0
LTYPE
  5
16EA3
330
16E83
100
AcDbSymbolTableRecord
100
AcDbLinetypeTableRecord
  2
PHANTOM
 70
     0
  3
______  __  __  ______  __  __  ______  __  __ 
 72
    65
 73
     6
 40
2.5
 49
1.25
 74
     0
 49
-0.25
 74
     0
 49
0.25
 74
     0
 49
-0.25
 74
     0
 49
0.25
 74
     0
 49
-0.25
 74
     0
  0
ENDTAB
  0
TABLE
  2
LAYER
  5
16E80
330
0
100
AcDbSymbolTable
 70
     8
  0
LAYER
  5
16E8E
102
{ACAD_XDICTIONARY
360
17195
102
}
330
16E80
100
AcDbSymbolTableRecord
100
AcDbLayerTableRecord
  2
0
 70
     0
 62
     7
  6
CONTINUOUS
370
    -3
390
17143
  0
LAYER
  5
16EA4
102
{ACAD_XDICTIONARY
360
17197
102
}
330
16E80
100
AcDbSymbolTableRecord
100
AcDbLayerTableRecord
  2
4
 70
     0
 62
     1
  6
CENTER
370
    -3
390
17143
  0
LAYER
  5
16EA5
102
{ACAD_XDICTIONARY
360
17199
102
}
330
16E80
100
AcDbSymbolTableRecord
100
AcDbLayerTableRecord
  2
5
 70
     0
 62
     6
  6
PHANTOM
370
    -3
390
17143
  0
LAYER
  5
16EA6
102
{ACAD_XDICTIONARY
360
1719B
102
}
330
16E80
100
AcDbSymbolTableRecord
100
AcDbLayerTableRecord
  2
1
 70
     0
 62
     7
  6
CONTINUOUS
370
    -3
390
17143
  0
LAYER
  5
16EA7
102
{ACAD_XDICTIONARY
360
1719D
102
}
330
16E80
100
AcDbSymbolTableRecord
100
AcDbLayerTableRecord
  2
2
 70
     0
 62
     4
  6
CONTINUOUS
370
    -3
390
17143
  0
LAYER
  5
16EA8
102
{ACAD_XDICTIONARY
360
1719F
102
}
330
16E80
100
AcDbSymbolTableRecord
100
AcDbLayerTableRecord
  2
3
 70
     0
 62
     2
  6
DASHED
370
    -3
390
17143
  0
LAYER
  5
16EA9
102
{ACAD_XDICTIONARY
360
171A1
102
}
330
16E80
100
AcDbSymbolTableRecord
100
AcDbLayerTableRecord
  2
6
 70
     0
 62
     5
  6
CONTINUOUS
370
    -3
390
17143
  0
LAYER
  5
16EAA
102
{ACAD_XDICTIONARY
360
171A3
102
}
330
16E80
100
AcDbSymbolTableRecord
100
AcDbLayerTableRecord
  2
7
 70
     0
 62
     3
  6
CONTINUOUS
370
    -3
390
17143
  0
ENDTAB
  0
TABLE
  2
STYLE
  5
16E81
330
0
100
AcDbSymbolTable
 70
     1
  0
STYLE
  5
16E8F
330
16E81
100
AcDbSymbolTableRecord
100
AcDbTextStyleTableRecord
  2
STANDARD
 70
     0
 40
0.0
 41
1.0
 50
0.0
 71
     0
 42
5.0
  3
txt
  4

  0
ENDTAB
  0
TABLE
  2
VIEW
  5
16E84
330
0
100
AcDbSymbolTable
 70
     2
  0
VIEW
  5
16EAB
330
16E84
100
AcDbSymbolTableRecord
100
AcDbViewTableRecord
  2
7
 70
     0
 40
113.5991649999999
 10
207.7781589999999
 20
100.5444229999999
 41
223.824098
 11
0.0
 21
0.0
 31
1.0
 12
0.0
 22
0.0
 32
0.0
 42
50.0
 43
0.0
 44
0.0
 50
0.0
 71
     0
281
     0
 72
     0
  0
VIEW
  5
16EAC
330
16E84
100
AcDbSymbolTableRecord
100
AcDbViewTableRecord
  2
6
 70
     0
 40
267.146964
 10
253.9720659999999
 20
125.781695
 41
526.35887
 11
0.0
 21
0.0
 31
1.0
 12
0.0
 22
0.0
 32
0.0
 42
50.0
 43
0.0
 44
0.0
 50
0.0
 71
     0
281
     0
 72
     0
  0
ENDTAB
  0
TABLE
  2
UCS
  5
16E85
330
0
100
AcDbSymbolTable
 70
     0
  0
ENDTAB
  0
TABLE
  2
APPID
  5
16E87
330
0
100
AcDbSymbolTable
 70
     3
  0
APPID
  5
16E90
330
16E87
100
AcDbSymbolTableRecord
100
AcDbRegAppTableRecord
  2
ACAD
 70
     0
  0
APPID
  5
171AF
330
16E87
100
AcDbSymbolTableRecord
100
AcDbRegAppTableRecord
  2
ACAD_NAV_VCDISPLAY
 70
     0
  0
APPID
  5
171E8
330
16E87
100
AcDbSymbolTableRecord
100
AcDbRegAppTableRecord
  2
ACAD_MLEADERVER
 70
     0
  0
ENDTAB
  0
TABLE
  2
DIMSTYLE
  5
16E88
330
0
100
AcDbSymbolTable
 70
     1
100
AcDbDimStyleTable
 71
     0
  0
DIMSTYLE
105
16EAE
330
16E88
100
AcDbSymbolTableRecord
100
AcDbDimStyleTableRecord
  2
STANDARD
 70
     0
 41
3.0
 42
1.0
 43
10.0
 44
1.0
 73
     0
 74
     0
 77
     3
 78
     8
140
3.2
141
0.0
147
1.0
172
     1
173
     1
284
     8
285
     8
286
     8
340
16E8F
  0
ENDTAB
  0
TABLE
  2
BLOCK_RECORD
  5
16E7F
330
0
100
AcDbSymbolTable
 70
     1
  0
BLOCK_RECORD
  5
16E9C
102
{ACAD_XDICTIONARY
360
1713D
102
}
330
16E7F
100
AcDbSymbolTableRecord
100
AcDbBlockTableRecord
  2
*MODEL_SPACE
340
17191
  0
BLOCK_RECORD
  5
16E98
102
{ACAD_XDICTIONARY
360
1713B
102
}
330
16E7F
100
AcDbSymbolTableRecord
100
AcDbBlockTableRecord
  2
*PAPER_SPACE
340
17192
  0
BLOCK_RECORD
  5
16EB6
330
16E7F
100
AcDbSymbolTableRecord
100
AcDbBlockTableRecord
  2
_OPEN
340
0
  0
ENDTAB
  0
ENDSEC
  0
SECTION
  2
BLOCKS
  0
BLOCK
  5
16E9D
330
16E9C
100
AcDbEntity
  8
0
100
AcDbBlockBegin
  2
*MODEL_SPACE
 70
     0
 10
0.0
 20
0.0
 30
0.0
  3
*MODEL_SPACE
  1

  0
ENDBLK
  5
16E9E
330
16E9C
100
AcDbEntity
  8
0
100
AcDbBlockEnd
  0
BLOCK
  5
16E99
330
16E98
100
AcDbEntity
 67
     1
  8
0
100
AcDbBlockBegin
  2
*PAPER_SPACE
 70
     0
 10
0.0
 20
0.0
 30
0.0
  3
*PAPER_SPACE
  1

  0
ENDBLK
  5
16E9A
330
16E98
100
AcDbEntity
 67
     1
  8
0
100
AcDbBlockEnd
  0
BLOCK
  5
16EB7
330
16EB6
100
AcDbEntity
  8
0
100
AcDbBlockBegin
  2
_OPEN
 70
     0
 10
0.0
 20
0.0
 30
0.0
  3
_OPEN
  1

  0
LINE
  5
16EB8
330
16EB6
100
AcDbEntity
  8
0
  6
ByBlock
 62
     0
100
AcDbLine
 10
-1.0
 20
0.166667
 30
0.0
 11
0.0
 21
0.0
 31
0.0
  0
LINE
  5
16EB9
330
16EB6
100
AcDbEntity
  8
0
  6
ByBlock
 62
     0
100
AcDbLine
 10
0.0
 20
0.0
 30
0.0
 11
-1.0
 21
-0.166667
 31
0.0
  0
LINE
  5
16EBA
330
16EB6
100
AcDbEntity
  8
0
  6
ByBlock
 62
     0
100
AcDbLine
 10
0.0
 20
0.0
 30
0.0
 11
-1.0
 21
0.0
 31
0.0
  0
ENDBLK
  5
16EBB
330
16EB6
100
AcDbEntity
  8
0
100
AcDbBlockEnd
  0
ENDSEC
  0
SECTION
  2
ENTITIES
  0
TEXT
  5
16EBC
330
16E9C
100
AcDbEntity
  8
6
  6
Continuous
100
AcDbText
 10
27.97945
 20
10.0487
 30
0.0
 40
1.399999999999999
  1
6
 41
1.069393
100
AcDbText
  0
TEXT
  5
16EBD
330
16E9C
100
AcDbEntity
  8
1
  6
Continuous
100
AcDbText
 10
17.97945
 20
10.0487
 30
0.0
 40
1.399999999999999
  1
1
 41
1.069393
100
AcDbText
  0
TEXT
  5
16EBE
330
16E9C
100
AcDbEntity
  8
1
  6
Continuous
100
AcDbText
 10
9.99995
 20
10.0
 30
0.0
 40
1.399999999999999
  1
LAYER
 41
1.009912999999997
100
AcDbText
  0
TEXT
  5
16EBF
330
16E9C
100
AcDbEntity
  8
2
  6
Continuous
100
AcDbText
 10
19.97944999999998
 20
10.0487
 30
0.0
 40
1.399999999999999
  1
2
 41
1.069393
100
AcDbText
  0
TEXT
  5
16EC0
330
16E9C
100
AcDbEntity
  8
3
  6
DASHED
100
AcDbText
 10
21.97945
 20
10.0487
 30
0.0
 40
1.399999999999999
  1
3
 41
1.069393
100
AcDbText
  0
TEXT
  5
16EC1
330
16E9C
100
AcDbEntity
  8
4
  6
CENTER
100
AcDbText
 10
23.97944999999999
 20
10.0487
 30
0.0
 40
1.399999999999999
  1
4
 41
1.069393
100
AcDbText
  0
TEXT
  5
16EC2
330
16E9C
100
AcDbEntity
  8
5
  6
PHANTOM
100
AcDbText
 10
25.97945
 20
10.0487
 30
0.0
 40
1.399999999999999
  1
5
 41
1.069393
100
AcDbText
  0
TEXT
  5
16EC3
330
16E9C
100
AcDbEntity
  8
7
  6
Continuous
100
AcDbText
 10
10.00005
 20
26.0
 30
0.0
 40
3.0
  1
CODE No.9077
 41
1.003962999999999
100
AcDbText
  0
TEXT
  5
16EC4
330
16E9C
100
AcDbEntity
  8
7
  6
Continuous
100
AcDbText
 10
10.00005
 20
18.0
 30
0.0
 40
3.0
  1
TYPE No.104ZHZ
 41
1.002350999999998
100
AcDbText
  0
TEXT
  5
16EC5
330
16E9C
100
AcDbEntity
  8
7
  6
Continuous
100
AcDbText
 10
29.97944999999999
 20
10.0487
 30
0.0
 40
1.399999999999999
  1
7
 41
1.069393
100
AcDbText
  0
LINE
  5
16EC6
330
16E9C
100
AcDbEntity
  8
4
  6
CENTER
100
AcDbLine
 10
89.19999999999998
 20
170.0
 30
0.0
 11
29.19999999999999
 21
170.0
 31
0.0
  0
LINE
  5
16EC7
330
16E9C
100
AcDbEntity
  8
1
  6
Continuous
100
AcDbLine
 10
41.0
 20
197.944747
 30
0.0
 11
42.155253
 21
199.0999999999999
 31
0.0
  0
LINE
  5
16EC8
330
16E9C
100
AcDbEntity
  8
1
  6
Continuous
100
AcDbLine
 10
43.066234
 20
203.2
 30
0.0
 11
40.566234
 21
205.6999999999999
 31
0.0
  0
LINE
  5
16EC9
330
16E9C
100
AcDbEntity
  8
1
  6
Continuous
100
AcDbLine
 10
40.566234
 20
203.2
 30
0.0
 11
43.066234
 21
205.6999999999999
 31
0.0
  0
LINE
  5
16ECA
330
16E9C
100
AcDbEntity
  8
1
  6
Continuous
100
AcDbLine
 10
72.0
 20
200.8999999999999
 30
0.0
 11
42.0
 21
200.8999999999999
 31
0.0
  0
LINE
  5
16ECB
330
16E9C
100
AcDbEntity
  8
1
  6
Continuous
100
AcDbLine
 10
80.5
 20
203.2
 30
0.0
 11
33.5
 21
203.2
 31
0.0
  0
LINE
  5
16ECC
330
16E9C
100
AcDbEntity
  8
1
  6
Continuous
100
AcDbLine
 10
80.5
 20
205.6999999999999
 30
0.0
 11
33.5
 21
205.6999999999999
 31
0.0
  0
LINE
  5
16ECD
330
16E9C
100
AcDbEntity
  8
1
  6
Continuous
100
AcDbLine
 10
80.5
 20
206.6999999999999
 30
0.0
 11
33.5
 21
206.6999999999999
 31
0.0
  0
LINE
  5
16ECE
330
16E9C
100
AcDbEntity
  8
1
  6
Continuous
100
AcDbLine
 10
77.0
 20
208.6999999999999
 30
0.0
 11
37.0
 21
208.6999999999999
 31
0.0
  0
LINE
  5
16ECF
330
16E9C
100
AcDbEntity
  8
1
  6
Continuous
100
AcDbLine
 10
89.0
 20
210.6999999999999
 30
0.0
 11
25.0
 21
210.6999999999999
 31
0.0
  0
LINE
  5
16ED0
330
16E9C
100
AcDbEntity
  8
1
  6
Continuous
100
AcDbLine
 10
89.0
 20
213.0
 30
0.0
 11
25.0
 21
213.0
 31
0.0
  0
LINE
  5
16ED1
330
16E9C
100
AcDbEntity
  8
1
  6
Continuous
100
AcDbLine
 10
400.0
 20
210.6999999999999
 30
0.0
 11
464.0
 21
210.6999999999999
 31
0.0
  0
LINE
  5
16ED2
330
16E9C
100
AcDbEntity
  8
1
  6
Continuous
100
AcDbLine
 10
400.0
 20
213.0
 30
0.0
 11
464.0
 21
213.0
 31
0.0
  0
LINE
  5
16ED3
330
16E9C
100
AcDbEntity
  8
1
  6
Continuous
100
AcDbLine
 10
400.0
 20
213.0
 30
0.0
 11
400.0
 21
210.6999999999999
 31
0.0
  0
LINE
  5
16ED4
330
16E9C
100
AcDbEntity
  8
4
  6
CENTER
100
AcDbLine
 10
457.0
 20
140.0
 30
0.0
 11
457.0
 21
200.0
 31
0.0
  0
LINE
  5
16ED5
330
16E9C
100
AcDbEntity
  8
4
  6
CENTER
100
AcDbLine
 10
427.0
 20
170.0
 30
0.0
 11
487.0
 21
170.0
 31
0.0
  0
ARC
  5
16ED6
330
16E9C
100
AcDbEntity
  8
1
  6
Continuous
100
AcDbCircle
 10
456.557919
 20
171.433375
 30
0.0
 40
11.5
100
AcDbArc
 50
287.140775
 51
16.762554
  0
LINE
  5
16ED7
330
16E9C
100
AcDbEntity
  8
1
  6
Continuous
100
AcDbLine
 10
459.0
 20
203.2
 30
0.0
 11
467.569264
 21
174.7500449999998
 31
0.0
  0
LINE
  5
16ED8
330
16E9C
100
AcDbEntity
  8
4
  6
CENTER
100
AcDbLine
 10
432.0
 20
176.4602689999999
 30
0.0
 11
432.0
 21
218.0
 31
0.0
  0
LINE
  5
16ED9
330
16E9C
100
AcDbEntity
  8
1
  6
Continuous
100
AcDbLine
 10
448.0
 20
199.098503
 30
0.0
 11
448.0
 21
167.88369
 31
0.0
  0
ARC
  5
16EDA
330
16E9C
100
AcDbEntity
  8
1
  6
Continuous
100
AcDbCircle
 10
416.8807909999999
 20
186.6999999999999
 30
0.0
 40
10.0
100
AcDbArc
 50
40.00004699999997
 51
90.0
  0
LINE
  5
16EDB
330
16E9C
100
AcDbEntity
  8
1
  6
Continuous
100
AcDbLine
 10
424.5412299999999
 20
193.1278819999998
 30
0.0
 11
449.2298269999998
 21
163.705207
 31
0.0
  0
LINE
  5
16EDC
330
16E9C
100
AcDbEntity
  8
1
  6
Continuous
100
AcDbLine
 10
424.060094
 20
193.6611499999999
 30
0.0
 11
420.729401
 21
193.6619029999999
 31
0.0
  0
ARC
  5
16EDD
330
16E9C
100
AcDbEntity
  8
1
  6
Continuous
100
AcDbCircle
 10
420.7341169999998
 20
214.5209009999999
 30
0.0
 40
20.85899799999999
100
AcDbArc
 50
268.368019
 51
269.987046
  0
CIRCLE
  5
16EDE
330
16E9C
100
AcDbEntity
  8
1
  6
Continuous
100
AcDbCircle
 10
457.0
 20
170.0
 30
0.0
 40
7.0
  0
ARC
  5
16EDF
330
16E9C
100
AcDbEntity
  8
1
  6
Continuous
100
AcDbCircle
 10
457.0
 20
170.0
 30
0.0
 40
10.0
100
AcDbArc
 50
219.011714
 51
287.140775
  0
LINE
  5
16EE0
330
16E9C
100
AcDbEntity
  8
1
  6
Continuous
100
AcDbLine
 10
435.705844
 20
203.2
 30
0.0
 11
433.2058439999998
 21
205.6999999999999
 31
0.0
  0
LINE
  5
16EE1
330
16E9C
100
AcDbEntity
  8
1
  6
Continuous
100
AcDbLine
 10
433.584524
 20
203.2
 30
0.0
 11
431.0845239999999
 21
205.6999999999999
 31
0.0
  0
LINE
  5
16EE2
330
16E9C
100
AcDbEntity
  8
1
  6
Continuous
100
AcDbLine
 10
433.2058439999998
 20
203.2
 30
0.0
 11
435.705844
 21
205.6999999999999
 31
0.0
  0
LINE
  5
16EE3
330
16E9C
100
AcDbEntity
  8
1
  6
Continuous
100
AcDbLine
 10
431.0845239999999
 20
203.2
 30
0.0
 11
433.584524
 21
205.6999999999999
 31
0.0
  0
LINE
  5
16EE4
330
16E9C
100
AcDbEntity
  8
1
  6
Continuous
100
AcDbLine
 10
408.4999999999998
 20
203.2
 30
0.0
 11
462.0
 21
203.2
 31
0.0
  0
LINE
  5
16EE5
330
16E9C
100
AcDbEntity
  8
1
  6
Continuous
100
AcDbLine
 10
408.4999999999998
 20
205.6999999999999
 30
0.0
 11
455.4999999999998
 21
205.6999999999999
 31
0.0
  0
LINE
  5
16EE6
330
16E9C
100
AcDbEntity
  8
1
  6
Continuous
100
AcDbLine
 10
408.4999999999998
 20
206.6999999999999
 30
0.0
 11
455.4999999999998
 21
206.6999999999999
 31
0.0
  0
LINE
  5
16EE7
330
16E9C
100
AcDbEntity
  8
1
  6
Continuous
100
AcDbLine
 10
412.0
 20
208.6999999999999
 30
0.0
 11
452.0
 21
208.6999999999999
 31
0.0
  0
LINE
  5
16EE8
330
16E9C
100
AcDbEntity
  8
1
  6
Continuous
100
AcDbLine
 10
418.735281
 20
203.2
 30
0.0
 11
416.2352809999998
 21
205.6999999999999
 31
0.0
  0
LINE
  5
16EE9
330
16E9C
100
AcDbEntity
  8
1
  6
Continuous
100
AcDbLine
 10
416.2352809999998
 20
203.2
 30
0.0
 11
418.735281
 21
205.6999999999999
 31
0.0
  0
ARC
  5
16EEA
330
16E9C
100
AcDbEntity
  8
1
  6
Continuous
100
AcDbCircle
 10
412.0
 20
218.6999999999999
 30
0.0
 40
10.0
100
AcDbArc
 50
233.130102
 51
270.0
  0
ARC
  5
16EEB
330
16E9C
100
AcDbEntity
  8
1
  6
Continuous
100
AcDbCircle
 10
412.0
 20
207.2
 30
0.0
 40
1.5
100
AcDbArc
 50
90.0
 51
180.0
  0
LINE
  5
16EEC
330
16E9C
100
AcDbEntity
  8
1
  6
Continuous
100
AcDbLine
 10
407.5
 20
196.6999999999999
 30
0.0
 11
416.8807909999999
 21
196.6999999999999
 31
0.0
  0
ARC
  5
16EED
330
16E9C
100
AcDbEntity
  8
1
  6
Continuous
100
AcDbCircle
 10
409.4999999999997
 20
201.2
 30
0.0
 40
2.0
100
AcDbArc
 50
90.0
 51
180.0
  0
LINE
  5
16EEE
330
16E9C
100
AcDbEntity
  8
1
  6
Continuous
100
AcDbLine
 10
407.5
 20
196.6999999999999
 30
0.0
 11
407.5
 21
201.2
 31
0.0
  0
LINE
  5
16EEF
330
16E9C
100
AcDbEntity
  8
1
  6
Continuous
100
AcDbLine
 10
414.492641
 20
203.2
 30
0.0
 11
411.9926409999997
 21
205.6999999999999
 31
0.0
  0
LINE
  5
16EF0
330
16E9C
100
AcDbEntity
  8
1
  6
Continuous
100
AcDbLine
 10
411.9926409999997
 20
203.2
 30
0.0
 11
414.492641
 21
205.6999999999999
 31
0.0
  0
LINE
  5
16EF1
330
16E9C
100
AcDbEntity
  8
1
  6
Continuous
100
AcDbLine
 10
412.37132
 20
203.2
 30
0.0
 11
409.87132
 21
205.6999999999999
 31
0.0
  0
LINE
  5
16EF2
330
16E9C
100
AcDbEntity
  8
1
  6
Continuous
100
AcDbLine
 10
410.25
 20
203.2
 30
0.0
 11
408.4999999999998
 21
204.95
 31
0.0
  0
LINE
  5
16EF3
330
16E9C
100
AcDbEntity
  8
1
  6
Continuous
100
AcDbLine
 10
409.87132
 20
203.2
 30
0.0
 11
412.37132
 21
205.6999999999999
 31
0.0
  0
LINE
  5
16EF4
330
16E9C
100
AcDbEntity
  8
1
  6
Continuous
100
AcDbLine
 10
410.25
 20
205.6999999999999
 30
0.0
 11
408.4999999999998
 21
203.9499999999999
 31
0.0
  0
LINE
  5
16EF5
330
16E9C
100
AcDbEntity
  8
1
  6
Continuous
100
AcDbLine
 10
410.5
 20
206.6999999999999
 30
0.0
 11
410.5
 21
207.2
 31
0.0
  0
LINE
  5
16EF6
330
16E9C
100
AcDbEntity
  8
1
  6
Continuous
100
AcDbLine
 10
416.613961
 20
203.2
 30
0.0
 11
414.1139609999998
 21
205.6999999999999
 31
0.0
  0
LINE
  5
16EF7
330
16E9C
100
AcDbEntity
  8
1
  6
Continuous
100
AcDbLine
 10
414.1139609999998
 20
203.2
 30
0.0
 11
416.613961
 21
205.6999999999999
 31
0.0
  0
LINE
  5
16EF8
330
16E9C
100
AcDbEntity
  8
4
  6
CENTER
100
AcDbLine
 10
407.0
 20
208.4
 30
0.0
 11
407.0
 21
215.3
 31
0.0
  0
LINE
  5
16EF9
330
16E9C
100
AcDbEntity
  8
1
  6
Continuous
100
AcDbLine
 10
427.220563
 20
203.2
 30
0.0
 11
424.7205629999998
 21
205.6999999999999
 31
0.0
  0
LINE
  5
16EFA
330
16E9C
100
AcDbEntity
  8
1
  6
Continuous
100
AcDbLine
 10
424.7205629999998
 20
203.2
 30
0.0
 11
427.220563
 21
205.6999999999999
 31
0.0
  0
LINE
  5
16EFB
330
16E9C
100
AcDbEntity
  8
1
  6
Continuous
100
AcDbLine
 10
422.977922
 20
203.2
 30
0.0
 11
420.4779219999998
 21
205.6999999999999
 31
0.0
  0
LINE
  5
16EFC
330
16E9C
100
AcDbEntity
  8
1
  6
Continuous
100
AcDbLine
 10
420.4779219999998
 20
203.2
 30
0.0
 11
422.977922
 21
205.6999999999999
 31
0.0
  0
LINE
  5
16EFD
330
16E9C
100
AcDbEntity
  8
1
  6
Continuous
100
AcDbLine
 10
420.8566019999998
 20
203.2
 30
0.0
 11
418.3566019999998
 21
205.6999999999999
 31
0.0
  0
LINE
  5
16EFE
330
16E9C
100
AcDbEntity
  8
1
  6
Continuous
100
AcDbLine
 10
418.3566019999998
 20
203.2
 30
0.0
 11
420.8566019999998
 21
205.6999999999999
 31
0.0
  0
LINE
  5
16EFF
330
16E9C
100
AcDbEntity
  8
1
  6
Continuous
100
AcDbLine
 10
425.099242
 20
203.2
 30
0.0
 11
422.5992419999998
 21
205.6999999999999
 31
0.0
  0
LINE
  5
16F00
330
16E9C
100
AcDbEntity
  8
1
  6
Continuous
100
AcDbLine
 10
422.5992419999998
 20
203.2
 30
0.0
 11
425.099242
 21
205.6999999999999
 31
0.0
  0
LINE
  5
16F01
330
16E9C
100
AcDbEntity
  8
1
  6
Continuous
100
AcDbLine
 10
431.463203
 20
203.2
 30
0.0
 11
428.9632029999999
 21
205.6999999999999
 31
0.0
  0
LINE
  5
16F02
330
16E9C
100
AcDbEntity
  8
1
  6
Continuous
100
AcDbLine
 10
428.9632029999999
 20
203.2
 30
0.0
 11
431.463203
 21
205.6999999999999
 31
0.0
  0
LINE
  5
16F03
330
16E9C
100
AcDbEntity
  8
1
  6
Continuous
100
AcDbLine
 10
429.341883
 20
203.2
 30
0.0
 11
426.8418829999998
 21
205.6999999999999
 31
0.0
  0
LINE
  5
16F04
330
16E9C
100
AcDbEntity
  8
1
  6
Continuous
100
AcDbLine
 10
426.8418829999998
 20
203.2
 30
0.0
 11
429.341883
 21
205.6999999999999
 31
0.0
  0
LINE
  5
16F05
330
16E9C
100
AcDbEntity
  8
1
  6
Continuous
100
AcDbLine
 10
450.555087
 20
203.2
 30
0.0
 11
448.055087
 21
205.6999999999999
 31
0.0
  0
LINE
  5
16F06
330
16E9C
100
AcDbEntity
  8
1
  6
Continuous
100
AcDbLine
 10
448.055087
 20
203.2
 30
0.0
 11
450.555087
 21
205.6999999999999
 31
0.0
  0
LINE
  5
16F07
330
16E9C
100
AcDbEntity
  8
1
  6
Continuous
100
AcDbLine
 10
444.191126
 20
203.2
 30
0.0
 11
441.691126
 21
205.6999999999999
 31
0.0
  0
LINE
  5
16F08
330
16E9C
100
AcDbEntity
  8
1
  6
Continuous
100
AcDbLine
 10
442.0698049999998
 20
203.2
 30
0.0
 11
439.569805
 21
205.6999999999999
 31
0.0
  0
LINE
  5
16F09
330
16E9C
100
AcDbEntity
  8
1
  6
Continuous
100
AcDbLine
 10
441.691126
 20
203.2
 30
0.0
 11
444.191126
 21
205.6999999999999
 31
0.0
  0
LINE
  5
16F0A
330
16E9C
100
AcDbEntity
  8
1
  6
Continuous
100
AcDbLine
 10
439.569805
 20
203.2
 30
0.0
 11
442.0698049999998
 21
205.6999999999999
 31
0.0
  0
LINE
  5
16F0B
330
16E9C
100
AcDbEntity
  8
1
  6
Continuous
100
AcDbLine
 10
439.9484849999998
 20
203.2
 30
0.0
 11
437.4484849999998
 21
205.6999999999999
 31
0.0
  0
LINE
  5
16F0C
330
16E9C
100
AcDbEntity
  8
1
  6
Continuous
100
AcDbLine
 10
437.827164
 20
203.2
 30
0.0
 11
435.3271639999999
 21
205.6999999999999
 31
0.0
  0
LINE
  5
16F0D
330
16E9C
100
AcDbEntity
  8
1
  6
Continuous
100
AcDbLine
 10
437.4484849999998
 20
203.2
 30
0.0
 11
439.9484849999998
 21
205.6999999999999
 31
0.0
  0
LINE
  5
16F0E
330
16E9C
100
AcDbEntity
  8
1
  6
Continuous
100
AcDbLine
 10
435.3271639999999
 20
203.2
 30
0.0
 11
437.827164
 21
205.6999999999999
 31
0.0
  0
LINE
  5
16F0F
330
16E9C
100
AcDbEntity
  8
1
  6
Continuous
100
AcDbLine
 10
446.312446
 20
203.2
 30
0.0
 11
443.812446
 21
205.6999999999999
 31
0.0
  0
LINE
  5
16F10
330
16E9C
100
AcDbEntity
  8
1
  6
Continuous
100
AcDbLine
 10
443.812446
 20
203.2
 30
0.0
 11
446.312446
 21
205.6999999999999
 31
0.0
  0
LINE
  5
16F11
330
16E9C
100
AcDbEntity
  8
1
  6
Continuous
100
AcDbLine
 10
448.433766
 20
203.2
 30
0.0
 11
445.933766
 21
205.6999999999999
 31
0.0
  0
LINE
  5
16F12
330
16E9C
100
AcDbEntity
  8
1
  6
Continuous
100
AcDbLine
 10
445.933766
 20
203.2
 30
0.0
 11
448.433766
 21
205.6999999999999
 31
0.0
  0
ARC
  5
16F13
330
16E9C
100
AcDbEntity
  8
1
  6
Continuous
100
AcDbCircle
 10
452.0
 20
218.6999999999999
 30
0.0
 40
10.0
100
AcDbArc
 50
270.0
 51
306.8698979999999
  0
ARC
  5
16F14
330
16E9C
100
AcDbEntity
  8
1
  6
Continuous
100
AcDbCircle
 10
452.0
 20
207.2
 30
0.0
 40
1.5
100
AcDbArc
 50
0.0
 51
90.0
  0
LINE
  5
16F15
330
16E9C
100
AcDbEntity
  8
1
  6
Continuous
100
AcDbLine
 10
454.7977269999998
 20
203.2
 30
0.0
 11
452.2977269999998
 21
205.6999999999999
 31
0.0
  0
LINE
  5
16F16
330
16E9C
100
AcDbEntity
  8
1
  6
Continuous
100
AcDbLine
 10
452.2977269999998
 20
203.2
 30
0.0
 11
454.7977269999998
 21
205.6999999999999
 31
0.0
  0
LINE
  5
16F17
330
16E9C
100
AcDbEntity
  8
1
  6
Continuous
100
AcDbLine
 10
452.6764069999998
 20
203.2
 30
0.0
 11
450.176407
 21
205.6999999999999
 31
0.0
  0
LINE
  5
16F18
330
16E9C
100
AcDbEntity
  8
1
  6
Continuous
100
AcDbLine
 10
450.176407
 20
203.2
 30
0.0
 11
452.6764069999998
 21
205.6999999999999
 31
0.0
  0
LINE
  5
16F19
330
16E9C
100
AcDbEntity
  8
1
  6
Continuous
100
AcDbLine
 10
453.5
 20
206.6999999999999
 30
0.0
 11
453.5
 21
207.2
 31
0.0
  0
LINE
  5
16F1A
330
16E9C
100
AcDbEntity
  8
1
  6
Continuous
100
AcDbLine
 10
455.4999999999998
 20
204.6190479999999
 30
0.0
 11
454.419048
 21
205.6999999999999
 31
0.0
  0
LINE
  5
16F1B
330
16E9C
100
AcDbEntity
  8
1
  6
Continuous
100
AcDbLine
 10
454.419048
 20
203.2
 30
0.0
 11
455.4999999999998
 21
204.280952
 31
0.0
  0
LINE
  5
16F1C
330
16E9C
100
AcDbEntity
  8
1
  6
Continuous
100
AcDbLine
 10
462.0
 20
200.8999999999999
 30
0.0
 11
462.0
 21
203.2
 31
0.0
  0
LINE
  5
16F1D
330
16E9C
100
AcDbEntity
  8
1
  6
Continuous
100
AcDbLine
 10
459.692771
 20
200.8999999999999
 30
0.0
 11
462.0
 21
200.8999999999999
 31
0.0
  0
LINE
  5
16F1E
330
16E9C
100
AcDbEntity
  8
4
  6
CENTER
100
AcDbLine
 10
457.0
 20
208.4
 30
0.0
 11
457.0
 21
215.3
 31
0.0
  0
LINE
  5
16F1F
330
16E9C
100
AcDbEntity
  8
1
  6
Continuous
100
AcDbLine
 10
464.0
 20
213.0
 30
0.0
 11
464.0
 21
210.6999999999999
 31
0.0
  0
LINE
  5
16F20
330
16E9C
100
AcDbEntity
  8
1
  6
Continuous
100
AcDbLine
 10
38.7
 20
160.0
 30
0.0
 11
38.7
 21
200.7
 31
0.0
  0
LINE
  5
16F21
330
16E9C
100
AcDbEntity
  8
1
  6
Continuous
100
AcDbLine
 10
41.0
 20
160.0
 30
0.0
 11
41.0
 21
199.9
 31
0.0
  0
LINE
  5
16F22
330
16E9C
100
AcDbEntity
  8
1
  6
Continuous
100
AcDbLine
 10
32.5
 20
186.4790779999999
 30
0.0
 11
32.5
 21
201.2
 31
0.0
  0
LINE
  5
16F23
330
16E9C
100
AcDbEntity
  8
1
  6
Continuous
100
AcDbLine
 10
41.0
 20
160.0
 30
0.0
 11
38.7
 21
160.0
 31
0.0
  0
ARC
  5
16F24
330
16E9C
100
AcDbEntity
  8
1
  6
Continuous
100
AcDbCircle
 10
57.5
 20
186.4790779999999
 30
0.0
 40
25.0
100
AcDbArc
 50
180.0
 51
206.50785
  0
LINE
  5
16F25
330
16E9C
100
AcDbEntity
  8
1
  6
Continuous
100
AcDbLine
 10
25.0
 20
213.0
 30
0.0
 11
25.0
 21
210.6999999999999
 31
0.0
  0
LINE
  5
16F26
330
16E9C
100
AcDbEntity
  8
4
  6
CENTER
100
AcDbLine
 10
32.0
 20
208.4
 30
0.0
 11
32.0
 21
215.3
 31
0.0
  0
ARC
  5
16F27
330
16E9C
100
AcDbEntity
  8
1
  6
Continuous
100
AcDbCircle
 10
37.0
 20
218.6999999999999
 30
0.0
 40
10.0
100
AcDbArc
 50
233.130102
 51
270.0
  0
ARC
  5
16F28
330
16E9C
100
AcDbEntity
  8
1
  6
Continuous
100
AcDbCircle
 10
37.0
 20
207.2
 30
0.0
 40
1.5
100
AcDbArc
 50
90.0
 51
180.0
  0
ARC
  5
16F29
330
16E9C
100
AcDbEntity
  8
1
  6
Continuous
100
AcDbCircle
 10
34.5
 20
201.2
 30
0.0
 40
2.0
100
AcDbArc
 50
90.0
 51
180.0
  0
ARC
  5
16F2A
330
16E9C
100
AcDbEntity
  8
1
  6
Continuous
100
AcDbCircle
 10
41.2
 20
200.7
 30
0.0
 40
2.5
100
AcDbArc
 50
90.0
 51
180.0
  0
LINE
  5
16F2B
330
16E9C
100
AcDbEntity
  8
1
  6
Continuous
100
AcDbLine
 10
41.674942
 20
197.4499999999999
 30
0.0
 11
41.0
 21
198.124942
 31
0.0
  0
ARC
  5
16F2C
330
16E9C
100
AcDbEntity
  8
1
  6
Continuous
100
AcDbCircle
 10
42.0
 20
199.9
 30
0.0
 40
1.0
100
AcDbArc
 50
90.0
 51
180.0
  0
LINE
  5
16F2D
330
16E9C
100
AcDbEntity
  8
1
  6
Continuous
100
AcDbLine
 10
38.823593
 20
203.2
 30
0.0
 11
36.323593
 21
205.6999999999999
 31
0.0
  0
LINE
  5
16F2E
330
16E9C
100
AcDbEntity
  8
1
  6
Continuous
100
AcDbLine
 10
36.323593
 20
203.2
 30
0.0
 11
38.823593
 21
205.6999999999999
 31
0.0
  0
LINE
  5
16F2F
330
16E9C
100
AcDbEntity
  8
1
  6
Continuous
100
AcDbLine
 10
34.58095200000001
 20
203.2
 30
0.0
 11
33.5
 21
204.280952
 31
0.0
  0
LINE
  5
16F30
330
16E9C
100
AcDbEntity
  8
1
  6
Continuous
100
AcDbLine
 10
36.702273
 20
203.2
 30
0.0
 11
34.202273
 21
205.6999999999999
 31
0.0
  0
LINE
  5
16F31
330
16E9C
100
AcDbEntity
  8
1
  6
Continuous
100
AcDbLine
 10
33.5
 20
204.6190479999999
 30
0.0
 11
34.58095200000001
 21
205.6999999999999
 31
0.0
  0
LINE
  5
16F32
330
16E9C
100
AcDbEntity
  8
1
  6
Continuous
100
AcDbLine
 10
34.202273
 20
203.2
 30
0.0
 11
36.702273
 21
205.6999999999999
 31
0.0
  0
LINE
  5
16F33
330
16E9C
100
AcDbEntity
  8
1
  6
Continuous
100
AcDbLine
 10
35.5
 20
206.6999999999999
 30
0.0
 11
35.5
 21
207.2
 31
0.0
  0
LINE
  5
16F34
330
16E9C
100
AcDbEntity
  8
1
  6
Continuous
100
AcDbLine
 10
40.944913
 20
203.2
 30
0.0
 11
38.44491299999999
 21
205.6999999999999
 31
0.0
  0
LINE
  5
16F35
330
16E9C
100
AcDbEntity
  8
1
  6
Continuous
100
AcDbLine
 10
38.44491299999999
 20
203.2
 30
0.0
 11
40.944913
 21
205.6999999999999
 31
0.0
  0
ARC
  5
16F36
330
16E9C
100
AcDbEntity
  8
1
  6
Continuous
100
AcDbCircle
 10
219.0
 20
260.0
 30
0.0
 40
7.0
100
AcDbArc
 50
270.0
 51
0.0
  0
ARC
  5
16F37
330
16E9C
100
AcDbEntity
  8
1
  6
Continuous
100
AcDbCircle
 10
219.0
 20
310.0
 30
0.0
 40
7.0
100
AcDbArc
 50
0.0
 51
90.0
  0
LINE
  5
16F38
330
16E9C
100
AcDbEntity
  8
1
  6
Continuous
100
AcDbLine
 10
226.0
 20
260.0
 30
0.0
 11
226.0
 21
310.0
 31
0.0
  0
LINE
  5
16F39
330
16E9C
100
AcDbEntity
  8
4
  6
CENTER
100
AcDbLine
 10
194.0
 20
248.0
 30
0.0
 11
194.0
 21
322.0
 31
0.0
  0
LINE
  5
16F3A
330
16E9C
100
AcDbEntity
  8
1
  6
Continuous
100
AcDbLine
 10
162.0
 20
260.0
 30
0.0
 11
162.0
 21
310.0
 31
0.0
  0
CIRCLE
  5
16F3B
330
16E9C
100
AcDbEntity
  8
1
  6
Continuous
100
AcDbCircle
 10
194.0
 20
285.0
 30
0.0
 40
23.5
  0
CIRCLE
  5
16F3C
330
16E9C
100
AcDbEntity
  8
1
  6
Continuous
100
AcDbCircle
 10
194.0
 20
285.0
 30
0.0
 40
21.0
  0
CIRCLE
  5
16F3D
330
16E9C
100
AcDbEntity
  8
1
  6
Continuous
100
AcDbCircle
 10
194.0
 20
285.0
 30
0.0
 40
11.5
  0
LINE
  5
16F3E
330
16E9C
100
AcDbEntity
  8
1
  6
Continuous
100
AcDbLine
 10
219.0
 20
253.0
 30
0.0
 11
169.0
 21
253.0
 31
0.0
  0
LINE
  5
16F3F
330
16E9C
100
AcDbEntity
  8
4
  6
CENTER
100
AcDbLine
 10
219.0
 20
253.5
 30
0.0
 11
219.0
 21
266.5
 31
0.0
  0
CIRCLE
  5
16F40
330
16E9C
100
AcDbEntity
  8
1
  6
Continuous
100
AcDbCircle
 10
219.0
 20
260.0
 30
0.0
 40
3.25
  0
LINE
  5
16F41
330
16E9C
100
AcDbEntity
  8
4
  6
CENTER
100
AcDbLine
 10
225.4999999999999
 20
260.0
 30
0.0
 11
212.5
 21
260.0
 31
0.0
  0
ARC
  5
16F42
330
16E9C
100
AcDbEntity
  8
1
  6
Continuous
100
AcDbCircle
 10
169.0
 20
260.0
 30
0.0
 40
7.0
100
AcDbArc
 50
180.0
 51
270.0
  0
CIRCLE
  5
16F43
330
16E9C
100
AcDbEntity
  8
1
  6
Continuous
100
AcDbCircle
 10
169.0
 20
260.0
 30
0.0
 40
3.25
  0
LINE
  5
16F44
330
16E9C
100
AcDbEntity
  8
4
  6
CENTER
100
AcDbLine
 10
175.5
 20
260.0
 30
0.0
 11
162.5
 21
260.0
 31
0.0
  0
LINE
  5
16F45
330
16E9C
100
AcDbEntity
  8
1
  6
Continuous
100
AcDbLine
 10
219.0
 20
317.0
 30
0.0
 11
169.0
 21
317.0
 31
0.0
  0
LINE
  5
16F46
330
16E9C
100
AcDbEntity
  8
4
  6
CENTER
100
AcDbLine
 10
219.0
 20
303.5
 30
0.0
 11
219.0
 21
316.5
 31
0.0
  0
LINE
  5
16F47
330
16E9C
100
AcDbEntity
  8
4
  6
CENTER
100
AcDbLine
 10
225.4999999999999
 20
310.0
 30
0.0
 11
212.5
 21
310.0
 31
0.0
  0
CIRCLE
  5
16F48
330
16E9C
100
AcDbEntity
  8
1
  6
Continuous
100
AcDbCircle
 10
219.0
 20
310.0
 30
0.0
 40
3.25
  0
ARC
  5
16F49
330
16E9C
100
AcDbEntity
  8
1
  6
Continuous
100
AcDbCircle
 10
169.0
 20
310.0
 30
0.0
 40
7.0
100
AcDbArc
 50
90.0
 51
180.0
  0
LINE
  5
16F4A
330
16E9C
100
AcDbEntity
  8
4
  6
CENTER
100
AcDbLine
 10
175.5
 20
310.0
 30
0.0
 11
162.5
 21
310.0
 31
0.0
  0
CIRCLE
  5
16F4B
330
16E9C
100
AcDbEntity
  8
1
  6
Continuous
100
AcDbCircle
 10
169.0
 20
310.0
 30
0.0
 40
3.25
  0
LINE
  5
16F4C
330
16E9C
100
AcDbEntity
  8
1
  6
Continuous
100
AcDbLine
 10
75.29999999999998
 20
160.0
 30
0.0
 11
75.29999999999998
 21
200.7
 31
0.0
  0
LINE
  5
16F4D
330
16E9C
100
AcDbEntity
  8
1
  6
Continuous
100
AcDbLine
 10
73.0
 20
160.0
 30
0.0
 11
73.0
 21
199.9
 31
0.0
  0
LINE
  5
16F4E
330
16E9C
100
AcDbEntity
  8
1
  6
Continuous
100
AcDbLine
 10
81.5
 20
186.4790779999999
 30
0.0
 11
81.5
 21
201.2
 31
0.0
  0
LINE
  5
16F4F
330
16E9C
100
AcDbEntity
  8
1
  6
Continuous
100
AcDbLine
 10
75.29999999999998
 20
160.0
 30
0.0
 11
73.0
 21
160.0
 31
0.0
  0
LINE
  5
16F50
330
16E9C
100
AcDbEntity
  8
1
  6
Continuous
100
AcDbLine
 10
75.29999999999998
 20
162.5
 30
0.0
 11
77.29999999999998
 21
162.5
 31
0.0
  0
LINE
  5
16F51
330
16E9C
100
AcDbEntity
  8
1
  6
Continuous
100
AcDbLine
 10
82.29999999999998
 20
166.0
 30
0.0
 11
83.0
 21
166.0
 31
0.0
  0
LINE
  5
16F52
330
16E9C
100
AcDbEntity
  8
1
  6
Continuous
100
AcDbLine
 10
84.19999999999998
 20
172.8
 30
0.0
 11
84.19999999999998
 21
167.1999999999998
 31
0.0
  0
ARC
  5
16F53
330
16E9C
100
AcDbEntity
  8
1
  6
Continuous
100
AcDbCircle
 10
56.5
 20
186.4790779999999
 30
0.0
 40
25.0
100
AcDbArc
 50
337.5397050000001
 51
0.0
  0
LINE
  5
16F54
330
16E9C
100
AcDbEntity
  8
1
  6
Continuous
100
AcDbLine
 10
75.29999999999998
 20
177.5
 30
0.0
 11
77.29999999999998
 21
177.5
 31
0.0
  0
LINE
  5
16F55
330
16E9C
100
AcDbEntity
  8
1
  6
Continuous
100
AcDbLine
 10
82.29999999999998
 20
174.0
 30
0.0
 11
83.0
 21
174.0
 31
0.0
  0
LINE
  5
16F56
330
16E9C
100
AcDbEntity
  8
1
  6
Continuous
100
AcDbLine
 10
74.88603899999998
 20
203.2
 30
0.0
 11
72.38603899999998
 21
205.6999999999999
 31
0.0
  0
LINE
  5
16F57
330
16E9C
100
AcDbEntity
  8
1
  6
Continuous
100
AcDbLine
 10
77.00735899999997
 20
203.2
 30
0.0
 11
74.50735899999997
 21
205.6999999999999
 31
0.0
  0
LINE
  5
16F58
330
16E9C
100
AcDbEntity
  8
1
  6
Continuous
100
AcDbLine
 10
72.38603899999998
 20
203.2
 30
0.0
 11
74.88603899999998
 21
205.6999999999999
 31
0.0
  0
LINE
  5
16F59
330
16E9C
100
AcDbEntity
  8
1
  6
Continuous
100
AcDbLine
 10
74.50735899999997
 20
203.2
 30
0.0
 11
77.00735899999997
 21
205.6999999999999
 31
0.0
  0
ARC
  5
16F5A
330
16E9C
100
AcDbEntity
  8
1
  6
Continuous
100
AcDbCircle
 10
72.79999999999998
 20
200.7
 30
0.0
 40
2.5
100
AcDbArc
 50
0.0
 51
90.0
  0
LINE
  5
16F5B
330
16E9C
100
AcDbEntity
  8
1
  6
Continuous
100
AcDbLine
 10
58.645505
 20
197.4499999999999
 30
0.0
 11
56.99550399999999
 21
199.0999999999999
 31
0.0
  0
LINE
  5
16F5C
330
16E9C
100
AcDbEntity
  8
1
  6
Continuous
100
AcDbLine
 10
57.475816
 20
197.4499999999999
 30
0.0
 11
59.125816
 21
199.0999999999999
 31
0.0
  0
LINE
  5
16F5D
330
16E9C
100
AcDbEntity
  8
1
  6
Continuous
100
AcDbLine
 10
60.036797
 20
203.2
 30
0.0
 11
57.536797
 21
205.6999999999999
 31
0.0
  0
LINE
  5
16F5E
330
16E9C
100
AcDbEntity
  8
1
  6
Continuous
100
AcDbLine
 10
57.536797
 20
203.2
 30
0.0
 11
60.036797
 21
205.6999999999999
 31
0.0
  0
LINE
  5
16F5F
330
16E9C
100
AcDbEntity
  8
1
  6
Continuous
100
AcDbLine
 10
48.99053399999999
 20
197.4499999999999
 30
0.0
 11
50.64053499999999
 21
199.0999999999999
 31
0.0
  0
LINE
  5
16F60
330
16E9C
100
AcDbEntity
  8
1
  6
Continuous
100
AcDbLine
 10
51.551515
 20
203.2
 30
0.0
 11
49.051515
 21
205.6999999999999
 31
0.0
  0
LINE
  5
16F61
330
16E9C
100
AcDbEntity
  8
1
  6
Continuous
100
AcDbLine
 10
49.051515
 20
203.2
 30
0.0
 11
51.551515
 21
205.6999999999999
 31
0.0
  0
LINE
  5
16F62
330
16E9C
100
AcDbEntity
  8
1
  6
Continuous
100
AcDbLine
 10
44.747894
 20
197.4499999999999
 30
0.0
 11
46.397894
 21
199.0999999999999
 31
0.0
  0
LINE
  5
16F63
330
16E9C
100
AcDbEntity
  8
1
  6
Continuous
100
AcDbLine
 10
43.79626199999999
 20
197.4499999999999
 30
0.0
 11
42.146262
 21
199.0999999999999
 31
0.0
  0
LINE
  5
16F64
330
16E9C
100
AcDbEntity
  8
1
  6
Continuous
100
AcDbLine
 10
45.917583
 20
197.4499999999999
 30
0.0
 11
44.267583
 21
199.0999999999999
 31
0.0
  0
LINE
  5
16F65
330
16E9C
100
AcDbEntity
  8
1
  6
Continuous
100
AcDbLine
 10
42.62657299999999
 20
197.4499999999999
 30
0.0
 11
44.276574
 21
199.0999999999999
 31
0.0
  0
LINE
  5
16F66
330
16E9C
100
AcDbEntity
  8
1
  6
Continuous
100
AcDbLine
 10
48.03890299999999
 20
197.4499999999999
 30
0.0
 11
46.388902
 21
199.0999999999999
 31
0.0
  0
LINE
  5
16F67
330
16E9C
100
AcDbEntity
  8
1
  6
Continuous
100
AcDbLine
 10
50.16022299999999
 20
197.4499999999999
 30
0.0
 11
48.510223
 21
199.0999999999999
 31
0.0
  0
LINE
  5
16F68
330
16E9C
100
AcDbEntity
  8
1
  6
Continuous
100
AcDbLine
 10
46.869214
 20
197.4499999999999
 30
0.0
 11
48.519214
 21
199.0999999999999
 31
0.0
  0
LINE
  5
16F69
330
16E9C
100
AcDbEntity
  8
1
  6
Continuous
100
AcDbLine
 10
47.30887399999999
 20
203.2
 30
0.0
 11
44.80887399999999
 21
205.6999999999999
 31
0.0
  0
LINE
  5
16F6A
330
16E9C
100
AcDbEntity
  8
1
  6
Continuous
100
AcDbLine
 10
44.80887399999999
 20
203.2
 30
0.0
 11
47.30887399999999
 21
205.6999999999999
 31
0.0
  0
LINE
  5
16F6B
330
16E9C
100
AcDbEntity
  8
1
  6
Continuous
100
AcDbLine
 10
45.18755399999998
 20
203.2
 30
0.0
 11
42.68755399999998
 21
205.6999999999999
 31
0.0
  0
LINE
  5
16F6C
330
16E9C
100
AcDbEntity
  8
1
  6
Continuous
100
AcDbLine
 10
42.68755399999998
 20
203.2
 30
0.0
 11
45.18755399999998
 21
205.6999999999999
 31
0.0
  0
LINE
  5
16F6D
330
16E9C
100
AcDbEntity
  8
1
  6
Continuous
100
AcDbLine
 10
49.430195
 20
203.2
 30
0.0
 11
46.930195
 21
205.6999999999999
 31
0.0
  0
LINE
  5
16F6E
330
16E9C
100
AcDbEntity
  8
1
  6
Continuous
100
AcDbLine
 10
46.930195
 20
203.2
 30
0.0
 11
49.430195
 21
205.6999999999999
 31
0.0
  0
LINE
  5
16F6F
330
16E9C
100
AcDbEntity
  8
1
  6
Continuous
100
AcDbLine
 10
54.402864
 20
197.4499999999999
 30
0.0
 11
52.752864
 21
199.0999999999999
 31
0.0
  0
LINE
  5
16F70
330
16E9C
100
AcDbEntity
  8
1
  6
Continuous
100
AcDbLine
 10
53.233175
 20
197.4499999999999
 30
0.0
 11
54.883175
 21
199.0999999999999
 31
0.0
  0
LINE
  5
16F71
330
16E9C
100
AcDbEntity
  8
1
  6
Continuous
100
AcDbLine
 10
52.281544
 20
197.4499999999999
 30
0.0
 11
50.631543
 21
199.0999999999999
 31
0.0
  0
LINE
  5
16F72
330
16E9C
100
AcDbEntity
  8
1
  6
Continuous
100
AcDbLine
 10
51.111855
 20
197.4499999999999
 30
0.0
 11
52.761855
 21
199.0999999999999
 31
0.0
  0
LINE
  5
16F73
330
16E9C
100
AcDbEntity
  8
1
  6
Continuous
100
AcDbLine
 10
56.524184
 20
197.4499999999999
 30
0.0
 11
54.874184
 21
199.0999999999999
 31
0.0
  0
LINE
  5
16F74
330
16E9C
100
AcDbEntity
  8
1
  6
Continuous
100
AcDbLine
 10
55.35449499999999
 20
197.4499999999999
 30
0.0
 11
57.00449599999998
 21
199.0999999999999
 31
0.0
  0
LINE
  5
16F75
330
16E9C
100
AcDbEntity
  8
1
  6
Continuous
100
AcDbLine
 10
55.794156
 20
203.2
 30
0.0
 11
53.294156
 21
205.6999999999999
 31
0.0
  0
LINE
  5
16F76
330
16E9C
100
AcDbEntity
  8
1
  6
Continuous
100
AcDbLine
 10
53.294156
 20
203.2
 30
0.0
 11
55.794156
 21
205.6999999999999
 31
0.0
  0
LINE
  5
16F77
330
16E9C
100
AcDbEntity
  8
1
  6
Continuous
100
AcDbLine
 10
53.672836
 20
203.2
 30
0.0
 11
51.172836
 21
205.6999999999999
 31
0.0
  0
LINE
  5
16F78
330
16E9C
100
AcDbEntity
  8
1
  6
Continuous
100
AcDbLine
 10
51.172836
 20
203.2
 30
0.0
 11
53.672836
 21
205.6999999999999
 31
0.0
  0
LINE
  5
16F79
330
16E9C
100
AcDbEntity
  8
1
  6
Continuous
100
AcDbLine
 10
57.915476
 20
203.2
 30
0.0
 11
55.415476
 21
205.6999999999999
 31
0.0
  0
LINE
  5
16F7A
330
16E9C
100
AcDbEntity
  8
1
  6
Continuous
100
AcDbLine
 10
55.415476
 20
203.2
 30
0.0
 11
57.915476
 21
205.6999999999999
 31
0.0
  0
LINE
  5
16F7B
330
16E9C
100
AcDbEntity
  8
1
  6
Continuous
100
AcDbLine
 10
67.130786
 20
197.4499999999999
 30
0.0
 11
65.480786
 21
199.0999999999999
 31
0.0
  0
LINE
  5
16F7C
330
16E9C
100
AcDbEntity
  8
1
  6
Continuous
100
AcDbLine
 10
65.96109699999999
 20
197.4499999999999
 30
0.0
 11
67.611097
 21
199.0999999999999
 31
0.0
  0
LINE
  5
16F7D
330
16E9C
100
AcDbEntity
  8
1
  6
Continuous
100
AcDbLine
 10
68.52207800000001
 20
203.2
 30
0.0
 11
66.02207800000001
 21
205.6999999999999
 31
0.0
  0
LINE
  5
16F7E
330
16E9C
100
AcDbEntity
  8
1
  6
Continuous
100
AcDbLine
 10
66.02207800000001
 20
203.2
 30
0.0
 11
68.52207800000001
 21
205.6999999999999
 31
0.0
  0
LINE
  5
16F7F
330
16E9C
100
AcDbEntity
  8
1
  6
Continuous
100
AcDbLine
 10
62.88814499999999
 20
197.4499999999999
 30
0.0
 11
61.23814499999999
 21
199.0999999999999
 31
0.0
  0
LINE
  5
16F80
330
16E9C
100
AcDbEntity
  8
1
  6
Continuous
100
AcDbLine
 10
61.71845600000001
 20
197.4499999999999
 30
0.0
 11
63.36845699999999
 21
199.0999999999999
 31
0.0
  0
LINE
  5
16F81
330
16E9C
100
AcDbEntity
  8
1
  6
Continuous
100
AcDbLine
 10
60.766825
 20
197.4499999999999
 30
0.0
 11
59.116825
 21
199.0999999999999
 31
0.0
  0
LINE
  5
16F82
330
16E9C
100
AcDbEntity
  8
1
  6
Continuous
100
AcDbLine
 10
59.597136
 20
197.4499999999999
 30
0.0
 11
61.24713599999999
 21
199.0999999999999
 31
0.0
  0
LINE
  5
16F83
330
16E9C
100
AcDbEntity
  8
1
  6
Continuous
100
AcDbLine
 10
65.009466
 20
197.4499999999999
 30
0.0
 11
63.35946599999999
 21
199.0999999999999
 31
0.0
  0
LINE
  5
16F84
330
16E9C
100
AcDbEntity
  8
1
  6
Continuous
100
AcDbLine
 10
63.83977699999999
 20
197.4499999999999
 30
0.0
 11
65.489777
 21
199.0999999999999
 31
0.0
  0
LINE
  5
16F85
330
16E9C
100
AcDbEntity
  8
1
  6
Continuous
100
AcDbLine
 10
64.279437
 20
203.2
 30
0.0
 11
61.779437
 21
205.6999999999999
 31
0.0
  0
LINE
  5
16F86
330
16E9C
100
AcDbEntity
  8
1
  6
Continuous
100
AcDbLine
 10
61.779437
 20
203.2
 30
0.0
 11
64.279437
 21
205.6999999999999
 31
0.0
  0
LINE
  5
16F87
330
16E9C
100
AcDbEntity
  8
1
  6
Continuous
100
AcDbLine
 10
62.15811699999999
 20
203.2
 30
0.0
 11
59.65811699999999
 21
205.6999999999999
 31
0.0
  0
LINE
  5
16F88
330
16E9C
100
AcDbEntity
  8
1
  6
Continuous
100
AcDbLine
 10
59.65811699999999
 20
203.2
 30
0.0
 11
62.15811699999999
 21
205.6999999999999
 31
0.0
  0
LINE
  5
16F89
330
16E9C
100
AcDbEntity
  8
1
  6
Continuous
100
AcDbLine
 10
66.40075799999999
 20
203.2
 30
0.0
 11
63.90075799999999
 21
205.6999999999999
 31
0.0
  0
LINE
  5
16F8A
330
16E9C
100
AcDbEntity
  8
1
  6
Continuous
100
AcDbLine
 10
63.90075799999999
 20
203.2
 30
0.0
 11
66.40075799999999
 21
205.6999999999999
 31
0.0
  0
LINE
  5
16F8B
330
16E9C
100
AcDbEntity
  8
1
  6
Continuous
100
AcDbLine
 10
71.37342700000002
 20
197.4499999999999
 30
0.0
 11
69.72342600000001
 21
199.0999999999999
 31
0.0
  0
LINE
  5
16F8C
330
16E9C
100
AcDbEntity
  8
1
  6
Continuous
100
AcDbLine
 10
70.203738
 20
197.4499999999999
 30
0.0
 11
71.85373800000002
 21
199.0999999999999
 31
0.0
  0
LINE
  5
16F8D
330
16E9C
100
AcDbEntity
  8
1
  6
Continuous
100
AcDbLine
 10
69.25210600000001
 20
197.4499999999999
 30
0.0
 11
67.60210699999999
 21
199.0999999999999
 31
0.0
  0
LINE
  5
16F8E
330
16E9C
100
AcDbEntity
  8
1
  6
Continuous
100
AcDbLine
 10
68.082417
 20
197.4499999999999
 30
0.0
 11
69.73241699999999
 21
199.0999999999999
 31
0.0
  0
LINE
  5
16F8F
330
16E9C
100
AcDbEntity
  8
1
  6
Continuous
100
AcDbLine
 10
73.0
 20
197.944747
 30
0.0
 11
71.84474699999999
 21
199.0999999999999
 31
0.0
  0
LINE
  5
16F90
330
16E9C
100
AcDbEntity
  8
1
  6
Continuous
100
AcDbLine
 10
73.0
 20
198.124942
 30
0.0
 11
72.325058
 21
197.4499999999999
 31
0.0
  0
ARC
  5
16F91
330
16E9C
100
AcDbEntity
  8
1
  6
Continuous
100
AcDbCircle
 10
72.0
 20
199.9
 30
0.0
 40
1.0
100
AcDbArc
 50
0.0
 51
90.0
  0
LINE
  5
16F92
330
16E9C
100
AcDbEntity
  8
1
  6
Continuous
100
AcDbLine
 10
72.764719
 20
203.2
 30
0.0
 11
70.264719
 21
205.6999999999999
 31
0.0
  0
LINE
  5
16F93
330
16E9C
100
AcDbEntity
  8
1
  6
Continuous
100
AcDbLine
 10
70.264719
 20
203.2
 30
0.0
 11
72.764719
 21
205.6999999999999
 31
0.0
  0
LINE
  5
16F94
330
16E9C
100
AcDbEntity
  8
1
  6
Continuous
100
AcDbLine
 10
70.64339800000002
 20
203.2
 30
0.0
 11
68.143398
 21
205.6999999999999
 31
0.0
  0
LINE
  5
16F95
330
16E9C
100
AcDbEntity
  8
1
  6
Continuous
100
AcDbLine
 10
68.143398
 20
203.2
 30
0.0
 11
70.64339800000002
 21
205.6999999999999
 31
0.0
  0
ARC
  5
16F96
330
16E9C
100
AcDbEntity
  8
1
  6
Continuous
100
AcDbCircle
 10
77.0
 20
218.6999999999999
 30
0.0
 40
10.0
100
AcDbArc
 50
270.0
 51
306.8698979999999
  0
ARC
  5
16F97
330
16E9C
100
AcDbEntity
  8
1
  6
Continuous
100
AcDbCircle
 10
77.0
 20
207.2
 30
0.0
 40
1.5
100
AcDbArc
 50
0.0
 51
90.0
  0
ARC
  5
16F98
330
16E9C
100
AcDbEntity
  8
1
  6
Continuous
100
AcDbCircle
 10
79.5
 20
201.2
 30
0.0
 40
2.0
100
AcDbArc
 50
0.0
 51
90.0
  0
LINE
  5
16F99
330
16E9C
100
AcDbEntity
  8
1
  6
Continuous
100
AcDbLine
 10
79.12868
 20
203.2
 30
0.0
 11
76.62868
 21
205.6999999999999
 31
0.0
  0
LINE
  5
16F9A
330
16E9C
100
AcDbEntity
  8
1
  6
Continuous
100
AcDbLine
 10
78.75
 20
205.6999999999999
 30
0.0
 11
80.5
 21
203.9499999999999
 31
0.0
  0
LINE
  5
16F9B
330
16E9C
100
AcDbEntity
  8
1
  6
Continuous
100
AcDbLine
 10
76.62868
 20
203.2
 30
0.0
 11
79.12868
 21
205.6999999999999
 31
0.0
  0
LINE
  5
16F9C
330
16E9C
100
AcDbEntity
  8
1
  6
Continuous
100
AcDbLine
 10
78.75
 20
203.2
 30
0.0
 11
80.5
 21
204.95
 31
0.0
  0
LINE
  5
16F9D
330
16E9C
100
AcDbEntity
  8
1
  6
Continuous
100
AcDbLine
 10
78.5
 20
206.6999999999999
 30
0.0
 11
78.5
 21
207.2
 31
0.0
  0
LINE
  5
16F9E
330
16E9C
100
AcDbEntity
  8
4
  6
CENTER
100
AcDbLine
 10
82.0
 20
208.4
 30
0.0
 11
82.0
 21
215.3
 31
0.0
  0
LINE
  5
16F9F
330
16E9C
100
AcDbEntity
  8
1
  6
Continuous
100
AcDbLine
 10
89.0
 20
213.0
 30
0.0
 11
89.0
 21
210.6999999999999
 31
0.0
  0
LINE
  5
16FA0
330
16E9C
100
AcDbEntity
  8
4
  6
CENTER
100
AcDbLine
 10
280.8999999999999
 20
170.0
 30
0.0
 11
340.8999999999999
 21
170.0
 31
0.0
  0
LINE
  5
16FA1
330
16E9C
100
AcDbEntity
  8
1
  6
Continuous
100
AcDbLine
 10
301.856602
 20
203.2
 30
0.0
 11
299.356602
 21
205.6999999999999
 31
0.0
  0
LINE
  5
16FA2
330
16E9C
100
AcDbEntity
  8
1
  6
Continuous
100
AcDbLine
 10
299.356602
 20
203.2
 30
0.0
 11
301.856602
 21
205.6999999999999
 31
0.0
  0
ARC
  5
16FA3
330
16E9C
100
AcDbEntity
  8
1
  6
Continuous
100
AcDbCircle
 10
301.0
 20
184.0
 30
0.0
 40
12.5
100
AcDbArc
 50
90.0
 51
179.2916779999999
  0
LINE
  5
16FA4
330
16E9C
100
AcDbEntity
  8
1
  6
Continuous
100
AcDbLine
 10
289.4999999999999
 20
203.2
 30
0.0
 11
336.5
 21
203.2
 31
0.0
  0
LINE
  5
16FA5
330
16E9C
100
AcDbEntity
  8
1
  6
Continuous
100
AcDbLine
 10
289.4999999999999
 20
205.6999999999999
 30
0.0
 11
336.5
 21
205.6999999999999
 31
0.0
  0
LINE
  5
16FA6
330
16E9C
100
AcDbEntity
  8
1
  6
Continuous
100
AcDbLine
 10
289.4999999999999
 20
206.6999999999999
 30
0.0
 11
336.5
 21
206.6999999999999
 31
0.0
  0
LINE
  5
16FA7
330
16E9C
100
AcDbEntity
  8
1
  6
Continuous
100
AcDbLine
 10
293.0
 20
208.6999999999999
 30
0.0
 11
333.0
 21
208.6999999999999
 31
0.0
  0
LINE
  5
16FA8
330
16E9C
100
AcDbEntity
  8
1
  6
Continuous
100
AcDbLine
 10
281.0
 20
210.6999999999999
 30
0.0
 11
345.0
 21
210.6999999999999
 31
0.0
  0
LINE
  5
16FA9
330
16E9C
100
AcDbEntity
  8
1
  6
Continuous
100
AcDbLine
 10
281.0
 20
213.0
 30
0.0
 11
345.0
 21
213.0
 31
0.0
  0
CIRCLE
  5
16FAA
330
16E9C
100
AcDbEntity
  8
1
  6
Continuous
100
AcDbCircle
 10
169.0
 20
170.0
 30
0.0
 40
4.0
  0
ARC
  5
16FAB
330
16E9C
100
AcDbEntity
  8
1
  6
Continuous
100
AcDbCircle
 10
300.377004
 20
187.068001
 30
0.0
 40
9.369384
100
AcDbArc
 50
101.478544
 51
172.941843
  0
LINE
  5
16FAC
330
16E9C
100
AcDbEntity
  8
1
  6
Continuous
100
AcDbLine
 10
297.0
 20
160.0
 30
0.0
 11
297.0
 21
195.8076349999998
 31
0.0
  0
LINE
  5
16FAD
330
16E9C
100
AcDbEntity
  8
1
  6
Continuous
100
AcDbLine
 10
288.5
 20
184.0699219999999
 30
0.0
 11
288.5
 21
200.7
 31
0.0
  0
LINE
  5
16FAE
330
16E9C
100
AcDbEntity
  8
1
  6
Continuous
100
AcDbLine
 10
294.7
 20
160.0
 30
0.0
 11
294.7
 21
161.189352
 31
0.0
  0
LINE
  5
16FAF
330
16E9C
100
AcDbEntity
  8
1
  6
Continuous
100
AcDbLine
 10
297.0
 20
160.0
 30
0.0
 11
294.7
 21
160.0
 31
0.0
  0
ARC
  5
16FB0
330
16E9C
100
AcDbEntity
  8
1
  6
Continuous
100
AcDbCircle
 10
290.2
 20
161.189352
 30
0.0
 40
4.5
100
AcDbArc
 50
0.0
 51
30.84897199999999
  0
ARC
  5
16FB1
330
16E9C
100
AcDbEntity
  8
1
  6
Continuous
100
AcDbCircle
 10
290.2
 20
161.189352
 30
0.0
 40
6.799999999999998
100
AcDbArc
 50
0.0
 51
30.84897199999999
  0
LINE
  5
16FB2
330
16E9C
100
AcDbEntity
  8
1
  6
Continuous
100
AcDbLine
 10
281.0
 20
213.0
 30
0.0
 11
281.0
 21
210.6999999999999
 31
0.0
  0
ARC
  5
16FB3
330
16E9C
100
AcDbEntity
  8
1
  6
Continuous
100
AcDbCircle
 10
293.0
 20
207.2
 30
0.0
 40
1.5
100
AcDbArc
 50
90.0
 51
180.0
  0
LINE
  5
16FB4
330
16E9C
100
AcDbEntity
  8
1
  6
Continuous
100
AcDbLine
 10
293.3713200000001
 20
203.2
 30
0.0
 11
290.87132
 21
205.6999999999999
 31
0.0
  0
LINE
  5
16FB5
330
16E9C
100
AcDbEntity
  8
1
  6
Continuous
100
AcDbLine
 10
290.87132
 20
203.2
 30
0.0
 11
293.3713200000001
 21
205.6999999999999
 31
0.0
  0
ARC
  5
16FB6
330
16E9C
100
AcDbEntity
  8
1
  6
Continuous
100
AcDbCircle
 10
291.0
 20
200.7
 30
0.0
 40
2.5
100
AcDbArc
 50
90.0
 51
180.0
  0
LINE
  5
16FB7
330
16E9C
100
AcDbEntity
  8
1
  6
Continuous
100
AcDbLine
 10
291.25
 20
203.2
 30
0.0
 11
289.4999999999999
 21
204.95
 31
0.0
  0
LINE
  5
16FB8
330
16E9C
100
AcDbEntity
  8
1
  6
Continuous
100
AcDbLine
 10
291.25
 20
205.6999999999999
 30
0.0
 11
289.4999999999999
 21
203.9499999999999
 31
0.0
  0
LINE
  5
16FB9
330
16E9C
100
AcDbEntity
  8
1
  6
Continuous
100
AcDbLine
 10
291.5
 20
206.6999999999999
 30
0.0
 11
291.5
 21
207.2
 31
0.0
  0
LINE
  5
16FBA
330
16E9C
100
AcDbEntity
  8
1
  6
Continuous
100
AcDbLine
 10
297.6139609999999
 20
203.2
 30
0.0
 11
295.1139609999998
 21
205.6999999999999
 31
0.0
  0
LINE
  5
16FBB
330
16E9C
100
AcDbEntity
  8
1
  6
Continuous
100
AcDbLine
 10
295.1139609999998
 20
203.2
 30
0.0
 11
297.6139609999999
 21
205.6999999999999
 31
0.0
  0
LINE
  5
16FBC
330
16E9C
100
AcDbEntity
  8
1
  6
Continuous
100
AcDbLine
 10
295.492641
 20
203.2
 30
0.0
 11
292.9926409999998
 21
205.6999999999999
 31
0.0
  0
LINE
  5
16FBD
330
16E9C
100
AcDbEntity
  8
1
  6
Continuous
100
AcDbLine
 10
292.9926409999998
 20
203.2
 30
0.0
 11
295.492641
 21
205.6999999999999
 31
0.0
  0
LINE
  5
16FBE
330
16E9C
100
AcDbEntity
  8
1
  6
Continuous
100
AcDbLine
 10
299.7352809999998
 20
203.2
 30
0.0
 11
297.2352809999998
 21
205.6999999999999
 31
0.0
  0
LINE
  5
16FBF
330
16E9C
100
AcDbEntity
  8
1
  6
Continuous
100
AcDbLine
 10
297.2352809999998
 20
203.2
 30
0.0
 11
299.7352809999998
 21
205.6999999999999
 31
0.0
  0
ARC
  5
16FC0
330
16E9C
100
AcDbEntity
  8
1
  6
Continuous
100
AcDbCircle
 10
293.0
 20
218.6999999999999
 30
0.0
 40
10.0
100
AcDbArc
 50
233.130102
 51
270.0
  0
LINE
  5
16FC1
330
16E9C
100
AcDbEntity
  8
4
  6
CENTER
100
AcDbLine
 10
313.0
 20
140.0
 30
0.0
 11
313.0
 21
218.0
 31
0.0
  0
ARC
  5
16FC2
330
16E9C
100
AcDbEntity
  8
1
  6
Continuous
100
AcDbCircle
 10
325.622996
 20
187.068001
 30
0.0
 40
9.369384
100
AcDbArc
 50
7.058156999999998
 51
78.52145600000001
  0
ARC
  5
16FC3
330
16E9C
100
AcDbEntity
  8
1
  6
Continuous
100
AcDbCircle
 10
325.0
 20
184.0
 30
0.0
 40
12.5
100
AcDbArc
 50
0.0
 51
90.0
  0
LINE
  5
16FC4
330
16E9C
100
AcDbEntity
  8
1
  6
Continuous
100
AcDbLine
 10
329.0
 20
160.0
 30
0.0
 11
329.0
 21
195.8076349999998
 31
0.0
  0
LINE
  5
16FC5
330
16E9C
100
AcDbEntity
  8
1
  6
Continuous
100
AcDbLine
 10
337.5
 20
184.0
 30
0.0
 11
337.5
 21
200.7
 31
0.0
  0
ARC
  5
16FC6
330
16E9C
100
AcDbEntity
  8
1
  6
Continuous
100
AcDbCircle
 10
298.16451
 20
183.6682279999999
 30
0.0
 40
37.03754099999999
100
AcDbArc
 50
329.151028
 51
7.058156999999998
  0
ARC
  5
16FC7
330
16E9C
100
AcDbEntity
  8
1
  6
Continuous
100
AcDbCircle
 10
298.16451
 20
183.6682279999999
 30
0.0
 40
39.33754099999998
100
AcDbArc
 50
329.151028
 51
0.7083220000000001
  0
LINE
  5
16FC8
330
16E9C
100
AcDbEntity
  8
1
  6
Continuous
100
AcDbLine
 10
331.3
 20
160.0
 30
0.0
 11
331.3
 21
161.189352
 31
0.0
  0
LINE
  5
16FC9
330
16E9C
100
AcDbEntity
  8
1
  6
Continuous
100
AcDbLine
 10
329.0
 20
160.0
 30
0.0
 11
331.3
 21
160.0
 31
0.0
  0
ARC
  5
16FCA
330
16E9C
100
AcDbEntity
  8
1
  6
Continuous
100
AcDbCircle
 10
335.8
 20
161.189352
 30
0.0
 40
6.799999999999998
100
AcDbArc
 50
149.1510279999999
 51
180.0
  0
ARC
  5
16FCB
330
16E9C
100
AcDbEntity
  8
1
  6
Continuous
100
AcDbCircle
 10
335.8
 20
161.189352
 30
0.0
 40
4.5
100
AcDbArc
 50
149.1510279999999
 51
180.0
  0
LINE
  5
16FCC
330
16E9C
100
AcDbEntity
  8
1
  6
Continuous
100
AcDbLine
 10
333.676407
 20
203.2
 30
0.0
 11
331.1764069999999
 21
205.6999999999999
 31
0.0
  0
LINE
  5
16FCD
330
16E9C
100
AcDbEntity
  8
1
  6
Continuous
100
AcDbLine
 10
331.1764069999999
 20
203.2
 30
0.0
 11
333.676407
 21
205.6999999999999
 31
0.0
  0
LINE
  5
16FCE
330
16E9C
100
AcDbEntity
  8
1
  6
Continuous
100
AcDbLine
 10
318.8271639999999
 20
203.2
 30
0.0
 11
316.327164
 21
205.6999999999999
 31
0.0
  0
LINE
  5
16FCF
330
16E9C
100
AcDbEntity
  8
1
  6
Continuous
100
AcDbLine
 10
316.705844
 20
203.2
 30
0.0
 11
314.205844
 21
205.6999999999999
 31
0.0
  0
LINE
  5
16FD0
330
16E9C
100
AcDbEntity
  8
1
  6
Continuous
100
AcDbLine
 10
316.327164
 20
203.2
 30
0.0
 11
318.8271639999999
 21
205.6999999999999
 31
0.0
  0
LINE
  5
16FD1
330
16E9C
100
AcDbEntity
  8
1
  6
Continuous
100
AcDbLine
 10
314.205844
 20
203.2
 30
0.0
 11
316.705844
 21
205.6999999999999
 31
0.0
  0
LINE
  5
16FD2
330
16E9C
100
AcDbEntity
  8
1
  6
Continuous
100
AcDbLine
 10
310.3418829999998
 20
203.2
 30
0.0
 11
307.8418829999999
 21
205.6999999999999
 31
0.0
  0
LINE
  5
16FD3
330
16E9C
100
AcDbEntity
  8
1
  6
Continuous
100
AcDbLine
 10
308.2205629999999
 20
203.2
 30
0.0
 11
305.7205629999999
 21
205.6999999999999
 31
0.0
  0
LINE
  5
16FD4
330
16E9C
100
AcDbEntity
  8
1
  6
Continuous
100
AcDbLine
 10
307.8418829999999
 20
203.2
 30
0.0
 11
310.3418829999998
 21
205.6999999999999
 31
0.0
  0
LINE
  5
16FD5
330
16E9C
100
AcDbEntity
  8
1
  6
Continuous
100
AcDbLine
 10
305.7205629999999
 20
203.2
 30
0.0
 11
308.2205629999999
 21
205.6999999999999
 31
0.0
  0
LINE
  5
16FD6
330
16E9C
100
AcDbEntity
  8
1
  6
Continuous
100
AcDbLine
 10
325.0
 20
196.5
 30
0.0
 11
301.0
 21
196.5
 31
0.0
  0
LINE
  5
16FD7
330
16E9C
100
AcDbEntity
  8
1
  6
Continuous
100
AcDbLine
 10
306.099242
 20
203.2
 30
0.0
 11
303.5992419999999
 21
205.6999999999999
 31
0.0
  0
LINE
  5
16FD8
330
16E9C
100
AcDbEntity
  8
1
  6
Continuous
100
AcDbLine
 10
303.5992419999999
 20
203.2
 30
0.0
 11
306.099242
 21
205.6999999999999
 31
0.0
  0
LINE
  5
16FD9
330
16E9C
100
AcDbEntity
  8
1
  6
Continuous
100
AcDbLine
 10
303.9779219999999
 20
203.2
 30
0.0
 11
301.4779219999998
 21
205.6999999999999
 31
0.0
  0
LINE
  5
16FDA
330
16E9C
100
AcDbEntity
  8
1
  6
Continuous
100
AcDbLine
 10
301.4779219999998
 20
203.2
 30
0.0
 11
303.9779219999999
 21
205.6999999999999
 31
0.0
  0
LINE
  5
16FDB
330
16E9C
100
AcDbEntity
  8
1
  6
Continuous
100
AcDbLine
 10
314.5845239999999
 20
203.2
 30
0.0
 11
312.0845239999999
 21
205.6999999999999
 31
0.0
  0
LINE
  5
16FDC
330
16E9C
100
AcDbEntity
  8
1
  6
Continuous
100
AcDbLine
 10
312.4632029999999
 20
203.2
 30
0.0
 11
309.9632029999999
 21
205.6999999999999
 31
0.0
  0
LINE
  5
16FDD
330
16E9C
100
AcDbEntity
  8
1
  6
Continuous
100
AcDbLine
 10
312.0845239999999
 20
203.2
 30
0.0
 11
314.5845239999999
 21
205.6999999999999
 31
0.0
  0
LINE
  5
16FDE
330
16E9C
100
AcDbEntity
  8
1
  6
Continuous
100
AcDbLine
 10
309.9632029999999
 20
203.2
 30
0.0
 11
312.4632029999999
 21
205.6999999999999
 31
0.0
  0
LINE
  5
16FDF
330
16E9C
100
AcDbEntity
  8
1
  6
Continuous
100
AcDbLine
 10
325.1911259999999
 20
203.2
 30
0.0
 11
322.691126
 21
205.6999999999999
 31
0.0
  0
LINE
  5
16FE0
330
16E9C
100
AcDbEntity
  8
1
  6
Continuous
100
AcDbLine
 10
322.691126
 20
203.2
 30
0.0
 11
325.1911259999999
 21
205.6999999999999
 31
0.0
  0
LINE
  5
16FE1
330
16E9C
100
AcDbEntity
  8
1
  6
Continuous
100
AcDbLine
 10
320.9484849999999
 20
203.2
 30
0.0
 11
318.448485
 21
205.6999999999999
 31
0.0
  0
LINE
  5
16FE2
330
16E9C
100
AcDbEntity
  8
1
  6
Continuous
100
AcDbLine
 10
318.448485
 20
203.2
 30
0.0
 11
320.9484849999999
 21
205.6999999999999
 31
0.0
  0
LINE
  5
16FE3
330
16E9C
100
AcDbEntity
  8
1
  6
Continuous
100
AcDbLine
 10
323.0698049999999
 20
203.2
 30
0.0
 11
320.5698049999999
 21
205.6999999999999
 31
0.0
  0
LINE
  5
16FE4
330
16E9C
100
AcDbEntity
  8
1
  6
Continuous
100
AcDbLine
 10
320.5698049999999
 20
203.2
 30
0.0
 11
323.0698049999999
 21
205.6999999999999
 31
0.0
  0
LINE
  5
16FE5
330
16E9C
100
AcDbEntity
  8
1
  6
Continuous
100
AcDbLine
 10
329.433766
 20
203.2
 30
0.0
 11
326.933766
 21
205.6999999999999
 31
0.0
  0
LINE
  5
16FE6
330
16E9C
100
AcDbEntity
  8
1
  6
Continuous
100
AcDbLine
 10
326.933766
 20
203.2
 30
0.0
 11
329.433766
 21
205.6999999999999
 31
0.0
  0
LINE
  5
16FE7
330
16E9C
100
AcDbEntity
  8
1
  6
Continuous
100
AcDbLine
 10
327.312446
 20
203.2
 30
0.0
 11
324.812446
 21
205.6999999999999
 31
0.0
  0
LINE
  5
16FE8
330
16E9C
100
AcDbEntity
  8
1
  6
Continuous
100
AcDbLine
 10
324.812446
 20
203.2
 30
0.0
 11
327.312446
 21
205.6999999999999
 31
0.0
  0
LINE
  5
16FE9
330
16E9C
100
AcDbEntity
  8
1
  6
Continuous
100
AcDbLine
 10
331.555087
 20
203.2
 30
0.0
 11
329.055087
 21
205.6999999999999
 31
0.0
  0
LINE
  5
16FEA
330
16E9C
100
AcDbEntity
  8
1
  6
Continuous
100
AcDbLine
 10
329.055087
 20
203.2
 30
0.0
 11
331.555087
 21
205.6999999999999
 31
0.0
  0
ARC
  5
16FEB
330
16E9C
100
AcDbEntity
  8
1
  6
Continuous
100
AcDbCircle
 10
333.0
 20
207.2
 30
0.0
 40
1.5
100
AcDbArc
 50
0.0
 51
90.0
  0
ARC
  5
16FEC
330
16E9C
100
AcDbEntity
  8
1
  6
Continuous
100
AcDbCircle
 10
335.0
 20
200.7
 30
0.0
 40
2.5
100
AcDbArc
 50
0.0
 51
90.0
  0
LINE
  5
16FED
330
16E9C
100
AcDbEntity
  8
1
  6
Continuous
100
AcDbLine
 10
336.5
 20
204.6190479999999
 30
0.0
 11
335.4190479999999
 21
205.6999999999999
 31
0.0
  0
LINE
  5
16FEE
330
16E9C
100
AcDbEntity
  8
1
  6
Continuous
100
AcDbLine
 10
335.797727
 20
203.2
 30
0.0
 11
333.297727
 21
205.6999999999999
 31
0.0
  0
LINE
  5
16FEF
330
16E9C
100
AcDbEntity
  8
1
  6
Continuous
100
AcDbLine
 10
335.4190479999999
 20
203.2
 30
0.0
 11
336.5
 21
204.280952
 31
0.0
  0
LINE
  5
16FF0
330
16E9C
100
AcDbEntity
  8
1
  6
Continuous
100
AcDbLine
 10
333.297727
 20
203.2
 30
0.0
 11
335.797727
 21
205.6999999999999
 31
0.0
  0
LINE
  5
16FF1
330
16E9C
100
AcDbEntity
  8
1
  6
Continuous
100
AcDbLine
 10
334.5
 20
206.6999999999999
 30
0.0
 11
334.5
 21
207.2
 31
0.0
  0
ARC
  5
16FF2
330
16E9C
100
AcDbEntity
  8
1
  6
Continuous
100
AcDbCircle
 10
333.0
 20
218.6999999999999
 30
0.0
 40
10.0
100
AcDbArc
 50
270.0
 51
306.8698979999999
  0
LINE
  5
16FF3
330
16E9C
100
AcDbEntity
  8
1
  6
Continuous
100
AcDbLine
 10
345.0
 20
213.0
 30
0.0
 11
345.0
 21
210.6999999999999
 31
0.0
  0
LINE
  5
16FF4
330
16E9C
100
AcDbEntity
  8
1
  6
Continuous
100
AcDbLine
 10
72.25896
 20
197.4499999999999
 30
0.0
 11
72.25896
 21
196.455507
 31
0.0
  0
LINE
  5
16FF5
330
16E9C
100
AcDbEntity
  8
1
  6
Continuous
100
AcDbLine
 10
41.74103999999998
 20
197.4499999999999
 30
0.0
 11
41.74103999999998
 21
196.455507
 31
0.0
  0
LINE
  5
16FF6
330
16E9C
100
AcDbEntity
  8
1
  6
Continuous
100
AcDbLine
 10
73.0
 20
199.0999999999999
 30
0.0
 11
41.0
 21
199.0999999999999
 31
0.0
  0
LINE
  5
16FF7
330
16E9C
100
AcDbEntity
  8
1
  6
Continuous
100
AcDbLine
 10
73.0
 20
197.4499999999999
 30
0.0
 11
41.0
 21
197.4499999999999
 31
0.0
  0
LINE
  5
16FF8
330
16E9C
100
AcDbEntity
  8
1
  6
Continuous
100
AcDbLine
 10
72.25896
 20
196.455507
 30
0.0
 11
41.74103999999998
 21
196.455507
 31
0.0
  0
ARC
  5
16FF9
330
16E9C
100
AcDbEntity
  8
1
  6
Continuous
100
AcDbCircle
 10
67.313249
 20
198.684887
 30
0.0
 40
5.424959999999998
100
AcDbArc
 50
298.877245
 51
335.7355569999999
  0
ARC
  5
16FFA
330
16E9C
100
AcDbEntity
  8
1
  6
Continuous
100
AcDbCircle
 10
46.686751
 20
198.684887
 30
0.0
 40
5.424959999999998
100
AcDbArc
 50
204.264443
 51
241.1227549999999
  0
LINE
  5
16FFB
330
16E9C
100
AcDbEntity
  8
1
  6
Continuous
100
AcDbLine
 10
419.0785359999998
 20
196.455507
 30
0.0
 11
416.635166
 21
196.455507
 31
0.0
  0
ARC
  5
16FFC
330
16E9C
100
AcDbEntity
  8
1
  6
Continuous
100
AcDbCircle
 10
421.49168
 20
198.9691739999999
 30
0.0
 40
5.468479
100
AcDbArc
 50
207.365473
 51
256.086107
  0
LINE
  5
16FFD
330
16E9C
100
AcDbEntity
  8
1
  6
Continuous
100
AcDbLine
 10
416.635165
 20
196.455507
 30
0.0
 11
416.635165
 21
196.6999999999999
 31
0.0
  0
ARC
  5
16FFE
330
16E9C
100
AcDbEntity
  8
1
  6
Continuous
100
AcDbCircle
 10
174.0
 20
218.6999999999999
 30
0.0
 40
10.0
100
AcDbArc
 50
233.130102
 51
270.0
  0
LINE
  5
16FFF
330
16E9C
100
AcDbEntity
  8
1
  6
Continuous
100
AcDbLine
 10
217.5
 20
203.2
 30
0.0
 11
164.0
 21
203.2
 31
0.0
  0
ARC
  5
17000
330
16E9C
100
AcDbEntity
  8
1
  6
Continuous
100
AcDbCircle
 10
169.0
 20
170.0
 30
0.0
 40
10.0
100
AcDbArc
 50
252.8592249999999
 51
320.9882859999999
  0
LINE
  5
17001
330
16E9C
100
AcDbEntity
  8
4
  6
CENTER
100
AcDbLine
 10
199.0
 20
170.0
 30
0.0
 11
139.0
 21
170.0
 31
0.0
  0
LINE
  5
17002
330
16E9C
100
AcDbEntity
  8
1
  6
Continuous
100
AcDbLine
 10
226.0
 20
213.0
 30
0.0
 11
162.0
 21
213.0
 31
0.0
  0
LINE
  5
17003
330
16E9C
100
AcDbEntity
  8
1
  6
Continuous
100
AcDbLine
 10
226.0
 20
210.6999999999999
 30
0.0
 11
162.0
 21
210.6999999999999
 31
0.0
  0
LINE
  5
17004
330
16E9C
100
AcDbEntity
  8
1
  6
Continuous
100
AcDbLine
 10
201.4587699999999
 20
193.1278819999998
 30
0.0
 11
176.7701729999998
 21
163.705207
 31
0.0
  0
LINE
  5
17005
330
16E9C
100
AcDbEntity
  8
1
  6
Continuous
100
AcDbLine
 10
178.0
 20
199.098503
 30
0.0
 11
178.0
 21
167.88369
 31
0.0
  0
LINE
  5
17006
330
16E9C
100
AcDbEntity
  8
4
  6
CENTER
100
AcDbLine
 10
169.0
 20
140.0
 30
0.0
 11
169.0
 21
200.0
 31
0.0
  0
LINE
  5
17007
330
16E9C
100
AcDbEntity
  8
1
  6
Continuous
100
AcDbLine
 10
201.2794369999999
 20
203.2
 30
0.0
 11
198.7794369999998
 21
205.6999999999999
 31
0.0
  0
LINE
  5
17008
330
16E9C
100
AcDbEntity
  8
1
  6
Continuous
100
AcDbLine
 10
198.7794369999998
 20
203.2
 30
0.0
 11
201.2794369999999
 21
205.6999999999999
 31
0.0
  0
LINE
  5
17009
330
16E9C
100
AcDbEntity
  8
1
  6
Continuous
100
AcDbLine
 10
214.0
 20
208.6999999999999
 30
0.0
 11
174.0
 21
208.6999999999999
 31
0.0
  0
LINE
  5
1700A
330
16E9C
100
AcDbEntity
  8
1
  6
Continuous
100
AcDbLine
 10
217.5
 20
206.6999999999999
 30
0.0
 11
170.5
 21
206.6999999999999
 31
0.0
  0
LINE
  5
1700B
330
16E9C
100
AcDbEntity
  8
1
  6
Continuous
100
AcDbLine
 10
217.5
 20
205.6999999999999
 30
0.0
 11
170.5
 21
205.6999999999999
 31
0.0
  0
LINE
  5
1700C
330
16E9C
100
AcDbEntity
  8
1
  6
Continuous
100
AcDbLine
 10
215.5
 20
206.6999999999999
 30
0.0
 11
215.5
 21
207.2
 31
0.0
  0
LINE
  5
1700D
330
16E9C
100
AcDbEntity
  8
1
  6
Continuous
100
AcDbLine
 10
215.75
 20
205.6999999999999
 30
0.0
 11
217.5
 21
203.9499999999999
 31
0.0
  0
LINE
  5
1700E
330
16E9C
100
AcDbEntity
  8
1
  6
Continuous
100
AcDbLine
 10
216.1286799999998
 20
203.2
 30
0.0
 11
213.6286799999998
 21
205.6999999999999
 31
0.0
  0
LINE
  5
1700F
330
16E9C
100
AcDbEntity
  8
1
  6
Continuous
100
AcDbLine
 10
215.75
 20
203.2
 30
0.0
 11
217.5
 21
204.95
 31
0.0
  0
LINE
  5
17010
330
16E9C
100
AcDbEntity
  8
1
  6
Continuous
100
AcDbLine
 10
213.6286799999998
 20
203.2
 30
0.0
 11
216.1286799999998
 21
205.6999999999999
 31
0.0
  0
LINE
  5
17011
330
16E9C
100
AcDbEntity
  8
1
  6
Continuous
100
AcDbLine
 10
218.5
 20
196.6999999999999
 30
0.0
 11
209.119209
 21
196.6999999999999
 31
0.0
  0
LINE
  5
17012
330
16E9C
100
AcDbEntity
  8
1
  6
Continuous
100
AcDbLine
 10
218.5
 20
196.6999999999999
 30
0.0
 11
218.5
 21
201.2
 31
0.0
  0
ARC
  5
17013
330
16E9C
100
AcDbEntity
  8
1
  6
Continuous
100
AcDbCircle
 10
216.5
 20
201.2
 30
0.0
 40
2.0
100
AcDbArc
 50
0.0
 51
90.0
  0
LINE
  5
17014
330
16E9C
100
AcDbEntity
  8
1
  6
Continuous
100
AcDbLine
 10
209.364835
 20
196.455507
 30
0.0
 11
209.364835
 21
196.6999999999999
 31
0.0
  0
ARC
  5
17015
330
16E9C
100
AcDbEntity
  8
1
  6
Continuous
100
AcDbCircle
 10
204.50832
 20
198.9691739999999
 30
0.0
 40
5.468479
100
AcDbArc
 50
283.9138929999998
 51
332.634527
  0
LINE
  5
17016
330
16E9C
100
AcDbEntity
  8
1
  6
Continuous
100
AcDbLine
 10
206.9214639999999
 20
196.455507
 30
0.0
 11
209.364834
 21
196.455507
 31
0.0
  0
LINE
  5
17017
330
16E9C
100
AcDbEntity
  8
1
  6
Continuous
100
AcDbLine
 10
203.4007579999999
 20
203.2
 30
0.0
 11
200.900758
 21
205.6999999999999
 31
0.0
  0
LINE
  5
17018
330
16E9C
100
AcDbEntity
  8
1
  6
Continuous
100
AcDbLine
 10
200.900758
 20
203.2
 30
0.0
 11
203.4007579999999
 21
205.6999999999999
 31
0.0
  0
LINE
  5
17019
330
16E9C
100
AcDbEntity
  8
1
  6
Continuous
100
AcDbLine
 10
207.643398
 20
203.2
 30
0.0
 11
205.143398
 21
205.6999999999999
 31
0.0
  0
LINE
  5
1701A
330
16E9C
100
AcDbEntity
  8
1
  6
Continuous
100
AcDbLine
 10
205.143398
 20
203.2
 30
0.0
 11
207.643398
 21
205.6999999999999
 31
0.0
  0
LINE
  5
1701B
330
16E9C
100
AcDbEntity
  8
1
  6
Continuous
100
AcDbLine
 10
205.5220779999999
 20
203.2
 30
0.0
 11
203.022078
 21
205.6999999999999
 31
0.0
  0
LINE
  5
1701C
330
16E9C
100
AcDbEntity
  8
1
  6
Continuous
100
AcDbLine
 10
203.022078
 20
203.2
 30
0.0
 11
205.5220779999999
 21
205.6999999999999
 31
0.0
  0
LINE
  5
1701D
330
16E9C
100
AcDbEntity
  8
1
  6
Continuous
100
AcDbLine
 10
211.886039
 20
203.2
 30
0.0
 11
209.3860389999999
 21
205.6999999999999
 31
0.0
  0
LINE
  5
1701E
330
16E9C
100
AcDbEntity
  8
1
  6
Continuous
100
AcDbLine
 10
209.3860389999999
 20
203.2
 30
0.0
 11
211.886039
 21
205.6999999999999
 31
0.0
  0
LINE
  5
1701F
330
16E9C
100
AcDbEntity
  8
1
  6
Continuous
100
AcDbLine
 10
214.0073589999999
 20
203.2
 30
0.0
 11
211.5073589999998
 21
205.6999999999999
 31
0.0
  0
LINE
  5
17020
330
16E9C
100
AcDbEntity
  8
1
  6
Continuous
100
AcDbLine
 10
211.5073589999998
 20
203.2
 30
0.0
 11
214.0073589999999
 21
205.6999999999999
 31
0.0
  0
LINE
  5
17021
330
16E9C
100
AcDbEntity
  8
1
  6
Continuous
100
AcDbLine
 10
209.7647189999999
 20
203.2
 30
0.0
 11
207.264719
 21
205.6999999999999
 31
0.0
  0
LINE
  5
17022
330
16E9C
100
AcDbEntity
  8
1
  6
Continuous
100
AcDbLine
 10
207.264719
 20
203.2
 30
0.0
 11
209.7647189999999
 21
205.6999999999999
 31
0.0
  0
ARC
  5
17023
330
16E9C
100
AcDbEntity
  8
1
  6
Continuous
100
AcDbCircle
 10
205.2658829999999
 20
214.5209009999999
 30
0.0
 40
20.85899799999999
100
AcDbArc
 50
270.0129539999999
 51
271.6319809999999
  0
LINE
  5
17024
330
16E9C
100
AcDbEntity
  8
1
  6
Continuous
100
AcDbLine
 10
201.939906
 20
193.6611499999999
 30
0.0
 11
205.270599
 21
193.6619029999999
 31
0.0
  0
ARC
  5
17025
330
16E9C
100
AcDbEntity
  8
1
  6
Continuous
100
AcDbCircle
 10
209.119209
 20
186.6999999999999
 30
0.0
 40
10.0
100
AcDbArc
 50
90.0
 51
139.999953
  0
ARC
  5
17026
330
16E9C
100
AcDbEntity
  8
1
  6
Continuous
100
AcDbCircle
 10
214.0
 20
207.2
 30
0.0
 40
1.5
100
AcDbArc
 50
0.0
 51
90.0
  0
ARC
  5
17027
330
16E9C
100
AcDbEntity
  8
1
  6
Continuous
100
AcDbCircle
 10
214.0
 20
218.6999999999999
 30
0.0
 40
10.0
100
AcDbArc
 50
270.0
 51
306.8698979999999
  0
LINE
  5
17028
330
16E9C
100
AcDbEntity
  8
4
  6
CENTER
100
AcDbLine
 10
219.0
 20
208.4
 30
0.0
 11
219.0
 21
215.3
 31
0.0
  0
LINE
  5
17029
330
16E9C
100
AcDbEntity
  8
1
  6
Continuous
100
AcDbLine
 10
226.0
 20
213.0
 30
0.0
 11
226.0
 21
210.6999999999999
 31
0.0
  0
LINE
  5
1702A
330
16E9C
100
AcDbEntity
  8
1
  6
Continuous
100
AcDbLine
 10
172.5
 20
206.6999999999999
 30
0.0
 11
172.5
 21
207.2
 31
0.0
  0
LINE
  5
1702B
330
16E9C
100
AcDbEntity
  8
4
  6
CENTER
100
AcDbLine
 10
194.0
 20
176.4602689999999
 30
0.0
 11
194.0
 21
218.0
 31
0.0
  0
LINE
  5
1702C
330
16E9C
100
AcDbEntity
  8
1
  6
Continuous
100
AcDbLine
 10
184.3088739999998
 20
203.2
 30
0.0
 11
181.808874
 21
205.6999999999999
 31
0.0
  0
LINE
  5
1702D
330
16E9C
100
AcDbEntity
  8
1
  6
Continuous
100
AcDbLine
 10
181.808874
 20
203.2
 30
0.0
 11
184.3088739999998
 21
205.6999999999999
 31
0.0
  0
LINE
  5
1702E
330
16E9C
100
AcDbEntity
  8
1
  6
Continuous
100
AcDbLine
 10
190.6728359999999
 20
203.2
 30
0.0
 11
188.1728359999999
 21
205.6999999999999
 31
0.0
  0
LINE
  5
1702F
330
16E9C
100
AcDbEntity
  8
1
  6
Continuous
100
AcDbLine
 10
188.5515149999999
 20
203.2
 30
0.0
 11
186.0515149999999
 21
205.6999999999999
 31
0.0
  0
LINE
  5
17030
330
16E9C
100
AcDbEntity
  8
1
  6
Continuous
100
AcDbLine
 10
188.1728359999999
 20
203.2
 30
0.0
 11
190.6728359999999
 21
205.6999999999999
 31
0.0
  0
LINE
  5
17031
330
16E9C
100
AcDbEntity
  8
1
  6
Continuous
100
AcDbLine
 10
186.0515149999999
 20
203.2
 30
0.0
 11
188.5515149999999
 21
205.6999999999999
 31
0.0
  0
LINE
  5
17032
330
16E9C
100
AcDbEntity
  8
1
  6
Continuous
100
AcDbLine
 10
186.4301949999999
 20
203.2
 30
0.0
 11
183.930195
 21
205.6999999999999
 31
0.0
  0
LINE
  5
17033
330
16E9C
100
AcDbEntity
  8
1
  6
Continuous
100
AcDbLine
 10
183.930195
 20
203.2
 30
0.0
 11
186.4301949999999
 21
205.6999999999999
 31
0.0
  0
LINE
  5
17034
330
16E9C
100
AcDbEntity
  8
1
  6
Continuous
100
AcDbLine
 10
199.158117
 20
203.2
 30
0.0
 11
196.6581169999998
 21
205.6999999999999
 31
0.0
  0
LINE
  5
17035
330
16E9C
100
AcDbEntity
  8
1
  6
Continuous
100
AcDbLine
 10
196.6581169999998
 20
203.2
 30
0.0
 11
199.158117
 21
205.6999999999999
 31
0.0
  0
LINE
  5
17036
330
16E9C
100
AcDbEntity
  8
1
  6
Continuous
100
AcDbLine
 10
197.036797
 20
203.2
 30
0.0
 11
194.536797
 21
205.6999999999999
 31
0.0
  0
LINE
  5
17037
330
16E9C
100
AcDbEntity
  8
1
  6
Continuous
100
AcDbLine
 10
194.536797
 20
203.2
 30
0.0
 11
197.036797
 21
205.6999999999999
 31
0.0
  0
LINE
  5
17038
330
16E9C
100
AcDbEntity
  8
1
  6
Continuous
100
AcDbLine
 10
194.915476
 20
203.2
 30
0.0
 11
192.415476
 21
205.6999999999999
 31
0.0
  0
LINE
  5
17039
330
16E9C
100
AcDbEntity
  8
1
  6
Continuous
100
AcDbLine
 10
192.7941559999999
 20
203.2
 30
0.0
 11
190.294156
 21
205.6999999999999
 31
0.0
  0
LINE
  5
1703A
330
16E9C
100
AcDbEntity
  8
1
  6
Continuous
100
AcDbLine
 10
192.415476
 20
203.2
 30
0.0
 11
194.915476
 21
205.6999999999999
 31
0.0
  0
LINE
  5
1703B
330
16E9C
100
AcDbEntity
  8
1
  6
Continuous
100
AcDbLine
 10
190.294156
 20
203.2
 30
0.0
 11
192.7941559999999
 21
205.6999999999999
 31
0.0
  0
LINE
  5
1703C
330
16E9C
100
AcDbEntity
  8
1
  6
Continuous
100
AcDbLine
 10
171.580952
 20
203.2
 30
0.0
 11
170.5
 21
204.280952
 31
0.0
  0
LINE
  5
1703D
330
16E9C
100
AcDbEntity
  8
1
  6
Continuous
100
AcDbLine
 10
170.5
 20
204.6190479999999
 30
0.0
 11
171.580952
 21
205.6999999999999
 31
0.0
  0
LINE
  5
1703E
330
16E9C
100
AcDbEntity
  8
1
  6
Continuous
100
AcDbLine
 10
175.8235929999999
 20
203.2
 30
0.0
 11
173.323593
 21
205.6999999999999
 31
0.0
  0
LINE
  5
1703F
330
16E9C
100
AcDbEntity
  8
1
  6
Continuous
100
AcDbLine
 10
173.323593
 20
203.2
 30
0.0
 11
175.8235929999999
 21
205.6999999999999
 31
0.0
  0
LINE
  5
17040
330
16E9C
100
AcDbEntity
  8
1
  6
Continuous
100
AcDbLine
 10
173.7022729999999
 20
203.2
 30
0.0
 11
171.2022729999999
 21
205.6999999999999
 31
0.0
  0
LINE
  5
17041
330
16E9C
100
AcDbEntity
  8
1
  6
Continuous
100
AcDbLine
 10
171.2022729999999
 20
203.2
 30
0.0
 11
173.7022729999999
 21
205.6999999999999
 31
0.0
  0
LINE
  5
17042
330
16E9C
100
AcDbEntity
  8
1
  6
Continuous
100
AcDbLine
 10
180.066234
 20
203.2
 30
0.0
 11
177.566234
 21
205.6999999999999
 31
0.0
  0
LINE
  5
17043
330
16E9C
100
AcDbEntity
  8
1
  6
Continuous
100
AcDbLine
 10
177.566234
 20
203.2
 30
0.0
 11
180.066234
 21
205.6999999999999
 31
0.0
  0
LINE
  5
17044
330
16E9C
100
AcDbEntity
  8
1
  6
Continuous
100
AcDbLine
 10
182.187554
 20
203.2
 30
0.0
 11
179.687554
 21
205.6999999999999
 31
0.0
  0
LINE
  5
17045
330
16E9C
100
AcDbEntity
  8
1
  6
Continuous
100
AcDbLine
 10
179.687554
 20
203.2
 30
0.0
 11
182.187554
 21
205.6999999999999
 31
0.0
  0
LINE
  5
17046
330
16E9C
100
AcDbEntity
  8
1
  6
Continuous
100
AcDbLine
 10
177.9449129999999
 20
203.2
 30
0.0
 11
175.4449129999999
 21
205.6999999999999
 31
0.0
  0
LINE
  5
17047
330
16E9C
100
AcDbEntity
  8
1
  6
Continuous
100
AcDbLine
 10
175.4449129999999
 20
203.2
 30
0.0
 11
177.9449129999999
 21
205.6999999999999
 31
0.0
  0
LINE
  5
17048
330
16E9C
100
AcDbEntity
  8
4
  6
CENTER
100
AcDbLine
 10
169.0
 20
208.4
 30
0.0
 11
169.0
 21
215.3
 31
0.0
  0
ARC
  5
17049
330
16E9C
100
AcDbEntity
  8
1
  6
Continuous
100
AcDbCircle
 10
174.0
 20
207.2
 30
0.0
 40
1.5
100
AcDbArc
 50
90.0
 51
180.0
  0
LINE
  5
1704A
330
16E9C
100
AcDbEntity
  8
1
  6
Continuous
100
AcDbLine
 10
167.0
 20
203.2
 30
0.0
 11
158.430736
 21
174.7500449999998
 31
0.0
  0
ARC
  5
1704B
330
16E9C
100
AcDbEntity
  8
1
  6
Continuous
100
AcDbCircle
 10
169.4420809999998
 20
171.433375
 30
0.0
 40
11.5
100
AcDbArc
 50
163.237446
 51
252.8592249999999
  0
LINE
  5
1704C
330
16E9C
100
AcDbEntity
  8
1
  6
Continuous
100
AcDbLine
 10
166.307229
 20
200.8999999999999
 30
0.0
 11
164.0
 21
200.8999999999999
 31
0.0
  0
LINE
  5
1704D
330
16E9C
100
AcDbEntity
  8
1
  6
Continuous
100
AcDbLine
 10
164.0
 20
200.8999999999999
 30
0.0
 11
164.0
 21
203.2
 31
0.0
  0
LINE
  5
1704E
330
16E9C
100
AcDbEntity
  8
1
  6
Continuous
100
AcDbLine
 10
162.0
 20
213.0
 30
0.0
 11
162.0
 21
210.6999999999999
 31
0.0
  0
LINE
  5
1704F
330
16E9C
100
AcDbEntity
  8
1
  6
Continuous
100
AcDbLine
 10
294.505023
 20
162.4996109999999
 30
0.0
 11
292.6999999999998
 21
162.4996109999999
 31
0.0
  0
LINE
  5
17050
330
16E9C
100
AcDbEntity
  8
1
  6
Continuous
100
AcDbLine
 10
287.6999999999998
 20
173.9996109999999
 30
0.0
 11
287.0
 21
173.9996109999999
 31
0.0
  0
LINE
  5
17051
330
16E9C
100
AcDbEntity
  8
1
  6
Continuous
100
AcDbLine
 10
285.8
 20
172.799611
 30
0.0
 11
285.8
 21
167.199611
 31
0.0
  0
LINE
  5
17052
330
16E9C
100
AcDbEntity
  8
1
  6
Continuous
100
AcDbLine
 10
287.6999999999998
 20
165.9996109999999
 30
0.0
 11
287.0
 21
165.9996109999999
 31
0.0
  0
ARC
  5
17053
330
16E9C
100
AcDbEntity
  8
1
  6
Continuous
100
AcDbCircle
 10
327.83549
 20
183.6682279999999
 30
0.0
 40
39.33754099999998
100
AcDbArc
 50
179.2916779999999
 51
210.8489720000001
  0
ARC
  5
17054
330
16E9C
100
AcDbEntity
  8
1
  6
Continuous
100
AcDbCircle
 10
327.83549
 20
183.6682279999999
 30
0.0
 40
37.03754099999999
100
AcDbArc
 50
172.941843
 51
210.8489720000001
  0
LINE
  5
17055
330
16E9C
100
AcDbEntity
  8
4
  6
CENTER
100
AcDbLine
 10
57.0
 20
140.0
 30
0.0
 11
57.0
 21
218.0
 31
0.0
  0
LINE
  5
17056
330
16E9C
100
AcDbEntity
  8
4
  6
CENTER
100
AcDbLine
 10
231.0
 20
285.0
 30
0.0
 11
139.0004449999999
 21
285.0
 31
0.0
  0
LINE
  5
17057
330
16E9C
100
AcDbEntity
  8
4
  6
CENTER
100
AcDbLine
 10
219.0
 20
54.5
 30
0.0
 11
219.0
 21
41.5
 31
0.0
  0
CIRCLE
  5
17058
330
16E9C
100
AcDbEntity
  8
1
  6
Continuous
100
AcDbCircle
 10
219.0
 20
48.0
 30
0.0
 40
3.25
  0
LINE
  5
17059
330
16E9C
100
AcDbEntity
  8
1
  6
Continuous
100
AcDbLine
 10
226.0
 20
98.0
 30
0.0
 11
226.0
 21
48.0
 31
0.0
  0
ARC
  5
1705A
330
16E9C
100
AcDbEntity
  8
1
  6
Continuous
100
AcDbCircle
 10
169.0
 20
48.0
 30
0.0
 40
3.25
100
AcDbArc
 50
137.3953159999998
 51
42.60468399999999
  0
LINE
  5
1705B
330
16E9C
100
AcDbEntity
  8
4
  6
CENTER
100
AcDbLine
 10
194.0
 20
110.0
 30
0.0
 11
194.0
 21
36.0
 31
0.0
  0
LINE
  5
1705C
330
16E9C
100
AcDbEntity
  8
4
  6
CENTER
100
AcDbLine
 10
231.0
 20
73.0
 30
0.0
 11
139.0004449999999
 21
73.0
 31
0.0
  0
LINE
  5
1705D
330
16E9C
100
AcDbEntity
  8
1
  6
Continuous
100
AcDbLine
 10
219.0
 20
105.0
 30
0.0
 11
169.0
 21
105.0
 31
0.0
  0
ARC
  5
1705E
330
16E9C
100
AcDbEntity
  8
1
  6
Continuous
100
AcDbCircle
 10
169.0
 20
98.0
 30
0.0
 40
3.25
100
AcDbArc
 50
42.60468399999999
 51
137.3953159999998
  0
ARC
  5
1705F
330
16E9C
100
AcDbEntity
  8
1
  6
Continuous
100
AcDbCircle
 10
169.0
 20
98.0
 30
0.0
 40
7.0
100
AcDbArc
 50
90.0
 51
180.0
  0
LINE
  5
17060
330
16E9C
100
AcDbEntity
  8
1
  6
Continuous
100
AcDbLine
 10
175.9069069999999
 20
89.0
 30
0.0
 11
157.942081
 21
89.0
 31
0.0
  0
LINE
  5
17061
330
16E9C
100
AcDbEntity
  8
1
  6
Continuous
100
AcDbLine
 10
175.9069069999999
 20
91.3
 30
0.0
 11
157.942081
 21
91.3
 31
0.0
  0
LINE
  5
17062
330
16E9C
100
AcDbEntity
  8
1
  6
Continuous
100
AcDbLine
 10
157.942081
 20
91.3
 30
0.0
 11
157.942081
 21
89.0
 31
0.0
  0
LINE
  5
17063
330
16E9C
100
AcDbEntity
  8
1
  6
Continuous
100
AcDbLine
 10
175.9069069999999
 20
57.0
 30
0.0
 11
157.942081
 21
57.0
 31
0.0
  0
LINE
  5
17064
330
16E9C
100
AcDbEntity
  8
1
  6
Continuous
100
AcDbLine
 10
175.9069069999999
 20
54.7
 30
0.0
 11
157.942081
 21
54.7
 31
0.0
  0
LINE
  5
17065
330
16E9C
100
AcDbEntity
  8
1
  6
Continuous
100
AcDbLine
 10
157.942081
 20
57.0
 30
0.0
 11
157.942081
 21
54.7
 31
0.0
  0
LINE
  5
17066
330
16E9C
100
AcDbEntity
  8
4
  6
CENTER
100
AcDbLine
 10
219.0
 20
104.4999999999999
 30
0.0
 11
219.0
 21
91.5
 31
0.0
  0
CIRCLE
  5
17067
330
16E9C
100
AcDbEntity
  8
1
  6
Continuous
100
AcDbCircle
 10
219.0
 20
98.0
 30
0.0
 40
3.25
  0
LINE
  5
17068
330
16E9C
100
AcDbEntity
  8
4
  6
CENTER
100
AcDbLine
 10
225.4999999999999
 20
98.0
 30
0.0
 11
212.5
 21
98.0
 31
0.0
  0
ARC
  5
17069
330
16E9C
100
AcDbEntity
  8
1
  6
Continuous
100
AcDbCircle
 10
219.0
 20
98.0
 30
0.0
 40
7.0
100
AcDbArc
 50
0.0
 51
90.0
  0
LINE
  5
1706A
330
16E9C
100
AcDbEntity
  8
1
  6
Continuous
100
AcDbLine
 10
219.0
 20
41.0
 30
0.0
 11
169.0
 21
41.0
 31
0.0
  0
LINE
  5
1706B
330
16E9C
100
AcDbEntity
  8
4
  6
CENTER
100
AcDbLine
 10
175.5
 20
48.0
 30
0.0
 11
162.5
 21
48.0
 31
0.0
  0
ARC
  5
1706C
330
16E9C
100
AcDbEntity
  8
1
  6
Continuous
100
AcDbCircle
 10
169.0
 20
48.0
 30
0.0
 40
7.0
100
AcDbArc
 50
180.0
 51
270.0
  0
ARC
  5
1706D
330
16E9C
100
AcDbEntity
  8
1
  6
Continuous
100
AcDbCircle
 10
219.0
 20
48.0
 30
0.0
 40
7.0
100
AcDbArc
 50
270.0
 51
0.0
  0
LINE
  5
1706E
330
16E9C
100
AcDbEntity
  8
4
  6
CENTER
100
AcDbLine
 10
225.4999999999999
 20
48.0
 30
0.0
 11
212.5
 21
48.0
 31
0.0
  0
ARC
  5
1706F
330
16E9C
100
AcDbEntity
  8
1
  6
Continuous
100
AcDbCircle
 10
194.0
 20
73.0
 30
0.0
 40
24.5
100
AcDbArc
 50
232.169675
 51
127.830325
  0
ARC
  5
17070
330
16E9C
100
AcDbEntity
  8
1
  6
Continuous
100
AcDbCircle
 10
194.0
 20
73.0
 30
0.0
 40
26.0
100
AcDbArc
 50
226.186939
 51
132.3180899999998
  0
ARC
  5
17071
330
16E9C
100
AcDbEntity
  8
1
  6
Continuous
100
AcDbCircle
 10
194.0
 20
73.0
 30
0.0
 40
19.75
100
AcDbArc
 50
225.142299
 51
134.8577009999999
  0
ARC
  5
17072
330
16E9C
100
AcDbEntity
  8
1
  6
Continuous
100
AcDbCircle
 10
194.0
 20
73.0
 30
0.0
 40
15.364835
100
AcDbArc
 50
245.667755
 51
114.332245
  0
ARC
  5
17073
330
16E9C
100
AcDbEntity
  8
1
  6
Continuous
100
AcDbCircle
 10
194.0
 20
73.0
 30
0.0
 40
6.9
100
AcDbArc
 50
267.524668
 51
92.47533199999999
  0
ARC
  5
17074
330
16E9C
100
AcDbEntity
  8
1
  6
Continuous
100
AcDbCircle
 10
194.0
 20
73.0
 30
0.0
 40
22.2
100
AcDbArc
 50
232.169675
 51
127.830325
  0
ARC
  5
17075
330
16E9C
100
AcDbEntity
  8
1
  6
Continuous
100
AcDbCircle
 10
175.9069069999999
 20
96.3
 30
0.0
 40
5.0
100
AcDbArc
 50
270.0
 51
307.830325
  0
ARC
  5
17076
330
16E9C
100
AcDbEntity
  8
1
  6
Continuous
100
AcDbCircle
 10
175.9069069999999
 20
49.7
 30
0.0
 40
5.0
100
AcDbArc
 50
52.16967499999999
 51
90.0
  0
ARC
  5
17077
330
16E9C
100
AcDbEntity
  8
1
  6
Continuous
100
AcDbCircle
 10
175.9069069999999
 20
49.7
 30
0.0
 40
7.299999999999998
100
AcDbArc
 50
52.16967499999999
 51
90.0
  0
ARC
  5
17078
330
16E9C
100
AcDbEntity
  8
1
  6
Continuous
100
AcDbCircle
 10
175.9069069999999
 20
96.3
 30
0.0
 40
7.299999999999998
100
AcDbArc
 50
270.0
 51
307.830325
  0
LINE
  5
17079
330
16E9C
100
AcDbEntity
  8
4
  6
CENTER
100
AcDbLine
 10
169.0
 20
105.2000419999999
 30
0.0
 11
169.0
 21
41.5
 31
0.0
  0
LINE
  5
1707A
330
16E9C
100
AcDbEntity
  8
1
  6
Continuous
100
AcDbLine
 10
165.0043959999998
 20
98.30004200000001
 30
0.0
 11
165.0043959999998
 21
99.00004199999999
 31
0.0
  0
LINE
  5
1707B
330
16E9C
100
AcDbEntity
  8
1
  6
Continuous
100
AcDbLine
 10
171.8043959999999
 20
100.200042
 30
0.0
 11
166.204396
 21
100.200042
 31
0.0
  0
LINE
  5
1707C
330
16E9C
100
AcDbEntity
  8
1
  6
Continuous
100
AcDbLine
 10
173.0043959999999
 20
98.30004200000001
 30
0.0
 11
173.0043959999999
 21
99.00004199999999
 31
0.0
  0
LINE
  5
1707D
330
16E9C
100
AcDbEntity
  8
1
  6
Continuous
100
AcDbLine
 10
161.5043959999999
 20
91.3
 30
0.0
 11
161.5043959999999
 21
93.30004200000001
 31
0.0
  0
LINE
  5
1707E
330
16E9C
100
AcDbEntity
  8
1
  6
Continuous
100
AcDbLine
 10
162.0
 20
52.20004199999999
 30
0.0
 11
176.0
 21
52.20004199999999
 31
0.0
  0
LINE
  5
1707F
330
16E9C
100
AcDbEntity
  8
1
  6
Continuous
100
AcDbLine
 10
176.4956039999999
 20
91.334777
 30
0.0
 11
176.4956039999999
 21
93.30004200000001
 31
0.0
  0
LINE
  5
17080
330
16E9C
100
AcDbEntity
  8
1
  6
Continuous
100
AcDbLine
 10
162.0
 20
98.0
 30
0.0
 11
162.0
 21
93.30004200000001
 31
0.0
  0
LINE
  5
17081
330
16E9C
100
AcDbEntity
  8
1
  6
Continuous
100
AcDbLine
 10
162.0
 20
89.0
 30
0.0
 11
162.0
 21
88.0
 31
0.0
  0
LINE
  5
17082
330
16E9C
100
AcDbEntity
  8
1
  6
Continuous
100
AcDbLine
 10
162.0043959999998
 20
57.0
 30
0.0
 11
162.0043959999998
 21
58.0
 31
0.0
  0
LINE
  5
17083
330
16E9C
100
AcDbEntity
  8
4
  6
CENTER
100
AcDbLine
 10
338.0
 20
208.4
 30
0.0
 11
338.0
 21
215.3
 31
0.0
  0
LINE
  5
17084
330
16E9C
100
AcDbEntity
  8
4
  6
CENTER
100
AcDbLine
 10
288.0
 20
208.4
 30
0.0
 11
288.0
 21
215.3
 31
0.0
  0
LINE
  5
17085
330
16E9C
100
AcDbEntity
  8
1
  6
Continuous
100
AcDbLine
 10
289.4999999999999
 20
206.6999999999999
 30
0.0
 11
289.4999999999999
 21
203.2
 31
0.0
  0
LINE
  5
17086
330
16E9C
100
AcDbEntity
  8
1
  6
Continuous
100
AcDbLine
 10
336.5
 20
206.6999999999999
 30
0.0
 11
336.5
 21
203.2
 31
0.0
  0
LINE
  5
17087
330
16E9C
100
AcDbEntity
  8
4
  6
CENTER
100
AcDbLine
 10
169.0
 20
317.2000419999998
 30
0.0
 11
169.0
 21
253.5
 31
0.0
  0
LINE
  5
17088
330
16E9C
100
AcDbEntity
  8
1
  6
Continuous
100
AcDbLine
 10
33.5
 20
206.6999999999999
 30
0.0
 11
33.5
 21
203.2
 31
0.0
  0
LINE
  5
17089
330
16E9C
100
AcDbEntity
  8
1
  6
Continuous
100
AcDbLine
 10
80.5
 20
206.6999999999999
 30
0.0
 11
80.5
 21
203.2
 31
0.0
  0
LINE
  5
1708A
330
16E9C
100
AcDbEntity
  8
1
  6
Continuous
100
AcDbLine
 10
170.5
 20
206.6999999999999
 30
0.0
 11
170.5
 21
203.2
 31
0.0
  0
LINE
  5
1708B
330
16E9C
100
AcDbEntity
  8
1
  6
Continuous
100
AcDbLine
 10
217.5
 20
203.2
 30
0.0
 11
217.5
 21
206.6999999999999
 31
0.0
  0
LINE
  5
1708C
330
16E9C
100
AcDbEntity
  8
2
  6
Continuous
100
AcDbLine
 10
286.323889
 20
173.3235
 30
0.0
 11
287.6999999999998
 21
173.3235
 31
0.0
  0
LINE
  5
1708D
330
16E9C
100
AcDbEntity
  8
2
  6
Continuous
100
AcDbLine
 10
286.323111
 20
166.6765
 30
0.0
 11
287.6999999999998
 21
166.6765
 31
0.0
  0
LINE
  5
1708E
330
16E9C
100
AcDbEntity
  8
1
  6
Continuous
100
AcDbLine
 10
287.0
 20
173.9996109999999
 30
0.0
 11
287.0
 21
165.9996109999999
 31
0.0
  0
LINE
  5
1708F
330
16E9C
100
AcDbEntity
  8
1
  6
Continuous
100
AcDbLine
 10
287.0
 20
173.9996109999999
 30
0.0
 11
285.8
 21
172.799611
 31
0.0
  0
LINE
  5
17090
330
16E9C
100
AcDbEntity
  8
1
  6
Continuous
100
AcDbLine
 10
287.0
 20
165.9996109999999
 30
0.0
 11
285.8
 21
167.199611
 31
0.0
  0
CIRCLE
  5
17091
330
16E9C
100
AcDbEntity
  8
2
  6
Continuous
100
AcDbCircle
 10
169.0
 20
170.0
 30
0.0
 40
3.3235
  0
CIRCLE
  5
17092
330
16E9C
100
AcDbEntity
  8
1
  6
Continuous
100
AcDbCircle
 10
169.0
 20
170.0
 30
0.0
 40
2.799999999999998
  0
LINE
  5
17093
330
16E9C
100
AcDbEntity
  8
2
  6
Continuous
100
AcDbLine
 10
83.67650000000002
 20
173.3235
 30
0.0
 11
82.29999999999998
 21
173.3235
 31
0.0
  0
LINE
  5
17094
330
16E9C
100
AcDbEntity
  8
2
  6
Continuous
100
AcDbLine
 10
83.67650000000002
 20
166.6765
 30
0.0
 11
82.29999999999998
 21
166.6765
 31
0.0
  0
LINE
  5
17095
330
16E9C
100
AcDbEntity
  8
1
  6
Continuous
100
AcDbLine
 10
83.0
 20
174.0
 30
0.0
 11
83.0
 21
166.0
 31
0.0
  0
LINE
  5
17096
330
16E9C
100
AcDbEntity
  8
1
  6
Continuous
100
AcDbLine
 10
84.19999999999998
 20
172.8
 30
0.0
 11
83.0
 21
174.0
 31
0.0
  0
LINE
  5
17097
330
16E9C
100
AcDbEntity
  8
1
  6
Continuous
100
AcDbLine
 10
84.19999999999998
 20
167.1999999999998
 30
0.0
 11
83.0
 21
166.0
 31
0.0
  0
LINE
  5
17098
330
16E9C
100
AcDbEntity
  8
1
  6
Continuous
100
AcDbLine
 10
455.4999999999998
 20
206.6999999999999
 30
0.0
 11
455.4999999999998
 21
203.2
 31
0.0
  0
LINE
  5
17099
330
16E9C
100
AcDbEntity
  8
1
  6
Continuous
100
AcDbLine
 10
408.4999999999998
 20
203.2
 30
0.0
 11
408.4999999999998
 21
206.6999999999999
 31
0.0
  0
LINE
  5
1709A
330
16E9C
100
AcDbEntity
  8
2
  6
Continuous
100
AcDbLine
 10
165.6765
 20
99.672146
 30
0.0
 11
165.6765
 21
98.30004200000001
 31
0.0
  0
LINE
  5
1709B
330
16E9C
100
AcDbEntity
  8
2
  6
Continuous
100
AcDbLine
 10
172.3235
 20
99.68093899999999
 30
0.0
 11
172.3235
 21
98.30004200000001
 31
0.0
  0
LINE
  5
1709C
330
16E9C
100
AcDbEntity
  8
1
  6
Continuous
100
AcDbLine
 10
173.0043959999999
 20
99.00004199999999
 30
0.0
 11
165.0043959999998
 21
99.00004199999999
 31
0.0
  0
LINE
  5
1709D
330
16E9C
100
AcDbEntity
  8
1
  6
Continuous
100
AcDbLine
 10
166.204396
 20
100.200042
 30
0.0
 11
165.0043959999998
 21
99.00004199999999
 31
0.0
  0
LINE
  5
1709E
330
16E9C
100
AcDbEntity
  8
1
  6
Continuous
100
AcDbLine
 10
171.8043959999999
 20
100.200042
 30
0.0
 11
173.0043959999999
 21
99.00004199999999
 31
0.0
  0
LINE
  5
1709F
330
16E9C
100
AcDbEntity
  8
4
  6
CENTER
100
AcDbLine
 10
175.5
 20
98.0
 30
0.0
 11
162.5
 21
98.0
 31
0.0
  0
LINE
  5
170A0
330
16E9C
100
AcDbEntity
  8
1
  6
Continuous
100
AcDbLine
 10
287.6999999999998
 20
176.006894
 30
0.0
 11
287.6999999999998
 21
164.0068939999999
 31
0.0
  0
ARC
  5
170A1
330
16E9C
100
AcDbEntity
  8
1
  6
Continuous
100
AcDbCircle
 10
299.164102
 20
170.0068939999999
 30
0.0
 40
11.464102
100
AcDbArc
 50
162.412046
 51
197.5879539999999
  0
ARC
  5
170A2
330
16E9C
100
AcDbEntity
  8
1
  6
Continuous
100
AcDbCircle
 10
281.235898
 20
170.0068939999999
 30
0.0
 40
11.464102
100
AcDbArc
 50
342.4120459999999
 51
344.1368770000001
  0
LINE
  5
170A3
330
16E9C
100
AcDbEntity
  8
1
  6
Continuous
100
AcDbLine
 10
292.6999999999998
 20
165.978133
 30
0.0
 11
292.6999999999998
 21
162.4996109999999
 31
0.0
  0
LINE
  5
170A4
330
16E9C
100
AcDbEntity
  8
1
  6
Continuous
100
AcDbLine
 10
288.235898
 20
163.0786899999999
 30
0.0
 11
287.6999999999998
 21
164.0068939999999
 31
0.0
  0
LINE
  5
170A5
330
16E9C
100
AcDbEntity
  8
1
  6
Continuous
100
AcDbLine
 10
292.164102
 20
163.0786899999999
 30
0.0
 11
292.6999999999998
 21
164.0068939999999
 31
0.0
  0
LINE
  5
170A6
330
16E9C
100
AcDbEntity
  8
1
  6
Continuous
100
AcDbLine
 10
288.235898
 20
163.0786899999999
 30
0.0
 11
292.164102
 21
163.0786899999999
 31
0.0
  0
LINE
  5
170A7
330
16E9C
100
AcDbEntity
  8
1
  6
Continuous
100
AcDbLine
 10
288.235898
 20
166.5427919999999
 30
0.0
 11
292.164102
 21
166.5427919999999
 31
0.0
  0
ARC
  5
170A8
330
16E9C
100
AcDbEntity
  8
1
  6
Continuous
100
AcDbCircle
 10
290.7669869999999
 20
164.8107409999998
 30
0.0
 40
3.066986999999998
100
AcDbArc
 50
145.615753
 51
205.615753
  0
ARC
  5
170A9
330
16E9C
100
AcDbEntity
  8
1
  6
Continuous
100
AcDbCircle
 10
289.6330129999999
 20
164.8107409999998
 30
0.0
 40
3.066986999999998
100
AcDbArc
 50
334.384247
 51
34.38424699999998
  0
ARC
  5
170AA
330
16E9C
100
AcDbEntity
  8
1
  6
Continuous
100
AcDbCircle
 10
290.7669869999999
 20
175.203046
 30
0.0
 40
3.066986999999998
100
AcDbArc
 50
154.3842469999999
 51
214.384247
  0
LINE
  5
170AB
330
16E9C
100
AcDbEntity
  8
1
  6
Continuous
100
AcDbLine
 10
288.235898
 20
173.4709949999999
 30
0.0
 11
289.8426149999999
 21
173.4709949999999
 31
0.0
  0
LINE
  5
170AC
330
16E9C
100
AcDbEntity
  8
1
  6
Continuous
100
AcDbLine
 10
288.235898
 20
176.9350969999999
 30
0.0
 11
289.078464
 21
176.9350969999999
 31
0.0
  0
LINE
  5
170AD
330
16E9C
100
AcDbEntity
  8
1
  6
Continuous
100
AcDbLine
 10
288.235898
 20
176.9350969999999
 30
0.0
 11
287.6999999999998
 21
176.006894
 31
0.0
  0
LINE
  5
170AE
330
16E9C
100
AcDbEntity
  8
1
  6
Continuous
100
AcDbLine
 10
77.29999999999998
 20
177.5
 30
0.0
 11
77.29999999999998
 21
162.5
 31
0.0
  0
ARC
  5
170AF
330
16E9C
100
AcDbEntity
  8
1
  6
Continuous
100
AcDbCircle
 10
88.76410199999998
 20
170.0
 30
0.0
 40
11.464102
100
AcDbArc
 50
162.412046
 51
197.5879539999999
  0
ARC
  5
170B0
330
16E9C
100
AcDbEntity
  8
1
  6
Continuous
100
AcDbCircle
 10
70.835898
 20
170.0
 30
0.0
 40
11.464102
100
AcDbArc
 50
342.4120459999999
 51
17.587954
  0
LINE
  5
170B1
330
16E9C
100
AcDbEntity
  8
1
  6
Continuous
100
AcDbLine
 10
82.29999999999998
 20
176.0
 30
0.0
 11
82.29999999999998
 21
164.0
 31
0.0
  0
LINE
  5
170B2
330
16E9C
100
AcDbEntity
  8
1
  6
Continuous
100
AcDbLine
 10
77.835898
 20
163.071797
 30
0.0
 11
77.29999999999998
 21
164.0
 31
0.0
  0
LINE
  5
170B3
330
16E9C
100
AcDbEntity
  8
1
  6
Continuous
100
AcDbLine
 10
81.76410199999997
 20
163.071797
 30
0.0
 11
82.29999999999998
 21
164.0
 31
0.0
  0
LINE
  5
170B4
330
16E9C
100
AcDbEntity
  8
1
  6
Continuous
100
AcDbLine
 10
77.835898
 20
163.071797
 30
0.0
 11
81.76410199999997
 21
163.071797
 31
0.0
  0
LINE
  5
170B5
330
16E9C
100
AcDbEntity
  8
1
  6
Continuous
100
AcDbLine
 10
77.835898
 20
166.535898
 30
0.0
 11
81.76410199999997
 21
166.535898
 31
0.0
  0
ARC
  5
170B6
330
16E9C
100
AcDbEntity
  8
1
  6
Continuous
100
AcDbCircle
 10
80.36698699999998
 20
164.8038479999998
 30
0.0
 40
3.066986999999998
100
AcDbArc
 50
145.615753
 51
205.615753
  0
ARC
  5
170B7
330
16E9C
100
AcDbEntity
  8
1
  6
Continuous
100
AcDbCircle
 10
79.233013
 20
164.8038479999998
 30
0.0
 40
3.066986999999998
100
AcDbArc
 50
334.384247
 51
34.38424699999998
  0
ARC
  5
170B8
330
16E9C
100
AcDbEntity
  8
1
  6
Continuous
100
AcDbCircle
 10
80.36698699999998
 20
175.196152
 30
0.0
 40
3.066986999999998
100
AcDbArc
 50
154.3842469999999
 51
214.384247
  0
ARC
  5
170B9
330
16E9C
100
AcDbEntity
  8
1
  6
Continuous
100
AcDbCircle
 10
79.233013
 20
175.196152
 30
0.0
 40
3.066986999999998
100
AcDbArc
 50
325.6157529999999
 51
25.615753
  0
LINE
  5
170BA
330
16E9C
100
AcDbEntity
  8
1
  6
Continuous
100
AcDbLine
 10
77.835898
 20
173.4641019999999
 30
0.0
 11
81.76410199999997
 21
173.4641019999999
 31
0.0
  0
LINE
  5
170BB
330
16E9C
100
AcDbEntity
  8
1
  6
Continuous
100
AcDbLine
 10
77.835898
 20
176.928203
 30
0.0
 11
81.76410199999997
 21
176.928203
 31
0.0
  0
LINE
  5
170BC
330
16E9C
100
AcDbEntity
  8
1
  6
Continuous
100
AcDbLine
 10
77.835898
 20
176.928203
 30
0.0
 11
77.29999999999998
 21
176.0
 31
0.0
  0
LINE
  5
170BD
330
16E9C
100
AcDbEntity
  8
1
  6
Continuous
100
AcDbLine
 10
81.76410199999997
 20
176.928203
 30
0.0
 11
82.29999999999998
 21
176.0
 31
0.0
  0
CIRCLE
  5
170BE
330
16E9C
100
AcDbEntity
  8
1
  6
Continuous
100
AcDbCircle
 10
169.0
 20
170.0
 30
0.0
 40
6.0
  0
LINE
  5
170BF
330
16E9C
100
AcDbEntity
  8
1
  6
Continuous
100
AcDbLine
 10
175.0
 20
173.4641019999999
 30
0.0
 11
175.0
 21
166.535898
 31
0.0
  0
LINE
  5
170C0
330
16E9C
100
AcDbEntity
  8
1
  6
Continuous
100
AcDbLine
 10
163.0
 20
173.4641019999999
 30
0.0
 11
163.0
 21
166.535898
 31
0.0
  0
LINE
  5
170C1
330
16E9C
100
AcDbEntity
  8
1
  6
Continuous
100
AcDbLine
 10
169.0
 20
163.071797
 30
0.0
 11
175.0
 21
166.535898
 31
0.0
  0
LINE
  5
170C2
330
16E9C
100
AcDbEntity
  8
1
  6
Continuous
100
AcDbLine
 10
169.0
 20
163.071797
 30
0.0
 11
163.0
 21
166.535898
 31
0.0
  0
LINE
  5
170C3
330
16E9C
100
AcDbEntity
  8
1
  6
Continuous
100
AcDbLine
 10
175.0
 20
173.4641019999999
 30
0.0
 11
169.0
 21
176.928203
 31
0.0
  0
LINE
  5
170C4
330
16E9C
100
AcDbEntity
  8
1
  6
Continuous
100
AcDbLine
 10
163.0
 20
173.4641019999999
 30
0.0
 11
169.0
 21
176.928203
 31
0.0
  0
CIRCLE
  5
170C5
330
16E9C
100
AcDbEntity
  8
1
  6
Continuous
100
AcDbCircle
 10
169.0
 20
170.0
 30
0.0
 40
7.5
  0
LINE
  5
170C6
330
16E9C
100
AcDbEntity
  8
1
  6
Continuous
100
AcDbLine
 10
163.0
 20
98.30004200000001
 30
0.0
 11
175.0
 21
98.30004200000001
 31
0.0
  0
LINE
  5
170C7
330
16E9C
100
AcDbEntity
  8
1
  6
Continuous
100
AcDbLine
 10
161.5043959999999
 20
93.30004200000001
 30
0.0
 11
176.4956039999999
 21
93.30004200000001
 31
0.0
  0
ARC
  5
170C8
330
16E9C
100
AcDbEntity
  8
1
  6
Continuous
100
AcDbCircle
 10
172.0
 20
89.634979
 30
0.0
 40
8.665063999999999
100
AcDbArc
 50
69.743842
 51
110.256158
  0
ARC
  5
170C9
330
16E9C
100
AcDbEntity
  8
1
  6
Continuous
100
AcDbCircle
 10
172.0
 20
101.965106
 30
0.0
 40
8.665063999999999
100
AcDbArc
 50
249.7438419999999
 51
290.256158
  0
LINE
  5
170CA
330
16E9C
100
AcDbEntity
  8
1
  6
Continuous
100
AcDbLine
 10
175.0
 20
98.30004200000001
 30
0.0
 11
175.0
 21
93.30004200000001
 31
0.0
  0
ARC
  5
170CB
330
16E9C
100
AcDbEntity
  8
1
  6
Continuous
100
AcDbCircle
 10
166.0
 20
89.634979
 30
0.0
 40
8.665063999999999
100
AcDbArc
 50
69.743842
 51
110.256158
  0
ARC
  5
170CC
330
16E9C
100
AcDbEntity
  8
1
  6
Continuous
100
AcDbCircle
 10
166.0
 20
101.965106
 30
0.0
 40
8.665063999999999
100
AcDbArc
 50
249.7438419999999
 51
290.256158
  0
LINE
  5
170CD
330
16E9C
100
AcDbEntity
  8
1
  6
Continuous
100
AcDbLine
 10
169.0
 20
93.83594100000001
 30
0.0
 11
169.0
 21
97.764144
 31
0.0
  0
LINE
  5
170CE
330
16E9C
100
AcDbEntity
  8
1
  6
Continuous
100
AcDbLine
 10
163.0
 20
98.30004200000001
 30
0.0
 11
163.0
 21
93.30004200000001
 31
0.0
  0
ARC
  5
170CF
330
16E9C
100
AcDbEntity
  8
1
  6
Continuous
100
AcDbCircle
 10
169.0
 20
170.0
 30
0.0
 40
25.0
100
AcDbArc
 50
100.598998
 51
26.425494
  0
ARC
  5
170D0
330
16E9C
100
AcDbEntity
  8
1
  6
Continuous
100
AcDbCircle
 10
169.0
 20
170.0
 30
0.0
 40
18.5
100
AcDbArc
 50
111.6329579999998
 51
17.284986
  0
LINE
  5
170D1
330
16E9C
100
AcDbEntity
  8
1
  6
Continuous
100
AcDbLine
 10
72.0
 20
161.0
 30
0.0
 11
71.0
 21
159.4999999999998
 31
0.0
  0
LINE
  5
170D2
330
16E9C
100
AcDbEntity
  8
1
  6
Continuous
100
AcDbLine
 10
72.0
 20
179.0
 30
0.0
 11
71.0
 21
180.4999999999998
 31
0.0
  0
LINE
  5
170D3
330
16E9C
100
AcDbEntity
  8
1
  6
Continuous
100
AcDbLine
 10
72.0
 20
161.0
 30
0.0
 11
72.0
 21
179.0
 31
0.0
  0
LINE
  5
170D4
330
16E9C
100
AcDbEntity
  8
1
  6
Continuous
100
AcDbLine
 10
73.0
 20
164.5
 30
0.0
 11
72.0
 21
164.5
 31
0.0
  0
LINE
  5
170D5
330
16E9C
100
AcDbEntity
  8
1
  6
Continuous
100
AcDbLine
 10
73.0
 20
175.5
 30
0.0
 11
72.0
 21
175.5
 31
0.0
  0
LINE
  5
170D6
330
16E9C
100
AcDbEntity
  8
1
  6
Continuous
100
AcDbLine
 10
71.0
 20
147.501613
 30
0.0
 11
71.0
 21
192.498387
 31
0.0
  0
LINE
  5
170D7
330
16E9C
100
AcDbEntity
  8
1
  6
Continuous
100
AcDbLine
 10
43.0
 20
192.498387
 30
0.0
 11
43.0
 21
147.501613
 31
0.0
  0
ARC
  5
170D8
330
16E9C
100
AcDbEntity
  8
1
  6
Continuous
100
AcDbCircle
 10
57.0
 20
225.0
 30
0.0
 40
80.0
100
AcDbArc
 50
260.837465
 51
279.1625349999999
  0
ARC
  5
170D9
330
16E9C
100
AcDbEntity
  8
1
  6
Continuous
100
AcDbCircle
 10
69.5
 20
147.501613
 30
0.0
 40
1.5
100
AcDbArc
 50
279.1625339999999
 51
0.0
  0
ARC
  5
170DA
330
16E9C
100
AcDbEntity
  8
1
  6
Continuous
100
AcDbCircle
 10
44.5
 20
147.501613
 30
0.0
 40
1.5
100
AcDbArc
 50
180.0
 51
260.837465
  0
LINE
  5
170DB
330
16E9C
100
AcDbEntity
  8
1
  6
Continuous
100
AcDbLine
 10
42.0
 20
179.0
 30
0.0
 11
42.0
 21
161.0
 31
0.0
  0
LINE
  5
170DC
330
16E9C
100
AcDbEntity
  8
1
  6
Continuous
100
AcDbLine
 10
42.0
 20
161.0
 30
0.0
 11
43.0
 21
159.4999999999998
 31
0.0
  0
LINE
  5
170DD
330
16E9C
100
AcDbEntity
  8
1
  6
Continuous
100
AcDbLine
 10
42.0
 20
164.5
 30
0.0
 11
41.0
 21
164.5
 31
0.0
  0
ARC
  5
170DE
330
16E9C
100
AcDbEntity
  8
1
  6
Continuous
100
AcDbCircle
 10
57.0
 20
115.0
 30
0.0
 40
80.0
100
AcDbArc
 50
80.83746500000001
 51
99.16253399999998
  0
ARC
  5
170DF
330
16E9C
100
AcDbEntity
  8
1
  6
Continuous
100
AcDbCircle
 10
69.5
 20
192.498387
 30
0.0
 40
1.5
100
AcDbArc
 50
0.0
 51
80.83746500000001
  0
LINE
  5
170E0
330
16E9C
100
AcDbEntity
  8
1
  6
Continuous
100
AcDbLine
 10
42.0
 20
179.0
 30
0.0
 11
43.0
 21
180.4999999999998
 31
0.0
  0
LINE
  5
170E1
330
16E9C
100
AcDbEntity
  8
1
  6
Continuous
100
AcDbLine
 10
42.0
 20
175.5
 30
0.0
 11
41.0
 21
175.5
 31
0.0
  0
ARC
  5
170E2
330
16E9C
100
AcDbEntity
  8
1
  6
Continuous
100
AcDbCircle
 10
44.5
 20
192.498387
 30
0.0
 40
1.5
100
AcDbArc
 50
99.16253399999998
 51
180.0
  0
LINE
  5
170E3
330
16E9C
100
AcDbEntity
  8
1
  6
Continuous
100
AcDbLine
 10
333.8
 20
163.0
 30
0.0
 11
333.8
 21
167.0082759999999
 31
0.0
  0
LINE
  5
170E4
330
16E9C
100
AcDbEntity
  8
1
  6
Continuous
100
AcDbLine
 10
335.8
 20
167.0
 30
0.0
 11
335.8
 21
172.2221799999999
 31
0.0
  0
LINE
  5
170E5
330
16E9C
100
AcDbEntity
  8
1
  6
Continuous
100
AcDbLine
 10
333.8
 20
163.0
 30
0.0
 11
331.680345
 21
163.0
 31
0.0
  0
ARC
  5
170E6
330
16E9C
100
AcDbEntity
  8
1
  6
Continuous
100
AcDbCircle
 10
324.8
 20
170.0
 30
0.0
 40
11.40175399999999
100
AcDbArc
 50
322.125016
 51
344.744881
  0
LINE
  5
170E7
330
16E9C
100
AcDbEntity
  8
1
  6
Continuous
100
AcDbLine
 10
146.502058
 20
299.0
 30
0.0
 11
162.0004449999998
 21
299.0
 31
0.0
  0
ARC
  5
170E8
330
16E9C
100
AcDbEntity
  8
1
  6
Continuous
100
AcDbCircle
 10
146.502058
 20
297.5
 30
0.0
 40
1.5
100
AcDbArc
 50
90.0
 51
170.8374649999998
  0
ARC
  5
170E9
330
16E9C
100
AcDbEntity
  8
1
  6
Continuous
100
AcDbCircle
 10
224.000445
 20
285.0
 30
0.0
 40
80.0
100
AcDbArc
 50
170.8374649999998
 51
189.162534
  0
ARC
  5
170EA
330
16E9C
100
AcDbEntity
  8
1
  6
Continuous
100
AcDbCircle
 10
146.502058
 20
272.5
 30
0.0
 40
1.5
100
AcDbArc
 50
189.162534
 51
270.0
  0
LINE
  5
170EB
330
16E9C
100
AcDbEntity
  8
1
  6
Continuous
100
AcDbLine
 10
146.502058
 20
271.0
 30
0.0
 11
162.0004449999998
 21
271.0
 31
0.0
  0
LINE
  5
170EC
330
16E9C
100
AcDbEntity
  8
1
  6
Continuous
100
AcDbLine
 10
160.0004449999999
 20
270.0
 30
0.0
 11
158.5004449999999
 21
271.0
 31
0.0
  0
LINE
  5
170ED
330
16E9C
100
AcDbEntity
  8
1
  6
Continuous
100
AcDbLine
 10
162.0004449999998
 20
269.4999999999998
 30
0.0
 11
157.9425259999999
 21
269.4999999999998
 31
0.0
  0
LINE
  5
170EE
330
16E9C
100
AcDbEntity
  8
1
  6
Continuous
100
AcDbLine
 10
162.0004449999998
 20
267.2
 30
0.0
 11
157.9425259999999
 21
267.2
 31
0.0
  0
LINE
  5
170EF
330
16E9C
100
AcDbEntity
  8
1
  6
Continuous
100
AcDbLine
 10
160.0004449999999
 20
270.0
 30
0.0
 11
162.0004449999998
 21
270.0
 31
0.0
  0
LINE
  5
170F0
330
16E9C
100
AcDbEntity
  8
1
  6
Continuous
100
AcDbLine
 10
157.9425259999999
 20
267.2
 30
0.0
 11
157.9425259999999
 21
269.4999999999998
 31
0.0
  0
LINE
  5
170F1
330
16E9C
100
AcDbEntity
  8
1
  6
Continuous
100
AcDbLine
 10
160.0004449999999
 20
300.0
 30
0.0
 11
158.5004449999999
 21
299.0
 31
0.0
  0
LINE
  5
170F2
330
16E9C
100
AcDbEntity
  8
1
  6
Continuous
100
AcDbLine
 10
162.0004449999998
 20
300.4999999999999
 30
0.0
 11
157.9425259999999
 21
300.4999999999999
 31
0.0
  0
LINE
  5
170F3
330
16E9C
100
AcDbEntity
  8
1
  6
Continuous
100
AcDbLine
 10
162.0004449999998
 20
302.8
 30
0.0
 11
157.9425259999999
 21
302.8
 31
0.0
  0
LINE
  5
170F4
330
16E9C
100
AcDbEntity
  8
1
  6
Continuous
100
AcDbLine
 10
160.0004449999999
 20
300.0
 30
0.0
 11
162.0004449999998
 21
300.0
 31
0.0
  0
LINE
  5
170F5
330
16E9C
100
AcDbEntity
  8
1
  6
Continuous
100
AcDbLine
 10
157.9425259999999
 20
300.4999999999999
 30
0.0
 11
157.9425259999999
 21
302.8
 31
0.0
  0
LINE
  5
170F6
330
16E9C
100
AcDbEntity
  8
1
  6
Continuous
100
AcDbLine
 10
328.0
 20
161.0
 30
0.0
 11
328.0
 21
179.0
 31
0.0
  0
LINE
  5
170F7
330
16E9C
100
AcDbEntity
  8
1
  6
Continuous
100
AcDbLine
 10
298.0
 20
179.0
 30
0.0
 11
298.0
 21
161.0
 31
0.0
  0
LINE
  5
170F8
330
16E9C
100
AcDbEntity
  8
1
  6
Continuous
100
AcDbLine
 10
327.0
 20
147.501613
 30
0.0
 11
327.0
 21
192.498387
 31
0.0
  0
LINE
  5
170F9
330
16E9C
100
AcDbEntity
  8
1
  6
Continuous
100
AcDbLine
 10
299.0
 20
192.498387
 30
0.0
 11
299.0
 21
147.501613
 31
0.0
  0
ARC
  5
170FA
330
16E9C
100
AcDbEntity
  8
1
  6
Continuous
100
AcDbCircle
 10
313.0
 20
225.0
 30
0.0
 40
80.0
100
AcDbArc
 50
260.837465
 51
279.1625349999999
  0
ARC
  5
170FB
330
16E9C
100
AcDbEntity
  8
1
  6
Continuous
100
AcDbCircle
 10
300.4999999999999
 20
147.501613
 30
0.0
 40
1.5
100
AcDbArc
 50
180.0
 51
260.837465
  0
LINE
  5
170FC
330
16E9C
100
AcDbEntity
  8
1
  6
Continuous
100
AcDbLine
 10
298.0
 20
161.0
 30
0.0
 11
299.0
 21
159.4999999999998
 31
0.0
  0
ARC
  5
170FD
330
16E9C
100
AcDbEntity
  8
1
  6
Continuous
100
AcDbCircle
 10
325.4999999999999
 20
147.501613
 30
0.0
 40
1.5
100
AcDbArc
 50
279.1625339999999
 51
0.0
  0
LINE
  5
170FE
330
16E9C
100
AcDbEntity
  8
1
  6
Continuous
100
AcDbLine
 10
329.0
 20
164.5
 30
0.0
 11
328.0
 21
164.5
 31
0.0
  0
LINE
  5
170FF
330
16E9C
100
AcDbEntity
  8
1
  6
Continuous
100
AcDbLine
 10
329.0
 20
175.5
 30
0.0
 11
328.0
 21
175.5
 31
0.0
  0
LINE
  5
17100
330
16E9C
100
AcDbEntity
  8
1
  6
Continuous
100
AcDbLine
 10
328.0
 20
161.0
 30
0.0
 11
327.0
 21
159.4999999999998
 31
0.0
  0
LINE
  5
17101
330
16E9C
100
AcDbEntity
  8
1
  6
Continuous
100
AcDbLine
 10
298.0
 20
179.0
 30
0.0
 11
299.0
 21
180.4999999999998
 31
0.0
  0
ARC
  5
17102
330
16E9C
100
AcDbEntity
  8
1
  6
Continuous
100
AcDbCircle
 10
300.4999999999999
 20
192.498387
 30
0.0
 40
1.5
100
AcDbArc
 50
106.784144
 51
180.0
  0
LINE
  5
17103
330
16E9C
100
AcDbEntity
  8
1
  6
Continuous
100
AcDbLine
 10
328.0
 20
179.0
 30
0.0
 11
327.0
 21
180.4999999999998
 31
0.0
  0
ARC
  5
17104
330
16E9C
100
AcDbEntity
  8
1
  6
Continuous
100
AcDbCircle
 10
325.4999999999999
 20
192.498387
 30
0.0
 40
1.5
100
AcDbArc
 50
0.0
 51
73.215856
  0
LINE
  5
17105
330
16E9C
100
AcDbEntity
  8
1
  6
Continuous
100
AcDbLine
 10
298.0
 20
164.5
 30
0.0
 11
297.0
 21
164.5
 31
0.0
  0
LINE
  5
17106
330
16E9C
100
AcDbEntity
  8
1
  6
Continuous
100
AcDbLine
 10
298.0
 20
175.5
 30
0.0
 11
297.0
 21
175.5
 31
0.0
  0
ARC
  5
17107
330
16E9C
100
AcDbEntity
  8
1
  6
Continuous
100
AcDbCircle
 10
302.6867509999998
 20
198.684887
 30
0.0
 40
5.424959999999998
100
AcDbArc
 50
208.3644309999999
 51
247.8048419999999
  0
ARC
  5
17108
330
16E9C
100
AcDbEntity
  8
1
  6
Continuous
100
AcDbCircle
 10
323.313249
 20
198.684887
 30
0.0
 40
5.424959999999998
100
AcDbArc
 50
292.1951579999998
 51
331.6355689999999
  0
LINE
  5
17109
330
16E9C
100
AcDbEntity
  8
1
  6
Continuous
100
AcDbLine
 10
326.0537289999998
 20
196.455507
 30
0.0
 11
299.946271
 21
196.455507
 31
0.0
  0
ARC
  5
1710A
330
16E9C
100
AcDbEntity
  8
1
  6
Continuous
100
AcDbCircle
 10
457.0
 20
170.0
 30
0.0
 40
25.0
100
AcDbArc
 50
153.574506
 51
79.40100099999998
  0
ARC
  5
1710B
330
16E9C
100
AcDbEntity
  8
1
  6
Continuous
100
AcDbCircle
 10
457.0
 20
170.0
 30
0.0
 40
18.5
100
AcDbArc
 50
162.715015
 51
68.367041
  0
LINE
  5
1710C
330
16E9C
100
AcDbEntity
  8
1
  6
Continuous
100
AcDbLine
 10
36.208148
 20
162.9924629999998
 30
0.0
 11
36.208148
 21
176.992463
 31
0.0
  0
ARC
  5
1710D
330
16E9C
100
AcDbEntity
  8
1
  6
Continuous
100
AcDbCircle
 10
45.208148
 20
169.9924629999999
 30
0.0
 40
11.40175399999999
100
AcDbArc
 50
142.1250159999999
 51
164.744881
  0
LINE
  5
1710E
330
16E9C
100
AcDbEntity
  8
1
  6
Continuous
100
AcDbLine
 10
34.208148
 20
166.9924629999998
 30
0.0
 11
34.208148
 21
172.992463
 31
0.0
  0
LINE
  5
1710F
330
16E9C
100
AcDbEntity
  8
1
  6
Continuous
100
AcDbLine
 10
36.208148
 20
162.9924629999998
 30
0.0
 11
38.708148
 21
162.9924629999998
 31
0.0
  0
ARC
  5
17110
330
16E9C
100
AcDbEntity
  8
1
  6
Continuous
100
AcDbCircle
 10
45.208148
 20
169.9924629999999
 30
0.0
 40
11.40175399999999
100
AcDbArc
 50
195.255119
 51
217.874984
  0
LINE
  5
17111
330
16E9C
100
AcDbEntity
  8
1
  6
Continuous
100
AcDbLine
 10
36.208148
 20
176.992463
 30
0.0
 11
38.708148
 21
176.992463
 31
0.0
  0
LINE
  5
17112
330
16E9C
100
AcDbEntity
  8
1
  6
Continuous
100
AcDbLine
 10
325.3625959999999
 20
193.6619029999999
 30
0.0
 11
300.637404
 21
193.6619029999999
 31
0.0
  0
LINE
  5
17113
330
16E9C
100
AcDbEntity
  8
1
  6
Continuous
100
AcDbLine
 10
146.502058
 20
87.0
 30
0.0
 11
191.4979419999999
 21
87.0
 31
0.0
  0
LINE
  5
17114
330
16E9C
100
AcDbEntity
  8
1
  6
Continuous
100
AcDbLine
 10
146.502058
 20
59.0
 30
0.0
 11
191.4979419999999
 21
59.0
 31
0.0
  0
LINE
  5
17115
330
16E9C
100
AcDbEntity
  8
1
  6
Continuous
100
AcDbLine
 10
160.0004449999999
 20
58.0
 30
0.0
 11
158.5004449999999
 21
59.0
 31
0.0
  0
LINE
  5
17116
330
16E9C
100
AcDbEntity
  8
1
  6
Continuous
100
AcDbLine
 10
160.0004449999999
 20
88.0
 30
0.0
 11
158.5004449999999
 21
87.0
 31
0.0
  0
ARC
  5
17117
330
16E9C
100
AcDbEntity
  8
1
  6
Continuous
100
AcDbCircle
 10
224.000445
 20
73.0
 30
0.0
 40
80.0
100
AcDbArc
 50
170.8374649999998
 51
189.162534
  0
ARC
  5
17118
330
16E9C
100
AcDbEntity
  8
1
  6
Continuous
100
AcDbCircle
 10
146.502058
 20
60.5
 30
0.0
 40
1.5
100
AcDbArc
 50
189.162534
 51
270.0
  0
ARC
  5
17119
330
16E9C
100
AcDbEntity
  8
1
  6
Continuous
100
AcDbCircle
 10
146.502058
 20
85.5
 30
0.0
 40
1.5
100
AcDbArc
 50
90.0
 51
170.8374649999998
  0
LINE
  5
1711A
330
16E9C
100
AcDbEntity
  8
1
  6
Continuous
100
AcDbLine
 10
160.0004449999999
 20
58.0
 30
0.0
 11
177.9995549999999
 21
58.0
 31
0.0
  0
LINE
  5
1711B
330
16E9C
100
AcDbEntity
  8
1
  6
Continuous
100
AcDbLine
 10
160.0004449999999
 20
88.0
 30
0.0
 11
177.9995549999999
 21
88.0
 31
0.0
  0
ARC
  5
1711C
330
16E9C
100
AcDbEntity
  8
1
  6
Continuous
100
AcDbCircle
 10
191.4979419999999
 20
85.5
 30
0.0
 40
1.5
100
AcDbArc
 50
9.162535
 51
90.0
  0
ARC
  5
1711D
330
16E9C
100
AcDbEntity
  8
1
  6
Continuous
100
AcDbCircle
 10
113.999555
 20
73.0
 30
0.0
 40
80.0
100
AcDbArc
 50
350.837466
 51
9.162535
  0
ARC
  5
1711E
330
16E9C
100
AcDbEntity
  8
1
  6
Continuous
100
AcDbCircle
 10
191.4979419999999
 20
60.5
 30
0.0
 40
1.5
100
AcDbArc
 50
270.0
 51
350.837466
  0
LINE
  5
1711F
330
16E9C
100
AcDbEntity
  8
1
  6
Continuous
100
AcDbLine
 10
177.9995549999999
 20
88.0
 30
0.0
 11
179.4995549999999
 21
87.0
 31
0.0
  0
LINE
  5
17120
330
16E9C
100
AcDbEntity
  8
1
  6
Continuous
100
AcDbLine
 10
177.9995549999999
 20
58.0
 30
0.0
 11
179.4995549999999
 21
59.0
 31
0.0
  0
LINE
  5
17121
330
16E9C
100
AcDbEntity
  8
1
  6
Continuous
100
AcDbLine
 10
174.5
 20
89.0
 30
0.0
 11
174.5
 21
88.0
 31
0.0
  0
LINE
  5
17122
330
16E9C
100
AcDbEntity
  8
1
  6
Continuous
100
AcDbLine
 10
163.4999999999998
 20
89.0
 30
0.0
 11
163.4999999999998
 21
88.0
 31
0.0
  0
LINE
  5
17123
330
16E9C
100
AcDbEntity
  8
1
  6
Continuous
100
AcDbLine
 10
174.5
 20
58.0
 30
0.0
 11
174.5
 21
57.0
 31
0.0
  0
LINE
  5
17124
330
16E9C
100
AcDbEntity
  8
1
  6
Continuous
100
AcDbLine
 10
163.4999999999998
 20
58.0
 30
0.0
 11
163.4999999999998
 21
57.0
 31
0.0
  0
LINE
  5
17125
330
16E9C
100
AcDbEntity
  8
1
  6
Continuous
100
AcDbLine
 10
161.5
 20
267.2
 30
0.0
 11
161.5
 21
265.2
 31
0.0
  0
LINE
  5
17126
330
16E9C
100
AcDbEntity
  8
1
  6
Continuous
100
AcDbLine
 10
162.0004449999998
 20
265.2
 30
0.0
 11
161.5
 21
265.2
 31
0.0
  0
CIRCLE
  5
17127
330
16E9C
100
AcDbEntity
  8
1
  6
Continuous
100
AcDbCircle
 10
457.0
 20
170.0
 30
0.0
 40
3.0
  0
ARC
  5
17128
330
16E9C
100
AcDbEntity
  8
1
  6
Continuous
100
AcDbCircle
 10
169.0
 20
170.0
 30
0.0
 40
10.5
100
AcDbArc
 50
201.687182
 51
337.7793419999998
  0
ARC
  5
17129
330
16E9C
100
AcDbEntity
  8
1
  6
Continuous
100
AcDbCircle
 10
457.0
 20
170.0
 30
0.0
 40
10.5
100
AcDbArc
 50
202.2206579999999
 51
338.312818
  0
LINE
  5
1712A
330
16E9C
100
AcDbEntity
  8
1
  6
Continuous
100
AcDbLine
 10
172.0043959999999
 20
50.20004199999998
 30
0.0
 11
166.0043959999998
 21
50.20004199999998
 31
0.0
  0
ARC
  5
1712B
330
16E9C
100
AcDbEntity
  8
1
  6
Continuous
100
AcDbCircle
 10
169.0043959999998
 20
61.200042
 30
0.0
 40
11.40175399999999
100
AcDbArc
 50
232.1250159999999
 51
254.744881
  0
ARC
  5
1712C
330
16E9C
100
AcDbEntity
  8
1
  6
Continuous
100
AcDbCircle
 10
169.0
 20
61.200042
 30
0.0
 40
11.40175399999999
100
AcDbArc
 50
285.2551189999999
 51
307.8749839999999
  0
LINE
  5
1712D
330
16E9C
100
AcDbEntity
  8
1
  6
Continuous
100
AcDbLine
 10
77.29999999999998
 20
172.0
 30
0.0
 11
75.29999999999998
 21
170.0
 31
0.0
  0
LINE
  5
1712E
330
16E9C
100
AcDbEntity
  8
1
  6
Continuous
100
AcDbLine
 10
75.29999999999998
 20
168.0
 30
0.0
 11
77.29999999999998
 21
170.0
 31
0.0
  0
LINE
  5
1712F
330
16E9C
100
AcDbEntity
  8
1
  6
Continuous
100
AcDbLine
 10
171.0538369999999
 20
91.3
 30
0.0
 11
169.0537939999998
 21
93.30004200000001
 31
0.0
  0
LINE
  5
17130
330
16E9C
100
AcDbEntity
  8
1
  6
Continuous
100
AcDbLine
 10
169.0
 20
91.3
 30
0.0
 11
166.9999579999999
 21
93.30004200000001
 31
0.0
  0
LINE
  5
17131
330
16E9C
100
AcDbEntity
  8
1
  6
Continuous
100
AcDbLine
 10
176.0
 20
54.69913299999999
 30
0.0
 11
176.0
 21
52.20004199999999
 31
0.0
  0
LINE
  5
17132
330
16E9C
100
AcDbEntity
  8
1
  6
Continuous
100
AcDbLine
 10
162.0
 20
54.7
 30
0.0
 11
162.0
 21
48.0
 31
0.0
  0
ENDSEC
  0
SECTION
  2
OBJECTS
  0
DICTIONARY
  5
16E8A
330
0
100
AcDbDictionary
281
     1
  3
ACAD_CIP_PREVIOUS_PRODUCT_INFO
350
17194
  3
ACAD_COLOR
350
17176
  3
ACAD_DETAILVIEWSTYLE
350
1718F
  3
ACAD_GROUP
350
16E8B
  3
ACAD_LAYOUT
350
16E97
  3
ACAD_MATERIAL
350
17144
  3
ACAD_MLEADERSTYLE
350
1718B
  3
ACAD_MLINESTYLE
350
16E94
  3
ACAD_PLOTSETTINGS
350
16E96
  3
ACAD_PLOTSTYLENAME
350
17142
  3
ACAD_SCALELIST
350
17179
  3
ACAD_SECTIONVIEWSTYLE
350
1718D
  3
ACAD_TABLESTYLE
350
17177
  3
ACAD_VISUALSTYLE
350
1715D
  3
ACDB_RECOMPOSE_DATA
350
171B2
  3
AcDbVariableDictionary
350
171A5
  3
DWGPROPS
350
171B3
  0
DICTIONARY
  5
17195
330
16E8E
100
AcDbDictionary
280
     1
281
     1
  3
ADSK_XREC_LAYER_RECONCILED
360
17196
  0
DICTIONARY
  5
17197
330
16EA4
100
AcDbDictionary
280
     1
281
     1
  3
ADSK_XREC_LAYER_RECONCILED
360
17198
  0
DICTIONARY
  5
17199
330
16EA5
100
AcDbDictionary
280
     1
281
     1
  3
ADSK_XREC_LAYER_RECONCILED
360
1719A
  0
DICTIONARY
  5
1719B
330
16EA6
100
AcDbDictionary
280
     1
281
     1
  3
ADSK_XREC_LAYER_RECONCILED
360
1719C
  0
DICTIONARY
  5
1719D
330
16EA7
100
AcDbDictionary
280
     1
281
     1
  3
ADSK_XREC_LAYER_RECONCILED
360
1719E
  0
DICTIONARY
  5
1719F
330
16EA8
100
AcDbDictionary
280
     1
281
     1
  3
ADSK_XREC_LAYER_RECONCILED
360
171A0
  0
DICTIONARY
  5
171A1
330
16EA9
100
AcDbDictionary
280
     1
281
     1
  3
ADSK_XREC_LAYER_RECONCILED
360
171A2
  0
DICTIONARY
  5
171A3
330
16EAA
100
AcDbDictionary
280
     1
281
     1
  3
ADSK_XREC_LAYER_RECONCILED
360
171A4
  0
DICTIONARY
  5
1713D
330
16E9C
100
AcDbDictionary
281
     1
  3
ACAD_LAYOUTSELFREF
350
1713E
  0
DICTIONARY
  5
1713B
330
16E98
100
AcDbDictionary
281
     1
  3
ACAD_LAYOUTSELFREF
350
1713C
  0
XRECORD
  5
17194
102
{ACAD_REACTORS
330
16E8A
102
}
330
16E8A
100
AcDbXrecord
280
     1
300
ACDLT
300
2014
300
ACDLT_F_S
  0
DICTIONARY
  5
17176
102
{ACAD_REACTORS
330
16E8A
102
}
330
16E8A
100
AcDbDictionary
281
     1
  0
DICTIONARY
  5
1718F
102
{ACAD_REACTORS
330
16E8A
102
}
330
16E8A
100
AcDbDictionary
281
     1
  3
Imperial24
350
17190
  0
DICTIONARY
  5
16E8B
102
{ACAD_REACTORS
330
16E8A
102
}
330
16E8A
100
AcDbDictionary
281
     1
  0
DICTIONARY
  5
16E97
102
{ACAD_REACTORS
330
16E8A
102
}
330
16E8A
100
AcDbDictionary
281
     1
  3
Model
350
17191
  3
レイアウト1
350
17192
  0
DICTIONARY
  5
17144
102
{ACAD_REACTORS
330
16E8A
102
}
330
16E8A
100
AcDbDictionary
281
     1
  3
ByBlock
350
1714D
  3
ByLayer
350
17145
  3
Global
350
17155
  0
DICTIONARY
  5
1718B
102
{ACAD_REACTORS
330
16E8A
102
}
330
16E8A
100
AcDbDictionary
281
     1
  3
Standard
350
1718C
  0
DICTIONARY
  5
16E94
102
{ACAD_REACTORS
330
16E8A
102
}
330
16E8A
100
AcDbDictionary
281
     1
  3
STANDARD
350
16E95
  0
DICTIONARY
  5
16E96
102
{ACAD_REACTORS
330
16E8A
102
}
330
16E8A
100
AcDbDictionary
281
     1
  0
ACDBDICTIONARYWDFLT
  5
17142
102
{ACAD_REACTORS
330
16E8A
102
}
330
16E8A
100
AcDbDictionary
281
     1
  3
Normal
350
17143
100
AcDbDictionaryWithDefault
340
17143
  0
DICTIONARY
  5
17179
102
{ACAD_REACTORS
330
16E8A
102
}
330
16E8A
100
AcDbDictionary
281
     1
  3
A0
350
1717A
  3
A1
350
1717B
  3
A2
350
1717C
  3
A3
350
1717D
  3
A4
350
1717E
  3
A5
350
1717F
  3
A6
350
17180
  3
A7
350
17181
  3
A8
350
17182
  3
A9
350
17183
  3
B0
350
17184
  3
B1
350
17185
  3
B2
350
17186
  3
B3
350
17187
  3
B4
350
17188
  3
B5
350
17189
  3
B6
350
1718A
  0
DICTIONARY
  5
1718D
102
{ACAD_REACTORS
330
16E8A
102
}
330
16E8A
100
AcDbDictionary
281
     1
  3
Imperial24
350
1718E
  0
DICTIONARY
  5
17177
102
{ACAD_REACTORS
330
16E8A
102
}
330
16E8A
100
AcDbDictionary
281
     1
  3
Standard
350
17178
  0
DICTIONARY
  5
1715D
102
{ACAD_REACTORS
330
16E8A
102
}
330
16E8A
100
AcDbDictionary
281
     1
  3
2dWireframe
350
17163
  3
Basic
350
17162
  3
Brighten
350
17169
  3
ColorChange
350
1716D
  3
Conceptual
350
17166
  3
Dim
350
17168
  3
EdgeColorOff
350
17175
  3
Facepattern
350
1716C
  3
Flat
350
1715E
  3
FlatWithEdges
350
1715F
  3
Gouraud
350
17160
  3
GouraudWithEdges
350
17161
  3
Hidden
350
17165
  3
JitterOff
350
17173
  3
Linepattern
350
1716B
  3
OverhangOff
350
17174
  3
Realistic
350
17167
  3
Shaded
350
17172
  3
Shaded with edges
350
17171
  3
Shades of Gray
350
1716E
  3
Sketchy
350
1716F
  3
Thicken
350
1716A
  3
Wireframe
350
17164
  3
X-Ray
350
17170
  0
XRECORD
  5
171B2
102
{ACAD_REACTORS
330
16E8A
102
}
330
16E8A
100
AcDbXrecord
280
     1
 90
        1
330
17178
  0
DICTIONARY
  5
171A5
102
{ACAD_REACTORS
330
16E8A
102
}
330
16E8A
100
AcDbDictionary
281
     1
  3
CANNOSCALE
350
171AA
  3
CMLEADERSTYLE
350
171A7
  3
CTABLESTYLE
350
171A6
  3
CVIEWDETAILSTYLE
350
171A8
  3
CVIEWSECTIONSTYLE
350
171A9
  3
DIMASSOC
350
171AD
  3
INDEXCTL
350
171AC
  3
SORTENTS
350
171AB
  3
XCLIPFRAME
350
171AE
  0
XRECORD
  5
171B3
102
{ACAD_REACTORS
330
16E8A
102
}
330
16E8A
100
AcDbXrecord
280
     1
  1
DWGPROPS COOKIE
  2

  3

  4

  6

  7

  8
Yoshitsune
  9

300
=
301
=
302
=
303
=
304
=
305
=
306
=
307
=
308
=
309
=
 40
0.0000103703703704
 41
2451301.40893044
 42
2457192.686733923
  1

 90
        0
  0
XRECORD
  5
17196
102
{ACAD_REACTORS
330
17195
102
}
330
17195
100
AcDbXrecord
280
     1
290
     1
  0
XRECORD
  5
17198
102
{ACAD_REACTORS
330
17197
102
}
330
17197
100
AcDbXrecord
280
     1
290
     1
  0
XRECORD
  5
1719A
102
{ACAD_REACTORS
330
17199
102
}
330
17199
100
AcDbXrecord
280
     1
290
     1
  0
XRECORD
  5
1719C
102
{ACAD_REACTORS
330
1719B
102
}
330
1719B
100
AcDbXrecord
280
     1
290
     1
  0
XRECORD
  5
1719E
102
{ACAD_REACTORS
330
1719D
102
}
330
1719D
100
AcDbXrecord
280
     1
290
     1
  0
XRECORD
  5
171A0
102
{ACAD_REACTORS
330
1719F
102
}
330
1719F
100
AcDbXrecord
280
     1
290
     1
  0
XRECORD
  5
171A2
102
{ACAD_REACTORS
330
171A1
102
}
330
171A1
100
AcDbXrecord
280
     1
290
     1
  0
XRECORD
  5
171A4
102
{ACAD_REACTORS
330
171A3
102
}
330
171A3
100
AcDbXrecord
280
     1
290
     1
  0
XRECORD
  5
1713E
102
{ACAD_REACTORS
330
1713D
102
}
330
1713D
100
AcDbXrecord
280
     1
340
16E9C
  0
XRECORD
  5
1713C
102
{ACAD_REACTORS
330
1713B
102
}
330
1713B
100
AcDbXrecord
280
     1
340
16E98
  0
ACDBDETAILVIEWSTYLE
  5
17190
102
{ACAD_XDICTIONARY
360
171EB
102
}
102
{ACAD_REACTORS
330
1718F
102
}
330
1718F
100
AcDbModelDocViewStyle
 70
     0
  3
Imperial24
290
     0
100
AcDbDetailViewStyle
 70
     0
 71
     0
 90
        3
 71
     1
340
16E8F
 40
0.24
340
0
 40
0.24
300

 40
0.36
280
     3
 71
     2
340
16E93
 90
       25
 71
     3
340
16E8F
 40
0.24
 90
        1
 40
0.75
 90
        1
300
%<\AcVar ViewType \f "%tc1">% %<\AcVar ViewDetailId>%\PSCALE %<\AcVar ViewScale \f "%sn">%
 71
     4
340
16E93
 90
       25
340
16E93
 90
       25
280
     0
  0
LAYOUT
  5
17191
102
{ACAD_XDICTIONARY
360
171ED
102
}
102
{ACAD_REACTORS
330
16E97
102
}
330
16E97
100
AcDbPlotSettings
  1

  2
Canon LBP9100C
  4

  6

 40
0.0
 41
0.0
 42
0.0
 43
0.0
 44
0.0
 45
0.0
 46
0.0
 47
0.0
 48
0.0
 49
0.0
140
0.0
141
0.0
142
1.0
143
1.0
 70
  1712
 72
     0
 73
     0
 74
     0
  7

 75
     0
147
1.0
148
0.0
149
0.0
100
AcDbLayout
  1
Model
 70
     1
 71
     0
 10
0.0
 20
0.0
 11
12.0
 21
9.0
 12
0.0
 22
0.0
 32
0.0
 14
0.0
 24
0.0
 34
0.0
 15
0.0
 25
0.0
 35
0.0
146
0.0
 13
0.0
 23
0.0
 33
0.0
 16
1.0
 26
0.0
 36
0.0
 17
0.0
 27
1.0
 37
0.0
 76
     0
330
16E9C
331
1713A
  0
LAYOUT
  5
17192
102
{ACAD_XDICTIONARY
360
171EF
102
}
102
{ACAD_REACTORS
330
16E97
102
}
330
16E97
100
AcDbPlotSettings
  1

  2
Canon LBP9100C
  4

  6

 40
0.0
 41
0.0
 42
0.0
 43
0.0
 44
0.0
 45
0.0
 46
0.0
 47
0.0
 48
0.0
 49
0.0
140
0.0
141
0.0
142
1.0
143
1.0
 70
   688
 72
     0
 73
     0
 74
     5
  7

 75
    16
147
1.0
148
0.0
149
0.0
100
AcDbLayout
  1
レイアウト1
 70
     0
 71
     1
 10
0.0
 20
0.0
 11
420.0
 21
297.0
 12
0.0
 22
0.0
 32
0.0
 14
1.000000000000000E+20
 24
1.000000000000000E+20
 34
1.000000000000000E+20
 15
-1.000000000000000E+20
 25
-1.000000000000000E+20
 35
-1.000000000000000E+20
146
0.0
 13
0.0
 23
0.0
 33
0.0
 16
1.0
 26
0.0
 36
0.0
 17
0.0
 27
1.0
 37
0.0
 76
     0
330
16E98
  0
MATERIAL
  5
1714D
102
{ACAD_XDICTIONARY
360
1714E
102
}
102
{ACAD_REACTORS
330
17144
102
}
330
17144
100
AcDbMaterial
  1
ByBlock
 72
     0
 43
0.0208333333333333
 43
0.0
 43
0.0
 43
0.0
 43
0.0
 43
0.0208333333333333
 43
0.0
 43
0.0
 43
0.0
 43
0.0
 43
1.0
 43
0.0
 43
0.0
 43
0.0
 43
0.0
 43
1.0
 77
     0
 47
0.0208333333333333
 47
0.0
 47
0.0
 47
0.0
 47
0.0
 47
0.0208333333333333
 47
0.0
 47
0.0
 47
0.0
 47
0.0
 47
1.0
 47
0.0
 47
0.0
 47
0.0
 47
0.0
 47
1.0
171
     0
 49
0.0208333333333333
 49
0.0
 49
0.0
 49
0.0
 49
0.0
 49
0.0208333333333333
 49
0.0
 49
0.0
 49
0.0
 49
0.0
 49
1.0
 49
0.0
 49
0.0
 49
0.0
 49
0.0
 49
1.0
175
     0
142
0.0208333333333333
142
0.0
142
0.0
142
0.0
142
0.0
142
0.0208333333333333
142
0.0
142
0.0
142
0.0
142
0.0
142
1.0
142
0.0
142
0.0
142
0.0
142
0.0
142
1.0
179
     0
144
0.0208333333333333
144
0.0
144
0.0
144
0.0
144
0.0
144
0.0208333333333333
144
0.0
144
0.0
144
0.0
144
0.0
144
1.0
144
0.0
144
0.0
144
0.0
144
0.0
144
1.0
147
0.0208333333333333
147
0.0
147
0.0
147
0.0
147
0.0
147
0.0208333333333333
147
0.0
147
0.0
147
0.0
147
0.0
147
1.0
147
0.0
147
0.0
147
0.0
147
0.0
147
1.0
  0
MATERIAL
  5
17145
102
{ACAD_XDICTIONARY
360
17146
102
}
102
{ACAD_REACTORS
330
17144
102
}
330
17144
100
AcDbMaterial
  1
ByLayer
 72
     0
 43
0.0208333333333333
 43
0.0
 43
0.0
 43
0.0
 43
0.0
 43
0.0208333333333333
 43
0.0
 43
0.0
 43
0.0
 43
0.0
 43
1.0
 43
0.0
 43
0.0
 43
0.0
 43
0.0
 43
1.0
 77
     0
 47
0.0208333333333333
 47
0.0
 47
0.0
 47
0.0
 47
0.0
 47
0.0208333333333333
 47
0.0
 47
0.0
 47
0.0
 47
0.0
 47
1.0
 47
0.0
 47
0.0
 47
0.0
 47
0.0
 47
1.0
171
     0
 49
0.0208333333333333
 49
0.0
 49
0.0
 49
0.0
 49
0.0
 49
0.0208333333333333
 49
0.0
 49
0.0
 49
0.0
 49
0.0
 49
1.0
 49
0.0
 49
0.0
 49
0.0
 49
0.0
 49
1.0
175
     0
142
0.0208333333333333
142
0.0
142
0.0
142
0.0
142
0.0
142
0.0208333333333333
142
0.0
142
0.0
142
0.0
142
0.0
142
1.0
142
0.0
142
0.0
142
0.0
142
0.0
142
1.0
179
     0
144
0.0208333333333333
144
0.0
144
0.0
144
0.0
144
0.0
144
0.0208333333333333
144
0.0
144
0.0
144
0.0
144
0.0
144
1.0
144
0.0
144
0.0
144
0.0
144
0.0
144
1.0
147
0.0208333333333333
147
0.0
147
0.0
147
0.0
147
0.0
147
0.0208333333333333
147
0.0
147
0.0
147
0.0
147
0.0
147
1.0
147
0.0
147
0.0
147
0.0
147
0.0
147
1.0
  0
MATERIAL
  5
17155
102
{ACAD_XDICTIONARY
360
17156
102
}
102
{ACAD_REACTORS
330
17144
102
}
330
17144
100
AcDbMaterial
  1
Global
 72
     0
 43
0.0208333333333333
 43
0.0
 43
0.0
 43
0.0
 43
0.0
 43
0.0208333333333333
 43
0.0
 43
0.0
 43
0.0
 43
0.0
 43
1.0
 43
0.0
 43
0.0
 43
0.0
 43
0.0
 43
1.0
 77
     0
 47
0.0208333333333333
 47
0.0
 47
0.0
 47
0.0
 47
0.0
 47
0.0208333333333333
 47
0.0
 47
0.0
 47
0.0
 47
0.0
 47
1.0
 47
0.0
 47
0.0
 47
0.0
 47
0.0
 47
1.0
171
     0
 49
0.0208333333333333
 49
0.0
 49
0.0
 49
0.0
 49
0.0
 49
0.0208333333333333
 49
0.0
 49
0.0
 49
0.0
 49
0.0
 49
1.0
 49
0.0
 49
0.0
 49
0.0
 49
0.0
 49
1.0
175
     0
142
0.0208333333333333
142
0.0
142
0.0
142
0.0
142
0.0
142
0.0208333333333333
142
0.0
142
0.0
142
0.0
142
0.0
142
1.0
142
0.0
142
0.0
142
0.0
142
0.0
142
1.0
179
     0
144
0.0208333333333333
144
0.0
144
0.0
144
0.0
144
0.0
144
0.0208333333333333
144
0.0
144
0.0
144
0.0
144
0.0
144
1.0
144
0.0
144
0.0
144
0.0
144
0.0
144
1.0
147
0.0208333333333333
147
0.0
147
0.0
147
0.0
147
0.0
147
0.0208333333333333
147
0.0
147
0.0
147
0.0
147
0.0
147
1.0
147
0.0
147
0.0
147
0.0
147
0.0
147
1.0
  0
MLEADERSTYLE
  5
1718C
102
{ACAD_REACTORS
330
1718B
102
}
330
1718B
100
AcDbMLeaderStyle
170
     2
171
     1
172
     0
 90
        2
 40
0.0
 41
0.0
173
     1
 91
-1056964608
340
16E91
 92
       -2
290
     1
 42
0.09
291
     1
 43
0.36
  3
Standard
 44
0.18
300

342
16E8F
174
     1
178
     6
175
     1
176
     0
 93
-1056964608
 45
0.18
292
     0
297
     0
 46
0.18
 94
-1056964608
 47
1.0
 49
1.0
140
1.0
293
     1
141
0.0
294
     1
177
     0
142
1.0
295
     0
296
     0
143
0.125
1001
ACAD_MLEADERVER
1070
     2
  0
MLINESTYLE
  5
16E95
102
{ACAD_REACTORS
330
16E94
102
}
330
16E94
100
AcDbMlineStyle
  2
STANDARD
 70
     0
  3

 62
   256
 51
90.0
 52
90.0
 71
     2
 49
0.5
 62
   256
  6
BYLAYER
 49
-0.5
 62
   256
  6
BYLAYER
  0
ACDBPLACEHOLDER
  5
17143
102
{ACAD_REACTORS
330
17142
102
}
330
17142
  0
SCALE
  5
1717A
102
{ACAD_REACTORS
330
17179
102
}
330
17179
100
AcDbScale
 70
     0
300
1:1
140
1.0
141
1.0
290
     1
  0
SCALE
  5
1717B
102
{ACAD_REACTORS
330
17179
102
}
330
17179
100
AcDbScale
 70
     0
300
1/128" = 1'-0"
140
0.0078125
141
12.0
290
     0
  0
SCALE
  5
1717C
102
{ACAD_REACTORS
330
17179
102
}
330
17179
100
AcDbScale
 70
     0
300
1/64" = 1'-0"
140
0.015625
141
12.0
290
     0
  0
SCALE
  5
1717D
102
{ACAD_REACTORS
330
17179
102
}
330
17179
100
AcDbScale
 70
     0
300
1/32" = 1'-0"
140
0.03125
141
12.0
290
     0
  0
SCALE
  5
1717E
102
{ACAD_REACTORS
330
17179
102
}
330
17179
100
AcDbScale
 70
     0
300
1/16" = 1'-0"
140
0.0625
141
12.0
290
     0
  0
SCALE
  5
1717F
102
{ACAD_REACTORS
330
17179
102
}
330
17179
100
AcDbScale
 70
     0
300
3/32" = 1'-0"
140
0.09375
141
12.0
290
     0
  0
SCALE
  5
17180
102
{ACAD_REACTORS
330
17179
102
}
330
17179
100
AcDbScale
 70
     0
300
1/8" = 1'-0"
140
0.125
141
12.0
290
     0
  0
SCALE
  5
17181
102
{ACAD_REACTORS
330
17179
102
}
330
17179
100
AcDbScale
 70
     0
300
3/16" = 1'-0"
140
0.1875
141
12.0
290
     0
  0
SCALE
  5
17182
102
{ACAD_REACTORS
330
17179
102
}
330
17179
100
AcDbScale
 70
     0
300
1/4" = 1'-0"
140
0.25
141
12.0
290
     0
  0
SCALE
  5
17183
102
{ACAD_REACTORS
330
17179
102
}
330
17179
100
AcDbScale
 70
     0
300
3/8" = 1'-0"
140
0.375
141
12.0
290
     0
  0
SCALE
  5
17184
102
{ACAD_REACTORS
330
17179
102
}
330
17179
100
AcDbScale
 70
     0
300
1/2" = 1'-0"
140
0.5
141
12.0
290
     0
  0
SCALE
  5
17185
102
{ACAD_REACTORS
330
17179
102
}
330
17179
100
AcDbScale
 70
     0
300
3/4" = 1'-0"
140
0.75
141
12.0
290
     0
  0
SCALE
  5
17186
102
{ACAD_REACTORS
330
17179
102
}
330
17179
100
AcDbScale
 70
     0
300
1" = 1'-0"
140
1.0
141
12.0
290
     0
  0
SCALE
  5
17187
102
{ACAD_REACTORS
330
17179
102
}
330
17179
100
AcDbScale
 70
     0
300
1-1/2" = 1'-0"
140
1.5
141
12.0
290
     0
  0
SCALE
  5
17188
102
{ACAD_REACTORS
330
17179
102
}
330
17179
100
AcDbScale
 70
     0
300
3" = 1'-0"
140
3.0
141
12.0
290
     0
  0
SCALE
  5
17189
102
{ACAD_REACTORS
330
17179
102
}
330
17179
100
AcDbScale
 70
     0
300
6" = 1'-0"
140
6.0
141
12.0
290
     0
  0
SCALE
  5
1718A
102
{ACAD_REACTORS
330
17179
102
}
330
17179
100
AcDbScale
 70
     0
300
1'-0" = 1'-0"
140
12.0
141
12.0
290
     0
  0
ACDBSECTIONVIEWSTYLE
  5
1718E
102
{ACAD_XDICTIONARY
360
171E9
102
}
102
{ACAD_REACTORS
330
1718D
102
}
330
1718D
100
AcDbModelDocViewStyle
 70
     0
  3
Imperial24
290
     0
100
AcDbSectionViewStyle
 70
     0
 71
     0
 90
       78
 71
     1
340
16E8F
 40
0.24
340
0
340
0
 40
0.24
300
I, O, Q, S, X, Z
 40
0.48
 90
        3
 40
0.18
 90
        1
 71
     2
340
16E93
 90
       25
340
16E93
 90
       50
 40
0.24
 40
0.0
 40
0.24
 71
     3
340
16E8F
 40
0.24
 90
        1
 40
0.75
 90
        1
300
%<\AcVar ViewType \f "%tc1">% %<\AcVar ViewSectionStartId>%-%<\AcVar ViewSectionEndId>%\PSCALE %<\AcVar ViewScale \f "%sn">%
 71
     4
300
ANSI31
 40
1.0
 90
        0
290
     0
290
     0
 90
        6
 40
0.0
 40
1.570796326794896
 40
0.2617993877991494
 40
1.308996938995747
 40
-0.2617993877991494
 40
1.832595714594046
  0
TABLESTYLE
  5
17178
102
{ACAD_XDICTIONARY
360
171B0
102
}
102
{ACAD_REACTORS
330
17177
102
}
330
17177
100
AcDbTableStyle
  3
Standard
 70
     0
 71
     0
 40
0.06
 41
0.06
280
     0
281
     0
  7
STANDARD
140
0.18
170
     2
 62
     0
 63
     7
283
     0
274
    -2
284
     1
 64
     0
275
    -2
285
     1
 65
     0
276
    -2
286
     1
 66
     0
277
    -2
287
     1
 67
     0
278
    -2
288
     1
 68
     0
279
    -2
289
     1
 69
     0
  7
STANDARD
140
0.25
170
     5
 62
     0
 63
     7
283
     0
274
    -2
284
     1
 64
     0
275
    -2
285
     1
 65
     0
276
    -2
286
     1
 66
     0
277
    -2
287
     1
 67
     0
278
    -2
288
     1
 68
     0
279
    -2
289
     1
 69
     0
  7
STANDARD
140
0.18
170
     5
 62
     0
 63
     7
283
     0
274
    -2
284
     1
 64
     0
275
    -2
285
     1
 65
     0
276
    -2
286
     1
 66
     0
277
    -2
287
     1
 67
     0
278
    -2
288
     1
 68
     0
279
    -2
289
     1
 69
     0
  0
VISUALSTYLE
  5
17163
102
{ACAD_XDICTIONARY
360
171C1
102
}
102
{ACAD_REACTORS
330
1715D
102
}
330
1715D
100
AcDbVisualStyle
  2
2dWireframe
 70
     4
 71
     0
 72
     2
 73
     0
 90
        0
 40
-0.6
 41
-30.0
 62
     5
 63
     7
 74
     1
 91
        4
 64
     7
 65
   257
 75
     1
175
     1
 42
1.0
 92
        0
 66
   257
 43
1.0
 76
     1
 77
     6
 78
     2
 67
     7
 79
     5
170
     0
171
     0
290
     0
174
     0
 93
        1
 44
0.0
173
     0
291
     0
 45
0.0
1001
ACAD
1000
AcDbSavedByObjectVersion
1070
     0
  0
VISUALSTYLE
  5
17162
102
{ACAD_XDICTIONARY
360
171BF
102
}
102
{ACAD_REACTORS
330
1715D
102
}
330
1715D
100
AcDbVisualStyle
  2
Basic
 70
     7
 71
     1
 72
     0
 73
     1
 90
        0
 40
-0.6
 41
-30.0
 62
     5
 63
     7
 74
     0
 91
        4
 64
     7
 65
   257
 75
     1
175
     1
 42
1.0
 92
        8
 66
     7
 43
1.0
 76
     1
 77
     6
 78
     2
 67
     7
 79
     5
170
     0
171
     0
290
     0
174
     0
 93
        1
 44
0.0
173
     0
291
     1
 45
0.0
1001
ACAD
1000
AcDbSavedByObjectVersion
1070
     0
  0
VISUALSTYLE
  5
17169
102
{ACAD_XDICTIONARY
360
171CD
102
}
102
{ACAD_REACTORS
330
1715D
102
}
330
1715D
100
AcDbVisualStyle
  2
Brighten
 70
    12
 71
     2
 72
     2
 73
     0
 90
        0
 40
-0.6
 41
-30.0
 62
     5
 63
     7
 74
     1
 91
        4
 64
     7
 65
   257
 75
     1
175
     1
 42
1.0
 92
        8
 66
     7
 43
1.0
 76
     1
 77
     6
 78
     2
 67
     7
 79
     5
170
     0
171
     0
290
     0
174
     0
 93
        1
 44
50.0
173
     0
291
     1
 45
0.0
1001
ACAD
1000
AcDbSavedByObjectVersion
1070
     0
  0
VISUALSTYLE
  5
1716D
102
{ACAD_XDICTIONARY
360
171D5
102
}
102
{ACAD_REACTORS
330
1715D
102
}
330
1715D
100
AcDbVisualStyle
  2
ColorChange
 70
    16
 71
     2
 72
     2
 73
     3
 90
        0
 40
-0.6
 41
-30.0
 62
     5
 63
     8
 74
     1
 91
        4
 64
     7
 65
   257
 75
     1
175
     1
 42
1.0
 92
        8
 66
     8
 43
1.0
 76
     1
 77
     6
 78
     2
 67
     7
 79
     5
170
     0
171
     0
290
     0
174
     0
 93
        1
 44
0.0
173
     0
291
     1
 45
0.0
1001
ACAD
1000
AcDbSavedByObjectVersion
1070
     0
  0
VISUALSTYLE
  5
17166
102
{ACAD_XDICTIONARY
360
171C7
102
}
102
{ACAD_REACTORS
330
1715D
102
}
330
1715D
100
AcDbVisualStyle
  2
Conceptual
 70
     9
 71
     3
 72
     2
 73
     0
 90
        0
 40
-0.6
 41
-30.0
 62
     5
 63
     7
 74
     2
 91
        2
 64
     7
 65
   257
 75
     1
175
     1
 42
179.0
 92
        8
 66
     7
 43
1.0
 76
     1
 77
     6
 78
     2
 67
     7
 79
     3
170
     0
171
     0
290
     0
174
     0
 93
        1
 44
0.0
173
     0
291
     0
 45
0.0
1001
ACAD
1000
AcDbSavedByObjectVersion
1070
     0
  0
VISUALSTYLE
  5
17168
102
{ACAD_XDICTIONARY
360
171CB
102
}
102
{ACAD_REACTORS
330
1715D
102
}
330
1715D
100
AcDbVisualStyle
  2
Dim
 70
    11
 71
     2
 72
     2
 73
     0
 90
        0
 40
-0.6
 41
-30.0
 62
     5
 63
     7
 74
     1
 91
        4
 64
     7
 65
   257
 75
     1
175
     1
 42
1.0
 92
        8
 66
     7
 43
1.0
 76
     1
 77
     6
 78
     2
 67
     7
 79
     5
170
     0
171
     0
290
     0
174
     0
 93
        1
 44
-50.0
173
     0
291
     1
 45
0.0
1001
ACAD
1000
AcDbSavedByObjectVersion
1070
     0
  0
VISUALSTYLE
  5
17175
102
{ACAD_XDICTIONARY
360
171E5
102
}
102
{ACAD_REACTORS
330
1715D
102
}
330
1715D
100
AcDbVisualStyle
  2
EdgeColorOff
 70
    22
 71
     2
 72
     2
 73
     0
 90
        0
 40
-0.6
 41
-30.0
 62
     5
 63
     7
 74
     1
 91
        4
 64
     7
 65
   257
 75
     1
175
     1
 42
1.0
 92
        8
 66
     7
 43
1.0
 76
     1
 77
     6
 78
     2
 67
     7
 79
     5
170
     0
171
     0
290
     0
174
     0
 93
        1
 44
0.0
173
     0
291
     1
 45
0.0
1001
ACAD
1000
AcDbSavedByObjectVersion
1070
     0
  0
VISUALSTYLE
  5
1716C
102
{ACAD_XDICTIONARY
360
171D3
102
}
102
{ACAD_REACTORS
330
1715D
102
}
330
1715D
100
AcDbVisualStyle
  2
Facepattern
 70
    15
 71
     2
 72
     2
 73
     0
 90
        0
 40
-0.6
 41
-30.0
 62
     5
 63
     7
 74
     1
 91
        4
 64
     7
 65
   257
 75
     1
175
     1
 42
1.0
 92
        8
 66
     7
 43
1.0
 76
     1
 77
     6
 78
     2
 67
     7
 79
     5
170
     0
171
     0
290
     0
174
     0
 93
        1
 44
0.0
173
     0
291
     1
 45
0.0
1001
ACAD
1000
AcDbSavedByObjectVersion
1070
     0
  0
VISUALSTYLE
  5
1715E
102
{ACAD_XDICTIONARY
360
171B7
102
}
102
{ACAD_REACTORS
330
1715D
102
}
330
1715D
100
AcDbVisualStyle
  2
Flat
 70
     0
 71
     2
 72
     1
 73
     1
 90
        2
 40
-0.6
 41
30.0
 62
     5
 63
     7
 74
     0
 91
        0
 64
     7
 65
   257
 75
     1
175
     1
 42
1.0
 92
        8
 66
     7
 43
1.0
 76
     1
 77
     6
 78
     2
 67
     7
 79
     5
170
     0
171
     0
290
     0
174
     0
 93
       13
 44
0.0
173
     0
291
     1
 45
0.0
1001
ACAD
1000
AcDbSavedByObjectVersion
1070
     0
  0
VISUALSTYLE
  5
1715F
102
{ACAD_XDICTIONARY
360
171B9
102
}
102
{ACAD_REACTORS
330
1715D
102
}
330
1715D
100
AcDbVisualStyle
  2
FlatWithEdges
 70
     1
 71
     2
 72
     1
 73
     1
 90
        2
 40
-0.6
 41
30.0
 62
     5
 63
     7
 74
     1
 91
        0
 64
     7
 65
   257
 75
     1
175
     1
 42
1.0
 92
        0
 66
   257
 43
1.0
 76
     1
 77
     6
 78
     2
 67
     7
 79
     5
170
     0
171
     0
290
     0
174
     0
 93
       13
 44
0.0
173
     0
291
     1
 45
0.0
1001
ACAD
1000
AcDbSavedByObjectVersion
1070
     0
  0
VISUALSTYLE
  5
17160
102
{ACAD_XDICTIONARY
360
171BB
102
}
102
{ACAD_REACTORS
330
1715D
102
}
330
1715D
100
AcDbVisualStyle
  2
Gouraud
 70
     2
 71
     2
 72
     2
 73
     1
 90
        2
 40
-0.6
 41
30.0
 62
     5
 63
     7
 74
     0
 91
        0
 64
     7
 65
   257
 75
     1
175
     1
 42
1.0
 92
        0
 66
     7
 43
1.0
 76
     1
 77
     6
 78
     2
 67
     7
 79
     5
170
     0
171
     0
290
     0
174
     0
 93
       13
 44
0.0
173
     0
291
     1
 45
0.0
1001
ACAD
1000
AcDbSavedByObjectVersion
1070
     0
  0
VISUALSTYLE
  5
17161
102
{ACAD_XDICTIONARY
360
171BD
102
}
102
{ACAD_REACTORS
330
1715D
102
}
330
1715D
100
AcDbVisualStyle
  2
GouraudWithEdges
 70
     3
 71
     2
 72
     2
 73
     1
 90
        2
 40
-0.6
 41
30.0
 62
     5
 63
     7
 74
     1
 91
        0
 64
     7
 65
   257
 75
     1
175
     1
 42
1.0
 92
        0
 66
   257
 43
1.0
 76
     1
 77
     6
 78
     2
 67
     7
 79
     5
170
     0
171
     0
290
     0
174
     0
 93
       13
 44
0.0
173
     0
291
     1
 45
0.0
1001
ACAD
1000
AcDbSavedByObjectVersion
1070
     0
  0
VISUALSTYLE
  5
17165
102
{ACAD_XDICTIONARY
360
171C5
102
}
102
{ACAD_REACTORS
330
1715D
102
}
330
1715D
100
AcDbVisualStyle
  2
Hidden
 70
     6
 71
     1
 72
     2
 73
     2
 90
        0
 40
-0.6
 41
-30.0
 62
     5
 63
     7
 74
     2
 91
        2
 64
     7
 65
   257
 75
     2
175
     1
 42
40.0
 92
        0
 66
   257
 43
1.0
 76
     1
 77
     6
 78
     2
 67
     7
 79
     3
170
     0
171
     0
290
     0
174
     0
 93
        1
 44
0.0
173
     0
291
     0
 45
0.0
1001
ACAD
1000
AcDbSavedByObjectVersion
1070
     0
  0
VISUALSTYLE
  5
17173
102
{ACAD_XDICTIONARY
360
171E1
102
}
102
{ACAD_REACTORS
330
1715D
102
}
330
1715D
100
AcDbVisualStyle
  2
JitterOff
 70
    20
 71
     2
 72
     2
 73
     0
 90
        0
 40
-0.6
 41
-30.0
 62
     5
 63
     7
 74
     1
 91
        4
 64
     7
 65
   257
 75
     1
175
     1
 42
1.0
 92
       10
 66
     7
 43
1.0
 76
     1
 77
     6
 78
     2
 67
     7
 79
     5
170
     0
171
     0
290
     0
174
     0
 93
        1
 44
0.0
173
     0
291
     1
 45
0.0
1001
ACAD
1000
AcDbSavedByObjectVersion
1070
     0
  0
VISUALSTYLE
  5
1716B
102
{ACAD_XDICTIONARY
360
171D1
102
}
102
{ACAD_REACTORS
330
1715D
102
}
330
1715D
100
AcDbVisualStyle
  2
Linepattern
 70
    14
 71
     2
 72
     2
 73
     0
 90
        0
 40
-0.6
 41
-30.0
 62
     5
 63
     7
 74
     1
 91
        4
 64
     7
 65
   257
 75
     7
175
     7
 42
1.0
 92
        8
 66
     7
 43
1.0
 76
     1
 77
     6
 78
     2
 67
     7
 79
     5
170
     0
171
     0
290
     0
174
     0
 93
        1
 44
0.0
173
     0
291
     1
 45
0.0
1001
ACAD
1000
AcDbSavedByObjectVersion
1070
     0
  0
VISUALSTYLE
  5
17174
102
{ACAD_XDICTIONARY
360
171E3
102
}
102
{ACAD_REACTORS
330
1715D
102
}
330
1715D
100
AcDbVisualStyle
  2
OverhangOff
 70
    21
 71
     2
 72
     2
 73
     0
 90
        0
 40
-0.6
 41
-30.0
 62
     5
 63
     7
 74
     1
 91
        4
 64
     7
 65
   257
 75
     1
175
     1
 42
1.0
 92
        9
 66
     7
 43
1.0
 76
     1
 77
     6
 78
     2
 67
     7
 79
     5
170
     0
171
     0
290
     0
174
     0
 93
        1
 44
0.0
173
     0
291
     1
 45
0.0
1001
ACAD
1000
AcDbSavedByObjectVersion
1070
     0
  0
VISUALSTYLE
  5
17167
102
{ACAD_XDICTIONARY
360
171C9
102
}
102
{ACAD_REACTORS
330
1715D
102
}
330
1715D
100
AcDbVisualStyle
  2
Realistic
 70
     8
 71
     2
 72
     3
 73
     0
 90
        2
 40
-0.6
 41
30.0
 62
     5
 63
     7
 74
     0
 91
        0
 64
     7
 65
   257
 75
     1
175
     1
 42
1.0
 92
        8
 66
   257
 43
1.0
 76
     1
 77
     6
 78
     2
 67
     7
 79
     3
170
     0
171
     0
290
     0
174
     0
 93
       13
 44
0.0
173
     0
291
     0
 45
0.0
1001
ACAD
1000
AcDbSavedByObjectVersion
1070
     0
  0
VISUALSTYLE
  5
17172
102
{ACAD_XDICTIONARY
360
171DF
102
}
102
{ACAD_REACTORS
330
1715D
102
}
330
1715D
100
AcDbVisualStyle
  2
Shaded
 70
    27
 71
     2
 72
     2
 73
     1
 90
        2
 40
-0.6
 41
30.0
 62
     5
 63
     7
 74
     0
 91
        4
 64
     7
 65
   257
 75
     1
175
     1
 42
1.0
 92
        8
 66
   257
 43
1.0
 76
     1
 77
     6
 78
     2
 67
     8
 79
     3
170
     0
171
     0
290
     0
174
     0
 93
        5
 44
0.0
173
     0
291
     0
 45
0.0
1001
ACAD
1000
AcDbSavedByObjectVersion
1070
     0
  0
VISUALSTYLE
  5
17171
102
{ACAD_XDICTIONARY
360
171DD
102
}
102
{ACAD_REACTORS
330
1715D
102
}
330
1715D
100
AcDbVisualStyle
  2
Shaded with edges
 70
    26
 71
     2
 72
     2
 73
     1
 90
        2
 40
-0.6
 41
30.0
 62
     5
 63
     7
 74
     1
 91
       10
 64
     7
 65
   257
 75
     2
175
     1
 42
1.0
 92
        8
 66
   257
 43
1.0
 76
     1
 77
     6
 78
     2
 67
     7
 79
     3
170
     0
171
     0
290
     0
174
     0
 93
        5
 44
0.0
173
     0
291
     0
 45
0.0
1001
ACAD
1000
AcDbSavedByObjectVersion
1070
     0
  0
VISUALSTYLE
  5
1716E
102
{ACAD_XDICTIONARY
360
171D7
102
}
102
{ACAD_REACTORS
330
1715D
102
}
330
1715D
100
AcDbVisualStyle
  2
Shades of Gray
 70
    23
 71
     2
 72
     2
 73
     3
 90
        0
 40
-0.6
 41
-30.0
 62
     5
 63
     7
 74
     2
 91
        2
 64
     7
 65
     7
 75
     1
175
     1
 42
40.0
 92
        8
 66
     7
 43
1.0
 76
     1
 77
     6
 78
     2
 67
     7
 79
     3
170
     0
171
     0
290
     0
174
     0
 93
        1
 44
0.0
173
     0
291
     0
 45
0.0
1001
ACAD
1000
AcDbSavedByObjectVersion
1070
     0
  0
VISUALSTYLE
  5
1716F
102
{ACAD_XDICTIONARY
360
171D9
102
}
102
{ACAD_REACTORS
330
1715D
102
}
330
1715D
100
AcDbVisualStyle
  2
Sketchy
 70
    24
 71
     1
 72
     2
 73
     2
 90
        0
 40
-0.6
 41
-30.0
 62
     5
 63
     7
 74
     2
 91
        2
 64
     7
 65
     7
 75
     1
175
     1
 42
40.0
 92
       11
 66
     7
 43
1.0
 76
     1
 77
     6
 78
     2
 67
     7
 79
     6
170
     0
171
     0
290
     0
174
     0
 93
        1
 44
0.0
173
     0
291
     0
 45
0.0
1001
ACAD
1000
AcDbSavedByObjectVersion
1070
     0
  0
VISUALSTYLE
  5
1716A
102
{ACAD_XDICTIONARY
360
171CF
102
}
102
{ACAD_REACTORS
330
1715D
102
}
330
1715D
100
AcDbVisualStyle
  2
Thicken
 70
    13
 71
     2
 72
     2
 73
     0
 90
        0
 40
-0.6
 41
-30.0
 62
     5
 63
     7
 74
     1
 91
        4
 64
     7
 65
   257
 75
     1
175
     1
 42
1.0
 92
       12
 66
     7
 43
1.0
 76
     1
 77
     6
 78
     2
 67
     7
 79
     5
170
     0
171
     0
290
     0
174
     0
 93
        1
 44
0.0
173
     0
291
     1
 45
0.0
1001
ACAD
1000
AcDbSavedByObjectVersion
1070
     0
  0
VISUALSTYLE
  5
17164
102
{ACAD_XDICTIONARY
360
171C3
102
}
102
{ACAD_REACTORS
330
1715D
102
}
330
1715D
100
AcDbVisualStyle
  2
Wireframe
 70
     5
 71
     0
 72
     2
 73
     0
 90
        0
 40
-0.6
 41
-30.0
 62
     5
 63
     7
 74
     1
 91
        4
 64
     7
 65
   257
 75
     1
175
     1
 42
1.0
 92
        0
 66
   257
 43
1.0
 76
     1
 77
     6
 78
     2
 67
     7
 79
     3
170
     0
171
     0
290
     0
174
     0
 93
        1
 44
0.0
173
     0
291
     0
 45
0.0
1001
ACAD
1000
AcDbSavedByObjectVersion
1070
     0
  0
VISUALSTYLE
  5
17170
102
{ACAD_XDICTIONARY
360
171DB
102
}
102
{ACAD_REACTORS
330
1715D
102
}
330
1715D
100
AcDbVisualStyle
  2
X-Ray
 70
    25
 71
     2
 72
     2
 73
     1
 90
        1
 40
0.5
 41
-30.0
 62
     5
 63
     7
 74
     1
 91
        0
 64
     7
 65
   257
 75
     1
175
     1
 42
1.0
 92
        8
 66
     7
 43
1.0
 76
     1
 77
     6
 78
     2
 67
     7
 79
     3
170
     0
171
     0
290
     0
174
     0
 93
       13
 44
0.0
173
     0
291
     0
 45
0.0
1001
ACAD
1000
AcDbSavedByObjectVersion
1070
     0
  0
DICTIONARYVAR
  5
171AA
102
{ACAD_REACTORS
330
171A5
102
}
330
171A5
100
DictionaryVariables
280
     0
  1
1:1
  0
DICTIONARYVAR
  5
171A7
102
{ACAD_REACTORS
330
171A5
102
}
330
171A5
100
DictionaryVariables
280
     0
  1
STANDARD
  0
DICTIONARYVAR
  5
171A6
102
{ACAD_REACTORS
330
171A5
102
}
330
171A5
100
DictionaryVariables
280
     0
  1
STANDARD
  0
DICTIONARYVAR
  5
171A8
102
{ACAD_REACTORS
330
171A5
102
}
330
171A5
100
DictionaryVariables
280
     0
  1
Imperial24
  0
DICTIONARYVAR
  5
171A9
102
{ACAD_REACTORS
330
171A5
102
}
330
171A5
100
DictionaryVariables
280
     0
  1
Imperial24
  0
DICTIONARYVAR
  5
171AD
102
{ACAD_REACTORS
330
171A5
102
}
330
171A5
100
DictionaryVariables
280
     0
  1
1
  0
DICTIONARYVAR
  5
171AC
102
{ACAD_REACTORS
330
171A5
102
}
330
171A5
100
DictionaryVariables
280
     0
  1
0
  0
DICTIONARYVAR
  5
171AB
102
{ACAD_REACTORS
330
171A5
102
}
330
171A5
100
DictionaryVariables
280
     0
  1
127
  0
DICTIONARYVAR
  5
171AE
102
{ACAD_REACTORS
330
171A5
102
}
330
171A5
100
DictionaryVariables
280
     0
  1
2
  0
DICTIONARY
  5
171EB
330
17190
100
AcDbDictionary
280
     1
281
     1
  3
ACAD_XREC_ROUNDTRIP
360
171EC
  0
DICTIONARY
  5
171ED
330
17191
100
AcDbDictionary
280
     1
281
     1
  3
ACAD_XREC_ROUNDTRIP
360
171EE
  0
DICTIONARY
  5
171EF
330
17192
100
AcDbDictionary
280
     1
281
     1
  3
ACAD_XREC_ROUNDTRIP
360
171F0
  0
DICTIONARY
  5
1714E
330
1714D
100
AcDbDictionary
280
     1
281
     1
  3
ACAD_XREC_ROUNDTRIP
360
171B5
  3
BUMPTILE
360
17150
  3
DIFFUSETILE
360
1714F
  3
OPACITYTILE
360
17153
  3
REFLECTIONTILE
360
17152
  3
REFRACTIONTILE
360
17154
  3
SPECULARTILE
360
17151
  0
DICTIONARY
  5
17146
330
17145
100
AcDbDictionary
280
     1
281
     1
  3
ACAD_XREC_ROUNDTRIP
360
171B4
  3
BUMPTILE
360
17148
  3
DIFFUSETILE
360
17147
  3
OPACITYTILE
360
1714B
  3
REFLECTIONTILE
360
1714A
  3
REFRACTIONTILE
360
1714C
  3
SPECULARTILE
360
17149
  0
DICTIONARY
  5
17156
330
17155
100
AcDbDictionary
280
     1
281
     1
  3
ACAD_XREC_ROUNDTRIP
360
171B6
  3
BUMPTILE
360
17158
  3
DIFFUSETILE
360
17157
  3
OPACITYTILE
360
1715B
  3
REFLECTIONTILE
360
1715A
  3
REFRACTIONTILE
360
1715C
  3
SPECULARTILE
360
17159
  0
DICTIONARY
  5
171E9
330
1718E
100
AcDbDictionary
280
     1
281
     1
  3
ACAD_XREC_ROUNDTRIP
360
171EA
  0
DICTIONARY
  5
171B0
330
17178
100
AcDbDictionary
280
     1
281
     1
  3
ACAD_ROUNDTRIP_2008_TABLESTYLE_CELLSTYLEMAP
360
171B1
  3
ACAD_XREC_ROUNDTRIP
360
171E7
  0
DICTIONARY
  5
171C1
330
17163
100
AcDbDictionary
280
     1
281
     1
  3
ACAD_XREC_ROUNDTRIP
360
171C2
  0
DICTIONARY
  5
171BF
330
17162
100
AcDbDictionary
280
     1
281
     1
  3
ACAD_XREC_ROUNDTRIP
360
171C0
  0
DICTIONARY
  5
171CD
330
17169
100
AcDbDictionary
280
     1
281
     1
  3
ACAD_XREC_ROUNDTRIP
360
171CE
  0
DICTIONARY
  5
171D5
330
1716D
100
AcDbDictionary
280
     1
281
     1
  3
ACAD_XREC_ROUNDTRIP
360
171D6
  0
DICTIONARY
  5
171C7
330
17166
100
AcDbDictionary
280
     1
281
     1
  3
ACAD_XREC_ROUNDTRIP
360
171C8
  0
DICTIONARY
  5
171CB
330
17168
100
AcDbDictionary
280
     1
281
     1
  3
ACAD_XREC_ROUNDTRIP
360
171CC
  0
DICTIONARY
  5
171E5
330
17175
100
AcDbDictionary
280
     1
281
     1
  3
ACAD_XREC_ROUNDTRIP
360
171E6
  0
DICTIONARY
  5
171D3
330
1716C
100
AcDbDictionary
280
     1
281
     1
  3
ACAD_XREC_ROUNDTRIP
360
171D4
  0
DICTIONARY
  5
171B7
330
1715E
100
AcDbDictionary
280
     1
281
     1
  3
ACAD_XREC_ROUNDTRIP
360
171B8
  0
DICTIONARY
  5
171B9
330
1715F
100
AcDbDictionary
280
     1
281
     1
  3
ACAD_XREC_ROUNDTRIP
360
171BA
  0
DICTIONARY
  5
171BB
330
17160
100
AcDbDictionary
280
     1
281
     1
  3
ACAD_XREC_ROUNDTRIP
360
171BC
  0
DICTIONARY
  5
171BD
330
17161
100
AcDbDictionary
280
     1
281
     1
  3
ACAD_XREC_ROUNDTRIP
360
171BE
  0
DICTIONARY
  5
171C5
330
17165
100
AcDbDictionary
280
     1
281
     1
  3
ACAD_XREC_ROUNDTRIP
360
171C6
  0
DICTIONARY
  5
171E1
330
17173
100
AcDbDictionary
280
     1
281
     1
  3
ACAD_XREC_ROUNDTRIP
360
171E2
  0
DICTIONARY
  5
171D1
330
1716B
100
AcDbDictionary
280
     1
281
     1
  3
ACAD_XREC_ROUNDTRIP
360
171D2
  0
DICTIONARY
  5
171E3
330
17174
100
AcDbDictionary
280
     1
281
     1
  3
ACAD_XREC_ROUNDTRIP
360
171E4
  0
DICTIONARY
  5
171C9
330
17167
100
AcDbDictionary
280
     1
281
     1
  3
ACAD_XREC_ROUNDTRIP
360
171CA
  0
DICTIONARY
  5
171DF
330
17172
100
AcDbDictionary
280
     1
281
     1
  3
ACAD_XREC_ROUNDTRIP
360
171E0
  0
DICTIONARY
  5
171DD
330
17171
100
AcDbDictionary
280
     1
281
     1
  3
ACAD_XREC_ROUNDTRIP
360
171DE
  0
DICTIONARY
  5
171D7
330
1716E
100
AcDbDictionary
280
     1
281
     1
  3
ACAD_XREC_ROUNDTRIP
360
171D8
  0
DICTIONARY
  5
171D9
330
1716F
100
AcDbDictionary
280
     1
281
     1
  3
ACAD_XREC_ROUNDTRIP
360
171DA
  0
DICTIONARY
  5
171CF
330
1716A
100
AcDbDictionary
280
     1
281
     1
  3
ACAD_XREC_ROUNDTRIP
360
171D0
  0
DICTIONARY
  5
171C3
330
17164
100
AcDbDictionary
280
     1
281
     1
  3
ACAD_XREC_ROUNDTRIP
360
171C4
  0
DICTIONARY
  5
171DB
330
17170
100
AcDbDictionary
280
     1
281
     1
  3
ACAD_XREC_ROUNDTRIP
360
171DC
  0
XRECORD
  5
171EC
102
{ACAD_REACTORS
330
171EB
102
}
330
171EB
100
AcDbXrecord
280
     1
102
DISPLAYNAME
  1
Imperial24
102
FLAGS
 90
        0
  0
XRECORD
  5
171EE
102
{ACAD_REACTORS
330
171ED
102
}
330
171ED
100
AcDbXrecord
280
     1
102
SHADEPLOT
 70
     0
102
SHADEPLOTRESLEVEL
 70
     2
102
SHADEPLOTCUSTOMDPI
 70
   300
  0
XRECORD
  5
171F0
102
{ACAD_REACTORS
330
171EF
102
}
330
171EF
100
AcDbXrecord
280
     1
102
SHADEPLOT
 70
     0
102
SHADEPLOTRESLEVEL
 70
     2
102
SHADEPLOTCUSTOMDPI
 70
   300
  0
XRECORD
  5
171B5
102
{ACAD_REACTORS
330
1714E
102
}
330
1714E
100
AcDbXrecord
280
     1
102
MATERIAL
148
0.0
149
0.0
149
0.0
 93
        0
 94
      127
282
     0
 72
     0
 77
     0
171
     0
175
     0
179
     0
273
     0
  0
XRECORD
  5
17150
102
{ACAD_REACTORS
330
1714E
102
}
330
1714E
100
AcDbXrecord
280
     1
270
     1
271
     1
  0
XRECORD
  5
1714F
102
{ACAD_REACTORS
330
1714E
102
}
330
1714E
100
AcDbXrecord
280
     1
270
     1
271
     1
  0
XRECORD
  5
17153
102
{ACAD_REACTORS
330
1714E
102
}
330
1714E
100
AcDbXrecord
280
     1
270
     1
271
     1
  0
XRECORD
  5
17152
102
{ACAD_REACTORS
330
1714E
102
}
330
1714E
100
AcDbXrecord
280
     1
270
     1
271
     1
  0
XRECORD
  5
17154
102
{ACAD_REACTORS
330
1714E
102
}
330
1714E
100
AcDbXrecord
280
     1
270
     1
271
     1
  0
XRECORD
  5
17151
102
{ACAD_REACTORS
330
1714E
102
}
330
1714E
100
AcDbXrecord
280
     1
270
     1
271
     1
  0
XRECORD
  5
171B4
102
{ACAD_REACTORS
330
17146
102
}
330
17146
100
AcDbXrecord
280
     1
102
MATERIAL
148
0.0
149
0.0
149
0.0
 93
        0
 94
      127
282
     0
 72
     0
 77
     0
171
     0
175
     0
179
     0
273
     0
  0
XRECORD
  5
17148
102
{ACAD_REACTORS
330
17146
102
}
330
17146
100
AcDbXrecord
280
     1
270
     1
271
     1
  0
XRECORD
  5
17147
102
{ACAD_REACTORS
330
17146
102
}
330
17146
100
AcDbXrecord
280
     1
270
     1
271
     1
  0
XRECORD
  5
1714B
102
{ACAD_REACTORS
330
17146
102
}
330
17146
100
AcDbXrecord
280
     1
270
     1
271
     1
  0
XRECORD
  5
1714A
102
{ACAD_REACTORS
330
17146
102
}
330
17146
100
AcDbXrecord
280
     1
270
     1
271
     1
  0
XRECORD
  5
1714C
102
{ACAD_REACTORS
330
17146
102
}
330
17146
100
AcDbXrecord
280
     1
270
     1
271
     1
  0
XRECORD
  5
17149
102
{ACAD_REACTORS
330
17146
102
}
330
17146
100
AcDbXrecord
280
     1
270
     1
271
     1
  0
XRECORD
  5
171B6
102
{ACAD_REACTORS
330
17156
102
}
330
17156
100
AcDbXrecord
280
     1
102
MATERIAL
148
0.0
149
0.0
149
0.0
 93
        0
 94
      127
282
     0
 72
     0
 77
     0
171
     0
175
     0
179
     0
273
     0
  0
XRECORD
  5
17158
102
{ACAD_REACTORS
330
17156
102
}
330
17156
100
AcDbXrecord
280
     1
270
     1
271
     1
  0
XRECORD
  5
17157
102
{ACAD_REACTORS
330
17156
102
}
330
17156
100
AcDbXrecord
280
     1
270
     1
271
     1
  0
XRECORD
  5
1715B
102
{ACAD_REACTORS
330
17156
102
}
330
17156
100
AcDbXrecord
280
     1
270
     1
271
     1
  0
XRECORD
  5
1715A
102
{ACAD_REACTORS
330
17156
102
}
330
17156
100
AcDbXrecord
280
     1
270
     1
271
     1
  0
XRECORD
  5
1715C
102
{ACAD_REACTORS
330
17156
102
}
330
17156
100
AcDbXrecord
280
     1
270
     1
271
     1
  0
XRECORD
  5
17159
102
{ACAD_REACTORS
330
17156
102
}
330
17156
100
AcDbXrecord
280
     1
270
     1
271
     1
  0
XRECORD
  5
171EA
102
{ACAD_REACTORS
330
171E9
102
}
330
171E9
100
AcDbXrecord
280
     1
102
DISPLAYNAME
  1
Imperial24
102
FLAGS
 90
        0
  0
CELLSTYLEMAP
  5
171B1
102
{ACAD_REACTORS
330
171B0
102
}
330
171B0
100
AcDbCellStyleMap
 90
        3
300
CELLSTYLE
  1
TABLEFORMAT_BEGIN
 90
        5
170
     1
 91
        0
 92
    32768
 62
   257
 93
        1
300
CONTENTFORMAT
  1
CONTENTFORMAT_BEGIN
 90
        0
 91
        0
 92
      512
 93
        0
300

 40
0.0
140
1.0
 94
        5
 62
     0
340
16E8F
144
0.25
309
CONTENTFORMAT_END
171
     0
 94
        0
309
TABLEFORMAT_END
  1
CELLSTYLE_BEGIN
 90
        1
 91
        1
300
_TITLE
309
CELLSTYLE_END
300
CELLSTYLE
  1
TABLEFORMAT_BEGIN
 90
        5
170
     1
 91
        0
 92
        0
 62
   257
 93
        1
300
CONTENTFORMAT
  1
CONTENTFORMAT_BEGIN
 90
        0
 91
        0
 92
      512
 93
        0
300

 40
0.0
140
1.0
 94
        5
 62
     0
340
16E8F
144
0.18
309
CONTENTFORMAT_END
171
     0
 94
        0
309
TABLEFORMAT_END
  1
CELLSTYLE_BEGIN
 90
        2
 91
        1
300
_HEADER
309
CELLSTYLE_END
300
CELLSTYLE
  1
TABLEFORMAT_BEGIN
 90
        5
170
     1
 91
        0
 92
        0
 62
   257
 93
        1
300
CONTENTFORMAT
  1
CONTENTFORMAT_BEGIN
 90
        0
 91
        0
 92
      512
 93
        0
300

 40
0.0
140
1.0
 94
        2
 62
     0
340
16E8F
144
0.18
309
CONTENTFORMAT_END
171
     0
 94
        0
309
TABLEFORMAT_END
  1
CELLSTYLE_BEGIN
 90
        3
 91
        2
300
_DATA
309
CELLSTYLE_END
  0
XRECORD
  5
171E7
102
{ACAD_REACTORS
330
171B0
102
}
330
171B0
100
AcDbXrecord
280
     1
102
ACAD_ROUNDTRIP_PRE2007_TABLESTYLE
 90
      512
 91
        0
  1

 92
      512
 93
        0
  2

 94
      512
 95
        0
  3

  0
XRECORD
  5
171C2
102
{ACAD_REACTORS
330
171C1
102
}
330
171C1
100
AcDbXrecord
280
     1
102
RTVSPost2010Prop28
280
     1
102
RTVSPost2010PropOp28
 70
     1
102
RTVSPost2010Prop29
280
     1
102
RTVSPost2010PropOp29
 70
     1
102
RTVSPost2010Prop30
280
     0
102
RTVSPost2010PropOp30
 70
     1
102
RTVSPost2010Prop31
280
     0
102
RTVSPost2010PropOp31
 70
     1
102
RTVSPost2010Prop32
280
     0
102
RTVSPost2010PropOp32
 70
     1
102
RTVSPost2010Prop33
280
     0
102
RTVSPost2010PropOp33
 70
     1
102
RTVSPost2010Prop34
280
     0
102
RTVSPost2010PropOp34
 70
     1
102
RTVSPost2010Prop35
280
     0
102
RTVSPost2010PropOp35
 70
     1
102
RTVSPost2010Prop36
280
     0
102
RTVSPost2010PropOp36
 70
     1
102
RTVSPost2010Prop37
 90
       50
102
RTVSPost2010PropOp37
 70
     1
102
RTVSPost2010Prop38
140
0.0
102
RTVSPost2010PropOp38
 70
     1
102
RTVSPost2010Prop39
140
1.0
102
RTVSPost2010PropOp39
 70
     1
102
RTVSPost2010Prop40
 90
        0
102
RTVSPost2010PropOp40
 70
     1
102
RTVSPost2010Prop41ColorIndex
 90
       18
102
RTVSPost2010Prop41ColorRGB
 90
        0
102
RTVSPost2010PropOp41
 70
     1
102
RTVSPost2010Prop42
 90
       50
102
RTVSPost2010PropOp42
 70
     1
102
RTVSPost2010Prop43
 90
        3
102
RTVSPost2010PropOp43
 70
     1
102
RTVSPost2010Prop44ColorIndex
 90
        5
102
RTVSPost2010Prop44ColorRGB
 90
      255
102
RTVSPost2010PropOp44
 70
     1
102
RTVSPost2010Prop45
280
     0
102
RTVSPost2010PropOp45
 70
     1
102
RTVSPost2010Prop46
 90
       50
102
RTVSPost2010PropOp46
 70
     1
102
RTVSPost2010Prop47
 90
       50
102
RTVSPost2010PropOp47
 70
     1
102
RTVSPost2010Prop48
 90
       50
102
RTVSPost2010PropOp48
 70
     1
102
RTVSPost2010Prop49
280
     0
102
RTVSPost2010PropOp49
 70
     1
102
RTVSPost2010Prop50
 90
       50
102
RTVSPost2010PropOp50
 70
     1
102
RTVSPost2010Prop51ColorIndex
 90
      256
102
RTVSPost2010Prop51ColorRGB
 90
-16777216
102
RTVSPost2010PropOp51
 70
     0
102
RTVSPost2010Prop52
140
1.0
102
RTVSPost2010PropOp52
 70
     0
102
RTVSPost2010Prop53
 90
        2
102
RTVSPost2010PropOp53
 70
     1
102
RTVSPost2010Prop54
  1
strokes_ogs.tif
102
RTVSPost2010PropOp54
 70
     1
102
RTVSPost2010Prop55
280
     0
102
RTVSPost2010PropOp55
 70
     1
102
RTVSPost2010Prop56
140
1.0
102
RTVSPost2010PropOp56
 70
     1
102
RTVSPost2010Prop57
140
1.0
102
RTVSPost2010PropOp57
 70
     1
102
RTVSPropertyOp0
 70
     1
102
RTVSPropertyOp1
 70
     1
102
RTVSPropertyOp2
 70
     1
102
RTVSPropertyOp3
 70
     1
102
RTVSPropertyOp4
 70
     1
102
RTVSPropertyOp5
 70
     1
102
RTVSPropertyOp6
 70
     1
102
RTVSPropertyOp7
 70
     1
102
RTVSPropertyOp8
 70
     1
102
RTVSPropertyOp9
 70
     1
102
RTVSPropertyOp10
 70
     1
102
RTVSPropertyOp11
 70
     1
102
RTVSPropertyOp12
 70
     1
102
RTVSPropertyOp13
 70
     1
102
RTVSPropertyOp14
 70
     1
102
RTVSPropertyOp15
 70
     1
102
RTVSPropertyOp16
 70
     1
102
RTVSPropertyOp17
 70
     1
102
RTVSPropertyOp18
 70
     1
102
RTVSPropertyOp19
 70
     1
102
RTVSPropertyOp20
 70
     1
102
RTVSPropertyOp21
 70
     1
102
RTVSPropertyOp22
 70
     1
102
RTVSPropertyOp23
 70
     1
102
RTVSPropertyOp24
 70
     1
102
RTVSPropertyOp25
 70
     1
102
RTVSPropertyOp26
 70
     1
102
RTVSPropertyOp27
 70
     1
102
RTVSPropertyOp28
 70
     1
102
RTVSPropertyOp29
 70
     1
102
RTVSPropertyOp30
 70
     1
102
RTVSPropertyOp31
 70
     1
102
RTVSPropertyOp32
 70
     1
102
RTVSPropertyOp33
 70
     1
102
RTVSPropertyOp34
 70
     1
102
RTVSPropertyOp35
 70
     1
102
RTVSPropertyOp36
 70
     1
102
RTVSPropertyOp37
 70
     1
102
RTVSPropertyOp38
 70
     1
102
RTVSPropertyOp39
 70
     1
102
RTVSPropertyOp40
 70
     1
102
RTVSPropertyOp41
 70
     1
102
RTVSPropertyOp42
 70
     1
102
RTVSPropertyOp43
 70
     1
102
RTVSPropertyOp44
 70
     1
102
RTVSPropertyOp45
 70
     1
102
RTVSPropertyOp46
 70
     1
102
RTVSPropertyOp47
 70
     1
102
RTVSPropertyOp48
 70
     1
102
RTVSPropertyOp49
 70
     1
102
RTVSPropertyOp50
 70
     1
102
RTVSPropertyOp51
 70
     0
102
RTVSPropertyOp52
 70
     0
102
RTVSPropertyOp53
 70
     1
102
RTVSPropertyOp54
 70
     1
102
RTVSPropertyOp55
 70
     1
102
RTVSPropertyOp56
 70
     1
102
RTVSPropertyOp57
 70
     1
102
RTVSPropertyOp58
 70
     1
102
RTVSPropertyOp59
 70
     1
102
RTVSPropertyOp60
 70
     1
102
RTVSPropertyOp61
 70
     1
102
RTVSPropertyOp62
 70
     1
  0
XRECORD
  5
171C0
102
{ACAD_REACTORS
330
171BF
102
}
330
171BF
100
AcDbXrecord
280
     1
102
RTVSPost2010Prop28
280
     0
102
RTVSPost2010PropOp28
 70
     1
102
RTVSPost2010Prop29
280
     1
102
RTVSPost2010PropOp29
 70
     1
102
RTVSPost2010Prop30
280
     1
102
RTVSPost2010PropOp30
 70
     1
102
RTVSPost2010Prop31
280
     0
102
RTVSPost2010PropOp31
 70
     1
102
RTVSPost2010Prop32
280
     0
102
RTVSPost2010PropOp32
 70
     1
102
RTVSPost2010Prop33
280
     0
102
RTVSPost2010PropOp33
 70
     1
102
RTVSPost2010Prop34
280
     0
102
RTVSPost2010PropOp34
 70
     1
102
RTVSPost2010Prop35
280
     0
102
RTVSPost2010PropOp35
 70
     1
102
RTVSPost2010Prop36
280
     0
102
RTVSPost2010PropOp36
 70
     1
102
RTVSPost2010Prop37
 90
       50
102
RTVSPost2010PropOp37
 70
     1
102
RTVSPost2010Prop38
140
0.0
102
RTVSPost2010PropOp38
 70
     1
102
RTVSPost2010Prop39
140
1.0
102
RTVSPost2010PropOp39
 70
     1
102
RTVSPost2010Prop40
 90
        0
102
RTVSPost2010PropOp40
 70
     1
102
RTVSPost2010Prop41ColorIndex
 90
       18
102
RTVSPost2010Prop41ColorRGB
 90
        0
102
RTVSPost2010PropOp41
 70
     1
102
RTVSPost2010Prop42
 90
       50
102
RTVSPost2010PropOp42
 70
     1
102
RTVSPost2010Prop43
 90
        3
102
RTVSPost2010PropOp43
 70
     1
102
RTVSPost2010Prop44ColorIndex
 90
        5
102
RTVSPost2010Prop44ColorRGB
 90
      255
102
RTVSPost2010PropOp44
 70
     1
102
RTVSPost2010Prop45
280
     0
102
RTVSPost2010PropOp45
 70
     1
102
RTVSPost2010Prop46
 90
       50
102
RTVSPost2010PropOp46
 70
     1
102
RTVSPost2010Prop47
 90
       50
102
RTVSPost2010PropOp47
 70
     1
102
RTVSPost2010Prop48
 90
       50
102
RTVSPost2010PropOp48
 70
     1
102
RTVSPost2010Prop49
280
     0
102
RTVSPost2010PropOp49
 70
     1
102
RTVSPost2010Prop50
 90
       50
102
RTVSPost2010PropOp50
 70
     1
102
RTVSPost2010Prop51ColorIndex
 90
      256
102
RTVSPost2010Prop51ColorRGB
 90
-16777216
102
RTVSPost2010PropOp51
 70
     0
102
RTVSPost2010Prop52
140
1.0
102
RTVSPost2010PropOp52
 70
     0
102
RTVSPost2010Prop53
 90
        2
102
RTVSPost2010PropOp53
 70
     1
102
RTVSPost2010Prop54
  1
strokes_ogs.tif
102
RTVSPost2010PropOp54
 70
     1
102
RTVSPost2010Prop55
280
     0
102
RTVSPost2010PropOp55
 70
     1
102
RTVSPost2010Prop56
140
1.0
102
RTVSPost2010PropOp56
 70
     1
102
RTVSPost2010Prop57
140
1.0
102
RTVSPost2010PropOp57
 70
     1
102
RTVSPropertyOp0
 70
     1
102
RTVSPropertyOp1
 70
     1
102
RTVSPropertyOp2
 70
     1
102
RTVSPropertyOp3
 70
     1
102
RTVSPropertyOp4
 70
     1
102
RTVSPropertyOp5
 70
     1
102
RTVSPropertyOp6
 70
     1
102
RTVSPropertyOp7
 70
     1
102
RTVSPropertyOp8
 70
     1
102
RTVSPropertyOp9
 70
     1
102
RTVSPropertyOp10
 70
     1
102
RTVSPropertyOp11
 70
     1
102
RTVSPropertyOp12
 70
     1
102
RTVSPropertyOp13
 70
     1
102
RTVSPropertyOp14
 70
     1
102
RTVSPropertyOp15
 70
     1
102
RTVSPropertyOp16
 70
     1
102
RTVSPropertyOp17
 70
     1
102
RTVSPropertyOp18
 70
     1
102
RTVSPropertyOp19
 70
     1
102
RTVSPropertyOp20
 70
     1
102
RTVSPropertyOp21
 70
     1
102
RTVSPropertyOp22
 70
     1
102
RTVSPropertyOp23
 70
     1
102
RTVSPropertyOp24
 70
     1
102
RTVSPropertyOp25
 70
     1
102
RTVSPropertyOp26
 70
     1
102
RTVSPropertyOp27
 70
     1
102
RTVSPropertyOp28
 70
     1
102
RTVSPropertyOp29
 70
     1
102
RTVSPropertyOp30
 70
     1
102
RTVSPropertyOp31
 70
     1
102
RTVSPropertyOp32
 70
     1
102
RTVSPropertyOp33
 70
     1
102
RTVSPropertyOp34
 70
     1
102
RTVSPropertyOp35
 70
     1
102
RTVSPropertyOp36
 70
     1
102
RTVSPropertyOp37
 70
     1
102
RTVSPropertyOp38
 70
     1
102
RTVSPropertyOp39
 70
     1
102
RTVSPropertyOp40
 70
     1
102
RTVSPropertyOp41
 70
     1
102
RTVSPropertyOp42
 70
     1
102
RTVSPropertyOp43
 70
     1
102
RTVSPropertyOp44
 70
     1
102
RTVSPropertyOp45
 70
     1
102
RTVSPropertyOp46
 70
     1
102
RTVSPropertyOp47
 70
     1
102
RTVSPropertyOp48
 70
     1
102
RTVSPropertyOp49
 70
     1
102
RTVSPropertyOp50
 70
     1
102
RTVSPropertyOp51
 70
     0
102
RTVSPropertyOp52
 70
     0
102
RTVSPropertyOp53
 70
     1
102
RTVSPropertyOp54
 70
     1
102
RTVSPropertyOp55
 70
     1
102
RTVSPropertyOp56
 70
     1
102
RTVSPropertyOp57
 70
     1
102
RTVSPropertyOp58
 70
     1
102
RTVSPropertyOp59
 70
     1
102
RTVSPropertyOp60
 70
     1
102
RTVSPropertyOp61
 70
     1
102
RTVSPropertyOp62
 70
     1
  0
XRECORD
  5
171CE
102
{ACAD_REACTORS
330
171CD
102
}
330
171CD
100
AcDbXrecord
280
     1
102
RTVSPost2010Prop28
280
     0
102
RTVSPost2010PropOp28
 70
     1
102
RTVSPost2010Prop29
280
     1
102
RTVSPost2010PropOp29
 70
     1
102
RTVSPost2010Prop30
280
     1
102
RTVSPost2010PropOp30
 70
     1
102
RTVSPost2010Prop31
280
     0
102
RTVSPost2010PropOp31
 70
     1
102
RTVSPost2010Prop32
280
     0
102
RTVSPost2010PropOp32
 70
     1
102
RTVSPost2010Prop33
280
     0
102
RTVSPost2010PropOp33
 70
     1
102
RTVSPost2010Prop34
280
     0
102
RTVSPost2010PropOp34
 70
     1
102
RTVSPost2010Prop35
280
     0
102
RTVSPost2010PropOp35
 70
     1
102
RTVSPost2010Prop36
280
     0
102
RTVSPost2010PropOp36
 70
     1
102
RTVSPost2010Prop37
 90
       50
102
RTVSPost2010PropOp37
 70
     1
102
RTVSPost2010Prop38
140
0.0
102
RTVSPost2010PropOp38
 70
     1
102
RTVSPost2010Prop39
140
1.0
102
RTVSPost2010PropOp39
 70
     1
102
RTVSPost2010Prop40
 90
        0
102
RTVSPost2010PropOp40
 70
     1
102
RTVSPost2010Prop41ColorIndex
 90
       18
102
RTVSPost2010Prop41ColorRGB
 90
        0
102
RTVSPost2010PropOp41
 70
     1
102
RTVSPost2010Prop42
 90
       50
102
RTVSPost2010PropOp42
 70
     1
102
RTVSPost2010Prop43
 90
        3
102
RTVSPost2010PropOp43
 70
     1
102
RTVSPost2010Prop44ColorIndex
 90
        5
102
RTVSPost2010Prop44ColorRGB
 90
      255
102
RTVSPost2010PropOp44
 70
     1
102
RTVSPost2010Prop45
280
     0
102
RTVSPost2010PropOp45
 70
     1
102
RTVSPost2010Prop46
 90
       50
102
RTVSPost2010PropOp46
 70
     1
102
RTVSPost2010Prop47
 90
       50
102
RTVSPost2010PropOp47
 70
     1
102
RTVSPost2010Prop48
 90
       50
102
RTVSPost2010PropOp48
 70
     1
102
RTVSPost2010Prop49
280
     0
102
RTVSPost2010PropOp49
 70
     1
102
RTVSPost2010Prop50
 90
       50
102
RTVSPost2010PropOp50
 70
     1
102
RTVSPost2010Prop51ColorIndex
 90
      256
102
RTVSPost2010Prop51ColorRGB
 90
-16777216
102
RTVSPost2010PropOp51
 70
     0
102
RTVSPost2010Prop52
140
1.0
102
RTVSPost2010PropOp52
 70
     0
102
RTVSPost2010Prop53
 90
        2
102
RTVSPost2010PropOp53
 70
     1
102
RTVSPost2010Prop54
  1
strokes_ogs.tif
102
RTVSPost2010PropOp54
 70
     1
102
RTVSPost2010Prop55
280
     0
102
RTVSPost2010PropOp55
 70
     1
102
RTVSPost2010Prop56
140
1.0
102
RTVSPost2010PropOp56
 70
     1
102
RTVSPost2010Prop57
140
1.0
102
RTVSPost2010PropOp57
 70
     1
102
RTVSPropertyOp0
 70
     1
102
RTVSPropertyOp1
 70
     1
102
RTVSPropertyOp2
 70
     1
102
RTVSPropertyOp3
 70
     1
102
RTVSPropertyOp4
 70
     1
102
RTVSPropertyOp5
 70
     1
102
RTVSPropertyOp6
 70
     1
102
RTVSPropertyOp7
 70
     1
102
RTVSPropertyOp8
 70
     1
102
RTVSPropertyOp9
 70
     1
102
RTVSPropertyOp10
 70
     1
102
RTVSPropertyOp11
 70
     1
102
RTVSPropertyOp12
 70
     1
102
RTVSPropertyOp13
 70
     1
102
RTVSPropertyOp14
 70
     1
102
RTVSPropertyOp15
 70
     1
102
RTVSPropertyOp16
 70
     1
102
RTVSPropertyOp17
 70
     1
102
RTVSPropertyOp18
 70
     1
102
RTVSPropertyOp19
 70
     1
102
RTVSPropertyOp20
 70
     1
102
RTVSPropertyOp21
 70
     1
102
RTVSPropertyOp22
 70
     1
102
RTVSPropertyOp23
 70
     1
102
RTVSPropertyOp24
 70
     1
102
RTVSPropertyOp25
 70
     1
102
RTVSPropertyOp26
 70
     1
102
RTVSPropertyOp27
 70
     1
102
RTVSPropertyOp28
 70
     1
102
RTVSPropertyOp29
 70
     1
102
RTVSPropertyOp30
 70
     1
102
RTVSPropertyOp31
 70
     1
102
RTVSPropertyOp32
 70
     1
102
RTVSPropertyOp33
 70
     1
102
RTVSPropertyOp34
 70
     1
102
RTVSPropertyOp35
 70
     1
102
RTVSPropertyOp36
 70
     1
102
RTVSPropertyOp37
 70
     1
102
RTVSPropertyOp38
 70
     1
102
RTVSPropertyOp39
 70
     1
102
RTVSPropertyOp40
 70
     1
102
RTVSPropertyOp41
 70
     1
102
RTVSPropertyOp42
 70
     1
102
RTVSPropertyOp43
 70
     1
102
RTVSPropertyOp44
 70
     1
102
RTVSPropertyOp45
 70
     1
102
RTVSPropertyOp46
 70
     1
102
RTVSPropertyOp47
 70
     1
102
RTVSPropertyOp48
 70
     1
102
RTVSPropertyOp49
 70
     1
102
RTVSPropertyOp50
 70
     1
102
RTVSPropertyOp51
 70
     0
102
RTVSPropertyOp52
 70
     0
102
RTVSPropertyOp53
 70
     1
102
RTVSPropertyOp54
 70
     1
102
RTVSPropertyOp55
 70
     1
102
RTVSPropertyOp56
 70
     1
102
RTVSPropertyOp57
 70
     1
102
RTVSPropertyOp58
 70
     1
102
RTVSPropertyOp59
 70
     1
102
RTVSPropertyOp60
 70
     1
102
RTVSPropertyOp61
 70
     1
102
RTVSPropertyOp62
 70
     1
  0
XRECORD
  5
171D6
102
{ACAD_REACTORS
330
171D5
102
}
330
171D5
100
AcDbXrecord
280
     1
102
RTVSPost2010Prop28
280
     0
102
RTVSPost2010PropOp28
 70
     1
102
RTVSPost2010Prop29
280
     1
102
RTVSPost2010PropOp29
 70
     1
102
RTVSPost2010Prop30
280
     1
102
RTVSPost2010PropOp30
 70
     1
102
RTVSPost2010Prop31
280
     0
102
RTVSPost2010PropOp31
 70
     1
102
RTVSPost2010Prop32
280
     0
102
RTVSPost2010PropOp32
 70
     1
102
RTVSPost2010Prop33
280
     0
102
RTVSPost2010PropOp33
 70
     1
102
RTVSPost2010Prop34
280
     0
102
RTVSPost2010PropOp34
 70
     1
102
RTVSPost2010Prop35
280
     0
102
RTVSPost2010PropOp35
 70
     1
102
RTVSPost2010Prop36
280
     0
102
RTVSPost2010PropOp36
 70
     1
102
RTVSPost2010Prop37
 90
       50
102
RTVSPost2010PropOp37
 70
     1
102
RTVSPost2010Prop38
140
0.0
102
RTVSPost2010PropOp38
 70
     1
102
RTVSPost2010Prop39
140
1.0
102
RTVSPost2010PropOp39
 70
     1
102
RTVSPost2010Prop40
 90
        0
102
RTVSPost2010PropOp40
 70
     1
102
RTVSPost2010Prop41ColorIndex
 90
       18
102
RTVSPost2010Prop41ColorRGB
 90
        0
102
RTVSPost2010PropOp41
 70
     1
102
RTVSPost2010Prop42
 90
       50
102
RTVSPost2010PropOp42
 70
     1
102
RTVSPost2010Prop43
 90
        3
102
RTVSPost2010PropOp43
 70
     1
102
RTVSPost2010Prop44ColorIndex
 90
        5
102
RTVSPost2010Prop44ColorRGB
 90
      255
102
RTVSPost2010PropOp44
 70
     1
102
RTVSPost2010Prop45
280
     0
102
RTVSPost2010PropOp45
 70
     1
102
RTVSPost2010Prop46
 90
       50
102
RTVSPost2010PropOp46
 70
     1
102
RTVSPost2010Prop47
 90
       50
102
RTVSPost2010PropOp47
 70
     1
102
RTVSPost2010Prop48
 90
       50
102
RTVSPost2010PropOp48
 70
     1
102
RTVSPost2010Prop49
280
     0
102
RTVSPost2010PropOp49
 70
     1
102
RTVSPost2010Prop50
 90
       50
102
RTVSPost2010PropOp50
 70
     1
102
RTVSPost2010Prop51ColorIndex
 90
      256
102
RTVSPost2010Prop51ColorRGB
 90
-16777216
102
RTVSPost2010PropOp51
 70
     0
102
RTVSPost2010Prop52
140
1.0
102
RTVSPost2010PropOp52
 70
     0
102
RTVSPost2010Prop53
 90
        2
102
RTVSPost2010PropOp53
 70
     1
102
RTVSPost2010Prop54
  1
strokes_ogs.tif
102
RTVSPost2010PropOp54
 70
     1
102
RTVSPost2010Prop55
280
     0
102
RTVSPost2010PropOp55
 70
     1
102
RTVSPost2010Prop56
140
1.0
102
RTVSPost2010PropOp56
 70
     1
102
RTVSPost2010Prop57
140
1.0
102
RTVSPost2010PropOp57
 70
     1
102
RTVSPropertyOp0
 70
     1
102
RTVSPropertyOp1
 70
     1
102
RTVSPropertyOp2
 70
     1
102
RTVSPropertyOp3
 70
     1
102
RTVSPropertyOp4
 70
     1
102
RTVSPropertyOp5
 70
     1
102
RTVSPropertyOp6
 70
     1
102
RTVSPropertyOp7
 70
     1
102
RTVSPropertyOp8
 70
     1
102
RTVSPropertyOp9
 70
     1
102
RTVSPropertyOp10
 70
     1
102
RTVSPropertyOp11
 70
     1
102
RTVSPropertyOp12
 70
     1
102
RTVSPropertyOp13
 70
     1
102
RTVSPropertyOp14
 70
     1
102
RTVSPropertyOp15
 70
     1
102
RTVSPropertyOp16
 70
     1
102
RTVSPropertyOp17
 70
     1
102
RTVSPropertyOp18
 70
     1
102
RTVSPropertyOp19
 70
     1
102
RTVSPropertyOp20
 70
     1
102
RTVSPropertyOp21
 70
     1
102
RTVSPropertyOp22
 70
     1
102
RTVSPropertyOp23
 70
     1
102
RTVSPropertyOp24
 70
     1
102
RTVSPropertyOp25
 70
     1
102
RTVSPropertyOp26
 70
     1
102
RTVSPropertyOp27
 70
     1
102
RTVSPropertyOp28
 70
     1
102
RTVSPropertyOp29
 70
     1
102
RTVSPropertyOp30
 70
     1
102
RTVSPropertyOp31
 70
     1
102
RTVSPropertyOp32
 70
     1
102
RTVSPropertyOp33
 70
     1
102
RTVSPropertyOp34
 70
     1
102
RTVSPropertyOp35
 70
     1
102
RTVSPropertyOp36
 70
     1
102
RTVSPropertyOp37
 70
     1
102
RTVSPropertyOp38
 70
     1
102
RTVSPropertyOp39
 70
     1
102
RTVSPropertyOp40
 70
     1
102
RTVSPropertyOp41
 70
     1
102
RTVSPropertyOp42
 70
     1
102
RTVSPropertyOp43
 70
     1
102
RTVSPropertyOp44
 70
     1
102
RTVSPropertyOp45
 70
     1
102
RTVSPropertyOp46
 70
     1
102
RTVSPropertyOp47
 70
     1
102
RTVSPropertyOp48
 70
     1
102
RTVSPropertyOp49
 70
     1
102
RTVSPropertyOp50
 70
     1
102
RTVSPropertyOp51
 70
     0
102
RTVSPropertyOp52
 70
     0
102
RTVSPropertyOp53
 70
     1
102
RTVSPropertyOp54
 70
     1
102
RTVSPropertyOp55
 70
     1
102
RTVSPropertyOp56
 70
     1
102
RTVSPropertyOp57
 70
     1
102
RTVSPropertyOp58
 70
     1
102
RTVSPropertyOp59
 70
     1
102
RTVSPropertyOp60
 70
     1
102
RTVSPropertyOp61
 70
     1
102
RTVSPropertyOp62
 70
     1
  0
XRECORD
  5
171C8
102
{ACAD_REACTORS
330
171C7
102
}
330
171C7
100
AcDbXrecord
280
     1
102
RTVSPost2010Prop28
280
     0
102
RTVSPost2010PropOp28
 70
     1
102
RTVSPost2010Prop29
280
     1
102
RTVSPost2010PropOp29
 70
     1
102
RTVSPost2010Prop30
280
     1
102
RTVSPost2010PropOp30
 70
     1
102
RTVSPost2010Prop31
280
     0
102
RTVSPost2010PropOp31
 70
     1
102
RTVSPost2010Prop32
280
     0
102
RTVSPost2010PropOp32
 70
     1
102
RTVSPost2010Prop33
280
     0
102
RTVSPost2010PropOp33
 70
     1
102
RTVSPost2010Prop34
280
     0
102
RTVSPost2010PropOp34
 70
     1
102
RTVSPost2010Prop35
280
     0
102
RTVSPost2010PropOp35
 70
     1
102
RTVSPost2010Prop36
280
     0
102
RTVSPost2010PropOp36
 70
     1
102
RTVSPost2010Prop37
 90
       50
102
RTVSPost2010PropOp37
 70
     1
102
RTVSPost2010Prop38
140
0.0
102
RTVSPost2010PropOp38
 70
     1
102
RTVSPost2010Prop39
140
1.0
102
RTVSPost2010PropOp39
 70
     1
102
RTVSPost2010Prop40
 90
        0
102
RTVSPost2010PropOp40
 70
     1
102
RTVSPost2010Prop41ColorIndex
 90
       18
102
RTVSPost2010Prop41ColorRGB
 90
        0
102
RTVSPost2010PropOp41
 70
     1
102
RTVSPost2010Prop42
 90
       50
102
RTVSPost2010PropOp42
 70
     1
102
RTVSPost2010Prop43
 90
        3
102
RTVSPost2010PropOp43
 70
     1
102
RTVSPost2010Prop44ColorIndex
 90
        5
102
RTVSPost2010Prop44ColorRGB
 90
      255
102
RTVSPost2010PropOp44
 70
     1
102
RTVSPost2010Prop45
280
     0
102
RTVSPost2010PropOp45
 70
     1
102
RTVSPost2010Prop46
 90
       50
102
RTVSPost2010PropOp46
 70
     1
102
RTVSPost2010Prop47
 90
       50
102
RTVSPost2010PropOp47
 70
     1
102
RTVSPost2010Prop48
 90
       50
102
RTVSPost2010PropOp48
 70
     1
102
RTVSPost2010Prop49
280
     0
102
RTVSPost2010PropOp49
 70
     1
102
RTVSPost2010Prop50
 90
       50
102
RTVSPost2010PropOp50
 70
     1
102
RTVSPost2010Prop51ColorIndex
 90
      256
102
RTVSPost2010Prop51ColorRGB
 90
-16777216
102
RTVSPost2010PropOp51
 70
     0
102
RTVSPost2010Prop52
140
1.0
102
RTVSPost2010PropOp52
 70
     0
102
RTVSPost2010Prop53
 90
        2
102
RTVSPost2010PropOp53
 70
     1
102
RTVSPost2010Prop54
  1
strokes_ogs.tif
102
RTVSPost2010PropOp54
 70
     1
102
RTVSPost2010Prop55
280
     0
102
RTVSPost2010PropOp55
 70
     1
102
RTVSPost2010Prop56
140
1.0
102
RTVSPost2010PropOp56
 70
     1
102
RTVSPost2010Prop57
140
1.0
102
RTVSPost2010PropOp57
 70
     1
102
RTVSPropertyOp0
 70
     1
102
RTVSPropertyOp1
 70
     1
102
RTVSPropertyOp2
 70
     1
102
RTVSPropertyOp3
 70
     1
102
RTVSPropertyOp4
 70
     1
102
RTVSPropertyOp5
 70
     1
102
RTVSPropertyOp6
 70
     1
102
RTVSPropertyOp7
 70
     1
102
RTVSPropertyOp8
 70
     1
102
RTVSPropertyOp9
 70
     1
102
RTVSPropertyOp10
 70
     1
102
RTVSPropertyOp11
 70
     1
102
RTVSPropertyOp12
 70
     1
102
RTVSPropertyOp13
 70
     1
102
RTVSPropertyOp14
 70
     1
102
RTVSPropertyOp15
 70
     1
102
RTVSPropertyOp16
 70
     1
102
RTVSPropertyOp17
 70
     1
102
RTVSPropertyOp18
 70
     1
102
RTVSPropertyOp19
 70
     1
102
RTVSPropertyOp20
 70
     1
102
RTVSPropertyOp21
 70
     1
102
RTVSPropertyOp22
 70
     1
102
RTVSPropertyOp23
 70
     1
102
RTVSPropertyOp24
 70
     1
102
RTVSPropertyOp25
 70
     1
102
RTVSPropertyOp26
 70
     1
102
RTVSPropertyOp27
 70
     1
102
RTVSPropertyOp28
 70
     1
102
RTVSPropertyOp29
 70
     1
102
RTVSPropertyOp30
 70
     1
102
RTVSPropertyOp31
 70
     1
102
RTVSPropertyOp32
 70
     1
102
RTVSPropertyOp33
 70
     1
102
RTVSPropertyOp34
 70
     1
102
RTVSPropertyOp35
 70
     1
102
RTVSPropertyOp36
 70
     1
102
RTVSPropertyOp37
 70
     1
102
RTVSPropertyOp38
 70
     1
102
RTVSPropertyOp39
 70
     1
102
RTVSPropertyOp40
 70
     1
102
RTVSPropertyOp41
 70
     1
102
RTVSPropertyOp42
 70
     1
102
RTVSPropertyOp43
 70
     1
102
RTVSPropertyOp44
 70
     1
102
RTVSPropertyOp45
 70
     1
102
RTVSPropertyOp46
 70
     1
102
RTVSPropertyOp47
 70
     1
102
RTVSPropertyOp48
 70
     1
102
RTVSPropertyOp49
 70
     1
102
RTVSPropertyOp50
 70
     1
102
RTVSPropertyOp51
 70
     0
102
RTVSPropertyOp52
 70
     0
102
RTVSPropertyOp53
 70
     1
102
RTVSPropertyOp54
 70
     1
102
RTVSPropertyOp55
 70
     1
102
RTVSPropertyOp56
 70
     1
102
RTVSPropertyOp57
 70
     1
102
RTVSPropertyOp58
 70
     1
102
RTVSPropertyOp59
 70
     1
102
RTVSPropertyOp60
 70
     1
102
RTVSPropertyOp61
 70
     1
102
RTVSPropertyOp62
 70
     1
  0
XRECORD
  5
171CC
102
{ACAD_REACTORS
330
171CB
102
}
330
171CB
100
AcDbXrecord
280
     1
102
RTVSPost2010Prop28
280
     0
102
RTVSPost2010PropOp28
 70
     1
102
RTVSPost2010Prop29
280
     1
102
RTVSPost2010PropOp29
 70
     1
102
RTVSPost2010Prop30
280
     1
102
RTVSPost2010PropOp30
 70
     1
102
RTVSPost2010Prop31
280
     0
102
RTVSPost2010PropOp31
 70
     1
102
RTVSPost2010Prop32
280
     0
102
RTVSPost2010PropOp32
 70
     1
102
RTVSPost2010Prop33
280
     0
102
RTVSPost2010PropOp33
 70
     1
102
RTVSPost2010Prop34
280
     0
102
RTVSPost2010PropOp34
 70
     1
102
RTVSPost2010Prop35
280
     0
102
RTVSPost2010PropOp35
 70
     1
102
RTVSPost2010Prop36
280
     0
102
RTVSPost2010PropOp36
 70
     1
102
RTVSPost2010Prop37
 90
       50
102
RTVSPost2010PropOp37
 70
     1
102
RTVSPost2010Prop38
140
0.0
102
RTVSPost2010PropOp38
 70
     1
102
RTVSPost2010Prop39
140
1.0
102
RTVSPost2010PropOp39
 70
     1
102
RTVSPost2010Prop40
 90
        0
102
RTVSPost2010PropOp40
 70
     1
102
RTVSPost2010Prop41ColorIndex
 90
       18
102
RTVSPost2010Prop41ColorRGB
 90
        0
102
RTVSPost2010PropOp41
 70
     1
102
RTVSPost2010Prop42
 90
       50
102
RTVSPost2010PropOp42
 70
     1
102
RTVSPost2010Prop43
 90
        3
102
RTVSPost2010PropOp43
 70
     1
102
RTVSPost2010Prop44ColorIndex
 90
        5
102
RTVSPost2010Prop44ColorRGB
 90
      255
102
RTVSPost2010PropOp44
 70
     1
102
RTVSPost2010Prop45
280
     0
102
RTVSPost2010PropOp45
 70
     1
102
RTVSPost2010Prop46
 90
       50
102
RTVSPost2010PropOp46
 70
     1
102
RTVSPost2010Prop47
 90
       50
102
RTVSPost2010PropOp47
 70
     1
102
RTVSPost2010Prop48
 90
       50
102
RTVSPost2010PropOp48
 70
     1
102
RTVSPost2010Prop49
280
     0
102
RTVSPost2010PropOp49
 70
     1
102
RTVSPost2010Prop50
 90
       50
102
RTVSPost2010PropOp50
 70
     1
102
RTVSPost2010Prop51ColorIndex
 90
      256
102
RTVSPost2010Prop51ColorRGB
 90
-16777216
102
RTVSPost2010PropOp51
 70
     0
102
RTVSPost2010Prop52
140
1.0
102
RTVSPost2010PropOp52
 70
     0
102
RTVSPost2010Prop53
 90
        2
102
RTVSPost2010PropOp53
 70
     1
102
RTVSPost2010Prop54
  1
strokes_ogs.tif
102
RTVSPost2010PropOp54
 70
     1
102
RTVSPost2010Prop55
280
     0
102
RTVSPost2010PropOp55
 70
     1
102
RTVSPost2010Prop56
140
1.0
102
RTVSPost2010PropOp56
 70
     1
102
RTVSPost2010Prop57
140
1.0
102
RTVSPost2010PropOp57
 70
     1
102
RTVSPropertyOp0
 70
     1
102
RTVSPropertyOp1
 70
     1
102
RTVSPropertyOp2
 70
     1
102
RTVSPropertyOp3
 70
     1
102
RTVSPropertyOp4
 70
     1
102
RTVSPropertyOp5
 70
     1
102
RTVSPropertyOp6
 70
     1
102
RTVSPropertyOp7
 70
     1
102
RTVSPropertyOp8
 70
     1
102
RTVSPropertyOp9
 70
     1
102
RTVSPropertyOp10
 70
     1
102
RTVSPropertyOp11
 70
     1
102
RTVSPropertyOp12
 70
     1
102
RTVSPropertyOp13
 70
     1
102
RTVSPropertyOp14
 70
     1
102
RTVSPropertyOp15
 70
     1
102
RTVSPropertyOp16
 70
     1
102
RTVSPropertyOp17
 70
     1
102
RTVSPropertyOp18
 70
     1
102
RTVSPropertyOp19
 70
     1
102
RTVSPropertyOp20
 70
     1
102
RTVSPropertyOp21
 70
     1
102
RTVSPropertyOp22
 70
     1
102
RTVSPropertyOp23
 70
     1
102
RTVSPropertyOp24
 70
     1
102
RTVSPropertyOp25
 70
     1
102
RTVSPropertyOp26
 70
     1
102
RTVSPropertyOp27
 70
     1
102
RTVSPropertyOp28
 70
     1
102
RTVSPropertyOp29
 70
     1
102
RTVSPropertyOp30
 70
     1
102
RTVSPropertyOp31
 70
     1
102
RTVSPropertyOp32
 70
     1
102
RTVSPropertyOp33
 70
     1
102
RTVSPropertyOp34
 70
     1
102
RTVSPropertyOp35
 70
     1
102
RTVSPropertyOp36
 70
     1
102
RTVSPropertyOp37
 70
     1
102
RTVSPropertyOp38
 70
     1
102
RTVSPropertyOp39
 70
     1
102
RTVSPropertyOp40
 70
     1
102
RTVSPropertyOp41
 70
     1
102
RTVSPropertyOp42
 70
     1
102
RTVSPropertyOp43
 70
     1
102
RTVSPropertyOp44
 70
     1
102
RTVSPropertyOp45
 70
     1
102
RTVSPropertyOp46
 70
     1
102
RTVSPropertyOp47
 70
     1
102
RTVSPropertyOp48
 70
     1
102
RTVSPropertyOp49
 70
     1
102
RTVSPropertyOp50
 70
     1
102
RTVSPropertyOp51
 70
     0
102
RTVSPropertyOp52
 70
     0
102
RTVSPropertyOp53
 70
     1
102
RTVSPropertyOp54
 70
     1
102
RTVSPropertyOp55
 70
     1
102
RTVSPropertyOp56
 70
     1
102
RTVSPropertyOp57
 70
     1
102
RTVSPropertyOp58
 70
     1
102
RTVSPropertyOp59
 70
     1
102
RTVSPropertyOp60
 70
     1
102
RTVSPropertyOp61
 70
     1
102
RTVSPropertyOp62
 70
     1
  0
XRECORD
  5
171E6
102
{ACAD_REACTORS
330
171E5
102
}
330
171E5
100
AcDbXrecord
280
     1
102
RTVSPost2010Prop28
280
     0
102
RTVSPost2010PropOp28
 70
     1
102
RTVSPost2010Prop29
280
     1
102
RTVSPost2010PropOp29
 70
     1
102
RTVSPost2010Prop30
280
     1
102
RTVSPost2010PropOp30
 70
     1
102
RTVSPost2010Prop31
280
     0
102
RTVSPost2010PropOp31
 70
     1
102
RTVSPost2010Prop32
280
     0
102
RTVSPost2010PropOp32
 70
     1
102
RTVSPost2010Prop33
280
     0
102
RTVSPost2010PropOp33
 70
     1
102
RTVSPost2010Prop34
280
     0
102
RTVSPost2010PropOp34
 70
     1
102
RTVSPost2010Prop35
280
     0
102
RTVSPost2010PropOp35
 70
     1
102
RTVSPost2010Prop36
280
     0
102
RTVSPost2010PropOp36
 70
     1
102
RTVSPost2010Prop37
 90
       50
102
RTVSPost2010PropOp37
 70
     0
102
RTVSPost2010Prop38
140
0.0
102
RTVSPost2010PropOp38
 70
     0
102
RTVSPost2010Prop39
140
1.0
102
RTVSPost2010PropOp39
 70
     0
102
RTVSPost2010Prop40
 90
        0
102
RTVSPost2010PropOp40
 70
     0
102
RTVSPost2010Prop41ColorIndex
 90
       18
102
RTVSPost2010Prop41ColorRGB
 90
        0
102
RTVSPost2010PropOp41
 70
     0
102
RTVSPost2010Prop42
 90
       50
102
RTVSPost2010PropOp42
 70
     0
102
RTVSPost2010Prop43
 90
        3
102
RTVSPost2010PropOp43
 70
     0
102
RTVSPost2010Prop44ColorIndex
 90
        5
102
RTVSPost2010Prop44ColorRGB
 90
      255
102
RTVSPost2010PropOp44
 70
     0
102
RTVSPost2010Prop45
280
     0
102
RTVSPost2010PropOp45
 70
     1
102
RTVSPost2010Prop46
 90
       50
102
RTVSPost2010PropOp46
 70
     0
102
RTVSPost2010Prop47
 90
       50
102
RTVSPost2010PropOp47
 70
     0
102
RTVSPost2010Prop48
 90
       50
102
RTVSPost2010PropOp48
 70
     0
102
RTVSPost2010Prop49
280
     0
102
RTVSPost2010PropOp49
 70
     1
102
RTVSPost2010Prop50
 90
       50
102
RTVSPost2010PropOp50
 70
     0
102
RTVSPost2010Prop51ColorIndex
 90
      256
102
RTVSPost2010Prop51ColorRGB
 90
-16777216
102
RTVSPost2010PropOp51
 70
     0
102
RTVSPost2010Prop52
140
1.0
102
RTVSPost2010PropOp52
 70
     0
102
RTVSPost2010Prop53
 90
        2
102
RTVSPost2010PropOp53
 70
     0
102
RTVSPost2010Prop54
  1
strokes_ogs.tif
102
RTVSPost2010PropOp54
 70
     0
102
RTVSPost2010Prop55
280
     0
102
RTVSPost2010PropOp55
 70
     1
102
RTVSPost2010Prop56
140
1.0
102
RTVSPost2010PropOp56
 70
     0
102
RTVSPost2010Prop57
140
1.0
102
RTVSPost2010PropOp57
 70
     0
102
RTVSPropertyOp0
 70
     0
102
RTVSPropertyOp1
 70
     0
102
RTVSPropertyOp2
 70
     0
102
RTVSPropertyOp3
 70
     0
102
RTVSPropertyOp4
 70
     0
102
RTVSPropertyOp5
 70
     0
102
RTVSPropertyOp6
 70
     0
102
RTVSPropertyOp7
 70
     0
102
RTVSPropertyOp8
 70
     0
102
RTVSPropertyOp9
 70
     0
102
RTVSPropertyOp10
 70
     0
102
RTVSPropertyOp11
 70
     0
102
RTVSPropertyOp12
 70
     0
102
RTVSPropertyOp13
 70
     0
102
RTVSPropertyOp14
 70
     2
102
RTVSPropertyOp15
 70
     0
102
RTVSPropertyOp16
 70
     0
102
RTVSPropertyOp17
 70
     0
102
RTVSPropertyOp18
 70
     0
102
RTVSPropertyOp19
 70
     0
102
RTVSPropertyOp20
 70
     0
102
RTVSPropertyOp21
 70
     0
102
RTVSPropertyOp22
 70
     0
102
RTVSPropertyOp23
 70
     0
102
RTVSPropertyOp24
 70
     0
102
RTVSPropertyOp25
 70
     0
102
RTVSPropertyOp26
 70
     0
102
RTVSPropertyOp27
 70
     0
102
RTVSPropertyOp28
 70
     1
102
RTVSPropertyOp29
 70
     1
102
RTVSPropertyOp30
 70
     1
102
RTVSPropertyOp31
 70
     1
102
RTVSPropertyOp32
 70
     1
102
RTVSPropertyOp33
 70
     1
102
RTVSPropertyOp34
 70
     1
102
RTVSPropertyOp35
 70
     1
102
RTVSPropertyOp36
 70
     1
102
RTVSPropertyOp37
 70
     0
102
RTVSPropertyOp38
 70
     0
102
RTVSPropertyOp39
 70
     0
102
RTVSPropertyOp40
 70
     0
102
RTVSPropertyOp41
 70
     0
102
RTVSPropertyOp42
 70
     0
102
RTVSPropertyOp43
 70
     0
102
RTVSPropertyOp44
 70
     0
102
RTVSPropertyOp45
 70
     1
102
RTVSPropertyOp46
 70
     0
102
RTVSPropertyOp47
 70
     0
102
RTVSPropertyOp48
 70
     0
102
RTVSPropertyOp49
 70
     1
102
RTVSPropertyOp50
 70
     0
102
RTVSPropertyOp51
 70
     0
102
RTVSPropertyOp52
 70
     0
102
RTVSPropertyOp53
 70
     0
102
RTVSPropertyOp54
 70
     0
102
RTVSPropertyOp55
 70
     1
102
RTVSPropertyOp56
 70
     0
102
RTVSPropertyOp57
 70
     0
102
RTVSPropertyOp58
 70
     0
102
RTVSPropertyOp59
 70
     0
102
RTVSPropertyOp60
 70
     0
102
RTVSPropertyOp61
 70
     0
102
RTVSPropertyOp62
 70
     0
  0
XRECORD
  5
171D4
102
{ACAD_REACTORS
330
171D3
102
}
330
171D3
100
AcDbXrecord
280
     1
102
RTVSPost2010Prop28
280
     0
102
RTVSPost2010PropOp28
 70
     1
102
RTVSPost2010Prop29
280
     1
102
RTVSPost2010PropOp29
 70
     1
102
RTVSPost2010Prop30
280
     1
102
RTVSPost2010PropOp30
 70
     1
102
RTVSPost2010Prop31
280
     0
102
RTVSPost2010PropOp31
 70
     1
102
RTVSPost2010Prop32
280
     0
102
RTVSPost2010PropOp32
 70
     1
102
RTVSPost2010Prop33
280
     0
102
RTVSPost2010PropOp33
 70
     1
102
RTVSPost2010Prop34
280
     0
102
RTVSPost2010PropOp34
 70
     1
102
RTVSPost2010Prop35
280
     0
102
RTVSPost2010PropOp35
 70
     1
102
RTVSPost2010Prop36
280
     0
102
RTVSPost2010PropOp36
 70
     1
102
RTVSPost2010Prop37
 90
       50
102
RTVSPost2010PropOp37
 70
     1
102
RTVSPost2010Prop38
140
0.0
102
RTVSPost2010PropOp38
 70
     1
102
RTVSPost2010Prop39
140
1.0
102
RTVSPost2010PropOp39
 70
     1
102
RTVSPost2010Prop40
 90
        0
102
RTVSPost2010PropOp40
 70
     1
102
RTVSPost2010Prop41ColorIndex
 90
       18
102
RTVSPost2010Prop41ColorRGB
 90
        0
102
RTVSPost2010PropOp41
 70
     1
102
RTVSPost2010Prop42
 90
       50
102
RTVSPost2010PropOp42
 70
     1
102
RTVSPost2010Prop43
 90
        3
102
RTVSPost2010PropOp43
 70
     1
102
RTVSPost2010Prop44ColorIndex
 90
        5
102
RTVSPost2010Prop44ColorRGB
 90
      255
102
RTVSPost2010PropOp44
 70
     1
102
RTVSPost2010Prop45
280
     0
102
RTVSPost2010PropOp45
 70
     1
102
RTVSPost2010Prop46
 90
       50
102
RTVSPost2010PropOp46
 70
     1
102
RTVSPost2010Prop47
 90
       50
102
RTVSPost2010PropOp47
 70
     1
102
RTVSPost2010Prop48
 90
       50
102
RTVSPost2010PropOp48
 70
     1
102
RTVSPost2010Prop49
280
     0
102
RTVSPost2010PropOp49
 70
     1
102
RTVSPost2010Prop50
 90
       50
102
RTVSPost2010PropOp50
 70
     1
102
RTVSPost2010Prop51ColorIndex
 90
      256
102
RTVSPost2010Prop51ColorRGB
 90
-16777216
102
RTVSPost2010PropOp51
 70
     0
102
RTVSPost2010Prop52
140
1.0
102
RTVSPost2010PropOp52
 70
     0
102
RTVSPost2010Prop53
 90
        2
102
RTVSPost2010PropOp53
 70
     1
102
RTVSPost2010Prop54
  1
strokes_ogs.tif
102
RTVSPost2010PropOp54
 70
     1
102
RTVSPost2010Prop55
280
     0
102
RTVSPost2010PropOp55
 70
     1
102
RTVSPost2010Prop56
140
1.0
102
RTVSPost2010PropOp56
 70
     1
102
RTVSPost2010Prop57
140
1.0
102
RTVSPost2010PropOp57
 70
     1
102
RTVSPropertyOp0
 70
     1
102
RTVSPropertyOp1
 70
     1
102
RTVSPropertyOp2
 70
     1
102
RTVSPropertyOp3
 70
     1
102
RTVSPropertyOp4
 70
     1
102
RTVSPropertyOp5
 70
     1
102
RTVSPropertyOp6
 70
     1
102
RTVSPropertyOp7
 70
     1
102
RTVSPropertyOp8
 70
     1
102
RTVSPropertyOp9
 70
     1
102
RTVSPropertyOp10
 70
     1
102
RTVSPropertyOp11
 70
     1
102
RTVSPropertyOp12
 70
     1
102
RTVSPropertyOp13
 70
     1
102
RTVSPropertyOp14
 70
     1
102
RTVSPropertyOp15
 70
     1
102
RTVSPropertyOp16
 70
     1
102
RTVSPropertyOp17
 70
     1
102
RTVSPropertyOp18
 70
     1
102
RTVSPropertyOp19
 70
     1
102
RTVSPropertyOp20
 70
     1
102
RTVSPropertyOp21
 70
     1
102
RTVSPropertyOp22
 70
     1
102
RTVSPropertyOp23
 70
     1
102
RTVSPropertyOp24
 70
     1
102
RTVSPropertyOp25
 70
     1
102
RTVSPropertyOp26
 70
     1
102
RTVSPropertyOp27
 70
     1
102
RTVSPropertyOp28
 70
     1
102
RTVSPropertyOp29
 70
     1
102
RTVSPropertyOp30
 70
     1
102
RTVSPropertyOp31
 70
     1
102
RTVSPropertyOp32
 70
     1
102
RTVSPropertyOp33
 70
     1
102
RTVSPropertyOp34
 70
     1
102
RTVSPropertyOp35
 70
     1
102
RTVSPropertyOp36
 70
     1
102
RTVSPropertyOp37
 70
     1
102
RTVSPropertyOp38
 70
     1
102
RTVSPropertyOp39
 70
     1
102
RTVSPropertyOp40
 70
     1
102
RTVSPropertyOp41
 70
     1
102
RTVSPropertyOp42
 70
     1
102
RTVSPropertyOp43
 70
     1
102
RTVSPropertyOp44
 70
     1
102
RTVSPropertyOp45
 70
     1
102
RTVSPropertyOp46
 70
     1
102
RTVSPropertyOp47
 70
     1
102
RTVSPropertyOp48
 70
     1
102
RTVSPropertyOp49
 70
     1
102
RTVSPropertyOp50
 70
     1
102
RTVSPropertyOp51
 70
     0
102
RTVSPropertyOp52
 70
     0
102
RTVSPropertyOp53
 70
     1
102
RTVSPropertyOp54
 70
     1
102
RTVSPropertyOp55
 70
     1
102
RTVSPropertyOp56
 70
     1
102
RTVSPropertyOp57
 70
     1
102
RTVSPropertyOp58
 70
     1
102
RTVSPropertyOp59
 70
     1
102
RTVSPropertyOp60
 70
     1
102
RTVSPropertyOp61
 70
     1
102
RTVSPropertyOp62
 70
     1
  0
XRECORD
  5
171B8
102
{ACAD_REACTORS
330
171B7
102
}
330
171B7
100
AcDbXrecord
280
     1
102
RTVSPost2010Prop28
280
     0
102
RTVSPost2010PropOp28
 70
     1
102
RTVSPost2010Prop29
280
     1
102
RTVSPost2010PropOp29
 70
     1
102
RTVSPost2010Prop30
280
     1
102
RTVSPost2010PropOp30
 70
     1
102
RTVSPost2010Prop31
280
     0
102
RTVSPost2010PropOp31
 70
     1
102
RTVSPost2010Prop32
280
     0
102
RTVSPost2010PropOp32
 70
     1
102
RTVSPost2010Prop33
280
     0
102
RTVSPost2010PropOp33
 70
     1
102
RTVSPost2010Prop34
280
     0
102
RTVSPost2010PropOp34
 70
     1
102
RTVSPost2010Prop35
280
     0
102
RTVSPost2010PropOp35
 70
     1
102
RTVSPost2010Prop36
280
     0
102
RTVSPost2010PropOp36
 70
     1
102
RTVSPost2010Prop37
 90
       50
102
RTVSPost2010PropOp37
 70
     1
102
RTVSPost2010Prop38
140
0.0
102
RTVSPost2010PropOp38
 70
     1
102
RTVSPost2010Prop39
140
1.0
102
RTVSPost2010PropOp39
 70
     1
102
RTVSPost2010Prop40
 90
        0
102
RTVSPost2010PropOp40
 70
     1
102
RTVSPost2010Prop41ColorIndex
 90
       18
102
RTVSPost2010Prop41ColorRGB
 90
        0
102
RTVSPost2010PropOp41
 70
     1
102
RTVSPost2010Prop42
 90
       50
102
RTVSPost2010PropOp42
 70
     1
102
RTVSPost2010Prop43
 90
        3
102
RTVSPost2010PropOp43
 70
     1
102
RTVSPost2010Prop44ColorIndex
 90
        5
102
RTVSPost2010Prop44ColorRGB
 90
      255
102
RTVSPost2010PropOp44
 70
     1
102
RTVSPost2010Prop45
280
     0
102
RTVSPost2010PropOp45
 70
     1
102
RTVSPost2010Prop46
 90
       50
102
RTVSPost2010PropOp46
 70
     1
102
RTVSPost2010Prop47
 90
       50
102
RTVSPost2010PropOp47
 70
     1
102
RTVSPost2010Prop48
 90
       50
102
RTVSPost2010PropOp48
 70
     1
102
RTVSPost2010Prop49
280
     0
102
RTVSPost2010PropOp49
 70
     1
102
RTVSPost2010Prop50
 90
       50
102
RTVSPost2010PropOp50
 70
     1
102
RTVSPost2010Prop51ColorIndex
 90
      256
102
RTVSPost2010Prop51ColorRGB
 90
-16777216
102
RTVSPost2010PropOp51
 70
     0
102
RTVSPost2010Prop52
140
1.0
102
RTVSPost2010PropOp52
 70
     0
102
RTVSPost2010Prop53
 90
        2
102
RTVSPost2010PropOp53
 70
     1
102
RTVSPost2010Prop54
  1
strokes_ogs.tif
102
RTVSPost2010PropOp54
 70
     1
102
RTVSPost2010Prop55
280
     0
102
RTVSPost2010PropOp55
 70
     1
102
RTVSPost2010Prop56
140
1.0
102
RTVSPost2010PropOp56
 70
     1
102
RTVSPost2010Prop57
140
1.0
102
RTVSPost2010PropOp57
 70
     1
102
RTVSPropertyOp0
 70
     1
102
RTVSPropertyOp1
 70
     1
102
RTVSPropertyOp2
 70
     1
102
RTVSPropertyOp3
 70
     1
102
RTVSPropertyOp4
 70
     1
102
RTVSPropertyOp5
 70
     1
102
RTVSPropertyOp6
 70
     1
102
RTVSPropertyOp7
 70
     1
102
RTVSPropertyOp8
 70
     1
102
RTVSPropertyOp9
 70
     1
102
RTVSPropertyOp10
 70
     1
102
RTVSPropertyOp11
 70
     1
102
RTVSPropertyOp12
 70
     1
102
RTVSPropertyOp13
 70
     1
102
RTVSPropertyOp14
 70
     1
102
RTVSPropertyOp15
 70
     1
102
RTVSPropertyOp16
 70
     1
102
RTVSPropertyOp17
 70
     1
102
RTVSPropertyOp18
 70
     1
102
RTVSPropertyOp19
 70
     1
102
RTVSPropertyOp20
 70
     1
102
RTVSPropertyOp21
 70
     1
102
RTVSPropertyOp22
 70
     1
102
RTVSPropertyOp23
 70
     1
102
RTVSPropertyOp24
 70
     1
102
RTVSPropertyOp25
 70
     1
102
RTVSPropertyOp26
 70
     1
102
RTVSPropertyOp27
 70
     1
102
RTVSPropertyOp28
 70
     1
102
RTVSPropertyOp29
 70
     1
102
RTVSPropertyOp30
 70
     1
102
RTVSPropertyOp31
 70
     1
102
RTVSPropertyOp32
 70
     1
102
RTVSPropertyOp33
 70
     1
102
RTVSPropertyOp34
 70
     1
102
RTVSPropertyOp35
 70
     1
102
RTVSPropertyOp36
 70
     1
102
RTVSPropertyOp37
 70
     1
102
RTVSPropertyOp38
 70
     1
102
RTVSPropertyOp39
 70
     1
102
RTVSPropertyOp40
 70
     1
102
RTVSPropertyOp41
 70
     1
102
RTVSPropertyOp42
 70
     1
102
RTVSPropertyOp43
 70
     1
102
RTVSPropertyOp44
 70
     1
102
RTVSPropertyOp45
 70
     1
102
RTVSPropertyOp46
 70
     1
102
RTVSPropertyOp47
 70
     1
102
RTVSPropertyOp48
 70
     1
102
RTVSPropertyOp49
 70
     1
102
RTVSPropertyOp50
 70
     1
102
RTVSPropertyOp51
 70
     0
102
RTVSPropertyOp52
 70
     0
102
RTVSPropertyOp53
 70
     1
102
RTVSPropertyOp54
 70
     1
102
RTVSPropertyOp55
 70
     1
102
RTVSPropertyOp56
 70
     1
102
RTVSPropertyOp57
 70
     1
102
RTVSPropertyOp58
 70
     1
102
RTVSPropertyOp59
 70
     1
102
RTVSPropertyOp60
 70
     1
102
RTVSPropertyOp61
 70
     1
102
RTVSPropertyOp62
 70
     1
  0
XRECORD
  5
171BA
102
{ACAD_REACTORS
330
171B9
102
}
330
171B9
100
AcDbXrecord
280
     1
102
RTVSPost2010Prop28
280
     0
102
RTVSPost2010PropOp28
 70
     1
102
RTVSPost2010Prop29
280
     1
102
RTVSPost2010PropOp29
 70
     1
102
RTVSPost2010Prop30
280
     1
102
RTVSPost2010PropOp30
 70
     1
102
RTVSPost2010Prop31
280
     0
102
RTVSPost2010PropOp31
 70
     1
102
RTVSPost2010Prop32
280
     0
102
RTVSPost2010PropOp32
 70
     1
102
RTVSPost2010Prop33
280
     0
102
RTVSPost2010PropOp33
 70
     1
102
RTVSPost2010Prop34
280
     0
102
RTVSPost2010PropOp34
 70
     1
102
RTVSPost2010Prop35
280
     0
102
RTVSPost2010PropOp35
 70
     1
102
RTVSPost2010Prop36
280
     0
102
RTVSPost2010PropOp36
 70
     1
102
RTVSPost2010Prop37
 90
       50
102
RTVSPost2010PropOp37
 70
     1
102
RTVSPost2010Prop38
140
0.0
102
RTVSPost2010PropOp38
 70
     1
102
RTVSPost2010Prop39
140
1.0
102
RTVSPost2010PropOp39
 70
     1
102
RTVSPost2010Prop40
 90
        0
102
RTVSPost2010PropOp40
 70
     1
102
RTVSPost2010Prop41ColorIndex
 90
       18
102
RTVSPost2010Prop41ColorRGB
 90
        0
102
RTVSPost2010PropOp41
 70
     1
102
RTVSPost2010Prop42
 90
       50
102
RTVSPost2010PropOp42
 70
     1
102
RTVSPost2010Prop43
 90
        3
102
RTVSPost2010PropOp43
 70
     1
102
RTVSPost2010Prop44ColorIndex
 90
        5
102
RTVSPost2010Prop44ColorRGB
 90
      255
102
RTVSPost2010PropOp44
 70
     1
102
RTVSPost2010Prop45
280
     0
102
RTVSPost2010PropOp45
 70
     1
102
RTVSPost2010Prop46
 90
       50
102
RTVSPost2010PropOp46
 70
     1
102
RTVSPost2010Prop47
 90
       50
102
RTVSPost2010PropOp47
 70
     1
102
RTVSPost2010Prop48
 90
       50
102
RTVSPost2010PropOp48
 70
     1
102
RTVSPost2010Prop49
280
     0
102
RTVSPost2010PropOp49
 70
     1
102
RTVSPost2010Prop50
 90
       50
102
RTVSPost2010PropOp50
 70
     1
102
RTVSPost2010Prop51ColorIndex
 90
      256
102
RTVSPost2010Prop51ColorRGB
 90
-16777216
102
RTVSPost2010PropOp51
 70
     0
102
RTVSPost2010Prop52
140
1.0
102
RTVSPost2010PropOp52
 70
     0
102
RTVSPost2010Prop53
 90
        2
102
RTVSPost2010PropOp53
 70
     1
102
RTVSPost2010Prop54
  1
strokes_ogs.tif
102
RTVSPost2010PropOp54
 70
     1
102
RTVSPost2010Prop55
280
     0
102
RTVSPost2010PropOp55
 70
     1
102
RTVSPost2010Prop56
140
1.0
102
RTVSPost2010PropOp56
 70
     1
102
RTVSPost2010Prop57
140
1.0
102
RTVSPost2010PropOp57
 70
     1
102
RTVSPropertyOp0
 70
     1
102
RTVSPropertyOp1
 70
     1
102
RTVSPropertyOp2
 70
     1
102
RTVSPropertyOp3
 70
     1
102
RTVSPropertyOp4
 70
     1
102
RTVSPropertyOp5
 70
     1
102
RTVSPropertyOp6
 70
     1
102
RTVSPropertyOp7
 70
     1
102
RTVSPropertyOp8
 70
     1
102
RTVSPropertyOp9
 70
     1
102
RTVSPropertyOp10
 70
     1
102
RTVSPropertyOp11
 70
     1
102
RTVSPropertyOp12
 70
     1
102
RTVSPropertyOp13
 70
     1
102
RTVSPropertyOp14
 70
     1
102
RTVSPropertyOp15
 70
     1
102
RTVSPropertyOp16
 70
     1
102
RTVSPropertyOp17
 70
     1
102
RTVSPropertyOp18
 70
     1
102
RTVSPropertyOp19
 70
     1
102
RTVSPropertyOp20
 70
     1
102
RTVSPropertyOp21
 70
     1
102
RTVSPropertyOp22
 70
     1
102
RTVSPropertyOp23
 70
     1
102
RTVSPropertyOp24
 70
     1
102
RTVSPropertyOp25
 70
     1
102
RTVSPropertyOp26
 70
     1
102
RTVSPropertyOp27
 70
     1
102
RTVSPropertyOp28
 70
     1
102
RTVSPropertyOp29
 70
     1
102
RTVSPropertyOp30
 70
     1
102
RTVSPropertyOp31
 70
     1
102
RTVSPropertyOp32
 70
     1
102
RTVSPropertyOp33
 70
     1
102
RTVSPropertyOp34
 70
     1
102
RTVSPropertyOp35
 70
     1
102
RTVSPropertyOp36
 70
     1
102
RTVSPropertyOp37
 70
     1
102
RTVSPropertyOp38
 70
     1
102
RTVSPropertyOp39
 70
     1
102
RTVSPropertyOp40
 70
     1
102
RTVSPropertyOp41
 70
     1
102
RTVSPropertyOp42
 70
     1
102
RTVSPropertyOp43
 70
     1
102
RTVSPropertyOp44
 70
     1
102
RTVSPropertyOp45
 70
     1
102
RTVSPropertyOp46
 70
     1
102
RTVSPropertyOp47
 70
     1
102
RTVSPropertyOp48
 70
     1
102
RTVSPropertyOp49
 70
     1
102
RTVSPropertyOp50
 70
     1
102
RTVSPropertyOp51
 70
     0
102
RTVSPropertyOp52
 70
     0
102
RTVSPropertyOp53
 70
     1
102
RTVSPropertyOp54
 70
     1
102
RTVSPropertyOp55
 70
     1
102
RTVSPropertyOp56
 70
     1
102
RTVSPropertyOp57
 70
     1
102
RTVSPropertyOp58
 70
     1
102
RTVSPropertyOp59
 70
     1
102
RTVSPropertyOp60
 70
     1
102
RTVSPropertyOp61
 70
     1
102
RTVSPropertyOp62
 70
     1
  0
XRECORD
  5
171BC
102
{ACAD_REACTORS
330
171BB
102
}
330
171BB
100
AcDbXrecord
280
     1
102
RTVSPost2010Prop28
280
     0
102
RTVSPost2010PropOp28
 70
     1
102
RTVSPost2010Prop29
280
     1
102
RTVSPost2010PropOp29
 70
     1
102
RTVSPost2010Prop30
280
     1
102
RTVSPost2010PropOp30
 70
     1
102
RTVSPost2010Prop31
280
     0
102
RTVSPost2010PropOp31
 70
     1
102
RTVSPost2010Prop32
280
     0
102
RTVSPost2010PropOp32
 70
     1
102
RTVSPost2010Prop33
280
     0
102
RTVSPost2010PropOp33
 70
     1
102
RTVSPost2010Prop34
280
     0
102
RTVSPost2010PropOp34
 70
     1
102
RTVSPost2010Prop35
280
     0
102
RTVSPost2010PropOp35
 70
     1
102
RTVSPost2010Prop36
280
     0
102
RTVSPost2010PropOp36
 70
     1
102
RTVSPost2010Prop37
 90
       50
102
RTVSPost2010PropOp37
 70
     1
102
RTVSPost2010Prop38
140
0.0
102
RTVSPost2010PropOp38
 70
     1
102
RTVSPost2010Prop39
140
1.0
102
RTVSPost2010PropOp39
 70
     1
102
RTVSPost2010Prop40
 90
        0
102
RTVSPost2010PropOp40
 70
     1
102
RTVSPost2010Prop41ColorIndex
 90
       18
102
RTVSPost2010Prop41ColorRGB
 90
        0
102
RTVSPost2010PropOp41
 70
     1
102
RTVSPost2010Prop42
 90
       50
102
RTVSPost2010PropOp42
 70
     1
102
RTVSPost2010Prop43
 90
        3
102
RTVSPost2010PropOp43
 70
     1
102
RTVSPost2010Prop44ColorIndex
 90
        5
102
RTVSPost2010Prop44ColorRGB
 90
      255
102
RTVSPost2010PropOp44
 70
     1
102
RTVSPost2010Prop45
280
     0
102
RTVSPost2010PropOp45
 70
     1
102
RTVSPost2010Prop46
 90
       50
102
RTVSPost2010PropOp46
 70
     1
102
RTVSPost2010Prop47
 90
       50
102
RTVSPost2010PropOp47
 70
     1
102
RTVSPost2010Prop48
 90
       50
102
RTVSPost2010PropOp48
 70
     1
102
RTVSPost2010Prop49
280
     0
102
RTVSPost2010PropOp49
 70
     1
102
RTVSPost2010Prop50
 90
       50
102
RTVSPost2010PropOp50
 70
     1
102
RTVSPost2010Prop51ColorIndex
 90
      256
102
RTVSPost2010Prop51ColorRGB
 90
-16777216
102
RTVSPost2010PropOp51
 70
     0
102
RTVSPost2010Prop52
140
1.0
102
RTVSPost2010PropOp52
 70
     0
102
RTVSPost2010Prop53
 90
        2
102
RTVSPost2010PropOp53
 70
     1
102
RTVSPost2010Prop54
  1
strokes_ogs.tif
102
RTVSPost2010PropOp54
 70
     1
102
RTVSPost2010Prop55
280
     0
102
RTVSPost2010PropOp55
 70
     1
102
RTVSPost2010Prop56
140
1.0
102
RTVSPost2010PropOp56
 70
     1
102
RTVSPost2010Prop57
140
1.0
102
RTVSPost2010PropOp57
 70
     1
102
RTVSPropertyOp0
 70
     1
102
RTVSPropertyOp1
 70
     1
102
RTVSPropertyOp2
 70
     1
102
RTVSPropertyOp3
 70
     1
102
RTVSPropertyOp4
 70
     1
102
RTVSPropertyOp5
 70
     1
102
RTVSPropertyOp6
 70
     1
102
RTVSPropertyOp7
 70
     1
102
RTVSPropertyOp8
 70
     1
102
RTVSPropertyOp9
 70
     1
102
RTVSPropertyOp10
 70
     1
102
RTVSPropertyOp11
 70
     1
102
RTVSPropertyOp12
 70
     1
102
RTVSPropertyOp13
 70
     1
102
RTVSPropertyOp14
 70
     1
102
RTVSPropertyOp15
 70
     1
102
RTVSPropertyOp16
 70
     1
102
RTVSPropertyOp17
 70
     1
102
RTVSPropertyOp18
 70
     1
102
RTVSPropertyOp19
 70
     1
102
RTVSPropertyOp20
 70
     1
102
RTVSPropertyOp21
 70
     1
102
RTVSPropertyOp22
 70
     1
102
RTVSPropertyOp23
 70
     1
102
RTVSPropertyOp24
 70
     1
102
RTVSPropertyOp25
 70
     1
102
RTVSPropertyOp26
 70
     1
102
RTVSPropertyOp27
 70
     1
102
RTVSPropertyOp28
 70
     1
102
RTVSPropertyOp29
 70
     1
102
RTVSPropertyOp30
 70
     1
102
RTVSPropertyOp31
 70
     1
102
RTVSPropertyOp32
 70
     1
102
RTVSPropertyOp33
 70
     1
102
RTVSPropertyOp34
 70
     1
102
RTVSPropertyOp35
 70
     1
102
RTVSPropertyOp36
 70
     1
102
RTVSPropertyOp37
 70
     1
102
RTVSPropertyOp38
 70
     1
102
RTVSPropertyOp39
 70
     1
102
RTVSPropertyOp40
 70
     1
102
RTVSPropertyOp41
 70
     1
102
RTVSPropertyOp42
 70
     1
102
RTVSPropertyOp43
 70
     1
102
RTVSPropertyOp44
 70
     1
102
RTVSPropertyOp45
 70
     1
102
RTVSPropertyOp46
 70
     1
102
RTVSPropertyOp47
 70
     1
102
RTVSPropertyOp48
 70
     1
102
RTVSPropertyOp49
 70
     1
102
RTVSPropertyOp50
 70
     1
102
RTVSPropertyOp51
 70
     0
102
RTVSPropertyOp52
 70
     0
102
RTVSPropertyOp53
 70
     1
102
RTVSPropertyOp54
 70
     1
102
RTVSPropertyOp55
 70
     1
102
RTVSPropertyOp56
 70
     1
102
RTVSPropertyOp57
 70
     1
102
RTVSPropertyOp58
 70
     1
102
RTVSPropertyOp59
 70
     1
102
RTVSPropertyOp60
 70
     1
102
RTVSPropertyOp61
 70
     1
102
RTVSPropertyOp62
 70
     1
  0
XRECORD
  5
171BE
102
{ACAD_REACTORS
330
171BD
102
}
330
171BD
100
AcDbXrecord
280
     1
102
RTVSPost2010Prop28
280
     0
102
RTVSPost2010PropOp28
 70
     1
102
RTVSPost2010Prop29
280
     1
102
RTVSPost2010PropOp29
 70
     1
102
RTVSPost2010Prop30
280
     1
102
RTVSPost2010PropOp30
 70
     1
102
RTVSPost2010Prop31
280
     0
102
RTVSPost2010PropOp31
 70
     1
102
RTVSPost2010Prop32
280
     0
102
RTVSPost2010PropOp32
 70
     1
102
RTVSPost2010Prop33
280
     0
102
RTVSPost2010PropOp33
 70
     1
102
RTVSPost2010Prop34
280
     0
102
RTVSPost2010PropOp34
 70
     1
102
RTVSPost2010Prop35
280
     0
102
RTVSPost2010PropOp35
 70
     1
102
RTVSPost2010Prop36
280
     0
102
RTVSPost2010PropOp36
 70
     1
102
RTVSPost2010Prop37
 90
       50
102
RTVSPost2010PropOp37
 70
     1
102
RTVSPost2010Prop38
140
0.0
102
RTVSPost2010PropOp38
 70
     1
102
RTVSPost2010Prop39
140
1.0
102
RTVSPost2010PropOp39
 70
     1
102
RTVSPost2010Prop40
 90
        0
102
RTVSPost2010PropOp40
 70
     1
102
RTVSPost2010Prop41ColorIndex
 90
       18
102
RTVSPost2010Prop41ColorRGB
 90
        0
102
RTVSPost2010PropOp41
 70
     1
102
RTVSPost2010Prop42
 90
       50
102
RTVSPost2010PropOp42
 70
     1
102
RTVSPost2010Prop43
 90
        3
102
RTVSPost2010PropOp43
 70
     1
102
RTVSPost2010Prop44ColorIndex
 90
        5
102
RTVSPost2010Prop44ColorRGB
 90
      255
102
RTVSPost2010PropOp44
 70
     1
102
RTVSPost2010Prop45
280
     0
102
RTVSPost2010PropOp45
 70
     1
102
RTVSPost2010Prop46
 90
       50
102
RTVSPost2010PropOp46
 70
     1
102
RTVSPost2010Prop47
 90
       50
102
RTVSPost2010PropOp47
 70
     1
102
RTVSPost2010Prop48
 90
       50
102
RTVSPost2010PropOp48
 70
     1
102
RTVSPost2010Prop49
280
     0
102
RTVSPost2010PropOp49
 70
     1
102
RTVSPost2010Prop50
 90
       50
102
RTVSPost2010PropOp50
 70
     1
102
RTVSPost2010Prop51ColorIndex
 90
      256
102
RTVSPost2010Prop51ColorRGB
 90
-16777216
102
RTVSPost2010PropOp51
 70
     0
102
RTVSPost2010Prop52
140
1.0
102
RTVSPost2010PropOp52
 70
     0
102
RTVSPost2010Prop53
 90
        2
102
RTVSPost2010PropOp53
 70
     1
102
RTVSPost2010Prop54
  1
strokes_ogs.tif
102
RTVSPost2010PropOp54
 70
     1
102
RTVSPost2010Prop55
280
     0
102
RTVSPost2010PropOp55
 70
     1
102
RTVSPost2010Prop56
140
1.0
102
RTVSPost2010PropOp56
 70
     1
102
RTVSPost2010Prop57
140
1.0
102
RTVSPost2010PropOp57
 70
     1
102
RTVSPropertyOp0
 70
     1
102
RTVSPropertyOp1
 70
     1
102
RTVSPropertyOp2
 70
     1
102
RTVSPropertyOp3
 70
     1
102
RTVSPropertyOp4
 70
     1
102
RTVSPropertyOp5
 70
     1
102
RTVSPropertyOp6
 70
     1
102
RTVSPropertyOp7
 70
     1
102
RTVSPropertyOp8
 70
     1
102
RTVSPropertyOp9
 70
     1
102
RTVSPropertyOp10
 70
     1
102
RTVSPropertyOp11
 70
     1
102
RTVSPropertyOp12
 70
     1
102
RTVSPropertyOp13
 70
     1
102
RTVSPropertyOp14
 70
     1
102
RTVSPropertyOp15
 70
     1
102
RTVSPropertyOp16
 70
     1
102
RTVSPropertyOp17
 70
     1
102
RTVSPropertyOp18
 70
     1
102
RTVSPropertyOp19
 70
     1
102
RTVSPropertyOp20
 70
     1
102
RTVSPropertyOp21
 70
     1
102
RTVSPropertyOp22
 70
     1
102
RTVSPropertyOp23
 70
     1
102
RTVSPropertyOp24
 70
     1
102
RTVSPropertyOp25
 70
     1
102
RTVSPropertyOp26
 70
     1
102
RTVSPropertyOp27
 70
     1
102
RTVSPropertyOp28
 70
     1
102
RTVSPropertyOp29
 70
     1
102
RTVSPropertyOp30
 70
     1
102
RTVSPropertyOp31
 70
     1
102
RTVSPropertyOp32
 70
     1
102
RTVSPropertyOp33
 70
     1
102
RTVSPropertyOp34
 70
     1
102
RTVSPropertyOp35
 70
     1
102
RTVSPropertyOp36
 70
     1
102
RTVSPropertyOp37
 70
     1
102
RTVSPropertyOp38
 70
     1
102
RTVSPropertyOp39
 70
     1
102
RTVSPropertyOp40
 70
     1
102
RTVSPropertyOp41
 70
     1
102
RTVSPropertyOp42
 70
     1
102
RTVSPropertyOp43
 70
     1
102
RTVSPropertyOp44
 70
     1
102
RTVSPropertyOp45
 70
     1
102
RTVSPropertyOp46
 70
     1
102
RTVSPropertyOp47
 70
     1
102
RTVSPropertyOp48
 70
     1
102
RTVSPropertyOp49
 70
     1
102
RTVSPropertyOp50
 70
     1
102
RTVSPropertyOp51
 70
     0
102
RTVSPropertyOp52
 70
     0
102
RTVSPropertyOp53
 70
     1
102
RTVSPropertyOp54
 70
     1
102
RTVSPropertyOp55
 70
     1
102
RTVSPropertyOp56
 70
     1
102
RTVSPropertyOp57
 70
     1
102
RTVSPropertyOp58
 70
     1
102
RTVSPropertyOp59
 70
     1
102
RTVSPropertyOp60
 70
     1
102
RTVSPropertyOp61
 70
     1
102
RTVSPropertyOp62
 70
     1
  0
XRECORD
  5
171C6
102
{ACAD_REACTORS
330
171C5
102
}
330
171C5
100
AcDbXrecord
280
     1
102
RTVSPost2010Prop28
280
     0
102
RTVSPost2010PropOp28
 70
     1
102
RTVSPost2010Prop29
280
     1
102
RTVSPost2010PropOp29
 70
     1
102
RTVSPost2010Prop30
280
     1
102
RTVSPost2010PropOp30
 70
     1
102
RTVSPost2010Prop31
280
     0
102
RTVSPost2010PropOp31
 70
     1
102
RTVSPost2010Prop32
280
     0
102
RTVSPost2010PropOp32
 70
     1
102
RTVSPost2010Prop33
280
     0
102
RTVSPost2010PropOp33
 70
     1
102
RTVSPost2010Prop34
280
     0
102
RTVSPost2010PropOp34
 70
     1
102
RTVSPost2010Prop35
280
     0
102
RTVSPost2010PropOp35
 70
     1
102
RTVSPost2010Prop36
280
     0
102
RTVSPost2010PropOp36
 70
     1
102
RTVSPost2010Prop37
 90
       50
102
RTVSPost2010PropOp37
 70
     1
102
RTVSPost2010Prop38
140
0.0
102
RTVSPost2010PropOp38
 70
     1
102
RTVSPost2010Prop39
140
1.0
102
RTVSPost2010PropOp39
 70
     1
102
RTVSPost2010Prop40
 90
        0
102
RTVSPost2010PropOp40
 70
     1
102
RTVSPost2010Prop41ColorIndex
 90
       18
102
RTVSPost2010Prop41ColorRGB
 90
        0
102
RTVSPost2010PropOp41
 70
     1
102
RTVSPost2010Prop42
 90
       50
102
RTVSPost2010PropOp42
 70
     1
102
RTVSPost2010Prop43
 90
        3
102
RTVSPost2010PropOp43
 70
     1
102
RTVSPost2010Prop44ColorIndex
 90
        5
102
RTVSPost2010Prop44ColorRGB
 90
      255
102
RTVSPost2010PropOp44
 70
     1
102
RTVSPost2010Prop45
280
     0
102
RTVSPost2010PropOp45
 70
     1
102
RTVSPost2010Prop46
 90
       50
102
RTVSPost2010PropOp46
 70
     1
102
RTVSPost2010Prop47
 90
       50
102
RTVSPost2010PropOp47
 70
     1
102
RTVSPost2010Prop48
 90
       50
102
RTVSPost2010PropOp48
 70
     1
102
RTVSPost2010Prop49
280
     0
102
RTVSPost2010PropOp49
 70
     1
102
RTVSPost2010Prop50
 90
       50
102
RTVSPost2010PropOp50
 70
     1
102
RTVSPost2010Prop51ColorIndex
 90
      256
102
RTVSPost2010Prop51ColorRGB
 90
-16777216
102
RTVSPost2010PropOp51
 70
     0
102
RTVSPost2010Prop52
140
1.0
102
RTVSPost2010PropOp52
 70
     0
102
RTVSPost2010Prop53
 90
        2
102
RTVSPost2010PropOp53
 70
     1
102
RTVSPost2010Prop54
  1
strokes_ogs.tif
102
RTVSPost2010PropOp54
 70
     1
102
RTVSPost2010Prop55
280
     0
102
RTVSPost2010PropOp55
 70
     1
102
RTVSPost2010Prop56
140
1.0
102
RTVSPost2010PropOp56
 70
     1
102
RTVSPost2010Prop57
140
1.0
102
RTVSPost2010PropOp57
 70
     1
102
RTVSPropertyOp0
 70
     1
102
RTVSPropertyOp1
 70
     1
102
RTVSPropertyOp2
 70
     1
102
RTVSPropertyOp3
 70
     1
102
RTVSPropertyOp4
 70
     1
102
RTVSPropertyOp5
 70
     1
102
RTVSPropertyOp6
 70
     1
102
RTVSPropertyOp7
 70
     1
102
RTVSPropertyOp8
 70
     1
102
RTVSPropertyOp9
 70
     1
102
RTVSPropertyOp10
 70
     1
102
RTVSPropertyOp11
 70
     1
102
RTVSPropertyOp12
 70
     1
102
RTVSPropertyOp13
 70
     1
102
RTVSPropertyOp14
 70
     1
102
RTVSPropertyOp15
 70
     1
102
RTVSPropertyOp16
 70
     1
102
RTVSPropertyOp17
 70
     1
102
RTVSPropertyOp18
 70
     1
102
RTVSPropertyOp19
 70
     1
102
RTVSPropertyOp20
 70
     1
102
RTVSPropertyOp21
 70
     1
102
RTVSPropertyOp22
 70
     1
102
RTVSPropertyOp23
 70
     1
102
RTVSPropertyOp24
 70
     1
102
RTVSPropertyOp25
 70
     1
102
RTVSPropertyOp26
 70
     1
102
RTVSPropertyOp27
 70
     1
102
RTVSPropertyOp28
 70
     1
102
RTVSPropertyOp29
 70
     1
102
RTVSPropertyOp30
 70
     1
102
RTVSPropertyOp31
 70
     1
102
RTVSPropertyOp32
 70
     1
102
RTVSPropertyOp33
 70
     1
102
RTVSPropertyOp34
 70
     1
102
RTVSPropertyOp35
 70
     1
102
RTVSPropertyOp36
 70
     1
102
RTVSPropertyOp37
 70
     1
102
RTVSPropertyOp38
 70
     1
102
RTVSPropertyOp39
 70
     1
102
RTVSPropertyOp40
 70
     1
102
RTVSPropertyOp41
 70
     1
102
RTVSPropertyOp42
 70
     1
102
RTVSPropertyOp43
 70
     1
102
RTVSPropertyOp44
 70
     1
102
RTVSPropertyOp45
 70
     1
102
RTVSPropertyOp46
 70
     1
102
RTVSPropertyOp47
 70
     1
102
RTVSPropertyOp48
 70
     1
102
RTVSPropertyOp49
 70
     1
102
RTVSPropertyOp50
 70
     1
102
RTVSPropertyOp51
 70
     0
102
RTVSPropertyOp52
 70
     0
102
RTVSPropertyOp53
 70
     1
102
RTVSPropertyOp54
 70
     1
102
RTVSPropertyOp55
 70
     1
102
RTVSPropertyOp56
 70
     1
102
RTVSPropertyOp57
 70
     1
102
RTVSPropertyOp58
 70
     1
102
RTVSPropertyOp59
 70
     1
102
RTVSPropertyOp60
 70
     1
102
RTVSPropertyOp61
 70
     1
102
RTVSPropertyOp62
 70
     1
  0
XRECORD
  5
171E2
102
{ACAD_REACTORS
330
171E1
102
}
330
171E1
100
AcDbXrecord
280
     1
102
RTVSPost2010Prop28
280
     0
102
RTVSPost2010PropOp28
 70
     1
102
RTVSPost2010Prop29
280
     1
102
RTVSPost2010PropOp29
 70
     1
102
RTVSPost2010Prop30
280
     1
102
RTVSPost2010PropOp30
 70
     1
102
RTVSPost2010Prop31
280
     0
102
RTVSPost2010PropOp31
 70
     1
102
RTVSPost2010Prop32
280
     0
102
RTVSPost2010PropOp32
 70
     1
102
RTVSPost2010Prop33
280
     0
102
RTVSPost2010PropOp33
 70
     1
102
RTVSPost2010Prop34
280
     0
102
RTVSPost2010PropOp34
 70
     1
102
RTVSPost2010Prop35
280
     0
102
RTVSPost2010PropOp35
 70
     1
102
RTVSPost2010Prop36
280
     0
102
RTVSPost2010PropOp36
 70
     1
102
RTVSPost2010Prop37
 90
       50
102
RTVSPost2010PropOp37
 70
     0
102
RTVSPost2010Prop38
140
0.0
102
RTVSPost2010PropOp38
 70
     0
102
RTVSPost2010Prop39
140
1.0
102
RTVSPost2010PropOp39
 70
     0
102
RTVSPost2010Prop40
 90
        0
102
RTVSPost2010PropOp40
 70
     0
102
RTVSPost2010Prop41ColorIndex
 90
       18
102
RTVSPost2010Prop41ColorRGB
 90
        0
102
RTVSPost2010PropOp41
 70
     0
102
RTVSPost2010Prop42
 90
       50
102
RTVSPost2010PropOp42
 70
     0
102
RTVSPost2010Prop43
 90
        3
102
RTVSPost2010PropOp43
 70
     0
102
RTVSPost2010Prop44ColorIndex
 90
        5
102
RTVSPost2010Prop44ColorRGB
 90
      255
102
RTVSPost2010PropOp44
 70
     0
102
RTVSPost2010Prop45
280
     0
102
RTVSPost2010PropOp45
 70
     1
102
RTVSPost2010Prop46
 90
       50
102
RTVSPost2010PropOp46
 70
     0
102
RTVSPost2010Prop47
 90
       50
102
RTVSPost2010PropOp47
 70
     0
102
RTVSPost2010Prop48
 90
       50
102
RTVSPost2010PropOp48
 70
     0
102
RTVSPost2010Prop49
280
     0
102
RTVSPost2010PropOp49
 70
     1
102
RTVSPost2010Prop50
 90
       50
102
RTVSPost2010PropOp50
 70
     0
102
RTVSPost2010Prop51ColorIndex
 90
      256
102
RTVSPost2010Prop51ColorRGB
 90
-16777216
102
RTVSPost2010PropOp51
 70
     0
102
RTVSPost2010Prop52
140
1.0
102
RTVSPost2010PropOp52
 70
     0
102
RTVSPost2010Prop53
 90
        2
102
RTVSPost2010PropOp53
 70
     0
102
RTVSPost2010Prop54
  1
strokes_ogs.tif
102
RTVSPost2010PropOp54
 70
     0
102
RTVSPost2010Prop55
280
     0
102
RTVSPost2010PropOp55
 70
     1
102
RTVSPost2010Prop56
140
1.0
102
RTVSPost2010PropOp56
 70
     0
102
RTVSPost2010Prop57
140
1.0
102
RTVSPost2010PropOp57
 70
     0
102
RTVSPropertyOp0
 70
     0
102
RTVSPropertyOp1
 70
     0
102
RTVSPropertyOp2
 70
     0
102
RTVSPropertyOp3
 70
     0
102
RTVSPropertyOp4
 70
     0
102
RTVSPropertyOp5
 70
     0
102
RTVSPropertyOp6
 70
     0
102
RTVSPropertyOp7
 70
     0
102
RTVSPropertyOp8
 70
     0
102
RTVSPropertyOp9
 70
     0
102
RTVSPropertyOp10
 70
     0
102
RTVSPropertyOp11
 70
     0
102
RTVSPropertyOp12
 70
     0
102
RTVSPropertyOp13
 70
     0
102
RTVSPropertyOp14
 70
     2
102
RTVSPropertyOp15
 70
     0
102
RTVSPropertyOp16
 70
     0
102
RTVSPropertyOp17
 70
     0
102
RTVSPropertyOp18
 70
     0
102
RTVSPropertyOp19
 70
     0
102
RTVSPropertyOp20
 70
     0
102
RTVSPropertyOp21
 70
     0
102
RTVSPropertyOp22
 70
     0
102
RTVSPropertyOp23
 70
     0
102
RTVSPropertyOp24
 70
     0
102
RTVSPropertyOp25
 70
     0
102
RTVSPropertyOp26
 70
     0
102
RTVSPropertyOp27
 70
     0
102
RTVSPropertyOp28
 70
     1
102
RTVSPropertyOp29
 70
     1
102
RTVSPropertyOp30
 70
     1
102
RTVSPropertyOp31
 70
     1
102
RTVSPropertyOp32
 70
     1
102
RTVSPropertyOp33
 70
     1
102
RTVSPropertyOp34
 70
     1
102
RTVSPropertyOp35
 70
     1
102
RTVSPropertyOp36
 70
     1
102
RTVSPropertyOp37
 70
     0
102
RTVSPropertyOp38
 70
     0
102
RTVSPropertyOp39
 70
     0
102
RTVSPropertyOp40
 70
     0
102
RTVSPropertyOp41
 70
     0
102
RTVSPropertyOp42
 70
     0
102
RTVSPropertyOp43
 70
     0
102
RTVSPropertyOp44
 70
     0
102
RTVSPropertyOp45
 70
     1
102
RTVSPropertyOp46
 70
     0
102
RTVSPropertyOp47
 70
     0
102
RTVSPropertyOp48
 70
     0
102
RTVSPropertyOp49
 70
     1
102
RTVSPropertyOp50
 70
     0
102
RTVSPropertyOp51
 70
     0
102
RTVSPropertyOp52
 70
     0
102
RTVSPropertyOp53
 70
     0
102
RTVSPropertyOp54
 70
     0
102
RTVSPropertyOp55
 70
     1
102
RTVSPropertyOp56
 70
     0
102
RTVSPropertyOp57
 70
     0
102
RTVSPropertyOp58
 70
     0
102
RTVSPropertyOp59
 70
     0
102
RTVSPropertyOp60
 70
     0
102
RTVSPropertyOp61
 70
     0
102
RTVSPropertyOp62
 70
     0
  0
XRECORD
  5
171D2
102
{ACAD_REACTORS
330
171D1
102
}
330
171D1
100
AcDbXrecord
280
     1
102
RTVSPost2010Prop28
280
     0
102
RTVSPost2010PropOp28
 70
     1
102
RTVSPost2010Prop29
280
     1
102
RTVSPost2010PropOp29
 70
     1
102
RTVSPost2010Prop30
280
     1
102
RTVSPost2010PropOp30
 70
     1
102
RTVSPost2010Prop31
280
     0
102
RTVSPost2010PropOp31
 70
     1
102
RTVSPost2010Prop32
280
     0
102
RTVSPost2010PropOp32
 70
     1
102
RTVSPost2010Prop33
280
     0
102
RTVSPost2010PropOp33
 70
     1
102
RTVSPost2010Prop34
280
     0
102
RTVSPost2010PropOp34
 70
     1
102
RTVSPost2010Prop35
280
     0
102
RTVSPost2010PropOp35
 70
     1
102
RTVSPost2010Prop36
280
     0
102
RTVSPost2010PropOp36
 70
     1
102
RTVSPost2010Prop37
 90
       50
102
RTVSPost2010PropOp37
 70
     1
102
RTVSPost2010Prop38
140
0.0
102
RTVSPost2010PropOp38
 70
     1
102
RTVSPost2010Prop39
140
1.0
102
RTVSPost2010PropOp39
 70
     1
102
RTVSPost2010Prop40
 90
        0
102
RTVSPost2010PropOp40
 70
     1
102
RTVSPost2010Prop41ColorIndex
 90
       18
102
RTVSPost2010Prop41ColorRGB
 90
        0
102
RTVSPost2010PropOp41
 70
     1
102
RTVSPost2010Prop42
 90
       50
102
RTVSPost2010PropOp42
 70
     1
102
RTVSPost2010Prop43
 90
        3
102
RTVSPost2010PropOp43
 70
     1
102
RTVSPost2010Prop44ColorIndex
 90
        5
102
RTVSPost2010Prop44ColorRGB
 90
      255
102
RTVSPost2010PropOp44
 70
     1
102
RTVSPost2010Prop45
280
     0
102
RTVSPost2010PropOp45
 70
     1
102
RTVSPost2010Prop46
 90
       50
102
RTVSPost2010PropOp46
 70
     1
102
RTVSPost2010Prop47
 90
       50
102
RTVSPost2010PropOp47
 70
     1
102
RTVSPost2010Prop48
 90
       50
102
RTVSPost2010PropOp48
 70
     1
102
RTVSPost2010Prop49
280
     0
102
RTVSPost2010PropOp49
 70
     1
102
RTVSPost2010Prop50
 90
       50
102
RTVSPost2010PropOp50
 70
     1
102
RTVSPost2010Prop51ColorIndex
 90
      256
102
RTVSPost2010Prop51ColorRGB
 90
-16777216
102
RTVSPost2010PropOp51
 70
     0
102
RTVSPost2010Prop52
140
1.0
102
RTVSPost2010PropOp52
 70
     0
102
RTVSPost2010Prop53
 90
        2
102
RTVSPost2010PropOp53
 70
     1
102
RTVSPost2010Prop54
  1
strokes_ogs.tif
102
RTVSPost2010PropOp54
 70
     1
102
RTVSPost2010Prop55
280
     0
102
RTVSPost2010PropOp55
 70
     1
102
RTVSPost2010Prop56
140
1.0
102
RTVSPost2010PropOp56
 70
     1
102
RTVSPost2010Prop57
140
1.0
102
RTVSPost2010PropOp57
 70
     1
102
RTVSPropertyOp0
 70
     1
102
RTVSPropertyOp1
 70
     1
102
RTVSPropertyOp2
 70
     1
102
RTVSPropertyOp3
 70
     1
102
RTVSPropertyOp4
 70
     1
102
RTVSPropertyOp5
 70
     1
102
RTVSPropertyOp6
 70
     1
102
RTVSPropertyOp7
 70
     1
102
RTVSPropertyOp8
 70
     1
102
RTVSPropertyOp9
 70
     1
102
RTVSPropertyOp10
 70
     1
102
RTVSPropertyOp11
 70
     1
102
RTVSPropertyOp12
 70
     1
102
RTVSPropertyOp13
 70
     1
102
RTVSPropertyOp14
 70
     1
102
RTVSPropertyOp15
 70
     1
102
RTVSPropertyOp16
 70
     1
102
RTVSPropertyOp17
 70
     1
102
RTVSPropertyOp18
 70
     1
102
RTVSPropertyOp19
 70
     1
102
RTVSPropertyOp20
 70
     1
102
RTVSPropertyOp21
 70
     1
102
RTVSPropertyOp22
 70
     1
102
RTVSPropertyOp23
 70
     1
102
RTVSPropertyOp24
 70
     1
102
RTVSPropertyOp25
 70
     1
102
RTVSPropertyOp26
 70
     1
102
RTVSPropertyOp27
 70
     1
102
RTVSPropertyOp28
 70
     1
102
RTVSPropertyOp29
 70
     1
102
RTVSPropertyOp30
 70
     1
102
RTVSPropertyOp31
 70
     1
102
RTVSPropertyOp32
 70
     1
102
RTVSPropertyOp33
 70
     1
102
RTVSPropertyOp34
 70
     1
102
RTVSPropertyOp35
 70
     1
102
RTVSPropertyOp36
 70
     1
102
RTVSPropertyOp37
 70
     1
102
RTVSPropertyOp38
 70
     1
102
RTVSPropertyOp39
 70
     1
102
RTVSPropertyOp40
 70
     1
102
RTVSPropertyOp41
 70
     1
102
RTVSPropertyOp42
 70
     1
102
RTVSPropertyOp43
 70
     1
102
RTVSPropertyOp44
 70
     1
102
RTVSPropertyOp45
 70
     1
102
RTVSPropertyOp46
 70
     1
102
RTVSPropertyOp47
 70
     1
102
RTVSPropertyOp48
 70
     1
102
RTVSPropertyOp49
 70
     1
102
RTVSPropertyOp50
 70
     1
102
RTVSPropertyOp51
 70
     0
102
RTVSPropertyOp52
 70
     0
102
RTVSPropertyOp53
 70
     1
102
RTVSPropertyOp54
 70
     1
102
RTVSPropertyOp55
 70
     1
102
RTVSPropertyOp56
 70
     1
102
RTVSPropertyOp57
 70
     1
102
RTVSPropertyOp58
 70
     1
102
RTVSPropertyOp59
 70
     1
102
RTVSPropertyOp60
 70
     1
102
RTVSPropertyOp61
 70
     1
102
RTVSPropertyOp62
 70
     1
  0
XRECORD
  5
171E4
102
{ACAD_REACTORS
330
171E3
102
}
330
171E3
100
AcDbXrecord
280
     1
102
RTVSPost2010Prop28
280
     0
102
RTVSPost2010PropOp28
 70
     1
102
RTVSPost2010Prop29
280
     1
102
RTVSPost2010PropOp29
 70
     1
102
RTVSPost2010Prop30
280
     1
102
RTVSPost2010PropOp30
 70
     1
102
RTVSPost2010Prop31
280
     0
102
RTVSPost2010PropOp31
 70
     1
102
RTVSPost2010Prop32
280
     0
102
RTVSPost2010PropOp32
 70
     1
102
RTVSPost2010Prop33
280
     0
102
RTVSPost2010PropOp33
 70
     1
102
RTVSPost2010Prop34
280
     0
102
RTVSPost2010PropOp34
 70
     1
102
RTVSPost2010Prop35
280
     0
102
RTVSPost2010PropOp35
 70
     1
102
RTVSPost2010Prop36
280
     0
102
RTVSPost2010PropOp36
 70
     1
102
RTVSPost2010Prop37
 90
       50
102
RTVSPost2010PropOp37
 70
     0
102
RTVSPost2010Prop38
140
0.0
102
RTVSPost2010PropOp38
 70
     0
102
RTVSPost2010Prop39
140
1.0
102
RTVSPost2010PropOp39
 70
     0
102
RTVSPost2010Prop40
 90
        0
102
RTVSPost2010PropOp40
 70
     0
102
RTVSPost2010Prop41ColorIndex
 90
       18
102
RTVSPost2010Prop41ColorRGB
 90
        0
102
RTVSPost2010PropOp41
 70
     0
102
RTVSPost2010Prop42
 90
       50
102
RTVSPost2010PropOp42
 70
     0
102
RTVSPost2010Prop43
 90
        3
102
RTVSPost2010PropOp43
 70
     0
102
RTVSPost2010Prop44ColorIndex
 90
        5
102
RTVSPost2010Prop44ColorRGB
 90
      255
102
RTVSPost2010PropOp44
 70
     0
102
RTVSPost2010Prop45
280
     0
102
RTVSPost2010PropOp45
 70
     1
102
RTVSPost2010Prop46
 90
       50
102
RTVSPost2010PropOp46
 70
     0
102
RTVSPost2010Prop47
 90
       50
102
RTVSPost2010PropOp47
 70
     0
102
RTVSPost2010Prop48
 90
       50
102
RTVSPost2010PropOp48
 70
     0
102
RTVSPost2010Prop49
280
     0
102
RTVSPost2010PropOp49
 70
     1
102
RTVSPost2010Prop50
 90
       50
102
RTVSPost2010PropOp50
 70
     0
102
RTVSPost2010Prop51ColorIndex
 90
      256
102
RTVSPost2010Prop51ColorRGB
 90
-16777216
102
RTVSPost2010PropOp51
 70
     0
102
RTVSPost2010Prop52
140
1.0
102
RTVSPost2010PropOp52
 70
     0
102
RTVSPost2010Prop53
 90
        2
102
RTVSPost2010PropOp53
 70
     0
102
RTVSPost2010Prop54
  1
strokes_ogs.tif
102
RTVSPost2010PropOp54
 70
     0
102
RTVSPost2010Prop55
280
     0
102
RTVSPost2010PropOp55
 70
     1
102
RTVSPost2010Prop56
140
1.0
102
RTVSPost2010PropOp56
 70
     0
102
RTVSPost2010Prop57
140
1.0
102
RTVSPost2010PropOp57
 70
     0
102
RTVSPropertyOp0
 70
     0
102
RTVSPropertyOp1
 70
     0
102
RTVSPropertyOp2
 70
     0
102
RTVSPropertyOp3
 70
     0
102
RTVSPropertyOp4
 70
     0
102
RTVSPropertyOp5
 70
     0
102
RTVSPropertyOp6
 70
     0
102
RTVSPropertyOp7
 70
     0
102
RTVSPropertyOp8
 70
     0
102
RTVSPropertyOp9
 70
     0
102
RTVSPropertyOp10
 70
     0
102
RTVSPropertyOp11
 70
     0
102
RTVSPropertyOp12
 70
     0
102
RTVSPropertyOp13
 70
     0
102
RTVSPropertyOp14
 70
     2
102
RTVSPropertyOp15
 70
     0
102
RTVSPropertyOp16
 70
     0
102
RTVSPropertyOp17
 70
     0
102
RTVSPropertyOp18
 70
     0
102
RTVSPropertyOp19
 70
     0
102
RTVSPropertyOp20
 70
     0
102
RTVSPropertyOp21
 70
     0
102
RTVSPropertyOp22
 70
     0
102
RTVSPropertyOp23
 70
     0
102
RTVSPropertyOp24
 70
     0
102
RTVSPropertyOp25
 70
     0
102
RTVSPropertyOp26
 70
     0
102
RTVSPropertyOp27
 70
     0
102
RTVSPropertyOp28
 70
     1
102
RTVSPropertyOp29
 70
     1
102
RTVSPropertyOp30
 70
     1
102
RTVSPropertyOp31
 70
     1
102
RTVSPropertyOp32
 70
     1
102
RTVSPropertyOp33
 70
     1
102
RTVSPropertyOp34
 70
     1
102
RTVSPropertyOp35
 70
     1
102
RTVSPropertyOp36
 70
     1
102
RTVSPropertyOp37
 70
     0
102
RTVSPropertyOp38
 70
     0
102
RTVSPropertyOp39
 70
     0
102
RTVSPropertyOp40
 70
     0
102
RTVSPropertyOp41
 70
     0
102
RTVSPropertyOp42
 70
     0
102
RTVSPropertyOp43
 70
     0
102
RTVSPropertyOp44
 70
     0
102
RTVSPropertyOp45
 70
     1
102
RTVSPropertyOp46
 70
     0
102
RTVSPropertyOp47
 70
     0
102
RTVSPropertyOp48
 70
     0
102
RTVSPropertyOp49
 70
     1
102
RTVSPropertyOp50
 70
     0
102
RTVSPropertyOp51
 70
     0
102
RTVSPropertyOp52
 70
     0
102
RTVSPropertyOp53
 70
     0
102
RTVSPropertyOp54
 70
     0
102
RTVSPropertyOp55
 70
     1
102
RTVSPropertyOp56
 70
     0
102
RTVSPropertyOp57
 70
     0
102
RTVSPropertyOp58
 70
     0
102
RTVSPropertyOp59
 70
     0
102
RTVSPropertyOp60
 70
     0
102
RTVSPropertyOp61
 70
     0
102
RTVSPropertyOp62
 70
     0
  0
XRECORD
  5
171CA
102
{ACAD_REACTORS
330
171C9
102
}
330
171C9
100
AcDbXrecord
280
     1
102
RTVSPost2010Prop28
280
     0
102
RTVSPost2010PropOp28
 70
     1
102
RTVSPost2010Prop29
280
     1
102
RTVSPost2010PropOp29
 70
     1
102
RTVSPost2010Prop30
280
     1
102
RTVSPost2010PropOp30
 70
     1
102
RTVSPost2010Prop31
280
     0
102
RTVSPost2010PropOp31
 70
     1
102
RTVSPost2010Prop32
280
     0
102
RTVSPost2010PropOp32
 70
     1
102
RTVSPost2010Prop33
280
     0
102
RTVSPost2010PropOp33
 70
     1
102
RTVSPost2010Prop34
280
     0
102
RTVSPost2010PropOp34
 70
     1
102
RTVSPost2010Prop35
280
     0
102
RTVSPost2010PropOp35
 70
     1
102
RTVSPost2010Prop36
280
     0
102
RTVSPost2010PropOp36
 70
     1
102
RTVSPost2010Prop37
 90
       50
102
RTVSPost2010PropOp37
 70
     1
102
RTVSPost2010Prop38
140
0.0
102
RTVSPost2010PropOp38
 70
     1
102
RTVSPost2010Prop39
140
1.0
102
RTVSPost2010PropOp39
 70
     1
102
RTVSPost2010Prop40
 90
        0
102
RTVSPost2010PropOp40
 70
     1
102
RTVSPost2010Prop41ColorIndex
 90
       18
102
RTVSPost2010Prop41ColorRGB
 90
        0
102
RTVSPost2010PropOp41
 70
     1
102
RTVSPost2010Prop42
 90
       50
102
RTVSPost2010PropOp42
 70
     1
102
RTVSPost2010Prop43
 90
        3
102
RTVSPost2010PropOp43
 70
     1
102
RTVSPost2010Prop44ColorIndex
 90
        5
102
RTVSPost2010Prop44ColorRGB
 90
      255
102
RTVSPost2010PropOp44
 70
     1
102
RTVSPost2010Prop45
280
     0
102
RTVSPost2010PropOp45
 70
     1
102
RTVSPost2010Prop46
 90
       50
102
RTVSPost2010PropOp46
 70
     1
102
RTVSPost2010Prop47
 90
       50
102
RTVSPost2010PropOp47
 70
     1
102
RTVSPost2010Prop48
 90
       50
102
RTVSPost2010PropOp48
 70
     1
102
RTVSPost2010Prop49
280
     0
102
RTVSPost2010PropOp49
 70
     1
102
RTVSPost2010Prop50
 90
       50
102
RTVSPost2010PropOp50
 70
     1
102
RTVSPost2010Prop51ColorIndex
 90
      256
102
RTVSPost2010Prop51ColorRGB
 90
-16777216
102
RTVSPost2010PropOp51
 70
     0
102
RTVSPost2010Prop52
140
1.0
102
RTVSPost2010PropOp52
 70
     0
102
RTVSPost2010Prop53
 90
        2
102
RTVSPost2010PropOp53
 70
     1
102
RTVSPost2010Prop54
  1
strokes_ogs.tif
102
RTVSPost2010PropOp54
 70
     1
102
RTVSPost2010Prop55
280
     0
102
RTVSPost2010PropOp55
 70
     1
102
RTVSPost2010Prop56
140
1.0
102
RTVSPost2010PropOp56
 70
     1
102
RTVSPost2010Prop57
140
1.0
102
RTVSPost2010PropOp57
 70
     1
102
RTVSPropertyOp0
 70
     1
102
RTVSPropertyOp1
 70
     1
102
RTVSPropertyOp2
 70
     1
102
RTVSPropertyOp3
 70
     1
102
RTVSPropertyOp4
 70
     1
102
RTVSPropertyOp5
 70
     1
102
RTVSPropertyOp6
 70
     1
102
RTVSPropertyOp7
 70
     1
102
RTVSPropertyOp8
 70
     1
102
RTVSPropertyOp9
 70
     1
102
RTVSPropertyOp10
 70
     1
102
RTVSPropertyOp11
 70
     1
102
RTVSPropertyOp12
 70
     1
102
RTVSPropertyOp13
 70
     1
102
RTVSPropertyOp14
 70
     1
102
RTVSPropertyOp15
 70
     1
102
RTVSPropertyOp16
 70
     1
102
RTVSPropertyOp17
 70
     1
102
RTVSPropertyOp18
 70
     1
102
RTVSPropertyOp19
 70
     1
102
RTVSPropertyOp20
 70
     1
102
RTVSPropertyOp21
 70
     1
102
RTVSPropertyOp22
 70
     1
102
RTVSPropertyOp23
 70
     1
102
RTVSPropertyOp24
 70
     1
102
RTVSPropertyOp25
 70
     1
102
RTVSPropertyOp26
 70
     1
102
RTVSPropertyOp27
 70
     1
102
RTVSPropertyOp28
 70
     1
102
RTVSPropertyOp29
 70
     1
102
RTVSPropertyOp30
 70
     1
102
RTVSPropertyOp31
 70
     1
102
RTVSPropertyOp32
 70
     1
102
RTVSPropertyOp33
 70
     1
102
RTVSPropertyOp34
 70
     1
102
RTVSPropertyOp35
 70
     1
102
RTVSPropertyOp36
 70
     1
102
RTVSPropertyOp37
 70
     1
102
RTVSPropertyOp38
 70
     1
102
RTVSPropertyOp39
 70
     1
102
RTVSPropertyOp40
 70
     1
102
RTVSPropertyOp41
 70
     1
102
RTVSPropertyOp42
 70
     1
102
RTVSPropertyOp43
 70
     1
102
RTVSPropertyOp44
 70
     1
102
RTVSPropertyOp45
 70
     1
102
RTVSPropertyOp46
 70
     1
102
RTVSPropertyOp47
 70
     1
102
RTVSPropertyOp48
 70
     1
102
RTVSPropertyOp49
 70
     1
102
RTVSPropertyOp50
 70
     1
102
RTVSPropertyOp51
 70
     0
102
RTVSPropertyOp52
 70
     0
102
RTVSPropertyOp53
 70
     1
102
RTVSPropertyOp54
 70
     1
102
RTVSPropertyOp55
 70
     1
102
RTVSPropertyOp56
 70
     1
102
RTVSPropertyOp57
 70
     1
102
RTVSPropertyOp58
 70
     1
102
RTVSPropertyOp59
 70
     1
102
RTVSPropertyOp60
 70
     1
102
RTVSPropertyOp61
 70
     1
102
RTVSPropertyOp62
 70
     1
  0
XRECORD
  5
171E0
102
{ACAD_REACTORS
330
171DF
102
}
330
171DF
100
AcDbXrecord
280
     1
102
RTVSPost2010Prop28
280
     0
102
RTVSPost2010PropOp28
 70
     1
102
RTVSPost2010Prop29
280
     1
102
RTVSPost2010PropOp29
 70
     1
102
RTVSPost2010Prop30
280
     1
102
RTVSPost2010PropOp30
 70
     1
102
RTVSPost2010Prop31
280
     0
102
RTVSPost2010PropOp31
 70
     1
102
RTVSPost2010Prop32
280
     0
102
RTVSPost2010PropOp32
 70
     1
102
RTVSPost2010Prop33
280
     0
102
RTVSPost2010PropOp33
 70
     1
102
RTVSPost2010Prop34
280
     0
102
RTVSPost2010PropOp34
 70
     1
102
RTVSPost2010Prop35
280
     0
102
RTVSPost2010PropOp35
 70
     1
102
RTVSPost2010Prop36
280
     0
102
RTVSPost2010PropOp36
 70
     1
102
RTVSPost2010Prop37
 90
       50
102
RTVSPost2010PropOp37
 70
     1
102
RTVSPost2010Prop38
140
0.0
102
RTVSPost2010PropOp38
 70
     1
102
RTVSPost2010Prop39
140
1.0
102
RTVSPost2010PropOp39
 70
     1
102
RTVSPost2010Prop40
 90
        0
102
RTVSPost2010PropOp40
 70
     1
102
RTVSPost2010Prop41ColorIndex
 90
       18
102
RTVSPost2010Prop41ColorRGB
 90
        0
102
RTVSPost2010PropOp41
 70
     1
102
RTVSPost2010Prop42
 90
       50
102
RTVSPost2010PropOp42
 70
     1
102
RTVSPost2010Prop43
 90
        3
102
RTVSPost2010PropOp43
 70
     1
102
RTVSPost2010Prop44ColorIndex
 90
        5
102
RTVSPost2010Prop44ColorRGB
 90
      255
102
RTVSPost2010PropOp44
 70
     1
102
RTVSPost2010Prop45
280
     0
102
RTVSPost2010PropOp45
 70
     1
102
RTVSPost2010Prop46
 90
       50
102
RTVSPost2010PropOp46
 70
     1
102
RTVSPost2010Prop47
 90
       50
102
RTVSPost2010PropOp47
 70
     1
102
RTVSPost2010Prop48
 90
       50
102
RTVSPost2010PropOp48
 70
     1
102
RTVSPost2010Prop49
280
     0
102
RTVSPost2010PropOp49
 70
     1
102
RTVSPost2010Prop50
 90
       50
102
RTVSPost2010PropOp50
 70
     1
102
RTVSPost2010Prop51ColorIndex
 90
      256
102
RTVSPost2010Prop51ColorRGB
 90
-16777216
102
RTVSPost2010PropOp51
 70
     0
102
RTVSPost2010Prop52
140
1.0
102
RTVSPost2010PropOp52
 70
     0
102
RTVSPost2010Prop53
 90
        2
102
RTVSPost2010PropOp53
 70
     1
102
RTVSPost2010Prop54
  1
strokes_ogs.tif
102
RTVSPost2010PropOp54
 70
     1
102
RTVSPost2010Prop55
280
     0
102
RTVSPost2010PropOp55
 70
     1
102
RTVSPost2010Prop56
140
1.0
102
RTVSPost2010PropOp56
 70
     1
102
RTVSPost2010Prop57
140
1.0
102
RTVSPost2010PropOp57
 70
     1
102
RTVSPropertyOp0
 70
     1
102
RTVSPropertyOp1
 70
     1
102
RTVSPropertyOp2
 70
     1
102
RTVSPropertyOp3
 70
     1
102
RTVSPropertyOp4
 70
     1
102
RTVSPropertyOp5
 70
     1
102
RTVSPropertyOp6
 70
     1
102
RTVSPropertyOp7
 70
     1
102
RTVSPropertyOp8
 70
     1
102
RTVSPropertyOp9
 70
     1
102
RTVSPropertyOp10
 70
     1
102
RTVSPropertyOp11
 70
     1
102
RTVSPropertyOp12
 70
     1
102
RTVSPropertyOp13
 70
     1
102
RTVSPropertyOp14
 70
     1
102
RTVSPropertyOp15
 70
     1
102
RTVSPropertyOp16
 70
     1
102
RTVSPropertyOp17
 70
     1
102
RTVSPropertyOp18
 70
     1
102
RTVSPropertyOp19
 70
     1
102
RTVSPropertyOp20
 70
     1
102
RTVSPropertyOp21
 70
     1
102
RTVSPropertyOp22
 70
     1
102
RTVSPropertyOp23
 70
     1
102
RTVSPropertyOp24
 70
     1
102
RTVSPropertyOp25
 70
     1
102
RTVSPropertyOp26
 70
     1
102
RTVSPropertyOp27
 70
     1
102
RTVSPropertyOp28
 70
     1
102
RTVSPropertyOp29
 70
     1
102
RTVSPropertyOp30
 70
     1
102
RTVSPropertyOp31
 70
     1
102
RTVSPropertyOp32
 70
     1
102
RTVSPropertyOp33
 70
     1
102
RTVSPropertyOp34
 70
     1
102
RTVSPropertyOp35
 70
     1
102
RTVSPropertyOp36
 70
     1
102
RTVSPropertyOp37
 70
     1
102
RTVSPropertyOp38
 70
     1
102
RTVSPropertyOp39
 70
     1
102
RTVSPropertyOp40
 70
     1
102
RTVSPropertyOp41
 70
     1
102
RTVSPropertyOp42
 70
     1
102
RTVSPropertyOp43
 70
     1
102
RTVSPropertyOp44
 70
     1
102
RTVSPropertyOp45
 70
     1
102
RTVSPropertyOp46
 70
     1
102
RTVSPropertyOp47
 70
     1
102
RTVSPropertyOp48
 70
     1
102
RTVSPropertyOp49
 70
     1
102
RTVSPropertyOp50
 70
     1
102
RTVSPropertyOp51
 70
     0
102
RTVSPropertyOp52
 70
     0
102
RTVSPropertyOp53
 70
     1
102
RTVSPropertyOp54
 70
     1
102
RTVSPropertyOp55
 70
     1
102
RTVSPropertyOp56
 70
     1
102
RTVSPropertyOp57
 70
     1
102
RTVSPropertyOp58
 70
     1
102
RTVSPropertyOp59
 70
     1
102
RTVSPropertyOp60
 70
     1
102
RTVSPropertyOp61
 70
     1
102
RTVSPropertyOp62
 70
     1
  0
XRECORD
  5
171DE
102
{ACAD_REACTORS
330
171DD
102
}
330
171DD
100
AcDbXrecord
280
     1
102
RTVSPost2010Prop28
280
     0
102
RTVSPost2010PropOp28
 70
     1
102
RTVSPost2010Prop29
280
     1
102
RTVSPost2010PropOp29
 70
     1
102
RTVSPost2010Prop30
280
     1
102
RTVSPost2010PropOp30
 70
     1
102
RTVSPost2010Prop31
280
     0
102
RTVSPost2010PropOp31
 70
     1
102
RTVSPost2010Prop32
280
     0
102
RTVSPost2010PropOp32
 70
     1
102
RTVSPost2010Prop33
280
     0
102
RTVSPost2010PropOp33
 70
     1
102
RTVSPost2010Prop34
280
     0
102
RTVSPost2010PropOp34
 70
     1
102
RTVSPost2010Prop35
280
     0
102
RTVSPost2010PropOp35
 70
     1
102
RTVSPost2010Prop36
280
     0
102
RTVSPost2010PropOp36
 70
     1
102
RTVSPost2010Prop37
 90
       50
102
RTVSPost2010PropOp37
 70
     1
102
RTVSPost2010Prop38
140
0.0
102
RTVSPost2010PropOp38
 70
     1
102
RTVSPost2010Prop39
140
1.0
102
RTVSPost2010PropOp39
 70
     1
102
RTVSPost2010Prop40
 90
        0
102
RTVSPost2010PropOp40
 70
     1
102
RTVSPost2010Prop41ColorIndex
 90
       18
102
RTVSPost2010Prop41ColorRGB
 90
        0
102
RTVSPost2010PropOp41
 70
     1
102
RTVSPost2010Prop42
 90
       50
102
RTVSPost2010PropOp42
 70
     1
102
RTVSPost2010Prop43
 90
        3
102
RTVSPost2010PropOp43
 70
     1
102
RTVSPost2010Prop44ColorIndex
 90
        5
102
RTVSPost2010Prop44ColorRGB
 90
      255
102
RTVSPost2010PropOp44
 70
     1
102
RTVSPost2010Prop45
280
     0
102
RTVSPost2010PropOp45
 70
     1
102
RTVSPost2010Prop46
 90
       50
102
RTVSPost2010PropOp46
 70
     1
102
RTVSPost2010Prop47
 90
       50
102
RTVSPost2010PropOp47
 70
     1
102
RTVSPost2010Prop48
 90
       50
102
RTVSPost2010PropOp48
 70
     1
102
RTVSPost2010Prop49
280
     0
102
RTVSPost2010PropOp49
 70
     1
102
RTVSPost2010Prop50
 90
       50
102
RTVSPost2010PropOp50
 70
     1
102
RTVSPost2010Prop51ColorIndex
 90
      256
102
RTVSPost2010Prop51ColorRGB
 90
-16777216
102
RTVSPost2010PropOp51
 70
     0
102
RTVSPost2010Prop52
140
1.0
102
RTVSPost2010PropOp52
 70
     0
102
RTVSPost2010Prop53
 90
        2
102
RTVSPost2010PropOp53
 70
     1
102
RTVSPost2010Prop54
  1
strokes_ogs.tif
102
RTVSPost2010PropOp54
 70
     1
102
RTVSPost2010Prop55
280
     0
102
RTVSPost2010PropOp55
 70
     1
102
RTVSPost2010Prop56
140
1.0
102
RTVSPost2010PropOp56
 70
     1
102
RTVSPost2010Prop57
140
1.0
102
RTVSPost2010PropOp57
 70
     1
102
RTVSPropertyOp0
 70
     1
102
RTVSPropertyOp1
 70
     1
102
RTVSPropertyOp2
 70
     1
102
RTVSPropertyOp3
 70
     1
102
RTVSPropertyOp4
 70
     1
102
RTVSPropertyOp5
 70
     1
102
RTVSPropertyOp6
 70
     1
102
RTVSPropertyOp7
 70
     1
102
RTVSPropertyOp8
 70
     1
102
RTVSPropertyOp9
 70
     1
102
RTVSPropertyOp10
 70
     1
102
RTVSPropertyOp11
 70
     1
102
RTVSPropertyOp12
 70
     1
102
RTVSPropertyOp13
 70
     1
102
RTVSPropertyOp14
 70
     1
102
RTVSPropertyOp15
 70
     1
102
RTVSPropertyOp16
 70
     1
102
RTVSPropertyOp17
 70
     1
102
RTVSPropertyOp18
 70
     1
102
RTVSPropertyOp19
 70
     1
102
RTVSPropertyOp20
 70
     1
102
RTVSPropertyOp21
 70
     1
102
RTVSPropertyOp22
 70
     1
102
RTVSPropertyOp23
 70
     1
102
RTVSPropertyOp24
 70
     1
102
RTVSPropertyOp25
 70
     1
102
RTVSPropertyOp26
 70
     1
102
RTVSPropertyOp27
 70
     1
102
RTVSPropertyOp28
 70
     1
102
RTVSPropertyOp29
 70
     1
102
RTVSPropertyOp30
 70
     1
102
RTVSPropertyOp31
 70
     1
102
RTVSPropertyOp32
 70
     1
102
RTVSPropertyOp33
 70
     1
102
RTVSPropertyOp34
 70
     1
102
RTVSPropertyOp35
 70
     1
102
RTVSPropertyOp36
 70
     1
102
RTVSPropertyOp37
 70
     1
102
RTVSPropertyOp38
 70
     1
102
RTVSPropertyOp39
 70
     1
102
RTVSPropertyOp40
 70
     1
102
RTVSPropertyOp41
 70
     1
102
RTVSPropertyOp42
 70
     1
102
RTVSPropertyOp43
 70
     1
102
RTVSPropertyOp44
 70
     1
102
RTVSPropertyOp45
 70
     1
102
RTVSPropertyOp46
 70
     1
102
RTVSPropertyOp47
 70
     1
102
RTVSPropertyOp48
 70
     1
102
RTVSPropertyOp49
 70
     1
102
RTVSPropertyOp50
 70
     1
102
RTVSPropertyOp51
 70
     0
102
RTVSPropertyOp52
 70
     0
102
RTVSPropertyOp53
 70
     1
102
RTVSPropertyOp54
 70
     1
102
RTVSPropertyOp55
 70
     1
102
RTVSPropertyOp56
 70
     1
102
RTVSPropertyOp57
 70
     1
102
RTVSPropertyOp58
 70
     1
102
RTVSPropertyOp59
 70
     1
102
RTVSPropertyOp60
 70
     1
102
RTVSPropertyOp61
 70
     1
102
RTVSPropertyOp62
 70
     1
  0
XRECORD
  5
171D8
102
{ACAD_REACTORS
330
171D7
102
}
330
171D7
100
AcDbXrecord
280
     1
102
RTVSPost2010Prop28
280
     0
102
RTVSPost2010PropOp28
 70
     1
102
RTVSPost2010Prop29
280
     1
102
RTVSPost2010PropOp29
 70
     1
102
RTVSPost2010Prop30
280
     1
102
RTVSPost2010PropOp30
 70
     1
102
RTVSPost2010Prop31
280
     0
102
RTVSPost2010PropOp31
 70
     1
102
RTVSPost2010Prop32
280
     0
102
RTVSPost2010PropOp32
 70
     1
102
RTVSPost2010Prop33
280
     0
102
RTVSPost2010PropOp33
 70
     1
102
RTVSPost2010Prop34
280
     0
102
RTVSPost2010PropOp34
 70
     1
102
RTVSPost2010Prop35
280
     0
102
RTVSPost2010PropOp35
 70
     1
102
RTVSPost2010Prop36
280
     0
102
RTVSPost2010PropOp36
 70
     1
102
RTVSPost2010Prop37
 90
       50
102
RTVSPost2010PropOp37
 70
     1
102
RTVSPost2010Prop38
140
0.0
102
RTVSPost2010PropOp38
 70
     1
102
RTVSPost2010Prop39
140
1.0
102
RTVSPost2010PropOp39
 70
     1
102
RTVSPost2010Prop40
 90
        0
102
RTVSPost2010PropOp40
 70
     1
102
RTVSPost2010Prop41ColorIndex
 90
       18
102
RTVSPost2010Prop41ColorRGB
 90
        0
102
RTVSPost2010PropOp41
 70
     1
102
RTVSPost2010Prop42
 90
       50
102
RTVSPost2010PropOp42
 70
     1
102
RTVSPost2010Prop43
 90
        3
102
RTVSPost2010PropOp43
 70
     1
102
RTVSPost2010Prop44ColorIndex
 90
        5
102
RTVSPost2010Prop44ColorRGB
 90
      255
102
RTVSPost2010PropOp44
 70
     1
102
RTVSPost2010Prop45
280
     0
102
RTVSPost2010PropOp45
 70
     1
102
RTVSPost2010Prop46
 90
       50
102
RTVSPost2010PropOp46
 70
     1
102
RTVSPost2010Prop47
 90
       50
102
RTVSPost2010PropOp47
 70
     1
102
RTVSPost2010Prop48
 90
       50
102
RTVSPost2010PropOp48
 70
     1
102
RTVSPost2010Prop49
280
     0
102
RTVSPost2010PropOp49
 70
     1
102
RTVSPost2010Prop50
 90
       50
102
RTVSPost2010PropOp50
 70
     1
102
RTVSPost2010Prop51ColorIndex
 90
      256
102
RTVSPost2010Prop51ColorRGB
 90
-16777216
102
RTVSPost2010PropOp51
 70
     0
102
RTVSPost2010Prop52
140
1.0
102
RTVSPost2010PropOp52
 70
     0
102
RTVSPost2010Prop53
 90
        2
102
RTVSPost2010PropOp53
 70
     1
102
RTVSPost2010Prop54
  1
strokes_ogs.tif
102
RTVSPost2010PropOp54
 70
     1
102
RTVSPost2010Prop55
280
     0
102
RTVSPost2010PropOp55
 70
     1
102
RTVSPost2010Prop56
140
1.0
102
RTVSPost2010PropOp56
 70
     1
102
RTVSPost2010Prop57
140
1.0
102
RTVSPost2010PropOp57
 70
     1
102
RTVSPropertyOp0
 70
     1
102
RTVSPropertyOp1
 70
     1
102
RTVSPropertyOp2
 70
     1
102
RTVSPropertyOp3
 70
     1
102
RTVSPropertyOp4
 70
     1
102
RTVSPropertyOp5
 70
     1
102
RTVSPropertyOp6
 70
     1
102
RTVSPropertyOp7
 70
     1
102
RTVSPropertyOp8
 70
     1
102
RTVSPropertyOp9
 70
     1
102
RTVSPropertyOp10
 70
     1
102
RTVSPropertyOp11
 70
     1
102
RTVSPropertyOp12
 70
     1
102
RTVSPropertyOp13
 70
     1
102
RTVSPropertyOp14
 70
     1
102
RTVSPropertyOp15
 70
     1
102
RTVSPropertyOp16
 70
     1
102
RTVSPropertyOp17
 70
     1
102
RTVSPropertyOp18
 70
     1
102
RTVSPropertyOp19
 70
     1
102
RTVSPropertyOp20
 70
     1
102
RTVSPropertyOp21
 70
     1
102
RTVSPropertyOp22
 70
     1
102
RTVSPropertyOp23
 70
     1
102
RTVSPropertyOp24
 70
     1
102
RTVSPropertyOp25
 70
     1
102
RTVSPropertyOp26
 70
     1
102
RTVSPropertyOp27
 70
     1
102
RTVSPropertyOp28
 70
     1
102
RTVSPropertyOp29
 70
     1
102
RTVSPropertyOp30
 70
     1
102
RTVSPropertyOp31
 70
     1
102
RTVSPropertyOp32
 70
     1
102
RTVSPropertyOp33
 70
     1
102
RTVSPropertyOp34
 70
     1
102
RTVSPropertyOp35
 70
     1
102
RTVSPropertyOp36
 70
     1
102
RTVSPropertyOp37
 70
     1
102
RTVSPropertyOp38
 70
     1
102
RTVSPropertyOp39
 70
     1
102
RTVSPropertyOp40
 70
     1
102
RTVSPropertyOp41
 70
     1
102
RTVSPropertyOp42
 70
     1
102
RTVSPropertyOp43
 70
     1
102
RTVSPropertyOp44
 70
     1
102
RTVSPropertyOp45
 70
     1
102
RTVSPropertyOp46
 70
     1
102
RTVSPropertyOp47
 70
     1
102
RTVSPropertyOp48
 70
     1
102
RTVSPropertyOp49
 70
     1
102
RTVSPropertyOp50
 70
     1
102
RTVSPropertyOp51
 70
     0
102
RTVSPropertyOp52
 70
     0
102
RTVSPropertyOp53
 70
     1
102
RTVSPropertyOp54
 70
     1
102
RTVSPropertyOp55
 70
     1
102
RTVSPropertyOp56
 70
     1
102
RTVSPropertyOp57
 70
     1
102
RTVSPropertyOp58
 70
     1
102
RTVSPropertyOp59
 70
     1
102
RTVSPropertyOp60
 70
     1
102
RTVSPropertyOp61
 70
     1
102
RTVSPropertyOp62
 70
     1
  0
XRECORD
  5
171DA
102
{ACAD_REACTORS
330
171D9
102
}
330
171D9
100
AcDbXrecord
280
     1
102
RTVSPost2010Prop28
280
     0
102
RTVSPost2010PropOp28
 70
     1
102
RTVSPost2010Prop29
280
     1
102
RTVSPost2010PropOp29
 70
     1
102
RTVSPost2010Prop30
280
     1
102
RTVSPost2010PropOp30
 70
     1
102
RTVSPost2010Prop31
280
     0
102
RTVSPost2010PropOp31
 70
     1
102
RTVSPost2010Prop32
280
     0
102
RTVSPost2010PropOp32
 70
     1
102
RTVSPost2010Prop33
280
     0
102
RTVSPost2010PropOp33
 70
     1
102
RTVSPost2010Prop34
280
     0
102
RTVSPost2010PropOp34
 70
     1
102
RTVSPost2010Prop35
280
     0
102
RTVSPost2010PropOp35
 70
     1
102
RTVSPost2010Prop36
280
     0
102
RTVSPost2010PropOp36
 70
     1
102
RTVSPost2010Prop37
 90
       50
102
RTVSPost2010PropOp37
 70
     1
102
RTVSPost2010Prop38
140
0.0
102
RTVSPost2010PropOp38
 70
     1
102
RTVSPost2010Prop39
140
1.0
102
RTVSPost2010PropOp39
 70
     1
102
RTVSPost2010Prop40
 90
        0
102
RTVSPost2010PropOp40
 70
     1
102
RTVSPost2010Prop41ColorIndex
 90
       18
102
RTVSPost2010Prop41ColorRGB
 90
        0
102
RTVSPost2010PropOp41
 70
     1
102
RTVSPost2010Prop42
 90
       50
102
RTVSPost2010PropOp42
 70
     1
102
RTVSPost2010Prop43
 90
        3
102
RTVSPost2010PropOp43
 70
     1
102
RTVSPost2010Prop44ColorIndex
 90
        5
102
RTVSPost2010Prop44ColorRGB
 90
      255
102
RTVSPost2010PropOp44
 70
     1
102
RTVSPost2010Prop45
280
     0
102
RTVSPost2010PropOp45
 70
     1
102
RTVSPost2010Prop46
 90
       50
102
RTVSPost2010PropOp46
 70
     1
102
RTVSPost2010Prop47
 90
       50
102
RTVSPost2010PropOp47
 70
     1
102
RTVSPost2010Prop48
 90
       50
102
RTVSPost2010PropOp48
 70
     1
102
RTVSPost2010Prop49
280
     0
102
RTVSPost2010PropOp49
 70
     1
102
RTVSPost2010Prop50
 90
       50
102
RTVSPost2010PropOp50
 70
     1
102
RTVSPost2010Prop51ColorIndex
 90
      256
102
RTVSPost2010Prop51ColorRGB
 90
-16777216
102
RTVSPost2010PropOp51
 70
     0
102
RTVSPost2010Prop52
140
1.0
102
RTVSPost2010PropOp52
 70
     0
102
RTVSPost2010Prop53
 90
        2
102
RTVSPost2010PropOp53
 70
     1
102
RTVSPost2010Prop54
  1
strokes_ogs.tif
102
RTVSPost2010PropOp54
 70
     1
102
RTVSPost2010Prop55
280
     0
102
RTVSPost2010PropOp55
 70
     1
102
RTVSPost2010Prop56
140
1.0
102
RTVSPost2010PropOp56
 70
     1
102
RTVSPost2010Prop57
140
1.0
102
RTVSPost2010PropOp57
 70
     1
102
RTVSPropertyOp0
 70
     1
102
RTVSPropertyOp1
 70
     1
102
RTVSPropertyOp2
 70
     1
102
RTVSPropertyOp3
 70
     1
102
RTVSPropertyOp4
 70
     1
102
RTVSPropertyOp5
 70
     1
102
RTVSPropertyOp6
 70
     1
102
RTVSPropertyOp7
 70
     1
102
RTVSPropertyOp8
 70
     1
102
RTVSPropertyOp9
 70
     1
102
RTVSPropertyOp10
 70
     1
102
RTVSPropertyOp11
 70
     1
102
RTVSPropertyOp12
 70
     1
102
RTVSPropertyOp13
 70
     1
102
RTVSPropertyOp14
 70
     1
102
RTVSPropertyOp15
 70
     1
102
RTVSPropertyOp16
 70
     1
102
RTVSPropertyOp17
 70
     1
102
RTVSPropertyOp18
 70
     1
102
RTVSPropertyOp19
 70
     1
102
RTVSPropertyOp20
 70
     1
102
RTVSPropertyOp21
 70
     1
102
RTVSPropertyOp22
 70
     1
102
RTVSPropertyOp23
 70
     1
102
RTVSPropertyOp24
 70
     1
102
RTVSPropertyOp25
 70
     1
102
RTVSPropertyOp26
 70
     1
102
RTVSPropertyOp27
 70
     1
102
RTVSPropertyOp28
 70
     1
102
RTVSPropertyOp29
 70
     1
102
RTVSPropertyOp30
 70
     1
102
RTVSPropertyOp31
 70
     1
102
RTVSPropertyOp32
 70
     1
102
RTVSPropertyOp33
 70
     1
102
RTVSPropertyOp34
 70
     1
102
RTVSPropertyOp35
 70
     1
102
RTVSPropertyOp36
 70
     1
102
RTVSPropertyOp37
 70
     1
102
RTVSPropertyOp38
 70
     1
102
RTVSPropertyOp39
 70
     1
102
RTVSPropertyOp40
 70
     1
102
RTVSPropertyOp41
 70
     1
102
RTVSPropertyOp42
 70
     1
102
RTVSPropertyOp43
 70
     1
102
RTVSPropertyOp44
 70
     1
102
RTVSPropertyOp45
 70
     1
102
RTVSPropertyOp46
 70
     1
102
RTVSPropertyOp47
 70
     1
102
RTVSPropertyOp48
 70
     1
102
RTVSPropertyOp49
 70
     1
102
RTVSPropertyOp50
 70
     1
102
RTVSPropertyOp51
 70
     0
102
RTVSPropertyOp52
 70
     0
102
RTVSPropertyOp53
 70
     1
102
RTVSPropertyOp54
 70
     1
102
RTVSPropertyOp55
 70
     1
102
RTVSPropertyOp56
 70
     1
102
RTVSPropertyOp57
 70
     1
102
RTVSPropertyOp58
 70
     1
102
RTVSPropertyOp59
 70
     1
102
RTVSPropertyOp60
 70
     1
102
RTVSPropertyOp61
 70
     1
102
RTVSPropertyOp62
 70
     1
  0
XRECORD
  5
171D0
102
{ACAD_REACTORS
330
171CF
102
}
330
171CF
100
AcDbXrecord
280
     1
102
RTVSPost2010Prop28
280
     0
102
RTVSPost2010PropOp28
 70
     1
102
RTVSPost2010Prop29
280
     1
102
RTVSPost2010PropOp29
 70
     1
102
RTVSPost2010Prop30
280
     1
102
RTVSPost2010PropOp30
 70
     1
102
RTVSPost2010Prop31
280
     0
102
RTVSPost2010PropOp31
 70
     1
102
RTVSPost2010Prop32
280
     0
102
RTVSPost2010PropOp32
 70
     1
102
RTVSPost2010Prop33
280
     0
102
RTVSPost2010PropOp33
 70
     1
102
RTVSPost2010Prop34
280
     0
102
RTVSPost2010PropOp34
 70
     1
102
RTVSPost2010Prop35
280
     0
102
RTVSPost2010PropOp35
 70
     1
102
RTVSPost2010Prop36
280
     0
102
RTVSPost2010PropOp36
 70
     1
102
RTVSPost2010Prop37
 90
       50
102
RTVSPost2010PropOp37
 70
     1
102
RTVSPost2010Prop38
140
0.0
102
RTVSPost2010PropOp38
 70
     1
102
RTVSPost2010Prop39
140
1.0
102
RTVSPost2010PropOp39
 70
     1
102
RTVSPost2010Prop40
 90
        0
102
RTVSPost2010PropOp40
 70
     1
102
RTVSPost2010Prop41ColorIndex
 90
       18
102
RTVSPost2010Prop41ColorRGB
 90
        0
102
RTVSPost2010PropOp41
 70
     1
102
RTVSPost2010Prop42
 90
       50
102
RTVSPost2010PropOp42
 70
     1
102
RTVSPost2010Prop43
 90
        3
102
RTVSPost2010PropOp43
 70
     1
102
RTVSPost2010Prop44ColorIndex
 90
        5
102
RTVSPost2010Prop44ColorRGB
 90
      255
102
RTVSPost2010PropOp44
 70
     1
102
RTVSPost2010Prop45
280
     0
102
RTVSPost2010PropOp45
 70
     1
102
RTVSPost2010Prop46
 90
       50
102
RTVSPost2010PropOp46
 70
     1
102
RTVSPost2010Prop47
 90
       50
102
RTVSPost2010PropOp47
 70
     1
102
RTVSPost2010Prop48
 90
       50
102
RTVSPost2010PropOp48
 70
     1
102
RTVSPost2010Prop49
280
     0
102
RTVSPost2010PropOp49
 70
     1
102
RTVSPost2010Prop50
 90
       50
102
RTVSPost2010PropOp50
 70
     1
102
RTVSPost2010Prop51ColorIndex
 90
      256
102
RTVSPost2010Prop51ColorRGB
 90
-16777216
102
RTVSPost2010PropOp51
 70
     0
102
RTVSPost2010Prop52
140
1.0
102
RTVSPost2010PropOp52
 70
     0
102
RTVSPost2010Prop53
 90
        2
102
RTVSPost2010PropOp53
 70
     1
102
RTVSPost2010Prop54
  1
strokes_ogs.tif
102
RTVSPost2010PropOp54
 70
     1
102
RTVSPost2010Prop55
280
     0
102
RTVSPost2010PropOp55
 70
     1
102
RTVSPost2010Prop56
140
1.0
102
RTVSPost2010PropOp56
 70
     1
102
RTVSPost2010Prop57
140
1.0
102
RTVSPost2010PropOp57
 70
     1
102
RTVSPropertyOp0
 70
     1
102
RTVSPropertyOp1
 70
     1
102
RTVSPropertyOp2
 70
     1
102
RTVSPropertyOp3
 70
     1
102
RTVSPropertyOp4
 70
     1
102
RTVSPropertyOp5
 70
     1
102
RTVSPropertyOp6
 70
     1
102
RTVSPropertyOp7
 70
     1
102
RTVSPropertyOp8
 70
     1
102
RTVSPropertyOp9
 70
     1
102
RTVSPropertyOp10
 70
     1
102
RTVSPropertyOp11
 70
     1
102
RTVSPropertyOp12
 70
     1
102
RTVSPropertyOp13
 70
     1
102
RTVSPropertyOp14
 70
     1
102
RTVSPropertyOp15
 70
     1
102
RTVSPropertyOp16
 70
     1
102
RTVSPropertyOp17
 70
     1
102
RTVSPropertyOp18
 70
     1
102
RTVSPropertyOp19
 70
     1
102
RTVSPropertyOp20
 70
     1
102
RTVSPropertyOp21
 70
     1
102
RTVSPropertyOp22
 70
     1
102
RTVSPropertyOp23
 70
     1
102
RTVSPropertyOp24
 70
     1
102
RTVSPropertyOp25
 70
     1
102
RTVSPropertyOp26
 70
     1
102
RTVSPropertyOp27
 70
     1
102
RTVSPropertyOp28
 70
     1
102
RTVSPropertyOp29
 70
     1
102
RTVSPropertyOp30
 70
     1
102
RTVSPropertyOp31
 70
     1
102
RTVSPropertyOp32
 70
     1
102
RTVSPropertyOp33
 70
     1
102
RTVSPropertyOp34
 70
     1
102
RTVSPropertyOp35
 70
     1
102
RTVSPropertyOp36
 70
     1
102
RTVSPropertyOp37
 70
     1
102
RTVSPropertyOp38
 70
     1
102
RTVSPropertyOp39
 70
     1
102
RTVSPropertyOp40
 70
     1
102
RTVSPropertyOp41
 70
     1
102
RTVSPropertyOp42
 70
     1
102
RTVSPropertyOp43
 70
     1
102
RTVSPropertyOp44
 70
     1
102
RTVSPropertyOp45
 70
     1
102
RTVSPropertyOp46
 70
     1
102
RTVSPropertyOp47
 70
     1
102
RTVSPropertyOp48
 70
     1
102
RTVSPropertyOp49
 70
     1
102
RTVSPropertyOp50
 70
     1
102
RTVSPropertyOp51
 70
     0
102
RTVSPropertyOp52
 70
     0
102
RTVSPropertyOp53
 70
     1
102
RTVSPropertyOp54
 70
     1
102
RTVSPropertyOp55
 70
     1
102
RTVSPropertyOp56
 70
     1
102
RTVSPropertyOp57
 70
     1
102
RTVSPropertyOp58
 70
     1
102
RTVSPropertyOp59
 70
     1
102
RTVSPropertyOp60
 70
     1
102
RTVSPropertyOp61
 70
     1
102
RTVSPropertyOp62
 70
     1
  0
XRECORD
  5
171C4
102
{ACAD_REACTORS
330
171C3
102
}
330
171C3
100
AcDbXrecord
280
     1
102
RTVSPost2010Prop28
280
     0
102
RTVSPost2010PropOp28
 70
     1
102
RTVSPost2010Prop29
280
     1
102
RTVSPost2010PropOp29
 70
     1
102
RTVSPost2010Prop30
280
     1
102
RTVSPost2010PropOp30
 70
     1
102
RTVSPost2010Prop31
280
     0
102
RTVSPost2010PropOp31
 70
     1
102
RTVSPost2010Prop32
280
     0
102
RTVSPost2010PropOp32
 70
     1
102
RTVSPost2010Prop33
280
     0
102
RTVSPost2010PropOp33
 70
     1
102
RTVSPost2010Prop34
280
     0
102
RTVSPost2010PropOp34
 70
     1
102
RTVSPost2010Prop35
280
     0
102
RTVSPost2010PropOp35
 70
     1
102
RTVSPost2010Prop36
280
     0
102
RTVSPost2010PropOp36
 70
     1
102
RTVSPost2010Prop37
 90
       50
102
RTVSPost2010PropOp37
 70
     1
102
RTVSPost2010Prop38
140
0.0
102
RTVSPost2010PropOp38
 70
     1
102
RTVSPost2010Prop39
140
1.0
102
RTVSPost2010PropOp39
 70
     1
102
RTVSPost2010Prop40
 90
        0
102
RTVSPost2010PropOp40
 70
     1
102
RTVSPost2010Prop41ColorIndex
 90
       18
102
RTVSPost2010Prop41ColorRGB
 90
        0
102
RTVSPost2010PropOp41
 70
     1
102
RTVSPost2010Prop42
 90
       50
102
RTVSPost2010PropOp42
 70
     1
102
RTVSPost2010Prop43
 90
        3
102
RTVSPost2010PropOp43
 70
     1
102
RTVSPost2010Prop44ColorIndex
 90
        5
102
RTVSPost2010Prop44ColorRGB
 90
      255
102
RTVSPost2010PropOp44
 70
     1
102
RTVSPost2010Prop45
280
     0
102
RTVSPost2010PropOp45
 70
     1
102
RTVSPost2010Prop46
 90
       50
102
RTVSPost2010PropOp46
 70
     1
102
RTVSPost2010Prop47
 90
       50
102
RTVSPost2010PropOp47
 70
     1
102
RTVSPost2010Prop48
 90
       50
102
RTVSPost2010PropOp48
 70
     1
102
RTVSPost2010Prop49
280
     0
102
RTVSPost2010PropOp49
 70
     1
102
RTVSPost2010Prop50
 90
       50
102
RTVSPost2010PropOp50
 70
     1
102
RTVSPost2010Prop51ColorIndex
 90
      256
102
RTVSPost2010Prop51ColorRGB
 90
-16777216
102
RTVSPost2010PropOp51
 70
     0
102
RTVSPost2010Prop52
140
1.0
102
RTVSPost2010PropOp52
 70
     0
102
RTVSPost2010Prop53
 90
        2
102
RTVSPost2010PropOp53
 70
     1
102
RTVSPost2010Prop54
  1
strokes_ogs.tif
102
RTVSPost2010PropOp54
 70
     1
102
RTVSPost2010Prop55
280
     0
102
RTVSPost2010PropOp55
 70
     1
102
RTVSPost2010Prop56
140
1.0
102
RTVSPost2010PropOp56
 70
     1
102
RTVSPost2010Prop57
140
1.0
102
RTVSPost2010PropOp57
 70
     1
102
RTVSPropertyOp0
 70
     1
102
RTVSPropertyOp1
 70
     1
102
RTVSPropertyOp2
 70
     1
102
RTVSPropertyOp3
 70
     1
102
RTVSPropertyOp4
 70
     1
102
RTVSPropertyOp5
 70
     1
102
RTVSPropertyOp6
 70
     1
102
RTVSPropertyOp7
 70
     1
102
RTVSPropertyOp8
 70
     1
102
RTVSPropertyOp9
 70
     1
102
RTVSPropertyOp10
 70
     1
102
RTVSPropertyOp11
 70
     1
102
RTVSPropertyOp12
 70
     1
102
RTVSPropertyOp13
 70
     1
102
RTVSPropertyOp14
 70
     1
102
RTVSPropertyOp15
 70
     1
102
RTVSPropertyOp16
 70
     1
102
RTVSPropertyOp17
 70
     1
102
RTVSPropertyOp18
 70
     1
102
RTVSPropertyOp19
 70
     1
102
RTVSPropertyOp20
 70
     1
102
RTVSPropertyOp21
 70
     1
102
RTVSPropertyOp22
 70
     1
102
RTVSPropertyOp23
 70
     1
102
RTVSPropertyOp24
 70
     1
102
RTVSPropertyOp25
 70
     1
102
RTVSPropertyOp26
 70
     1
102
RTVSPropertyOp27
 70
     1
102
RTVSPropertyOp28
 70
     1
102
RTVSPropertyOp29
 70
     1
102
RTVSPropertyOp30
 70
     1
102
RTVSPropertyOp31
 70
     1
102
RTVSPropertyOp32
 70
     1
102
RTVSPropertyOp33
 70
     1
102
RTVSPropertyOp34
 70
     1
102
RTVSPropertyOp35
 70
     1
102
RTVSPropertyOp36
 70
     1
102
RTVSPropertyOp37
 70
     1
102
RTVSPropertyOp38
 70
     1
102
RTVSPropertyOp39
 70
     1
102
RTVSPropertyOp40
 70
     1
102
RTVSPropertyOp41
 70
     1
102
RTVSPropertyOp42
 70
     1
102
RTVSPropertyOp43
 70
     1
102
RTVSPropertyOp44
 70
     1
102
RTVSPropertyOp45
 70
     1
102
RTVSPropertyOp46
 70
     1
102
RTVSPropertyOp47
 70
     1
102
RTVSPropertyOp48
 70
     1
102
RTVSPropertyOp49
 70
     1
102
RTVSPropertyOp50
 70
     1
102
RTVSPropertyOp51
 70
     0
102
RTVSPropertyOp52
 70
     0
102
RTVSPropertyOp53
 70
     1
102
RTVSPropertyOp54
 70
     1
102
RTVSPropertyOp55
 70
     1
102
RTVSPropertyOp56
 70
     1
102
RTVSPropertyOp57
 70
     1
102
RTVSPropertyOp58
 70
     1
102
RTVSPropertyOp59
 70
     1
102
RTVSPropertyOp60
 70
     1
102
RTVSPropertyOp61
 70
     1
102
RTVSPropertyOp62
 70
     1
  0
XRECORD
  5
171DC
102
{ACAD_REACTORS
330
171DB
102
}
330
171DB
100
AcDbXrecord
280
     1
102
RTVSPost2010Prop28
280
     0
102
RTVSPost2010PropOp28
 70
     1
102
RTVSPost2010Prop29
280
     1
102
RTVSPost2010PropOp29
 70
     1
102
RTVSPost2010Prop30
280
     1
102
RTVSPost2010PropOp30
 70
     1
102
RTVSPost2010Prop31
280
     0
102
RTVSPost2010PropOp31
 70
     1
102
RTVSPost2010Prop32
280
     0
102
RTVSPost2010PropOp32
 70
     1
102
RTVSPost2010Prop33
280
     0
102
RTVSPost2010PropOp33
 70
     1
102
RTVSPost2010Prop34
280
     0
102
RTVSPost2010PropOp34
 70
     1
102
RTVSPost2010Prop35
280
     0
102
RTVSPost2010PropOp35
 70
     1
102
RTVSPost2010Prop36
280
     0
102
RTVSPost2010PropOp36
 70
     1
102
RTVSPost2010Prop37
 90
       50
102
RTVSPost2010PropOp37
 70
     1
102
RTVSPost2010Prop38
140
0.0
102
RTVSPost2010PropOp38
 70
     1
102
RTVSPost2010Prop39
140
1.0
102
RTVSPost2010PropOp39
 70
     1
102
RTVSPost2010Prop40
 90
        0
102
RTVSPost2010PropOp40
 70
     1
102
RTVSPost2010Prop41ColorIndex
 90
       18
102
RTVSPost2010Prop41ColorRGB
 90
        0
102
RTVSPost2010PropOp41
 70
     1
102
RTVSPost2010Prop42
 90
       50
102
RTVSPost2010PropOp42
 70
     1
102
RTVSPost2010Prop43
 90
        3
102
RTVSPost2010PropOp43
 70
     1
102
RTVSPost2010Prop44ColorIndex
 90
        5
102
RTVSPost2010Prop44ColorRGB
 90
      255
102
RTVSPost2010PropOp44
 70
     1
102
RTVSPost2010Prop45
280
     0
102
RTVSPost2010PropOp45
 70
     1
102
RTVSPost2010Prop46
 90
       50
102
RTVSPost2010PropOp46
 70
     1
102
RTVSPost2010Prop47
 90
       50
102
RTVSPost2010PropOp47
 70
     1
102
RTVSPost2010Prop48
 90
       50
102
RTVSPost2010PropOp48
 70
     1
102
RTVSPost2010Prop49
280
     0
102
RTVSPost2010PropOp49
 70
     1
102
RTVSPost2010Prop50
 90
       50
102
RTVSPost2010PropOp50
 70
     1
102
RTVSPost2010Prop51ColorIndex
 90
      256
102
RTVSPost2010Prop51ColorRGB
 90
-16777216
102
RTVSPost2010PropOp51
 70
     0
102
RTVSPost2010Prop52
140
1.0
102
RTVSPost2010PropOp52
 70
     0
102
RTVSPost2010Prop53
 90
        2
102
RTVSPost2010PropOp53
 70
     1
102
RTVSPost2010Prop54
  1
strokes_ogs.tif
102
RTVSPost2010PropOp54
 70
     1
102
RTVSPost2010Prop55
280
     0
102
RTVSPost2010PropOp55
 70
     1
102
RTVSPost2010Prop56
140
1.0
102
RTVSPost2010PropOp56
 70
     1
102
RTVSPost2010Prop57
140
1.0
102
RTVSPost2010PropOp57
 70
     1
102
RTVSPropertyOp0
 70
     1
102
RTVSPropertyOp1
 70
     1
102
RTVSPropertyOp2
 70
     1
102
RTVSPropertyOp3
 70
     1
102
RTVSPropertyOp4
 70
     1
102
RTVSPropertyOp5
 70
     1
102
RTVSPropertyOp6
 70
     1
102
RTVSPropertyOp7
 70
     1
102
RTVSPropertyOp8
 70
     1
102
RTVSPropertyOp9
 70
     1
102
RTVSPropertyOp10
 70
     1
102
RTVSPropertyOp11
 70
     1
102
RTVSPropertyOp12
 70
     1
102
RTVSPropertyOp13
 70
     1
102
RTVSPropertyOp14
 70
     1
102
RTVSPropertyOp15
 70
     1
102
RTVSPropertyOp16
 70
     1
102
RTVSPropertyOp17
 70
     1
102
RTVSPropertyOp18
 70
     1
102
RTVSPropertyOp19
 70
     1
102
RTVSPropertyOp20
 70
     1
102
RTVSPropertyOp21
 70
     1
102
RTVSPropertyOp22
 70
     1
102
RTVSPropertyOp23
 70
     1
102
RTVSPropertyOp24
 70
     1
102
RTVSPropertyOp25
 70
     1
102
RTVSPropertyOp26
 70
     1
102
RTVSPropertyOp27
 70
     1
102
RTVSPropertyOp28
 70
     1
102
RTVSPropertyOp29
 70
     1
102
RTVSPropertyOp30
 70
     1
102
RTVSPropertyOp31
 70
     1
102
RTVSPropertyOp32
 70
     1
102
RTVSPropertyOp33
 70
     1
102
RTVSPropertyOp34
 70
     1
102
RTVSPropertyOp35
 70
     1
102
RTVSPropertyOp36
 70
     1
102
RTVSPropertyOp37
 70
     1
102
RTVSPropertyOp38
 70
     1
102
RTVSPropertyOp39
 70
     1
102
RTVSPropertyOp40
 70
     1
102
RTVSPropertyOp41
 70
     1
102
RTVSPropertyOp42
 70
     1
102
RTVSPropertyOp43
 70
     1
102
RTVSPropertyOp44
 70
     1
102
RTVSPropertyOp45
 70
     1
102
RTVSPropertyOp46
 70
     1
102
RTVSPropertyOp47
 70
     1
102
RTVSPropertyOp48
 70
     1
102
RTVSPropertyOp49
 70
     1
102
RTVSPropertyOp50
 70
     1
102
RTVSPropertyOp51
 70
     0
102
RTVSPropertyOp52
 70
     0
102
RTVSPropertyOp53
 70
     1
102
RTVSPropertyOp54
 70
     1
102
RTVSPropertyOp55
 70
     1
102
RTVSPropertyOp56
 70
     1
102
RTVSPropertyOp57
 70
     1
102
RTVSPropertyOp58
 70
     1
102
RTVSPropertyOp59
 70
     1
102
RTVSPropertyOp60
 70
     1
102
RTVSPropertyOp61
 70
     1
102
RTVSPropertyOp62
 70
     1
  0
ENDSEC
  0
EOF
