  0
SECTION
  2
HEADER
  9
$ACADVER
  1
AC1015
  9
$ACADMAINTVER
 70
    20
  9
$DWGCODEPAGE
  3
ANSI_932
  9
$INSBASE
 10
0.0
 20
0.0
 30
0.0
  9
$EXTMIN
 10
10.0
 20
9.999999999999998
 30
0.0
  9
$EXTMAX
 10
372.012469
 20
272.654083
 30
0.0
  9
$LIMMIN
 10
0.0
 20
0.0
  9
$LIMMAX
 10
495.0
 20
341.25
  9
$ORTHOMODE
 70
     0
  9
$REGENMODE
 70
     1
  9
$FILLMODE
 70
     1
  9
$QTEXTMODE
 70
     0
  9
$MIRRTEXT
 70
     1
  9
$LTSCALE
 40
20.0
  9
$ATTMODE
 70
     1
  9
$TEXTSIZE
 40
5.0
  9
$TRACEWID
 40
1.0
  9
$TEXTSTYLE
  7
STANDARD
  9
$CLAYER
  8
0
  9
$CELTYPE
  6
BYLAYER
  9
$CECOLOR
 62
   256
  9
$CELTSCALE
 40
1.0
  9
$DISPSILH
 70
     0
  9
$DIMSCALE
 40
1.0
  9
$DIMASZ
 40
3.0
  9
$DIMEXO
 40
1.0
  9
$DIMDLI
 40
10.0
  9
$DIMRND
 40
0.0
  9
$DIMDLE
 40
0.0
  9
$DIMEXE
 40
1.0
  9
$DIMTP
 40
0.0
  9
$DIMTM
 40
0.0
  9
$DIMTXT
 40
3.2
  9
$DIMCEN
 40
0.0
  9
$DIMTSZ
 40
0.0
  9
$DIMTOL
 70
     0
  9
$DIMLIM
 70
     0
  9
$DIMTIH
 70
     0
  9
$DIMTOH
 70
     0
  9
$DIMSE1
 70
     0
  9
$DIMSE2
 70
     0
  9
$DIMTAD
 70
     3
  9
$DIMZIN
 70
     8
  9
$DIMBLK
  1

  9
$DIMASO
 70
     1
  9
$DIMSHO
 70
     1
  9
$DIMPOST
  1

  9
$DIMAPOST
  1

  9
$DIMALT
 70
     0
  9
$DIMALTD
 70
     2
  9
$DIMALTF
 40
25.4
  9
$DIMLFAC
 40
1.0
  9
$DIMTOFL
 70
     1
  9
$DIMTVP
 40
0.0
  9
$DIMTIX
 70
     0
  9
$DIMSOXD
 70
     0
  9
$DIMSAH
 70
     1
  9
$DIMBLK1
  1
OPEN
  9
$DIMBLK2
  1
OPEN
  9
$DIMSTYLE
  2
STANDARD
  9
$DIMCLRD
 70
     0
  9
$DIMCLRE
 70
     0
  9
$DIMCLRT
 70
     0
  9
$DIMTFAC
 40
1.0
  9
$DIMGAP
 40
1.0
  9
$DIMJUST
 70
     0
  9
$DIMSD1
 70
     0
  9
$DIMSD2
 70
     0
  9
$DIMTOLJ
 70
     1
  9
$DIMTZIN
 70
     0
  9
$DIMALTZ
 70
     0
  9
$DIMALTTZ
 70
     0
  9
$DIMUPT
 70
     0
  9
$DIMDEC
 70
     4
  9
$DIMTDEC
 70
     4
  9
$DIMALTU
 70
     2
  9
$DIMALTTD
 70
     2
  9
$DIMTXSTY
  7
STANDARD
  9
$DIMAUNIT
 70
     0
  9
$DIMADEC
 70
     0
  9
$DIMALTRND
 40
0.0
  9
$DIMAZIN
 70
     0
  9
$DIMDSEP
 70
    46
  9
$DIMATFIT
 70
     3
  9
$DIMFRAC
 70
     0
  9
$DIMLDRBLK
  1
OPEN
  9
$DIMLUNIT
 70
     2
  9
$DIMLWD
 70
    -2
  9
$DIMLWE
 70
    -2
  9
$DIMTMOVE
 70
     0
  9
$LUNITS
 70
     2
  9
$LUPREC
 70
     4
  9
$SKETCHINC
 40
1.0
  9
$FILLETRAD
 40
0.5
  9
$AUNITS
 70
     0
  9
$AUPREC
 70
     2
  9
$MENU
  1
.
  9
$ELEVATION
 40
0.0
  9
$PELEVATION
 40
0.0
  9
$THICKNESS
 40
0.0
  9
$LIMCHECK
 70
     0
  9
$CHAMFERA
 40
10.0
  9
$CHAMFERB
 40
10.0
  9
$CHAMFERC
 40
0.0
  9
$CHAMFERD
 40
0.0
  9
$SKPOLY
 70
     0
  9
$TDCREATE
 40
2451301.694121528
  9
$TDUCREATE
 40
2451301.319121528
  9
$TDUPDATE
 40
2457192.686777743
  9
$TDUUPDATE
 40
2457192.311777743
  9
$TDINDWG
 40
0.0000144329
  9
$TDUSRTIMER
 40
0.0000139468
  9
$USRTIMER
 70
     1
  9
$ANGBASE
 50
0.0
  9
$ANGDIR
 70
     0
  9
$PDMODE
 70
     0
  9
$PDSIZE
 40
0.0
  9
$PLINEWID
 40
0.0
  9
$SPLFRAME
 70
     0
  9
$SPLINETYPE
 70
     6
  9
$SPLINESEGS
 70
     8
  9
$HANDSEED
  5
C3AE
  9
$SURFTAB1
 70
     6
  9
$SURFTAB2
 70
     6
  9
$SURFTYPE
 70
     6
  9
$SURFU
 70
     6
  9
$SURFV
 70
     6
  9
$UCSBASE
  2

  9
$UCSNAME
  2

  9
$UCSORG
 10
0.0
 20
0.0
 30
0.0
  9
$UCSXDIR
 10
1.0
 20
0.0
 30
0.0
  9
$UCSYDIR
 10
0.0
 20
1.0
 30
0.0
  9
$UCSORTHOREF
  2

  9
$UCSORTHOVIEW
 70
     0
  9
$UCSORGTOP
 10
0.0
 20
0.0
 30
0.0
  9
$UCSORGBOTTOM
 10
0.0
 20
0.0
 30
0.0
  9
$UCSORGLEFT
 10
0.0
 20
0.0
 30
0.0
  9
$UCSORGRIGHT
 10
0.0
 20
0.0
 30
0.0
  9
$UCSORGFRONT
 10
0.0
 20
0.0
 30
0.0
  9
$UCSORGBACK
 10
0.0
 20
0.0
 30
0.0
  9
$PUCSBASE
  2

  9
$PUCSNAME
  2

  9
$PUCSORG
 10
0.0
 20
0.0
 30
0.0
  9
$PUCSXDIR
 10
1.0
 20
0.0
 30
0.0
  9
$PUCSYDIR
 10
0.0
 20
1.0
 30
0.0
  9
$PUCSORTHOREF
  2

  9
$PUCSORTHOVIEW
 70
     0
  9
$PUCSORGTOP
 10
0.0
 20
0.0
 30
0.0
  9
$PUCSORGBOTTOM
 10
0.0
 20
0.0
 30
0.0
  9
$PUCSORGLEFT
 10
0.0
 20
0.0
 30
0.0
  9
$PUCSORGRIGHT
 10
0.0
 20
0.0
 30
0.0
  9
$PUCSORGFRONT
 10
0.0
 20
0.0
 30
0.0
  9
$PUCSORGBACK
 10
0.0
 20
0.0
 30
0.0
  9
$USERI1
 70
     0
  9
$USERI2
 70
     0
  9
$USERI3
 70
     0
  9
$USERI4
 70
     0
  9
$USERI5
 70
     0
  9
$USERR1
 40
0.0
  9
$USERR2
 40
0.0
  9
$USERR3
 40
0.0
  9
$USERR4
 40
0.0
  9
$USERR5
 40
0.0
  9
$WORLDVIEW
 70
     1
  9
$SHADEDGE
 70
     3
  9
$SHADEDIF
 70
    70
  9
$TILEMODE
 70
     1
  9
$MAXACTVP
 70
    16
  9
$PINSBASE
 10
0.0
 20
0.0
 30
0.0
  9
$PLIMCHECK
 70
     0
  9
$PEXTMIN
 10
1.000000000000000E+20
 20
1.000000000000000E+20
 30
1.000000000000000E+20
  9
$PEXTMAX
 10
-1.000000000000000E+20
 20
-1.000000000000000E+20
 30
-1.000000000000000E+20
  9
$PLIMMIN
 10
0.0
 20
0.0
  9
$PLIMMAX
 10
420.0
 20
297.0
  9
$UNITMODE
 70
     0
  9
$VISRETAIN
 70
     0
  9
$PLINEGEN
 70
     0
  9
$PSLTSCALE
 70
     0
  9
$TREEDEPTH
 70
  3020
  9
$CMLSTYLE
  2
STANDARD
  9
$CMLJUST
 70
     0
  9
$CMLSCALE
 40
1.0
  9
$PROXYGRAPHICS
 70
     1
  9
$MEASUREMENT
 70
     0
  9
$CELWEIGHT
370
    -1
  9
$ENDCAPS
280
     0
  9
$JOINSTYLE
280
     0
  9
$LWDISPLAY
290
     0
  9
$INSUNITS
 70
     0
  9
$HYPERLINKBASE
  1

  9
$STYLESHEET
  1

  9
$XEDIT
290
     1
  9
$CEPSNTYPE
380
     0
  9
$PSTYLEMODE
290
     1
  9
$FINGERPRINTGUID
  2
{B9F7631F-93DE-43DD-8AAE-F21632D62FA9}
  9
$VERSIONGUID
  2
{25D4ABA8-DAE1-49CD-8DDA-43BDA7F2E614}
  9
$EXTNAMES
290
     1
  9
$PSVPSCALE
 40
0.0
  9
$OLESTARTUP
290
     0
  0
ENDSEC
  0
SECTION
  2
CLASSES
  0
CLASS
  1
ACDBDICTIONARYWDFLT
  2
AcDbDictionaryWithDefault
  3
ObjectDBX Classes
 90
        0
280
     0
281
     0
  0
CLASS
  1
ACDBPLACEHOLDER
  2
AcDbPlaceHolder
  3
ObjectDBX Classes
 90
        0
280
     0
281
     0
  0
CLASS
  1
LAYOUT
  2
AcDbLayout
  3
ObjectDBX Classes
 90
        0
280
     0
281
     0
  0
CLASS
  1
DICTIONARYVAR
  2
AcDbDictionaryVar
  3
ObjectDBX Classes
 90
        0
280
     0
281
     0
  0
CLASS
  1
MATERIAL
  2
AcDbMaterial
  3
ObjectDBX Classes
 90
     1153
280
     0
281
     0
  0
CLASS
  1
VISUALSTYLE
  2
AcDbVisualStyle
  3
ObjectDBX Classes
 90
     4095
280
     0
281
     0
  0
CLASS
  1
TABLESTYLE
  2
AcDbTableStyle
  3
ObjectDBX Classes
 90
     4095
280
     0
281
     0
  0
CLASS
  1
SCALE
  2
AcDbScale
  3
ObjectDBX Classes
 90
     1153
280
     0
281
     0
  0
CLASS
  1
MLEADERSTYLE
  2
AcDbMLeaderStyle
  3
ACDB_MLEADERSTYLE_CLASS
 90
     4095
280
     0
281
     0
  0
CLASS
  1
ACDBSECTIONVIEWSTYLE
  2
AcDbSectionViewStyle
  3
ObjectDBX Classes
 90
     1025
280
     0
281
     0
  0
CLASS
  1
ACDBDETAILVIEWSTYLE
  2
AcDbDetailViewStyle
  3
ObjectDBX Classes
 90
     1025
280
     0
281
     0
  0
CLASS
  1
CELLSTYLEMAP
  2
AcDbCellStyleMap
  3
ObjectDBX Classes
 90
     1152
280
     0
281
     0
  0
ENDSEC
  0
SECTION
  2
TABLES
  0
TABLE
  2
VPORT
  5
BECA
330
0
100
AcDbSymbolTable
 70
     1
  0
VPORT
  5
C2F7
330
BECA
100
AcDbSymbolTableRecord
100
AcDbViewportTableRecord
  2
*ACTIVE
 70
     0
 10
0.0
 20
0.0
 11
1.0
 21
1.0
 12
270.5608819300837
 22
141.3222606633757
 13
0.0
 23
0.0
 14
10.0
 24
10.0
 15
10.0
 25
10.0
 16
0.0
 26
0.0
 36
1.0
 17
0.0
 27
0.0
 37
0.0
 40
265.572664263215
 41
2.35006605019815
 42
50.0
 43
0.0
 44
0.0
 50
0.0
 51
0.0
 71
     0
 72
   100
 73
     1
 74
     0
 75
     0
 76
     0
 77
     0
 78
     0
281
     0
 65
     1
110
0.0
120
0.0
130
0.0
111
1.0
121
0.0
131
0.0
112
0.0
122
1.0
132
0.0
 79
     0
146
0.0
1001
ACAD_NAV_VCDISPLAY
1070
     3
  0
ENDTAB
  0
TABLE
  2
LTYPE
  5
BEC7
330
0
100
AcDbSymbolTable
 70
     4
  0
LTYPE
  5
BED5
330
BEC7
100
AcDbSymbolTableRecord
100
AcDbLinetypeTableRecord
  2
BYBLOCK
 70
     0
  3

 72
    65
 73
     0
 40
0.0
  0
LTYPE
  5
BED6
330
BEC7
100
AcDbSymbolTableRecord
100
AcDbLinetypeTableRecord
  2
BYLAYER
 70
     0
  3

 72
    65
 73
     0
 40
0.0
  0
LTYPE
  5
BED7
330
BEC7
100
AcDbSymbolTableRecord
100
AcDbLinetypeTableRecord
  2
CONTINUOUS
 70
     0
  3
Solid line
 72
    65
 73
     0
 40
0.0
  0
LTYPE
  5
BEE5
330
BEC7
100
AcDbSymbolTableRecord
100
AcDbLinetypeTableRecord
  2
DASHED
 70
     0
  3
__ __ __ __ __ __ __ __ __ __ __ __ __ __ __ __
 72
    65
 73
     2
 40
0.75
 49
0.5
 74
     0
 49
-0.25
 74
     0
  0
LTYPE
  5
BEE6
330
BEC7
100
AcDbSymbolTableRecord
100
AcDbLinetypeTableRecord
  2
CENTER
 70
     0
  3
____ _ ____ _ ____ _ ____ _ ____ _ ____ _ ____ 
 72
    65
 73
     4
 40
2.0
 49
1.25
 74
     0
 49
-0.25
 74
     0
 49
0.25
 74
     0
 49
-0.25
 74
     0
  0
LTYPE
  5
BEE7
330
BEC7
100
AcDbSymbolTableRecord
100
AcDbLinetypeTableRecord
  2
PHANTOM
 70
     0
  3
______  __  __  ______  __  __  ______  __  __ 
 72
    65
 73
     6
 40
2.5
 49
1.25
 74
     0
 49
-0.25
 74
     0
 49
0.25
 74
     0
 49
-0.25
 74
     0
 49
0.25
 74
     0
 49
-0.25
 74
     0
  0
ENDTAB
  0
TABLE
  2
LAYER
  5
BEC4
330
0
100
AcDbSymbolTable
 70
     8
  0
LAYER
  5
BED2
102
{ACAD_XDICTIONARY
360
C352
102
}
330
BEC4
100
AcDbSymbolTableRecord
100
AcDbLayerTableRecord
  2
0
 70
     0
 62
     7
  6
CONTINUOUS
370
    -3
390
C300
  0
LAYER
  5
BEE8
102
{ACAD_XDICTIONARY
360
C354
102
}
330
BEC4
100
AcDbSymbolTableRecord
100
AcDbLayerTableRecord
  2
4
 70
     0
 62
     1
  6
CENTER
370
    -3
390
C300
  0
LAYER
  5
BEE9
102
{ACAD_XDICTIONARY
360
C356
102
}
330
BEC4
100
AcDbSymbolTableRecord
100
AcDbLayerTableRecord
  2
5
 70
     0
 62
     6
  6
PHANTOM
370
    -3
390
C300
  0
LAYER
  5
BEEA
102
{ACAD_XDICTIONARY
360
C358
102
}
330
BEC4
100
AcDbSymbolTableRecord
100
AcDbLayerTableRecord
  2
1
 70
     0
 62
     7
  6
CONTINUOUS
370
    -3
390
C300
  0
LAYER
  5
BEEB
102
{ACAD_XDICTIONARY
360
C35A
102
}
330
BEC4
100
AcDbSymbolTableRecord
100
AcDbLayerTableRecord
  2
2
 70
     0
 62
     4
  6
CONTINUOUS
370
    -3
390
C300
  0
LAYER
  5
BEEC
102
{ACAD_XDICTIONARY
360
C35C
102
}
330
BEC4
100
AcDbSymbolTableRecord
100
AcDbLayerTableRecord
  2
3
 70
     0
 62
     2
  6
DASHED
370
    -3
390
C300
  0
LAYER
  5
BEED
102
{ACAD_XDICTIONARY
360
C35E
102
}
330
BEC4
100
AcDbSymbolTableRecord
100
AcDbLayerTableRecord
  2
6
 70
     0
 62
     5
  6
CONTINUOUS
370
    -3
390
C300
  0
LAYER
  5
BEEE
102
{ACAD_XDICTIONARY
360
C360
102
}
330
BEC4
100
AcDbSymbolTableRecord
100
AcDbLayerTableRecord
  2
7
 70
     0
 62
     3
  6
CONTINUOUS
370
    -3
390
C300
  0
ENDTAB
  0
TABLE
  2
STYLE
  5
BEC5
330
0
100
AcDbSymbolTable
 70
     1
  0
STYLE
  5
BED3
330
BEC5
100
AcDbSymbolTableRecord
100
AcDbTextStyleTableRecord
  2
STANDARD
 70
     0
 40
0.0
 41
1.0
 50
0.0
 71
     0
 42
5.0
  3
txt
  4

  0
ENDTAB
  0
TABLE
  2
VIEW
  5
BEC8
330
0
100
AcDbSymbolTable
 70
     0
  0
ENDTAB
  0
TABLE
  2
UCS
  5
BEC9
330
0
100
AcDbSymbolTable
 70
     0
  0
ENDTAB
  0
TABLE
  2
APPID
  5
BECB
330
0
100
AcDbSymbolTable
 70
     3
  0
APPID
  5
BED4
330
BECB
100
AcDbSymbolTableRecord
100
AcDbRegAppTableRecord
  2
ACAD
 70
     0
  0
APPID
  5
C36C
330
BECB
100
AcDbSymbolTableRecord
100
AcDbRegAppTableRecord
  2
ACAD_NAV_VCDISPLAY
 70
     0
  0
APPID
  5
C3A5
330
BECB
100
AcDbSymbolTableRecord
100
AcDbRegAppTableRecord
  2
ACAD_MLEADERVER
 70
     0
  0
ENDTAB
  0
TABLE
  2
DIMSTYLE
  5
BECC
330
0
100
AcDbSymbolTable
 70
     1
100
AcDbDimStyleTable
 71
     0
  0
DIMSTYLE
105
BEF0
330
BECC
100
AcDbSymbolTableRecord
100
AcDbDimStyleTableRecord
  2
STANDARD
 70
     0
 41
3.0
 42
1.0
 43
10.0
 44
1.0
 73
     0
 74
     0
 77
     3
 78
     8
140
3.2
141
0.0
147
1.0
172
     1
173
     1
284
     8
285
     8
286
     8
340
BED3
  0
ENDTAB
  0
TABLE
  2
BLOCK_RECORD
  5
BEC3
330
0
100
AcDbSymbolTable
 70
     1
  0
BLOCK_RECORD
  5
BEE0
102
{ACAD_XDICTIONARY
360
C2FA
102
}
330
BEC3
100
AcDbSymbolTableRecord
100
AcDbBlockTableRecord
  2
*MODEL_SPACE
340
C34E
  0
BLOCK_RECORD
  5
BEDC
102
{ACAD_XDICTIONARY
360
C2F8
102
}
330
BEC3
100
AcDbSymbolTableRecord
100
AcDbBlockTableRecord
  2
*PAPER_SPACE
340
C34F
  0
BLOCK_RECORD
  5
BEF8
330
BEC3
100
AcDbSymbolTableRecord
100
AcDbBlockTableRecord
  2
_OPEN
340
0
  0
ENDTAB
  0
ENDSEC
  0
SECTION
  2
BLOCKS
  0
BLOCK
  5
BEE1
330
BEE0
100
AcDbEntity
  8
0
100
AcDbBlockBegin
  2
*MODEL_SPACE
 70
     0
 10
0.0
 20
0.0
 30
0.0
  3
*MODEL_SPACE
  1

  0
ENDBLK
  5
BEE2
330
BEE0
100
AcDbEntity
  8
0
100
AcDbBlockEnd
  0
BLOCK
  5
BEDD
330
BEDC
100
AcDbEntity
 67
     1
  8
0
100
AcDbBlockBegin
  2
*PAPER_SPACE
 70
     0
 10
0.0
 20
0.0
 30
0.0
  3
*PAPER_SPACE
  1

  0
ENDBLK
  5
BEDE
330
BEDC
100
AcDbEntity
 67
     1
  8
0
100
AcDbBlockEnd
  0
BLOCK
  5
BEF9
330
BEF8
100
AcDbEntity
  8
0
100
AcDbBlockBegin
  2
_OPEN
 70
     0
 10
0.0
 20
0.0
 30
0.0
  3
_OPEN
  1

  0
LINE
  5
BEFA
330
BEF8
100
AcDbEntity
  8
0
  6
ByBlock
 62
     0
100
AcDbLine
 10
-1.0
 20
0.166667
 30
0.0
 11
0.0
 21
0.0
 31
0.0
  0
LINE
  5
BEFB
330
BEF8
100
AcDbEntity
  8
0
  6
ByBlock
 62
     0
100
AcDbLine
 10
0.0
 20
0.0
 30
0.0
 11
-1.0
 21
-0.166667
 31
0.0
  0
LINE
  5
BEFC
330
BEF8
100
AcDbEntity
  8
0
  6
ByBlock
 62
     0
100
AcDbLine
 10
0.0
 20
0.0
 30
0.0
 11
-1.0
 21
0.0
 31
0.0
  0
ENDBLK
  5
BEFD
330
BEF8
100
AcDbEntity
  8
0
100
AcDbBlockEnd
  0
ENDSEC
  0
SECTION
  2
ENTITIES
  0
TEXT
  5
BEFE
330
BEE0
100
AcDbEntity
  8
7
  6
Continuous
100
AcDbText
 10
10.0
 20
18.0
 30
0.0
 40
3.0
  1
TYPE No.104-NS
100
AcDbText
  0
TEXT
  5
BEFF
330
BEE0
100
AcDbEntity
  8
7
  6
Continuous
100
AcDbText
 10
10.0
 20
26.0
 30
0.0
 40
3.0
  1
CODE No.9056
100
AcDbText
  0
TEXT
  5
BF00
330
BEE0
100
AcDbEntity
  8
1
  6
Continuous
100
AcDbText
 10
10.0
 20
10.0
 30
0.0
 40
1.399999999999999
  1
LAYER
100
AcDbText
  0
TEXT
  5
BF01
330
BEE0
100
AcDbEntity
  8
1
  6
Continuous
100
AcDbText
 10
17.97951099999998
 20
10.04873699999998
 30
0.0
 40
1.399999999999999
  1
1
100
AcDbText
  0
TEXT
  5
BF02
330
BEE0
100
AcDbEntity
  8
7
  6
Continuous
100
AcDbText
 10
29.97951099999999
 20
10.04873699999998
 30
0.0
 40
1.399999999999999
  1
7
100
AcDbText
  0
TEXT
  5
BF03
330
BEE0
100
AcDbEntity
  8
4
  6
CENTER
100
AcDbText
 10
23.97951099999999
 20
10.04873699999998
 30
0.0
 40
1.399999999999999
  1
4
100
AcDbText
  0
TEXT
  5
BF04
330
BEE0
100
AcDbEntity
  8
3
  6
DASHED
100
AcDbText
 10
21.979511
 20
10.04873699999998
 30
0.0
 40
1.399999999999999
  1
3
100
AcDbText
  0
TEXT
  5
BF05
330
BEE0
100
AcDbEntity
  8
2
  6
Continuous
100
AcDbText
 10
19.97951099999999
 20
10.04873699999998
 30
0.0
 40
1.399999999999999
  1
2
100
AcDbText
  0
TEXT
  5
BF06
330
BEE0
100
AcDbEntity
  8
6
  6
Continuous
100
AcDbText
 10
27.979511
 20
10.04873699999998
 30
0.0
 40
1.399999999999999
  1
6
100
AcDbText
  0
TEXT
  5
BF07
330
BEE0
100
AcDbEntity
  8
5
  6
PHANTOM
100
AcDbText
 10
25.97951099999999
 20
10.04873699999998
 30
0.0
 40
1.399999999999999
  1
5
100
AcDbText
  0
LINE
  5
BF08
330
BEE0
100
AcDbEntity
  8
4
  6
CENTER
100
AcDbLine
 10
200.222845
 20
148.369317
 30
0.0
 11
257.7601399999999
 21
148.369317
 31
0.0
  0
LINE
  5
BF09
330
BEE0
100
AcDbEntity
  8
4
  6
CENTER
100
AcDbLine
 10
129.408073
 20
120.3698759999999
 30
0.0
 11
129.408073
 21
176.369876
 31
0.0
  0
LINE
  5
BF0A
330
BEE0
100
AcDbEntity
  8
4
  6
CENTER
100
AcDbLine
 10
101.408073
 20
148.369876
 30
0.0
 11
157.408073
 21
148.369876
 31
0.0
  0
ARC
  5
BF0B
330
BEE0
100
AcDbEntity
  8
1
  6
Continuous
100
AcDbCircle
 10
129.408073
 20
148.369876
 30
0.0
 40
25.0
100
AcDbArc
 50
98.15888300000001
 51
153.913614
  0
ARC
  5
BF0C
330
BEE0
100
AcDbEntity
  8
1
  6
Continuous
100
AcDbCircle
 10
129.408073
 20
148.369876
 30
0.0
 40
19.5
100
AcDbArc
 50
103.048216
 51
145.684396
  0
LINE
  5
BF0D
330
BEE0
100
AcDbEntity
  8
4
  6
CENTER
100
AcDbLine
 10
149.4081879999999
 20
164.545231
 30
0.0
 11
149.4081879999999
 21
194.9908529999999
 31
0.0
  0
LINE
  5
BF0E
330
BEE0
100
AcDbEntity
  8
4
  6
CENTER
100
AcDbLine
 10
183.908626
 20
246.654083
 30
0.0
 11
99.41836700000001
 21
246.654083
 31
0.0
  0
LINE
  5
BF0F
330
BEE0
100
AcDbEntity
  8
1
  6
Continuous
100
AcDbLine
 10
121.908626
 20
225.654083
 30
0.0
 11
176.9086259999999
 21
225.654083
 31
0.0
  0
LINE
  5
BF10
330
BEE0
100
AcDbEntity
  8
1
  6
Continuous
100
AcDbLine
 10
121.908626
 20
267.6540829999999
 30
0.0
 11
176.9086259999999
 21
267.6540829999999
 31
0.0
  0
LINE
  5
BF11
330
BEE0
100
AcDbEntity
  8
4
  6
CENTER
100
AcDbLine
 10
149.4086259999999
 20
272.654083
 30
0.0
 11
149.4086259999999
 21
220.522338
 31
0.0
  0
LINE
  5
BF12
330
BEE0
100
AcDbEntity
  8
1
  6
Continuous
100
AcDbLine
 10
119.4086259999999
 20
265.154083
 30
0.0
 11
119.4086259999999
 21
228.154083
 31
0.0
  0
ARC
  5
BF13
330
BEE0
100
AcDbEntity
  8
1
  6
Continuous
100
AcDbCircle
 10
204.4090339999999
 20
246.654083
 30
0.0
 40
100.0
100
AcDbArc
 50
174.730718
 51
185.269282
  0
CIRCLE
  5
BF14
330
BEE0
100
AcDbEntity
  8
1
  6
Continuous
100
AcDbCircle
 10
149.4086259999999
 20
246.654083
 30
0.0
 40
8.5
  0
LINE
  5
BF15
330
BEE0
100
AcDbEntity
  8
4
  6
CENTER
100
AcDbLine
 10
132.1586259999999
 20
232.1540829999999
 30
0.0
 11
119.6586259999999
 21
232.1540829999999
 31
0.0
  0
CIRCLE
  5
BF16
330
BEE0
100
AcDbEntity
  8
1
  6
Continuous
100
AcDbCircle
 10
125.9086259999999
 20
232.1540829999999
 30
0.0
 40
3.25
  0
LINE
  5
BF17
330
BEE0
100
AcDbEntity
  8
1
  6
Continuous
100
AcDbLine
 10
119.4086259999999
 20
235.654083
 30
0.0
 11
106.8231739999999
 21
235.654083
 31
0.0
  0
ARC
  5
BF18
330
BEE0
100
AcDbEntity
  8
1
  6
Continuous
100
AcDbCircle
 10
106.8231739999999
 20
237.654083
 30
0.0
 40
2.0
100
AcDbArc
 50
185.269282
 51
270.0
  0
LINE
  5
BF19
330
BEE0
100
AcDbEntity
  8
4
  6
CENTER
100
AcDbLine
 10
125.9086259999999
 20
238.4040829999999
 30
0.0
 11
125.9086259999999
 21
225.9040829999999
 31
0.0
  0
ARC
  5
BF1A
330
BEE0
100
AcDbEntity
  8
1
  6
Continuous
100
AcDbCircle
 10
121.908626
 20
228.154083
 30
0.0
 40
2.5
100
AcDbArc
 50
180.0
 51
270.0
  0
LINE
  5
BF1B
330
BEE0
100
AcDbEntity
  8
4
  6
CENTER
100
AcDbLine
 10
132.1586259999999
 20
261.154083
 30
0.0
 11
119.6586259999999
 21
261.154083
 31
0.0
  0
CIRCLE
  5
BF1C
330
BEE0
100
AcDbEntity
  8
1
  6
Continuous
100
AcDbCircle
 10
125.9086259999999
 20
261.154083
 30
0.0
 40
3.25
  0
LINE
  5
BF1D
330
BEE0
100
AcDbEntity
  8
4
  6
CENTER
100
AcDbLine
 10
125.9086259999999
 20
254.904083
 30
0.0
 11
125.9086259999999
 21
267.404083
 31
0.0
  0
ARC
  5
BF1E
330
BEE0
100
AcDbEntity
  8
1
  6
Continuous
100
AcDbCircle
 10
121.908626
 20
265.154083
 30
0.0
 40
2.5
100
AcDbArc
 50
90.0
 51
180.0
  0
LINE
  5
BF1F
330
BEE0
100
AcDbEntity
  8
1
  6
Continuous
100
AcDbLine
 10
119.4086259999999
 20
257.654083
 30
0.0
 11
106.8231739999999
 21
257.654083
 31
0.0
  0
ARC
  5
BF20
330
BEE0
100
AcDbEntity
  8
1
  6
Continuous
100
AcDbCircle
 10
106.8231739999999
 20
255.654083
 30
0.0
 40
2.0
100
AcDbArc
 50
90.0
 51
174.730718
  0
LINE
  5
BF21
330
BEE0
100
AcDbEntity
  8
4
  6
CENTER
100
AcDbLine
 10
179.158626
 20
232.1540829999999
 30
0.0
 11
166.658626
 21
232.1540829999999
 31
0.0
  0
LINE
  5
BF22
330
BEE0
100
AcDbEntity
  8
4
  6
CENTER
100
AcDbLine
 10
172.908626
 20
238.4040829999999
 30
0.0
 11
172.908626
 21
225.9040829999999
 31
0.0
  0
CIRCLE
  5
BF23
330
BEE0
100
AcDbEntity
  8
1
  6
Continuous
100
AcDbCircle
 10
172.908626
 20
232.1540829999999
 30
0.0
 40
3.25
  0
ARC
  5
BF24
330
BEE0
100
AcDbEntity
  8
1
  6
Continuous
100
AcDbCircle
 10
176.9086259999999
 20
228.154083
 30
0.0
 40
2.5
100
AcDbArc
 50
270.0
 51
0.0
  0
LINE
  5
BF25
330
BEE0
100
AcDbEntity
  8
4
  6
CENTER
100
AcDbLine
 10
172.908626
 20
254.904083
 30
0.0
 11
172.908626
 21
267.404083
 31
0.0
  0
ARC
  5
BF26
330
BEE0
100
AcDbEntity
  8
1
  6
Continuous
100
AcDbCircle
 10
176.9086259999999
 20
265.154083
 30
0.0
 40
2.5
100
AcDbArc
 50
0.0
 51
90.0
  0
LINE
  5
BF27
330
BEE0
100
AcDbEntity
  8
4
  6
CENTER
100
AcDbLine
 10
179.158626
 20
261.154083
 30
0.0
 11
166.658626
 21
261.154083
 31
0.0
  0
CIRCLE
  5
BF28
330
BEE0
100
AcDbEntity
  8
1
  6
Continuous
100
AcDbCircle
 10
172.908626
 20
261.154083
 30
0.0
 40
3.25
  0
LINE
  5
BF29
330
BEE0
100
AcDbEntity
  8
1
  6
Continuous
100
AcDbLine
 10
179.408626
 20
265.154083
 30
0.0
 11
179.408626
 21
228.154083
 31
0.0
  0
LINE
  5
BF2A
330
BEE0
100
AcDbEntity
  8
4
  6
CENTER
100
AcDbLine
 10
235.5168449999999
 20
194.9908529999999
 30
0.0
 11
235.5168449999999
 21
118.3693169999999
 31
0.0
  0
LINE
  5
BF2B
330
BEE0
100
AcDbEntity
  8
1
  6
Continuous
100
AcDbLine
 10
254.5168449999999
 20
179.471458
 30
0.0
 11
254.5168449999999
 21
157.6942949999998
 31
0.0
  0
LINE
  5
BF2C
330
BEE0
100
AcDbEntity
  8
1
  6
Continuous
100
AcDbLine
 10
246.853669
 20
142.2964629999998
 30
0.0
 11
246.5168449999999
 21
142.2370719999999
 31
0.0
  0
LINE
  5
BF2D
330
BEE0
100
AcDbEntity
  8
1
  6
Continuous
100
AcDbLine
 10
246.853669
 20
154.4421709999998
 30
0.0
 11
246.5168449999999
 21
154.501562
 31
0.0
  0
ARC
  5
BF2E
330
BEE0
100
AcDbEntity
  8
1
  6
Continuous
100
AcDbCircle
 10
244.516845
 20
125.783457
 30
0.0
 40
2.0
100
AcDbArc
 50
275.2692819999999
 51
0.0
  0
LINE
  5
BF2F
330
BEE0
100
AcDbEntity
  8
1
  6
Continuous
100
AcDbLine
 10
246.5168449999999
 20
170.955177
 30
0.0
 11
246.5168449999999
 21
125.783457
 31
0.0
  0
LINE
  5
BF30
330
BEE0
100
AcDbEntity
  8
1
  6
Continuous
100
AcDbLine
 10
224.5168449999999
 20
170.955177
 30
0.0
 11
224.5168449999999
 21
125.783457
 31
0.0
  0
ARC
  5
BF31
330
BEE0
100
AcDbEntity
  8
1
  6
Continuous
100
AcDbCircle
 10
235.5168449999999
 20
223.369317
 30
0.0
 40
100.0
100
AcDbArc
 50
264.730718
 51
275.2692819999999
  0
ARC
  5
BF32
330
BEE0
100
AcDbEntity
  8
1
  6
Continuous
100
AcDbCircle
 10
226.5168449999999
 20
125.783457
 30
0.0
 40
2.0
100
AcDbArc
 50
180.0
 51
264.730718
  0
LINE
  5
BF33
330
BEE0
100
AcDbEntity
  8
1
  6
Continuous
100
AcDbLine
 10
223.766845
 20
153.9497669999998
 30
0.0
 11
223.766845
 21
142.7888669999999
 31
0.0
  0
LINE
  5
BF34
330
BEE0
100
AcDbEntity
  8
1
  6
Continuous
100
AcDbLine
 10
222.777577
 20
145.369317
 30
0.0
 11
223.766845
 21
145.369317
 31
0.0
  0
ARC
  5
BF35
330
BEE0
100
AcDbEntity
  8
1
  6
Continuous
100
AcDbCircle
 10
224.266845
 20
142.7888669999999
 30
0.0
 40
0.5
100
AcDbArc
 50
180.0
 51
260.0
  0
LINE
  5
BF36
330
BEE0
100
AcDbEntity
  8
1
  6
Continuous
100
AcDbLine
 10
224.180021
 20
142.2964629999998
 30
0.0
 11
224.5168449999999
 21
142.2370719999999
 31
0.0
  0
LINE
  5
BF37
330
BEE0
100
AcDbEntity
  8
1
  6
Continuous
100
AcDbLine
 10
222.7650619999999
 20
151.3693169999999
 30
0.0
 11
223.766845
 21
151.3693169999999
 31
0.0
  0
ARC
  5
BF38
330
BEE0
100
AcDbEntity
  8
1
  6
Continuous
100
AcDbCircle
 10
224.266845
 20
153.9497669999998
 30
0.0
 40
0.5
100
AcDbArc
 50
100.0
 51
180.0
  0
LINE
  5
BF39
330
BEE0
100
AcDbEntity
  8
1
  6
Continuous
100
AcDbLine
 10
224.180021
 20
154.4421709999998
 30
0.0
 11
224.5168449999999
 21
154.501562
 31
0.0
  0
ARC
  5
BF3A
330
BEE0
100
AcDbEntity
  8
1
  6
Continuous
100
AcDbCircle
 10
246.766845
 20
142.7888669999999
 30
0.0
 40
0.5
100
AcDbArc
 50
280.0
 51
0.0
  0
ARC
  5
BF3B
330
BEE0
100
AcDbEntity
  8
1
  6
Continuous
100
AcDbCircle
 10
246.766845
 20
153.9497669999998
 30
0.0
 40
0.5
100
AcDbArc
 50
0.0
 51
80.0
  0
LINE
  5
BF3C
330
BEE0
100
AcDbEntity
  8
1
  6
Continuous
100
AcDbLine
 10
222.1195209999999
 20
175.7677069999998
 30
0.0
 11
248.9141689999999
 21
175.7677069999998
 31
0.0
  0
ARC
  5
BF3D
330
BEE0
100
AcDbEntity
  8
1
  6
Continuous
100
AcDbCircle
 10
244.516845
 20
170.955177
 30
0.0
 40
2.0
100
AcDbArc
 50
0.0
 51
84.73071800000003
  0
LINE
  5
BF3E
330
BEE0
100
AcDbEntity
  8
1
  6
Continuous
100
AcDbLine
 10
217.0168449999999
 20
182.471527
 30
0.0
 11
254.0168449999999
 21
182.471312
 31
0.0
  0
ARC
  5
BF3F
330
BEE0
100
AcDbEntity
  8
1
  6
Continuous
100
AcDbCircle
 10
219.516845
 20
179.471458
 30
0.0
 40
3.0
100
AcDbArc
 50
90.0
 51
180.0
  0
ARC
  5
BF40
330
BEE0
100
AcDbEntity
  8
1
  6
Continuous
100
AcDbCircle
 10
235.5168449999999
 20
73.36931699999998
 30
0.0
 40
100.0
100
AcDbArc
 50
84.73071800000003
 51
95.26928199999998
  0
ARC
  5
BF41
330
BEE0
100
AcDbEntity
  8
1
  6
Continuous
100
AcDbCircle
 10
226.5168449999999
 20
170.955177
 30
0.0
 40
2.0
100
AcDbArc
 50
95.26928199999998
 51
180.0
  0
ARC
  5
BF42
330
BEE0
100
AcDbEntity
  8
1
  6
Continuous
100
AcDbCircle
 10
239.257325
 20
166.1760909999999
 30
0.0
 40
13.262575
100
AcDbArc
 50
4.189117999999997
 51
46.32007700000001
  0
ARC
  5
BF43
330
BEE0
100
AcDbEntity
  8
1
  6
Continuous
100
AcDbCircle
 10
240.398089
 20
166.259645
 30
0.0
 40
14.11875499999999
100
AcDbArc
 50
0.0
 51
33.136856
  0
ARC
  5
BF44
330
BEE0
100
AcDbEntity
  8
1
  6
Continuous
100
AcDbCircle
 10
240.398089
 20
166.259645
 30
0.0
 40
12.118755
100
AcDbArc
 50
3.236625
 51
4.189117999999997
  0
ARC
  5
BF45
330
BEE0
100
AcDbEntity
  8
1
  6
Continuous
100
AcDbCircle
 10
248.9141689999999
 20
171.8190169999998
 30
0.0
 40
3.94869
100
AcDbArc
 50
33.136856
 51
90.0
  0
ARC
  5
BF46
330
BEE0
100
AcDbEntity
  8
1
  6
Continuous
100
AcDbCircle
 10
251.5168449999999
 20
179.471458
 30
0.0
 40
3.0
100
AcDbArc
 50
0.0
 51
90.0
  0
LINE
  5
BF47
330
BEE0
100
AcDbEntity
  8
1
  6
Continuous
100
AcDbLine
 10
179.408188
 20
188.369573
 30
0.0
 11
119.4081879999999
 21
188.369573
 31
0.0
  0
LINE
  5
BF48
330
BEE0
100
AcDbEntity
  8
1
  6
Continuous
100
AcDbLine
 10
179.408188
 20
190.369876
 30
0.0
 11
119.4081879999999
 21
190.369876
 31
0.0
  0
LINE
  5
BF49
330
BEE0
100
AcDbEntity
  8
1
  6
Continuous
100
AcDbLine
 10
165.977136
 20
182.498601
 30
0.0
 11
133.1581879999999
 21
182.498601
 31
0.0
  0
ARC
  5
BF4A
330
BEE0
100
AcDbEntity
  8
1
  6
Continuous
100
AcDbCircle
 10
86.23925600000005
 20
212.636803
 30
0.0
 40
81.299728
100
AcDbArc
 50
325.0367509999999
 51
326.0955629999999
  0
ARC
  5
BF4B
330
BEE0
100
AcDbEntity
  8
1
  6
Continuous
100
AcDbCircle
 10
158.8771219999999
 20
199.8073149999999
 30
0.0
 40
25.564794
100
AcDbArc
 50
277.268991
 51
287.097823
  0
ARC
  5
BF4C
330
BEE0
100
AcDbEntity
  8
1
  6
Continuous
100
AcDbCircle
 10
166.121929
 20
147.5912319999999
 30
0.0
 40
27.174347
100
AcDbArc
 50
99.24101300000003
 51
101.2621379999999
  0
ARC
  5
BF4D
330
BEE0
100
AcDbEntity
  8
1
  6
Continuous
100
AcDbCircle
 10
161.3085289999999
 20
180.7453689999999
 30
0.0
 40
6.348405999999997
100
AcDbArc
 50
274.060533
 51
277.268991
  0
ARC
  5
BF4E
330
BEE0
100
AcDbEntity
  8
1
  6
Continuous
100
AcDbCircle
 10
176.1203489999998
 20
152.2291109999999
 30
0.0
 40
26.994778
100
AcDbArc
 50
137.7128429999999
 51
146.0955629999999
  0
ARC
  5
BF4F
330
BEE0
100
AcDbEntity
  8
1
  6
Continuous
100
AcDbCircle
 10
112.6187849999999
 20
209.985074
 30
0.0
 40
58.84344099999999
100
AcDbArc
 50
317.712843
 51
320.298966
  0
ARC
  5
BF50
330
BEE0
100
AcDbEntity
  8
1
  6
Continuous
100
AcDbCircle
 10
164.236996
 20
165.997031
 30
0.0
 40
9.035839999999996
100
AcDbArc
 50
119.5473379999999
 51
131.621551
  0
ARC
  5
BF51
330
BEE0
100
AcDbEntity
  8
1
  6
Continuous
100
AcDbCircle
 10
161.492693
 20
170.838233
 30
0.0
 40
3.470911
100
AcDbArc
 50
101.2621379999999
 51
119.5473379999999
  0
ARC
  5
BF52
330
BEE0
100
AcDbEntity
  8
1
  6
Continuous
100
AcDbCircle
 10
160.401972
 20
170.313251
 30
0.0
 40
3.262005999999998
100
AcDbArc
 50
131.621551
 51
140.2989659999998
  0
ARC
  5
BF53
330
BEE0
100
AcDbEntity
  8
1
  6
Continuous
100
AcDbCircle
 10
163.1690709999998
 20
179.01377
 30
0.0
 40
4.757115999999999
100
AcDbArc
 50
16.00725999999999
 51
38.156408
  0
ARC
  5
BF54
330
BEE0
100
AcDbEntity
  8
1
  6
Continuous
100
AcDbCircle
 10
166.509469
 20
175.8890879999999
 30
0.0
 40
0.529613
100
AcDbArc
 50
257.3263379999999
 51
291.788685
  0
ARC
  5
BF55
330
BEE0
100
AcDbEntity
  8
1
  6
Continuous
100
AcDbCircle
 10
167.0381159999998
 20
185.499407
 30
0.0
 40
10.10755199999998
100
AcDbArc
 50
268.1173269999998
 51
270.623572
  0
LINE
  5
BF56
330
BEE0
100
AcDbEntity
  8
1
  6
Continuous
100
AcDbLine
 10
167.206219
 20
175.3819969999999
 30
0.0
 11
167.148119
 21
175.3924529999999
 31
0.0
  0
ARC
  5
BF57
330
BEE0
100
AcDbEntity
  8
1
  6
Continuous
100
AcDbCircle
 10
175.0779459999999
 20
178.5241919999999
 30
0.0
 40
6.985907
100
AcDbArc
 50
178.5787389999999
 51
186.9819969999998
  0
ARC
  5
BF58
330
BEE0
100
AcDbEntity
  8
1
  6
Continuous
100
AcDbCircle
 10
163.301721
 20
178.4759019999999
 30
0.0
 40
4.797585999999999
100
AcDbArc
 50
2.646974999999998
 51
17.117355
  0
ARC
  5
BF59
330
BEE0
100
AcDbEntity
  8
1
  6
Continuous
100
AcDbCircle
 10
157.549482
 20
176.704375
 30
0.0
 40
10.81643699999998
100
AcDbArc
 50
17.117355
 51
19.559647
  0
ARC
  5
BF5A
330
BEE0
100
AcDbEntity
  8
1
  6
Continuous
100
AcDbCircle
 10
165.337872
 20
180.3367859999999
 30
0.0
 40
2.254351999999999
100
AcDbArc
 50
45.79309799999999
 51
73.52670899999998
  0
LINE
  5
BF5B
330
BEE0
100
AcDbEntity
  8
1
  6
Continuous
100
AcDbLine
 10
134.864046
 20
178.2874209999999
 30
0.0
 11
134.864046
 21
163.4036059999999
 31
0.0
  0
ARC
  5
BF5C
330
BEE0
100
AcDbEntity
  8
1
  6
Continuous
100
AcDbCircle
 10
130.257608
 20
147.3515769999998
 30
0.0
 40
8.139077
100
AcDbArc
 50
238.46906
 51
289.61189
  0
ARC
  5
BF5D
330
BEE0
100
AcDbEntity
  8
1
  6
Continuous
100
AcDbCircle
 10
141.173177
 20
174.2241459999999
 30
0.0
 40
14.267886
100
AcDbArc
 50
314.297457
 51
325.0367509999999
  0
ARC
  5
BF5E
330
BEE0
100
AcDbEntity
  8
1
  6
Continuous
100
AcDbCircle
 10
154.0360189999999
 20
161.041931
 30
0.0
 40
4.150134999999997
100
AcDbArc
 50
134.297457
 51
146.0310519999999
  0
LINE
  5
BF5F
330
BEE0
100
AcDbEntity
  8
1
  6
Continuous
100
AcDbLine
 10
128.275711
 20
179.6524039999999
 30
0.0
 11
134.8762309999999
 21
179.6524039999999
 31
0.0
  0
ARC
  5
BF60
330
BEE0
100
AcDbEntity
  8
1
  6
Continuous
100
AcDbCircle
 10
128.275711
 20
185.919971
 30
0.0
 40
6.267566999999997
100
AcDbArc
 50
267.0048919999999
 51
274.398035
  0
ARC
  5
BF61
330
BEE0
100
AcDbEntity
  8
1
  6
Continuous
100
AcDbCircle
 10
133.756876
 20
178.155862
 30
0.0
 40
4.359511999999998
100
AcDbArc
 50
95.027632
 51
153.6752799999999
  0
ARC
  5
BF62
330
BEE0
100
AcDbEntity
  8
1
  6
Continuous
100
AcDbCircle
 10
129.485943
 20
180.1001079999998
 30
0.0
 40
0.409037
100
AcDbArc
 50
274.019213
 51
314.03143
  0
ARC
  5
BF63
330
BEE0
100
AcDbEntity
  8
1
  6
Continuous
100
AcDbCircle
 10
128.884097
 20
188.665634
 30
0.0
 40
8.995680999999997
100
AcDbArc
 50
269.1862479999999
 51
274.019213
  0
ARC
  5
BF64
330
BEE0
100
AcDbEntity
  8
1
  6
Continuous
100
AcDbCircle
 10
129.600515
 20
179.9815949999999
 30
0.0
 40
0.2441969999999999
100
AcDbArc
 50
314.03143
 51
351.316759
  0
ARC
  5
BF65
330
BEE0
100
AcDbEntity
  8
1
  6
Continuous
100
AcDbCircle
 10
129.1209529999999
 20
180.0548349999999
 30
0.0
 40
0.72932
100
AcDbArc
 50
351.316759
 51
2.694649
  0
ARC
  5
BF66
330
BEE0
100
AcDbEntity
  8
1
  6
Continuous
100
AcDbCircle
 10
123.287655
 20
178.2456399999999
 30
0.0
 40
1.132387999999999
100
AcDbArc
 50
350.4059339999998
 51
9.422450999999998
  0
ARC
  5
BF67
330
BEE0
100
AcDbEntity
  8
1
  6
Continuous
100
AcDbCircle
 10
124.828965
 20
177.963741
 30
0.0
 40
0.434857
100
AcDbArc
 50
167.628646
 51
207.2064849999999
  0
ARC
  5
BF68
330
BEE0
100
AcDbEntity
  8
1
  6
Continuous
100
AcDbCircle
 10
69.608378
 20
180.630882
 30
0.0
 40
54.840528
100
AcDbArc
 50
357.7010379999999
 51
358.7006819999999
  0
ARC
  5
BF69
330
BEE0
100
AcDbEntity
  8
1
  6
Continuous
100
AcDbCircle
 10
124.743789
 20
178.329744
 30
0.0
 40
0.640285
100
AcDbArc
 50
241.9011839999999
 51
272.3403379999999
  0
ARC
  5
BF6A
330
BEE0
100
AcDbEntity
  8
1
  6
Continuous
100
AcDbCircle
 10
125.0337429999998
 20
178.744698
 30
0.0
 40
0.9207059999999998
100
AcDbArc
 50
103.0833209999999
 51
126.033477
  0
ARC
  5
BF6B
330
BEE0
100
AcDbEntity
  8
1
  6
Continuous
100
AcDbCircle
 10
124.5747229999999
 20
179.3757089999998
 30
0.0
 40
0.140401
100
AcDbArc
 50
126.033477
 51
175.244581
  0
ARC
  5
BF6C
330
BEE0
100
AcDbEntity
  8
1
  6
Continuous
100
AcDbCircle
 10
125.275484
 20
177.704509
 30
0.0
 40
1.988615
100
AcDbArc
 50
88.74659499999998
 51
103.0833209999999
  0
ARC
  5
BF6D
330
BEE0
100
AcDbEntity
  8
1
  6
Continuous
100
AcDbCircle
 10
126.964977
 20
160.868749
 30
0.0
 40
18.81792199999998
100
AcDbArc
 50
87.00489199999998
 51
90.39154600000001
  0
ARC
  5
BF6E
330
BEE0
100
AcDbEntity
  8
1
  6
Continuous
100
AcDbCircle
 10
126.3676889999999
 20
248.2698109999998
 30
0.0
 40
68.58518100000001
100
AcDbArc
 50
269.1238819999999
 51
270.391546
  0
ARC
  5
BF6F
330
BEE0
100
AcDbEntity
  8
1
  6
Continuous
100
AcDbCircle
 10
222.1195209999999
 20
171.8190169999998
 30
0.0
 40
3.94869
100
AcDbArc
 50
90.0
 51
146.863144
  0
ARC
  5
BF70
330
BEE0
100
AcDbEntity
  8
1
  6
Continuous
100
AcDbCircle
 10
230.635601
 20
166.259645
 30
0.0
 40
14.11875499999999
100
AcDbArc
 50
146.863144
 51
180.0
  0
LINE
  5
BF71
330
BEE0
100
AcDbEntity
  8
1
  6
Continuous
100
AcDbLine
 10
216.5168449999999
 20
179.471458
 30
0.0
 11
216.5168449999999
 21
157.6942949999998
 31
0.0
  0
ARC
  5
BF72
330
BEE0
100
AcDbEntity
  8
1
  6
Continuous
100
AcDbCircle
 10
126.486768
 20
489.3778189999999
 30
0.0
 40
311.6925539999999
100
AcDbArc
 50
269.6734769999998
 51
270.0096049999999
  0
CIRCLE
  5
BF73
330
BEE0
100
AcDbEntity
  8
1
  6
Continuous
100
AcDbCircle
 10
149.4086259999999
 20
246.654083
 30
0.0
 40
15.25
  0
CIRCLE
  5
BF74
330
BEE0
100
AcDbEntity
  8
1
  6
Continuous
100
AcDbCircle
 10
149.4086259999999
 20
246.654083
 30
0.0
 40
16.89999999999999
  0
LINE
  5
BF75
330
BEE0
100
AcDbEntity
  8
4
  6
CENTER
100
AcDbLine
 10
125.9081879999999
 20
183.369573
 30
0.0
 11
125.9081879999999
 21
194.9908529999999
 31
0.0
  0
LINE
  5
BF76
330
BEE0
100
AcDbEntity
  8
4
  6
CENTER
100
AcDbLine
 10
172.908188
 20
183.369573
 30
0.0
 11
172.908188
 21
194.9908529999999
 31
0.0
  0
LINE
  5
BF77
330
BEE0
100
AcDbEntity
  8
1
  6
Continuous
100
AcDbLine
 10
119.4081879999999
 20
188.369573
 30
0.0
 11
119.4081879999999
 21
190.369876
 31
0.0
  0
LINE
  5
BF78
330
BEE0
100
AcDbEntity
  8
1
  6
Continuous
100
AcDbLine
 10
179.408188
 20
188.369573
 30
0.0
 11
179.408188
 21
190.369876
 31
0.0
  0
LINE
  5
BF79
330
BEE0
100
AcDbEntity
  8
1
  6
Continuous
100
AcDbLine
 10
247.266845
 20
153.9497669999998
 30
0.0
 11
247.266845
 21
142.7888669999999
 31
0.0
  0
LINE
  5
BF7A
330
BEE0
100
AcDbEntity
  8
1
  6
Continuous
100
AcDbLine
 10
247.266845
 20
151.3693169999999
 30
0.0
 11
248.2677269999999
 21
151.3693169999999
 31
0.0
  0
LINE
  5
BF7B
330
BEE0
100
AcDbEntity
  8
1
  6
Continuous
100
AcDbLine
 10
247.266845
 20
145.369317
 30
0.0
 11
248.255212
 21
145.369317
 31
0.0
  0
LINE
  5
BF7C
330
BEE0
100
AcDbEntity
  8
1
  6
Continuous
100
AcDbLine
 10
126.83638
 20
179.6862319999999
 30
0.0
 11
124.559211
 21
164.3630209999998
 31
0.0
  0
LINE
  5
BF7D
330
BEE0
100
AcDbEntity
  8
1
  6
Continuous
100
AcDbLine
 10
150.5941439999998
 20
163.360793
 30
0.0
 11
144.8414119999999
 21
154.6573679999999
 31
0.0
  0
ARC
  5
BF7E
330
BEE0
100
AcDbEntity
  8
1
  6
Continuous
100
AcDbCircle
 10
37.827067
 20
148.375191
 30
0.0
 40
6.770832999999998
100
AcDbArc
 50
141.11993
 51
218.8800699999999
  0
LINE
  5
BF7F
330
BEE0
100
AcDbEntity
  8
1
  6
Continuous
100
AcDbLine
 10
32.55623400000001
 20
152.625191
 30
0.0
 11
32.55623400000001
 21
144.125191
 31
0.0
  0
LINE
  5
BF80
330
BEE0
100
AcDbEntity
  8
1
  6
Continuous
100
AcDbLine
 10
59.299511
 20
170.961051
 30
0.0
 11
59.299511
 21
125.789331
 31
0.0
  0
LINE
  5
BF81
330
BEE0
100
AcDbEntity
  8
1
  6
Continuous
100
AcDbLine
 10
37.29951099999999
 20
170.961051
 30
0.0
 11
37.29951099999999
 21
125.789331
 31
0.0
  0
LINE
  5
BF82
330
BEE0
100
AcDbEntity
  8
1
  6
Continuous
100
AcDbLine
 10
63.105595
 20
178.1810189999999
 30
0.0
 11
63.064937
 21
158.941625
 31
0.0
  0
LINE
  5
BF83
330
BEE0
100
AcDbEntity
  8
1
  6
Continuous
100
AcDbLine
 10
61.101434
 20
176.213919
 30
0.0
 11
61.07640100000001
 21
164.3683409999999
 31
0.0
  0
ARC
  5
BF84
330
BEE0
100
AcDbEntity
  8
1
  6
Continuous
100
AcDbCircle
 10
46.371567
 20
157.7001689999999
 30
0.0
 40
17.07205599999999
100
AcDbArc
 50
180.0
 51
207.4135329999998
  0
LINE
  5
BF85
330
BEE0
100
AcDbEntity
  8
1
  6
Continuous
100
AcDbLine
 10
33.49342699999999
 20
178.1810189999999
 30
0.0
 11
33.575778
 21
139.2125
 31
0.0
  0
LINE
  5
BF86
330
BEE0
100
AcDbEntity
  8
1
  6
Continuous
100
AcDbLine
 10
35.497588
 20
176.213919
 30
0.0
 11
35.575783
 21
139.2125
 31
0.0
  0
LINE
  5
BF87
330
BEE0
100
AcDbEntity
  8
4
  6
CENTER
100
AcDbLine
 10
26.056234
 20
148.375191
 30
0.0
 11
77.43593100000002
 21
148.375191
 31
0.0
  0
LINE
  5
BF88
330
BEE0
100
AcDbEntity
  8
1
  6
Continuous
100
AcDbLine
 10
36.962687
 20
142.3023369999999
 30
0.0
 11
37.29951099999999
 21
142.2429459999999
 31
0.0
  0
ARC
  5
BF89
330
BEE0
100
AcDbEntity
  8
1
  6
Continuous
100
AcDbCircle
 10
39.29951099999998
 20
125.789331
 30
0.0
 40
2.0
100
AcDbArc
 50
180.0
 51
264.730718
  0
LINE
  5
BF8A
330
BEE0
100
AcDbEntity
  8
1
  6
Continuous
100
AcDbLine
 10
36.54951099999999
 20
153.9556409999998
 30
0.0
 11
36.54951099999999
 21
142.7947409999999
 31
0.0
  0
LINE
  5
BF8B
330
BEE0
100
AcDbEntity
  8
1
  6
Continuous
100
AcDbLine
 10
32.55623400000001
 20
144.125191
 30
0.0
 11
33.56530999999999
 21
144.125191
 31
0.0
  0
LINE
  5
BF8C
330
BEE0
100
AcDbEntity
  8
1
  6
Continuous
100
AcDbLine
 10
35.56264500000001
 20
145.375191
 30
0.0
 11
36.54996099999999
 21
145.375191
 31
0.0
  0
ARC
  5
BF8D
330
BEE0
100
AcDbEntity
  8
1
  6
Continuous
100
AcDbCircle
 10
37.04951099999997
 20
142.7947409999999
 30
0.0
 40
0.5
100
AcDbArc
 50
180.0
 51
260.0
  0
ARC
  5
BF8E
330
BEE0
100
AcDbEntity
  8
1
  6
Continuous
100
AcDbCircle
 10
37.04951099999997
 20
142.7947409999999
 30
0.0
 40
0.5
100
AcDbArc
 50
180.0
 51
260.0
  0
LINE
  5
BF8F
330
BEE0
100
AcDbEntity
  8
1
  6
Continuous
100
AcDbLine
 10
35.54983099999999
 20
151.375191
 30
0.0
 11
36.54996099999999
 21
151.375191
 31
0.0
  0
ARC
  5
BF90
330
BEE0
100
AcDbEntity
  8
1
  6
Continuous
100
AcDbCircle
 10
48.29951099999998
 20
223.375191
 30
0.0
 40
100.0
100
AcDbArc
 50
264.730718
 51
275.269983
  0
ARC
  5
BF91
330
BEE0
100
AcDbEntity
  8
1
  6
Continuous
100
AcDbCircle
 10
57.299511
 20
125.789331
 30
0.0
 40
2.0
100
AcDbArc
 50
275.2692819999999
 51
0.0
  0
LINE
  5
BF92
330
BEE0
100
AcDbEntity
  8
1
  6
Continuous
100
AcDbLine
 10
60.04951099999999
 20
153.9556409999998
 30
0.0
 11
60.04951099999999
 21
142.7947409999999
 31
0.0
  0
LINE
  5
BF93
330
BEE0
100
AcDbEntity
  8
1
  6
Continuous
100
AcDbLine
 10
60.04996099999999
 20
145.375191
 30
0.0
 11
60.82558800000001
 21
145.375191
 31
0.0
  0
ARC
  5
BF94
330
BEE0
100
AcDbEntity
  8
1
  6
Continuous
100
AcDbCircle
 10
59.54951099999998
 20
142.7947409999999
 30
0.0
 40
0.5
100
AcDbArc
 50
280.0
 51
0.0
  0
LINE
  5
BF95
330
BEE0
100
AcDbEntity
  8
1
  6
Continuous
100
AcDbLine
 10
59.636335
 20
142.3023369999999
 30
0.0
 11
59.299511
 21
142.2429459999999
 31
0.0
  0
ARC
  5
BF96
330
BEE0
100
AcDbEntity
  8
1
  6
Continuous
100
AcDbCircle
 10
59.54951099999998
 20
142.7947409999999
 30
0.0
 40
0.5
100
AcDbArc
 50
280.0
 51
0.0
  0
LINE
  5
BF97
330
BEE0
100
AcDbEntity
  8
1
  6
Continuous
100
AcDbLine
 10
59.636335
 20
142.3023369999999
 30
0.0
 11
59.299511
 21
142.2429459999999
 31
0.0
  0
LINE
  5
BF98
330
BEE0
100
AcDbEntity
  8
1
  6
Continuous
100
AcDbLine
 10
60.04996099999999
 20
151.375191
 30
0.0
 11
60.82558800000001
 21
151.375191
 31
0.0
  0
LINE
  5
BF99
330
BEE0
100
AcDbEntity
  8
1
  6
Continuous
100
AcDbLine
 10
34.986252
 20
184.0850069999999
 30
0.0
 11
36.986252
 21
182.4717729999999
 31
0.0
  0
LINE
  5
BF9A
330
BEE0
100
AcDbEntity
  8
1
  6
Continuous
100
AcDbLine
 10
37.57203899999999
 20
184.0850069999999
 30
0.0
 11
35.57203899999999
 21
182.4717729999999
 31
0.0
  0
LINE
  5
BF9B
330
BEE0
100
AcDbEntity
  8
1
  6
Continuous
100
AcDbLine
 10
36.962687
 20
154.448045
 30
0.0
 11
37.29951099999999
 21
154.507436
 31
0.0
  0
ARC
  5
BF9C
330
BEE0
100
AcDbEntity
  8
1
  6
Continuous
100
AcDbCircle
 10
39.29951099999998
 20
170.961051
 30
0.0
 40
2.0
100
AcDbArc
 50
95.26928199999998
 51
180.0
  0
LINE
  5
BF9D
330
BEE0
100
AcDbEntity
  8
1
  6
Continuous
100
AcDbLine
 10
30.57502899999999
 20
186.048113
 30
0.0
 11
66.02489300000001
 21
186.048113
 31
0.0
  0
LINE
  5
BF9E
330
BEE0
100
AcDbEntity
  8
1
  6
Continuous
100
AcDbLine
 10
29.799961
 20
184.0850069999999
 30
0.0
 11
66.799961
 21
184.0850069999999
 31
0.0
  0
LINE
  5
BF9F
330
BEE0
100
AcDbEntity
  8
1
  6
Continuous
100
AcDbLine
 10
66.799961
 20
182.4717729999999
 30
0.0
 11
29.799961
 21
182.4717729999999
 31
0.0
  0
LINE
  5
BFA0
330
BEE0
100
AcDbEntity
  8
1
  6
Continuous
100
AcDbLine
 10
30.368731
 20
186.35962
 30
0.0
 11
66.060535
 21
186.35962
 31
0.0
  0
LINE
  5
BFA1
330
BEE0
100
AcDbEntity
  8
1
  6
Continuous
100
AcDbLine
 10
27.299961
 20
188.375175
 30
0.0
 11
69.299961
 21
188.375175
 31
0.0
  0
LINE
  5
BFA2
330
BEE0
100
AcDbEntity
  8
1
  6
Continuous
100
AcDbLine
 10
27.299961
 20
190.3751749999999
 30
0.0
 11
69.299961
 21
190.3751749999999
 31
0.0
  0
LINE
  5
BFA3
330
BEE0
100
AcDbEntity
  8
1
  6
Continuous
100
AcDbLine
 10
34.99342399999999
 20
179.684189
 30
0.0
 11
61.605598
 21
179.684189
 31
0.0
  0
LINE
  5
BFA4
330
BEE0
100
AcDbEntity
  8
1
  6
Continuous
100
AcDbLine
 10
29.299511
 20
179.972115
 30
0.0
 11
29.299511
 21
157.7001689999999
 31
0.0
  0
LINE
  5
BFA5
330
BEE0
100
AcDbEntity
  8
1
  6
Continuous
100
AcDbLine
 10
32.55623400000001
 20
152.625191
 30
0.0
 11
33.54715699999999
 21
152.625191
 31
0.0
  0
ARC
  5
BFA6
330
BEE0
100
AcDbEntity
  8
1
  6
Continuous
100
AcDbCircle
 10
37.04951099999997
 20
153.9556409999998
 30
0.0
 40
0.5
100
AcDbArc
 50
100.0
 51
180.0
  0
ARC
  5
BFA7
330
BEE0
100
AcDbEntity
  8
1
  6
Continuous
100
AcDbCircle
 10
37.04951099999997
 20
153.9556409999998
 30
0.0
 40
0.5
100
AcDbArc
 50
100.0
 51
180.0
  0
ARC
  5
BFA8
330
BEE0
100
AcDbEntity
  8
1
  6
Continuous
100
AcDbCircle
 10
30.53938699999999
 20
189.9706199999999
 30
0.0
 40
3.611
100
AcDbArc
 50
206.220637
 51
270.0
  0
ARC
  5
BFA9
330
BEE0
100
AcDbEntity
  8
1
  6
Continuous
100
AcDbCircle
 10
31.799511
 20
179.972115
 30
0.0
 40
2.5
100
AcDbArc
 50
90.0
 51
180.0
  0
LINE
  5
BFAA
330
BEE0
100
AcDbEntity
  8
1
  6
Continuous
100
AcDbLine
 10
32.157825
 20
184.0850069999999
 30
0.0
 11
34.15782500000001
 21
182.4717729999999
 31
0.0
  0
LINE
  5
BFAB
330
BEE0
100
AcDbEntity
  8
1
  6
Continuous
100
AcDbLine
 10
33.329398
 20
184.0850069999999
 30
0.0
 11
31.32939799999999
 21
182.4717729999999
 31
0.0
  0
LINE
  5
BFAC
330
BEE0
100
AcDbEntity
  8
1
  6
Continuous
100
AcDbLine
 10
34.743612
 20
184.0850069999999
 30
0.0
 11
32.74361199999999
 21
182.4717729999999
 31
0.0
  0
LINE
  5
BFAD
330
BEE0
100
AcDbEntity
  8
1
  6
Continuous
100
AcDbLine
 10
29.799961
 20
183.6144439999999
 30
0.0
 11
31.32939799999999
 21
182.4717729999999
 31
0.0
  0
LINE
  5
BFAE
330
BEE0
100
AcDbEntity
  8
1
  6
Continuous
100
AcDbLine
 10
29.799961
 20
183.3839969999999
 30
0.0
 11
30.500971
 21
184.0850069999999
 31
0.0
  0
LINE
  5
BFAF
330
BEE0
100
AcDbEntity
  8
1
  6
Continuous
100
AcDbLine
 10
31.91518499999999
 20
184.0850069999999
 30
0.0
 11
29.91518499999999
 21
182.4717729999999
 31
0.0
  0
LINE
  5
BFB0
330
BEE0
100
AcDbEntity
  8
1
  6
Continuous
100
AcDbLine
 10
29.799961
 20
184.0850069999999
 30
0.0
 11
29.799961
 21
182.4717729999999
 31
0.0
  0
ARC
  5
BFB1
330
BEE0
100
AcDbEntity
  8
1
  6
Continuous
100
AcDbCircle
 10
30.754292
 20
185.2310759999998
 30
0.0
 40
0.8364709999999998
100
AcDbArc
 50
102.3749159999999
 51
160.6585409999999
  0
ARC
  5
BFB2
330
BEE0
100
AcDbEntity
  8
1
  6
Continuous
100
AcDbCircle
 10
36.21173499999999
 20
186.936358
 30
0.0
 40
6.407901999999999
100
AcDbArc
 50
192.8787169999999
 51
206.4216889999999
  0
LINE
  5
BFB3
330
BEE0
100
AcDbEntity
  8
1
  6
Continuous
100
AcDbLine
 10
36.157825
 20
184.0850069999999
 30
0.0
 11
34.15782500000001
 21
182.4717729999999
 31
0.0
  0
LINE
  5
BFB4
330
BEE0
100
AcDbEntity
  8
1
  6
Continuous
100
AcDbLine
 10
27.299961
 20
188.375175
 30
0.0
 11
27.299961
 21
190.3751749999999
 31
0.0
  0
LINE
  5
BFB5
330
BEE0
100
AcDbEntity
  8
1
  6
Continuous
100
AcDbLine
 10
67.299511
 20
179.972115
 30
0.0
 11
67.299511
 21
159.3683409999998
 31
0.0
  0
ARC
  5
BFB6
330
BEE0
100
AcDbEntity
  8
1
  6
Continuous
100
AcDbCircle
 10
48.29951099999998
 20
73.375191
 30
0.0
 40
100.0
100
AcDbArc
 50
84.73001700000002
 51
95.26928199999998
  0
ARC
  5
BFB7
330
BEE0
100
AcDbEntity
  8
1
  6
Continuous
100
AcDbCircle
 10
59.54951099999998
 20
153.9556409999998
 30
0.0
 40
0.5
100
AcDbArc
 50
0.0
 51
80.0
  0
LINE
  5
BFB8
330
BEE0
100
AcDbEntity
  8
1
  6
Continuous
100
AcDbLine
 10
59.636335
 20
154.448045
 30
0.0
 11
59.299511
 21
154.507436
 31
0.0
  0
ARC
  5
BFB9
330
BEE0
100
AcDbEntity
  8
1
  6
Continuous
100
AcDbCircle
 10
59.54951099999998
 20
153.9556409999998
 30
0.0
 40
0.5
100
AcDbArc
 50
0.0
 51
80.0
  0
LINE
  5
BFBA
330
BEE0
100
AcDbEntity
  8
1
  6
Continuous
100
AcDbLine
 10
59.636335
 20
154.448045
 30
0.0
 11
59.299511
 21
154.507436
 31
0.0
  0
ARC
  5
BFBB
330
BEE0
100
AcDbEntity
  8
1
  6
Continuous
100
AcDbCircle
 10
57.299511
 20
170.961051
 30
0.0
 40
2.0
100
AcDbArc
 50
0.0
 51
84.73071800000003
  0
LINE
  5
BFBC
330
BEE0
100
AcDbEntity
  8
1
  6
Continuous
100
AcDbLine
 10
51.956815
 20
184.0850069999999
 30
0.0
 11
53.956815
 21
182.4717729999999
 31
0.0
  0
LINE
  5
BFBD
330
BEE0
100
AcDbEntity
  8
1
  6
Continuous
100
AcDbLine
 10
54.542602
 20
184.0850069999999
 30
0.0
 11
52.542602
 21
182.4717729999999
 31
0.0
  0
LINE
  5
BFBE
330
BEE0
100
AcDbEntity
  8
1
  6
Continuous
100
AcDbLine
 10
59.452029
 20
179.812332
 30
0.0
 11
48.29951099999998
 21
179.812332
 31
0.0
  0
LINE
  5
BFBF
330
BEE0
100
AcDbEntity
  8
1
  6
Continuous
100
AcDbLine
 10
43.47153399999998
 20
184.0850069999999
 30
0.0
 11
45.471534
 21
182.4717729999999
 31
0.0
  0
LINE
  5
BFC0
330
BEE0
100
AcDbEntity
  8
1
  6
Continuous
100
AcDbLine
 10
46.05731999999998
 20
184.0850069999999
 30
0.0
 11
44.05731999999999
 21
182.4717729999999
 31
0.0
  0
LINE
  5
BFC1
330
BEE0
100
AcDbEntity
  8
1
  6
Continuous
100
AcDbLine
 10
37.146993
 20
179.812332
 30
0.0
 11
48.29951099999998
 21
179.812332
 31
0.0
  0
LINE
  5
BFC2
330
BEE0
100
AcDbEntity
  8
1
  6
Continuous
100
AcDbLine
 10
40.643107
 20
184.0850069999999
 30
0.0
 11
42.643107
 21
182.4717729999999
 31
0.0
  0
LINE
  5
BFC3
330
BEE0
100
AcDbEntity
  8
1
  6
Continuous
100
AcDbLine
 10
41.81467999999997
 20
184.0850069999999
 30
0.0
 11
39.81467999999999
 21
182.4717729999999
 31
0.0
  0
LINE
  5
BFC4
330
BEE0
100
AcDbEntity
  8
1
  6
Continuous
100
AcDbLine
 10
37.81467999999998
 20
184.0850069999999
 30
0.0
 11
39.81467999999999
 21
182.4717729999999
 31
0.0
  0
LINE
  5
BFC5
330
BEE0
100
AcDbEntity
  8
1
  6
Continuous
100
AcDbLine
 10
38.986252
 20
184.0850069999999
 30
0.0
 11
36.986252
 21
182.4717729999999
 31
0.0
  0
LINE
  5
BFC6
330
BEE0
100
AcDbEntity
  8
1
  6
Continuous
100
AcDbLine
 10
40.40046599999999
 20
184.0850069999999
 30
0.0
 11
38.40046599999999
 21
182.4717729999999
 31
0.0
  0
LINE
  5
BFC7
330
BEE0
100
AcDbEntity
  8
1
  6
Continuous
100
AcDbLine
 10
43.22889299999999
 20
184.0850069999999
 30
0.0
 11
41.22889299999999
 21
182.4717729999999
 31
0.0
  0
LINE
  5
BFC8
330
BEE0
100
AcDbEntity
  8
1
  6
Continuous
100
AcDbLine
 10
44.643107
 20
184.0850069999999
 30
0.0
 11
42.643107
 21
182.4717729999999
 31
0.0
  0
LINE
  5
BFC9
330
BEE0
100
AcDbEntity
  8
1
  6
Continuous
100
AcDbLine
 10
49.128388
 20
184.0850069999999
 30
0.0
 11
51.128388
 21
182.4717729999999
 31
0.0
  0
LINE
  5
BFCA
330
BEE0
100
AcDbEntity
  8
1
  6
Continuous
100
AcDbLine
 10
50.29996099999999
 20
184.0850069999999
 30
0.0
 11
48.29996099999998
 21
182.4717729999999
 31
0.0
  0
LINE
  5
BFCB
330
BEE0
100
AcDbEntity
  8
1
  6
Continuous
100
AcDbLine
 10
46.29996099999998
 20
184.0850069999999
 30
0.0
 11
48.29996099999998
 21
182.4717729999999
 31
0.0
  0
LINE
  5
BFCC
330
BEE0
100
AcDbEntity
  8
1
  6
Continuous
100
AcDbLine
 10
47.47153400000001
 20
184.0850069999999
 30
0.0
 11
45.471534
 21
182.4717729999999
 31
0.0
  0
LINE
  5
BFCD
330
BEE0
100
AcDbEntity
  8
1
  6
Continuous
100
AcDbLine
 10
48.88574699999999
 20
184.0850069999999
 30
0.0
 11
46.88574699999999
 21
182.4717729999999
 31
0.0
  0
LINE
  5
BFCE
330
BEE0
100
AcDbEntity
  8
1
  6
Continuous
100
AcDbLine
 10
53.128388
 20
184.0850069999999
 30
0.0
 11
51.128388
 21
182.4717729999999
 31
0.0
  0
LINE
  5
BFCF
330
BEE0
100
AcDbEntity
  8
1
  6
Continuous
100
AcDbLine
 10
51.714175
 20
184.0850069999999
 30
0.0
 11
49.714175
 21
182.4717729999999
 31
0.0
  0
ARC
  5
BFD0
330
BEE0
100
AcDbEntity
  8
1
  6
Continuous
100
AcDbCircle
 10
66.060535
 20
189.9706199999999
 30
0.0
 40
3.611
100
AcDbArc
 50
270.0
 51
333.779363
  0
LINE
  5
BFD1
330
BEE0
100
AcDbEntity
  8
1
  6
Continuous
100
AcDbLine
 10
60.44209699999999
 20
184.0850069999999
 30
0.0
 11
62.44209699999998
 21
182.4717729999999
 31
0.0
  0
LINE
  5
BFD2
330
BEE0
100
AcDbEntity
  8
1
  6
Continuous
100
AcDbLine
 10
63.02788299999999
 20
184.0850069999999
 30
0.0
 11
61.027883
 21
182.4717729999999
 31
0.0
  0
LINE
  5
BFD3
330
BEE0
100
AcDbEntity
  8
1
  6
Continuous
100
AcDbLine
 10
61.61366899999999
 20
184.0850069999999
 30
0.0
 11
59.61366899999998
 21
182.4717729999999
 31
0.0
  0
LINE
  5
BFD4
330
BEE0
100
AcDbEntity
  8
1
  6
Continuous
100
AcDbLine
 10
58.78524200000001
 20
184.0850069999999
 30
0.0
 11
56.785242
 21
182.4717729999999
 31
0.0
  0
LINE
  5
BFD5
330
BEE0
100
AcDbEntity
  8
1
  6
Continuous
100
AcDbLine
 10
54.78524199999998
 20
184.0850069999999
 30
0.0
 11
56.785242
 21
182.4717729999999
 31
0.0
  0
LINE
  5
BFD6
330
BEE0
100
AcDbEntity
  8
1
  6
Continuous
100
AcDbLine
 10
57.371029
 20
184.0850069999999
 30
0.0
 11
55.371029
 21
182.4717729999999
 31
0.0
  0
LINE
  5
BFD7
330
BEE0
100
AcDbEntity
  8
1
  6
Continuous
100
AcDbLine
 10
55.956815
 20
184.0850069999999
 30
0.0
 11
53.956815
 21
182.4717729999999
 31
0.0
  0
LINE
  5
BFD8
330
BEE0
100
AcDbEntity
  8
1
  6
Continuous
100
AcDbLine
 10
57.61366899999998
 20
184.0850069999999
 30
0.0
 11
59.61366899999998
 21
182.4717729999999
 31
0.0
  0
LINE
  5
BFD9
330
BEE0
100
AcDbEntity
  8
1
  6
Continuous
100
AcDbLine
 10
60.19945599999999
 20
184.0850069999999
 30
0.0
 11
58.199456
 21
182.4717729999999
 31
0.0
  0
ARC
  5
BFDA
330
BEE0
100
AcDbEntity
  8
1
  6
Continuous
100
AcDbCircle
 10
64.799511
 20
179.972115
 30
0.0
 40
2.5
100
AcDbArc
 50
0.0
 51
90.0
  0
LINE
  5
BFDB
330
BEE0
100
AcDbEntity
  8
1
  6
Continuous
100
AcDbLine
 10
66.799961
 20
183.6144439999999
 30
0.0
 11
65.27052399999999
 21
182.4717729999999
 31
0.0
  0
LINE
  5
BFDC
330
BEE0
100
AcDbEntity
  8
1
  6
Continuous
100
AcDbLine
 10
65.85630999999999
 20
184.0850069999999
 30
0.0
 11
63.85631
 21
182.4717729999999
 31
0.0
  0
LINE
  5
BFDD
330
BEE0
100
AcDbEntity
  8
1
  6
Continuous
100
AcDbLine
 10
63.270524
 20
184.0850069999999
 30
0.0
 11
65.27052399999999
 21
182.4717729999999
 31
0.0
  0
LINE
  5
BFDE
330
BEE0
100
AcDbEntity
  8
1
  6
Continuous
100
AcDbLine
 10
64.442097
 20
184.0850069999999
 30
0.0
 11
62.44209699999998
 21
182.4717729999999
 31
0.0
  0
LINE
  5
BFDF
330
BEE0
100
AcDbEntity
  8
1
  6
Continuous
100
AcDbLine
 10
66.098951
 20
184.0850069999999
 30
0.0
 11
66.799961
 21
183.3839969999999
 31
0.0
  0
LINE
  5
BFE0
330
BEE0
100
AcDbEntity
  8
1
  6
Continuous
100
AcDbLine
 10
66.799961
 20
182.586996
 30
0.0
 11
66.68473699999998
 21
182.4717729999999
 31
0.0
  0
LINE
  5
BFE1
330
BEE0
100
AcDbEntity
  8
1
  6
Continuous
100
AcDbLine
 10
66.799961
 20
184.0850069999999
 30
0.0
 11
66.799961
 21
182.4717729999999
 31
0.0
  0
ARC
  5
BFE2
330
BEE0
100
AcDbEntity
  8
1
  6
Continuous
100
AcDbCircle
 10
65.84563
 20
185.2310759999998
 30
0.0
 40
0.8364709999999998
100
AcDbArc
 50
19.341459
 51
77.625084
  0
ARC
  5
BFE3
330
BEE0
100
AcDbEntity
  8
1
  6
Continuous
100
AcDbCircle
 10
60.388187
 20
186.936358
 30
0.0
 40
6.407901999999999
100
AcDbArc
 50
334.3555600000001
 51
347.121283
  0
LINE
  5
BFE4
330
BEE0
100
AcDbEntity
  8
1
  6
Continuous
100
AcDbLine
 10
69.299961
 20
190.3751749999999
 30
0.0
 11
69.299961
 21
188.375175
 31
0.0
  0
LINE
  5
BFE5
330
BEE0
100
AcDbEntity
  8
4
  6
CENTER
100
AcDbLine
 10
48.29951099999998
 20
195.375175
 30
0.0
 11
48.29951099999998
 21
118.3751909999999
 31
0.0
  0
LINE
  5
BFE6
330
BEE0
100
AcDbEntity
  8
1
  6
Continuous
100
AcDbLine
 10
225.031564
 20
184.084653
 30
0.0
 11
227.031564
 21
182.47142
 31
0.0
  0
LINE
  5
BFE7
330
BEE0
100
AcDbEntity
  8
1
  6
Continuous
100
AcDbLine
 10
226.2031359999999
 20
184.084653
 30
0.0
 11
224.2031359999999
 21
182.47142
 31
0.0
  0
LINE
  5
BFE8
330
BEE0
100
AcDbEntity
  8
1
  6
Continuous
100
AcDbLine
 10
227.61735
 20
184.084653
 30
0.0
 11
225.61735
 21
182.47142
 31
0.0
  0
LINE
  5
BFE9
330
BEE0
100
AcDbEntity
  8
1
  6
Continuous
100
AcDbLine
 10
217.5856149999999
 20
186.3592659999999
 30
0.0
 11
253.277419
 21
186.3592659999999
 31
0.0
  0
LINE
  5
BFEA
330
BEE0
100
AcDbEntity
  8
1
  6
Continuous
100
AcDbLine
 10
214.5168449999999
 20
190.374821
 30
0.0
 11
256.5168449999999
 21
190.374821
 31
0.0
  0
LINE
  5
BFEB
330
BEE0
100
AcDbEntity
  8
1
  6
Continuous
100
AcDbLine
 10
214.5168449999999
 20
188.374821
 30
0.0
 11
256.5168449999999
 21
188.374821
 31
0.0
  0
LINE
  5
BFEC
330
BEE0
100
AcDbEntity
  8
1
  6
Continuous
100
AcDbLine
 10
217.0168449999999
 20
184.084653
 30
0.0
 11
254.0168449999999
 21
184.084653
 31
0.0
  0
LINE
  5
BFED
330
BEE0
100
AcDbEntity
  8
1
  6
Continuous
100
AcDbLine
 10
217.7919129999999
 20
186.047759
 30
0.0
 11
253.241777
 21
186.047759
 31
0.0
  0
LINE
  5
BFEE
330
BEE0
100
AcDbEntity
  8
1
  6
Continuous
100
AcDbLine
 10
222.2031359999999
 20
184.084653
 30
0.0
 11
224.2031359999999
 21
182.47142
 31
0.0
  0
LINE
  5
BFEF
330
BEE0
100
AcDbEntity
  8
1
  6
Continuous
100
AcDbLine
 10
223.374709
 20
184.084653
 30
0.0
 11
221.374709
 21
182.47142
 31
0.0
  0
LINE
  5
BFF0
330
BEE0
100
AcDbEntity
  8
1
  6
Continuous
100
AcDbLine
 10
219.374709
 20
184.084653
 30
0.0
 11
221.374709
 21
182.47142
 31
0.0
  0
LINE
  5
BFF1
330
BEE0
100
AcDbEntity
  8
1
  6
Continuous
100
AcDbLine
 10
220.546282
 20
184.084653
 30
0.0
 11
218.546282
 21
182.47142
 31
0.0
  0
LINE
  5
BFF2
330
BEE0
100
AcDbEntity
  8
1
  6
Continuous
100
AcDbLine
 10
221.960496
 20
184.084653
 30
0.0
 11
219.960496
 21
182.47142
 31
0.0
  0
LINE
  5
BFF3
330
BEE0
100
AcDbEntity
  8
1
  6
Continuous
100
AcDbLine
 10
217.0168449999999
 20
183.61409
 30
0.0
 11
218.546282
 21
182.47142
 31
0.0
  0
LINE
  5
BFF4
330
BEE0
100
AcDbEntity
  8
1
  6
Continuous
100
AcDbLine
 10
219.1320689999999
 20
184.084653
 30
0.0
 11
217.1320689999999
 21
182.47142
 31
0.0
  0
LINE
  5
BFF5
330
BEE0
100
AcDbEntity
  8
1
  6
Continuous
100
AcDbLine
 10
217.0168449999999
 20
184.084653
 30
0.0
 11
217.0168449999999
 21
182.471527
 31
0.0
  0
LINE
  5
BFF6
330
BEE0
100
AcDbEntity
  8
1
  6
Continuous
100
AcDbLine
 10
214.5168449999999
 20
188.374821
 30
0.0
 11
214.5168449999999
 21
190.374821
 31
0.0
  0
ARC
  5
BFF7
330
BEE0
100
AcDbEntity
  8
1
  6
Continuous
100
AcDbCircle
 10
223.428619
 20
186.936004
 30
0.0
 40
6.407901999999999
100
AcDbArc
 50
192.8787169999999
 51
206.4216889999999
  0
ARC
  5
BFF8
330
BEE0
100
AcDbEntity
  8
1
  6
Continuous
100
AcDbCircle
 10
217.9711759999999
 20
185.2307219999999
 30
0.0
 40
0.8364709999999998
100
AcDbArc
 50
102.3749159999999
 51
160.6585409999999
  0
LINE
  5
BFF9
330
BEE0
100
AcDbEntity
  8
1
  6
Continuous
100
AcDbLine
 10
217.0168449999999
 20
183.383643
 30
0.0
 11
217.7178549999999
 21
184.084653
 31
0.0
  0
ARC
  5
BFFA
330
BEE0
100
AcDbEntity
  8
1
  6
Continuous
100
AcDbCircle
 10
217.756271
 20
189.9702659999999
 30
0.0
 40
3.611
100
AcDbArc
 50
206.220637
 51
270.0
  0
LINE
  5
BFFB
330
BEE0
100
AcDbEntity
  8
1
  6
Continuous
100
AcDbLine
 10
224.788923
 20
184.084653
 30
0.0
 11
222.788923
 21
182.47142
 31
0.0
  0
LINE
  5
BFFC
330
BEE0
100
AcDbEntity
  8
1
  6
Continuous
100
AcDbLine
 10
243.173699
 20
184.084653
 30
0.0
 11
241.173699
 21
182.47142
 31
0.0
  0
LINE
  5
BFFD
330
BEE0
100
AcDbEntity
  8
1
  6
Continuous
100
AcDbLine
 10
236.345272
 20
184.084653
 30
0.0
 11
238.345272
 21
182.47142
 31
0.0
  0
LINE
  5
BFFE
330
BEE0
100
AcDbEntity
  8
1
  6
Continuous
100
AcDbLine
 10
238.931059
 20
184.084653
 30
0.0
 11
236.9310589999999
 21
182.47142
 31
0.0
  0
LINE
  5
BFFF
330
BEE0
100
AcDbEntity
  8
1
  6
Continuous
100
AcDbLine
 10
230.688418
 20
184.084653
 30
0.0
 11
232.6884179999999
 21
182.47142
 31
0.0
  0
LINE
  5
C000
330
BEE0
100
AcDbEntity
  8
1
  6
Continuous
100
AcDbLine
 10
233.2742039999998
 20
184.084653
 30
0.0
 11
231.2742039999999
 21
182.47142
 31
0.0
  0
LINE
  5
C001
330
BEE0
100
AcDbEntity
  8
1
  6
Continuous
100
AcDbLine
 10
231.859991
 20
184.084653
 30
0.0
 11
229.859991
 21
182.47142
 31
0.0
  0
LINE
  5
C002
330
BEE0
100
AcDbEntity
  8
1
  6
Continuous
100
AcDbLine
 10
237.5168449999999
 20
184.084653
 30
0.0
 11
235.5168449999999
 21
182.47142
 31
0.0
  0
LINE
  5
C003
330
BEE0
100
AcDbEntity
  8
1
  6
Continuous
100
AcDbLine
 10
233.5168449999999
 20
184.084653
 30
0.0
 11
235.5168449999999
 21
182.47142
 31
0.0
  0
LINE
  5
C004
330
BEE0
100
AcDbEntity
  8
1
  6
Continuous
100
AcDbLine
 10
234.6884179999999
 20
184.084653
 30
0.0
 11
232.6884179999999
 21
182.47142
 31
0.0
  0
LINE
  5
C005
330
BEE0
100
AcDbEntity
  8
1
  6
Continuous
100
AcDbLine
 10
236.102631
 20
184.084653
 30
0.0
 11
234.102631
 21
182.47142
 31
0.0
  0
LINE
  5
C006
330
BEE0
100
AcDbEntity
  8
1
  6
Continuous
100
AcDbLine
 10
239.173699
 20
184.084653
 30
0.0
 11
241.173699
 21
182.47142
 31
0.0
  0
LINE
  5
C007
330
BEE0
100
AcDbEntity
  8
1
  6
Continuous
100
AcDbLine
 10
241.7594859999999
 20
184.084653
 30
0.0
 11
239.7594859999999
 21
182.47142
 31
0.0
  0
LINE
  5
C008
330
BEE0
100
AcDbEntity
  8
1
  6
Continuous
100
AcDbLine
 10
240.345272
 20
184.084653
 30
0.0
 11
238.345272
 21
182.47142
 31
0.0
  0
LINE
  5
C009
330
BEE0
100
AcDbEntity
  8
1
  6
Continuous
100
AcDbLine
 10
229.031564
 20
184.084653
 30
0.0
 11
227.031564
 21
182.47142
 31
0.0
  0
LINE
  5
C00A
330
BEE0
100
AcDbEntity
  8
1
  6
Continuous
100
AcDbLine
 10
227.859991
 20
184.084653
 30
0.0
 11
229.859991
 21
182.47142
 31
0.0
  0
LINE
  5
C00B
330
BEE0
100
AcDbEntity
  8
1
  6
Continuous
100
AcDbLine
 10
230.4457769999999
 20
184.084653
 30
0.0
 11
228.4457769999999
 21
182.47142
 31
0.0
  0
ARC
  5
C00C
330
BEE0
100
AcDbEntity
  8
1
  6
Continuous
100
AcDbCircle
 10
253.277419
 20
189.9702659999999
 30
0.0
 40
3.611
100
AcDbArc
 50
270.0
 51
333.779363
  0
LINE
  5
C00D
330
BEE0
100
AcDbEntity
  8
1
  6
Continuous
100
AcDbLine
 10
247.658981
 20
184.084653
 30
0.0
 11
249.658981
 21
182.47142
 31
0.0
  0
LINE
  5
C00E
330
BEE0
100
AcDbEntity
  8
1
  6
Continuous
100
AcDbLine
 10
250.244767
 20
184.084653
 30
0.0
 11
248.2447669999999
 21
182.47142
 31
0.0
  0
LINE
  5
C00F
330
BEE0
100
AcDbEntity
  8
1
  6
Continuous
100
AcDbLine
 10
248.8305529999999
 20
184.084653
 30
0.0
 11
246.8305529999999
 21
182.47142
 31
0.0
  0
LINE
  5
C010
330
BEE0
100
AcDbEntity
  8
1
  6
Continuous
100
AcDbLine
 10
254.0168449999999
 20
183.61409
 30
0.0
 11
252.487408
 21
182.47142
 31
0.0
  0
LINE
  5
C011
330
BEE0
100
AcDbEntity
  8
1
  6
Continuous
100
AcDbLine
 10
253.0731939999999
 20
184.084653
 30
0.0
 11
251.0731939999998
 21
182.47142
 31
0.0
  0
LINE
  5
C012
330
BEE0
100
AcDbEntity
  8
1
  6
Continuous
100
AcDbLine
 10
250.487408
 20
184.084653
 30
0.0
 11
252.487408
 21
182.47142
 31
0.0
  0
LINE
  5
C013
330
BEE0
100
AcDbEntity
  8
1
  6
Continuous
100
AcDbLine
 10
251.658981
 20
184.084653
 30
0.0
 11
249.658981
 21
182.47142
 31
0.0
  0
LINE
  5
C014
330
BEE0
100
AcDbEntity
  8
1
  6
Continuous
100
AcDbLine
 10
254.0168449999999
 20
182.5866429999999
 30
0.0
 11
253.901621
 21
182.47142
 31
0.0
  0
LINE
  5
C015
330
BEE0
100
AcDbEntity
  8
1
  6
Continuous
100
AcDbLine
 10
254.0168449999999
 20
184.084653
 30
0.0
 11
254.0168449999999
 21
182.471312
 31
0.0
  0
ARC
  5
C016
330
BEE0
100
AcDbEntity
  8
1
  6
Continuous
100
AcDbCircle
 10
247.6050709999999
 20
186.936004
 30
0.0
 40
6.407901999999999
100
AcDbArc
 50
334.3555600000001
 51
347.121283
  0
ARC
  5
C017
330
BEE0
100
AcDbEntity
  8
1
  6
Continuous
100
AcDbCircle
 10
253.062514
 20
185.2307219999999
 30
0.0
 40
0.8364709999999998
100
AcDbArc
 50
19.341459
 51
77.625084
  0
LINE
  5
C018
330
BEE0
100
AcDbEntity
  8
1
  6
Continuous
100
AcDbLine
 10
253.3158349999999
 20
184.084653
 30
0.0
 11
254.0168449999999
 21
183.383643
 31
0.0
  0
LINE
  5
C019
330
BEE0
100
AcDbEntity
  8
1
  6
Continuous
100
AcDbLine
 10
256.5168449999999
 20
190.374821
 30
0.0
 11
256.5168449999999
 21
188.374821
 31
0.0
  0
LINE
  5
C01A
330
BEE0
100
AcDbEntity
  8
1
  6
Continuous
100
AcDbLine
 10
242.0021259999999
 20
184.084653
 30
0.0
 11
244.0021259999999
 21
182.47142
 31
0.0
  0
LINE
  5
C01B
330
BEE0
100
AcDbEntity
  8
1
  6
Continuous
100
AcDbLine
 10
244.5879129999999
 20
184.084653
 30
0.0
 11
242.5879129999999
 21
182.47142
 31
0.0
  0
LINE
  5
C01C
330
BEE0
100
AcDbEntity
  8
1
  6
Continuous
100
AcDbLine
 10
246.0021259999999
 20
184.084653
 30
0.0
 11
244.0021259999999
 21
182.47142
 31
0.0
  0
LINE
  5
C01D
330
BEE0
100
AcDbEntity
  8
1
  6
Continuous
100
AcDbLine
 10
244.8305529999999
 20
184.084653
 30
0.0
 11
246.8305529999999
 21
182.47142
 31
0.0
  0
LINE
  5
C01E
330
BEE0
100
AcDbEntity
  8
1
  6
Continuous
100
AcDbLine
 10
247.41634
 20
184.084653
 30
0.0
 11
245.41634
 21
182.47142
 31
0.0
  0
LINE
  5
C01F
330
BEE0
100
AcDbEntity
  8
1
  6
Continuous
100
AcDbLine
 10
138.922907
 20
184.111835
 30
0.0
 11
140.922907
 21
182.498601
 31
0.0
  0
LINE
  5
C020
330
BEE0
100
AcDbEntity
  8
1
  6
Continuous
100
AcDbLine
 10
140.094479
 20
184.111835
 30
0.0
 11
138.094479
 21
182.498601
 31
0.0
  0
LINE
  5
C021
330
BEE0
100
AcDbEntity
  8
1
  6
Continuous
100
AcDbLine
 10
141.508693
 20
184.111835
 30
0.0
 11
139.5086929999999
 21
182.498601
 31
0.0
  0
LINE
  5
C022
330
BEE0
100
AcDbEntity
  8
1
  6
Continuous
100
AcDbLine
 10
131.4769579999999
 20
186.386448
 30
0.0
 11
167.1687619999999
 21
186.386448
 31
0.0
  0
LINE
  5
C023
330
BEE0
100
AcDbEntity
  8
1
  6
Continuous
100
AcDbLine
 10
167.908188
 20
182.498601
 30
0.0
 11
130.9081879999999
 21
182.498601
 31
0.0
  0
LINE
  5
C024
330
BEE0
100
AcDbEntity
  8
1
  6
Continuous
100
AcDbLine
 10
130.9081879999999
 20
184.111835
 30
0.0
 11
167.908188
 21
184.111835
 31
0.0
  0
LINE
  5
C025
330
BEE0
100
AcDbEntity
  8
1
  6
Continuous
100
AcDbLine
 10
131.6832559999998
 20
186.074941
 30
0.0
 11
167.13312
 21
186.074941
 31
0.0
  0
LINE
  5
C026
330
BEE0
100
AcDbEntity
  8
1
  6
Continuous
100
AcDbLine
 10
136.094479
 20
184.111835
 30
0.0
 11
138.094479
 21
182.498601
 31
0.0
  0
LINE
  5
C027
330
BEE0
100
AcDbEntity
  8
1
  6
Continuous
100
AcDbLine
 10
137.2660519999998
 20
184.111835
 30
0.0
 11
135.266052
 21
182.498601
 31
0.0
  0
LINE
  5
C028
330
BEE0
100
AcDbEntity
  8
1
  6
Continuous
100
AcDbLine
 10
133.266052
 20
184.111835
 30
0.0
 11
135.266052
 21
182.498601
 31
0.0
  0
LINE
  5
C029
330
BEE0
100
AcDbEntity
  8
1
  6
Continuous
100
AcDbLine
 10
134.437625
 20
184.111835
 30
0.0
 11
132.437625
 21
182.498601
 31
0.0
  0
LINE
  5
C02A
330
BEE0
100
AcDbEntity
  8
1
  6
Continuous
100
AcDbLine
 10
135.8518389999999
 20
184.111835
 30
0.0
 11
133.8518389999999
 21
182.498601
 31
0.0
  0
LINE
  5
C02B
330
BEE0
100
AcDbEntity
  8
1
  6
Continuous
100
AcDbLine
 10
130.9081879999999
 20
183.641272
 30
0.0
 11
132.437625
 21
182.498601
 31
0.0
  0
LINE
  5
C02C
330
BEE0
100
AcDbEntity
  8
1
  6
Continuous
100
AcDbLine
 10
133.023412
 20
184.111835
 30
0.0
 11
131.023412
 21
182.498601
 31
0.0
  0
LINE
  5
C02D
330
BEE0
100
AcDbEntity
  8
1
  6
Continuous
100
AcDbLine
 10
130.9081879999999
 20
184.111835
 30
0.0
 11
130.9081879999999
 21
182.498601
 31
0.0
  0
ARC
  5
C02E
330
BEE0
100
AcDbEntity
  8
1
  6
Continuous
100
AcDbCircle
 10
137.319962
 20
186.963186
 30
0.0
 40
6.407901999999999
100
AcDbArc
 50
192.8787169999999
 51
206.4216889999999
  0
ARC
  5
C02F
330
BEE0
100
AcDbEntity
  8
1
  6
Continuous
100
AcDbCircle
 10
131.8625189999999
 20
185.2579039999999
 30
0.0
 40
0.8364709999999998
100
AcDbArc
 50
102.3749159999999
 51
160.6585409999999
  0
LINE
  5
C030
330
BEE0
100
AcDbEntity
  8
1
  6
Continuous
100
AcDbLine
 10
130.9081879999999
 20
183.4108249999999
 30
0.0
 11
131.6091979999999
 21
184.111835
 31
0.0
  0
ARC
  5
C031
330
BEE0
100
AcDbEntity
  8
1
  6
Continuous
100
AcDbCircle
 10
131.6476139999998
 20
189.997448
 30
0.0
 40
3.611
100
AcDbArc
 50
206.795657
 51
270.0
  0
LINE
  5
C032
330
BEE0
100
AcDbEntity
  8
1
  6
Continuous
100
AcDbLine
 10
138.6802659999998
 20
184.111835
 30
0.0
 11
136.6802659999999
 21
182.498601
 31
0.0
  0
LINE
  5
C033
330
BEE0
100
AcDbEntity
  8
1
  6
Continuous
100
AcDbLine
 10
157.0650419999998
 20
184.111835
 30
0.0
 11
155.065042
 21
182.498601
 31
0.0
  0
LINE
  5
C034
330
BEE0
100
AcDbEntity
  8
1
  6
Continuous
100
AcDbLine
 10
150.236615
 20
184.111835
 30
0.0
 11
152.236615
 21
182.498601
 31
0.0
  0
LINE
  5
C035
330
BEE0
100
AcDbEntity
  8
1
  6
Continuous
100
AcDbLine
 10
152.822402
 20
184.111835
 30
0.0
 11
150.822402
 21
182.498601
 31
0.0
  0
LINE
  5
C036
330
BEE0
100
AcDbEntity
  8
1
  6
Continuous
100
AcDbLine
 10
144.5797609999999
 20
184.111835
 30
0.0
 11
146.5797609999999
 21
182.498601
 31
0.0
  0
LINE
  5
C037
330
BEE0
100
AcDbEntity
  8
1
  6
Continuous
100
AcDbLine
 10
147.1655469999998
 20
184.111835
 30
0.0
 11
145.165547
 21
182.498601
 31
0.0
  0
LINE
  5
C038
330
BEE0
100
AcDbEntity
  8
1
  6
Continuous
100
AcDbLine
 10
145.751334
 20
184.111835
 30
0.0
 11
143.751334
 21
182.498601
 31
0.0
  0
LINE
  5
C039
330
BEE0
100
AcDbEntity
  8
1
  6
Continuous
100
AcDbLine
 10
151.4081879999999
 20
184.111835
 30
0.0
 11
149.4081879999999
 21
182.498601
 31
0.0
  0
LINE
  5
C03A
330
BEE0
100
AcDbEntity
  8
1
  6
Continuous
100
AcDbLine
 10
147.4081879999999
 20
184.111835
 30
0.0
 11
149.4081879999999
 21
182.498601
 31
0.0
  0
LINE
  5
C03B
330
BEE0
100
AcDbEntity
  8
1
  6
Continuous
100
AcDbLine
 10
148.5797609999999
 20
184.111835
 30
0.0
 11
146.5797609999999
 21
182.498601
 31
0.0
  0
LINE
  5
C03C
330
BEE0
100
AcDbEntity
  8
1
  6
Continuous
100
AcDbLine
 10
149.993974
 20
184.111835
 30
0.0
 11
147.993974
 21
182.498601
 31
0.0
  0
LINE
  5
C03D
330
BEE0
100
AcDbEntity
  8
1
  6
Continuous
100
AcDbLine
 10
153.065042
 20
184.111835
 30
0.0
 11
155.065042
 21
182.498601
 31
0.0
  0
LINE
  5
C03E
330
BEE0
100
AcDbEntity
  8
1
  6
Continuous
100
AcDbLine
 10
155.650829
 20
184.111835
 30
0.0
 11
153.6508289999999
 21
182.498601
 31
0.0
  0
LINE
  5
C03F
330
BEE0
100
AcDbEntity
  8
1
  6
Continuous
100
AcDbLine
 10
154.236615
 20
184.111835
 30
0.0
 11
152.236615
 21
182.498601
 31
0.0
  0
LINE
  5
C040
330
BEE0
100
AcDbEntity
  8
1
  6
Continuous
100
AcDbLine
 10
142.922907
 20
184.111835
 30
0.0
 11
140.922907
 21
182.498601
 31
0.0
  0
LINE
  5
C041
330
BEE0
100
AcDbEntity
  8
1
  6
Continuous
100
AcDbLine
 10
141.751334
 20
184.111835
 30
0.0
 11
143.751334
 21
182.498601
 31
0.0
  0
LINE
  5
C042
330
BEE0
100
AcDbEntity
  8
1
  6
Continuous
100
AcDbLine
 10
144.33712
 20
184.111835
 30
0.0
 11
142.33712
 21
182.498601
 31
0.0
  0
ARC
  5
C043
330
BEE0
100
AcDbEntity
  8
1
  6
Continuous
100
AcDbCircle
 10
167.1687619999999
 20
189.997448
 30
0.0
 40
3.611
100
AcDbArc
 50
270.0
 51
333.204343
  0
LINE
  5
C044
330
BEE0
100
AcDbEntity
  8
1
  6
Continuous
100
AcDbLine
 10
161.5503239999999
 20
184.111835
 30
0.0
 11
163.550324
 21
182.498601
 31
0.0
  0
LINE
  5
C045
330
BEE0
100
AcDbEntity
  8
1
  6
Continuous
100
AcDbLine
 10
164.13611
 20
184.111835
 30
0.0
 11
162.13611
 21
182.498601
 31
0.0
  0
LINE
  5
C046
330
BEE0
100
AcDbEntity
  8
1
  6
Continuous
100
AcDbLine
 10
162.7218959999999
 20
184.111835
 30
0.0
 11
160.7218959999999
 21
182.498601
 31
0.0
  0
LINE
  5
C047
330
BEE0
100
AcDbEntity
  8
1
  6
Continuous
100
AcDbLine
 10
167.908188
 20
183.641272
 30
0.0
 11
166.3787509999998
 21
182.498601
 31
0.0
  0
LINE
  5
C048
330
BEE0
100
AcDbEntity
  8
1
  6
Continuous
100
AcDbLine
 10
166.964537
 20
184.111835
 30
0.0
 11
164.9645369999998
 21
182.498601
 31
0.0
  0
LINE
  5
C049
330
BEE0
100
AcDbEntity
  8
1
  6
Continuous
100
AcDbLine
 10
164.3787509999999
 20
184.111835
 30
0.0
 11
166.3787509999998
 21
182.498601
 31
0.0
  0
LINE
  5
C04A
330
BEE0
100
AcDbEntity
  8
1
  6
Continuous
100
AcDbLine
 10
165.5503239999999
 20
184.111835
 30
0.0
 11
163.550324
 21
182.498601
 31
0.0
  0
LINE
  5
C04B
330
BEE0
100
AcDbEntity
  8
1
  6
Continuous
100
AcDbLine
 10
167.908188
 20
182.6138239999999
 30
0.0
 11
167.7929639999999
 21
182.498601
 31
0.0
  0
LINE
  5
C04C
330
BEE0
100
AcDbEntity
  8
1
  6
Continuous
100
AcDbLine
 10
167.908188
 20
184.111835
 30
0.0
 11
167.908188
 21
182.498601
 31
0.0
  0
ARC
  5
C04D
330
BEE0
100
AcDbEntity
  8
1
  6
Continuous
100
AcDbCircle
 10
161.4964139999998
 20
186.963186
 30
0.0
 40
6.407901999999999
100
AcDbArc
 50
334.3555600000001
 51
347.121283
  0
ARC
  5
C04E
330
BEE0
100
AcDbEntity
  8
1
  6
Continuous
100
AcDbCircle
 10
166.953857
 20
185.2579039999999
 30
0.0
 40
0.8364709999999998
100
AcDbArc
 50
19.341459
 51
77.625084
  0
LINE
  5
C04F
330
BEE0
100
AcDbEntity
  8
1
  6
Continuous
100
AcDbLine
 10
167.207178
 20
184.111835
 30
0.0
 11
167.908188
 21
183.4108249999999
 31
0.0
  0
LINE
  5
C050
330
BEE0
100
AcDbEntity
  8
1
  6
Continuous
100
AcDbLine
 10
155.8934689999999
 20
184.111835
 30
0.0
 11
157.8934689999998
 21
182.498601
 31
0.0
  0
LINE
  5
C051
330
BEE0
100
AcDbEntity
  8
1
  6
Continuous
100
AcDbLine
 10
158.4792559999999
 20
184.111835
 30
0.0
 11
156.4792559999998
 21
182.498601
 31
0.0
  0
LINE
  5
C052
330
BEE0
100
AcDbEntity
  8
1
  6
Continuous
100
AcDbLine
 10
159.8934689999999
 20
184.111835
 30
0.0
 11
157.8934689999998
 21
182.498601
 31
0.0
  0
LINE
  5
C053
330
BEE0
100
AcDbEntity
  8
1
  6
Continuous
100
AcDbLine
 10
158.7218959999999
 20
184.111835
 30
0.0
 11
160.7218959999999
 21
182.498601
 31
0.0
  0
LINE
  5
C054
330
BEE0
100
AcDbEntity
  8
1
  6
Continuous
100
AcDbLine
 10
161.3076829999999
 20
184.111835
 30
0.0
 11
159.307683
 21
182.498601
 31
0.0
  0
LINE
  5
C055
330
BEE0
100
AcDbEntity
  8
4
  6
CENTER
100
AcDbLine
 10
33.79951099999999
 20
195.375175
 30
0.0
 11
33.79951099999999
 21
181.35962
 31
0.0
  0
LINE
  5
C056
330
BEE0
100
AcDbEntity
  8
4
  6
CENTER
100
AcDbLine
 10
62.79951099999999
 20
195.375175
 30
0.0
 11
62.79951099999999
 21
181.35962
 31
0.0
  0
LINE
  5
C057
330
BEE0
100
AcDbEntity
  8
1
  6
Continuous
100
AcDbLine
 10
63.02324399999999
 20
139.2125
 30
0.0
 11
61.023239
 21
139.2125
 31
0.0
  0
LINE
  5
C058
330
BEE0
100
AcDbEntity
  8
1
  6
Continuous
100
AcDbLine
 10
35.575783
 20
139.2125
 30
0.0
 11
33.575778
 21
139.2125
 31
0.0
  0
ARC
  5
C059
330
BEE0
100
AcDbEntity
  8
1
  6
Continuous
100
AcDbCircle
 10
61.605598
 20
178.184189
 30
0.0
 40
1.5
100
AcDbArc
 50
359.87892
 51
90.0
  0
ARC
  5
C05A
330
BEE0
100
AcDbEntity
  8
1
  6
Continuous
100
AcDbCircle
 10
34.99342399999999
 20
178.184189
 30
0.0
 40
1.5
100
AcDbArc
 50
90.0
 51
180.1210799999998
  0
LINE
  5
C05B
330
BEE0
100
AcDbEntity
  8
1
  6
Continuous
100
AcDbLine
 10
36.997585
 20
177.7170889999999
 30
0.0
 11
59.60143699999999
 21
177.7170889999999
 31
0.0
  0
ARC
  5
C05C
330
BEE0
100
AcDbEntity
  8
1
  6
Continuous
100
AcDbCircle
 10
59.60143699999999
 20
176.2170889999999
 30
0.0
 40
1.5
100
AcDbArc
 50
359.878918
 51
90.0
  0
ARC
  5
C05D
330
BEE0
100
AcDbEntity
  8
1
  6
Continuous
100
AcDbCircle
 10
36.997585
 20
176.2170889999999
 30
0.0
 40
1.5
100
AcDbArc
 50
90.0
 51
180.121082
  0
LINE
  5
C05E
330
BEE0
100
AcDbEntity
  8
4
  6
CENTER
100
AcDbLine
 10
221.0168449999999
 20
194.9908529999999
 30
0.0
 11
221.0168449999999
 21
181.0477589999999
 31
0.0
  0
LINE
  5
C05F
330
BEE0
100
AcDbEntity
  8
4
  6
CENTER
100
AcDbLine
 10
250.0168449999999
 20
194.9908529999999
 30
0.0
 11
250.0168449999999
 21
181.0477589999999
 31
0.0
  0
LINE
  5
C060
330
BEE0
100
AcDbEntity
  8
1
  6
Continuous
100
AcDbLine
 10
58.62732499999999
 20
173.8123009999999
 30
0.0
 11
37.97169699999999
 21
173.8123009999999
 31
0.0
  0
LINE
  5
C061
330
BEE0
100
AcDbEntity
  8
1
  6
Continuous
100
AcDbLine
 10
60.569129
 20
177.363201
 30
0.0
 11
36.029893
 21
177.363201
 31
0.0
  0
LINE
  5
C062
330
BEE0
100
AcDbEntity
  8
1
  6
Continuous
100
AcDbLine
 10
35.543469
 20
176.5852549999999
 30
0.0
 11
61.102723
 21
176.5852549999999
 31
0.0
  0
LINE
  5
C063
330
BEE0
100
AcDbEntity
  8
1
  6
Continuous
100
AcDbLine
 10
42.13940899999999
 20
173.212301
 30
0.0
 11
42.54151499999998
 21
173.8123009999999
 31
0.0
  0
LINE
  5
C064
330
BEE0
100
AcDbEntity
  8
1
  6
Continuous
100
AcDbLine
 10
41.699511
 20
173.212301
 30
0.0
 11
42.59412799999998
 21
173.212301
 31
0.0
  0
ARC
  5
C065
330
BEE0
100
AcDbEntity
  8
1
  6
Continuous
100
AcDbCircle
 10
38.46287
 20
177.729218
 30
0.0
 40
1.984499999999997
100
AcDbArc
 50
182.999869
 51
190.6283659999998
  0
ARC
  5
C066
330
BEE0
100
AcDbEntity
  8
1
  6
Continuous
100
AcDbCircle
 10
41.15549399999999
 20
177.729218
 30
0.0
 40
1.984499999999997
100
AcDbArc
 50
180.350187
 51
190.6283659999998
  0
ARC
  5
C067
330
BEE0
100
AcDbEntity
  8
1
  6
Continuous
100
AcDbCircle
 10
39.059021
 20
177.729218
 30
0.0
 40
1.984499999999997
100
AcDbArc
 50
180.350187
 51
190.6283659999998
  0
ARC
  5
C068
330
BEE0
100
AcDbEntity
  8
1
  6
Continuous
100
AcDbCircle
 10
37.07670999999999
 20
175.726355
 30
0.0
 40
1.683363999999999
100
AcDbArc
 50
217.387795
 51
241.092262
  0
ARC
  5
C069
330
BEE0
100
AcDbEntity
  8
1
  6
Continuous
100
AcDbCircle
 10
41.834391
 20
179.3622709999999
 30
0.0
 40
7.671302999999997
100
AcDbArc
 50
214.3194929999999
 51
217.387795
  0
LINE
  5
C06A
330
BEE0
100
AcDbEntity
  8
1
  6
Continuous
100
AcDbLine
 10
41.699511
 20
173.8123009999999
 30
0.0
 11
41.699511
 21
173.212301
 31
0.0
  0
ARC
  5
C06B
330
BEE0
100
AcDbEntity
  8
1
  6
Continuous
100
AcDbCircle
 10
37.97169699999999
 20
177.347103
 30
0.0
 40
3.534801999999998
100
AcDbArc
 50
241.092262
 51
270.0
  0
LINE
  5
C06C
330
BEE0
100
AcDbEntity
  8
1
  6
Continuous
100
AcDbLine
 10
54.00489399999999
 20
173.212301
 30
0.0
 11
54.89951099999998
 21
173.212301
 31
0.0
  0
ARC
  5
C06D
330
BEE0
100
AcDbEntity
  8
1
  6
Continuous
100
AcDbCircle
 10
48.29951099999998
 20
177.729218
 30
0.0
 40
1.985
100
AcDbArc
 50
349.374342
 51
359.649901
  0
ARC
  5
C06E
330
BEE0
100
AcDbEntity
  8
1
  6
Continuous
100
AcDbCircle
 10
48.29951099999998
 20
177.729218
 30
0.0
 40
1.985
100
AcDbArc
 50
180.350099
 51
190.6256579999999
  0
ARC
  5
C06F
330
BEE0
100
AcDbEntity
  8
1
  6
Continuous
100
AcDbCircle
 10
44.411898
 20
177.729218
 30
0.0
 40
1.984499999999997
100
AcDbArc
 50
180.350187
 51
190.6283659999998
  0
LINE
  5
C070
330
BEE0
100
AcDbEntity
  8
1
  6
Continuous
100
AcDbLine
 10
49.039022
 20
173.3724559999998
 30
0.0
 11
49.531739
 21
173.8123009999999
 31
0.0
  0
LINE
  5
C071
330
BEE0
100
AcDbEntity
  8
1
  6
Continuous
100
AcDbLine
 10
47.067283
 20
173.8123009999999
 30
0.0
 11
47.56
 21
173.3724559999998
 31
0.0
  0
ARC
  5
C072
330
BEE0
100
AcDbEntity
  8
1
  6
Continuous
100
AcDbCircle
 10
55.443528
 20
177.729218
 30
0.0
 40
1.984499999999997
100
AcDbArc
 50
349.3716339999999
 51
359.649813
  0
ARC
  5
C073
330
BEE0
100
AcDbEntity
  8
1
  6
Continuous
100
AcDbCircle
 10
52.187124
 20
177.729218
 30
0.0
 40
1.984499999999997
100
AcDbArc
 50
349.3716339999999
 51
359.649813
  0
LINE
  5
C074
330
BEE0
100
AcDbEntity
  8
1
  6
Continuous
100
AcDbLine
 10
54.89951099999998
 20
173.8123009999999
 30
0.0
 11
54.89951099999998
 21
173.212301
 31
0.0
  0
LINE
  5
C075
330
BEE0
100
AcDbEntity
  8
1
  6
Continuous
100
AcDbLine
 10
54.05750699999999
 20
173.8123009999999
 30
0.0
 11
54.459613
 21
173.212301
 31
0.0
  0
ARC
  5
C076
330
BEE0
100
AcDbEntity
  8
1
  6
Continuous
100
AcDbCircle
 10
57.54000099999998
 20
177.729218
 30
0.0
 40
1.984499999999997
100
AcDbArc
 50
349.3716339999999
 51
359.649813
  0
ARC
  5
C077
330
BEE0
100
AcDbEntity
  8
1
  6
Continuous
100
AcDbCircle
 10
58.136152
 20
177.729218
 30
0.0
 40
1.984499999999997
100
AcDbArc
 50
349.3716339999999
 51
357.000131
  0
ARC
  5
C078
330
BEE0
100
AcDbEntity
  8
1
  6
Continuous
100
AcDbCircle
 10
59.52231199999999
 20
175.726355
 30
0.0
 40
1.683363999999999
100
AcDbArc
 50
298.9077379999999
 51
322.6122049999998
  0
ARC
  5
C079
330
BEE0
100
AcDbEntity
  8
1
  6
Continuous
100
AcDbCircle
 10
58.62732499999999
 20
177.347103
 30
0.0
 40
3.534801999999998
100
AcDbArc
 50
270.0
 51
298.9077379999999
  0
ARC
  5
C07A
330
BEE0
100
AcDbEntity
  8
1
  6
Continuous
100
AcDbCircle
 10
54.76463100000001
 20
179.3622709999999
 30
0.0
 40
7.671302999999997
100
AcDbArc
 50
322.6122049999998
 51
325.668552
  0
LINE
  5
C07B
330
BEE0
100
AcDbEntity
  8
1
  6
Continuous
100
AcDbLine
 10
245.8446589999998
 20
173.8123009999999
 30
0.0
 11
225.1890309999998
 21
173.8123009999999
 31
0.0
  0
LINE
  5
C07C
330
BEE0
100
AcDbEntity
  8
1
  6
Continuous
100
AcDbLine
 10
229.3567429999999
 20
173.212301
 30
0.0
 11
229.758849
 21
173.8123009999999
 31
0.0
  0
ARC
  5
C07D
330
BEE0
100
AcDbEntity
  8
1
  6
Continuous
100
AcDbCircle
 10
224.2940439999999
 20
175.726355
 30
0.0
 40
1.683363999999999
100
AcDbArc
 50
217.387795
 51
241.092262
  0
ARC
  5
C07E
330
BEE0
100
AcDbEntity
  8
1
  6
Continuous
100
AcDbCircle
 10
229.051725
 20
179.3622709999999
 30
0.0
 40
7.671302999999997
100
AcDbArc
 50
214.3194929999999
 51
217.387795
  0
LINE
  5
C07F
330
BEE0
100
AcDbEntity
  8
1
  6
Continuous
100
AcDbLine
 10
228.916845
 20
173.8123009999999
 30
0.0
 11
228.916845
 21
173.212301
 31
0.0
  0
ARC
  5
C080
330
BEE0
100
AcDbEntity
  8
1
  6
Continuous
100
AcDbCircle
 10
225.1890309999998
 20
177.347103
 30
0.0
 40
3.534801999999998
100
AcDbArc
 50
241.092262
 51
270.0
  0
LINE
  5
C081
330
BEE0
100
AcDbEntity
  8
1
  6
Continuous
100
AcDbLine
 10
228.916845
 20
173.212301
 30
0.0
 11
229.8114609999998
 21
173.212301
 31
0.0
  0
LINE
  5
C082
330
BEE0
100
AcDbEntity
  8
1
  6
Continuous
100
AcDbLine
 10
234.284617
 20
173.8123009999999
 30
0.0
 11
234.7773339999999
 21
173.3724559999998
 31
0.0
  0
LINE
  5
C083
330
BEE0
100
AcDbEntity
  8
1
  6
Continuous
100
AcDbLine
 10
236.256356
 20
173.3724559999998
 30
0.0
 11
236.749073
 21
173.8123009999999
 31
0.0
  0
LINE
  5
C084
330
BEE0
100
AcDbEntity
  8
1
  6
Continuous
100
AcDbLine
 10
242.116845
 20
173.8123009999999
 30
0.0
 11
242.116845
 21
173.212301
 31
0.0
  0
LINE
  5
C085
330
BEE0
100
AcDbEntity
  8
1
  6
Continuous
100
AcDbLine
 10
241.274841
 20
173.8123009999999
 30
0.0
 11
241.676947
 21
173.212301
 31
0.0
  0
ARC
  5
C086
330
BEE0
100
AcDbEntity
  8
1
  6
Continuous
100
AcDbCircle
 10
246.7396459999999
 20
175.726355
 30
0.0
 40
1.683363999999999
100
AcDbArc
 50
298.9077379999999
 51
322.6122049999998
  0
ARC
  5
C087
330
BEE0
100
AcDbEntity
  8
1
  6
Continuous
100
AcDbCircle
 10
245.8446589999998
 20
177.347103
 30
0.0
 40
3.534801999999998
100
AcDbArc
 50
270.0
 51
298.9077379999999
  0
ARC
  5
C088
330
BEE0
100
AcDbEntity
  8
1
  6
Continuous
100
AcDbCircle
 10
241.9819649999999
 20
179.3622709999999
 30
0.0
 40
7.671302999999997
100
AcDbArc
 50
322.6122049999998
 51
325.668552
  0
LINE
  5
C089
330
BEE0
100
AcDbEntity
  8
1
  6
Continuous
100
AcDbLine
 10
241.2222279999999
 20
173.212301
 30
0.0
 11
242.116845
 21
173.212301
 31
0.0
  0
LINE
  5
C08A
330
BEE0
100
AcDbEntity
  8
1
  6
Continuous
100
AcDbLine
 10
222.715852
 20
175.7677069999998
 30
0.0
 11
222.793116
 21
139.2066269999999
 31
0.0
  0
LINE
  5
C08B
330
BEE0
100
AcDbEntity
  8
1
  6
Continuous
100
AcDbLine
 10
248.317837
 20
175.7677069999998
 30
0.0
 11
248.2405729999999
 21
139.2066269999999
 31
0.0
  0
LINE
  5
C08C
330
BEE0
100
AcDbEntity
  8
1
  6
Continuous
100
AcDbLine
 10
250.2405779999999
 20
139.2066269999999
 30
0.0
 11
248.2405729999999
 21
139.2066269999999
 31
0.0
  0
LINE
  5
C08D
330
BEE0
100
AcDbEntity
  8
1
  6
Continuous
100
AcDbLine
 10
251.260141
 20
147.3528589999999
 30
0.0
 11
251.260141
 21
144.125191
 31
0.0
  0
ARC
  5
C08E
330
BEE0
100
AcDbEntity
  8
1
  6
Continuous
100
AcDbCircle
 10
245.989308
 20
148.375191
 30
0.0
 40
6.770832999999998
100
AcDbArc
 50
321.1199299999999
 51
12.459047
  0
LINE
  5
C08F
330
BEE0
100
AcDbEntity
  8
1
  6
Continuous
100
AcDbLine
 10
251.260141
 20
144.125191
 30
0.0
 11
250.354336
 21
144.125191
 31
0.0
  0
LINE
  5
C090
330
BEE0
100
AcDbEntity
  8
1
  6
Continuous
100
AcDbLine
 10
168.1584039999999
 20
177.616486
 30
0.0
 11
168.4081879999999
 21
175.762876
 31
0.0
  0
LINE
  5
C091
330
BEE0
100
AcDbEntity
  8
1
  6
Continuous
100
AcDbLine
 10
167.206219
 20
175.3819969999999
 30
0.0
 11
168.4081879999999
 21
175.762876
 31
0.0
  0
LINE
  5
C092
330
BEE0
100
AcDbEntity
  8
4
  6
CENTER
100
AcDbLine
 10
183.908626
 20
67.085669
 30
0.0
 11
99.41836700000001
 21
67.085669
 31
0.0
  0
LINE
  5
C093
330
BEE0
100
AcDbEntity
  8
4
  6
CENTER
100
AcDbLine
 10
179.158626
 20
52.58566899999999
 30
0.0
 11
166.658626
 21
52.58566899999999
 31
0.0
  0
LINE
  5
C094
330
BEE0
100
AcDbEntity
  8
4
  6
CENTER
100
AcDbLine
 10
179.158626
 20
81.58566899999998
 30
0.0
 11
166.658626
 21
81.58566899999998
 31
0.0
  0
ARC
  5
C095
330
BEE0
100
AcDbEntity
  8
1
  6
Continuous
100
AcDbCircle
 10
176.9086259999999
 20
85.58566899999998
 30
0.0
 40
2.5
100
AcDbArc
 50
0.0
 51
82.95710600000003
  0
ARC
  5
C096
330
BEE0
100
AcDbEntity
  8
1
  6
Continuous
100
AcDbCircle
 10
176.9086259999999
 20
48.585669
 30
0.0
 40
2.5
100
AcDbArc
 50
270.0
 51
0.0
  0
LINE
  5
C097
330
BEE0
100
AcDbEntity
  8
1
  6
Continuous
100
AcDbLine
 10
119.4086259999999
 20
48.585669
 30
0.0
 11
119.4086259999999
 21
56.08566899999999
 31
0.0
  0
LINE
  5
C098
330
BEE0
100
AcDbEntity
  8
4
  6
CENTER
100
AcDbLine
 10
125.9086259999999
 20
75.33566899999998
 30
0.0
 11
125.9086259999999
 21
87.83566899999998
 31
0.0
  0
LINE
  5
C099
330
BEE0
100
AcDbEntity
  8
4
  6
CENTER
100
AcDbLine
 10
172.908626
 20
75.33566899999998
 30
0.0
 11
172.908626
 21
87.83566899999998
 31
0.0
  0
LINE
  5
C09A
330
BEE0
100
AcDbEntity
  8
4
  6
CENTER
100
AcDbLine
 10
132.1586259999999
 20
81.58566899999998
 30
0.0
 11
119.6586259999999
 21
81.58566899999998
 31
0.0
  0
CIRCLE
  5
C09B
330
BEE0
100
AcDbEntity
  8
1
  6
Continuous
100
AcDbCircle
 10
172.908626
 20
81.58566899999998
 30
0.0
 40
3.25
  0
LINE
  5
C09C
330
BEE0
100
AcDbEntity
  8
1
  6
Continuous
100
AcDbLine
 10
121.908626
 20
46.085669
 30
0.0
 11
176.9086259999999
 21
46.085669
 31
0.0
  0
ARC
  5
C09D
330
BEE0
100
AcDbEntity
  8
1
  6
Continuous
100
AcDbCircle
 10
125.9086259999999
 20
52.58566899999999
 30
0.0
 40
3.25
100
AcDbArc
 50
122.2042279999999
 51
147.000273
  0
LINE
  5
C09E
330
BEE0
100
AcDbEntity
  8
4
  6
CENTER
100
AcDbLine
 10
125.9086259999999
 20
58.83566899999999
 30
0.0
 11
125.9086259999999
 21
46.335669
 31
0.0
  0
LINE
  5
C09F
330
BEE0
100
AcDbEntity
  8
4
  6
CENTER
100
AcDbLine
 10
132.1586259999999
 20
52.58566899999999
 30
0.0
 11
119.6586259999999
 21
52.58566899999999
 31
0.0
  0
ARC
  5
C0A0
330
BEE0
100
AcDbEntity
  8
1
  6
Continuous
100
AcDbCircle
 10
121.908626
 20
48.585669
 30
0.0
 40
2.5
100
AcDbArc
 50
180.0
 51
270.0
  0
LINE
  5
C0A1
330
BEE0
100
AcDbEntity
  8
4
  6
CENTER
100
AcDbLine
 10
172.908626
 20
58.83566899999999
 30
0.0
 11
172.908626
 21
46.335669
 31
0.0
  0
CIRCLE
  5
C0A2
330
BEE0
100
AcDbEntity
  8
1
  6
Continuous
100
AcDbCircle
 10
172.908626
 20
52.58566899999999
 30
0.0
 40
3.25
  0
LINE
  5
C0A3
330
BEE0
100
AcDbEntity
  8
1
  6
Continuous
100
AcDbLine
 10
179.408626
 20
48.585669
 30
0.0
 11
179.408626
 21
85.58566899999998
 31
0.0
  0
ARC
  5
C0A4
330
BEE0
100
AcDbEntity
  8
1
  6
Continuous
100
AcDbCircle
 10
129.408073
 20
56.613225
 30
0.0
 40
6.770832999999998
100
AcDbArc
 50
231.11993
 51
308.8800700000001
  0
LINE
  5
C0A5
330
BEE0
100
AcDbEntity
  8
1
  6
Continuous
100
AcDbLine
 10
126.408073
 20
54.33598899999999
 30
0.0
 11
126.408073
 21
55.336119
 31
0.0
  0
LINE
  5
C0A6
330
BEE0
100
AcDbEntity
  8
1
  6
Continuous
100
AcDbLine
 10
123.3352189999999
 20
55.74884499999999
 30
0.0
 11
123.275828
 21
56.08566899999999
 31
0.0
  0
ARC
  5
C0A7
330
BEE0
100
AcDbEntity
  8
1
  6
Continuous
100
AcDbCircle
 10
123.827623
 20
55.835669
 30
0.0
 40
0.5
100
AcDbArc
 50
190.0
 51
270.0
  0
ARC
  5
C0A8
330
BEE0
100
AcDbEntity
  8
1
  6
Continuous
100
AcDbCircle
 10
123.827623
 20
55.835669
 30
0.0
 40
0.5
100
AcDbArc
 50
190.0
 51
270.0
  0
LINE
  5
C0A9
330
BEE0
100
AcDbEntity
  8
1
  6
Continuous
100
AcDbLine
 10
125.158073
 20
51.34239199999999
 30
0.0
 11
125.158073
 21
52.333315
 31
0.0
  0
LINE
  5
C0AA
330
BEE0
100
AcDbEntity
  8
1
  6
Continuous
100
AcDbLine
 10
135.480927
 20
55.74884499999999
 30
0.0
 11
135.5403179999999
 21
56.08566899999999
 31
0.0
  0
LINE
  5
C0AB
330
BEE0
100
AcDbEntity
  8
1
  6
Continuous
100
AcDbLine
 10
132.408073
 20
54.34880299999999
 30
0.0
 11
132.408073
 21
55.336119
 31
0.0
  0
ARC
  5
C0AC
330
BEE0
100
AcDbEntity
  8
1
  6
Continuous
100
AcDbCircle
 10
134.9885229999999
 20
55.835669
 30
0.0
 40
0.5
100
AcDbArc
 50
270.0
 51
350.0
  0
ARC
  5
C0AD
330
BEE0
100
AcDbEntity
  8
1
  6
Continuous
100
AcDbCircle
 10
134.9885229999999
 20
55.835669
 30
0.0
 40
0.5
100
AcDbArc
 50
270.0
 51
350.0
  0
LINE
  5
C0AE
330
BEE0
100
AcDbEntity
  8
1
  6
Continuous
100
AcDbLine
 10
133.658073
 20
51.34239199999999
 30
0.0
 11
133.658073
 21
52.333591
 31
0.0
  0
LINE
  5
C0AF
330
BEE0
100
AcDbEntity
  8
1
  6
Continuous
100
AcDbLine
 10
125.158073
 20
51.34239199999999
 30
0.0
 11
133.658073
 21
51.34239199999999
 31
0.0
  0
LINE
  5
C0B0
330
BEE0
100
AcDbEntity
  8
1
  6
Continuous
100
AcDbLine
 10
123.827623
 20
55.335669
 30
0.0
 11
134.9885229999999
 21
55.335669
 31
0.0
  0
LINE
  5
C0B1
330
BEE0
100
AcDbEntity
  8
1
  6
Continuous
100
AcDbLine
 10
126.408073
 20
78.83611899999998
 30
0.0
 11
126.408073
 21
79.82242099999997
 31
0.0
  0
ARC
  5
C0B2
330
BEE0
100
AcDbEntity
  8
1
  6
Continuous
100
AcDbCircle
 10
123.827623
 20
78.33566899999998
 30
0.0
 40
0.5
100
AcDbArc
 50
90.0
 51
170.0
  0
LINE
  5
C0B3
330
BEE0
100
AcDbEntity
  8
1
  6
Continuous
100
AcDbLine
 10
123.3352189999999
 20
78.422493
 30
0.0
 11
123.275828
 21
78.08566899999998
 31
0.0
  0
ARC
  5
C0B4
330
BEE0
100
AcDbEntity
  8
1
  6
Continuous
100
AcDbCircle
 10
123.827623
 20
78.33566899999998
 30
0.0
 40
0.5
100
AcDbArc
 50
90.0
 51
170.0
  0
LINE
  5
C0B5
330
BEE0
100
AcDbEntity
  8
1
  6
Continuous
100
AcDbLine
 10
123.3352189999999
 20
78.422493
 30
0.0
 11
123.275828
 21
78.08566899999998
 31
0.0
  0
LINE
  5
C0B6
330
BEE0
100
AcDbEntity
  8
1
  6
Continuous
100
AcDbLine
 10
132.408073
 20
78.83611899999998
 30
0.0
 11
132.408073
 21
79.822535
 31
0.0
  0
ARC
  5
C0B7
330
BEE0
100
AcDbEntity
  8
1
  6
Continuous
100
AcDbCircle
 10
134.9885229999999
 20
78.33566899999998
 30
0.0
 40
0.5
100
AcDbArc
 50
10.0
 51
90.0
  0
LINE
  5
C0B8
330
BEE0
100
AcDbEntity
  8
1
  6
Continuous
100
AcDbLine
 10
135.480927
 20
78.422493
 30
0.0
 11
135.5403179999999
 21
78.08566899999998
 31
0.0
  0
ARC
  5
C0B9
330
BEE0
100
AcDbEntity
  8
1
  6
Continuous
100
AcDbCircle
 10
134.9885229999999
 20
78.33566899999998
 30
0.0
 40
0.5
100
AcDbArc
 50
10.0
 51
90.0
  0
LINE
  5
C0BA
330
BEE0
100
AcDbEntity
  8
1
  6
Continuous
100
AcDbLine
 10
135.480927
 20
78.422493
 30
0.0
 11
135.5403179999999
 21
78.08566899999998
 31
0.0
  0
LINE
  5
C0BB
330
BEE0
100
AcDbEntity
  8
1
  6
Continuous
100
AcDbLine
 10
123.827623
 20
78.83566899999998
 30
0.0
 11
134.9885229999999
 21
78.83566899999998
 31
0.0
  0
LINE
  5
C0BC
330
BEE0
100
AcDbEntity
  8
1
  6
Continuous
100
AcDbLine
 10
134.325498
 20
79.83915299999998
 30
0.0
 11
122.118531
 21
79.813356
 31
0.0
  0
LINE
  5
C0BD
330
BEE0
100
AcDbEntity
  8
1
  6
Continuous
100
AcDbLine
 10
134.3212709999999
 20
52.33219
 30
0.0
 11
122.118531
 21
52.35797699999999
 31
0.0
  0
LINE
  5
C0BE
330
BEE0
100
AcDbEntity
  8
1
  6
Continuous
100
AcDbLine
 10
134.325498
 20
54.332186
 30
0.0
 11
122.118531
 21
54.35798199999999
 31
0.0
  0
LINE
  5
C0BF
330
BEE0
100
AcDbEntity
  8
1
  6
Continuous
100
AcDbLine
 10
106.8222129999999
 20
56.08566899999999
 30
0.0
 11
151.9939329999999
 21
56.08566899999999
 31
0.0
  0
LINE
  5
C0C0
330
BEE0
100
AcDbEntity
  8
1
  6
Continuous
100
AcDbLine
 10
106.8222129999999
 20
78.08566899999998
 30
0.0
 11
151.9939329999999
 21
78.08566899999998
 31
0.0
  0
ARC
  5
C0C1
330
BEE0
100
AcDbEntity
  8
1
  6
Continuous
100
AcDbCircle
 10
54.408073
 20
67.085669
 30
0.0
 40
100.0
100
AcDbArc
 50
354.730718
 51
5.269982999999998
  0
ARC
  5
C0C2
330
BEE0
100
AcDbEntity
  8
1
  6
Continuous
100
AcDbCircle
 10
151.9939329999999
 20
76.08566899999998
 30
0.0
 40
2.0
100
AcDbArc
 50
5.269281999999998
 51
90.0
  0
ARC
  5
C0C3
330
BEE0
100
AcDbEntity
  8
1
  6
Continuous
100
AcDbCircle
 10
151.9939329999999
 20
58.08566899999998
 30
0.0
 40
2.0
100
AcDbArc
 50
270.0
 51
354.730718
  0
ARC
  5
C0C4
330
BEE0
100
AcDbEntity
  8
1
  6
Continuous
100
AcDbCircle
 10
106.8222129999999
 20
58.08566899999998
 30
0.0
 40
2.0
100
AcDbArc
 50
185.269282
 51
270.0
  0
ARC
  5
C0C5
330
BEE0
100
AcDbEntity
  8
1
  6
Continuous
100
AcDbCircle
 10
204.408073
 20
67.085669
 30
0.0
 40
100.0
100
AcDbArc
 50
174.730017
 51
185.269282
  0
ARC
  5
C0C6
330
BEE0
100
AcDbEntity
  8
1
  6
Continuous
100
AcDbCircle
 10
106.8222129999999
 20
76.08566899999998
 30
0.0
 40
2.0
100
AcDbArc
 50
90.0
 51
174.730718
  0
LINE
  5
C0C7
330
BEE0
100
AcDbEntity
  8
4
  6
CENTER
100
AcDbLine
 10
129.408073
 20
95.52876899999999
 30
0.0
 11
129.408073
 21
41.085669
 31
0.0
  0
LINE
  5
C0C8
330
BEE0
100
AcDbEntity
  8
1
  6
Continuous
100
AcDbLine
 10
119.4086259999999
 20
78.08566899999998
 30
0.0
 11
119.4086259999999
 21
79.85459899999998
 31
0.0
  0
LINE
  5
C0C9
330
BEE0
100
AcDbEntity
  8
1
  6
Continuous
100
AcDbLine
 10
122.118531
 20
81.81336100000001
 30
0.0
 11
122.118531
 21
79.813356
 31
0.0
  0
LINE
  5
C0CA
330
BEE0
100
AcDbEntity
  8
1
  6
Continuous
100
AcDbLine
 10
122.118531
 20
54.35798199999999
 30
0.0
 11
122.118531
 21
52.35797699999999
 31
0.0
  0
ARC
  5
C0CB
330
BEE0
100
AcDbEntity
  8
1
  6
Continuous
100
AcDbCircle
 10
149.4086259999999
 20
67.085669
 30
0.0
 40
19.0
100
AcDbArc
 50
238.601835
 51
66.52905200000001
  0
ARC
  5
C0CC
330
BEE0
100
AcDbEntity
  8
1
  6
Continuous
100
AcDbCircle
 10
149.4086259999999
 20
67.085669
 30
0.0
 40
17.0
100
AcDbArc
 50
238.601834
 51
97.87290900000002
  0
ARC
  5
C0CD
330
BEE0
100
AcDbEntity
  8
1
  6
Continuous
100
AcDbCircle
 10
134.3001389999998
 20
91.83912599999999
 30
0.0
 40
10.0
100
AcDbArc
 50
270.12108
 51
301.398165
  0
ARC
  5
C0CE
330
BEE0
100
AcDbEntity
  8
1
  6
Continuous
100
AcDbCircle
 10
134.3001389999998
 20
91.83912599999999
 30
0.0
 40
12.0
100
AcDbArc
 50
270.121082
 51
301.398166
  0
ARC
  5
C0CF
330
BEE0
100
AcDbEntity
  8
1
  6
Continuous
100
AcDbCircle
 10
134.3001389999998
 20
42.332212
 30
0.0
 40
10.0
100
AcDbArc
 50
58.60183499999998
 51
89.87891999999998
  0
ARC
  5
C0D0
330
BEE0
100
AcDbEntity
  8
1
  6
Continuous
100
AcDbCircle
 10
134.3001389999998
 20
42.332212
 30
0.0
 40
12.0
100
AcDbArc
 50
58.601834
 51
89.87891799999998
  0
ARC
  5
C0D1
330
BEE0
100
AcDbEntity
  8
1
  6
Continuous
100
AcDbCircle
 10
125.9086259999999
 20
81.58566899999998
 30
0.0
 40
3.25
100
AcDbArc
 50
212.999727
 51
237.795772
  0
ARC
  5
C0D2
330
BEE0
100
AcDbEntity
  8
1
  6
Continuous
100
AcDbCircle
 10
125.9086259999999
 20
52.58566899999999
 30
0.0
 40
3.25
100
AcDbArc
 50
184.037848
 51
307.681712
  0
ARC
  5
C0D3
330
BEE0
100
AcDbEntity
  8
1
  6
Continuous
100
AcDbCircle
 10
149.4086259999999
 20
67.085669
 30
0.0
 40
13.2
100
AcDbArc
 50
236.44269
 51
123.55731
  0
ARC
  5
C0D4
330
BEE0
100
AcDbEntity
  8
1
  6
Continuous
100
AcDbCircle
 10
149.4086259999999
 20
67.085669
 30
0.0
 40
15.09999999999999
100
AcDbArc
 50
226.758852
 51
133.241148
  0
ARC
  5
C0D5
330
BEE0
100
AcDbEntity
  8
1
  6
Continuous
100
AcDbCircle
 10
149.4086259999999
 20
67.085669
 30
0.0
 40
5.4
100
AcDbArc
 50
337.185281
 51
22.814719
  0
ARC
  5
C0D6
330
BEE0
100
AcDbEntity
  8
1
  6
Continuous
100
AcDbCircle
 10
149.4086259999999
 20
67.085669
 30
0.0
 40
20.983387
100
AcDbArc
 50
224.683268
 51
68.61711099999999
  0
LINE
  5
C0D7
330
BEE0
100
AcDbEntity
  8
1
  6
Continuous
100
AcDbLine
 10
129.149562
 20
231.9115329999999
 30
0.0
 11
122.6666929999999
 21
231.9252329999999
 31
0.0
  0
LINE
  5
C0D8
330
BEE0
100
AcDbEntity
  8
1
  6
Continuous
100
AcDbLine
 10
126.218194
 20
233.917733
 30
0.0
 11
123.1829379999998
 21
233.9241470000001
 31
0.0
  0
LINE
  5
C0D9
330
BEE0
100
AcDbEntity
  8
1
  6
Continuous
100
AcDbLine
 10
124.176575
 20
234.904083
 30
0.0
 11
125.949333
 21
234.904083
 31
0.0
  0
ARC
  5
C0DA
330
BEE0
100
AcDbEntity
  8
1
  6
Continuous
100
AcDbCircle
 10
125.9086259999999
 20
232.1540829999999
 30
0.0
 40
3.25
100
AcDbArc
 50
122.2042279999999
 51
147.000273
  0
ARC
  5
C0DB
330
BEE0
100
AcDbEntity
  8
1
  6
Continuous
100
AcDbCircle
 10
125.9086259999999
 20
261.154083
 30
0.0
 40
3.25
100
AcDbArc
 50
52.31828799999998
 51
175.962152
  0
LINE
  5
C0DC
330
BEE0
100
AcDbEntity
  8
1
  6
Continuous
100
AcDbLine
 10
125.158073
 20
262.3973599999998
 30
0.0
 11
128.911418
 21
262.3973599999998
 31
0.0
  0
ARC
  5
C0DD
330
BEE0
100
AcDbEntity
  8
1
  6
Continuous
100
AcDbCircle
 10
129.408073
 20
257.126527
 30
0.0
 40
6.770832999999998
100
AcDbArc
 50
102.9105539999999
 51
128.8800699999999
  0
LINE
  5
C0DE
330
BEE0
100
AcDbEntity
  8
1
  6
Continuous
100
AcDbLine
 10
125.158073
 20
262.3973599999998
 30
0.0
 11
125.158073
 21
261.4064369999999
 31
0.0
  0
LINE
  5
C0DF
330
BEE0
100
AcDbEntity
  8
1
  6
Continuous
100
AcDbLine
 10
124.176575
 20
258.404083
 30
0.0
 11
125.949333
 21
258.404083
 31
0.0
  0
LINE
  5
C0E0
330
BEE0
100
AcDbEntity
  8
1
  6
Continuous
100
AcDbLine
 10
129.149562
 20
261.396633
 30
0.0
 11
122.6666929999999
 21
261.3829329999999
 31
0.0
  0
LINE
  5
C0E1
330
BEE0
100
AcDbEntity
  8
1
  6
Continuous
100
AcDbLine
 10
126.218194
 20
259.3904339999999
 30
0.0
 11
123.1829379999998
 21
259.3840189999998
 31
0.0
  0
ARC
  5
C0E2
330
BEE0
100
AcDbEntity
  8
1
  6
Continuous
100
AcDbCircle
 10
170.999358
 20
67.085669
 30
0.0
 40
46.55713999999998
100
AcDbArc
 50
164.1235529999999
 51
165.381723
  0
ARC
  5
C0E3
330
BEE0
100
AcDbEntity
  8
1
  6
Continuous
100
AcDbCircle
 10
170.999358
 20
67.085669
 30
0.0
 40
46.55713999999998
100
AcDbArc
 50
194.618277
 51
195.876447
  0
ARC
  5
C0E4
330
BEE0
100
AcDbEntity
  8
1
  6
Continuous
100
AcDbCircle
 10
170.999358
 20
246.654083
 30
0.0
 40
46.55713999999998
100
AcDbArc
 50
193.9847279999999
 51
198.45441
  0
ARC
  5
C0E5
330
BEE0
100
AcDbEntity
  8
1
  6
Continuous
100
AcDbCircle
 10
170.999358
 20
246.654083
 30
0.0
 40
46.55713999999998
100
AcDbArc
 50
161.54559
 51
166.015272
  0
ARC
  5
C0E6
330
BEE0
100
AcDbEntity
  8
1
  6
Continuous
100
AcDbCircle
 10
173.601604
 20
162.4823079999999
 30
0.0
 40
79.02195899999998
100
AcDbArc
 50
356.526268
 51
3.236625
  0
LINE
  5
C0E7
330
BEE0
100
AcDbEntity
  8
1
  6
Continuous
100
AcDbLine
 10
250.247651
 20
142.5537789999999
 30
0.0
 11
250.2405779999999
 21
139.2066269999999
 31
0.0
  0
ARC
  5
C0E8
330
BEE0
100
AcDbEntity
  8
1
  6
Continuous
100
AcDbCircle
 10
237.4447889999999
 20
157.6942949999998
 30
0.0
 40
17.07205599999999
100
AcDbArc
 50
328.555994
 51
0.0
  0
ARC
  5
C0E9
330
BEE0
100
AcDbEntity
  8
1
  6
Continuous
100
AcDbCircle
 10
235.406318
 20
157.6942949999998
 30
0.0
 40
17.07205599999999
100
AcDbArc
 50
328.702125
 51
0.0
  0
ARC
  5
C0EA
330
BEE0
100
AcDbEntity
  8
1
  6
Continuous
100
AcDbCircle
 10
262.2476239999999
 20
142.5284199999999
 30
0.0
 40
12.0
100
AcDbArc
 50
148.5559939999999
 51
179.8789199999999
  0
ARC
  5
C0EB
330
BEE0
100
AcDbEntity
  8
1
  6
Continuous
100
AcDbCircle
 10
260.2477529999998
 20
142.5917279999999
 30
0.0
 40
12.0
100
AcDbArc
 50
148.7021249999999
 51
179.8789179999999
  0
LINE
  5
C0EC
330
BEE0
100
AcDbEntity
  8
4
  6
CENTER
100
AcDbLine
 10
129.408626
 20
272.654083
 30
0.0
 11
129.408626
 21
218.2109839999998
 31
0.0
  0
LINE
  5
C0ED
330
BEE0
100
AcDbEntity
  8
1
  6
Continuous
100
AcDbLine
 10
67.982223
 20
145.4886909999999
 30
0.0
 11
70.68963899999999
 21
145.4886909999999
 31
0.0
  0
LINE
  5
C0EE
330
BEE0
100
AcDbEntity
  8
1
  6
Continuous
100
AcDbLine
 10
67.982223
 20
154.1486909999998
 30
0.0
 11
70.68963899999999
 21
154.1486909999998
 31
0.0
  0
LINE
  5
C0EF
330
BEE0
100
AcDbEntity
  8
1
  6
Continuous
100
AcDbLine
 10
67.982223
 20
151.2626909999999
 30
0.0
 11
70.68963899999999
 21
151.2626909999999
 31
0.0
  0
LINE
  5
C0F0
330
BEE0
100
AcDbEntity
  8
1
  6
Continuous
100
AcDbLine
 10
67.982223
 20
142.6016909999999
 30
0.0
 11
70.68963899999999
 21
142.6016909999999
 31
0.0
  0
LINE
  5
C0F1
330
BEE0
100
AcDbEntity
  8
1
  6
Continuous
100
AcDbLine
 10
67.535931
 20
143.3746909999999
 30
0.0
 11
67.982223
 21
142.6016909999999
 31
0.0
  0
LINE
  5
C0F2
330
BEE0
100
AcDbEntity
  8
1
  6
Continuous
100
AcDbLine
 10
67.535931
 20
153.9751909999999
 30
0.0
 11
67.535931
 21
142.7751909999998
 31
0.0
  0
ARC
  5
C0F3
330
BEE0
100
AcDbEntity
  8
1
  6
Continuous
100
AcDbCircle
 10
70.09191099999999
 20
144.044691
 30
0.0
 40
2.555979999999999
100
AcDbArc
 50
145.6283629999998
 51
205.6283629999998
  0
ARC
  5
C0F4
330
BEE0
100
AcDbEntity
  8
1
  6
Continuous
100
AcDbCircle
 10
70.091931
 20
144.0456909999998
 30
0.0
 40
2.55582
100
AcDbArc
 50
214.3528569999999
 51
214.3839999999999
  0
ARC
  5
C0F5
330
BEE0
100
AcDbEntity
  8
1
  6
Continuous
100
AcDbCircle
 10
77.09687999999998
 20
148.3756909999998
 30
0.0
 40
9.560949
100
AcDbArc
 50
162.4247879999998
 51
197.5752119999999
  0
LINE
  5
C0F6
330
BEE0
100
AcDbEntity
  8
1
  6
Continuous
100
AcDbLine
 10
67.535931
 20
153.3756909999999
 30
0.0
 11
67.982223
 21
154.1486909999998
 31
0.0
  0
ARC
  5
C0F7
330
BEE0
100
AcDbEntity
  8
1
  6
Continuous
100
AcDbCircle
 10
70.09191099999999
 20
152.7056909999998
 30
0.0
 40
2.555979999999999
100
AcDbArc
 50
154.371637
 51
214.371637
  0
LINE
  5
C0F8
330
BEE0
100
AcDbEntity
  8
1
  6
Continuous
100
AcDbLine
 10
134.4080729999998
 20
145.482876
 30
0.0
 11
134.4080729999998
 21
151.256876
 31
0.0
  0
LINE
  5
C0F9
330
BEE0
100
AcDbEntity
  8
1
  6
Continuous
100
AcDbLine
 10
124.408073
 20
145.482876
 30
0.0
 11
124.408073
 21
151.256876
 31
0.0
  0
CIRCLE
  5
C0FA
330
BEE0
100
AcDbEntity
  8
2
  6
Continuous
100
AcDbCircle
 10
129.408073
 20
148.369876
 30
0.0
 40
2.458499999999999
  0
CIRCLE
  5
C0FB
330
BEE0
100
AcDbEntity
  8
1
  6
Continuous
100
AcDbCircle
 10
129.408073
 20
148.369876
 30
0.0
 40
3.0
  0
CIRCLE
  5
C0FC
330
BEE0
100
AcDbEntity
  8
1
  6
Continuous
100
AcDbCircle
 10
129.408073
 20
148.369876
 30
0.0
 40
5.0
  0
LINE
  5
C0FD
330
BEE0
100
AcDbEntity
  8
1
  6
Continuous
100
AcDbLine
 10
71.135931
 20
143.3746909999999
 30
0.0
 11
70.68963899999999
 21
142.6016909999999
 31
0.0
  0
ARC
  5
C0FE
330
BEE0
100
AcDbEntity
  8
1
  6
Continuous
100
AcDbCircle
 10
68.579951
 20
144.044691
 30
0.0
 40
2.555979999999999
100
AcDbArc
 50
334.371637
 51
34.371637
  0
LINE
  5
C0FF
330
BEE0
100
AcDbEntity
  8
1
  6
Continuous
100
AcDbLine
 10
124.408073
 20
145.482876
 30
0.0
 11
129.408073
 21
142.595876
 31
0.0
  0
ARC
  5
C100
330
BEE0
100
AcDbEntity
  8
1
  6
Continuous
100
AcDbCircle
 10
68.579931
 20
144.0456909999998
 30
0.0
 40
2.55582
100
AcDbArc
 50
325.6159999999998
 51
325.647143
  0
LINE
  5
C101
330
BEE0
100
AcDbEntity
  8
1
  6
Continuous
100
AcDbLine
 10
129.408073
 20
88.78247700000001
 30
0.0
 11
129.408073
 21
86.07505999999998
 31
0.0
  0
ARC
  5
C102
330
BEE0
100
AcDbEntity
  8
1
  6
Continuous
100
AcDbCircle
 10
131.908073
 20
82.003477
 30
0.0
 40
7.225291999999997
100
AcDbArc
 50
69.75673399999999
 51
110.2432659999999
  0
ARC
  5
C103
330
BEE0
100
AcDbEntity
  8
1
  6
Continuous
100
AcDbCircle
 10
131.908073
 20
92.85406
 30
0.0
 40
7.225291999999997
100
AcDbArc
 50
249.7567339999999
 51
282.6889549999999
  0
LINE
  5
C104
330
BEE0
100
AcDbEntity
  8
1
  6
Continuous
100
AcDbLine
 10
134.4080729999998
 20
86.71813799999998
 30
0.0
 11
134.4080729999998
 21
89.228769
 31
0.0
  0
LINE
  5
C105
330
BEE0
100
AcDbEntity
  8
1
  6
Continuous
100
AcDbLine
 10
131.408073
 20
90.52876899999999
 30
0.0
 11
132.408073
 21
89.52876899999997
 31
0.0
  0
LINE
  5
C106
330
BEE0
100
AcDbEntity
  8
2
  6
Continuous
100
AcDbLine
 10
131.8665729999999
 20
90.07026899999997
 30
0.0
 11
131.8665729999999
 21
89.228769
 31
0.0
  0
LINE
  5
C107
330
BEE0
100
AcDbEntity
  8
1
  6
Continuous
100
AcDbLine
 10
132.408073
 20
89.52876899999997
 30
0.0
 11
132.408073
 21
89.228769
 31
0.0
  0
LINE
  5
C108
330
BEE0
100
AcDbEntity
  8
1
  6
Continuous
100
AcDbLine
 10
124.408073
 20
85.62876899999997
 30
0.0
 11
124.408073
 21
89.228769
 31
0.0
  0
LINE
  5
C109
330
BEE0
100
AcDbEntity
  8
1
  6
Continuous
100
AcDbLine
 10
127.408073
 20
90.52876899999999
 30
0.0
 11
126.408073
 21
89.52876899999997
 31
0.0
  0
LINE
  5
C10A
330
BEE0
100
AcDbEntity
  8
2
  6
Continuous
100
AcDbLine
 10
126.949573
 20
90.07026899999997
 30
0.0
 11
126.949573
 21
89.228769
 31
0.0
  0
LINE
  5
C10B
330
BEE0
100
AcDbEntity
  8
1
  6
Continuous
100
AcDbLine
 10
126.408073
 20
89.52876899999997
 30
0.0
 11
126.408073
 21
89.228769
 31
0.0
  0
ARC
  5
C10C
330
BEE0
100
AcDbEntity
  8
1
  6
Continuous
100
AcDbCircle
 10
126.9080729999999
 20
82.003477
 30
0.0
 40
7.225291999999997
100
AcDbArc
 50
69.75673399999999
 51
110.2432659999999
  0
ARC
  5
C10D
330
BEE0
100
AcDbEntity
  8
1
  6
Continuous
100
AcDbCircle
 10
126.9080729999999
 20
92.85406
 30
0.0
 40
7.225291999999997
100
AcDbArc
 50
249.7567339999999
 51
290.243266
  0
LINE
  5
C10E
330
BEE0
100
AcDbEntity
  8
1
  6
Continuous
100
AcDbLine
 10
134.4080729999998
 20
89.228769
 30
0.0
 11
124.408073
 21
89.228769
 31
0.0
  0
LINE
  5
C10F
330
BEE0
100
AcDbEntity
  8
1
  6
Continuous
100
AcDbLine
 10
133.3187029999999
 20
85.62876899999997
 30
0.0
 11
123.8080729999998
 21
85.62876899999997
 31
0.0
  0
LINE
  5
C110
330
BEE0
100
AcDbEntity
  8
1
  6
Continuous
100
AcDbLine
 10
127.408073
 20
90.52876899999999
 30
0.0
 11
131.408073
 21
90.52876899999999
 31
0.0
  0
LINE
  5
C111
330
BEE0
100
AcDbEntity
  8
1
  6
Continuous
100
AcDbLine
 10
126.408073
 20
89.52876899999997
 30
0.0
 11
132.408073
 21
89.52876899999997
 31
0.0
  0
LINE
  5
C112
330
BEE0
100
AcDbEntity
  8
1
  6
Continuous
100
AcDbLine
 10
134.4080729999998
 20
145.482876
 30
0.0
 11
129.408073
 21
142.595876
 31
0.0
  0
LINE
  5
C113
330
BEE0
100
AcDbEntity
  8
1
  6
Continuous
100
AcDbLine
 10
129.408073
 20
154.142876
 30
0.0
 11
124.408073
 21
151.256876
 31
0.0
  0
ARC
  5
C114
330
BEE0
100
AcDbEntity
  8
1
  6
Continuous
100
AcDbCircle
 10
61.57498199999999
 20
148.3756909999998
 30
0.0
 40
9.560949
100
AcDbArc
 50
342.4247879999999
 51
17.575212
  0
LINE
  5
C115
330
BEE0
100
AcDbEntity
  8
1
  6
Continuous
100
AcDbLine
 10
71.135931
 20
153.3756909999999
 30
0.0
 11
70.68963899999999
 21
154.1486909999998
 31
0.0
  0
ARC
  5
C116
330
BEE0
100
AcDbEntity
  8
1
  6
Continuous
100
AcDbCircle
 10
68.579951
 20
152.7056909999998
 30
0.0
 40
2.555979999999999
100
AcDbArc
 50
325.6283629999999
 51
25.628363
  0
LINE
  5
C117
330
BEE0
100
AcDbEntity
  8
1
  6
Continuous
100
AcDbLine
 10
71.43593100000003
 20
151.375191
 30
0.0
 11
71.135931
 21
151.375191
 31
0.0
  0
LINE
  5
C118
330
BEE0
100
AcDbEntity
  8
2
  6
Continuous
100
AcDbLine
 10
71.97743100000002
 20
150.8336909999998
 30
0.0
 11
71.135931
 21
150.8336909999998
 31
0.0
  0
LINE
  5
C119
330
BEE0
100
AcDbEntity
  8
1
  6
Continuous
100
AcDbLine
 10
71.43593100000003
 20
151.375191
 30
0.0
 11
71.43593100000003
 21
145.375191
 31
0.0
  0
LINE
  5
C11A
330
BEE0
100
AcDbEntity
  8
1
  6
Continuous
100
AcDbLine
 10
71.43593100000003
 20
145.375191
 30
0.0
 11
71.135931
 21
145.375191
 31
0.0
  0
LINE
  5
C11B
330
BEE0
100
AcDbEntity
  8
1
  6
Continuous
100
AcDbLine
 10
72.43593100000002
 20
150.375191
 30
0.0
 11
72.43593100000002
 21
146.375191
 31
0.0
  0
LINE
  5
C11C
330
BEE0
100
AcDbEntity
  8
2
  6
Continuous
100
AcDbLine
 10
71.97743100000002
 20
145.9166909999999
 30
0.0
 11
71.135931
 21
145.9166909999999
 31
0.0
  0
LINE
  5
C11D
330
BEE0
100
AcDbEntity
  8
1
  6
Continuous
100
AcDbLine
 10
72.43593100000002
 20
150.375191
 30
0.0
 11
71.43593100000003
 21
151.375191
 31
0.0
  0
LINE
  5
C11E
330
BEE0
100
AcDbEntity
  8
1
  6
Continuous
100
AcDbLine
 10
72.43593100000002
 20
146.375191
 30
0.0
 11
71.43593100000003
 21
145.375191
 31
0.0
  0
LINE
  5
C11F
330
BEE0
100
AcDbEntity
  8
1
  6
Continuous
100
AcDbLine
 10
71.135931
 20
153.3756909999999
 30
0.0
 11
71.135931
 21
143.3746909999999
 31
0.0
  0
LINE
  5
C120
330
BEE0
100
AcDbEntity
  8
1
  6
Continuous
100
AcDbLine
 10
129.408073
 20
154.142876
 30
0.0
 11
134.4080729999998
 21
151.256876
 31
0.0
  0
ARC
  5
C121
330
BEE0
100
AcDbEntity
  8
1
  6
Continuous
100
AcDbCircle
 10
140.236952
 20
83.198471
 30
0.0
 40
1.0
100
AcDbArc
 50
39.805571
 51
117.2430099999999
  0
ARC
  5
C122
330
BEE0
100
AcDbEntity
  8
1
  6
Continuous
100
AcDbCircle
 10
148.4080649999999
 20
67.32852199999999
 30
0.0
 40
16.35
100
AcDbArc
 50
94.469398
 51
112.43071
  0
ARC
  5
C123
330
BEE0
100
AcDbEntity
  8
1
  6
Continuous
100
AcDbCircle
 10
133.17453
 20
91.828766
 30
0.0
 40
9.5
100
AcDbArc
 50
270.0
 51
301.8721499999998
  0
ARC
  5
C124
330
BEE0
100
AcDbEntity
  8
1
  6
Continuous
100
AcDbCircle
 10
148.4080649999999
 20
67.32852199999999
 30
0.0
 40
19.35
100
AcDbArc
 50
95.376563
 51
121.87216
  0
ARC
  5
C125
330
BEE0
100
AcDbEntity
  8
1
  6
Continuous
100
AcDbCircle
 10
148.4080649999999
 20
67.32852199999999
 30
0.0
 40
18.85
100
AcDbArc
 50
117.2430099999999
 51
121.87216
  0
ARC
  5
C126
330
BEE0
100
AcDbEntity
  8
1
  6
Continuous
100
AcDbCircle
 10
133.17453
 20
91.828766
 30
0.0
 40
10.0
100
AcDbArc
 50
270.0
 51
301.8721499999998
  0
ARC
  5
C127
330
BEE0
100
AcDbEntity
  8
1
  6
Continuous
100
AcDbCircle
 10
139.243109
 20
85.47206099999998
 30
0.0
 40
2.0
100
AcDbArc
 50
90.00000300000001
 51
135.0
  0
ARC
  5
C128
330
BEE0
100
AcDbEntity
  8
1
  6
Continuous
100
AcDbCircle
 10
131.4902639999999
 20
86.62876899999996
 30
0.0
 40
4.299999999999998
100
AcDbArc
 50
270.0
 51
315.0
  0
ARC
  5
C129
330
BEE0
100
AcDbEntity
  8
1
  6
Continuous
100
AcDbCircle
 10
112.442052
 20
82.35459899999998
 30
0.0
 40
2.0
100
AcDbArc
 50
224.1068299999998
 51
270.0
  0
ARC
  5
C12A
330
BEE0
100
AcDbEntity
  8
1
  6
Continuous
100
AcDbCircle
 10
104.1099369999999
 20
82.35459899999998
 30
0.0
 40
2.0
100
AcDbArc
 50
270.0
 51
315.89317
  0
ARC
  5
C12B
330
BEE0
100
AcDbEntity
  8
1
  6
Continuous
100
AcDbCircle
 10
108.275999
 20
82.087906
 30
0.0
 40
1.177035
100
AcDbArc
 50
44.10683099999999
 51
135.89317
  0
ARC
  5
C12C
330
BEE0
100
AcDbEntity
  8
1
  6
Continuous
100
AcDbCircle
 10
120.6881389999998
 20
80.85459899999998
 30
0.0
 40
1.0
100
AcDbArc
 50
270.0
 51
350.5376799999999
  0
ARC
  5
C12D
330
BEE0
100
AcDbEntity
  8
1
  6
Continuous
100
AcDbCircle
 10
122.2878639999999
 20
81.32876600000001
 30
0.0
 40
0.5
100
AcDbArc
 50
90.00000300000001
 51
170.5376799999999
  0
ARC
  5
C12E
330
BEE0
100
AcDbEntity
  8
1
  6
Continuous
100
AcDbCircle
 10
122.2878639999999
 20
81.32876600000001
 30
0.0
 40
1.0
100
AcDbArc
 50
90.00000300000001
 51
170.5376799999999
  0
ARC
  5
C12F
330
BEE0
100
AcDbEntity
  8
1
  6
Continuous
100
AcDbCircle
 10
119.9513529999999
 20
72.328766
 30
0.0
 40
10.0
100
AcDbArc
 50
90.00000300000001
 51
100.0097299999999
  0
ARC
  5
C130
330
BEE0
100
AcDbEntity
  8
1
  6
Continuous
100
AcDbCircle
 10
112.5342149999999
 20
91.32876600000001
 30
0.0
 40
10.0
100
AcDbArc
 50
270.0
 51
280.00973
  0
ARC
  5
C131
330
BEE0
100
AcDbEntity
  8
1
  6
Continuous
100
AcDbCircle
 10
118.075613
 20
96.828766
 30
0.0
 40
1.0
100
AcDbArc
 50
0.0
 51
90.00000300000001
  0
ARC
  5
C132
330
BEE0
100
AcDbEntity
  8
1
  6
Continuous
100
AcDbCircle
 10
111.0756129999999
 20
87.82876599999999
 30
0.0
 40
10.0
100
AcDbArc
 50
90.00000300000001
 51
180.00001
  0
ARC
  5
C133
330
BEE0
100
AcDbEntity
  8
1
  6
Continuous
100
AcDbCircle
 10
154.2488159999998
 20
84.91281200000001
 30
0.0
 40
1.0
100
AcDbArc
 50
179.9999899999999
 51
270.0
  0
ARC
  5
C134
330
BEE0
100
AcDbEntity
  8
1
  6
Continuous
100
AcDbCircle
 10
156.0591419999998
 20
84.91281200000001
 30
0.0
 40
1.0
100
AcDbArc
 50
270.0
 51
0.0
  0
ARC
  5
C135
330
BEE0
100
AcDbEntity
  8
1
  6
Continuous
100
AcDbCircle
 10
164.917761
 20
89.772064
 30
0.0
 40
0.8
100
AcDbArc
 50
0.0
 51
90.00000300000001
  0
ARC
  5
C136
330
BEE0
100
AcDbEntity
  8
1
  6
Continuous
100
AcDbCircle
 10
146.348723
 20
89.772064
 30
0.0
 40
0.8
100
AcDbArc
 50
90.00000300000001
 51
180.00001
  0
ARC
  5
C137
330
BEE0
100
AcDbEntity
  8
1
  6
Continuous
100
AcDbCircle
 10
109.3035939999999
 20
82.54245
 30
0.0
 40
8.230753999999999
100
AcDbArc
 50
158.4558
 51
178.5123399999999
  0
ARC
  5
C138
330
BEE0
100
AcDbEntity
  8
1
  6
Continuous
100
AcDbCircle
 10
135.4073249999999
 20
76.835724
 30
0.0
 40
13.493044
100
AcDbArc
 50
73.48426999999998
 51
90.00000300000001
  0
ARC
  5
C139
330
BEE0
100
AcDbEntity
  8
1
  6
Continuous
100
AcDbCircle
 10
120.075613
 20
91.32876600000001
 30
0.0
 40
1.0
100
AcDbArc
 50
179.9999899999999
 51
270.0
  0
ARC
  5
C13A
330
BEE0
100
AcDbEntity
  8
1
  6
Continuous
100
AcDbCircle
 10
175.582988
 20
101.4720609999999
 30
0.0
 40
1.0
100
AcDbArc
 50
0.0
 51
90.00000300000001
  0
ARC
  5
C13B
330
BEE0
100
AcDbEntity
  8
1
  6
Continuous
100
AcDbCircle
 10
175.7920409999999
 20
89.47206099999998
 30
0.0
 40
2.0
100
AcDbArc
 50
270.0
 51
0.0
  0
ARC
  5
C13C
330
BEE0
100
AcDbEntity
  8
1
  6
Continuous
100
AcDbCircle
 10
162.2706509999999
 20
101.4720609999999
 30
0.0
 40
1.0
100
AcDbArc
 50
90.00000300000001
 51
180.00001
  0
ARC
  5
C13D
330
BEE0
100
AcDbEntity
  8
1
  6
Continuous
100
AcDbCircle
 10
176.7920409999999
 20
101.4720609999999
 30
0.0
 40
1.0
100
AcDbArc
 50
0.0
 51
90.00000300000001
  0
ARC
  5
C13E
330
BEE0
100
AcDbEntity
  8
1
  6
Continuous
100
AcDbCircle
 10
139.243109
 20
85.47206099999998
 30
0.0
 40
4.299999999999998
100
AcDbArc
 50
90.00000300000001
 51
135.0
  0
ARC
  5
C13F
330
BEE0
100
AcDbEntity
  8
1
  6
Continuous
100
AcDbCircle
 10
142.599928
 20
85.47206099999998
 30
0.0
 40
2.0
100
AcDbArc
 50
90.00000300000001
 51
135.0
  0
ARC
  5
C140
330
BEE0
100
AcDbEntity
  8
1
  6
Continuous
100
AcDbCircle
 10
131.4902639999999
 20
86.62876899999996
 30
0.0
 40
2.0
100
AcDbArc
 50
270.0
 51
315.0
  0
ARC
  5
C141
330
BEE0
100
AcDbEntity
  8
1
  6
Continuous
100
AcDbCircle
 10
119.796331
 20
86.62876899999996
 30
0.0
 40
2.0
100
AcDbArc
 50
229.99218
 51
270.0
  0
ARC
  5
C142
330
BEE0
100
AcDbEntity
  8
1
  6
Continuous
100
AcDbCircle
 10
118.8650949999999
 20
84.328766
 30
0.0
 40
2.0
100
AcDbArc
 50
225.0
 51
270.0
  0
ARC
  5
C143
330
BEE0
100
AcDbEntity
  8
1
  6
Continuous
100
AcDbCircle
 10
117.22476
 20
83.564942
 30
0.0
 40
2.0
100
AcDbArc
 50
49.992187
 51
90.00000300000001
  0
ARC
  5
C144
330
BEE0
100
AcDbEntity
  8
1
  6
Continuous
100
AcDbCircle
 10
112.442607
 20
231.6280059999999
 30
0.0
 40
2.0
100
AcDbArc
 50
90.00000300000001
 51
149.14148
  0
ARC
  5
C145
330
BEE0
100
AcDbEntity
  8
1
  6
Continuous
100
AcDbCircle
 10
104.1104919999998
 20
231.6280059999999
 30
0.0
 40
2.0
100
AcDbArc
 50
30.85851099999999
 51
90.00000300000001
  0
ARC
  5
C146
330
BEE0
100
AcDbEntity
  8
1
  6
Continuous
100
AcDbCircle
 10
140.7609899999999
 20
224.5105399999999
 30
0.0
 40
2.0
100
AcDbArc
 50
145.12615
 51
154.61745
  0
ARC
  5
C147
330
BEE0
100
AcDbEntity
  8
1
  6
Continuous
100
AcDbCircle
 10
138.536495
 20
222.210541
 30
0.0
 40
2.0
100
AcDbArc
 50
90.00000300000001
 51
117.2946499999999
  0
ARC
  5
C148
330
BEE0
100
AcDbEntity
  8
1
  6
Continuous
100
AcDbCircle
 10
136.2436629999999
 20
226.653843
 30
0.0
 40
3.0
100
AcDbArc
 50
270.0
 51
334.61745
  0
ARC
  5
C149
330
BEE0
100
AcDbEntity
  8
1
  6
Continuous
100
AcDbCircle
 10
158.059695
 20
225.2105409999999
 30
0.0
 40
1.0
100
AcDbArc
 50
179.9999899999999
 51
270.0
  0
ARC
  5
C14A
330
BEE0
100
AcDbEntity
  8
1
  6
Continuous
100
AcDbCircle
 10
152.24937
 20
225.2105409999999
 30
0.0
 40
1.0
100
AcDbArc
 50
270.0
 51
0.0
  0
ARC
  5
C14B
330
BEE0
100
AcDbEntity
  8
1
  6
Continuous
100
AcDbCircle
 10
160.4802579999999
 20
224.5105399999999
 30
0.0
 40
2.0
100
AcDbArc
 50
0.0
 51
34.87385
  0
ARC
  5
C14C
330
BEE0
100
AcDbEntity
  8
1
  6
Continuous
100
AcDbCircle
 10
160.271205
 20
223.2105409999999
 30
0.0
 40
1.0
100
AcDbArc
 50
0.0
 51
90.00000300000001
  0
ARC
  5
C14D
330
BEE0
100
AcDbEntity
  8
1
  6
Continuous
100
AcDbCircle
 10
175.7925939999998
 20
224.5105399999999
 30
0.0
 40
2.0
100
AcDbArc
 50
0.0
 51
36.584594
  0
ARC
  5
C14E
330
BEE0
100
AcDbEntity
  8
1
  6
Continuous
100
AcDbCircle
 10
119.9519079999999
 20
241.6538389999999
 30
0.0
 40
10.0
100
AcDbArc
 50
259.99027
 51
266.88569
  0
ARC
  5
C14F
330
BEE0
100
AcDbEntity
  8
1
  6
Continuous
100
AcDbCircle
 10
112.53477
 20
222.653843
 30
0.0
 40
10.0
100
AcDbArc
 50
79.99027099999998
 51
90.00000300000001
  0
ARC
  5
C150
330
BEE0
100
AcDbEntity
  8
1
  6
Continuous
100
AcDbCircle
 10
118.076168
 20
217.153843
 30
0.0
 40
1.0
100
AcDbArc
 50
270.0
 51
0.0
  0
ARC
  5
C151
330
BEE0
100
AcDbEntity
  8
1
  6
Continuous
100
AcDbCircle
 10
111.0761679999999
 20
226.1538429999999
 30
0.0
 40
10.0
100
AcDbArc
 50
179.9999899999999
 51
270.0
  0
ARC
  5
C152
330
BEE0
100
AcDbEntity
  8
1
  6
Continuous
100
AcDbCircle
 10
146.349277
 20
224.210541
 30
0.0
 40
0.8
100
AcDbArc
 50
179.9999899999999
 51
270.0
  0
ARC
  5
C153
330
BEE0
100
AcDbEntity
  8
1
  6
Continuous
100
AcDbCircle
 10
120.076168
 20
222.653843
 30
0.0
 40
1.0
100
AcDbArc
 50
90.00000300000001
 51
180.00001
  0
ARC
  5
C154
330
BEE0
100
AcDbEntity
  8
1
  6
Continuous
100
AcDbCircle
 10
163.4802579999999
 20
212.5105399999999
 30
0.0
 40
1.0
100
AcDbArc
 50
180.00001
 51
270.0
  0
ARC
  5
C155
330
BEE0
100
AcDbEntity
  8
1
  6
Continuous
100
AcDbCircle
 10
176.792594
 20
212.5105399999999
 30
0.0
 40
1.0
100
AcDbArc
 50
270.0
 51
0.0
  0
ARC
  5
C156
330
BEE0
100
AcDbEntity
  8
1
  6
Continuous
100
AcDbCircle
 10
162.271205
 20
212.5105399999999
 30
0.0
 40
1.0
100
AcDbArc
 50
180.00001
 51
270.0
  0
ARC
  5
C157
330
BEE0
100
AcDbEntity
  8
1
  6
Continuous
100
AcDbCircle
 10
63.32558800000001
 20
152.5412509999999
 30
0.0
 40
2.0
100
AcDbArc
 50
180.0
 51
225.89317
  0
ARC
  5
C158
330
BEE0
100
AcDbEntity
  8
1
  6
Continuous
100
AcDbCircle
 10
63.32558800000001
 20
144.209131
 30
0.0
 40
2.0
100
AcDbArc
 50
134.10683
 51
180.0
  0
ARC
  5
C159
330
BEE0
100
AcDbEntity
  8
1
  6
Continuous
100
AcDbCircle
 10
63.05889499999999
 20
148.375191
 30
0.0
 40
1.177035
100
AcDbArc
 50
314.106828
 51
45.89317
  0
ARC
  5
C15A
330
BEE0
100
AcDbEntity
  8
1
  6
Continuous
100
AcDbCircle
 10
67.535931
 20
156.0683309999998
 30
0.0
 40
1.0
100
AcDbArc
 50
90.00001000000002
 51
180.0
  0
ARC
  5
C15B
330
BEE0
100
AcDbEntity
  8
1
  6
Continuous
100
AcDbCircle
 10
64.535931
 20
148.7065809999998
 30
0.0
 40
2.0
100
AcDbArc
 50
0.000003
 51
36.96994
  0
ARC
  5
C15C
330
BEE0
100
AcDbEntity
  8
1
  6
Continuous
100
AcDbCircle
 10
62.235928
 20
148.680751
 30
0.0
 40
2.0
100
AcDbArc
 50
0.000003
 51
38.29625
  0
ARC
  5
C15D
330
BEE0
100
AcDbEntity
  8
1
  6
Continuous
100
AcDbCircle
 10
65.599758
 20
152.2817009999999
 30
0.0
 40
1.0
100
AcDbArc
 50
180.0
 51
216.9699399999998
  0
ARC
  5
C15E
330
BEE0
100
AcDbEntity
  8
1
  6
Continuous
100
AcDbCircle
 10
64.29975500000001
 20
152.5215809999999
 30
0.0
 40
2.0
100
AcDbArc
 50
180.0
 51
218.2962499999999
  0
ARC
  5
C15F
330
BEE0
100
AcDbEntity
  8
1
  6
Continuous
100
AcDbCircle
 10
82.44305
 20
156.0683309999998
 30
0.0
 40
1.0
100
AcDbArc
 50
0.000003
 51
90.00001000000002
  0
ARC
  5
C160
330
BEE0
100
AcDbEntity
  8
1
  6
Continuous
100
AcDbCircle
 10
65.09975799999999
 20
156.568331
 30
0.0
 40
0.5
100
AcDbArc
 50
90.00001000000002
 51
180.0
  0
ARC
  5
C161
330
BEE0
100
AcDbEntity
  8
1
  6
Continuous
100
AcDbCircle
 10
64.29975500000001
 20
157.3683409999999
 30
0.0
 40
2.0
100
AcDbArc
 50
90.00001000000002
 51
180.0
  0
ARC
  5
C162
330
BEE0
100
AcDbEntity
  8
1
  6
Continuous
100
AcDbCircle
 10
70.743053
 20
142.2450709999999
 30
0.0
 40
0.8
100
AcDbArc
 50
270.0
 51
0.000003
  0
ARC
  5
C163
330
BEE0
100
AcDbEntity
  8
1
  6
Continuous
100
AcDbCircle
 10
82.44305
 20
146.6094709999999
 30
0.0
 40
1.0
100
AcDbArc
 50
270.0
 51
0.000003
  0
ARC
  5
C164
330
BEE0
100
AcDbEntity
  8
1
  6
Continuous
100
AcDbCircle
 10
82.44305
 20
154.071631
 30
0.0
 40
1.0
100
AcDbArc
 50
0.000003
 51
90.00001000000002
  0
LINE
  5
C165
330
BEE0
100
AcDbEntity
  8
1
  6
Continuous
100
AcDbLine
 10
110.651052
 20
81.32876600000001
 30
0.0
 11
112.5342149999999
 21
81.32876600000001
 31
0.0
  0
LINE
  5
C166
330
BEE0
100
AcDbEntity
  8
1
  6
Continuous
100
AcDbLine
 10
109.12116
 20
82.90711599999999
 30
0.0
 11
111.005971
 21
80.96260500000003
 31
0.0
  0
LINE
  5
C167
330
BEE0
100
AcDbEntity
  8
1
  6
Continuous
100
AcDbLine
 10
107.430833
 20
82.90710899999998
 30
0.0
 11
105.546022
 21
80.962597
 31
0.0
  0
LINE
  5
C168
330
BEE0
100
AcDbEntity
  8
1
  6
Continuous
100
AcDbLine
 10
134.5308219999998
 20
83.588204
 30
0.0
 11
137.8288879999997
 21
86.886269
 31
0.0
  0
LINE
  5
C169
330
BEE0
100
AcDbEntity
  8
1
  6
Continuous
100
AcDbLine
 10
103.054616
 20
80.35459899999997
 30
0.0
 11
103.054616
 21
79.85459899999998
 31
0.0
  0
LINE
  5
C16A
330
BEE0
100
AcDbEntity
  8
1
  6
Continuous
100
AcDbLine
 10
122.2878639999999
 20
81.828766
 30
0.0
 11
133.17453
 21
81.828766
 31
0.0
  0
LINE
  5
C16B
330
BEE0
100
AcDbEntity
  8
1
  6
Continuous
100
AcDbLine
 10
121.7946679999998
 20
81.41096500000001
 30
0.0
 11
121.674539
 21
80.69019299999999
 31
0.0
  0
LINE
  5
C16C
330
BEE0
100
AcDbEntity
  8
1
  6
Continuous
100
AcDbLine
 10
121.301469
 20
81.49316400000001
 30
0.0
 11
121.1813419999999
 21
80.77239899999998
 31
0.0
  0
LINE
  5
C16D
330
BEE0
100
AcDbEntity
  8
1
  6
Continuous
100
AcDbLine
 10
103.054616
 20
80.35459899999997
 30
0.0
 11
120.688145
 21
80.35459899999997
 31
0.0
  0
LINE
  5
C16E
330
BEE0
100
AcDbEntity
  8
1
  6
Continuous
100
AcDbLine
 10
103.054616
 20
79.85459899999998
 30
0.0
 11
120.6881389999998
 21
79.85459899999998
 31
0.0
  0
LINE
  5
C16F
330
BEE0
100
AcDbEntity
  8
1
  6
Continuous
100
AcDbLine
 10
122.2878639999999
 20
82.328766
 30
0.0
 11
133.17453
 21
82.328766
 31
0.0
  0
LINE
  5
C170
330
BEE0
100
AcDbEntity
  8
1
  6
Continuous
100
AcDbLine
 10
142.1694679999999
 20
82.44150999999998
 30
0.0
 11
141.005178
 21
83.83865799999998
 31
0.0
  0
LINE
  5
C171
330
BEE0
100
AcDbEntity
  8
1
  6
Continuous
100
AcDbLine
 10
146.143426
 20
87.47206099999997
 30
0.0
 11
140.67851
 21
86.379078
 31
0.0
  0
LINE
  5
C172
330
BEE0
100
AcDbEntity
  8
1
  6
Continuous
100
AcDbLine
 10
146.594946
 20
86.593396
 30
0.0
 11
147.1339639999999
 21
83.6288
 31
0.0
  0
LINE
  5
C173
330
BEE0
100
AcDbEntity
  8
1
  6
Continuous
100
AcDbLine
 10
118.213205
 20
82.176541
 30
0.0
 11
114.2723629999998
 21
81.48097299999998
 31
0.0
  0
LINE
  5
C174
330
BEE0
100
AcDbEntity
  8
1
  6
Continuous
100
AcDbLine
 10
101.075613
 20
81.32876600000001
 30
0.0
 11
105.9009379999999
 21
81.32876600000001
 31
0.0
  0
LINE
  5
C175
330
BEE0
100
AcDbEntity
  8
1
  6
Continuous
100
AcDbLine
 10
111.0756129999999
 20
97.82876600000001
 30
0.0
 11
118.075613
 21
97.82876600000001
 31
0.0
  0
LINE
  5
C176
330
BEE0
100
AcDbEntity
  8
1
  6
Continuous
100
AcDbLine
 10
157.0591419999998
 20
84.91281200000001
 30
0.0
 11
157.0591419999998
 21
87.47206099999997
 31
0.0
  0
LINE
  5
C177
330
BEE0
100
AcDbEntity
  8
1
  6
Continuous
100
AcDbLine
 10
153.2488159999998
 20
84.91281200000001
 30
0.0
 11
153.2488159999998
 21
87.47206099999997
 31
0.0
  0
LINE
  5
C178
330
BEE0
100
AcDbEntity
  8
1
  6
Continuous
100
AcDbLine
 10
154.2488159999998
 20
83.91281199999998
 30
0.0
 11
156.0591419999998
 21
83.91281199999998
 31
0.0
  0
LINE
  5
C179
330
BEE0
100
AcDbEntity
  8
1
  6
Continuous
100
AcDbLine
 10
146.348723
 20
90.57206800000001
 30
0.0
 11
164.917761
 21
90.57206800000001
 31
0.0
  0
LINE
  5
C17A
330
BEE0
100
AcDbEntity
  8
1
  6
Continuous
100
AcDbLine
 10
120.075613
 20
90.32876599999999
 30
0.0
 11
127.2080699999999
 21
90.32876599999999
 31
0.0
  0
LINE
  5
C17B
330
BEE0
100
AcDbEntity
  8
1
  6
Continuous
100
AcDbLine
 10
177.7920409999999
 20
89.47206099999998
 30
0.0
 11
177.7920409999999
 21
101.4720609999999
 31
0.0
  0
LINE
  5
C17C
330
BEE0
100
AcDbEntity
  8
1
  6
Continuous
100
AcDbLine
 10
162.2706509999999
 20
102.4720609999999
 30
0.0
 11
176.7920409999999
 21
102.4720609999999
 31
0.0
  0
LINE
  5
C17D
330
BEE0
100
AcDbEntity
  8
1
  6
Continuous
100
AcDbLine
 10
161.2706509999999
 20
90.57206800000001
 30
0.0
 11
161.2706509999999
 21
101.4720609999999
 31
0.0
  0
LINE
  5
C17E
330
BEE0
100
AcDbEntity
  8
1
  6
Continuous
100
AcDbLine
 10
176.582988
 20
89.772064
 30
0.0
 11
176.582988
 21
101.4720609999999
 31
0.0
  0
LINE
  5
C17F
330
BEE0
100
AcDbEntity
  8
1
  6
Continuous
100
AcDbLine
 10
137.8876379999999
 20
83.588204
 30
0.0
 11
141.185703
 21
86.886269
 31
0.0
  0
LINE
  5
C180
330
BEE0
100
AcDbEntity
  8
1
  6
Continuous
100
AcDbLine
 10
139.243109
 20
89.772064
 30
0.0
 11
176.582988
 21
89.772064
 31
0.0
  0
LINE
  5
C181
330
BEE0
100
AcDbEntity
  8
1
  6
Continuous
100
AcDbLine
 10
139.243109
 20
87.47206099999997
 30
0.0
 11
175.7920409999999
 21
87.47206099999997
 31
0.0
  0
LINE
  5
C182
330
BEE0
100
AcDbEntity
  8
1
  6
Continuous
100
AcDbLine
 10
119.796331
 20
84.62876899999997
 30
0.0
 11
131.4902639999999
 21
84.62876899999997
 31
0.0
  0
LINE
  5
C183
330
BEE0
100
AcDbEntity
  8
1
  6
Continuous
100
AcDbLine
 10
117.1004959999998
 20
83.26492299999998
 30
0.0
 11
117.4508799999999
 21
82.91453999999998
 31
0.0
  0
LINE
  5
C184
330
BEE0
100
AcDbEntity
  8
1
  6
Continuous
100
AcDbLine
 10
101.075613
 20
83.264939
 30
0.0
 11
117.1004919999999
 21
83.264939
 31
0.0
  0
LINE
  5
C185
330
BEE0
100
AcDbEntity
  8
1
  6
Continuous
100
AcDbLine
 10
132.90448
 20
85.214546
 30
0.0
 11
136.202547
 21
88.51261200000001
 31
0.0
  0
LINE
  5
C186
330
BEE0
100
AcDbEntity
  8
1
  6
Continuous
100
AcDbLine
 10
119.075613
 20
91.32876600000001
 30
0.0
 11
119.075613
 21
96.828766
 31
0.0
  0
LINE
  5
C187
330
BEE0
100
AcDbEntity
  8
1
  6
Continuous
100
AcDbLine
 10
101.075613
 20
81.32876600000001
 30
0.0
 11
101.075613
 21
87.82876599999999
 31
0.0
  0
LINE
  5
C188
330
BEE0
100
AcDbEntity
  8
1
  6
Continuous
100
AcDbLine
 10
101.647886
 20
85.56494200000001
 30
0.0
 11
117.22476
 21
85.56494200000001
 31
0.0
  0
LINE
  5
C189
330
BEE0
100
AcDbEntity
  8
1
  6
Continuous
100
AcDbLine
 10
118.8650949999999
 20
82.328766
 30
0.0
 11
131.4902639999999
 21
82.328766
 31
0.0
  0
LINE
  5
C18A
330
BEE0
100
AcDbEntity
  8
1
  6
Continuous
100
AcDbLine
 10
103.055171
 20
234.1280059999998
 30
0.0
 11
119.4086259999999
 21
234.1280059999998
 31
0.0
  0
LINE
  5
C18B
330
BEE0
100
AcDbEntity
  8
1
  6
Continuous
100
AcDbLine
 10
103.055171
 20
233.6280059999999
 30
0.0
 11
103.055171
 21
234.1280059999998
 31
0.0
  0
LINE
  5
C18C
330
BEE0
100
AcDbEntity
  8
1
  6
Continuous
100
AcDbLine
 10
103.055171
 20
233.6280059999999
 30
0.0
 11
119.4086259999999
 21
233.6280059999999
 31
0.0
  0
LINE
  5
C18D
330
BEE0
100
AcDbEntity
  8
1
  6
Continuous
100
AcDbLine
 10
119.076168
 20
231.653843
 30
0.0
 11
119.4086259999999
 21
231.653843
 31
0.0
  0
LINE
  5
C18E
330
BEE0
100
AcDbEntity
  8
1
  6
Continuous
100
AcDbLine
 10
118.213756
 20
231.8060609999998
 30
0.0
 11
114.272926
 21
232.501625
 31
0.0
  0
LINE
  5
C18F
330
BEE0
100
AcDbEntity
  8
1
  6
Continuous
100
AcDbLine
 10
101.076168
 20
232.6538429999999
 30
0.0
 11
112.53477
 21
232.6538429999999
 31
0.0
  0
LINE
  5
C190
330
BEE0
100
AcDbEntity
  8
1
  6
Continuous
100
AcDbLine
 10
111.0761679999999
 20
216.1538429999999
 30
0.0
 11
118.076168
 21
216.1538429999999
 31
0.0
  0
LINE
  5
C191
330
BEE0
100
AcDbEntity
  8
1
  6
Continuous
100
AcDbLine
 10
157.059695
 20
225.654083
 30
0.0
 11
157.059695
 21
225.2105409999999
 31
0.0
  0
LINE
  5
C192
330
BEE0
100
AcDbEntity
  8
1
  6
Continuous
100
AcDbLine
 10
153.24937
 20
225.654083
 30
0.0
 11
153.24937
 21
225.2105409999999
 31
0.0
  0
LINE
  5
C193
330
BEE0
100
AcDbEntity
  8
1
  6
Continuous
100
AcDbLine
 10
146.349277
 20
223.410541
 30
0.0
 11
161.271205
 21
223.410541
 31
0.0
  0
LINE
  5
C194
330
BEE0
100
AcDbEntity
  8
1
  6
Continuous
100
AcDbLine
 10
120.076168
 20
223.6538429999999
 30
0.0
 11
136.2436629999999
 21
223.6538429999999
 31
0.0
  0
LINE
  5
C195
330
BEE0
100
AcDbEntity
  8
1
  6
Continuous
100
AcDbLine
 10
161.271205
 20
223.2105409999999
 30
0.0
 11
161.271205
 21
212.5105399999999
 31
0.0
  0
LINE
  5
C196
330
BEE0
100
AcDbEntity
  8
1
  6
Continuous
100
AcDbLine
 10
176.792594
 20
211.51054
 30
0.0
 11
162.271205
 21
211.51054
 31
0.0
  0
LINE
  5
C197
330
BEE0
100
AcDbEntity
  8
1
  6
Continuous
100
AcDbLine
 10
177.792594
 20
224.5105399999999
 30
0.0
 11
177.792594
 21
212.5105399999999
 31
0.0
  0
LINE
  5
C198
330
BEE0
100
AcDbEntity
  8
1
  6
Continuous
100
AcDbLine
 10
162.4802579999999
 20
224.5105399999999
 30
0.0
 11
162.4802579999999
 21
212.5105399999999
 31
0.0
  0
LINE
  5
C199
330
BEE0
100
AcDbEntity
  8
1
  6
Continuous
100
AcDbLine
 10
138.536495
 20
224.210541
 30
0.0
 11
160.271205
 21
224.210541
 31
0.0
  0
LINE
  5
C19A
330
BEE0
100
AcDbEntity
  8
1
  6
Continuous
100
AcDbLine
 10
119.076168
 20
222.653843
 30
0.0
 11
119.076168
 21
217.153843
 31
0.0
  0
LINE
  5
C19B
330
BEE0
100
AcDbEntity
  8
1
  6
Continuous
100
AcDbLine
 10
101.076168
 20
232.6538429999999
 30
0.0
 11
101.076168
 21
226.1538429999999
 31
0.0
  0
LINE
  5
C19C
330
BEE0
100
AcDbEntity
  8
1
  6
Continuous
100
AcDbLine
 10
60.82558800000001
 20
164.3683409999999
 30
0.0
 11
63.076405
 21
164.3683409999999
 31
0.0
  0
LINE
  5
C19D
330
BEE0
100
AcDbEntity
  8
1
  6
Continuous
100
AcDbLine
 10
61.325588
 20
140.784931
 30
0.0
 11
60.82558800000001
 21
140.784931
 31
0.0
  0
LINE
  5
C19E
330
BEE0
100
AcDbEntity
  8
1
  6
Continuous
100
AcDbLine
 10
60.82558800000001
 20
164.3683409999999
 30
0.0
 11
60.82558800000001
 21
140.784931
 31
0.0
  0
LINE
  5
C19F
330
BEE0
100
AcDbEntity
  8
1
  6
Continuous
100
AcDbLine
 10
61.325588
 20
164.3683409999999
 30
0.0
 11
61.325588
 21
140.784931
 31
0.0
  0
LINE
  5
C1A0
330
BEE0
100
AcDbEntity
  8
1
  6
Continuous
100
AcDbLine
 10
63.878103
 20
147.530031
 30
0.0
 11
61.93359399999999
 21
145.6452209999999
 31
0.0
  0
LINE
  5
C1A1
330
BEE0
100
AcDbEntity
  8
1
  6
Continuous
100
AcDbLine
 10
63.878105
 20
149.2203609999999
 30
0.0
 11
61.93359599999999
 21
151.1051709999998
 31
0.0
  0
LINE
  5
C1A2
330
BEE0
100
AcDbEntity
  8
1
  6
Continuous
100
AcDbLine
 10
62.73012900000001
 20
151.2821409999999
 30
0.0
 11
63.80556899999999
 21
149.9202009999999
 31
0.0
  0
LINE
  5
C1A3
330
BEE0
100
AcDbEntity
  8
1
  6
Continuous
100
AcDbLine
 10
66.133831
 20
149.9093809999999
 30
0.0
 11
64.800804
 21
151.6802909999999
 31
0.0
  0
LINE
  5
C1A4
330
BEE0
100
AcDbEntity
  8
1
  6
Continuous
100
AcDbLine
 10
66.53593100000001
 20
156.0683309999998
 30
0.0
 11
66.53593100000001
 21
139.155161
 31
0.0
  0
LINE
  5
C1A5
330
BEE0
100
AcDbEntity
  8
1
  6
Continuous
100
AcDbLine
 10
64.235928
 20
148.680751
 30
0.0
 11
64.235928
 21
139.155161
 31
0.0
  0
LINE
  5
C1A6
330
BEE0
100
AcDbEntity
  8
1
  6
Continuous
100
AcDbLine
 10
68.44305
 20
157.0683309999998
 30
0.0
 11
70.74304999999998
 21
155.071631
 31
0.0
  0
LINE
  5
C1A7
330
BEE0
100
AcDbEntity
  8
1
  6
Continuous
100
AcDbLine
 10
65.09975799999999
 20
157.0683309999998
 30
0.0
 11
82.44305
 21
157.0683309999998
 31
0.0
  0
LINE
  5
C1A8
330
BEE0
100
AcDbEntity
  8
1
  6
Continuous
100
AcDbLine
 10
64.59975799999999
 20
152.2817009999999
 30
0.0
 11
64.59975799999999
 21
156.568331
 31
0.0
  0
LINE
  5
C1A9
330
BEE0
100
AcDbEntity
  8
1
  6
Continuous
100
AcDbLine
 10
64.235928
 20
139.155161
 30
0.0
 11
68.44305
 21
139.155161
 31
0.0
  0
LINE
  5
C1AA
330
BEE0
100
AcDbEntity
  8
1
  6
Continuous
100
AcDbLine
 10
78.799755
 20
157.0282009999999
 30
0.0
 11
78.799755
 21
159.3683409999998
 31
0.0
  0
LINE
  5
C1AB
330
BEE0
100
AcDbEntity
  8
1
  6
Continuous
100
AcDbLine
 10
62.299755
 20
152.5215809999999
 30
0.0
 11
62.299755
 21
157.3683409999999
 31
0.0
  0
LINE
  5
C1AC
330
BEE0
100
AcDbEntity
  8
1
  6
Continuous
100
AcDbLine
 10
64.29975500000001
 20
159.3683409999998
 30
0.0
 11
78.799755
 21
159.3683409999998
 31
0.0
  0
LINE
  5
C1AD
330
BEE0
100
AcDbEntity
  8
1
  6
Continuous
100
AcDbLine
 10
71.54305699999998
 20
142.2450709999999
 30
0.0
 11
71.54305699999998
 21
145.482317
 31
0.0
  0
LINE
  5
C1AE
330
BEE0
100
AcDbEntity
  8
1
  6
Continuous
100
AcDbLine
 10
70.743053
 20
136.0350809999999
 30
0.0
 11
70.743053
 21
142.694206
 31
0.0
  0
LINE
  5
C1AF
330
BEE0
100
AcDbEntity
  8
1
  6
Continuous
100
AcDbLine
 10
68.44305
 20
136.0350809999999
 30
0.0
 11
70.743053
 21
136.0350809999999
 31
0.0
  0
LINE
  5
C1B0
330
BEE0
100
AcDbEntity
  8
1
  6
Continuous
100
AcDbLine
 10
70.743053
 20
155.071631
 30
0.0
 11
82.44305
 21
155.071631
 31
0.0
  0
LINE
  5
C1B1
330
BEE0
100
AcDbEntity
  8
1
  6
Continuous
100
AcDbLine
 10
71.67021099999998
 20
145.6094709999999
 30
0.0
 11
82.44305
 21
145.6094709999999
 31
0.0
  0
LINE
  5
C1B2
330
BEE0
100
AcDbEntity
  8
1
  6
Continuous
100
AcDbLine
 10
68.44305
 20
136.0350809999999
 30
0.0
 11
68.44305
 21
142.6016909999999
 31
0.0
  0
LINE
  5
C1B3
330
BEE0
100
AcDbEntity
  8
1
  6
Continuous
100
AcDbLine
 10
83.44305
 20
156.0683309999998
 30
0.0
 11
83.44305
 21
146.6094709999999
 31
0.0
  0
LINE
  5
C1B4
330
BEE0
100
AcDbEntity
  8
1
  6
Continuous
100
AcDbLine
 10
123.5990689999999
 20
164.3630209999998
 30
0.0
 11
129.408073
 21
164.3630209999998
 31
0.0
  0
ARC
  5
C1B5
330
BEE0
100
AcDbEntity
  8
1
  6
Continuous
100
AcDbCircle
 10
129.7580729999999
 20
147.4198759999999
 30
0.0
 40
7.5
100
AcDbArc
 50
248.502562
 51
280.7439129999999
  0
ARC
  5
C1B6
330
BEE0
100
AcDbEntity
  8
1
  6
Continuous
100
AcDbCircle
 10
127.087486
 20
119.045193
 30
0.0
 40
21.39657
100
AcDbArc
 50
78.675972
 51
99.39294700000001
  0
ARC
  5
C1B7
330
BEE0
100
AcDbEntity
  8
5
  6
PHANTOM
100
AcDbCircle
 10
137.4197739999999
 20
120.0655519999999
 30
0.0
 40
21.39657
100
AcDbArc
 50
99.00507199999999
 51
119.722047
  0
LINE
  5
C1B8
330
BEE0
100
AcDbEntity
  8
1
  6
Continuous
100
AcDbLine
 10
101.0756159999999
 20
157.0630219999999
 30
0.0
 11
132.2410269999998
 21
157.0630219999999
 31
0.0
  0
LINE
  5
C1B9
330
BEE0
100
AcDbEntity
  8
1
  6
Continuous
100
AcDbLine
 10
101.0756159999999
 20
159.363021
 30
0.0
 11
136.146035
 21
159.363021
 31
0.0
  0
LINE
  5
C1BA
330
BEE0
100
AcDbEntity
  8
5
  6
PHANTOM
100
AcDbLine
 10
99.82026799999999
 20
146.6785139999998
 30
0.0
 11
129.044467
 21
157.5057499999998
 31
0.0
  0
LINE
  5
C1BB
330
BEE0
100
AcDbEntity
  8
5
  6
PHANTOM
100
AcDbLine
 10
99.02122099999999
 20
148.835252
 30
0.0
 11
131.907195
 21
161.019135
 31
0.0
  0
LINE
  5
C1BC
330
BEE0
100
AcDbEntity
  8
1
  6
Continuous
100
AcDbLine
 10
121.794742
 20
150.946603
 30
0.0
 11
122.337892
 21
155.526562
 31
0.0
  0
LINE
  5
C1BD
330
BEE0
100
AcDbEntity
  8
1
  6
Continuous
100
AcDbLine
 10
113.586038
 20
157.0630219999999
 30
0.0
 11
113.586038
 21
152.121135
 31
0.0
  0
LINE
  5
C1BE
330
BEE0
100
AcDbEntity
  8
1
  6
Continuous
100
AcDbLine
 10
118.8156179999999
 20
151.299906
 30
0.0
 11
119.358768
 21
155.879864
 31
0.0
  0
LINE
  5
C1BF
330
BEE0
100
AcDbEntity
  8
1
  6
Continuous
100
AcDbLine
 10
101.0756159999999
 20
159.363021
 30
0.0
 11
101.0756159999999
 21
150.135669
 31
0.0
  0
ARC
  5
C1C0
330
BEE0
100
AcDbEntity
  8
1
  6
Continuous
100
AcDbCircle
 10
113.486185
 20
152.9992019999999
 30
0.0
 40
13.74308
100
AcDbArc
 50
229.90876
 51
271.32217
  0
LINE
  5
C1C1
330
BEE0
100
AcDbEntity
  8
1
  6
Continuous
100
AcDbLine
 10
101.0756159999999
 20
151.946086
 30
0.0
 11
113.409959
 21
151.946086
 31
0.0
  0
ARC
  5
C1C2
330
BEE0
100
AcDbEntity
  8
5
  6
PHANTOM
100
AcDbCircle
 10
112.869635
 20
147.1793989999999
 30
0.0
 40
13.74308
100
AcDbArc
 50
250.23786
 51
291.65127
  0
LINE
  5
C1C3
330
BEE0
100
AcDbEntity
  8
5
  6
PHANTOM
100
AcDbLine
 10
101.597953
 20
141.880299
 30
0.0
 11
113.164021
 21
146.1653969999999
 31
0.0
  0
ARC
  5
C1C4
330
BEE0
100
AcDbEntity
  8
5
  6
PHANTOM
100
AcDbCircle
 10
111.6040389999999
 20
143.656767
 30
0.0
 40
10.0
100
AcDbArc
 50
200.3290899999998
 51
250.23786
  0
ARC
  5
C1C5
330
BEE0
100
AcDbEntity
  8
1
  6
Continuous
100
AcDbCircle
 10
111.0756159999999
 20
150.135669
 30
0.0
 40
10.0
100
AcDbArc
 50
179.9999899999999
 51
229.90876
  0
LINE
  5
C1C6
330
BEE0
100
AcDbEntity
  8
5
  6
PHANTOM
100
AcDbLine
 10
99.02122099999999
 20
148.835252
 30
0.0
 11
102.2269129999999
 21
140.1826479999998
 31
0.0
  0
ARC
  5
C1C7
330
BEE0
100
AcDbEntity
  8
1
  6
Continuous
100
AcDbCircle
 10
113.411119
 20
152.121135
 30
0.0
 40
0.175048
100
AcDbArc
 50
269.62066
 51
2.214106
  0
ARC
  5
C1C8
330
BEE0
100
AcDbEntity
  8
1
  6
Continuous
100
AcDbCircle
 10
112.032014
 20
142.81235
 30
0.0
 40
8.751058
100
AcDbArc
 50
46.52395300000001
 51
73.49569699999998
  0
LINE
  5
C1C9
330
BEE0
100
AcDbEntity
  8
1
  6
Continuous
100
AcDbLine
 10
118.8156179999999
 20
151.299906
 30
0.0
 11
121.794742
 21
150.946603
 31
0.0
  0
LINE
  5
C1CA
330
BEE0
100
AcDbEntity
  8
1
  6
Continuous
100
AcDbLine
 10
114.5180789999999
 20
151.2028579999999
 30
0.0
 11
113.4099559999999
 21
151.9460949999999
 31
0.0
  0
LINE
  5
C1CB
330
BEE0
100
AcDbEntity
  8
5
  6
PHANTOM
100
AcDbLine
 10
121.37377
 20
148.141143
 30
0.0
 11
120.291957
 21
152.624525
 31
0.0
  0
LINE
  5
C1CC
330
BEE0
100
AcDbEntity
  8
5
  6
PHANTOM
100
AcDbLine
 10
111.5514479999998
 20
151.024784
 30
0.0
 11
113.2683189999999
 21
146.390714
 31
0.0
  0
LINE
  5
C1CD
330
BEE0
100
AcDbEntity
  8
5
  6
PHANTOM
100
AcDbLine
 10
118.4574669999998
 20
147.437456
 30
0.0
 11
117.375653
 21
151.9208379999998
 31
0.0
  0
ARC
  5
C1CE
330
BEE0
100
AcDbEntity
  8
5
  6
PHANTOM
100
AcDbCircle
 10
113.1042949999998
 20
146.329945
 30
0.0
 40
0.175048
100
AcDbArc
 50
289.9497600000001
 51
22.543206
  0
LINE
  5
C1CF
330
BEE0
100
AcDbEntity
  8
5
  6
PHANTOM
100
AcDbLine
 10
114.461326
 20
145.853437
 30
0.0
 11
113.1640159999999
 21
146.1654039999999
 31
0.0
  0
LINE
  5
C1D0
330
BEE0
100
AcDbEntity
  8
5
  6
PHANTOM
100
AcDbLine
 10
118.4574669999998
 20
147.437456
 30
0.0
 11
121.37377
 21
148.141143
 31
0.0
  0
LINE
  5
C1D1
330
BEE0
100
AcDbEntity
  8
5
  6
PHANTOM
100
AcDbLine
 10
117.375653
 20
151.9208379999998
 30
0.0
 11
120.291957
 21
152.624525
 31
0.0
  0
ARC
  5
C1D2
330
BEE0
100
AcDbEntity
  8
1
  6
Continuous
100
AcDbCircle
 10
104.274736
 20
552.103079
 30
0.0
 40
412.95325
100
AcDbArc
 50
271.32217
 51
272.05682
  0
ARC
  5
C1D3
330
BEE0
100
AcDbEntity
  8
1
  6
Continuous
100
AcDbCircle
 10
-197.9107229999999
 20
2083.701208999999
 30
0.0
 40
1969.958999999998
100
AcDbArc
 50
279.2603199999999
 51
279.3929499999999
  0
ARC
  5
C1D4
330
BEE0
100
AcDbEntity
  8
5
  6
PHANTOM
100
AcDbCircle
 10
-34.421515
 20
518.223969
 30
0.0
 40
412.95325
100
AcDbArc
 50
291.65127
 51
292.3859199999998
  0
ARC
  5
C1D5
330
BEE0
100
AcDbEntity
  8
5
  6
PHANTOM
100
AcDbCircle
 10
-849.8801249999996
 20
1849.440006
 30
0.0
 40
1969.958999999998
100
AcDbArc
 50
299.58942
 51
299.72205
  0
ARC
  5
C1D6
330
BEE0
100
AcDbEntity
  8
5
  6
PHANTOM
100
AcDbCircle
 10
48.72000899999999
 20
113.2660129999998
 30
0.0
 40
76.713257
100
AcDbArc
 50
17.26437999999999
 51
24.57387600000001
  0
ARC
  5
C1D7
330
BEE0
100
AcDbEntity
  8
1
  6
Continuous
100
AcDbCircle
 10
41.55035699999999
 20
143.4845379999998
 30
0.0
 40
76.713257
100
AcDbArc
 50
356.9352799999998
 51
4.244775999999998
  0
ARC
  5
C1D8
330
BEE0
100
AcDbEntity
  8
5
  6
PHANTOM
100
AcDbCircle
 10
115.0450739999999
 20
137.1218629999999
 30
0.0
 40
8.751058
100
AcDbArc
 50
66.853053
 51
93.82479700000001
  0
LINE
  5
C1D9
330
BEE0
100
AcDbEntity
  8
1
  6
Continuous
100
AcDbLine
 10
123.5990689999999
 20
164.3630209999998
 30
0.0
 11
119.075616
 21
159.3630199999998
 31
0.0
  0
LINE
  5
C1DA
330
BEE0
100
AcDbEntity
  8
1
  6
Continuous
100
AcDbLine
 10
123.5990669999999
 20
164.3630209999998
 30
0.0
 11
123.0415129999999
 21
159.363021
 31
0.0
  0
LINE
  5
C1DB
330
BEE0
100
AcDbEntity
  8
1
  6
Continuous
100
AcDbLine
 10
119.075616
 20
159.363021
 30
0.0
 11
119.075616
 21
157.0630219999999
 31
0.0
  0
LINE
  5
C1DC
330
BEE0
100
AcDbEntity
  8
1
  6
Continuous
100
AcDbLine
 10
119.358768
 20
155.879864
 30
0.0
 11
122.337892
 21
155.526562
 31
0.0
  0
LINE
  5
C1DD
330
BEE0
100
AcDbEntity
  8
5
  6
PHANTOM
100
AcDbLine
 10
115.9000479999999
 20
155.0886669999998
 30
0.0
 11
116.6990949999999
 21
152.931929
 31
0.0
  0
LINE
  5
C1DE
330
BEE0
100
AcDbEntity
  8
1
  6
Continuous
100
AcDbLine
 10
149.654533
 20
149.6510039999998
 30
0.0
 11
161.6119469999999
 21
149.6510039999998
 31
0.0
  0
ARC
  5
C1DF
330
BEE0
100
AcDbEntity
  8
1
  6
Continuous
100
AcDbCircle
 10
159.8735199999999
 20
154.7076829999998
 30
0.0
 40
1.0
100
AcDbArc
 50
263.9426899999999
 51
328.2863
  0
LINE
  5
C1E0
330
BEE0
100
AcDbEntity
  8
5
  6
PHANTOM
100
AcDbLine
 10
156.959593
 20
165.7186429999998
 30
0.0
 11
174.605429
 21
162.165555
 31
0.0
  0
ARC
  5
C1E1
330
BEE0
100
AcDbEntity
  8
5
  6
PHANTOM
100
AcDbCircle
 10
160.587253
 20
156.9094879999999
 30
0.0
 40
4.105809999999999
100
AcDbArc
 50
290.3290999999999
 51
110.329103
  0
LINE
  5
C1E2
330
BEE0
100
AcDbEntity
  8
5
  6
PHANTOM
100
AcDbLine
 10
150.8010419999999
 20
148.9052749999999
 30
0.0
 11
162.0136589999999
 21
153.059423
 31
0.0
  0
ARC
  5
C1E3
330
BEE0
100
AcDbEntity
  8
1
  6
Continuous
100
AcDbCircle
 10
155.3033059999999
 20
177.0071199999999
 30
0.0
 40
40.977364
100
AcDbArc
 50
258.6759699999999
 51
283.80891
  0
LINE
  5
C1E4
330
BEE0
100
AcDbEntity
  8
1
  6
Continuous
100
AcDbLine
 10
149.654533
 20
141.439753
 30
0.0
 11
161.6119469999999
 21
141.439753
 31
0.0
  0
ARC
  5
C1E5
330
BEE0
100
AcDbEntity
  8
1
  6
Continuous
100
AcDbCircle
 10
161.6119469999999
 20
145.5455579999998
 30
0.0
 40
4.105809999999999
100
AcDbArc
 50
270.0
 51
90.00000300000001
  0
ARC
  5
C1E6
330
BEE0
100
AcDbEntity
  8
5
  6
PHANTOM
100
AcDbCircle
 10
143.7414389999998
 20
184.2196949999998
 30
0.0
 40
40.977364
100
AcDbArc
 50
279.00507
 51
304.13801
  0
LINE
  5
C1E7
330
BEE0
100
AcDbEntity
  8
5
  6
PHANTOM
100
AcDbLine
 10
157.4136
 20
167.9733919999998
 30
0.0
 11
175.059435
 21
164.4203029999999
 31
0.0
  0
ARC
  5
C1E8
330
BEE0
100
AcDbEntity
  8
5
  6
PHANTOM
100
AcDbCircle
 10
149.374636
 20
152.7553399999999
 30
0.0
 40
4.105809999999999
100
AcDbArc
 50
109.559921
 51
290.3290999999999
  0
ARC
  5
C1E9
330
BEE0
100
AcDbEntity
  8
1
  6
Continuous
100
AcDbCircle
 10
125.8091199999998
 20
149.234653
 30
0.0
 40
10.716144
100
AcDbArc
 50
300.7517399999999
 51
46.93008999999999
  0
ARC
  5
C1EA
330
BEE0
100
AcDbEntity
  8
5
  6
PHANTOM
100
AcDbCircle
 10
125.7328549999999
 20
147.930469
 30
0.0
 40
10.716144
100
AcDbArc
 50
321.0808399999999
 51
67.25919000000001
  0
LINE
  5
C1EB
330
BEE0
100
AcDbEntity
  8
1
  6
Continuous
100
AcDbLine
 10
131.2888639999999
 20
140.0252209999998
 30
0.0
 11
147.2570979999999
 21
136.8274879999999
 31
0.0
  0
LINE
  5
C1EC
330
BEE0
100
AcDbEntity
  8
5
  6
PHANTOM
100
AcDbLine
 10
134.0707469999999
 20
141.198397
 30
0.0
 11
150.1552919999998
 21
143.747398
 31
0.0
  0
ARC
  5
C1ED
330
BEE0
100
AcDbEntity
  8
1
  6
Continuous
100
AcDbCircle
 10
149.654533
 20
145.5455579999998
 30
0.0
 40
4.105809999999999
100
AcDbArc
 50
89.230821
 51
270.0
  0
LINE
  5
C1EE
330
BEE0
100
AcDbEntity
  8
1
  6
Continuous
100
AcDbLine
 10
138.327349
 20
157.381576
 30
0.0
 11
143.8618729999998
 21
154.99868
 31
0.0
  0
ARC
  5
C1EF
330
BEE0
100
AcDbEntity
  8
1
  6
Continuous
100
AcDbCircle
 10
129.408073
 20
148.369876
 30
0.0
 40
15.993145
100
AcDbArc
 50
28.17520699999999
 51
90.00000300000001
  0
LINE
  5
C1F0
330
BEE0
100
AcDbEntity
  8
1
  6
Continuous
100
AcDbLine
 10
138.666761
 20
158.6801889999998
 30
0.0
 11
144.257201
 21
155.411622
 31
0.0
  0
ARC
  5
C1F1
330
BEE0
100
AcDbEntity
  8
1
  6
Continuous
100
AcDbCircle
 10
146.7419129999998
 20
161.6878769999999
 30
0.0
 40
7.282853
100
AcDbArc
 50
246.70564
 51
276.5559399999999
  0
LINE
  5
C1F2
330
BEE0
100
AcDbEntity
  8
5
  6
PHANTOM
100
AcDbLine
 10
143.652817
 20
160.220427
 30
0.0
 11
149.224521
 21
161.574007
 31
0.0
  0
ARC
  5
C1F3
330
BEE0
100
AcDbEntity
  8
5
  6
PHANTOM
100
AcDbCircle
 10
141.0354
 20
166.8803159999999
 30
0.0
 40
7.282853
100
AcDbArc
 50
267.03474
 51
296.88504
  0
ARC
  5
C1F4
330
BEE0
100
AcDbEntity
  8
1
  6
Continuous
100
AcDbCircle
 10
132.2410269999998
 20
184.417307
 30
0.0
 40
27.354286
100
AcDbArc
 50
270.00035
 51
280.3928499999999
  0
ARC
  5
C1F5
330
BEE0
100
AcDbEntity
  8
1
  6
Continuous
100
AcDbCircle
 10
136.146035
 20
154.368827
 30
0.0
 40
4.994184999999998
100
AcDbArc
 50
59.686421
 51
90.00000300000001
  0
ARC
  5
C1F6
330
BEE0
100
AcDbEntity
  8
1
  6
Continuous
100
AcDbCircle
 10
137.536439
 20
155.544608
 30
0.0
 40
2.0
100
AcDbArc
 50
66.705642
 51
100.39285
  0
LINE
  5
C1F7
330
BEE0
100
AcDbEntity
  8
5
  6
PHANTOM
100
AcDbLine
 10
134.641018
 20
159.918924
 30
0.0
 11
140.658658
 21
159.607212
 31
0.0
  0
LINE
  5
C1F8
330
BEE0
100
AcDbEntity
  8
5
  6
PHANTOM
100
AcDbLine
 10
134.508135
 20
161.2545659999998
 30
0.0
 11
140.885901
 21
160.131774
 31
0.0
  0
ARC
  5
C1F9
330
BEE0
100
AcDbEntity
  8
5
  6
PHANTOM
100
AcDbCircle
 10
119.5412609999999
 20
183.156209
 30
0.0
 40
27.354286
100
AcDbArc
 50
290.32945
 51
300.72195
  0
ARC
  5
C1FA
330
BEE0
100
AcDbEntity
  8
5
  6
PHANTOM
100
AcDbCircle
 10
133.6422369999999
 20
156.336016
 30
0.0
 40
4.994184999999998
100
AcDbArc
 50
80.01552099999997
 51
110.329103
  0
ARC
  5
C1FB
330
BEE0
100
AcDbEntity
  8
5
  6
PHANTOM
100
AcDbCircle
 10
134.5375559999999
 20
157.921604
 30
0.0
 40
2.0
100
AcDbArc
 50
87.03474200000002
 51
120.7219499999998
  0
ARC
  5
C1FC
330
BEE0
100
AcDbEntity
  8
5
  6
PHANTOM
100
AcDbCircle
 10
142.057544
 20
166.787017
 30
0.0
 40
6.757590999999998
100
AcDbArc
 50
260.0155199999999
 51
283.6548099999999
  0
ARC
  5
C1FD
330
BEE0
100
AcDbEntity
  8
1
  6
Continuous
100
AcDbCircle
 10
159.7355349999999
 20
155.5394619999999
 30
0.0
 40
2.677283
100
AcDbArc
 50
181.47881
 51
207.74731
  0
LINE
  5
C1FE
330
BEE0
100
AcDbEntity
  8
1
  6
Continuous
100
AcDbLine
 10
146.882572
 20
154.5334919999999
 30
0.0
 11
152.577479
 21
153.867085
 31
0.0
  0
ARC
  5
C1FF
330
BEE0
100
AcDbEntity
  8
1
  6
Continuous
100
AcDbCircle
 10
147.667976
 20
161.2452839999999
 30
0.0
 40
6.757590999999998
100
AcDbArc
 50
239.68642
 51
263.32571
  0
LINE
  5
C200
330
BEE0
100
AcDbEntity
  8
1
  6
Continuous
100
AcDbLine
 10
153.248817
 20
155.47037
 30
0.0
 11
157.059143
 21
155.47037
 31
0.0
  0
ARC
  5
C201
330
BEE0
100
AcDbEntity
  8
1
  6
Continuous
100
AcDbCircle
 10
151.574928
 20
155.3710619999999
 30
0.0
 40
1.676834999999999
100
AcDbArc
 50
325.6073399999999
 51
3.395193999999998
  0
LINE
  5
C202
330
BEE0
100
AcDbEntity
  8
1
  6
Continuous
100
AcDbLine
 10
152.958631
 20
154.423887
 30
0.0
 11
152.577481
 21
153.8670789999999
 31
0.0
  0
LINE
  5
C203
330
BEE0
100
AcDbEntity
  8
1
  6
Continuous
100
AcDbLine
 10
157.933695
 20
153.9079139999998
 30
0.0
 11
159.7679929999999
 21
153.713266
 31
0.0
  0
ARC
  5
C204
330
BEE0
100
AcDbEntity
  8
1
  6
Continuous
100
AcDbCircle
 10
158.0105279999999
 20
154.631999
 30
0.0
 40
0.7281490000000001
100
AcDbArc
 50
207.74731
 51
263.94267
  0
ARC
  5
C205
330
BEE0
100
AcDbEntity
  8
5
  6
PHANTOM
100
AcDbCircle
 10
155.774077
 20
164.8969779999999
 30
0.0
 40
1.0
100
AcDbArc
 50
284.27179
 51
348.6154
  0
LINE
  5
C206
330
BEE0
100
AcDbEntity
  8
5
  6
PHANTOM
100
AcDbLine
 10
154.2329269999999
 20
163.473106
 30
0.0
 11
156.0205949999998
 21
163.9278389999998
 31
0.0
  0
ARC
  5
C207
330
BEE0
100
AcDbEntity
  8
5
  6
PHANTOM
100
AcDbCircle
 10
154.0534199999999
 20
164.178783
 30
0.0
 40
0.7281490000000001
100
AcDbArc
 50
228.0764099999999
 51
284.27177
  0
LINE
  5
C208
330
BEE0
100
AcDbEntity
  8
5
  6
PHANTOM
100
AcDbLine
 10
149.3884919999999
 20
162.2285439999999
 30
0.0
 11
149.224525
 21
161.574002
 31
0.0
  0
LINE
  5
C209
330
BEE0
100
AcDbEntity
  8
5
  6
PHANTOM
100
AcDbLine
 10
147.9483549999999
 20
156.605068
 30
0.0
 11
159.1609719999999
 21
160.759217
 31
0.0
  0
ARC
  5
C20A
330
BEE0
100
AcDbEntity
  8
5
  6
PHANTOM
100
AcDbCircle
 10
155.3557159999998
 20
165.6290099999999
 30
0.0
 40
2.677283
100
AcDbArc
 50
201.80791
 51
228.0764099999999
  0
LINE
  5
C20B
330
BEE0
100
AcDbEntity
  8
5
  6
PHANTOM
100
AcDbLine
 10
149.2970429999998
 20
163.3106589999999
 30
0.0
 11
152.870033
 21
164.634411
 31
0.0
  0
ARC
  5
C20C
330
BEE0
100
AcDbEntity
  8
5
  6
PHANTOM
100
AcDbCircle
 10
147.7619169999998
 20
162.636007
 30
0.0
 40
1.676834999999999
100
AcDbArc
 50
345.93644
 51
23.724294
  0
LINE
  5
C20D
330
BEE0
100
AcDbEntity
  8
5
  6
PHANTOM
100
AcDbLine
 10
157.4136
 20
167.9733919999998
 30
0.0
 11
156.7544
 21
164.6995839999999
 31
0.0
  0
LINE
  5
C20E
330
BEE0
100
AcDbEntity
  8
1
  6
Continuous
100
AcDbLine
 10
161.2706499999999
 20
155.0663059999999
 30
0.0
 11
176.582988
 21
145.6041559999999
 31
0.0
  0
ARC
  5
C20F
330
BEE0
100
AcDbEntity
  8
5
  6
PHANTOM
100
AcDbCircle
 10
156.189595
 20
165.8600979999999
 30
0.0
 40
18.795586
100
AcDbArc
 50
304.13801
 51
336.5019199999999
  0
LINE
  5
C210
330
BEE0
100
AcDbEntity
  8
1
  6
Continuous
100
AcDbLine
 10
162.4797049999999
 20
157.022886
 30
0.0
 11
177.7920409999999
 21
147.5607349999999
 31
0.0
  0
LINE
  5
C211
330
BEE0
100
AcDbEntity
  8
1
  6
Continuous
100
AcDbLine
 10
177.7920409999999
 20
147.5607349999999
 30
0.0
 11
175.737028
 21
144.2351619999998
 31
0.0
  0
ARC
  5
C212
330
BEE0
100
AcDbEntity
  8
1
  6
Continuous
100
AcDbCircle
 10
160.597756
 20
155.4664569999999
 30
0.0
 40
18.795586
100
AcDbArc
 50
283.80891
 51
316.17282
  0
ARC
  5
C213
330
BEE0
100
AcDbEntity
  8
1
  6
Continuous
100
AcDbCircle
 10
152.8459699999999
 20
162.9072139999999
 30
0.0
 40
29.540583
100
AcDbArc
 50
316.17282
 51
320.79615
  0
LINE
  5
C214
330
BEE0
100
AcDbEntity
  8
1
  6
Continuous
100
AcDbLine
 10
162.4797049999999
 20
157.022886
 30
0.0
 11
160.7242039999999
 21
154.1820079999999
 31
0.0
  0
LINE
  5
C215
330
BEE0
100
AcDbEntity
  8
5
  6
PHANTOM
100
AcDbLine
 10
175.059435
 20
164.4203029999999
 30
0.0
 11
174.287767
 21
160.5879349999999
 31
0.0
  0
ARC
  5
C216
330
BEE0
100
AcDbEntity
  8
5
  6
PHANTOM
100
AcDbCircle
 10
146.3356399999999
 20
170.144327
 30
0.0
 40
29.540583
100
AcDbArc
 50
336.5019199999999
 51
341.1252499999998
  0
LINE
  5
C217
330
BEE0
100
AcDbEntity
  8
1
  6
Continuous
100
AcDbLine
 10
66.53593100000001
 20
153.9751909999999
 30
0.0
 11
67.535931
 21
153.9751909999999
 31
0.0
  0
LINE
  5
C218
330
BEE0
100
AcDbEntity
  8
1
  6
Continuous
100
AcDbLine
 10
66.53593100000001
 20
142.7751909999998
 30
0.0
 11
67.535931
 21
142.7751909999998
 31
0.0
  0
ARC
  5
C219
330
BEE0
100
AcDbEntity
  8
1
  6
Continuous
100
AcDbCircle
 10
129.408073
 20
148.369876
 30
0.0
 40
5.599999999999997
100
AcDbArc
 50
33.23845699999999
 51
86.77445799999999
  0
ARC
  5
C21A
330
BEE0
100
AcDbEntity
  8
1
  6
Continuous
100
AcDbCircle
 10
129.408073
 20
148.369876
 30
0.0
 40
5.599999999999997
100
AcDbArc
 50
93.23845699999999
 51
146.774458
  0
ARC
  5
C21B
330
BEE0
100
AcDbEntity
  8
1
  6
Continuous
100
AcDbCircle
 10
129.408073
 20
148.369876
 30
0.0
 40
5.599999999999997
100
AcDbArc
 50
153.238457
 51
206.774458
  0
ARC
  5
C21C
330
BEE0
100
AcDbEntity
  8
1
  6
Continuous
100
AcDbCircle
 10
129.408073
 20
148.369876
 30
0.0
 40
5.599999999999997
100
AcDbArc
 50
213.238457
 51
266.7744579999999
  0
ARC
  5
C21D
330
BEE0
100
AcDbEntity
  8
1
  6
Continuous
100
AcDbCircle
 10
129.408073
 20
148.369876
 30
0.0
 40
5.599999999999997
100
AcDbArc
 50
273.2384569999999
 51
326.774458
  0
ARC
  5
C21E
330
BEE0
100
AcDbEntity
  8
1
  6
Continuous
100
AcDbCircle
 10
129.408073
 20
148.369876
 30
0.0
 40
5.599999999999997
100
AcDbArc
 50
333.2384569999998
 51
26.774458
  0
LINE
  5
C21F
330
BEE0
100
AcDbEntity
  8
1
  6
Continuous
100
AcDbLine
 10
123.8080729999998
 20
85.62876899999997
 30
0.0
 11
123.8080729999998
 21
84.62876899999997
 31
0.0
  0
LINE
  5
C220
330
BEE0
100
AcDbEntity
  8
1
  6
Continuous
100
AcDbLine
 10
119.4086259999999
 20
80.35459899999997
 30
0.0
 11
119.4086259999999
 21
82.328766
 31
0.0
  0
ARC
  5
C221
330
BEE0
100
AcDbEntity
  8
1
  6
Continuous
100
AcDbCircle
 10
120.688145
 20
80.85459899999998
 30
0.0
 40
0.5
100
AcDbArc
 50
270.0
 51
350.537716
  0
ARC
  5
C222
330
BEE0
100
AcDbEntity
  8
1
  6
Continuous
100
AcDbCircle
 10
149.4086259999999
 20
67.085669
 30
0.0
 40
19.0
100
AcDbArc
 50
116.937983
 51
121.398165
  0
ARC
  5
C223
330
BEE0
100
AcDbEntity
  8
1
  6
Continuous
100
AcDbCircle
 10
149.4086259999999
 20
67.085669
 30
0.0
 40
19.0
100
AcDbArc
 50
78.33931800000001
 51
98.12903299999996
  0
ARC
  5
C224
330
BEE0
100
AcDbEntity
  8
1
  6
Continuous
100
AcDbCircle
 10
149.4086259999999
 20
67.085669
 30
0.0
 40
17.0
100
AcDbArc
 50
115.260888
 51
121.3981659999999
  0
LINE
  5
C225
330
BEE0
100
AcDbEntity
  8
1
  6
Continuous
100
AcDbLine
 10
302.875285
 20
177.616486
 30
0.0
 11
302.6255019999999
 21
175.762876
 31
0.0
  0
LINE
  5
C226
330
BEE0
100
AcDbEntity
  8
1
  6
Continuous
100
AcDbLine
 10
344.1973089999998
 20
179.6862319999999
 30
0.0
 11
348.851206
 21
148.369876
 31
0.0
  0
LINE
  5
C227
330
BEE0
100
AcDbEntity
  8
1
  6
Continuous
100
AcDbLine
 10
336.169644
 20
178.2874209999999
 30
0.0
 11
336.169644
 21
149.0709879999998
 31
0.0
  0
LINE
  5
C228
330
BEE0
100
AcDbEntity
  8
4
  6
CENTER
100
AcDbLine
 10
321.6255019999999
 20
164.545231
 30
0.0
 11
321.6255019999999
 21
194.9908529999999
 31
0.0
  0
LINE
  5
C229
330
BEE0
100
AcDbEntity
  8
4
  6
CENTER
100
AcDbLine
 10
341.625617
 20
120.3698759999999
 30
0.0
 11
341.625617
 21
176.369876
 31
0.0
  0
LINE
  5
C22A
330
BEE0
100
AcDbEntity
  8
1
  6
Continuous
100
AcDbLine
 10
369.958074
 20
159.363021
 30
0.0
 11
364.078919
 21
159.363021
 31
0.0
  0
LINE
  5
C22B
330
BEE0
100
AcDbEntity
  8
5
  6
PHANTOM
100
AcDbLine
 10
372.012469
 20
148.835252
 30
0.0
 11
366.499511
 21
150.8777409999999
 31
0.0
  0
ARC
  5
C22C
330
BEE0
100
AcDbEntity
  8
1
  6
Continuous
100
AcDbCircle
 10
340.776082
 20
147.3515769999998
 30
0.0
 40
8.139077
100
AcDbArc
 50
212.4742509999999
 51
7.825642999999997
  0
ARC
  5
C22D
330
BEE0
100
AcDbEntity
  8
1
  6
Continuous
100
AcDbCircle
 10
341.625617
 20
148.369876
 30
0.0
 40
19.5
100
AcDbArc
 50
152.3101819999999
 51
76.951784
  0
ARC
  5
C22E
330
BEE0
100
AcDbEntity
  8
1
  6
Continuous
100
AcDbCircle
 10
341.625617
 20
148.369876
 30
0.0
 40
25.0
100
AcDbArc
 50
145.5697439999999
 51
81.84111699999998
  0
LINE
  5
C22F
330
BEE0
100
AcDbEntity
  8
4
  6
CENTER
100
AcDbLine
 10
369.6256169999998
 20
148.369876
 30
0.0
 11
313.6256169999999
 21
148.369876
 31
0.0
  0
LINE
  5
C230
330
BEE0
100
AcDbEntity
  8
1
  6
Continuous
100
AcDbLine
 10
369.958074
 20
159.363021
 30
0.0
 11
369.958074
 21
150.135669
 31
0.0
  0
ARC
  5
C231
330
BEE0
100
AcDbEntity
  8
5
  6
PHANTOM
100
AcDbCircle
 10
358.1640549999999
 20
147.1793989999999
 30
0.0
 40
13.74308
100
AcDbArc
 50
286.595295
 51
289.7621399999999
  0
ARC
  5
C232
330
BEE0
100
AcDbEntity
  8
1
  6
Continuous
100
AcDbCircle
 10
357.547505
 20
152.9992019999999
 30
0.0
 40
13.74308
100
AcDbArc
 50
306.924395
 51
310.0912399999999
  0
ARC
  5
C233
330
BEE0
100
AcDbEntity
  8
1
  6
Continuous
100
AcDbCircle
 10
359.958074
 20
150.135669
 30
0.0
 40
10.0
100
AcDbArc
 50
310.0912399999999
 51
0.00001
  0
LINE
  5
C234
330
BEE0
100
AcDbEntity
  8
5
  6
PHANTOM
100
AcDbLine
 10
372.012469
 20
148.835252
 30
0.0
 11
368.8067759999999
 21
140.1826479999998
 31
0.0
  0
ARC
  5
C235
330
BEE0
100
AcDbEntity
  8
5
  6
PHANTOM
100
AcDbCircle
 10
359.42965
 20
143.656767
 30
0.0
 40
10.0
100
AcDbArc
 50
289.7621399999999
 51
339.6709099999998
  0
ARC
  5
C236
330
BEE0
100
AcDbEntity
  8
1
  6
Continuous
100
AcDbCircle
 10
309.421743
 20
145.5455579999998
 30
0.0
 40
4.105809999999999
100
AcDbArc
 50
89.99999700000001
 51
270.0
  0
LINE
  5
C237
330
BEE0
100
AcDbEntity
  8
1
  6
Continuous
100
AcDbLine
 10
313.0999949999999
 20
153.9079139999998
 30
0.0
 11
311.2656959999998
 21
153.713266
 31
0.0
  0
LINE
  5
C238
330
BEE0
100
AcDbEntity
  8
1
  6
Continuous
100
AcDbLine
 10
316.6584639999999
 20
149.6510039999998
 30
0.0
 11
309.421743
 21
149.6510039999998
 31
0.0
  0
LINE
  5
C239
330
BEE0
100
AcDbEntity
  8
5
  6
PHANTOM
100
AcDbLine
 10
316.6938989999999
 20
150.216342
 30
0.0
 11
309.0200299999999
 21
153.059423
 31
0.0
  0
LINE
  5
C23A
330
BEE0
100
AcDbEntity
  8
1
  6
Continuous
100
AcDbLine
 10
317.6053459999998
 20
141.439753
 30
0.0
 11
309.421743
 21
141.439753
 31
0.0
  0
ARC
  5
C23B
330
BEE0
100
AcDbEntity
  8
5
  6
PHANTOM
100
AcDbCircle
 10
327.29225
 20
184.2196949999998
 30
0.0
 40
40.977364
100
AcDbArc
 50
235.86199
 51
255.330235
  0
ARC
  5
C23C
330
BEE0
100
AcDbEntity
  8
1
  6
Continuous
100
AcDbCircle
 10
315.730383
 20
177.0071199999999
 30
0.0
 40
40.977364
100
AcDbArc
 50
256.1910899999999
 51
275.659335
  0
ARC
  5
C23D
330
BEE0
100
AcDbEntity
  8
5
  6
PHANTOM
100
AcDbCircle
 10
310.446436
 20
156.9094879999999
 30
0.0
 40
4.105809999999999
100
AcDbArc
 50
69.67089699999999
 51
249.6709
  0
LINE
  5
C23E
330
BEE0
100
AcDbEntity
  8
5
  6
PHANTOM
100
AcDbLine
 10
313.620089
 20
167.9733919999998
 30
0.0
 11
295.9742549999999
 21
164.4203029999999
 31
0.0
  0
ARC
  5
C23F
330
BEE0
100
AcDbEntity
  8
1
  6
Continuous
100
AcDbCircle
 10
306.796694
 20
165.997031
 30
0.0
 40
9.035839999999996
100
AcDbArc
 50
48.378449
 51
60.452662
  0
ARC
  5
C240
330
BEE0
100
AcDbEntity
  8
1
  6
Continuous
100
AcDbCircle
 10
313.0231609999999
 20
154.631999
 30
0.0
 40
0.7281490000000001
100
AcDbArc
 50
276.0573299999999
 51
332.2526899999999
  0
LINE
  5
C241
330
BEE0
100
AcDbEntity
  8
1
  6
Continuous
100
AcDbLine
 10
320.439546
 20
163.360793
 30
0.0
 11
333.909689
 21
142.98154
 31
0.0
  0
ARC
  5
C242
330
BEE0
100
AcDbEntity
  8
5
  6
PHANTOM
100
AcDbCircle
 10
315.259612
 20
164.8969779999999
 30
0.0
 40
1.0
100
AcDbArc
 50
191.3846
 51
255.72821
  0
LINE
  5
C243
330
BEE0
100
AcDbEntity
  8
5
  6
PHANTOM
100
AcDbLine
 10
313.620089
 20
167.9733919999998
 30
0.0
 11
314.2792889999999
 21
164.6995839999999
 31
0.0
  0
ARC
  5
C244
330
BEE0
100
AcDbEntity
  8
5
  6
PHANTOM
100
AcDbCircle
 10
316.98027
 20
164.178783
 30
0.0
 40
0.7281490000000001
100
AcDbArc
 50
255.7282299999999
 51
311.92359
  0
ARC
  5
C245
330
BEE0
100
AcDbEntity
  8
5
  6
PHANTOM
100
AcDbCircle
 10
315.677973
 20
165.6290099999999
 30
0.0
 40
2.677283
100
AcDbArc
 50
311.92359
 51
338.19209
  0
LINE
  5
C246
330
BEE0
100
AcDbEntity
  8
5
  6
PHANTOM
100
AcDbLine
 10
319.9280499999999
 20
163.980723
 30
0.0
 11
318.163656
 21
164.634411
 31
0.0
  0
LINE
  5
C247
330
BEE0
100
AcDbEntity
  8
5
  6
PHANTOM
100
AcDbLine
 10
316.800762
 20
163.473106
 30
0.0
 11
315.0130939999999
 21
163.9278389999998
 31
0.0
  0
ARC
  5
C248
330
BEE0
100
AcDbEntity
  8
1
  6
Continuous
100
AcDbCircle
 10
311.298154
 20
155.5394619999999
 30
0.0
 40
2.677283
100
AcDbArc
 50
332.2526899999999
 51
358.52119
  0
LINE
  5
C249
330
BEE0
100
AcDbEntity
  8
1
  6
Continuous
100
AcDbLine
 10
317.784872
 20
155.47037
 30
0.0
 11
313.9745469999998
 21
155.47037
 31
0.0
  0
LINE
  5
C24A
330
BEE0
100
AcDbEntity
  8
5
  6
PHANTOM
100
AcDbLine
 10
318.658682
 20
158.245093
 30
0.0
 11
311.8727169999999
 21
160.759217
 31
0.0
  0
ARC
  5
C24B
330
BEE0
100
AcDbEntity
  8
1
  6
Continuous
100
AcDbCircle
 10
316.9976709999999
 20
161.041931
 30
0.0
 40
4.150134999999997
100
AcDbArc
 50
33.968948
 51
45.702543
  0
ARC
  5
C24C
330
BEE0
100
AcDbEntity
  8
1
  6
Continuous
100
AcDbCircle
 10
329.8605129999998
 20
174.2241459999999
 30
0.0
 40
14.267886
100
AcDbArc
 50
214.9632489999999
 51
225.7025429999999
  0
ARC
  5
C24D
330
BEE0
100
AcDbEntity
  8
1
  6
Continuous
100
AcDbCircle
 10
310.631718
 20
170.313251
 30
0.0
 40
3.262005999999998
100
AcDbArc
 50
39.701034
 51
48.378449
  0
ARC
  5
C24E
330
BEE0
100
AcDbEntity
  8
1
  6
Continuous
100
AcDbCircle
 10
358.4149049999999
 20
209.985074
 30
0.0
 40
58.84344099999999
100
AcDbArc
 50
219.7010339999999
 51
222.287157
  0
ARC
  5
C24F
330
BEE0
100
AcDbEntity
  8
1
  6
Continuous
100
AcDbCircle
 10
294.9133409999999
 20
152.2291109999999
 30
0.0
 40
26.994778
100
AcDbArc
 50
33.904437
 51
42.287157
  0
ARC
  5
C250
330
BEE0
100
AcDbEntity
  8
1
  6
Continuous
100
AcDbCircle
 10
384.7944339999998
 20
212.636803
 30
0.0
 40
81.299728
100
AcDbArc
 50
213.904437
 51
214.9632489999999
  0
ARC
  5
C251
330
BEE0
100
AcDbEntity
  8
1
  6
Continuous
100
AcDbCircle
 10
311.160169
 20
154.7076829999998
 30
0.0
 40
1.0
100
AcDbArc
 50
211.7136999999999
 51
276.0573099999999
  0
ARC
  5
C252
330
BEE0
100
AcDbEntity
  8
5
  6
PHANTOM
100
AcDbCircle
 10
314.8440939999999
 20
165.8600979999999
 30
0.0
 40
18.795586
100
AcDbArc
 50
203.49808
 51
235.86199
  0
LINE
  5
C253
330
BEE0
100
AcDbEntity
  8
1
  6
Continuous
100
AcDbLine
 10
308.5539849999999
 20
157.022886
 30
0.0
 11
293.2416489999998
 21
147.5607349999999
 31
0.0
  0
ARC
  5
C254
330
BEE0
100
AcDbEntity
  8
1
  6
Continuous
100
AcDbCircle
 10
318.187719
 20
162.9072139999999
 30
0.0
 40
29.540583
100
AcDbArc
 50
219.2038499999999
 51
223.8271799999998
  0
ARC
  5
C255
330
BEE0
100
AcDbEntity
  8
1
  6
Continuous
100
AcDbCircle
 10
310.4359339999998
 20
155.4664569999999
 30
0.0
 40
18.795586
100
AcDbArc
 50
223.8271799999998
 51
256.1910899999999
  0
LINE
  5
C256
330
BEE0
100
AcDbEntity
  8
1
  6
Continuous
100
AcDbLine
 10
293.2416489999998
 20
147.5607349999999
 30
0.0
 11
295.2966620000001
 21
144.2351619999998
 31
0.0
  0
LINE
  5
C257
330
BEE0
100
AcDbEntity
  8
5
  6
PHANTOM
100
AcDbLine
 10
295.9742549999999
 20
164.4203029999999
 30
0.0
 11
296.745922
 21
160.5879349999999
 31
0.0
  0
ARC
  5
C258
330
BEE0
100
AcDbEntity
  8
5
  6
PHANTOM
100
AcDbCircle
 10
324.69805
 20
170.144327
 30
0.0
 40
29.540583
100
AcDbArc
 50
198.87475
 51
203.49808
  0
LINE
  5
C259
330
BEE0
100
AcDbEntity
  8
1
  6
Continuous
100
AcDbLine
 10
308.5539849999999
 20
157.022886
 30
0.0
 11
310.309485
 21
154.1820079999999
 31
0.0
  0
LINE
  5
C25A
330
BEE0
100
AcDbEntity
  8
1
  6
Continuous
100
AcDbLine
 10
303.827471
 20
175.3819969999999
 30
0.0
 11
302.6255019999999
 21
175.762876
 31
0.0
  0
LINE
  5
C25B
330
BEE0
100
AcDbEntity
  8
1
  6
Continuous
100
AcDbLine
 10
303.827471
 20
175.3819969999999
 30
0.0
 11
303.8855709999999
 21
175.3924529999999
 31
0.0
  0
ARC
  5
C25C
330
BEE0
100
AcDbEntity
  8
1
  6
Continuous
100
AcDbCircle
 10
303.9955739999999
 20
185.499407
 30
0.0
 40
10.10755199999998
100
AcDbArc
 50
269.3764279999999
 51
271.8826729999999
  0
ARC
  5
C25D
330
BEE0
100
AcDbEntity
  8
1
  6
Continuous
100
AcDbCircle
 10
304.524221
 20
175.8890879999999
 30
0.0
 40
0.529613
100
AcDbArc
 50
248.2113149999999
 51
282.6736619999999
  0
ARC
  5
C25E
330
BEE0
100
AcDbEntity
  8
1
  6
Continuous
100
AcDbCircle
 10
309.5409969999999
 20
170.838233
 30
0.0
 40
3.470911
100
AcDbArc
 50
60.452662
 51
78.73786199999997
  0
ARC
  5
C25F
330
BEE0
100
AcDbEntity
  8
1
  6
Continuous
100
AcDbCircle
 10
309.725161
 20
180.7453689999999
 30
0.0
 40
6.348405999999997
100
AcDbArc
 50
262.7310089999999
 51
265.9394669999999
  0
ARC
  5
C260
330
BEE0
100
AcDbEntity
  8
1
  6
Continuous
100
AcDbCircle
 10
304.911761
 20
147.5912319999999
 30
0.0
 40
27.174347
100
AcDbArc
 50
78.73786199999997
 51
80.75898700000001
  0
ARC
  5
C261
330
BEE0
100
AcDbEntity
  8
1
  6
Continuous
100
AcDbCircle
 10
312.1565679999998
 20
199.8073149999999
 30
0.0
 40
25.564794
100
AcDbArc
 50
252.9021769999999
 51
262.7310089999999
  0
ARC
  5
C262
330
BEE0
100
AcDbEntity
  8
1
  6
Continuous
100
AcDbCircle
 10
344.068713
 20
160.868749
 30
0.0
 40
18.81792199999998
100
AcDbArc
 50
89.60845400000003
 51
92.995108
  0
LINE
  5
C263
330
BEE0
100
AcDbEntity
  8
1
  6
Continuous
100
AcDbLine
 10
291.6255019999999
 20
190.369876
 30
0.0
 11
351.625502
 21
190.369876
 31
0.0
  0
LINE
  5
C264
330
BEE0
100
AcDbEntity
  8
1
  6
Continuous
100
AcDbLine
 10
291.6255019999999
 20
188.369573
 30
0.0
 11
351.625502
 21
188.369573
 31
0.0
  0
LINE
  5
C265
330
BEE0
100
AcDbEntity
  8
1
  6
Continuous
100
AcDbLine
 10
351.625502
 20
188.369573
 30
0.0
 11
351.625502
 21
190.369876
 31
0.0
  0
LINE
  5
C266
330
BEE0
100
AcDbEntity
  8
4
  6
CENTER
100
AcDbLine
 10
345.125502
 20
183.369573
 30
0.0
 11
345.125502
 21
194.9908529999999
 31
0.0
  0
ARC
  5
C267
330
BEE0
100
AcDbEntity
  8
1
  6
Continuous
100
AcDbCircle
 10
344.546921
 20
489.3778189999999
 30
0.0
 40
311.6925539999999
100
AcDbArc
 50
269.9903949999999
 51
270.3265229999999
  0
ARC
  5
C268
330
BEE0
100
AcDbEntity
  8
1
  6
Continuous
100
AcDbCircle
 10
344.6660009999998
 20
248.2698109999998
 30
0.0
 40
68.58518100000001
100
AcDbArc
 50
269.608454
 51
270.876118
  0
ARC
  5
C269
330
BEE0
100
AcDbEntity
  8
1
  6
Continuous
100
AcDbCircle
 10
345.758206
 20
177.704509
 30
0.0
 40
1.988615
100
AcDbArc
 50
76.916679
 51
91.25340499999998
  0
ARC
  5
C26A
330
BEE0
100
AcDbEntity
  8
1
  6
Continuous
100
AcDbCircle
 10
346.4589669999999
 20
179.3757089999998
 30
0.0
 40
0.140401
100
AcDbArc
 50
4.755418999999998
 51
53.96652299999998
  0
ARC
  5
C26B
330
BEE0
100
AcDbEntity
  8
1
  6
Continuous
100
AcDbCircle
 10
345.999947
 20
178.744698
 30
0.0
 40
0.9207059999999998
100
AcDbArc
 50
53.96652299999998
 51
76.916679
  0
ARC
  5
C26C
330
BEE0
100
AcDbEntity
  8
1
  6
Continuous
100
AcDbCircle
 10
346.289901
 20
178.329744
 30
0.0
 40
0.640285
100
AcDbArc
 50
267.659662
 51
298.0988159999998
  0
ARC
  5
C26D
330
BEE0
100
AcDbEntity
  8
1
  6
Continuous
100
AcDbCircle
 10
401.425312
 20
180.630882
 30
0.0
 40
54.840528
100
AcDbArc
 50
181.299318
 51
182.2989619999999
  0
ARC
  5
C26E
330
BEE0
100
AcDbEntity
  8
1
  6
Continuous
100
AcDbCircle
 10
346.2047249999998
 20
177.963741
 30
0.0
 40
0.434857
100
AcDbArc
 50
332.793515
 51
12.371354
  0
ARC
  5
C26F
330
BEE0
100
AcDbEntity
  8
1
  6
Continuous
100
AcDbCircle
 10
347.746034
 20
178.2456399999999
 30
0.0
 40
1.132387999999999
100
AcDbArc
 50
170.577549
 51
189.5940659999999
  0
LINE
  5
C270
330
BEE0
100
AcDbEntity
  8
1
  6
Continuous
100
AcDbLine
 10
309.7260069999999
 20
184.111835
 30
0.0
 11
311.7260069999999
 21
182.498601
 31
0.0
  0
LINE
  5
C271
330
BEE0
100
AcDbEntity
  8
1
  6
Continuous
100
AcDbLine
 10
312.311794
 20
184.111835
 30
0.0
 11
310.311794
 21
182.498601
 31
0.0
  0
LINE
  5
C272
330
BEE0
100
AcDbEntity
  8
1
  6
Continuous
100
AcDbLine
 10
311.140221
 20
184.111835
 30
0.0
 11
313.140221
 21
182.498601
 31
0.0
  0
LINE
  5
C273
330
BEE0
100
AcDbEntity
  8
1
  6
Continuous
100
AcDbLine
 10
339.350434
 20
186.074941
 30
0.0
 11
303.90057
 21
186.074941
 31
0.0
  0
LINE
  5
C274
330
BEE0
100
AcDbEntity
  8
1
  6
Continuous
100
AcDbLine
 10
340.1255019999999
 20
184.111835
 30
0.0
 11
303.1255019999999
 21
184.111835
 31
0.0
  0
LINE
  5
C275
330
BEE0
100
AcDbEntity
  8
1
  6
Continuous
100
AcDbLine
 10
303.1255019999999
 20
182.498601
 30
0.0
 11
340.1255019999999
 21
182.498601
 31
0.0
  0
LINE
  5
C276
330
BEE0
100
AcDbEntity
  8
1
  6
Continuous
100
AcDbLine
 10
339.556732
 20
186.386448
 30
0.0
 11
303.8649279999999
 21
186.386448
 31
0.0
  0
LINE
  5
C277
330
BEE0
100
AcDbEntity
  8
1
  6
Continuous
100
AcDbLine
 10
305.0565529999999
 20
182.498601
 30
0.0
 11
337.8755019999999
 21
182.498601
 31
0.0
  0
LINE
  5
C278
330
BEE0
100
AcDbEntity
  8
1
  6
Continuous
100
AcDbLine
 10
326.69657
 20
184.111835
 30
0.0
 11
328.69657
 21
182.498601
 31
0.0
  0
LINE
  5
C279
330
BEE0
100
AcDbEntity
  8
1
  6
Continuous
100
AcDbLine
 10
329.2823559999998
 20
184.111835
 30
0.0
 11
327.2823559999999
 21
182.498601
 31
0.0
  0
LINE
  5
C27A
330
BEE0
100
AcDbEntity
  8
1
  6
Continuous
100
AcDbLine
 10
328.110783
 20
184.111835
 30
0.0
 11
330.110783
 21
182.498601
 31
0.0
  0
LINE
  5
C27B
330
BEE0
100
AcDbEntity
  8
1
  6
Continuous
100
AcDbLine
 10
332.353424
 20
184.111835
 30
0.0
 11
334.353424
 21
182.498601
 31
0.0
  0
ARC
  5
C27C
330
BEE0
100
AcDbEntity
  8
1
  6
Continuous
100
AcDbCircle
 10
339.3860759999999
 20
189.997448
 30
0.0
 40
3.611
100
AcDbArc
 50
270.0
 51
333.204343
  0
LINE
  5
C27D
330
BEE0
100
AcDbEntity
  8
1
  6
Continuous
100
AcDbLine
 10
340.1255019999999
 20
183.4108249999999
 30
0.0
 11
339.4244919999998
 21
184.111835
 31
0.0
  0
ARC
  5
C27E
330
BEE0
100
AcDbEntity
  8
1
  6
Continuous
100
AcDbCircle
 10
339.171171
 20
185.2579039999999
 30
0.0
 40
0.8364709999999998
100
AcDbArc
 50
19.341459
 51
77.625084
  0
ARC
  5
C27F
330
BEE0
100
AcDbEntity
  8
1
  6
Continuous
100
AcDbCircle
 10
333.713728
 20
186.963186
 30
0.0
 40
6.407901999999999
100
AcDbArc
 50
333.5783109999999
 51
347.121283
  0
LINE
  5
C280
330
BEE0
100
AcDbEntity
  8
1
  6
Continuous
100
AcDbLine
 10
340.1255019999999
 20
184.111835
 30
0.0
 11
340.1255019999999
 21
182.498601
 31
0.0
  0
LINE
  5
C281
330
BEE0
100
AcDbEntity
  8
1
  6
Continuous
100
AcDbLine
 10
338.0102779999999
 20
184.111835
 30
0.0
 11
340.0102779999999
 21
182.498601
 31
0.0
  0
LINE
  5
C282
330
BEE0
100
AcDbEntity
  8
1
  6
Continuous
100
AcDbLine
 10
340.1255019999999
 20
183.641272
 30
0.0
 11
338.596065
 21
182.498601
 31
0.0
  0
LINE
  5
C283
330
BEE0
100
AcDbEntity
  8
1
  6
Continuous
100
AcDbLine
 10
335.181851
 20
184.111835
 30
0.0
 11
337.181851
 21
182.498601
 31
0.0
  0
LINE
  5
C284
330
BEE0
100
AcDbEntity
  8
1
  6
Continuous
100
AcDbLine
 10
336.596065
 20
184.111835
 30
0.0
 11
338.596065
 21
182.498601
 31
0.0
  0
LINE
  5
C285
330
BEE0
100
AcDbEntity
  8
1
  6
Continuous
100
AcDbLine
 10
337.767638
 20
184.111835
 30
0.0
 11
335.767638
 21
182.498601
 31
0.0
  0
LINE
  5
C286
330
BEE0
100
AcDbEntity
  8
1
  6
Continuous
100
AcDbLine
 10
333.7676379999999
 20
184.111835
 30
0.0
 11
335.767638
 21
182.498601
 31
0.0
  0
LINE
  5
C287
330
BEE0
100
AcDbEntity
  8
1
  6
Continuous
100
AcDbLine
 10
334.939211
 20
184.111835
 30
0.0
 11
332.939211
 21
182.498601
 31
0.0
  0
LINE
  5
C288
330
BEE0
100
AcDbEntity
  8
1
  6
Continuous
100
AcDbLine
 10
329.5249969999999
 20
184.111835
 30
0.0
 11
331.5249969999999
 21
182.498601
 31
0.0
  0
LINE
  5
C289
330
BEE0
100
AcDbEntity
  8
1
  6
Continuous
100
AcDbLine
 10
330.939211
 20
184.111835
 30
0.0
 11
332.939211
 21
182.498601
 31
0.0
  0
LINE
  5
C28A
330
BEE0
100
AcDbEntity
  8
1
  6
Continuous
100
AcDbLine
 10
332.110783
 20
184.111835
 30
0.0
 11
330.110783
 21
182.498601
 31
0.0
  0
ARC
  5
C28B
330
BEE0
100
AcDbEntity
  8
1
  6
Continuous
100
AcDbCircle
 10
341.9127369999998
 20
180.0548349999999
 30
0.0
 40
0.72932
100
AcDbArc
 50
177.3053509999998
 51
188.6832409999999
  0
ARC
  5
C28C
330
BEE0
100
AcDbEntity
  8
1
  6
Continuous
100
AcDbCircle
 10
341.433175
 20
179.9815949999999
 30
0.0
 40
0.2441969999999999
100
AcDbArc
 50
188.6832409999999
 51
225.96857
  0
ARC
  5
C28D
330
BEE0
100
AcDbEntity
  8
1
  6
Continuous
100
AcDbCircle
 10
342.1495929999999
 20
188.665634
 30
0.0
 40
8.995680999999997
100
AcDbArc
 50
265.980787
 51
270.813752
  0
ARC
  5
C28E
330
BEE0
100
AcDbEntity
  8
1
  6
Continuous
100
AcDbCircle
 10
341.547747
 20
180.1001079999998
 30
0.0
 40
0.409037
100
AcDbArc
 50
225.96857
 51
265.980787
  0
ARC
  5
C28F
330
BEE0
100
AcDbEntity
  8
1
  6
Continuous
100
AcDbCircle
 10
337.276814
 20
178.155862
 30
0.0
 40
4.359511999999998
100
AcDbArc
 50
26.32472
 51
84.97236800000001
  0
ARC
  5
C290
330
BEE0
100
AcDbEntity
  8
1
  6
Continuous
100
AcDbCircle
 10
342.7579789999999
 20
185.919971
 30
0.0
 40
6.267566999999997
100
AcDbArc
 50
265.601965
 51
272.995108
  0
LINE
  5
C291
330
BEE0
100
AcDbEntity
  8
1
  6
Continuous
100
AcDbLine
 10
342.7579789999999
 20
179.6524039999999
 30
0.0
 11
336.1574589999999
 21
179.6524039999999
 31
0.0
  0
LINE
  5
C292
330
BEE0
100
AcDbEntity
  8
1
  6
Continuous
100
AcDbLine
 10
312.5544339999998
 20
184.111835
 30
0.0
 11
314.5544339999998
 21
182.498601
 31
0.0
  0
LINE
  5
C293
330
BEE0
100
AcDbEntity
  8
1
  6
Continuous
100
AcDbLine
 10
315.140221
 20
184.111835
 30
0.0
 11
313.140221
 21
182.498601
 31
0.0
  0
LINE
  5
C294
330
BEE0
100
AcDbEntity
  8
1
  6
Continuous
100
AcDbLine
 10
316.797075
 20
184.111835
 30
0.0
 11
318.797075
 21
182.498601
 31
0.0
  0
LINE
  5
C295
330
BEE0
100
AcDbEntity
  8
1
  6
Continuous
100
AcDbLine
 10
315.382861
 20
184.111835
 30
0.0
 11
317.382861
 21
182.498601
 31
0.0
  0
LINE
  5
C296
330
BEE0
100
AcDbEntity
  8
1
  6
Continuous
100
AcDbLine
 10
317.9686479999999
 20
184.111835
 30
0.0
 11
315.9686479999999
 21
182.498601
 31
0.0
  0
LINE
  5
C297
330
BEE0
100
AcDbEntity
  8
1
  6
Continuous
100
AcDbLine
 10
321.0397159999998
 20
184.111835
 30
0.0
 11
323.0397159999998
 21
182.498601
 31
0.0
  0
LINE
  5
C298
330
BEE0
100
AcDbEntity
  8
1
  6
Continuous
100
AcDbLine
 10
322.453929
 20
184.111835
 30
0.0
 11
324.453929
 21
182.498601
 31
0.0
  0
LINE
  5
C299
330
BEE0
100
AcDbEntity
  8
1
  6
Continuous
100
AcDbLine
 10
323.6255019999999
 20
184.111835
 30
0.0
 11
321.6255019999999
 21
182.498601
 31
0.0
  0
LINE
  5
C29A
330
BEE0
100
AcDbEntity
  8
1
  6
Continuous
100
AcDbLine
 10
319.6255019999999
 20
184.111835
 30
0.0
 11
321.6255019999999
 21
182.498601
 31
0.0
  0
LINE
  5
C29B
330
BEE0
100
AcDbEntity
  8
1
  6
Continuous
100
AcDbLine
 10
325.2823559999999
 20
184.111835
 30
0.0
 11
327.2823559999999
 21
182.498601
 31
0.0
  0
LINE
  5
C29C
330
BEE0
100
AcDbEntity
  8
1
  6
Continuous
100
AcDbLine
 10
323.8681429999999
 20
184.111835
 30
0.0
 11
325.8681429999999
 21
182.498601
 31
0.0
  0
LINE
  5
C29D
330
BEE0
100
AcDbEntity
  8
1
  6
Continuous
100
AcDbLine
 10
326.453929
 20
184.111835
 30
0.0
 11
324.453929
 21
182.498601
 31
0.0
  0
LINE
  5
C29E
330
BEE0
100
AcDbEntity
  8
1
  6
Continuous
100
AcDbLine
 10
318.2112879999999
 20
184.111835
 30
0.0
 11
320.2112879999999
 21
182.498601
 31
0.0
  0
LINE
  5
C29F
330
BEE0
100
AcDbEntity
  8
1
  6
Continuous
100
AcDbLine
 10
320.797075
 20
184.111835
 30
0.0
 11
318.797075
 21
182.498601
 31
0.0
  0
LINE
  5
C2A0
330
BEE0
100
AcDbEntity
  8
1
  6
Continuous
100
AcDbLine
 10
313.9686479999999
 20
184.111835
 30
0.0
 11
315.9686479999999
 21
182.498601
 31
0.0
  0
LINE
  5
C2A1
330
BEE0
100
AcDbEntity
  8
1
  6
Continuous
100
AcDbLine
 10
303.8265119999999
 20
184.111835
 30
0.0
 11
303.1255019999999
 21
183.4108249999999
 31
0.0
  0
ARC
  5
C2A2
330
BEE0
100
AcDbEntity
  8
1
  6
Continuous
100
AcDbCircle
 10
304.079833
 20
185.2579039999999
 30
0.0
 40
0.8364709999999998
100
AcDbArc
 50
102.3749159999999
 51
160.6585409999999
  0
ARC
  5
C2A3
330
BEE0
100
AcDbEntity
  8
1
  6
Continuous
100
AcDbCircle
 10
309.5372759999999
 20
186.963186
 30
0.0
 40
6.407901999999999
100
AcDbArc
 50
192.8787169999999
 51
205.64444
  0
LINE
  5
C2A4
330
BEE0
100
AcDbEntity
  8
1
  6
Continuous
100
AcDbLine
 10
303.1255019999999
 20
184.111835
 30
0.0
 11
303.1255019999999
 21
182.498601
 31
0.0
  0
LINE
  5
C2A5
330
BEE0
100
AcDbEntity
  8
1
  6
Continuous
100
AcDbLine
 10
303.1255019999999
 20
182.6138239999999
 30
0.0
 11
303.2407259999998
 21
182.498601
 31
0.0
  0
LINE
  5
C2A6
330
BEE0
100
AcDbEntity
  8
1
  6
Continuous
100
AcDbLine
 10
305.4833659999999
 20
184.111835
 30
0.0
 11
307.4833659999999
 21
182.498601
 31
0.0
  0
LINE
  5
C2A7
330
BEE0
100
AcDbEntity
  8
1
  6
Continuous
100
AcDbLine
 10
306.654939
 20
184.111835
 30
0.0
 11
304.654939
 21
182.498601
 31
0.0
  0
LINE
  5
C2A8
330
BEE0
100
AcDbEntity
  8
1
  6
Continuous
100
AcDbLine
 10
304.0691529999999
 20
184.111835
 30
0.0
 11
306.0691529999999
 21
182.498601
 31
0.0
  0
LINE
  5
C2A9
330
BEE0
100
AcDbEntity
  8
1
  6
Continuous
100
AcDbLine
 10
303.1255019999999
 20
183.641272
 30
0.0
 11
304.654939
 21
182.498601
 31
0.0
  0
LINE
  5
C2AA
330
BEE0
100
AcDbEntity
  8
1
  6
Continuous
100
AcDbLine
 10
308.311794
 20
184.111835
 30
0.0
 11
310.311794
 21
182.498601
 31
0.0
  0
LINE
  5
C2AB
330
BEE0
100
AcDbEntity
  8
1
  6
Continuous
100
AcDbLine
 10
306.89758
 20
184.111835
 30
0.0
 11
308.89758
 21
182.498601
 31
0.0
  0
LINE
  5
C2AC
330
BEE0
100
AcDbEntity
  8
1
  6
Continuous
100
AcDbLine
 10
309.4833659999999
 20
184.111835
 30
0.0
 11
307.4833659999999
 21
182.498601
 31
0.0
  0
ARC
  5
C2AD
330
BEE0
100
AcDbEntity
  8
1
  6
Continuous
100
AcDbCircle
 10
303.8649279999999
 20
189.997448
 30
0.0
 40
3.611
100
AcDbArc
 50
206.795657
 51
270.0
  0
LINE
  5
C2AE
330
BEE0
100
AcDbEntity
  8
4
  6
CENTER
100
AcDbLine
 10
298.1255019999998
 20
183.369573
 30
0.0
 11
298.1255019999998
 21
194.9908529999999
 31
0.0
  0
ARC
  5
C2AF
330
BEE0
100
AcDbEntity
  8
1
  6
Continuous
100
AcDbCircle
 10
305.6958179999999
 20
180.3367859999999
 30
0.0
 40
2.254351999999999
100
AcDbArc
 50
106.473291
 51
134.206902
  0
ARC
  5
C2B0
330
BEE0
100
AcDbEntity
  8
1
  6
Continuous
100
AcDbCircle
 10
313.484208
 20
176.704375
 30
0.0
 40
10.81643699999998
100
AcDbArc
 50
160.4403529999999
 51
162.882645
  0
ARC
  5
C2B1
330
BEE0
100
AcDbEntity
  8
1
  6
Continuous
100
AcDbCircle
 10
307.7319689999999
 20
178.4759019999999
 30
0.0
 40
4.797585999999999
100
AcDbArc
 50
162.882645
 51
177.353025
  0
ARC
  5
C2B2
330
BEE0
100
AcDbEntity
  8
1
  6
Continuous
100
AcDbCircle
 10
295.9557439999999
 20
178.5241919999999
 30
0.0
 40
6.985907
100
AcDbArc
 50
353.0180029999999
 51
1.421261
  0
ARC
  5
C2B3
330
BEE0
100
AcDbEntity
  8
1
  6
Continuous
100
AcDbCircle
 10
307.864618
 20
179.01377
 30
0.0
 40
4.757115999999999
100
AcDbArc
 50
141.843592
 51
163.9927399999999
  0
LINE
  5
C2B4
330
BEE0
100
AcDbEntity
  8
1
  6
Continuous
100
AcDbLine
 10
291.6255019999999
 20
188.369573
 30
0.0
 11
291.6255019999999
 21
190.369876
 31
0.0
  0
LINE
  5
C2B5
330
BEE0
100
AcDbEntity
  8
1
  6
Continuous
100
AcDbLine
 10
122.697355
 20
231.653843
 30
0.0
 11
129.1198959999998
 21
231.653843
 31
0.0
  0
LINE
  5
C2B6
330
BEE0
100
AcDbEntity
  8
1
  6
Continuous
100
AcDbLine
 10
61.026562
 20
140.784931
 30
0.0
 11
61.023239
 21
139.2125
 31
0.0
  0
LINE
  5
C2B7
330
BEE0
100
AcDbEntity
  8
1
  6
Continuous
100
AcDbLine
 10
63.039103
 20
146.7167889999998
 30
0.0
 11
63.02324399999999
 21
139.2125
 31
0.0
  0
CIRCLE
  5
C2B8
330
BEE0
100
AcDbEntity
  8
1
  6
Continuous
100
AcDbCircle
 10
341.625617
 20
148.369876
 30
0.0
 40
4.25
  0
ARC
  5
C2B9
330
BEE0
100
AcDbEntity
  8
1
  6
Continuous
100
AcDbCircle
 10
129.408073
 20
148.369876
 30
0.0
 40
25.0
100
AcDbArc
 50
194.7316149999998
 51
330.9471909999999
  0
ARC
  5
C2BA
330
BEE0
100
AcDbEntity
  8
1
  6
Continuous
100
AcDbCircle
 10
129.408073
 20
148.369876
 30
0.0
 40
19.5
100
AcDbArc
 50
207.6423759999999
 51
325.056438
  0
ARC
  5
C2BB
330
BEE0
100
AcDbEntity
  8
1
  6
Continuous
100
AcDbCircle
 10
129.408073
 20
148.369876
 30
0.0
 40
19.5
100
AcDbArc
 50
18.039978
 51
27.689818
  0
ARC
  5
C2BC
330
BEE0
100
AcDbEntity
  8
1
  6
Continuous
100
AcDbCircle
 10
129.408073
 20
148.369876
 30
0.0
 40
25.0
100
AcDbArc
 50
16.500264
 51
34.430256
  0
LINE
  5
C2BD
330
BEE0
100
AcDbEntity
  8
1
  6
Continuous
100
AcDbLine
 10
131.608076
 20
90.32876599999999
 30
0.0
 11
135.4073249999999
 21
90.32876599999999
 31
0.0
  0
LINE
  5
C2BE
330
BEE0
100
AcDbEntity
  8
1
  6
Continuous
100
AcDbLine
 10
68.44305
 20
154.1486909999998
 30
0.0
 11
68.44305
 21
157.0683309999998
 31
0.0
  0
LINE
  5
C2BF
330
BEE0
100
AcDbEntity
  8
1
  6
Continuous
100
AcDbLine
 10
70.743053
 20
154.0561759999999
 30
0.0
 11
70.743053
 21
155.071631
 31
0.0
  0
LINE
  5
C2C0
330
BEE0
100
AcDbEntity
  8
1
  6
Continuous
100
AcDbLine
 10
127.408073
 20
223.210984
 30
0.0
 11
131.408073
 21
223.210984
 31
0.0
  0
LINE
  5
C2C1
330
BEE0
100
AcDbEntity
  8
1
  6
Continuous
100
AcDbLine
 10
127.408073
 20
223.210984
 30
0.0
 11
126.9652129999999
 21
223.6538429999999
 31
0.0
  0
LINE
  5
C2C2
330
BEE0
100
AcDbEntity
  8
1
  6
Continuous
100
AcDbLine
 10
131.408073
 20
223.210984
 30
0.0
 11
131.8509319999998
 21
223.6538429999999
 31
0.0
  0
LINE
  5
C2C3
330
BEE0
100
AcDbEntity
  8
4
  6
CENTER
100
AcDbLine
 10
149.408073
 20
95.52876899999999
 30
0.0
 11
149.408073
 21
41.085669
 31
0.0
  0
ARC
  5
C2C4
330
BEE0
100
AcDbEntity
  8
1
  6
Continuous
100
AcDbCircle
 10
231.7763649999999
 20
166.1760909999999
 30
0.0
 40
13.262575
100
AcDbArc
 50
133.679923
 51
175.810882
  0
ARC
  5
C2C5
330
BEE0
100
AcDbEntity
  8
1
  6
Continuous
100
AcDbCircle
 10
297.4320859999999
 20
162.4823079999999
 30
0.0
 40
79.02195899999998
100
AcDbArc
 50
176.7633749999999
 51
183.473732
  0
ARC
  5
C2C6
330
BEE0
100
AcDbEntity
  8
1
  6
Continuous
100
AcDbCircle
 10
235.6273709999999
 20
157.6942949999998
 30
0.0
 40
17.07205599999999
100
AcDbArc
 50
180.0
 51
187.486925
  0
ARC
  5
C2C7
330
BEE0
100
AcDbEntity
  8
1
  6
Continuous
100
AcDbCircle
 10
210.7859359999999
 20
142.5917279999999
 30
0.0
 40
12.0
100
AcDbArc
 50
0.121082
 51
31.297875
  0
LINE
  5
C2C8
330
BEE0
100
AcDbEntity
  8
1
  6
Continuous
100
AcDbLine
 10
220.793111
 20
139.2066269999999
 30
0.0
 11
222.793116
 21
139.2066269999999
 31
0.0
  0
ARC
  5
C2C9
330
BEE0
100
AcDbEntity
  8
1
  6
Continuous
100
AcDbCircle
 10
233.5889009999999
 20
157.6942949999998
 30
0.0
 40
17.07205599999999
100
AcDbArc
 50
180.0
 51
187.486925
  0
ARC
  5
C2CA
330
BEE0
100
AcDbEntity
  8
1
  6
Continuous
100
AcDbCircle
 10
208.7860649999998
 20
142.5284199999999
 30
0.0
 40
12.0
100
AcDbArc
 50
0.12108
 51
19.57145999999999
  0
LINE
  5
C2CB
330
BEE0
100
AcDbEntity
  8
1
  6
Continuous
100
AcDbLine
 10
220.786038
 20
142.5537789999999
 30
0.0
 11
220.793111
 21
139.2066269999999
 31
0.0
  0
ARC
  5
C2CC
330
BEE0
100
AcDbEntity
  8
1
  6
Continuous
100
AcDbCircle
 10
213.2228449999999
 20
157.3624669999998
 30
0.0
 40
2.0
100
AcDbArc
 50
0.0
 51
90.00000300000001
  0
ARC
  5
C2CD
330
BEE0
100
AcDbEntity
  8
1
  6
Continuous
100
AcDbCircle
 10
217.222844
 20
157.3624669999998
 30
0.0
 40
2.0
100
AcDbArc
 50
116.433237
 51
157.445721
  0
ARC
  5
C2CE
330
BEE0
100
AcDbEntity
  8
1
  6
Continuous
100
AcDbCircle
 10
212.9228439999999
 20
142.2391899999998
 30
0.0
 40
0.8
100
AcDbArc
 50
179.999989
 51
270.00001
  0
ARC
  5
C2CF
330
BEE0
100
AcDbEntity
  8
1
  6
Continuous
100
AcDbCircle
 10
211.922844
 20
144.603597
 30
0.0
 40
1.0
100
AcDbArc
 50
0.0
 51
90.00000300000001
  0
ARC
  5
C2D0
330
BEE0
100
AcDbEntity
  8
1
  6
Continuous
100
AcDbCircle
 10
213.2228449999999
 20
155.0223369999999
 30
0.0
 40
2.0
100
AcDbArc
 50
0.0
 51
90.00000300000001
  0
ARC
  5
C2D1
330
BEE0
100
AcDbEntity
  8
1
  6
Continuous
100
AcDbCircle
 10
213.2228449999999
 20
145.560177
 30
0.0
 40
2.0
100
AcDbArc
 50
0.0
 51
90.00000300000001
  0
ARC
  5
C2D2
330
BEE0
100
AcDbEntity
  8
1
  6
Continuous
100
AcDbCircle
 10
201.222845
 20
156.0223369999999
 30
0.0
 40
1.0
100
AcDbArc
 50
90.00000300000001
 51
180.0000029999999
  0
ARC
  5
C2D3
330
BEE0
100
AcDbEntity
  8
1
  6
Continuous
100
AcDbCircle
 10
201.222845
 20
146.603597
 30
0.0
 40
1.0
100
AcDbArc
 50
179.999989
 51
270.00001
  0
ARC
  5
C2D4
330
BEE0
100
AcDbEntity
  8
1
  6
Continuous
100
AcDbCircle
 10
201.222845
 20
148.560177
 30
0.0
 40
1.0
100
AcDbArc
 50
179.999989
 51
270.00001
  0
LINE
  5
C2D5
330
BEE0
100
AcDbEntity
  8
1
  6
Continuous
100
AcDbLine
 10
215.2228449999999
 20
139.2810829999999
 30
0.0
 11
220.3661439999999
 21
139.2810829999999
 31
0.0
  0
LINE
  5
C2D6
330
BEE0
100
AcDbEntity
  8
1
  6
Continuous
100
AcDbLine
 10
212.3661449999999
 20
157.0624669999999
 30
0.0
 11
212.3661449999999
 21
159.3624669999998
 31
0.0
  0
LINE
  5
C2D7
330
BEE0
100
AcDbEntity
  8
1
  6
Continuous
100
AcDbLine
 10
204.8661459999999
 20
157.0223369999999
 30
0.0
 11
204.8661459999999
 21
159.3624669999998
 31
0.0
  0
LINE
  5
C2D8
330
BEE0
100
AcDbEntity
  8
1
  6
Continuous
100
AcDbLine
 10
220.3661439999999
 20
139.2810829999999
 30
0.0
 11
220.3661439999999
 21
145.675126
 31
0.0
  0
LINE
  5
C2D9
330
BEE0
100
AcDbEntity
  8
1
  6
Continuous
100
AcDbLine
 10
216.5168449999999
 20
159.3624669999998
 30
0.0
 11
204.8661459999999
 21
159.3624669999998
 31
0.0
  0
LINE
  5
C2DA
330
BEE0
100
AcDbEntity
  8
1
  6
Continuous
100
AcDbLine
 10
212.1228439999999
 20
142.2391899999998
 30
0.0
 11
212.1228439999999
 21
145.583393
 31
0.0
  0
LINE
  5
C2DB
330
BEE0
100
AcDbEntity
  8
1
  6
Continuous
100
AcDbLine
 10
218.782102
 20
153.169807
 30
0.0
 11
215.2228449999999
 21
153.169807
 31
0.0
  0
LINE
  5
C2DC
330
BEE0
100
AcDbEntity
  8
1
  6
Continuous
100
AcDbLine
 10
218.782102
 20
155.469807
 30
0.0
 11
215.2228449999999
 21
155.469807
 31
0.0
  0
LINE
  5
C2DD
330
BEE0
100
AcDbEntity
  8
1
  6
Continuous
100
AcDbLine
 10
212.9228439999999
 20
136.029199
 30
0.0
 11
212.9228439999999
 21
144.603597
 31
0.0
  0
LINE
  5
C2DE
330
BEE0
100
AcDbEntity
  8
1
  6
Continuous
100
AcDbLine
 10
215.2228449999999
 20
136.029199
 30
0.0
 11
212.9228439999999
 21
136.029199
 31
0.0
  0
LINE
  5
C2DF
330
BEE0
100
AcDbEntity
  8
1
  6
Continuous
100
AcDbLine
 10
211.922844
 20
145.603597
 30
0.0
 11
201.222845
 21
145.603597
 31
0.0
  0
LINE
  5
C2E0
330
BEE0
100
AcDbEntity
  8
1
  6
Continuous
100
AcDbLine
 10
213.2228449999999
 20
147.560177
 30
0.0
 11
201.222845
 21
147.560177
 31
0.0
  0
LINE
  5
C2E1
330
BEE0
100
AcDbEntity
  8
1
  6
Continuous
100
AcDbLine
 10
213.2228449999999
 20
157.0223369999999
 30
0.0
 11
201.222845
 21
157.0223369999999
 31
0.0
  0
LINE
  5
C2E2
330
BEE0
100
AcDbEntity
  8
1
  6
Continuous
100
AcDbLine
 10
218.782102
 20
153.169807
 30
0.0
 11
218.782102
 21
155.469807
 31
0.0
  0
LINE
  5
C2E3
330
BEE0
100
AcDbEntity
  8
1
  6
Continuous
100
AcDbLine
 10
215.2228449999999
 20
136.029199
 30
0.0
 11
215.2228449999999
 21
157.3624669999998
 31
0.0
  0
LINE
  5
C2E4
330
BEE0
100
AcDbEntity
  8
1
  6
Continuous
100
AcDbLine
 10
200.222845
 20
146.603597
 30
0.0
 11
200.222845
 21
156.0223369999999
 31
0.0
  0
LINE
  5
C2E5
330
BEE0
100
AcDbEntity
  8
1
  6
Continuous
100
AcDbLine
 10
219.3493839999999
 20
152.5482069999999
 30
0.0
 11
215.2228449999999
 21
152.5482069999999
 31
0.0
  0
LINE
  5
C2E6
330
BEE0
100
AcDbEntity
  8
1
  6
Continuous
100
AcDbLine
 10
222.114937
 20
146.548207
 30
0.0
 11
220.0839569999998
 21
146.548207
 31
0.0
  0
ARC
  5
C2E7
330
BEE0
100
AcDbEntity
  8
1
  6
Continuous
100
AcDbCircle
 10
233.5889009999999
 20
157.6942949999998
 30
0.0
 40
17.07205599999999
100
AcDbArc
 50
195.368321
 51
197.543717
  0
ARC
  5
C2E8
330
BEE0
100
AcDbEntity
  8
1
  6
Continuous
100
AcDbCircle
 10
235.6273709999999
 20
157.6942949999998
 30
0.0
 40
17.07205599999999
100
AcDbArc
 50
189.3494439999998
 51
211.2978749999999
  0
LINE
  5
C2E9
330
BEE0
100
AcDbEntity
  8
1
  6
Continuous
100
AcDbLine
 10
63.076405
 20
164.3683409999999
 30
0.0
 11
67.299511
 21
159.3683409999998
 31
0.0
  0
ARC
  5
C2EA
330
BEE0
100
AcDbEntity
  8
1
  6
Continuous
100
AcDbCircle
 10
233.5889009999999
 20
157.6942949999998
 30
0.0
 40
17.07205599999999
100
AcDbArc
 50
197.543717
 51
211.417249
  0
ARC
  5
C2EB
330
BEE0
100
AcDbEntity
  8
1
  6
Continuous
100
AcDbCircle
 10
208.77335
 20
142.5394449999998
 30
0.0
 40
12.0
100
AcDbArc
 50
19.51560299999998
 51
31.420381
  0
LINE
  5
C2EC
330
BEE0
100
AcDbEntity
  8
1
  6
Continuous
100
AcDbLine
 10
369.958074
 20
151.946086
 30
0.0
 11
366.3685089999999
 21
151.946086
 31
0.0
  0
LINE
  5
C2ED
330
BEE0
100
AcDbEntity
  8
5
  6
PHANTOM
100
AcDbLine
 10
369.435737
 20
141.880299
 30
0.0
 11
366.0697569999999
 21
143.1273559999999
 31
0.0
  0
LINE
  5
C2EE
330
BEE0
100
AcDbEntity
  8
1
  6
Continuous
100
AcDbLine
 10
317.2467299999999
 20
153.9079169999999
 30
0.0
 11
313.099999
 21
153.9079169999999
 31
0.0
  0
LINE
  5
C2EF
330
BEE0
100
AcDbEntity
  8
5
  6
PHANTOM
100
AcDbLine
 10
320.689209
 20
162.032483
 30
0.0
 11
316.800767
 21
163.4731069999999
 31
0.0
  0
ENDSEC
  0
SECTION
  2
OBJECTS
  0
DICTIONARY
  5
BECE
330
0
100
AcDbDictionary
281
     1
  3
ACAD_CIP_PREVIOUS_PRODUCT_INFO
350
C351
  3
ACAD_COLOR
350
C333
  3
ACAD_DETAILVIEWSTYLE
350
C34C
  3
ACAD_GROUP
350
BECF
  3
ACAD_LAYOUT
350
BEDB
  3
ACAD_MATERIAL
350
C301
  3
ACAD_MLEADERSTYLE
350
C348
  3
ACAD_MLINESTYLE
350
BED8
  3
ACAD_PLOTSETTINGS
350
BEDA
  3
ACAD_PLOTSTYLENAME
350
C2FF
  3
ACAD_SCALELIST
350
C336
  3
ACAD_SECTIONVIEWSTYLE
350
C34A
  3
ACAD_TABLESTYLE
350
C334
  3
ACAD_VISUALSTYLE
350
C31A
  3
ACDB_RECOMPOSE_DATA
350
C36F
  3
AcDbVariableDictionary
350
C362
  3
DWGPROPS
350
C370
  0
DICTIONARY
  5
C352
330
BED2
100
AcDbDictionary
280
     1
281
     1
  3
ADSK_XREC_LAYER_RECONCILED
360
C353
  0
DICTIONARY
  5
C354
330
BEE8
100
AcDbDictionary
280
     1
281
     1
  3
ADSK_XREC_LAYER_RECONCILED
360
C355
  0
DICTIONARY
  5
C356
330
BEE9
100
AcDbDictionary
280
     1
281
     1
  3
ADSK_XREC_LAYER_RECONCILED
360
C357
  0
DICTIONARY
  5
C358
330
BEEA
100
AcDbDictionary
280
     1
281
     1
  3
ADSK_XREC_LAYER_RECONCILED
360
C359
  0
DICTIONARY
  5
C35A
330
BEEB
100
AcDbDictionary
280
     1
281
     1
  3
ADSK_XREC_LAYER_RECONCILED
360
C35B
  0
DICTIONARY
  5
C35C
330
BEEC
100
AcDbDictionary
280
     1
281
     1
  3
ADSK_XREC_LAYER_RECONCILED
360
C35D
  0
DICTIONARY
  5
C35E
330
BEED
100
AcDbDictionary
280
     1
281
     1
  3
ADSK_XREC_LAYER_RECONCILED
360
C35F
  0
DICTIONARY
  5
C360
330
BEEE
100
AcDbDictionary
280
     1
281
     1
  3
ADSK_XREC_LAYER_RECONCILED
360
C361
  0
DICTIONARY
  5
C2FA
330
BEE0
100
AcDbDictionary
281
     1
  3
ACAD_LAYOUTSELFREF
350
C2FB
  0
DICTIONARY
  5
C2F8
330
BEDC
100
AcDbDictionary
281
     1
  3
ACAD_LAYOUTSELFREF
350
C2F9
  0
XRECORD
  5
C351
102
{ACAD_REACTORS
330
BECE
102
}
330
BECE
100
AcDbXrecord
280
     1
300
ACDLT
300
2014
300
ACDLT_F_S
  0
DICTIONARY
  5
C333
102
{ACAD_REACTORS
330
BECE
102
}
330
BECE
100
AcDbDictionary
281
     1
  0
DICTIONARY
  5
C34C
102
{ACAD_REACTORS
330
BECE
102
}
330
BECE
100
AcDbDictionary
281
     1
  3
Imperial24
350
C34D
  0
DICTIONARY
  5
BECF
102
{ACAD_REACTORS
330
BECE
102
}
330
BECE
100
AcDbDictionary
281
     1
  0
DICTIONARY
  5
BEDB
102
{ACAD_REACTORS
330
BECE
102
}
330
BECE
100
AcDbDictionary
281
     1
  3
Model
350
C34E
  3
レイアウト1
350
C34F
  0
DICTIONARY
  5
C301
102
{ACAD_REACTORS
330
BECE
102
}
330
BECE
100
AcDbDictionary
281
     1
  3
ByBlock
350
C30A
  3
ByLayer
350
C302
  3
Global
350
C312
  0
DICTIONARY
  5
C348
102
{ACAD_REACTORS
330
BECE
102
}
330
BECE
100
AcDbDictionary
281
     1
  3
Standard
350
C349
  0
DICTIONARY
  5
BED8
102
{ACAD_REACTORS
330
BECE
102
}
330
BECE
100
AcDbDictionary
281
     1
  3
STANDARD
350
BED9
  0
DICTIONARY
  5
BEDA
102
{ACAD_REACTORS
330
BECE
102
}
330
BECE
100
AcDbDictionary
281
     1
  0
ACDBDICTIONARYWDFLT
  5
C2FF
102
{ACAD_REACTORS
330
BECE
102
}
330
BECE
100
AcDbDictionary
281
     1
  3
Normal
350
C300
100
AcDbDictionaryWithDefault
340
C300
  0
DICTIONARY
  5
C336
102
{ACAD_REACTORS
330
BECE
102
}
330
BECE
100
AcDbDictionary
281
     1
  3
A0
350
C337
  3
A1
350
C338
  3
A2
350
C339
  3
A3
350
C33A
  3
A4
350
C33B
  3
A5
350
C33C
  3
A6
350
C33D
  3
A7
350
C33E
  3
A8
350
C33F
  3
A9
350
C340
  3
B0
350
C341
  3
B1
350
C342
  3
B2
350
C343
  3
B3
350
C344
  3
B4
350
C345
  3
B5
350
C346
  3
B6
350
C347
  0
DICTIONARY
  5
C34A
102
{ACAD_REACTORS
330
BECE
102
}
330
BECE
100
AcDbDictionary
281
     1
  3
Imperial24
350
C34B
  0
DICTIONARY
  5
C334
102
{ACAD_REACTORS
330
BECE
102
}
330
BECE
100
AcDbDictionary
281
     1
  3
Standard
350
C335
  0
DICTIONARY
  5
C31A
102
{ACAD_REACTORS
330
BECE
102
}
330
BECE
100
AcDbDictionary
281
     1
  3
2dWireframe
350
C320
  3
Basic
350
C31F
  3
Brighten
350
C326
  3
ColorChange
350
C32A
  3
Conceptual
350
C323
  3
Dim
350
C325
  3
EdgeColorOff
350
C332
  3
Facepattern
350
C329
  3
Flat
350
C31B
  3
FlatWithEdges
350
C31C
  3
Gouraud
350
C31D
  3
GouraudWithEdges
350
C31E
  3
Hidden
350
C322
  3
JitterOff
350
C330
  3
Linepattern
350
C328
  3
OverhangOff
350
C331
  3
Realistic
350
C324
  3
Shaded
350
C32F
  3
Shaded with edges
350
C32E
  3
Shades of Gray
350
C32B
  3
Sketchy
350
C32C
  3
Thicken
350
C327
  3
Wireframe
350
C321
  3
X-Ray
350
C32D
  0
XRECORD
  5
C36F
102
{ACAD_REACTORS
330
BECE
102
}
330
BECE
100
AcDbXrecord
280
     1
 90
        1
330
C335
  0
DICTIONARY
  5
C362
102
{ACAD_REACTORS
330
BECE
102
}
330
BECE
100
AcDbDictionary
281
     1
  3
CANNOSCALE
350
C367
  3
CMLEADERSTYLE
350
C364
  3
CTABLESTYLE
350
C363
  3
CVIEWDETAILSTYLE
350
C365
  3
CVIEWSECTIONSTYLE
350
C366
  3
DIMASSOC
350
C36A
  3
INDEXCTL
350
C369
  3
SORTENTS
350
C368
  3
XCLIPFRAME
350
C36B
  0
XRECORD
  5
C370
102
{ACAD_REACTORS
330
BECE
102
}
330
BECE
100
AcDbXrecord
280
     1
  1
DWGPROPS COOKIE
  2

  3

  4

  6

  7

  8
Yoshitsune
  9

300
=
301
=
302
=
303
=
304
=
305
=
306
=
307
=
308
=
309
=
 40
0.00001375
 41
2451301.694121528
 42
2457192.686777743
  1

 90
        0
  0
XRECORD
  5
C353
102
{ACAD_REACTORS
330
C352
102
}
330
C352
100
AcDbXrecord
280
     1
290
     1
  0
XRECORD
  5
C355
102
{ACAD_REACTORS
330
C354
102
}
330
C354
100
AcDbXrecord
280
     1
290
     1
  0
XRECORD
  5
C357
102
{ACAD_REACTORS
330
C356
102
}
330
C356
100
AcDbXrecord
280
     1
290
     1
  0
XRECORD
  5
C359
102
{ACAD_REACTORS
330
C358
102
}
330
C358
100
AcDbXrecord
280
     1
290
     1
  0
XRECORD
  5
C35B
102
{ACAD_REACTORS
330
C35A
102
}
330
C35A
100
AcDbXrecord
280
     1
290
     1
  0
XRECORD
  5
C35D
102
{ACAD_REACTORS
330
C35C
102
}
330
C35C
100
AcDbXrecord
280
     1
290
     1
  0
XRECORD
  5
C35F
102
{ACAD_REACTORS
330
C35E
102
}
330
C35E
100
AcDbXrecord
280
     1
290
     1
  0
XRECORD
  5
C361
102
{ACAD_REACTORS
330
C360
102
}
330
C360
100
AcDbXrecord
280
     1
290
     1
  0
XRECORD
  5
C2FB
102
{ACAD_REACTORS
330
C2FA
102
}
330
C2FA
100
AcDbXrecord
280
     1
340
BEE0
  0
XRECORD
  5
C2F9
102
{ACAD_REACTORS
330
C2F8
102
}
330
C2F8
100
AcDbXrecord
280
     1
340
BEDC
  0
ACDBDETAILVIEWSTYLE
  5
C34D
102
{ACAD_XDICTIONARY
360
C3A8
102
}
102
{ACAD_REACTORS
330
C34C
102
}
330
C34C
100
AcDbModelDocViewStyle
 70
     0
  3
Imperial24
290
     0
100
AcDbDetailViewStyle
 70
     0
 71
     0
 90
        3
 71
     1
340
BED3
 40
0.24
340
0
 40
0.24
300

 40
0.36
280
     3
 71
     2
340
BED7
 90
       25
 71
     3
340
BED3
 40
0.24
 90
        1
 40
0.75
 90
        1
300
%<\AcVar ViewType \f "%tc1">% %<\AcVar ViewDetailId>%\PSCALE %<\AcVar ViewScale \f "%sn">%
 71
     4
340
BED7
 90
       25
340
BED7
 90
       25
280
     0
  0
LAYOUT
  5
C34E
102
{ACAD_XDICTIONARY
360
C3AA
102
}
102
{ACAD_REACTORS
330
BEDB
102
}
330
BEDB
100
AcDbPlotSettings
  1

  2
Canon LBP9100C
  4

  6

 40
0.0
 41
0.0
 42
0.0
 43
0.0
 44
0.0
 45
0.0
 46
0.0
 47
0.0
 48
0.0
 49
0.0
140
0.0
141
0.0
142
1.0
143
1.0
 70
  1712
 72
     0
 73
     0
 74
     0
  7

 75
     0
147
1.0
148
0.0
149
0.0
100
AcDbLayout
  1
Model
 70
     1
 71
     0
 10
0.0
 20
0.0
 11
12.0
 21
9.0
 12
0.0
 22
0.0
 32
0.0
 14
0.0
 24
0.0
 34
0.0
 15
0.0
 25
0.0
 35
0.0
146
0.0
 13
0.0
 23
0.0
 33
0.0
 16
1.0
 26
0.0
 36
0.0
 17
0.0
 27
1.0
 37
0.0
 76
     0
330
BEE0
331
C2F7
  0
LAYOUT
  5
C34F
102
{ACAD_XDICTIONARY
360
C3AC
102
}
102
{ACAD_REACTORS
330
BEDB
102
}
330
BEDB
100
AcDbPlotSettings
  1

  2
Canon LBP9100C
  4

  6

 40
0.0
 41
0.0
 42
0.0
 43
0.0
 44
0.0
 45
0.0
 46
0.0
 47
0.0
 48
0.0
 49
0.0
140
0.0
141
0.0
142
1.0
143
1.0
 70
   688
 72
     0
 73
     0
 74
     5
  7

 75
    16
147
1.0
148
0.0
149
0.0
100
AcDbLayout
  1
レイアウト1
 70
     0
 71
     1
 10
0.0
 20
0.0
 11
420.0
 21
297.0
 12
0.0
 22
0.0
 32
0.0
 14
1.000000000000000E+20
 24
1.000000000000000E+20
 34
1.000000000000000E+20
 15
-1.000000000000000E+20
 25
-1.000000000000000E+20
 35
-1.000000000000000E+20
146
0.0
 13
0.0
 23
0.0
 33
0.0
 16
1.0
 26
0.0
 36
0.0
 17
0.0
 27
1.0
 37
0.0
 76
     0
330
BEDC
  0
MATERIAL
  5
C30A
102
{ACAD_XDICTIONARY
360
C30B
102
}
102
{ACAD_REACTORS
330
C301
102
}
330
C301
100
AcDbMaterial
  1
ByBlock
 72
     0
 43
0.0208333333333333
 43
0.0
 43
0.0
 43
0.0
 43
0.0
 43
0.0208333333333333
 43
0.0
 43
0.0
 43
0.0
 43
0.0
 43
1.0
 43
0.0
 43
0.0
 43
0.0
 43
0.0
 43
1.0
 77
     0
 47
0.0208333333333333
 47
0.0
 47
0.0
 47
0.0
 47
0.0
 47
0.0208333333333333
 47
0.0
 47
0.0
 47
0.0
 47
0.0
 47
1.0
 47
0.0
 47
0.0
 47
0.0
 47
0.0
 47
1.0
171
     0
 49
0.0208333333333333
 49
0.0
 49
0.0
 49
0.0
 49
0.0
 49
0.0208333333333333
 49
0.0
 49
0.0
 49
0.0
 49
0.0
 49
1.0
 49
0.0
 49
0.0
 49
0.0
 49
0.0
 49
1.0
175
     0
142
0.0208333333333333
142
0.0
142
0.0
142
0.0
142
0.0
142
0.0208333333333333
142
0.0
142
0.0
142
0.0
142
0.0
142
1.0
142
0.0
142
0.0
142
0.0
142
0.0
142
1.0
179
     0
144
0.0208333333333333
144
0.0
144
0.0
144
0.0
144
0.0
144
0.0208333333333333
144
0.0
144
0.0
144
0.0
144
0.0
144
1.0
144
0.0
144
0.0
144
0.0
144
0.0
144
1.0
147
0.0208333333333333
147
0.0
147
0.0
147
0.0
147
0.0
147
0.0208333333333333
147
0.0
147
0.0
147
0.0
147
0.0
147
1.0
147
0.0
147
0.0
147
0.0
147
0.0
147
1.0
  0
MATERIAL
  5
C302
102
{ACAD_XDICTIONARY
360
C303
102
}
102
{ACAD_REACTORS
330
C301
102
}
330
C301
100
AcDbMaterial
  1
ByLayer
 72
     0
 43
0.0208333333333333
 43
0.0
 43
0.0
 43
0.0
 43
0.0
 43
0.0208333333333333
 43
0.0
 43
0.0
 43
0.0
 43
0.0
 43
1.0
 43
0.0
 43
0.0
 43
0.0
 43
0.0
 43
1.0
 77
     0
 47
0.0208333333333333
 47
0.0
 47
0.0
 47
0.0
 47
0.0
 47
0.0208333333333333
 47
0.0
 47
0.0
 47
0.0
 47
0.0
 47
1.0
 47
0.0
 47
0.0
 47
0.0
 47
0.0
 47
1.0
171
     0
 49
0.0208333333333333
 49
0.0
 49
0.0
 49
0.0
 49
0.0
 49
0.0208333333333333
 49
0.0
 49
0.0
 49
0.0
 49
0.0
 49
1.0
 49
0.0
 49
0.0
 49
0.0
 49
0.0
 49
1.0
175
     0
142
0.0208333333333333
142
0.0
142
0.0
142
0.0
142
0.0
142
0.0208333333333333
142
0.0
142
0.0
142
0.0
142
0.0
142
1.0
142
0.0
142
0.0
142
0.0
142
0.0
142
1.0
179
     0
144
0.0208333333333333
144
0.0
144
0.0
144
0.0
144
0.0
144
0.0208333333333333
144
0.0
144
0.0
144
0.0
144
0.0
144
1.0
144
0.0
144
0.0
144
0.0
144
0.0
144
1.0
147
0.0208333333333333
147
0.0
147
0.0
147
0.0
147
0.0
147
0.0208333333333333
147
0.0
147
0.0
147
0.0
147
0.0
147
1.0
147
0.0
147
0.0
147
0.0
147
0.0
147
1.0
  0
MATERIAL
  5
C312
102
{ACAD_XDICTIONARY
360
C313
102
}
102
{ACAD_REACTORS
330
C301
102
}
330
C301
100
AcDbMaterial
  1
Global
 72
     0
 43
0.0208333333333333
 43
0.0
 43
0.0
 43
0.0
 43
0.0
 43
0.0208333333333333
 43
0.0
 43
0.0
 43
0.0
 43
0.0
 43
1.0
 43
0.0
 43
0.0
 43
0.0
 43
0.0
 43
1.0
 77
     0
 47
0.0208333333333333
 47
0.0
 47
0.0
 47
0.0
 47
0.0
 47
0.0208333333333333
 47
0.0
 47
0.0
 47
0.0
 47
0.0
 47
1.0
 47
0.0
 47
0.0
 47
0.0
 47
0.0
 47
1.0
171
     0
 49
0.0208333333333333
 49
0.0
 49
0.0
 49
0.0
 49
0.0
 49
0.0208333333333333
 49
0.0
 49
0.0
 49
0.0
 49
0.0
 49
1.0
 49
0.0
 49
0.0
 49
0.0
 49
0.0
 49
1.0
175
     0
142
0.0208333333333333
142
0.0
142
0.0
142
0.0
142
0.0
142
0.0208333333333333
142
0.0
142
0.0
142
0.0
142
0.0
142
1.0
142
0.0
142
0.0
142
0.0
142
0.0
142
1.0
179
     0
144
0.0208333333333333
144
0.0
144
0.0
144
0.0
144
0.0
144
0.0208333333333333
144
0.0
144
0.0
144
0.0
144
0.0
144
1.0
144
0.0
144
0.0
144
0.0
144
0.0
144
1.0
147
0.0208333333333333
147
0.0
147
0.0
147
0.0
147
0.0
147
0.0208333333333333
147
0.0
147
0.0
147
0.0
147
0.0
147
1.0
147
0.0
147
0.0
147
0.0
147
0.0
147
1.0
  0
MLEADERSTYLE
  5
C349
102
{ACAD_REACTORS
330
C348
102
}
330
C348
100
AcDbMLeaderStyle
170
     2
171
     1
172
     0
 90
        2
 40
0.0
 41
0.0
173
     1
 91
-1056964608
340
BED5
 92
       -2
290
     1
 42
0.09
291
     1
 43
0.36
  3
Standard
 44
0.18
300

342
BED3
174
     1
178
     6
175
     1
176
     0
 93
-1056964608
 45
0.18
292
     0
297
     0
 46
0.18
 94
-1056964608
 47
1.0
 49
1.0
140
1.0
293
     1
141
0.0
294
     1
177
     0
142
1.0
295
     0
296
     0
143
0.125
1001
ACAD_MLEADERVER
1070
     2
  0
MLINESTYLE
  5
BED9
102
{ACAD_REACTORS
330
BED8
102
}
330
BED8
100
AcDbMlineStyle
  2
STANDARD
 70
     0
  3

 62
   256
 51
90.0
 52
90.0
 71
     2
 49
0.5
 62
   256
  6
BYLAYER
 49
-0.5
 62
   256
  6
BYLAYER
  0
ACDBPLACEHOLDER
  5
C300
102
{ACAD_REACTORS
330
C2FF
102
}
330
C2FF
  0
SCALE
  5
C337
102
{ACAD_REACTORS
330
C336
102
}
330
C336
100
AcDbScale
 70
     0
300
1:1
140
1.0
141
1.0
290
     1
  0
SCALE
  5
C338
102
{ACAD_REACTORS
330
C336
102
}
330
C336
100
AcDbScale
 70
     0
300
1/128" = 1'-0"
140
0.0078125
141
12.0
290
     0
  0
SCALE
  5
C339
102
{ACAD_REACTORS
330
C336
102
}
330
C336
100
AcDbScale
 70
     0
300
1/64" = 1'-0"
140
0.015625
141
12.0
290
     0
  0
SCALE
  5
C33A
102
{ACAD_REACTORS
330
C336
102
}
330
C336
100
AcDbScale
 70
     0
300
1/32" = 1'-0"
140
0.03125
141
12.0
290
     0
  0
SCALE
  5
C33B
102
{ACAD_REACTORS
330
C336
102
}
330
C336
100
AcDbScale
 70
     0
300
1/16" = 1'-0"
140
0.0625
141
12.0
290
     0
  0
SCALE
  5
C33C
102
{ACAD_REACTORS
330
C336
102
}
330
C336
100
AcDbScale
 70
     0
300
3/32" = 1'-0"
140
0.09375
141
12.0
290
     0
  0
SCALE
  5
C33D
102
{ACAD_REACTORS
330
C336
102
}
330
C336
100
AcDbScale
 70
     0
300
1/8" = 1'-0"
140
0.125
141
12.0
290
     0
  0
SCALE
  5
C33E
102
{ACAD_REACTORS
330
C336
102
}
330
C336
100
AcDbScale
 70
     0
300
3/16" = 1'-0"
140
0.1875
141
12.0
290
     0
  0
SCALE
  5
C33F
102
{ACAD_REACTORS
330
C336
102
}
330
C336
100
AcDbScale
 70
     0
300
1/4" = 1'-0"
140
0.25
141
12.0
290
     0
  0
SCALE
  5
C340
102
{ACAD_REACTORS
330
C336
102
}
330
C336
100
AcDbScale
 70
     0
300
3/8" = 1'-0"
140
0.375
141
12.0
290
     0
  0
SCALE
  5
C341
102
{ACAD_REACTORS
330
C336
102
}
330
C336
100
AcDbScale
 70
     0
300
1/2" = 1'-0"
140
0.5
141
12.0
290
     0
  0
SCALE
  5
C342
102
{ACAD_REACTORS
330
C336
102
}
330
C336
100
AcDbScale
 70
     0
300
3/4" = 1'-0"
140
0.75
141
12.0
290
     0
  0
SCALE
  5
C343
102
{ACAD_REACTORS
330
C336
102
}
330
C336
100
AcDbScale
 70
     0
300
1" = 1'-0"
140
1.0
141
12.0
290
     0
  0
SCALE
  5
C344
102
{ACAD_REACTORS
330
C336
102
}
330
C336
100
AcDbScale
 70
     0
300
1-1/2" = 1'-0"
140
1.5
141
12.0
290
     0
  0
SCALE
  5
C345
102
{ACAD_REACTORS
330
C336
102
}
330
C336
100
AcDbScale
 70
     0
300
3" = 1'-0"
140
3.0
141
12.0
290
     0
  0
SCALE
  5
C346
102
{ACAD_REACTORS
330
C336
102
}
330
C336
100
AcDbScale
 70
     0
300
6" = 1'-0"
140
6.0
141
12.0
290
     0
  0
SCALE
  5
C347
102
{ACAD_REACTORS
330
C336
102
}
330
C336
100
AcDbScale
 70
     0
300
1'-0" = 1'-0"
140
12.0
141
12.0
290
     0
  0
ACDBSECTIONVIEWSTYLE
  5
C34B
102
{ACAD_XDICTIONARY
360
C3A6
102
}
102
{ACAD_REACTORS
330
C34A
102
}
330
C34A
100
AcDbModelDocViewStyle
 70
     0
  3
Imperial24
290
     0
100
AcDbSectionViewStyle
 70
     0
 71
     0
 90
       78
 71
     1
340
BED3
 40
0.24
340
0
340
0
 40
0.24
300
I, O, Q, S, X, Z
 40
0.48
 90
        3
 40
0.18
 90
        1
 71
     2
340
BED7
 90
       25
340
BED7
 90
       50
 40
0.24
 40
0.0
 40
0.24
 71
     3
340
BED3
 40
0.24
 90
        1
 40
0.75
 90
        1
300
%<\AcVar ViewType \f "%tc1">% %<\AcVar ViewSectionStartId>%-%<\AcVar ViewSectionEndId>%\PSCALE %<\AcVar ViewScale \f "%sn">%
 71
     4
300
ANSI31
 40
1.0
 90
        0
290
     0
290
     0
 90
        6
 40
0.0
 40
1.570796326794896
 40
0.2617993877991494
 40
1.308996938995747
 40
-0.2617993877991494
 40
1.832595714594046
  0
TABLESTYLE
  5
C335
102
{ACAD_XDICTIONARY
360
C36D
102
}
102
{ACAD_REACTORS
330
C334
102
}
330
C334
100
AcDbTableStyle
  3
Standard
 70
     0
 71
     0
 40
0.06
 41
0.06
280
     0
281
     0
  7
STANDARD
140
0.18
170
     2
 62
     0
 63
     7
283
     0
274
    -2
284
     1
 64
     0
275
    -2
285
     1
 65
     0
276
    -2
286
     1
 66
     0
277
    -2
287
     1
 67
     0
278
    -2
288
     1
 68
     0
279
    -2
289
     1
 69
     0
  7
STANDARD
140
0.25
170
     5
 62
     0
 63
     7
283
     0
274
    -2
284
     1
 64
     0
275
    -2
285
     1
 65
     0
276
    -2
286
     1
 66
     0
277
    -2
287
     1
 67
     0
278
    -2
288
     1
 68
     0
279
    -2
289
     1
 69
     0
  7
STANDARD
140
0.18
170
     5
 62
     0
 63
     7
283
     0
274
    -2
284
     1
 64
     0
275
    -2
285
     1
 65
     0
276
    -2
286
     1
 66
     0
277
    -2
287
     1
 67
     0
278
    -2
288
     1
 68
     0
279
    -2
289
     1
 69
     0
  0
VISUALSTYLE
  5
C320
102
{ACAD_XDICTIONARY
360
C37E
102
}
102
{ACAD_REACTORS
330
C31A
102
}
330
C31A
100
AcDbVisualStyle
  2
2dWireframe
 70
     4
 71
     0
 72
     2
 73
     0
 90
        0
 40
-0.6
 41
-30.0
 62
     5
 63
     7
 74
     1
 91
        4
 64
     7
 65
   257
 75
     1
175
     1
 42
1.0
 92
        0
 66
   257
 43
1.0
 76
     1
 77
     6
 78
     2
 67
     7
 79
     5
170
     0
171
     0
290
     0
174
     0
 93
        1
 44
0.0
173
     0
291
     0
 45
0.0
1001
ACAD
1000
AcDbSavedByObjectVersion
1070
     0
  0
VISUALSTYLE
  5
C31F
102
{ACAD_XDICTIONARY
360
C37C
102
}
102
{ACAD_REACTORS
330
C31A
102
}
330
C31A
100
AcDbVisualStyle
  2
Basic
 70
     7
 71
     1
 72
     0
 73
     1
 90
        0
 40
-0.6
 41
-30.0
 62
     5
 63
     7
 74
     0
 91
        4
 64
     7
 65
   257
 75
     1
175
     1
 42
1.0
 92
        8
 66
     7
 43
1.0
 76
     1
 77
     6
 78
     2
 67
     7
 79
     5
170
     0
171
     0
290
     0
174
     0
 93
        1
 44
0.0
173
     0
291
     1
 45
0.0
1001
ACAD
1000
AcDbSavedByObjectVersion
1070
     0
  0
VISUALSTYLE
  5
C326
102
{ACAD_XDICTIONARY
360
C38A
102
}
102
{ACAD_REACTORS
330
C31A
102
}
330
C31A
100
AcDbVisualStyle
  2
Brighten
 70
    12
 71
     2
 72
     2
 73
     0
 90
        0
 40
-0.6
 41
-30.0
 62
     5
 63
     7
 74
     1
 91
        4
 64
     7
 65
   257
 75
     1
175
     1
 42
1.0
 92
        8
 66
     7
 43
1.0
 76
     1
 77
     6
 78
     2
 67
     7
 79
     5
170
     0
171
     0
290
     0
174
     0
 93
        1
 44
50.0
173
     0
291
     1
 45
0.0
1001
ACAD
1000
AcDbSavedByObjectVersion
1070
     0
  0
VISUALSTYLE
  5
C32A
102
{ACAD_XDICTIONARY
360
C392
102
}
102
{ACAD_REACTORS
330
C31A
102
}
330
C31A
100
AcDbVisualStyle
  2
ColorChange
 70
    16
 71
     2
 72
     2
 73
     3
 90
        0
 40
-0.6
 41
-30.0
 62
     5
 63
     8
 74
     1
 91
        4
 64
     7
 65
   257
 75
     1
175
     1
 42
1.0
 92
        8
 66
     8
 43
1.0
 76
     1
 77
     6
 78
     2
 67
     7
 79
     5
170
     0
171
     0
290
     0
174
     0
 93
        1
 44
0.0
173
     0
291
     1
 45
0.0
1001
ACAD
1000
AcDbSavedByObjectVersion
1070
     0
  0
VISUALSTYLE
  5
C323
102
{ACAD_XDICTIONARY
360
C384
102
}
102
{ACAD_REACTORS
330
C31A
102
}
330
C31A
100
AcDbVisualStyle
  2
Conceptual
 70
     9
 71
     3
 72
     2
 73
     0
 90
        0
 40
-0.6
 41
-30.0
 62
     5
 63
     7
 74
     2
 91
        2
 64
     7
 65
   257
 75
     1
175
     1
 42
179.0
 92
        8
 66
     7
 43
1.0
 76
     1
 77
     6
 78
     2
 67
     7
 79
     3
170
     0
171
     0
290
     0
174
     0
 93
        1
 44
0.0
173
     0
291
     0
 45
0.0
1001
ACAD
1000
AcDbSavedByObjectVersion
1070
     0
  0
VISUALSTYLE
  5
C325
102
{ACAD_XDICTIONARY
360
C388
102
}
102
{ACAD_REACTORS
330
C31A
102
}
330
C31A
100
AcDbVisualStyle
  2
Dim
 70
    11
 71
     2
 72
     2
 73
     0
 90
        0
 40
-0.6
 41
-30.0
 62
     5
 63
     7
 74
     1
 91
        4
 64
     7
 65
   257
 75
     1
175
     1
 42
1.0
 92
        8
 66
     7
 43
1.0
 76
     1
 77
     6
 78
     2
 67
     7
 79
     5
170
     0
171
     0
290
     0
174
     0
 93
        1
 44
-50.0
173
     0
291
     1
 45
0.0
1001
ACAD
1000
AcDbSavedByObjectVersion
1070
     0
  0
VISUALSTYLE
  5
C332
102
{ACAD_XDICTIONARY
360
C3A2
102
}
102
{ACAD_REACTORS
330
C31A
102
}
330
C31A
100
AcDbVisualStyle
  2
EdgeColorOff
 70
    22
 71
     2
 72
     2
 73
     0
 90
        0
 40
-0.6
 41
-30.0
 62
     5
 63
     7
 74
     1
 91
        4
 64
     7
 65
   257
 75
     1
175
     1
 42
1.0
 92
        8
 66
     7
 43
1.0
 76
     1
 77
     6
 78
     2
 67
     7
 79
     5
170
     0
171
     0
290
     0
174
     0
 93
        1
 44
0.0
173
     0
291
     1
 45
0.0
1001
ACAD
1000
AcDbSavedByObjectVersion
1070
     0
  0
VISUALSTYLE
  5
C329
102
{ACAD_XDICTIONARY
360
C390
102
}
102
{ACAD_REACTORS
330
C31A
102
}
330
C31A
100
AcDbVisualStyle
  2
Facepattern
 70
    15
 71
     2
 72
     2
 73
     0
 90
        0
 40
-0.6
 41
-30.0
 62
     5
 63
     7
 74
     1
 91
        4
 64
     7
 65
   257
 75
     1
175
     1
 42
1.0
 92
        8
 66
     7
 43
1.0
 76
     1
 77
     6
 78
     2
 67
     7
 79
     5
170
     0
171
     0
290
     0
174
     0
 93
        1
 44
0.0
173
     0
291
     1
 45
0.0
1001
ACAD
1000
AcDbSavedByObjectVersion
1070
     0
  0
VISUALSTYLE
  5
C31B
102
{ACAD_XDICTIONARY
360
C374
102
}
102
{ACAD_REACTORS
330
C31A
102
}
330
C31A
100
AcDbVisualStyle
  2
Flat
 70
     0
 71
     2
 72
     1
 73
     1
 90
        2
 40
-0.6
 41
30.0
 62
     5
 63
     7
 74
     0
 91
        0
 64
     7
 65
   257
 75
     1
175
     1
 42
1.0
 92
        8
 66
     7
 43
1.0
 76
     1
 77
     6
 78
     2
 67
     7
 79
     5
170
     0
171
     0
290
     0
174
     0
 93
       13
 44
0.0
173
     0
291
     1
 45
0.0
1001
ACAD
1000
AcDbSavedByObjectVersion
1070
     0
  0
VISUALSTYLE
  5
C31C
102
{ACAD_XDICTIONARY
360
C376
102
}
102
{ACAD_REACTORS
330
C31A
102
}
330
C31A
100
AcDbVisualStyle
  2
FlatWithEdges
 70
     1
 71
     2
 72
     1
 73
     1
 90
        2
 40
-0.6
 41
30.0
 62
     5
 63
     7
 74
     1
 91
        0
 64
     7
 65
   257
 75
     1
175
     1
 42
1.0
 92
        0
 66
   257
 43
1.0
 76
     1
 77
     6
 78
     2
 67
     7
 79
     5
170
     0
171
     0
290
     0
174
     0
 93
       13
 44
0.0
173
     0
291
     1
 45
0.0
1001
ACAD
1000
AcDbSavedByObjectVersion
1070
     0
  0
VISUALSTYLE
  5
C31D
102
{ACAD_XDICTIONARY
360
C378
102
}
102
{ACAD_REACTORS
330
C31A
102
}
330
C31A
100
AcDbVisualStyle
  2
Gouraud
 70
     2
 71
     2
 72
     2
 73
     1
 90
        2
 40
-0.6
 41
30.0
 62
     5
 63
     7
 74
     0
 91
        0
 64
     7
 65
   257
 75
     1
175
     1
 42
1.0
 92
        0
 66
     7
 43
1.0
 76
     1
 77
     6
 78
     2
 67
     7
 79
     5
170
     0
171
     0
290
     0
174
     0
 93
       13
 44
0.0
173
     0
291
     1
 45
0.0
1001
ACAD
1000
AcDbSavedByObjectVersion
1070
     0
  0
VISUALSTYLE
  5
C31E
102
{ACAD_XDICTIONARY
360
C37A
102
}
102
{ACAD_REACTORS
330
C31A
102
}
330
C31A
100
AcDbVisualStyle
  2
GouraudWithEdges
 70
     3
 71
     2
 72
     2
 73
     1
 90
        2
 40
-0.6
 41
30.0
 62
     5
 63
     7
 74
     1
 91
        0
 64
     7
 65
   257
 75
     1
175
     1
 42
1.0
 92
        0
 66
   257
 43
1.0
 76
     1
 77
     6
 78
     2
 67
     7
 79
     5
170
     0
171
     0
290
     0
174
     0
 93
       13
 44
0.0
173
     0
291
     1
 45
0.0
1001
ACAD
1000
AcDbSavedByObjectVersion
1070
     0
  0
VISUALSTYLE
  5
C322
102
{ACAD_XDICTIONARY
360
C382
102
}
102
{ACAD_REACTORS
330
C31A
102
}
330
C31A
100
AcDbVisualStyle
  2
Hidden
 70
     6
 71
     1
 72
     2
 73
     2
 90
        0
 40
-0.6
 41
-30.0
 62
     5
 63
     7
 74
     2
 91
        2
 64
     7
 65
   257
 75
     2
175
     1
 42
40.0
 92
        0
 66
   257
 43
1.0
 76
     1
 77
     6
 78
     2
 67
     7
 79
     3
170
     0
171
     0
290
     0
174
     0
 93
        1
 44
0.0
173
     0
291
     0
 45
0.0
1001
ACAD
1000
AcDbSavedByObjectVersion
1070
     0
  0
VISUALSTYLE
  5
C330
102
{ACAD_XDICTIONARY
360
C39E
102
}
102
{ACAD_REACTORS
330
C31A
102
}
330
C31A
100
AcDbVisualStyle
  2
JitterOff
 70
    20
 71
     2
 72
     2
 73
     0
 90
        0
 40
-0.6
 41
-30.0
 62
     5
 63
     7
 74
     1
 91
        4
 64
     7
 65
   257
 75
     1
175
     1
 42
1.0
 92
       10
 66
     7
 43
1.0
 76
     1
 77
     6
 78
     2
 67
     7
 79
     5
170
     0
171
     0
290
     0
174
     0
 93
        1
 44
0.0
173
     0
291
     1
 45
0.0
1001
ACAD
1000
AcDbSavedByObjectVersion
1070
     0
  0
VISUALSTYLE
  5
C328
102
{ACAD_XDICTIONARY
360
C38E
102
}
102
{ACAD_REACTORS
330
C31A
102
}
330
C31A
100
AcDbVisualStyle
  2
Linepattern
 70
    14
 71
     2
 72
     2
 73
     0
 90
        0
 40
-0.6
 41
-30.0
 62
     5
 63
     7
 74
     1
 91
        4
 64
     7
 65
   257
 75
     7
175
     7
 42
1.0
 92
        8
 66
     7
 43
1.0
 76
     1
 77
     6
 78
     2
 67
     7
 79
     5
170
     0
171
     0
290
     0
174
     0
 93
        1
 44
0.0
173
     0
291
     1
 45
0.0
1001
ACAD
1000
AcDbSavedByObjectVersion
1070
     0
  0
VISUALSTYLE
  5
C331
102
{ACAD_XDICTIONARY
360
C3A0
102
}
102
{ACAD_REACTORS
330
C31A
102
}
330
C31A
100
AcDbVisualStyle
  2
OverhangOff
 70
    21
 71
     2
 72
     2
 73
     0
 90
        0
 40
-0.6
 41
-30.0
 62
     5
 63
     7
 74
     1
 91
        4
 64
     7
 65
   257
 75
     1
175
     1
 42
1.0
 92
        9
 66
     7
 43
1.0
 76
     1
 77
     6
 78
     2
 67
     7
 79
     5
170
     0
171
     0
290
     0
174
     0
 93
        1
 44
0.0
173
     0
291
     1
 45
0.0
1001
ACAD
1000
AcDbSavedByObjectVersion
1070
     0
  0
VISUALSTYLE
  5
C324
102
{ACAD_XDICTIONARY
360
C386
102
}
102
{ACAD_REACTORS
330
C31A
102
}
330
C31A
100
AcDbVisualStyle
  2
Realistic
 70
     8
 71
     2
 72
     3
 73
     0
 90
        2
 40
-0.6
 41
30.0
 62
     5
 63
     7
 74
     0
 91
        0
 64
     7
 65
   257
 75
     1
175
     1
 42
1.0
 92
        8
 66
   257
 43
1.0
 76
     1
 77
     6
 78
     2
 67
     7
 79
     3
170
     0
171
     0
290
     0
174
     0
 93
       13
 44
0.0
173
     0
291
     0
 45
0.0
1001
ACAD
1000
AcDbSavedByObjectVersion
1070
     0
  0
VISUALSTYLE
  5
C32F
102
{ACAD_XDICTIONARY
360
C39C
102
}
102
{ACAD_REACTORS
330
C31A
102
}
330
C31A
100
AcDbVisualStyle
  2
Shaded
 70
    27
 71
     2
 72
     2
 73
     1
 90
        2
 40
-0.6
 41
30.0
 62
     5
 63
     7
 74
     0
 91
        4
 64
     7
 65
   257
 75
     1
175
     1
 42
1.0
 92
        8
 66
   257
 43
1.0
 76
     1
 77
     6
 78
     2
 67
     8
 79
     3
170
     0
171
     0
290
     0
174
     0
 93
        5
 44
0.0
173
     0
291
     0
 45
0.0
1001
ACAD
1000
AcDbSavedByObjectVersion
1070
     0
  0
VISUALSTYLE
  5
C32E
102
{ACAD_XDICTIONARY
360
C39A
102
}
102
{ACAD_REACTORS
330
C31A
102
}
330
C31A
100
AcDbVisualStyle
  2
Shaded with edges
 70
    26
 71
     2
 72
     2
 73
     1
 90
        2
 40
-0.6
 41
30.0
 62
     5
 63
     7
 74
     1
 91
       10
 64
     7
 65
   257
 75
     2
175
     1
 42
1.0
 92
        8
 66
   257
 43
1.0
 76
     1
 77
     6
 78
     2
 67
     7
 79
     3
170
     0
171
     0
290
     0
174
     0
 93
        5
 44
0.0
173
     0
291
     0
 45
0.0
1001
ACAD
1000
AcDbSavedByObjectVersion
1070
     0
  0
VISUALSTYLE
  5
C32B
102
{ACAD_XDICTIONARY
360
C394
102
}
102
{ACAD_REACTORS
330
C31A
102
}
330
C31A
100
AcDbVisualStyle
  2
Shades of Gray
 70
    23
 71
     2
 72
     2
 73
     3
 90
        0
 40
-0.6
 41
-30.0
 62
     5
 63
     7
 74
     2
 91
        2
 64
     7
 65
     7
 75
     1
175
     1
 42
40.0
 92
        8
 66
     7
 43
1.0
 76
     1
 77
     6
 78
     2
 67
     7
 79
     3
170
     0
171
     0
290
     0
174
     0
 93
        1
 44
0.0
173
     0
291
     0
 45
0.0
1001
ACAD
1000
AcDbSavedByObjectVersion
1070
     0
  0
VISUALSTYLE
  5
C32C
102
{ACAD_XDICTIONARY
360
C396
102
}
102
{ACAD_REACTORS
330
C31A
102
}
330
C31A
100
AcDbVisualStyle
  2
Sketchy
 70
    24
 71
     1
 72
     2
 73
     2
 90
        0
 40
-0.6
 41
-30.0
 62
     5
 63
     7
 74
     2
 91
        2
 64
     7
 65
     7
 75
     1
175
     1
 42
40.0
 92
       11
 66
     7
 43
1.0
 76
     1
 77
     6
 78
     2
 67
     7
 79
     6
170
     0
171
     0
290
     0
174
     0
 93
        1
 44
0.0
173
     0
291
     0
 45
0.0
1001
ACAD
1000
AcDbSavedByObjectVersion
1070
     0
  0
VISUALSTYLE
  5
C327
102
{ACAD_XDICTIONARY
360
C38C
102
}
102
{ACAD_REACTORS
330
C31A
102
}
330
C31A
100
AcDbVisualStyle
  2
Thicken
 70
    13
 71
     2
 72
     2
 73
     0
 90
        0
 40
-0.6
 41
-30.0
 62
     5
 63
     7
 74
     1
 91
        4
 64
     7
 65
   257
 75
     1
175
     1
 42
1.0
 92
       12
 66
     7
 43
1.0
 76
     1
 77
     6
 78
     2
 67
     7
 79
     5
170
     0
171
     0
290
     0
174
     0
 93
        1
 44
0.0
173
     0
291
     1
 45
0.0
1001
ACAD
1000
AcDbSavedByObjectVersion
1070
     0
  0
VISUALSTYLE
  5
C321
102
{ACAD_XDICTIONARY
360
C380
102
}
102
{ACAD_REACTORS
330
C31A
102
}
330
C31A
100
AcDbVisualStyle
  2
Wireframe
 70
     5
 71
     0
 72
     2
 73
     0
 90
        0
 40
-0.6
 41
-30.0
 62
     5
 63
     7
 74
     1
 91
        4
 64
     7
 65
   257
 75
     1
175
     1
 42
1.0
 92
        0
 66
   257
 43
1.0
 76
     1
 77
     6
 78
     2
 67
     7
 79
     3
170
     0
171
     0
290
     0
174
     0
 93
        1
 44
0.0
173
     0
291
     0
 45
0.0
1001
ACAD
1000
AcDbSavedByObjectVersion
1070
     0
  0
VISUALSTYLE
  5
C32D
102
{ACAD_XDICTIONARY
360
C398
102
}
102
{ACAD_REACTORS
330
C31A
102
}
330
C31A
100
AcDbVisualStyle
  2
X-Ray
 70
    25
 71
     2
 72
     2
 73
     1
 90
        1
 40
0.5
 41
-30.0
 62
     5
 63
     7
 74
     1
 91
        0
 64
     7
 65
   257
 75
     1
175
     1
 42
1.0
 92
        8
 66
     7
 43
1.0
 76
     1
 77
     6
 78
     2
 67
     7
 79
     3
170
     0
171
     0
290
     0
174
     0
 93
       13
 44
0.0
173
     0
291
     0
 45
0.0
1001
ACAD
1000
AcDbSavedByObjectVersion
1070
     0
  0
DICTIONARYVAR
  5
C367
102
{ACAD_REACTORS
330
C362
102
}
330
C362
100
DictionaryVariables
280
     0
  1
1:1
  0
DICTIONARYVAR
  5
C364
102
{ACAD_REACTORS
330
C362
102
}
330
C362
100
DictionaryVariables
280
     0
  1
STANDARD
  0
DICTIONARYVAR
  5
C363
102
{ACAD_REACTORS
330
C362
102
}
330
C362
100
DictionaryVariables
280
     0
  1
STANDARD
  0
DICTIONARYVAR
  5
C365
102
{ACAD_REACTORS
330
C362
102
}
330
C362
100
DictionaryVariables
280
     0
  1
Imperial24
  0
DICTIONARYVAR
  5
C366
102
{ACAD_REACTORS
330
C362
102
}
330
C362
100
DictionaryVariables
280
     0
  1
Imperial24
  0
DICTIONARYVAR
  5
C36A
102
{ACAD_REACTORS
330
C362
102
}
330
C362
100
DictionaryVariables
280
     0
  1
1
  0
DICTIONARYVAR
  5
C369
102
{ACAD_REACTORS
330
C362
102
}
330
C362
100
DictionaryVariables
280
     0
  1
0
  0
DICTIONARYVAR
  5
C368
102
{ACAD_REACTORS
330
C362
102
}
330
C362
100
DictionaryVariables
280
     0
  1
127
  0
DICTIONARYVAR
  5
C36B
102
{ACAD_REACTORS
330
C362
102
}
330
C362
100
DictionaryVariables
280
     0
  1
2
  0
DICTIONARY
  5
C3A8
330
C34D
100
AcDbDictionary
280
     1
281
     1
  3
ACAD_XREC_ROUNDTRIP
360
C3A9
  0
DICTIONARY
  5
C3AA
330
C34E
100
AcDbDictionary
280
     1
281
     1
  3
ACAD_XREC_ROUNDTRIP
360
C3AB
  0
DICTIONARY
  5
C3AC
330
C34F
100
AcDbDictionary
280
     1
281
     1
  3
ACAD_XREC_ROUNDTRIP
360
C3AD
  0
DICTIONARY
  5
C30B
330
C30A
100
AcDbDictionary
280
     1
281
     1
  3
ACAD_XREC_ROUNDTRIP
360
C372
  3
BUMPTILE
360
C30D
  3
DIFFUSETILE
360
C30C
  3
OPACITYTILE
360
C310
  3
REFLECTIONTILE
360
C30F
  3
REFRACTIONTILE
360
C311
  3
SPECULARTILE
360
C30E
  0
DICTIONARY
  5
C303
330
C302
100
AcDbDictionary
280
     1
281
     1
  3
ACAD_XREC_ROUNDTRIP
360
C371
  3
BUMPTILE
360
C305
  3
DIFFUSETILE
360
C304
  3
OPACITYTILE
360
C308
  3
REFLECTIONTILE
360
C307
  3
REFRACTIONTILE
360
C309
  3
SPECULARTILE
360
C306
  0
DICTIONARY
  5
C313
330
C312
100
AcDbDictionary
280
     1
281
     1
  3
ACAD_XREC_ROUNDTRIP
360
C373
  3
BUMPTILE
360
C315
  3
DIFFUSETILE
360
C314
  3
OPACITYTILE
360
C318
  3
REFLECTIONTILE
360
C317
  3
REFRACTIONTILE
360
C319
  3
SPECULARTILE
360
C316
  0
DICTIONARY
  5
C3A6
330
C34B
100
AcDbDictionary
280
     1
281
     1
  3
ACAD_XREC_ROUNDTRIP
360
C3A7
  0
DICTIONARY
  5
C36D
330
C335
100
AcDbDictionary
280
     1
281
     1
  3
ACAD_ROUNDTRIP_2008_TABLESTYLE_CELLSTYLEMAP
360
C36E
  3
ACAD_XREC_ROUNDTRIP
360
C3A4
  0
DICTIONARY
  5
C37E
330
C320
100
AcDbDictionary
280
     1
281
     1
  3
ACAD_XREC_ROUNDTRIP
360
C37F
  0
DICTIONARY
  5
C37C
330
C31F
100
AcDbDictionary
280
     1
281
     1
  3
ACAD_XREC_ROUNDTRIP
360
C37D
  0
DICTIONARY
  5
C38A
330
C326
100
AcDbDictionary
280
     1
281
     1
  3
ACAD_XREC_ROUNDTRIP
360
C38B
  0
DICTIONARY
  5
C392
330
C32A
100
AcDbDictionary
280
     1
281
     1
  3
ACAD_XREC_ROUNDTRIP
360
C393
  0
DICTIONARY
  5
C384
330
C323
100
AcDbDictionary
280
     1
281
     1
  3
ACAD_XREC_ROUNDTRIP
360
C385
  0
DICTIONARY
  5
C388
330
C325
100
AcDbDictionary
280
     1
281
     1
  3
ACAD_XREC_ROUNDTRIP
360
C389
  0
DICTIONARY
  5
C3A2
330
C332
100
AcDbDictionary
280
     1
281
     1
  3
ACAD_XREC_ROUNDTRIP
360
C3A3
  0
DICTIONARY
  5
C390
330
C329
100
AcDbDictionary
280
     1
281
     1
  3
ACAD_XREC_ROUNDTRIP
360
C391
  0
DICTIONARY
  5
C374
330
C31B
100
AcDbDictionary
280
     1
281
     1
  3
ACAD_XREC_ROUNDTRIP
360
C375
  0
DICTIONARY
  5
C376
330
C31C
100
AcDbDictionary
280
     1
281
     1
  3
ACAD_XREC_ROUNDTRIP
360
C377
  0
DICTIONARY
  5
C378
330
C31D
100
AcDbDictionary
280
     1
281
     1
  3
ACAD_XREC_ROUNDTRIP
360
C379
  0
DICTIONARY
  5
C37A
330
C31E
100
AcDbDictionary
280
     1
281
     1
  3
ACAD_XREC_ROUNDTRIP
360
C37B
  0
DICTIONARY
  5
C382
330
C322
100
AcDbDictionary
280
     1
281
     1
  3
ACAD_XREC_ROUNDTRIP
360
C383
  0
DICTIONARY
  5
C39E
330
C330
100
AcDbDictionary
280
     1
281
     1
  3
ACAD_XREC_ROUNDTRIP
360
C39F
  0
DICTIONARY
  5
C38E
330
C328
100
AcDbDictionary
280
     1
281
     1
  3
ACAD_XREC_ROUNDTRIP
360
C38F
  0
DICTIONARY
  5
C3A0
330
C331
100
AcDbDictionary
280
     1
281
     1
  3
ACAD_XREC_ROUNDTRIP
360
C3A1
  0
DICTIONARY
  5
C386
330
C324
100
AcDbDictionary
280
     1
281
     1
  3
ACAD_XREC_ROUNDTRIP
360
C387
  0
DICTIONARY
  5
C39C
330
C32F
100
AcDbDictionary
280
     1
281
     1
  3
ACAD_XREC_ROUNDTRIP
360
C39D
  0
DICTIONARY
  5
C39A
330
C32E
100
AcDbDictionary
280
     1
281
     1
  3
ACAD_XREC_ROUNDTRIP
360
C39B
  0
DICTIONARY
  5
C394
330
C32B
100
AcDbDictionary
280
     1
281
     1
  3
ACAD_XREC_ROUNDTRIP
360
C395
  0
DICTIONARY
  5
C396
330
C32C
100
AcDbDictionary
280
     1
281
     1
  3
ACAD_XREC_ROUNDTRIP
360
C397
  0
DICTIONARY
  5
C38C
330
C327
100
AcDbDictionary
280
     1
281
     1
  3
ACAD_XREC_ROUNDTRIP
360
C38D
  0
DICTIONARY
  5
C380
330
C321
100
AcDbDictionary
280
     1
281
     1
  3
ACAD_XREC_ROUNDTRIP
360
C381
  0
DICTIONARY
  5
C398
330
C32D
100
AcDbDictionary
280
     1
281
     1
  3
ACAD_XREC_ROUNDTRIP
360
C399
  0
XRECORD
  5
C3A9
102
{ACAD_REACTORS
330
C3A8
102
}
330
C3A8
100
AcDbXrecord
280
     1
102
DISPLAYNAME
  1
Imperial24
102
FLAGS
 90
        0
  0
XRECORD
  5
C3AB
102
{ACAD_REACTORS
330
C3AA
102
}
330
C3AA
100
AcDbXrecord
280
     1
102
SHADEPLOT
 70
     0
102
SHADEPLOTRESLEVEL
 70
     2
102
SHADEPLOTCUSTOMDPI
 70
   300
  0
XRECORD
  5
C3AD
102
{ACAD_REACTORS
330
C3AC
102
}
330
C3AC
100
AcDbXrecord
280
     1
102
SHADEPLOT
 70
     0
102
SHADEPLOTRESLEVEL
 70
     2
102
SHADEPLOTCUSTOMDPI
 70
   300
  0
XRECORD
  5
C372
102
{ACAD_REACTORS
330
C30B
102
}
330
C30B
100
AcDbXrecord
280
     1
102
MATERIAL
148
0.0
149
0.0
149
0.0
 93
        0
 94
      127
282
     0
 72
     0
 77
     0
171
     0
175
     0
179
     0
273
     0
  0
XRECORD
  5
C30D
102
{ACAD_REACTORS
330
C30B
102
}
330
C30B
100
AcDbXrecord
280
     1
270
     1
271
     1
  0
XRECORD
  5
C30C
102
{ACAD_REACTORS
330
C30B
102
}
330
C30B
100
AcDbXrecord
280
     1
270
     1
271
     1
  0
XRECORD
  5
C310
102
{ACAD_REACTORS
330
C30B
102
}
330
C30B
100
AcDbXrecord
280
     1
270
     1
271
     1
  0
XRECORD
  5
C30F
102
{ACAD_REACTORS
330
C30B
102
}
330
C30B
100
AcDbXrecord
280
     1
270
     1
271
     1
  0
XRECORD
  5
C311
102
{ACAD_REACTORS
330
C30B
102
}
330
C30B
100
AcDbXrecord
280
     1
270
     1
271
     1
  0
XRECORD
  5
C30E
102
{ACAD_REACTORS
330
C30B
102
}
330
C30B
100
AcDbXrecord
280
     1
270
     1
271
     1
  0
XRECORD
  5
C371
102
{ACAD_REACTORS
330
C303
102
}
330
C303
100
AcDbXrecord
280
     1
102
MATERIAL
148
0.0
149
0.0
149
0.0
 93
        0
 94
      127
282
     0
 72
     0
 77
     0
171
     0
175
     0
179
     0
273
     0
  0
XRECORD
  5
C305
102
{ACAD_REACTORS
330
C303
102
}
330
C303
100
AcDbXrecord
280
     1
270
     1
271
     1
  0
XRECORD
  5
C304
102
{ACAD_REACTORS
330
C303
102
}
330
C303
100
AcDbXrecord
280
     1
270
     1
271
     1
  0
XRECORD
  5
C308
102
{ACAD_REACTORS
330
C303
102
}
330
C303
100
AcDbXrecord
280
     1
270
     1
271
     1
  0
XRECORD
  5
C307
102
{ACAD_REACTORS
330
C303
102
}
330
C303
100
AcDbXrecord
280
     1
270
     1
271
     1
  0
XRECORD
  5
C309
102
{ACAD_REACTORS
330
C303
102
}
330
C303
100
AcDbXrecord
280
     1
270
     1
271
     1
  0
XRECORD
  5
C306
102
{ACAD_REACTORS
330
C303
102
}
330
C303
100
AcDbXrecord
280
     1
270
     1
271
     1
  0
XRECORD
  5
C373
102
{ACAD_REACTORS
330
C313
102
}
330
C313
100
AcDbXrecord
280
     1
102
MATERIAL
148
0.0
149
0.0
149
0.0
 93
        0
 94
      127
282
     0
 72
     0
 77
     0
171
     0
175
     0
179
     0
273
     0
  0
XRECORD
  5
C315
102
{ACAD_REACTORS
330
C313
102
}
330
C313
100
AcDbXrecord
280
     1
270
     1
271
     1
  0
XRECORD
  5
C314
102
{ACAD_REACTORS
330
C313
102
}
330
C313
100
AcDbXrecord
280
     1
270
     1
271
     1
  0
XRECORD
  5
C318
102
{ACAD_REACTORS
330
C313
102
}
330
C313
100
AcDbXrecord
280
     1
270
     1
271
     1
  0
XRECORD
  5
C317
102
{ACAD_REACTORS
330
C313
102
}
330
C313
100
AcDbXrecord
280
     1
270
     1
271
     1
  0
XRECORD
  5
C319
102
{ACAD_REACTORS
330
C313
102
}
330
C313
100
AcDbXrecord
280
     1
270
     1
271
     1
  0
XRECORD
  5
C316
102
{ACAD_REACTORS
330
C313
102
}
330
C313
100
AcDbXrecord
280
     1
270
     1
271
     1
  0
XRECORD
  5
C3A7
102
{ACAD_REACTORS
330
C3A6
102
}
330
C3A6
100
AcDbXrecord
280
     1
102
DISPLAYNAME
  1
Imperial24
102
FLAGS
 90
        0
  0
CELLSTYLEMAP
  5
C36E
102
{ACAD_REACTORS
330
C36D
102
}
330
C36D
100
AcDbCellStyleMap
 90
        3
300
CELLSTYLE
  1
TABLEFORMAT_BEGIN
 90
        5
170
     1
 91
        0
 92
    32768
 62
   257
 93
        1
300
CONTENTFORMAT
  1
CONTENTFORMAT_BEGIN
 90
        0
 91
        0
 92
      512
 93
        0
300

 40
0.0
140
1.0
 94
        5
 62
     0
340
BED3
144
0.25
309
CONTENTFORMAT_END
171
     0
 94
        0
309
TABLEFORMAT_END
  1
CELLSTYLE_BEGIN
 90
        1
 91
        1
300
_TITLE
309
CELLSTYLE_END
300
CELLSTYLE
  1
TABLEFORMAT_BEGIN
 90
        5
170
     1
 91
        0
 92
        0
 62
   257
 93
        1
300
CONTENTFORMAT
  1
CONTENTFORMAT_BEGIN
 90
        0
 91
        0
 92
      512
 93
        0
300

 40
0.0
140
1.0
 94
        5
 62
     0
340
BED3
144
0.18
309
CONTENTFORMAT_END
171
     0
 94
        0
309
TABLEFORMAT_END
  1
CELLSTYLE_BEGIN
 90
        2
 91
        1
300
_HEADER
309
CELLSTYLE_END
300
CELLSTYLE
  1
TABLEFORMAT_BEGIN
 90
        5
170
     1
 91
        0
 92
        0
 62
   257
 93
        1
300
CONTENTFORMAT
  1
CONTENTFORMAT_BEGIN
 90
        0
 91
        0
 92
      512
 93
        0
300

 40
0.0
140
1.0
 94
        2
 62
     0
340
BED3
144
0.18
309
CONTENTFORMAT_END
171
     0
 94
        0
309
TABLEFORMAT_END
  1
CELLSTYLE_BEGIN
 90
        3
 91
        2
300
_DATA
309
CELLSTYLE_END
  0
XRECORD
  5
C3A4
102
{ACAD_REACTORS
330
C36D
102
}
330
C36D
100
AcDbXrecord
280
     1
102
ACAD_ROUNDTRIP_PRE2007_TABLESTYLE
 90
      512
 91
        0
  1

 92
      512
 93
        0
  2

 94
      512
 95
        0
  3

  0
XRECORD
  5
C37F
102
{ACAD_REACTORS
330
C37E
102
}
330
C37E
100
AcDbXrecord
280
     1
102
RTVSPost2010Prop28
280
     1
102
RTVSPost2010PropOp28
 70
     1
102
RTVSPost2010Prop29
280
     1
102
RTVSPost2010PropOp29
 70
     1
102
RTVSPost2010Prop30
280
     0
102
RTVSPost2010PropOp30
 70
     1
102
RTVSPost2010Prop31
280
     0
102
RTVSPost2010PropOp31
 70
     1
102
RTVSPost2010Prop32
280
     0
102
RTVSPost2010PropOp32
 70
     1
102
RTVSPost2010Prop33
280
     0
102
RTVSPost2010PropOp33
 70
     1
102
RTVSPost2010Prop34
280
     0
102
RTVSPost2010PropOp34
 70
     1
102
RTVSPost2010Prop35
280
     0
102
RTVSPost2010PropOp35
 70
     1
102
RTVSPost2010Prop36
280
     0
102
RTVSPost2010PropOp36
 70
     1
102
RTVSPost2010Prop37
 90
       50
102
RTVSPost2010PropOp37
 70
     1
102
RTVSPost2010Prop38
140
0.0
102
RTVSPost2010PropOp38
 70
     1
102
RTVSPost2010Prop39
140
1.0
102
RTVSPost2010PropOp39
 70
     1
102
RTVSPost2010Prop40
 90
        0
102
RTVSPost2010PropOp40
 70
     1
102
RTVSPost2010Prop41ColorIndex
 90
       18
102
RTVSPost2010Prop41ColorRGB
 90
        0
102
RTVSPost2010PropOp41
 70
     1
102
RTVSPost2010Prop42
 90
       50
102
RTVSPost2010PropOp42
 70
     1
102
RTVSPost2010Prop43
 90
        3
102
RTVSPost2010PropOp43
 70
     1
102
RTVSPost2010Prop44ColorIndex
 90
        5
102
RTVSPost2010Prop44ColorRGB
 90
      255
102
RTVSPost2010PropOp44
 70
     1
102
RTVSPost2010Prop45
280
     0
102
RTVSPost2010PropOp45
 70
     1
102
RTVSPost2010Prop46
 90
       50
102
RTVSPost2010PropOp46
 70
     1
102
RTVSPost2010Prop47
 90
       50
102
RTVSPost2010PropOp47
 70
     1
102
RTVSPost2010Prop48
 90
       50
102
RTVSPost2010PropOp48
 70
     1
102
RTVSPost2010Prop49
280
     0
102
RTVSPost2010PropOp49
 70
     1
102
RTVSPost2010Prop50
 90
       50
102
RTVSPost2010PropOp50
 70
     1
102
RTVSPost2010Prop51ColorIndex
 90
      256
102
RTVSPost2010Prop51ColorRGB
 90
-16777216
102
RTVSPost2010PropOp51
 70
     0
102
RTVSPost2010Prop52
140
1.0
102
RTVSPost2010PropOp52
 70
     0
102
RTVSPost2010Prop53
 90
        2
102
RTVSPost2010PropOp53
 70
     1
102
RTVSPost2010Prop54
  1
strokes_ogs.tif
102
RTVSPost2010PropOp54
 70
     1
102
RTVSPost2010Prop55
280
     0
102
RTVSPost2010PropOp55
 70
     1
102
RTVSPost2010Prop56
140
1.0
102
RTVSPost2010PropOp56
 70
     1
102
RTVSPost2010Prop57
140
1.0
102
RTVSPost2010PropOp57
 70
     1
102
RTVSPropertyOp0
 70
     1
102
RTVSPropertyOp1
 70
     1
102
RTVSPropertyOp2
 70
     1
102
RTVSPropertyOp3
 70
     1
102
RTVSPropertyOp4
 70
     1
102
RTVSPropertyOp5
 70
     1
102
RTVSPropertyOp6
 70
     1
102
RTVSPropertyOp7
 70
     1
102
RTVSPropertyOp8
 70
     1
102
RTVSPropertyOp9
 70
     1
102
RTVSPropertyOp10
 70
     1
102
RTVSPropertyOp11
 70
     1
102
RTVSPropertyOp12
 70
     1
102
RTVSPropertyOp13
 70
     1
102
RTVSPropertyOp14
 70
     1
102
RTVSPropertyOp15
 70
     1
102
RTVSPropertyOp16
 70
     1
102
RTVSPropertyOp17
 70
     1
102
RTVSPropertyOp18
 70
     1
102
RTVSPropertyOp19
 70
     1
102
RTVSPropertyOp20
 70
     1
102
RTVSPropertyOp21
 70
     1
102
RTVSPropertyOp22
 70
     1
102
RTVSPropertyOp23
 70
     1
102
RTVSPropertyOp24
 70
     1
102
RTVSPropertyOp25
 70
     1
102
RTVSPropertyOp26
 70
     1
102
RTVSPropertyOp27
 70
     1
102
RTVSPropertyOp28
 70
     1
102
RTVSPropertyOp29
 70
     1
102
RTVSPropertyOp30
 70
     1
102
RTVSPropertyOp31
 70
     1
102
RTVSPropertyOp32
 70
     1
102
RTVSPropertyOp33
 70
     1
102
RTVSPropertyOp34
 70
     1
102
RTVSPropertyOp35
 70
     1
102
RTVSPropertyOp36
 70
     1
102
RTVSPropertyOp37
 70
     1
102
RTVSPropertyOp38
 70
     1
102
RTVSPropertyOp39
 70
     1
102
RTVSPropertyOp40
 70
     1
102
RTVSPropertyOp41
 70
     1
102
RTVSPropertyOp42
 70
     1
102
RTVSPropertyOp43
 70
     1
102
RTVSPropertyOp44
 70
     1
102
RTVSPropertyOp45
 70
     1
102
RTVSPropertyOp46
 70
     1
102
RTVSPropertyOp47
 70
     1
102
RTVSPropertyOp48
 70
     1
102
RTVSPropertyOp49
 70
     1
102
RTVSPropertyOp50
 70
     1
102
RTVSPropertyOp51
 70
     0
102
RTVSPropertyOp52
 70
     0
102
RTVSPropertyOp53
 70
     1
102
RTVSPropertyOp54
 70
     1
102
RTVSPropertyOp55
 70
     1
102
RTVSPropertyOp56
 70
     1
102
RTVSPropertyOp57
 70
     1
102
RTVSPropertyOp58
 70
     1
102
RTVSPropertyOp59
 70
     1
102
RTVSPropertyOp60
 70
     1
102
RTVSPropertyOp61
 70
     1
102
RTVSPropertyOp62
 70
     1
  0
XRECORD
  5
C37D
102
{ACAD_REACTORS
330
C37C
102
}
330
C37C
100
AcDbXrecord
280
     1
102
RTVSPost2010Prop28
280
     0
102
RTVSPost2010PropOp28
 70
     1
102
RTVSPost2010Prop29
280
     1
102
RTVSPost2010PropOp29
 70
     1
102
RTVSPost2010Prop30
280
     1
102
RTVSPost2010PropOp30
 70
     1
102
RTVSPost2010Prop31
280
     0
102
RTVSPost2010PropOp31
 70
     1
102
RTVSPost2010Prop32
280
     0
102
RTVSPost2010PropOp32
 70
     1
102
RTVSPost2010Prop33
280
     0
102
RTVSPost2010PropOp33
 70
     1
102
RTVSPost2010Prop34
280
     0
102
RTVSPost2010PropOp34
 70
     1
102
RTVSPost2010Prop35
280
     0
102
RTVSPost2010PropOp35
 70
     1
102
RTVSPost2010Prop36
280
     0
102
RTVSPost2010PropOp36
 70
     1
102
RTVSPost2010Prop37
 90
       50
102
RTVSPost2010PropOp37
 70
     1
102
RTVSPost2010Prop38
140
0.0
102
RTVSPost2010PropOp38
 70
     1
102
RTVSPost2010Prop39
140
1.0
102
RTVSPost2010PropOp39
 70
     1
102
RTVSPost2010Prop40
 90
        0
102
RTVSPost2010PropOp40
 70
     1
102
RTVSPost2010Prop41ColorIndex
 90
       18
102
RTVSPost2010Prop41ColorRGB
 90
        0
102
RTVSPost2010PropOp41
 70
     1
102
RTVSPost2010Prop42
 90
       50
102
RTVSPost2010PropOp42
 70
     1
102
RTVSPost2010Prop43
 90
        3
102
RTVSPost2010PropOp43
 70
     1
102
RTVSPost2010Prop44ColorIndex
 90
        5
102
RTVSPost2010Prop44ColorRGB
 90
      255
102
RTVSPost2010PropOp44
 70
     1
102
RTVSPost2010Prop45
280
     0
102
RTVSPost2010PropOp45
 70
     1
102
RTVSPost2010Prop46
 90
       50
102
RTVSPost2010PropOp46
 70
     1
102
RTVSPost2010Prop47
 90
       50
102
RTVSPost2010PropOp47
 70
     1
102
RTVSPost2010Prop48
 90
       50
102
RTVSPost2010PropOp48
 70
     1
102
RTVSPost2010Prop49
280
     0
102
RTVSPost2010PropOp49
 70
     1
102
RTVSPost2010Prop50
 90
       50
102
RTVSPost2010PropOp50
 70
     1
102
RTVSPost2010Prop51ColorIndex
 90
      256
102
RTVSPost2010Prop51ColorRGB
 90
-16777216
102
RTVSPost2010PropOp51
 70
     0
102
RTVSPost2010Prop52
140
1.0
102
RTVSPost2010PropOp52
 70
     0
102
RTVSPost2010Prop53
 90
        2
102
RTVSPost2010PropOp53
 70
     1
102
RTVSPost2010Prop54
  1
strokes_ogs.tif
102
RTVSPost2010PropOp54
 70
     1
102
RTVSPost2010Prop55
280
     0
102
RTVSPost2010PropOp55
 70
     1
102
RTVSPost2010Prop56
140
1.0
102
RTVSPost2010PropOp56
 70
     1
102
RTVSPost2010Prop57
140
1.0
102
RTVSPost2010PropOp57
 70
     1
102
RTVSPropertyOp0
 70
     1
102
RTVSPropertyOp1
 70
     1
102
RTVSPropertyOp2
 70
     1
102
RTVSPropertyOp3
 70
     1
102
RTVSPropertyOp4
 70
     1
102
RTVSPropertyOp5
 70
     1
102
RTVSPropertyOp6
 70
     1
102
RTVSPropertyOp7
 70
     1
102
RTVSPropertyOp8
 70
     1
102
RTVSPropertyOp9
 70
     1
102
RTVSPropertyOp10
 70
     1
102
RTVSPropertyOp11
 70
     1
102
RTVSPropertyOp12
 70
     1
102
RTVSPropertyOp13
 70
     1
102
RTVSPropertyOp14
 70
     1
102
RTVSPropertyOp15
 70
     1
102
RTVSPropertyOp16
 70
     1
102
RTVSPropertyOp17
 70
     1
102
RTVSPropertyOp18
 70
     1
102
RTVSPropertyOp19
 70
     1
102
RTVSPropertyOp20
 70
     1
102
RTVSPropertyOp21
 70
     1
102
RTVSPropertyOp22
 70
     1
102
RTVSPropertyOp23
 70
     1
102
RTVSPropertyOp24
 70
     1
102
RTVSPropertyOp25
 70
     1
102
RTVSPropertyOp26
 70
     1
102
RTVSPropertyOp27
 70
     1
102
RTVSPropertyOp28
 70
     1
102
RTVSPropertyOp29
 70
     1
102
RTVSPropertyOp30
 70
     1
102
RTVSPropertyOp31
 70
     1
102
RTVSPropertyOp32
 70
     1
102
RTVSPropertyOp33
 70
     1
102
RTVSPropertyOp34
 70
     1
102
RTVSPropertyOp35
 70
     1
102
RTVSPropertyOp36
 70
     1
102
RTVSPropertyOp37
 70
     1
102
RTVSPropertyOp38
 70
     1
102
RTVSPropertyOp39
 70
     1
102
RTVSPropertyOp40
 70
     1
102
RTVSPropertyOp41
 70
     1
102
RTVSPropertyOp42
 70
     1
102
RTVSPropertyOp43
 70
     1
102
RTVSPropertyOp44
 70
     1
102
RTVSPropertyOp45
 70
     1
102
RTVSPropertyOp46
 70
     1
102
RTVSPropertyOp47
 70
     1
102
RTVSPropertyOp48
 70
     1
102
RTVSPropertyOp49
 70
     1
102
RTVSPropertyOp50
 70
     1
102
RTVSPropertyOp51
 70
     0
102
RTVSPropertyOp52
 70
     0
102
RTVSPropertyOp53
 70
     1
102
RTVSPropertyOp54
 70
     1
102
RTVSPropertyOp55
 70
     1
102
RTVSPropertyOp56
 70
     1
102
RTVSPropertyOp57
 70
     1
102
RTVSPropertyOp58
 70
     1
102
RTVSPropertyOp59
 70
     1
102
RTVSPropertyOp60
 70
     1
102
RTVSPropertyOp61
 70
     1
102
RTVSPropertyOp62
 70
     1
  0
XRECORD
  5
C38B
102
{ACAD_REACTORS
330
C38A
102
}
330
C38A
100
AcDbXrecord
280
     1
102
RTVSPost2010Prop28
280
     0
102
RTVSPost2010PropOp28
 70
     1
102
RTVSPost2010Prop29
280
     1
102
RTVSPost2010PropOp29
 70
     1
102
RTVSPost2010Prop30
280
     1
102
RTVSPost2010PropOp30
 70
     1
102
RTVSPost2010Prop31
280
     0
102
RTVSPost2010PropOp31
 70
     1
102
RTVSPost2010Prop32
280
     0
102
RTVSPost2010PropOp32
 70
     1
102
RTVSPost2010Prop33
280
     0
102
RTVSPost2010PropOp33
 70
     1
102
RTVSPost2010Prop34
280
     0
102
RTVSPost2010PropOp34
 70
     1
102
RTVSPost2010Prop35
280
     0
102
RTVSPost2010PropOp35
 70
     1
102
RTVSPost2010Prop36
280
     0
102
RTVSPost2010PropOp36
 70
     1
102
RTVSPost2010Prop37
 90
       50
102
RTVSPost2010PropOp37
 70
     1
102
RTVSPost2010Prop38
140
0.0
102
RTVSPost2010PropOp38
 70
     1
102
RTVSPost2010Prop39
140
1.0
102
RTVSPost2010PropOp39
 70
     1
102
RTVSPost2010Prop40
 90
        0
102
RTVSPost2010PropOp40
 70
     1
102
RTVSPost2010Prop41ColorIndex
 90
       18
102
RTVSPost2010Prop41ColorRGB
 90
        0
102
RTVSPost2010PropOp41
 70
     1
102
RTVSPost2010Prop42
 90
       50
102
RTVSPost2010PropOp42
 70
     1
102
RTVSPost2010Prop43
 90
        3
102
RTVSPost2010PropOp43
 70
     1
102
RTVSPost2010Prop44ColorIndex
 90
        5
102
RTVSPost2010Prop44ColorRGB
 90
      255
102
RTVSPost2010PropOp44
 70
     1
102
RTVSPost2010Prop45
280
     0
102
RTVSPost2010PropOp45
 70
     1
102
RTVSPost2010Prop46
 90
       50
102
RTVSPost2010PropOp46
 70
     1
102
RTVSPost2010Prop47
 90
       50
102
RTVSPost2010PropOp47
 70
     1
102
RTVSPost2010Prop48
 90
       50
102
RTVSPost2010PropOp48
 70
     1
102
RTVSPost2010Prop49
280
     0
102
RTVSPost2010PropOp49
 70
     1
102
RTVSPost2010Prop50
 90
       50
102
RTVSPost2010PropOp50
 70
     1
102
RTVSPost2010Prop51ColorIndex
 90
      256
102
RTVSPost2010Prop51ColorRGB
 90
-16777216
102
RTVSPost2010PropOp51
 70
     0
102
RTVSPost2010Prop52
140
1.0
102
RTVSPost2010PropOp52
 70
     0
102
RTVSPost2010Prop53
 90
        2
102
RTVSPost2010PropOp53
 70
     1
102
RTVSPost2010Prop54
  1
strokes_ogs.tif
102
RTVSPost2010PropOp54
 70
     1
102
RTVSPost2010Prop55
280
     0
102
RTVSPost2010PropOp55
 70
     1
102
RTVSPost2010Prop56
140
1.0
102
RTVSPost2010PropOp56
 70
     1
102
RTVSPost2010Prop57
140
1.0
102
RTVSPost2010PropOp57
 70
     1
102
RTVSPropertyOp0
 70
     1
102
RTVSPropertyOp1
 70
     1
102
RTVSPropertyOp2
 70
     1
102
RTVSPropertyOp3
 70
     1
102
RTVSPropertyOp4
 70
     1
102
RTVSPropertyOp5
 70
     1
102
RTVSPropertyOp6
 70
     1
102
RTVSPropertyOp7
 70
     1
102
RTVSPropertyOp8
 70
     1
102
RTVSPropertyOp9
 70
     1
102
RTVSPropertyOp10
 70
     1
102
RTVSPropertyOp11
 70
     1
102
RTVSPropertyOp12
 70
     1
102
RTVSPropertyOp13
 70
     1
102
RTVSPropertyOp14
 70
     1
102
RTVSPropertyOp15
 70
     1
102
RTVSPropertyOp16
 70
     1
102
RTVSPropertyOp17
 70
     1
102
RTVSPropertyOp18
 70
     1
102
RTVSPropertyOp19
 70
     1
102
RTVSPropertyOp20
 70
     1
102
RTVSPropertyOp21
 70
     1
102
RTVSPropertyOp22
 70
     1
102
RTVSPropertyOp23
 70
     1
102
RTVSPropertyOp24
 70
     1
102
RTVSPropertyOp25
 70
     1
102
RTVSPropertyOp26
 70
     1
102
RTVSPropertyOp27
 70
     1
102
RTVSPropertyOp28
 70
     1
102
RTVSPropertyOp29
 70
     1
102
RTVSPropertyOp30
 70
     1
102
RTVSPropertyOp31
 70
     1
102
RTVSPropertyOp32
 70
     1
102
RTVSPropertyOp33
 70
     1
102
RTVSPropertyOp34
 70
     1
102
RTVSPropertyOp35
 70
     1
102
RTVSPropertyOp36
 70
     1
102
RTVSPropertyOp37
 70
     1
102
RTVSPropertyOp38
 70
     1
102
RTVSPropertyOp39
 70
     1
102
RTVSPropertyOp40
 70
     1
102
RTVSPropertyOp41
 70
     1
102
RTVSPropertyOp42
 70
     1
102
RTVSPropertyOp43
 70
     1
102
RTVSPropertyOp44
 70
     1
102
RTVSPropertyOp45
 70
     1
102
RTVSPropertyOp46
 70
     1
102
RTVSPropertyOp47
 70
     1
102
RTVSPropertyOp48
 70
     1
102
RTVSPropertyOp49
 70
     1
102
RTVSPropertyOp50
 70
     1
102
RTVSPropertyOp51
 70
     0
102
RTVSPropertyOp52
 70
     0
102
RTVSPropertyOp53
 70
     1
102
RTVSPropertyOp54
 70
     1
102
RTVSPropertyOp55
 70
     1
102
RTVSPropertyOp56
 70
     1
102
RTVSPropertyOp57
 70
     1
102
RTVSPropertyOp58
 70
     1
102
RTVSPropertyOp59
 70
     1
102
RTVSPropertyOp60
 70
     1
102
RTVSPropertyOp61
 70
     1
102
RTVSPropertyOp62
 70
     1
  0
XRECORD
  5
C393
102
{ACAD_REACTORS
330
C392
102
}
330
C392
100
AcDbXrecord
280
     1
102
RTVSPost2010Prop28
280
     0
102
RTVSPost2010PropOp28
 70
     1
102
RTVSPost2010Prop29
280
     1
102
RTVSPost2010PropOp29
 70
     1
102
RTVSPost2010Prop30
280
     1
102
RTVSPost2010PropOp30
 70
     1
102
RTVSPost2010Prop31
280
     0
102
RTVSPost2010PropOp31
 70
     1
102
RTVSPost2010Prop32
280
     0
102
RTVSPost2010PropOp32
 70
     1
102
RTVSPost2010Prop33
280
     0
102
RTVSPost2010PropOp33
 70
     1
102
RTVSPost2010Prop34
280
     0
102
RTVSPost2010PropOp34
 70
     1
102
RTVSPost2010Prop35
280
     0
102
RTVSPost2010PropOp35
 70
     1
102
RTVSPost2010Prop36
280
     0
102
RTVSPost2010PropOp36
 70
     1
102
RTVSPost2010Prop37
 90
       50
102
RTVSPost2010PropOp37
 70
     1
102
RTVSPost2010Prop38
140
0.0
102
RTVSPost2010PropOp38
 70
     1
102
RTVSPost2010Prop39
140
1.0
102
RTVSPost2010PropOp39
 70
     1
102
RTVSPost2010Prop40
 90
        0
102
RTVSPost2010PropOp40
 70
     1
102
RTVSPost2010Prop41ColorIndex
 90
       18
102
RTVSPost2010Prop41ColorRGB
 90
        0
102
RTVSPost2010PropOp41
 70
     1
102
RTVSPost2010Prop42
 90
       50
102
RTVSPost2010PropOp42
 70
     1
102
RTVSPost2010Prop43
 90
        3
102
RTVSPost2010PropOp43
 70
     1
102
RTVSPost2010Prop44ColorIndex
 90
        5
102
RTVSPost2010Prop44ColorRGB
 90
      255
102
RTVSPost2010PropOp44
 70
     1
102
RTVSPost2010Prop45
280
     0
102
RTVSPost2010PropOp45
 70
     1
102
RTVSPost2010Prop46
 90
       50
102
RTVSPost2010PropOp46
 70
     1
102
RTVSPost2010Prop47
 90
       50
102
RTVSPost2010PropOp47
 70
     1
102
RTVSPost2010Prop48
 90
       50
102
RTVSPost2010PropOp48
 70
     1
102
RTVSPost2010Prop49
280
     0
102
RTVSPost2010PropOp49
 70
     1
102
RTVSPost2010Prop50
 90
       50
102
RTVSPost2010PropOp50
 70
     1
102
RTVSPost2010Prop51ColorIndex
 90
      256
102
RTVSPost2010Prop51ColorRGB
 90
-16777216
102
RTVSPost2010PropOp51
 70
     0
102
RTVSPost2010Prop52
140
1.0
102
RTVSPost2010PropOp52
 70
     0
102
RTVSPost2010Prop53
 90
        2
102
RTVSPost2010PropOp53
 70
     1
102
RTVSPost2010Prop54
  1
strokes_ogs.tif
102
RTVSPost2010PropOp54
 70
     1
102
RTVSPost2010Prop55
280
     0
102
RTVSPost2010PropOp55
 70
     1
102
RTVSPost2010Prop56
140
1.0
102
RTVSPost2010PropOp56
 70
     1
102
RTVSPost2010Prop57
140
1.0
102
RTVSPost2010PropOp57
 70
     1
102
RTVSPropertyOp0
 70
     1
102
RTVSPropertyOp1
 70
     1
102
RTVSPropertyOp2
 70
     1
102
RTVSPropertyOp3
 70
     1
102
RTVSPropertyOp4
 70
     1
102
RTVSPropertyOp5
 70
     1
102
RTVSPropertyOp6
 70
     1
102
RTVSPropertyOp7
 70
     1
102
RTVSPropertyOp8
 70
     1
102
RTVSPropertyOp9
 70
     1
102
RTVSPropertyOp10
 70
     1
102
RTVSPropertyOp11
 70
     1
102
RTVSPropertyOp12
 70
     1
102
RTVSPropertyOp13
 70
     1
102
RTVSPropertyOp14
 70
     1
102
RTVSPropertyOp15
 70
     1
102
RTVSPropertyOp16
 70
     1
102
RTVSPropertyOp17
 70
     1
102
RTVSPropertyOp18
 70
     1
102
RTVSPropertyOp19
 70
     1
102
RTVSPropertyOp20
 70
     1
102
RTVSPropertyOp21
 70
     1
102
RTVSPropertyOp22
 70
     1
102
RTVSPropertyOp23
 70
     1
102
RTVSPropertyOp24
 70
     1
102
RTVSPropertyOp25
 70
     1
102
RTVSPropertyOp26
 70
     1
102
RTVSPropertyOp27
 70
     1
102
RTVSPropertyOp28
 70
     1
102
RTVSPropertyOp29
 70
     1
102
RTVSPropertyOp30
 70
     1
102
RTVSPropertyOp31
 70
     1
102
RTVSPropertyOp32
 70
     1
102
RTVSPropertyOp33
 70
     1
102
RTVSPropertyOp34
 70
     1
102
RTVSPropertyOp35
 70
     1
102
RTVSPropertyOp36
 70
     1
102
RTVSPropertyOp37
 70
     1
102
RTVSPropertyOp38
 70
     1
102
RTVSPropertyOp39
 70
     1
102
RTVSPropertyOp40
 70
     1
102
RTVSPropertyOp41
 70
     1
102
RTVSPropertyOp42
 70
     1
102
RTVSPropertyOp43
 70
     1
102
RTVSPropertyOp44
 70
     1
102
RTVSPropertyOp45
 70
     1
102
RTVSPropertyOp46
 70
     1
102
RTVSPropertyOp47
 70
     1
102
RTVSPropertyOp48
 70
     1
102
RTVSPropertyOp49
 70
     1
102
RTVSPropertyOp50
 70
     1
102
RTVSPropertyOp51
 70
     0
102
RTVSPropertyOp52
 70
     0
102
RTVSPropertyOp53
 70
     1
102
RTVSPropertyOp54
 70
     1
102
RTVSPropertyOp55
 70
     1
102
RTVSPropertyOp56
 70
     1
102
RTVSPropertyOp57
 70
     1
102
RTVSPropertyOp58
 70
     1
102
RTVSPropertyOp59
 70
     1
102
RTVSPropertyOp60
 70
     1
102
RTVSPropertyOp61
 70
     1
102
RTVSPropertyOp62
 70
     1
  0
XRECORD
  5
C385
102
{ACAD_REACTORS
330
C384
102
}
330
C384
100
AcDbXrecord
280
     1
102
RTVSPost2010Prop28
280
     0
102
RTVSPost2010PropOp28
 70
     1
102
RTVSPost2010Prop29
280
     1
102
RTVSPost2010PropOp29
 70
     1
102
RTVSPost2010Prop30
280
     1
102
RTVSPost2010PropOp30
 70
     1
102
RTVSPost2010Prop31
280
     0
102
RTVSPost2010PropOp31
 70
     1
102
RTVSPost2010Prop32
280
     0
102
RTVSPost2010PropOp32
 70
     1
102
RTVSPost2010Prop33
280
     0
102
RTVSPost2010PropOp33
 70
     1
102
RTVSPost2010Prop34
280
     0
102
RTVSPost2010PropOp34
 70
     1
102
RTVSPost2010Prop35
280
     0
102
RTVSPost2010PropOp35
 70
     1
102
RTVSPost2010Prop36
280
     0
102
RTVSPost2010PropOp36
 70
     1
102
RTVSPost2010Prop37
 90
       50
102
RTVSPost2010PropOp37
 70
     1
102
RTVSPost2010Prop38
140
0.0
102
RTVSPost2010PropOp38
 70
     1
102
RTVSPost2010Prop39
140
1.0
102
RTVSPost2010PropOp39
 70
     1
102
RTVSPost2010Prop40
 90
        0
102
RTVSPost2010PropOp40
 70
     1
102
RTVSPost2010Prop41ColorIndex
 90
       18
102
RTVSPost2010Prop41ColorRGB
 90
        0
102
RTVSPost2010PropOp41
 70
     1
102
RTVSPost2010Prop42
 90
       50
102
RTVSPost2010PropOp42
 70
     1
102
RTVSPost2010Prop43
 90
        3
102
RTVSPost2010PropOp43
 70
     1
102
RTVSPost2010Prop44ColorIndex
 90
        5
102
RTVSPost2010Prop44ColorRGB
 90
      255
102
RTVSPost2010PropOp44
 70
     1
102
RTVSPost2010Prop45
280
     0
102
RTVSPost2010PropOp45
 70
     1
102
RTVSPost2010Prop46
 90
       50
102
RTVSPost2010PropOp46
 70
     1
102
RTVSPost2010Prop47
 90
       50
102
RTVSPost2010PropOp47
 70
     1
102
RTVSPost2010Prop48
 90
       50
102
RTVSPost2010PropOp48
 70
     1
102
RTVSPost2010Prop49
280
     0
102
RTVSPost2010PropOp49
 70
     1
102
RTVSPost2010Prop50
 90
       50
102
RTVSPost2010PropOp50
 70
     1
102
RTVSPost2010Prop51ColorIndex
 90
      256
102
RTVSPost2010Prop51ColorRGB
 90
-16777216
102
RTVSPost2010PropOp51
 70
     0
102
RTVSPost2010Prop52
140
1.0
102
RTVSPost2010PropOp52
 70
     0
102
RTVSPost2010Prop53
 90
        2
102
RTVSPost2010PropOp53
 70
     1
102
RTVSPost2010Prop54
  1
strokes_ogs.tif
102
RTVSPost2010PropOp54
 70
     1
102
RTVSPost2010Prop55
280
     0
102
RTVSPost2010PropOp55
 70
     1
102
RTVSPost2010Prop56
140
1.0
102
RTVSPost2010PropOp56
 70
     1
102
RTVSPost2010Prop57
140
1.0
102
RTVSPost2010PropOp57
 70
     1
102
RTVSPropertyOp0
 70
     1
102
RTVSPropertyOp1
 70
     1
102
RTVSPropertyOp2
 70
     1
102
RTVSPropertyOp3
 70
     1
102
RTVSPropertyOp4
 70
     1
102
RTVSPropertyOp5
 70
     1
102
RTVSPropertyOp6
 70
     1
102
RTVSPropertyOp7
 70
     1
102
RTVSPropertyOp8
 70
     1
102
RTVSPropertyOp9
 70
     1
102
RTVSPropertyOp10
 70
     1
102
RTVSPropertyOp11
 70
     1
102
RTVSPropertyOp12
 70
     1
102
RTVSPropertyOp13
 70
     1
102
RTVSPropertyOp14
 70
     1
102
RTVSPropertyOp15
 70
     1
102
RTVSPropertyOp16
 70
     1
102
RTVSPropertyOp17
 70
     1
102
RTVSPropertyOp18
 70
     1
102
RTVSPropertyOp19
 70
     1
102
RTVSPropertyOp20
 70
     1
102
RTVSPropertyOp21
 70
     1
102
RTVSPropertyOp22
 70
     1
102
RTVSPropertyOp23
 70
     1
102
RTVSPropertyOp24
 70
     1
102
RTVSPropertyOp25
 70
     1
102
RTVSPropertyOp26
 70
     1
102
RTVSPropertyOp27
 70
     1
102
RTVSPropertyOp28
 70
     1
102
RTVSPropertyOp29
 70
     1
102
RTVSPropertyOp30
 70
     1
102
RTVSPropertyOp31
 70
     1
102
RTVSPropertyOp32
 70
     1
102
RTVSPropertyOp33
 70
     1
102
RTVSPropertyOp34
 70
     1
102
RTVSPropertyOp35
 70
     1
102
RTVSPropertyOp36
 70
     1
102
RTVSPropertyOp37
 70
     1
102
RTVSPropertyOp38
 70
     1
102
RTVSPropertyOp39
 70
     1
102
RTVSPropertyOp40
 70
     1
102
RTVSPropertyOp41
 70
     1
102
RTVSPropertyOp42
 70
     1
102
RTVSPropertyOp43
 70
     1
102
RTVSPropertyOp44
 70
     1
102
RTVSPropertyOp45
 70
     1
102
RTVSPropertyOp46
 70
     1
102
RTVSPropertyOp47
 70
     1
102
RTVSPropertyOp48
 70
     1
102
RTVSPropertyOp49
 70
     1
102
RTVSPropertyOp50
 70
     1
102
RTVSPropertyOp51
 70
     0
102
RTVSPropertyOp52
 70
     0
102
RTVSPropertyOp53
 70
     1
102
RTVSPropertyOp54
 70
     1
102
RTVSPropertyOp55
 70
     1
102
RTVSPropertyOp56
 70
     1
102
RTVSPropertyOp57
 70
     1
102
RTVSPropertyOp58
 70
     1
102
RTVSPropertyOp59
 70
     1
102
RTVSPropertyOp60
 70
     1
102
RTVSPropertyOp61
 70
     1
102
RTVSPropertyOp62
 70
     1
  0
XRECORD
  5
C389
102
{ACAD_REACTORS
330
C388
102
}
330
C388
100
AcDbXrecord
280
     1
102
RTVSPost2010Prop28
280
     0
102
RTVSPost2010PropOp28
 70
     1
102
RTVSPost2010Prop29
280
     1
102
RTVSPost2010PropOp29
 70
     1
102
RTVSPost2010Prop30
280
     1
102
RTVSPost2010PropOp30
 70
     1
102
RTVSPost2010Prop31
280
     0
102
RTVSPost2010PropOp31
 70
     1
102
RTVSPost2010Prop32
280
     0
102
RTVSPost2010PropOp32
 70
     1
102
RTVSPost2010Prop33
280
     0
102
RTVSPost2010PropOp33
 70
     1
102
RTVSPost2010Prop34
280
     0
102
RTVSPost2010PropOp34
 70
     1
102
RTVSPost2010Prop35
280
     0
102
RTVSPost2010PropOp35
 70
     1
102
RTVSPost2010Prop36
280
     0
102
RTVSPost2010PropOp36
 70
     1
102
RTVSPost2010Prop37
 90
       50
102
RTVSPost2010PropOp37
 70
     1
102
RTVSPost2010Prop38
140
0.0
102
RTVSPost2010PropOp38
 70
     1
102
RTVSPost2010Prop39
140
1.0
102
RTVSPost2010PropOp39
 70
     1
102
RTVSPost2010Prop40
 90
        0
102
RTVSPost2010PropOp40
 70
     1
102
RTVSPost2010Prop41ColorIndex
 90
       18
102
RTVSPost2010Prop41ColorRGB
 90
        0
102
RTVSPost2010PropOp41
 70
     1
102
RTVSPost2010Prop42
 90
       50
102
RTVSPost2010PropOp42
 70
     1
102
RTVSPost2010Prop43
 90
        3
102
RTVSPost2010PropOp43
 70
     1
102
RTVSPost2010Prop44ColorIndex
 90
        5
102
RTVSPost2010Prop44ColorRGB
 90
      255
102
RTVSPost2010PropOp44
 70
     1
102
RTVSPost2010Prop45
280
     0
102
RTVSPost2010PropOp45
 70
     1
102
RTVSPost2010Prop46
 90
       50
102
RTVSPost2010PropOp46
 70
     1
102
RTVSPost2010Prop47
 90
       50
102
RTVSPost2010PropOp47
 70
     1
102
RTVSPost2010Prop48
 90
       50
102
RTVSPost2010PropOp48
 70
     1
102
RTVSPost2010Prop49
280
     0
102
RTVSPost2010PropOp49
 70
     1
102
RTVSPost2010Prop50
 90
       50
102
RTVSPost2010PropOp50
 70
     1
102
RTVSPost2010Prop51ColorIndex
 90
      256
102
RTVSPost2010Prop51ColorRGB
 90
-16777216
102
RTVSPost2010PropOp51
 70
     0
102
RTVSPost2010Prop52
140
1.0
102
RTVSPost2010PropOp52
 70
     0
102
RTVSPost2010Prop53
 90
        2
102
RTVSPost2010PropOp53
 70
     1
102
RTVSPost2010Prop54
  1
strokes_ogs.tif
102
RTVSPost2010PropOp54
 70
     1
102
RTVSPost2010Prop55
280
     0
102
RTVSPost2010PropOp55
 70
     1
102
RTVSPost2010Prop56
140
1.0
102
RTVSPost2010PropOp56
 70
     1
102
RTVSPost2010Prop57
140
1.0
102
RTVSPost2010PropOp57
 70
     1
102
RTVSPropertyOp0
 70
     1
102
RTVSPropertyOp1
 70
     1
102
RTVSPropertyOp2
 70
     1
102
RTVSPropertyOp3
 70
     1
102
RTVSPropertyOp4
 70
     1
102
RTVSPropertyOp5
 70
     1
102
RTVSPropertyOp6
 70
     1
102
RTVSPropertyOp7
 70
     1
102
RTVSPropertyOp8
 70
     1
102
RTVSPropertyOp9
 70
     1
102
RTVSPropertyOp10
 70
     1
102
RTVSPropertyOp11
 70
     1
102
RTVSPropertyOp12
 70
     1
102
RTVSPropertyOp13
 70
     1
102
RTVSPropertyOp14
 70
     1
102
RTVSPropertyOp15
 70
     1
102
RTVSPropertyOp16
 70
     1
102
RTVSPropertyOp17
 70
     1
102
RTVSPropertyOp18
 70
     1
102
RTVSPropertyOp19
 70
     1
102
RTVSPropertyOp20
 70
     1
102
RTVSPropertyOp21
 70
     1
102
RTVSPropertyOp22
 70
     1
102
RTVSPropertyOp23
 70
     1
102
RTVSPropertyOp24
 70
     1
102
RTVSPropertyOp25
 70
     1
102
RTVSPropertyOp26
 70
     1
102
RTVSPropertyOp27
 70
     1
102
RTVSPropertyOp28
 70
     1
102
RTVSPropertyOp29
 70
     1
102
RTVSPropertyOp30
 70
     1
102
RTVSPropertyOp31
 70
     1
102
RTVSPropertyOp32
 70
     1
102
RTVSPropertyOp33
 70
     1
102
RTVSPropertyOp34
 70
     1
102
RTVSPropertyOp35
 70
     1
102
RTVSPropertyOp36
 70
     1
102
RTVSPropertyOp37
 70
     1
102
RTVSPropertyOp38
 70
     1
102
RTVSPropertyOp39
 70
     1
102
RTVSPropertyOp40
 70
     1
102
RTVSPropertyOp41
 70
     1
102
RTVSPropertyOp42
 70
     1
102
RTVSPropertyOp43
 70
     1
102
RTVSPropertyOp44
 70
     1
102
RTVSPropertyOp45
 70
     1
102
RTVSPropertyOp46
 70
     1
102
RTVSPropertyOp47
 70
     1
102
RTVSPropertyOp48
 70
     1
102
RTVSPropertyOp49
 70
     1
102
RTVSPropertyOp50
 70
     1
102
RTVSPropertyOp51
 70
     0
102
RTVSPropertyOp52
 70
     0
102
RTVSPropertyOp53
 70
     1
102
RTVSPropertyOp54
 70
     1
102
RTVSPropertyOp55
 70
     1
102
RTVSPropertyOp56
 70
     1
102
RTVSPropertyOp57
 70
     1
102
RTVSPropertyOp58
 70
     1
102
RTVSPropertyOp59
 70
     1
102
RTVSPropertyOp60
 70
     1
102
RTVSPropertyOp61
 70
     1
102
RTVSPropertyOp62
 70
     1
  0
XRECORD
  5
C3A3
102
{ACAD_REACTORS
330
C3A2
102
}
330
C3A2
100
AcDbXrecord
280
     1
102
RTVSPost2010Prop28
280
     0
102
RTVSPost2010PropOp28
 70
     1
102
RTVSPost2010Prop29
280
     1
102
RTVSPost2010PropOp29
 70
     1
102
RTVSPost2010Prop30
280
     1
102
RTVSPost2010PropOp30
 70
     1
102
RTVSPost2010Prop31
280
     0
102
RTVSPost2010PropOp31
 70
     1
102
RTVSPost2010Prop32
280
     0
102
RTVSPost2010PropOp32
 70
     1
102
RTVSPost2010Prop33
280
     0
102
RTVSPost2010PropOp33
 70
     1
102
RTVSPost2010Prop34
280
     0
102
RTVSPost2010PropOp34
 70
     1
102
RTVSPost2010Prop35
280
     0
102
RTVSPost2010PropOp35
 70
     1
102
RTVSPost2010Prop36
280
     0
102
RTVSPost2010PropOp36
 70
     1
102
RTVSPost2010Prop37
 90
       50
102
RTVSPost2010PropOp37
 70
     0
102
RTVSPost2010Prop38
140
0.0
102
RTVSPost2010PropOp38
 70
     0
102
RTVSPost2010Prop39
140
1.0
102
RTVSPost2010PropOp39
 70
     0
102
RTVSPost2010Prop40
 90
        0
102
RTVSPost2010PropOp40
 70
     0
102
RTVSPost2010Prop41ColorIndex
 90
       18
102
RTVSPost2010Prop41ColorRGB
 90
        0
102
RTVSPost2010PropOp41
 70
     0
102
RTVSPost2010Prop42
 90
       50
102
RTVSPost2010PropOp42
 70
     0
102
RTVSPost2010Prop43
 90
        3
102
RTVSPost2010PropOp43
 70
     0
102
RTVSPost2010Prop44ColorIndex
 90
        5
102
RTVSPost2010Prop44ColorRGB
 90
      255
102
RTVSPost2010PropOp44
 70
     0
102
RTVSPost2010Prop45
280
     0
102
RTVSPost2010PropOp45
 70
     1
102
RTVSPost2010Prop46
 90
       50
102
RTVSPost2010PropOp46
 70
     0
102
RTVSPost2010Prop47
 90
       50
102
RTVSPost2010PropOp47
 70
     0
102
RTVSPost2010Prop48
 90
       50
102
RTVSPost2010PropOp48
 70
     0
102
RTVSPost2010Prop49
280
     0
102
RTVSPost2010PropOp49
 70
     1
102
RTVSPost2010Prop50
 90
       50
102
RTVSPost2010PropOp50
 70
     0
102
RTVSPost2010Prop51ColorIndex
 90
      256
102
RTVSPost2010Prop51ColorRGB
 90
-16777216
102
RTVSPost2010PropOp51
 70
     0
102
RTVSPost2010Prop52
140
1.0
102
RTVSPost2010PropOp52
 70
     0
102
RTVSPost2010Prop53
 90
        2
102
RTVSPost2010PropOp53
 70
     0
102
RTVSPost2010Prop54
  1
strokes_ogs.tif
102
RTVSPost2010PropOp54
 70
     0
102
RTVSPost2010Prop55
280
     0
102
RTVSPost2010PropOp55
 70
     1
102
RTVSPost2010Prop56
140
1.0
102
RTVSPost2010PropOp56
 70
     0
102
RTVSPost2010Prop57
140
1.0
102
RTVSPost2010PropOp57
 70
     0
102
RTVSPropertyOp0
 70
     0
102
RTVSPropertyOp1
 70
     0
102
RTVSPropertyOp2
 70
     0
102
RTVSPropertyOp3
 70
     0
102
RTVSPropertyOp4
 70
     0
102
RTVSPropertyOp5
 70
     0
102
RTVSPropertyOp6
 70
     0
102
RTVSPropertyOp7
 70
     0
102
RTVSPropertyOp8
 70
     0
102
RTVSPropertyOp9
 70
     0
102
RTVSPropertyOp10
 70
     0
102
RTVSPropertyOp11
 70
     0
102
RTVSPropertyOp12
 70
     0
102
RTVSPropertyOp13
 70
     0
102
RTVSPropertyOp14
 70
     2
102
RTVSPropertyOp15
 70
     0
102
RTVSPropertyOp16
 70
     0
102
RTVSPropertyOp17
 70
     0
102
RTVSPropertyOp18
 70
     0
102
RTVSPropertyOp19
 70
     0
102
RTVSPropertyOp20
 70
     0
102
RTVSPropertyOp21
 70
     0
102
RTVSPropertyOp22
 70
     0
102
RTVSPropertyOp23
 70
     0
102
RTVSPropertyOp24
 70
     0
102
RTVSPropertyOp25
 70
     0
102
RTVSPropertyOp26
 70
     0
102
RTVSPropertyOp27
 70
     0
102
RTVSPropertyOp28
 70
     1
102
RTVSPropertyOp29
 70
     1
102
RTVSPropertyOp30
 70
     1
102
RTVSPropertyOp31
 70
     1
102
RTVSPropertyOp32
 70
     1
102
RTVSPropertyOp33
 70
     1
102
RTVSPropertyOp34
 70
     1
102
RTVSPropertyOp35
 70
     1
102
RTVSPropertyOp36
 70
     1
102
RTVSPropertyOp37
 70
     0
102
RTVSPropertyOp38
 70
     0
102
RTVSPropertyOp39
 70
     0
102
RTVSPropertyOp40
 70
     0
102
RTVSPropertyOp41
 70
     0
102
RTVSPropertyOp42
 70
     0
102
RTVSPropertyOp43
 70
     0
102
RTVSPropertyOp44
 70
     0
102
RTVSPropertyOp45
 70
     1
102
RTVSPropertyOp46
 70
     0
102
RTVSPropertyOp47
 70
     0
102
RTVSPropertyOp48
 70
     0
102
RTVSPropertyOp49
 70
     1
102
RTVSPropertyOp50
 70
     0
102
RTVSPropertyOp51
 70
     0
102
RTVSPropertyOp52
 70
     0
102
RTVSPropertyOp53
 70
     0
102
RTVSPropertyOp54
 70
     0
102
RTVSPropertyOp55
 70
     1
102
RTVSPropertyOp56
 70
     0
102
RTVSPropertyOp57
 70
     0
102
RTVSPropertyOp58
 70
     0
102
RTVSPropertyOp59
 70
     0
102
RTVSPropertyOp60
 70
     0
102
RTVSPropertyOp61
 70
     0
102
RTVSPropertyOp62
 70
     0
  0
XRECORD
  5
C391
102
{ACAD_REACTORS
330
C390
102
}
330
C390
100
AcDbXrecord
280
     1
102
RTVSPost2010Prop28
280
     0
102
RTVSPost2010PropOp28
 70
     1
102
RTVSPost2010Prop29
280
     1
102
RTVSPost2010PropOp29
 70
     1
102
RTVSPost2010Prop30
280
     1
102
RTVSPost2010PropOp30
 70
     1
102
RTVSPost2010Prop31
280
     0
102
RTVSPost2010PropOp31
 70
     1
102
RTVSPost2010Prop32
280
     0
102
RTVSPost2010PropOp32
 70
     1
102
RTVSPost2010Prop33
280
     0
102
RTVSPost2010PropOp33
 70
     1
102
RTVSPost2010Prop34
280
     0
102
RTVSPost2010PropOp34
 70
     1
102
RTVSPost2010Prop35
280
     0
102
RTVSPost2010PropOp35
 70
     1
102
RTVSPost2010Prop36
280
     0
102
RTVSPost2010PropOp36
 70
     1
102
RTVSPost2010Prop37
 90
       50
102
RTVSPost2010PropOp37
 70
     1
102
RTVSPost2010Prop38
140
0.0
102
RTVSPost2010PropOp38
 70
     1
102
RTVSPost2010Prop39
140
1.0
102
RTVSPost2010PropOp39
 70
     1
102
RTVSPost2010Prop40
 90
        0
102
RTVSPost2010PropOp40
 70
     1
102
RTVSPost2010Prop41ColorIndex
 90
       18
102
RTVSPost2010Prop41ColorRGB
 90
        0
102
RTVSPost2010PropOp41
 70
     1
102
RTVSPost2010Prop42
 90
       50
102
RTVSPost2010PropOp42
 70
     1
102
RTVSPost2010Prop43
 90
        3
102
RTVSPost2010PropOp43
 70
     1
102
RTVSPost2010Prop44ColorIndex
 90
        5
102
RTVSPost2010Prop44ColorRGB
 90
      255
102
RTVSPost2010PropOp44
 70
     1
102
RTVSPost2010Prop45
280
     0
102
RTVSPost2010PropOp45
 70
     1
102
RTVSPost2010Prop46
 90
       50
102
RTVSPost2010PropOp46
 70
     1
102
RTVSPost2010Prop47
 90
       50
102
RTVSPost2010PropOp47
 70
     1
102
RTVSPost2010Prop48
 90
       50
102
RTVSPost2010PropOp48
 70
     1
102
RTVSPost2010Prop49
280
     0
102
RTVSPost2010PropOp49
 70
     1
102
RTVSPost2010Prop50
 90
       50
102
RTVSPost2010PropOp50
 70
     1
102
RTVSPost2010Prop51ColorIndex
 90
      256
102
RTVSPost2010Prop51ColorRGB
 90
-16777216
102
RTVSPost2010PropOp51
 70
     0
102
RTVSPost2010Prop52
140
1.0
102
RTVSPost2010PropOp52
 70
     0
102
RTVSPost2010Prop53
 90
        2
102
RTVSPost2010PropOp53
 70
     1
102
RTVSPost2010Prop54
  1
strokes_ogs.tif
102
RTVSPost2010PropOp54
 70
     1
102
RTVSPost2010Prop55
280
     0
102
RTVSPost2010PropOp55
 70
     1
102
RTVSPost2010Prop56
140
1.0
102
RTVSPost2010PropOp56
 70
     1
102
RTVSPost2010Prop57
140
1.0
102
RTVSPost2010PropOp57
 70
     1
102
RTVSPropertyOp0
 70
     1
102
RTVSPropertyOp1
 70
     1
102
RTVSPropertyOp2
 70
     1
102
RTVSPropertyOp3
 70
     1
102
RTVSPropertyOp4
 70
     1
102
RTVSPropertyOp5
 70
     1
102
RTVSPropertyOp6
 70
     1
102
RTVSPropertyOp7
 70
     1
102
RTVSPropertyOp8
 70
     1
102
RTVSPropertyOp9
 70
     1
102
RTVSPropertyOp10
 70
     1
102
RTVSPropertyOp11
 70
     1
102
RTVSPropertyOp12
 70
     1
102
RTVSPropertyOp13
 70
     1
102
RTVSPropertyOp14
 70
     1
102
RTVSPropertyOp15
 70
     1
102
RTVSPropertyOp16
 70
     1
102
RTVSPropertyOp17
 70
     1
102
RTVSPropertyOp18
 70
     1
102
RTVSPropertyOp19
 70
     1
102
RTVSPropertyOp20
 70
     1
102
RTVSPropertyOp21
 70
     1
102
RTVSPropertyOp22
 70
     1
102
RTVSPropertyOp23
 70
     1
102
RTVSPropertyOp24
 70
     1
102
RTVSPropertyOp25
 70
     1
102
RTVSPropertyOp26
 70
     1
102
RTVSPropertyOp27
 70
     1
102
RTVSPropertyOp28
 70
     1
102
RTVSPropertyOp29
 70
     1
102
RTVSPropertyOp30
 70
     1
102
RTVSPropertyOp31
 70
     1
102
RTVSPropertyOp32
 70
     1
102
RTVSPropertyOp33
 70
     1
102
RTVSPropertyOp34
 70
     1
102
RTVSPropertyOp35
 70
     1
102
RTVSPropertyOp36
 70
     1
102
RTVSPropertyOp37
 70
     1
102
RTVSPropertyOp38
 70
     1
102
RTVSPropertyOp39
 70
     1
102
RTVSPropertyOp40
 70
     1
102
RTVSPropertyOp41
 70
     1
102
RTVSPropertyOp42
 70
     1
102
RTVSPropertyOp43
 70
     1
102
RTVSPropertyOp44
 70
     1
102
RTVSPropertyOp45
 70
     1
102
RTVSPropertyOp46
 70
     1
102
RTVSPropertyOp47
 70
     1
102
RTVSPropertyOp48
 70
     1
102
RTVSPropertyOp49
 70
     1
102
RTVSPropertyOp50
 70
     1
102
RTVSPropertyOp51
 70
     0
102
RTVSPropertyOp52
 70
     0
102
RTVSPropertyOp53
 70
     1
102
RTVSPropertyOp54
 70
     1
102
RTVSPropertyOp55
 70
     1
102
RTVSPropertyOp56
 70
     1
102
RTVSPropertyOp57
 70
     1
102
RTVSPropertyOp58
 70
     1
102
RTVSPropertyOp59
 70
     1
102
RTVSPropertyOp60
 70
     1
102
RTVSPropertyOp61
 70
     1
102
RTVSPropertyOp62
 70
     1
  0
XRECORD
  5
C375
102
{ACAD_REACTORS
330
C374
102
}
330
C374
100
AcDbXrecord
280
     1
102
RTVSPost2010Prop28
280
     0
102
RTVSPost2010PropOp28
 70
     1
102
RTVSPost2010Prop29
280
     1
102
RTVSPost2010PropOp29
 70
     1
102
RTVSPost2010Prop30
280
     1
102
RTVSPost2010PropOp30
 70
     1
102
RTVSPost2010Prop31
280
     0
102
RTVSPost2010PropOp31
 70
     1
102
RTVSPost2010Prop32
280
     0
102
RTVSPost2010PropOp32
 70
     1
102
RTVSPost2010Prop33
280
     0
102
RTVSPost2010PropOp33
 70
     1
102
RTVSPost2010Prop34
280
     0
102
RTVSPost2010PropOp34
 70
     1
102
RTVSPost2010Prop35
280
     0
102
RTVSPost2010PropOp35
 70
     1
102
RTVSPost2010Prop36
280
     0
102
RTVSPost2010PropOp36
 70
     1
102
RTVSPost2010Prop37
 90
       50
102
RTVSPost2010PropOp37
 70
     1
102
RTVSPost2010Prop38
140
0.0
102
RTVSPost2010PropOp38
 70
     1
102
RTVSPost2010Prop39
140
1.0
102
RTVSPost2010PropOp39
 70
     1
102
RTVSPost2010Prop40
 90
        0
102
RTVSPost2010PropOp40
 70
     1
102
RTVSPost2010Prop41ColorIndex
 90
       18
102
RTVSPost2010Prop41ColorRGB
 90
        0
102
RTVSPost2010PropOp41
 70
     1
102
RTVSPost2010Prop42
 90
       50
102
RTVSPost2010PropOp42
 70
     1
102
RTVSPost2010Prop43
 90
        3
102
RTVSPost2010PropOp43
 70
     1
102
RTVSPost2010Prop44ColorIndex
 90
        5
102
RTVSPost2010Prop44ColorRGB
 90
      255
102
RTVSPost2010PropOp44
 70
     1
102
RTVSPost2010Prop45
280
     0
102
RTVSPost2010PropOp45
 70
     1
102
RTVSPost2010Prop46
 90
       50
102
RTVSPost2010PropOp46
 70
     1
102
RTVSPost2010Prop47
 90
       50
102
RTVSPost2010PropOp47
 70
     1
102
RTVSPost2010Prop48
 90
       50
102
RTVSPost2010PropOp48
 70
     1
102
RTVSPost2010Prop49
280
     0
102
RTVSPost2010PropOp49
 70
     1
102
RTVSPost2010Prop50
 90
       50
102
RTVSPost2010PropOp50
 70
     1
102
RTVSPost2010Prop51ColorIndex
 90
      256
102
RTVSPost2010Prop51ColorRGB
 90
-16777216
102
RTVSPost2010PropOp51
 70
     0
102
RTVSPost2010Prop52
140
1.0
102
RTVSPost2010PropOp52
 70
     0
102
RTVSPost2010Prop53
 90
        2
102
RTVSPost2010PropOp53
 70
     1
102
RTVSPost2010Prop54
  1
strokes_ogs.tif
102
RTVSPost2010PropOp54
 70
     1
102
RTVSPost2010Prop55
280
     0
102
RTVSPost2010PropOp55
 70
     1
102
RTVSPost2010Prop56
140
1.0
102
RTVSPost2010PropOp56
 70
     1
102
RTVSPost2010Prop57
140
1.0
102
RTVSPost2010PropOp57
 70
     1
102
RTVSPropertyOp0
 70
     1
102
RTVSPropertyOp1
 70
     1
102
RTVSPropertyOp2
 70
     1
102
RTVSPropertyOp3
 70
     1
102
RTVSPropertyOp4
 70
     1
102
RTVSPropertyOp5
 70
     1
102
RTVSPropertyOp6
 70
     1
102
RTVSPropertyOp7
 70
     1
102
RTVSPropertyOp8
 70
     1
102
RTVSPropertyOp9
 70
     1
102
RTVSPropertyOp10
 70
     1
102
RTVSPropertyOp11
 70
     1
102
RTVSPropertyOp12
 70
     1
102
RTVSPropertyOp13
 70
     1
102
RTVSPropertyOp14
 70
     1
102
RTVSPropertyOp15
 70
     1
102
RTVSPropertyOp16
 70
     1
102
RTVSPropertyOp17
 70
     1
102
RTVSPropertyOp18
 70
     1
102
RTVSPropertyOp19
 70
     1
102
RTVSPropertyOp20
 70
     1
102
RTVSPropertyOp21
 70
     1
102
RTVSPropertyOp22
 70
     1
102
RTVSPropertyOp23
 70
     1
102
RTVSPropertyOp24
 70
     1
102
RTVSPropertyOp25
 70
     1
102
RTVSPropertyOp26
 70
     1
102
RTVSPropertyOp27
 70
     1
102
RTVSPropertyOp28
 70
     1
102
RTVSPropertyOp29
 70
     1
102
RTVSPropertyOp30
 70
     1
102
RTVSPropertyOp31
 70
     1
102
RTVSPropertyOp32
 70
     1
102
RTVSPropertyOp33
 70
     1
102
RTVSPropertyOp34
 70
     1
102
RTVSPropertyOp35
 70
     1
102
RTVSPropertyOp36
 70
     1
102
RTVSPropertyOp37
 70
     1
102
RTVSPropertyOp38
 70
     1
102
RTVSPropertyOp39
 70
     1
102
RTVSPropertyOp40
 70
     1
102
RTVSPropertyOp41
 70
     1
102
RTVSPropertyOp42
 70
     1
102
RTVSPropertyOp43
 70
     1
102
RTVSPropertyOp44
 70
     1
102
RTVSPropertyOp45
 70
     1
102
RTVSPropertyOp46
 70
     1
102
RTVSPropertyOp47
 70
     1
102
RTVSPropertyOp48
 70
     1
102
RTVSPropertyOp49
 70
     1
102
RTVSPropertyOp50
 70
     1
102
RTVSPropertyOp51
 70
     0
102
RTVSPropertyOp52
 70
     0
102
RTVSPropertyOp53
 70
     1
102
RTVSPropertyOp54
 70
     1
102
RTVSPropertyOp55
 70
     1
102
RTVSPropertyOp56
 70
     1
102
RTVSPropertyOp57
 70
     1
102
RTVSPropertyOp58
 70
     1
102
RTVSPropertyOp59
 70
     1
102
RTVSPropertyOp60
 70
     1
102
RTVSPropertyOp61
 70
     1
102
RTVSPropertyOp62
 70
     1
  0
XRECORD
  5
C377
102
{ACAD_REACTORS
330
C376
102
}
330
C376
100
AcDbXrecord
280
     1
102
RTVSPost2010Prop28
280
     0
102
RTVSPost2010PropOp28
 70
     1
102
RTVSPost2010Prop29
280
     1
102
RTVSPost2010PropOp29
 70
     1
102
RTVSPost2010Prop30
280
     1
102
RTVSPost2010PropOp30
 70
     1
102
RTVSPost2010Prop31
280
     0
102
RTVSPost2010PropOp31
 70
     1
102
RTVSPost2010Prop32
280
     0
102
RTVSPost2010PropOp32
 70
     1
102
RTVSPost2010Prop33
280
     0
102
RTVSPost2010PropOp33
 70
     1
102
RTVSPost2010Prop34
280
     0
102
RTVSPost2010PropOp34
 70
     1
102
RTVSPost2010Prop35
280
     0
102
RTVSPost2010PropOp35
 70
     1
102
RTVSPost2010Prop36
280
     0
102
RTVSPost2010PropOp36
 70
     1
102
RTVSPost2010Prop37
 90
       50
102
RTVSPost2010PropOp37
 70
     1
102
RTVSPost2010Prop38
140
0.0
102
RTVSPost2010PropOp38
 70
     1
102
RTVSPost2010Prop39
140
1.0
102
RTVSPost2010PropOp39
 70
     1
102
RTVSPost2010Prop40
 90
        0
102
RTVSPost2010PropOp40
 70
     1
102
RTVSPost2010Prop41ColorIndex
 90
       18
102
RTVSPost2010Prop41ColorRGB
 90
        0
102
RTVSPost2010PropOp41
 70
     1
102
RTVSPost2010Prop42
 90
       50
102
RTVSPost2010PropOp42
 70
     1
102
RTVSPost2010Prop43
 90
        3
102
RTVSPost2010PropOp43
 70
     1
102
RTVSPost2010Prop44ColorIndex
 90
        5
102
RTVSPost2010Prop44ColorRGB
 90
      255
102
RTVSPost2010PropOp44
 70
     1
102
RTVSPost2010Prop45
280
     0
102
RTVSPost2010PropOp45
 70
     1
102
RTVSPost2010Prop46
 90
       50
102
RTVSPost2010PropOp46
 70
     1
102
RTVSPost2010Prop47
 90
       50
102
RTVSPost2010PropOp47
 70
     1
102
RTVSPost2010Prop48
 90
       50
102
RTVSPost2010PropOp48
 70
     1
102
RTVSPost2010Prop49
280
     0
102
RTVSPost2010PropOp49
 70
     1
102
RTVSPost2010Prop50
 90
       50
102
RTVSPost2010PropOp50
 70
     1
102
RTVSPost2010Prop51ColorIndex
 90
      256
102
RTVSPost2010Prop51ColorRGB
 90
-16777216
102
RTVSPost2010PropOp51
 70
     0
102
RTVSPost2010Prop52
140
1.0
102
RTVSPost2010PropOp52
 70
     0
102
RTVSPost2010Prop53
 90
        2
102
RTVSPost2010PropOp53
 70
     1
102
RTVSPost2010Prop54
  1
strokes_ogs.tif
102
RTVSPost2010PropOp54
 70
     1
102
RTVSPost2010Prop55
280
     0
102
RTVSPost2010PropOp55
 70
     1
102
RTVSPost2010Prop56
140
1.0
102
RTVSPost2010PropOp56
 70
     1
102
RTVSPost2010Prop57
140
1.0
102
RTVSPost2010PropOp57
 70
     1
102
RTVSPropertyOp0
 70
     1
102
RTVSPropertyOp1
 70
     1
102
RTVSPropertyOp2
 70
     1
102
RTVSPropertyOp3
 70
     1
102
RTVSPropertyOp4
 70
     1
102
RTVSPropertyOp5
 70
     1
102
RTVSPropertyOp6
 70
     1
102
RTVSPropertyOp7
 70
     1
102
RTVSPropertyOp8
 70
     1
102
RTVSPropertyOp9
 70
     1
102
RTVSPropertyOp10
 70
     1
102
RTVSPropertyOp11
 70
     1
102
RTVSPropertyOp12
 70
     1
102
RTVSPropertyOp13
 70
     1
102
RTVSPropertyOp14
 70
     1
102
RTVSPropertyOp15
 70
     1
102
RTVSPropertyOp16
 70
     1
102
RTVSPropertyOp17
 70
     1
102
RTVSPropertyOp18
 70
     1
102
RTVSPropertyOp19
 70
     1
102
RTVSPropertyOp20
 70
     1
102
RTVSPropertyOp21
 70
     1
102
RTVSPropertyOp22
 70
     1
102
RTVSPropertyOp23
 70
     1
102
RTVSPropertyOp24
 70
     1
102
RTVSPropertyOp25
 70
     1
102
RTVSPropertyOp26
 70
     1
102
RTVSPropertyOp27
 70
     1
102
RTVSPropertyOp28
 70
     1
102
RTVSPropertyOp29
 70
     1
102
RTVSPropertyOp30
 70
     1
102
RTVSPropertyOp31
 70
     1
102
RTVSPropertyOp32
 70
     1
102
RTVSPropertyOp33
 70
     1
102
RTVSPropertyOp34
 70
     1
102
RTVSPropertyOp35
 70
     1
102
RTVSPropertyOp36
 70
     1
102
RTVSPropertyOp37
 70
     1
102
RTVSPropertyOp38
 70
     1
102
RTVSPropertyOp39
 70
     1
102
RTVSPropertyOp40
 70
     1
102
RTVSPropertyOp41
 70
     1
102
RTVSPropertyOp42
 70
     1
102
RTVSPropertyOp43
 70
     1
102
RTVSPropertyOp44
 70
     1
102
RTVSPropertyOp45
 70
     1
102
RTVSPropertyOp46
 70
     1
102
RTVSPropertyOp47
 70
     1
102
RTVSPropertyOp48
 70
     1
102
RTVSPropertyOp49
 70
     1
102
RTVSPropertyOp50
 70
     1
102
RTVSPropertyOp51
 70
     0
102
RTVSPropertyOp52
 70
     0
102
RTVSPropertyOp53
 70
     1
102
RTVSPropertyOp54
 70
     1
102
RTVSPropertyOp55
 70
     1
102
RTVSPropertyOp56
 70
     1
102
RTVSPropertyOp57
 70
     1
102
RTVSPropertyOp58
 70
     1
102
RTVSPropertyOp59
 70
     1
102
RTVSPropertyOp60
 70
     1
102
RTVSPropertyOp61
 70
     1
102
RTVSPropertyOp62
 70
     1
  0
XRECORD
  5
C379
102
{ACAD_REACTORS
330
C378
102
}
330
C378
100
AcDbXrecord
280
     1
102
RTVSPost2010Prop28
280
     0
102
RTVSPost2010PropOp28
 70
     1
102
RTVSPost2010Prop29
280
     1
102
RTVSPost2010PropOp29
 70
     1
102
RTVSPost2010Prop30
280
     1
102
RTVSPost2010PropOp30
 70
     1
102
RTVSPost2010Prop31
280
     0
102
RTVSPost2010PropOp31
 70
     1
102
RTVSPost2010Prop32
280
     0
102
RTVSPost2010PropOp32
 70
     1
102
RTVSPost2010Prop33
280
     0
102
RTVSPost2010PropOp33
 70
     1
102
RTVSPost2010Prop34
280
     0
102
RTVSPost2010PropOp34
 70
     1
102
RTVSPost2010Prop35
280
     0
102
RTVSPost2010PropOp35
 70
     1
102
RTVSPost2010Prop36
280
     0
102
RTVSPost2010PropOp36
 70
     1
102
RTVSPost2010Prop37
 90
       50
102
RTVSPost2010PropOp37
 70
     1
102
RTVSPost2010Prop38
140
0.0
102
RTVSPost2010PropOp38
 70
     1
102
RTVSPost2010Prop39
140
1.0
102
RTVSPost2010PropOp39
 70
     1
102
RTVSPost2010Prop40
 90
        0
102
RTVSPost2010PropOp40
 70
     1
102
RTVSPost2010Prop41ColorIndex
 90
       18
102
RTVSPost2010Prop41ColorRGB
 90
        0
102
RTVSPost2010PropOp41
 70
     1
102
RTVSPost2010Prop42
 90
       50
102
RTVSPost2010PropOp42
 70
     1
102
RTVSPost2010Prop43
 90
        3
102
RTVSPost2010PropOp43
 70
     1
102
RTVSPost2010Prop44ColorIndex
 90
        5
102
RTVSPost2010Prop44ColorRGB
 90
      255
102
RTVSPost2010PropOp44
 70
     1
102
RTVSPost2010Prop45
280
     0
102
RTVSPost2010PropOp45
 70
     1
102
RTVSPost2010Prop46
 90
       50
102
RTVSPost2010PropOp46
 70
     1
102
RTVSPost2010Prop47
 90
       50
102
RTVSPost2010PropOp47
 70
     1
102
RTVSPost2010Prop48
 90
       50
102
RTVSPost2010PropOp48
 70
     1
102
RTVSPost2010Prop49
280
     0
102
RTVSPost2010PropOp49
 70
     1
102
RTVSPost2010Prop50
 90
       50
102
RTVSPost2010PropOp50
 70
     1
102
RTVSPost2010Prop51ColorIndex
 90
      256
102
RTVSPost2010Prop51ColorRGB
 90
-16777216
102
RTVSPost2010PropOp51
 70
     0
102
RTVSPost2010Prop52
140
1.0
102
RTVSPost2010PropOp52
 70
     0
102
RTVSPost2010Prop53
 90
        2
102
RTVSPost2010PropOp53
 70
     1
102
RTVSPost2010Prop54
  1
strokes_ogs.tif
102
RTVSPost2010PropOp54
 70
     1
102
RTVSPost2010Prop55
280
     0
102
RTVSPost2010PropOp55
 70
     1
102
RTVSPost2010Prop56
140
1.0
102
RTVSPost2010PropOp56
 70
     1
102
RTVSPost2010Prop57
140
1.0
102
RTVSPost2010PropOp57
 70
     1
102
RTVSPropertyOp0
 70
     1
102
RTVSPropertyOp1
 70
     1
102
RTVSPropertyOp2
 70
     1
102
RTVSPropertyOp3
 70
     1
102
RTVSPropertyOp4
 70
     1
102
RTVSPropertyOp5
 70
     1
102
RTVSPropertyOp6
 70
     1
102
RTVSPropertyOp7
 70
     1
102
RTVSPropertyOp8
 70
     1
102
RTVSPropertyOp9
 70
     1
102
RTVSPropertyOp10
 70
     1
102
RTVSPropertyOp11
 70
     1
102
RTVSPropertyOp12
 70
     1
102
RTVSPropertyOp13
 70
     1
102
RTVSPropertyOp14
 70
     1
102
RTVSPropertyOp15
 70
     1
102
RTVSPropertyOp16
 70
     1
102
RTVSPropertyOp17
 70
     1
102
RTVSPropertyOp18
 70
     1
102
RTVSPropertyOp19
 70
     1
102
RTVSPropertyOp20
 70
     1
102
RTVSPropertyOp21
 70
     1
102
RTVSPropertyOp22
 70
     1
102
RTVSPropertyOp23
 70
     1
102
RTVSPropertyOp24
 70
     1
102
RTVSPropertyOp25
 70
     1
102
RTVSPropertyOp26
 70
     1
102
RTVSPropertyOp27
 70
     1
102
RTVSPropertyOp28
 70
     1
102
RTVSPropertyOp29
 70
     1
102
RTVSPropertyOp30
 70
     1
102
RTVSPropertyOp31
 70
     1
102
RTVSPropertyOp32
 70
     1
102
RTVSPropertyOp33
 70
     1
102
RTVSPropertyOp34
 70
     1
102
RTVSPropertyOp35
 70
     1
102
RTVSPropertyOp36
 70
     1
102
RTVSPropertyOp37
 70
     1
102
RTVSPropertyOp38
 70
     1
102
RTVSPropertyOp39
 70
     1
102
RTVSPropertyOp40
 70
     1
102
RTVSPropertyOp41
 70
     1
102
RTVSPropertyOp42
 70
     1
102
RTVSPropertyOp43
 70
     1
102
RTVSPropertyOp44
 70
     1
102
RTVSPropertyOp45
 70
     1
102
RTVSPropertyOp46
 70
     1
102
RTVSPropertyOp47
 70
     1
102
RTVSPropertyOp48
 70
     1
102
RTVSPropertyOp49
 70
     1
102
RTVSPropertyOp50
 70
     1
102
RTVSPropertyOp51
 70
     0
102
RTVSPropertyOp52
 70
     0
102
RTVSPropertyOp53
 70
     1
102
RTVSPropertyOp54
 70
     1
102
RTVSPropertyOp55
 70
     1
102
RTVSPropertyOp56
 70
     1
102
RTVSPropertyOp57
 70
     1
102
RTVSPropertyOp58
 70
     1
102
RTVSPropertyOp59
 70
     1
102
RTVSPropertyOp60
 70
     1
102
RTVSPropertyOp61
 70
     1
102
RTVSPropertyOp62
 70
     1
  0
XRECORD
  5
C37B
102
{ACAD_REACTORS
330
C37A
102
}
330
C37A
100
AcDbXrecord
280
     1
102
RTVSPost2010Prop28
280
     0
102
RTVSPost2010PropOp28
 70
     1
102
RTVSPost2010Prop29
280
     1
102
RTVSPost2010PropOp29
 70
     1
102
RTVSPost2010Prop30
280
     1
102
RTVSPost2010PropOp30
 70
     1
102
RTVSPost2010Prop31
280
     0
102
RTVSPost2010PropOp31
 70
     1
102
RTVSPost2010Prop32
280
     0
102
RTVSPost2010PropOp32
 70
     1
102
RTVSPost2010Prop33
280
     0
102
RTVSPost2010PropOp33
 70
     1
102
RTVSPost2010Prop34
280
     0
102
RTVSPost2010PropOp34
 70
     1
102
RTVSPost2010Prop35
280
     0
102
RTVSPost2010PropOp35
 70
     1
102
RTVSPost2010Prop36
280
     0
102
RTVSPost2010PropOp36
 70
     1
102
RTVSPost2010Prop37
 90
       50
102
RTVSPost2010PropOp37
 70
     1
102
RTVSPost2010Prop38
140
0.0
102
RTVSPost2010PropOp38
 70
     1
102
RTVSPost2010Prop39
140
1.0
102
RTVSPost2010PropOp39
 70
     1
102
RTVSPost2010Prop40
 90
        0
102
RTVSPost2010PropOp40
 70
     1
102
RTVSPost2010Prop41ColorIndex
 90
       18
102
RTVSPost2010Prop41ColorRGB
 90
        0
102
RTVSPost2010PropOp41
 70
     1
102
RTVSPost2010Prop42
 90
       50
102
RTVSPost2010PropOp42
 70
     1
102
RTVSPost2010Prop43
 90
        3
102
RTVSPost2010PropOp43
 70
     1
102
RTVSPost2010Prop44ColorIndex
 90
        5
102
RTVSPost2010Prop44ColorRGB
 90
      255
102
RTVSPost2010PropOp44
 70
     1
102
RTVSPost2010Prop45
280
     0
102
RTVSPost2010PropOp45
 70
     1
102
RTVSPost2010Prop46
 90
       50
102
RTVSPost2010PropOp46
 70
     1
102
RTVSPost2010Prop47
 90
       50
102
RTVSPost2010PropOp47
 70
     1
102
RTVSPost2010Prop48
 90
       50
102
RTVSPost2010PropOp48
 70
     1
102
RTVSPost2010Prop49
280
     0
102
RTVSPost2010PropOp49
 70
     1
102
RTVSPost2010Prop50
 90
       50
102
RTVSPost2010PropOp50
 70
     1
102
RTVSPost2010Prop51ColorIndex
 90
      256
102
RTVSPost2010Prop51ColorRGB
 90
-16777216
102
RTVSPost2010PropOp51
 70
     0
102
RTVSPost2010Prop52
140
1.0
102
RTVSPost2010PropOp52
 70
     0
102
RTVSPost2010Prop53
 90
        2
102
RTVSPost2010PropOp53
 70
     1
102
RTVSPost2010Prop54
  1
strokes_ogs.tif
102
RTVSPost2010PropOp54
 70
     1
102
RTVSPost2010Prop55
280
     0
102
RTVSPost2010PropOp55
 70
     1
102
RTVSPost2010Prop56
140
1.0
102
RTVSPost2010PropOp56
 70
     1
102
RTVSPost2010Prop57
140
1.0
102
RTVSPost2010PropOp57
 70
     1
102
RTVSPropertyOp0
 70
     1
102
RTVSPropertyOp1
 70
     1
102
RTVSPropertyOp2
 70
     1
102
RTVSPropertyOp3
 70
     1
102
RTVSPropertyOp4
 70
     1
102
RTVSPropertyOp5
 70
     1
102
RTVSPropertyOp6
 70
     1
102
RTVSPropertyOp7
 70
     1
102
RTVSPropertyOp8
 70
     1
102
RTVSPropertyOp9
 70
     1
102
RTVSPropertyOp10
 70
     1
102
RTVSPropertyOp11
 70
     1
102
RTVSPropertyOp12
 70
     1
102
RTVSPropertyOp13
 70
     1
102
RTVSPropertyOp14
 70
     1
102
RTVSPropertyOp15
 70
     1
102
RTVSPropertyOp16
 70
     1
102
RTVSPropertyOp17
 70
     1
102
RTVSPropertyOp18
 70
     1
102
RTVSPropertyOp19
 70
     1
102
RTVSPropertyOp20
 70
     1
102
RTVSPropertyOp21
 70
     1
102
RTVSPropertyOp22
 70
     1
102
RTVSPropertyOp23
 70
     1
102
RTVSPropertyOp24
 70
     1
102
RTVSPropertyOp25
 70
     1
102
RTVSPropertyOp26
 70
     1
102
RTVSPropertyOp27
 70
     1
102
RTVSPropertyOp28
 70
     1
102
RTVSPropertyOp29
 70
     1
102
RTVSPropertyOp30
 70
     1
102
RTVSPropertyOp31
 70
     1
102
RTVSPropertyOp32
 70
     1
102
RTVSPropertyOp33
 70
     1
102
RTVSPropertyOp34
 70
     1
102
RTVSPropertyOp35
 70
     1
102
RTVSPropertyOp36
 70
     1
102
RTVSPropertyOp37
 70
     1
102
RTVSPropertyOp38
 70
     1
102
RTVSPropertyOp39
 70
     1
102
RTVSPropertyOp40
 70
     1
102
RTVSPropertyOp41
 70
     1
102
RTVSPropertyOp42
 70
     1
102
RTVSPropertyOp43
 70
     1
102
RTVSPropertyOp44
 70
     1
102
RTVSPropertyOp45
 70
     1
102
RTVSPropertyOp46
 70
     1
102
RTVSPropertyOp47
 70
     1
102
RTVSPropertyOp48
 70
     1
102
RTVSPropertyOp49
 70
     1
102
RTVSPropertyOp50
 70
     1
102
RTVSPropertyOp51
 70
     0
102
RTVSPropertyOp52
 70
     0
102
RTVSPropertyOp53
 70
     1
102
RTVSPropertyOp54
 70
     1
102
RTVSPropertyOp55
 70
     1
102
RTVSPropertyOp56
 70
     1
102
RTVSPropertyOp57
 70
     1
102
RTVSPropertyOp58
 70
     1
102
RTVSPropertyOp59
 70
     1
102
RTVSPropertyOp60
 70
     1
102
RTVSPropertyOp61
 70
     1
102
RTVSPropertyOp62
 70
     1
  0
XRECORD
  5
C383
102
{ACAD_REACTORS
330
C382
102
}
330
C382
100
AcDbXrecord
280
     1
102
RTVSPost2010Prop28
280
     0
102
RTVSPost2010PropOp28
 70
     1
102
RTVSPost2010Prop29
280
     1
102
RTVSPost2010PropOp29
 70
     1
102
RTVSPost2010Prop30
280
     1
102
RTVSPost2010PropOp30
 70
     1
102
RTVSPost2010Prop31
280
     0
102
RTVSPost2010PropOp31
 70
     1
102
RTVSPost2010Prop32
280
     0
102
RTVSPost2010PropOp32
 70
     1
102
RTVSPost2010Prop33
280
     0
102
RTVSPost2010PropOp33
 70
     1
102
RTVSPost2010Prop34
280
     0
102
RTVSPost2010PropOp34
 70
     1
102
RTVSPost2010Prop35
280
     0
102
RTVSPost2010PropOp35
 70
     1
102
RTVSPost2010Prop36
280
     0
102
RTVSPost2010PropOp36
 70
     1
102
RTVSPost2010Prop37
 90
       50
102
RTVSPost2010PropOp37
 70
     1
102
RTVSPost2010Prop38
140
0.0
102
RTVSPost2010PropOp38
 70
     1
102
RTVSPost2010Prop39
140
1.0
102
RTVSPost2010PropOp39
 70
     1
102
RTVSPost2010Prop40
 90
        0
102
RTVSPost2010PropOp40
 70
     1
102
RTVSPost2010Prop41ColorIndex
 90
       18
102
RTVSPost2010Prop41ColorRGB
 90
        0
102
RTVSPost2010PropOp41
 70
     1
102
RTVSPost2010Prop42
 90
       50
102
RTVSPost2010PropOp42
 70
     1
102
RTVSPost2010Prop43
 90
        3
102
RTVSPost2010PropOp43
 70
     1
102
RTVSPost2010Prop44ColorIndex
 90
        5
102
RTVSPost2010Prop44ColorRGB
 90
      255
102
RTVSPost2010PropOp44
 70
     1
102
RTVSPost2010Prop45
280
     0
102
RTVSPost2010PropOp45
 70
     1
102
RTVSPost2010Prop46
 90
       50
102
RTVSPost2010PropOp46
 70
     1
102
RTVSPost2010Prop47
 90
       50
102
RTVSPost2010PropOp47
 70
     1
102
RTVSPost2010Prop48
 90
       50
102
RTVSPost2010PropOp48
 70
     1
102
RTVSPost2010Prop49
280
     0
102
RTVSPost2010PropOp49
 70
     1
102
RTVSPost2010Prop50
 90
       50
102
RTVSPost2010PropOp50
 70
     1
102
RTVSPost2010Prop51ColorIndex
 90
      256
102
RTVSPost2010Prop51ColorRGB
 90
-16777216
102
RTVSPost2010PropOp51
 70
     0
102
RTVSPost2010Prop52
140
1.0
102
RTVSPost2010PropOp52
 70
     0
102
RTVSPost2010Prop53
 90
        2
102
RTVSPost2010PropOp53
 70
     1
102
RTVSPost2010Prop54
  1
strokes_ogs.tif
102
RTVSPost2010PropOp54
 70
     1
102
RTVSPost2010Prop55
280
     0
102
RTVSPost2010PropOp55
 70
     1
102
RTVSPost2010Prop56
140
1.0
102
RTVSPost2010PropOp56
 70
     1
102
RTVSPost2010Prop57
140
1.0
102
RTVSPost2010PropOp57
 70
     1
102
RTVSPropertyOp0
 70
     1
102
RTVSPropertyOp1
 70
     1
102
RTVSPropertyOp2
 70
     1
102
RTVSPropertyOp3
 70
     1
102
RTVSPropertyOp4
 70
     1
102
RTVSPropertyOp5
 70
     1
102
RTVSPropertyOp6
 70
     1
102
RTVSPropertyOp7
 70
     1
102
RTVSPropertyOp8
 70
     1
102
RTVSPropertyOp9
 70
     1
102
RTVSPropertyOp10
 70
     1
102
RTVSPropertyOp11
 70
     1
102
RTVSPropertyOp12
 70
     1
102
RTVSPropertyOp13
 70
     1
102
RTVSPropertyOp14
 70
     1
102
RTVSPropertyOp15
 70
     1
102
RTVSPropertyOp16
 70
     1
102
RTVSPropertyOp17
 70
     1
102
RTVSPropertyOp18
 70
     1
102
RTVSPropertyOp19
 70
     1
102
RTVSPropertyOp20
 70
     1
102
RTVSPropertyOp21
 70
     1
102
RTVSPropertyOp22
 70
     1
102
RTVSPropertyOp23
 70
     1
102
RTVSPropertyOp24
 70
     1
102
RTVSPropertyOp25
 70
     1
102
RTVSPropertyOp26
 70
     1
102
RTVSPropertyOp27
 70
     1
102
RTVSPropertyOp28
 70
     1
102
RTVSPropertyOp29
 70
     1
102
RTVSPropertyOp30
 70
     1
102
RTVSPropertyOp31
 70
     1
102
RTVSPropertyOp32
 70
     1
102
RTVSPropertyOp33
 70
     1
102
RTVSPropertyOp34
 70
     1
102
RTVSPropertyOp35
 70
     1
102
RTVSPropertyOp36
 70
     1
102
RTVSPropertyOp37
 70
     1
102
RTVSPropertyOp38
 70
     1
102
RTVSPropertyOp39
 70
     1
102
RTVSPropertyOp40
 70
     1
102
RTVSPropertyOp41
 70
     1
102
RTVSPropertyOp42
 70
     1
102
RTVSPropertyOp43
 70
     1
102
RTVSPropertyOp44
 70
     1
102
RTVSPropertyOp45
 70
     1
102
RTVSPropertyOp46
 70
     1
102
RTVSPropertyOp47
 70
     1
102
RTVSPropertyOp48
 70
     1
102
RTVSPropertyOp49
 70
     1
102
RTVSPropertyOp50
 70
     1
102
RTVSPropertyOp51
 70
     0
102
RTVSPropertyOp52
 70
     0
102
RTVSPropertyOp53
 70
     1
102
RTVSPropertyOp54
 70
     1
102
RTVSPropertyOp55
 70
     1
102
RTVSPropertyOp56
 70
     1
102
RTVSPropertyOp57
 70
     1
102
RTVSPropertyOp58
 70
     1
102
RTVSPropertyOp59
 70
     1
102
RTVSPropertyOp60
 70
     1
102
RTVSPropertyOp61
 70
     1
102
RTVSPropertyOp62
 70
     1
  0
XRECORD
  5
C39F
102
{ACAD_REACTORS
330
C39E
102
}
330
C39E
100
AcDbXrecord
280
     1
102
RTVSPost2010Prop28
280
     0
102
RTVSPost2010PropOp28
 70
     1
102
RTVSPost2010Prop29
280
     1
102
RTVSPost2010PropOp29
 70
     1
102
RTVSPost2010Prop30
280
     1
102
RTVSPost2010PropOp30
 70
     1
102
RTVSPost2010Prop31
280
     0
102
RTVSPost2010PropOp31
 70
     1
102
RTVSPost2010Prop32
280
     0
102
RTVSPost2010PropOp32
 70
     1
102
RTVSPost2010Prop33
280
     0
102
RTVSPost2010PropOp33
 70
     1
102
RTVSPost2010Prop34
280
     0
102
RTVSPost2010PropOp34
 70
     1
102
RTVSPost2010Prop35
280
     0
102
RTVSPost2010PropOp35
 70
     1
102
RTVSPost2010Prop36
280
     0
102
RTVSPost2010PropOp36
 70
     1
102
RTVSPost2010Prop37
 90
       50
102
RTVSPost2010PropOp37
 70
     0
102
RTVSPost2010Prop38
140
0.0
102
RTVSPost2010PropOp38
 70
     0
102
RTVSPost2010Prop39
140
1.0
102
RTVSPost2010PropOp39
 70
     0
102
RTVSPost2010Prop40
 90
        0
102
RTVSPost2010PropOp40
 70
     0
102
RTVSPost2010Prop41ColorIndex
 90
       18
102
RTVSPost2010Prop41ColorRGB
 90
        0
102
RTVSPost2010PropOp41
 70
     0
102
RTVSPost2010Prop42
 90
       50
102
RTVSPost2010PropOp42
 70
     0
102
RTVSPost2010Prop43
 90
        3
102
RTVSPost2010PropOp43
 70
     0
102
RTVSPost2010Prop44ColorIndex
 90
        5
102
RTVSPost2010Prop44ColorRGB
 90
      255
102
RTVSPost2010PropOp44
 70
     0
102
RTVSPost2010Prop45
280
     0
102
RTVSPost2010PropOp45
 70
     1
102
RTVSPost2010Prop46
 90
       50
102
RTVSPost2010PropOp46
 70
     0
102
RTVSPost2010Prop47
 90
       50
102
RTVSPost2010PropOp47
 70
     0
102
RTVSPost2010Prop48
 90
       50
102
RTVSPost2010PropOp48
 70
     0
102
RTVSPost2010Prop49
280
     0
102
RTVSPost2010PropOp49
 70
     1
102
RTVSPost2010Prop50
 90
       50
102
RTVSPost2010PropOp50
 70
     0
102
RTVSPost2010Prop51ColorIndex
 90
      256
102
RTVSPost2010Prop51ColorRGB
 90
-16777216
102
RTVSPost2010PropOp51
 70
     0
102
RTVSPost2010Prop52
140
1.0
102
RTVSPost2010PropOp52
 70
     0
102
RTVSPost2010Prop53
 90
        2
102
RTVSPost2010PropOp53
 70
     0
102
RTVSPost2010Prop54
  1
strokes_ogs.tif
102
RTVSPost2010PropOp54
 70
     0
102
RTVSPost2010Prop55
280
     0
102
RTVSPost2010PropOp55
 70
     1
102
RTVSPost2010Prop56
140
1.0
102
RTVSPost2010PropOp56
 70
     0
102
RTVSPost2010Prop57
140
1.0
102
RTVSPost2010PropOp57
 70
     0
102
RTVSPropertyOp0
 70
     0
102
RTVSPropertyOp1
 70
     0
102
RTVSPropertyOp2
 70
     0
102
RTVSPropertyOp3
 70
     0
102
RTVSPropertyOp4
 70
     0
102
RTVSPropertyOp5
 70
     0
102
RTVSPropertyOp6
 70
     0
102
RTVSPropertyOp7
 70
     0
102
RTVSPropertyOp8
 70
     0
102
RTVSPropertyOp9
 70
     0
102
RTVSPropertyOp10
 70
     0
102
RTVSPropertyOp11
 70
     0
102
RTVSPropertyOp12
 70
     0
102
RTVSPropertyOp13
 70
     0
102
RTVSPropertyOp14
 70
     2
102
RTVSPropertyOp15
 70
     0
102
RTVSPropertyOp16
 70
     0
102
RTVSPropertyOp17
 70
     0
102
RTVSPropertyOp18
 70
     0
102
RTVSPropertyOp19
 70
     0
102
RTVSPropertyOp20
 70
     0
102
RTVSPropertyOp21
 70
     0
102
RTVSPropertyOp22
 70
     0
102
RTVSPropertyOp23
 70
     0
102
RTVSPropertyOp24
 70
     0
102
RTVSPropertyOp25
 70
     0
102
RTVSPropertyOp26
 70
     0
102
RTVSPropertyOp27
 70
     0
102
RTVSPropertyOp28
 70
     1
102
RTVSPropertyOp29
 70
     1
102
RTVSPropertyOp30
 70
     1
102
RTVSPropertyOp31
 70
     1
102
RTVSPropertyOp32
 70
     1
102
RTVSPropertyOp33
 70
     1
102
RTVSPropertyOp34
 70
     1
102
RTVSPropertyOp35
 70
     1
102
RTVSPropertyOp36
 70
     1
102
RTVSPropertyOp37
 70
     0
102
RTVSPropertyOp38
 70
     0
102
RTVSPropertyOp39
 70
     0
102
RTVSPropertyOp40
 70
     0
102
RTVSPropertyOp41
 70
     0
102
RTVSPropertyOp42
 70
     0
102
RTVSPropertyOp43
 70
     0
102
RTVSPropertyOp44
 70
     0
102
RTVSPropertyOp45
 70
     1
102
RTVSPropertyOp46
 70
     0
102
RTVSPropertyOp47
 70
     0
102
RTVSPropertyOp48
 70
     0
102
RTVSPropertyOp49
 70
     1
102
RTVSPropertyOp50
 70
     0
102
RTVSPropertyOp51
 70
     0
102
RTVSPropertyOp52
 70
     0
102
RTVSPropertyOp53
 70
     0
102
RTVSPropertyOp54
 70
     0
102
RTVSPropertyOp55
 70
     1
102
RTVSPropertyOp56
 70
     0
102
RTVSPropertyOp57
 70
     0
102
RTVSPropertyOp58
 70
     0
102
RTVSPropertyOp59
 70
     0
102
RTVSPropertyOp60
 70
     0
102
RTVSPropertyOp61
 70
     0
102
RTVSPropertyOp62
 70
     0
  0
XRECORD
  5
C38F
102
{ACAD_REACTORS
330
C38E
102
}
330
C38E
100
AcDbXrecord
280
     1
102
RTVSPost2010Prop28
280
     0
102
RTVSPost2010PropOp28
 70
     1
102
RTVSPost2010Prop29
280
     1
102
RTVSPost2010PropOp29
 70
     1
102
RTVSPost2010Prop30
280
     1
102
RTVSPost2010PropOp30
 70
     1
102
RTVSPost2010Prop31
280
     0
102
RTVSPost2010PropOp31
 70
     1
102
RTVSPost2010Prop32
280
     0
102
RTVSPost2010PropOp32
 70
     1
102
RTVSPost2010Prop33
280
     0
102
RTVSPost2010PropOp33
 70
     1
102
RTVSPost2010Prop34
280
     0
102
RTVSPost2010PropOp34
 70
     1
102
RTVSPost2010Prop35
280
     0
102
RTVSPost2010PropOp35
 70
     1
102
RTVSPost2010Prop36
280
     0
102
RTVSPost2010PropOp36
 70
     1
102
RTVSPost2010Prop37
 90
       50
102
RTVSPost2010PropOp37
 70
     1
102
RTVSPost2010Prop38
140
0.0
102
RTVSPost2010PropOp38
 70
     1
102
RTVSPost2010Prop39
140
1.0
102
RTVSPost2010PropOp39
 70
     1
102
RTVSPost2010Prop40
 90
        0
102
RTVSPost2010PropOp40
 70
     1
102
RTVSPost2010Prop41ColorIndex
 90
       18
102
RTVSPost2010Prop41ColorRGB
 90
        0
102
RTVSPost2010PropOp41
 70
     1
102
RTVSPost2010Prop42
 90
       50
102
RTVSPost2010PropOp42
 70
     1
102
RTVSPost2010Prop43
 90
        3
102
RTVSPost2010PropOp43
 70
     1
102
RTVSPost2010Prop44ColorIndex
 90
        5
102
RTVSPost2010Prop44ColorRGB
 90
      255
102
RTVSPost2010PropOp44
 70
     1
102
RTVSPost2010Prop45
280
     0
102
RTVSPost2010PropOp45
 70
     1
102
RTVSPost2010Prop46
 90
       50
102
RTVSPost2010PropOp46
 70
     1
102
RTVSPost2010Prop47
 90
       50
102
RTVSPost2010PropOp47
 70
     1
102
RTVSPost2010Prop48
 90
       50
102
RTVSPost2010PropOp48
 70
     1
102
RTVSPost2010Prop49
280
     0
102
RTVSPost2010PropOp49
 70
     1
102
RTVSPost2010Prop50
 90
       50
102
RTVSPost2010PropOp50
 70
     1
102
RTVSPost2010Prop51ColorIndex
 90
      256
102
RTVSPost2010Prop51ColorRGB
 90
-16777216
102
RTVSPost2010PropOp51
 70
     0
102
RTVSPost2010Prop52
140
1.0
102
RTVSPost2010PropOp52
 70
     0
102
RTVSPost2010Prop53
 90
        2
102
RTVSPost2010PropOp53
 70
     1
102
RTVSPost2010Prop54
  1
strokes_ogs.tif
102
RTVSPost2010PropOp54
 70
     1
102
RTVSPost2010Prop55
280
     0
102
RTVSPost2010PropOp55
 70
     1
102
RTVSPost2010Prop56
140
1.0
102
RTVSPost2010PropOp56
 70
     1
102
RTVSPost2010Prop57
140
1.0
102
RTVSPost2010PropOp57
 70
     1
102
RTVSPropertyOp0
 70
     1
102
RTVSPropertyOp1
 70
     1
102
RTVSPropertyOp2
 70
     1
102
RTVSPropertyOp3
 70
     1
102
RTVSPropertyOp4
 70
     1
102
RTVSPropertyOp5
 70
     1
102
RTVSPropertyOp6
 70
     1
102
RTVSPropertyOp7
 70
     1
102
RTVSPropertyOp8
 70
     1
102
RTVSPropertyOp9
 70
     1
102
RTVSPropertyOp10
 70
     1
102
RTVSPropertyOp11
 70
     1
102
RTVSPropertyOp12
 70
     1
102
RTVSPropertyOp13
 70
     1
102
RTVSPropertyOp14
 70
     1
102
RTVSPropertyOp15
 70
     1
102
RTVSPropertyOp16
 70
     1
102
RTVSPropertyOp17
 70
     1
102
RTVSPropertyOp18
 70
     1
102
RTVSPropertyOp19
 70
     1
102
RTVSPropertyOp20
 70
     1
102
RTVSPropertyOp21
 70
     1
102
RTVSPropertyOp22
 70
     1
102
RTVSPropertyOp23
 70
     1
102
RTVSPropertyOp24
 70
     1
102
RTVSPropertyOp25
 70
     1
102
RTVSPropertyOp26
 70
     1
102
RTVSPropertyOp27
 70
     1
102
RTVSPropertyOp28
 70
     1
102
RTVSPropertyOp29
 70
     1
102
RTVSPropertyOp30
 70
     1
102
RTVSPropertyOp31
 70
     1
102
RTVSPropertyOp32
 70
     1
102
RTVSPropertyOp33
 70
     1
102
RTVSPropertyOp34
 70
     1
102
RTVSPropertyOp35
 70
     1
102
RTVSPropertyOp36
 70
     1
102
RTVSPropertyOp37
 70
     1
102
RTVSPropertyOp38
 70
     1
102
RTVSPropertyOp39
 70
     1
102
RTVSPropertyOp40
 70
     1
102
RTVSPropertyOp41
 70
     1
102
RTVSPropertyOp42
 70
     1
102
RTVSPropertyOp43
 70
     1
102
RTVSPropertyOp44
 70
     1
102
RTVSPropertyOp45
 70
     1
102
RTVSPropertyOp46
 70
     1
102
RTVSPropertyOp47
 70
     1
102
RTVSPropertyOp48
 70
     1
102
RTVSPropertyOp49
 70
     1
102
RTVSPropertyOp50
 70
     1
102
RTVSPropertyOp51
 70
     0
102
RTVSPropertyOp52
 70
     0
102
RTVSPropertyOp53
 70
     1
102
RTVSPropertyOp54
 70
     1
102
RTVSPropertyOp55
 70
     1
102
RTVSPropertyOp56
 70
     1
102
RTVSPropertyOp57
 70
     1
102
RTVSPropertyOp58
 70
     1
102
RTVSPropertyOp59
 70
     1
102
RTVSPropertyOp60
 70
     1
102
RTVSPropertyOp61
 70
     1
102
RTVSPropertyOp62
 70
     1
  0
XRECORD
  5
C3A1
102
{ACAD_REACTORS
330
C3A0
102
}
330
C3A0
100
AcDbXrecord
280
     1
102
RTVSPost2010Prop28
280
     0
102
RTVSPost2010PropOp28
 70
     1
102
RTVSPost2010Prop29
280
     1
102
RTVSPost2010PropOp29
 70
     1
102
RTVSPost2010Prop30
280
     1
102
RTVSPost2010PropOp30
 70
     1
102
RTVSPost2010Prop31
280
     0
102
RTVSPost2010PropOp31
 70
     1
102
RTVSPost2010Prop32
280
     0
102
RTVSPost2010PropOp32
 70
     1
102
RTVSPost2010Prop33
280
     0
102
RTVSPost2010PropOp33
 70
     1
102
RTVSPost2010Prop34
280
     0
102
RTVSPost2010PropOp34
 70
     1
102
RTVSPost2010Prop35
280
     0
102
RTVSPost2010PropOp35
 70
     1
102
RTVSPost2010Prop36
280
     0
102
RTVSPost2010PropOp36
 70
     1
102
RTVSPost2010Prop37
 90
       50
102
RTVSPost2010PropOp37
 70
     0
102
RTVSPost2010Prop38
140
0.0
102
RTVSPost2010PropOp38
 70
     0
102
RTVSPost2010Prop39
140
1.0
102
RTVSPost2010PropOp39
 70
     0
102
RTVSPost2010Prop40
 90
        0
102
RTVSPost2010PropOp40
 70
     0
102
RTVSPost2010Prop41ColorIndex
 90
       18
102
RTVSPost2010Prop41ColorRGB
 90
        0
102
RTVSPost2010PropOp41
 70
     0
102
RTVSPost2010Prop42
 90
       50
102
RTVSPost2010PropOp42
 70
     0
102
RTVSPost2010Prop43
 90
        3
102
RTVSPost2010PropOp43
 70
     0
102
RTVSPost2010Prop44ColorIndex
 90
        5
102
RTVSPost2010Prop44ColorRGB
 90
      255
102
RTVSPost2010PropOp44
 70
     0
102
RTVSPost2010Prop45
280
     0
102
RTVSPost2010PropOp45
 70
     1
102
RTVSPost2010Prop46
 90
       50
102
RTVSPost2010PropOp46
 70
     0
102
RTVSPost2010Prop47
 90
       50
102
RTVSPost2010PropOp47
 70
     0
102
RTVSPost2010Prop48
 90
       50
102
RTVSPost2010PropOp48
 70
     0
102
RTVSPost2010Prop49
280
     0
102
RTVSPost2010PropOp49
 70
     1
102
RTVSPost2010Prop50
 90
       50
102
RTVSPost2010PropOp50
 70
     0
102
RTVSPost2010Prop51ColorIndex
 90
      256
102
RTVSPost2010Prop51ColorRGB
 90
-16777216
102
RTVSPost2010PropOp51
 70
     0
102
RTVSPost2010Prop52
140
1.0
102
RTVSPost2010PropOp52
 70
     0
102
RTVSPost2010Prop53
 90
        2
102
RTVSPost2010PropOp53
 70
     0
102
RTVSPost2010Prop54
  1
strokes_ogs.tif
102
RTVSPost2010PropOp54
 70
     0
102
RTVSPost2010Prop55
280
     0
102
RTVSPost2010PropOp55
 70
     1
102
RTVSPost2010Prop56
140
1.0
102
RTVSPost2010PropOp56
 70
     0
102
RTVSPost2010Prop57
140
1.0
102
RTVSPost2010PropOp57
 70
     0
102
RTVSPropertyOp0
 70
     0
102
RTVSPropertyOp1
 70
     0
102
RTVSPropertyOp2
 70
     0
102
RTVSPropertyOp3
 70
     0
102
RTVSPropertyOp4
 70
     0
102
RTVSPropertyOp5
 70
     0
102
RTVSPropertyOp6
 70
     0
102
RTVSPropertyOp7
 70
     0
102
RTVSPropertyOp8
 70
     0
102
RTVSPropertyOp9
 70
     0
102
RTVSPropertyOp10
 70
     0
102
RTVSPropertyOp11
 70
     0
102
RTVSPropertyOp12
 70
     0
102
RTVSPropertyOp13
 70
     0
102
RTVSPropertyOp14
 70
     2
102
RTVSPropertyOp15
 70
     0
102
RTVSPropertyOp16
 70
     0
102
RTVSPropertyOp17
 70
     0
102
RTVSPropertyOp18
 70
     0
102
RTVSPropertyOp19
 70
     0
102
RTVSPropertyOp20
 70
     0
102
RTVSPropertyOp21
 70
     0
102
RTVSPropertyOp22
 70
     0
102
RTVSPropertyOp23
 70
     0
102
RTVSPropertyOp24
 70
     0
102
RTVSPropertyOp25
 70
     0
102
RTVSPropertyOp26
 70
     0
102
RTVSPropertyOp27
 70
     0
102
RTVSPropertyOp28
 70
     1
102
RTVSPropertyOp29
 70
     1
102
RTVSPropertyOp30
 70
     1
102
RTVSPropertyOp31
 70
     1
102
RTVSPropertyOp32
 70
     1
102
RTVSPropertyOp33
 70
     1
102
RTVSPropertyOp34
 70
     1
102
RTVSPropertyOp35
 70
     1
102
RTVSPropertyOp36
 70
     1
102
RTVSPropertyOp37
 70
     0
102
RTVSPropertyOp38
 70
     0
102
RTVSPropertyOp39
 70
     0
102
RTVSPropertyOp40
 70
     0
102
RTVSPropertyOp41
 70
     0
102
RTVSPropertyOp42
 70
     0
102
RTVSPropertyOp43
 70
     0
102
RTVSPropertyOp44
 70
     0
102
RTVSPropertyOp45
 70
     1
102
RTVSPropertyOp46
 70
     0
102
RTVSPropertyOp47
 70
     0
102
RTVSPropertyOp48
 70
     0
102
RTVSPropertyOp49
 70
     1
102
RTVSPropertyOp50
 70
     0
102
RTVSPropertyOp51
 70
     0
102
RTVSPropertyOp52
 70
     0
102
RTVSPropertyOp53
 70
     0
102
RTVSPropertyOp54
 70
     0
102
RTVSPropertyOp55
 70
     1
102
RTVSPropertyOp56
 70
     0
102
RTVSPropertyOp57
 70
     0
102
RTVSPropertyOp58
 70
     0
102
RTVSPropertyOp59
 70
     0
102
RTVSPropertyOp60
 70
     0
102
RTVSPropertyOp61
 70
     0
102
RTVSPropertyOp62
 70
     0
  0
XRECORD
  5
C387
102
{ACAD_REACTORS
330
C386
102
}
330
C386
100
AcDbXrecord
280
     1
102
RTVSPost2010Prop28
280
     0
102
RTVSPost2010PropOp28
 70
     1
102
RTVSPost2010Prop29
280
     1
102
RTVSPost2010PropOp29
 70
     1
102
RTVSPost2010Prop30
280
     1
102
RTVSPost2010PropOp30
 70
     1
102
RTVSPost2010Prop31
280
     0
102
RTVSPost2010PropOp31
 70
     1
102
RTVSPost2010Prop32
280
     0
102
RTVSPost2010PropOp32
 70
     1
102
RTVSPost2010Prop33
280
     0
102
RTVSPost2010PropOp33
 70
     1
102
RTVSPost2010Prop34
280
     0
102
RTVSPost2010PropOp34
 70
     1
102
RTVSPost2010Prop35
280
     0
102
RTVSPost2010PropOp35
 70
     1
102
RTVSPost2010Prop36
280
     0
102
RTVSPost2010PropOp36
 70
     1
102
RTVSPost2010Prop37
 90
       50
102
RTVSPost2010PropOp37
 70
     1
102
RTVSPost2010Prop38
140
0.0
102
RTVSPost2010PropOp38
 70
     1
102
RTVSPost2010Prop39
140
1.0
102
RTVSPost2010PropOp39
 70
     1
102
RTVSPost2010Prop40
 90
        0
102
RTVSPost2010PropOp40
 70
     1
102
RTVSPost2010Prop41ColorIndex
 90
       18
102
RTVSPost2010Prop41ColorRGB
 90
        0
102
RTVSPost2010PropOp41
 70
     1
102
RTVSPost2010Prop42
 90
       50
102
RTVSPost2010PropOp42
 70
     1
102
RTVSPost2010Prop43
 90
        3
102
RTVSPost2010PropOp43
 70
     1
102
RTVSPost2010Prop44ColorIndex
 90
        5
102
RTVSPost2010Prop44ColorRGB
 90
      255
102
RTVSPost2010PropOp44
 70
     1
102
RTVSPost2010Prop45
280
     0
102
RTVSPost2010PropOp45
 70
     1
102
RTVSPost2010Prop46
 90
       50
102
RTVSPost2010PropOp46
 70
     1
102
RTVSPost2010Prop47
 90
       50
102
RTVSPost2010PropOp47
 70
     1
102
RTVSPost2010Prop48
 90
       50
102
RTVSPost2010PropOp48
 70
     1
102
RTVSPost2010Prop49
280
     0
102
RTVSPost2010PropOp49
 70
     1
102
RTVSPost2010Prop50
 90
       50
102
RTVSPost2010PropOp50
 70
     1
102
RTVSPost2010Prop51ColorIndex
 90
      256
102
RTVSPost2010Prop51ColorRGB
 90
-16777216
102
RTVSPost2010PropOp51
 70
     0
102
RTVSPost2010Prop52
140
1.0
102
RTVSPost2010PropOp52
 70
     0
102
RTVSPost2010Prop53
 90
        2
102
RTVSPost2010PropOp53
 70
     1
102
RTVSPost2010Prop54
  1
strokes_ogs.tif
102
RTVSPost2010PropOp54
 70
     1
102
RTVSPost2010Prop55
280
     0
102
RTVSPost2010PropOp55
 70
     1
102
RTVSPost2010Prop56
140
1.0
102
RTVSPost2010PropOp56
 70
     1
102
RTVSPost2010Prop57
140
1.0
102
RTVSPost2010PropOp57
 70
     1
102
RTVSPropertyOp0
 70
     1
102
RTVSPropertyOp1
 70
     1
102
RTVSPropertyOp2
 70
     1
102
RTVSPropertyOp3
 70
     1
102
RTVSPropertyOp4
 70
     1
102
RTVSPropertyOp5
 70
     1
102
RTVSPropertyOp6
 70
     1
102
RTVSPropertyOp7
 70
     1
102
RTVSPropertyOp8
 70
     1
102
RTVSPropertyOp9
 70
     1
102
RTVSPropertyOp10
 70
     1
102
RTVSPropertyOp11
 70
     1
102
RTVSPropertyOp12
 70
     1
102
RTVSPropertyOp13
 70
     1
102
RTVSPropertyOp14
 70
     1
102
RTVSPropertyOp15
 70
     1
102
RTVSPropertyOp16
 70
     1
102
RTVSPropertyOp17
 70
     1
102
RTVSPropertyOp18
 70
     1
102
RTVSPropertyOp19
 70
     1
102
RTVSPropertyOp20
 70
     1
102
RTVSPropertyOp21
 70
     1
102
RTVSPropertyOp22
 70
     1
102
RTVSPropertyOp23
 70
     1
102
RTVSPropertyOp24
 70
     1
102
RTVSPropertyOp25
 70
     1
102
RTVSPropertyOp26
 70
     1
102
RTVSPropertyOp27
 70
     1
102
RTVSPropertyOp28
 70
     1
102
RTVSPropertyOp29
 70
     1
102
RTVSPropertyOp30
 70
     1
102
RTVSPropertyOp31
 70
     1
102
RTVSPropertyOp32
 70
     1
102
RTVSPropertyOp33
 70
     1
102
RTVSPropertyOp34
 70
     1
102
RTVSPropertyOp35
 70
     1
102
RTVSPropertyOp36
 70
     1
102
RTVSPropertyOp37
 70
     1
102
RTVSPropertyOp38
 70
     1
102
RTVSPropertyOp39
 70
     1
102
RTVSPropertyOp40
 70
     1
102
RTVSPropertyOp41
 70
     1
102
RTVSPropertyOp42
 70
     1
102
RTVSPropertyOp43
 70
     1
102
RTVSPropertyOp44
 70
     1
102
RTVSPropertyOp45
 70
     1
102
RTVSPropertyOp46
 70
     1
102
RTVSPropertyOp47
 70
     1
102
RTVSPropertyOp48
 70
     1
102
RTVSPropertyOp49
 70
     1
102
RTVSPropertyOp50
 70
     1
102
RTVSPropertyOp51
 70
     0
102
RTVSPropertyOp52
 70
     0
102
RTVSPropertyOp53
 70
     1
102
RTVSPropertyOp54
 70
     1
102
RTVSPropertyOp55
 70
     1
102
RTVSPropertyOp56
 70
     1
102
RTVSPropertyOp57
 70
     1
102
RTVSPropertyOp58
 70
     1
102
RTVSPropertyOp59
 70
     1
102
RTVSPropertyOp60
 70
     1
102
RTVSPropertyOp61
 70
     1
102
RTVSPropertyOp62
 70
     1
  0
XRECORD
  5
C39D
102
{ACAD_REACTORS
330
C39C
102
}
330
C39C
100
AcDbXrecord
280
     1
102
RTVSPost2010Prop28
280
     0
102
RTVSPost2010PropOp28
 70
     1
102
RTVSPost2010Prop29
280
     1
102
RTVSPost2010PropOp29
 70
     1
102
RTVSPost2010Prop30
280
     1
102
RTVSPost2010PropOp30
 70
     1
102
RTVSPost2010Prop31
280
     0
102
RTVSPost2010PropOp31
 70
     1
102
RTVSPost2010Prop32
280
     0
102
RTVSPost2010PropOp32
 70
     1
102
RTVSPost2010Prop33
280
     0
102
RTVSPost2010PropOp33
 70
     1
102
RTVSPost2010Prop34
280
     0
102
RTVSPost2010PropOp34
 70
     1
102
RTVSPost2010Prop35
280
     0
102
RTVSPost2010PropOp35
 70
     1
102
RTVSPost2010Prop36
280
     0
102
RTVSPost2010PropOp36
 70
     1
102
RTVSPost2010Prop37
 90
       50
102
RTVSPost2010PropOp37
 70
     1
102
RTVSPost2010Prop38
140
0.0
102
RTVSPost2010PropOp38
 70
     1
102
RTVSPost2010Prop39
140
1.0
102
RTVSPost2010PropOp39
 70
     1
102
RTVSPost2010Prop40
 90
        0
102
RTVSPost2010PropOp40
 70
     1
102
RTVSPost2010Prop41ColorIndex
 90
       18
102
RTVSPost2010Prop41ColorRGB
 90
        0
102
RTVSPost2010PropOp41
 70
     1
102
RTVSPost2010Prop42
 90
       50
102
RTVSPost2010PropOp42
 70
     1
102
RTVSPost2010Prop43
 90
        3
102
RTVSPost2010PropOp43
 70
     1
102
RTVSPost2010Prop44ColorIndex
 90
        5
102
RTVSPost2010Prop44ColorRGB
 90
      255
102
RTVSPost2010PropOp44
 70
     1
102
RTVSPost2010Prop45
280
     0
102
RTVSPost2010PropOp45
 70
     1
102
RTVSPost2010Prop46
 90
       50
102
RTVSPost2010PropOp46
 70
     1
102
RTVSPost2010Prop47
 90
       50
102
RTVSPost2010PropOp47
 70
     1
102
RTVSPost2010Prop48
 90
       50
102
RTVSPost2010PropOp48
 70
     1
102
RTVSPost2010Prop49
280
     0
102
RTVSPost2010PropOp49
 70
     1
102
RTVSPost2010Prop50
 90
       50
102
RTVSPost2010PropOp50
 70
     1
102
RTVSPost2010Prop51ColorIndex
 90
      256
102
RTVSPost2010Prop51ColorRGB
 90
-16777216
102
RTVSPost2010PropOp51
 70
     0
102
RTVSPost2010Prop52
140
1.0
102
RTVSPost2010PropOp52
 70
     0
102
RTVSPost2010Prop53
 90
        2
102
RTVSPost2010PropOp53
 70
     1
102
RTVSPost2010Prop54
  1
strokes_ogs.tif
102
RTVSPost2010PropOp54
 70
     1
102
RTVSPost2010Prop55
280
     0
102
RTVSPost2010PropOp55
 70
     1
102
RTVSPost2010Prop56
140
1.0
102
RTVSPost2010PropOp56
 70
     1
102
RTVSPost2010Prop57
140
1.0
102
RTVSPost2010PropOp57
 70
     1
102
RTVSPropertyOp0
 70
     1
102
RTVSPropertyOp1
 70
     1
102
RTVSPropertyOp2
 70
     1
102
RTVSPropertyOp3
 70
     1
102
RTVSPropertyOp4
 70
     1
102
RTVSPropertyOp5
 70
     1
102
RTVSPropertyOp6
 70
     1
102
RTVSPropertyOp7
 70
     1
102
RTVSPropertyOp8
 70
     1
102
RTVSPropertyOp9
 70
     1
102
RTVSPropertyOp10
 70
     1
102
RTVSPropertyOp11
 70
     1
102
RTVSPropertyOp12
 70
     1
102
RTVSPropertyOp13
 70
     1
102
RTVSPropertyOp14
 70
     1
102
RTVSPropertyOp15
 70
     1
102
RTVSPropertyOp16
 70
     1
102
RTVSPropertyOp17
 70
     1
102
RTVSPropertyOp18
 70
     1
102
RTVSPropertyOp19
 70
     1
102
RTVSPropertyOp20
 70
     1
102
RTVSPropertyOp21
 70
     1
102
RTVSPropertyOp22
 70
     1
102
RTVSPropertyOp23
 70
     1
102
RTVSPropertyOp24
 70
     1
102
RTVSPropertyOp25
 70
     1
102
RTVSPropertyOp26
 70
     1
102
RTVSPropertyOp27
 70
     1
102
RTVSPropertyOp28
 70
     1
102
RTVSPropertyOp29
 70
     1
102
RTVSPropertyOp30
 70
     1
102
RTVSPropertyOp31
 70
     1
102
RTVSPropertyOp32
 70
     1
102
RTVSPropertyOp33
 70
     1
102
RTVSPropertyOp34
 70
     1
102
RTVSPropertyOp35
 70
     1
102
RTVSPropertyOp36
 70
     1
102
RTVSPropertyOp37
 70
     1
102
RTVSPropertyOp38
 70
     1
102
RTVSPropertyOp39
 70
     1
102
RTVSPropertyOp40
 70
     1
102
RTVSPropertyOp41
 70
     1
102
RTVSPropertyOp42
 70
     1
102
RTVSPropertyOp43
 70
     1
102
RTVSPropertyOp44
 70
     1
102
RTVSPropertyOp45
 70
     1
102
RTVSPropertyOp46
 70
     1
102
RTVSPropertyOp47
 70
     1
102
RTVSPropertyOp48
 70
     1
102
RTVSPropertyOp49
 70
     1
102
RTVSPropertyOp50
 70
     1
102
RTVSPropertyOp51
 70
     0
102
RTVSPropertyOp52
 70
     0
102
RTVSPropertyOp53
 70
     1
102
RTVSPropertyOp54
 70
     1
102
RTVSPropertyOp55
 70
     1
102
RTVSPropertyOp56
 70
     1
102
RTVSPropertyOp57
 70
     1
102
RTVSPropertyOp58
 70
     1
102
RTVSPropertyOp59
 70
     1
102
RTVSPropertyOp60
 70
     1
102
RTVSPropertyOp61
 70
     1
102
RTVSPropertyOp62
 70
     1
  0
XRECORD
  5
C39B
102
{ACAD_REACTORS
330
C39A
102
}
330
C39A
100
AcDbXrecord
280
     1
102
RTVSPost2010Prop28
280
     0
102
RTVSPost2010PropOp28
 70
     1
102
RTVSPost2010Prop29
280
     1
102
RTVSPost2010PropOp29
 70
     1
102
RTVSPost2010Prop30
280
     1
102
RTVSPost2010PropOp30
 70
     1
102
RTVSPost2010Prop31
280
     0
102
RTVSPost2010PropOp31
 70
     1
102
RTVSPost2010Prop32
280
     0
102
RTVSPost2010PropOp32
 70
     1
102
RTVSPost2010Prop33
280
     0
102
RTVSPost2010PropOp33
 70
     1
102
RTVSPost2010Prop34
280
     0
102
RTVSPost2010PropOp34
 70
     1
102
RTVSPost2010Prop35
280
     0
102
RTVSPost2010PropOp35
 70
     1
102
RTVSPost2010Prop36
280
     0
102
RTVSPost2010PropOp36
 70
     1
102
RTVSPost2010Prop37
 90
       50
102
RTVSPost2010PropOp37
 70
     1
102
RTVSPost2010Prop38
140
0.0
102
RTVSPost2010PropOp38
 70
     1
102
RTVSPost2010Prop39
140
1.0
102
RTVSPost2010PropOp39
 70
     1
102
RTVSPost2010Prop40
 90
        0
102
RTVSPost2010PropOp40
 70
     1
102
RTVSPost2010Prop41ColorIndex
 90
       18
102
RTVSPost2010Prop41ColorRGB
 90
        0
102
RTVSPost2010PropOp41
 70
     1
102
RTVSPost2010Prop42
 90
       50
102
RTVSPost2010PropOp42
 70
     1
102
RTVSPost2010Prop43
 90
        3
102
RTVSPost2010PropOp43
 70
     1
102
RTVSPost2010Prop44ColorIndex
 90
        5
102
RTVSPost2010Prop44ColorRGB
 90
      255
102
RTVSPost2010PropOp44
 70
     1
102
RTVSPost2010Prop45
280
     0
102
RTVSPost2010PropOp45
 70
     1
102
RTVSPost2010Prop46
 90
       50
102
RTVSPost2010PropOp46
 70
     1
102
RTVSPost2010Prop47
 90
       50
102
RTVSPost2010PropOp47
 70
     1
102
RTVSPost2010Prop48
 90
       50
102
RTVSPost2010PropOp48
 70
     1
102
RTVSPost2010Prop49
280
     0
102
RTVSPost2010PropOp49
 70
     1
102
RTVSPost2010Prop50
 90
       50
102
RTVSPost2010PropOp50
 70
     1
102
RTVSPost2010Prop51ColorIndex
 90
      256
102
RTVSPost2010Prop51ColorRGB
 90
-16777216
102
RTVSPost2010PropOp51
 70
     0
102
RTVSPost2010Prop52
140
1.0
102
RTVSPost2010PropOp52
 70
     0
102
RTVSPost2010Prop53
 90
        2
102
RTVSPost2010PropOp53
 70
     1
102
RTVSPost2010Prop54
  1
strokes_ogs.tif
102
RTVSPost2010PropOp54
 70
     1
102
RTVSPost2010Prop55
280
     0
102
RTVSPost2010PropOp55
 70
     1
102
RTVSPost2010Prop56
140
1.0
102
RTVSPost2010PropOp56
 70
     1
102
RTVSPost2010Prop57
140
1.0
102
RTVSPost2010PropOp57
 70
     1
102
RTVSPropertyOp0
 70
     1
102
RTVSPropertyOp1
 70
     1
102
RTVSPropertyOp2
 70
     1
102
RTVSPropertyOp3
 70
     1
102
RTVSPropertyOp4
 70
     1
102
RTVSPropertyOp5
 70
     1
102
RTVSPropertyOp6
 70
     1
102
RTVSPropertyOp7
 70
     1
102
RTVSPropertyOp8
 70
     1
102
RTVSPropertyOp9
 70
     1
102
RTVSPropertyOp10
 70
     1
102
RTVSPropertyOp11
 70
     1
102
RTVSPropertyOp12
 70
     1
102
RTVSPropertyOp13
 70
     1
102
RTVSPropertyOp14
 70
     1
102
RTVSPropertyOp15
 70
     1
102
RTVSPropertyOp16
 70
     1
102
RTVSPropertyOp17
 70
     1
102
RTVSPropertyOp18
 70
     1
102
RTVSPropertyOp19
 70
     1
102
RTVSPropertyOp20
 70
     1
102
RTVSPropertyOp21
 70
     1
102
RTVSPropertyOp22
 70
     1
102
RTVSPropertyOp23
 70
     1
102
RTVSPropertyOp24
 70
     1
102
RTVSPropertyOp25
 70
     1
102
RTVSPropertyOp26
 70
     1
102
RTVSPropertyOp27
 70
     1
102
RTVSPropertyOp28
 70
     1
102
RTVSPropertyOp29
 70
     1
102
RTVSPropertyOp30
 70
     1
102
RTVSPropertyOp31
 70
     1
102
RTVSPropertyOp32
 70
     1
102
RTVSPropertyOp33
 70
     1
102
RTVSPropertyOp34
 70
     1
102
RTVSPropertyOp35
 70
     1
102
RTVSPropertyOp36
 70
     1
102
RTVSPropertyOp37
 70
     1
102
RTVSPropertyOp38
 70
     1
102
RTVSPropertyOp39
 70
     1
102
RTVSPropertyOp40
 70
     1
102
RTVSPropertyOp41
 70
     1
102
RTVSPropertyOp42
 70
     1
102
RTVSPropertyOp43
 70
     1
102
RTVSPropertyOp44
 70
     1
102
RTVSPropertyOp45
 70
     1
102
RTVSPropertyOp46
 70
     1
102
RTVSPropertyOp47
 70
     1
102
RTVSPropertyOp48
 70
     1
102
RTVSPropertyOp49
 70
     1
102
RTVSPropertyOp50
 70
     1
102
RTVSPropertyOp51
 70
     0
102
RTVSPropertyOp52
 70
     0
102
RTVSPropertyOp53
 70
     1
102
RTVSPropertyOp54
 70
     1
102
RTVSPropertyOp55
 70
     1
102
RTVSPropertyOp56
 70
     1
102
RTVSPropertyOp57
 70
     1
102
RTVSPropertyOp58
 70
     1
102
RTVSPropertyOp59
 70
     1
102
RTVSPropertyOp60
 70
     1
102
RTVSPropertyOp61
 70
     1
102
RTVSPropertyOp62
 70
     1
  0
XRECORD
  5
C395
102
{ACAD_REACTORS
330
C394
102
}
330
C394
100
AcDbXrecord
280
     1
102
RTVSPost2010Prop28
280
     0
102
RTVSPost2010PropOp28
 70
     1
102
RTVSPost2010Prop29
280
     1
102
RTVSPost2010PropOp29
 70
     1
102
RTVSPost2010Prop30
280
     1
102
RTVSPost2010PropOp30
 70
     1
102
RTVSPost2010Prop31
280
     0
102
RTVSPost2010PropOp31
 70
     1
102
RTVSPost2010Prop32
280
     0
102
RTVSPost2010PropOp32
 70
     1
102
RTVSPost2010Prop33
280
     0
102
RTVSPost2010PropOp33
 70
     1
102
RTVSPost2010Prop34
280
     0
102
RTVSPost2010PropOp34
 70
     1
102
RTVSPost2010Prop35
280
     0
102
RTVSPost2010PropOp35
 70
     1
102
RTVSPost2010Prop36
280
     0
102
RTVSPost2010PropOp36
 70
     1
102
RTVSPost2010Prop37
 90
       50
102
RTVSPost2010PropOp37
 70
     1
102
RTVSPost2010Prop38
140
0.0
102
RTVSPost2010PropOp38
 70
     1
102
RTVSPost2010Prop39
140
1.0
102
RTVSPost2010PropOp39
 70
     1
102
RTVSPost2010Prop40
 90
        0
102
RTVSPost2010PropOp40
 70
     1
102
RTVSPost2010Prop41ColorIndex
 90
       18
102
RTVSPost2010Prop41ColorRGB
 90
        0
102
RTVSPost2010PropOp41
 70
     1
102
RTVSPost2010Prop42
 90
       50
102
RTVSPost2010PropOp42
 70
     1
102
RTVSPost2010Prop43
 90
        3
102
RTVSPost2010PropOp43
 70
     1
102
RTVSPost2010Prop44ColorIndex
 90
        5
102
RTVSPost2010Prop44ColorRGB
 90
      255
102
RTVSPost2010PropOp44
 70
     1
102
RTVSPost2010Prop45
280
     0
102
RTVSPost2010PropOp45
 70
     1
102
RTVSPost2010Prop46
 90
       50
102
RTVSPost2010PropOp46
 70
     1
102
RTVSPost2010Prop47
 90
       50
102
RTVSPost2010PropOp47
 70
     1
102
RTVSPost2010Prop48
 90
       50
102
RTVSPost2010PropOp48
 70
     1
102
RTVSPost2010Prop49
280
     0
102
RTVSPost2010PropOp49
 70
     1
102
RTVSPost2010Prop50
 90
       50
102
RTVSPost2010PropOp50
 70
     1
102
RTVSPost2010Prop51ColorIndex
 90
      256
102
RTVSPost2010Prop51ColorRGB
 90
-16777216
102
RTVSPost2010PropOp51
 70
     0
102
RTVSPost2010Prop52
140
1.0
102
RTVSPost2010PropOp52
 70
     0
102
RTVSPost2010Prop53
 90
        2
102
RTVSPost2010PropOp53
 70
     1
102
RTVSPost2010Prop54
  1
strokes_ogs.tif
102
RTVSPost2010PropOp54
 70
     1
102
RTVSPost2010Prop55
280
     0
102
RTVSPost2010PropOp55
 70
     1
102
RTVSPost2010Prop56
140
1.0
102
RTVSPost2010PropOp56
 70
     1
102
RTVSPost2010Prop57
140
1.0
102
RTVSPost2010PropOp57
 70
     1
102
RTVSPropertyOp0
 70
     1
102
RTVSPropertyOp1
 70
     1
102
RTVSPropertyOp2
 70
     1
102
RTVSPropertyOp3
 70
     1
102
RTVSPropertyOp4
 70
     1
102
RTVSPropertyOp5
 70
     1
102
RTVSPropertyOp6
 70
     1
102
RTVSPropertyOp7
 70
     1
102
RTVSPropertyOp8
 70
     1
102
RTVSPropertyOp9
 70
     1
102
RTVSPropertyOp10
 70
     1
102
RTVSPropertyOp11
 70
     1
102
RTVSPropertyOp12
 70
     1
102
RTVSPropertyOp13
 70
     1
102
RTVSPropertyOp14
 70
     1
102
RTVSPropertyOp15
 70
     1
102
RTVSPropertyOp16
 70
     1
102
RTVSPropertyOp17
 70
     1
102
RTVSPropertyOp18
 70
     1
102
RTVSPropertyOp19
 70
     1
102
RTVSPropertyOp20
 70
     1
102
RTVSPropertyOp21
 70
     1
102
RTVSPropertyOp22
 70
     1
102
RTVSPropertyOp23
 70
     1
102
RTVSPropertyOp24
 70
     1
102
RTVSPropertyOp25
 70
     1
102
RTVSPropertyOp26
 70
     1
102
RTVSPropertyOp27
 70
     1
102
RTVSPropertyOp28
 70
     1
102
RTVSPropertyOp29
 70
     1
102
RTVSPropertyOp30
 70
     1
102
RTVSPropertyOp31
 70
     1
102
RTVSPropertyOp32
 70
     1
102
RTVSPropertyOp33
 70
     1
102
RTVSPropertyOp34
 70
     1
102
RTVSPropertyOp35
 70
     1
102
RTVSPropertyOp36
 70
     1
102
RTVSPropertyOp37
 70
     1
102
RTVSPropertyOp38
 70
     1
102
RTVSPropertyOp39
 70
     1
102
RTVSPropertyOp40
 70
     1
102
RTVSPropertyOp41
 70
     1
102
RTVSPropertyOp42
 70
     1
102
RTVSPropertyOp43
 70
     1
102
RTVSPropertyOp44
 70
     1
102
RTVSPropertyOp45
 70
     1
102
RTVSPropertyOp46
 70
     1
102
RTVSPropertyOp47
 70
     1
102
RTVSPropertyOp48
 70
     1
102
RTVSPropertyOp49
 70
     1
102
RTVSPropertyOp50
 70
     1
102
RTVSPropertyOp51
 70
     0
102
RTVSPropertyOp52
 70
     0
102
RTVSPropertyOp53
 70
     1
102
RTVSPropertyOp54
 70
     1
102
RTVSPropertyOp55
 70
     1
102
RTVSPropertyOp56
 70
     1
102
RTVSPropertyOp57
 70
     1
102
RTVSPropertyOp58
 70
     1
102
RTVSPropertyOp59
 70
     1
102
RTVSPropertyOp60
 70
     1
102
RTVSPropertyOp61
 70
     1
102
RTVSPropertyOp62
 70
     1
  0
XRECORD
  5
C397
102
{ACAD_REACTORS
330
C396
102
}
330
C396
100
AcDbXrecord
280
     1
102
RTVSPost2010Prop28
280
     0
102
RTVSPost2010PropOp28
 70
     1
102
RTVSPost2010Prop29
280
     1
102
RTVSPost2010PropOp29
 70
     1
102
RTVSPost2010Prop30
280
     1
102
RTVSPost2010PropOp30
 70
     1
102
RTVSPost2010Prop31
280
     0
102
RTVSPost2010PropOp31
 70
     1
102
RTVSPost2010Prop32
280
     0
102
RTVSPost2010PropOp32
 70
     1
102
RTVSPost2010Prop33
280
     0
102
RTVSPost2010PropOp33
 70
     1
102
RTVSPost2010Prop34
280
     0
102
RTVSPost2010PropOp34
 70
     1
102
RTVSPost2010Prop35
280
     0
102
RTVSPost2010PropOp35
 70
     1
102
RTVSPost2010Prop36
280
     0
102
RTVSPost2010PropOp36
 70
     1
102
RTVSPost2010Prop37
 90
       50
102
RTVSPost2010PropOp37
 70
     1
102
RTVSPost2010Prop38
140
0.0
102
RTVSPost2010PropOp38
 70
     1
102
RTVSPost2010Prop39
140
1.0
102
RTVSPost2010PropOp39
 70
     1
102
RTVSPost2010Prop40
 90
        0
102
RTVSPost2010PropOp40
 70
     1
102
RTVSPost2010Prop41ColorIndex
 90
       18
102
RTVSPost2010Prop41ColorRGB
 90
        0
102
RTVSPost2010PropOp41
 70
     1
102
RTVSPost2010Prop42
 90
       50
102
RTVSPost2010PropOp42
 70
     1
102
RTVSPost2010Prop43
 90
        3
102
RTVSPost2010PropOp43
 70
     1
102
RTVSPost2010Prop44ColorIndex
 90
        5
102
RTVSPost2010Prop44ColorRGB
 90
      255
102
RTVSPost2010PropOp44
 70
     1
102
RTVSPost2010Prop45
280
     0
102
RTVSPost2010PropOp45
 70
     1
102
RTVSPost2010Prop46
 90
       50
102
RTVSPost2010PropOp46
 70
     1
102
RTVSPost2010Prop47
 90
       50
102
RTVSPost2010PropOp47
 70
     1
102
RTVSPost2010Prop48
 90
       50
102
RTVSPost2010PropOp48
 70
     1
102
RTVSPost2010Prop49
280
     0
102
RTVSPost2010PropOp49
 70
     1
102
RTVSPost2010Prop50
 90
       50
102
RTVSPost2010PropOp50
 70
     1
102
RTVSPost2010Prop51ColorIndex
 90
      256
102
RTVSPost2010Prop51ColorRGB
 90
-16777216
102
RTVSPost2010PropOp51
 70
     0
102
RTVSPost2010Prop52
140
1.0
102
RTVSPost2010PropOp52
 70
     0
102
RTVSPost2010Prop53
 90
        2
102
RTVSPost2010PropOp53
 70
     1
102
RTVSPost2010Prop54
  1
strokes_ogs.tif
102
RTVSPost2010PropOp54
 70
     1
102
RTVSPost2010Prop55
280
     0
102
RTVSPost2010PropOp55
 70
     1
102
RTVSPost2010Prop56
140
1.0
102
RTVSPost2010PropOp56
 70
     1
102
RTVSPost2010Prop57
140
1.0
102
RTVSPost2010PropOp57
 70
     1
102
RTVSPropertyOp0
 70
     1
102
RTVSPropertyOp1
 70
     1
102
RTVSPropertyOp2
 70
     1
102
RTVSPropertyOp3
 70
     1
102
RTVSPropertyOp4
 70
     1
102
RTVSPropertyOp5
 70
     1
102
RTVSPropertyOp6
 70
     1
102
RTVSPropertyOp7
 70
     1
102
RTVSPropertyOp8
 70
     1
102
RTVSPropertyOp9
 70
     1
102
RTVSPropertyOp10
 70
     1
102
RTVSPropertyOp11
 70
     1
102
RTVSPropertyOp12
 70
     1
102
RTVSPropertyOp13
 70
     1
102
RTVSPropertyOp14
 70
     1
102
RTVSPropertyOp15
 70
     1
102
RTVSPropertyOp16
 70
     1
102
RTVSPropertyOp17
 70
     1
102
RTVSPropertyOp18
 70
     1
102
RTVSPropertyOp19
 70
     1
102
RTVSPropertyOp20
 70
     1
102
RTVSPropertyOp21
 70
     1
102
RTVSPropertyOp22
 70
     1
102
RTVSPropertyOp23
 70
     1
102
RTVSPropertyOp24
 70
     1
102
RTVSPropertyOp25
 70
     1
102
RTVSPropertyOp26
 70
     1
102
RTVSPropertyOp27
 70
     1
102
RTVSPropertyOp28
 70
     1
102
RTVSPropertyOp29
 70
     1
102
RTVSPropertyOp30
 70
     1
102
RTVSPropertyOp31
 70
     1
102
RTVSPropertyOp32
 70
     1
102
RTVSPropertyOp33
 70
     1
102
RTVSPropertyOp34
 70
     1
102
RTVSPropertyOp35
 70
     1
102
RTVSPropertyOp36
 70
     1
102
RTVSPropertyOp37
 70
     1
102
RTVSPropertyOp38
 70
     1
102
RTVSPropertyOp39
 70
     1
102
RTVSPropertyOp40
 70
     1
102
RTVSPropertyOp41
 70
     1
102
RTVSPropertyOp42
 70
     1
102
RTVSPropertyOp43
 70
     1
102
RTVSPropertyOp44
 70
     1
102
RTVSPropertyOp45
 70
     1
102
RTVSPropertyOp46
 70
     1
102
RTVSPropertyOp47
 70
     1
102
RTVSPropertyOp48
 70
     1
102
RTVSPropertyOp49
 70
     1
102
RTVSPropertyOp50
 70
     1
102
RTVSPropertyOp51
 70
     0
102
RTVSPropertyOp52
 70
     0
102
RTVSPropertyOp53
 70
     1
102
RTVSPropertyOp54
 70
     1
102
RTVSPropertyOp55
 70
     1
102
RTVSPropertyOp56
 70
     1
102
RTVSPropertyOp57
 70
     1
102
RTVSPropertyOp58
 70
     1
102
RTVSPropertyOp59
 70
     1
102
RTVSPropertyOp60
 70
     1
102
RTVSPropertyOp61
 70
     1
102
RTVSPropertyOp62
 70
     1
  0
XRECORD
  5
C38D
102
{ACAD_REACTORS
330
C38C
102
}
330
C38C
100
AcDbXrecord
280
     1
102
RTVSPost2010Prop28
280
     0
102
RTVSPost2010PropOp28
 70
     1
102
RTVSPost2010Prop29
280
     1
102
RTVSPost2010PropOp29
 70
     1
102
RTVSPost2010Prop30
280
     1
102
RTVSPost2010PropOp30
 70
     1
102
RTVSPost2010Prop31
280
     0
102
RTVSPost2010PropOp31
 70
     1
102
RTVSPost2010Prop32
280
     0
102
RTVSPost2010PropOp32
 70
     1
102
RTVSPost2010Prop33
280
     0
102
RTVSPost2010PropOp33
 70
     1
102
RTVSPost2010Prop34
280
     0
102
RTVSPost2010PropOp34
 70
     1
102
RTVSPost2010Prop35
280
     0
102
RTVSPost2010PropOp35
 70
     1
102
RTVSPost2010Prop36
280
     0
102
RTVSPost2010PropOp36
 70
     1
102
RTVSPost2010Prop37
 90
       50
102
RTVSPost2010PropOp37
 70
     1
102
RTVSPost2010Prop38
140
0.0
102
RTVSPost2010PropOp38
 70
     1
102
RTVSPost2010Prop39
140
1.0
102
RTVSPost2010PropOp39
 70
     1
102
RTVSPost2010Prop40
 90
        0
102
RTVSPost2010PropOp40
 70
     1
102
RTVSPost2010Prop41ColorIndex
 90
       18
102
RTVSPost2010Prop41ColorRGB
 90
        0
102
RTVSPost2010PropOp41
 70
     1
102
RTVSPost2010Prop42
 90
       50
102
RTVSPost2010PropOp42
 70
     1
102
RTVSPost2010Prop43
 90
        3
102
RTVSPost2010PropOp43
 70
     1
102
RTVSPost2010Prop44ColorIndex
 90
        5
102
RTVSPost2010Prop44ColorRGB
 90
      255
102
RTVSPost2010PropOp44
 70
     1
102
RTVSPost2010Prop45
280
     0
102
RTVSPost2010PropOp45
 70
     1
102
RTVSPost2010Prop46
 90
       50
102
RTVSPost2010PropOp46
 70
     1
102
RTVSPost2010Prop47
 90
       50
102
RTVSPost2010PropOp47
 70
     1
102
RTVSPost2010Prop48
 90
       50
102
RTVSPost2010PropOp48
 70
     1
102
RTVSPost2010Prop49
280
     0
102
RTVSPost2010PropOp49
 70
     1
102
RTVSPost2010Prop50
 90
       50
102
RTVSPost2010PropOp50
 70
     1
102
RTVSPost2010Prop51ColorIndex
 90
      256
102
RTVSPost2010Prop51ColorRGB
 90
-16777216
102
RTVSPost2010PropOp51
 70
     0
102
RTVSPost2010Prop52
140
1.0
102
RTVSPost2010PropOp52
 70
     0
102
RTVSPost2010Prop53
 90
        2
102
RTVSPost2010PropOp53
 70
     1
102
RTVSPost2010Prop54
  1
strokes_ogs.tif
102
RTVSPost2010PropOp54
 70
     1
102
RTVSPost2010Prop55
280
     0
102
RTVSPost2010PropOp55
 70
     1
102
RTVSPost2010Prop56
140
1.0
102
RTVSPost2010PropOp56
 70
     1
102
RTVSPost2010Prop57
140
1.0
102
RTVSPost2010PropOp57
 70
     1
102
RTVSPropertyOp0
 70
     1
102
RTVSPropertyOp1
 70
     1
102
RTVSPropertyOp2
 70
     1
102
RTVSPropertyOp3
 70
     1
102
RTVSPropertyOp4
 70
     1
102
RTVSPropertyOp5
 70
     1
102
RTVSPropertyOp6
 70
     1
102
RTVSPropertyOp7
 70
     1
102
RTVSPropertyOp8
 70
     1
102
RTVSPropertyOp9
 70
     1
102
RTVSPropertyOp10
 70
     1
102
RTVSPropertyOp11
 70
     1
102
RTVSPropertyOp12
 70
     1
102
RTVSPropertyOp13
 70
     1
102
RTVSPropertyOp14
 70
     1
102
RTVSPropertyOp15
 70
     1
102
RTVSPropertyOp16
 70
     1
102
RTVSPropertyOp17
 70
     1
102
RTVSPropertyOp18
 70
     1
102
RTVSPropertyOp19
 70
     1
102
RTVSPropertyOp20
 70
     1
102
RTVSPropertyOp21
 70
     1
102
RTVSPropertyOp22
 70
     1
102
RTVSPropertyOp23
 70
     1
102
RTVSPropertyOp24
 70
     1
102
RTVSPropertyOp25
 70
     1
102
RTVSPropertyOp26
 70
     1
102
RTVSPropertyOp27
 70
     1
102
RTVSPropertyOp28
 70
     1
102
RTVSPropertyOp29
 70
     1
102
RTVSPropertyOp30
 70
     1
102
RTVSPropertyOp31
 70
     1
102
RTVSPropertyOp32
 70
     1
102
RTVSPropertyOp33
 70
     1
102
RTVSPropertyOp34
 70
     1
102
RTVSPropertyOp35
 70
     1
102
RTVSPropertyOp36
 70
     1
102
RTVSPropertyOp37
 70
     1
102
RTVSPropertyOp38
 70
     1
102
RTVSPropertyOp39
 70
     1
102
RTVSPropertyOp40
 70
     1
102
RTVSPropertyOp41
 70
     1
102
RTVSPropertyOp42
 70
     1
102
RTVSPropertyOp43
 70
     1
102
RTVSPropertyOp44
 70
     1
102
RTVSPropertyOp45
 70
     1
102
RTVSPropertyOp46
 70
     1
102
RTVSPropertyOp47
 70
     1
102
RTVSPropertyOp48
 70
     1
102
RTVSPropertyOp49
 70
     1
102
RTVSPropertyOp50
 70
     1
102
RTVSPropertyOp51
 70
     0
102
RTVSPropertyOp52
 70
     0
102
RTVSPropertyOp53
 70
     1
102
RTVSPropertyOp54
 70
     1
102
RTVSPropertyOp55
 70
     1
102
RTVSPropertyOp56
 70
     1
102
RTVSPropertyOp57
 70
     1
102
RTVSPropertyOp58
 70
     1
102
RTVSPropertyOp59
 70
     1
102
RTVSPropertyOp60
 70
     1
102
RTVSPropertyOp61
 70
     1
102
RTVSPropertyOp62
 70
     1
  0
XRECORD
  5
C381
102
{ACAD_REACTORS
330
C380
102
}
330
C380
100
AcDbXrecord
280
     1
102
RTVSPost2010Prop28
280
     0
102
RTVSPost2010PropOp28
 70
     1
102
RTVSPost2010Prop29
280
     1
102
RTVSPost2010PropOp29
 70
     1
102
RTVSPost2010Prop30
280
     1
102
RTVSPost2010PropOp30
 70
     1
102
RTVSPost2010Prop31
280
     0
102
RTVSPost2010PropOp31
 70
     1
102
RTVSPost2010Prop32
280
     0
102
RTVSPost2010PropOp32
 70
     1
102
RTVSPost2010Prop33
280
     0
102
RTVSPost2010PropOp33
 70
     1
102
RTVSPost2010Prop34
280
     0
102
RTVSPost2010PropOp34
 70
     1
102
RTVSPost2010Prop35
280
     0
102
RTVSPost2010PropOp35
 70
     1
102
RTVSPost2010Prop36
280
     0
102
RTVSPost2010PropOp36
 70
     1
102
RTVSPost2010Prop37
 90
       50
102
RTVSPost2010PropOp37
 70
     1
102
RTVSPost2010Prop38
140
0.0
102
RTVSPost2010PropOp38
 70
     1
102
RTVSPost2010Prop39
140
1.0
102
RTVSPost2010PropOp39
 70
     1
102
RTVSPost2010Prop40
 90
        0
102
RTVSPost2010PropOp40
 70
     1
102
RTVSPost2010Prop41ColorIndex
 90
       18
102
RTVSPost2010Prop41ColorRGB
 90
        0
102
RTVSPost2010PropOp41
 70
     1
102
RTVSPost2010Prop42
 90
       50
102
RTVSPost2010PropOp42
 70
     1
102
RTVSPost2010Prop43
 90
        3
102
RTVSPost2010PropOp43
 70
     1
102
RTVSPost2010Prop44ColorIndex
 90
        5
102
RTVSPost2010Prop44ColorRGB
 90
      255
102
RTVSPost2010PropOp44
 70
     1
102
RTVSPost2010Prop45
280
     0
102
RTVSPost2010PropOp45
 70
     1
102
RTVSPost2010Prop46
 90
       50
102
RTVSPost2010PropOp46
 70
     1
102
RTVSPost2010Prop47
 90
       50
102
RTVSPost2010PropOp47
 70
     1
102
RTVSPost2010Prop48
 90
       50
102
RTVSPost2010PropOp48
 70
     1
102
RTVSPost2010Prop49
280
     0
102
RTVSPost2010PropOp49
 70
     1
102
RTVSPost2010Prop50
 90
       50
102
RTVSPost2010PropOp50
 70
     1
102
RTVSPost2010Prop51ColorIndex
 90
      256
102
RTVSPost2010Prop51ColorRGB
 90
-16777216
102
RTVSPost2010PropOp51
 70
     0
102
RTVSPost2010Prop52
140
1.0
102
RTVSPost2010PropOp52
 70
     0
102
RTVSPost2010Prop53
 90
        2
102
RTVSPost2010PropOp53
 70
     1
102
RTVSPost2010Prop54
  1
strokes_ogs.tif
102
RTVSPost2010PropOp54
 70
     1
102
RTVSPost2010Prop55
280
     0
102
RTVSPost2010PropOp55
 70
     1
102
RTVSPost2010Prop56
140
1.0
102
RTVSPost2010PropOp56
 70
     1
102
RTVSPost2010Prop57
140
1.0
102
RTVSPost2010PropOp57
 70
     1
102
RTVSPropertyOp0
 70
     1
102
RTVSPropertyOp1
 70
     1
102
RTVSPropertyOp2
 70
     1
102
RTVSPropertyOp3
 70
     1
102
RTVSPropertyOp4
 70
     1
102
RTVSPropertyOp5
 70
     1
102
RTVSPropertyOp6
 70
     1
102
RTVSPropertyOp7
 70
     1
102
RTVSPropertyOp8
 70
     1
102
RTVSPropertyOp9
 70
     1
102
RTVSPropertyOp10
 70
     1
102
RTVSPropertyOp11
 70
     1
102
RTVSPropertyOp12
 70
     1
102
RTVSPropertyOp13
 70
     1
102
RTVSPropertyOp14
 70
     1
102
RTVSPropertyOp15
 70
     1
102
RTVSPropertyOp16
 70
     1
102
RTVSPropertyOp17
 70
     1
102
RTVSPropertyOp18
 70
     1
102
RTVSPropertyOp19
 70
     1
102
RTVSPropertyOp20
 70
     1
102
RTVSPropertyOp21
 70
     1
102
RTVSPropertyOp22
 70
     1
102
RTVSPropertyOp23
 70
     1
102
RTVSPropertyOp24
 70
     1
102
RTVSPropertyOp25
 70
     1
102
RTVSPropertyOp26
 70
     1
102
RTVSPropertyOp27
 70
     1
102
RTVSPropertyOp28
 70
     1
102
RTVSPropertyOp29
 70
     1
102
RTVSPropertyOp30
 70
     1
102
RTVSPropertyOp31
 70
     1
102
RTVSPropertyOp32
 70
     1
102
RTVSPropertyOp33
 70
     1
102
RTVSPropertyOp34
 70
     1
102
RTVSPropertyOp35
 70
     1
102
RTVSPropertyOp36
 70
     1
102
RTVSPropertyOp37
 70
     1
102
RTVSPropertyOp38
 70
     1
102
RTVSPropertyOp39
 70
     1
102
RTVSPropertyOp40
 70
     1
102
RTVSPropertyOp41
 70
     1
102
RTVSPropertyOp42
 70
     1
102
RTVSPropertyOp43
 70
     1
102
RTVSPropertyOp44
 70
     1
102
RTVSPropertyOp45
 70
     1
102
RTVSPropertyOp46
 70
     1
102
RTVSPropertyOp47
 70
     1
102
RTVSPropertyOp48
 70
     1
102
RTVSPropertyOp49
 70
     1
102
RTVSPropertyOp50
 70
     1
102
RTVSPropertyOp51
 70
     0
102
RTVSPropertyOp52
 70
     0
102
RTVSPropertyOp53
 70
     1
102
RTVSPropertyOp54
 70
     1
102
RTVSPropertyOp55
 70
     1
102
RTVSPropertyOp56
 70
     1
102
RTVSPropertyOp57
 70
     1
102
RTVSPropertyOp58
 70
     1
102
RTVSPropertyOp59
 70
     1
102
RTVSPropertyOp60
 70
     1
102
RTVSPropertyOp61
 70
     1
102
RTVSPropertyOp62
 70
     1
  0
XRECORD
  5
C399
102
{ACAD_REACTORS
330
C398
102
}
330
C398
100
AcDbXrecord
280
     1
102
RTVSPost2010Prop28
280
     0
102
RTVSPost2010PropOp28
 70
     1
102
RTVSPost2010Prop29
280
     1
102
RTVSPost2010PropOp29
 70
     1
102
RTVSPost2010Prop30
280
     1
102
RTVSPost2010PropOp30
 70
     1
102
RTVSPost2010Prop31
280
     0
102
RTVSPost2010PropOp31
 70
     1
102
RTVSPost2010Prop32
280
     0
102
RTVSPost2010PropOp32
 70
     1
102
RTVSPost2010Prop33
280
     0
102
RTVSPost2010PropOp33
 70
     1
102
RTVSPost2010Prop34
280
     0
102
RTVSPost2010PropOp34
 70
     1
102
RTVSPost2010Prop35
280
     0
102
RTVSPost2010PropOp35
 70
     1
102
RTVSPost2010Prop36
280
     0
102
RTVSPost2010PropOp36
 70
     1
102
RTVSPost2010Prop37
 90
       50
102
RTVSPost2010PropOp37
 70
     1
102
RTVSPost2010Prop38
140
0.0
102
RTVSPost2010PropOp38
 70
     1
102
RTVSPost2010Prop39
140
1.0
102
RTVSPost2010PropOp39
 70
     1
102
RTVSPost2010Prop40
 90
        0
102
RTVSPost2010PropOp40
 70
     1
102
RTVSPost2010Prop41ColorIndex
 90
       18
102
RTVSPost2010Prop41ColorRGB
 90
        0
102
RTVSPost2010PropOp41
 70
     1
102
RTVSPost2010Prop42
 90
       50
102
RTVSPost2010PropOp42
 70
     1
102
RTVSPost2010Prop43
 90
        3
102
RTVSPost2010PropOp43
 70
     1
102
RTVSPost2010Prop44ColorIndex
 90
        5
102
RTVSPost2010Prop44ColorRGB
 90
      255
102
RTVSPost2010PropOp44
 70
     1
102
RTVSPost2010Prop45
280
     0
102
RTVSPost2010PropOp45
 70
     1
102
RTVSPost2010Prop46
 90
       50
102
RTVSPost2010PropOp46
 70
     1
102
RTVSPost2010Prop47
 90
       50
102
RTVSPost2010PropOp47
 70
     1
102
RTVSPost2010Prop48
 90
       50
102
RTVSPost2010PropOp48
 70
     1
102
RTVSPost2010Prop49
280
     0
102
RTVSPost2010PropOp49
 70
     1
102
RTVSPost2010Prop50
 90
       50
102
RTVSPost2010PropOp50
 70
     1
102
RTVSPost2010Prop51ColorIndex
 90
      256
102
RTVSPost2010Prop51ColorRGB
 90
-16777216
102
RTVSPost2010PropOp51
 70
     0
102
RTVSPost2010Prop52
140
1.0
102
RTVSPost2010PropOp52
 70
     0
102
RTVSPost2010Prop53
 90
        2
102
RTVSPost2010PropOp53
 70
     1
102
RTVSPost2010Prop54
  1
strokes_ogs.tif
102
RTVSPost2010PropOp54
 70
     1
102
RTVSPost2010Prop55
280
     0
102
RTVSPost2010PropOp55
 70
     1
102
RTVSPost2010Prop56
140
1.0
102
RTVSPost2010PropOp56
 70
     1
102
RTVSPost2010Prop57
140
1.0
102
RTVSPost2010PropOp57
 70
     1
102
RTVSPropertyOp0
 70
     1
102
RTVSPropertyOp1
 70
     1
102
RTVSPropertyOp2
 70
     1
102
RTVSPropertyOp3
 70
     1
102
RTVSPropertyOp4
 70
     1
102
RTVSPropertyOp5
 70
     1
102
RTVSPropertyOp6
 70
     1
102
RTVSPropertyOp7
 70
     1
102
RTVSPropertyOp8
 70
     1
102
RTVSPropertyOp9
 70
     1
102
RTVSPropertyOp10
 70
     1
102
RTVSPropertyOp11
 70
     1
102
RTVSPropertyOp12
 70
     1
102
RTVSPropertyOp13
 70
     1
102
RTVSPropertyOp14
 70
     1
102
RTVSPropertyOp15
 70
     1
102
RTVSPropertyOp16
 70
     1
102
RTVSPropertyOp17
 70
     1
102
RTVSPropertyOp18
 70
     1
102
RTVSPropertyOp19
 70
     1
102
RTVSPropertyOp20
 70
     1
102
RTVSPropertyOp21
 70
     1
102
RTVSPropertyOp22
 70
     1
102
RTVSPropertyOp23
 70
     1
102
RTVSPropertyOp24
 70
     1
102
RTVSPropertyOp25
 70
     1
102
RTVSPropertyOp26
 70
     1
102
RTVSPropertyOp27
 70
     1
102
RTVSPropertyOp28
 70
     1
102
RTVSPropertyOp29
 70
     1
102
RTVSPropertyOp30
 70
     1
102
RTVSPropertyOp31
 70
     1
102
RTVSPropertyOp32
 70
     1
102
RTVSPropertyOp33
 70
     1
102
RTVSPropertyOp34
 70
     1
102
RTVSPropertyOp35
 70
     1
102
RTVSPropertyOp36
 70
     1
102
RTVSPropertyOp37
 70
     1
102
RTVSPropertyOp38
 70
     1
102
RTVSPropertyOp39
 70
     1
102
RTVSPropertyOp40
 70
     1
102
RTVSPropertyOp41
 70
     1
102
RTVSPropertyOp42
 70
     1
102
RTVSPropertyOp43
 70
     1
102
RTVSPropertyOp44
 70
     1
102
RTVSPropertyOp45
 70
     1
102
RTVSPropertyOp46
 70
     1
102
RTVSPropertyOp47
 70
     1
102
RTVSPropertyOp48
 70
     1
102
RTVSPropertyOp49
 70
     1
102
RTVSPropertyOp50
 70
     1
102
RTVSPropertyOp51
 70
     0
102
RTVSPropertyOp52
 70
     0
102
RTVSPropertyOp53
 70
     1
102
RTVSPropertyOp54
 70
     1
102
RTVSPropertyOp55
 70
     1
102
RTVSPropertyOp56
 70
     1
102
RTVSPropertyOp57
 70
     1
102
RTVSPropertyOp58
 70
     1
102
RTVSPropertyOp59
 70
     1
102
RTVSPropertyOp60
 70
     1
102
RTVSPropertyOp61
 70
     1
102
RTVSPropertyOp62
 70
     1
  0
ENDSEC
  0
EOF
