  0
SECTION
  2
HEADER
  9
$ACADVER
  1
AC1015
  9
$ACADMAINTVER
 70
    20
  9
$DWGCODEPAGE
  3
ANSI_932
  9
$INSBASE
 10
0.0
 20
0.0
 30
0.0
  9
$EXTMIN
 10
10.00000153760832
 20
9.999999806846743
 30
0.0
  9
$EXTMAX
 10
469.8425885376082
 20
329.5251918068467
 30
0.0
  9
$LIMMIN
 10
0.0000015376083204
 20
-0.0000001931532552
  9
$LIMMAX
 10
495.0000015376081
 20
341.2499998068465
  9
$ORTHOMODE
 70
     1
  9
$REGENMODE
 70
     1
  9
$FILLMODE
 70
     1
  9
$QTEXTMODE
 70
     0
  9
$MIRRTEXT
 70
     1
  9
$LTSCALE
 40
1.0
  9
$ATTMODE
 70
     1
  9
$TEXTSIZE
 40
2.5
  9
$TRACEWID
 40
1.0
  9
$TEXTSTYLE
  7
STANDARD
  9
$CLAYER
  8
0
  9
$CELTYPE
  6
BYLAYER
  9
$CECOLOR
 62
   256
  9
$CELTSCALE
 40
1.0
  9
$DISPSILH
 70
     0
  9
$DIMSCALE
 40
1.0
  9
$DIMASZ
 40
3.0
  9
$DIMEXO
 40
1.0
  9
$DIMDLI
 40
10.0
  9
$DIMRND
 40
0.0
  9
$DIMDLE
 40
0.0
  9
$DIMEXE
 40
1.0
  9
$DIMTP
 40
0.0
  9
$DIMTM
 40
0.0
  9
$DIMTXT
 40
3.2
  9
$DIMCEN
 40
0.0
  9
$DIMTSZ
 40
0.0
  9
$DIMTOL
 70
     0
  9
$DIMLIM
 70
     0
  9
$DIMTIH
 70
     0
  9
$DIMTOH
 70
     0
  9
$DIMSE1
 70
     0
  9
$DIMSE2
 70
     0
  9
$DIMTAD
 70
     3
  9
$DIMZIN
 70
     8
  9
$DIMBLK
  1

  9
$DIMASO
 70
     1
  9
$DIMSHO
 70
     1
  9
$DIMPOST
  1

  9
$DIMAPOST
  1

  9
$DIMALT
 70
     0
  9
$DIMALTD
 70
     2
  9
$DIMALTF
 40
25.4
  9
$DIMLFAC
 40
1.0
  9
$DIMTOFL
 70
     1
  9
$DIMTVP
 40
0.0
  9
$DIMTIX
 70
     0
  9
$DIMSOXD
 70
     0
  9
$DIMSAH
 70
     1
  9
$DIMBLK1
  1
OPEN
  9
$DIMBLK2
  1
OPEN
  9
$DIMSTYLE
  2
STANDARD
  9
$DIMCLRD
 70
     0
  9
$DIMCLRE
 70
     0
  9
$DIMCLRT
 70
     0
  9
$DIMTFAC
 40
1.0
  9
$DIMGAP
 40
1.0
  9
$DIMJUST
 70
     0
  9
$DIMSD1
 70
     0
  9
$DIMSD2
 70
     0
  9
$DIMTOLJ
 70
     1
  9
$DIMTZIN
 70
     0
  9
$DIMALTZ
 70
     0
  9
$DIMALTTZ
 70
     0
  9
$DIMUPT
 70
     0
  9
$DIMDEC
 70
     4
  9
$DIMTDEC
 70
     4
  9
$DIMALTU
 70
     2
  9
$DIMALTTD
 70
     2
  9
$DIMTXSTY
  7
STANDARD
  9
$DIMAUNIT
 70
     0
  9
$DIMADEC
 70
     0
  9
$DIMALTRND
 40
0.0
  9
$DIMAZIN
 70
     0
  9
$DIMDSEP
 70
    46
  9
$DIMATFIT
 70
     3
  9
$DIMFRAC
 70
     0
  9
$DIMLDRBLK
  1
OPEN
  9
$DIMLUNIT
 70
     2
  9
$DIMLWD
 70
    -2
  9
$DIMLWE
 70
    -2
  9
$DIMTMOVE
 70
     0
  9
$LUNITS
 70
     2
  9
$LUPREC
 70
     4
  9
$SKETCHINC
 40
1.0
  9
$FILLETRAD
 40
10.0
  9
$AUNITS
 70
     0
  9
$AUPREC
 70
     0
  9
$MENU
  1
.
  9
$ELEVATION
 40
0.0
  9
$PELEVATION
 40
0.0
  9
$THICKNESS
 40
0.0
  9
$LIMCHECK
 70
     0
  9
$CHAMFERA
 40
10.0
  9
$CHAMFERB
 40
10.0
  9
$CHAMFERC
 40
20.0
  9
$CHAMFERD
 40
0.0
  9
$SKPOLY
 70
     0
  9
$TDCREATE
 40
2454875.547481470
  9
$TDUCREATE
 40
2454875.172481470
  9
$TDUPDATE
 40
2457192.686824977
  9
$TDUUPDATE
 40
2457192.311824977
  9
$TDINDWG
 40
0.0029867014
  9
$TDUSRTIMER
 40
0.0029866898
  9
$USRTIMER
 70
     1
  9
$ANGBASE
 50
0.0
  9
$ANGDIR
 70
     0
  9
$PDMODE
 70
     0
  9
$PDSIZE
 40
0.0
  9
$PLINEWID
 40
0.0
  9
$SPLFRAME
 70
     0
  9
$SPLINETYPE
 70
     6
  9
$SPLINESEGS
 70
     8
  9
$HANDSEED
  5
A0D
  9
$SURFTAB1
 70
     6
  9
$SURFTAB2
 70
     6
  9
$SURFTYPE
 70
     6
  9
$SURFU
 70
     6
  9
$SURFV
 70
     6
  9
$UCSBASE
  2

  9
$UCSNAME
  2

  9
$UCSORG
 10
0.0
 20
0.0
 30
0.0
  9
$UCSXDIR
 10
1.0
 20
0.0
 30
0.0
  9
$UCSYDIR
 10
0.0
 20
1.0
 30
0.0
  9
$UCSORTHOREF
  2

  9
$UCSORTHOVIEW
 70
     0
  9
$UCSORGTOP
 10
0.0
 20
0.0
 30
0.0
  9
$UCSORGBOTTOM
 10
0.0
 20
0.0
 30
0.0
  9
$UCSORGLEFT
 10
0.0
 20
0.0
 30
0.0
  9
$UCSORGRIGHT
 10
0.0
 20
0.0
 30
0.0
  9
$UCSORGFRONT
 10
0.0
 20
0.0
 30
0.0
  9
$UCSORGBACK
 10
0.0
 20
0.0
 30
0.0
  9
$PUCSBASE
  2

  9
$PUCSNAME
  2

  9
$PUCSORG
 10
0.0
 20
0.0
 30
0.0
  9
$PUCSXDIR
 10
1.0
 20
0.0
 30
0.0
  9
$PUCSYDIR
 10
0.0
 20
1.0
 30
0.0
  9
$PUCSORTHOREF
  2

  9
$PUCSORTHOVIEW
 70
     0
  9
$PUCSORGTOP
 10
0.0
 20
0.0
 30
0.0
  9
$PUCSORGBOTTOM
 10
0.0
 20
0.0
 30
0.0
  9
$PUCSORGLEFT
 10
0.0
 20
0.0
 30
0.0
  9
$PUCSORGRIGHT
 10
0.0
 20
0.0
 30
0.0
  9
$PUCSORGFRONT
 10
0.0
 20
0.0
 30
0.0
  9
$PUCSORGBACK
 10
0.0
 20
0.0
 30
0.0
  9
$USERI1
 70
     0
  9
$USERI2
 70
     0
  9
$USERI3
 70
     0
  9
$USERI4
 70
     0
  9
$USERI5
 70
     0
  9
$USERR1
 40
0.0
  9
$USERR2
 40
0.0
  9
$USERR3
 40
0.0
  9
$USERR4
 40
0.0
  9
$USERR5
 40
0.0
  9
$WORLDVIEW
 70
     1
  9
$SHADEDGE
 70
     3
  9
$SHADEDIF
 70
    70
  9
$TILEMODE
 70
     1
  9
$MAXACTVP
 70
    48
  9
$PINSBASE
 10
0.0
 20
0.0
 30
0.0
  9
$PLIMCHECK
 70
     0
  9
$PEXTMIN
 10
1.000000000000000E+20
 20
1.000000000000000E+20
 30
1.000000000000000E+20
  9
$PEXTMAX
 10
-1.000000000000000E+20
 20
-1.000000000000000E+20
 30
-1.000000000000000E+20
  9
$PLIMMIN
 10
0.0
 20
0.0
  9
$PLIMMAX
 10
420.0
 20
297.0
  9
$UNITMODE
 70
     0
  9
$VISRETAIN
 70
     1
  9
$PLINEGEN
 70
     0
  9
$PSLTSCALE
 70
     1
  9
$TREEDEPTH
 70
  3020
  9
$CMLSTYLE
  2
STANDARD
  9
$CMLJUST
 70
     0
  9
$CMLSCALE
 40
20.0
  9
$PROXYGRAPHICS
 70
     1
  9
$MEASUREMENT
 70
     0
  9
$CELWEIGHT
370
    -1
  9
$ENDCAPS
280
     0
  9
$JOINSTYLE
280
     0
  9
$LWDISPLAY
290
     0
  9
$INSUNITS
 70
     0
  9
$HYPERLINKBASE
  1

  9
$STYLESHEET
  1

  9
$XEDIT
290
     1
  9
$CEPSNTYPE
380
     0
  9
$PSTYLEMODE
290
     1
  9
$FINGERPRINTGUID
  2
{9C3416B6-B6F0-4392-8694-967583255814}
  9
$VERSIONGUID
  2
{FEF94AE0-F1CA-4958-A21F-6B3FE8830BB6}
  9
$EXTNAMES
290
     1
  9
$PSVPSCALE
 40
0.0
  9
$OLESTARTUP
290
     0
  0
ENDSEC
  0
SECTION
  2
CLASSES
  0
CLASS
  1
ACDBDICTIONARYWDFLT
  2
AcDbDictionaryWithDefault
  3
ObjectDBX Classes
 90
        0
280
     0
281
     0
  0
CLASS
  1
ACDBPLACEHOLDER
  2
AcDbPlaceHolder
  3
ObjectDBX Classes
 90
        0
280
     0
281
     0
  0
CLASS
  1
LAYOUT
  2
AcDbLayout
  3
ObjectDBX Classes
 90
        0
280
     0
281
     0
  0
CLASS
  1
MATERIAL
  2
AcDbMaterial
  3
ObjectDBX Classes
 90
     1153
280
     0
281
     0
  0
CLASS
  1
VISUALSTYLE
  2
AcDbVisualStyle
  3
ObjectDBX Classes
 90
     4095
280
     0
281
     0
  0
CLASS
  1
TABLESTYLE
  2
AcDbTableStyle
  3
ObjectDBX Classes
 90
     4095
280
     0
281
     0
  0
CLASS
  1
SCALE
  2
AcDbScale
  3
ObjectDBX Classes
 90
     1153
280
     0
281
     0
  0
CLASS
  1
MLEADERSTYLE
  2
AcDbMLeaderStyle
  3
ACDB_MLEADERSTYLE_CLASS
 90
     4095
280
     0
281
     0
  0
CLASS
  1
ACDBSECTIONVIEWSTYLE
  2
AcDbSectionViewStyle
  3
ObjectDBX Classes
 90
     1025
280
     0
281
     0
  0
CLASS
  1
ACDBDETAILVIEWSTYLE
  2
AcDbDetailViewStyle
  3
ObjectDBX Classes
 90
     1025
280
     0
281
     0
  0
CLASS
  1
DICTIONARYVAR
  2
AcDbDictionaryVar
  3
ObjectDBX Classes
 90
        0
280
     0
281
     0
  0
CLASS
  1
CELLSTYLEMAP
  2
AcDbCellStyleMap
  3
ObjectDBX Classes
 90
     1152
280
     0
281
     0
  0
ENDSEC
  0
SECTION
  2
TABLES
  0
TABLE
  2
VPORT
  5
8
330
0
100
AcDbSymbolTable
 70
     1
  0
VPORT
  5
957
330
8
100
AcDbSymbolTableRecord
100
AcDbViewportTableRecord
  2
*ACTIVE
 70
     0
 10
0.0
 20
0.0
 11
1.0
 21
1.0
 12
372.2885807886395
 22
169.7658354087306
 13
0.0
 23
0.0
 14
10.0
 24
10.0
 15
10.0
 25
10.0
 16
0.0
 26
0.0
 36
1.0
 17
0.0
 27
0.0
 37
0.0
 40
321.9874748004531
 41
2.35006605019815
 42
50.0
 43
0.0
 44
0.0
 50
0.0
 51
0.0
 71
     0
 72
   100
 73
     1
 74
     0
 75
     0
 76
     0
 77
     0
 78
     0
281
     0
 65
     1
110
0.0
120
0.0
130
0.0
111
1.0
121
0.0
131
0.0
112
0.0
122
1.0
132
0.0
 79
     0
146
0.0
1001
ACAD_NAV_VCDISPLAY
1070
     3
  0
ENDTAB
  0
TABLE
  2
LTYPE
  5
5
330
0
100
AcDbSymbolTable
 70
     4
  0
LTYPE
  5
12
330
5
100
AcDbSymbolTableRecord
100
AcDbLinetypeTableRecord
  2
BYBLOCK
 70
     0
  3

 72
    65
 73
     0
 40
0.0
  0
LTYPE
  5
13
330
5
100
AcDbSymbolTableRecord
100
AcDbLinetypeTableRecord
  2
BYLAYER
 70
     0
  3

 72
    65
 73
     0
 40
0.0
  0
LTYPE
  5
14
330
5
100
AcDbSymbolTableRecord
100
AcDbLinetypeTableRecord
  2
CONTINUOUS
 70
     0
  3
Solid line
 72
    65
 73
     0
 40
0.0
  0
LTYPE
  5
4B
330
5
100
AcDbSymbolTableRecord
100
AcDbLinetypeTableRecord
  2
DASHED
 70
     0
  3
Dashed __ __ __ __ __ __ __ __ __ __ __ __ __ _
 72
    65
 73
     2
 40
19.04999999999999
 49
12.7
 74
     0
 49
-6.349999999999998
 74
     0
  0
LTYPE
  5
4C
330
5
100
AcDbSymbolTableRecord
100
AcDbLinetypeTableRecord
  2
CENTER
 70
     0
  3
Center ____ _ ____ _ ____ _ ____ _ ____ _ ____
 72
    65
 73
     4
 40
50.8
 49
31.75
 74
     0
 49
-6.349999999999998
 74
     0
 49
6.349999999999998
 74
     0
 49
-6.349999999999998
 74
     0
  0
LTYPE
  5
4D
330
5
100
AcDbSymbolTableRecord
100
AcDbLinetypeTableRecord
  2
PHANTOM
 70
     0
  3
Phantom ______  __  __  ______  __  __  ______
 72
    65
 73
     6
 40
63.5
 49
31.75
 74
     0
 49
-6.349999999999998
 74
     0
 49
6.349999999999998
 74
     0
 49
-6.349999999999998
 74
     0
 49
6.349999999999998
 74
     0
 49
-6.349999999999998
 74
     0
  0
ENDTAB
  0
TABLE
  2
LAYER
  5
2
330
0
100
AcDbSymbolTable
 70
     8
  0
LAYER
  5
E
102
{ACAD_XDICTIONARY
360
9B1
102
}
330
2
100
AcDbSymbolTableRecord
100
AcDbLayerTableRecord
  2
0
 70
     0
 62
     7
  6
CONTINUOUS
370
    -3
390
960
  0
LAYER
  5
4E
102
{ACAD_XDICTIONARY
360
9B3
102
}
330
2
100
AcDbSymbolTableRecord
100
AcDbLayerTableRecord
  2
4
 70
     0
 62
     1
  6
CENTER
370
    -3
390
960
  0
LAYER
  5
4F
102
{ACAD_XDICTIONARY
360
9B5
102
}
330
2
100
AcDbSymbolTableRecord
100
AcDbLayerTableRecord
  2
5
 70
     0
 62
     6
  6
PHANTOM
370
    -3
390
960
  0
LAYER
  5
50
102
{ACAD_XDICTIONARY
360
9B7
102
}
330
2
100
AcDbSymbolTableRecord
100
AcDbLayerTableRecord
  2
1
 70
     0
 62
     7
  6
CONTINUOUS
370
    -3
390
960
  0
LAYER
  5
51
102
{ACAD_XDICTIONARY
360
9B9
102
}
330
2
100
AcDbSymbolTableRecord
100
AcDbLayerTableRecord
  2
2
 70
     0
 62
     4
  6
CONTINUOUS
370
    -3
390
960
  0
LAYER
  5
52
102
{ACAD_XDICTIONARY
360
9BB
102
}
330
2
100
AcDbSymbolTableRecord
100
AcDbLayerTableRecord
  2
3
 70
     0
 62
     2
  6
DASHED
370
    -3
390
960
  0
LAYER
  5
53
102
{ACAD_XDICTIONARY
360
9BD
102
}
330
2
100
AcDbSymbolTableRecord
100
AcDbLayerTableRecord
  2
6
 70
     0
 62
     5
  6
CONTINUOUS
370
    -3
390
960
  0
LAYER
  5
54
102
{ACAD_XDICTIONARY
360
9BF
102
}
330
2
100
AcDbSymbolTableRecord
100
AcDbLayerTableRecord
  2
7
 70
     0
 62
     3
  6
CONTINUOUS
370
    -3
390
960
  0
ENDTAB
  0
TABLE
  2
STYLE
  5
3
330
0
100
AcDbSymbolTable
 70
     1
  0
STYLE
  5
F
330
3
100
AcDbSymbolTableRecord
100
AcDbTextStyleTableRecord
  2
STANDARD
 70
     0
 40
0.0
 41
1.0
 50
0.0
 71
     0
 42
2.5
  3
simplex.shx
  4

  0
ENDTAB
  0
TABLE
  2
VIEW
  5
6
330
0
100
AcDbSymbolTable
 70
     0
  0
ENDTAB
  0
TABLE
  2
UCS
  5
7
330
0
100
AcDbSymbolTable
 70
     0
  0
ENDTAB
  0
TABLE
  2
APPID
  5
9
330
0
100
AcDbSymbolTable
 70
     5
  0
APPID
  5
10
330
9
100
AcDbSymbolTableRecord
100
AcDbRegAppTableRecord
  2
ACAD
 70
     0
  0
APPID
  5
3E
330
9
100
AcDbSymbolTableRecord
100
AcDbRegAppTableRecord
  2
CONTENTTABDATA
 70
     0
  0
APPID
  5
3F
330
9
100
AcDbSymbolTableRecord
100
AcDbRegAppTableRecord
  2
CONTENTCURRENTTAB
 70
     0
  0
APPID
  5
9CB
330
9
100
AcDbSymbolTableRecord
100
AcDbRegAppTableRecord
  2
ACAD_NAV_VCDISPLAY
 70
     0
  0
APPID
  5
A04
330
9
100
AcDbSymbolTableRecord
100
AcDbRegAppTableRecord
  2
ACAD_MLEADERVER
 70
     0
  0
ENDTAB
  0
TABLE
  2
DIMSTYLE
  5
A
330
0
100
AcDbSymbolTable
 70
     1
100
AcDbDimStyleTable
 71
     0
  0
DIMSTYLE
105
1D
330
A
100
AcDbSymbolTableRecord
100
AcDbDimStyleTableRecord
  2
STANDARD
 70
     0
 41
3.0
 42
1.0
 43
10.0
 44
1.0
 73
     0
 74
     0
 77
     3
 78
     8
140
3.2
141
0.0
147
1.0
172
     1
173
     1
340
F
341
2E
343
2E
344
2E
  0
ENDTAB
  0
TABLE
  2
BLOCK_RECORD
  5
1
330
0
100
AcDbSymbolTable
 70
     1
  0
BLOCK_RECORD
  5
18
102
{ACAD_XDICTIONARY
360
95A
102
}
330
1
100
AcDbSymbolTableRecord
100
AcDbBlockTableRecord
  2
*MODEL_SPACE
340
9AE
  0
BLOCK_RECORD
  5
15
102
{ACAD_XDICTIONARY
360
958
102
}
330
1
100
AcDbSymbolTableRecord
100
AcDbBlockTableRecord
  2
*PAPER_SPACE
340
9AF
  0
BLOCK_RECORD
  5
2E
330
1
100
AcDbSymbolTableRecord
100
AcDbBlockTableRecord
  2
_OPEN
340
0
  0
ENDTAB
  0
ENDSEC
  0
SECTION
  2
BLOCKS
  0
BLOCK
  5
19
330
18
100
AcDbEntity
  8
0
100
AcDbBlockBegin
  2
*MODEL_SPACE
 70
     0
 10
0.0
 20
0.0
 30
0.0
  3
*MODEL_SPACE
  1

  0
ENDBLK
  5
1A
330
18
100
AcDbEntity
  8
0
100
AcDbBlockEnd
  0
BLOCK
  5
16
330
15
100
AcDbEntity
 67
     1
  8
0
100
AcDbBlockBegin
  2
*PAPER_SPACE
 70
     0
 10
0.0
 20
0.0
 30
0.0
  3
*PAPER_SPACE
  1

  0
ENDBLK
  5
17
330
15
100
AcDbEntity
 67
     1
  8
0
100
AcDbBlockEnd
  0
BLOCK
  5
2F
330
2E
100
AcDbEntity
  8
0
100
AcDbBlockBegin
  2
_OPEN
 70
     0
 10
0.0
 20
0.0
 30
0.0
  3
_OPEN
  1

  0
LINE
  5
30
330
2E
100
AcDbEntity
  8
0
  6
ByBlock
 62
     0
100
AcDbLine
 10
-1.0
 20
0.1666666666666666
 30
0.0
 11
0.0
 21
0.0
 31
0.0
  0
LINE
  5
31
330
2E
100
AcDbEntity
  8
0
  6
ByBlock
 62
     0
100
AcDbLine
 10
0.0
 20
0.0
 30
0.0
 11
-1.0
 21
-0.1666666666666666
 31
0.0
  0
LINE
  5
32
330
2E
100
AcDbEntity
  8
0
  6
ByBlock
 62
     0
100
AcDbLine
 10
0.0
 20
0.0
 30
0.0
 11
-1.0
 21
0.0
 31
0.0
  0
ENDBLK
  5
33
330
2E
100
AcDbEntity
  8
0
100
AcDbBlockEnd
  0
ENDSEC
  0
SECTION
  2
ENTITIES
  0
ARC
  5
4E2
330
18
100
AcDbEntity
  8
1
  6
Continuous
100
AcDbCircle
 10
79.35484053760831
 20
170.5216298068467
 30
0.0
 40
3.066986999999998
100
AcDbArc
 50
145.615753
 51
205.615753
  0
ARC
  5
4E3
330
18
100
AcDbEntity
  8
1
  6
Continuous
100
AcDbCircle
 10
78.22086553760833
 20
170.5216298068467
 30
0.0
 40
3.066986999999998
100
AcDbArc
 50
334.384247
 51
34.38424699999997
  0
LINE
  5
4E4
330
18
100
AcDbEntity
  8
1
  6
Continuous
100
AcDbLine
 10
81.28785253760829
 20
181.7177818068465
 30
0.0
 11
81.28785253760829
 21
169.7177818068467
 31
0.0
  0
LINE
  5
4E5
330
18
100
AcDbEntity
  8
1
  6
Continuous
100
AcDbLine
 10
76.28785253760833
 20
168.7177818068467
 30
0.0
 11
76.28785253760833
 21
182.7177818068465
 31
0.0
  0
CIRCLE
  5
4E6
330
18
100
AcDbEntity
  8
1
  6
Continuous
100
AcDbCircle
 10
160.4901475376083
 20
175.7178818068467
 30
0.0
 40
7.0
  0
LINE
  5
4E7
330
18
100
AcDbEntity
  8
1
  6
Continuous
100
AcDbLine
 10
197.8764235376083
 20
169.2912918068466
 30
0.0
 11
198.6037495376083
 21
171.4732718068467
 31
0.0
  0
LINE
  5
4E8
330
18
100
AcDbEntity
  8
1
  6
Continuous
100
AcDbLine
 10
183.7759045376081
 20
169.6804818068467
 30
0.0
 11
185.0691975376081
 21
173.5603618068467
 31
0.0
  0
ARC
  5
4E9
330
18
100
AcDbEntity
  8
1
  6
Continuous
100
AcDbCircle
 10
135.2180985376083
 20
165.7494018068467
 30
0.0
 40
5.5
100
AcDbArc
 50
166.60203
 51
30.88298400000001
  0
LINE
  5
4EA
330
18
100
AcDbEntity
  8
1
  6
Continuous
100
AcDbLine
 10
131.6254035376083
 20
174.4026918068467
 30
0.0
 11
129.867783537608
 21
167.0238318068466
 31
0.0
  0
ARC
  5
4EB
330
18
100
AcDbEntity
  8
1
  6
Continuous
100
AcDbCircle
 10
161.9771625376083
 20
217.4091618068467
 30
0.0
 40
52.638252
100
AcDbArc
 50
235.37772
 51
250.0364999999999
  0
LINE
  5
4EC
330
18
100
AcDbEntity
  8
1
  6
Continuous
100
AcDbLine
 10
132.8300165376083
 20
175.2006818068467
 30
0.0
 11
144.0053265376083
 21
167.9339418068465
 31
0.0
  0
ARC
  5
4ED
330
18
100
AcDbEntity
  8
1
  6
Continuous
100
AcDbCircle
 10
147.9100845376082
 20
170.2880418068466
 30
0.0
 40
20.47908
100
AcDbArc
 50
160.01693
 51
199.6769199999999
  0
LINE
  5
4EE
330
18
100
AcDbEntity
  8
1
  6
Continuous
100
AcDbLine
 10
163.8407125376082
 20
160.7627018068466
 30
0.0
 11
171.3210245376083
 21
183.6310718068466
 31
0.0
  0
LINE
  5
4EF
330
18
100
AcDbEntity
  8
5
  6
PHANTOM
100
AcDbLine
 10
147.2274465376083
 20
165.6893308068467
 30
0.0
 11
140.3938185376082
 21
177.0623978068467
 31
0.0
  0
LINE
  5
4F0
330
18
100
AcDbEntity
  8
5
  6
PHANTOM
100
AcDbLine
 10
171.0646295376082
 20
164.6244598068466
 30
0.0
 11
165.6984275376083
 21
188.0791238068467
 31
0.0
  0
LINE
  5
4F1
330
18
100
AcDbEntity
  8
1
  6
Continuous
100
AcDbLine
 10
182.6119665376083
 20
170.0684818068467
 30
0.0
 11
176.0230085376083
 21
179.5126518068467
 31
0.0
  0
LINE
  5
4F2
330
18
100
AcDbEntity
  8
5
  6
PHANTOM
100
AcDbLine
 10
185.5720685376082
 20
168.8240288068466
 30
0.0
 11
182.3619075376083
 21
182.2689708068465
 31
0.0
  0
ARC
  5
4F3
330
18
100
AcDbEntity
  8
5
  6
PHANTOM
100
AcDbCircle
 10
154.8245625376082
 20
181.5627828068467
 30
0.0
 40
33.26602199999999
100
AcDbArc
 50
194.76667
 51
202.21368
  0
ARC
  5
4F4
330
18
100
AcDbEntity
  8
1
  6
Continuous
100
AcDbCircle
 10
93.49630253760834
 20
171.6628918068466
 30
0.0
 40
1.435702
100
AcDbArc
 50
287.5484099999998
 51
72.45158700000001
  0
LINE
  5
4F5
330
18
100
AcDbEntity
  8
1
  6
Continuous
100
AcDbLine
 10
197.8764235376083
 20
169.2912918068466
 30
0.0
 11
183.6461725376083
 21
174.0347118068467
 31
0.0
  0
LINE
  5
4F6
330
18
100
AcDbEntity
  8
5
  6
PHANTOM
100
AcDbLine
 10
185.4669765376083
 20
169.2642148068465
 30
0.0
 11
192.7338325376083
 21
173.4636608068467
 31
0.0
  0
LINE
  5
4F7
330
18
100
AcDbEntity
  8
1
  6
Continuous
100
AcDbLine
 10
72.80600253760829
 20
170.0128218068467
 30
0.0
 11
73.14703253760836
 21
172.2412618068467
 31
0.0
  0
ARC
  5
4F8
330
18
100
AcDbEntity
  8
1
  6
Continuous
100
AcDbCircle
 10
117.2306225376083
 20
173.4402718068467
 30
0.0
 40
50.5
100
AcDbArc
 50
165.5419399999999
 51
198.55736
  0
LINE
  5
4F9
330
18
100
AcDbEntity
  8
1
  6
Continuous
100
AcDbLine
 10
74.78785253760833
 20
160.6742618068467
 30
0.0
 11
74.78785253760833
 21
188.1067418068465
 31
0.0
  0
ARC
  5
4FA
330
18
100
AcDbEntity
  8
1
  6
Continuous
100
AcDbCircle
 10
117.2306225376083
 20
173.4402718068467
 30
0.0
 40
50.0
100
AcDbArc
 50
165.5419399999999
 51
198.55736
  0
ARC
  5
4FB
330
18
100
AcDbEntity
  8
1
  6
Continuous
100
AcDbCircle
 10
54.3178725376083
 20
162.3847018068467
 30
0.0
 40
20.0
100
AcDbArc
 50
13.41735799999997
 51
46.43457999999998
  0
ARC
  5
4FC
330
18
100
AcDbEntity
  8
1
  6
Continuous
100
AcDbCircle
 10
42.68759053760831
 20
175.7177818068467
 30
0.0
 40
11.40175399999999
100
AcDbArc
 50
142.1250179705407
 51
217.874984
  0
LINE
  5
4FD
330
18
100
AcDbEntity
  8
1
  6
Continuous
100
AcDbLine
 10
33.68759053760832
 20
168.7177818068467
 30
0.0
 11
33.68759053760832
 21
182.7177818068465
 31
0.0
  0
LINE
  5
4FE
330
18
100
AcDbEntity
  8
1
  6
Continuous
100
AcDbLine
 10
160.4901475376083
 20
168.7896788068467
 30
0.0
 11
154.4901475376083
 21
172.2537808068467
 31
0.0
  0
LINE
  5
4FF
330
18
100
AcDbEntity
  8
1
  6
Continuous
100
AcDbLine
 10
160.4901475376083
 20
168.7896788068467
 30
0.0
 11
166.4901475376083
 21
172.2537808068467
 31
0.0
  0
CIRCLE
  5
500
330
18
100
AcDbEntity
  8
1
  6
Continuous
100
AcDbCircle
 10
160.4901475376083
 20
175.7178818068467
 30
0.0
 40
6.0
  0
LINE
  5
501
330
18
100
AcDbEntity
  8
1
  6
Continuous
100
AcDbLine
 10
38.73785253760832
 20
186.9677818068465
 30
0.0
 11
38.73785253760832
 21
164.4677818068467
 31
0.0
  0
LINE
  5
502
330
18
100
AcDbEntity
  8
1
  6
Continuous
100
AcDbLine
 10
39.23785253760831
 20
163.0137368068466
 30
0.0
 11
39.23785253760831
 21
188.4218258068467
 31
0.0
  0
LINE
  5
503
330
18
100
AcDbEntity
  8
1
  6
Continuous
100
AcDbLine
 10
42.48785253760831
 20
146.5788198068467
 30
0.0
 11
42.48785253760831
 21
204.8567438068466
 31
0.0
  0
LINE
  5
504
330
18
100
AcDbEntity
  8
1
  6
Continuous
100
AcDbLine
 10
65.48785253760833
 20
146.5788198068467
 30
0.0
 11
65.48785253760833
 21
204.8567438068466
 31
0.0
  0
LINE
  5
505
330
18
100
AcDbEntity
  8
1
  6
Continuous
100
AcDbLine
 10
38.13799353760832
 20
208.5888988068466
 30
0.0
 11
38.60062553760829
 21
165.1057188068466
 31
0.0
  0
LINE
  5
506
330
18
100
AcDbEntity
  8
1
  6
Continuous
100
AcDbLine
 10
35.83921353760829
 20
208.4618538068467
 30
0.0
 11
36.30049553760832
 21
165.1057188068466
 31
0.0
  0
LINE
  5
507
330
18
100
AcDbEntity
  8
4
  6
CENTER
100
AcDbLine
 10
53.98785253760832
 20
229.2176648068467
 30
0.0
 11
53.98785253760832
 21
139.2177818068467
 31
0.0
  0
LINE
  5
508
330
18
100
AcDbEntity
  8
4
  6
CENTER
100
AcDbLine
 10
160.4901475376083
 20
139.2178818068467
 30
0.0
 11
160.4901475376083
 21
207.8914678068467
 31
0.0
  0
ARC
  5
509
330
18
100
AcDbEntity
  8
1
  6
Continuous
100
AcDbCircle
 10
87.43200253760834
 20
190.8398818068467
 30
0.0
 40
21.548689
100
AcDbArc
 50
270.0
 51
287.5484099999998
  0
TEXT
  5
50A
330
18
100
AcDbEntity
  8
1
  6
Continuous
100
AcDbText
 10
10.00000153760832
 20
9.999999806846743
 30
0.0
 40
1.399999999999999
  1
LAYER
100
AcDbText
  0
TEXT
  5
50B
330
18
100
AcDbEntity
  8
7
  6
Continuous
100
AcDbText
 10
10.00000153760832
 20
25.99999980684674
 30
0.0
 40
3.0
  1
CODE No.9032
100
AcDbText
  0
TEXT
  5
50C
330
18
100
AcDbEntity
  8
7
  6
Continuous
100
AcDbText
 10
10.00000153760832
 20
17.99999980684674
 30
0.0
 40
3.0
  1
TYPE No.105BS
100
AcDbText
  0
TEXT
  5
50D
330
18
100
AcDbEntity
  8
5
  6
PHANTOM
100
AcDbText
 10
25.97951253760831
 20
10.04873680684672
 30
0.0
 40
1.399999999999999
  1
5
100
AcDbText
  0
TEXT
  5
50E
330
18
100
AcDbEntity
  8
6
  6
Continuous
100
AcDbText
 10
27.97951253760832
 20
10.04873680684672
 30
0.0
 40
1.399999999999999
  1
6
100
AcDbText
  0
TEXT
  5
50F
330
18
100
AcDbEntity
  8
2
  6
Continuous
100
AcDbText
 10
19.9795125376083
 20
10.04873680684672
 30
0.0
 40
1.399999999999999
  1
2
100
AcDbText
  0
TEXT
  5
510
330
18
100
AcDbEntity
  8
3
  6
DASHED
100
AcDbText
 10
21.97951253760832
 20
10.04873680684672
 30
0.0
 40
1.399999999999999
  1
3
100
AcDbText
  0
TEXT
  5
511
330
18
100
AcDbEntity
  8
4
  6
CENTER
100
AcDbText
 10
23.97951253760831
 20
10.04873680684672
 30
0.0
 40
1.399999999999999
  1
4
100
AcDbText
  0
TEXT
  5
512
330
18
100
AcDbEntity
  8
7
  6
Continuous
100
AcDbText
 10
29.97951253760831
 20
10.04873680684672
 30
0.0
 40
1.399999999999999
  1
7
100
AcDbText
  0
TEXT
  5
513
330
18
100
AcDbEntity
  8
1
  6
Continuous
100
AcDbText
 10
17.9795125376083
 20
10.04873680684672
 30
0.0
 40
1.399999999999999
  1
1
100
AcDbText
  0
ARC
  5
514
330
18
100
AcDbEntity
  8
1
  6
Continuous
100
AcDbCircle
 10
53.98785253760832
 20
204.2177818068467
 30
0.0
 40
60.0
100
AcDbArc
 50
260.157513
 51
279.842487
  0
LINE
  5
515
330
18
100
AcDbEntity
  8
1
  6
Continuous
100
AcDbLine
 10
33.68759053760832
 20
168.7177818068467
 30
0.0
 11
36.18759053760832
 21
168.7177818068467
 31
0.0
  0
ARC
  5
516
330
18
100
AcDbEntity
  8
1
  6
Continuous
100
AcDbCircle
 10
43.98785253760832
 20
146.5788198068467
 30
0.0
 40
1.5
100
AcDbArc
 50
180.0
 51
260.157513
  0
LINE
  5
517
330
18
100
AcDbEntity
  8
1
  6
Continuous
100
AcDbLine
 10
39.58878553760832
 20
162.0495558068466
 30
0.0
 11
42.48785253760831
 21
158.5945828068467
 31
0.0
  0
ARC
  5
518
330
18
100
AcDbEntity
  8
1
  6
Continuous
100
AcDbCircle
 10
40.73785253760831
 20
163.0137368068466
 30
0.0
 40
1.5
100
AcDbArc
 50
180.0
 51
220.0
  0
LINE
  5
519
330
18
100
AcDbEntity
  8
1
  6
Continuous
100
AcDbLine
 10
39.23785253760831
 20
164.4677818068467
 30
0.0
 11
38.73785253760832
 21
164.4677818068467
 31
0.0
  0
LINE
  5
51A
330
18
100
AcDbEntity
  8
1
  6
Continuous
100
AcDbLine
 10
38.73785253760832
 20
170.2177818068465
 30
0.0
 11
38.54623653760829
 21
170.2177818068465
 31
0.0
  0
LINE
  5
51B
330
18
100
AcDbEntity
  8
1
  6
Continuous
100
AcDbLine
 10
38.60062553760829
 20
165.1057188068466
 30
0.0
 11
36.30049553760832
 21
165.1057188068466
 31
0.0
  0
LINE
  5
51C
330
18
100
AcDbEntity
  8
1
  6
Continuous
100
AcDbLine
 10
73.12611253760831
 20
157.1798018068466
 30
0.0
 11
76.06974253760831
 21
157.1798018068466
 31
0.0
  0
ARC
  5
51D
330
18
100
AcDbEntity
  8
1
  6
Continuous
100
AcDbCircle
 10
73.51730253760834
 20
176.9979218068466
 30
0.0
 40
20.0
100
AcDbArc
 50
259.6730799999999
 51
270.0
  0
ARC
  5
51E
330
18
100
AcDbEntity
  8
1
  6
Continuous
100
AcDbCircle
 10
68.42210253760831
 20
165.7493018068465
 30
0.0
 40
5.5
100
AcDbArc
 50
294.1025
 51
13.41735799999997
  0
ARC
  5
51F
330
18
100
AcDbEntity
  8
1
  6
Continuous
100
AcDbCircle
 10
71.47268253760834
 20
150.7259318068467
 30
0.0
 40
10.0
100
AcDbArc
 50
52.49591500000001
 51
84.17350999999998
  0
ARC
  5
520
330
18
100
AcDbEntity
  8
1
  6
Continuous
100
AcDbCircle
 10
75.81730253760833
 20
176.9979218068466
 30
0.0
 40
20.0
100
AcDbArc
 50
259.6730799999999
 51
262.26684
  0
ARC
  5
521
330
18
100
AcDbEntity
  8
1
  6
Continuous
100
AcDbCircle
 10
63.98785253760832
 20
146.5788198068467
 30
0.0
 40
1.5
100
AcDbArc
 50
279.842487
 51
0.0
  0
LINE
  5
522
330
18
100
AcDbEntity
  8
1
  6
Continuous
100
AcDbLine
 10
68.10969253760832
 20
161.7191698068467
 30
0.0
 11
65.48785253760833
 21
158.5945828068467
 31
0.0
  0
LINE
  5
523
330
18
100
AcDbEntity
  8
1
  6
Continuous
100
AcDbLine
 10
69.93200253760831
 20
157.3218918068466
 30
0.0
 11
69.93200253760831
 21
160.1636018068466
 31
0.0
  0
LINE
  5
524
330
18
100
AcDbEntity
  8
1
  6
Continuous
100
AcDbLine
 10
72.23201253760833
 20
157.3218918068466
 30
0.0
 11
72.23201253760833
 21
161.7826318068465
 31
0.0
  0
LINE
  5
525
330
18
100
AcDbEntity
  8
1
  6
Continuous
100
AcDbLine
 10
69.93200253760831
 20
157.3218918068466
 30
0.0
 11
72.23201253760833
 21
157.3218918068466
 31
0.0
  0
LINE
  5
526
330
18
100
AcDbEntity
  8
1
  6
Continuous
100
AcDbLine
 10
72.48785253760833
 20
162.0453118068467
 30
0.0
 11
72.48785253760833
 21
160.6742618068467
 31
0.0
  0
LINE
  5
527
330
18
100
AcDbEntity
  8
1
  6
Continuous
100
AcDbLine
 10
69.35633253760832
 20
157.3684618068466
 30
0.0
 11
69.83033253760833
 21
157.5275818068466
 31
0.0
  0
ARC
  5
528
330
18
100
AcDbEntity
  8
1
  6
Continuous
100
AcDbCircle
 10
71.48487253760833
 20
158.9031918068467
 30
0.0
 40
2.0
100
AcDbArc
 50
114.1025
 51
197.6292199999998
  0
ARC
  5
529
330
18
100
AcDbEntity
  8
1
  6
Continuous
100
AcDbCircle
 10
76.06974253760831
 20
159.1798018068465
 30
0.0
 40
2.0
100
AcDbArc
 50
270.0
 51
322.2928999999998
  0
ARC
  5
52A
330
18
100
AcDbEntity
  8
1
  6
Continuous
100
AcDbCircle
 10
78.36973253760833
 20
159.1798018068465
 30
0.0
 40
2.0
100
AcDbArc
 50
278.15215
 51
336.5296499999999
  0
ARC
  5
52B
330
18
100
AcDbEntity
  8
1
  6
Continuous
100
AcDbCircle
 10
75.81730253760833
 20
176.9979218068466
 30
0.0
 40
20.0
100
AcDbArc
 50
270.0
 51
278.15215
  0
LINE
  5
52C
330
18
100
AcDbEntity
  8
1
  6
Continuous
100
AcDbLine
 10
73.51730253760834
 20
156.9979218068467
 30
0.0
 11
75.81730253760833
 21
156.9979218068467
 31
0.0
  0
LINE
  5
52D
330
18
100
AcDbEntity
  8
1
  6
Continuous
100
AcDbLine
 10
81.04156153760834
 20
169.2911918068467
 30
0.0
 11
87.43200253760834
 21
169.2911918068467
 31
0.0
  0
LINE
  5
52E
330
18
100
AcDbEntity
  8
1
  6
Continuous
100
AcDbLine
 10
80.20379253760834
 20
158.3821818068467
 30
0.0
 11
80.20379253760834
 21
168.7895788068465
 31
0.0
  0
ARC
  5
52F
330
18
100
AcDbEntity
  8
1
  6
Continuous
100
AcDbCircle
 10
73.77269253760835
 20
150.7259318068467
 30
0.0
 40
10.0
100
AcDbArc
 50
49.975787
 51
84.17350999999998
  0
ARC
  5
530
330
18
100
AcDbEntity
  8
1
  6
Continuous
100
AcDbCircle
 10
77.25645253760831
 20
158.2623718068466
 30
0.0
 40
0.5
100
AcDbArc
 50
322.2928999999998
 51
52.49591500000001
  0
LINE
  5
531
330
18
100
AcDbEntity
  8
1
  6
Continuous
100
AcDbLine
 10
76.82375153760833
 20
168.7895788068465
 30
0.0
 11
80.75195453760832
 21
168.7895788068465
 31
0.0
  0
LINE
  5
532
330
18
100
AcDbEntity
  8
1
  6
Continuous
100
AcDbLine
 10
76.82375153760833
 20
168.7895788068465
 30
0.0
 11
76.28785253760833
 21
169.7177818068467
 31
0.0
  0
LINE
  5
533
330
18
100
AcDbEntity
  8
1
  6
Continuous
100
AcDbLine
 10
76.28785253760833
 20
168.7177818068467
 30
0.0
 11
74.78785253760833
 21
168.7177818068467
 31
0.0
  0
LINE
  5
534
330
18
100
AcDbEntity
  8
1
  6
Continuous
100
AcDbLine
 10
80.75195453760832
 20
168.7895788068465
 30
0.0
 11
81.28785253760829
 21
169.7177818068467
 31
0.0
  0
ARC
  5
535
330
18
100
AcDbEntity
  8
1
  6
Continuous
100
AcDbCircle
 10
185.4901475376083
 20
68.81031780684677
 30
0.0
 40
15.0
100
AcDbArc
 50
234.4633149999999
 51
60.427906
  0
ARC
  5
536
330
18
100
AcDbEntity
  8
1
  6
Continuous
100
AcDbCircle
 10
188.9901475376083
 20
68.81031780684677
 30
0.0
 40
60.0
100
AcDbArc
 50
170.1575129999999
 51
189.842487
  0
ARC
  5
537
330
18
100
AcDbEntity
  8
1
  6
Continuous
100
AcDbCircle
 10
131.9901475376083
 20
68.81031780684677
 30
0.0
 40
60.0
100
AcDbArc
 50
350.1575129999998
 51
9.842487
  0
ARC
  5
538
330
18
100
AcDbEntity
  8
1
  6
Continuous
100
AcDbCircle
 10
185.4901475376083
 20
68.81031780684677
 30
0.0
 40
26.0
100
AcDbArc
 50
226.1869379999998
 51
59.710515
  0
ARC
  5
539
330
18
100
AcDbEntity
  8
1
  6
Continuous
100
AcDbCircle
 10
185.4901475376083
 20
68.81031780684677
 30
0.0
 40
9.449999999999999
100
AcDbArc
 50
309.888604
 51
50.11139599999999
  0
ARC
  5
53A
330
18
100
AcDbEntity
  8
1
  6
Continuous
100
AcDbCircle
 10
185.4901475376083
 20
68.81031780684677
 30
0.0
 40
18.44999999999998
100
AcDbArc
 50
231.697708
 51
59.78938199999999
  0
ARC
  5
53B
330
18
100
AcDbEntity
  8
1
  6
Continuous
100
AcDbCircle
 10
185.4901475376083
 20
68.81031780684677
 30
0.0
 40
20.44999999999999
100
AcDbArc
 50
227.7496259999999
 51
53.01692899999999
  0
ARC
  5
53C
330
18
100
AcDbEntity
  8
1
  6
Continuous
100
AcDbCircle
 10
185.4901475376083
 20
68.81031780684677
 30
0.0
 40
22.45
100
AcDbArc
 50
232.2467339999999
 51
54.258827
  0
ARC
  5
53D
330
18
100
AcDbEntity
  8
1
  6
Continuous
100
AcDbCircle
 10
185.4901475376083
 20
68.81031780684677
 30
0.0
 40
24.75
100
AcDbArc
 50
232.1293309999998
 51
58.00519699999998
  0
LINE
  5
53E
330
18
100
AcDbEntity
  8
4
  6
CENTER
100
AcDbLine
 10
160.4901475376083
 20
101.9931258068467
 30
0.0
 11
160.4901475376083
 21
36.81031780684675
 31
0.0
  0
LINE
  5
53F
330
18
100
AcDbEntity
  8
1
  6
Continuous
100
AcDbLine
 10
220.4901475376083
 20
88.8103178068467
 30
0.0
 11
220.4901475376083
 21
48.81031780684676
 31
0.0
  0
LINE
  5
540
330
18
100
AcDbEntity
  8
4
  6
CENTER
100
AcDbLine
 10
185.4901475376083
 20
100.8103178068467
 30
0.0
 11
185.4901475376083
 21
36.81031780684675
 31
0.0
  0
LINE
  5
541
330
18
100
AcDbEntity
  8
1
  6
Continuous
100
AcDbLine
 10
149.2401475376083
 20
53.56031780684674
 30
0.0
 11
171.7401475376083
 21
53.56031780684674
 31
0.0
  0
LINE
  5
542
330
18
100
AcDbEntity
  8
1
  6
Continuous
100
AcDbLine
 10
173.1941925376082
 20
54.06031780684674
 30
0.0
 11
147.7861035376081
 21
54.06031780684674
 31
0.0
  0
LINE
  5
543
330
18
100
AcDbEntity
  8
1
  6
Continuous
100
AcDbLine
 10
189.6291105376083
 20
57.31031780684674
 30
0.0
 11
131.3511855376082
 21
57.31031780684674
 31
0.0
  0
ARC
  5
544
330
18
100
AcDbEntity
  8
1
  6
Continuous
100
AcDbCircle
 10
165.3855395376082
 20
42.95751880684671
 30
0.0
 40
8.0
100
AcDbArc
 50
52.129331
 51
89.39043199999996
  0
ARC
  5
545
330
18
100
AcDbEntity
  8
1
  6
Continuous
100
AcDbCircle
 10
165.3161035376081
 20
42.75824680684674
 30
0.0
 40
10.5
100
AcDbArc
 50
52.246734
 51
89.390434
  0
LINE
  5
546
330
18
100
AcDbEntity
  8
1
  6
Continuous
100
AcDbLine
 10
213.4901475376083
 20
41.81031780684675
 30
0.0
 11
157.4901475376083
 21
41.81031780684675
 31
0.0
  0
ARC
  5
547
330
18
100
AcDbEntity
  8
1
  6
Continuous
100
AcDbCircle
 10
131.3511855376082
 20
58.81031780684676
 30
0.0
 40
1.5
100
AcDbArc
 50
189.842487
 51
270.0
  0
LINE
  5
548
330
18
100
AcDbEntity
  8
1
  6
Continuous
100
AcDbLine
 10
165.4278105376083
 20
53.25765280684675
 30
0.0
 11
150.597423537608
 21
53.41543780684673
 31
0.0
  0
LINE
  5
549
330
18
100
AcDbEntity
  8
1
  6
Continuous
100
AcDbLine
 10
165.4706495376083
 20
50.95706580684672
 30
0.0
 11
150.597423537608
 21
51.11530780684674
 31
0.0
  0
ARC
  5
54A
330
18
100
AcDbEntity
  8
1
  6
Continuous
100
AcDbCircle
 10
157.4901475376083
 20
48.81031780684676
 30
0.0
 40
7.0
100
AcDbArc
 50
180.0
 51
270.0
  0
LINE
  5
54B
330
18
100
AcDbEntity
  8
1
  6
Continuous
100
AcDbLine
 10
150.4901475376083
 20
53.56031780684674
 30
0.0
 11
150.4901475376083
 21
48.81031780684676
 31
0.0
  0
LINE
  5
54C
330
18
100
AcDbEntity
  8
1
  6
Continuous
100
AcDbLine
 10
146.8219215376083
 20
54.41125080684674
 30
0.0
 11
143.3669485376083
 21
57.31031780684674
 31
0.0
  0
ARC
  5
54D
330
18
100
AcDbEntity
  8
1
  6
Continuous
100
AcDbCircle
 10
147.7861035376081
 20
55.56031780684675
 30
0.0
 40
1.5
100
AcDbArc
 50
230.0
 51
270.0
  0
LINE
  5
54E
330
18
100
AcDbEntity
  8
1
  6
Continuous
100
AcDbLine
 10
149.2401475376083
 20
54.06031780684674
 30
0.0
 11
149.2401475376083
 21
53.56031780684674
 31
0.0
  0
LINE
  5
54F
330
18
100
AcDbEntity
  8
1
  6
Continuous
100
AcDbLine
 10
150.597423537608
 20
53.41543780684673
 30
0.0
 11
150.597423537608
 21
51.11530780684674
 31
0.0
  0
LINE
  5
550
330
18
100
AcDbEntity
  8
1
  6
Continuous
100
AcDbLine
 10
167.4901475376083
 20
48.51005480684674
 30
0.0
 11
167.4901475376083
 21
50.67571980684674
 31
0.0
  0
LINE
  5
551
330
18
100
AcDbEntity
  8
1
  6
Continuous
100
AcDbLine
 10
153.4901475376083
 20
48.51005580684674
 30
0.0
 11
153.4901475376083
 21
51.08453080684674
 31
0.0
  0
LINE
  5
552
330
18
100
AcDbEntity
  8
4
  6
CENTER
100
AcDbLine
 10
158.4901475376083
 20
57.06031780684675
 30
0.0
 11
158.4901475376083
 21
44.56031780684674
 31
0.0
  0
LINE
  5
554
330
18
100
AcDbEntity
  8
1
  6
Continuous
100
AcDbLine
 10
153.4901475376083
 20
48.51005580684674
 30
0.0
 11
167.4901475376083
 21
48.51005480684674
 31
0.0
  0
LINE
  5
557
330
18
100
AcDbEntity
  8
4
  6
CENTER
100
AcDbLine
 10
164.7401475376083
 20
50.81031780684675
 30
0.0
 11
152.2401475376083
 21
50.81031780684675
 31
0.0
  0
LINE
  5
558
330
18
100
AcDbEntity
  8
1
  6
Continuous
100
AcDbLine
 10
154.9901475376083
 20
53.56031780684674
 30
0.0
 11
154.9901475376083
 21
53.36870280684675
 31
0.0
  0
LINE
  5
559
330
18
100
AcDbEntity
  8
1
  6
Continuous
100
AcDbLine
 10
165.9901475376083
 20
53.56031780684674
 30
0.0
 11
165.9901475376083
 21
53.23658980684674
 31
0.0
  0
LINE
  5
55A
330
18
100
AcDbEntity
  8
4
  6
CENTER
100
AcDbLine
 10
218.7401475376083
 20
50.81031780684675
 30
0.0
 11
206.2401475376083
 21
50.81031780684675
 31
0.0
  0
LINE
  5
55B
330
18
100
AcDbEntity
  8
1
  6
Continuous
100
AcDbLine
 10
174.1583735376082
 20
54.41125080684674
 30
0.0
 11
177.6133465376082
 21
57.31031780684674
 31
0.0
  0
ARC
  5
55C
330
18
100
AcDbEntity
  8
1
  6
Continuous
100
AcDbCircle
 10
173.1941925376082
 20
55.56031780684675
 30
0.0
 40
1.5
100
AcDbArc
 50
270.0
 51
310.0
  0
LINE
  5
55D
330
18
100
AcDbEntity
  8
1
  6
Continuous
100
AcDbLine
 10
171.7401475376083
 20
54.06031780684674
 30
0.0
 11
171.7401475376083
 21
53.56031780684674
 31
0.0
  0
ARC
  5
55E
330
18
100
AcDbEntity
  8
1
  6
Continuous
100
AcDbCircle
 10
189.6291105376083
 20
58.81031780684676
 30
0.0
 40
1.5
100
AcDbArc
 50
270.0
 51
350.1575129999998
  0
LINE
  5
55F
330
18
100
AcDbEntity
  8
4
  6
CENTER
100
AcDbLine
 10
212.4901475376083
 20
57.06031780684675
 30
0.0
 11
212.4901475376083
 21
44.56031780684674
 31
0.0
  0
CIRCLE
  5
560
330
18
100
AcDbEntity
  8
1
  6
Continuous
100
AcDbCircle
 10
212.4901475376083
 20
50.81031780684675
 30
0.0
 40
3.25
  0
ARC
  5
561
330
18
100
AcDbEntity
  8
1
  6
Continuous
100
AcDbCircle
 10
213.4901475376083
 20
48.81031780684676
 30
0.0
 40
7.0
100
AcDbArc
 50
270.0
 51
0.0
  0
ARC
  5
562
330
18
100
AcDbEntity
  8
1
  6
Continuous
100
AcDbCircle
 10
160.4901475376083
 20
175.7178818068467
 30
0.0
 40
24.0
100
AcDbArc
 50
215.5692339999999
 51
308.3763359999998
  0
ARC
  5
563
330
18
100
AcDbEntity
  8
1
  6
Continuous
100
AcDbCircle
 10
160.4901475376083
 20
175.7178818068467
 30
0.0
 40
31.5
100
AcDbArc
 50
212.3104239999999
 51
323.984896
  0
LINE
  5
564
330
18
100
AcDbEntity
  8
1
  6
Continuous
100
AcDbLine
 10
183.646176537608
 20
95.8103178068468
 30
0.0
 11
166.4901475376083
 21
95.8103178068468
 31
0.0
  0
LINE
  5
565
330
18
100
AcDbEntity
  8
5
  6
PHANTOM
100
AcDbLine
 10
150.3689235376083
 20
160.5554328068466
 30
0.0
 11
180.3634015376083
 21
166.4527048068467
 31
0.0
  0
ARC
  5
566
330
18
100
AcDbEntity
  8
1
  6
Continuous
100
AcDbCircle
 10
170.0459185376083
 20
184.4000918068467
 30
0.0
 40
27.031521
100
AcDbArc
 50
224.33285
 51
275.91483
  0
LINE
  5
567
330
18
100
AcDbEntity
  8
1
  6
Continuous
100
AcDbLine
 10
144.0053265376083
 20
167.9339418068465
 30
0.0
 11
172.7529315376083
 21
157.5405918068467
 31
0.0
  0
ARC
  5
568
330
18
100
AcDbEntity
  8
1
  6
Continuous
100
AcDbCircle
 10
167.7834295376082
 20
90.31031780684674
 30
0.0
 40
3.0
100
AcDbArc
 50
270.0
 51
320.85634
  0
ARC
  5
569
330
18
100
AcDbEntity
  8
1
  6
Continuous
100
AcDbCircle
 10
176.7444505376083
 20
78.37629780684671
 30
0.0
 40
17.10877199999999
100
AcDbArc
 50
105.8169299999999
 51
138.95706
  0
ARC
  5
56A
330
18
100
AcDbEntity
  8
1
  6
Continuous
100
AcDbCircle
 10
176.7444505376083
 20
78.37629780684671
 30
0.0
 40
14.80877099999998
100
AcDbArc
 50
105.8169299999999
 51
138.3939399999997
  0
LINE
  5
56B
330
18
100
AcDbEntity
  8
1
  6
Continuous
100
AcDbLine
 10
173.5346415376083
 20
88.83552880684673
 30
0.0
 11
169.6494485376083
 21
87.31031780684677
 31
0.0
  0
ARC
  5
56C
330
18
100
AcDbEntity
  8
1
  6
Continuous
100
AcDbCircle
 10
181.4858215376082
 20
79.15733780684671
 30
0.0
 40
14.667618
100
AcDbArc
 50
116.54531
 51
140.85634
  0
LINE
  5
56D
330
18
100
AcDbEntity
  8
1
  6
Continuous
100
AcDbLine
 10
170.6172305376083
 20
83.31031780684677
 30
0.0
 11
127.4310045376083
 21
83.31031780684677
 31
0.0
  0
LINE
  5
56E
330
18
100
AcDbEntity
  8
1
  6
Continuous
100
AcDbLine
 10
170.5679215376081
 20
83.8103178068467
 30
0.0
 11
144.1266065376083
 21
83.8103178068467
 31
0.0
  0
LINE
  5
56F
330
18
100
AcDbEntity
  8
1
  6
Continuous
100
AcDbLine
 10
189.6291105376083
 20
80.31031780684671
 30
0.0
 11
131.3511855376082
 21
80.31031780684671
 31
0.0
  0
LINE
  5
570
330
18
100
AcDbEntity
  8
4
  6
CENTER
100
AcDbLine
 10
225.4901475376083
 20
68.81031780684677
 30
0.0
 11
123.9901475376083
 21
68.81031780684677
 31
0.0
  0
ARC
  5
571
330
18
100
AcDbEntity
  8
1
  6
Continuous
100
AcDbCircle
 10
133.8208745376083
 20
98.68653780684677
 30
0.0
 40
6.571915999999997
100
AcDbArc
 50
41.64949299999999
 51
138.35051
  0
LINE
  5
572
330
18
100
AcDbEntity
  8
1
  6
Continuous
100
AcDbLine
 10
132.1373965376082
 20
89.61030780684678
 30
0.0
 11
131.3346295376083
 21
89.61030780684678
 31
0.0
  0
ARC
  5
573
330
18
100
AcDbEntity
  8
1
  6
Continuous
100
AcDbCircle
 10
135.1348165376081
 20
84.99885780684673
 30
0.0
 40
5.5
100
AcDbArc
 50
17.76283399999998
 51
181.4134199999998
  0
ARC
  5
574
330
18
100
AcDbEntity
  8
1
  6
Continuous
100
AcDbCircle
 10
126.8899125376083
 20
133.8073878068465
 30
0.0
 40
50.5
100
AcDbArc
 50
270.62005
 51
289.82578
  0
ARC
  5
575
330
18
100
AcDbEntity
  8
1
  6
Continuous
100
AcDbCircle
 10
126.8899125376083
 20
133.8073878068465
 30
0.0
 40
50.0
100
AcDbArc
 50
270.6200579999999
 51
289.24248
  0
LINE
  5
576
330
18
100
AcDbEntity
  8
1
  6
Continuous
100
AcDbLine
 10
126.7057545376082
 20
88.22346780684679
 30
0.0
 11
126.7057545376082
 21
97.25846780684674
 31
0.0
  0
ARC
  5
577
330
18
100
AcDbEntity
  8
1
  6
Continuous
100
AcDbCircle
 10
128.6367995376083
 20
84.83851780684675
 30
0.0
 40
1.0
100
AcDbArc
 50
272.04306
 51
1.413420999999996
  0
LINE
  5
578
330
18
100
AcDbEntity
  8
1
  6
Continuous
100
AcDbLine
 10
127.4310045376083
 20
83.31031780684677
 30
0.0
 11
127.4310045376083
 21
83.8103178068467
 31
0.0
  0
ARC
  5
579
330
18
100
AcDbEntity
  8
1
  6
Continuous
100
AcDbCircle
 10
131.3511855376082
 20
78.81031780684677
 30
0.0
 40
1.5
100
AcDbArc
 50
90.0
 51
170.1575129999999
  0
LINE
  5
57A
330
18
100
AcDbEntity
  8
1
  6
Continuous
100
AcDbLine
 10
125.5924725376083
 20
85.25846780684675
 30
0.0
 11
129.6409475376082
 21
85.25846780684675
 31
0.0
  0
ARC
  5
57B
330
18
100
AcDbEntity
  8
1
  6
Continuous
100
AcDbCircle
 10
133.6064575376083
 20
76.69813780684673
 30
0.0
 40
11.726194
100
AcDbArc
 50
105.1813429999999
 51
133.1119699999999
  0
ARC
  5
57C
330
18
100
AcDbEntity
  8
1
  6
Continuous
100
AcDbCircle
 10
132.526089537608
 20
77.21522780684671
 30
0.0
 40
12.452217
100
AcDbArc
 50
95.49061399999997
 51
123.83603
  0
LINE
  5
57D
330
18
100
AcDbEntity
  8
1
  6
Continuous
100
AcDbLine
 10
125.5924725376083
 20
85.25846780684675
 30
0.0
 11
125.5924725376083
 21
87.5584878068467
 31
0.0
  0
ARC
  5
57E
330
18
100
AcDbEntity
  8
1
  6
Continuous
100
AcDbCircle
 10
135.4265715376083
 20
97.25846780684674
 30
0.0
 40
8.720793999999997
100
AcDbArc
 50
138.35051
 51
180.00001
  0
LINE
  5
57F
330
18
100
AcDbEntity
  8
1
  6
Continuous
100
AcDbLine
 10
153.4901475376083
 20
91.11030780684677
 30
0.0
 11
153.4901475376083
 21
89.61030780684678
 31
0.0
  0
LINE
  5
580
330
18
100
AcDbEntity
  8
1
  6
Continuous
100
AcDbLine
 10
141.6633275376083
 20
89.61030780684678
 30
0.0
 11
141.6633275376083
 21
97.25846780684674
 31
0.0
  0
LINE
  5
581
330
18
100
AcDbEntity
  8
1
  6
Continuous
100
AcDbLine
 10
140.9360015376083
 20
89.61030780684678
 30
0.0
 11
140.9360015376083
 21
97.25846780684674
 31
0.0
  0
ARC
  5
582
330
18
100
AcDbEntity
  8
1
  6
Continuous
100
AcDbCircle
 10
157.4901475376083
 20
88.8103178068467
 30
0.0
 40
7.0
100
AcDbArc
 50
115.3769339999999
 51
173.437655
  0
LINE
  5
583
330
18
100
AcDbEntity
  8
4
  6
CENTER
100
AcDbLine
 10
158.4901475376083
 20
93.0603178068468
 30
0.0
 11
158.4901475376083
 21
80.56031780684676
 31
0.0
  0
ARC
  5
584
330
18
100
AcDbEntity
  8
1
  6
Continuous
100
AcDbCircle
 10
151.5226625376083
 20
86.3103178068467
 30
0.0
 40
1.0
100
AcDbArc
 50
90.00000300000001
 51
169.2156999999999
  0
LINE
  5
585
330
18
100
AcDbEntity
  8
1
  6
Continuous
100
AcDbLine
 10
163.8407185376081
 20
89.61030780684678
 30
0.0
 11
138.1322375376083
 21
89.61030780684678
 31
0.0
  0
LINE
  5
586
330
18
100
AcDbEntity
  8
1
  6
Continuous
100
AcDbLine
 10
169.6494575376082
 20
87.31031780684677
 30
0.0
 11
143.9567075376082
 21
87.31031780684677
 31
0.0
  0
LINE
  5
587
330
18
100
AcDbEntity
  8
1
  6
Continuous
100
AcDbLine
 10
143.9567025376083
 20
87.31028780684672
 30
0.0
 11
139.8801015376082
 21
87.77955580684674
 31
0.0
  0
ARC
  5
588
330
18
100
AcDbEntity
  8
1
  6
Continuous
100
AcDbCircle
 10
141.3249455376082
 20
86.98186280684678
 30
0.0
 40
1.0
100
AcDbArc
 50
197.762834
 51
287.133104
  0
ARC
  5
589
330
18
100
AcDbEntity
  8
1
  6
Continuous
100
AcDbCircle
 10
149.2009845376083
 20
84.81031780684677
 30
0.0
 40
1.0
100
AcDbArc
 50
270.0
 51
349.2157000000001
  0
LINE
  5
58A
330
18
100
AcDbEntity
  8
1
  6
Continuous
100
AcDbLine
 10
143.9567005376081
 20
83.31031780684677
 30
0.0
 11
144.6446525376083
 21
85.33491780684675
 31
0.0
  0
LINE
  5
58B
330
18
100
AcDbEntity
  8
1
  6
Continuous
100
AcDbLine
 10
146.8219215376083
 20
83.20938480684672
 30
0.0
 11
143.3669485376083
 21
80.31031780684671
 31
0.0
  0
ARC
  5
58C
330
18
100
AcDbEntity
  8
1
  6
Continuous
100
AcDbCircle
 10
147.7861035376081
 20
82.06031780684677
 30
0.0
 40
1.5
100
AcDbArc
 50
123.55731
 51
130.0
  0
LINE
  5
58D
330
18
100
AcDbEntity
  8
1
  6
Continuous
100
AcDbLine
 10
143.1828625376081
 20
86.53645780684669
 30
0.0
 11
143.6638195376082
 21
87.01740780684678
 31
0.0
  0
ARC
  5
58E
330
18
100
AcDbEntity
  8
1
  6
Continuous
100
AcDbCircle
 10
143.6978195376081
 20
85.65662780684673
 30
0.0
 40
1.0
100
AcDbArc
 50
341.23258
 51
109.24248
  0
ARC
  5
58F
330
18
100
AcDbEntity
  8
1
  6
Continuous
100
AcDbCircle
 10
144.3709155376082
 20
86.3103178068467
 30
0.0
 40
1.0
100
AcDbArc
 50
90.00000300000001
 51
135.0
  0
ARC
  5
590
330
18
100
AcDbEntity
  8
1
  6
Continuous
100
AcDbCircle
 10
144.1871385376083
 20
85.83024780684672
 30
0.0
 40
0.5
100
AcDbArc
 50
41.820726
 51
109.82578
  0
LINE
  5
591
330
18
100
AcDbEntity
  8
1
  6
Continuous
100
AcDbLine
 10
150.5403185376082
 20
86.49741780684676
 30
0.0
 11
150.1833215376083
 21
84.62321780684673
 31
0.0
  0
LINE
  5
592
330
18
100
AcDbEntity
  8
1
  6
Continuous
100
AcDbLine
 10
150.4901475376083
 20
87.31031780684677
 30
0.0
 11
150.4901475376083
 21
86.23402880684675
 31
0.0
  0
LINE
  5
593
330
18
100
AcDbEntity
  8
4
  6
CENTER
100
AcDbLine
 10
164.7401475376083
 20
86.8103178068468
 30
0.0
 11
152.2401475376083
 21
86.8103178068468
 31
0.0
  0
ARC
  5
594
330
18
100
AcDbEntity
  8
1
  6
Continuous
100
AcDbCircle
 10
162.7570855376082
 20
92.43000780684672
 30
0.0
 40
5.129105
100
AcDbArc
 50
266.5298
 51
304.62587
  0
ARC
  5
595
330
18
100
AcDbEntity
  8
1
  6
Continuous
100
AcDbCircle
 10
134.5481995376082
 20
98.68653780684677
 30
0.0
 40
6.571915999999997
100
AcDbArc
 50
41.64949299999999
 51
93.17212699999997
  0
ARC
  5
596
330
18
100
AcDbEntity
  8
1
  6
Continuous
100
AcDbCircle
 10
132.9425015376083
 20
97.25846780684674
 30
0.0
 40
8.720793999999997
100
AcDbArc
 50
0.0
 51
41.64949299999999
  0
ARC
  5
597
330
18
100
AcDbEntity
  8
1
  6
Continuous
100
AcDbCircle
 10
132.2151845376082
 20
97.25846780684674
 30
0.0
 40
8.720793999999997
100
AcDbArc
 50
0.0
 51
41.64949299999999
  0
ARC
  5
598
330
18
100
AcDbEntity
  8
1
  6
Continuous
100
AcDbCircle
 10
157.4901475376083
 20
99.77537180684674
 30
0.0
 40
8.665063999999999
100
AcDbArc
 50
249.7438419999999
 51
290.256158
  0
ARC
  5
599
330
18
100
AcDbEntity
  8
1
  6
Continuous
100
AcDbCircle
 10
157.4901475376083
 20
87.44524480684672
 30
0.0
 40
8.665063999999999
100
AcDbArc
 50
69.743842
 51
110.2561579999999
  0
ARC
  5
59A
330
18
100
AcDbEntity
  8
1
  6
Continuous
100
AcDbCircle
 10
163.4901475376083
 20
99.77537180684674
 30
0.0
 40
8.665063999999999
100
AcDbArc
 50
249.7438419999999
 51
284.246096
  0
LINE
  5
59B
330
18
100
AcDbEntity
  8
1
  6
Continuous
100
AcDbLine
 10
154.4901475376083
 20
96.11030780684679
 30
0.0
 11
166.4901475376083
 21
96.11030780684679
 31
0.0
  0
LINE
  5
59C
330
18
100
AcDbEntity
  8
1
  6
Continuous
100
AcDbLine
 10
163.6901475376082
 20
96.99312580684678
 30
0.0
 11
157.2901475376082
 21
96.99312580684678
 31
0.0
  0
LINE
  5
59D
330
18
100
AcDbEntity
  8
1
  6
Continuous
100
AcDbLine
 10
156.4901475376083
 20
96.19312580684677
 30
0.0
 11
164.4901475376081
 21
96.19312580684677
 31
0.0
  0
LINE
  5
59E
330
18
100
AcDbEntity
  8
1
  6
Continuous
100
AcDbLine
 10
165.318381537608
 20
91.11030780684677
 30
0.0
 11
153.4901475376083
 21
91.11030780684677
 31
0.0
  0
LINE
  5
59F
330
18
100
AcDbEntity
  8
1
  6
Continuous
100
AcDbLine
 10
154.4901475376083
 20
96.11030780684679
 30
0.0
 11
154.4901475376083
 21
91.11030780684677
 31
0.0
  0
LINE
  5
5A0
330
18
100
AcDbEntity
  8
1
  6
Continuous
100
AcDbLine
 10
156.4901475376083
 20
96.11030780684679
 30
0.0
 11
156.4901475376083
 21
96.19312580684677
 31
0.0
  0
LINE
  5
5A1
330
18
100
AcDbEntity
  8
1
  6
Continuous
100
AcDbLine
 10
157.2901475376082
 20
96.99312580684678
 30
0.0
 11
156.4901475376083
 21
96.19312580684677
 31
0.0
  0
LINE
  5
5A2
330
18
100
AcDbEntity
  8
2
  6
Continuous
100
AcDbLine
 10
157.1666475376081
 20
96.86962580684673
 30
0.0
 11
157.1666475376081
 21
96.11030780684679
 31
0.0
  0
ARC
  5
5A3
330
18
100
AcDbEntity
  8
1
  6
Continuous
100
AcDbCircle
 10
163.4901475376083
 20
87.44524480684672
 30
0.0
 40
8.665063999999999
100
AcDbArc
 50
69.743842
 51
110.2561579999999
  0
LINE
  5
5A4
330
18
100
AcDbEntity
  8
1
  6
Continuous
100
AcDbLine
 10
164.4901475376081
 20
96.11030780684679
 30
0.0
 11
164.4901475376081
 21
96.19312580684677
 31
0.0
  0
LINE
  5
5A5
330
18
100
AcDbEntity
  8
1
  6
Continuous
100
AcDbLine
 10
163.6901475376082
 20
96.99312580684678
 30
0.0
 11
164.4901475376081
 21
96.19312580684677
 31
0.0
  0
LINE
  5
5A6
330
18
100
AcDbEntity
  8
2
  6
Continuous
100
AcDbLine
 10
163.8136475376083
 20
96.86962580684673
 30
0.0
 11
163.8136475376083
 21
96.11030780684679
 31
0.0
  0
LINE
  5
5A7
330
18
100
AcDbEntity
  8
1
  6
Continuous
100
AcDbLine
 10
160.4901475376083
 20
91.64620680684668
 30
0.0
 11
160.4901475376083
 21
95.57440980684672
 31
0.0
  0
LINE
  5
5A8
330
18
100
AcDbEntity
  8
1
  6
Continuous
100
AcDbLine
 10
166.4901475376083
 20
96.11030780684679
 30
0.0
 11
166.4901475376083
 21
92.07152880684672
 31
0.0
  0
ARC
  5
5A9
330
18
100
AcDbEntity
  8
5
  6
PHANTOM
100
AcDbCircle
 10
137.799866537608
 20
182.2235328068465
 30
0.0
 40
21.208357
100
AcDbArc
 50
242.3569999999999
 51
267.96611
  0
ARC
  5
5AA
330
18
100
AcDbEntity
  8
1
  6
Continuous
100
AcDbCircle
 10
135.2180985376083
 20
165.7494018068467
 30
0.0
 40
7.0
100
AcDbArc
 50
199.67691
 51
14.760986
  0
LINE
  5
5AB
330
18
100
AcDbEntity
  8
5
  6
PHANTOM
100
AcDbLine
 10
146.4103165376082
 20
164.1750838068467
 30
0.0
 11
127.9600145376082
 21
163.4359778068467
 31
0.0
  0
ARC
  5
5AC
330
18
100
AcDbEntity
  8
5
  6
PHANTOM
100
AcDbCircle
 10
137.9142355376083
 20
174.6571038068467
 30
0.0
 40
15.0
100
AcDbArc
 50
202.21368
 51
266.37772
  0
ARC
  5
5AD
330
18
100
AcDbEntity
  8
1
  6
Continuous
100
AcDbCircle
 10
160.4901475376083
 20
175.7178818068467
 30
0.0
 40
17.123299
100
AcDbArc
 50
209.1329999999999
 51
274.4903929999999
  0
LINE
  5
5AE
330
18
100
AcDbEntity
  8
5
  6
PHANTOM
100
AcDbLine
 10
137.047165537608
 20
161.0285348068467
 30
0.0
 11
150.3689235376083
 21
160.5554328068466
 31
0.0
  0
ARC
  5
5AF
330
18
100
AcDbEntity
  8
5
  6
PHANTOM
100
AcDbCircle
 10
140.2921715376083
 20
212.2201538068467
 30
0.0
 40
52.638252
100
AcDbArc
 50
266.37772
 51
281.0365
  0
LINE
  5
5B0
330
18
100
AcDbEntity
  8
1
  6
Continuous
100
AcDbLine
 10
139.0763745376082
 20
170.0136118068466
 30
0.0
 11
139.9382845376083
 21
168.5724918068467
 31
0.0
  0
ARC
  5
5B1
330
18
100
AcDbEntity
  8
5
  6
PHANTOM
100
AcDbCircle
 10
146.3702785376082
 20
165.1742928068467
 30
0.0
 40
1.0
100
AcDbArc
 50
272.29404
 51
30.99999999999999
  0
ARC
  5
5B2
330
18
100
AcDbEntity
  8
1
  6
Continuous
100
AcDbCircle
 10
157.0408525376083
 20
175.6033618068467
 30
0.0
 40
17.080637
100
AcDbArc
 50
202.7113799999999
 51
208.19608
  0
LINE
  5
5B3
330
18
100
AcDbEntity
  8
4
  6
CENTER
100
AcDbLine
 10
218.7401475376083
 20
86.8103178068468
 30
0.0
 11
206.2401475376083
 21
86.8103178068468
 31
0.0
  0
LINE
  5
5B4
330
18
100
AcDbEntity
  8
1
  6
Continuous
100
AcDbLine
 10
213.4901475376083
 20
95.8103178068468
 30
0.0
 11
198.6037455376083
 21
95.8103178068468
 31
0.0
  0
LINE
  5
5B5
330
18
100
AcDbEntity
  8
1
  6
Continuous
100
AcDbLine
 10
197.8764235376083
 20
88.05445780684673
 30
0.0
 11
197.8764235376083
 21
101.7544678068467
 31
0.0
  0
LINE
  5
5B6
330
18
100
AcDbEntity
  8
1
  6
Continuous
100
AcDbLine
 10
198.6037455376083
 20
86.75446780684678
 30
0.0
 11
198.6037455376083
 21
101.7544678068467
 31
0.0
  0
LINE
  5
5B7
330
18
100
AcDbEntity
  8
1
  6
Continuous
100
AcDbLine
 10
185.6461765376083
 20
87.05445780684669
 30
0.0
 11
185.6461765376083
 21
92.42200780684674
 31
0.0
  0
LINE
  5
5B8
330
18
100
AcDbEntity
  8
1
  6
Continuous
100
AcDbLine
 10
180.3485455376083
 20
91.77839780684672
 30
0.0
 11
180.7589405376083
 21
87.94794780684673
 31
0.0
  0
ARC
  5
5B9
330
18
100
AcDbEntity
  8
1
  6
Continuous
100
AcDbCircle
 10
173.4429445376082
 20
90.03040780684671
 30
0.0
 40
4.996013999999997
100
AcDbArc
 50
6.115326999999999
 51
105.8169299999999
  0
ARC
  5
5BA
330
18
100
AcDbEntity
  8
1
  6
Continuous
100
AcDbCircle
 10
173.4429445376082
 20
90.03040780684671
 30
0.0
 40
2.696013999999999
100
AcDbArc
 50
0.0
 51
105.8169299999999
  0
ARC
  5
5BB
330
18
100
AcDbEntity
  8
1
  6
Continuous
100
AcDbCircle
 10
180.1755875376083
 20
35.39884780684675
 30
0.0
 40
49.355614
100
AcDbArc
 50
71.59143399999997
 51
101.2249799999999
  0
ARC
  5
5BC
330
18
100
AcDbEntity
  8
1
  6
Continuous
100
AcDbCircle
 10
180.1755875376083
 20
35.39884780684675
 30
0.0
 40
48.855614
100
AcDbArc
 50
71.59143399999997
 51
101.2823999999999
  0
LINE
  5
5BD
330
18
100
AcDbEntity
  8
1
  6
Continuous
100
AcDbLine
 10
179.4154025376081
 20
84.75446780684675
 30
0.0
 11
196.6037455376083
 21
84.75446780684675
 31
0.0
  0
ARC
  5
5BE
330
18
100
AcDbEntity
  8
1
  6
Continuous
100
AcDbCircle
 10
196.1448335376083
 20
132.2515378068465
 30
0.0
 40
50.5
100
AcDbArc
 50
251.88823
 51
269.37995
  0
LINE
  5
5BF
330
18
100
AcDbEntity
  8
1
  6
Continuous
100
AcDbLine
 10
179.6849795376083
 20
87.05445780684669
 30
0.0
 11
196.8764235376082
 21
87.05445780684669
 31
0.0
  0
ARC
  5
5C0
330
18
100
AcDbEntity
  8
1
  6
Continuous
100
AcDbCircle
 10
185.4901475376083
 20
68.81031780684677
 30
0.0
 40
15.0
100
AcDbArc
 50
100.504864
 51
125.536685
  0
LINE
  5
5C1
330
18
100
AcDbEntity
  8
1
  6
Continuous
100
AcDbLine
 10
174.1583735376082
 20
83.20938480684672
 30
0.0
 11
177.6133465376082
 21
80.31031780684671
 31
0.0
  0
LINE
  5
5C2
330
18
100
AcDbEntity
  8
1
  6
Continuous
100
AcDbLine
 10
173.1941925376082
 20
83.56031780684677
 30
0.0
 11
171.9692595376083
 21
83.56031780684677
 31
0.0
  0
ARC
  5
5C3
330
18
100
AcDbEntity
  8
1
  6
Continuous
100
AcDbCircle
 10
173.1941925376082
 20
82.06031780684677
 30
0.0
 40
1.5
100
AcDbArc
 50
50.0
 51
90.0
  0
ARC
  5
5C4
330
18
100
AcDbEntity
  8
1
  6
Continuous
100
AcDbCircle
 10
185.4901475376083
 20
68.81031780684677
 30
0.0
 40
22.45
100
AcDbArc
 50
114.3425649999997
 51
119.2260229999999
  0
ARC
  5
5C5
330
18
100
AcDbEntity
  8
1
  6
Continuous
100
AcDbCircle
 10
185.4901475376083
 20
68.81031780684677
 30
0.0
 40
20.44999999999999
100
AcDbArc
 50
116.16111
 51
122.1941729999999
  0
ARC
  5
5C6
330
18
100
AcDbEntity
  8
1
  6
Continuous
100
AcDbCircle
 10
176.5287985376082
 20
86.62482780684674
 30
0.0
 40
2.0
100
AcDbArc
 50
179.9999899999999
 51
274.07202
  0
LINE
  5
5C7
330
18
100
AcDbEntity
  8
1
  6
Continuous
100
AcDbLine
 10
174.6133045376083
 20
88.05137880684673
 30
0.0
 11
174.5287985376082
 21
86.62482780684674
 31
0.0
  0
ARC
  5
5C8
330
18
100
AcDbEntity
  8
1
  6
Continuous
100
AcDbCircle
 10
173.7701105376082
 20
88.02546880684678
 30
0.0
 40
0.8435919999999999
100
AcDbArc
 50
1.759018
 51
106.20786
  0
LINE
  5
5C9
330
18
100
AcDbEntity
  8
1
  6
Continuous
100
AcDbLine
 10
178.4105295376083
 20
90.56263780684677
 30
0.0
 11
178.6906685376083
 21
87.94794780684673
 31
0.0
  0
LINE
  5
5CA
330
18
100
AcDbEntity
  8
1
  6
Continuous
100
AcDbLine
 10
176.1236145376082
 20
90.31763780684677
 30
0.0
 11
176.4324705376083
 21
87.43488780684673
 31
0.0
  0
ARC
  5
5CB
330
18
100
AcDbEntity
  8
1
  6
Continuous
100
AcDbCircle
 10
179.6849795376083
 20
88.05445780684673
 30
0.0
 40
1.0
100
AcDbArc
 50
186.11532
 51
270.0
  0
ARC
  5
5CC
330
18
100
AcDbEntity
  8
1
  6
Continuous
100
AcDbCircle
 10
179.4154025376081
 20
87.75446780684672
 30
0.0
 40
3.0
100
AcDbArc
 50
186.11532
 51
275.4408999999998
  0
ARC
  5
5CD
330
18
100
AcDbEntity
  8
1
  6
Continuous
100
AcDbCircle
 10
185.4901475376083
 20
68.81031780684677
 30
0.0
 40
20.44999999999999
100
AcDbArc
 50
89.562842
 51
103.604845
  0
ARC
  5
5CE
330
18
100
AcDbEntity
  8
1
  6
Continuous
100
AcDbCircle
 10
181.7532475376082
 20
88.05445780684673
 30
0.0
 40
1.0
100
AcDbArc
 50
186.11532
 51
270.0
  0
ARC
  5
5CF
330
18
100
AcDbEntity
  8
1
  6
Continuous
100
AcDbCircle
 10
187.8999375376082
 20
83.44300780684671
 30
0.0
 40
5.5
100
AcDbArc
 50
358.58658
 51
13.79491499999999
  0
ARC
  5
5D0
330
18
100
AcDbEntity
  8
1
  6
Continuous
100
AcDbCircle
 10
194.3979615376083
 20
83.28269780684673
 30
0.0
 40
1.0
100
AcDbArc
 50
178.58658
 51
200.4847799999999
  0
ARC
  5
5D1
330
18
100
AcDbEntity
  8
1
  6
Continuous
100
AcDbCircle
 10
189.6291105376083
 20
78.81031780684677
 30
0.0
 40
1.5
100
AcDbArc
 50
9.842487
 51
90.0
  0
LINE
  5
5D2
330
18
100
AcDbEntity
  8
1
  6
Continuous
100
AcDbLine
 10
195.6037525376082
 20
81.75449780684672
 30
0.0
 11
195.7616505376083
 21
82.22889780684672
 31
0.0
  0
ARC
  5
5D3
330
18
100
AcDbEntity
  8
1
  6
Continuous
100
AcDbCircle
 10
196.8764235376082
 20
88.05445780684673
 30
0.0
 40
1.0
100
AcDbArc
 50
270.0
 51
0.0
  0
ARC
  5
5D4
330
18
100
AcDbEntity
  8
1
  6
Continuous
100
AcDbCircle
 10
196.6037455376083
 20
86.75446780684678
 30
0.0
 40
2.0
100
AcDbArc
 50
270.0
 51
0.0
  0
ARC
  5
5D5
330
18
100
AcDbEntity
  8
1
  6
Continuous
100
AcDbCircle
 10
190.7612965376081
 20
103.1825678068467
 30
0.0
 40
6.571915999999997
100
AcDbArc
 50
41.64949299999999
 51
138.35051
  0
ARC
  5
5D6
330
18
100
AcDbEntity
  8
1
  6
Continuous
100
AcDbCircle
 10
192.3669935376081
 20
101.7544678068467
 30
0.0
 40
8.720793999999997
100
AcDbArc
 50
138.35051
 51
180.00001
  0
ARC
  5
5D7
330
18
100
AcDbEntity
  8
1
  6
Continuous
100
AcDbCircle
 10
185.4901475376083
 20
68.81031780684677
 30
0.0
 40
26.0
100
AcDbArc
 50
94.06694299999998
 51
103.9035759999998
  0
ARC
  5
5D8
330
18
100
AcDbEntity
  8
1
  6
Continuous
100
AcDbCircle
 10
176.6527605376083
 20
91.38245780684671
 30
0.0
 40
3.716930999999998
100
AcDbArc
 50
6.115326999999999
 51
78.62982800000001
  0
LINE
  5
5D9
330
18
100
AcDbEntity
  8
1
  6
Continuous
100
AcDbLine
 10
173.4429445376082
 20
95.02644780684674
 30
0.0
 11
177.3855635376082
 21
95.02644780684674
 31
0.0
  0
LINE
  5
5DA
330
18
100
AcDbEntity
  8
1
  6
Continuous
100
AcDbLine
 10
183.646176537608
 20
92.42200780684674
 30
0.0
 11
183.646176537608
 21
101.7544678068467
 31
0.0
  0
ARC
  5
5DB
330
18
100
AcDbEntity
  8
1
  6
Continuous
100
AcDbCircle
 10
185.4901475376083
 20
68.81031780684677
 30
0.0
 40
22.45
100
AcDbArc
 50
89.601787
 51
102.934304
  0
LINE
  5
5DC
330
18
100
AcDbEntity
  8
1
  6
Continuous
100
AcDbLine
 10
183.646176537608
 20
92.42200780684674
 30
0.0
 11
185.6461765376083
 21
92.42200780684674
 31
0.0
  0
ARC
  5
5DD
330
18
100
AcDbEntity
  8
1
  6
Continuous
100
AcDbCircle
 10
185.4901475376083
 20
68.81031780684677
 30
0.0
 40
24.75
100
AcDbArc
 50
94.272717
 51
102.7605739999999
  0
ARC
  5
5DE
330
18
100
AcDbEntity
  8
1
  6
Continuous
100
AcDbCircle
 10
189.1556065376083
 20
101.7544678068467
 30
0.0
 40
8.720793999999997
100
AcDbArc
 50
0.0
 51
41.64949299999999
  0
ARC
  5
5DF
330
18
100
AcDbEntity
  8
1
  6
Continuous
100
AcDbCircle
 10
189.8829315376081
 20
101.7544678068467
 30
0.0
 40
8.720793999999997
100
AcDbArc
 50
0.0
 51
41.64949299999999
  0
ARC
  5
5E0
330
18
100
AcDbEntity
  8
1
  6
Continuous
100
AcDbCircle
 10
191.4886215376082
 20
103.1825678068467
 30
0.0
 40
6.571915999999997
100
AcDbArc
 50
41.64949299999999
 51
93.17212699999997
  0
ARC
  5
5E1
330
18
100
AcDbEntity
  8
1
  6
Continuous
100
AcDbCircle
 10
213.4901475376083
 20
88.8103178068467
 30
0.0
 40
7.0
100
AcDbArc
 50
0.0
 51
90.0
  0
LINE
  5
5E2
330
18
100
AcDbEntity
  8
4
  6
CENTER
100
AcDbLine
 10
212.4901475376083
 20
93.0603178068468
 30
0.0
 11
212.4901475376083
 21
80.56031780684676
 31
0.0
  0
CIRCLE
  5
5E3
330
18
100
AcDbEntity
  8
1
  6
Continuous
100
AcDbCircle
 10
212.4901475376083
 20
86.8103178068468
 30
0.0
 40
3.25
  0
ARC
  5
5E4
330
18
100
AcDbEntity
  8
1
  6
Continuous
100
AcDbCircle
 10
187.1086015376083
 20
165.4624218068467
 30
0.0
 40
8.284706999999999
100
AcDbArc
 50
269.02319
 51
336.03751
  0
LINE
  5
5E5
330
18
100
AcDbEntity
  8
1
  6
Continuous
100
AcDbLine
 10
178.5755835376083
 20
157.3219918068466
 30
0.0
 11
186.9673695376082
 21
157.1789118068467
 31
0.0
  0
LINE
  5
5E6
330
18
100
AcDbEntity
  8
1
  6
Continuous
100
AcDbLine
 10
178.4389525376083
 20
156.8905518068467
 30
0.0
 11
182.6119645376081
 21
170.0684718068466
 31
0.0
  0
ARC
  5
5E7
330
18
100
AcDbEntity
  8
1
  6
Continuous
100
AcDbCircle
 10
176.9650165376082
 20
169.1910618068466
 30
0.0
 40
12.388516
100
AcDbArc
 50
250.12315
 51
276.8330199999999
  0
ARC
  5
5E8
330
18
100
AcDbEntity
  8
5
  6
PHANTOM
100
AcDbCircle
 10
177.9734275376082
 20
178.6084908068466
 30
0.0
 40
12.388516
100
AcDbArc
 50
281.12315
 51
307.8330199999998
  0
LINE
  5
5E9
330
18
100
AcDbEntity
  8
1
  6
Continuous
100
AcDbLine
 10
183.7759045376081
 20
169.6804818068467
 30
0.0
 11
182.6119675376082
 21
170.0684718068466
 31
0.0
  0
LINE
  5
5EA
330
18
100
AcDbEntity
  8
1
  6
Continuous
100
AcDbLine
 10
197.8764235376083
 20
169.2913118068467
 30
0.0
 11
194.6792575376083
 21
162.0976918068466
 31
0.0
  0
ARC
  5
5EB
330
18
100
AcDbEntity
  8
1
  6
Continuous
100
AcDbCircle
 10
87.43200253760834
 20
152.4859218068466
 30
0.0
 40
21.548689
100
AcDbArc
 50
72.45158700000001
 51
90.00000300000001
  0
ARC
  5
5EC
330
18
100
AcDbEntity
  8
1
  6
Continuous
100
AcDbCircle
 10
87.43200253760834
 20
154.6679018068467
 30
0.0
 40
21.548689
100
AcDbArc
 50
72.45158700000001
 51
90.00000300000001
  0
LINE
  5
5ED
330
18
100
AcDbEntity
  8
1
  6
Continuous
100
AcDbLine
 10
26.98785253760832
 20
224.2176648068466
 30
0.0
 11
26.98785253760832
 21
221.9173818068466
 31
0.0
  0
LINE
  5
5EE
330
18
100
AcDbEntity
  8
4
  6
CENTER
100
AcDbLine
 10
35.98785253760832
 20
229.2176648068467
 30
0.0
 11
35.98785253760832
 21
216.9173818068465
 31
0.0
  0
LINE
  5
5EF
330
18
100
AcDbEntity
  8
4
  6
CENTER
100
AcDbLine
 10
71.98785253760835
 20
229.2176648068467
 30
0.0
 11
71.98785253760835
 21
216.9173818068465
 31
0.0
  0
LINE
  5
5F0
330
18
100
AcDbEntity
  8
1
  6
Continuous
100
AcDbLine
 10
80.98785253760835
 20
224.2176648068466
 30
0.0
 11
80.98785253760835
 21
221.9173818068466
 31
0.0
  0
LINE
  5
5F1
330
18
100
AcDbEntity
  8
1
  6
Continuous
100
AcDbLine
 10
53.93143153760835
 20
209.3610888068466
 30
0.0
 11
55.1467835376083
 21
210.5764408068466
 31
0.0
  0
LINE
  5
5F2
330
18
100
AcDbEntity
  8
1
  6
Continuous
100
AcDbLine
 10
55.04992253760831
 20
209.3610888068466
 30
0.0
 11
53.8345705376083
 21
210.5764408068466
 31
0.0
  0
LINE
  5
5F3
330
18
100
AcDbEntity
  8
1
  6
Continuous
100
AcDbLine
 10
38.50746753760832
 20
208.3539358068467
 30
0.0
 11
69.46823853760832
 21
208.3539358068467
 31
0.0
  0
LINE
  5
5F4
330
18
100
AcDbEntity
  8
1
  6
Continuous
100
AcDbLine
 10
69.38942153760833
 20
209.3610888068466
 30
0.0
 11
38.58628353760832
 21
209.3610888068466
 31
0.0
  0
ARC
  5
5F5
330
18
100
AcDbEntity
  8
1
  6
Continuous
100
AcDbCircle
 10
53.98785253760832
 20
147.2177818068465
 30
0.0
 40
60.0
100
AcDbArc
 50
80.15751300000003
 51
99.84248700000001
  0
LINE
  5
5F6
330
18
100
AcDbEntity
  8
1
  6
Continuous
100
AcDbLine
 10
38.98785253760831
 20
212.8020498068467
 30
0.0
 11
68.98785253760833
 21
212.8020498068467
 31
0.0
  0
LINE
  5
5F7
330
18
100
AcDbEntity
  8
1
  6
Continuous
100
AcDbLine
 10
39.08718353760832
 20
210.5764408068466
 30
0.0
 11
68.88852153760831
 21
210.5764408068466
 31
0.0
  0
LINE
  5
5F8
330
18
100
AcDbEntity
  8
1
  6
Continuous
100
AcDbLine
 10
55.98785253760832
 20
215.1795198068467
 30
0.0
 11
53.98785253760832
 21
216.6725198068467
 31
0.0
  0
LINE
  5
5F9
330
18
100
AcDbEntity
  8
1
  6
Continuous
100
AcDbLine
 10
54.57363853760831
 20
215.1795198068467
 30
0.0
 11
52.57363853760831
 21
216.6725198068467
 31
0.0
  0
LINE
  5
5FA
330
18
100
AcDbEntity
  8
1
  6
Continuous
100
AcDbLine
 10
30.98785253760832
 20
215.1795198068467
 30
0.0
 11
76.98785253760835
 21
215.1795198068467
 31
0.0
  0
LINE
  5
5FB
330
18
100
AcDbEntity
  8
1
  6
Continuous
100
AcDbLine
 10
80.98785253760835
 20
221.9173818068466
 30
0.0
 11
26.98785253760832
 21
221.9173818068466
 31
0.0
  0
LINE
  5
5FC
330
18
100
AcDbEntity
  8
1
  6
Continuous
100
AcDbLine
 10
73.74373653760833
 20
219.8925198068467
 30
0.0
 11
34.23196853760831
 21
219.8925198068467
 31
0.0
  0
LINE
  5
5FD
330
18
100
AcDbEntity
  8
1
  6
Continuous
100
AcDbLine
 10
76.16293653760834
 20
218.1547818068467
 30
0.0
 11
31.81276853760831
 21
218.1547818068467
 31
0.0
  0
LINE
  5
5FE
330
18
100
AcDbEntity
  8
1
  6
Continuous
100
AcDbLine
 10
76.98785253760835
 20
216.6725198068467
 30
0.0
 11
30.98785253760832
 21
216.6725198068467
 31
0.0
  0
LINE
  5
5FF
330
18
100
AcDbEntity
  8
4
  6
CENTER
100
AcDbLine
 10
87.17067053760827
 20
175.7177818068467
 30
0.0
 11
25.63861353760831
 21
175.7177818068467
 31
0.0
  0
LINE
  5
600
330
18
100
AcDbEntity
  8
1
  6
Continuous
100
AcDbLine
 10
29.23785253760831
 20
211.1912238068467
 30
0.0
 11
29.23785253760831
 21
189.4850058068465
 31
0.0
  0
LINE
  5
601
330
18
100
AcDbEntity
  8
1
  6
Continuous
100
AcDbLine
 10
33.68759053760832
 20
182.7177818068465
 30
0.0
 11
36.18759053760832
 21
182.7177818068465
 31
0.0
  0
ARC
  5
602
330
18
100
AcDbEntity
  8
1
  6
Continuous
100
AcDbCircle
 10
57.39610253760832
 20
189.4850058068465
 30
0.0
 40
28.15825
100
AcDbArc
 50
180.0
 51
203.4962121710173
  0
LINE
  5
605
330
18
100
AcDbEntity
  8
1
  6
Continuous
100
AcDbLine
 10
38.73785253760832
 20
181.2177818068467
 30
0.0
 11
38.42920453760832
 21
181.2177818068467
 31
0.0
  0
LINE
  5
606
330
18
100
AcDbEntity
  8
1
  6
Continuous
100
AcDbLine
 10
39.58878553760832
 20
189.3860078068465
 30
0.0
 11
42.48785253760831
 21
192.8409808068465
 31
0.0
  0
ARC
  5
607
330
18
100
AcDbEntity
  8
1
  6
Continuous
100
AcDbCircle
 10
40.73785253760831
 20
188.4218258068467
 30
0.0
 40
1.5
100
AcDbArc
 50
140.0
 51
180.0
  0
LINE
  5
608
330
18
100
AcDbEntity
  8
1
  6
Continuous
100
AcDbLine
 10
39.23785253760831
 20
186.9677818068465
 30
0.0
 11
38.73785253760832
 21
186.9677818068465
 31
0.0
  0
LINE
  5
609
330
18
100
AcDbEntity
  8
1
  6
Continuous
100
AcDbLine
 10
36.1888625376083
 20
215.1795198068467
 30
0.0
 11
34.18886253760831
 21
216.6725198068467
 31
0.0
  0
ARC
  5
60A
330
18
100
AcDbEntity
  8
1
  6
Continuous
100
AcDbCircle
 10
34.59925053760832
 20
219.7050088068466
 30
0.0
 40
4.697225
100
AcDbArc
 50
206.286695
 51
220.210037
  0
ARC
  5
60B
330
18
100
AcDbEntity
  8
1
  6
Continuous
100
AcDbCircle
 10
33.23785253760831
 20
211.1912238068467
 30
0.0
 40
4.0
100
AcDbArc
 50
94.384039
 51
180.0
  0
LINE
  5
60C
330
18
100
AcDbEntity
  8
1
  6
Continuous
100
AcDbLine
 10
30.98785253760832
 20
216.6725198068467
 30
0.0
 11
30.98785253760832
 21
215.1795198068467
 31
0.0
  0
LINE
  5
60D
330
18
100
AcDbEntity
  8
1
  6
Continuous
100
AcDbLine
 10
33.36043553760831
 20
215.1795198068467
 30
0.0
 11
31.36043553760832
 21
216.6725198068467
 31
0.0
  0
LINE
  5
60E
330
18
100
AcDbEntity
  8
1
  6
Continuous
100
AcDbLine
 10
31.94622153760832
 20
215.1795198068467
 30
0.0
 11
30.98785253760832
 21
216.1378898068465
 31
0.0
  0
LINE
  5
60F
330
18
100
AcDbEntity
  8
1
  6
Continuous
100
AcDbLine
 10
30.98785253760832
 20
216.2999368068467
 30
0.0
 11
31.36043553760832
 21
216.6725198068467
 31
0.0
  0
LINE
  5
610
330
18
100
AcDbEntity
  8
1
  6
Continuous
100
AcDbLine
 10
34.77464953760831
 20
215.1795198068467
 30
0.0
 11
32.77464953760832
 21
216.6725198068467
 31
0.0
  0
LINE
  5
611
330
18
100
AcDbEntity
  8
1
  6
Continuous
100
AcDbLine
 10
32.1888625376083
 20
215.1795198068467
 30
0.0
 11
34.18886253760831
 21
216.6725198068467
 31
0.0
  0
ARC
  5
612
330
18
100
AcDbEntity
  8
1
  6
Continuous
100
AcDbCircle
 10
34.23196853760831
 20
230.5325198068466
 30
0.0
 40
10.64
100
AcDbArc
 50
234.0659919999999
 51
270.0
  0
ARC
  5
613
330
18
100
AcDbEntity
  8
1
  6
Continuous
100
AcDbCircle
 10
31.26173853760832
 20
217.2349288068467
 30
0.0
 40
0.9569799999999998
100
AcDbArc
 50
106.011913
 51
155.9597349999999
  0
LINE
  5
614
330
18
100
AcDbEntity
  8
1
  6
Continuous
100
AcDbLine
 10
30.99776853760832
 20
218.1547818068467
 30
0.0
 11
31.81276853760831
 21
218.1547818068467
 31
0.0
  0
LINE
  5
615
330
18
100
AcDbEntity
  8
1
  6
Continuous
100
AcDbLine
 10
31.81276853760831
 20
218.1547818068467
 30
0.0
 11
31.98276853760832
 21
218.5147818068467
 31
0.0
  0
ARC
  5
616
330
18
100
AcDbEntity
  8
1
  6
Continuous
100
AcDbCircle
 10
36.80135053760832
 20
214.6038088068466
 30
0.0
 40
6.206
100
AcDbArc
 50
121.2013169999996
 51
140.935699
  0
ARC
  5
617
330
18
100
AcDbEntity
  8
1
  6
Continuous
100
AcDbCircle
 10
40.98785253760831
 20
208.6664888068466
 30
0.0
 40
2.5
100
AcDbArc
 50
130.183595
 51
187.18198
  0
ARC
  5
618
330
18
100
AcDbEntity
  8
1
  6
Continuous
100
AcDbCircle
 10
40.63785253760831
 20
208.6154648068467
 30
0.0
 40
2.5
100
AcDbArc
 50
128.3356699999999
 51
180.608852
  0
ARC
  5
619
330
18
100
AcDbEntity
  8
1
  6
Continuous
100
AcDbCircle
 10
40.33895953760828
 20
208.5096718068467
 30
0.0
 40
4.5
100
AcDbArc
 50
107.4723829999999
 51
180.608852
  0
LINE
  5
61A
330
18
100
AcDbEntity
  8
1
  6
Continuous
100
AcDbLine
 10
45.15042753760831
 20
209.3610888068466
 30
0.0
 11
43.9350755376083
 21
210.5764408068466
 31
0.0
  0
LINE
  5
61B
330
18
100
AcDbEntity
  8
1
  6
Continuous
100
AcDbLine
 10
44.03193753760832
 20
209.3610888068466
 30
0.0
 11
45.2472885376083
 21
210.5764408068466
 31
0.0
  0
ARC
  5
61C
330
18
100
AcDbEntity
  8
1
  6
Continuous
100
AcDbCircle
 10
43.0031765376083
 20
210.8464348068467
 30
0.0
 40
5.356411999999997
100
AcDbArc
 50
227.0719179999999
 51
260.59491
  0
ARC
  5
61D
330
18
100
AcDbEntity
  8
1
  6
Continuous
100
AcDbCircle
 10
39.52794653760832
 20
209.2313758068467
 30
0.0
 40
0.150422
100
AcDbArc
 50
120.421811
 51
155.3852889999998
  0
ARC
  5
61E
330
18
100
AcDbEntity
  8
1
  6
Continuous
100
AcDbCircle
 10
37.49095953760832
 20
207.7539438068466
 30
0.0
 40
1.195896999999997
100
AcDbArc
 50
358.4503999999999
 51
21.017471
  0
ARC
  5
61F
330
18
100
AcDbEntity
  8
1
  6
Continuous
100
AcDbCircle
 10
38.78015453760831
 20
208.2492708068466
 30
0.0
 40
0.18518
100
AcDbArc
 50
148.0847599999998
 51
201.017471
  0
LINE
  5
620
330
18
100
AcDbEntity
  8
1
  6
Continuous
100
AcDbLine
 10
38.73092353760831
 20
208.3539358068467
 30
0.0
 11
38.62296853760831
 21
208.3471678068466
 31
0.0
  0
LINE
  5
621
330
18
100
AcDbEntity
  8
1
  6
Continuous
100
AcDbLine
 10
39.02505653760832
 20
208.7580388068465
 30
0.0
 11
38.80634553760831
 21
208.3539358068467
 31
0.0
  0
ARC
  5
622
330
18
100
AcDbEntity
  8
1
  6
Continuous
100
AcDbCircle
 10
38.82010653760831
 20
209.0426318068467
 30
0.0
 40
0.3507099999999999
100
AcDbArc
 50
305.759494
 51
319.8145149999998
  0
LINE
  5
623
330
18
100
AcDbEntity
  8
1
  6
Continuous
100
AcDbLine
 10
38.70940553760831
 20
209.6954118068466
 30
0.0
 11
39.5904345376083
 21
210.5764408068466
 31
0.0
  0
ARC
  5
624
330
18
100
AcDbEntity
  8
1
  6
Continuous
100
AcDbCircle
 10
37.49265953760831
 20
210.1638348068466
 30
0.0
 40
2.088299
100
AcDbArc
 50
319.8145149999998
 51
335.385289
  0
ARC
  5
625
330
18
100
AcDbEntity
  8
1
  6
Continuous
100
AcDbCircle
 10
42.22778453760831
 20
210.0128328068466
 30
0.0
 40
4.217937
100
AcDbArc
 50
212.9024809999999
 51
227.0719179999999
  0
LINE
  5
626
330
18
100
AcDbEntity
  8
1
  6
Continuous
100
AcDbLine
 10
38.86605753760832
 20
209.9886038068467
 30
0.0
 11
39.49357253760832
 21
209.3610888068466
 31
0.0
  0
LINE
  5
627
330
18
100
AcDbEntity
  8
1
  6
Continuous
100
AcDbLine
 10
42.61772353760831
 20
209.3610888068466
 30
0.0
 11
43.8330755376083
 21
210.5764408068466
 31
0.0
  0
LINE
  5
628
330
18
100
AcDbEntity
  8
1
  6
Continuous
100
AcDbLine
 10
40.90778653760828
 20
209.3610888068466
 30
0.0
 11
39.69243453760832
 21
210.5764408068466
 31
0.0
  0
LINE
  5
629
330
18
100
AcDbEntity
  8
1
  6
Continuous
100
AcDbLine
 10
42.32200053760831
 20
209.3610888068466
 30
0.0
 11
41.10664853760831
 21
210.5764408068466
 31
0.0
  0
LINE
  5
62A
330
18
100
AcDbEntity
  8
1
  6
Continuous
100
AcDbLine
 10
39.78929653760832
 20
209.3610888068466
 30
0.0
 11
41.00464853760828
 21
210.5764408068466
 31
0.0
  0
LINE
  5
62B
330
18
100
AcDbEntity
  8
1
  6
Continuous
100
AcDbLine
 10
43.73621353760832
 20
209.3610888068466
 30
0.0
 11
42.5208615376083
 21
210.5764408068466
 31
0.0
  0
LINE
  5
62C
330
18
100
AcDbEntity
  8
1
  6
Continuous
100
AcDbLine
 10
41.20350953760831
 20
209.3610888068466
 30
0.0
 11
42.41886153760831
 21
210.5764408068466
 31
0.0
  0
ARC
  5
62D
330
18
100
AcDbEntity
  8
1
  6
Continuous
100
AcDbCircle
 10
42.72192153760832
 20
226.4125618068467
 30
0.0
 40
20.85899799999999
100
AcDbArc
 50
268.368019
 51
269.8287539999999
  0
ARC
  5
62E
330
18
100
AcDbEntity
  8
1
  6
Continuous
100
AcDbCircle
 10
43.98785253760832
 20
204.8567448068467
 30
0.0
 40
1.5
100
AcDbArc
 50
99.84248700000001
 51
180.0
  0
LINE
  5
62F
330
18
100
AcDbEntity
  8
1
  6
Continuous
100
AcDbLine
 10
48.27457753760832
 20
209.3610888068466
 30
0.0
 11
49.48992953760832
 21
210.5764408068466
 31
0.0
  0
LINE
  5
630
330
18
100
AcDbEntity
  8
1
  6
Continuous
100
AcDbLine
 10
49.39306753760831
 20
209.3610888068466
 30
0.0
 11
48.17771653760832
 21
210.5764408068466
 31
0.0
  0
LINE
  5
631
330
18
100
AcDbEntity
  8
1
  6
Continuous
100
AcDbLine
 10
46.86036453760832
 20
209.3610888068466
 30
0.0
 11
48.07571653760831
 21
210.5764408068466
 31
0.0
  0
LINE
  5
632
330
18
100
AcDbEntity
  8
1
  6
Continuous
100
AcDbLine
 10
47.9788545376083
 20
209.3610888068466
 30
0.0
 11
46.76350253760831
 21
210.5764408068466
 31
0.0
  0
LINE
  5
633
330
18
100
AcDbEntity
  8
1
  6
Continuous
100
AcDbLine
 10
45.44615053760831
 20
209.3610888068466
 30
0.0
 11
46.66150253760831
 21
210.5764408068466
 31
0.0
  0
LINE
  5
634
330
18
100
AcDbEntity
  8
1
  6
Continuous
100
AcDbLine
 10
46.56464053760831
 20
209.3610888068466
 30
0.0
 11
45.3492885376083
 21
210.5764408068466
 31
0.0
  0
LINE
  5
635
330
18
100
AcDbEntity
  8
1
  6
Continuous
100
AcDbLine
 10
53.63570853760831
 20
209.3610888068466
 30
0.0
 11
52.42035653760832
 21
210.5764408068466
 31
0.0
  0
LINE
  5
636
330
18
100
AcDbEntity
  8
1
  6
Continuous
100
AcDbLine
 10
52.51721853760831
 20
209.3610888068466
 30
0.0
 11
53.73257053760831
 21
210.5764408068466
 31
0.0
  0
LINE
  5
637
330
18
100
AcDbEntity
  8
1
  6
Continuous
100
AcDbLine
 10
51.10300453760832
 20
209.3610888068466
 30
0.0
 11
52.3183565376083
 21
210.5764408068466
 31
0.0
  0
LINE
  5
638
330
18
100
AcDbEntity
  8
1
  6
Continuous
100
AcDbLine
 10
52.22149553760832
 20
209.3610888068466
 30
0.0
 11
51.0061435376083
 21
210.5764408068466
 31
0.0
  0
LINE
  5
639
330
18
100
AcDbEntity
  8
1
  6
Continuous
100
AcDbLine
 10
49.68879153760833
 20
209.3610888068466
 30
0.0
 11
50.90414353760832
 21
210.5764408068466
 31
0.0
  0
LINE
  5
63A
330
18
100
AcDbEntity
  8
1
  6
Continuous
100
AcDbLine
 10
50.80728153760832
 20
209.3610888068466
 30
0.0
 11
49.59192953760831
 21
210.5764408068466
 31
0.0
  0
LINE
  5
63B
330
18
100
AcDbEntity
  8
1
  6
Continuous
100
AcDbLine
 10
46.08835753760831
 20
215.1795198068467
 30
0.0
 11
44.08835753760829
 21
216.6725198068467
 31
0.0
  0
LINE
  5
63C
330
18
100
AcDbEntity
  8
1
  6
Continuous
100
AcDbLine
 10
44.67414453760832
 20
215.1795198068467
 30
0.0
 11
42.67414453760832
 21
216.6725198068467
 31
0.0
  0
LINE
  5
63D
330
18
100
AcDbEntity
  8
1
  6
Continuous
100
AcDbLine
 10
43.50257153760831
 20
215.1795198068467
 30
0.0
 11
45.5025715376083
 21
216.6725198068467
 31
0.0
  0
LINE
  5
63E
330
18
100
AcDbEntity
  8
1
  6
Continuous
100
AcDbLine
 10
40.43150353760831
 20
215.1795198068467
 30
0.0
 11
38.43150353760832
 21
216.6725198068467
 31
0.0
  0
LINE
  5
63F
330
18
100
AcDbEntity
  8
1
  6
Continuous
100
AcDbLine
 10
37.84571653760832
 20
215.1795198068467
 30
0.0
 11
39.84571653760831
 21
216.6725198068467
 31
0.0
  0
LINE
  5
640
330
18
100
AcDbEntity
  8
1
  6
Continuous
100
AcDbLine
 10
39.01728953760832
 20
215.1795198068467
 30
0.0
 11
37.01728953760832
 21
216.6725198068467
 31
0.0
  0
LINE
  5
641
330
18
100
AcDbEntity
  8
1
  6
Continuous
100
AcDbLine
 10
37.60307653760832
 20
215.1795198068467
 30
0.0
 11
35.60307653760832
 21
216.6725198068467
 31
0.0
  0
LINE
  5
642
330
18
100
AcDbEntity
  8
1
  6
Continuous
100
AcDbLine
 10
35.01728953760832
 20
215.1795198068467
 30
0.0
 11
37.01728953760832
 21
216.6725198068467
 31
0.0
  0
LINE
  5
643
330
18
100
AcDbEntity
  8
1
  6
Continuous
100
AcDbLine
 10
43.25993053760831
 20
215.1795198068467
 30
0.0
 11
41.25993053760831
 21
216.6725198068467
 31
0.0
  0
LINE
  5
644
330
18
100
AcDbEntity
  8
1
  6
Continuous
100
AcDbLine
 10
41.84571653760831
 20
215.1795198068467
 30
0.0
 11
39.84571653760831
 21
216.6725198068467
 31
0.0
  0
LINE
  5
645
330
18
100
AcDbEntity
  8
1
  6
Continuous
100
AcDbLine
 10
40.67414453760831
 20
215.1795198068467
 30
0.0
 11
42.67414453760832
 21
216.6725198068467
 31
0.0
  0
LINE
  5
646
330
18
100
AcDbEntity
  8
1
  6
Continuous
100
AcDbLine
 10
50.33099853760833
 20
215.1795198068467
 30
0.0
 11
48.33099853760831
 21
216.6725198068467
 31
0.0
  0
LINE
  5
647
330
18
100
AcDbEntity
  8
1
  6
Continuous
100
AcDbLine
 10
49.15942553760832
 20
215.1795198068467
 30
0.0
 11
51.15942553760832
 21
216.6725198068467
 31
0.0
  0
LINE
  5
648
330
18
100
AcDbEntity
  8
1
  6
Continuous
100
AcDbLine
 10
48.91678453760832
 20
215.1795198068467
 30
0.0
 11
46.91678453760832
 21
216.6725198068467
 31
0.0
  0
LINE
  5
649
330
18
100
AcDbEntity
  8
1
  6
Continuous
100
AcDbLine
 10
47.50257153760832
 20
215.1795198068467
 30
0.0
 11
45.5025715376083
 21
216.6725198068467
 31
0.0
  0
LINE
  5
64A
330
18
100
AcDbEntity
  8
1
  6
Continuous
100
AcDbLine
 10
46.3309985376083
 20
215.1795198068467
 30
0.0
 11
48.33099853760831
 21
216.6725198068467
 31
0.0
  0
LINE
  5
64B
330
18
100
AcDbEntity
  8
1
  6
Continuous
100
AcDbLine
 10
53.15942553760832
 20
215.1795198068467
 30
0.0
 11
51.15942553760832
 21
216.6725198068467
 31
0.0
  0
LINE
  5
64C
330
18
100
AcDbEntity
  8
1
  6
Continuous
100
AcDbLine
 10
51.98785253760831
 20
215.1795198068467
 30
0.0
 11
53.98785253760832
 21
216.6725198068467
 31
0.0
  0
LINE
  5
64D
330
18
100
AcDbEntity
  8
1
  6
Continuous
100
AcDbLine
 10
51.74521153760831
 20
215.1795198068467
 30
0.0
 11
49.74521153760832
 21
216.6725198068467
 31
0.0
  0
LINE
  5
64E
330
18
100
AcDbEntity
  8
1
  6
Continuous
100
AcDbLine
 10
72.13649153760835
 20
208.4618538068467
 30
0.0
 11
71.98965353760835
 21
194.6604538068466
 31
0.0
  0
LINE
  5
64F
330
18
100
AcDbEntity
  8
1
  6
Continuous
100
AcDbLine
 10
69.83771153760833
 20
208.5888988068466
 30
0.0
 11
69.65748053760832
 21
191.6488318068467
 31
0.0
  0
LINE
  5
650
330
18
100
AcDbEntity
  8
1
  6
Continuous
100
AcDbLine
 10
78.73785253760833
 20
211.1912238068467
 30
0.0
 11
78.73785253760833
 21
195.0321318068467
 31
0.0
  0
ARC
  5
651
330
18
100
AcDbEntity
  8
1
  6
Continuous
100
AcDbCircle
 10
73.48785253760834
 20
191.8501718068466
 30
0.0
 40
1.0
100
AcDbArc
 50
90.00000300000001
 51
180.00001
  0
ARC
  5
652
330
18
100
AcDbEntity
  8
1
  6
Continuous
100
AcDbCircle
 10
60.23428253760831
 20
174.0922318068465
 30
0.0
 40
14.553574
100
AcDbArc
 50
0.0
 51
30.564509
  0
ARC
  5
653
330
18
100
AcDbEntity
  8
1
  6
Continuous
100
AcDbCircle
 10
61.05200253760833
 20
174.0922318068465
 30
0.0
 40
12.235845
100
AcDbArc
 50
351.2992299999999
 51
36.901251
  0
LINE
  5
654
330
18
100
AcDbEntity
  8
1
  6
Continuous
100
AcDbLine
 10
72.48785253760833
 20
188.1067418068465
 30
0.0
 11
82.93600253760834
 21
188.1067418068465
 31
0.0
  0
LINE
  5
655
330
18
100
AcDbEntity
  8
1
  6
Continuous
100
AcDbLine
 10
73.43600253760833
 20
195.0321318068467
 30
0.0
 11
82.93600253760834
 21
195.0321318068467
 31
0.0
  0
LINE
  5
656
330
18
100
AcDbEntity
  8
1
  6
Continuous
100
AcDbLine
 10
72.48785253760833
 20
182.5098518068467
 30
0.0
 11
72.48785253760833
 21
191.8501718068466
 31
0.0
  0
LINE
  5
657
330
18
100
AcDbEntity
  8
1
  6
Continuous
100
AcDbLine
 10
70.43600253760835
 20
174.2255318068466
 30
0.0
 11
70.43600253760835
 21
192.0321318068467
 31
0.0
  0
LINE
  5
658
330
18
100
AcDbEntity
  8
1
  6
Continuous
100
AcDbLine
 10
66.73062253760831
 20
191.1605118068467
 30
0.0
 11
66.73062253760831
 21
173.4402718068467
 31
0.0
  0
ARC
  5
659
330
18
100
AcDbEntity
  8
1
  6
Continuous
100
AcDbCircle
 10
69.47987253760833
 20
178.3256318068467
 30
0.0
 40
2.0
100
AcDbArc
 50
174.15842
 51
226.43458
  0
LINE
  5
65A
330
18
100
AcDbEntity
  8
1
  6
Continuous
100
AcDbLine
 10
72.48785253760833
 20
172.2653618068467
 30
0.0
 11
72.48785253760833
 21
170.7424118068465
 31
0.0
  0
ARC
  5
65B
330
18
100
AcDbEntity
  8
1
  6
Continuous
100
AcDbCircle
 10
72.43600253760833
 20
174.2646918068467
 30
0.0
 40
2.0
100
AcDbArc
 50
245.36818
 51
271.48541
  0
ARC
  5
65C
330
18
100
AcDbEntity
  8
1
  6
Continuous
100
AcDbCircle
 10
74.48785253760835
 20
182.5098518068467
 30
0.0
 40
2.0
100
AcDbArc
 50
179.9999899999999
 51
210.5644999999999
  0
ARC
  5
65D
330
18
100
AcDbEntity
  8
1
  6
Continuous
100
AcDbCircle
 10
72.43600253760833
 20
182.6399618068467
 30
0.0
 40
2.0
100
AcDbArc
 50
179.9999899999999
 51
216.90125
  0
LINE
  5
65E
330
18
100
AcDbEntity
  8
1
  6
Continuous
100
AcDbLine
 10
68.98785253760833
 20
189.3488218068466
 30
0.0
 11
68.98785253760833
 21
191.6488318068467
 31
0.0
  0
LINE
  5
65F
330
18
100
AcDbEntity
  8
1
  6
Continuous
100
AcDbLine
 10
72.48785253760833
 20
185.3891718068467
 30
0.0
 11
72.48785253760833
 21
191.8501718068466
 31
0.0
  0
ARC
  5
660
330
18
100
AcDbEntity
  8
1
  6
Continuous
100
AcDbCircle
 10
63.41298253760832
 20
187.3164418068465
 30
0.0
 40
5.077757
100
AcDbArc
 50
345.54194
 51
49.203966
  0
ARC
  5
661
330
18
100
AcDbEntity
  8
1
  6
Continuous
100
AcDbCircle
 10
63.41298253760832
 20
187.3164418068465
 30
0.0
 40
5.577757
100
AcDbArc
 50
345.54194
 51
49.203966
  0
LINE
  5
662
330
18
100
AcDbEntity
  8
1
  6
Continuous
100
AcDbLine
 10
68.98785253760833
 20
189.3488218068466
 30
0.0
 11
70.43600253760835
 21
189.3488218068466
 31
0.0
  0
LINE
  5
663
330
18
100
AcDbEntity
  8
1
  6
Continuous
100
AcDbLine
 10
68.98785253760833
 20
191.5390418068465
 30
0.0
 11
67.05729253760833
 21
191.5390418068465
 31
0.0
  0
LINE
  5
664
330
18
100
AcDbEntity
  8
1
  6
Continuous
100
AcDbLine
 10
66.73060253760832
 20
191.1605118068467
 30
0.0
 11
67.05729253760833
 21
191.5390218068466
 31
0.0
  0
LINE
  5
665
330
18
100
AcDbEntity
  8
1
  6
Continuous
100
AcDbLine
 10
66.81544753760832
 20
191.2588158068467
 30
0.0
 11
65.48785253760833
 21
192.8409808068465
 31
0.0
  0
LINE
  5
666
330
18
100
AcDbEntity
  8
1
  6
Continuous
100
AcDbLine
 10
68.98785253760833
 20
191.6488318068467
 30
0.0
 11
70.43600253760835
 21
191.6488318068467
 31
0.0
  0
LINE
  5
667
330
18
100
AcDbEntity
  8
1
  6
Continuous
100
AcDbLine
 10
70.43600253760835
 20
191.6488318068467
 30
0.0
 11
70.43600253760835
 21
192.0321318068467
 31
0.0
  0
ARC
  5
668
330
18
100
AcDbEntity
  8
1
  6
Continuous
100
AcDbCircle
 10
73.43600253760833
 20
192.0321318068467
 30
0.0
 40
3.0
100
AcDbArc
 50
90.00000300000001
 51
180.00001
  0
ARC
  5
669
330
18
100
AcDbEntity
  8
1
  6
Continuous
100
AcDbCircle
 10
61.02394253760832
 20
172.9673818068466
 30
0.0
 40
20.0
100
AcDbArc
 50
28.94240299999999
 51
41.361375
  0
ARC
  5
66A
330
18
100
AcDbEntity
  8
1
  6
Continuous
100
AcDbCircle
 10
50.57960253760831
 20
189.4850058068465
 30
0.0
 40
28.15825
100
AcDbArc
 50
347.557087
 51
357.194418
  0
LINE
  5
66B
330
18
100
AcDbEntity
  8
1
  6
Continuous
100
AcDbLine
 10
82.1706705376083
 20
176.2165718068466
 30
0.0
 11
87.43200253760834
 21
176.2165718068466
 31
0.0
  0
LINE
  5
66C
330
18
100
AcDbEntity
  8
1
  6
Continuous
100
AcDbLine
 10
82.1706705376083
 20
174.0346118068467
 30
0.0
 11
87.43200253760834
 21
174.0346118068467
 31
0.0
  0
LINE
  5
66D
330
18
100
AcDbEntity
  8
1
  6
Continuous
100
AcDbLine
 10
82.1706705376083
 20
172.5177818068467
 30
0.0
 11
82.1706705376083
 21
178.9177818068466
 31
0.0
  0
ARC
  5
66E
330
18
100
AcDbEntity
  8
1
  6
Continuous
100
AcDbCircle
 10
69.82375153760833
 20
175.7177818068467
 30
0.0
 40
11.464102
100
AcDbArc
 50
342.4120459999998
 51
17.587954
  0
ARC
  5
66F
330
18
100
AcDbEntity
  8
1
  6
Continuous
100
AcDbCircle
 10
87.75195453760835
 20
175.7177818068467
 30
0.0
 40
11.464102
100
AcDbArc
 50
162.412046
 51
197.5879539999999
  0
LINE
  5
670
330
18
100
AcDbEntity
  8
1
  6
Continuous
100
AcDbLine
 10
81.3706705376083
 20
179.7177818068465
 30
0.0
 11
81.3706705376083
 21
171.7177818068467
 31
0.0
  0
LINE
  5
671
330
18
100
AcDbEntity
  8
1
  6
Continuous
100
AcDbLine
 10
76.82375153760833
 20
172.2536808068467
 30
0.0
 11
80.75195453760832
 21
172.2536808068467
 31
0.0
  0
LINE
  5
672
330
18
100
AcDbEntity
  8
1
  6
Continuous
100
AcDbLine
 10
81.28785253760829
 20
171.7177818068467
 30
0.0
 11
81.3706705376083
 21
171.7177818068467
 31
0.0
  0
LINE
  5
673
330
18
100
AcDbEntity
  8
2
  6
Continuous
100
AcDbLine
 10
82.04717053760829
 20
172.3942818068465
 30
0.0
 11
81.28785253760829
 21
172.3942818068465
 31
0.0
  0
LINE
  5
674
330
18
100
AcDbEntity
  8
1
  6
Continuous
100
AcDbLine
 10
82.1706705376083
 20
172.5177818068467
 30
0.0
 11
81.3706705376083
 21
171.7177818068467
 31
0.0
  0
LINE
  5
675
330
18
100
AcDbEntity
  8
1
  6
Continuous
100
AcDbLine
 10
76.82375153760833
 20
179.1818838068465
 30
0.0
 11
80.75195453760832
 21
179.1818838068465
 31
0.0
  0
LINE
  5
676
330
18
100
AcDbEntity
  8
1
  6
Continuous
100
AcDbLine
 10
76.82375153760833
 20
182.6459858068465
 30
0.0
 11
80.75195453760832
 21
182.6459858068465
 31
0.0
  0
ARC
  5
677
330
18
100
AcDbEntity
  8
1
  6
Continuous
100
AcDbCircle
 10
79.35484053760831
 20
180.9139348068467
 30
0.0
 40
3.066986999999998
100
AcDbArc
 50
154.3842469999999
 51
214.384247
  0
LINE
  5
678
330
18
100
AcDbEntity
  8
1
  6
Continuous
100
AcDbLine
 10
76.82375153760833
 20
182.6459858068465
 30
0.0
 11
76.28785253760833
 21
181.7177818068465
 31
0.0
  0
LINE
  5
679
330
18
100
AcDbEntity
  8
1
  6
Continuous
100
AcDbLine
 10
76.28785253760833
 20
182.7177818068465
 30
0.0
 11
74.78785253760833
 21
182.7177818068465
 31
0.0
  0
ARC
  5
67A
330
18
100
AcDbEntity
  8
1
  6
Continuous
100
AcDbCircle
 10
78.22086553760833
 20
180.9139348068467
 30
0.0
 40
3.066986999999998
100
AcDbArc
 50
325.6157529999998
 51
25.615753
  0
LINE
  5
67B
330
18
100
AcDbEntity
  8
1
  6
Continuous
100
AcDbLine
 10
80.75195453760832
 20
182.6459858068465
 30
0.0
 11
81.28785253760829
 21
181.7177818068465
 31
0.0
  0
LINE
  5
67C
330
18
100
AcDbEntity
  8
1
  6
Continuous
100
AcDbLine
 10
81.28785253760829
 20
179.7177818068465
 30
0.0
 11
81.3706705376083
 21
179.7177818068465
 31
0.0
  0
LINE
  5
67D
330
18
100
AcDbEntity
  8
2
  6
Continuous
100
AcDbLine
 10
82.04717053760829
 20
179.0412818068467
 30
0.0
 11
81.28785253760829
 21
179.0412818068467
 31
0.0
  0
LINE
  5
67E
330
18
100
AcDbEntity
  8
1
  6
Continuous
100
AcDbLine
 10
82.1706705376083
 20
178.9177818068466
 30
0.0
 11
81.3706705376083
 21
179.7177818068465
 31
0.0
  0
ARC
  5
67F
330
18
100
AcDbEntity
  8
1
  6
Continuous
100
AcDbCircle
 10
82.93600253760834
 20
173.4834418068467
 30
0.0
 40
21.548689
100
AcDbArc
 50
72.45158700000001
 51
90.00000300000001
  0
ARC
  5
680
330
18
100
AcDbEntity
  8
1
  6
Continuous
100
AcDbCircle
 10
82.93600253760834
 20
209.6554318068467
 30
0.0
 40
21.548689
100
AcDbArc
 50
270.0
 51
287.5484099999998
  0
ARC
  5
681
330
18
100
AcDbEntity
  8
1
  6
Continuous
100
AcDbCircle
 10
82.93600253760834
 20
171.3014718068465
 30
0.0
 40
21.548689
100
AcDbArc
 50
72.45158700000001
 51
90.00000300000001
  0
ARC
  5
682
330
18
100
AcDbEntity
  8
1
  6
Continuous
100
AcDbCircle
 10
79.78785253760833
 20
189.4875418068466
 30
0.0
 40
5.0
100
AcDbArc
 50
196.0311599999999
 51
221.3613799999997
  0
LINE
  5
683
330
18
100
AcDbEntity
  8
1
  6
Continuous
100
AcDbLine
 10
73.48785253760834
 20
192.8501718068466
 30
0.0
 11
82.93600253760834
 21
192.8501718068466
 31
0.0
  0
LINE
  5
684
330
18
100
AcDbEntity
  8
1
  6
Continuous
100
AcDbLine
 10
90.43600253760834
 20
192.6604218068467
 30
0.0
 11
90.43600253760834
 21
190.4784518068465
 31
0.0
  0
LINE
  5
685
330
18
100
AcDbEntity
  8
1
  6
Continuous
100
AcDbLine
 10
90.43600253760834
 20
192.6604218068467
 30
0.0
 11
90.43600253760834
 21
190.4784518068465
 31
0.0
  0
ARC
  5
686
330
18
100
AcDbEntity
  8
1
  6
Continuous
100
AcDbCircle
 10
89.0003025376083
 20
190.4784518068465
 30
0.0
 40
1.435702
100
AcDbArc
 50
287.5484099999998
 51
72.45158700000001
  0
ARC
  5
687
330
18
100
AcDbEntity
  8
1
  6
Continuous
100
AcDbCircle
 10
89.0003025376083
 20
192.6604218068467
 30
0.0
 40
1.435702
100
AcDbArc
 50
0.0
 51
72.45158700000001
  0
LINE
  5
688
330
18
100
AcDbEntity
  8
1
  6
Continuous
100
AcDbLine
 10
74.37262853760831
 20
215.1795198068467
 30
0.0
 11
72.37262853760831
 21
216.6725198068467
 31
0.0
  0
LINE
  5
689
330
18
100
AcDbEntity
  8
1
  6
Continuous
100
AcDbLine
 10
71.78684253760835
 20
215.1795198068467
 30
0.0
 11
73.78684253760829
 21
216.6725198068467
 31
0.0
  0
ARC
  5
68A
330
18
100
AcDbEntity
  8
1
  6
Continuous
100
AcDbCircle
 10
66.98785253760833
 20
208.6664888068466
 30
0.0
 40
2.5
100
AcDbArc
 50
352.8180199999998
 51
49.81640500000001
  0
ARC
  5
68B
330
18
100
AcDbEntity
  8
1
  6
Continuous
100
AcDbCircle
 10
67.33785253760832
 20
208.6154648068467
 30
0.0
 40
2.5
100
AcDbArc
 50
0.0
 51
51.66432999999999
  0
ARC
  5
68C
330
18
100
AcDbEntity
  8
1
  6
Continuous
100
AcDbCircle
 10
67.63674553760832
 20
208.5096718068467
 30
0.0
 40
4.5
100
AcDbArc
 50
359.391148
 51
72.527617
  0
LINE
  5
68D
330
18
100
AcDbEntity
  8
1
  6
Continuous
100
AcDbLine
 10
64.94941753760833
 20
209.3610888068466
 30
0.0
 11
63.73406553760831
 21
210.5764408068466
 31
0.0
  0
LINE
  5
68E
330
18
100
AcDbEntity
  8
1
  6
Continuous
100
AcDbLine
 10
58.17407253760832
 20
209.3610888068466
 30
0.0
 11
59.38942453760832
 21
210.5764408068466
 31
0.0
  0
LINE
  5
68F
330
18
100
AcDbEntity
  8
1
  6
Continuous
100
AcDbLine
 10
59.29256253760831
 20
209.3610888068466
 30
0.0
 11
58.07721053760831
 21
210.5764408068466
 31
0.0
  0
LINE
  5
690
330
18
100
AcDbEntity
  8
1
  6
Continuous
100
AcDbLine
 10
56.75985953760831
 20
209.3610888068466
 30
0.0
 11
57.97521053760831
 21
210.5764408068466
 31
0.0
  0
LINE
  5
691
330
18
100
AcDbEntity
  8
1
  6
Continuous
100
AcDbLine
 10
57.8783495376083
 20
209.3610888068466
 30
0.0
 11
56.66299753760831
 21
210.5764408068466
 31
0.0
  0
LINE
  5
692
330
18
100
AcDbEntity
  8
1
  6
Continuous
100
AcDbLine
 10
55.3456455376083
 20
209.3610888068466
 30
0.0
 11
56.56099753760833
 21
210.5764408068466
 31
0.0
  0
LINE
  5
693
330
18
100
AcDbEntity
  8
1
  6
Continuous
100
AcDbLine
 10
56.4641355376083
 20
209.3610888068466
 30
0.0
 11
55.24878353760831
 21
210.5764408068466
 31
0.0
  0
LINE
  5
694
330
18
100
AcDbEntity
  8
1
  6
Continuous
100
AcDbLine
 10
62.4167135376083
 20
209.3610888068466
 30
0.0
 11
63.63206553760832
 21
210.5764408068466
 31
0.0
  0
LINE
  5
695
330
18
100
AcDbEntity
  8
1
  6
Continuous
100
AcDbLine
 10
62.12098953760831
 20
209.3610888068466
 30
0.0
 11
60.90563853760832
 21
210.5764408068466
 31
0.0
  0
LINE
  5
696
330
18
100
AcDbEntity
  8
1
  6
Continuous
100
AcDbLine
 10
59.58828653760832
 20
209.3610888068466
 30
0.0
 11
60.80363853760832
 21
210.5764408068466
 31
0.0
  0
LINE
  5
697
330
18
100
AcDbEntity
  8
1
  6
Continuous
100
AcDbLine
 10
63.53520353760832
 20
209.3610888068466
 30
0.0
 11
62.31985153760831
 21
210.5764408068466
 31
0.0
  0
LINE
  5
698
330
18
100
AcDbEntity
  8
1
  6
Continuous
100
AcDbLine
 10
61.00249953760831
 20
209.3610888068466
 30
0.0
 11
62.21785153760832
 21
210.5764408068466
 31
0.0
  0
LINE
  5
699
330
18
100
AcDbEntity
  8
1
  6
Continuous
100
AcDbLine
 10
60.70677653760832
 20
209.3610888068466
 30
0.0
 11
59.49142453760831
 21
210.5764408068466
 31
0.0
  0
LINE
  5
69A
330
18
100
AcDbEntity
  8
1
  6
Continuous
100
AcDbLine
 10
69.19205753760834
 20
209.3610888068466
 30
0.0
 11
67.97670553760832
 21
210.5764408068466
 31
0.0
  0
ARC
  5
69B
330
18
100
AcDbEntity
  8
1
  6
Continuous
100
AcDbCircle
 10
64.97252853760833
 20
210.8464348068467
 30
0.0
 40
5.356411999999997
100
AcDbArc
 50
279.4050899999999
 51
312.9280819999999
  0
ARC
  5
69C
330
18
100
AcDbEntity
  8
1
  6
Continuous
100
AcDbCircle
 10
70.4830455376083
 20
210.1638348068466
 30
0.0
 40
2.088299
100
AcDbArc
 50
204.614711
 51
220.185485
  0
ARC
  5
69D
330
18
100
AcDbEntity
  8
1
  6
Continuous
100
AcDbCircle
 10
65.74792053760832
 20
210.0128328068466
 30
0.0
 40
4.217937
100
AcDbArc
 50
312.9280819999999
 51
327.0975189999999
  0
LINE
  5
69E
330
18
100
AcDbEntity
  8
1
  6
Continuous
100
AcDbLine
 10
68.07356753760831
 20
209.3610888068466
 30
0.0
 11
68.94032753760831
 21
210.2278478068466
 31
0.0
  0
LINE
  5
69F
330
18
100
AcDbEntity
  8
1
  6
Continuous
100
AcDbLine
 10
66.65935453760832
 20
209.3610888068466
 30
0.0
 11
67.87470553760832
 21
210.5764408068466
 31
0.0
  0
LINE
  5
6A0
330
18
100
AcDbEntity
  8
1
  6
Continuous
100
AcDbLine
 10
67.77784453760833
 20
209.3610888068466
 30
0.0
 11
66.56249253760832
 21
210.5764408068466
 31
0.0
  0
LINE
  5
6A1
330
18
100
AcDbEntity
  8
1
  6
Continuous
100
AcDbLine
 10
65.24514053760832
 20
209.3610888068466
 30
0.0
 11
66.46049253760833
 21
210.5764408068466
 31
0.0
  0
LINE
  5
6A2
330
18
100
AcDbEntity
  8
1
  6
Continuous
100
AcDbLine
 10
63.83092653760832
 20
209.3610888068466
 30
0.0
 11
65.04627853760833
 21
210.5764408068466
 31
0.0
  0
LINE
  5
6A3
330
18
100
AcDbEntity
  8
1
  6
Continuous
100
AcDbLine
 10
66.36363053760833
 20
209.3610888068466
 30
0.0
 11
65.14827853760833
 21
210.5764408068466
 31
0.0
  0
ARC
  5
6A4
330
18
100
AcDbEntity
  8
1
  6
Continuous
100
AcDbCircle
 10
65.25378353760832
 20
226.4125618068467
 30
0.0
 40
20.85899799999999
100
AcDbArc
 50
270.1712459999999
 51
271.6319809999999
  0
ARC
  5
6A5
330
18
100
AcDbEntity
  8
1
  6
Continuous
100
AcDbCircle
 10
68.44775853760832
 20
209.2313758068467
 30
0.0
 40
0.150422
100
AcDbArc
 50
24.614711
 51
59.57818899999999
  0
ARC
  5
6A6
330
18
100
AcDbEntity
  8
1
  6
Continuous
100
AcDbCircle
 10
63.98785253760832
 20
204.8567448068467
 30
0.0
 40
1.5
100
AcDbArc
 50
0.0
 51
80.15751300000003
  0
ARC
  5
6A7
330
18
100
AcDbEntity
  8
1
  6
Continuous
100
AcDbCircle
 10
70.4847455376083
 20
207.7539438068466
 30
0.0
 40
1.195896999999997
100
AcDbArc
 50
158.982529
 51
181.5495999999999
  0
ARC
  5
6A8
330
18
100
AcDbEntity
  8
1
  6
Continuous
100
AcDbCircle
 10
69.19555053760833
 20
208.2492708068466
 30
0.0
 40
0.18518
100
AcDbArc
 50
338.982529
 51
31.91524
  0
LINE
  5
6A9
330
18
100
AcDbEntity
  8
1
  6
Continuous
100
AcDbLine
 10
69.24478153760833
 20
208.3539358068467
 30
0.0
 11
69.35273653760832
 21
208.3471678068466
 31
0.0
  0
LINE
  5
6AA
330
18
100
AcDbEntity
  8
1
  6
Continuous
100
AcDbLine
 10
68.95064853760833
 20
208.7580388068465
 30
0.0
 11
69.16935953760833
 21
208.3539358068467
 31
0.0
  0
ARC
  5
6AB
330
18
100
AcDbEntity
  8
1
  6
Continuous
100
AcDbCircle
 10
69.15559853760831
 20
209.0426318068467
 30
0.0
 40
0.3507099999999999
100
AcDbArc
 50
220.185485
 51
234.240506
  0
LINE
  5
6AC
330
18
100
AcDbEntity
  8
1
  6
Continuous
100
AcDbLine
 10
64.47313353760832
 20
215.1795198068467
 30
0.0
 11
62.47313353760831
 21
216.6725198068467
 31
0.0
  0
LINE
  5
6AD
330
18
100
AcDbEntity
  8
1
  6
Continuous
100
AcDbLine
 10
63.3015615376083
 20
215.1795198068467
 30
0.0
 11
65.30156153760832
 21
216.6725198068467
 31
0.0
  0
LINE
  5
6AE
330
18
100
AcDbEntity
  8
1
  6
Continuous
100
AcDbLine
 10
60.23049353760831
 20
215.1795198068467
 30
0.0
 11
58.23049353760831
 21
216.6725198068467
 31
0.0
  0
LINE
  5
6AF
330
18
100
AcDbEntity
  8
1
  6
Continuous
100
AcDbLine
 10
57.64470653760832
 20
215.1795198068467
 30
0.0
 11
59.64470653760832
 21
216.6725198068467
 31
0.0
  0
LINE
  5
6B0
330
18
100
AcDbEntity
  8
1
  6
Continuous
100
AcDbLine
 10
57.40206653760832
 20
215.1795198068467
 30
0.0
 11
55.40206653760832
 21
216.6725198068467
 31
0.0
  0
LINE
  5
6B1
330
18
100
AcDbEntity
  8
1
  6
Continuous
100
AcDbLine
 10
58.81627953760832
 20
215.1795198068467
 30
0.0
 11
56.81627953760833
 21
216.6725198068467
 31
0.0
  0
LINE
  5
6B2
330
18
100
AcDbEntity
  8
1
  6
Continuous
100
AcDbLine
 10
54.81627953760831
 20
215.1795198068467
 30
0.0
 11
56.81627953760833
 21
216.6725198068467
 31
0.0
  0
LINE
  5
6B3
330
18
100
AcDbEntity
  8
1
  6
Continuous
100
AcDbLine
 10
61.64470653760832
 20
215.1795198068467
 30
0.0
 11
59.64470653760832
 21
216.6725198068467
 31
0.0
  0
LINE
  5
6B4
330
18
100
AcDbEntity
  8
1
  6
Continuous
100
AcDbLine
 10
63.0589205376083
 20
215.1795198068467
 30
0.0
 11
61.05892053760831
 21
216.6725198068467
 31
0.0
  0
LINE
  5
6B5
330
18
100
AcDbEntity
  8
1
  6
Continuous
100
AcDbLine
 10
60.47313353760831
 20
215.1795198068467
 30
0.0
 11
62.47313353760831
 21
216.6725198068467
 31
0.0
  0
LINE
  5
6B6
330
18
100
AcDbEntity
  8
1
  6
Continuous
100
AcDbLine
 10
68.71577453760831
 20
215.1795198068467
 30
0.0
 11
66.71577453760831
 21
216.6725198068467
 31
0.0
  0
LINE
  5
6B7
330
18
100
AcDbEntity
  8
1
  6
Continuous
100
AcDbLine
 10
70.12998853760833
 20
215.1795198068467
 30
0.0
 11
68.12998853760833
 21
216.6725198068467
 31
0.0
  0
LINE
  5
6B8
330
18
100
AcDbEntity
  8
1
  6
Continuous
100
AcDbLine
 10
66.12998853760831
 20
215.1795198068467
 30
0.0
 11
68.12998853760833
 21
216.6725198068467
 31
0.0
  0
LINE
  5
6B9
330
18
100
AcDbEntity
  8
1
  6
Continuous
100
AcDbLine
 10
65.88734753760832
 20
215.1795198068467
 30
0.0
 11
63.8873475376083
 21
216.6725198068467
 31
0.0
  0
LINE
  5
6BA
330
18
100
AcDbEntity
  8
1
  6
Continuous
100
AcDbLine
 10
67.30156153760832
 20
215.1795198068467
 30
0.0
 11
65.30156153760832
 21
216.6725198068467
 31
0.0
  0
LINE
  5
6BB
330
18
100
AcDbEntity
  8
1
  6
Continuous
100
AcDbLine
 10
71.54420153760833
 20
215.1795198068467
 30
0.0
 11
69.54420153760833
 21
216.6725198068467
 31
0.0
  0
LINE
  5
6BC
330
18
100
AcDbEntity
  8
1
  6
Continuous
100
AcDbLine
 10
72.95841553760833
 20
215.1795198068467
 30
0.0
 11
70.95841553760834
 21
216.6725198068467
 31
0.0
  0
LINE
  5
6BD
330
18
100
AcDbEntity
  8
1
  6
Continuous
100
AcDbLine
 10
68.95841553760833
 20
215.1795198068467
 30
0.0
 11
70.95841553760834
 21
216.6725198068467
 31
0.0
  0
ARC
  5
6BE
330
18
100
AcDbEntity
  8
1
  6
Continuous
100
AcDbCircle
 10
73.37645453760831
 20
219.7050088068466
 30
0.0
 40
4.697225
100
AcDbArc
 50
319.789963
 51
333.713305
  0
ARC
  5
6BF
330
18
100
AcDbEntity
  8
1
  6
Continuous
100
AcDbCircle
 10
74.73785253760834
 20
211.1912238068467
 30
0.0
 40
4.0
100
AcDbArc
 50
0.0
 51
85.615961
  0
LINE
  5
6C0
330
18
100
AcDbEntity
  8
1
  6
Continuous
100
AcDbLine
 10
76.98785253760835
 20
216.6725198068467
 30
0.0
 11
76.98785253760835
 21
215.1795198068467
 31
0.0
  0
LINE
  5
6C1
330
18
100
AcDbEntity
  8
1
  6
Continuous
100
AcDbLine
 10
75.78684253760835
 20
215.1795198068467
 30
0.0
 11
73.78684253760829
 21
216.6725198068467
 31
0.0
  0
LINE
  5
6C2
330
18
100
AcDbEntity
  8
1
  6
Continuous
100
AcDbLine
 10
76.98785253760835
 20
215.3927238068466
 30
0.0
 11
75.20105553760831
 21
216.6725198068467
 31
0.0
  0
LINE
  5
6C3
330
18
100
AcDbEntity
  8
1
  6
Continuous
100
AcDbLine
 10
74.61526953760833
 20
215.1795198068467
 30
0.0
 11
76.61526953760833
 21
216.6725198068467
 31
0.0
  0
LINE
  5
6C4
330
18
100
AcDbEntity
  8
1
  6
Continuous
100
AcDbLine
 10
76.98785253760835
 20
216.2999368068467
 30
0.0
 11
76.61526953760833
 21
216.6725198068467
 31
0.0
  0
ARC
  5
6C5
330
18
100
AcDbEntity
  8
1
  6
Continuous
100
AcDbCircle
 10
73.74373653760833
 20
230.5325198068466
 30
0.0
 40
10.64
100
AcDbArc
 50
270.0
 51
305.934008
  0
ARC
  5
6C6
330
18
100
AcDbEntity
  8
1
  6
Continuous
100
AcDbCircle
 10
76.71396653760833
 20
217.2349288068467
 30
0.0
 40
0.9569799999999998
100
AcDbArc
 50
24.04026499999999
 51
73.98808699999998
  0
LINE
  5
6C7
330
18
100
AcDbEntity
  8
1
  6
Continuous
100
AcDbLine
 10
76.97793653760832
 20
218.1547818068467
 30
0.0
 11
76.16293653760834
 21
218.1547818068467
 31
0.0
  0
LINE
  5
6C8
330
18
100
AcDbEntity
  8
1
  6
Continuous
100
AcDbLine
 10
76.16293653760834
 20
218.1547818068467
 30
0.0
 11
75.99293653760833
 21
218.5147818068467
 31
0.0
  0
ARC
  5
6C9
330
18
100
AcDbEntity
  8
1
  6
Continuous
100
AcDbCircle
 10
71.17435453760831
 20
214.6038088068466
 30
0.0
 40
6.206
100
AcDbArc
 50
39.064301
 51
58.798683
  0
LINE
  5
6CA
330
18
100
AcDbEntity
  8
1
  6
Continuous
100
AcDbLine
 10
80.98785253760835
 20
224.2176648068466
 30
0.0
 11
26.98785253760832
 21
224.2176648068466
 31
0.0
  0
LINE
  5
6CB
330
18
100
AcDbEntity
  8
1
  6
Continuous
100
AcDbLine
 10
141.6633275376083
 20
280.4724918068465
 30
0.0
 11
141.6633275376083
 21
270.4724918068465
 31
0.0
  0
LINE
  5
6CC
330
18
100
AcDbEntity
  8
1
  6
Continuous
100
AcDbLine
 10
126.7057545376082
 20
279.1724878068465
 30
0.0
 11
126.7057545376082
 21
270.4724918068465
 31
0.0
  0
LINE
  5
6CD
330
18
100
AcDbEntity
  8
1
  6
Continuous
100
AcDbLine
 10
127.4330795376082
 20
280.4724918068465
 30
0.0
 11
127.4330795376082
 21
270.4724918068465
 31
0.0
  0
LINE
  5
6CE
330
18
100
AcDbEntity
  8
4
  6
CENTER
100
AcDbLine
 10
160.4901475376083
 20
268.5786168068467
 30
0.0
 11
160.4901475376083
 21
329.5251918068467
 31
0.0
  0
ARC
  5
6CF
330
18
100
AcDbEntity
  8
1
  6
Continuous
100
AcDbCircle
 10
213.4901475376083
 20
278.9206458068466
 30
0.0
 40
7.0
100
AcDbArc
 50
270.0
 51
0.0
  0
ARC
  5
6D0
330
18
100
AcDbEntity
  8
1
  6
Continuous
100
AcDbCircle
 10
157.4901475376083
 20
278.9206458068466
 30
0.0
 40
7.0
100
AcDbArc
 50
180.0
 51
270.0
  0
LINE
  5
6D1
330
18
100
AcDbEntity
  8
4
  6
CENTER
100
AcDbLine
 10
185.4901475376083
 20
268.5786168068467
 30
0.0
 11
185.4901475376083
 21
329.5251918068467
 31
0.0
  0
LINE
  5
6D2
330
18
100
AcDbEntity
  8
4
  6
CENTER
100
AcDbLine
 10
158.4901475376083
 20
274.6706458068466
 30
0.0
 11
158.4901475376083
 21
287.1706458068467
 31
0.0
  0
LINE
  5
6D3
330
18
100
AcDbEntity
  8
4
  6
CENTER
100
AcDbLine
 10
212.4901475376083
 20
274.6706458068466
 30
0.0
 11
212.4901475376083
 21
287.1706458068467
 31
0.0
  0
CIRCLE
  5
6D4
330
18
100
AcDbEntity
  8
1
  6
Continuous
100
AcDbCircle
 10
185.4901475376083
 20
298.9206458068466
 30
0.0
 40
23.5
  0
ARC
  5
6D5
330
18
100
AcDbEntity
  8
5
  6
PHANTOM
100
AcDbCircle
 10
165.2005345376083
 20
167.6929008068467
 30
0.0
 40
20.392323
100
AcDbArc
 50
70.96910200000002
 51
111.0690989999997
  0
ARC
  5
6D6
330
18
100
AcDbEntity
  8
1
  6
Continuous
100
AcDbCircle
 10
160.3945665376083
 20
166.4131018068467
 30
0.0
 40
20.392323
100
AcDbArc
 50
39.969102
 51
80.06909899999998
  0
LINE
  5
6D7
330
18
100
AcDbEntity
  8
1
  6
Continuous
100
AcDbLine
 10
213.4901475376083
 20
271.9206458068466
 30
0.0
 11
157.4901475376083
 21
271.9206458068466
 31
0.0
  0
LINE
  5
6D8
330
18
100
AcDbEntity
  8
4
  6
CENTER
100
AcDbLine
 10
196.9901475376083
 20
175.7178818068467
 30
0.0
 11
123.9901475376083
 21
175.7178818068467
 31
0.0
  0
LINE
  5
6D9
330
18
100
AcDbEntity
  8
1
  6
Continuous
100
AcDbLine
 10
169.3480115376082
 20
215.1795558068467
 30
0.0
 11
171.3480115376082
 21
216.6725558068467
 31
0.0
  0
LINE
  5
6DA
330
18
100
AcDbEntity
  8
1
  6
Continuous
100
AcDbLine
 10
170.5195845376083
 20
215.1795558068467
 30
0.0
 11
168.5195845376083
 21
216.6725558068467
 31
0.0
  0
LINE
  5
6DB
330
18
100
AcDbEntity
  8
1
  6
Continuous
100
AcDbLine
 10
171.9337985376082
 20
215.1795558068467
 30
0.0
 11
169.9337985376083
 21
216.6725558068467
 31
0.0
  0
LINE
  5
6DC
330
18
100
AcDbEntity
  8
1
  6
Continuous
100
AcDbLine
 10
162.4901475376083
 20
215.1795558068467
 30
0.0
 11
208.4901475376083
 21
215.1795558068467
 31
0.0
  0
LINE
  5
6DD
330
18
100
AcDbEntity
  8
1
  6
Continuous
100
AcDbLine
 10
208.4901475376083
 20
216.6725558068467
 30
0.0
 11
162.4901475376083
 21
216.6725558068467
 31
0.0
  0
LINE
  5
6DE
330
18
100
AcDbEntity
  8
1
  6
Continuous
100
AcDbLine
 10
207.6652315376083
 20
218.1548168068465
 30
0.0
 11
163.3150635376083
 21
218.1548168068465
 31
0.0
  0
LINE
  5
6DF
330
18
100
AcDbEntity
  8
1
  6
Continuous
100
AcDbLine
 10
220.4901475376083
 20
224.2176998068467
 30
0.0
 11
150.4901475376083
 21
224.2176998068467
 31
0.0
  0
LINE
  5
6E0
330
18
100
AcDbEntity
  8
1
  6
Continuous
100
AcDbLine
 10
205.2460315376082
 20
219.8925558068467
 30
0.0
 11
165.7342635376083
 21
219.8925558068467
 31
0.0
  0
LINE
  5
6E1
330
18
100
AcDbEntity
  8
1
  6
Continuous
100
AcDbLine
 10
220.4901475376083
 20
221.9174168068467
 30
0.0
 11
150.4901475376083
 21
221.9174168068467
 31
0.0
  0
LINE
  5
6E2
330
18
100
AcDbEntity
  8
4
  6
CENTER
100
AcDbLine
 10
158.4901475376083
 20
216.9174168068467
 30
0.0
 11
158.4901475376083
 21
229.2176998068467
 31
0.0
  0
LINE
  5
6E3
330
18
100
AcDbEntity
  8
1
  6
Continuous
100
AcDbLine
 10
150.4901475376083
 20
221.9174168068467
 30
0.0
 11
150.4901475376083
 21
224.2176998068467
 31
0.0
  0
LINE
  5
6E4
330
18
100
AcDbEntity
  8
1
  6
Continuous
100
AcDbLine
 10
142.6314365376083
 20
190.1307118068467
 30
0.0
 11
127.4525045376082
 21
195.1903518068466
 31
0.0
  0
LINE
  5
6E5
330
18
100
AcDbEntity
  8
1
  6
Continuous
100
AcDbLine
 10
141.8846845376082
 20
187.8904418068465
 30
0.0
 11
126.7057505376083
 21
192.9500918068466
 31
0.0
  0
ARC
  5
6E6
330
18
100
AcDbEntity
  8
1
  6
Continuous
100
AcDbCircle
 10
144.3914385376083
 20
192.9806718068467
 30
0.0
 40
21.208357
100
AcDbArc
 50
211.3569999999999
 51
236.96611
  0
LINE
  5
6E7
330
18
100
AcDbEntity
  8
1
  6
Continuous
100
AcDbLine
 10
142.4763955376083
 20
173.0754218068467
 30
0.0
 11
126.2807325376083
 21
181.9444918068467
 31
0.0
  0
ARC
  5
6E8
330
18
100
AcDbEntity
  8
1
  6
Continuous
100
AcDbCircle
 10
140.5924725376081
 20
186.4360718068467
 30
0.0
 40
15.0
100
AcDbArc
 50
171.21368
 51
235.37772
  0
LINE
  5
6E9
330
18
100
AcDbEntity
  8
5
  6
PHANTOM
100
AcDbLine
 10
138.2728215376083
 20
176.5692808068467
 30
0.0
 11
122.6560235376081
 21
173.0885188068466
 31
0.0
  0
LINE
  5
6EA
330
18
100
AcDbEntity
  8
5
  6
PHANTOM
100
AcDbLine
 10
137.7590885376082
 20
178.8741728068466
 30
0.0
 11
122.1422975376082
 21
175.3934028068467
 31
0.0
  0
LINE
  5
6EB
330
18
100
AcDbEntity
  8
1
  6
Continuous
100
AcDbLine
 10
94.9320025376083
 20
171.6628918068466
 30
0.0
 11
94.9320025376083
 21
173.8448718068467
 31
0.0
  0
ARC
  5
6EC
330
18
100
AcDbEntity
  8
1
  6
Continuous
100
AcDbCircle
 10
93.49630253760834
 20
173.8448718068467
 30
0.0
 40
1.435702
100
AcDbArc
 50
0.0
 51
72.45158700000001
  0
LINE
  5
6ED
330
18
100
AcDbEntity
  8
5
  6
PHANTOM
100
AcDbLine
 10
122.6560235376081
 20
173.0885188068466
 30
0.0
 11
122.1422975376082
 21
175.3934028068467
 31
0.0
  0
ARC
  5
6EE
330
18
100
AcDbEntity
  8
1
  6
Continuous
100
AcDbCircle
 10
158.6441395376083
 20
183.6459318068466
 30
0.0
 40
33.26602199999999
100
AcDbArc
 50
163.76667
 51
171.21368
  0
LINE
  5
6EF
330
18
100
AcDbEntity
  8
1
  6
Continuous
100
AcDbLine
 10
126.7057505376083
 20
192.9500918068466
 30
0.0
 11
127.4525045376082
 21
195.1903518068466
 31
0.0
  0
ARC
  5
6F0
330
18
100
AcDbEntity
  8
1
  6
Continuous
100
AcDbCircle
 10
160.4901475376083
 20
175.7178818068467
 30
0.0
 40
31.5
100
AcDbArc
 50
96.61782700000001
 51
146.80409
  0
ARC
  5
6F1
330
18
100
AcDbEntity
  8
1
  6
Continuous
100
AcDbCircle
 10
160.4901475376083
 20
175.7178818068467
 30
0.0
 40
24.0
100
AcDbArc
 50
102.7309309999999
 51
140.0126569999999
  0
LINE
  5
6F2
330
18
100
AcDbEntity
  8
1
  6
Continuous
100
AcDbLine
 10
158.0901355376083
 20
212.8526558068467
 30
0.0
 11
153.2479235376082
 21
189.8482028068467
 31
0.0
  0
LINE
  5
6F3
330
18
100
AcDbEntity
  8
1
  6
Continuous
100
AcDbLine
 10
148.1192615376082
 20
191.8225218068467
 30
0.0
 11
151.9381945376082
 21
191.6489418068465
 31
0.0
  0
ARC
  5
6F4
330
18
100
AcDbEntity
  8
5
  6
PHANTOM
100
AcDbCircle
 10
168.6004025376081
 20
143.9303188068466
 30
0.0
 40
43.78852499999999
100
AcDbArc
 50
111.0690989999997
 51
119.437836
  0
LINE
  5
6F5
330
18
100
AcDbEntity
  8
5
  6
PHANTOM
100
AcDbLine
 10
141.5917265376082
 20
183.1507758068467
 30
0.0
 11
144.9545905376083
 21
184.9688848068465
 31
0.0
  0
LINE
  5
6F6
330
18
100
AcDbEntity
  8
5
  6
PHANTOM
100
AcDbLine
 10
144.9545925376082
 20
184.9688738068465
 30
0.0
 11
147.0792545376082
 21
182.0653008068467
 31
0.0
  0
LINE
  5
6F7
330
18
100
AcDbEntity
  8
1
  6
Continuous
100
AcDbLine
 10
143.9567075376082
 20
173.9525318068467
 30
0.0
 11
143.9567075376082
 21
187.2207318068467
 31
0.0
  0
ARC
  5
6F8
330
18
100
AcDbEntity
  8
5
  6
PHANTOM
100
AcDbCircle
 10
139.6852675376082
 20
178.7821898068466
 30
0.0
 40
1.860034999999999
100
AcDbArc
 50
192.56505
 51
359.39249
  0
LINE
  5
6F9
330
18
100
AcDbEntity
  8
5
  6
PHANTOM
100
AcDbLine
 10
138.2728215376083
 20
176.5692808068467
 30
0.0
 11
137.7590885376082
 21
178.8741728068466
 31
0.0
  0
ARC
  5
6FA
330
18
100
AcDbEntity
  8
1
  6
Continuous
100
AcDbCircle
 10
142.9567075376082
 20
173.9525318068467
 30
0.0
 40
1.0
100
AcDbArc
 50
241.29404
 51
0.0
  0
LINE
  5
6FB
330
18
100
AcDbEntity
  8
5
  6
PHANTOM
100
AcDbLine
 10
141.545191537608
 20
178.7624758068465
 30
0.0
 11
141.5917245376081
 21
183.1507748068467
 31
0.0
  0
ARC
  5
6FC
330
18
100
AcDbEntity
  8
1
  6
Continuous
100
AcDbCircle
 10
140.5273785376081
 20
128.8575918068466
 30
0.0
 40
62.303024
100
AcDbArc
 50
83.599343
 51
90.885373
  0
LINE
  5
6FD
330
18
100
AcDbEntity
  8
1
  6
Continuous
100
AcDbLine
 10
145.8192315376083
 20
188.0849818068466
 30
0.0
 11
148.1192595376083
 21
191.8225218068467
 31
0.0
  0
ARC
  5
6FE
330
18
100
AcDbEntity
  8
1
  6
Continuous
100
AcDbCircle
 10
144.2351195376081
 20
189.0598118068465
 30
0.0
 40
1.860034999999999
100
AcDbArc
 50
161.56505
 51
328.39249
  0
LINE
  5
6FF
330
18
100
AcDbEntity
  8
1
  6
Continuous
100
AcDbLine
 10
141.8846845376082
 20
187.8904418068465
 30
0.0
 11
142.6314365376083
 21
190.1307118068467
 31
0.0
  0
CIRCLE
  5
700
330
18
100
AcDbEntity
  8
2
  6
Continuous
100
AcDbCircle
 10
160.4901475376083
 20
175.7178818068467
 30
0.0
 40
3.3235
  0
CIRCLE
  5
701
330
18
100
AcDbEntity
  8
1
  6
Continuous
100
AcDbCircle
 10
160.4901475376083
 20
175.7178818068467
 30
0.0
 40
4.0
  0
LINE
  5
702
330
18
100
AcDbEntity
  8
1
  6
Continuous
100
AcDbLine
 10
154.4901475376083
 20
179.1819838068467
 30
0.0
 11
160.4901475376083
 21
182.6460858068467
 31
0.0
  0
LINE
  5
703
330
18
100
AcDbEntity
  8
1
  6
Continuous
100
AcDbLine
 10
154.4901475376083
 20
179.1819838068467
 30
0.0
 11
154.4901475376083
 21
172.2537808068467
 31
0.0
  0
LINE
  5
704
330
18
100
AcDbEntity
  8
1
  6
Continuous
100
AcDbLine
 10
166.4901475376083
 20
179.1819838068467
 30
0.0
 11
166.4901475376083
 21
172.2537808068467
 31
0.0
  0
LINE
  5
705
330
18
100
AcDbEntity
  8
1
  6
Continuous
100
AcDbLine
 10
166.4901475376083
 20
179.1819838068467
 30
0.0
 11
160.4901475376083
 21
182.6460858068467
 31
0.0
  0
LINE
  5
706
330
18
100
AcDbEntity
  8
1
  6
Continuous
100
AcDbLine
 10
158.6219775376081
 20
187.4259518068467
 30
0.0
 11
163.9114365376083
 21
186.4998518068467
 31
0.0
  0
ARC
  5
707
330
18
100
AcDbEntity
  8
1
  6
Continuous
100
AcDbCircle
 10
140.5273785376081
 20
128.8575918068466
 30
0.0
 40
62.303024
100
AcDbArc
 50
67.48213199999999
 51
79.31324299999999
  0
LINE
  5
708
330
18
100
AcDbEntity
  8
1
  6
Continuous
100
AcDbLine
 10
151.9381905376083
 20
191.6489318068467
 30
0.0
 11
152.263930537608
 21
188.0658018068467
 31
0.0
  0
ARC
  5
709
330
18
100
AcDbEntity
  8
1
  6
Continuous
100
AcDbCircle
 10
160.4901475376083
 20
175.7178818068467
 30
0.0
 40
17.123299
100
AcDbArc
 50
113.8351399999999
 51
119.597352
  0
ARC
  5
70A
330
18
100
AcDbEntity
  8
1
  6
Continuous
100
AcDbCircle
 10
151.0701875376083
 20
144.2935318068466
 30
0.0
 40
43.78852499999999
100
AcDbArc
 50
80.06909899999998
 51
88.437836
  0
LINE
  5
70B
330
18
100
AcDbEntity
  8
5
  6
PHANTOM
100
AcDbLine
 10
152.8587115376083
 20
184.7914788068467
 30
0.0
 11
157.8696395376081
 21
186.7219278068467
 31
0.0
  0
ARC
  5
70C
330
18
100
AcDbEntity
  8
1
  6
Continuous
100
AcDbCircle
 10
154.6337915376083
 20
210.9079688068467
 30
0.0
 40
0.28047
100
AcDbArc
 50
216.5458509999999
 51
268.6251529999998
  0
ARC
  5
70D
330
18
100
AcDbEntity
  8
1
  6
Continuous
100
AcDbCircle
 10
156.6462005376083
 20
294.7576238068467
 30
0.0
 40
84.15427099999998
100
AcDbArc
 50
268.6251529999998
 51
270.661561
  0
LINE
  5
70E
330
18
100
AcDbEntity
  8
1
  6
Continuous
100
AcDbLine
 10
166.8243235376082
 20
212.8770428068466
 30
0.0
 11
155.7022885376083
 21
212.8459888068467
 31
0.0
  0
ARC
  5
70F
330
18
100
AcDbEntity
  8
1
  6
Continuous
100
AcDbCircle
 10
165.7342635376083
 20
230.5325558068466
 30
0.0
 40
10.64
100
AcDbArc
 50
234.0659919999999
 51
270.0
  0
ARC
  5
710
330
18
100
AcDbEntity
  8
1
  6
Continuous
100
AcDbCircle
 10
155.7168805376083
 20
207.6200588068467
 30
0.0
 40
5.22595
100
AcDbArc
 50
90.15997800000002
 51
100.38805
  0
ARC
  5
711
330
18
100
AcDbEntity
  8
1
  6
Continuous
100
AcDbCircle
 10
122.5427775376083
 20
213.0080228068466
 30
0.0
 40
31.82178
100
AcDbArc
 50
357.118506
 51
359.117028
  0
ARC
  5
712
330
18
100
AcDbEntity
  8
1
  6
Continuous
100
AcDbCircle
 10
141.3378025376083
 20
209.4319708068467
 30
0.0
 40
13.13604599999999
100
AcDbArc
 50
5.718930999999997
 51
8.653186999999999
  0
ARC
  5
713
330
18
100
AcDbEntity
  8
1
  6
Continuous
100
AcDbCircle
 10
154.9009895376081
 20
212.0707278068466
 30
0.0
 40
0.7011149999999999
100
AcDbArc
 50
100.38805
 51
140.399055
  0
ARC
  5
714
330
18
100
AcDbEntity
  8
1
  6
Continuous
100
AcDbCircle
 10
166.1015455376082
 20
219.7050438068466
 30
0.0
 40
4.697225
100
AcDbArc
 50
206.286695
 51
220.210037
  0
LINE
  5
715
330
18
100
AcDbEntity
  8
1
  6
Continuous
100
AcDbLine
 10
163.6911575376083
 20
215.1795558068467
 30
0.0
 11
165.6911575376083
 21
216.6725558068467
 31
0.0
  0
LINE
  5
716
330
18
100
AcDbEntity
  8
1
  6
Continuous
100
AcDbLine
 10
166.2769445376082
 20
215.1795558068467
 30
0.0
 11
164.2769445376082
 21
216.6725558068467
 31
0.0
  0
LINE
  5
717
330
18
100
AcDbEntity
  8
1
  6
Continuous
100
AcDbLine
 10
162.4901475376083
 20
216.2999728068467
 30
0.0
 11
162.8627305376083
 21
216.6725558068467
 31
0.0
  0
LINE
  5
718
330
18
100
AcDbEntity
  8
1
  6
Continuous
100
AcDbLine
 10
163.4485165376082
 20
215.1795558068467
 30
0.0
 11
162.4901475376083
 21
216.1379248068466
 31
0.0
  0
LINE
  5
719
330
18
100
AcDbEntity
  8
1
  6
Continuous
100
AcDbLine
 10
164.8627305376083
 20
215.1795558068467
 30
0.0
 11
162.8627305376083
 21
216.6725558068467
 31
0.0
  0
LINE
  5
71A
330
18
100
AcDbEntity
  8
1
  6
Continuous
100
AcDbLine
 10
162.4901475376083
 20
216.6725558068467
 30
0.0
 11
162.4901475376083
 21
215.1795558068467
 31
0.0
  0
ARC
  5
71B
330
18
100
AcDbEntity
  8
1
  6
Continuous
100
AcDbCircle
 10
161.6764975376082
 20
213.3878248068466
 30
0.0
 40
0.313453
100
AcDbArc
 50
299.197035
 51
6.338015999999996
  0
ARC
  5
71C
330
18
100
AcDbEntity
  8
1
  6
Continuous
100
AcDbCircle
 10
165.5953675376082
 20
211.2232758068466
 30
0.0
 40
4.224822999999997
100
AcDbArc
 50
110.5384659999999
 51
148.632099
  0
ARC
  5
71D
330
18
100
AcDbEntity
  8
1
  6
Continuous
100
AcDbCircle
 10
160.8548935376083
 20
214.8580918068467
 30
0.0
 40
1.997709
100
AcDbArc
 50
270.1599779999999
 51
299.197035
  0
LINE
  5
71E
330
18
100
AcDbEntity
  8
1
  6
Continuous
100
AcDbLine
 10
166.5195845376083
 20
215.1795558068467
 30
0.0
 11
168.5195845376083
 21
216.6725558068467
 31
0.0
  0
LINE
  5
71F
330
18
100
AcDbEntity
  8
1
  6
Continuous
100
AcDbLine
 10
167.6911575376083
 20
215.1795558068467
 30
0.0
 11
165.6911575376083
 21
216.6725558068467
 31
0.0
  0
LINE
  5
720
330
18
100
AcDbEntity
  8
1
  6
Continuous
100
AcDbLine
 10
169.1053715376082
 20
215.1795558068467
 30
0.0
 11
167.1053715376082
 21
216.6725558068467
 31
0.0
  0
ARC
  5
721
330
18
100
AcDbEntity
  8
1
  6
Continuous
100
AcDbCircle
 10
168.3036455376082
 20
214.6038448068467
 30
0.0
 40
6.206
100
AcDbArc
 50
121.2013169999996
 51
140.935699
  0
LINE
  5
722
330
18
100
AcDbEntity
  8
1
  6
Continuous
100
AcDbLine
 10
163.3150635376083
 20
218.1548168068465
 30
0.0
 11
163.4850635376082
 21
218.5148168068467
 31
0.0
  0
LINE
  5
723
330
18
100
AcDbEntity
  8
1
  6
Continuous
100
AcDbLine
 10
162.5000635376083
 20
218.1548168068465
 30
0.0
 11
163.3150635376083
 21
218.1548168068465
 31
0.0
  0
ARC
  5
724
330
18
100
AcDbEntity
  8
1
  6
Continuous
100
AcDbCircle
 10
162.7640335376082
 20
217.2349638068467
 30
0.0
 40
0.9569799999999998
100
AcDbArc
 50
106.011913
 51
155.9597349999999
  0
ARC
  5
725
330
18
100
AcDbEntity
  8
1
  6
Continuous
100
AcDbCircle
 10
133.8208745376083
 20
269.0444058068465
 30
0.0
 40
6.571915999999997
100
AcDbArc
 50
221.6494899999999
 51
273.1721299999999
  0
ARC
  5
726
330
18
100
AcDbEntity
  8
1
  6
Continuous
100
AcDbCircle
 10
134.5481995376082
 20
269.0444058068465
 30
0.0
 40
6.571915999999997
100
AcDbArc
 50
221.6494899999999
 51
318.35051
  0
ARC
  5
727
330
18
100
AcDbEntity
  8
1
  6
Continuous
100
AcDbCircle
 10
135.4265715376083
 20
270.4724918068465
 30
0.0
 40
8.720793999999997
100
AcDbArc
 50
180.00001
 51
221.6494899999999
  0
ARC
  5
728
330
18
100
AcDbEntity
  8
1
  6
Continuous
100
AcDbCircle
 10
136.1538895376082
 20
270.4724918068465
 30
0.0
 40
8.720793999999997
100
AcDbArc
 50
180.00001
 51
221.6494899999999
  0
ARC
  5
729
330
18
100
AcDbEntity
  8
1
  6
Continuous
100
AcDbCircle
 10
132.9425015376083
 20
270.4724918068465
 30
0.0
 40
8.720793999999997
100
AcDbArc
 50
318.35051
 51
0.0
  0
LINE
  5
72A
330
18
100
AcDbEntity
  8
1
  6
Continuous
100
AcDbLine
 10
154.4901475376083
 20
271.6206558068465
 30
0.0
 11
166.4901475376083
 21
271.6206558068465
 31
0.0
  0
LINE
  5
72B
330
18
100
AcDbEntity
  8
1
  6
Continuous
100
AcDbLine
 10
163.6901475376082
 20
270.7378378068467
 30
0.0
 11
157.2901475376082
 21
270.7378378068467
 31
0.0
  0
LINE
  5
72C
330
18
100
AcDbEntity
  8
1
  6
Continuous
100
AcDbLine
 10
156.4901475376083
 20
271.5378378068466
 30
0.0
 11
164.4901475376081
 21
271.5378378068466
 31
0.0
  0
ARC
  5
72D
330
18
100
AcDbEntity
  8
1
  6
Continuous
100
AcDbCircle
 10
157.4901475376083
 20
280.2857198068467
 30
0.0
 40
8.665063999999999
100
AcDbArc
 50
249.7438419999999
 51
285.1204989999999
  0
LINE
  5
72E
330
18
100
AcDbEntity
  8
1
  6
Continuous
100
AcDbLine
 10
154.4901475376083
 20
271.6206558068465
 30
0.0
 11
154.4901475376083
 21
272.5960908068466
 31
0.0
  0
LINE
  5
72F
330
18
100
AcDbEntity
  8
2
  6
Continuous
100
AcDbLine
 10
157.1666475376081
 20
270.8613378068467
 30
0.0
 11
157.1666475376081
 21
271.6206558068465
 31
0.0
  0
LINE
  5
730
330
18
100
AcDbEntity
  8
1
  6
Continuous
100
AcDbLine
 10
157.2901475376082
 20
270.7378378068467
 30
0.0
 11
156.4901475376083
 21
271.5378378068466
 31
0.0
  0
LINE
  5
731
330
18
100
AcDbEntity
  8
1
  6
Continuous
100
AcDbLine
 10
156.4901475376083
 20
271.6206558068465
 30
0.0
 11
156.4901475376083
 21
271.5378378068466
 31
0.0
  0
ARC
  5
732
330
18
100
AcDbEntity
  8
1
  6
Continuous
100
AcDbCircle
 10
163.4901475376083
 20
280.2857198068467
 30
0.0
 40
8.665063999999999
100
AcDbArc
 50
254.8795009999998
 51
285.1204989999999
  0
LINE
  5
733
330
18
100
AcDbEntity
  8
1
  6
Continuous
100
AcDbLine
 10
164.4901475376081
 20
271.6206558068465
 30
0.0
 11
164.4901475376081
 21
271.5378378068466
 31
0.0
  0
LINE
  5
734
330
18
100
AcDbEntity
  8
2
  6
Continuous
100
AcDbLine
 10
163.8136475376083
 20
270.8613378068467
 30
0.0
 11
163.8136475376083
 21
271.6206558068465
 31
0.0
  0
LINE
  5
735
330
18
100
AcDbEntity
  8
1
  6
Continuous
100
AcDbLine
 10
163.6901475376082
 20
270.7378378068467
 30
0.0
 11
164.4901475376081
 21
271.5378378068466
 31
0.0
  0
LINE
  5
736
330
18
100
AcDbEntity
  8
1
  6
Continuous
100
AcDbLine
 10
166.4901475376083
 20
271.6206558068465
 30
0.0
 11
166.4901475376083
 21
271.9206458068466
 31
0.0
  0
LINE
  5
737
330
18
100
AcDbEntity
  8
4
  6
CENTER
100
AcDbLine
 10
212.4901475376083
 20
216.9174168068467
 30
0.0
 11
212.4901475376083
 21
229.2176998068467
 31
0.0
  0
LINE
  5
738
330
18
100
AcDbEntity
  8
1
  6
Continuous
100
AcDbLine
 10
220.4901475376083
 20
221.9174168068467
 30
0.0
 11
220.4901475376083
 21
224.2176998068467
 31
0.0
  0
LINE
  5
739
330
18
100
AcDbEntity
  8
4
  6
CENTER
100
AcDbLine
 10
185.4901475376083
 20
202.2157128068467
 30
0.0
 11
185.4901475376083
 21
229.2176998068467
 31
0.0
  0
ARC
  5
73A
330
18
100
AcDbEntity
  8
1
  6
Continuous
100
AcDbCircle
 10
204.8787495376083
 20
219.7050438068466
 30
0.0
 40
4.697225
100
AcDbArc
 50
319.789963
 51
333.713305
  0
ARC
  5
73B
330
18
100
AcDbEntity
  8
1
  6
Continuous
100
AcDbCircle
 10
208.2162605376083
 20
217.2349638068467
 30
0.0
 40
0.9569799999999998
100
AcDbArc
 50
24.04026499999999
 51
73.98808699999998
  0
ARC
  5
73C
330
18
100
AcDbEntity
  8
1
  6
Continuous
100
AcDbCircle
 10
205.2460315376082
 20
230.5325558068466
 30
0.0
 40
10.64
100
AcDbArc
 50
270.0
 51
305.934008
  0
LINE
  5
73D
330
18
100
AcDbEntity
  8
1
  6
Continuous
100
AcDbLine
 10
210.2401485376083
 20
208.4673098068465
 30
0.0
 11
202.2223625376083
 21
208.4673098068465
 31
0.0
  0
ARC
  5
73E
330
18
100
AcDbEntity
  8
1
  6
Continuous
100
AcDbCircle
 10
205.4279775376083
 20
211.1327808068467
 30
0.0
 40
4.377608
100
AcDbArc
 50
8.294477
 51
67.581971
  0
LINE
  5
73F
330
18
100
AcDbEntity
  8
1
  6
Continuous
100
AcDbLine
 10
191.6815685376083
 20
203.5662128068466
 30
0.0
 11
176.3643075376082
 21
179.0234568068467
 31
0.0
  0
ARC
  5
740
330
18
100
AcDbEntity
  8
1
  6
Continuous
100
AcDbCircle
 10
160.4901475376083
 20
175.7178818068467
 30
0.0
 40
31.5
100
AcDbArc
 50
23.389682
 51
36.19536999999999
  0
LINE
  5
741
330
18
100
AcDbEntity
  8
1
  6
Continuous
100
AcDbLine
 10
198.6037495376083
 20
171.4732718068467
 30
0.0
 11
184.3734975376082
 21
176.2166918068467
 31
0.0
  0
ARC
  5
742
330
18
100
AcDbEntity
  8
1
  6
Continuous
100
AcDbCircle
 10
186.6920135376081
 20
181.7685518068465
 30
0.0
 40
5.5
100
AcDbArc
 50
336.25051
 51
209.74488
  0
ARC
  5
743
330
18
100
AcDbEntity
  8
1
  6
Continuous
100
AcDbCircle
 10
186.6920135376081
 20
181.7685518068465
 30
0.0
 40
7.0
100
AcDbArc
 50
6.632535999999999
 51
183.13915
  0
LINE
  5
744
330
18
100
AcDbEntity
  8
5
  6
PHANTOM
100
AcDbLine
 10
195.3460175376082
 20
191.7094978068466
 30
0.0
 11
180.7052685376083
 21
188.4462808068467
 31
0.0
  0
LINE
  5
745
330
18
100
AcDbEntity
  8
5
  6
PHANTOM
100
AcDbLine
 10
195.8463795376082
 20
189.4645748068467
 30
0.0
 11
181.2056315376083
 21
186.2013588068467
 31
0.0
  0
LINE
  5
746
330
18
100
AcDbEntity
  8
5
  6
PHANTOM
100
AcDbLine
 10
183.5594285376082
 20
182.5358718068466
 30
0.0
 11
182.6697105376083
 21
186.5276728068465
 31
0.0
  0
LINE
  5
747
330
18
100
AcDbEntity
  8
5
  6
PHANTOM
100
AcDbLine
 10
182.3619035376082
 20
182.2689808068465
 30
0.0
 11
171.8499575376082
 21
186.9706498068467
 31
0.0
  0
ARC
  5
748
330
18
100
AcDbEntity
  8
1
  6
Continuous
100
AcDbCircle
 10
148.7997175376082
 20
179.6904118068467
 30
0.0
 40
30.949238
100
AcDbArc
 50
350.80084
 51
3.139147999999998
  0
ARC
  5
749
330
18
100
AcDbEntity
  8
1
  6
Continuous
100
AcDbCircle
 10
160.4901475376083
 20
175.7178818068467
 30
0.0
 40
17.123299
100
AcDbArc
 50
5.449111000000001
 51
14.855259
  0
LINE
  5
74A
330
18
100
AcDbEntity
  8
1
  6
Continuous
100
AcDbLine
 10
184.0626895376081
 20
175.2842718068466
 30
0.0
 11
181.9166785376082
 21
179.0397818068467
 31
0.0
  0
LINE
  5
74B
330
18
100
AcDbEntity
  8
1
  6
Continuous
100
AcDbLine
 10
183.6461725376083
 20
174.0347118068467
 30
0.0
 11
184.3734975376082
 21
176.2166918068467
 31
0.0
  0
LINE
  5
74C
330
18
100
AcDbEntity
  8
5
  6
PHANTOM
100
AcDbLine
 10
183.5594285376082
 20
182.5358718068466
 30
0.0
 11
182.3619095376083
 21
182.2689728068467
 31
0.0
  0
ARC
  5
74D
330
18
100
AcDbEntity
  8
1
  6
Continuous
100
AcDbCircle
 10
160.4901475376083
 20
175.7178818068467
 30
0.0
 40
24.0
100
AcDbArc
 50
27.418658
 51
28.80990399999999
  0
LINE
  5
74E
330
18
100
AcDbEntity
  8
5
  6
PHANTOM
100
AcDbLine
 10
181.2056315376083
 20
186.2013588068467
 30
0.0
 11
180.7052685376083
 21
188.4462808068467
 31
0.0
  0
LINE
  5
74F
330
18
100
AcDbEntity
  8
5
  6
PHANTOM
100
AcDbLine
 10
195.8463695376082
 20
189.4645918068466
 30
0.0
 11
196.8108515376082
 21
181.6517938068465
 31
0.0
  0
LINE
  5
750
330
18
100
AcDbEntity
  8
1
  6
Continuous
100
AcDbLine
 10
189.5053755376082
 20
174.5060618068466
 30
0.0
 11
191.8456675376082
 21
179.8249118068467
 31
0.0
  0
LINE
  5
751
330
18
100
AcDbEntity
  8
1
  6
Continuous
100
AcDbLine
 10
193.6451655376082
 20
182.5770618068467
 30
0.0
 11
194.7884265376082
 21
172.7450318068467
 31
0.0
  0
ARC
  5
752
330
18
100
AcDbEntity
  8
5
  6
PHANTOM
100
AcDbCircle
 10
188.5885685376083
 20
180.6367548068467
 30
0.0
 40
8.284706999999999
100
AcDbArc
 50
300.02319
 51
7.03751
  0
LINE
  5
753
330
18
100
AcDbEntity
  8
5
  6
PHANTOM
100
AcDbLine
 10
195.8463795376082
 20
189.4645748068467
 30
0.0
 11
195.3460175376082
 21
191.7094978068466
 31
0.0
  0
LINE
  5
754
330
18
100
AcDbEntity
  8
1
  6
Continuous
100
AcDbLine
 10
189.1470015376082
 20
215.1795558068467
 30
0.0
 11
191.1470015376082
 21
216.6725558068467
 31
0.0
  0
LINE
  5
755
330
18
100
AcDbEntity
  8
1
  6
Continuous
100
AcDbLine
 10
190.3185745376082
 20
215.1795558068467
 30
0.0
 11
188.3185745376082
 21
216.6725558068467
 31
0.0
  0
LINE
  5
756
330
18
100
AcDbEntity
  8
1
  6
Continuous
100
AcDbLine
 10
177.8332935376081
 20
215.1795558068467
 30
0.0
 11
179.8332935376083
 21
216.6725558068467
 31
0.0
  0
LINE
  5
757
330
18
100
AcDbEntity
  8
1
  6
Continuous
100
AcDbLine
 10
180.4190795376083
 20
215.1795558068467
 30
0.0
 11
178.4190795376083
 21
216.6725558068467
 31
0.0
  0
LINE
  5
758
330
18
100
AcDbEntity
  8
1
  6
Continuous
100
AcDbLine
 10
176.1764385376082
 20
215.1795558068467
 30
0.0
 11
174.1764385376083
 21
216.6725558068467
 31
0.0
  0
LINE
  5
759
330
18
100
AcDbEntity
  8
1
  6
Continuous
100
AcDbLine
 10
172.1764385376082
 20
215.1795558068467
 30
0.0
 11
174.1764385376083
 21
216.6725558068467
 31
0.0
  0
LINE
  5
75A
330
18
100
AcDbEntity
  8
1
  6
Continuous
100
AcDbLine
 10
173.3480115376082
 20
215.1795558068467
 30
0.0
 11
171.3480115376082
 21
216.6725558068467
 31
0.0
  0
LINE
  5
75B
330
18
100
AcDbEntity
  8
1
  6
Continuous
100
AcDbLine
 10
174.7622255376083
 20
215.1795558068467
 30
0.0
 11
172.7622255376083
 21
216.6725558068467
 31
0.0
  0
LINE
  5
75C
330
18
100
AcDbEntity
  8
1
  6
Continuous
100
AcDbLine
 10
175.0048665376083
 20
215.1795558068467
 30
0.0
 11
177.0048665376082
 21
216.6725558068467
 31
0.0
  0
LINE
  5
75D
330
18
100
AcDbEntity
  8
1
  6
Continuous
100
AcDbLine
 10
177.5906525376083
 20
215.1795558068467
 30
0.0
 11
175.5906525376083
 21
216.6725558068467
 31
0.0
  0
LINE
  5
75E
330
18
100
AcDbEntity
  8
1
  6
Continuous
100
AcDbLine
 10
179.0048665376082
 20
215.1795558068467
 30
0.0
 11
177.0048665376082
 21
216.6725558068467
 31
0.0
  0
LINE
  5
75F
330
18
100
AcDbEntity
  8
1
  6
Continuous
100
AcDbLine
 10
183.4901475376083
 20
215.1795558068467
 30
0.0
 11
185.4901475376083
 21
216.6725558068467
 31
0.0
  0
LINE
  5
760
330
18
100
AcDbEntity
  8
1
  6
Continuous
100
AcDbLine
 10
184.6617205376083
 20
215.1795558068467
 30
0.0
 11
182.6617205376083
 21
216.6725558068467
 31
0.0
  0
LINE
  5
761
330
18
100
AcDbEntity
  8
1
  6
Continuous
100
AcDbLine
 10
186.0759335376082
 20
215.1795558068467
 30
0.0
 11
184.0759335376083
 21
216.6725558068467
 31
0.0
  0
LINE
  5
762
330
18
100
AcDbEntity
  8
1
  6
Continuous
100
AcDbLine
 10
180.6617205376083
 20
215.1795558068467
 30
0.0
 11
182.6617205376083
 21
216.6725558068467
 31
0.0
  0
LINE
  5
763
330
18
100
AcDbEntity
  8
1
  6
Continuous
100
AcDbLine
 10
181.8332935376081
 20
215.1795558068467
 30
0.0
 11
179.8332935376083
 21
216.6725558068467
 31
0.0
  0
LINE
  5
764
330
18
100
AcDbEntity
  8
1
  6
Continuous
100
AcDbLine
 10
183.2475065376083
 20
215.1795558068467
 30
0.0
 11
181.2475065376082
 21
216.6725558068467
 31
0.0
  0
LINE
  5
765
330
18
100
AcDbEntity
  8
1
  6
Continuous
100
AcDbLine
 10
186.3185745376082
 20
215.1795558068467
 30
0.0
 11
188.3185745376082
 21
216.6725558068467
 31
0.0
  0
LINE
  5
766
330
18
100
AcDbEntity
  8
1
  6
Continuous
100
AcDbLine
 10
188.9043615376082
 20
215.1795558068467
 30
0.0
 11
186.9043615376082
 21
216.6725558068467
 31
0.0
  0
LINE
  5
767
330
18
100
AcDbEntity
  8
1
  6
Continuous
100
AcDbLine
 10
187.4901475376083
 20
215.1795558068467
 30
0.0
 11
185.4901475376083
 21
216.6725558068467
 31
0.0
  0
ARC
  5
768
330
18
100
AcDbEntity
  8
1
  6
Continuous
100
AcDbCircle
 10
196.4748235376082
 20
210.8464698068467
 30
0.0
 40
5.356411999999997
100
AcDbArc
 50
279.4050899999999
 51
312.9280819999999
  0
ARC
  5
769
330
18
100
AcDbEntity
  8
1
  6
Continuous
100
AcDbCircle
 10
202.2223625376083
 20
194.2383098068467
 30
0.0
 40
14.229
100
AcDbArc
 50
90.0
 51
133.500573
  0
ARC
  5
76A
330
18
100
AcDbEntity
  8
1
  6
Continuous
100
AcDbCircle
 10
200.8359875376083
 20
197.4673098068467
 30
0.0
 40
11.0
100
AcDbArc
 50
139.8530389999999
 51
146.327459
  0
LINE
  5
76B
330
18
100
AcDbEntity
  8
1
  6
Continuous
100
AcDbLine
 10
196.8184225376083
 20
205.5536928068466
 30
0.0
 11
193.5952795376083
 21
205.5536928068466
 31
0.0
  0
ARC
  5
76C
330
18
100
AcDbEntity
  8
1
  6
Continuous
100
AcDbCircle
 10
196.7560785376083
 20
226.4125968068467
 30
0.0
 40
20.85899799999999
100
AcDbArc
 50
270.1712459999999
 51
271.6319809999999
  0
ARC
  5
76D
330
18
100
AcDbEntity
  8
1
  6
Continuous
100
AcDbCircle
 10
201.9870405376082
 20
207.7539788068466
 30
0.0
 40
1.195896999999997
100
AcDbArc
 50
146.513026
 51
181.5495999999999
  0
ARC
  5
76E
330
18
100
AcDbEntity
  8
1
  6
Continuous
100
AcDbCircle
 10
197.2502155376081
 20
210.0128678068467
 30
0.0
 40
4.217937
100
AcDbArc
 50
312.9280819999999
 51
327.0975189999999
  0
LINE
  5
76F
330
18
100
AcDbEntity
  8
1
  6
Continuous
100
AcDbLine
 10
197.6322835376083
 20
215.1795558068467
 30
0.0
 11
199.6322835376081
 21
216.6725558068467
 31
0.0
  0
LINE
  5
770
330
18
100
AcDbEntity
  8
1
  6
Continuous
100
AcDbLine
 10
200.2180695376082
 20
215.1795558068467
 30
0.0
 11
198.2180695376082
 21
216.6725558068467
 31
0.0
  0
LINE
  5
771
330
18
100
AcDbEntity
  8
1
  6
Continuous
100
AcDbLine
 10
195.9754285376082
 20
215.1795558068467
 30
0.0
 11
193.9754285376083
 21
216.6725558068467
 31
0.0
  0
LINE
  5
772
330
18
100
AcDbEntity
  8
1
  6
Continuous
100
AcDbLine
 10
194.5612155376082
 20
215.1795558068467
 30
0.0
 11
192.5612155376082
 21
216.6725558068467
 31
0.0
  0
LINE
  5
773
330
18
100
AcDbEntity
  8
1
  6
Continuous
100
AcDbLine
 10
191.9754285376083
 20
215.1795558068467
 30
0.0
 11
193.9754285376083
 21
216.6725558068467
 31
0.0
  0
LINE
  5
774
330
18
100
AcDbEntity
  8
1
  6
Continuous
100
AcDbLine
 10
193.1470015376083
 20
215.1795558068467
 30
0.0
 11
191.1470015376082
 21
216.6725558068467
 31
0.0
  0
LINE
  5
775
330
18
100
AcDbEntity
  8
1
  6
Continuous
100
AcDbLine
 10
191.7327885376083
 20
215.1795558068467
 30
0.0
 11
189.7327885376081
 21
216.6725558068467
 31
0.0
  0
LINE
  5
776
330
18
100
AcDbEntity
  8
1
  6
Continuous
100
AcDbLine
 10
194.8038555376081
 20
215.1795558068467
 30
0.0
 11
196.8038555376083
 21
216.6725558068467
 31
0.0
  0
LINE
  5
777
330
18
100
AcDbEntity
  8
1
  6
Continuous
100
AcDbLine
 10
198.8038555376081
 20
215.1795558068467
 30
0.0
 11
196.8038555376083
 21
216.6725558068467
 31
0.0
  0
LINE
  5
778
330
18
100
AcDbEntity
  8
1
  6
Continuous
100
AcDbLine
 10
197.3896425376081
 20
215.1795558068467
 30
0.0
 11
195.3896425376082
 21
216.6725558068467
 31
0.0
  0
LINE
  5
779
330
18
100
AcDbEntity
  8
1
  6
Continuous
100
AcDbLine
 10
203.2891375376083
 20
215.1795558068467
 30
0.0
 11
205.2891375376083
 21
216.6725558068467
 31
0.0
  0
LINE
  5
77A
330
18
100
AcDbEntity
  8
1
  6
Continuous
100
AcDbLine
 10
205.8749235376083
 20
215.1795558068467
 30
0.0
 11
203.8749235376083
 21
216.6725558068467
 31
0.0
  0
LINE
  5
77B
330
18
100
AcDbEntity
  8
1
  6
Continuous
100
AcDbLine
 10
204.4607105376082
 20
215.1795558068467
 30
0.0
 11
202.4607105376082
 21
216.6725558068467
 31
0.0
  0
LINE
  5
77C
330
18
100
AcDbEntity
  8
1
  6
Continuous
100
AcDbLine
 10
200.4607105376082
 20
215.1795558068467
 30
0.0
 11
202.4607105376082
 21
216.6725558068467
 31
0.0
  0
LINE
  5
77D
330
18
100
AcDbEntity
  8
1
  6
Continuous
100
AcDbLine
 10
203.0464965376082
 20
215.1795558068467
 30
0.0
 11
201.0464965376082
 21
216.6725558068467
 31
0.0
  0
LINE
  5
77E
330
18
100
AcDbEntity
  8
1
  6
Continuous
100
AcDbLine
 10
201.6322835376083
 20
215.1795558068467
 30
0.0
 11
199.6322835376081
 21
216.6725558068467
 31
0.0
  0
LINE
  5
77F
330
18
100
AcDbEntity
  8
1
  6
Continuous
100
AcDbLine
 10
206.1175645376083
 20
215.1795558068467
 30
0.0
 11
208.1175645376082
 21
216.6725558068467
 31
0.0
  0
LINE
  5
780
330
18
100
AcDbEntity
  8
1
  6
Continuous
100
AcDbLine
 10
208.4901475376083
 20
216.2999728068467
 30
0.0
 11
208.1175645376082
 21
216.6725558068467
 31
0.0
  0
LINE
  5
781
330
18
100
AcDbEntity
  8
1
  6
Continuous
100
AcDbLine
 10
208.4901475376083
 20
215.3927588068466
 30
0.0
 11
206.7033505376083
 21
216.6725558068467
 31
0.0
  0
LINE
  5
782
330
18
100
AcDbEntity
  8
1
  6
Continuous
100
AcDbLine
 10
207.2891375376083
 20
215.1795558068467
 30
0.0
 11
205.2891375376083
 21
216.6725558068467
 31
0.0
  0
LINE
  5
783
330
18
100
AcDbEntity
  8
1
  6
Continuous
100
AcDbLine
 10
208.4901475376083
 20
216.6725558068467
 30
0.0
 11
208.4901475376083
 21
215.1795558068467
 31
0.0
  0
ARC
  5
784
330
18
100
AcDbEntity
  8
1
  6
Continuous
100
AcDbCircle
 10
202.6766495376083
 20
214.6038448068467
 30
0.0
 40
6.206
100
AcDbArc
 50
39.064301
 51
58.798683
  0
LINE
  5
785
330
18
100
AcDbEntity
  8
1
  6
Continuous
100
AcDbLine
 10
207.6652315376083
 20
218.1548168068465
 30
0.0
 11
207.4952315376083
 21
218.5148168068467
 31
0.0
  0
LINE
  5
786
330
18
100
AcDbEntity
  8
1
  6
Continuous
100
AcDbLine
 10
208.4802315376083
 20
218.1548168068465
 30
0.0
 11
207.6652315376083
 21
218.1548168068465
 31
0.0
  0
ARC
  5
787
330
18
100
AcDbEntity
  8
1
  6
Continuous
100
AcDbCircle
 10
80.27936553760831
 20
191.2161848068467
 30
0.0
 40
131.100749
100
AcDbArc
 50
7.561295
 51
9.017450999999999
  0
ARC
  5
788
330
18
100
AcDbEntity
  8
1
  6
Continuous
100
AcDbCircle
 10
191.4886215376082
 20
264.5484078068467
 30
0.0
 40
6.571915999999997
100
AcDbArc
 50
221.6494899999999
 51
318.35051
  0
ARC
  5
789
330
18
100
AcDbEntity
  8
1
  6
Continuous
100
AcDbCircle
 10
190.7612965376081
 20
264.5484078068467
 30
0.0
 40
6.571915999999997
100
AcDbArc
 50
221.6494899999999
 51
273.1721299999999
  0
ARC
  5
78A
330
18
100
AcDbEntity
  8
1
  6
Continuous
100
AcDbCircle
 10
193.0943195376082
 20
265.9764888068467
 30
0.0
 40
8.720793999999997
100
AcDbArc
 50
180.00001
 51
221.6494899999999
  0
ARC
  5
78B
330
18
100
AcDbEntity
  8
1
  6
Continuous
100
AcDbCircle
 10
192.3669935376081
 20
265.9764888068467
 30
0.0
 40
8.720793999999997
100
AcDbArc
 50
180.00001
 51
221.6494899999999
  0
LINE
  5
78C
330
18
100
AcDbEntity
  8
1
  6
Continuous
100
AcDbLine
 10
184.3734945376083
 20
271.9206458068466
 30
0.0
 11
184.3734945376083
 21
265.9764888068467
 31
0.0
  0
LINE
  5
78D
330
18
100
AcDbEntity
  8
1
  6
Continuous
100
AcDbLine
 10
183.646176537608
 20
271.9206458068466
 30
0.0
 11
183.646176537608
 21
265.9764888068467
 31
0.0
  0
ARC
  5
78E
330
18
100
AcDbEntity
  8
1
  6
Continuous
100
AcDbCircle
 10
189.8829315376081
 20
265.9764888068467
 30
0.0
 40
8.720793999999997
100
AcDbArc
 50
318.35051
 51
0.0
  0
LINE
  5
78F
330
18
100
AcDbEntity
  8
1
  6
Continuous
100
AcDbLine
 10
198.6037455376083
 20
271.9206458068466
 30
0.0
 11
198.6037455376083
 21
265.9764888068467
 31
0.0
  0
LINE
  5
790
330
18
100
AcDbEntity
  8
1
  6
Continuous
100
AcDbLine
 10
213.4901475376083
 20
325.9206458068466
 30
0.0
 11
157.4901475376083
 21
325.9206458068466
 31
0.0
  0
LINE
  5
791
330
18
100
AcDbEntity
  8
4
  6
CENTER
100
AcDbLine
 10
226.5224525376082
 20
298.9206458068466
 30
0.0
 11
123.9901475376083
 21
298.9206458068466
 31
0.0
  0
CIRCLE
  5
792
330
18
100
AcDbEntity
  8
1
  6
Continuous
100
AcDbCircle
 10
185.4901475376083
 20
298.9206458068466
 30
0.0
 40
20.89999999999998
  0
LINE
  5
793
330
18
100
AcDbEntity
  8
1
  6
Continuous
100
AcDbLine
 10
150.4901475376083
 20
284.4206458068466
 30
0.0
 11
127.4310045376083
 21
284.4206458068466
 31
0.0
  0
LINE
  5
794
330
18
100
AcDbEntity
  8
1
  6
Continuous
100
AcDbLine
 10
150.4901475376083
 20
283.9206458068466
 30
0.0
 11
127.4310045376083
 21
283.9206458068466
 31
0.0
  0
LINE
  5
795
330
18
100
AcDbEntity
  8
1
  6
Continuous
100
AcDbLine
 10
125.5924725376083
 20
282.4724918068465
 30
0.0
 11
141.4906435376081
 21
282.4724918068465
 31
0.0
  0
LINE
  5
796
330
18
100
AcDbEntity
  8
1
  6
Continuous
100
AcDbLine
 10
150.4901475376083
 20
311.1250818068466
 30
0.0
 11
131.3511855376082
 21
311.1250818068466
 31
0.0
  0
LINE
  5
797
330
18
100
AcDbEntity
  8
1
  6
Continuous
100
AcDbLine
 10
150.4901475376083
 20
288.1250818068466
 30
0.0
 11
131.3511855376082
 21
288.1250818068466
 31
0.0
  0
ARC
  5
798
330
18
100
AcDbEntity
  8
1
  6
Continuous
100
AcDbCircle
 10
188.9901475376083
 20
299.6250818068466
 30
0.0
 40
60.0
100
AcDbArc
 50
170.1575129999999
 51
189.842487
  0
LINE
  5
799
330
18
100
AcDbEntity
  8
1
  6
Continuous
100
AcDbLine
 10
127.4310045376083
 20
284.4206458068466
 30
0.0
 11
127.4310045376083
 21
283.9206458068466
 31
0.0
  0
ARC
  5
79A
330
18
100
AcDbEntity
  8
1
  6
Continuous
100
AcDbCircle
 10
128.6367995376083
 20
282.8924248068467
 30
0.0
 40
1.0
100
AcDbArc
 50
358.58658
 51
87.95694299999999
  0
ARC
  5
79B
330
18
100
AcDbEntity
  8
1
  6
Continuous
100
AcDbCircle
 10
125.4330795376082
 20
280.4724918068465
 30
0.0
 40
2.0
100
AcDbArc
 50
0.0
 51
85.42876900000001
  0
ARC
  5
79C
330
18
100
AcDbEntity
  8
1
  6
Continuous
100
AcDbCircle
 10
125.7057545376082
 20
279.1724878068465
 30
0.0
 40
1.0
100
AcDbArc
 50
0.0
 51
90.00000300000001
  0
LINE
  5
79D
330
18
100
AcDbEntity
  8
1
  6
Continuous
100
AcDbLine
 10
125.5924725376083
 20
282.4724918068465
 30
0.0
 11
125.5924725376083
 21
280.1724878068467
 31
0.0
  0
ARC
  5
79E
330
18
100
AcDbEntity
  8
1
  6
Continuous
100
AcDbCircle
 10
135.1348165376081
 20
282.7320928068467
 30
0.0
 40
5.5
100
AcDbArc
 50
178.58658
 51
182.70542
  0
ARC
  5
79F
330
18
100
AcDbEntity
  8
1
  6
Continuous
100
AcDbCircle
 10
131.3511855376082
 20
289.6250818068466
 30
0.0
 40
1.5
100
AcDbArc
 50
189.842487
 51
270.0
  0
ARC
  5
7A0
330
18
100
AcDbEntity
  8
1
  6
Continuous
100
AcDbCircle
 10
131.3511855376082
 20
309.6250818068465
 30
0.0
 40
1.5
100
AcDbArc
 50
90.0
 51
170.1575129999999
  0
LINE
  5
7A1
330
18
100
AcDbEntity
  8
1
  6
Continuous
100
AcDbLine
 10
150.4901475376083
 20
278.9206458068466
 30
0.0
 11
150.4901475376083
 21
318.9206458068466
 31
0.0
  0
ARC
  5
7A2
330
18
100
AcDbEntity
  8
1
  6
Continuous
100
AcDbCircle
 10
139.6633275376083
 20
280.4724918068465
 30
0.0
 40
2.0
100
AcDbArc
 50
0.0
 51
90.00000300000001
  0
LINE
  5
7A3
330
18
100
AcDbEntity
  8
1
  6
Continuous
100
AcDbLine
 10
143.9567055376083
 20
284.4206468068465
 30
0.0
 11
144.6446505376082
 21
282.3960528068466
 31
0.0
  0
LINE
  5
7A4
330
18
100
AcDbEntity
  8
1
  6
Continuous
100
AcDbLine
 10
150.5360125376081
 20
278.1206468068467
 30
0.0
 11
143.8324405376083
 21
278.1206468068467
 31
0.0
  0
LINE
  5
7A5
330
18
100
AcDbEntity
  8
1
  6
Continuous
100
AcDbLine
 10
147.2386215376083
 20
280.4206458068467
 30
0.0
 11
143.9567075376082
 21
280.4206458068467
 31
0.0
  0
LINE
  5
7A6
330
18
100
AcDbEntity
  8
1
  6
Continuous
100
AcDbLine
 10
142.1977545376083
 20
282.1795968068467
 30
0.0
 11
143.6638115376083
 21
280.7135378068466
 31
0.0
  0
ARC
  5
7A7
330
18
100
AcDbEntity
  8
1
  6
Continuous
100
AcDbCircle
 10
143.6978195376081
 20
282.0743208068465
 30
0.0
 40
1.0
100
AcDbArc
 50
250.75752
 51
18.76742
  0
ARC
  5
7A8
330
18
100
AcDbEntity
  8
1
  6
Continuous
100
AcDbCircle
 10
143.8324405376083
 20
280.1206468068467
 30
0.0
 40
2.0
100
AcDbArc
 50
225.0
 51
270.0
  0
ARC
  5
7A9
330
18
100
AcDbEntity
  8
1
  6
Continuous
100
AcDbCircle
 10
141.4906435376081
 20
281.4724918068465
 30
0.0
 40
1.0
100
AcDbArc
 50
45.00000099999999
 51
90.00000300000001
  0
LINE
  5
7AA
330
18
100
AcDbEntity
  8
1
  6
Continuous
100
AcDbLine
 10
141.6633275376083
 20
279.4613338068466
 30
0.0
 11
142.4182275376083
 21
278.7064348068467
 31
0.0
  0
ARC
  5
7AB
330
18
100
AcDbEntity
  8
1
  6
Continuous
100
AcDbCircle
 10
144.3709155376082
 20
281.4206458068466
 30
0.0
 40
1.0
100
AcDbArc
 50
225.0
 51
270.0
  0
LINE
  5
7AC
330
18
100
AcDbEntity
  8
1
  6
Continuous
100
AcDbLine
 10
149.7369205376083
 20
283.1206468068467
 30
0.0
 11
150.4901475376083
 21
283.1206468068467
 31
0.0
  0
LINE
  5
7AD
330
18
100
AcDbEntity
  8
1
  6
Continuous
100
AcDbLine
 10
148.6804935376082
 20
282.3932508068466
 30
0.0
 11
148.1728175376081
 21
281.0638838068466
 31
0.0
  0
ARC
  5
7AE
330
18
100
AcDbEntity
  8
1
  6
Continuous
100
AcDbCircle
 10
149.7369205376083
 20
281.9898098068465
 30
0.0
 40
1.130835
100
AcDbArc
 50
90.00000300000001
 51
159.0984699999999
  0
ARC
  5
7AF
330
18
100
AcDbEntity
  8
1
  6
Continuous
100
AcDbCircle
 10
150.8073555376083
 20
281.9898098068465
 30
0.0
 40
1.130835
100
AcDbArc
 50
106.2904769999999
 51
159.0984699999999
  0
LINE
  5
7B0
330
18
100
AcDbEntity
  8
1
  6
Continuous
100
AcDbLine
 10
149.7509345376081
 20
282.3932508068466
 30
0.0
 11
148.6105495376082
 21
279.4071188068466
 31
0.0
  0
ARC
  5
7B1
330
18
100
AcDbEntity
  8
1
  6
Continuous
100
AcDbCircle
 10
146.7421615376083
 20
280.1206468068467
 30
0.0
 40
2.0
100
AcDbArc
 50
270.0
 51
339.09847
  0
ARC
  5
7B2
330
18
100
AcDbEntity
  8
1
  6
Continuous
100
AcDbCircle
 10
147.2386215376083
 20
281.4206458068466
 30
0.0
 40
1.0
100
AcDbArc
 50
270.0
 51
339.09847
  0
LINE
  5
7B3
330
18
100
AcDbEntity
  8
1
  6
Continuous
100
AcDbLine
 10
146.8219215376083
 20
285.2260148068467
 30
0.0
 11
143.3669485376083
 21
288.1250818068466
 31
0.0
  0
LINE
  5
7B4
330
18
100
AcDbEntity
  8
1
  6
Continuous
100
AcDbLine
 10
149.2401475376083
 20
284.8750818068465
 30
0.0
 11
149.2401475376083
 21
284.4206458068466
 31
0.0
  0
ARC
  5
7B5
330
18
100
AcDbEntity
  8
1
  6
Continuous
100
AcDbCircle
 10
147.7861035376081
 20
286.3750818068466
 30
0.0
 40
1.5
100
AcDbArc
 50
230.0
 51
270.0
  0
LINE
  5
7B6
330
18
100
AcDbEntity
  8
1
  6
Continuous
100
AcDbLine
 10
150.4901475376083
 20
284.8750818068465
 30
0.0
 11
147.7861035376081
 21
284.8750818068465
 31
0.0
  0
LINE
  5
7BA
330
18
100
AcDbEntity
  8
4
  6
CENTER
100
AcDbLine
 10
164.7401475376083
 20
280.9206458068467
 30
0.0
 11
152.2401475376083
 21
280.9206458068467
 31
0.0
  0
CIRCLE
  5
7BB
330
18
100
AcDbEntity
  8
1
  6
Continuous
100
AcDbCircle
 10
158.4901475376083
 20
280.9206458068467
 30
0.0
 40
3.25
  0
ARC
  5
7BF
330
18
100
AcDbEntity
  8
1
  6
Continuous
100
AcDbCircle
 10
157.4901475376083
 20
318.9206458068466
 30
0.0
 40
7.0
100
AcDbArc
 50
90.0
 51
180.0
  0
LINE
  5
7C0
330
18
100
AcDbEntity
  8
1
  6
Continuous
100
AcDbLine
 10
146.8219215376083
 20
314.0241488068467
 30
0.0
 11
143.3669485376083
 21
311.1250818068466
 31
0.0
  0
LINE
  5
7C1
330
18
100
AcDbEntity
  8
1
  6
Continuous
100
AcDbLine
 10
150.4901475376083
 20
314.3750818068466
 30
0.0
 11
147.7861035376081
 21
314.3750818068466
 31
0.0
  0
ARC
  5
7C2
330
18
100
AcDbEntity
  8
1
  6
Continuous
100
AcDbCircle
 10
147.7861035376081
 20
312.8750818068466
 30
0.0
 40
1.5
100
AcDbArc
 50
90.0
 51
130.0
  0
LINE
  5
7C3
330
18
100
AcDbEntity
  8
1
  6
Continuous
100
AcDbLine
 10
149.2401475376083
 20
314.3750818068466
 30
0.0
 11
149.2401475376083
 21
314.8750818068466
 31
0.0
  0
LINE
  5
7C4
330
18
100
AcDbEntity
  8
1
  6
Continuous
100
AcDbLine
 10
149.2401475376083
 20
314.8750818068466
 30
0.0
 11
150.4901475376083
 21
314.8750818068466
 31
0.0
  0
LINE
  5
7C6
330
18
100
AcDbEntity
  8
4
  6
CENTER
100
AcDbLine
 10
158.4901475376083
 20
310.6706458068466
 30
0.0
 11
158.4901475376083
 21
323.1706458068466
 31
0.0
  0
CIRCLE
  5
7C7
330
18
100
AcDbEntity
  8
1
  6
Continuous
100
AcDbCircle
 10
158.4901475376083
 20
316.9206458068466
 30
0.0
 40
3.25
  0
LINE
  5
7C8
330
18
100
AcDbEntity
  8
4
  6
CENTER
100
AcDbLine
 10
164.7401475376083
 20
316.9206458068466
 30
0.0
 11
152.2401475376083
 21
316.9206458068466
 31
0.0
  0
LINE
  5
7CE
330
18
100
AcDbEntity
  8
4
  6
CENTER
100
AcDbLine
 10
218.7401475376083
 20
280.9206458068467
 30
0.0
 11
206.2401475376083
 21
280.9206458068467
 31
0.0
  0
LINE
  5
7CF
330
18
100
AcDbEntity
  8
4
  6
CENTER
100
AcDbLine
 10
218.7401475376083
 20
316.9206458068466
 30
0.0
 11
206.2401475376083
 21
316.9206458068466
 31
0.0
  0
CIRCLE
  5
7D0
330
18
100
AcDbEntity
  8
1
  6
Continuous
100
AcDbCircle
 10
185.4901475376083
 20
298.9206458068466
 30
0.0
 40
12.0
  0
LINE
  5
7D1
330
18
100
AcDbEntity
  8
1
  6
Continuous
100
AcDbLine
 10
220.4901475376083
 20
278.9206458068466
 30
0.0
 11
220.4901475376083
 21
318.9206458068466
 31
0.0
  0
CIRCLE
  5
7D2
330
18
100
AcDbEntity
  8
1
  6
Continuous
100
AcDbCircle
 10
212.4901475376083
 20
280.9206458068467
 30
0.0
 40
3.25
  0
LINE
  5
7D3
330
18
100
AcDbEntity
  8
4
  6
CENTER
100
AcDbLine
 10
212.4901475376083
 20
310.6706458068466
 30
0.0
 11
212.4901475376083
 21
323.1706458068466
 31
0.0
  0
CIRCLE
  5
7D4
330
18
100
AcDbEntity
  8
1
  6
Continuous
100
AcDbCircle
 10
212.4901475376083
 20
316.9206458068466
 30
0.0
 40
3.25
  0
ARC
  5
7D5
330
18
100
AcDbEntity
  8
1
  6
Continuous
100
AcDbCircle
 10
213.4901475376083
 20
318.9206458068466
 30
0.0
 40
7.0
100
AcDbArc
 50
0.0
 51
90.0
  0
LINE
  5
7D6
330
18
100
AcDbEntity
  8
1
  6
Continuous
100
AcDbLine
 10
394.1084615376082
 20
169.2912918068466
 30
0.0
 11
393.3811355376082
 21
171.4732718068467
 31
0.0
  0
ARC
  5
7D7
330
18
100
AcDbEntity
  8
5
  6
PHANTOM
100
AcDbCircle
 10
437.1603235376081
 20
181.5627828068467
 30
0.0
 40
33.26602199999999
100
AcDbArc
 50
337.7863200000001
 51
345.2333299999998
  0
LINE
  5
7D8
330
18
100
AcDbEntity
  8
4
  6
CENTER
100
AcDbLine
 10
431.4947375376081
 20
139.2178818068467
 30
0.0
 11
431.4947375376081
 21
207.8914678068467
 31
0.0
  0
ARC
  5
7D9
330
18
100
AcDbEntity
  8
1
  6
Continuous
100
AcDbCircle
 10
430.3947375376083
 20
176.1178818068467
 30
0.0
 40
11.0
100
AcDbArc
 50
213.672541
 51
14.14360199999999
  0
LINE
  5
7DA
330
18
100
AcDbEntity
  8
1
  6
Continuous
100
AcDbLine
 10
400.3033175376083
 20
203.5662128068466
 30
0.0
 11
421.240318537608
 21
170.0189798068466
 31
0.0
  0
ARC
  5
7DB
330
18
100
AcDbEntity
  8
1
  6
Continuous
100
AcDbCircle
 10
431.4947375376081
 20
175.7178818068467
 30
0.0
 40
11.25
100
AcDbArc
 50
234.7546669999999
 51
39.181111
  0
ARC
  5
7DC
330
18
100
AcDbEntity
  8
1
  6
Continuous
100
AcDbCircle
 10
431.4947375376081
 20
175.7178818068467
 30
0.0
 40
24.0
100
AcDbArc
 50
151.190096
 51
77.26906899999999
  0
ARC
  5
7DD
330
18
100
AcDbEntity
  8
1
  6
Continuous
100
AcDbCircle
 10
431.4947375376081
 20
175.7178818068467
 30
0.0
 40
31.5
100
AcDbArc
 50
143.80463
 51
83.38217299999998
  0
ARC
  5
7DE
330
18
100
AcDbEntity
  8
1
  6
Continuous
100
AcDbCircle
 10
431.4947375376081
 20
175.7178818068467
 30
0.0
 40
17.123299
100
AcDbArc
 50
165.1447409999998
 51
66.16486
  0
ARC
  5
7DF
330
18
100
AcDbEntity
  8
1
  6
Continuous
100
AcDbCircle
 10
444.0748005376083
 20
170.2880418068466
 30
0.0
 40
20.47908
100
AcDbArc
 50
340.32308
 51
19.98306999999998
  0
LINE
  5
7E0
330
18
100
AcDbEntity
  8
1
  6
Continuous
100
AcDbLine
 10
280.0482925376083
 20
157.3218918068466
 30
0.0
 11
280.0482925376083
 21
172.7165718068466
 31
0.0
  0
ARC
  5
7E1
330
18
100
AcDbEntity
  8
1
  6
Continuous
100
AcDbCircle
 10
277.0482925376083
 20
168.4731718068467
 30
0.0
 40
3.0
100
AcDbArc
 50
0.0
 51
90.00000300000001
  0
LINE
  5
7E2
330
18
100
AcDbEntity
  8
1
  6
Continuous
100
AcDbLine
 10
282.2527425376083
 20
170.2113318068467
 30
0.0
 11
276.8964625376081
 21
178.7665618068467
 31
0.0
  0
ARC
  5
7E3
330
18
100
AcDbEntity
  8
1
  6
Continuous
100
AcDbCircle
 10
232.7496725376083
 20
173.4402718068467
 30
0.0
 40
50.0
100
AcDbArc
 50
341.44265
 51
17.669645
  0
ARC
  5
7E4
330
18
100
AcDbEntity
  8
1
  6
Continuous
100
AcDbCircle
 10
232.7496725376083
 20
173.4402718068467
 30
0.0
 40
50.5
100
AcDbArc
 50
341.44265
 51
17.669645
  0
ARC
  5
7E5
330
18
100
AcDbEntity
  8
1
  6
Continuous
100
AcDbCircle
 10
256.4839925376082
 20
171.6628918068466
 30
0.0
 40
1.435702
100
AcDbArc
 50
179.9999899999999
 51
252.4515799999998
  0
ARC
  5
7E6
330
18
100
AcDbEntity
  8
1
  6
Continuous
100
AcDbCircle
 10
307.2927425376082
 20
175.7177828068467
 30
0.0
 40
11.40175399999999
100
AcDbArc
 50
322.1250109999998
 51
12.87664213213673
  0
LINE
  5
7E7
330
18
100
AcDbEntity
  8
1
  6
Continuous
100
AcDbLine
 10
316.2927425376082
 20
168.7177818068467
 30
0.0
 11
316.2927425376082
 21
174.2931758068466
 31
0.0
  0
CIRCLE
  5
7E8
330
18
100
AcDbEntity
  8
1
  6
Continuous
100
AcDbCircle
 10
431.4947375376081
 20
175.7178818068467
 30
0.0
 40
7.0
  0
LINE
  5
7E9
330
18
100
AcDbEntity
  8
1
  6
Continuous
100
AcDbLine
 10
284.4924425376082
 20
146.5788198068467
 30
0.0
 11
284.4924425376082
 21
204.8567438068466
 31
0.0
  0
LINE
  5
7EA
330
18
100
AcDbEntity
  8
1
  6
Continuous
100
AcDbLine
 10
307.4924425376082
 20
146.5788198068467
 30
0.0
 11
307.4924425376082
 21
204.8567438068466
 31
0.0
  0
LINE
  5
7EB
330
18
100
AcDbEntity
  8
1
  6
Continuous
100
AcDbLine
 10
310.7424425376084
 20
163.0137368068466
 30
0.0
 11
310.7424425376084
 21
188.4218258068467
 31
0.0
  0
LINE
  5
7EC
330
18
100
AcDbEntity
  8
1
  6
Continuous
100
AcDbLine
 10
311.2424425376083
 20
186.9677818068465
 30
0.0
 11
311.2424425376083
 21
164.4677818068467
 31
0.0
  0
ARC
  5
7ED
330
18
100
AcDbEntity
  8
1
  6
Continuous
100
AcDbCircle
 10
319.4198495376083
 20
168.8397018068467
 30
0.0
 40
8.0
100
AcDbArc
 50
142.4280659999998
 51
179.390434
  0
ARC
  5
7EE
330
18
100
AcDbEntity
  8
1
  6
Continuous
100
AcDbCircle
 10
321.7116905376081
 20
168.0605358068467
 30
0.0
 40
8.0
100
AcDbArc
 50
143.6639909999998
 51
179.390432
  0
LINE
  5
7EF
330
18
100
AcDbEntity
  8
1
  6
Continuous
100
AcDbLine
 10
311.8410075376081
 20
208.4672098068467
 30
0.0
 11
311.3796695376084
 21
165.1057188068466
 31
0.0
  0
LINE
  5
7F0
330
18
100
AcDbEntity
  8
4
  6
CENTER
100
AcDbLine
 10
295.9924425376082
 20
229.2176648068467
 30
0.0
 11
295.9924425376082
 21
139.2177818068467
 31
0.0
  0
ARC
  5
7F1
330
18
100
AcDbEntity
  8
1
  6
Continuous
100
AcDbCircle
 10
404.8762835376083
 20
165.4624218068467
 30
0.0
 40
8.284706999999999
100
AcDbArc
 50
203.96249
 51
270.97681
  0
ARC
  5
7F2
330
18
100
AcDbEntity
  8
1
  6
Continuous
100
AcDbCircle
 10
295.9924425376082
 20
204.2177818068467
 30
0.0
 40
60.0
100
AcDbArc
 50
260.157513
 51
279.842487
  0
LINE
  5
7F3
330
18
100
AcDbEntity
  8
1
  6
Continuous
100
AcDbLine
 10
276.7482825376083
 20
169.2911918068467
 30
0.0
 11
262.5482925376083
 21
169.2911918068467
 31
0.0
  0
ARC
  5
7F4
330
18
100
AcDbEntity
  8
1
  6
Continuous
100
AcDbCircle
 10
262.5482925376083
 20
190.8398818068467
 30
0.0
 40
21.548689
100
AcDbArc
 50
252.4515899999999
 51
270.0
  0
ARC
  5
7F5
330
18
100
AcDbEntity
  8
1
  6
Continuous
100
AcDbCircle
 10
274.1629925376082
 20
176.9979218068466
 30
0.0
 40
20.0
100
AcDbArc
 50
261.84785
 51
280.32692
  0
ARC
  5
7F6
330
18
100
AcDbEntity
  8
1
  6
Continuous
100
AcDbCircle
 10
271.6105625376082
 20
159.1798018068465
 30
0.0
 40
2.0
100
AcDbArc
 50
203.47034
 51
261.84785
  0
ARC
  5
7F7
330
18
100
AcDbEntity
  8
1
  6
Continuous
100
AcDbCircle
 10
285.9924425376082
 20
146.5788198068467
 30
0.0
 40
1.5
100
AcDbArc
 50
180.0
 51
260.157513
  0
LINE
  5
7F8
330
18
100
AcDbEntity
  8
1
  6
Continuous
100
AcDbLine
 10
269.7765025376082
 20
158.3821818068467
 30
0.0
 11
269.7765025376082
 21
169.2911918068467
 31
0.0
  0
LINE
  5
7F9
330
18
100
AcDbEntity
  8
1
  6
Continuous
100
AcDbLine
 10
277.7482825376083
 20
157.3218918068466
 30
0.0
 11
277.7482825376083
 21
168.2911918068467
 31
0.0
  0
LINE
  5
7FA
330
18
100
AcDbEntity
  8
1
  6
Continuous
100
AcDbLine
 10
280.1499625376082
 20
157.5275818068466
 30
0.0
 11
280.6239625376083
 21
157.3684618068466
 31
0.0
  0
LINE
  5
7FB
330
18
100
AcDbEntity
  8
1
  6
Continuous
100
AcDbLine
 10
280.0482925376083
 20
157.3218918068466
 30
0.0
 11
277.7482825376083
 21
157.3218918068466
 31
0.0
  0
LINE
  5
7FC
330
18
100
AcDbEntity
  8
1
  6
Continuous
100
AcDbLine
 10
281.8706025376082
 20
161.7191698068467
 30
0.0
 11
284.4924425376082
 21
158.5945828068467
 31
0.0
  0
ARC
  5
7FD
330
18
100
AcDbEntity
  8
1
  6
Continuous
100
AcDbCircle
 10
276.7482825376083
 20
168.2911918068467
 30
0.0
 40
1.0
100
AcDbArc
 50
0.0
 51
90.00000300000001
  0
ARC
  5
7FE
330
18
100
AcDbEntity
  8
1
  6
Continuous
100
AcDbCircle
 10
280.5575625376082
 20
169.1500018068467
 30
0.0
 40
2.0
100
AcDbArc
 50
354.8720299999998
 51
32.049864
  0
ARC
  5
7FF
330
18
100
AcDbEntity
  8
1
  6
Continuous
100
AcDbCircle
 10
305.9924425376082
 20
146.5788198068467
 30
0.0
 40
1.5
100
AcDbArc
 50
279.842487
 51
0.0
  0
LINE
  5
800
330
18
100
AcDbEntity
  8
1
  6
Continuous
100
AcDbLine
 10
316.2927425376082
 20
168.7177818068467
 30
0.0
 11
313.7927425376082
 21
168.7177818068467
 31
0.0
  0
LINE
  5
801
330
18
100
AcDbEntity
  8
1
  6
Continuous
100
AcDbLine
 10
310.3915095376083
 20
162.0495558068466
 30
0.0
 11
307.4924425376082
 21
158.5945828068467
 31
0.0
  0
ARC
  5
802
330
18
100
AcDbEntity
  8
1
  6
Continuous
100
AcDbCircle
 10
309.2424425376083
 20
163.0137368068466
 30
0.0
 40
1.5
100
AcDbArc
 50
320.0
 51
0.0
  0
LINE
  5
803
330
18
100
AcDbEntity
  8
1
  6
Continuous
100
AcDbLine
 10
311.2424425376083
 20
170.2177818068465
 30
0.0
 11
311.4340585376082
 21
170.2177818068465
 31
0.0
  0
LINE
  5
804
330
18
100
AcDbEntity
  8
1
  6
Continuous
100
AcDbLine
 10
310.7424425376084
 20
164.4677818068467
 30
0.0
 11
311.2424425376083
 21
164.4677818068467
 31
0.0
  0
LINE
  5
805
330
18
100
AcDbEntity
  8
1
  6
Continuous
100
AcDbLine
 10
313.7121425376081
 20
168.1456458068466
 30
0.0
 11
313.6797995376083
 21
165.1057188068466
 31
0.0
  0
LINE
  5
806
330
18
100
AcDbEntity
  8
1
  6
Continuous
100
AcDbLine
 10
311.3961945376082
 20
165.1057188068466
 30
0.0
 11
313.6797995376083
 21
165.1057188068466
 31
0.0
  0
LINE
  5
807
330
18
100
AcDbEntity
  8
1
  6
Continuous
100
AcDbLine
 10
394.1084615376082
 20
169.2913118068467
 30
0.0
 11
397.3056275376082
 21
162.0976918068466
 31
0.0
  0
LINE
  5
808
330
18
100
AcDbEntity
  8
1
  6
Continuous
100
AcDbLine
 10
406.0155845376083
 20
157.1959298068467
 30
0.0
 11
405.0175155376083
 21
157.1789118068467
 31
0.0
  0
ARC
  5
809
330
18
100
AcDbEntity
  8
1
  6
Continuous
100
AcDbCircle
 10
456.7667865376082
 20
165.7494018068467
 30
0.0
 40
5.5
100
AcDbArc
 50
297.013083
 51
13.39797
  0
ARC
  5
80A
330
18
100
AcDbEntity
  8
1
  6
Continuous
100
AcDbCircle
 10
456.7667865376082
 20
165.7494018068467
 30
0.0
 40
7.0
100
AcDbArc
 50
281.1248759999999
 51
340.32309
  0
ARC
  5
80B
330
18
100
AcDbEntity
  8
5
  6
PHANTOM
100
AcDbCircle
 10
454.0706505376081
 20
174.6571038068467
 30
0.0
 40
15.0
100
AcDbArc
 50
289.534237
 51
337.7863200000001
  0
LINE
  5
80C
330
18
100
AcDbEntity
  8
1
  6
Continuous
100
AcDbLine
 10
461.9566065376082
 20
167.6976238068466
 30
0.0
 11
462.1171015376083
 21
167.0238318068466
 31
0.0
  0
LINE
  5
80D
330
18
100
AcDbEntity
  8
1
  6
Continuous
100
AcDbLine
 10
401.6663105376081
 20
215.1795558068467
 30
0.0
 11
403.6663105376083
 21
216.6725558068467
 31
0.0
  0
LINE
  5
80E
330
18
100
AcDbEntity
  8
1
  6
Continuous
100
AcDbLine
 10
402.8378835376082
 20
215.1795558068467
 30
0.0
 11
400.8378835376082
 21
216.6725558068467
 31
0.0
  0
LINE
  5
80F
330
18
100
AcDbEntity
  8
1
  6
Continuous
100
AcDbLine
 10
371.4947375376083
 20
221.9174168068467
 30
0.0
 11
441.4947375376083
 21
221.9174168068467
 31
0.0
  0
LINE
  5
810
330
18
100
AcDbEntity
  8
1
  6
Continuous
100
AcDbLine
 10
386.7388535376083
 20
219.8925558068467
 30
0.0
 11
426.2506215376083
 21
219.8925558068467
 31
0.0
  0
LINE
  5
811
330
18
100
AcDbEntity
  8
1
  6
Continuous
100
AcDbLine
 10
371.4947375376083
 20
224.2176998068467
 30
0.0
 11
441.4947375376083
 21
224.2176998068467
 31
0.0
  0
LINE
  5
812
330
18
100
AcDbEntity
  8
1
  6
Continuous
100
AcDbLine
 10
384.3196535376084
 20
218.1548168068465
 30
0.0
 11
428.6698215376083
 21
218.1548168068465
 31
0.0
  0
LINE
  5
813
330
18
100
AcDbEntity
  8
1
  6
Continuous
100
AcDbLine
 10
383.4947375376083
 20
216.6725558068467
 30
0.0
 11
429.4947375376083
 21
216.6725558068467
 31
0.0
  0
LINE
  5
814
330
18
100
AcDbEntity
  8
1
  6
Continuous
100
AcDbLine
 10
429.4947375376083
 20
215.1795558068467
 30
0.0
 11
383.4947375376083
 21
215.1795558068467
 31
0.0
  0
LINE
  5
815
330
18
100
AcDbEntity
  8
1
  6
Continuous
100
AcDbLine
 10
400.2520965376083
 20
215.1795558068467
 30
0.0
 11
402.2520965376081
 21
216.6725558068467
 31
0.0
  0
ARC
  5
816
330
18
100
AcDbEntity
  8
1
  6
Continuous
100
AcDbCircle
 10
405.2928715376081
 20
181.7685518068465
 30
0.0
 40
7.0
100
AcDbArc
 50
112.773793
 51
173.3674639999999
  0
LINE
  5
817
330
18
100
AcDbEntity
  8
5
  6
PHANTOM
100
AcDbLine
 10
396.6388685376084
 20
191.7094978068466
 30
0.0
 11
403.5098575376081
 21
190.1780508068467
 31
0.0
  0
LINE
  5
818
330
18
100
AcDbEntity
  8
4
  6
CENTER
100
AcDbLine
 10
394.9947375376082
 20
175.7178818068467
 30
0.0
 11
467.9947375376081
 21
175.7178818068467
 31
0.0
  0
LINE
  5
819
330
18
100
AcDbEntity
  8
1
  6
Continuous
100
AcDbLine
 10
322.9924425376082
 20
224.2176648068466
 30
0.0
 11
322.9924425376082
 21
221.9173818068466
 31
0.0
  0
LINE
  5
81A
330
18
100
AcDbEntity
  8
1
  6
Continuous
100
AcDbLine
 10
268.9924425376082
 20
224.2176648068466
 30
0.0
 11
268.9924425376082
 21
221.9173818068466
 31
0.0
  0
LINE
  5
81B
330
18
100
AcDbEntity
  8
4
  6
CENTER
100
AcDbLine
 10
313.9924425376082
 20
229.2176648068467
 30
0.0
 11
313.9924425376082
 21
216.9173818068465
 31
0.0
  0
LINE
  5
81C
330
18
100
AcDbEntity
  8
4
  6
CENTER
100
AcDbLine
 10
277.9924425376083
 20
229.2176648068467
 30
0.0
 11
277.9924425376083
 21
216.9173818068465
 31
0.0
  0
LINE
  5
81D
330
18
100
AcDbEntity
  8
1
  6
Continuous
100
AcDbLine
 10
307.3207175376082
 20
205.5536578068467
 30
0.0
 11
284.6641685376083
 21
205.5536578068467
 31
0.0
  0
LINE
  5
81E
330
18
100
AcDbEntity
  8
4
  6
CENTER
100
AcDbLine
 10
262.8096245376083
 20
175.7177818068467
 30
0.0
 11
324.3416815376081
 21
175.7177818068467
 31
0.0
  0
LINE
  5
81F
330
18
100
AcDbEntity
  8
1
  6
Continuous
100
AcDbLine
 10
286.6787335376082
 20
215.1795198068467
 30
0.0
 11
284.6787335376082
 21
216.6725198068467
 31
0.0
  0
LINE
  5
820
330
18
100
AcDbEntity
  8
1
  6
Continuous
100
AcDbLine
 10
285.5071615376083
 20
215.1795198068467
 30
0.0
 11
287.5071615376083
 21
216.6725198068467
 31
0.0
  0
LINE
  5
821
330
18
100
AcDbEntity
  8
1
  6
Continuous
100
AcDbLine
 10
318.9924425376082
 20
215.1795198068467
 30
0.0
 11
272.9924425376082
 21
215.1795198068467
 31
0.0
  0
LINE
  5
822
330
18
100
AcDbEntity
  8
1
  6
Continuous
100
AcDbLine
 10
275.0637275376082
 20
208.4672098068467
 30
0.0
 11
316.9211575376082
 21
208.4672098068467
 31
0.0
  0
LINE
  5
823
330
18
100
AcDbEntity
  8
1
  6
Continuous
100
AcDbLine
 10
272.9924425376082
 20
216.6725198068467
 30
0.0
 11
318.9924425376082
 21
216.6725198068467
 31
0.0
  0
LINE
  5
824
330
18
100
AcDbEntity
  8
1
  6
Continuous
100
AcDbLine
 10
273.8173585376081
 20
218.1547818068467
 30
0.0
 11
318.1675265376083
 21
218.1547818068467
 31
0.0
  0
LINE
  5
825
330
18
100
AcDbEntity
  8
1
  6
Continuous
100
AcDbLine
 10
276.2365585376083
 20
219.8925198068467
 30
0.0
 11
315.7483265376083
 21
219.8925198068467
 31
0.0
  0
LINE
  5
826
330
18
100
AcDbEntity
  8
1
  6
Continuous
100
AcDbLine
 10
268.9924425376082
 20
221.9173818068466
 30
0.0
 11
322.9924425376082
 21
221.9173818068466
 31
0.0
  0
LINE
  5
827
330
18
100
AcDbEntity
  8
1
  6
Continuous
100
AcDbLine
 10
280.1438785376082
 20
208.4672098068467
 30
0.0
 11
280.3694275376082
 21
187.2676778068466
 31
0.0
  0
ARC
  5
828
330
18
100
AcDbEntity
  8
1
  6
Continuous
100
AcDbCircle
 10
353.3266355376083
 20
189.4850058068465
 30
0.0
 40
79.784193
100
AcDbArc
 50
167.389352
 51
180.0
  0
ARC
  5
829
330
18
100
AcDbEntity
  8
1
  6
Continuous
100
AcDbCircle
 10
353.3266355376083
 20
189.4850058068465
 30
0.0
 40
82.084193
100
AcDbArc
 50
167.757229
 51
180.0
  0
LINE
  5
82A
330
18
100
AcDbEntity
  8
1
  6
Continuous
100
AcDbLine
 10
271.2424425376084
 20
211.1912238068467
 30
0.0
 11
271.2424425376084
 21
189.4850058068465
 31
0.0
  0
LINE
  5
82B
330
18
100
AcDbEntity
  8
1
  6
Continuous
100
AcDbLine
 10
277.0482925376083
 20
171.4731718068467
 30
0.0
 11
262.5482925376083
 21
171.4731718068467
 31
0.0
  0
ARC
  5
82C
330
18
100
AcDbEntity
  8
1
  6
Continuous
100
AcDbCircle
 10
267.0442925376081
 20
209.6554318068467
 30
0.0
 40
21.548689
100
AcDbArc
 50
252.4515899999999
 51
270.0
  0
ARC
  5
82D
330
18
100
AcDbEntity
  8
1
  6
Continuous
100
AcDbCircle
 10
267.0442925376081
 20
173.4834418068467
 30
0.0
 40
21.548689
100
AcDbArc
 50
90.00000300000001
 51
107.5484099999999
  0
ARC
  5
82E
330
18
100
AcDbEntity
  8
1
  6
Continuous
100
AcDbCircle
 10
267.0442925376081
 20
211.8373918068466
 30
0.0
 40
21.548689
100
AcDbArc
 50
252.4515899999999
 51
270.0
  0
LINE
  5
82F
330
18
100
AcDbEntity
  8
1
  6
Continuous
100
AcDbLine
 10
272.3807525376082
 20
176.2165718068466
 30
0.0
 11
262.5482925376083
 21
176.2165718068466
 31
0.0
  0
ARC
  5
830
330
18
100
AcDbEntity
  8
1
  6
Continuous
100
AcDbCircle
 10
262.5482925376083
 20
193.0218618068465
 30
0.0
 40
21.548689
100
AcDbArc
 50
252.4515899999999
 51
270.0
  0
ARC
  5
831
330
18
100
AcDbEntity
  8
1
  6
Continuous
100
AcDbCircle
 10
262.5482925376083
 20
154.6679018068467
 30
0.0
 40
21.548689
100
AcDbArc
 50
90.00000300000001
 51
107.5484099999999
  0
LINE
  5
832
330
18
100
AcDbEntity
  8
1
  6
Continuous
100
AcDbLine
 10
255.0482925376082
 20
173.8448718068467
 30
0.0
 11
255.0482925376082
 21
171.6628918068466
 31
0.0
  0
ARC
  5
833
330
18
100
AcDbEntity
  8
1
  6
Continuous
100
AcDbCircle
 10
256.4839925376082
 20
173.8448718068467
 30
0.0
 40
1.435702
100
AcDbArc
 50
107.5484099999999
 51
252.4515799999998
  0
LINE
  5
834
330
18
100
AcDbEntity
  8
1
  6
Continuous
100
AcDbLine
 10
259.5442925376083
 20
192.6604218068467
 30
0.0
 11
259.5442925376083
 21
190.4784518068465
 31
0.0
  0
LINE
  5
835
330
18
100
AcDbEntity
  8
1
  6
Continuous
100
AcDbLine
 10
259.5442925376083
 20
190.4784518068465
 30
0.0
 11
259.5442925376083
 21
192.6604218068467
 31
0.0
  0
ARC
  5
836
330
18
100
AcDbEntity
  8
1
  6
Continuous
100
AcDbCircle
 10
260.9799925376083
 20
190.4784518068465
 30
0.0
 40
1.435702
100
AcDbArc
 50
179.9999899999999
 51
252.4515799999998
  0
ARC
  5
837
330
18
100
AcDbEntity
  8
1
  6
Continuous
100
AcDbCircle
 10
260.9799925376083
 20
192.6604218068467
 30
0.0
 40
1.435702
100
AcDbArc
 50
107.5484099999999
 51
252.4515799999998
  0
ARC
  5
838
330
18
100
AcDbEntity
  8
1
  6
Continuous
100
AcDbCircle
 10
281.5581925376083
 20
181.6851718068467
 30
0.0
 40
5.5
100
AcDbArc
 50
107.7627399999997
 51
212.0498599999999
  0
ARC
  5
839
330
18
100
AcDbEntity
  8
1
  6
Continuous
100
AcDbCircle
 10
299.4006925376082
 20
189.4850058068465
 30
0.0
 40
25.85825
100
AcDbArc
 50
180.0
 51
212.277167
  0
ARC
  5
83A
330
18
100
AcDbEntity
  8
1
  6
Continuous
100
AcDbCircle
 10
299.4006925376082
 20
189.4850058068465
 30
0.0
 40
28.15825
100
AcDbArc
 50
180.0
 51
209.272659
  0
LINE
  5
83B
330
18
100
AcDbEntity
  8
1
  6
Continuous
100
AcDbLine
 10
277.0482925376083
 20
175.7165718068466
 30
0.0
 11
272.3807525376082
 21
175.7165718068466
 31
0.0
  0
LINE
  5
83C
330
18
100
AcDbEntity
  8
1
  6
Continuous
100
AcDbLine
 10
267.8096245376081
 20
176.2165718068466
 30
0.0
 11
267.8096245376081
 21
178.9177818068466
 31
0.0
  0
LINE
  5
83D
330
18
100
AcDbEntity
  8
1
  6
Continuous
100
AcDbLine
 10
268.6924425376082
 20
181.7177818068465
 30
0.0
 11
268.6924425376082
 21
176.2165718068466
 31
0.0
  0
ARC
  5
83E
330
18
100
AcDbEntity
  8
1
  6
Continuous
100
AcDbCircle
 10
280.1565445376083
 20
175.7177818068467
 30
0.0
 40
11.464102
100
AcDbArc
 50
162.412046
 51
177.5063389999999
  0
LINE
  5
83F
330
18
100
AcDbEntity
  8
1
  6
Continuous
100
AcDbLine
 10
268.6096245376083
 20
179.7177818068465
 30
0.0
 11
268.6096245376083
 21
176.2165718068466
 31
0.0
  0
LINE
  5
840
330
18
100
AcDbEntity
  8
1
  6
Continuous
100
AcDbLine
 10
272.0033825376081
 20
177.8721518068465
 30
0.0
 11
272.0033825376081
 21
177.1514518068467
 31
0.0
  0
LINE
  5
841
330
18
100
AcDbEntity
  8
1
  6
Continuous
100
AcDbLine
 10
269.7765025376082
 20
176.2165718068466
 30
0.0
 11
269.7765025376082
 21
178.6359618068465
 31
0.0
  0
ARC
  5
842
330
18
100
AcDbEntity
  8
1
  6
Continuous
100
AcDbCircle
 10
274.7479625376082
 20
177.5705918068467
 30
0.0
 40
5.0
100
AcDbArc
 50
186.12377
 51
195.7121199999997
  0
LINE
  5
843
330
18
100
AcDbEntity
  8
1
  6
Continuous
100
AcDbLine
 10
272.3807525376082
 20
175.7165718068466
 30
0.0
 11
272.3807525376082
 21
176.2165718068466
 31
0.0
  0
ARC
  5
844
330
18
100
AcDbEntity
  8
1
  6
Continuous
100
AcDbCircle
 10
273.9877425376083
 20
177.4010718068465
 30
0.0
 40
2.0
100
AcDbArc
 50
187.6165399999999
 51
237.3782600000001
  0
ARC
  5
845
330
18
100
AcDbEntity
  8
1
  6
Continuous
100
AcDbCircle
 10
288.9563525376082
 20
172.9673818068466
 30
0.0
 40
20.0
100
AcDbArc
 50
148.4983689999999
 51
163.53507
  0
ARC
  5
846
330
18
100
AcDbEntity
  8
1
  6
Continuous
100
AcDbCircle
 10
271.7594305376083
 20
180.9139348068467
 30
0.0
 40
3.066986999999998
100
AcDbArc
 50
154.3842469999999
 51
214.384247
  0
LINE
  5
847
330
18
100
AcDbEntity
  8
1
  6
Continuous
100
AcDbLine
 10
269.2283415376083
 20
182.6459858068465
 30
0.0
 11
268.6924425376082
 21
181.7177818068465
 31
0.0
  0
LINE
  5
848
330
18
100
AcDbEntity
  8
1
  6
Continuous
100
AcDbLine
 10
268.6924425376082
 20
179.7177818068465
 30
0.0
 11
268.6096245376083
 21
179.7177818068465
 31
0.0
  0
LINE
  5
849
330
18
100
AcDbEntity
  8
2
  6
Continuous
100
AcDbLine
 10
267.9331245376083
 20
179.0412818068467
 30
0.0
 11
268.6924425376082
 21
179.0412818068467
 31
0.0
  0
LINE
  5
84A
330
18
100
AcDbEntity
  8
1
  6
Continuous
100
AcDbLine
 10
267.8096245376081
 20
178.9177818068466
 30
0.0
 11
268.6096245376083
 21
179.7177818068465
 31
0.0
  0
LINE
  5
84B
330
18
100
AcDbEntity
  8
1
  6
Continuous
100
AcDbLine
 10
269.9463565376082
 20
179.1818838068465
 30
0.0
 11
269.2283415376083
 21
179.1818838068465
 31
0.0
  0
LINE
  5
84C
330
18
100
AcDbEntity
  8
1
  6
Continuous
100
AcDbLine
 10
271.4542205376082
 20
182.6459858068465
 30
0.0
 11
269.2283415376083
 21
182.6459858068465
 31
0.0
  0
ARC
  5
84D
330
18
100
AcDbEntity
  8
1
  6
Continuous
100
AcDbCircle
 10
288.9563525376082
 20
172.9673818068466
 30
0.0
 40
17.648243
100
AcDbArc
 50
155.9887899999999
 51
163.864
  0
LINE
  5
84E
330
18
100
AcDbEntity
  8
1
  6
Continuous
100
AcDbLine
 10
277.4924425376084
 20
175.7165718068466
 30
0.0
 11
277.4924425376084
 21
177.8146418068465
 31
0.0
  0
ARC
  5
84F
330
18
100
AcDbEntity
  8
1
  6
Continuous
100
AcDbCircle
 10
277.0482925376083
 20
172.7165718068466
 30
0.0
 40
3.0
100
AcDbArc
 50
0.0
 51
90.00000300000001
  0
LINE
  5
850
330
18
100
AcDbEntity
  8
1
  6
Continuous
100
AcDbLine
 10
271.2463775376082
 20
190.2887218068467
 30
0.0
 11
267.0442925376081
 21
190.2887218068467
 31
0.0
  0
LINE
  5
851
330
18
100
AcDbEntity
  8
1
  6
Continuous
100
AcDbLine
 10
271.2761945376082
 20
188.1067418068465
 30
0.0
 11
267.0442925376081
 21
188.1067418068465
 31
0.0
  0
ARC
  5
852
330
18
100
AcDbEntity
  8
1
  6
Continuous
100
AcDbCircle
 10
299.4006925376082
 20
189.4850058068465
 30
0.0
 40
28.15825
100
AcDbArc
 50
180.0
 51
182.984359
  0
LINE
  5
853
330
18
100
AcDbEntity
  8
1
  6
Continuous
100
AcDbLine
 10
271.4300905376083
 20
195.0321318068467
 30
0.0
 11
267.0442925376081
 21
195.0321318068467
 31
0.0
  0
LINE
  5
854
330
18
100
AcDbEntity
  8
1
  6
Continuous
100
AcDbLine
 10
281.5933755376082
 20
189.3860078068465
 30
0.0
 11
284.4924425376082
 21
192.8409808068465
 31
0.0
  0
ARC
  5
855
330
18
100
AcDbEntity
  8
1
  6
Continuous
100
AcDbCircle
 10
282.7424425376081
 20
188.4218258068467
 30
0.0
 40
1.5
100
AcDbArc
 50
140.0
 51
180.0
  0
LINE
  5
856
330
18
100
AcDbEntity
  8
1
  6
Continuous
100
AcDbLine
 10
280.8672125376081
 20
188.7684518068467
 30
0.0
 11
280.3908025376081
 21
188.6166918068465
 31
0.0
  0
ARC
  5
857
330
18
100
AcDbEntity
  8
1
  6
Continuous
100
AcDbCircle
 10
279.5752025376083
 20
187.8753018068465
 30
0.0
 40
1.0
100
AcDbArc
 50
287.76274
 51
17.133104
  0
LINE
  5
858
330
18
100
AcDbEntity
  8
1
  6
Continuous
100
AcDbLine
 10
281.2424425376082
 20
187.5364158068467
 30
0.0
 11
281.2424425376082
 21
188.4218258068467
 31
0.0
  0
ARC
  5
859
330
18
100
AcDbEntity
  8
1
  6
Continuous
100
AcDbCircle
 10
277.4188925376082
 20
206.4672098068467
 30
0.0
 40
2.0
100
AcDbArc
 50
90.0
 51
167.389352
  0
ARC
  5
85A
330
18
100
AcDbEntity
  8
1
  6
Continuous
100
AcDbCircle
 10
275.0637275376082
 20
206.4672098068467
 30
0.0
 40
2.0
100
AcDbArc
 50
90.0
 51
167.757229
  0
ARC
  5
85B
330
18
100
AcDbEntity
  8
1
  6
Continuous
100
AcDbCircle
 10
284.2323745376083
 20
210.0128328068466
 30
0.0
 40
4.217937
100
AcDbArc
 50
212.9024809999999
 51
227.0719179999999
  0
ARC
  5
85C
330
18
100
AcDbEntity
  8
1
  6
Continuous
100
AcDbCircle
 10
285.0077665376083
 20
210.8464348068467
 30
0.0
 40
5.356411999999997
100
AcDbArc
 50
227.0719179999999
 51
260.59491
  0
ARC
  5
85D
330
18
100
AcDbEntity
  8
1
  6
Continuous
100
AcDbCircle
 10
279.4955495376083
 20
207.7539438068466
 30
0.0
 40
1.195896999999997
100
AcDbArc
 50
358.4503999999999
 51
36.614471
  0
ARC
  5
85E
330
18
100
AcDbEntity
  8
1
  6
Continuous
100
AcDbCircle
 10
284.7265115376083
 20
226.4125618068467
 30
0.0
 40
20.85899799999999
100
AcDbArc
 50
268.368019
 51
269.8287539999999
  0
ARC
  5
85F
330
18
100
AcDbEntity
  8
1
  6
Continuous
100
AcDbCircle
 10
285.9924425376082
 20
204.8567448068467
 30
0.0
 40
1.5
100
AcDbArc
 50
152.315117
 51
180.0
  0
LINE
  5
860
330
18
100
AcDbEntity
  8
1
  6
Continuous
100
AcDbLine
 10
278.1934525376082
 20
215.1795198068467
 30
0.0
 11
276.1934525376082
 21
216.6725198068467
 31
0.0
  0
LINE
  5
861
330
18
100
AcDbEntity
  8
1
  6
Continuous
100
AcDbLine
 10
275.6076665376083
 20
215.1795198068467
 30
0.0
 11
277.6076665376081
 21
216.6725198068467
 31
0.0
  0
ARC
  5
862
330
18
100
AcDbEntity
  8
1
  6
Continuous
100
AcDbCircle
 10
276.6038405376081
 20
219.7050088068466
 30
0.0
 40
4.697225
100
AcDbArc
 50
206.286695
 51
220.210037
  0
ARC
  5
863
330
18
100
AcDbEntity
  8
1
  6
Continuous
100
AcDbCircle
 10
275.2424425376082
 20
211.1912238068467
 30
0.0
 40
4.0
100
AcDbArc
 50
94.384039
 51
180.0
  0
LINE
  5
864
330
18
100
AcDbEntity
  8
1
  6
Continuous
100
AcDbLine
 10
275.3650255376083
 20
215.1795198068467
 30
0.0
 11
273.3650255376083
 21
216.6725198068467
 31
0.0
  0
LINE
  5
865
330
18
100
AcDbEntity
  8
1
  6
Continuous
100
AcDbLine
 10
272.9924425376082
 20
216.2999368068467
 30
0.0
 11
273.3650255376083
 21
216.6725198068467
 31
0.0
  0
LINE
  5
866
330
18
100
AcDbEntity
  8
1
  6
Continuous
100
AcDbLine
 10
272.9924425376082
 20
215.3927238068466
 30
0.0
 11
274.7792395376082
 21
216.6725198068467
 31
0.0
  0
LINE
  5
867
330
18
100
AcDbEntity
  8
1
  6
Continuous
100
AcDbLine
 10
274.1934525376082
 20
215.1795198068467
 30
0.0
 11
276.1934525376082
 21
216.6725198068467
 31
0.0
  0
LINE
  5
868
330
18
100
AcDbEntity
  8
1
  6
Continuous
100
AcDbLine
 10
272.9924425376082
 20
216.6725198068467
 30
0.0
 11
272.9924425376082
 21
215.1795198068467
 31
0.0
  0
ARC
  5
869
330
18
100
AcDbEntity
  8
1
  6
Continuous
100
AcDbCircle
 10
276.2365585376083
 20
230.5325198068466
 30
0.0
 40
10.64
100
AcDbArc
 50
234.0659919999999
 51
270.0
  0
ARC
  5
86A
330
18
100
AcDbEntity
  8
1
  6
Continuous
100
AcDbCircle
 10
278.8059405376083
 20
214.6038088068466
 30
0.0
 40
6.206
100
AcDbArc
 50
121.2013169999996
 51
140.935699
  0
LINE
  5
86B
330
18
100
AcDbEntity
  8
1
  6
Continuous
100
AcDbLine
 10
273.8173585376081
 20
218.1547818068467
 30
0.0
 11
273.9873585376082
 21
218.5147818068467
 31
0.0
  0
LINE
  5
86C
330
18
100
AcDbEntity
  8
1
  6
Continuous
100
AcDbLine
 10
273.0023585376082
 20
218.1547818068467
 30
0.0
 11
273.8173585376081
 21
218.1547818068467
 31
0.0
  0
ARC
  5
86D
330
18
100
AcDbEntity
  8
1
  6
Continuous
100
AcDbCircle
 10
273.2663285376081
 20
217.2349288068467
 30
0.0
 40
0.9569799999999998
100
AcDbArc
 50
106.011913
 51
155.9597349999999
  0
LINE
  5
86E
330
18
100
AcDbEntity
  8
1
  6
Continuous
100
AcDbLine
 10
279.8503065376081
 20
215.1795198068467
 30
0.0
 11
281.8503065376081
 21
216.6725198068467
 31
0.0
  0
LINE
  5
86F
330
18
100
AcDbEntity
  8
1
  6
Continuous
100
AcDbLine
 10
281.2645205376083
 20
215.1795198068467
 30
0.0
 11
283.2645205376083
 21
216.6725198068467
 31
0.0
  0
LINE
  5
870
330
18
100
AcDbEntity
  8
1
  6
Continuous
100
AcDbLine
 10
281.0218795376082
 20
215.1795198068467
 30
0.0
 11
279.0218795376082
 21
216.6725198068467
 31
0.0
  0
LINE
  5
871
330
18
100
AcDbEntity
  8
1
  6
Continuous
100
AcDbLine
 10
277.0218795376082
 20
215.1795198068467
 30
0.0
 11
279.0218795376082
 21
216.6725198068467
 31
0.0
  0
LINE
  5
872
330
18
100
AcDbEntity
  8
1
  6
Continuous
100
AcDbLine
 10
278.4360935376082
 20
215.1795198068467
 30
0.0
 11
280.4360935376082
 21
216.6725198068467
 31
0.0
  0
LINE
  5
873
330
18
100
AcDbEntity
  8
1
  6
Continuous
100
AcDbLine
 10
283.8503065376082
 20
215.1795198068467
 30
0.0
 11
281.8503065376081
 21
216.6725198068467
 31
0.0
  0
LINE
  5
874
330
18
100
AcDbEntity
  8
1
  6
Continuous
100
AcDbLine
 10
282.6787335376082
 20
215.1795198068467
 30
0.0
 11
284.6787335376082
 21
216.6725198068467
 31
0.0
  0
LINE
  5
875
330
18
100
AcDbEntity
  8
1
  6
Continuous
100
AcDbLine
 10
284.0929475376082
 20
215.1795198068467
 30
0.0
 11
286.0929475376082
 21
216.6725198068467
 31
0.0
  0
ARC
  5
876
330
18
100
AcDbEntity
  8
1
  6
Continuous
100
AcDbCircle
 10
238.6582495376082
 20
189.4850058068465
 30
0.0
 40
79.784193
100
AcDbArc
 50
0.0
 51
12.61064799999999
  0
ARC
  5
877
330
18
100
AcDbEntity
  8
1
  6
Continuous
100
AcDbCircle
 10
238.6582495376082
 20
189.4850058068465
 30
0.0
 40
82.084193
100
AcDbArc
 50
0.0
 51
12.242771
  0
LINE
  5
878
330
18
100
AcDbEntity
  8
1
  6
Continuous
100
AcDbLine
 10
320.7424425376082
 20
211.1912238068467
 30
0.0
 11
320.7424425376082
 21
189.4850058068465
 31
0.0
  0
ARC
  5
879
330
18
100
AcDbEntity
  8
1
  6
Continuous
100
AcDbCircle
 10
292.5841925376082
 20
189.4850058068465
 30
0.0
 40
25.85825
100
AcDbArc
 50
322.428066
 51
0.0
  0
ARC
  5
87A
330
18
100
AcDbEntity
  8
1
  6
Continuous
100
AcDbCircle
 10
292.5841925376082
 20
189.4850058068465
 30
0.0
 40
28.15825
100
AcDbArc
 50
323.663991
 51
0.0
  0
LINE
  5
87B
330
18
100
AcDbEntity
  8
1
  6
Continuous
100
AcDbLine
 10
311.2424425376083
 20
181.2177818068467
 30
0.0
 11
311.5510915376081
 21
181.2177818068467
 31
0.0
  0
LINE
  5
87E
330
18
100
AcDbEntity
  8
1
  6
Continuous
100
AcDbLine
 10
310.3915095376083
 20
189.3860078068465
 30
0.0
 11
307.4924425376082
 21
192.8409808068465
 31
0.0
  0
LINE
  5
87F
330
18
100
AcDbEntity
  8
1
  6
Continuous
100
AcDbLine
 10
310.7424425376084
 20
186.9677818068465
 30
0.0
 11
311.2424425376083
 21
186.9677818068465
 31
0.0
  0
ARC
  5
880
330
18
100
AcDbEntity
  8
1
  6
Continuous
100
AcDbCircle
 10
309.2424425376083
 20
188.4218258068467
 30
0.0
 40
1.5
100
AcDbArc
 50
0.0
 51
40.0
  0
LINE
  5
881
330
18
100
AcDbEntity
  8
1
  6
Continuous
100
AcDbLine
 10
306.4777235376083
 20
215.1795198068467
 30
0.0
 11
304.4777235376083
 21
216.6725198068467
 31
0.0
  0
LINE
  5
882
330
18
100
AcDbEntity
  8
1
  6
Continuous
100
AcDbLine
 10
305.3061505376083
 20
215.1795198068467
 30
0.0
 11
307.3061505376083
 21
216.6725198068467
 31
0.0
  0
LINE
  5
883
330
18
100
AcDbEntity
  8
1
  6
Continuous
100
AcDbLine
 10
303.8919375376081
 20
215.1795198068467
 30
0.0
 11
305.8919375376081
 21
216.6725198068467
 31
0.0
  0
LINE
  5
884
330
18
100
AcDbEntity
  8
1
  6
Continuous
100
AcDbLine
 10
295.4066565376081
 20
215.1795198068467
 30
0.0
 11
297.4066565376081
 21
216.6725198068467
 31
0.0
  0
LINE
  5
885
330
18
100
AcDbEntity
  8
1
  6
Continuous
100
AcDbLine
 10
293.9924425376082
 20
215.1795198068467
 30
0.0
 11
295.9924425376082
 21
216.6725198068467
 31
0.0
  0
LINE
  5
886
330
18
100
AcDbEntity
  8
1
  6
Continuous
100
AcDbLine
 10
292.3355885376082
 20
215.1795198068467
 30
0.0
 11
290.3355885376083
 21
216.6725198068467
 31
0.0
  0
LINE
  5
887
330
18
100
AcDbEntity
  8
1
  6
Continuous
100
AcDbLine
 10
289.7498015376083
 20
215.1795198068467
 30
0.0
 11
291.7498015376083
 21
216.6725198068467
 31
0.0
  0
LINE
  5
888
330
18
100
AcDbEntity
  8
1
  6
Continuous
100
AcDbLine
 10
289.5071615376081
 20
215.1795198068467
 30
0.0
 11
287.5071615376083
 21
216.6725198068467
 31
0.0
  0
LINE
  5
889
330
18
100
AcDbEntity
  8
1
  6
Continuous
100
AcDbLine
 10
286.9213745376083
 20
215.1795198068467
 30
0.0
 11
288.9213745376083
 21
216.6725198068467
 31
0.0
  0
LINE
  5
88A
330
18
100
AcDbEntity
  8
1
  6
Continuous
100
AcDbLine
 10
288.3355885376082
 20
215.1795198068467
 30
0.0
 11
290.3355885376083
 21
216.6725198068467
 31
0.0
  0
LINE
  5
88B
330
18
100
AcDbEntity
  8
1
  6
Continuous
100
AcDbLine
 10
295.1640155376083
 20
215.1795198068467
 30
0.0
 11
293.1640155376083
 21
216.6725198068467
 31
0.0
  0
LINE
  5
88C
330
18
100
AcDbEntity
  8
1
  6
Continuous
100
AcDbLine
 10
291.1640155376083
 20
215.1795198068467
 30
0.0
 11
293.1640155376083
 21
216.6725198068467
 31
0.0
  0
LINE
  5
88D
330
18
100
AcDbEntity
  8
1
  6
Continuous
100
AcDbLine
 10
292.5782285376083
 20
215.1795198068467
 30
0.0
 11
294.5782285376083
 21
216.6725198068467
 31
0.0
  0
LINE
  5
88E
330
18
100
AcDbEntity
  8
1
  6
Continuous
100
AcDbLine
 10
300.8208695376083
 20
215.1795198068467
 30
0.0
 11
298.8208695376082
 21
216.6725198068467
 31
0.0
  0
LINE
  5
88F
330
18
100
AcDbEntity
  8
1
  6
Continuous
100
AcDbLine
 10
299.6492965376083
 20
215.1795198068467
 30
0.0
 11
301.6492965376082
 21
216.6725198068467
 31
0.0
  0
LINE
  5
890
330
18
100
AcDbEntity
  8
1
  6
Continuous
100
AcDbLine
 10
297.9924425376082
 20
215.1795198068467
 30
0.0
 11
295.9924425376082
 21
216.6725198068467
 31
0.0
  0
LINE
  5
891
330
18
100
AcDbEntity
  8
1
  6
Continuous
100
AcDbLine
 10
298.2350835376081
 20
215.1795198068467
 30
0.0
 11
300.2350835376081
 21
216.6725198068467
 31
0.0
  0
LINE
  5
892
330
18
100
AcDbEntity
  8
1
  6
Continuous
100
AcDbLine
 10
296.8208695376083
 20
215.1795198068467
 30
0.0
 11
298.8208695376082
 21
216.6725198068467
 31
0.0
  0
LINE
  5
893
330
18
100
AcDbEntity
  8
1
  6
Continuous
100
AcDbLine
 10
303.6492965376082
 20
215.1795198068467
 30
0.0
 11
301.6492965376082
 21
216.6725198068467
 31
0.0
  0
LINE
  5
894
330
18
100
AcDbEntity
  8
1
  6
Continuous
100
AcDbLine
 10
302.4777235376083
 20
215.1795198068467
 30
0.0
 11
304.4777235376083
 21
216.6725198068467
 31
0.0
  0
LINE
  5
895
330
18
100
AcDbEntity
  8
1
  6
Continuous
100
AcDbLine
 10
301.0635105376083
 20
215.1795198068467
 30
0.0
 11
303.0635105376083
 21
216.6725198068467
 31
0.0
  0
ARC
  5
896
330
18
100
AcDbEntity
  8
1
  6
Continuous
100
AcDbCircle
 10
314.5659925376083
 20
206.4672098068467
 30
0.0
 40
2.0
100
AcDbArc
 50
12.61064799999999
 51
90.0
  0
ARC
  5
897
330
18
100
AcDbEntity
  8
1
  6
Continuous
100
AcDbCircle
 10
306.9771185376082
 20
210.8464348068467
 30
0.0
 40
5.356411999999997
100
AcDbArc
 50
279.4050899999999
 51
312.9280819999999
  0
ARC
  5
898
330
18
100
AcDbEntity
  8
1
  6
Continuous
100
AcDbCircle
 10
307.2583735376083
 20
226.4125618068467
 30
0.0
 40
20.85899799999999
100
AcDbArc
 50
270.1712459999999
 51
271.6319809999999
  0
ARC
  5
899
330
18
100
AcDbEntity
  8
1
  6
Continuous
100
AcDbCircle
 10
305.9924425376082
 20
204.8567448068467
 30
0.0
 40
1.5
100
AcDbArc
 50
0.0
 51
27.684883
  0
ARC
  5
89A
330
18
100
AcDbEntity
  8
1
  6
Continuous
100
AcDbCircle
 10
312.4893355376081
 20
207.7539438068466
 30
0.0
 40
1.195896999999997
100
AcDbArc
 50
143.3855289999999
 51
181.5495999999999
  0
ARC
  5
89B
330
18
100
AcDbEntity
  8
1
  6
Continuous
100
AcDbCircle
 10
307.7525105376082
 20
210.0128328068466
 30
0.0
 40
4.217937
100
AcDbArc
 50
312.9280819999999
 51
327.0975189999999
  0
ARC
  5
89C
330
18
100
AcDbEntity
  8
1
  6
Continuous
100
AcDbCircle
 10
316.9211575376082
 20
206.4672098068467
 30
0.0
 40
2.0
100
AcDbArc
 50
12.242771
 51
90.0
  0
LINE
  5
89D
330
18
100
AcDbEntity
  8
1
  6
Continuous
100
AcDbLine
 10
313.7914325376081
 20
215.1795198068467
 30
0.0
 11
315.7914325376081
 21
216.6725198068467
 31
0.0
  0
LINE
  5
89E
330
18
100
AcDbEntity
  8
1
  6
Continuous
100
AcDbLine
 10
312.1345785376083
 20
215.1795198068467
 30
0.0
 11
310.1345785376083
 21
216.6725198068467
 31
0.0
  0
LINE
  5
89F
330
18
100
AcDbEntity
  8
1
  6
Continuous
100
AcDbLine
 10
309.5487915376083
 20
215.1795198068467
 30
0.0
 11
311.5487915376083
 21
216.6725198068467
 31
0.0
  0
LINE
  5
8A0
330
18
100
AcDbEntity
  8
1
  6
Continuous
100
AcDbLine
 10
309.3061505376083
 20
215.1795198068467
 30
0.0
 11
307.3061505376083
 21
216.6725198068467
 31
0.0
  0
LINE
  5
8A1
330
18
100
AcDbEntity
  8
1
  6
Continuous
100
AcDbLine
 10
308.1345785376082
 20
215.1795198068467
 30
0.0
 11
310.1345785376083
 21
216.6725198068467
 31
0.0
  0
LINE
  5
8A2
330
18
100
AcDbEntity
  8
1
  6
Continuous
100
AcDbLine
 10
306.7203645376082
 20
215.1795198068467
 30
0.0
 11
308.7203645376082
 21
216.6725198068467
 31
0.0
  0
LINE
  5
8A3
330
18
100
AcDbEntity
  8
1
  6
Continuous
100
AcDbLine
 10
314.9630055376083
 20
215.1795198068467
 30
0.0
 11
312.9630055376083
 21
216.6725198068467
 31
0.0
  0
LINE
  5
8A4
330
18
100
AcDbEntity
  8
1
  6
Continuous
100
AcDbLine
 10
312.3772185376082
 20
215.1795198068467
 30
0.0
 11
314.3772185376082
 21
216.6725198068467
 31
0.0
  0
LINE
  5
8A5
330
18
100
AcDbEntity
  8
1
  6
Continuous
100
AcDbLine
 10
310.9630055376083
 20
215.1795198068467
 30
0.0
 11
312.9630055376083
 21
216.6725198068467
 31
0.0
  0
ARC
  5
8A6
330
18
100
AcDbEntity
  8
1
  6
Continuous
100
AcDbCircle
 10
315.3810445376084
 20
219.7050088068466
 30
0.0
 40
4.697225
100
AcDbArc
 50
319.789963
 51
333.713305
  0
ARC
  5
8A7
330
18
100
AcDbEntity
  8
1
  6
Continuous
100
AcDbCircle
 10
316.7424425376082
 20
211.1912238068467
 30
0.0
 40
4.0
100
AcDbArc
 50
0.0
 51
85.615961
  0
LINE
  5
8A8
330
18
100
AcDbEntity
  8
1
  6
Continuous
100
AcDbLine
 10
318.9924425376082
 20
216.2999368068467
 30
0.0
 11
318.6198595376083
 21
216.6725198068467
 31
0.0
  0
LINE
  5
8A9
330
18
100
AcDbEntity
  8
1
  6
Continuous
100
AcDbLine
 10
317.7914325376081
 20
215.1795198068467
 30
0.0
 11
315.7914325376081
 21
216.6725198068467
 31
0.0
  0
LINE
  5
8AA
330
18
100
AcDbEntity
  8
1
  6
Continuous
100
AcDbLine
 10
318.0340735376081
 20
215.1795198068467
 30
0.0
 11
318.9924425376082
 21
216.1378898068465
 31
0.0
  0
LINE
  5
8AB
330
18
100
AcDbEntity
  8
1
  6
Continuous
100
AcDbLine
 10
316.6198595376083
 20
215.1795198068467
 30
0.0
 11
318.6198595376083
 21
216.6725198068467
 31
0.0
  0
LINE
  5
8AC
330
18
100
AcDbEntity
  8
1
  6
Continuous
100
AcDbLine
 10
315.2056455376082
 20
215.1795198068467
 30
0.0
 11
317.2056455376082
 21
216.6725198068467
 31
0.0
  0
LINE
  5
8AD
330
18
100
AcDbEntity
  8
1
  6
Continuous
100
AcDbLine
 10
318.9924425376082
 20
216.6725198068467
 30
0.0
 11
318.9924425376082
 21
215.1795198068467
 31
0.0
  0
ARC
  5
8AE
330
18
100
AcDbEntity
  8
1
  6
Continuous
100
AcDbCircle
 10
315.7483265376083
 20
230.5325198068466
 30
0.0
 40
10.64
100
AcDbArc
 50
270.0
 51
305.934008
  0
ARC
  5
8AF
330
18
100
AcDbEntity
  8
1
  6
Continuous
100
AcDbCircle
 10
313.1789445376082
 20
214.6038088068466
 30
0.0
 40
6.206
100
AcDbArc
 50
39.064301
 51
58.798683
  0
LINE
  5
8B0
330
18
100
AcDbEntity
  8
1
  6
Continuous
100
AcDbLine
 10
318.1675265376083
 20
218.1547818068467
 30
0.0
 11
317.9975265376083
 21
218.5147818068467
 31
0.0
  0
LINE
  5
8B1
330
18
100
AcDbEntity
  8
1
  6
Continuous
100
AcDbLine
 10
318.9825265376083
 20
218.1547818068467
 30
0.0
 11
318.1675265376083
 21
218.1547818068467
 31
0.0
  0
ARC
  5
8B2
330
18
100
AcDbEntity
  8
1
  6
Continuous
100
AcDbCircle
 10
318.7185565376082
 20
217.2349288068467
 30
0.0
 40
0.9569799999999998
100
AcDbArc
 50
24.04026499999999
 51
73.98808699999998
  0
LINE
  5
8B3
330
18
100
AcDbEntity
  8
1
  6
Continuous
100
AcDbLine
 10
268.9924425376082
 20
224.2176648068466
 30
0.0
 11
322.9924425376082
 21
224.2176648068466
 31
0.0
  0
LINE
  5
8B4
330
18
100
AcDbEntity
  8
1
  6
Continuous
100
AcDbLine
 10
371.4947375376083
 20
221.9174168068467
 30
0.0
 11
371.4947375376083
 21
224.2176998068467
 31
0.0
  0
LINE
  5
8B5
330
18
100
AcDbEntity
  8
4
  6
CENTER
100
AcDbLine
 10
379.4947375376083
 20
216.9174168068467
 30
0.0
 11
379.4947375376083
 21
229.2176998068467
 31
0.0
  0
LINE
  5
8B6
330
18
100
AcDbEntity
  8
5
  6
PHANTOM
100
AcDbLine
 10
396.1385165376082
 20
189.4645918068466
 30
0.0
 11
395.1740345376084
 21
181.6517938068465
 31
0.0
  0
ARC
  5
8B7
330
18
100
AcDbEntity
  8
1
  6
Continuous
100
AcDbCircle
 10
405.2928715376081
 20
181.7685518068465
 30
0.0
 40
5.5
100
AcDbArc
 50
130.845542
 51
203.7494899999999
  0
LINE
  5
8B8
330
18
100
AcDbEntity
  8
1
  6
Continuous
100
AcDbLine
 10
398.3397195376083
 20
182.5770618068467
 30
0.0
 11
397.1964585376083
 21
172.7450318068467
 31
0.0
  0
ARC
  5
8B9
330
18
100
AcDbEntity
  8
5
  6
PHANTOM
100
AcDbCircle
 10
403.3963175376081
 20
180.6367548068467
 30
0.0
 40
8.284706999999999
100
AcDbArc
 50
172.96249
 51
239.97681
  0
LINE
  5
8BA
330
18
100
AcDbEntity
  8
1
  6
Continuous
100
AcDbLine
 10
393.3811355376082
 20
171.4732718068467
 30
0.0
 11
400.0594765376083
 21
173.6993868068467
 31
0.0
  0
LINE
  5
8BB
330
18
100
AcDbEntity
  8
5
  6
PHANTOM
100
AcDbLine
 10
400.1153295376082
 20
172.9642038068466
 30
0.0
 11
399.2510535376084
 21
173.4636608068467
 31
0.0
  0
LINE
  5
8BC
330
18
100
AcDbEntity
  8
1
  6
Continuous
100
AcDbLine
 10
400.2356015376082
 20
179.6058598068467
 30
0.0
 11
400.139217537608
 21
179.8249118068467
 31
0.0
  0
LINE
  5
8BD
330
18
100
AcDbEntity
  8
5
  6
PHANTOM
100
AcDbLine
 10
396.1385065376084
 20
189.4645748068467
 30
0.0
 11
396.6388685376084
 21
191.7094978068466
 31
0.0
  0
ARC
  5
8BE
330
18
100
AcDbEntity
  8
1
  6
Continuous
100
AcDbCircle
 10
383.7686245376083
 20
217.2349638068467
 30
0.0
 40
0.9569799999999998
100
AcDbArc
 50
106.011913
 51
155.9597349999999
  0
ARC
  5
8BF
330
18
100
AcDbEntity
  8
1
  6
Continuous
100
AcDbCircle
 10
386.5569075376083
 20
211.1327808068467
 30
0.0
 40
4.377608
100
AcDbArc
 50
112.4180289999999
 51
171.7055229999999
  0
LINE
  5
8C0
330
18
100
AcDbEntity
  8
1
  6
Continuous
100
AcDbLine
 10
381.7447375376083
 20
208.4673098068465
 30
0.0
 11
389.7625225376083
 21
208.4673098068465
 31
0.0
  0
ARC
  5
8C1
330
18
100
AcDbEntity
  8
1
  6
Continuous
100
AcDbCircle
 10
386.7388535376083
 20
230.5325558068466
 30
0.0
 40
10.64
100
AcDbArc
 50
234.0659919999999
 51
270.0
  0
ARC
  5
8C2
330
18
100
AcDbEntity
  8
1
  6
Continuous
100
AcDbCircle
 10
511.7055205376082
 20
191.2161848068467
 30
0.0
 40
131.100749
100
AcDbArc
 50
170.982549
 51
172.4387049999999
  0
ARC
  5
8C3
330
18
100
AcDbEntity
  8
1
  6
Continuous
100
AcDbCircle
 10
389.7625225376083
 20
194.2383098068467
 30
0.0
 40
14.229
100
AcDbArc
 50
46.49942699999999
 51
90.0
  0
ARC
  5
8C4
330
18
100
AcDbEntity
  8
1
  6
Continuous
100
AcDbCircle
 10
395.5100615376084
 20
210.8464698068467
 30
0.0
 40
5.356411999999997
100
AcDbArc
 50
227.0719179999999
 51
260.59491
  0
ARC
  5
8C5
330
18
100
AcDbEntity
  8
1
  6
Continuous
100
AcDbCircle
 10
394.7346695376081
 20
210.0128678068467
 30
0.0
 40
4.217937
100
AcDbArc
 50
212.9024809999999
 51
227.0719179999999
  0
ARC
  5
8C6
330
18
100
AcDbEntity
  8
1
  6
Continuous
100
AcDbCircle
 10
389.9978445376082
 20
207.7539788068466
 30
0.0
 40
1.195896999999997
100
AcDbArc
 50
358.4503999999999
 51
33.48697399999997
  0
ARC
  5
8C7
330
18
100
AcDbEntity
  8
1
  6
Continuous
100
AcDbCircle
 10
391.1488975376082
 20
197.4673098068467
 30
0.0
 40
11.0
100
AcDbArc
 50
33.67254099999998
 51
40.146961
  0
LINE
  5
8C8
330
18
100
AcDbEntity
  8
1
  6
Continuous
100
AcDbLine
 10
395.1664635376084
 20
205.5536928068466
 30
0.0
 11
398.3896065376081
 21
205.5536928068466
 31
0.0
  0
ARC
  5
8C9
330
18
100
AcDbEntity
  8
1
  6
Continuous
100
AcDbCircle
 10
395.2288065376082
 20
226.4125968068467
 30
0.0
 40
20.85899799999999
100
AcDbArc
 50
268.368019
 51
269.8287539999999
  0
LINE
  5
8CA
330
18
100
AcDbEntity
  8
1
  6
Continuous
100
AcDbLine
 10
391.7668155376084
 20
215.1795558068467
 30
0.0
 11
393.7668155376081
 21
216.6725558068467
 31
0.0
  0
LINE
  5
8CB
330
18
100
AcDbEntity
  8
1
  6
Continuous
100
AcDbLine
 10
394.3526015376081
 20
215.1795558068467
 30
0.0
 11
392.3526015376081
 21
216.6725558068467
 31
0.0
  0
ARC
  5
8CC
330
18
100
AcDbEntity
  8
1
  6
Continuous
100
AcDbCircle
 10
387.1061355376083
 20
219.7050438068466
 30
0.0
 40
4.697225
100
AcDbArc
 50
206.286695
 51
220.210037
  0
LINE
  5
8CD
330
18
100
AcDbEntity
  8
1
  6
Continuous
100
AcDbLine
 10
387.5241745376084
 20
215.1795558068467
 30
0.0
 11
389.5241745376083
 21
216.6725558068467
 31
0.0
  0
LINE
  5
8CE
330
18
100
AcDbEntity
  8
1
  6
Continuous
100
AcDbLine
 10
386.1099615376084
 20
215.1795558068467
 30
0.0
 11
388.1099615376084
 21
216.6725558068467
 31
0.0
  0
LINE
  5
8CF
330
18
100
AcDbEntity
  8
1
  6
Continuous
100
AcDbLine
 10
388.6957475376082
 20
215.1795558068467
 30
0.0
 11
386.6957475376083
 21
216.6725558068467
 31
0.0
  0
LINE
  5
8D0
330
18
100
AcDbEntity
  8
1
  6
Continuous
100
AcDbLine
 10
383.4947375376083
 20
216.6725558068467
 30
0.0
 11
383.4947375376083
 21
215.1795558068467
 31
0.0
  0
LINE
  5
8D1
330
18
100
AcDbEntity
  8
1
  6
Continuous
100
AcDbLine
 10
383.4947375376083
 20
216.2999728068467
 30
0.0
 11
383.8673205376084
 21
216.6725558068467
 31
0.0
  0
LINE
  5
8D2
330
18
100
AcDbEntity
  8
1
  6
Continuous
100
AcDbLine
 10
384.6957475376084
 20
215.1795558068467
 30
0.0
 11
386.6957475376083
 21
216.6725558068467
 31
0.0
  0
LINE
  5
8D3
330
18
100
AcDbEntity
  8
1
  6
Continuous
100
AcDbLine
 10
383.4947375376083
 20
215.3927588068466
 30
0.0
 11
385.2815345376084
 21
216.6725558068467
 31
0.0
  0
LINE
  5
8D4
330
18
100
AcDbEntity
  8
1
  6
Continuous
100
AcDbLine
 10
385.8673205376084
 20
215.1795558068467
 30
0.0
 11
383.8673205376084
 21
216.6725558068467
 31
0.0
  0
LINE
  5
8D5
330
18
100
AcDbEntity
  8
1
  6
Continuous
100
AcDbLine
 10
390.3526015376081
 20
215.1795558068467
 30
0.0
 11
392.3526015376081
 21
216.6725558068467
 31
0.0
  0
LINE
  5
8D6
330
18
100
AcDbEntity
  8
1
  6
Continuous
100
AcDbLine
 10
388.9383885376082
 20
215.1795558068467
 30
0.0
 11
390.9383885376082
 21
216.6725558068467
 31
0.0
  0
LINE
  5
8D7
330
18
100
AcDbEntity
  8
1
  6
Continuous
100
AcDbLine
 10
391.5241745376084
 20
215.1795558068467
 30
0.0
 11
389.5241745376083
 21
216.6725558068467
 31
0.0
  0
LINE
  5
8D8
330
18
100
AcDbEntity
  8
1
  6
Continuous
100
AcDbLine
 10
383.5046535376084
 20
218.1548168068465
 30
0.0
 11
384.3196535376084
 21
218.1548168068465
 31
0.0
  0
LINE
  5
8D9
330
18
100
AcDbEntity
  8
1
  6
Continuous
100
AcDbLine
 10
384.3196535376084
 20
218.1548168068465
 30
0.0
 11
384.4896535376081
 21
218.5148168068467
 31
0.0
  0
ARC
  5
8DA
330
18
100
AcDbEntity
  8
1
  6
Continuous
100
AcDbCircle
 10
389.3082355376082
 20
214.6038448068467
 30
0.0
 40
6.206
100
AcDbArc
 50
121.2013169999996
 51
140.935699
  0
LINE
  5
8DB
330
18
100
AcDbEntity
  8
1
  6
Continuous
100
AcDbLine
 10
396.0094565376081
 20
215.1795558068467
 30
0.0
 11
398.0094565376083
 21
216.6725558068467
 31
0.0
  0
LINE
  5
8DC
330
18
100
AcDbEntity
  8
1
  6
Continuous
100
AcDbLine
 10
394.5952425376082
 20
215.1795558068467
 30
0.0
 11
396.5952425376082
 21
216.6725558068467
 31
0.0
  0
LINE
  5
8DD
330
18
100
AcDbEntity
  8
1
  6
Continuous
100
AcDbLine
 10
393.1810295376081
 20
215.1795558068467
 30
0.0
 11
395.1810295376081
 21
216.6725558068467
 31
0.0
  0
LINE
  5
8DE
330
18
100
AcDbEntity
  8
1
  6
Continuous
100
AcDbLine
 10
397.1810295376081
 20
215.1795558068467
 30
0.0
 11
395.1810295376081
 21
216.6725558068467
 31
0.0
  0
LINE
  5
8DF
330
18
100
AcDbEntity
  8
1
  6
Continuous
100
AcDbLine
 10
397.4236695376084
 20
215.1795558068467
 30
0.0
 11
399.4236695376084
 21
216.6725558068467
 31
0.0
  0
LINE
  5
8E0
330
18
100
AcDbEntity
  8
1
  6
Continuous
100
AcDbLine
 10
400.0094565376083
 20
215.1795558068467
 30
0.0
 11
398.0094565376083
 21
216.6725558068467
 31
0.0
  0
LINE
  5
8E1
330
18
100
AcDbEntity
  8
1
  6
Continuous
100
AcDbLine
 10
398.8378835376082
 20
215.1795558068467
 30
0.0
 11
400.8378835376082
 21
216.6725558068467
 31
0.0
  0
LINE
  5
8E2
330
18
100
AcDbEntity
  8
1
  6
Continuous
100
AcDbLine
 10
441.4947375376083
 20
221.9174168068467
 30
0.0
 11
441.4947375376083
 21
224.2176998068467
 31
0.0
  0
LINE
  5
8E3
330
18
100
AcDbEntity
  8
4
  6
CENTER
100
AcDbLine
 10
406.4947375376081
 20
202.2157128068467
 30
0.0
 11
406.4947375376081
 21
229.2176998068467
 31
0.0
  0
LINE
  5
8E4
330
18
100
AcDbEntity
  8
4
  6
CENTER
100
AcDbLine
 10
433.4947375376083
 20
216.9174168068467
 30
0.0
 11
433.4947375376083
 21
229.2176998068467
 31
0.0
  0
LINE
  5
8E5
330
18
100
AcDbEntity
  8
1
  6
Continuous
100
AcDbLine
 10
433.8947495376081
 20
212.8526558068467
 30
0.0
 11
441.0612875376083
 21
178.8057658068465
 31
0.0
  0
LINE
  5
8E8
330
18
100
AcDbEntity
  8
1
  6
Continuous
100
AcDbLine
 10
420.0510865376081
 20
215.1795558068467
 30
0.0
 11
422.0510865376081
 21
216.6725558068467
 31
0.0
  0
LINE
  5
8E9
330
18
100
AcDbEntity
  8
1
  6
Continuous
100
AcDbLine
 10
421.4653005376083
 20
215.1795558068467
 30
0.0
 11
423.4653005376081
 21
216.6725558068467
 31
0.0
  0
LINE
  5
8EA
330
18
100
AcDbEntity
  8
1
  6
Continuous
100
AcDbLine
 10
422.6368735376082
 20
215.1795558068467
 30
0.0
 11
420.6368735376082
 21
216.6725558068467
 31
0.0
  0
LINE
  5
8EB
330
18
100
AcDbEntity
  8
1
  6
Continuous
100
AcDbLine
 10
410.1515915376081
 20
215.1795558068467
 30
0.0
 11
412.1515915376083
 21
216.6725558068467
 31
0.0
  0
LINE
  5
8EC
330
18
100
AcDbEntity
  8
1
  6
Continuous
100
AcDbLine
 10
411.5658055376083
 20
215.1795558068467
 30
0.0
 11
413.5658055376083
 21
216.6725558068467
 31
0.0
  0
LINE
  5
8ED
330
18
100
AcDbEntity
  8
1
  6
Continuous
100
AcDbLine
 10
405.9089515376081
 20
215.1795558068467
 30
0.0
 11
407.9089515376083
 21
216.6725558068467
 31
0.0
  0
LINE
  5
8EE
330
18
100
AcDbEntity
  8
1
  6
Continuous
100
AcDbLine
 10
408.4947375376083
 20
215.1795558068467
 30
0.0
 11
406.4947375376081
 21
216.6725558068467
 31
0.0
  0
LINE
  5
8EF
330
18
100
AcDbEntity
  8
1
  6
Continuous
100
AcDbLine
 10
404.4947375376083
 20
215.1795558068467
 30
0.0
 11
406.4947375376081
 21
216.6725558068467
 31
0.0
  0
LINE
  5
8F0
330
18
100
AcDbEntity
  8
1
  6
Continuous
100
AcDbLine
 10
403.0805235376082
 20
215.1795558068467
 30
0.0
 11
405.080523537608
 21
216.6725558068467
 31
0.0
  0
LINE
  5
8F1
330
18
100
AcDbEntity
  8
1
  6
Continuous
100
AcDbLine
 10
405.6663105376081
 20
215.1795558068467
 30
0.0
 11
403.6663105376083
 21
216.6725558068467
 31
0.0
  0
LINE
  5
8F2
330
18
100
AcDbEntity
  8
1
  6
Continuous
100
AcDbLine
 10
407.3231645376082
 20
215.1795558068467
 30
0.0
 11
409.3231645376083
 21
216.6725558068467
 31
0.0
  0
LINE
  5
8F3
330
18
100
AcDbEntity
  8
1
  6
Continuous
100
AcDbLine
 10
408.7373785376083
 20
215.1795558068467
 30
0.0
 11
410.7373785376082
 21
216.6725558068467
 31
0.0
  0
LINE
  5
8F4
330
18
100
AcDbEntity
  8
1
  6
Continuous
100
AcDbLine
 10
411.3231645376082
 20
215.1795558068467
 30
0.0
 11
409.3231645376083
 21
216.6725558068467
 31
0.0
  0
LINE
  5
8F5
330
18
100
AcDbEntity
  8
1
  6
Continuous
100
AcDbLine
 10
415.8084465376083
 20
215.1795558068467
 30
0.0
 11
417.8084465376083
 21
216.6725558068467
 31
0.0
  0
LINE
  5
8F6
330
18
100
AcDbEntity
  8
1
  6
Continuous
100
AcDbLine
 10
416.9800185376081
 20
215.1795558068467
 30
0.0
 11
414.9800185376082
 21
216.6725558068467
 31
0.0
  0
LINE
  5
8F7
330
18
100
AcDbEntity
  8
1
  6
Continuous
100
AcDbLine
 10
412.9800185376081
 20
215.1795558068467
 30
0.0
 11
414.9800185376082
 21
216.6725558068467
 31
0.0
  0
LINE
  5
8F8
330
18
100
AcDbEntity
  8
1
  6
Continuous
100
AcDbLine
 10
414.394232537608
 20
215.1795558068467
 30
0.0
 11
416.3942325376082
 21
216.6725558068467
 31
0.0
  0
LINE
  5
8F9
330
18
100
AcDbEntity
  8
1
  6
Continuous
100
AcDbLine
 10
414.151591537608
 20
215.1795558068467
 30
0.0
 11
412.1515915376083
 21
216.6725558068467
 31
0.0
  0
LINE
  5
8FA
330
18
100
AcDbEntity
  8
1
  6
Continuous
100
AcDbLine
 10
417.2226595376083
 20
215.1795558068467
 30
0.0
 11
419.2226595376083
 21
216.6725558068467
 31
0.0
  0
LINE
  5
8FB
330
18
100
AcDbEntity
  8
1
  6
Continuous
100
AcDbLine
 10
418.6368735376082
 20
215.1795558068467
 30
0.0
 11
420.6368735376082
 21
216.6725558068467
 31
0.0
  0
LINE
  5
8FC
330
18
100
AcDbEntity
  8
1
  6
Continuous
100
AcDbLine
 10
419.8084465376083
 20
215.1795558068467
 30
0.0
 11
417.8084465376083
 21
216.6725558068467
 31
0.0
  0
ARC
  5
8FD
330
18
100
AcDbEntity
  8
1
  6
Continuous
100
AcDbCircle
 10
435.3386845376081
 20
294.7576238068467
 30
0.0
 40
84.15427099999998
100
AcDbArc
 50
269.3384389999998
 51
271.374847
  0
ARC
  5
8FE
330
18
100
AcDbEntity
  8
1
  6
Continuous
100
AcDbCircle
 10
437.3510935376083
 20
210.9079688068467
 30
0.0
 40
0.28047
100
AcDbArc
 50
271.374847
 51
323.4541489999998
  0
LINE
  5
8FF
330
18
100
AcDbEntity
  8
1
  6
Continuous
100
AcDbLine
 10
425.1605615376082
 20
212.8770428068466
 30
0.0
 11
436.2825965376083
 21
212.8459888068467
 31
0.0
  0
ARC
  5
900
330
18
100
AcDbEntity
  8
1
  6
Continuous
100
AcDbCircle
 10
426.2506215376083
 20
230.5325558068466
 30
0.0
 40
10.64
100
AcDbArc
 50
270.0
 51
305.934008
  0
ARC
  5
901
330
18
100
AcDbEntity
  8
1
  6
Continuous
100
AcDbCircle
 10
425.8833395376082
 20
219.7050438068466
 30
0.0
 40
4.697225
100
AcDbArc
 50
319.789963
 51
333.713305
  0
LINE
  5
902
330
18
100
AcDbEntity
  8
1
  6
Continuous
100
AcDbLine
 10
425.7079405376082
 20
215.1795558068467
 30
0.0
 11
427.7079405376081
 21
216.6725558068467
 31
0.0
  0
LINE
  5
903
330
18
100
AcDbEntity
  8
1
  6
Continuous
100
AcDbLine
 10
428.2937275376081
 20
215.1795558068467
 30
0.0
 11
426.2937275376083
 21
216.6725558068467
 31
0.0
  0
LINE
  5
904
330
18
100
AcDbEntity
  8
1
  6
Continuous
100
AcDbLine
 10
422.8795135376083
 20
215.1795558068467
 30
0.0
 11
424.8795135376082
 21
216.6725558068467
 31
0.0
  0
LINE
  5
905
330
18
100
AcDbEntity
  8
1
  6
Continuous
100
AcDbLine
 10
424.2937275376081
 20
215.1795558068467
 30
0.0
 11
426.2937275376083
 21
216.6725558068467
 31
0.0
  0
LINE
  5
906
330
18
100
AcDbEntity
  8
1
  6
Continuous
100
AcDbLine
 10
425.4653005376083
 20
215.1795558068467
 30
0.0
 11
423.4653005376081
 21
216.6725558068467
 31
0.0
  0
ARC
  5
907
330
18
100
AcDbEntity
  8
1
  6
Continuous
100
AcDbCircle
 10
431.1299915376083
 20
214.8580918068467
 30
0.0
 40
1.997709
100
AcDbArc
 50
240.802965
 51
269.8400219999999
  0
ARC
  5
908
330
18
100
AcDbEntity
  8
1
  6
Continuous
100
AcDbCircle
 10
426.3895175376083
 20
211.2232758068466
 30
0.0
 40
4.224822999999997
100
AcDbArc
 50
31.36790099999999
 51
69.461534
  0
ARC
  5
909
330
18
100
AcDbEntity
  8
1
  6
Continuous
100
AcDbCircle
 10
430.3083875376083
 20
213.3878248068466
 30
0.0
 40
0.313453
100
AcDbArc
 50
173.6619839999999
 51
240.802965
  0
LINE
  5
90A
330
18
100
AcDbEntity
  8
1
  6
Continuous
100
AcDbLine
 10
429.4947375376083
 20
216.6725558068467
 30
0.0
 11
429.4947375376083
 21
215.1795558068467
 31
0.0
  0
LINE
  5
90B
330
18
100
AcDbEntity
  8
1
  6
Continuous
100
AcDbLine
 10
427.1221545376083
 20
215.1795558068467
 30
0.0
 11
429.1221545376083
 21
216.6725558068467
 31
0.0
  0
LINE
  5
90C
330
18
100
AcDbEntity
  8
1
  6
Continuous
100
AcDbLine
 10
428.5363685376082
 20
215.1795558068467
 30
0.0
 11
429.4947375376083
 21
216.1379248068466
 31
0.0
  0
LINE
  5
90D
330
18
100
AcDbEntity
  8
1
  6
Continuous
100
AcDbLine
 10
429.4947375376083
 20
216.2999728068467
 30
0.0
 11
429.1221545376083
 21
216.6725558068467
 31
0.0
  0
ARC
  5
90E
330
18
100
AcDbEntity
  8
1
  6
Continuous
100
AcDbCircle
 10
429.2208515376083
 20
217.2349638068467
 30
0.0
 40
0.9569799999999998
100
AcDbArc
 50
24.04026499999999
 51
73.98808699999998
  0
LINE
  5
90F
330
18
100
AcDbEntity
  8
1
  6
Continuous
100
AcDbLine
 10
429.4848215376084
 20
218.1548168068465
 30
0.0
 11
428.6698215376083
 21
218.1548168068465
 31
0.0
  0
LINE
  5
910
330
18
100
AcDbEntity
  8
1
  6
Continuous
100
AcDbLine
 10
428.6698215376083
 20
218.1548168068465
 30
0.0
 11
428.4998215376083
 21
218.5148168068467
 31
0.0
  0
ARC
  5
911
330
18
100
AcDbEntity
  8
1
  6
Continuous
100
AcDbCircle
 10
423.6812395376081
 20
214.6038448068467
 30
0.0
 40
6.206
100
AcDbArc
 50
39.064301
 51
58.798683
  0
ARC
  5
912
330
18
100
AcDbEntity
  8
1
  6
Continuous
100
AcDbCircle
 10
436.2680045376081
 20
207.6200588068467
 30
0.0
 40
5.22595
100
AcDbArc
 50
79.61194999999998
 51
89.84002199999997
  0
ARC
  5
913
330
18
100
AcDbEntity
  8
1
  6
Continuous
100
AcDbCircle
 10
437.0838955376081
 20
212.0707278068466
 30
0.0
 40
0.7011149999999999
100
AcDbArc
 50
39.600945
 51
79.61194999999998
  0
ARC
  5
914
330
18
100
AcDbEntity
  8
1
  6
Continuous
100
AcDbCircle
 10
450.6470825376082
 20
209.4319708068467
 30
0.0
 40
13.13604599999999
100
AcDbArc
 50
171.346813
 51
174.2810689999997
  0
ARC
  5
915
330
18
100
AcDbEntity
  8
1
  6
Continuous
100
AcDbCircle
 10
469.4421075376082
 20
213.0080228068466
 30
0.0
 40
31.82178
100
AcDbArc
 50
180.882972
 51
182.8814939999999
  0
LINE
  5
916
330
18
100
AcDbEntity
  8
1
  6
Continuous
100
AcDbLine
 10
457.8540455376083
 20
192.9642418068467
 30
0.0
 11
464.532380537608
 21
195.1903518068466
 31
0.0
  0
ARC
  5
917
330
18
100
AcDbEntity
  8
1
  6
Continuous
100
AcDbCircle
 10
451.3924125376082
 20
186.4360718068467
 30
0.0
 40
15.0
100
AcDbArc
 50
320.534237
 51
8.786319999999998
  0
LINE
  5
918
330
18
100
AcDbEntity
  8
5
  6
PHANTOM
100
AcDbLine
 10
462.9716065376081
 20
176.9248508068466
 30
0.0
 11
469.8425885376082
 21
175.3934028068467
 31
0.0
  0
LINE
  5
919
330
18
100
AcDbEntity
  8
5
  6
PHANTOM
100
AcDbLine
 10
469.3288625376083
 20
173.0885188068466
 30
0.0
 11
469.8425885376082
 21
175.3934028068467
 31
0.0
  0
ARC
  5
91A
330
18
100
AcDbEntity
  8
1
  6
Continuous
100
AcDbCircle
 10
433.3407465376082
 20
183.6459318068466
 30
0.0
 40
33.26602199999999
100
AcDbArc
 50
8.786319999999998
 51
16.23332999999999
  0
LINE
  5
91B
330
18
100
AcDbEntity
  8
1
  6
Continuous
100
AcDbLine
 10
465.2791345376083
 20
192.9500918068466
 30
0.0
 11
464.532380537608
 21
195.1903518068466
 31
0.0
  0
ARC
  5
920
330
18
100
AcDbEntity
  8
1
  6
Continuous
100
AcDbCircle
 10
160.4901476368967
 20
57.51005456609973
 30
0.0
 40
11.40175399999999
100
AcDbArc
 50
232.1250179705407
 51
307.8749839999999
  0
ENDSEC
  0
SECTION
  2
OBJECTS
  0
DICTIONARY
  5
C
330
0
100
AcDbDictionary
281
     1
  3
ACAD_CIP_PREVIOUS_PRODUCT_INFO
350
9B0
  3
ACAD_COLOR
350
993
  3
ACAD_DETAILVIEWSTYLE
350
9AC
  3
ACAD_GROUP
350
D
  3
ACAD_LAYOUT
350
94
  3
ACAD_MATERIAL
350
961
  3
ACAD_MLEADERSTYLE
350
9A8
  3
ACAD_MLINESTYLE
350
1B
  3
ACAD_PLOTSETTINGS
350
95
  3
ACAD_PLOTSTYLENAME
350
95F
  3
ACAD_SCALELIST
350
996
  3
ACAD_SECTIONVIEWSTYLE
350
9AA
  3
ACAD_TABLESTYLE
350
994
  3
ACAD_VISUALSTYLE
350
97A
  3
ACDB_RECOMPOSE_DATA
350
9CE
  3
AcDbVariableDictionary
350
9C1
  3
CONTENTDICTIONARY
350
3D
  3
DWGPROPS
350
9CF
  0
DICTIONARY
  5
9B1
330
E
100
AcDbDictionary
280
     1
281
     1
  3
ADSK_XREC_LAYER_RECONCILED
360
9B2
  0
DICTIONARY
  5
9B3
330
4E
100
AcDbDictionary
280
     1
281
     1
  3
ADSK_XREC_LAYER_RECONCILED
360
9B4
  0
DICTIONARY
  5
9B5
330
4F
100
AcDbDictionary
280
     1
281
     1
  3
ADSK_XREC_LAYER_RECONCILED
360
9B6
  0
DICTIONARY
  5
9B7
330
50
100
AcDbDictionary
280
     1
281
     1
  3
ADSK_XREC_LAYER_RECONCILED
360
9B8
  0
DICTIONARY
  5
9B9
330
51
100
AcDbDictionary
280
     1
281
     1
  3
ADSK_XREC_LAYER_RECONCILED
360
9BA
  0
DICTIONARY
  5
9BB
330
52
100
AcDbDictionary
280
     1
281
     1
  3
ADSK_XREC_LAYER_RECONCILED
360
9BC
  0
DICTIONARY
  5
9BD
330
53
100
AcDbDictionary
280
     1
281
     1
  3
ADSK_XREC_LAYER_RECONCILED
360
9BE
  0
DICTIONARY
  5
9BF
330
54
100
AcDbDictionary
280
     1
281
     1
  3
ADSK_XREC_LAYER_RECONCILED
360
9C0
  0
DICTIONARY
  5
95A
330
18
100
AcDbDictionary
281
     1
  3
ACAD_LAYOUTSELFREF
350
95B
  0
DICTIONARY
  5
958
330
15
100
AcDbDictionary
281
     1
  3
ACAD_LAYOUTSELFREF
350
959
  0
XRECORD
  5
9B0
102
{ACAD_REACTORS
330
C
102
}
330
C
100
AcDbXrecord
280
     1
300
ACDLT
300
2014
300
ACDLT_F_S
  0
DICTIONARY
  5
993
102
{ACAD_REACTORS
330
C
102
}
330
C
100
AcDbDictionary
281
     1
  0
DICTIONARY
  5
9AC
102
{ACAD_REACTORS
330
C
102
}
330
C
100
AcDbDictionary
281
     1
  3
Imperial24
350
9AD
  0
DICTIONARY
  5
D
102
{ACAD_REACTORS
330
C
102
}
330
C
100
AcDbDictionary
281
     1
  0
DICTIONARY
  5
94
102
{ACAD_REACTORS
330
C
102
}
330
C
100
AcDbDictionary
281
     1
  3
Model
350
9AE
  3
レイアウト1
350
9AF
  0
DICTIONARY
  5
961
102
{ACAD_REACTORS
330
C
102
}
330
C
100
AcDbDictionary
281
     1
  3
ByBlock
350
96A
  3
ByLayer
350
962
  3
Global
350
972
  0
DICTIONARY
  5
9A8
102
{ACAD_REACTORS
330
C
102
}
330
C
100
AcDbDictionary
281
     1
  3
Standard
350
9A9
  0
DICTIONARY
  5
1B
102
{ACAD_REACTORS
330
C
102
}
330
C
100
AcDbDictionary
281
     1
  3
STANDARD
350
1C
  0
DICTIONARY
  5
95
102
{ACAD_REACTORS
330
C
102
}
330
C
100
AcDbDictionary
281
     1
  0
ACDBDICTIONARYWDFLT
  5
95F
102
{ACAD_REACTORS
330
C
102
}
330
C
100
AcDbDictionary
281
     1
  3
Normal
350
960
100
AcDbDictionaryWithDefault
340
960
  0
DICTIONARY
  5
996
102
{ACAD_REACTORS
330
C
102
}
330
C
100
AcDbDictionary
281
     1
  3
A0
350
997
  3
A1
350
998
  3
A2
350
999
  3
A3
350
99A
  3
A4
350
99B
  3
A5
350
99C
  3
A6
350
99D
  3
A7
350
99E
  3
A8
350
99F
  3
A9
350
9A0
  3
B0
350
9A1
  3
B1
350
9A2
  3
B2
350
9A3
  3
B3
350
9A4
  3
B4
350
9A5
  3
B5
350
9A6
  3
B6
350
9A7
  0
DICTIONARY
  5
9AA
102
{ACAD_REACTORS
330
C
102
}
330
C
100
AcDbDictionary
281
     1
  3
Imperial24
350
9AB
  0
DICTIONARY
  5
994
102
{ACAD_REACTORS
330
C
102
}
330
C
100
AcDbDictionary
281
     1
  3
Standard
350
995
  0
DICTIONARY
  5
97A
102
{ACAD_REACTORS
330
C
102
}
330
C
100
AcDbDictionary
281
     1
  3
2dWireframe
350
980
  3
Basic
350
97F
  3
Brighten
350
986
  3
ColorChange
350
98A
  3
Conceptual
350
983
  3
Dim
350
985
  3
EdgeColorOff
350
992
  3
Facepattern
350
989
  3
Flat
350
97B
  3
FlatWithEdges
350
97C
  3
Gouraud
350
97D
  3
GouraudWithEdges
350
97E
  3
Hidden
350
982
  3
JitterOff
350
990
  3
Linepattern
350
988
  3
OverhangOff
350
991
  3
Realistic
350
984
  3
Shaded
350
98F
  3
Shaded with edges
350
98E
  3
Shades of Gray
350
98B
  3
Sketchy
350
98C
  3
Thicken
350
987
  3
Wireframe
350
981
  3
X-Ray
350
98D
  0
XRECORD
  5
9CE
102
{ACAD_REACTORS
330
C
102
}
330
C
100
AcDbXrecord
280
     1
 90
        1
330
995
  0
DICTIONARY
  5
9C1
102
{ACAD_REACTORS
330
C
102
}
330
C
100
AcDbDictionary
281
     1
  3
CANNOSCALE
350
9C6
  3
CMLEADERSTYLE
350
9C3
  3
CTABLESTYLE
350
9C2
  3
CVIEWDETAILSTYLE
350
9C4
  3
CVIEWSECTIONSTYLE
350
9C5
  3
DIMASSOC
350
9C9
  3
INDEXCTL
350
9C8
  3
SORTENTS
350
9C7
  3
XCLIPFRAME
350
9CA
  0
DICTIONARY
  5
3D
102
{ACAD_REACTORS
330
C
102
}
330
C
100
AcDbDictionary
281
     1
  0
XRECORD
  5
9CF
102
{ACAD_REACTORS
330
C
102
}
330
C
100
AcDbXrecord
280
     1
  1
DWGPROPS COOKIE
  2

  3

  4

  6

  7

  8
Yoshitsune
  9

300
=
301
=
302
=
303
=
304
=
305
=
306
=
307
=
308
=
309
=
 40
0.0029860300925926
 41
2454875.54748147
 42
2457192.686824977
  1

 90
        0
  0
XRECORD
  5
9B2
102
{ACAD_REACTORS
330
9B1
102
}
330
9B1
100
AcDbXrecord
280
     1
290
     1
  0
XRECORD
  5
9B4
102
{ACAD_REACTORS
330
9B3
102
}
330
9B3
100
AcDbXrecord
280
     1
290
     1
  0
XRECORD
  5
9B6
102
{ACAD_REACTORS
330
9B5
102
}
330
9B5
100
AcDbXrecord
280
     1
290
     1
  0
XRECORD
  5
9B8
102
{ACAD_REACTORS
330
9B7
102
}
330
9B7
100
AcDbXrecord
280
     1
290
     1
  0
XRECORD
  5
9BA
102
{ACAD_REACTORS
330
9B9
102
}
330
9B9
100
AcDbXrecord
280
     1
290
     1
  0
XRECORD
  5
9BC
102
{ACAD_REACTORS
330
9BB
102
}
330
9BB
100
AcDbXrecord
280
     1
290
     1
  0
XRECORD
  5
9BE
102
{ACAD_REACTORS
330
9BD
102
}
330
9BD
100
AcDbXrecord
280
     1
290
     1
  0
XRECORD
  5
9C0
102
{ACAD_REACTORS
330
9BF
102
}
330
9BF
100
AcDbXrecord
280
     1
290
     1
  0
XRECORD
  5
95B
102
{ACAD_REACTORS
330
95A
102
}
330
95A
100
AcDbXrecord
280
     1
340
18
  0
XRECORD
  5
959
102
{ACAD_REACTORS
330
958
102
}
330
958
100
AcDbXrecord
280
     1
340
15
  0
ACDBDETAILVIEWSTYLE
  5
9AD
102
{ACAD_XDICTIONARY
360
A07
102
}
102
{ACAD_REACTORS
330
9AC
102
}
330
9AC
100
AcDbModelDocViewStyle
 70
     0
  3
Imperial24
290
     0
100
AcDbDetailViewStyle
 70
     0
 71
     0
 90
        3
 71
     1
340
F
 40
0.24
340
0
 40
0.24
300

 40
0.36
280
     3
 71
     2
340
14
 90
       25
 71
     3
340
F
 40
0.24
 90
        1
 40
0.75
 90
        1
300
%<\AcVar ViewType \f "%tc1">% %<\AcVar ViewDetailId>%\PSCALE %<\AcVar ViewScale \f "%sn">%
 71
     4
340
14
 90
       25
340
14
 90
       25
280
     0
  0
LAYOUT
  5
9AE
102
{ACAD_XDICTIONARY
360
A09
102
}
102
{ACAD_REACTORS
330
94
102
}
330
94
100
AcDbPlotSettings
  1

  2
Canon LBP9100C
  4

  6

 40
0.0
 41
0.0
 42
0.0
 43
0.0
 44
0.0
 45
0.0
 46
0.0
 47
0.0
 48
0.0
 49
0.0
140
0.0
141
0.0
142
1.0
143
1.0
 70
  1712
 72
     0
 73
     0
 74
     0
  7

 75
     0
147
1.0
148
0.0
149
0.0
100
AcDbLayout
  1
Model
 70
     1
 71
     0
 10
0.0
 20
0.0
 11
12.0
 21
9.0
 12
0.0
 22
0.0
 32
0.0
 14
0.0
 24
0.0
 34
0.0
 15
0.0
 25
0.0
 35
0.0
146
0.0
 13
0.0
 23
0.0
 33
0.0
 16
1.0
 26
0.0
 36
0.0
 17
0.0
 27
1.0
 37
0.0
 76
     0
330
18
331
957
  0
LAYOUT
  5
9AF
102
{ACAD_XDICTIONARY
360
A0B
102
}
102
{ACAD_REACTORS
330
94
102
}
330
94
100
AcDbPlotSettings
  1

  2
Canon LBP9100C
  4

  6

 40
0.0
 41
0.0
 42
0.0
 43
0.0
 44
0.0
 45
0.0
 46
0.0
 47
0.0
 48
0.0
 49
0.0
140
0.0
141
0.0
142
1.0
143
1.0
 70
   688
 72
     0
 73
     0
 74
     5
  7

 75
    16
147
1.0
148
0.0
149
0.0
100
AcDbLayout
  1
レイアウト1
 70
     1
 71
     1
 10
0.0
 20
0.0
 11
420.0
 21
297.0
 12
0.0
 22
0.0
 32
0.0
 14
1.000000000000000E+20
 24
1.000000000000000E+20
 34
1.000000000000000E+20
 15
-1.000000000000000E+20
 25
-1.000000000000000E+20
 35
-1.000000000000000E+20
146
0.0
 13
0.0
 23
0.0
 33
0.0
 16
1.0
 26
0.0
 36
0.0
 17
0.0
 27
1.0
 37
0.0
 76
     0
330
15
  0
MATERIAL
  5
96A
102
{ACAD_XDICTIONARY
360
96B
102
}
102
{ACAD_REACTORS
330
961
102
}
330
961
100
AcDbMaterial
  1
ByBlock
 72
     0
 43
0.0208333333333333
 43
0.0
 43
0.0
 43
0.0
 43
0.0
 43
0.0208333333333333
 43
0.0
 43
0.0
 43
0.0
 43
0.0
 43
1.0
 43
0.0
 43
0.0
 43
0.0
 43
0.0
 43
1.0
 77
     0
 47
0.0208333333333333
 47
0.0
 47
0.0
 47
0.0
 47
0.0
 47
0.0208333333333333
 47
0.0
 47
0.0
 47
0.0
 47
0.0
 47
1.0
 47
0.0
 47
0.0
 47
0.0
 47
0.0
 47
1.0
171
     0
 49
0.0208333333333333
 49
0.0
 49
0.0
 49
0.0
 49
0.0
 49
0.0208333333333333
 49
0.0
 49
0.0
 49
0.0
 49
0.0
 49
1.0
 49
0.0
 49
0.0
 49
0.0
 49
0.0
 49
1.0
175
     0
142
0.0208333333333333
142
0.0
142
0.0
142
0.0
142
0.0
142
0.0208333333333333
142
0.0
142
0.0
142
0.0
142
0.0
142
1.0
142
0.0
142
0.0
142
0.0
142
0.0
142
1.0
179
     0
144
0.0208333333333333
144
0.0
144
0.0
144
0.0
144
0.0
144
0.0208333333333333
144
0.0
144
0.0
144
0.0
144
0.0
144
1.0
144
0.0
144
0.0
144
0.0
144
0.0
144
1.0
147
0.0208333333333333
147
0.0
147
0.0
147
0.0
147
0.0
147
0.0208333333333333
147
0.0
147
0.0
147
0.0
147
0.0
147
1.0
147
0.0
147
0.0
147
0.0
147
0.0
147
1.0
  0
MATERIAL
  5
962
102
{ACAD_XDICTIONARY
360
963
102
}
102
{ACAD_REACTORS
330
961
102
}
330
961
100
AcDbMaterial
  1
ByLayer
 72
     0
 43
0.0208333333333333
 43
0.0
 43
0.0
 43
0.0
 43
0.0
 43
0.0208333333333333
 43
0.0
 43
0.0
 43
0.0
 43
0.0
 43
1.0
 43
0.0
 43
0.0
 43
0.0
 43
0.0
 43
1.0
 77
     0
 47
0.0208333333333333
 47
0.0
 47
0.0
 47
0.0
 47
0.0
 47
0.0208333333333333
 47
0.0
 47
0.0
 47
0.0
 47
0.0
 47
1.0
 47
0.0
 47
0.0
 47
0.0
 47
0.0
 47
1.0
171
     0
 49
0.0208333333333333
 49
0.0
 49
0.0
 49
0.0
 49
0.0
 49
0.0208333333333333
 49
0.0
 49
0.0
 49
0.0
 49
0.0
 49
1.0
 49
0.0
 49
0.0
 49
0.0
 49
0.0
 49
1.0
175
     0
142
0.0208333333333333
142
0.0
142
0.0
142
0.0
142
0.0
142
0.0208333333333333
142
0.0
142
0.0
142
0.0
142
0.0
142
1.0
142
0.0
142
0.0
142
0.0
142
0.0
142
1.0
179
     0
144
0.0208333333333333
144
0.0
144
0.0
144
0.0
144
0.0
144
0.0208333333333333
144
0.0
144
0.0
144
0.0
144
0.0
144
1.0
144
0.0
144
0.0
144
0.0
144
0.0
144
1.0
147
0.0208333333333333
147
0.0
147
0.0
147
0.0
147
0.0
147
0.0208333333333333
147
0.0
147
0.0
147
0.0
147
0.0
147
1.0
147
0.0
147
0.0
147
0.0
147
0.0
147
1.0
  0
MATERIAL
  5
972
102
{ACAD_XDICTIONARY
360
973
102
}
102
{ACAD_REACTORS
330
961
102
}
330
961
100
AcDbMaterial
  1
Global
 72
     0
 43
0.0208333333333333
 43
0.0
 43
0.0
 43
0.0
 43
0.0
 43
0.0208333333333333
 43
0.0
 43
0.0
 43
0.0
 43
0.0
 43
1.0
 43
0.0
 43
0.0
 43
0.0
 43
0.0
 43
1.0
 77
     0
 47
0.0208333333333333
 47
0.0
 47
0.0
 47
0.0
 47
0.0
 47
0.0208333333333333
 47
0.0
 47
0.0
 47
0.0
 47
0.0
 47
1.0
 47
0.0
 47
0.0
 47
0.0
 47
0.0
 47
1.0
171
     0
 49
0.0208333333333333
 49
0.0
 49
0.0
 49
0.0
 49
0.0
 49
0.0208333333333333
 49
0.0
 49
0.0
 49
0.0
 49
0.0
 49
1.0
 49
0.0
 49
0.0
 49
0.0
 49
0.0
 49
1.0
175
     0
142
0.0208333333333333
142
0.0
142
0.0
142
0.0
142
0.0
142
0.0208333333333333
142
0.0
142
0.0
142
0.0
142
0.0
142
1.0
142
0.0
142
0.0
142
0.0
142
0.0
142
1.0
179
     0
144
0.0208333333333333
144
0.0
144
0.0
144
0.0
144
0.0
144
0.0208333333333333
144
0.0
144
0.0
144
0.0
144
0.0
144
1.0
144
0.0
144
0.0
144
0.0
144
0.0
144
1.0
147
0.0208333333333333
147
0.0
147
0.0
147
0.0
147
0.0
147
0.0208333333333333
147
0.0
147
0.0
147
0.0
147
0.0
147
1.0
147
0.0
147
0.0
147
0.0
147
0.0
147
1.0
  0
MLEADERSTYLE
  5
9A9
102
{ACAD_REACTORS
330
9A8
102
}
330
9A8
100
AcDbMLeaderStyle
170
     2
171
     1
172
     0
 90
        2
 40
0.0
 41
0.0
173
     1
 91
-1056964608
340
12
 92
       -2
290
     1
 42
0.09
291
     1
 43
0.36
  3
Standard
 44
0.18
300

342
F
174
     1
178
     6
175
     1
176
     0
 93
-1056964608
 45
0.18
292
     0
297
     0
 46
0.18
 94
-1056964608
 47
1.0
 49
1.0
140
1.0
293
     1
141
0.0
294
     1
177
     0
142
1.0
295
     0
296
     0
143
0.125
1001
ACAD_MLEADERVER
1070
     2
  0
MLINESTYLE
  5
1C
102
{ACAD_REACTORS
330
1B
102
}
330
1B
100
AcDbMlineStyle
  2
STANDARD
 70
     0
  3

 62
   256
 51
90.0
 52
90.0
 71
     2
 49
0.5
 62
   256
  6
BYLAYER
 49
-0.5
 62
   256
  6
BYLAYER
  0
ACDBPLACEHOLDER
  5
960
102
{ACAD_REACTORS
330
95F
102
}
330
95F
  0
SCALE
  5
997
102
{ACAD_REACTORS
330
996
102
}
330
996
100
AcDbScale
 70
     0
300
1:1
140
1.0
141
1.0
290
     1
  0
SCALE
  5
998
102
{ACAD_REACTORS
330
996
102
}
330
996
100
AcDbScale
 70
     0
300
1/128" = 1'-0"
140
0.0078125
141
12.0
290
     0
  0
SCALE
  5
999
102
{ACAD_REACTORS
330
996
102
}
330
996
100
AcDbScale
 70
     0
300
1/64" = 1'-0"
140
0.015625
141
12.0
290
     0
  0
SCALE
  5
99A
102
{ACAD_REACTORS
330
996
102
}
330
996
100
AcDbScale
 70
     0
300
1/32" = 1'-0"
140
0.03125
141
12.0
290
     0
  0
SCALE
  5
99B
102
{ACAD_REACTORS
330
996
102
}
330
996
100
AcDbScale
 70
     0
300
1/16" = 1'-0"
140
0.0625
141
12.0
290
     0
  0
SCALE
  5
99C
102
{ACAD_REACTORS
330
996
102
}
330
996
100
AcDbScale
 70
     0
300
3/32" = 1'-0"
140
0.09375
141
12.0
290
     0
  0
SCALE
  5
99D
102
{ACAD_REACTORS
330
996
102
}
330
996
100
AcDbScale
 70
     0
300
1/8" = 1'-0"
140
0.125
141
12.0
290
     0
  0
SCALE
  5
99E
102
{ACAD_REACTORS
330
996
102
}
330
996
100
AcDbScale
 70
     0
300
3/16" = 1'-0"
140
0.1875
141
12.0
290
     0
  0
SCALE
  5
99F
102
{ACAD_REACTORS
330
996
102
}
330
996
100
AcDbScale
 70
     0
300
1/4" = 1'-0"
140
0.25
141
12.0
290
     0
  0
SCALE
  5
9A0
102
{ACAD_REACTORS
330
996
102
}
330
996
100
AcDbScale
 70
     0
300
3/8" = 1'-0"
140
0.375
141
12.0
290
     0
  0
SCALE
  5
9A1
102
{ACAD_REACTORS
330
996
102
}
330
996
100
AcDbScale
 70
     0
300
1/2" = 1'-0"
140
0.5
141
12.0
290
     0
  0
SCALE
  5
9A2
102
{ACAD_REACTORS
330
996
102
}
330
996
100
AcDbScale
 70
     0
300
3/4" = 1'-0"
140
0.75
141
12.0
290
     0
  0
SCALE
  5
9A3
102
{ACAD_REACTORS
330
996
102
}
330
996
100
AcDbScale
 70
     0
300
1" = 1'-0"
140
1.0
141
12.0
290
     0
  0
SCALE
  5
9A4
102
{ACAD_REACTORS
330
996
102
}
330
996
100
AcDbScale
 70
     0
300
1-1/2" = 1'-0"
140
1.5
141
12.0
290
     0
  0
SCALE
  5
9A5
102
{ACAD_REACTORS
330
996
102
}
330
996
100
AcDbScale
 70
     0
300
3" = 1'-0"
140
3.0
141
12.0
290
     0
  0
SCALE
  5
9A6
102
{ACAD_REACTORS
330
996
102
}
330
996
100
AcDbScale
 70
     0
300
6" = 1'-0"
140
6.0
141
12.0
290
     0
  0
SCALE
  5
9A7
102
{ACAD_REACTORS
330
996
102
}
330
996
100
AcDbScale
 70
     0
300
1'-0" = 1'-0"
140
12.0
141
12.0
290
     0
  0
ACDBSECTIONVIEWSTYLE
  5
9AB
102
{ACAD_XDICTIONARY
360
A05
102
}
102
{ACAD_REACTORS
330
9AA
102
}
330
9AA
100
AcDbModelDocViewStyle
 70
     0
  3
Imperial24
290
     0
100
AcDbSectionViewStyle
 70
     0
 71
     0
 90
       78
 71
     1
340
F
 40
0.24
340
0
340
0
 40
0.24
300
I, O, Q, S, X, Z
 40
0.48
 90
        3
 40
0.18
 90
        1
 71
     2
340
14
 90
       25
340
14
 90
       50
 40
0.24
 40
0.0
 40
0.24
 71
     3
340
F
 40
0.24
 90
        1
 40
0.75
 90
        1
300
%<\AcVar ViewType \f "%tc1">% %<\AcVar ViewSectionStartId>%-%<\AcVar ViewSectionEndId>%\PSCALE %<\AcVar ViewScale \f "%sn">%
 71
     4
300
ANSI31
 40
1.0
 90
        0
290
     0
290
     0
 90
        6
 40
0.0
 40
1.570796326794896
 40
0.2617993877991494
 40
1.308996938995747
 40
-0.2617993877991494
 40
1.832595714594046
  0
TABLESTYLE
  5
995
102
{ACAD_XDICTIONARY
360
9CC
102
}
102
{ACAD_REACTORS
330
994
102
}
330
994
100
AcDbTableStyle
  3
Standard
 70
     0
 71
     0
 40
0.06
 41
0.06
280
     0
281
     0
  7
STANDARD
140
0.18
170
     2
 62
     0
 63
     7
283
     0
274
    -2
284
     1
 64
     0
275
    -2
285
     1
 65
     0
276
    -2
286
     1
 66
     0
277
    -2
287
     1
 67
     0
278
    -2
288
     1
 68
     0
279
    -2
289
     1
 69
     0
  7
STANDARD
140
0.25
170
     5
 62
     0
 63
     7
283
     0
274
    -2
284
     1
 64
     0
275
    -2
285
     1
 65
     0
276
    -2
286
     1
 66
     0
277
    -2
287
     1
 67
     0
278
    -2
288
     1
 68
     0
279
    -2
289
     1
 69
     0
  7
STANDARD
140
0.18
170
     5
 62
     0
 63
     7
283
     0
274
    -2
284
     1
 64
     0
275
    -2
285
     1
 65
     0
276
    -2
286
     1
 66
     0
277
    -2
287
     1
 67
     0
278
    -2
288
     1
 68
     0
279
    -2
289
     1
 69
     0
  0
VISUALSTYLE
  5
980
102
{ACAD_XDICTIONARY
360
9DD
102
}
102
{ACAD_REACTORS
330
97A
102
}
330
97A
100
AcDbVisualStyle
  2
2dWireframe
 70
     4
 71
     0
 72
     2
 73
     0
 90
        0
 40
-0.6
 41
-30.0
 62
     5
 63
     7
 74
     1
 91
        4
 64
     7
 65
   257
 75
     1
175
     1
 42
1.0
 92
        0
 66
   257
 43
1.0
 76
     1
 77
     6
 78
     2
 67
     7
 79
     5
170
     0
171
     0
290
     0
174
     0
 93
        1
 44
0.0
173
     0
291
     0
 45
0.0
1001
ACAD
1000
AcDbSavedByObjectVersion
1070
     0
  0
VISUALSTYLE
  5
97F
102
{ACAD_XDICTIONARY
360
9DB
102
}
102
{ACAD_REACTORS
330
97A
102
}
330
97A
100
AcDbVisualStyle
  2
Basic
 70
     7
 71
     1
 72
     0
 73
     1
 90
        0
 40
-0.6
 41
-30.0
 62
     5
 63
     7
 74
     0
 91
        4
 64
     7
 65
   257
 75
     1
175
     1
 42
1.0
 92
        8
 66
     7
 43
1.0
 76
     1
 77
     6
 78
     2
 67
     7
 79
     5
170
     0
171
     0
290
     0
174
     0
 93
        1
 44
0.0
173
     0
291
     1
 45
0.0
1001
ACAD
1000
AcDbSavedByObjectVersion
1070
     0
  0
VISUALSTYLE
  5
986
102
{ACAD_XDICTIONARY
360
9E9
102
}
102
{ACAD_REACTORS
330
97A
102
}
330
97A
100
AcDbVisualStyle
  2
Brighten
 70
    12
 71
     2
 72
     2
 73
     0
 90
        0
 40
-0.6
 41
-30.0
 62
     5
 63
     7
 74
     1
 91
        4
 64
     7
 65
   257
 75
     1
175
     1
 42
1.0
 92
        8
 66
     7
 43
1.0
 76
     1
 77
     6
 78
     2
 67
     7
 79
     5
170
     0
171
     0
290
     0
174
     0
 93
        1
 44
50.0
173
     0
291
     1
 45
0.0
1001
ACAD
1000
AcDbSavedByObjectVersion
1070
     0
  0
VISUALSTYLE
  5
98A
102
{ACAD_XDICTIONARY
360
9F1
102
}
102
{ACAD_REACTORS
330
97A
102
}
330
97A
100
AcDbVisualStyle
  2
ColorChange
 70
    16
 71
     2
 72
     2
 73
     3
 90
        0
 40
-0.6
 41
-30.0
 62
     5
 63
     8
 74
     1
 91
        4
 64
     7
 65
   257
 75
     1
175
     1
 42
1.0
 92
        8
 66
     8
 43
1.0
 76
     1
 77
     6
 78
     2
 67
     7
 79
     5
170
     0
171
     0
290
     0
174
     0
 93
        1
 44
0.0
173
     0
291
     1
 45
0.0
1001
ACAD
1000
AcDbSavedByObjectVersion
1070
     0
  0
VISUALSTYLE
  5
983
102
{ACAD_XDICTIONARY
360
9E3
102
}
102
{ACAD_REACTORS
330
97A
102
}
330
97A
100
AcDbVisualStyle
  2
Conceptual
 70
     9
 71
     3
 72
     2
 73
     0
 90
        0
 40
-0.6
 41
-30.0
 62
     5
 63
     7
 74
     2
 91
        2
 64
     7
 65
   257
 75
     1
175
     1
 42
179.0
 92
        8
 66
     7
 43
1.0
 76
     1
 77
     6
 78
     2
 67
     7
 79
     3
170
     0
171
     0
290
     0
174
     0
 93
        1
 44
0.0
173
     0
291
     0
 45
0.0
1001
ACAD
1000
AcDbSavedByObjectVersion
1070
     0
  0
VISUALSTYLE
  5
985
102
{ACAD_XDICTIONARY
360
9E7
102
}
102
{ACAD_REACTORS
330
97A
102
}
330
97A
100
AcDbVisualStyle
  2
Dim
 70
    11
 71
     2
 72
     2
 73
     0
 90
        0
 40
-0.6
 41
-30.0
 62
     5
 63
     7
 74
     1
 91
        4
 64
     7
 65
   257
 75
     1
175
     1
 42
1.0
 92
        8
 66
     7
 43
1.0
 76
     1
 77
     6
 78
     2
 67
     7
 79
     5
170
     0
171
     0
290
     0
174
     0
 93
        1
 44
-50.0
173
     0
291
     1
 45
0.0
1001
ACAD
1000
AcDbSavedByObjectVersion
1070
     0
  0
VISUALSTYLE
  5
992
102
{ACAD_XDICTIONARY
360
A01
102
}
102
{ACAD_REACTORS
330
97A
102
}
330
97A
100
AcDbVisualStyle
  2
EdgeColorOff
 70
    22
 71
     2
 72
     2
 73
     0
 90
        0
 40
-0.6
 41
-30.0
 62
     5
 63
     7
 74
     1
 91
        4
 64
     7
 65
   257
 75
     1
175
     1
 42
1.0
 92
        8
 66
     7
 43
1.0
 76
     1
 77
     6
 78
     2
 67
     7
 79
     5
170
     0
171
     0
290
     0
174
     0
 93
        1
 44
0.0
173
     0
291
     1
 45
0.0
1001
ACAD
1000
AcDbSavedByObjectVersion
1070
     0
  0
VISUALSTYLE
  5
989
102
{ACAD_XDICTIONARY
360
9EF
102
}
102
{ACAD_REACTORS
330
97A
102
}
330
97A
100
AcDbVisualStyle
  2
Facepattern
 70
    15
 71
     2
 72
     2
 73
     0
 90
        0
 40
-0.6
 41
-30.0
 62
     5
 63
     7
 74
     1
 91
        4
 64
     7
 65
   257
 75
     1
175
     1
 42
1.0
 92
        8
 66
     7
 43
1.0
 76
     1
 77
     6
 78
     2
 67
     7
 79
     5
170
     0
171
     0
290
     0
174
     0
 93
        1
 44
0.0
173
     0
291
     1
 45
0.0
1001
ACAD
1000
AcDbSavedByObjectVersion
1070
     0
  0
VISUALSTYLE
  5
97B
102
{ACAD_XDICTIONARY
360
9D3
102
}
102
{ACAD_REACTORS
330
97A
102
}
330
97A
100
AcDbVisualStyle
  2
Flat
 70
     0
 71
     2
 72
     1
 73
     1
 90
        2
 40
-0.6
 41
30.0
 62
     5
 63
     7
 74
     0
 91
        0
 64
     7
 65
   257
 75
     1
175
     1
 42
1.0
 92
        8
 66
     7
 43
1.0
 76
     1
 77
     6
 78
     2
 67
     7
 79
     5
170
     0
171
     0
290
     0
174
     0
 93
       13
 44
0.0
173
     0
291
     1
 45
0.0
1001
ACAD
1000
AcDbSavedByObjectVersion
1070
     0
  0
VISUALSTYLE
  5
97C
102
{ACAD_XDICTIONARY
360
9D5
102
}
102
{ACAD_REACTORS
330
97A
102
}
330
97A
100
AcDbVisualStyle
  2
FlatWithEdges
 70
     1
 71
     2
 72
     1
 73
     1
 90
        2
 40
-0.6
 41
30.0
 62
     5
 63
     7
 74
     1
 91
        0
 64
     7
 65
   257
 75
     1
175
     1
 42
1.0
 92
        0
 66
   257
 43
1.0
 76
     1
 77
     6
 78
     2
 67
     7
 79
     5
170
     0
171
     0
290
     0
174
     0
 93
       13
 44
0.0
173
     0
291
     1
 45
0.0
1001
ACAD
1000
AcDbSavedByObjectVersion
1070
     0
  0
VISUALSTYLE
  5
97D
102
{ACAD_XDICTIONARY
360
9D7
102
}
102
{ACAD_REACTORS
330
97A
102
}
330
97A
100
AcDbVisualStyle
  2
Gouraud
 70
     2
 71
     2
 72
     2
 73
     1
 90
        2
 40
-0.6
 41
30.0
 62
     5
 63
     7
 74
     0
 91
        0
 64
     7
 65
   257
 75
     1
175
     1
 42
1.0
 92
        0
 66
     7
 43
1.0
 76
     1
 77
     6
 78
     2
 67
     7
 79
     5
170
     0
171
     0
290
     0
174
     0
 93
       13
 44
0.0
173
     0
291
     1
 45
0.0
1001
ACAD
1000
AcDbSavedByObjectVersion
1070
     0
  0
VISUALSTYLE
  5
97E
102
{ACAD_XDICTIONARY
360
9D9
102
}
102
{ACAD_REACTORS
330
97A
102
}
330
97A
100
AcDbVisualStyle
  2
GouraudWithEdges
 70
     3
 71
     2
 72
     2
 73
     1
 90
        2
 40
-0.6
 41
30.0
 62
     5
 63
     7
 74
     1
 91
        0
 64
     7
 65
   257
 75
     1
175
     1
 42
1.0
 92
        0
 66
   257
 43
1.0
 76
     1
 77
     6
 78
     2
 67
     7
 79
     5
170
     0
171
     0
290
     0
174
     0
 93
       13
 44
0.0
173
     0
291
     1
 45
0.0
1001
ACAD
1000
AcDbSavedByObjectVersion
1070
     0
  0
VISUALSTYLE
  5
982
102
{ACAD_XDICTIONARY
360
9E1
102
}
102
{ACAD_REACTORS
330
97A
102
}
330
97A
100
AcDbVisualStyle
  2
Hidden
 70
     6
 71
     1
 72
     2
 73
     2
 90
        0
 40
-0.6
 41
-30.0
 62
     5
 63
     7
 74
     2
 91
        2
 64
     7
 65
   257
 75
     2
175
     1
 42
40.0
 92
        0
 66
   257
 43
1.0
 76
     1
 77
     6
 78
     2
 67
     7
 79
     3
170
     0
171
     0
290
     0
174
     0
 93
        1
 44
0.0
173
     0
291
     0
 45
0.0
1001
ACAD
1000
AcDbSavedByObjectVersion
1070
     0
  0
VISUALSTYLE
  5
990
102
{ACAD_XDICTIONARY
360
9FD
102
}
102
{ACAD_REACTORS
330
97A
102
}
330
97A
100
AcDbVisualStyle
  2
JitterOff
 70
    20
 71
     2
 72
     2
 73
     0
 90
        0
 40
-0.6
 41
-30.0
 62
     5
 63
     7
 74
     1
 91
        4
 64
     7
 65
   257
 75
     1
175
     1
 42
1.0
 92
       10
 66
     7
 43
1.0
 76
     1
 77
     6
 78
     2
 67
     7
 79
     5
170
     0
171
     0
290
     0
174
     0
 93
        1
 44
0.0
173
     0
291
     1
 45
0.0
1001
ACAD
1000
AcDbSavedByObjectVersion
1070
     0
  0
VISUALSTYLE
  5
988
102
{ACAD_XDICTIONARY
360
9ED
102
}
102
{ACAD_REACTORS
330
97A
102
}
330
97A
100
AcDbVisualStyle
  2
Linepattern
 70
    14
 71
     2
 72
     2
 73
     0
 90
        0
 40
-0.6
 41
-30.0
 62
     5
 63
     7
 74
     1
 91
        4
 64
     7
 65
   257
 75
     7
175
     7
 42
1.0
 92
        8
 66
     7
 43
1.0
 76
     1
 77
     6
 78
     2
 67
     7
 79
     5
170
     0
171
     0
290
     0
174
     0
 93
        1
 44
0.0
173
     0
291
     1
 45
0.0
1001
ACAD
1000
AcDbSavedByObjectVersion
1070
     0
  0
VISUALSTYLE
  5
991
102
{ACAD_XDICTIONARY
360
9FF
102
}
102
{ACAD_REACTORS
330
97A
102
}
330
97A
100
AcDbVisualStyle
  2
OverhangOff
 70
    21
 71
     2
 72
     2
 73
     0
 90
        0
 40
-0.6
 41
-30.0
 62
     5
 63
     7
 74
     1
 91
        4
 64
     7
 65
   257
 75
     1
175
     1
 42
1.0
 92
        9
 66
     7
 43
1.0
 76
     1
 77
     6
 78
     2
 67
     7
 79
     5
170
     0
171
     0
290
     0
174
     0
 93
        1
 44
0.0
173
     0
291
     1
 45
0.0
1001
ACAD
1000
AcDbSavedByObjectVersion
1070
     0
  0
VISUALSTYLE
  5
984
102
{ACAD_XDICTIONARY
360
9E5
102
}
102
{ACAD_REACTORS
330
97A
102
}
330
97A
100
AcDbVisualStyle
  2
Realistic
 70
     8
 71
     2
 72
     3
 73
     0
 90
        2
 40
-0.6
 41
30.0
 62
     5
 63
     7
 74
     0
 91
        0
 64
     7
 65
   257
 75
     1
175
     1
 42
1.0
 92
        8
 66
   257
 43
1.0
 76
     1
 77
     6
 78
     2
 67
     7
 79
     3
170
     0
171
     0
290
     0
174
     0
 93
       13
 44
0.0
173
     0
291
     0
 45
0.0
1001
ACAD
1000
AcDbSavedByObjectVersion
1070
     0
  0
VISUALSTYLE
  5
98F
102
{ACAD_XDICTIONARY
360
9FB
102
}
102
{ACAD_REACTORS
330
97A
102
}
330
97A
100
AcDbVisualStyle
  2
Shaded
 70
    27
 71
     2
 72
     2
 73
     1
 90
        2
 40
-0.6
 41
30.0
 62
     5
 63
     7
 74
     0
 91
        4
 64
     7
 65
   257
 75
     1
175
     1
 42
1.0
 92
        8
 66
   257
 43
1.0
 76
     1
 77
     6
 78
     2
 67
     8
 79
     3
170
     0
171
     0
290
     0
174
     0
 93
        5
 44
0.0
173
     0
291
     0
 45
0.0
1001
ACAD
1000
AcDbSavedByObjectVersion
1070
     0
  0
VISUALSTYLE
  5
98E
102
{ACAD_XDICTIONARY
360
9F9
102
}
102
{ACAD_REACTORS
330
97A
102
}
330
97A
100
AcDbVisualStyle
  2
Shaded with edges
 70
    26
 71
     2
 72
     2
 73
     1
 90
        2
 40
-0.6
 41
30.0
 62
     5
 63
     7
 74
     1
 91
       10
 64
     7
 65
   257
 75
     2
175
     1
 42
1.0
 92
        8
 66
   257
 43
1.0
 76
     1
 77
     6
 78
     2
 67
     7
 79
     3
170
     0
171
     0
290
     0
174
     0
 93
        5
 44
0.0
173
     0
291
     0
 45
0.0
1001
ACAD
1000
AcDbSavedByObjectVersion
1070
     0
  0
VISUALSTYLE
  5
98B
102
{ACAD_XDICTIONARY
360
9F3
102
}
102
{ACAD_REACTORS
330
97A
102
}
330
97A
100
AcDbVisualStyle
  2
Shades of Gray
 70
    23
 71
     2
 72
     2
 73
     3
 90
        0
 40
-0.6
 41
-30.0
 62
     5
 63
     7
 74
     2
 91
        2
 64
     7
 65
     7
 75
     1
175
     1
 42
40.0
 92
        8
 66
     7
 43
1.0
 76
     1
 77
     6
 78
     2
 67
     7
 79
     3
170
     0
171
     0
290
     0
174
     0
 93
        1
 44
0.0
173
     0
291
     0
 45
0.0
1001
ACAD
1000
AcDbSavedByObjectVersion
1070
     0
  0
VISUALSTYLE
  5
98C
102
{ACAD_XDICTIONARY
360
9F5
102
}
102
{ACAD_REACTORS
330
97A
102
}
330
97A
100
AcDbVisualStyle
  2
Sketchy
 70
    24
 71
     1
 72
     2
 73
     2
 90
        0
 40
-0.6
 41
-30.0
 62
     5
 63
     7
 74
     2
 91
        2
 64
     7
 65
     7
 75
     1
175
     1
 42
40.0
 92
       11
 66
     7
 43
1.0
 76
     1
 77
     6
 78
     2
 67
     7
 79
     6
170
     0
171
     0
290
     0
174
     0
 93
        1
 44
0.0
173
     0
291
     0
 45
0.0
1001
ACAD
1000
AcDbSavedByObjectVersion
1070
     0
  0
VISUALSTYLE
  5
987
102
{ACAD_XDICTIONARY
360
9EB
102
}
102
{ACAD_REACTORS
330
97A
102
}
330
97A
100
AcDbVisualStyle
  2
Thicken
 70
    13
 71
     2
 72
     2
 73
     0
 90
        0
 40
-0.6
 41
-30.0
 62
     5
 63
     7
 74
     1
 91
        4
 64
     7
 65
   257
 75
     1
175
     1
 42
1.0
 92
       12
 66
     7
 43
1.0
 76
     1
 77
     6
 78
     2
 67
     7
 79
     5
170
     0
171
     0
290
     0
174
     0
 93
        1
 44
0.0
173
     0
291
     1
 45
0.0
1001
ACAD
1000
AcDbSavedByObjectVersion
1070
     0
  0
VISUALSTYLE
  5
981
102
{ACAD_XDICTIONARY
360
9DF
102
}
102
{ACAD_REACTORS
330
97A
102
}
330
97A
100
AcDbVisualStyle
  2
Wireframe
 70
     5
 71
     0
 72
     2
 73
     0
 90
        0
 40
-0.6
 41
-30.0
 62
     5
 63
     7
 74
     1
 91
        4
 64
     7
 65
   257
 75
     1
175
     1
 42
1.0
 92
        0
 66
   257
 43
1.0
 76
     1
 77
     6
 78
     2
 67
     7
 79
     3
170
     0
171
     0
290
     0
174
     0
 93
        1
 44
0.0
173
     0
291
     0
 45
0.0
1001
ACAD
1000
AcDbSavedByObjectVersion
1070
     0
  0
VISUALSTYLE
  5
98D
102
{ACAD_XDICTIONARY
360
9F7
102
}
102
{ACAD_REACTORS
330
97A
102
}
330
97A
100
AcDbVisualStyle
  2
X-Ray
 70
    25
 71
     2
 72
     2
 73
     1
 90
        1
 40
0.5
 41
-30.0
 62
     5
 63
     7
 74
     1
 91
        0
 64
     7
 65
   257
 75
     1
175
     1
 42
1.0
 92
        8
 66
     7
 43
1.0
 76
     1
 77
     6
 78
     2
 67
     7
 79
     3
170
     0
171
     0
290
     0
174
     0
 93
       13
 44
0.0
173
     0
291
     0
 45
0.0
1001
ACAD
1000
AcDbSavedByObjectVersion
1070
     0
  0
DICTIONARYVAR
  5
9C6
102
{ACAD_REACTORS
330
9C1
102
}
330
9C1
100
DictionaryVariables
280
     0
  1
1:1
  0
DICTIONARYVAR
  5
9C3
102
{ACAD_REACTORS
330
9C1
102
}
330
9C1
100
DictionaryVariables
280
     0
  1
STANDARD
  0
DICTIONARYVAR
  5
9C2
102
{ACAD_REACTORS
330
9C1
102
}
330
9C1
100
DictionaryVariables
280
     0
  1
STANDARD
  0
DICTIONARYVAR
  5
9C4
102
{ACAD_REACTORS
330
9C1
102
}
330
9C1
100
DictionaryVariables
280
     0
  1
Imperial24
  0
DICTIONARYVAR
  5
9C5
102
{ACAD_REACTORS
330
9C1
102
}
330
9C1
100
DictionaryVariables
280
     0
  1
Imperial24
  0
DICTIONARYVAR
  5
9C9
102
{ACAD_REACTORS
330
9C1
102
}
330
9C1
100
DictionaryVariables
280
     0
  1
1
  0
DICTIONARYVAR
  5
9C8
102
{ACAD_REACTORS
330
9C1
102
}
330
9C1
100
DictionaryVariables
280
     0
  1
0
  0
DICTIONARYVAR
  5
9C7
102
{ACAD_REACTORS
330
9C1
102
}
330
9C1
100
DictionaryVariables
280
     0
  1
127
  0
DICTIONARYVAR
  5
9CA
102
{ACAD_REACTORS
330
9C1
102
}
330
9C1
100
DictionaryVariables
280
     0
  1
2
  0
DICTIONARY
  5
A07
330
9AD
100
AcDbDictionary
280
     1
281
     1
  3
ACAD_XREC_ROUNDTRIP
360
A08
  0
DICTIONARY
  5
A09
330
9AE
100
AcDbDictionary
280
     1
281
     1
  3
ACAD_XREC_ROUNDTRIP
360
A0A
  0
DICTIONARY
  5
A0B
330
9AF
100
AcDbDictionary
280
     1
281
     1
  3
ACAD_XREC_ROUNDTRIP
360
A0C
  0
DICTIONARY
  5
96B
330
96A
100
AcDbDictionary
280
     1
281
     1
  3
ACAD_XREC_ROUNDTRIP
360
9D1
  3
BUMPTILE
360
96D
  3
DIFFUSETILE
360
96C
  3
OPACITYTILE
360
970
  3
REFLECTIONTILE
360
96F
  3
REFRACTIONTILE
360
971
  3
SPECULARTILE
360
96E
  0
DICTIONARY
  5
963
330
962
100
AcDbDictionary
280
     1
281
     1
  3
ACAD_XREC_ROUNDTRIP
360
9D0
  3
BUMPTILE
360
965
  3
DIFFUSETILE
360
964
  3
OPACITYTILE
360
968
  3
REFLECTIONTILE
360
967
  3
REFRACTIONTILE
360
969
  3
SPECULARTILE
360
966
  0
DICTIONARY
  5
973
330
972
100
AcDbDictionary
280
     1
281
     1
  3
ACAD_XREC_ROUNDTRIP
360
9D2
  3
BUMPTILE
360
975
  3
DIFFUSETILE
360
974
  3
OPACITYTILE
360
978
  3
REFLECTIONTILE
360
977
  3
REFRACTIONTILE
360
979
  3
SPECULARTILE
360
976
  0
DICTIONARY
  5
A05
330
9AB
100
AcDbDictionary
280
     1
281
     1
  3
ACAD_XREC_ROUNDTRIP
360
A06
  0
DICTIONARY
  5
9CC
330
995
100
AcDbDictionary
280
     1
281
     1
  3
ACAD_ROUNDTRIP_2008_TABLESTYLE_CELLSTYLEMAP
360
9CD
  3
ACAD_XREC_ROUNDTRIP
360
A03
  0
DICTIONARY
  5
9DD
330
980
100
AcDbDictionary
280
     1
281
     1
  3
ACAD_XREC_ROUNDTRIP
360
9DE
  0
DICTIONARY
  5
9DB
330
97F
100
AcDbDictionary
280
     1
281
     1
  3
ACAD_XREC_ROUNDTRIP
360
9DC
  0
DICTIONARY
  5
9E9
330
986
100
AcDbDictionary
280
     1
281
     1
  3
ACAD_XREC_ROUNDTRIP
360
9EA
  0
DICTIONARY
  5
9F1
330
98A
100
AcDbDictionary
280
     1
281
     1
  3
ACAD_XREC_ROUNDTRIP
360
9F2
  0
DICTIONARY
  5
9E3
330
983
100
AcDbDictionary
280
     1
281
     1
  3
ACAD_XREC_ROUNDTRIP
360
9E4
  0
DICTIONARY
  5
9E7
330
985
100
AcDbDictionary
280
     1
281
     1
  3
ACAD_XREC_ROUNDTRIP
360
9E8
  0
DICTIONARY
  5
A01
330
992
100
AcDbDictionary
280
     1
281
     1
  3
ACAD_XREC_ROUNDTRIP
360
A02
  0
DICTIONARY
  5
9EF
330
989
100
AcDbDictionary
280
     1
281
     1
  3
ACAD_XREC_ROUNDTRIP
360
9F0
  0
DICTIONARY
  5
9D3
330
97B
100
AcDbDictionary
280
     1
281
     1
  3
ACAD_XREC_ROUNDTRIP
360
9D4
  0
DICTIONARY
  5
9D5
330
97C
100
AcDbDictionary
280
     1
281
     1
  3
ACAD_XREC_ROUNDTRIP
360
9D6
  0
DICTIONARY
  5
9D7
330
97D
100
AcDbDictionary
280
     1
281
     1
  3
ACAD_XREC_ROUNDTRIP
360
9D8
  0
DICTIONARY
  5
9D9
330
97E
100
AcDbDictionary
280
     1
281
     1
  3
ACAD_XREC_ROUNDTRIP
360
9DA
  0
DICTIONARY
  5
9E1
330
982
100
AcDbDictionary
280
     1
281
     1
  3
ACAD_XREC_ROUNDTRIP
360
9E2
  0
DICTIONARY
  5
9FD
330
990
100
AcDbDictionary
280
     1
281
     1
  3
ACAD_XREC_ROUNDTRIP
360
9FE
  0
DICTIONARY
  5
9ED
330
988
100
AcDbDictionary
280
     1
281
     1
  3
ACAD_XREC_ROUNDTRIP
360
9EE
  0
DICTIONARY
  5
9FF
330
991
100
AcDbDictionary
280
     1
281
     1
  3
ACAD_XREC_ROUNDTRIP
360
A00
  0
DICTIONARY
  5
9E5
330
984
100
AcDbDictionary
280
     1
281
     1
  3
ACAD_XREC_ROUNDTRIP
360
9E6
  0
DICTIONARY
  5
9FB
330
98F
100
AcDbDictionary
280
     1
281
     1
  3
ACAD_XREC_ROUNDTRIP
360
9FC
  0
DICTIONARY
  5
9F9
330
98E
100
AcDbDictionary
280
     1
281
     1
  3
ACAD_XREC_ROUNDTRIP
360
9FA
  0
DICTIONARY
  5
9F3
330
98B
100
AcDbDictionary
280
     1
281
     1
  3
ACAD_XREC_ROUNDTRIP
360
9F4
  0
DICTIONARY
  5
9F5
330
98C
100
AcDbDictionary
280
     1
281
     1
  3
ACAD_XREC_ROUNDTRIP
360
9F6
  0
DICTIONARY
  5
9EB
330
987
100
AcDbDictionary
280
     1
281
     1
  3
ACAD_XREC_ROUNDTRIP
360
9EC
  0
DICTIONARY
  5
9DF
330
981
100
AcDbDictionary
280
     1
281
     1
  3
ACAD_XREC_ROUNDTRIP
360
9E0
  0
DICTIONARY
  5
9F7
330
98D
100
AcDbDictionary
280
     1
281
     1
  3
ACAD_XREC_ROUNDTRIP
360
9F8
  0
XRECORD
  5
A08
102
{ACAD_REACTORS
330
A07
102
}
330
A07
100
AcDbXrecord
280
     1
102
DISPLAYNAME
  1
Imperial24
102
FLAGS
 90
        0
  0
XRECORD
  5
A0A
102
{ACAD_REACTORS
330
A09
102
}
330
A09
100
AcDbXrecord
280
     1
102
SHADEPLOT
 70
     0
102
SHADEPLOTRESLEVEL
 70
     2
102
SHADEPLOTCUSTOMDPI
 70
   300
  0
XRECORD
  5
A0C
102
{ACAD_REACTORS
330
A0B
102
}
330
A0B
100
AcDbXrecord
280
     1
102
SHADEPLOT
 70
     0
102
SHADEPLOTRESLEVEL
 70
     2
102
SHADEPLOTCUSTOMDPI
 70
   300
  0
XRECORD
  5
9D1
102
{ACAD_REACTORS
330
96B
102
}
330
96B
100
AcDbXrecord
280
     1
102
MATERIAL
148
0.0
149
0.0
149
0.0
 93
        0
 94
      127
282
     0
 72
     0
 77
     0
171
     0
175
     0
179
     0
273
     0
  0
XRECORD
  5
96D
102
{ACAD_REACTORS
330
96B
102
}
330
96B
100
AcDbXrecord
280
     1
270
     1
271
     1
  0
XRECORD
  5
96C
102
{ACAD_REACTORS
330
96B
102
}
330
96B
100
AcDbXrecord
280
     1
270
     1
271
     1
  0
XRECORD
  5
970
102
{ACAD_REACTORS
330
96B
102
}
330
96B
100
AcDbXrecord
280
     1
270
     1
271
     1
  0
XRECORD
  5
96F
102
{ACAD_REACTORS
330
96B
102
}
330
96B
100
AcDbXrecord
280
     1
270
     1
271
     1
  0
XRECORD
  5
971
102
{ACAD_REACTORS
330
96B
102
}
330
96B
100
AcDbXrecord
280
     1
270
     1
271
     1
  0
XRECORD
  5
96E
102
{ACAD_REACTORS
330
96B
102
}
330
96B
100
AcDbXrecord
280
     1
270
     1
271
     1
  0
XRECORD
  5
9D0
102
{ACAD_REACTORS
330
963
102
}
330
963
100
AcDbXrecord
280
     1
102
MATERIAL
148
0.0
149
0.0
149
0.0
 93
        0
 94
      127
282
     0
 72
     0
 77
     0
171
     0
175
     0
179
     0
273
     0
  0
XRECORD
  5
965
102
{ACAD_REACTORS
330
963
102
}
330
963
100
AcDbXrecord
280
     1
270
     1
271
     1
  0
XRECORD
  5
964
102
{ACAD_REACTORS
330
963
102
}
330
963
100
AcDbXrecord
280
     1
270
     1
271
     1
  0
XRECORD
  5
968
102
{ACAD_REACTORS
330
963
102
}
330
963
100
AcDbXrecord
280
     1
270
     1
271
     1
  0
XRECORD
  5
967
102
{ACAD_REACTORS
330
963
102
}
330
963
100
AcDbXrecord
280
     1
270
     1
271
     1
  0
XRECORD
  5
969
102
{ACAD_REACTORS
330
963
102
}
330
963
100
AcDbXrecord
280
     1
270
     1
271
     1
  0
XRECORD
  5
966
102
{ACAD_REACTORS
330
963
102
}
330
963
100
AcDbXrecord
280
     1
270
     1
271
     1
  0
XRECORD
  5
9D2
102
{ACAD_REACTORS
330
973
102
}
330
973
100
AcDbXrecord
280
     1
102
MATERIAL
148
0.0
149
0.0
149
0.0
 93
        0
 94
      127
282
     0
 72
     0
 77
     0
171
     0
175
     0
179
     0
273
     0
  0
XRECORD
  5
975
102
{ACAD_REACTORS
330
973
102
}
330
973
100
AcDbXrecord
280
     1
270
     1
271
     1
  0
XRECORD
  5
974
102
{ACAD_REACTORS
330
973
102
}
330
973
100
AcDbXrecord
280
     1
270
     1
271
     1
  0
XRECORD
  5
978
102
{ACAD_REACTORS
330
973
102
}
330
973
100
AcDbXrecord
280
     1
270
     1
271
     1
  0
XRECORD
  5
977
102
{ACAD_REACTORS
330
973
102
}
330
973
100
AcDbXrecord
280
     1
270
     1
271
     1
  0
XRECORD
  5
979
102
{ACAD_REACTORS
330
973
102
}
330
973
100
AcDbXrecord
280
     1
270
     1
271
     1
  0
XRECORD
  5
976
102
{ACAD_REACTORS
330
973
102
}
330
973
100
AcDbXrecord
280
     1
270
     1
271
     1
  0
XRECORD
  5
A06
102
{ACAD_REACTORS
330
A05
102
}
330
A05
100
AcDbXrecord
280
     1
102
DISPLAYNAME
  1
Imperial24
102
FLAGS
 90
        0
  0
CELLSTYLEMAP
  5
9CD
102
{ACAD_REACTORS
330
9CC
102
}
330
9CC
100
AcDbCellStyleMap
 90
        3
300
CELLSTYLE
  1
TABLEFORMAT_BEGIN
 90
        5
170
     1
 91
        0
 92
    32768
 62
   257
 93
        1
300
CONTENTFORMAT
  1
CONTENTFORMAT_BEGIN
 90
        0
 91
        0
 92
      512
 93
        0
300

 40
0.0
140
1.0
 94
        5
 62
     0
340
F
144
0.25
309
CONTENTFORMAT_END
171
     0
 94
        0
309
TABLEFORMAT_END
  1
CELLSTYLE_BEGIN
 90
        1
 91
        1
300
_TITLE
309
CELLSTYLE_END
300
CELLSTYLE
  1
TABLEFORMAT_BEGIN
 90
        5
170
     1
 91
        0
 92
        0
 62
   257
 93
        1
300
CONTENTFORMAT
  1
CONTENTFORMAT_BEGIN
 90
        0
 91
        0
 92
      512
 93
        0
300

 40
0.0
140
1.0
 94
        5
 62
     0
340
F
144
0.18
309
CONTENTFORMAT_END
171
     0
 94
        0
309
TABLEFORMAT_END
  1
CELLSTYLE_BEGIN
 90
        2
 91
        1
300
_HEADER
309
CELLSTYLE_END
300
CELLSTYLE
  1
TABLEFORMAT_BEGIN
 90
        5
170
     1
 91
        0
 92
        0
 62
   257
 93
        1
300
CONTENTFORMAT
  1
CONTENTFORMAT_BEGIN
 90
        0
 91
        0
 92
      512
 93
        0
300

 40
0.0
140
1.0
 94
        2
 62
     0
340
F
144
0.18
309
CONTENTFORMAT_END
171
     0
 94
        0
309
TABLEFORMAT_END
  1
CELLSTYLE_BEGIN
 90
        3
 91
        2
300
_DATA
309
CELLSTYLE_END
  0
XRECORD
  5
A03
102
{ACAD_REACTORS
330
9CC
102
}
330
9CC
100
AcDbXrecord
280
     1
102
ACAD_ROUNDTRIP_PRE2007_TABLESTYLE
 90
      512
 91
        0
  1

 92
      512
 93
        0
  2

 94
      512
 95
        0
  3

  0
XRECORD
  5
9DE
102
{ACAD_REACTORS
330
9DD
102
}
330
9DD
100
AcDbXrecord
280
     1
102
RTVSPost2010Prop28
280
     1
102
RTVSPost2010PropOp28
 70
     1
102
RTVSPost2010Prop29
280
     1
102
RTVSPost2010PropOp29
 70
     1
102
RTVSPost2010Prop30
280
     0
102
RTVSPost2010PropOp30
 70
     1
102
RTVSPost2010Prop31
280
     0
102
RTVSPost2010PropOp31
 70
     1
102
RTVSPost2010Prop32
280
     0
102
RTVSPost2010PropOp32
 70
     1
102
RTVSPost2010Prop33
280
     0
102
RTVSPost2010PropOp33
 70
     1
102
RTVSPost2010Prop34
280
     0
102
RTVSPost2010PropOp34
 70
     1
102
RTVSPost2010Prop35
280
     0
102
RTVSPost2010PropOp35
 70
     1
102
RTVSPost2010Prop36
280
     0
102
RTVSPost2010PropOp36
 70
     1
102
RTVSPost2010Prop37
 90
       50
102
RTVSPost2010PropOp37
 70
     1
102
RTVSPost2010Prop38
140
0.0
102
RTVSPost2010PropOp38
 70
     1
102
RTVSPost2010Prop39
140
1.0
102
RTVSPost2010PropOp39
 70
     1
102
RTVSPost2010Prop40
 90
        0
102
RTVSPost2010PropOp40
 70
     1
102
RTVSPost2010Prop41ColorIndex
 90
       18
102
RTVSPost2010Prop41ColorRGB
 90
        0
102
RTVSPost2010PropOp41
 70
     1
102
RTVSPost2010Prop42
 90
       50
102
RTVSPost2010PropOp42
 70
     1
102
RTVSPost2010Prop43
 90
        3
102
RTVSPost2010PropOp43
 70
     1
102
RTVSPost2010Prop44ColorIndex
 90
        5
102
RTVSPost2010Prop44ColorRGB
 90
      255
102
RTVSPost2010PropOp44
 70
     1
102
RTVSPost2010Prop45
280
     0
102
RTVSPost2010PropOp45
 70
     1
102
RTVSPost2010Prop46
 90
       50
102
RTVSPost2010PropOp46
 70
     1
102
RTVSPost2010Prop47
 90
       50
102
RTVSPost2010PropOp47
 70
     1
102
RTVSPost2010Prop48
 90
       50
102
RTVSPost2010PropOp48
 70
     1
102
RTVSPost2010Prop49
280
     0
102
RTVSPost2010PropOp49
 70
     1
102
RTVSPost2010Prop50
 90
       50
102
RTVSPost2010PropOp50
 70
     1
102
RTVSPost2010Prop51ColorIndex
 90
      256
102
RTVSPost2010Prop51ColorRGB
 90
-16777216
102
RTVSPost2010PropOp51
 70
     0
102
RTVSPost2010Prop52
140
1.0
102
RTVSPost2010PropOp52
 70
     0
102
RTVSPost2010Prop53
 90
        2
102
RTVSPost2010PropOp53
 70
     1
102
RTVSPost2010Prop54
  1
strokes_ogs.tif
102
RTVSPost2010PropOp54
 70
     1
102
RTVSPost2010Prop55
280
     0
102
RTVSPost2010PropOp55
 70
     1
102
RTVSPost2010Prop56
140
1.0
102
RTVSPost2010PropOp56
 70
     1
102
RTVSPost2010Prop57
140
1.0
102
RTVSPost2010PropOp57
 70
     1
102
RTVSPropertyOp0
 70
     1
102
RTVSPropertyOp1
 70
     1
102
RTVSPropertyOp2
 70
     1
102
RTVSPropertyOp3
 70
     1
102
RTVSPropertyOp4
 70
     1
102
RTVSPropertyOp5
 70
     1
102
RTVSPropertyOp6
 70
     1
102
RTVSPropertyOp7
 70
     1
102
RTVSPropertyOp8
 70
     1
102
RTVSPropertyOp9
 70
     1
102
RTVSPropertyOp10
 70
     1
102
RTVSPropertyOp11
 70
     1
102
RTVSPropertyOp12
 70
     1
102
RTVSPropertyOp13
 70
     1
102
RTVSPropertyOp14
 70
     1
102
RTVSPropertyOp15
 70
     1
102
RTVSPropertyOp16
 70
     1
102
RTVSPropertyOp17
 70
     1
102
RTVSPropertyOp18
 70
     1
102
RTVSPropertyOp19
 70
     1
102
RTVSPropertyOp20
 70
     1
102
RTVSPropertyOp21
 70
     1
102
RTVSPropertyOp22
 70
     1
102
RTVSPropertyOp23
 70
     1
102
RTVSPropertyOp24
 70
     1
102
RTVSPropertyOp25
 70
     1
102
RTVSPropertyOp26
 70
     1
102
RTVSPropertyOp27
 70
     1
102
RTVSPropertyOp28
 70
     1
102
RTVSPropertyOp29
 70
     1
102
RTVSPropertyOp30
 70
     1
102
RTVSPropertyOp31
 70
     1
102
RTVSPropertyOp32
 70
     1
102
RTVSPropertyOp33
 70
     1
102
RTVSPropertyOp34
 70
     1
102
RTVSPropertyOp35
 70
     1
102
RTVSPropertyOp36
 70
     1
102
RTVSPropertyOp37
 70
     1
102
RTVSPropertyOp38
 70
     1
102
RTVSPropertyOp39
 70
     1
102
RTVSPropertyOp40
 70
     1
102
RTVSPropertyOp41
 70
     1
102
RTVSPropertyOp42
 70
     1
102
RTVSPropertyOp43
 70
     1
102
RTVSPropertyOp44
 70
     1
102
RTVSPropertyOp45
 70
     1
102
RTVSPropertyOp46
 70
     1
102
RTVSPropertyOp47
 70
     1
102
RTVSPropertyOp48
 70
     1
102
RTVSPropertyOp49
 70
     1
102
RTVSPropertyOp50
 70
     1
102
RTVSPropertyOp51
 70
     0
102
RTVSPropertyOp52
 70
     0
102
RTVSPropertyOp53
 70
     1
102
RTVSPropertyOp54
 70
     1
102
RTVSPropertyOp55
 70
     1
102
RTVSPropertyOp56
 70
     1
102
RTVSPropertyOp57
 70
     1
102
RTVSPropertyOp58
 70
     1
102
RTVSPropertyOp59
 70
     1
102
RTVSPropertyOp60
 70
     1
102
RTVSPropertyOp61
 70
     1
102
RTVSPropertyOp62
 70
     1
  0
XRECORD
  5
9DC
102
{ACAD_REACTORS
330
9DB
102
}
330
9DB
100
AcDbXrecord
280
     1
102
RTVSPost2010Prop28
280
     0
102
RTVSPost2010PropOp28
 70
     1
102
RTVSPost2010Prop29
280
     1
102
RTVSPost2010PropOp29
 70
     1
102
RTVSPost2010Prop30
280
     1
102
RTVSPost2010PropOp30
 70
     1
102
RTVSPost2010Prop31
280
     0
102
RTVSPost2010PropOp31
 70
     1
102
RTVSPost2010Prop32
280
     0
102
RTVSPost2010PropOp32
 70
     1
102
RTVSPost2010Prop33
280
     0
102
RTVSPost2010PropOp33
 70
     1
102
RTVSPost2010Prop34
280
     0
102
RTVSPost2010PropOp34
 70
     1
102
RTVSPost2010Prop35
280
     0
102
RTVSPost2010PropOp35
 70
     1
102
RTVSPost2010Prop36
280
     0
102
RTVSPost2010PropOp36
 70
     1
102
RTVSPost2010Prop37
 90
       50
102
RTVSPost2010PropOp37
 70
     1
102
RTVSPost2010Prop38
140
0.0
102
RTVSPost2010PropOp38
 70
     1
102
RTVSPost2010Prop39
140
1.0
102
RTVSPost2010PropOp39
 70
     1
102
RTVSPost2010Prop40
 90
        0
102
RTVSPost2010PropOp40
 70
     1
102
RTVSPost2010Prop41ColorIndex
 90
       18
102
RTVSPost2010Prop41ColorRGB
 90
        0
102
RTVSPost2010PropOp41
 70
     1
102
RTVSPost2010Prop42
 90
       50
102
RTVSPost2010PropOp42
 70
     1
102
RTVSPost2010Prop43
 90
        3
102
RTVSPost2010PropOp43
 70
     1
102
RTVSPost2010Prop44ColorIndex
 90
        5
102
RTVSPost2010Prop44ColorRGB
 90
      255
102
RTVSPost2010PropOp44
 70
     1
102
RTVSPost2010Prop45
280
     0
102
RTVSPost2010PropOp45
 70
     1
102
RTVSPost2010Prop46
 90
       50
102
RTVSPost2010PropOp46
 70
     1
102
RTVSPost2010Prop47
 90
       50
102
RTVSPost2010PropOp47
 70
     1
102
RTVSPost2010Prop48
 90
       50
102
RTVSPost2010PropOp48
 70
     1
102
RTVSPost2010Prop49
280
     0
102
RTVSPost2010PropOp49
 70
     1
102
RTVSPost2010Prop50
 90
       50
102
RTVSPost2010PropOp50
 70
     1
102
RTVSPost2010Prop51ColorIndex
 90
      256
102
RTVSPost2010Prop51ColorRGB
 90
-16777216
102
RTVSPost2010PropOp51
 70
     0
102
RTVSPost2010Prop52
140
1.0
102
RTVSPost2010PropOp52
 70
     0
102
RTVSPost2010Prop53
 90
        2
102
RTVSPost2010PropOp53
 70
     1
102
RTVSPost2010Prop54
  1
strokes_ogs.tif
102
RTVSPost2010PropOp54
 70
     1
102
RTVSPost2010Prop55
280
     0
102
RTVSPost2010PropOp55
 70
     1
102
RTVSPost2010Prop56
140
1.0
102
RTVSPost2010PropOp56
 70
     1
102
RTVSPost2010Prop57
140
1.0
102
RTVSPost2010PropOp57
 70
     1
102
RTVSPropertyOp0
 70
     1
102
RTVSPropertyOp1
 70
     1
102
RTVSPropertyOp2
 70
     1
102
RTVSPropertyOp3
 70
     1
102
RTVSPropertyOp4
 70
     1
102
RTVSPropertyOp5
 70
     1
102
RTVSPropertyOp6
 70
     1
102
RTVSPropertyOp7
 70
     1
102
RTVSPropertyOp8
 70
     1
102
RTVSPropertyOp9
 70
     1
102
RTVSPropertyOp10
 70
     1
102
RTVSPropertyOp11
 70
     1
102
RTVSPropertyOp12
 70
     1
102
RTVSPropertyOp13
 70
     1
102
RTVSPropertyOp14
 70
     1
102
RTVSPropertyOp15
 70
     1
102
RTVSPropertyOp16
 70
     1
102
RTVSPropertyOp17
 70
     1
102
RTVSPropertyOp18
 70
     1
102
RTVSPropertyOp19
 70
     1
102
RTVSPropertyOp20
 70
     1
102
RTVSPropertyOp21
 70
     1
102
RTVSPropertyOp22
 70
     1
102
RTVSPropertyOp23
 70
     1
102
RTVSPropertyOp24
 70
     1
102
RTVSPropertyOp25
 70
     1
102
RTVSPropertyOp26
 70
     1
102
RTVSPropertyOp27
 70
     1
102
RTVSPropertyOp28
 70
     1
102
RTVSPropertyOp29
 70
     1
102
RTVSPropertyOp30
 70
     1
102
RTVSPropertyOp31
 70
     1
102
RTVSPropertyOp32
 70
     1
102
RTVSPropertyOp33
 70
     1
102
RTVSPropertyOp34
 70
     1
102
RTVSPropertyOp35
 70
     1
102
RTVSPropertyOp36
 70
     1
102
RTVSPropertyOp37
 70
     1
102
RTVSPropertyOp38
 70
     1
102
RTVSPropertyOp39
 70
     1
102
RTVSPropertyOp40
 70
     1
102
RTVSPropertyOp41
 70
     1
102
RTVSPropertyOp42
 70
     1
102
RTVSPropertyOp43
 70
     1
102
RTVSPropertyOp44
 70
     1
102
RTVSPropertyOp45
 70
     1
102
RTVSPropertyOp46
 70
     1
102
RTVSPropertyOp47
 70
     1
102
RTVSPropertyOp48
 70
     1
102
RTVSPropertyOp49
 70
     1
102
RTVSPropertyOp50
 70
     1
102
RTVSPropertyOp51
 70
     0
102
RTVSPropertyOp52
 70
     0
102
RTVSPropertyOp53
 70
     1
102
RTVSPropertyOp54
 70
     1
102
RTVSPropertyOp55
 70
     1
102
RTVSPropertyOp56
 70
     1
102
RTVSPropertyOp57
 70
     1
102
RTVSPropertyOp58
 70
     1
102
RTVSPropertyOp59
 70
     1
102
RTVSPropertyOp60
 70
     1
102
RTVSPropertyOp61
 70
     1
102
RTVSPropertyOp62
 70
     1
  0
XRECORD
  5
9EA
102
{ACAD_REACTORS
330
9E9
102
}
330
9E9
100
AcDbXrecord
280
     1
102
RTVSPost2010Prop28
280
     0
102
RTVSPost2010PropOp28
 70
     1
102
RTVSPost2010Prop29
280
     1
102
RTVSPost2010PropOp29
 70
     1
102
RTVSPost2010Prop30
280
     1
102
RTVSPost2010PropOp30
 70
     1
102
RTVSPost2010Prop31
280
     0
102
RTVSPost2010PropOp31
 70
     1
102
RTVSPost2010Prop32
280
     0
102
RTVSPost2010PropOp32
 70
     1
102
RTVSPost2010Prop33
280
     0
102
RTVSPost2010PropOp33
 70
     1
102
RTVSPost2010Prop34
280
     0
102
RTVSPost2010PropOp34
 70
     1
102
RTVSPost2010Prop35
280
     0
102
RTVSPost2010PropOp35
 70
     1
102
RTVSPost2010Prop36
280
     0
102
RTVSPost2010PropOp36
 70
     1
102
RTVSPost2010Prop37
 90
       50
102
RTVSPost2010PropOp37
 70
     1
102
RTVSPost2010Prop38
140
0.0
102
RTVSPost2010PropOp38
 70
     1
102
RTVSPost2010Prop39
140
1.0
102
RTVSPost2010PropOp39
 70
     1
102
RTVSPost2010Prop40
 90
        0
102
RTVSPost2010PropOp40
 70
     1
102
RTVSPost2010Prop41ColorIndex
 90
       18
102
RTVSPost2010Prop41ColorRGB
 90
        0
102
RTVSPost2010PropOp41
 70
     1
102
RTVSPost2010Prop42
 90
       50
102
RTVSPost2010PropOp42
 70
     1
102
RTVSPost2010Prop43
 90
        3
102
RTVSPost2010PropOp43
 70
     1
102
RTVSPost2010Prop44ColorIndex
 90
        5
102
RTVSPost2010Prop44ColorRGB
 90
      255
102
RTVSPost2010PropOp44
 70
     1
102
RTVSPost2010Prop45
280
     0
102
RTVSPost2010PropOp45
 70
     1
102
RTVSPost2010Prop46
 90
       50
102
RTVSPost2010PropOp46
 70
     1
102
RTVSPost2010Prop47
 90
       50
102
RTVSPost2010PropOp47
 70
     1
102
RTVSPost2010Prop48
 90
       50
102
RTVSPost2010PropOp48
 70
     1
102
RTVSPost2010Prop49
280
     0
102
RTVSPost2010PropOp49
 70
     1
102
RTVSPost2010Prop50
 90
       50
102
RTVSPost2010PropOp50
 70
     1
102
RTVSPost2010Prop51ColorIndex
 90
      256
102
RTVSPost2010Prop51ColorRGB
 90
-16777216
102
RTVSPost2010PropOp51
 70
     0
102
RTVSPost2010Prop52
140
1.0
102
RTVSPost2010PropOp52
 70
     0
102
RTVSPost2010Prop53
 90
        2
102
RTVSPost2010PropOp53
 70
     1
102
RTVSPost2010Prop54
  1
strokes_ogs.tif
102
RTVSPost2010PropOp54
 70
     1
102
RTVSPost2010Prop55
280
     0
102
RTVSPost2010PropOp55
 70
     1
102
RTVSPost2010Prop56
140
1.0
102
RTVSPost2010PropOp56
 70
     1
102
RTVSPost2010Prop57
140
1.0
102
RTVSPost2010PropOp57
 70
     1
102
RTVSPropertyOp0
 70
     1
102
RTVSPropertyOp1
 70
     1
102
RTVSPropertyOp2
 70
     1
102
RTVSPropertyOp3
 70
     1
102
RTVSPropertyOp4
 70
     1
102
RTVSPropertyOp5
 70
     1
102
RTVSPropertyOp6
 70
     1
102
RTVSPropertyOp7
 70
     1
102
RTVSPropertyOp8
 70
     1
102
RTVSPropertyOp9
 70
     1
102
RTVSPropertyOp10
 70
     1
102
RTVSPropertyOp11
 70
     1
102
RTVSPropertyOp12
 70
     1
102
RTVSPropertyOp13
 70
     1
102
RTVSPropertyOp14
 70
     1
102
RTVSPropertyOp15
 70
     1
102
RTVSPropertyOp16
 70
     1
102
RTVSPropertyOp17
 70
     1
102
RTVSPropertyOp18
 70
     1
102
RTVSPropertyOp19
 70
     1
102
RTVSPropertyOp20
 70
     1
102
RTVSPropertyOp21
 70
     1
102
RTVSPropertyOp22
 70
     1
102
RTVSPropertyOp23
 70
     1
102
RTVSPropertyOp24
 70
     1
102
RTVSPropertyOp25
 70
     1
102
RTVSPropertyOp26
 70
     1
102
RTVSPropertyOp27
 70
     1
102
RTVSPropertyOp28
 70
     1
102
RTVSPropertyOp29
 70
     1
102
RTVSPropertyOp30
 70
     1
102
RTVSPropertyOp31
 70
     1
102
RTVSPropertyOp32
 70
     1
102
RTVSPropertyOp33
 70
     1
102
RTVSPropertyOp34
 70
     1
102
RTVSPropertyOp35
 70
     1
102
RTVSPropertyOp36
 70
     1
102
RTVSPropertyOp37
 70
     1
102
RTVSPropertyOp38
 70
     1
102
RTVSPropertyOp39
 70
     1
102
RTVSPropertyOp40
 70
     1
102
RTVSPropertyOp41
 70
     1
102
RTVSPropertyOp42
 70
     1
102
RTVSPropertyOp43
 70
     1
102
RTVSPropertyOp44
 70
     1
102
RTVSPropertyOp45
 70
     1
102
RTVSPropertyOp46
 70
     1
102
RTVSPropertyOp47
 70
     1
102
RTVSPropertyOp48
 70
     1
102
RTVSPropertyOp49
 70
     1
102
RTVSPropertyOp50
 70
     1
102
RTVSPropertyOp51
 70
     0
102
RTVSPropertyOp52
 70
     0
102
RTVSPropertyOp53
 70
     1
102
RTVSPropertyOp54
 70
     1
102
RTVSPropertyOp55
 70
     1
102
RTVSPropertyOp56
 70
     1
102
RTVSPropertyOp57
 70
     1
102
RTVSPropertyOp58
 70
     1
102
RTVSPropertyOp59
 70
     1
102
RTVSPropertyOp60
 70
     1
102
RTVSPropertyOp61
 70
     1
102
RTVSPropertyOp62
 70
     1
  0
XRECORD
  5
9F2
102
{ACAD_REACTORS
330
9F1
102
}
330
9F1
100
AcDbXrecord
280
     1
102
RTVSPost2010Prop28
280
     0
102
RTVSPost2010PropOp28
 70
     1
102
RTVSPost2010Prop29
280
     1
102
RTVSPost2010PropOp29
 70
     1
102
RTVSPost2010Prop30
280
     1
102
RTVSPost2010PropOp30
 70
     1
102
RTVSPost2010Prop31
280
     0
102
RTVSPost2010PropOp31
 70
     1
102
RTVSPost2010Prop32
280
     0
102
RTVSPost2010PropOp32
 70
     1
102
RTVSPost2010Prop33
280
     0
102
RTVSPost2010PropOp33
 70
     1
102
RTVSPost2010Prop34
280
     0
102
RTVSPost2010PropOp34
 70
     1
102
RTVSPost2010Prop35
280
     0
102
RTVSPost2010PropOp35
 70
     1
102
RTVSPost2010Prop36
280
     0
102
RTVSPost2010PropOp36
 70
     1
102
RTVSPost2010Prop37
 90
       50
102
RTVSPost2010PropOp37
 70
     1
102
RTVSPost2010Prop38
140
0.0
102
RTVSPost2010PropOp38
 70
     1
102
RTVSPost2010Prop39
140
1.0
102
RTVSPost2010PropOp39
 70
     1
102
RTVSPost2010Prop40
 90
        0
102
RTVSPost2010PropOp40
 70
     1
102
RTVSPost2010Prop41ColorIndex
 90
       18
102
RTVSPost2010Prop41ColorRGB
 90
        0
102
RTVSPost2010PropOp41
 70
     1
102
RTVSPost2010Prop42
 90
       50
102
RTVSPost2010PropOp42
 70
     1
102
RTVSPost2010Prop43
 90
        3
102
RTVSPost2010PropOp43
 70
     1
102
RTVSPost2010Prop44ColorIndex
 90
        5
102
RTVSPost2010Prop44ColorRGB
 90
      255
102
RTVSPost2010PropOp44
 70
     1
102
RTVSPost2010Prop45
280
     0
102
RTVSPost2010PropOp45
 70
     1
102
RTVSPost2010Prop46
 90
       50
102
RTVSPost2010PropOp46
 70
     1
102
RTVSPost2010Prop47
 90
       50
102
RTVSPost2010PropOp47
 70
     1
102
RTVSPost2010Prop48
 90
       50
102
RTVSPost2010PropOp48
 70
     1
102
RTVSPost2010Prop49
280
     0
102
RTVSPost2010PropOp49
 70
     1
102
RTVSPost2010Prop50
 90
       50
102
RTVSPost2010PropOp50
 70
     1
102
RTVSPost2010Prop51ColorIndex
 90
      256
102
RTVSPost2010Prop51ColorRGB
 90
-16777216
102
RTVSPost2010PropOp51
 70
     0
102
RTVSPost2010Prop52
140
1.0
102
RTVSPost2010PropOp52
 70
     0
102
RTVSPost2010Prop53
 90
        2
102
RTVSPost2010PropOp53
 70
     1
102
RTVSPost2010Prop54
  1
strokes_ogs.tif
102
RTVSPost2010PropOp54
 70
     1
102
RTVSPost2010Prop55
280
     0
102
RTVSPost2010PropOp55
 70
     1
102
RTVSPost2010Prop56
140
1.0
102
RTVSPost2010PropOp56
 70
     1
102
RTVSPost2010Prop57
140
1.0
102
RTVSPost2010PropOp57
 70
     1
102
RTVSPropertyOp0
 70
     1
102
RTVSPropertyOp1
 70
     1
102
RTVSPropertyOp2
 70
     1
102
RTVSPropertyOp3
 70
     1
102
RTVSPropertyOp4
 70
     1
102
RTVSPropertyOp5
 70
     1
102
RTVSPropertyOp6
 70
     1
102
RTVSPropertyOp7
 70
     1
102
RTVSPropertyOp8
 70
     1
102
RTVSPropertyOp9
 70
     1
102
RTVSPropertyOp10
 70
     1
102
RTVSPropertyOp11
 70
     1
102
RTVSPropertyOp12
 70
     1
102
RTVSPropertyOp13
 70
     1
102
RTVSPropertyOp14
 70
     1
102
RTVSPropertyOp15
 70
     1
102
RTVSPropertyOp16
 70
     1
102
RTVSPropertyOp17
 70
     1
102
RTVSPropertyOp18
 70
     1
102
RTVSPropertyOp19
 70
     1
102
RTVSPropertyOp20
 70
     1
102
RTVSPropertyOp21
 70
     1
102
RTVSPropertyOp22
 70
     1
102
RTVSPropertyOp23
 70
     1
102
RTVSPropertyOp24
 70
     1
102
RTVSPropertyOp25
 70
     1
102
RTVSPropertyOp26
 70
     1
102
RTVSPropertyOp27
 70
     1
102
RTVSPropertyOp28
 70
     1
102
RTVSPropertyOp29
 70
     1
102
RTVSPropertyOp30
 70
     1
102
RTVSPropertyOp31
 70
     1
102
RTVSPropertyOp32
 70
     1
102
RTVSPropertyOp33
 70
     1
102
RTVSPropertyOp34
 70
     1
102
RTVSPropertyOp35
 70
     1
102
RTVSPropertyOp36
 70
     1
102
RTVSPropertyOp37
 70
     1
102
RTVSPropertyOp38
 70
     1
102
RTVSPropertyOp39
 70
     1
102
RTVSPropertyOp40
 70
     1
102
RTVSPropertyOp41
 70
     1
102
RTVSPropertyOp42
 70
     1
102
RTVSPropertyOp43
 70
     1
102
RTVSPropertyOp44
 70
     1
102
RTVSPropertyOp45
 70
     1
102
RTVSPropertyOp46
 70
     1
102
RTVSPropertyOp47
 70
     1
102
RTVSPropertyOp48
 70
     1
102
RTVSPropertyOp49
 70
     1
102
RTVSPropertyOp50
 70
     1
102
RTVSPropertyOp51
 70
     0
102
RTVSPropertyOp52
 70
     0
102
RTVSPropertyOp53
 70
     1
102
RTVSPropertyOp54
 70
     1
102
RTVSPropertyOp55
 70
     1
102
RTVSPropertyOp56
 70
     1
102
RTVSPropertyOp57
 70
     1
102
RTVSPropertyOp58
 70
     1
102
RTVSPropertyOp59
 70
     1
102
RTVSPropertyOp60
 70
     1
102
RTVSPropertyOp61
 70
     1
102
RTVSPropertyOp62
 70
     1
  0
XRECORD
  5
9E4
102
{ACAD_REACTORS
330
9E3
102
}
330
9E3
100
AcDbXrecord
280
     1
102
RTVSPost2010Prop28
280
     0
102
RTVSPost2010PropOp28
 70
     1
102
RTVSPost2010Prop29
280
     1
102
RTVSPost2010PropOp29
 70
     1
102
RTVSPost2010Prop30
280
     1
102
RTVSPost2010PropOp30
 70
     1
102
RTVSPost2010Prop31
280
     0
102
RTVSPost2010PropOp31
 70
     1
102
RTVSPost2010Prop32
280
     0
102
RTVSPost2010PropOp32
 70
     1
102
RTVSPost2010Prop33
280
     0
102
RTVSPost2010PropOp33
 70
     1
102
RTVSPost2010Prop34
280
     0
102
RTVSPost2010PropOp34
 70
     1
102
RTVSPost2010Prop35
280
     0
102
RTVSPost2010PropOp35
 70
     1
102
RTVSPost2010Prop36
280
     0
102
RTVSPost2010PropOp36
 70
     1
102
RTVSPost2010Prop37
 90
       50
102
RTVSPost2010PropOp37
 70
     1
102
RTVSPost2010Prop38
140
0.0
102
RTVSPost2010PropOp38
 70
     1
102
RTVSPost2010Prop39
140
1.0
102
RTVSPost2010PropOp39
 70
     1
102
RTVSPost2010Prop40
 90
        0
102
RTVSPost2010PropOp40
 70
     1
102
RTVSPost2010Prop41ColorIndex
 90
       18
102
RTVSPost2010Prop41ColorRGB
 90
        0
102
RTVSPost2010PropOp41
 70
     1
102
RTVSPost2010Prop42
 90
       50
102
RTVSPost2010PropOp42
 70
     1
102
RTVSPost2010Prop43
 90
        3
102
RTVSPost2010PropOp43
 70
     1
102
RTVSPost2010Prop44ColorIndex
 90
        5
102
RTVSPost2010Prop44ColorRGB
 90
      255
102
RTVSPost2010PropOp44
 70
     1
102
RTVSPost2010Prop45
280
     0
102
RTVSPost2010PropOp45
 70
     1
102
RTVSPost2010Prop46
 90
       50
102
RTVSPost2010PropOp46
 70
     1
102
RTVSPost2010Prop47
 90
       50
102
RTVSPost2010PropOp47
 70
     1
102
RTVSPost2010Prop48
 90
       50
102
RTVSPost2010PropOp48
 70
     1
102
RTVSPost2010Prop49
280
     0
102
RTVSPost2010PropOp49
 70
     1
102
RTVSPost2010Prop50
 90
       50
102
RTVSPost2010PropOp50
 70
     1
102
RTVSPost2010Prop51ColorIndex
 90
      256
102
RTVSPost2010Prop51ColorRGB
 90
-16777216
102
RTVSPost2010PropOp51
 70
     0
102
RTVSPost2010Prop52
140
1.0
102
RTVSPost2010PropOp52
 70
     0
102
RTVSPost2010Prop53
 90
        2
102
RTVSPost2010PropOp53
 70
     1
102
RTVSPost2010Prop54
  1
strokes_ogs.tif
102
RTVSPost2010PropOp54
 70
     1
102
RTVSPost2010Prop55
280
     0
102
RTVSPost2010PropOp55
 70
     1
102
RTVSPost2010Prop56
140
1.0
102
RTVSPost2010PropOp56
 70
     1
102
RTVSPost2010Prop57
140
1.0
102
RTVSPost2010PropOp57
 70
     1
102
RTVSPropertyOp0
 70
     1
102
RTVSPropertyOp1
 70
     1
102
RTVSPropertyOp2
 70
     1
102
RTVSPropertyOp3
 70
     1
102
RTVSPropertyOp4
 70
     1
102
RTVSPropertyOp5
 70
     1
102
RTVSPropertyOp6
 70
     1
102
RTVSPropertyOp7
 70
     1
102
RTVSPropertyOp8
 70
     1
102
RTVSPropertyOp9
 70
     1
102
RTVSPropertyOp10
 70
     1
102
RTVSPropertyOp11
 70
     1
102
RTVSPropertyOp12
 70
     1
102
RTVSPropertyOp13
 70
     1
102
RTVSPropertyOp14
 70
     1
102
RTVSPropertyOp15
 70
     1
102
RTVSPropertyOp16
 70
     1
102
RTVSPropertyOp17
 70
     1
102
RTVSPropertyOp18
 70
     1
102
RTVSPropertyOp19
 70
     1
102
RTVSPropertyOp20
 70
     1
102
RTVSPropertyOp21
 70
     1
102
RTVSPropertyOp22
 70
     1
102
RTVSPropertyOp23
 70
     1
102
RTVSPropertyOp24
 70
     1
102
RTVSPropertyOp25
 70
     1
102
RTVSPropertyOp26
 70
     1
102
RTVSPropertyOp27
 70
     1
102
RTVSPropertyOp28
 70
     1
102
RTVSPropertyOp29
 70
     1
102
RTVSPropertyOp30
 70
     1
102
RTVSPropertyOp31
 70
     1
102
RTVSPropertyOp32
 70
     1
102
RTVSPropertyOp33
 70
     1
102
RTVSPropertyOp34
 70
     1
102
RTVSPropertyOp35
 70
     1
102
RTVSPropertyOp36
 70
     1
102
RTVSPropertyOp37
 70
     1
102
RTVSPropertyOp38
 70
     1
102
RTVSPropertyOp39
 70
     1
102
RTVSPropertyOp40
 70
     1
102
RTVSPropertyOp41
 70
     1
102
RTVSPropertyOp42
 70
     1
102
RTVSPropertyOp43
 70
     1
102
RTVSPropertyOp44
 70
     1
102
RTVSPropertyOp45
 70
     1
102
RTVSPropertyOp46
 70
     1
102
RTVSPropertyOp47
 70
     1
102
RTVSPropertyOp48
 70
     1
102
RTVSPropertyOp49
 70
     1
102
RTVSPropertyOp50
 70
     1
102
RTVSPropertyOp51
 70
     0
102
RTVSPropertyOp52
 70
     0
102
RTVSPropertyOp53
 70
     1
102
RTVSPropertyOp54
 70
     1
102
RTVSPropertyOp55
 70
     1
102
RTVSPropertyOp56
 70
     1
102
RTVSPropertyOp57
 70
     1
102
RTVSPropertyOp58
 70
     1
102
RTVSPropertyOp59
 70
     1
102
RTVSPropertyOp60
 70
     1
102
RTVSPropertyOp61
 70
     1
102
RTVSPropertyOp62
 70
     1
  0
XRECORD
  5
9E8
102
{ACAD_REACTORS
330
9E7
102
}
330
9E7
100
AcDbXrecord
280
     1
102
RTVSPost2010Prop28
280
     0
102
RTVSPost2010PropOp28
 70
     1
102
RTVSPost2010Prop29
280
     1
102
RTVSPost2010PropOp29
 70
     1
102
RTVSPost2010Prop30
280
     1
102
RTVSPost2010PropOp30
 70
     1
102
RTVSPost2010Prop31
280
     0
102
RTVSPost2010PropOp31
 70
     1
102
RTVSPost2010Prop32
280
     0
102
RTVSPost2010PropOp32
 70
     1
102
RTVSPost2010Prop33
280
     0
102
RTVSPost2010PropOp33
 70
     1
102
RTVSPost2010Prop34
280
     0
102
RTVSPost2010PropOp34
 70
     1
102
RTVSPost2010Prop35
280
     0
102
RTVSPost2010PropOp35
 70
     1
102
RTVSPost2010Prop36
280
     0
102
RTVSPost2010PropOp36
 70
     1
102
RTVSPost2010Prop37
 90
       50
102
RTVSPost2010PropOp37
 70
     1
102
RTVSPost2010Prop38
140
0.0
102
RTVSPost2010PropOp38
 70
     1
102
RTVSPost2010Prop39
140
1.0
102
RTVSPost2010PropOp39
 70
     1
102
RTVSPost2010Prop40
 90
        0
102
RTVSPost2010PropOp40
 70
     1
102
RTVSPost2010Prop41ColorIndex
 90
       18
102
RTVSPost2010Prop41ColorRGB
 90
        0
102
RTVSPost2010PropOp41
 70
     1
102
RTVSPost2010Prop42
 90
       50
102
RTVSPost2010PropOp42
 70
     1
102
RTVSPost2010Prop43
 90
        3
102
RTVSPost2010PropOp43
 70
     1
102
RTVSPost2010Prop44ColorIndex
 90
        5
102
RTVSPost2010Prop44ColorRGB
 90
      255
102
RTVSPost2010PropOp44
 70
     1
102
RTVSPost2010Prop45
280
     0
102
RTVSPost2010PropOp45
 70
     1
102
RTVSPost2010Prop46
 90
       50
102
RTVSPost2010PropOp46
 70
     1
102
RTVSPost2010Prop47
 90
       50
102
RTVSPost2010PropOp47
 70
     1
102
RTVSPost2010Prop48
 90
       50
102
RTVSPost2010PropOp48
 70
     1
102
RTVSPost2010Prop49
280
     0
102
RTVSPost2010PropOp49
 70
     1
102
RTVSPost2010Prop50
 90
       50
102
RTVSPost2010PropOp50
 70
     1
102
RTVSPost2010Prop51ColorIndex
 90
      256
102
RTVSPost2010Prop51ColorRGB
 90
-16777216
102
RTVSPost2010PropOp51
 70
     0
102
RTVSPost2010Prop52
140
1.0
102
RTVSPost2010PropOp52
 70
     0
102
RTVSPost2010Prop53
 90
        2
102
RTVSPost2010PropOp53
 70
     1
102
RTVSPost2010Prop54
  1
strokes_ogs.tif
102
RTVSPost2010PropOp54
 70
     1
102
RTVSPost2010Prop55
280
     0
102
RTVSPost2010PropOp55
 70
     1
102
RTVSPost2010Prop56
140
1.0
102
RTVSPost2010PropOp56
 70
     1
102
RTVSPost2010Prop57
140
1.0
102
RTVSPost2010PropOp57
 70
     1
102
RTVSPropertyOp0
 70
     1
102
RTVSPropertyOp1
 70
     1
102
RTVSPropertyOp2
 70
     1
102
RTVSPropertyOp3
 70
     1
102
RTVSPropertyOp4
 70
     1
102
RTVSPropertyOp5
 70
     1
102
RTVSPropertyOp6
 70
     1
102
RTVSPropertyOp7
 70
     1
102
RTVSPropertyOp8
 70
     1
102
RTVSPropertyOp9
 70
     1
102
RTVSPropertyOp10
 70
     1
102
RTVSPropertyOp11
 70
     1
102
RTVSPropertyOp12
 70
     1
102
RTVSPropertyOp13
 70
     1
102
RTVSPropertyOp14
 70
     1
102
RTVSPropertyOp15
 70
     1
102
RTVSPropertyOp16
 70
     1
102
RTVSPropertyOp17
 70
     1
102
RTVSPropertyOp18
 70
     1
102
RTVSPropertyOp19
 70
     1
102
RTVSPropertyOp20
 70
     1
102
RTVSPropertyOp21
 70
     1
102
RTVSPropertyOp22
 70
     1
102
RTVSPropertyOp23
 70
     1
102
RTVSPropertyOp24
 70
     1
102
RTVSPropertyOp25
 70
     1
102
RTVSPropertyOp26
 70
     1
102
RTVSPropertyOp27
 70
     1
102
RTVSPropertyOp28
 70
     1
102
RTVSPropertyOp29
 70
     1
102
RTVSPropertyOp30
 70
     1
102
RTVSPropertyOp31
 70
     1
102
RTVSPropertyOp32
 70
     1
102
RTVSPropertyOp33
 70
     1
102
RTVSPropertyOp34
 70
     1
102
RTVSPropertyOp35
 70
     1
102
RTVSPropertyOp36
 70
     1
102
RTVSPropertyOp37
 70
     1
102
RTVSPropertyOp38
 70
     1
102
RTVSPropertyOp39
 70
     1
102
RTVSPropertyOp40
 70
     1
102
RTVSPropertyOp41
 70
     1
102
RTVSPropertyOp42
 70
     1
102
RTVSPropertyOp43
 70
     1
102
RTVSPropertyOp44
 70
     1
102
RTVSPropertyOp45
 70
     1
102
RTVSPropertyOp46
 70
     1
102
RTVSPropertyOp47
 70
     1
102
RTVSPropertyOp48
 70
     1
102
RTVSPropertyOp49
 70
     1
102
RTVSPropertyOp50
 70
     1
102
RTVSPropertyOp51
 70
     0
102
RTVSPropertyOp52
 70
     0
102
RTVSPropertyOp53
 70
     1
102
RTVSPropertyOp54
 70
     1
102
RTVSPropertyOp55
 70
     1
102
RTVSPropertyOp56
 70
     1
102
RTVSPropertyOp57
 70
     1
102
RTVSPropertyOp58
 70
     1
102
RTVSPropertyOp59
 70
     1
102
RTVSPropertyOp60
 70
     1
102
RTVSPropertyOp61
 70
     1
102
RTVSPropertyOp62
 70
     1
  0
XRECORD
  5
A02
102
{ACAD_REACTORS
330
A01
102
}
330
A01
100
AcDbXrecord
280
     1
102
RTVSPost2010Prop28
280
     0
102
RTVSPost2010PropOp28
 70
     1
102
RTVSPost2010Prop29
280
     1
102
RTVSPost2010PropOp29
 70
     1
102
RTVSPost2010Prop30
280
     1
102
RTVSPost2010PropOp30
 70
     1
102
RTVSPost2010Prop31
280
     0
102
RTVSPost2010PropOp31
 70
     1
102
RTVSPost2010Prop32
280
     0
102
RTVSPost2010PropOp32
 70
     1
102
RTVSPost2010Prop33
280
     0
102
RTVSPost2010PropOp33
 70
     1
102
RTVSPost2010Prop34
280
     0
102
RTVSPost2010PropOp34
 70
     1
102
RTVSPost2010Prop35
280
     0
102
RTVSPost2010PropOp35
 70
     1
102
RTVSPost2010Prop36
280
     0
102
RTVSPost2010PropOp36
 70
     1
102
RTVSPost2010Prop37
 90
       50
102
RTVSPost2010PropOp37
 70
     0
102
RTVSPost2010Prop38
140
0.0
102
RTVSPost2010PropOp38
 70
     0
102
RTVSPost2010Prop39
140
1.0
102
RTVSPost2010PropOp39
 70
     0
102
RTVSPost2010Prop40
 90
        0
102
RTVSPost2010PropOp40
 70
     0
102
RTVSPost2010Prop41ColorIndex
 90
       18
102
RTVSPost2010Prop41ColorRGB
 90
        0
102
RTVSPost2010PropOp41
 70
     0
102
RTVSPost2010Prop42
 90
       50
102
RTVSPost2010PropOp42
 70
     0
102
RTVSPost2010Prop43
 90
        3
102
RTVSPost2010PropOp43
 70
     0
102
RTVSPost2010Prop44ColorIndex
 90
        5
102
RTVSPost2010Prop44ColorRGB
 90
      255
102
RTVSPost2010PropOp44
 70
     0
102
RTVSPost2010Prop45
280
     0
102
RTVSPost2010PropOp45
 70
     1
102
RTVSPost2010Prop46
 90
       50
102
RTVSPost2010PropOp46
 70
     0
102
RTVSPost2010Prop47
 90
       50
102
RTVSPost2010PropOp47
 70
     0
102
RTVSPost2010Prop48
 90
       50
102
RTVSPost2010PropOp48
 70
     0
102
RTVSPost2010Prop49
280
     0
102
RTVSPost2010PropOp49
 70
     1
102
RTVSPost2010Prop50
 90
       50
102
RTVSPost2010PropOp50
 70
     0
102
RTVSPost2010Prop51ColorIndex
 90
      256
102
RTVSPost2010Prop51ColorRGB
 90
-16777216
102
RTVSPost2010PropOp51
 70
     0
102
RTVSPost2010Prop52
140
1.0
102
RTVSPost2010PropOp52
 70
     0
102
RTVSPost2010Prop53
 90
        2
102
RTVSPost2010PropOp53
 70
     0
102
RTVSPost2010Prop54
  1
strokes_ogs.tif
102
RTVSPost2010PropOp54
 70
     0
102
RTVSPost2010Prop55
280
     0
102
RTVSPost2010PropOp55
 70
     1
102
RTVSPost2010Prop56
140
1.0
102
RTVSPost2010PropOp56
 70
     0
102
RTVSPost2010Prop57
140
1.0
102
RTVSPost2010PropOp57
 70
     0
102
RTVSPropertyOp0
 70
     0
102
RTVSPropertyOp1
 70
     0
102
RTVSPropertyOp2
 70
     0
102
RTVSPropertyOp3
 70
     0
102
RTVSPropertyOp4
 70
     0
102
RTVSPropertyOp5
 70
     0
102
RTVSPropertyOp6
 70
     0
102
RTVSPropertyOp7
 70
     0
102
RTVSPropertyOp8
 70
     0
102
RTVSPropertyOp9
 70
     0
102
RTVSPropertyOp10
 70
     0
102
RTVSPropertyOp11
 70
     0
102
RTVSPropertyOp12
 70
     0
102
RTVSPropertyOp13
 70
     0
102
RTVSPropertyOp14
 70
     2
102
RTVSPropertyOp15
 70
     0
102
RTVSPropertyOp16
 70
     0
102
RTVSPropertyOp17
 70
     0
102
RTVSPropertyOp18
 70
     0
102
RTVSPropertyOp19
 70
     0
102
RTVSPropertyOp20
 70
     0
102
RTVSPropertyOp21
 70
     0
102
RTVSPropertyOp22
 70
     0
102
RTVSPropertyOp23
 70
     0
102
RTVSPropertyOp24
 70
     0
102
RTVSPropertyOp25
 70
     0
102
RTVSPropertyOp26
 70
     0
102
RTVSPropertyOp27
 70
     0
102
RTVSPropertyOp28
 70
     1
102
RTVSPropertyOp29
 70
     1
102
RTVSPropertyOp30
 70
     1
102
RTVSPropertyOp31
 70
     1
102
RTVSPropertyOp32
 70
     1
102
RTVSPropertyOp33
 70
     1
102
RTVSPropertyOp34
 70
     1
102
RTVSPropertyOp35
 70
     1
102
RTVSPropertyOp36
 70
     1
102
RTVSPropertyOp37
 70
     0
102
RTVSPropertyOp38
 70
     0
102
RTVSPropertyOp39
 70
     0
102
RTVSPropertyOp40
 70
     0
102
RTVSPropertyOp41
 70
     0
102
RTVSPropertyOp42
 70
     0
102
RTVSPropertyOp43
 70
     0
102
RTVSPropertyOp44
 70
     0
102
RTVSPropertyOp45
 70
     1
102
RTVSPropertyOp46
 70
     0
102
RTVSPropertyOp47
 70
     0
102
RTVSPropertyOp48
 70
     0
102
RTVSPropertyOp49
 70
     1
102
RTVSPropertyOp50
 70
     0
102
RTVSPropertyOp51
 70
     0
102
RTVSPropertyOp52
 70
     0
102
RTVSPropertyOp53
 70
     0
102
RTVSPropertyOp54
 70
     0
102
RTVSPropertyOp55
 70
     1
102
RTVSPropertyOp56
 70
     0
102
RTVSPropertyOp57
 70
     0
102
RTVSPropertyOp58
 70
     0
102
RTVSPropertyOp59
 70
     0
102
RTVSPropertyOp60
 70
     0
102
RTVSPropertyOp61
 70
     0
102
RTVSPropertyOp62
 70
     0
  0
XRECORD
  5
9F0
102
{ACAD_REACTORS
330
9EF
102
}
330
9EF
100
AcDbXrecord
280
     1
102
RTVSPost2010Prop28
280
     0
102
RTVSPost2010PropOp28
 70
     1
102
RTVSPost2010Prop29
280
     1
102
RTVSPost2010PropOp29
 70
     1
102
RTVSPost2010Prop30
280
     1
102
RTVSPost2010PropOp30
 70
     1
102
RTVSPost2010Prop31
280
     0
102
RTVSPost2010PropOp31
 70
     1
102
RTVSPost2010Prop32
280
     0
102
RTVSPost2010PropOp32
 70
     1
102
RTVSPost2010Prop33
280
     0
102
RTVSPost2010PropOp33
 70
     1
102
RTVSPost2010Prop34
280
     0
102
RTVSPost2010PropOp34
 70
     1
102
RTVSPost2010Prop35
280
     0
102
RTVSPost2010PropOp35
 70
     1
102
RTVSPost2010Prop36
280
     0
102
RTVSPost2010PropOp36
 70
     1
102
RTVSPost2010Prop37
 90
       50
102
RTVSPost2010PropOp37
 70
     1
102
RTVSPost2010Prop38
140
0.0
102
RTVSPost2010PropOp38
 70
     1
102
RTVSPost2010Prop39
140
1.0
102
RTVSPost2010PropOp39
 70
     1
102
RTVSPost2010Prop40
 90
        0
102
RTVSPost2010PropOp40
 70
     1
102
RTVSPost2010Prop41ColorIndex
 90
       18
102
RTVSPost2010Prop41ColorRGB
 90
        0
102
RTVSPost2010PropOp41
 70
     1
102
RTVSPost2010Prop42
 90
       50
102
RTVSPost2010PropOp42
 70
     1
102
RTVSPost2010Prop43
 90
        3
102
RTVSPost2010PropOp43
 70
     1
102
RTVSPost2010Prop44ColorIndex
 90
        5
102
RTVSPost2010Prop44ColorRGB
 90
      255
102
RTVSPost2010PropOp44
 70
     1
102
RTVSPost2010Prop45
280
     0
102
RTVSPost2010PropOp45
 70
     1
102
RTVSPost2010Prop46
 90
       50
102
RTVSPost2010PropOp46
 70
     1
102
RTVSPost2010Prop47
 90
       50
102
RTVSPost2010PropOp47
 70
     1
102
RTVSPost2010Prop48
 90
       50
102
RTVSPost2010PropOp48
 70
     1
102
RTVSPost2010Prop49
280
     0
102
RTVSPost2010PropOp49
 70
     1
102
RTVSPost2010Prop50
 90
       50
102
RTVSPost2010PropOp50
 70
     1
102
RTVSPost2010Prop51ColorIndex
 90
      256
102
RTVSPost2010Prop51ColorRGB
 90
-16777216
102
RTVSPost2010PropOp51
 70
     0
102
RTVSPost2010Prop52
140
1.0
102
RTVSPost2010PropOp52
 70
     0
102
RTVSPost2010Prop53
 90
        2
102
RTVSPost2010PropOp53
 70
     1
102
RTVSPost2010Prop54
  1
strokes_ogs.tif
102
RTVSPost2010PropOp54
 70
     1
102
RTVSPost2010Prop55
280
     0
102
RTVSPost2010PropOp55
 70
     1
102
RTVSPost2010Prop56
140
1.0
102
RTVSPost2010PropOp56
 70
     1
102
RTVSPost2010Prop57
140
1.0
102
RTVSPost2010PropOp57
 70
     1
102
RTVSPropertyOp0
 70
     1
102
RTVSPropertyOp1
 70
     1
102
RTVSPropertyOp2
 70
     1
102
RTVSPropertyOp3
 70
     1
102
RTVSPropertyOp4
 70
     1
102
RTVSPropertyOp5
 70
     1
102
RTVSPropertyOp6
 70
     1
102
RTVSPropertyOp7
 70
     1
102
RTVSPropertyOp8
 70
     1
102
RTVSPropertyOp9
 70
     1
102
RTVSPropertyOp10
 70
     1
102
RTVSPropertyOp11
 70
     1
102
RTVSPropertyOp12
 70
     1
102
RTVSPropertyOp13
 70
     1
102
RTVSPropertyOp14
 70
     1
102
RTVSPropertyOp15
 70
     1
102
RTVSPropertyOp16
 70
     1
102
RTVSPropertyOp17
 70
     1
102
RTVSPropertyOp18
 70
     1
102
RTVSPropertyOp19
 70
     1
102
RTVSPropertyOp20
 70
     1
102
RTVSPropertyOp21
 70
     1
102
RTVSPropertyOp22
 70
     1
102
RTVSPropertyOp23
 70
     1
102
RTVSPropertyOp24
 70
     1
102
RTVSPropertyOp25
 70
     1
102
RTVSPropertyOp26
 70
     1
102
RTVSPropertyOp27
 70
     1
102
RTVSPropertyOp28
 70
     1
102
RTVSPropertyOp29
 70
     1
102
RTVSPropertyOp30
 70
     1
102
RTVSPropertyOp31
 70
     1
102
RTVSPropertyOp32
 70
     1
102
RTVSPropertyOp33
 70
     1
102
RTVSPropertyOp34
 70
     1
102
RTVSPropertyOp35
 70
     1
102
RTVSPropertyOp36
 70
     1
102
RTVSPropertyOp37
 70
     1
102
RTVSPropertyOp38
 70
     1
102
RTVSPropertyOp39
 70
     1
102
RTVSPropertyOp40
 70
     1
102
RTVSPropertyOp41
 70
     1
102
RTVSPropertyOp42
 70
     1
102
RTVSPropertyOp43
 70
     1
102
RTVSPropertyOp44
 70
     1
102
RTVSPropertyOp45
 70
     1
102
RTVSPropertyOp46
 70
     1
102
RTVSPropertyOp47
 70
     1
102
RTVSPropertyOp48
 70
     1
102
RTVSPropertyOp49
 70
     1
102
RTVSPropertyOp50
 70
     1
102
RTVSPropertyOp51
 70
     0
102
RTVSPropertyOp52
 70
     0
102
RTVSPropertyOp53
 70
     1
102
RTVSPropertyOp54
 70
     1
102
RTVSPropertyOp55
 70
     1
102
RTVSPropertyOp56
 70
     1
102
RTVSPropertyOp57
 70
     1
102
RTVSPropertyOp58
 70
     1
102
RTVSPropertyOp59
 70
     1
102
RTVSPropertyOp60
 70
     1
102
RTVSPropertyOp61
 70
     1
102
RTVSPropertyOp62
 70
     1
  0
XRECORD
  5
9D4
102
{ACAD_REACTORS
330
9D3
102
}
330
9D3
100
AcDbXrecord
280
     1
102
RTVSPost2010Prop28
280
     0
102
RTVSPost2010PropOp28
 70
     1
102
RTVSPost2010Prop29
280
     1
102
RTVSPost2010PropOp29
 70
     1
102
RTVSPost2010Prop30
280
     1
102
RTVSPost2010PropOp30
 70
     1
102
RTVSPost2010Prop31
280
     0
102
RTVSPost2010PropOp31
 70
     1
102
RTVSPost2010Prop32
280
     0
102
RTVSPost2010PropOp32
 70
     1
102
RTVSPost2010Prop33
280
     0
102
RTVSPost2010PropOp33
 70
     1
102
RTVSPost2010Prop34
280
     0
102
RTVSPost2010PropOp34
 70
     1
102
RTVSPost2010Prop35
280
     0
102
RTVSPost2010PropOp35
 70
     1
102
RTVSPost2010Prop36
280
     0
102
RTVSPost2010PropOp36
 70
     1
102
RTVSPost2010Prop37
 90
       50
102
RTVSPost2010PropOp37
 70
     1
102
RTVSPost2010Prop38
140
0.0
102
RTVSPost2010PropOp38
 70
     1
102
RTVSPost2010Prop39
140
1.0
102
RTVSPost2010PropOp39
 70
     1
102
RTVSPost2010Prop40
 90
        0
102
RTVSPost2010PropOp40
 70
     1
102
RTVSPost2010Prop41ColorIndex
 90
       18
102
RTVSPost2010Prop41ColorRGB
 90
        0
102
RTVSPost2010PropOp41
 70
     1
102
RTVSPost2010Prop42
 90
       50
102
RTVSPost2010PropOp42
 70
     1
102
RTVSPost2010Prop43
 90
        3
102
RTVSPost2010PropOp43
 70
     1
102
RTVSPost2010Prop44ColorIndex
 90
        5
102
RTVSPost2010Prop44ColorRGB
 90
      255
102
RTVSPost2010PropOp44
 70
     1
102
RTVSPost2010Prop45
280
     0
102
RTVSPost2010PropOp45
 70
     1
102
RTVSPost2010Prop46
 90
       50
102
RTVSPost2010PropOp46
 70
     1
102
RTVSPost2010Prop47
 90
       50
102
RTVSPost2010PropOp47
 70
     1
102
RTVSPost2010Prop48
 90
       50
102
RTVSPost2010PropOp48
 70
     1
102
RTVSPost2010Prop49
280
     0
102
RTVSPost2010PropOp49
 70
     1
102
RTVSPost2010Prop50
 90
       50
102
RTVSPost2010PropOp50
 70
     1
102
RTVSPost2010Prop51ColorIndex
 90
      256
102
RTVSPost2010Prop51ColorRGB
 90
-16777216
102
RTVSPost2010PropOp51
 70
     0
102
RTVSPost2010Prop52
140
1.0
102
RTVSPost2010PropOp52
 70
     0
102
RTVSPost2010Prop53
 90
        2
102
RTVSPost2010PropOp53
 70
     1
102
RTVSPost2010Prop54
  1
strokes_ogs.tif
102
RTVSPost2010PropOp54
 70
     1
102
RTVSPost2010Prop55
280
     0
102
RTVSPost2010PropOp55
 70
     1
102
RTVSPost2010Prop56
140
1.0
102
RTVSPost2010PropOp56
 70
     1
102
RTVSPost2010Prop57
140
1.0
102
RTVSPost2010PropOp57
 70
     1
102
RTVSPropertyOp0
 70
     1
102
RTVSPropertyOp1
 70
     1
102
RTVSPropertyOp2
 70
     1
102
RTVSPropertyOp3
 70
     1
102
RTVSPropertyOp4
 70
     1
102
RTVSPropertyOp5
 70
     1
102
RTVSPropertyOp6
 70
     1
102
RTVSPropertyOp7
 70
     1
102
RTVSPropertyOp8
 70
     1
102
RTVSPropertyOp9
 70
     1
102
RTVSPropertyOp10
 70
     1
102
RTVSPropertyOp11
 70
     1
102
RTVSPropertyOp12
 70
     1
102
RTVSPropertyOp13
 70
     1
102
RTVSPropertyOp14
 70
     1
102
RTVSPropertyOp15
 70
     1
102
RTVSPropertyOp16
 70
     1
102
RTVSPropertyOp17
 70
     1
102
RTVSPropertyOp18
 70
     1
102
RTVSPropertyOp19
 70
     1
102
RTVSPropertyOp20
 70
     1
102
RTVSPropertyOp21
 70
     1
102
RTVSPropertyOp22
 70
     1
102
RTVSPropertyOp23
 70
     1
102
RTVSPropertyOp24
 70
     1
102
RTVSPropertyOp25
 70
     1
102
RTVSPropertyOp26
 70
     1
102
RTVSPropertyOp27
 70
     1
102
RTVSPropertyOp28
 70
     1
102
RTVSPropertyOp29
 70
     1
102
RTVSPropertyOp30
 70
     1
102
RTVSPropertyOp31
 70
     1
102
RTVSPropertyOp32
 70
     1
102
RTVSPropertyOp33
 70
     1
102
RTVSPropertyOp34
 70
     1
102
RTVSPropertyOp35
 70
     1
102
RTVSPropertyOp36
 70
     1
102
RTVSPropertyOp37
 70
     1
102
RTVSPropertyOp38
 70
     1
102
RTVSPropertyOp39
 70
     1
102
RTVSPropertyOp40
 70
     1
102
RTVSPropertyOp41
 70
     1
102
RTVSPropertyOp42
 70
     1
102
RTVSPropertyOp43
 70
     1
102
RTVSPropertyOp44
 70
     1
102
RTVSPropertyOp45
 70
     1
102
RTVSPropertyOp46
 70
     1
102
RTVSPropertyOp47
 70
     1
102
RTVSPropertyOp48
 70
     1
102
RTVSPropertyOp49
 70
     1
102
RTVSPropertyOp50
 70
     1
102
RTVSPropertyOp51
 70
     0
102
RTVSPropertyOp52
 70
     0
102
RTVSPropertyOp53
 70
     1
102
RTVSPropertyOp54
 70
     1
102
RTVSPropertyOp55
 70
     1
102
RTVSPropertyOp56
 70
     1
102
RTVSPropertyOp57
 70
     1
102
RTVSPropertyOp58
 70
     1
102
RTVSPropertyOp59
 70
     1
102
RTVSPropertyOp60
 70
     1
102
RTVSPropertyOp61
 70
     1
102
RTVSPropertyOp62
 70
     1
  0
XRECORD
  5
9D6
102
{ACAD_REACTORS
330
9D5
102
}
330
9D5
100
AcDbXrecord
280
     1
102
RTVSPost2010Prop28
280
     0
102
RTVSPost2010PropOp28
 70
     1
102
RTVSPost2010Prop29
280
     1
102
RTVSPost2010PropOp29
 70
     1
102
RTVSPost2010Prop30
280
     1
102
RTVSPost2010PropOp30
 70
     1
102
RTVSPost2010Prop31
280
     0
102
RTVSPost2010PropOp31
 70
     1
102
RTVSPost2010Prop32
280
     0
102
RTVSPost2010PropOp32
 70
     1
102
RTVSPost2010Prop33
280
     0
102
RTVSPost2010PropOp33
 70
     1
102
RTVSPost2010Prop34
280
     0
102
RTVSPost2010PropOp34
 70
     1
102
RTVSPost2010Prop35
280
     0
102
RTVSPost2010PropOp35
 70
     1
102
RTVSPost2010Prop36
280
     0
102
RTVSPost2010PropOp36
 70
     1
102
RTVSPost2010Prop37
 90
       50
102
RTVSPost2010PropOp37
 70
     1
102
RTVSPost2010Prop38
140
0.0
102
RTVSPost2010PropOp38
 70
     1
102
RTVSPost2010Prop39
140
1.0
102
RTVSPost2010PropOp39
 70
     1
102
RTVSPost2010Prop40
 90
        0
102
RTVSPost2010PropOp40
 70
     1
102
RTVSPost2010Prop41ColorIndex
 90
       18
102
RTVSPost2010Prop41ColorRGB
 90
        0
102
RTVSPost2010PropOp41
 70
     1
102
RTVSPost2010Prop42
 90
       50
102
RTVSPost2010PropOp42
 70
     1
102
RTVSPost2010Prop43
 90
        3
102
RTVSPost2010PropOp43
 70
     1
102
RTVSPost2010Prop44ColorIndex
 90
        5
102
RTVSPost2010Prop44ColorRGB
 90
      255
102
RTVSPost2010PropOp44
 70
     1
102
RTVSPost2010Prop45
280
     0
102
RTVSPost2010PropOp45
 70
     1
102
RTVSPost2010Prop46
 90
       50
102
RTVSPost2010PropOp46
 70
     1
102
RTVSPost2010Prop47
 90
       50
102
RTVSPost2010PropOp47
 70
     1
102
RTVSPost2010Prop48
 90
       50
102
RTVSPost2010PropOp48
 70
     1
102
RTVSPost2010Prop49
280
     0
102
RTVSPost2010PropOp49
 70
     1
102
RTVSPost2010Prop50
 90
       50
102
RTVSPost2010PropOp50
 70
     1
102
RTVSPost2010Prop51ColorIndex
 90
      256
102
RTVSPost2010Prop51ColorRGB
 90
-16777216
102
RTVSPost2010PropOp51
 70
     0
102
RTVSPost2010Prop52
140
1.0
102
RTVSPost2010PropOp52
 70
     0
102
RTVSPost2010Prop53
 90
        2
102
RTVSPost2010PropOp53
 70
     1
102
RTVSPost2010Prop54
  1
strokes_ogs.tif
102
RTVSPost2010PropOp54
 70
     1
102
RTVSPost2010Prop55
280
     0
102
RTVSPost2010PropOp55
 70
     1
102
RTVSPost2010Prop56
140
1.0
102
RTVSPost2010PropOp56
 70
     1
102
RTVSPost2010Prop57
140
1.0
102
RTVSPost2010PropOp57
 70
     1
102
RTVSPropertyOp0
 70
     1
102
RTVSPropertyOp1
 70
     1
102
RTVSPropertyOp2
 70
     1
102
RTVSPropertyOp3
 70
     1
102
RTVSPropertyOp4
 70
     1
102
RTVSPropertyOp5
 70
     1
102
RTVSPropertyOp6
 70
     1
102
RTVSPropertyOp7
 70
     1
102
RTVSPropertyOp8
 70
     1
102
RTVSPropertyOp9
 70
     1
102
RTVSPropertyOp10
 70
     1
102
RTVSPropertyOp11
 70
     1
102
RTVSPropertyOp12
 70
     1
102
RTVSPropertyOp13
 70
     1
102
RTVSPropertyOp14
 70
     1
102
RTVSPropertyOp15
 70
     1
102
RTVSPropertyOp16
 70
     1
102
RTVSPropertyOp17
 70
     1
102
RTVSPropertyOp18
 70
     1
102
RTVSPropertyOp19
 70
     1
102
RTVSPropertyOp20
 70
     1
102
RTVSPropertyOp21
 70
     1
102
RTVSPropertyOp22
 70
     1
102
RTVSPropertyOp23
 70
     1
102
RTVSPropertyOp24
 70
     1
102
RTVSPropertyOp25
 70
     1
102
RTVSPropertyOp26
 70
     1
102
RTVSPropertyOp27
 70
     1
102
RTVSPropertyOp28
 70
     1
102
RTVSPropertyOp29
 70
     1
102
RTVSPropertyOp30
 70
     1
102
RTVSPropertyOp31
 70
     1
102
RTVSPropertyOp32
 70
     1
102
RTVSPropertyOp33
 70
     1
102
RTVSPropertyOp34
 70
     1
102
RTVSPropertyOp35
 70
     1
102
RTVSPropertyOp36
 70
     1
102
RTVSPropertyOp37
 70
     1
102
RTVSPropertyOp38
 70
     1
102
RTVSPropertyOp39
 70
     1
102
RTVSPropertyOp40
 70
     1
102
RTVSPropertyOp41
 70
     1
102
RTVSPropertyOp42
 70
     1
102
RTVSPropertyOp43
 70
     1
102
RTVSPropertyOp44
 70
     1
102
RTVSPropertyOp45
 70
     1
102
RTVSPropertyOp46
 70
     1
102
RTVSPropertyOp47
 70
     1
102
RTVSPropertyOp48
 70
     1
102
RTVSPropertyOp49
 70
     1
102
RTVSPropertyOp50
 70
     1
102
RTVSPropertyOp51
 70
     0
102
RTVSPropertyOp52
 70
     0
102
RTVSPropertyOp53
 70
     1
102
RTVSPropertyOp54
 70
     1
102
RTVSPropertyOp55
 70
     1
102
RTVSPropertyOp56
 70
     1
102
RTVSPropertyOp57
 70
     1
102
RTVSPropertyOp58
 70
     1
102
RTVSPropertyOp59
 70
     1
102
RTVSPropertyOp60
 70
     1
102
RTVSPropertyOp61
 70
     1
102
RTVSPropertyOp62
 70
     1
  0
XRECORD
  5
9D8
102
{ACAD_REACTORS
330
9D7
102
}
330
9D7
100
AcDbXrecord
280
     1
102
RTVSPost2010Prop28
280
     0
102
RTVSPost2010PropOp28
 70
     1
102
RTVSPost2010Prop29
280
     1
102
RTVSPost2010PropOp29
 70
     1
102
RTVSPost2010Prop30
280
     1
102
RTVSPost2010PropOp30
 70
     1
102
RTVSPost2010Prop31
280
     0
102
RTVSPost2010PropOp31
 70
     1
102
RTVSPost2010Prop32
280
     0
102
RTVSPost2010PropOp32
 70
     1
102
RTVSPost2010Prop33
280
     0
102
RTVSPost2010PropOp33
 70
     1
102
RTVSPost2010Prop34
280
     0
102
RTVSPost2010PropOp34
 70
     1
102
RTVSPost2010Prop35
280
     0
102
RTVSPost2010PropOp35
 70
     1
102
RTVSPost2010Prop36
280
     0
102
RTVSPost2010PropOp36
 70
     1
102
RTVSPost2010Prop37
 90
       50
102
RTVSPost2010PropOp37
 70
     1
102
RTVSPost2010Prop38
140
0.0
102
RTVSPost2010PropOp38
 70
     1
102
RTVSPost2010Prop39
140
1.0
102
RTVSPost2010PropOp39
 70
     1
102
RTVSPost2010Prop40
 90
        0
102
RTVSPost2010PropOp40
 70
     1
102
RTVSPost2010Prop41ColorIndex
 90
       18
102
RTVSPost2010Prop41ColorRGB
 90
        0
102
RTVSPost2010PropOp41
 70
     1
102
RTVSPost2010Prop42
 90
       50
102
RTVSPost2010PropOp42
 70
     1
102
RTVSPost2010Prop43
 90
        3
102
RTVSPost2010PropOp43
 70
     1
102
RTVSPost2010Prop44ColorIndex
 90
        5
102
RTVSPost2010Prop44ColorRGB
 90
      255
102
RTVSPost2010PropOp44
 70
     1
102
RTVSPost2010Prop45
280
     0
102
RTVSPost2010PropOp45
 70
     1
102
RTVSPost2010Prop46
 90
       50
102
RTVSPost2010PropOp46
 70
     1
102
RTVSPost2010Prop47
 90
       50
102
RTVSPost2010PropOp47
 70
     1
102
RTVSPost2010Prop48
 90
       50
102
RTVSPost2010PropOp48
 70
     1
102
RTVSPost2010Prop49
280
     0
102
RTVSPost2010PropOp49
 70
     1
102
RTVSPost2010Prop50
 90
       50
102
RTVSPost2010PropOp50
 70
     1
102
RTVSPost2010Prop51ColorIndex
 90
      256
102
RTVSPost2010Prop51ColorRGB
 90
-16777216
102
RTVSPost2010PropOp51
 70
     0
102
RTVSPost2010Prop52
140
1.0
102
RTVSPost2010PropOp52
 70
     0
102
RTVSPost2010Prop53
 90
        2
102
RTVSPost2010PropOp53
 70
     1
102
RTVSPost2010Prop54
  1
strokes_ogs.tif
102
RTVSPost2010PropOp54
 70
     1
102
RTVSPost2010Prop55
280
     0
102
RTVSPost2010PropOp55
 70
     1
102
RTVSPost2010Prop56
140
1.0
102
RTVSPost2010PropOp56
 70
     1
102
RTVSPost2010Prop57
140
1.0
102
RTVSPost2010PropOp57
 70
     1
102
RTVSPropertyOp0
 70
     1
102
RTVSPropertyOp1
 70
     1
102
RTVSPropertyOp2
 70
     1
102
RTVSPropertyOp3
 70
     1
102
RTVSPropertyOp4
 70
     1
102
RTVSPropertyOp5
 70
     1
102
RTVSPropertyOp6
 70
     1
102
RTVSPropertyOp7
 70
     1
102
RTVSPropertyOp8
 70
     1
102
RTVSPropertyOp9
 70
     1
102
RTVSPropertyOp10
 70
     1
102
RTVSPropertyOp11
 70
     1
102
RTVSPropertyOp12
 70
     1
102
RTVSPropertyOp13
 70
     1
102
RTVSPropertyOp14
 70
     1
102
RTVSPropertyOp15
 70
     1
102
RTVSPropertyOp16
 70
     1
102
RTVSPropertyOp17
 70
     1
102
RTVSPropertyOp18
 70
     1
102
RTVSPropertyOp19
 70
     1
102
RTVSPropertyOp20
 70
     1
102
RTVSPropertyOp21
 70
     1
102
RTVSPropertyOp22
 70
     1
102
RTVSPropertyOp23
 70
     1
102
RTVSPropertyOp24
 70
     1
102
RTVSPropertyOp25
 70
     1
102
RTVSPropertyOp26
 70
     1
102
RTVSPropertyOp27
 70
     1
102
RTVSPropertyOp28
 70
     1
102
RTVSPropertyOp29
 70
     1
102
RTVSPropertyOp30
 70
     1
102
RTVSPropertyOp31
 70
     1
102
RTVSPropertyOp32
 70
     1
102
RTVSPropertyOp33
 70
     1
102
RTVSPropertyOp34
 70
     1
102
RTVSPropertyOp35
 70
     1
102
RTVSPropertyOp36
 70
     1
102
RTVSPropertyOp37
 70
     1
102
RTVSPropertyOp38
 70
     1
102
RTVSPropertyOp39
 70
     1
102
RTVSPropertyOp40
 70
     1
102
RTVSPropertyOp41
 70
     1
102
RTVSPropertyOp42
 70
     1
102
RTVSPropertyOp43
 70
     1
102
RTVSPropertyOp44
 70
     1
102
RTVSPropertyOp45
 70
     1
102
RTVSPropertyOp46
 70
     1
102
RTVSPropertyOp47
 70
     1
102
RTVSPropertyOp48
 70
     1
102
RTVSPropertyOp49
 70
     1
102
RTVSPropertyOp50
 70
     1
102
RTVSPropertyOp51
 70
     0
102
RTVSPropertyOp52
 70
     0
102
RTVSPropertyOp53
 70
     1
102
RTVSPropertyOp54
 70
     1
102
RTVSPropertyOp55
 70
     1
102
RTVSPropertyOp56
 70
     1
102
RTVSPropertyOp57
 70
     1
102
RTVSPropertyOp58
 70
     1
102
RTVSPropertyOp59
 70
     1
102
RTVSPropertyOp60
 70
     1
102
RTVSPropertyOp61
 70
     1
102
RTVSPropertyOp62
 70
     1
  0
XRECORD
  5
9DA
102
{ACAD_REACTORS
330
9D9
102
}
330
9D9
100
AcDbXrecord
280
     1
102
RTVSPost2010Prop28
280
     0
102
RTVSPost2010PropOp28
 70
     1
102
RTVSPost2010Prop29
280
     1
102
RTVSPost2010PropOp29
 70
     1
102
RTVSPost2010Prop30
280
     1
102
RTVSPost2010PropOp30
 70
     1
102
RTVSPost2010Prop31
280
     0
102
RTVSPost2010PropOp31
 70
     1
102
RTVSPost2010Prop32
280
     0
102
RTVSPost2010PropOp32
 70
     1
102
RTVSPost2010Prop33
280
     0
102
RTVSPost2010PropOp33
 70
     1
102
RTVSPost2010Prop34
280
     0
102
RTVSPost2010PropOp34
 70
     1
102
RTVSPost2010Prop35
280
     0
102
RTVSPost2010PropOp35
 70
     1
102
RTVSPost2010Prop36
280
     0
102
RTVSPost2010PropOp36
 70
     1
102
RTVSPost2010Prop37
 90
       50
102
RTVSPost2010PropOp37
 70
     1
102
RTVSPost2010Prop38
140
0.0
102
RTVSPost2010PropOp38
 70
     1
102
RTVSPost2010Prop39
140
1.0
102
RTVSPost2010PropOp39
 70
     1
102
RTVSPost2010Prop40
 90
        0
102
RTVSPost2010PropOp40
 70
     1
102
RTVSPost2010Prop41ColorIndex
 90
       18
102
RTVSPost2010Prop41ColorRGB
 90
        0
102
RTVSPost2010PropOp41
 70
     1
102
RTVSPost2010Prop42
 90
       50
102
RTVSPost2010PropOp42
 70
     1
102
RTVSPost2010Prop43
 90
        3
102
RTVSPost2010PropOp43
 70
     1
102
RTVSPost2010Prop44ColorIndex
 90
        5
102
RTVSPost2010Prop44ColorRGB
 90
      255
102
RTVSPost2010PropOp44
 70
     1
102
RTVSPost2010Prop45
280
     0
102
RTVSPost2010PropOp45
 70
     1
102
RTVSPost2010Prop46
 90
       50
102
RTVSPost2010PropOp46
 70
     1
102
RTVSPost2010Prop47
 90
       50
102
RTVSPost2010PropOp47
 70
     1
102
RTVSPost2010Prop48
 90
       50
102
RTVSPost2010PropOp48
 70
     1
102
RTVSPost2010Prop49
280
     0
102
RTVSPost2010PropOp49
 70
     1
102
RTVSPost2010Prop50
 90
       50
102
RTVSPost2010PropOp50
 70
     1
102
RTVSPost2010Prop51ColorIndex
 90
      256
102
RTVSPost2010Prop51ColorRGB
 90
-16777216
102
RTVSPost2010PropOp51
 70
     0
102
RTVSPost2010Prop52
140
1.0
102
RTVSPost2010PropOp52
 70
     0
102
RTVSPost2010Prop53
 90
        2
102
RTVSPost2010PropOp53
 70
     1
102
RTVSPost2010Prop54
  1
strokes_ogs.tif
102
RTVSPost2010PropOp54
 70
     1
102
RTVSPost2010Prop55
280
     0
102
RTVSPost2010PropOp55
 70
     1
102
RTVSPost2010Prop56
140
1.0
102
RTVSPost2010PropOp56
 70
     1
102
RTVSPost2010Prop57
140
1.0
102
RTVSPost2010PropOp57
 70
     1
102
RTVSPropertyOp0
 70
     1
102
RTVSPropertyOp1
 70
     1
102
RTVSPropertyOp2
 70
     1
102
RTVSPropertyOp3
 70
     1
102
RTVSPropertyOp4
 70
     1
102
RTVSPropertyOp5
 70
     1
102
RTVSPropertyOp6
 70
     1
102
RTVSPropertyOp7
 70
     1
102
RTVSPropertyOp8
 70
     1
102
RTVSPropertyOp9
 70
     1
102
RTVSPropertyOp10
 70
     1
102
RTVSPropertyOp11
 70
     1
102
RTVSPropertyOp12
 70
     1
102
RTVSPropertyOp13
 70
     1
102
RTVSPropertyOp14
 70
     1
102
RTVSPropertyOp15
 70
     1
102
RTVSPropertyOp16
 70
     1
102
RTVSPropertyOp17
 70
     1
102
RTVSPropertyOp18
 70
     1
102
RTVSPropertyOp19
 70
     1
102
RTVSPropertyOp20
 70
     1
102
RTVSPropertyOp21
 70
     1
102
RTVSPropertyOp22
 70
     1
102
RTVSPropertyOp23
 70
     1
102
RTVSPropertyOp24
 70
     1
102
RTVSPropertyOp25
 70
     1
102
RTVSPropertyOp26
 70
     1
102
RTVSPropertyOp27
 70
     1
102
RTVSPropertyOp28
 70
     1
102
RTVSPropertyOp29
 70
     1
102
RTVSPropertyOp30
 70
     1
102
RTVSPropertyOp31
 70
     1
102
RTVSPropertyOp32
 70
     1
102
RTVSPropertyOp33
 70
     1
102
RTVSPropertyOp34
 70
     1
102
RTVSPropertyOp35
 70
     1
102
RTVSPropertyOp36
 70
     1
102
RTVSPropertyOp37
 70
     1
102
RTVSPropertyOp38
 70
     1
102
RTVSPropertyOp39
 70
     1
102
RTVSPropertyOp40
 70
     1
102
RTVSPropertyOp41
 70
     1
102
RTVSPropertyOp42
 70
     1
102
RTVSPropertyOp43
 70
     1
102
RTVSPropertyOp44
 70
     1
102
RTVSPropertyOp45
 70
     1
102
RTVSPropertyOp46
 70
     1
102
RTVSPropertyOp47
 70
     1
102
RTVSPropertyOp48
 70
     1
102
RTVSPropertyOp49
 70
     1
102
RTVSPropertyOp50
 70
     1
102
RTVSPropertyOp51
 70
     0
102
RTVSPropertyOp52
 70
     0
102
RTVSPropertyOp53
 70
     1
102
RTVSPropertyOp54
 70
     1
102
RTVSPropertyOp55
 70
     1
102
RTVSPropertyOp56
 70
     1
102
RTVSPropertyOp57
 70
     1
102
RTVSPropertyOp58
 70
     1
102
RTVSPropertyOp59
 70
     1
102
RTVSPropertyOp60
 70
     1
102
RTVSPropertyOp61
 70
     1
102
RTVSPropertyOp62
 70
     1
  0
XRECORD
  5
9E2
102
{ACAD_REACTORS
330
9E1
102
}
330
9E1
100
AcDbXrecord
280
     1
102
RTVSPost2010Prop28
280
     0
102
RTVSPost2010PropOp28
 70
     1
102
RTVSPost2010Prop29
280
     1
102
RTVSPost2010PropOp29
 70
     1
102
RTVSPost2010Prop30
280
     1
102
RTVSPost2010PropOp30
 70
     1
102
RTVSPost2010Prop31
280
     0
102
RTVSPost2010PropOp31
 70
     1
102
RTVSPost2010Prop32
280
     0
102
RTVSPost2010PropOp32
 70
     1
102
RTVSPost2010Prop33
280
     0
102
RTVSPost2010PropOp33
 70
     1
102
RTVSPost2010Prop34
280
     0
102
RTVSPost2010PropOp34
 70
     1
102
RTVSPost2010Prop35
280
     0
102
RTVSPost2010PropOp35
 70
     1
102
RTVSPost2010Prop36
280
     0
102
RTVSPost2010PropOp36
 70
     1
102
RTVSPost2010Prop37
 90
       50
102
RTVSPost2010PropOp37
 70
     1
102
RTVSPost2010Prop38
140
0.0
102
RTVSPost2010PropOp38
 70
     1
102
RTVSPost2010Prop39
140
1.0
102
RTVSPost2010PropOp39
 70
     1
102
RTVSPost2010Prop40
 90
        0
102
RTVSPost2010PropOp40
 70
     1
102
RTVSPost2010Prop41ColorIndex
 90
       18
102
RTVSPost2010Prop41ColorRGB
 90
        0
102
RTVSPost2010PropOp41
 70
     1
102
RTVSPost2010Prop42
 90
       50
102
RTVSPost2010PropOp42
 70
     1
102
RTVSPost2010Prop43
 90
        3
102
RTVSPost2010PropOp43
 70
     1
102
RTVSPost2010Prop44ColorIndex
 90
        5
102
RTVSPost2010Prop44ColorRGB
 90
      255
102
RTVSPost2010PropOp44
 70
     1
102
RTVSPost2010Prop45
280
     0
102
RTVSPost2010PropOp45
 70
     1
102
RTVSPost2010Prop46
 90
       50
102
RTVSPost2010PropOp46
 70
     1
102
RTVSPost2010Prop47
 90
       50
102
RTVSPost2010PropOp47
 70
     1
102
RTVSPost2010Prop48
 90
       50
102
RTVSPost2010PropOp48
 70
     1
102
RTVSPost2010Prop49
280
     0
102
RTVSPost2010PropOp49
 70
     1
102
RTVSPost2010Prop50
 90
       50
102
RTVSPost2010PropOp50
 70
     1
102
RTVSPost2010Prop51ColorIndex
 90
      256
102
RTVSPost2010Prop51ColorRGB
 90
-16777216
102
RTVSPost2010PropOp51
 70
     0
102
RTVSPost2010Prop52
140
1.0
102
RTVSPost2010PropOp52
 70
     0
102
RTVSPost2010Prop53
 90
        2
102
RTVSPost2010PropOp53
 70
     1
102
RTVSPost2010Prop54
  1
strokes_ogs.tif
102
RTVSPost2010PropOp54
 70
     1
102
RTVSPost2010Prop55
280
     0
102
RTVSPost2010PropOp55
 70
     1
102
RTVSPost2010Prop56
140
1.0
102
RTVSPost2010PropOp56
 70
     1
102
RTVSPost2010Prop57
140
1.0
102
RTVSPost2010PropOp57
 70
     1
102
RTVSPropertyOp0
 70
     1
102
RTVSPropertyOp1
 70
     1
102
RTVSPropertyOp2
 70
     1
102
RTVSPropertyOp3
 70
     1
102
RTVSPropertyOp4
 70
     1
102
RTVSPropertyOp5
 70
     1
102
RTVSPropertyOp6
 70
     1
102
RTVSPropertyOp7
 70
     1
102
RTVSPropertyOp8
 70
     1
102
RTVSPropertyOp9
 70
     1
102
RTVSPropertyOp10
 70
     1
102
RTVSPropertyOp11
 70
     1
102
RTVSPropertyOp12
 70
     1
102
RTVSPropertyOp13
 70
     1
102
RTVSPropertyOp14
 70
     1
102
RTVSPropertyOp15
 70
     1
102
RTVSPropertyOp16
 70
     1
102
RTVSPropertyOp17
 70
     1
102
RTVSPropertyOp18
 70
     1
102
RTVSPropertyOp19
 70
     1
102
RTVSPropertyOp20
 70
     1
102
RTVSPropertyOp21
 70
     1
102
RTVSPropertyOp22
 70
     1
102
RTVSPropertyOp23
 70
     1
102
RTVSPropertyOp24
 70
     1
102
RTVSPropertyOp25
 70
     1
102
RTVSPropertyOp26
 70
     1
102
RTVSPropertyOp27
 70
     1
102
RTVSPropertyOp28
 70
     1
102
RTVSPropertyOp29
 70
     1
102
RTVSPropertyOp30
 70
     1
102
RTVSPropertyOp31
 70
     1
102
RTVSPropertyOp32
 70
     1
102
RTVSPropertyOp33
 70
     1
102
RTVSPropertyOp34
 70
     1
102
RTVSPropertyOp35
 70
     1
102
RTVSPropertyOp36
 70
     1
102
RTVSPropertyOp37
 70
     1
102
RTVSPropertyOp38
 70
     1
102
RTVSPropertyOp39
 70
     1
102
RTVSPropertyOp40
 70
     1
102
RTVSPropertyOp41
 70
     1
102
RTVSPropertyOp42
 70
     1
102
RTVSPropertyOp43
 70
     1
102
RTVSPropertyOp44
 70
     1
102
RTVSPropertyOp45
 70
     1
102
RTVSPropertyOp46
 70
     1
102
RTVSPropertyOp47
 70
     1
102
RTVSPropertyOp48
 70
     1
102
RTVSPropertyOp49
 70
     1
102
RTVSPropertyOp50
 70
     1
102
RTVSPropertyOp51
 70
     0
102
RTVSPropertyOp52
 70
     0
102
RTVSPropertyOp53
 70
     1
102
RTVSPropertyOp54
 70
     1
102
RTVSPropertyOp55
 70
     1
102
RTVSPropertyOp56
 70
     1
102
RTVSPropertyOp57
 70
     1
102
RTVSPropertyOp58
 70
     1
102
RTVSPropertyOp59
 70
     1
102
RTVSPropertyOp60
 70
     1
102
RTVSPropertyOp61
 70
     1
102
RTVSPropertyOp62
 70
     1
  0
XRECORD
  5
9FE
102
{ACAD_REACTORS
330
9FD
102
}
330
9FD
100
AcDbXrecord
280
     1
102
RTVSPost2010Prop28
280
     0
102
RTVSPost2010PropOp28
 70
     1
102
RTVSPost2010Prop29
280
     1
102
RTVSPost2010PropOp29
 70
     1
102
RTVSPost2010Prop30
280
     1
102
RTVSPost2010PropOp30
 70
     1
102
RTVSPost2010Prop31
280
     0
102
RTVSPost2010PropOp31
 70
     1
102
RTVSPost2010Prop32
280
     0
102
RTVSPost2010PropOp32
 70
     1
102
RTVSPost2010Prop33
280
     0
102
RTVSPost2010PropOp33
 70
     1
102
RTVSPost2010Prop34
280
     0
102
RTVSPost2010PropOp34
 70
     1
102
RTVSPost2010Prop35
280
     0
102
RTVSPost2010PropOp35
 70
     1
102
RTVSPost2010Prop36
280
     0
102
RTVSPost2010PropOp36
 70
     1
102
RTVSPost2010Prop37
 90
       50
102
RTVSPost2010PropOp37
 70
     0
102
RTVSPost2010Prop38
140
0.0
102
RTVSPost2010PropOp38
 70
     0
102
RTVSPost2010Prop39
140
1.0
102
RTVSPost2010PropOp39
 70
     0
102
RTVSPost2010Prop40
 90
        0
102
RTVSPost2010PropOp40
 70
     0
102
RTVSPost2010Prop41ColorIndex
 90
       18
102
RTVSPost2010Prop41ColorRGB
 90
        0
102
RTVSPost2010PropOp41
 70
     0
102
RTVSPost2010Prop42
 90
       50
102
RTVSPost2010PropOp42
 70
     0
102
RTVSPost2010Prop43
 90
        3
102
RTVSPost2010PropOp43
 70
     0
102
RTVSPost2010Prop44ColorIndex
 90
        5
102
RTVSPost2010Prop44ColorRGB
 90
      255
102
RTVSPost2010PropOp44
 70
     0
102
RTVSPost2010Prop45
280
     0
102
RTVSPost2010PropOp45
 70
     1
102
RTVSPost2010Prop46
 90
       50
102
RTVSPost2010PropOp46
 70
     0
102
RTVSPost2010Prop47
 90
       50
102
RTVSPost2010PropOp47
 70
     0
102
RTVSPost2010Prop48
 90
       50
102
RTVSPost2010PropOp48
 70
     0
102
RTVSPost2010Prop49
280
     0
102
RTVSPost2010PropOp49
 70
     1
102
RTVSPost2010Prop50
 90
       50
102
RTVSPost2010PropOp50
 70
     0
102
RTVSPost2010Prop51ColorIndex
 90
      256
102
RTVSPost2010Prop51ColorRGB
 90
-16777216
102
RTVSPost2010PropOp51
 70
     0
102
RTVSPost2010Prop52
140
1.0
102
RTVSPost2010PropOp52
 70
     0
102
RTVSPost2010Prop53
 90
        2
102
RTVSPost2010PropOp53
 70
     0
102
RTVSPost2010Prop54
  1
strokes_ogs.tif
102
RTVSPost2010PropOp54
 70
     0
102
RTVSPost2010Prop55
280
     0
102
RTVSPost2010PropOp55
 70
     1
102
RTVSPost2010Prop56
140
1.0
102
RTVSPost2010PropOp56
 70
     0
102
RTVSPost2010Prop57
140
1.0
102
RTVSPost2010PropOp57
 70
     0
102
RTVSPropertyOp0
 70
     0
102
RTVSPropertyOp1
 70
     0
102
RTVSPropertyOp2
 70
     0
102
RTVSPropertyOp3
 70
     0
102
RTVSPropertyOp4
 70
     0
102
RTVSPropertyOp5
 70
     0
102
RTVSPropertyOp6
 70
     0
102
RTVSPropertyOp7
 70
     0
102
RTVSPropertyOp8
 70
     0
102
RTVSPropertyOp9
 70
     0
102
RTVSPropertyOp10
 70
     0
102
RTVSPropertyOp11
 70
     0
102
RTVSPropertyOp12
 70
     0
102
RTVSPropertyOp13
 70
     0
102
RTVSPropertyOp14
 70
     2
102
RTVSPropertyOp15
 70
     0
102
RTVSPropertyOp16
 70
     0
102
RTVSPropertyOp17
 70
     0
102
RTVSPropertyOp18
 70
     0
102
RTVSPropertyOp19
 70
     0
102
RTVSPropertyOp20
 70
     0
102
RTVSPropertyOp21
 70
     0
102
RTVSPropertyOp22
 70
     0
102
RTVSPropertyOp23
 70
     0
102
RTVSPropertyOp24
 70
     0
102
RTVSPropertyOp25
 70
     0
102
RTVSPropertyOp26
 70
     0
102
RTVSPropertyOp27
 70
     0
102
RTVSPropertyOp28
 70
     1
102
RTVSPropertyOp29
 70
     1
102
RTVSPropertyOp30
 70
     1
102
RTVSPropertyOp31
 70
     1
102
RTVSPropertyOp32
 70
     1
102
RTVSPropertyOp33
 70
     1
102
RTVSPropertyOp34
 70
     1
102
RTVSPropertyOp35
 70
     1
102
RTVSPropertyOp36
 70
     1
102
RTVSPropertyOp37
 70
     0
102
RTVSPropertyOp38
 70
     0
102
RTVSPropertyOp39
 70
     0
102
RTVSPropertyOp40
 70
     0
102
RTVSPropertyOp41
 70
     0
102
RTVSPropertyOp42
 70
     0
102
RTVSPropertyOp43
 70
     0
102
RTVSPropertyOp44
 70
     0
102
RTVSPropertyOp45
 70
     1
102
RTVSPropertyOp46
 70
     0
102
RTVSPropertyOp47
 70
     0
102
RTVSPropertyOp48
 70
     0
102
RTVSPropertyOp49
 70
     1
102
RTVSPropertyOp50
 70
     0
102
RTVSPropertyOp51
 70
     0
102
RTVSPropertyOp52
 70
     0
102
RTVSPropertyOp53
 70
     0
102
RTVSPropertyOp54
 70
     0
102
RTVSPropertyOp55
 70
     1
102
RTVSPropertyOp56
 70
     0
102
RTVSPropertyOp57
 70
     0
102
RTVSPropertyOp58
 70
     0
102
RTVSPropertyOp59
 70
     0
102
RTVSPropertyOp60
 70
     0
102
RTVSPropertyOp61
 70
     0
102
RTVSPropertyOp62
 70
     0
  0
XRECORD
  5
9EE
102
{ACAD_REACTORS
330
9ED
102
}
330
9ED
100
AcDbXrecord
280
     1
102
RTVSPost2010Prop28
280
     0
102
RTVSPost2010PropOp28
 70
     1
102
RTVSPost2010Prop29
280
     1
102
RTVSPost2010PropOp29
 70
     1
102
RTVSPost2010Prop30
280
     1
102
RTVSPost2010PropOp30
 70
     1
102
RTVSPost2010Prop31
280
     0
102
RTVSPost2010PropOp31
 70
     1
102
RTVSPost2010Prop32
280
     0
102
RTVSPost2010PropOp32
 70
     1
102
RTVSPost2010Prop33
280
     0
102
RTVSPost2010PropOp33
 70
     1
102
RTVSPost2010Prop34
280
     0
102
RTVSPost2010PropOp34
 70
     1
102
RTVSPost2010Prop35
280
     0
102
RTVSPost2010PropOp35
 70
     1
102
RTVSPost2010Prop36
280
     0
102
RTVSPost2010PropOp36
 70
     1
102
RTVSPost2010Prop37
 90
       50
102
RTVSPost2010PropOp37
 70
     1
102
RTVSPost2010Prop38
140
0.0
102
RTVSPost2010PropOp38
 70
     1
102
RTVSPost2010Prop39
140
1.0
102
RTVSPost2010PropOp39
 70
     1
102
RTVSPost2010Prop40
 90
        0
102
RTVSPost2010PropOp40
 70
     1
102
RTVSPost2010Prop41ColorIndex
 90
       18
102
RTVSPost2010Prop41ColorRGB
 90
        0
102
RTVSPost2010PropOp41
 70
     1
102
RTVSPost2010Prop42
 90
       50
102
RTVSPost2010PropOp42
 70
     1
102
RTVSPost2010Prop43
 90
        3
102
RTVSPost2010PropOp43
 70
     1
102
RTVSPost2010Prop44ColorIndex
 90
        5
102
RTVSPost2010Prop44ColorRGB
 90
      255
102
RTVSPost2010PropOp44
 70
     1
102
RTVSPost2010Prop45
280
     0
102
RTVSPost2010PropOp45
 70
     1
102
RTVSPost2010Prop46
 90
       50
102
RTVSPost2010PropOp46
 70
     1
102
RTVSPost2010Prop47
 90
       50
102
RTVSPost2010PropOp47
 70
     1
102
RTVSPost2010Prop48
 90
       50
102
RTVSPost2010PropOp48
 70
     1
102
RTVSPost2010Prop49
280
     0
102
RTVSPost2010PropOp49
 70
     1
102
RTVSPost2010Prop50
 90
       50
102
RTVSPost2010PropOp50
 70
     1
102
RTVSPost2010Prop51ColorIndex
 90
      256
102
RTVSPost2010Prop51ColorRGB
 90
-16777216
102
RTVSPost2010PropOp51
 70
     0
102
RTVSPost2010Prop52
140
1.0
102
RTVSPost2010PropOp52
 70
     0
102
RTVSPost2010Prop53
 90
        2
102
RTVSPost2010PropOp53
 70
     1
102
RTVSPost2010Prop54
  1
strokes_ogs.tif
102
RTVSPost2010PropOp54
 70
     1
102
RTVSPost2010Prop55
280
     0
102
RTVSPost2010PropOp55
 70
     1
102
RTVSPost2010Prop56
140
1.0
102
RTVSPost2010PropOp56
 70
     1
102
RTVSPost2010Prop57
140
1.0
102
RTVSPost2010PropOp57
 70
     1
102
RTVSPropertyOp0
 70
     1
102
RTVSPropertyOp1
 70
     1
102
RTVSPropertyOp2
 70
     1
102
RTVSPropertyOp3
 70
     1
102
RTVSPropertyOp4
 70
     1
102
RTVSPropertyOp5
 70
     1
102
RTVSPropertyOp6
 70
     1
102
RTVSPropertyOp7
 70
     1
102
RTVSPropertyOp8
 70
     1
102
RTVSPropertyOp9
 70
     1
102
RTVSPropertyOp10
 70
     1
102
RTVSPropertyOp11
 70
     1
102
RTVSPropertyOp12
 70
     1
102
RTVSPropertyOp13
 70
     1
102
RTVSPropertyOp14
 70
     1
102
RTVSPropertyOp15
 70
     1
102
RTVSPropertyOp16
 70
     1
102
RTVSPropertyOp17
 70
     1
102
RTVSPropertyOp18
 70
     1
102
RTVSPropertyOp19
 70
     1
102
RTVSPropertyOp20
 70
     1
102
RTVSPropertyOp21
 70
     1
102
RTVSPropertyOp22
 70
     1
102
RTVSPropertyOp23
 70
     1
102
RTVSPropertyOp24
 70
     1
102
RTVSPropertyOp25
 70
     1
102
RTVSPropertyOp26
 70
     1
102
RTVSPropertyOp27
 70
     1
102
RTVSPropertyOp28
 70
     1
102
RTVSPropertyOp29
 70
     1
102
RTVSPropertyOp30
 70
     1
102
RTVSPropertyOp31
 70
     1
102
RTVSPropertyOp32
 70
     1
102
RTVSPropertyOp33
 70
     1
102
RTVSPropertyOp34
 70
     1
102
RTVSPropertyOp35
 70
     1
102
RTVSPropertyOp36
 70
     1
102
RTVSPropertyOp37
 70
     1
102
RTVSPropertyOp38
 70
     1
102
RTVSPropertyOp39
 70
     1
102
RTVSPropertyOp40
 70
     1
102
RTVSPropertyOp41
 70
     1
102
RTVSPropertyOp42
 70
     1
102
RTVSPropertyOp43
 70
     1
102
RTVSPropertyOp44
 70
     1
102
RTVSPropertyOp45
 70
     1
102
RTVSPropertyOp46
 70
     1
102
RTVSPropertyOp47
 70
     1
102
RTVSPropertyOp48
 70
     1
102
RTVSPropertyOp49
 70
     1
102
RTVSPropertyOp50
 70
     1
102
RTVSPropertyOp51
 70
     0
102
RTVSPropertyOp52
 70
     0
102
RTVSPropertyOp53
 70
     1
102
RTVSPropertyOp54
 70
     1
102
RTVSPropertyOp55
 70
     1
102
RTVSPropertyOp56
 70
     1
102
RTVSPropertyOp57
 70
     1
102
RTVSPropertyOp58
 70
     1
102
RTVSPropertyOp59
 70
     1
102
RTVSPropertyOp60
 70
     1
102
RTVSPropertyOp61
 70
     1
102
RTVSPropertyOp62
 70
     1
  0
XRECORD
  5
A00
102
{ACAD_REACTORS
330
9FF
102
}
330
9FF
100
AcDbXrecord
280
     1
102
RTVSPost2010Prop28
280
     0
102
RTVSPost2010PropOp28
 70
     1
102
RTVSPost2010Prop29
280
     1
102
RTVSPost2010PropOp29
 70
     1
102
RTVSPost2010Prop30
280
     1
102
RTVSPost2010PropOp30
 70
     1
102
RTVSPost2010Prop31
280
     0
102
RTVSPost2010PropOp31
 70
     1
102
RTVSPost2010Prop32
280
     0
102
RTVSPost2010PropOp32
 70
     1
102
RTVSPost2010Prop33
280
     0
102
RTVSPost2010PropOp33
 70
     1
102
RTVSPost2010Prop34
280
     0
102
RTVSPost2010PropOp34
 70
     1
102
RTVSPost2010Prop35
280
     0
102
RTVSPost2010PropOp35
 70
     1
102
RTVSPost2010Prop36
280
     0
102
RTVSPost2010PropOp36
 70
     1
102
RTVSPost2010Prop37
 90
       50
102
RTVSPost2010PropOp37
 70
     0
102
RTVSPost2010Prop38
140
0.0
102
RTVSPost2010PropOp38
 70
     0
102
RTVSPost2010Prop39
140
1.0
102
RTVSPost2010PropOp39
 70
     0
102
RTVSPost2010Prop40
 90
        0
102
RTVSPost2010PropOp40
 70
     0
102
RTVSPost2010Prop41ColorIndex
 90
       18
102
RTVSPost2010Prop41ColorRGB
 90
        0
102
RTVSPost2010PropOp41
 70
     0
102
RTVSPost2010Prop42
 90
       50
102
RTVSPost2010PropOp42
 70
     0
102
RTVSPost2010Prop43
 90
        3
102
RTVSPost2010PropOp43
 70
     0
102
RTVSPost2010Prop44ColorIndex
 90
        5
102
RTVSPost2010Prop44ColorRGB
 90
      255
102
RTVSPost2010PropOp44
 70
     0
102
RTVSPost2010Prop45
280
     0
102
RTVSPost2010PropOp45
 70
     1
102
RTVSPost2010Prop46
 90
       50
102
RTVSPost2010PropOp46
 70
     0
102
RTVSPost2010Prop47
 90
       50
102
RTVSPost2010PropOp47
 70
     0
102
RTVSPost2010Prop48
 90
       50
102
RTVSPost2010PropOp48
 70
     0
102
RTVSPost2010Prop49
280
     0
102
RTVSPost2010PropOp49
 70
     1
102
RTVSPost2010Prop50
 90
       50
102
RTVSPost2010PropOp50
 70
     0
102
RTVSPost2010Prop51ColorIndex
 90
      256
102
RTVSPost2010Prop51ColorRGB
 90
-16777216
102
RTVSPost2010PropOp51
 70
     0
102
RTVSPost2010Prop52
140
1.0
102
RTVSPost2010PropOp52
 70
     0
102
RTVSPost2010Prop53
 90
        2
102
RTVSPost2010PropOp53
 70
     0
102
RTVSPost2010Prop54
  1
strokes_ogs.tif
102
RTVSPost2010PropOp54
 70
     0
102
RTVSPost2010Prop55
280
     0
102
RTVSPost2010PropOp55
 70
     1
102
RTVSPost2010Prop56
140
1.0
102
RTVSPost2010PropOp56
 70
     0
102
RTVSPost2010Prop57
140
1.0
102
RTVSPost2010PropOp57
 70
     0
102
RTVSPropertyOp0
 70
     0
102
RTVSPropertyOp1
 70
     0
102
RTVSPropertyOp2
 70
     0
102
RTVSPropertyOp3
 70
     0
102
RTVSPropertyOp4
 70
     0
102
RTVSPropertyOp5
 70
     0
102
RTVSPropertyOp6
 70
     0
102
RTVSPropertyOp7
 70
     0
102
RTVSPropertyOp8
 70
     0
102
RTVSPropertyOp9
 70
     0
102
RTVSPropertyOp10
 70
     0
102
RTVSPropertyOp11
 70
     0
102
RTVSPropertyOp12
 70
     0
102
RTVSPropertyOp13
 70
     0
102
RTVSPropertyOp14
 70
     2
102
RTVSPropertyOp15
 70
     0
102
RTVSPropertyOp16
 70
     0
102
RTVSPropertyOp17
 70
     0
102
RTVSPropertyOp18
 70
     0
102
RTVSPropertyOp19
 70
     0
102
RTVSPropertyOp20
 70
     0
102
RTVSPropertyOp21
 70
     0
102
RTVSPropertyOp22
 70
     0
102
RTVSPropertyOp23
 70
     0
102
RTVSPropertyOp24
 70
     0
102
RTVSPropertyOp25
 70
     0
102
RTVSPropertyOp26
 70
     0
102
RTVSPropertyOp27
 70
     0
102
RTVSPropertyOp28
 70
     1
102
RTVSPropertyOp29
 70
     1
102
RTVSPropertyOp30
 70
     1
102
RTVSPropertyOp31
 70
     1
102
RTVSPropertyOp32
 70
     1
102
RTVSPropertyOp33
 70
     1
102
RTVSPropertyOp34
 70
     1
102
RTVSPropertyOp35
 70
     1
102
RTVSPropertyOp36
 70
     1
102
RTVSPropertyOp37
 70
     0
102
RTVSPropertyOp38
 70
     0
102
RTVSPropertyOp39
 70
     0
102
RTVSPropertyOp40
 70
     0
102
RTVSPropertyOp41
 70
     0
102
RTVSPropertyOp42
 70
     0
102
RTVSPropertyOp43
 70
     0
102
RTVSPropertyOp44
 70
     0
102
RTVSPropertyOp45
 70
     1
102
RTVSPropertyOp46
 70
     0
102
RTVSPropertyOp47
 70
     0
102
RTVSPropertyOp48
 70
     0
102
RTVSPropertyOp49
 70
     1
102
RTVSPropertyOp50
 70
     0
102
RTVSPropertyOp51
 70
     0
102
RTVSPropertyOp52
 70
     0
102
RTVSPropertyOp53
 70
     0
102
RTVSPropertyOp54
 70
     0
102
RTVSPropertyOp55
 70
     1
102
RTVSPropertyOp56
 70
     0
102
RTVSPropertyOp57
 70
     0
102
RTVSPropertyOp58
 70
     0
102
RTVSPropertyOp59
 70
     0
102
RTVSPropertyOp60
 70
     0
102
RTVSPropertyOp61
 70
     0
102
RTVSPropertyOp62
 70
     0
  0
XRECORD
  5
9E6
102
{ACAD_REACTORS
330
9E5
102
}
330
9E5
100
AcDbXrecord
280
     1
102
RTVSPost2010Prop28
280
     0
102
RTVSPost2010PropOp28
 70
     1
102
RTVSPost2010Prop29
280
     1
102
RTVSPost2010PropOp29
 70
     1
102
RTVSPost2010Prop30
280
     1
102
RTVSPost2010PropOp30
 70
     1
102
RTVSPost2010Prop31
280
     0
102
RTVSPost2010PropOp31
 70
     1
102
RTVSPost2010Prop32
280
     0
102
RTVSPost2010PropOp32
 70
     1
102
RTVSPost2010Prop33
280
     0
102
RTVSPost2010PropOp33
 70
     1
102
RTVSPost2010Prop34
280
     0
102
RTVSPost2010PropOp34
 70
     1
102
RTVSPost2010Prop35
280
     0
102
RTVSPost2010PropOp35
 70
     1
102
RTVSPost2010Prop36
280
     0
102
RTVSPost2010PropOp36
 70
     1
102
RTVSPost2010Prop37
 90
       50
102
RTVSPost2010PropOp37
 70
     1
102
RTVSPost2010Prop38
140
0.0
102
RTVSPost2010PropOp38
 70
     1
102
RTVSPost2010Prop39
140
1.0
102
RTVSPost2010PropOp39
 70
     1
102
RTVSPost2010Prop40
 90
        0
102
RTVSPost2010PropOp40
 70
     1
102
RTVSPost2010Prop41ColorIndex
 90
       18
102
RTVSPost2010Prop41ColorRGB
 90
        0
102
RTVSPost2010PropOp41
 70
     1
102
RTVSPost2010Prop42
 90
       50
102
RTVSPost2010PropOp42
 70
     1
102
RTVSPost2010Prop43
 90
        3
102
RTVSPost2010PropOp43
 70
     1
102
RTVSPost2010Prop44ColorIndex
 90
        5
102
RTVSPost2010Prop44ColorRGB
 90
      255
102
RTVSPost2010PropOp44
 70
     1
102
RTVSPost2010Prop45
280
     0
102
RTVSPost2010PropOp45
 70
     1
102
RTVSPost2010Prop46
 90
       50
102
RTVSPost2010PropOp46
 70
     1
102
RTVSPost2010Prop47
 90
       50
102
RTVSPost2010PropOp47
 70
     1
102
RTVSPost2010Prop48
 90
       50
102
RTVSPost2010PropOp48
 70
     1
102
RTVSPost2010Prop49
280
     0
102
RTVSPost2010PropOp49
 70
     1
102
RTVSPost2010Prop50
 90
       50
102
RTVSPost2010PropOp50
 70
     1
102
RTVSPost2010Prop51ColorIndex
 90
      256
102
RTVSPost2010Prop51ColorRGB
 90
-16777216
102
RTVSPost2010PropOp51
 70
     0
102
RTVSPost2010Prop52
140
1.0
102
RTVSPost2010PropOp52
 70
     0
102
RTVSPost2010Prop53
 90
        2
102
RTVSPost2010PropOp53
 70
     1
102
RTVSPost2010Prop54
  1
strokes_ogs.tif
102
RTVSPost2010PropOp54
 70
     1
102
RTVSPost2010Prop55
280
     0
102
RTVSPost2010PropOp55
 70
     1
102
RTVSPost2010Prop56
140
1.0
102
RTVSPost2010PropOp56
 70
     1
102
RTVSPost2010Prop57
140
1.0
102
RTVSPost2010PropOp57
 70
     1
102
RTVSPropertyOp0
 70
     1
102
RTVSPropertyOp1
 70
     1
102
RTVSPropertyOp2
 70
     1
102
RTVSPropertyOp3
 70
     1
102
RTVSPropertyOp4
 70
     1
102
RTVSPropertyOp5
 70
     1
102
RTVSPropertyOp6
 70
     1
102
RTVSPropertyOp7
 70
     1
102
RTVSPropertyOp8
 70
     1
102
RTVSPropertyOp9
 70
     1
102
RTVSPropertyOp10
 70
     1
102
RTVSPropertyOp11
 70
     1
102
RTVSPropertyOp12
 70
     1
102
RTVSPropertyOp13
 70
     1
102
RTVSPropertyOp14
 70
     1
102
RTVSPropertyOp15
 70
     1
102
RTVSPropertyOp16
 70
     1
102
RTVSPropertyOp17
 70
     1
102
RTVSPropertyOp18
 70
     1
102
RTVSPropertyOp19
 70
     1
102
RTVSPropertyOp20
 70
     1
102
RTVSPropertyOp21
 70
     1
102
RTVSPropertyOp22
 70
     1
102
RTVSPropertyOp23
 70
     1
102
RTVSPropertyOp24
 70
     1
102
RTVSPropertyOp25
 70
     1
102
RTVSPropertyOp26
 70
     1
102
RTVSPropertyOp27
 70
     1
102
RTVSPropertyOp28
 70
     1
102
RTVSPropertyOp29
 70
     1
102
RTVSPropertyOp30
 70
     1
102
RTVSPropertyOp31
 70
     1
102
RTVSPropertyOp32
 70
     1
102
RTVSPropertyOp33
 70
     1
102
RTVSPropertyOp34
 70
     1
102
RTVSPropertyOp35
 70
     1
102
RTVSPropertyOp36
 70
     1
102
RTVSPropertyOp37
 70
     1
102
RTVSPropertyOp38
 70
     1
102
RTVSPropertyOp39
 70
     1
102
RTVSPropertyOp40
 70
     1
102
RTVSPropertyOp41
 70
     1
102
RTVSPropertyOp42
 70
     1
102
RTVSPropertyOp43
 70
     1
102
RTVSPropertyOp44
 70
     1
102
RTVSPropertyOp45
 70
     1
102
RTVSPropertyOp46
 70
     1
102
RTVSPropertyOp47
 70
     1
102
RTVSPropertyOp48
 70
     1
102
RTVSPropertyOp49
 70
     1
102
RTVSPropertyOp50
 70
     1
102
RTVSPropertyOp51
 70
     0
102
RTVSPropertyOp52
 70
     0
102
RTVSPropertyOp53
 70
     1
102
RTVSPropertyOp54
 70
     1
102
RTVSPropertyOp55
 70
     1
102
RTVSPropertyOp56
 70
     1
102
RTVSPropertyOp57
 70
     1
102
RTVSPropertyOp58
 70
     1
102
RTVSPropertyOp59
 70
     1
102
RTVSPropertyOp60
 70
     1
102
RTVSPropertyOp61
 70
     1
102
RTVSPropertyOp62
 70
     1
  0
XRECORD
  5
9FC
102
{ACAD_REACTORS
330
9FB
102
}
330
9FB
100
AcDbXrecord
280
     1
102
RTVSPost2010Prop28
280
     0
102
RTVSPost2010PropOp28
 70
     1
102
RTVSPost2010Prop29
280
     1
102
RTVSPost2010PropOp29
 70
     1
102
RTVSPost2010Prop30
280
     1
102
RTVSPost2010PropOp30
 70
     1
102
RTVSPost2010Prop31
280
     0
102
RTVSPost2010PropOp31
 70
     1
102
RTVSPost2010Prop32
280
     0
102
RTVSPost2010PropOp32
 70
     1
102
RTVSPost2010Prop33
280
     0
102
RTVSPost2010PropOp33
 70
     1
102
RTVSPost2010Prop34
280
     0
102
RTVSPost2010PropOp34
 70
     1
102
RTVSPost2010Prop35
280
     0
102
RTVSPost2010PropOp35
 70
     1
102
RTVSPost2010Prop36
280
     0
102
RTVSPost2010PropOp36
 70
     1
102
RTVSPost2010Prop37
 90
       50
102
RTVSPost2010PropOp37
 70
     1
102
RTVSPost2010Prop38
140
0.0
102
RTVSPost2010PropOp38
 70
     1
102
RTVSPost2010Prop39
140
1.0
102
RTVSPost2010PropOp39
 70
     1
102
RTVSPost2010Prop40
 90
        0
102
RTVSPost2010PropOp40
 70
     1
102
RTVSPost2010Prop41ColorIndex
 90
       18
102
RTVSPost2010Prop41ColorRGB
 90
        0
102
RTVSPost2010PropOp41
 70
     1
102
RTVSPost2010Prop42
 90
       50
102
RTVSPost2010PropOp42
 70
     1
102
RTVSPost2010Prop43
 90
        3
102
RTVSPost2010PropOp43
 70
     1
102
RTVSPost2010Prop44ColorIndex
 90
        5
102
RTVSPost2010Prop44ColorRGB
 90
      255
102
RTVSPost2010PropOp44
 70
     1
102
RTVSPost2010Prop45
280
     0
102
RTVSPost2010PropOp45
 70
     1
102
RTVSPost2010Prop46
 90
       50
102
RTVSPost2010PropOp46
 70
     1
102
RTVSPost2010Prop47
 90
       50
102
RTVSPost2010PropOp47
 70
     1
102
RTVSPost2010Prop48
 90
       50
102
RTVSPost2010PropOp48
 70
     1
102
RTVSPost2010Prop49
280
     0
102
RTVSPost2010PropOp49
 70
     1
102
RTVSPost2010Prop50
 90
       50
102
RTVSPost2010PropOp50
 70
     1
102
RTVSPost2010Prop51ColorIndex
 90
      256
102
RTVSPost2010Prop51ColorRGB
 90
-16777216
102
RTVSPost2010PropOp51
 70
     0
102
RTVSPost2010Prop52
140
1.0
102
RTVSPost2010PropOp52
 70
     0
102
RTVSPost2010Prop53
 90
        2
102
RTVSPost2010PropOp53
 70
     1
102
RTVSPost2010Prop54
  1
strokes_ogs.tif
102
RTVSPost2010PropOp54
 70
     1
102
RTVSPost2010Prop55
280
     0
102
RTVSPost2010PropOp55
 70
     1
102
RTVSPost2010Prop56
140
1.0
102
RTVSPost2010PropOp56
 70
     1
102
RTVSPost2010Prop57
140
1.0
102
RTVSPost2010PropOp57
 70
     1
102
RTVSPropertyOp0
 70
     1
102
RTVSPropertyOp1
 70
     1
102
RTVSPropertyOp2
 70
     1
102
RTVSPropertyOp3
 70
     1
102
RTVSPropertyOp4
 70
     1
102
RTVSPropertyOp5
 70
     1
102
RTVSPropertyOp6
 70
     1
102
RTVSPropertyOp7
 70
     1
102
RTVSPropertyOp8
 70
     1
102
RTVSPropertyOp9
 70
     1
102
RTVSPropertyOp10
 70
     1
102
RTVSPropertyOp11
 70
     1
102
RTVSPropertyOp12
 70
     1
102
RTVSPropertyOp13
 70
     1
102
RTVSPropertyOp14
 70
     1
102
RTVSPropertyOp15
 70
     1
102
RTVSPropertyOp16
 70
     1
102
RTVSPropertyOp17
 70
     1
102
RTVSPropertyOp18
 70
     1
102
RTVSPropertyOp19
 70
     1
102
RTVSPropertyOp20
 70
     1
102
RTVSPropertyOp21
 70
     1
102
RTVSPropertyOp22
 70
     1
102
RTVSPropertyOp23
 70
     1
102
RTVSPropertyOp24
 70
     1
102
RTVSPropertyOp25
 70
     1
102
RTVSPropertyOp26
 70
     1
102
RTVSPropertyOp27
 70
     1
102
RTVSPropertyOp28
 70
     1
102
RTVSPropertyOp29
 70
     1
102
RTVSPropertyOp30
 70
     1
102
RTVSPropertyOp31
 70
     1
102
RTVSPropertyOp32
 70
     1
102
RTVSPropertyOp33
 70
     1
102
RTVSPropertyOp34
 70
     1
102
RTVSPropertyOp35
 70
     1
102
RTVSPropertyOp36
 70
     1
102
RTVSPropertyOp37
 70
     1
102
RTVSPropertyOp38
 70
     1
102
RTVSPropertyOp39
 70
     1
102
RTVSPropertyOp40
 70
     1
102
RTVSPropertyOp41
 70
     1
102
RTVSPropertyOp42
 70
     1
102
RTVSPropertyOp43
 70
     1
102
RTVSPropertyOp44
 70
     1
102
RTVSPropertyOp45
 70
     1
102
RTVSPropertyOp46
 70
     1
102
RTVSPropertyOp47
 70
     1
102
RTVSPropertyOp48
 70
     1
102
RTVSPropertyOp49
 70
     1
102
RTVSPropertyOp50
 70
     1
102
RTVSPropertyOp51
 70
     0
102
RTVSPropertyOp52
 70
     0
102
RTVSPropertyOp53
 70
     1
102
RTVSPropertyOp54
 70
     1
102
RTVSPropertyOp55
 70
     1
102
RTVSPropertyOp56
 70
     1
102
RTVSPropertyOp57
 70
     1
102
RTVSPropertyOp58
 70
     1
102
RTVSPropertyOp59
 70
     1
102
RTVSPropertyOp60
 70
     1
102
RTVSPropertyOp61
 70
     1
102
RTVSPropertyOp62
 70
     1
  0
XRECORD
  5
9FA
102
{ACAD_REACTORS
330
9F9
102
}
330
9F9
100
AcDbXrecord
280
     1
102
RTVSPost2010Prop28
280
     0
102
RTVSPost2010PropOp28
 70
     1
102
RTVSPost2010Prop29
280
     1
102
RTVSPost2010PropOp29
 70
     1
102
RTVSPost2010Prop30
280
     1
102
RTVSPost2010PropOp30
 70
     1
102
RTVSPost2010Prop31
280
     0
102
RTVSPost2010PropOp31
 70
     1
102
RTVSPost2010Prop32
280
     0
102
RTVSPost2010PropOp32
 70
     1
102
RTVSPost2010Prop33
280
     0
102
RTVSPost2010PropOp33
 70
     1
102
RTVSPost2010Prop34
280
     0
102
RTVSPost2010PropOp34
 70
     1
102
RTVSPost2010Prop35
280
     0
102
RTVSPost2010PropOp35
 70
     1
102
RTVSPost2010Prop36
280
     0
102
RTVSPost2010PropOp36
 70
     1
102
RTVSPost2010Prop37
 90
       50
102
RTVSPost2010PropOp37
 70
     1
102
RTVSPost2010Prop38
140
0.0
102
RTVSPost2010PropOp38
 70
     1
102
RTVSPost2010Prop39
140
1.0
102
RTVSPost2010PropOp39
 70
     1
102
RTVSPost2010Prop40
 90
        0
102
RTVSPost2010PropOp40
 70
     1
102
RTVSPost2010Prop41ColorIndex
 90
       18
102
RTVSPost2010Prop41ColorRGB
 90
        0
102
RTVSPost2010PropOp41
 70
     1
102
RTVSPost2010Prop42
 90
       50
102
RTVSPost2010PropOp42
 70
     1
102
RTVSPost2010Prop43
 90
        3
102
RTVSPost2010PropOp43
 70
     1
102
RTVSPost2010Prop44ColorIndex
 90
        5
102
RTVSPost2010Prop44ColorRGB
 90
      255
102
RTVSPost2010PropOp44
 70
     1
102
RTVSPost2010Prop45
280
     0
102
RTVSPost2010PropOp45
 70
     1
102
RTVSPost2010Prop46
 90
       50
102
RTVSPost2010PropOp46
 70
     1
102
RTVSPost2010Prop47
 90
       50
102
RTVSPost2010PropOp47
 70
     1
102
RTVSPost2010Prop48
 90
       50
102
RTVSPost2010PropOp48
 70
     1
102
RTVSPost2010Prop49
280
     0
102
RTVSPost2010PropOp49
 70
     1
102
RTVSPost2010Prop50
 90
       50
102
RTVSPost2010PropOp50
 70
     1
102
RTVSPost2010Prop51ColorIndex
 90
      256
102
RTVSPost2010Prop51ColorRGB
 90
-16777216
102
RTVSPost2010PropOp51
 70
     0
102
RTVSPost2010Prop52
140
1.0
102
RTVSPost2010PropOp52
 70
     0
102
RTVSPost2010Prop53
 90
        2
102
RTVSPost2010PropOp53
 70
     1
102
RTVSPost2010Prop54
  1
strokes_ogs.tif
102
RTVSPost2010PropOp54
 70
     1
102
RTVSPost2010Prop55
280
     0
102
RTVSPost2010PropOp55
 70
     1
102
RTVSPost2010Prop56
140
1.0
102
RTVSPost2010PropOp56
 70
     1
102
RTVSPost2010Prop57
140
1.0
102
RTVSPost2010PropOp57
 70
     1
102
RTVSPropertyOp0
 70
     1
102
RTVSPropertyOp1
 70
     1
102
RTVSPropertyOp2
 70
     1
102
RTVSPropertyOp3
 70
     1
102
RTVSPropertyOp4
 70
     1
102
RTVSPropertyOp5
 70
     1
102
RTVSPropertyOp6
 70
     1
102
RTVSPropertyOp7
 70
     1
102
RTVSPropertyOp8
 70
     1
102
RTVSPropertyOp9
 70
     1
102
RTVSPropertyOp10
 70
     1
102
RTVSPropertyOp11
 70
     1
102
RTVSPropertyOp12
 70
     1
102
RTVSPropertyOp13
 70
     1
102
RTVSPropertyOp14
 70
     1
102
RTVSPropertyOp15
 70
     1
102
RTVSPropertyOp16
 70
     1
102
RTVSPropertyOp17
 70
     1
102
RTVSPropertyOp18
 70
     1
102
RTVSPropertyOp19
 70
     1
102
RTVSPropertyOp20
 70
     1
102
RTVSPropertyOp21
 70
     1
102
RTVSPropertyOp22
 70
     1
102
RTVSPropertyOp23
 70
     1
102
RTVSPropertyOp24
 70
     1
102
RTVSPropertyOp25
 70
     1
102
RTVSPropertyOp26
 70
     1
102
RTVSPropertyOp27
 70
     1
102
RTVSPropertyOp28
 70
     1
102
RTVSPropertyOp29
 70
     1
102
RTVSPropertyOp30
 70
     1
102
RTVSPropertyOp31
 70
     1
102
RTVSPropertyOp32
 70
     1
102
RTVSPropertyOp33
 70
     1
102
RTVSPropertyOp34
 70
     1
102
RTVSPropertyOp35
 70
     1
102
RTVSPropertyOp36
 70
     1
102
RTVSPropertyOp37
 70
     1
102
RTVSPropertyOp38
 70
     1
102
RTVSPropertyOp39
 70
     1
102
RTVSPropertyOp40
 70
     1
102
RTVSPropertyOp41
 70
     1
102
RTVSPropertyOp42
 70
     1
102
RTVSPropertyOp43
 70
     1
102
RTVSPropertyOp44
 70
     1
102
RTVSPropertyOp45
 70
     1
102
RTVSPropertyOp46
 70
     1
102
RTVSPropertyOp47
 70
     1
102
RTVSPropertyOp48
 70
     1
102
RTVSPropertyOp49
 70
     1
102
RTVSPropertyOp50
 70
     1
102
RTVSPropertyOp51
 70
     0
102
RTVSPropertyOp52
 70
     0
102
RTVSPropertyOp53
 70
     1
102
RTVSPropertyOp54
 70
     1
102
RTVSPropertyOp55
 70
     1
102
RTVSPropertyOp56
 70
     1
102
RTVSPropertyOp57
 70
     1
102
RTVSPropertyOp58
 70
     1
102
RTVSPropertyOp59
 70
     1
102
RTVSPropertyOp60
 70
     1
102
RTVSPropertyOp61
 70
     1
102
RTVSPropertyOp62
 70
     1
  0
XRECORD
  5
9F4
102
{ACAD_REACTORS
330
9F3
102
}
330
9F3
100
AcDbXrecord
280
     1
102
RTVSPost2010Prop28
280
     0
102
RTVSPost2010PropOp28
 70
     1
102
RTVSPost2010Prop29
280
     1
102
RTVSPost2010PropOp29
 70
     1
102
RTVSPost2010Prop30
280
     1
102
RTVSPost2010PropOp30
 70
     1
102
RTVSPost2010Prop31
280
     0
102
RTVSPost2010PropOp31
 70
     1
102
RTVSPost2010Prop32
280
     0
102
RTVSPost2010PropOp32
 70
     1
102
RTVSPost2010Prop33
280
     0
102
RTVSPost2010PropOp33
 70
     1
102
RTVSPost2010Prop34
280
     0
102
RTVSPost2010PropOp34
 70
     1
102
RTVSPost2010Prop35
280
     0
102
RTVSPost2010PropOp35
 70
     1
102
RTVSPost2010Prop36
280
     0
102
RTVSPost2010PropOp36
 70
     1
102
RTVSPost2010Prop37
 90
       50
102
RTVSPost2010PropOp37
 70
     1
102
RTVSPost2010Prop38
140
0.0
102
RTVSPost2010PropOp38
 70
     1
102
RTVSPost2010Prop39
140
1.0
102
RTVSPost2010PropOp39
 70
     1
102
RTVSPost2010Prop40
 90
        0
102
RTVSPost2010PropOp40
 70
     1
102
RTVSPost2010Prop41ColorIndex
 90
       18
102
RTVSPost2010Prop41ColorRGB
 90
        0
102
RTVSPost2010PropOp41
 70
     1
102
RTVSPost2010Prop42
 90
       50
102
RTVSPost2010PropOp42
 70
     1
102
RTVSPost2010Prop43
 90
        3
102
RTVSPost2010PropOp43
 70
     1
102
RTVSPost2010Prop44ColorIndex
 90
        5
102
RTVSPost2010Prop44ColorRGB
 90
      255
102
RTVSPost2010PropOp44
 70
     1
102
RTVSPost2010Prop45
280
     0
102
RTVSPost2010PropOp45
 70
     1
102
RTVSPost2010Prop46
 90
       50
102
RTVSPost2010PropOp46
 70
     1
102
RTVSPost2010Prop47
 90
       50
102
RTVSPost2010PropOp47
 70
     1
102
RTVSPost2010Prop48
 90
       50
102
RTVSPost2010PropOp48
 70
     1
102
RTVSPost2010Prop49
280
     0
102
RTVSPost2010PropOp49
 70
     1
102
RTVSPost2010Prop50
 90
       50
102
RTVSPost2010PropOp50
 70
     1
102
RTVSPost2010Prop51ColorIndex
 90
      256
102
RTVSPost2010Prop51ColorRGB
 90
-16777216
102
RTVSPost2010PropOp51
 70
     0
102
RTVSPost2010Prop52
140
1.0
102
RTVSPost2010PropOp52
 70
     0
102
RTVSPost2010Prop53
 90
        2
102
RTVSPost2010PropOp53
 70
     1
102
RTVSPost2010Prop54
  1
strokes_ogs.tif
102
RTVSPost2010PropOp54
 70
     1
102
RTVSPost2010Prop55
280
     0
102
RTVSPost2010PropOp55
 70
     1
102
RTVSPost2010Prop56
140
1.0
102
RTVSPost2010PropOp56
 70
     1
102
RTVSPost2010Prop57
140
1.0
102
RTVSPost2010PropOp57
 70
     1
102
RTVSPropertyOp0
 70
     1
102
RTVSPropertyOp1
 70
     1
102
RTVSPropertyOp2
 70
     1
102
RTVSPropertyOp3
 70
     1
102
RTVSPropertyOp4
 70
     1
102
RTVSPropertyOp5
 70
     1
102
RTVSPropertyOp6
 70
     1
102
RTVSPropertyOp7
 70
     1
102
RTVSPropertyOp8
 70
     1
102
RTVSPropertyOp9
 70
     1
102
RTVSPropertyOp10
 70
     1
102
RTVSPropertyOp11
 70
     1
102
RTVSPropertyOp12
 70
     1
102
RTVSPropertyOp13
 70
     1
102
RTVSPropertyOp14
 70
     1
102
RTVSPropertyOp15
 70
     1
102
RTVSPropertyOp16
 70
     1
102
RTVSPropertyOp17
 70
     1
102
RTVSPropertyOp18
 70
     1
102
RTVSPropertyOp19
 70
     1
102
RTVSPropertyOp20
 70
     1
102
RTVSPropertyOp21
 70
     1
102
RTVSPropertyOp22
 70
     1
102
RTVSPropertyOp23
 70
     1
102
RTVSPropertyOp24
 70
     1
102
RTVSPropertyOp25
 70
     1
102
RTVSPropertyOp26
 70
     1
102
RTVSPropertyOp27
 70
     1
102
RTVSPropertyOp28
 70
     1
102
RTVSPropertyOp29
 70
     1
102
RTVSPropertyOp30
 70
     1
102
RTVSPropertyOp31
 70
     1
102
RTVSPropertyOp32
 70
     1
102
RTVSPropertyOp33
 70
     1
102
RTVSPropertyOp34
 70
     1
102
RTVSPropertyOp35
 70
     1
102
RTVSPropertyOp36
 70
     1
102
RTVSPropertyOp37
 70
     1
102
RTVSPropertyOp38
 70
     1
102
RTVSPropertyOp39
 70
     1
102
RTVSPropertyOp40
 70
     1
102
RTVSPropertyOp41
 70
     1
102
RTVSPropertyOp42
 70
     1
102
RTVSPropertyOp43
 70
     1
102
RTVSPropertyOp44
 70
     1
102
RTVSPropertyOp45
 70
     1
102
RTVSPropertyOp46
 70
     1
102
RTVSPropertyOp47
 70
     1
102
RTVSPropertyOp48
 70
     1
102
RTVSPropertyOp49
 70
     1
102
RTVSPropertyOp50
 70
     1
102
RTVSPropertyOp51
 70
     0
102
RTVSPropertyOp52
 70
     0
102
RTVSPropertyOp53
 70
     1
102
RTVSPropertyOp54
 70
     1
102
RTVSPropertyOp55
 70
     1
102
RTVSPropertyOp56
 70
     1
102
RTVSPropertyOp57
 70
     1
102
RTVSPropertyOp58
 70
     1
102
RTVSPropertyOp59
 70
     1
102
RTVSPropertyOp60
 70
     1
102
RTVSPropertyOp61
 70
     1
102
RTVSPropertyOp62
 70
     1
  0
XRECORD
  5
9F6
102
{ACAD_REACTORS
330
9F5
102
}
330
9F5
100
AcDbXrecord
280
     1
102
RTVSPost2010Prop28
280
     0
102
RTVSPost2010PropOp28
 70
     1
102
RTVSPost2010Prop29
280
     1
102
RTVSPost2010PropOp29
 70
     1
102
RTVSPost2010Prop30
280
     1
102
RTVSPost2010PropOp30
 70
     1
102
RTVSPost2010Prop31
280
     0
102
RTVSPost2010PropOp31
 70
     1
102
RTVSPost2010Prop32
280
     0
102
RTVSPost2010PropOp32
 70
     1
102
RTVSPost2010Prop33
280
     0
102
RTVSPost2010PropOp33
 70
     1
102
RTVSPost2010Prop34
280
     0
102
RTVSPost2010PropOp34
 70
     1
102
RTVSPost2010Prop35
280
     0
102
RTVSPost2010PropOp35
 70
     1
102
RTVSPost2010Prop36
280
     0
102
RTVSPost2010PropOp36
 70
     1
102
RTVSPost2010Prop37
 90
       50
102
RTVSPost2010PropOp37
 70
     1
102
RTVSPost2010Prop38
140
0.0
102
RTVSPost2010PropOp38
 70
     1
102
RTVSPost2010Prop39
140
1.0
102
RTVSPost2010PropOp39
 70
     1
102
RTVSPost2010Prop40
 90
        0
102
RTVSPost2010PropOp40
 70
     1
102
RTVSPost2010Prop41ColorIndex
 90
       18
102
RTVSPost2010Prop41ColorRGB
 90
        0
102
RTVSPost2010PropOp41
 70
     1
102
RTVSPost2010Prop42
 90
       50
102
RTVSPost2010PropOp42
 70
     1
102
RTVSPost2010Prop43
 90
        3
102
RTVSPost2010PropOp43
 70
     1
102
RTVSPost2010Prop44ColorIndex
 90
        5
102
RTVSPost2010Prop44ColorRGB
 90
      255
102
RTVSPost2010PropOp44
 70
     1
102
RTVSPost2010Prop45
280
     0
102
RTVSPost2010PropOp45
 70
     1
102
RTVSPost2010Prop46
 90
       50
102
RTVSPost2010PropOp46
 70
     1
102
RTVSPost2010Prop47
 90
       50
102
RTVSPost2010PropOp47
 70
     1
102
RTVSPost2010Prop48
 90
       50
102
RTVSPost2010PropOp48
 70
     1
102
RTVSPost2010Prop49
280
     0
102
RTVSPost2010PropOp49
 70
     1
102
RTVSPost2010Prop50
 90
       50
102
RTVSPost2010PropOp50
 70
     1
102
RTVSPost2010Prop51ColorIndex
 90
      256
102
RTVSPost2010Prop51ColorRGB
 90
-16777216
102
RTVSPost2010PropOp51
 70
     0
102
RTVSPost2010Prop52
140
1.0
102
RTVSPost2010PropOp52
 70
     0
102
RTVSPost2010Prop53
 90
        2
102
RTVSPost2010PropOp53
 70
     1
102
RTVSPost2010Prop54
  1
strokes_ogs.tif
102
RTVSPost2010PropOp54
 70
     1
102
RTVSPost2010Prop55
280
     0
102
RTVSPost2010PropOp55
 70
     1
102
RTVSPost2010Prop56
140
1.0
102
RTVSPost2010PropOp56
 70
     1
102
RTVSPost2010Prop57
140
1.0
102
RTVSPost2010PropOp57
 70
     1
102
RTVSPropertyOp0
 70
     1
102
RTVSPropertyOp1
 70
     1
102
RTVSPropertyOp2
 70
     1
102
RTVSPropertyOp3
 70
     1
102
RTVSPropertyOp4
 70
     1
102
RTVSPropertyOp5
 70
     1
102
RTVSPropertyOp6
 70
     1
102
RTVSPropertyOp7
 70
     1
102
RTVSPropertyOp8
 70
     1
102
RTVSPropertyOp9
 70
     1
102
RTVSPropertyOp10
 70
     1
102
RTVSPropertyOp11
 70
     1
102
RTVSPropertyOp12
 70
     1
102
RTVSPropertyOp13
 70
     1
102
RTVSPropertyOp14
 70
     1
102
RTVSPropertyOp15
 70
     1
102
RTVSPropertyOp16
 70
     1
102
RTVSPropertyOp17
 70
     1
102
RTVSPropertyOp18
 70
     1
102
RTVSPropertyOp19
 70
     1
102
RTVSPropertyOp20
 70
     1
102
RTVSPropertyOp21
 70
     1
102
RTVSPropertyOp22
 70
     1
102
RTVSPropertyOp23
 70
     1
102
RTVSPropertyOp24
 70
     1
102
RTVSPropertyOp25
 70
     1
102
RTVSPropertyOp26
 70
     1
102
RTVSPropertyOp27
 70
     1
102
RTVSPropertyOp28
 70
     1
102
RTVSPropertyOp29
 70
     1
102
RTVSPropertyOp30
 70
     1
102
RTVSPropertyOp31
 70
     1
102
RTVSPropertyOp32
 70
     1
102
RTVSPropertyOp33
 70
     1
102
RTVSPropertyOp34
 70
     1
102
RTVSPropertyOp35
 70
     1
102
RTVSPropertyOp36
 70
     1
102
RTVSPropertyOp37
 70
     1
102
RTVSPropertyOp38
 70
     1
102
RTVSPropertyOp39
 70
     1
102
RTVSPropertyOp40
 70
     1
102
RTVSPropertyOp41
 70
     1
102
RTVSPropertyOp42
 70
     1
102
RTVSPropertyOp43
 70
     1
102
RTVSPropertyOp44
 70
     1
102
RTVSPropertyOp45
 70
     1
102
RTVSPropertyOp46
 70
     1
102
RTVSPropertyOp47
 70
     1
102
RTVSPropertyOp48
 70
     1
102
RTVSPropertyOp49
 70
     1
102
RTVSPropertyOp50
 70
     1
102
RTVSPropertyOp51
 70
     0
102
RTVSPropertyOp52
 70
     0
102
RTVSPropertyOp53
 70
     1
102
RTVSPropertyOp54
 70
     1
102
RTVSPropertyOp55
 70
     1
102
RTVSPropertyOp56
 70
     1
102
RTVSPropertyOp57
 70
     1
102
RTVSPropertyOp58
 70
     1
102
RTVSPropertyOp59
 70
     1
102
RTVSPropertyOp60
 70
     1
102
RTVSPropertyOp61
 70
     1
102
RTVSPropertyOp62
 70
     1
  0
XRECORD
  5
9EC
102
{ACAD_REACTORS
330
9EB
102
}
330
9EB
100
AcDbXrecord
280
     1
102
RTVSPost2010Prop28
280
     0
102
RTVSPost2010PropOp28
 70
     1
102
RTVSPost2010Prop29
280
     1
102
RTVSPost2010PropOp29
 70
     1
102
RTVSPost2010Prop30
280
     1
102
RTVSPost2010PropOp30
 70
     1
102
RTVSPost2010Prop31
280
     0
102
RTVSPost2010PropOp31
 70
     1
102
RTVSPost2010Prop32
280
     0
102
RTVSPost2010PropOp32
 70
     1
102
RTVSPost2010Prop33
280
     0
102
RTVSPost2010PropOp33
 70
     1
102
RTVSPost2010Prop34
280
     0
102
RTVSPost2010PropOp34
 70
     1
102
RTVSPost2010Prop35
280
     0
102
RTVSPost2010PropOp35
 70
     1
102
RTVSPost2010Prop36
280
     0
102
RTVSPost2010PropOp36
 70
     1
102
RTVSPost2010Prop37
 90
       50
102
RTVSPost2010PropOp37
 70
     1
102
RTVSPost2010Prop38
140
0.0
102
RTVSPost2010PropOp38
 70
     1
102
RTVSPost2010Prop39
140
1.0
102
RTVSPost2010PropOp39
 70
     1
102
RTVSPost2010Prop40
 90
        0
102
RTVSPost2010PropOp40
 70
     1
102
RTVSPost2010Prop41ColorIndex
 90
       18
102
RTVSPost2010Prop41ColorRGB
 90
        0
102
RTVSPost2010PropOp41
 70
     1
102
RTVSPost2010Prop42
 90
       50
102
RTVSPost2010PropOp42
 70
     1
102
RTVSPost2010Prop43
 90
        3
102
RTVSPost2010PropOp43
 70
     1
102
RTVSPost2010Prop44ColorIndex
 90
        5
102
RTVSPost2010Prop44ColorRGB
 90
      255
102
RTVSPost2010PropOp44
 70
     1
102
RTVSPost2010Prop45
280
     0
102
RTVSPost2010PropOp45
 70
     1
102
RTVSPost2010Prop46
 90
       50
102
RTVSPost2010PropOp46
 70
     1
102
RTVSPost2010Prop47
 90
       50
102
RTVSPost2010PropOp47
 70
     1
102
RTVSPost2010Prop48
 90
       50
102
RTVSPost2010PropOp48
 70
     1
102
RTVSPost2010Prop49
280
     0
102
RTVSPost2010PropOp49
 70
     1
102
RTVSPost2010Prop50
 90
       50
102
RTVSPost2010PropOp50
 70
     1
102
RTVSPost2010Prop51ColorIndex
 90
      256
102
RTVSPost2010Prop51ColorRGB
 90
-16777216
102
RTVSPost2010PropOp51
 70
     0
102
RTVSPost2010Prop52
140
1.0
102
RTVSPost2010PropOp52
 70
     0
102
RTVSPost2010Prop53
 90
        2
102
RTVSPost2010PropOp53
 70
     1
102
RTVSPost2010Prop54
  1
strokes_ogs.tif
102
RTVSPost2010PropOp54
 70
     1
102
RTVSPost2010Prop55
280
     0
102
RTVSPost2010PropOp55
 70
     1
102
RTVSPost2010Prop56
140
1.0
102
RTVSPost2010PropOp56
 70
     1
102
RTVSPost2010Prop57
140
1.0
102
RTVSPost2010PropOp57
 70
     1
102
RTVSPropertyOp0
 70
     1
102
RTVSPropertyOp1
 70
     1
102
RTVSPropertyOp2
 70
     1
102
RTVSPropertyOp3
 70
     1
102
RTVSPropertyOp4
 70
     1
102
RTVSPropertyOp5
 70
     1
102
RTVSPropertyOp6
 70
     1
102
RTVSPropertyOp7
 70
     1
102
RTVSPropertyOp8
 70
     1
102
RTVSPropertyOp9
 70
     1
102
RTVSPropertyOp10
 70
     1
102
RTVSPropertyOp11
 70
     1
102
RTVSPropertyOp12
 70
     1
102
RTVSPropertyOp13
 70
     1
102
RTVSPropertyOp14
 70
     1
102
RTVSPropertyOp15
 70
     1
102
RTVSPropertyOp16
 70
     1
102
RTVSPropertyOp17
 70
     1
102
RTVSPropertyOp18
 70
     1
102
RTVSPropertyOp19
 70
     1
102
RTVSPropertyOp20
 70
     1
102
RTVSPropertyOp21
 70
     1
102
RTVSPropertyOp22
 70
     1
102
RTVSPropertyOp23
 70
     1
102
RTVSPropertyOp24
 70
     1
102
RTVSPropertyOp25
 70
     1
102
RTVSPropertyOp26
 70
     1
102
RTVSPropertyOp27
 70
     1
102
RTVSPropertyOp28
 70
     1
102
RTVSPropertyOp29
 70
     1
102
RTVSPropertyOp30
 70
     1
102
RTVSPropertyOp31
 70
     1
102
RTVSPropertyOp32
 70
     1
102
RTVSPropertyOp33
 70
     1
102
RTVSPropertyOp34
 70
     1
102
RTVSPropertyOp35
 70
     1
102
RTVSPropertyOp36
 70
     1
102
RTVSPropertyOp37
 70
     1
102
RTVSPropertyOp38
 70
     1
102
RTVSPropertyOp39
 70
     1
102
RTVSPropertyOp40
 70
     1
102
RTVSPropertyOp41
 70
     1
102
RTVSPropertyOp42
 70
     1
102
RTVSPropertyOp43
 70
     1
102
RTVSPropertyOp44
 70
     1
102
RTVSPropertyOp45
 70
     1
102
RTVSPropertyOp46
 70
     1
102
RTVSPropertyOp47
 70
     1
102
RTVSPropertyOp48
 70
     1
102
RTVSPropertyOp49
 70
     1
102
RTVSPropertyOp50
 70
     1
102
RTVSPropertyOp51
 70
     0
102
RTVSPropertyOp52
 70
     0
102
RTVSPropertyOp53
 70
     1
102
RTVSPropertyOp54
 70
     1
102
RTVSPropertyOp55
 70
     1
102
RTVSPropertyOp56
 70
     1
102
RTVSPropertyOp57
 70
     1
102
RTVSPropertyOp58
 70
     1
102
RTVSPropertyOp59
 70
     1
102
RTVSPropertyOp60
 70
     1
102
RTVSPropertyOp61
 70
     1
102
RTVSPropertyOp62
 70
     1
  0
XRECORD
  5
9E0
102
{ACAD_REACTORS
330
9DF
102
}
330
9DF
100
AcDbXrecord
280
     1
102
RTVSPost2010Prop28
280
     0
102
RTVSPost2010PropOp28
 70
     1
102
RTVSPost2010Prop29
280
     1
102
RTVSPost2010PropOp29
 70
     1
102
RTVSPost2010Prop30
280
     1
102
RTVSPost2010PropOp30
 70
     1
102
RTVSPost2010Prop31
280
     0
102
RTVSPost2010PropOp31
 70
     1
102
RTVSPost2010Prop32
280
     0
102
RTVSPost2010PropOp32
 70
     1
102
RTVSPost2010Prop33
280
     0
102
RTVSPost2010PropOp33
 70
     1
102
RTVSPost2010Prop34
280
     0
102
RTVSPost2010PropOp34
 70
     1
102
RTVSPost2010Prop35
280
     0
102
RTVSPost2010PropOp35
 70
     1
102
RTVSPost2010Prop36
280
     0
102
RTVSPost2010PropOp36
 70
     1
102
RTVSPost2010Prop37
 90
       50
102
RTVSPost2010PropOp37
 70
     1
102
RTVSPost2010Prop38
140
0.0
102
RTVSPost2010PropOp38
 70
     1
102
RTVSPost2010Prop39
140
1.0
102
RTVSPost2010PropOp39
 70
     1
102
RTVSPost2010Prop40
 90
        0
102
RTVSPost2010PropOp40
 70
     1
102
RTVSPost2010Prop41ColorIndex
 90
       18
102
RTVSPost2010Prop41ColorRGB
 90
        0
102
RTVSPost2010PropOp41
 70
     1
102
RTVSPost2010Prop42
 90
       50
102
RTVSPost2010PropOp42
 70
     1
102
RTVSPost2010Prop43
 90
        3
102
RTVSPost2010PropOp43
 70
     1
102
RTVSPost2010Prop44ColorIndex
 90
        5
102
RTVSPost2010Prop44ColorRGB
 90
      255
102
RTVSPost2010PropOp44
 70
     1
102
RTVSPost2010Prop45
280
     0
102
RTVSPost2010PropOp45
 70
     1
102
RTVSPost2010Prop46
 90
       50
102
RTVSPost2010PropOp46
 70
     1
102
RTVSPost2010Prop47
 90
       50
102
RTVSPost2010PropOp47
 70
     1
102
RTVSPost2010Prop48
 90
       50
102
RTVSPost2010PropOp48
 70
     1
102
RTVSPost2010Prop49
280
     0
102
RTVSPost2010PropOp49
 70
     1
102
RTVSPost2010Prop50
 90
       50
102
RTVSPost2010PropOp50
 70
     1
102
RTVSPost2010Prop51ColorIndex
 90
      256
102
RTVSPost2010Prop51ColorRGB
 90
-16777216
102
RTVSPost2010PropOp51
 70
     0
102
RTVSPost2010Prop52
140
1.0
102
RTVSPost2010PropOp52
 70
     0
102
RTVSPost2010Prop53
 90
        2
102
RTVSPost2010PropOp53
 70
     1
102
RTVSPost2010Prop54
  1
strokes_ogs.tif
102
RTVSPost2010PropOp54
 70
     1
102
RTVSPost2010Prop55
280
     0
102
RTVSPost2010PropOp55
 70
     1
102
RTVSPost2010Prop56
140
1.0
102
RTVSPost2010PropOp56
 70
     1
102
RTVSPost2010Prop57
140
1.0
102
RTVSPost2010PropOp57
 70
     1
102
RTVSPropertyOp0
 70
     1
102
RTVSPropertyOp1
 70
     1
102
RTVSPropertyOp2
 70
     1
102
RTVSPropertyOp3
 70
     1
102
RTVSPropertyOp4
 70
     1
102
RTVSPropertyOp5
 70
     1
102
RTVSPropertyOp6
 70
     1
102
RTVSPropertyOp7
 70
     1
102
RTVSPropertyOp8
 70
     1
102
RTVSPropertyOp9
 70
     1
102
RTVSPropertyOp10
 70
     1
102
RTVSPropertyOp11
 70
     1
102
RTVSPropertyOp12
 70
     1
102
RTVSPropertyOp13
 70
     1
102
RTVSPropertyOp14
 70
     1
102
RTVSPropertyOp15
 70
     1
102
RTVSPropertyOp16
 70
     1
102
RTVSPropertyOp17
 70
     1
102
RTVSPropertyOp18
 70
     1
102
RTVSPropertyOp19
 70
     1
102
RTVSPropertyOp20
 70
     1
102
RTVSPropertyOp21
 70
     1
102
RTVSPropertyOp22
 70
     1
102
RTVSPropertyOp23
 70
     1
102
RTVSPropertyOp24
 70
     1
102
RTVSPropertyOp25
 70
     1
102
RTVSPropertyOp26
 70
     1
102
RTVSPropertyOp27
 70
     1
102
RTVSPropertyOp28
 70
     1
102
RTVSPropertyOp29
 70
     1
102
RTVSPropertyOp30
 70
     1
102
RTVSPropertyOp31
 70
     1
102
RTVSPropertyOp32
 70
     1
102
RTVSPropertyOp33
 70
     1
102
RTVSPropertyOp34
 70
     1
102
RTVSPropertyOp35
 70
     1
102
RTVSPropertyOp36
 70
     1
102
RTVSPropertyOp37
 70
     1
102
RTVSPropertyOp38
 70
     1
102
RTVSPropertyOp39
 70
     1
102
RTVSPropertyOp40
 70
     1
102
RTVSPropertyOp41
 70
     1
102
RTVSPropertyOp42
 70
     1
102
RTVSPropertyOp43
 70
     1
102
RTVSPropertyOp44
 70
     1
102
RTVSPropertyOp45
 70
     1
102
RTVSPropertyOp46
 70
     1
102
RTVSPropertyOp47
 70
     1
102
RTVSPropertyOp48
 70
     1
102
RTVSPropertyOp49
 70
     1
102
RTVSPropertyOp50
 70
     1
102
RTVSPropertyOp51
 70
     0
102
RTVSPropertyOp52
 70
     0
102
RTVSPropertyOp53
 70
     1
102
RTVSPropertyOp54
 70
     1
102
RTVSPropertyOp55
 70
     1
102
RTVSPropertyOp56
 70
     1
102
RTVSPropertyOp57
 70
     1
102
RTVSPropertyOp58
 70
     1
102
RTVSPropertyOp59
 70
     1
102
RTVSPropertyOp60
 70
     1
102
RTVSPropertyOp61
 70
     1
102
RTVSPropertyOp62
 70
     1
  0
XRECORD
  5
9F8
102
{ACAD_REACTORS
330
9F7
102
}
330
9F7
100
AcDbXrecord
280
     1
102
RTVSPost2010Prop28
280
     0
102
RTVSPost2010PropOp28
 70
     1
102
RTVSPost2010Prop29
280
     1
102
RTVSPost2010PropOp29
 70
     1
102
RTVSPost2010Prop30
280
     1
102
RTVSPost2010PropOp30
 70
     1
102
RTVSPost2010Prop31
280
     0
102
RTVSPost2010PropOp31
 70
     1
102
RTVSPost2010Prop32
280
     0
102
RTVSPost2010PropOp32
 70
     1
102
RTVSPost2010Prop33
280
     0
102
RTVSPost2010PropOp33
 70
     1
102
RTVSPost2010Prop34
280
     0
102
RTVSPost2010PropOp34
 70
     1
102
RTVSPost2010Prop35
280
     0
102
RTVSPost2010PropOp35
 70
     1
102
RTVSPost2010Prop36
280
     0
102
RTVSPost2010PropOp36
 70
     1
102
RTVSPost2010Prop37
 90
       50
102
RTVSPost2010PropOp37
 70
     1
102
RTVSPost2010Prop38
140
0.0
102
RTVSPost2010PropOp38
 70
     1
102
RTVSPost2010Prop39
140
1.0
102
RTVSPost2010PropOp39
 70
     1
102
RTVSPost2010Prop40
 90
        0
102
RTVSPost2010PropOp40
 70
     1
102
RTVSPost2010Prop41ColorIndex
 90
       18
102
RTVSPost2010Prop41ColorRGB
 90
        0
102
RTVSPost2010PropOp41
 70
     1
102
RTVSPost2010Prop42
 90
       50
102
RTVSPost2010PropOp42
 70
     1
102
RTVSPost2010Prop43
 90
        3
102
RTVSPost2010PropOp43
 70
     1
102
RTVSPost2010Prop44ColorIndex
 90
        5
102
RTVSPost2010Prop44ColorRGB
 90
      255
102
RTVSPost2010PropOp44
 70
     1
102
RTVSPost2010Prop45
280
     0
102
RTVSPost2010PropOp45
 70
     1
102
RTVSPost2010Prop46
 90
       50
102
RTVSPost2010PropOp46
 70
     1
102
RTVSPost2010Prop47
 90
       50
102
RTVSPost2010PropOp47
 70
     1
102
RTVSPost2010Prop48
 90
       50
102
RTVSPost2010PropOp48
 70
     1
102
RTVSPost2010Prop49
280
     0
102
RTVSPost2010PropOp49
 70
     1
102
RTVSPost2010Prop50
 90
       50
102
RTVSPost2010PropOp50
 70
     1
102
RTVSPost2010Prop51ColorIndex
 90
      256
102
RTVSPost2010Prop51ColorRGB
 90
-16777216
102
RTVSPost2010PropOp51
 70
     0
102
RTVSPost2010Prop52
140
1.0
102
RTVSPost2010PropOp52
 70
     0
102
RTVSPost2010Prop53
 90
        2
102
RTVSPost2010PropOp53
 70
     1
102
RTVSPost2010Prop54
  1
strokes_ogs.tif
102
RTVSPost2010PropOp54
 70
     1
102
RTVSPost2010Prop55
280
     0
102
RTVSPost2010PropOp55
 70
     1
102
RTVSPost2010Prop56
140
1.0
102
RTVSPost2010PropOp56
 70
     1
102
RTVSPost2010Prop57
140
1.0
102
RTVSPost2010PropOp57
 70
     1
102
RTVSPropertyOp0
 70
     1
102
RTVSPropertyOp1
 70
     1
102
RTVSPropertyOp2
 70
     1
102
RTVSPropertyOp3
 70
     1
102
RTVSPropertyOp4
 70
     1
102
RTVSPropertyOp5
 70
     1
102
RTVSPropertyOp6
 70
     1
102
RTVSPropertyOp7
 70
     1
102
RTVSPropertyOp8
 70
     1
102
RTVSPropertyOp9
 70
     1
102
RTVSPropertyOp10
 70
     1
102
RTVSPropertyOp11
 70
     1
102
RTVSPropertyOp12
 70
     1
102
RTVSPropertyOp13
 70
     1
102
RTVSPropertyOp14
 70
     1
102
RTVSPropertyOp15
 70
     1
102
RTVSPropertyOp16
 70
     1
102
RTVSPropertyOp17
 70
     1
102
RTVSPropertyOp18
 70
     1
102
RTVSPropertyOp19
 70
     1
102
RTVSPropertyOp20
 70
     1
102
RTVSPropertyOp21
 70
     1
102
RTVSPropertyOp22
 70
     1
102
RTVSPropertyOp23
 70
     1
102
RTVSPropertyOp24
 70
     1
102
RTVSPropertyOp25
 70
     1
102
RTVSPropertyOp26
 70
     1
102
RTVSPropertyOp27
 70
     1
102
RTVSPropertyOp28
 70
     1
102
RTVSPropertyOp29
 70
     1
102
RTVSPropertyOp30
 70
     1
102
RTVSPropertyOp31
 70
     1
102
RTVSPropertyOp32
 70
     1
102
RTVSPropertyOp33
 70
     1
102
RTVSPropertyOp34
 70
     1
102
RTVSPropertyOp35
 70
     1
102
RTVSPropertyOp36
 70
     1
102
RTVSPropertyOp37
 70
     1
102
RTVSPropertyOp38
 70
     1
102
RTVSPropertyOp39
 70
     1
102
RTVSPropertyOp40
 70
     1
102
RTVSPropertyOp41
 70
     1
102
RTVSPropertyOp42
 70
     1
102
RTVSPropertyOp43
 70
     1
102
RTVSPropertyOp44
 70
     1
102
RTVSPropertyOp45
 70
     1
102
RTVSPropertyOp46
 70
     1
102
RTVSPropertyOp47
 70
     1
102
RTVSPropertyOp48
 70
     1
102
RTVSPropertyOp49
 70
     1
102
RTVSPropertyOp50
 70
     1
102
RTVSPropertyOp51
 70
     0
102
RTVSPropertyOp52
 70
     0
102
RTVSPropertyOp53
 70
     1
102
RTVSPropertyOp54
 70
     1
102
RTVSPropertyOp55
 70
     1
102
RTVSPropertyOp56
 70
     1
102
RTVSPropertyOp57
 70
     1
102
RTVSPropertyOp58
 70
     1
102
RTVSPropertyOp59
 70
     1
102
RTVSPropertyOp60
 70
     1
102
RTVSPropertyOp61
 70
     1
102
RTVSPropertyOp62
 70
     1
  0
ENDSEC
  0
EOF
