  0
SECTION
  2
HEADER
  9
$ACADVER
  1
AC1015
  9
$ACADMAINTVER
 70
    20
  9
$DWGCODEPAGE
  3
ANSI_932
  9
$INSBASE
 10
0.0
 20
0.0
 30
0.0
  9
$EXTMIN
 10
10.0
 20
9.999999999999998
 30
0.0
  9
$EXTMAX
 10
481.384338
 20
330.4774479999999
 30
0.0
  9
$LIMMIN
 10
0.0
 20
0.0
  9
$LIMMAX
 10
495.0
 20
341.25
  9
$ORTHOMODE
 70
     0
  9
$REGENMODE
 70
     1
  9
$FILLMODE
 70
     1
  9
$QTEXTMODE
 70
     0
  9
$MIRRTEXT
 70
     1
  9
$LTSCALE
 40
20.0
  9
$ATTMODE
 70
     1
  9
$TEXTSIZE
 40
5.0
  9
$TRACEWID
 40
1.0
  9
$TEXTSTYLE
  7
STANDARD
  9
$CLAYER
  8
0
  9
$CELTYPE
  6
BYLAYER
  9
$CECOLOR
 62
   256
  9
$CELTSCALE
 40
1.0
  9
$DISPSILH
 70
     0
  9
$DIMSCALE
 40
1.0
  9
$DIMASZ
 40
3.0
  9
$DIMEXO
 40
1.0
  9
$DIMDLI
 40
10.0
  9
$DIMRND
 40
0.0
  9
$DIMDLE
 40
0.0
  9
$DIMEXE
 40
1.0
  9
$DIMTP
 40
0.0
  9
$DIMTM
 40
0.0
  9
$DIMTXT
 40
3.2
  9
$DIMCEN
 40
0.0
  9
$DIMTSZ
 40
0.0
  9
$DIMTOL
 70
     0
  9
$DIMLIM
 70
     0
  9
$DIMTIH
 70
     0
  9
$DIMTOH
 70
     0
  9
$DIMSE1
 70
     0
  9
$DIMSE2
 70
     0
  9
$DIMTAD
 70
     3
  9
$DIMZIN
 70
     8
  9
$DIMBLK
  1

  9
$DIMASO
 70
     1
  9
$DIMSHO
 70
     1
  9
$DIMPOST
  1

  9
$DIMAPOST
  1

  9
$DIMALT
 70
     0
  9
$DIMALTD
 70
     2
  9
$DIMALTF
 40
25.4
  9
$DIMLFAC
 40
1.0
  9
$DIMTOFL
 70
     1
  9
$DIMTVP
 40
0.0
  9
$DIMTIX
 70
     0
  9
$DIMSOXD
 70
     0
  9
$DIMSAH
 70
     1
  9
$DIMBLK1
  1
OPEN
  9
$DIMBLK2
  1
OPEN
  9
$DIMSTYLE
  2
STANDARD
  9
$DIMCLRD
 70
     0
  9
$DIMCLRE
 70
     0
  9
$DIMCLRT
 70
     0
  9
$DIMTFAC
 40
1.0
  9
$DIMGAP
 40
1.0
  9
$DIMJUST
 70
     0
  9
$DIMSD1
 70
     0
  9
$DIMSD2
 70
     0
  9
$DIMTOLJ
 70
     1
  9
$DIMTZIN
 70
     0
  9
$DIMALTZ
 70
     0
  9
$DIMALTTZ
 70
     0
  9
$DIMUPT
 70
     0
  9
$DIMDEC
 70
     4
  9
$DIMTDEC
 70
     4
  9
$DIMALTU
 70
     2
  9
$DIMALTTD
 70
     2
  9
$DIMTXSTY
  7
STANDARD
  9
$DIMAUNIT
 70
     0
  9
$DIMADEC
 70
     0
  9
$DIMALTRND
 40
0.0
  9
$DIMAZIN
 70
     0
  9
$DIMDSEP
 70
    46
  9
$DIMATFIT
 70
     3
  9
$DIMFRAC
 70
     0
  9
$DIMLDRBLK
  1
OPEN
  9
$DIMLUNIT
 70
     2
  9
$DIMLWD
 70
    -2
  9
$DIMLWE
 70
    -2
  9
$DIMTMOVE
 70
     0
  9
$LUNITS
 70
     2
  9
$LUPREC
 70
     4
  9
$SKETCHINC
 40
1.0
  9
$FILLETRAD
 40
7.7
  9
$AUNITS
 70
     0
  9
$AUPREC
 70
     2
  9
$MENU
  1
.
  9
$ELEVATION
 40
0.0
  9
$PELEVATION
 40
0.0
  9
$THICKNESS
 40
0.0
  9
$LIMCHECK
 70
     0
  9
$CHAMFERA
 40
10.0
  9
$CHAMFERB
 40
10.0
  9
$CHAMFERC
 40
0.0
  9
$CHAMFERD
 40
0.0
  9
$SKPOLY
 70
     0
  9
$TDCREATE
 40
2451301.694946065
  9
$TDUCREATE
 40
2451301.319946065
  9
$TDUPDATE
 40
2457192.686833657
  9
$TDUUPDATE
 40
2457192.311833658
  9
$TDINDWG
 40
0.0000101736
  9
$TDUSRTIMER
 40
0.0000098727
  9
$USRTIMER
 70
     1
  9
$ANGBASE
 50
0.0
  9
$ANGDIR
 70
     0
  9
$PDMODE
 70
     0
  9
$PDSIZE
 40
0.0
  9
$PLINEWID
 40
0.0
  9
$SPLFRAME
 70
     0
  9
$SPLINETYPE
 70
     6
  9
$SPLINESEGS
 70
     8
  9
$HANDSEED
  5
9C58
  9
$SURFTAB1
 70
     6
  9
$SURFTAB2
 70
     6
  9
$SURFTYPE
 70
     6
  9
$SURFU
 70
     6
  9
$SURFV
 70
     6
  9
$UCSBASE
  2

  9
$UCSNAME
  2

  9
$UCSORG
 10
0.0
 20
0.0
 30
0.0
  9
$UCSXDIR
 10
1.0
 20
0.0
 30
0.0
  9
$UCSYDIR
 10
0.0
 20
1.0
 30
0.0
  9
$UCSORTHOREF
  2

  9
$UCSORTHOVIEW
 70
     0
  9
$UCSORGTOP
 10
0.0
 20
0.0
 30
0.0
  9
$UCSORGBOTTOM
 10
0.0
 20
0.0
 30
0.0
  9
$UCSORGLEFT
 10
0.0
 20
0.0
 30
0.0
  9
$UCSORGRIGHT
 10
0.0
 20
0.0
 30
0.0
  9
$UCSORGFRONT
 10
0.0
 20
0.0
 30
0.0
  9
$UCSORGBACK
 10
0.0
 20
0.0
 30
0.0
  9
$PUCSBASE
  2

  9
$PUCSNAME
  2

  9
$PUCSORG
 10
0.0
 20
0.0
 30
0.0
  9
$PUCSXDIR
 10
1.0
 20
0.0
 30
0.0
  9
$PUCSYDIR
 10
0.0
 20
1.0
 30
0.0
  9
$PUCSORTHOREF
  2

  9
$PUCSORTHOVIEW
 70
     0
  9
$PUCSORGTOP
 10
0.0
 20
0.0
 30
0.0
  9
$PUCSORGBOTTOM
 10
0.0
 20
0.0
 30
0.0
  9
$PUCSORGLEFT
 10
0.0
 20
0.0
 30
0.0
  9
$PUCSORGRIGHT
 10
0.0
 20
0.0
 30
0.0
  9
$PUCSORGFRONT
 10
0.0
 20
0.0
 30
0.0
  9
$PUCSORGBACK
 10
0.0
 20
0.0
 30
0.0
  9
$USERI1
 70
     0
  9
$USERI2
 70
     0
  9
$USERI3
 70
     0
  9
$USERI4
 70
     0
  9
$USERI5
 70
     0
  9
$USERR1
 40
0.0
  9
$USERR2
 40
0.0
  9
$USERR3
 40
0.0
  9
$USERR4
 40
0.0
  9
$USERR5
 40
0.0
  9
$WORLDVIEW
 70
     1
  9
$SHADEDGE
 70
     3
  9
$SHADEDIF
 70
    70
  9
$TILEMODE
 70
     1
  9
$MAXACTVP
 70
    16
  9
$PINSBASE
 10
0.0
 20
0.0
 30
0.0
  9
$PLIMCHECK
 70
     0
  9
$PEXTMIN
 10
1.000000000000000E+20
 20
1.000000000000000E+20
 30
1.000000000000000E+20
  9
$PEXTMAX
 10
-1.000000000000000E+20
 20
-1.000000000000000E+20
 30
-1.000000000000000E+20
  9
$PLIMMIN
 10
0.0
 20
0.0
  9
$PLIMMAX
 10
420.0
 20
297.0
  9
$UNITMODE
 70
     0
  9
$VISRETAIN
 70
     0
  9
$PLINEGEN
 70
     0
  9
$PSLTSCALE
 70
     0
  9
$TREEDEPTH
 70
  3020
  9
$CMLSTYLE
  2
STANDARD
  9
$CMLJUST
 70
     0
  9
$CMLSCALE
 40
1.0
  9
$PROXYGRAPHICS
 70
     1
  9
$MEASUREMENT
 70
     0
  9
$CELWEIGHT
370
    -1
  9
$ENDCAPS
280
     0
  9
$JOINSTYLE
280
     0
  9
$LWDISPLAY
290
     0
  9
$INSUNITS
 70
     0
  9
$HYPERLINKBASE
  1

  9
$STYLESHEET
  1

  9
$XEDIT
290
     1
  9
$CEPSNTYPE
380
     0
  9
$PSTYLEMODE
290
     1
  9
$FINGERPRINTGUID
  2
{8F07F5FF-0AE4-4662-B5BB-0CF0A2D886DA}
  9
$VERSIONGUID
  2
{7D86D5F4-436D-4DBC-9BAE-4EF00C45351D}
  9
$EXTNAMES
290
     1
  9
$PSVPSCALE
 40
0.0
  9
$OLESTARTUP
290
     0
  0
ENDSEC
  0
SECTION
  2
CLASSES
  0
CLASS
  1
ACDBDICTIONARYWDFLT
  2
AcDbDictionaryWithDefault
  3
ObjectDBX Classes
 90
        0
280
     0
281
     0
  0
CLASS
  1
ACDBPLACEHOLDER
  2
AcDbPlaceHolder
  3
ObjectDBX Classes
 90
        0
280
     0
281
     0
  0
CLASS
  1
LAYOUT
  2
AcDbLayout
  3
ObjectDBX Classes
 90
        0
280
     0
281
     0
  0
CLASS
  1
DICTIONARYVAR
  2
AcDbDictionaryVar
  3
ObjectDBX Classes
 90
        0
280
     0
281
     0
  0
CLASS
  1
MATERIAL
  2
AcDbMaterial
  3
ObjectDBX Classes
 90
     1153
280
     0
281
     0
  0
CLASS
  1
VISUALSTYLE
  2
AcDbVisualStyle
  3
ObjectDBX Classes
 90
     4095
280
     0
281
     0
  0
CLASS
  1
TABLESTYLE
  2
AcDbTableStyle
  3
ObjectDBX Classes
 90
     4095
280
     0
281
     0
  0
CLASS
  1
SCALE
  2
AcDbScale
  3
ObjectDBX Classes
 90
     1153
280
     0
281
     0
  0
CLASS
  1
MLEADERSTYLE
  2
AcDbMLeaderStyle
  3
ACDB_MLEADERSTYLE_CLASS
 90
     4095
280
     0
281
     0
  0
CLASS
  1
ACDBSECTIONVIEWSTYLE
  2
AcDbSectionViewStyle
  3
ObjectDBX Classes
 90
     1025
280
     0
281
     0
  0
CLASS
  1
ACDBDETAILVIEWSTYLE
  2
AcDbDetailViewStyle
  3
ObjectDBX Classes
 90
     1025
280
     0
281
     0
  0
CLASS
  1
CELLSTYLEMAP
  2
AcDbCellStyleMap
  3
ObjectDBX Classes
 90
     1152
280
     0
281
     0
  0
ENDSEC
  0
SECTION
  2
TABLES
  0
TABLE
  2
VPORT
  5
9937
330
0
100
AcDbSymbolTable
 70
     1
  0
VPORT
  5
9BA1
330
9937
100
AcDbSymbolTableRecord
100
AcDbViewportTableRecord
  2
*ACTIVE
 70
     0
 10
0.0
 20
0.0
 11
1.0
 21
1.0
 12
342.7781867115279
 22
170.2344711615115
 13
0.0
 23
0.0
 14
10.0
 24
10.0
 15
10.0
 25
10.0
 16
0.0
 26
0.0
 36
1.0
 17
0.0
 27
0.0
 37
0.0
 40
324.0360291378984
 41
2.35006605019815
 42
50.0
 43
0.0
 44
0.0
 50
0.0
 51
0.0
 71
     0
 72
   100
 73
     1
 74
     0
 75
     0
 76
     0
 77
     0
 78
     0
281
     0
 65
     1
110
0.0
120
0.0
130
0.0
111
1.0
121
0.0
131
0.0
112
0.0
122
1.0
132
0.0
 79
     0
146
0.0
1001
ACAD_NAV_VCDISPLAY
1070
     3
  0
ENDTAB
  0
TABLE
  2
LTYPE
  5
9934
330
0
100
AcDbSymbolTable
 70
     4
  0
LTYPE
  5
9942
330
9934
100
AcDbSymbolTableRecord
100
AcDbLinetypeTableRecord
  2
BYBLOCK
 70
     0
  3

 72
    65
 73
     0
 40
0.0
  0
LTYPE
  5
9943
330
9934
100
AcDbSymbolTableRecord
100
AcDbLinetypeTableRecord
  2
BYLAYER
 70
     0
  3

 72
    65
 73
     0
 40
0.0
  0
LTYPE
  5
9944
330
9934
100
AcDbSymbolTableRecord
100
AcDbLinetypeTableRecord
  2
CONTINUOUS
 70
     0
  3
Solid line
 72
    65
 73
     0
 40
0.0
  0
LTYPE
  5
9952
330
9934
100
AcDbSymbolTableRecord
100
AcDbLinetypeTableRecord
  2
DASHED
 70
     0
  3
__ __ __ __ __ __ __ __ __ __ __ __ __ __ __ __
 72
    65
 73
     2
 40
0.75
 49
0.5
 74
     0
 49
-0.25
 74
     0
  0
LTYPE
  5
9953
330
9934
100
AcDbSymbolTableRecord
100
AcDbLinetypeTableRecord
  2
CENTER
 70
     0
  3
____ _ ____ _ ____ _ ____ _ ____ _ ____ _ ____ 
 72
    65
 73
     4
 40
2.0
 49
1.25
 74
     0
 49
-0.25
 74
     0
 49
0.25
 74
     0
 49
-0.25
 74
     0
  0
LTYPE
  5
9954
330
9934
100
AcDbSymbolTableRecord
100
AcDbLinetypeTableRecord
  2
PHANTOM
 70
     0
  3
______  __  __  ______  __  __  ______  __  __ 
 72
    65
 73
     6
 40
2.5
 49
1.25
 74
     0
 49
-0.25
 74
     0
 49
0.25
 74
     0
 49
-0.25
 74
     0
 49
0.25
 74
     0
 49
-0.25
 74
     0
  0
ENDTAB
  0
TABLE
  2
LAYER
  5
9931
330
0
100
AcDbSymbolTable
 70
     8
  0
LAYER
  5
993F
102
{ACAD_XDICTIONARY
360
9BFC
102
}
330
9931
100
AcDbSymbolTableRecord
100
AcDbLayerTableRecord
  2
0
 70
     0
 62
     7
  6
CONTINUOUS
370
    -3
390
9BAA
  0
LAYER
  5
9955
102
{ACAD_XDICTIONARY
360
9BFE
102
}
330
9931
100
AcDbSymbolTableRecord
100
AcDbLayerTableRecord
  2
4
 70
     0
 62
     1
  6
CENTER
370
    -3
390
9BAA
  0
LAYER
  5
9956
102
{ACAD_XDICTIONARY
360
9C00
102
}
330
9931
100
AcDbSymbolTableRecord
100
AcDbLayerTableRecord
  2
5
 70
     0
 62
     6
  6
PHANTOM
370
    -3
390
9BAA
  0
LAYER
  5
9957
102
{ACAD_XDICTIONARY
360
9C02
102
}
330
9931
100
AcDbSymbolTableRecord
100
AcDbLayerTableRecord
  2
1
 70
     0
 62
     7
  6
CONTINUOUS
370
    -3
390
9BAA
  0
LAYER
  5
9958
102
{ACAD_XDICTIONARY
360
9C04
102
}
330
9931
100
AcDbSymbolTableRecord
100
AcDbLayerTableRecord
  2
2
 70
     0
 62
     4
  6
CONTINUOUS
370
    -3
390
9BAA
  0
LAYER
  5
9959
102
{ACAD_XDICTIONARY
360
9C06
102
}
330
9931
100
AcDbSymbolTableRecord
100
AcDbLayerTableRecord
  2
3
 70
     0
 62
     2
  6
DASHED
370
    -3
390
9BAA
  0
LAYER
  5
995A
102
{ACAD_XDICTIONARY
360
9C08
102
}
330
9931
100
AcDbSymbolTableRecord
100
AcDbLayerTableRecord
  2
6
 70
     0
 62
     5
  6
CONTINUOUS
370
    -3
390
9BAA
  0
LAYER
  5
995B
102
{ACAD_XDICTIONARY
360
9C0A
102
}
330
9931
100
AcDbSymbolTableRecord
100
AcDbLayerTableRecord
  2
7
 70
     0
 62
     3
  6
CONTINUOUS
370
    -3
390
9BAA
  0
ENDTAB
  0
TABLE
  2
STYLE
  5
9932
330
0
100
AcDbSymbolTable
 70
     1
  0
STYLE
  5
9940
330
9932
100
AcDbSymbolTableRecord
100
AcDbTextStyleTableRecord
  2
STANDARD
 70
     0
 40
0.0
 41
1.0
 50
0.0
 71
     0
 42
5.0
  3
txt
  4

  0
ENDTAB
  0
TABLE
  2
VIEW
  5
9935
330
0
100
AcDbSymbolTable
 70
     0
  0
ENDTAB
  0
TABLE
  2
UCS
  5
9936
330
0
100
AcDbSymbolTable
 70
     0
  0
ENDTAB
  0
TABLE
  2
APPID
  5
9938
330
0
100
AcDbSymbolTable
 70
     3
  0
APPID
  5
9941
330
9938
100
AcDbSymbolTableRecord
100
AcDbRegAppTableRecord
  2
ACAD
 70
     0
  0
APPID
  5
9C16
330
9938
100
AcDbSymbolTableRecord
100
AcDbRegAppTableRecord
  2
ACAD_NAV_VCDISPLAY
 70
     0
  0
APPID
  5
9C4F
330
9938
100
AcDbSymbolTableRecord
100
AcDbRegAppTableRecord
  2
ACAD_MLEADERVER
 70
     0
  0
ENDTAB
  0
TABLE
  2
DIMSTYLE
  5
9939
330
0
100
AcDbSymbolTable
 70
     1
100
AcDbDimStyleTable
 71
     0
  0
DIMSTYLE
105
995D
330
9939
100
AcDbSymbolTableRecord
100
AcDbDimStyleTableRecord
  2
STANDARD
 70
     0
 41
3.0
 42
1.0
 43
10.0
 44
1.0
 73
     0
 74
     0
 77
     3
 78
     8
140
3.2
141
0.0
147
1.0
172
     1
173
     1
284
     8
285
     8
286
     8
340
9940
  0
ENDTAB
  0
TABLE
  2
BLOCK_RECORD
  5
9930
330
0
100
AcDbSymbolTable
 70
     1
  0
BLOCK_RECORD
  5
994D
102
{ACAD_XDICTIONARY
360
9BA4
102
}
330
9930
100
AcDbSymbolTableRecord
100
AcDbBlockTableRecord
  2
*MODEL_SPACE
340
9BF8
  0
BLOCK_RECORD
  5
9949
102
{ACAD_XDICTIONARY
360
9BA2
102
}
330
9930
100
AcDbSymbolTableRecord
100
AcDbBlockTableRecord
  2
*PAPER_SPACE
340
9BF9
  0
BLOCK_RECORD
  5
9965
330
9930
100
AcDbSymbolTableRecord
100
AcDbBlockTableRecord
  2
_OPEN
340
0
  0
ENDTAB
  0
ENDSEC
  0
SECTION
  2
BLOCKS
  0
BLOCK
  5
994E
330
994D
100
AcDbEntity
  8
0
100
AcDbBlockBegin
  2
*MODEL_SPACE
 70
     0
 10
0.0
 20
0.0
 30
0.0
  3
*MODEL_SPACE
  1

  0
ENDBLK
  5
994F
330
994D
100
AcDbEntity
  8
0
100
AcDbBlockEnd
  0
BLOCK
  5
994A
330
9949
100
AcDbEntity
 67
     1
  8
0
100
AcDbBlockBegin
  2
*PAPER_SPACE
 70
     0
 10
0.0
 20
0.0
 30
0.0
  3
*PAPER_SPACE
  1

  0
ENDBLK
  5
994B
330
9949
100
AcDbEntity
 67
     1
  8
0
100
AcDbBlockEnd
  0
BLOCK
  5
9966
330
9965
100
AcDbEntity
  8
0
100
AcDbBlockBegin
  2
_OPEN
 70
     0
 10
0.0
 20
0.0
 30
0.0
  3
_OPEN
  1

  0
LINE
  5
9967
330
9965
100
AcDbEntity
  8
0
  6
ByBlock
 62
     0
100
AcDbLine
 10
-1.0
 20
0.166667
 30
0.0
 11
0.0
 21
0.0
 31
0.0
  0
LINE
  5
9968
330
9965
100
AcDbEntity
  8
0
  6
ByBlock
 62
     0
100
AcDbLine
 10
0.0
 20
0.0
 30
0.0
 11
-1.0
 21
-0.166667
 31
0.0
  0
LINE
  5
9969
330
9965
100
AcDbEntity
  8
0
  6
ByBlock
 62
     0
100
AcDbLine
 10
0.0
 20
0.0
 30
0.0
 11
-1.0
 21
0.0
 31
0.0
  0
ENDBLK
  5
996A
330
9965
100
AcDbEntity
  8
0
100
AcDbBlockEnd
  0
ENDSEC
  0
SECTION
  2
ENTITIES
  0
TEXT
  5
996B
330
994D
100
AcDbEntity
  8
7
  6
Continuous
100
AcDbText
 10
10.0
 20
18.0
 30
0.0
 40
3.0
  1
TYPE No.105FH-P
100
AcDbText
  0
TEXT
  5
996C
330
994D
100
AcDbEntity
  8
7
  6
Continuous
100
AcDbText
 10
10.0
 20
26.0
 30
0.0
 40
3.0
  1
CODE No.9086
100
AcDbText
  0
TEXT
  5
996D
330
994D
100
AcDbEntity
  8
1
  6
Continuous
100
AcDbText
 10
10.0
 20
10.0
 30
0.0
 40
1.399999999999999
  1
LAYER
100
AcDbText
  0
TEXT
  5
996E
330
994D
100
AcDbEntity
  8
1
  6
Continuous
100
AcDbText
 10
17.97951099999998
 20
10.04873699999998
 30
0.0
 40
1.399999999999999
  1
1
100
AcDbText
  0
TEXT
  5
996F
330
994D
100
AcDbEntity
  8
7
  6
Continuous
100
AcDbText
 10
29.97951099999999
 20
10.04873699999998
 30
0.0
 40
1.399999999999999
  1
7
100
AcDbText
  0
TEXT
  5
9970
330
994D
100
AcDbEntity
  8
4
  6
CENTER
100
AcDbText
 10
23.97951099999999
 20
10.04873699999998
 30
0.0
 40
1.399999999999999
  1
4
100
AcDbText
  0
TEXT
  5
9971
330
994D
100
AcDbEntity
  8
3
  6
DASHED
100
AcDbText
 10
21.979511
 20
10.04873699999998
 30
0.0
 40
1.399999999999999
  1
3
100
AcDbText
  0
TEXT
  5
9972
330
994D
100
AcDbEntity
  8
2
  6
Continuous
100
AcDbText
 10
19.97951099999999
 20
10.04873699999998
 30
0.0
 40
1.399999999999999
  1
2
100
AcDbText
  0
TEXT
  5
9973
330
994D
100
AcDbEntity
  8
6
  6
Continuous
100
AcDbText
 10
27.979511
 20
10.04873699999998
 30
0.0
 40
1.399999999999999
  1
6
100
AcDbText
  0
TEXT
  5
9974
330
994D
100
AcDbEntity
  8
5
  6
PHANTOM
100
AcDbText
 10
25.97951099999999
 20
10.04873699999998
 30
0.0
 40
1.399999999999999
  1
5
100
AcDbText
  0
LINE
  5
9975
330
994D
100
AcDbEntity
  8
4
  6
CENTER
100
AcDbLine
 10
163.8843379999999
 20
140.849283
 30
0.0
 11
163.8843379999999
 21
211.849283
 31
0.0
  0
ARC
  5
9976
330
994D
100
AcDbEntity
  8
1
  6
Continuous
100
AcDbCircle
 10
163.8843379999999
 20
176.349283
 30
0.0
 40
32.5
100
AcDbArc
 50
84.98673499999998
 51
12.37004
  0
LINE
  5
9977
330
994D
100
AcDbEntity
  8
4
  6
CENTER
100
AcDbLine
 10
199.3843379999999
 20
176.349283
 30
0.0
 11
128.3843379999999
 21
176.349283
 31
0.0
  0
LINE
  5
9978
330
994D
100
AcDbEntity
  8
1
  6
Continuous
100
AcDbLine
 10
188.5411919999999
 20
219.849283
 30
0.0
 11
190.5411919999998
 21
221.849283
 31
0.0
  0
LINE
  5
9979
330
994D
100
AcDbEntity
  8
1
  6
Continuous
100
AcDbLine
 10
191.1269779999998
 20
219.849283
 30
0.0
 11
189.126978
 21
221.849283
 31
0.0
  0
ARC
  5
997A
330
994D
100
AcDbEntity
  8
1
  6
Continuous
100
AcDbCircle
 10
156.793003
 20
214.802863
 30
0.0
 40
50.0
100
AcDbArc
 50
281.598944
 51
350.2180129999999
  0
LINE
  5
997B
330
994D
100
AcDbEntity
  8
1
  6
Continuous
100
AcDbLine
 10
207.384338
 20
223.849283
 30
0.0
 11
162.3843379999998
 21
223.849283
 31
0.0
  0
LINE
  5
997C
330
994D
100
AcDbEntity
  8
1
  6
Continuous
100
AcDbLine
 10
207.384338
 20
221.849283
 30
0.0
 11
162.3843379999998
 21
221.849283
 31
0.0
  0
LINE
  5
997D
330
994D
100
AcDbEntity
  8
1
  6
Continuous
100
AcDbLine
 10
207.384338
 20
219.849283
 30
0.0
 11
162.3843379999998
 21
219.849283
 31
0.0
  0
LINE
  5
997E
330
994D
100
AcDbEntity
  8
1
  6
Continuous
100
AcDbLine
 10
216.8843379999999
 20
226.5492829999999
 30
0.0
 11
152.8843379999998
 21
226.5492829999999
 31
0.0
  0
LINE
  5
997F
330
994D
100
AcDbEntity
  8
1
  6
Continuous
100
AcDbLine
 10
216.8843379999999
 20
228.849283
 30
0.0
 11
152.8843379999998
 21
228.849283
 31
0.0
  0
ARC
  5
9980
330
994D
100
AcDbEntity
  8
1
  6
Continuous
100
AcDbCircle
 10
218.3843379999999
 20
204.184132
 30
0.0
 40
12.5
100
AcDbArc
 50
132.8436429999999
 51
170.2180129999999
  0
LINE
  5
9981
330
994D
100
AcDbEntity
  8
1
  6
Continuous
100
AcDbLine
 10
209.8843379999999
 20
216.849283
 30
0.0
 11
209.8843379999999
 21
213.349283
 31
0.0
  0
LINE
  5
9982
330
994D
100
AcDbEntity
  8
1
  6
Continuous
100
AcDbLine
 10
207.384338
 20
221.7218659999999
 30
0.0
 11
205.5117549999999
 21
219.849283
 31
0.0
  0
LINE
  5
9983
330
994D
100
AcDbEntity
  8
1
  6
Continuous
100
AcDbLine
 10
207.384338
 20
220.562487
 30
0.0
 11
206.0975409999998
 21
221.849283
 31
0.0
  0
LINE
  5
9984
330
994D
100
AcDbEntity
  8
1
  6
Continuous
100
AcDbLine
 10
206.6833279999999
 20
219.849283
 30
0.0
 11
204.6833279999999
 21
221.849283
 31
0.0
  0
LINE
  5
9985
330
994D
100
AcDbEntity
  8
4
  6
CENTER
100
AcDbLine
 10
209.8843379999999
 20
231.849283
 30
0.0
 11
209.8843379999999
 21
223.549283
 31
0.0
  0
ARC
  5
9986
330
994D
100
AcDbEntity
  8
1
  6
Continuous
100
AcDbCircle
 10
207.384338
 20
228.9492829999999
 30
0.0
 40
5.099999999999997
100
AcDbArc
 50
270.0
 51
331.9275129999998
  0
ARC
  5
9987
330
994D
100
AcDbEntity
  8
1
  6
Continuous
100
AcDbCircle
 10
206.8843379999999
 20
216.849283
 30
0.0
 40
3.0
100
AcDbArc
 50
0.0
 51
90.0
  0
LINE
  5
9988
330
994D
100
AcDbEntity
  8
1
  6
Continuous
100
AcDbLine
 10
207.384338
 20
220.307653
 30
0.0
 11
206.925968
 21
219.849283
 31
0.0
  0
LINE
  5
9989
330
994D
100
AcDbEntity
  8
1
  6
Continuous
100
AcDbLine
 10
207.384338
 20
223.849283
 30
0.0
 11
207.384338
 21
219.849283
 31
0.0
  0
LINE
  5
998A
330
994D
100
AcDbEntity
  8
1
  6
Continuous
100
AcDbLine
 10
216.8843379999999
 20
226.5492829999999
 30
0.0
 11
216.8843379999999
 21
228.849283
 31
0.0
  0
LINE
  5
998B
330
994D
100
AcDbEntity
  8
1
  6
Continuous
100
AcDbLine
 10
197.026473
 20
219.849283
 30
0.0
 11
199.0264729999999
 21
221.849283
 31
0.0
  0
LINE
  5
998C
330
994D
100
AcDbEntity
  8
1
  6
Continuous
100
AcDbLine
 10
199.6122599999999
 20
219.849283
 30
0.0
 11
197.61226
 21
221.849283
 31
0.0
  0
LINE
  5
998D
330
994D
100
AcDbEntity
  8
1
  6
Continuous
100
AcDbLine
 10
198.198046
 20
219.849283
 30
0.0
 11
196.198046
 21
221.849283
 31
0.0
  0
LINE
  5
998E
330
994D
100
AcDbEntity
  8
1
  6
Continuous
100
AcDbLine
 10
201.269114
 20
219.849283
 30
0.0
 11
203.2691139999998
 21
221.849283
 31
0.0
  0
LINE
  5
998F
330
994D
100
AcDbEntity
  8
1
  6
Continuous
100
AcDbLine
 10
203.854901
 20
219.849283
 30
0.0
 11
201.854901
 21
221.849283
 31
0.0
  0
LINE
  5
9990
330
994D
100
AcDbEntity
  8
1
  6
Continuous
100
AcDbLine
 10
202.440687
 20
219.849283
 30
0.0
 11
200.440687
 21
221.849283
 31
0.0
  0
LINE
  5
9991
330
994D
100
AcDbEntity
  8
1
  6
Continuous
100
AcDbLine
 10
204.0975409999998
 20
219.849283
 30
0.0
 11
206.0975409999998
 21
221.849283
 31
0.0
  0
LINE
  5
9992
330
994D
100
AcDbEntity
  8
1
  6
Continuous
100
AcDbLine
 10
202.6833279999999
 20
219.849283
 30
0.0
 11
204.6833279999999
 21
221.849283
 31
0.0
  0
LINE
  5
9993
330
994D
100
AcDbEntity
  8
1
  6
Continuous
100
AcDbLine
 10
205.2691139999998
 20
219.849283
 30
0.0
 11
203.2691139999998
 21
221.849283
 31
0.0
  0
LINE
  5
9994
330
994D
100
AcDbEntity
  8
1
  6
Continuous
100
AcDbLine
 10
199.8549009999999
 20
219.849283
 30
0.0
 11
201.854901
 21
221.849283
 31
0.0
  0
LINE
  5
9995
330
994D
100
AcDbEntity
  8
1
  6
Continuous
100
AcDbLine
 10
198.440687
 20
219.849283
 30
0.0
 11
200.440687
 21
221.849283
 31
0.0
  0
LINE
  5
9996
330
994D
100
AcDbEntity
  8
1
  6
Continuous
100
AcDbLine
 10
201.026473
 20
219.849283
 30
0.0
 11
199.0264729999999
 21
221.849283
 31
0.0
  0
LINE
  5
9997
330
994D
100
AcDbEntity
  8
1
  6
Continuous
100
AcDbLine
 10
192.7838329999999
 20
219.849283
 30
0.0
 11
194.7838329999999
 21
221.849283
 31
0.0
  0
LINE
  5
9998
330
994D
100
AcDbEntity
  8
1
  6
Continuous
100
AcDbLine
 10
195.369619
 20
219.849283
 30
0.0
 11
193.369619
 21
221.849283
 31
0.0
  0
LINE
  5
9999
330
994D
100
AcDbEntity
  8
1
  6
Continuous
100
AcDbLine
 10
193.955406
 20
219.849283
 30
0.0
 11
191.955406
 21
221.849283
 31
0.0
  0
LINE
  5
999A
330
994D
100
AcDbEntity
  8
1
  6
Continuous
100
AcDbLine
 10
195.61226
 20
219.849283
 30
0.0
 11
197.61226
 21
221.849283
 31
0.0
  0
LINE
  5
999B
330
994D
100
AcDbEntity
  8
1
  6
Continuous
100
AcDbLine
 10
194.198046
 20
219.849283
 30
0.0
 11
196.198046
 21
221.849283
 31
0.0
  0
LINE
  5
999C
330
994D
100
AcDbEntity
  8
1
  6
Continuous
100
AcDbLine
 10
196.783833
 20
219.849283
 30
0.0
 11
194.7838329999999
 21
221.849283
 31
0.0
  0
LINE
  5
999D
330
994D
100
AcDbEntity
  8
1
  6
Continuous
100
AcDbLine
 10
191.3696189999998
 20
219.849283
 30
0.0
 11
193.369619
 21
221.849283
 31
0.0
  0
LINE
  5
999E
330
994D
100
AcDbEntity
  8
1
  6
Continuous
100
AcDbLine
 10
189.9554059999999
 20
219.849283
 30
0.0
 11
191.955406
 21
221.849283
 31
0.0
  0
LINE
  5
999F
330
994D
100
AcDbEntity
  8
1
  6
Continuous
100
AcDbLine
 10
192.5411919999999
 20
219.849283
 30
0.0
 11
190.5411919999998
 21
221.849283
 31
0.0
  0
LINE
  5
99A0
330
994D
100
AcDbEntity
  8
4
  6
CENTER
100
AcDbLine
 10
184.8843379999999
 20
231.849283
 30
0.0
 11
184.8843379999999
 21
169.859822
 31
0.0
  0
LINE
  5
99A1
330
994D
100
AcDbEntity
  8
1
  6
Continuous
100
AcDbLine
 10
168.3843379999999
 20
214.849283
 30
0.0
 11
175.1843379999999
 21
168.3081449999999
 31
0.0
  0
ARC
  5
99A2
330
994D
100
AcDbEntity
  8
1
  6
Continuous
100
AcDbCircle
 10
117.0980499999999
 20
214.8262549999998
 30
0.0
 40
50.0
100
AcDbArc
 50
321.195012
 51
354.53402
  0
ARC
  5
99A3
330
994D
100
AcDbEntity
  8
1
  6
Continuous
100
AcDbCircle
 10
164.6343379999999
 20
176.599283
 30
0.0
 40
11.0
100
AcDbArc
 50
141.195012
 51
281.598944
  0
ARC
  5
99A4
330
994D
100
AcDbEntity
  8
1
  6
Continuous
100
AcDbCircle
 10
163.8843379999999
 20
210.3492829999999
 30
0.0
 40
3.0
100
AcDbArc
 50
354.53402
 51
90.0
  0
LINE
  5
99A5
330
994D
100
AcDbEntity
  8
1
  6
Continuous
100
AcDbLine
 10
159.8843379999999
 20
216.849283
 30
0.0
 11
159.8843379999999
 21
213.349283
 31
0.0
  0
LINE
  5
99A6
330
994D
100
AcDbEntity
  8
1
  6
Continuous
100
AcDbLine
 10
163.8843379999999
 20
213.349283
 30
0.0
 11
159.8843379999999
 21
213.349283
 31
0.0
  0
LINE
  5
99A7
330
994D
100
AcDbEntity
  8
1
  6
Continuous
100
AcDbLine
 10
171.5706289999999
 20
219.849283
 30
0.0
 11
173.5706289999999
 21
221.849283
 31
0.0
  0
LINE
  5
99A8
330
994D
100
AcDbEntity
  8
1
  6
Continuous
100
AcDbLine
 10
172.9848429999999
 20
219.849283
 30
0.0
 11
174.9848429999999
 21
221.849283
 31
0.0
  0
LINE
  5
99A9
330
994D
100
AcDbEntity
  8
1
  6
Continuous
100
AcDbLine
 10
174.1564159999998
 20
219.849283
 30
0.0
 11
172.1564159999998
 21
221.849283
 31
0.0
  0
LINE
  5
99AA
330
994D
100
AcDbEntity
  8
1
  6
Continuous
100
AcDbLine
 10
180.055911
 20
219.849283
 30
0.0
 11
182.0559109999999
 21
221.849283
 31
0.0
  0
LINE
  5
99AB
330
994D
100
AcDbEntity
  8
1
  6
Continuous
100
AcDbLine
 10
181.4701239999999
 20
219.849283
 30
0.0
 11
183.470124
 21
221.849283
 31
0.0
  0
LINE
  5
99AC
330
994D
100
AcDbEntity
  8
1
  6
Continuous
100
AcDbLine
 10
182.641697
 20
219.849283
 30
0.0
 11
180.6416969999999
 21
221.849283
 31
0.0
  0
LINE
  5
99AD
330
994D
100
AcDbEntity
  8
1
  6
Continuous
100
AcDbLine
 10
184.298551
 20
219.849283
 30
0.0
 11
186.298551
 21
221.849283
 31
0.0
  0
LINE
  5
99AE
330
994D
100
AcDbEntity
  8
1
  6
Continuous
100
AcDbLine
 10
186.8843379999999
 20
219.849283
 30
0.0
 11
184.8843379999999
 21
221.849283
 31
0.0
  0
LINE
  5
99AF
330
994D
100
AcDbEntity
  8
1
  6
Continuous
100
AcDbLine
 10
187.126978
 20
219.849283
 30
0.0
 11
189.126978
 21
221.849283
 31
0.0
  0
LINE
  5
99B0
330
994D
100
AcDbEntity
  8
1
  6
Continuous
100
AcDbLine
 10
185.7127649999999
 20
219.849283
 30
0.0
 11
187.712765
 21
221.849283
 31
0.0
  0
LINE
  5
99B1
330
994D
100
AcDbEntity
  8
1
  6
Continuous
100
AcDbLine
 10
189.7127649999999
 20
219.849283
 30
0.0
 11
187.712765
 21
221.849283
 31
0.0
  0
LINE
  5
99B2
330
994D
100
AcDbEntity
  8
1
  6
Continuous
100
AcDbLine
 10
188.298551
 20
219.849283
 30
0.0
 11
186.298551
 21
221.849283
 31
0.0
  0
LINE
  5
99B3
330
994D
100
AcDbEntity
  8
1
  6
Continuous
100
AcDbLine
 10
182.8843379999999
 20
219.849283
 30
0.0
 11
184.8843379999999
 21
221.849283
 31
0.0
  0
LINE
  5
99B4
330
994D
100
AcDbEntity
  8
1
  6
Continuous
100
AcDbLine
 10
184.055911
 20
219.849283
 30
0.0
 11
182.0559109999999
 21
221.849283
 31
0.0
  0
LINE
  5
99B5
330
994D
100
AcDbEntity
  8
1
  6
Continuous
100
AcDbLine
 10
185.4701239999999
 20
219.849283
 30
0.0
 11
183.470124
 21
221.849283
 31
0.0
  0
LINE
  5
99B6
330
994D
100
AcDbEntity
  8
1
  6
Continuous
100
AcDbLine
 10
175.8132699999999
 20
219.849283
 30
0.0
 11
177.81327
 21
221.849283
 31
0.0
  0
LINE
  5
99B7
330
994D
100
AcDbEntity
  8
1
  6
Continuous
100
AcDbLine
 10
177.227484
 20
219.849283
 30
0.0
 11
179.227484
 21
221.849283
 31
0.0
  0
LINE
  5
99B8
330
994D
100
AcDbEntity
  8
1
  6
Continuous
100
AcDbLine
 10
178.399056
 20
219.849283
 30
0.0
 11
176.399056
 21
221.849283
 31
0.0
  0
LINE
  5
99B9
330
994D
100
AcDbEntity
  8
1
  6
Continuous
100
AcDbLine
 10
178.6416969999999
 20
219.849283
 30
0.0
 11
180.6416969999999
 21
221.849283
 31
0.0
  0
LINE
  5
99BA
330
994D
100
AcDbEntity
  8
1
  6
Continuous
100
AcDbLine
 10
179.81327
 20
219.849283
 30
0.0
 11
177.81327
 21
221.849283
 31
0.0
  0
LINE
  5
99BB
330
994D
100
AcDbEntity
  8
1
  6
Continuous
100
AcDbLine
 10
181.227484
 20
219.849283
 30
0.0
 11
179.227484
 21
221.849283
 31
0.0
  0
LINE
  5
99BC
330
994D
100
AcDbEntity
  8
1
  6
Continuous
100
AcDbLine
 10
174.399056
 20
219.849283
 30
0.0
 11
176.399056
 21
221.849283
 31
0.0
  0
LINE
  5
99BD
330
994D
100
AcDbEntity
  8
1
  6
Continuous
100
AcDbLine
 10
175.570629
 20
219.849283
 30
0.0
 11
173.5706289999999
 21
221.849283
 31
0.0
  0
LINE
  5
99BE
330
994D
100
AcDbEntity
  8
1
  6
Continuous
100
AcDbLine
 10
176.9848429999999
 20
219.849283
 30
0.0
 11
174.9848429999999
 21
221.849283
 31
0.0
  0
LINE
  5
99BF
330
994D
100
AcDbEntity
  8
4
  6
CENTER
100
AcDbLine
 10
159.8843379999999
 20
231.849283
 30
0.0
 11
159.8843379999999
 21
223.549283
 31
0.0
  0
ARC
  5
99C0
330
994D
100
AcDbEntity
  8
1
  6
Continuous
100
AcDbCircle
 10
162.3843379999998
 20
228.9492829999999
 30
0.0
 40
5.099999999999997
100
AcDbArc
 50
208.072487
 51
270.0
  0
LINE
  5
99C1
330
994D
100
AcDbEntity
  8
1
  6
Continuous
100
AcDbLine
 10
164.499561
 20
219.849283
 30
0.0
 11
166.499561
 21
221.849283
 31
0.0
  0
LINE
  5
99C2
330
994D
100
AcDbEntity
  8
1
  6
Continuous
100
AcDbLine
 10
165.671134
 20
219.849283
 30
0.0
 11
163.6711339999999
 21
221.849283
 31
0.0
  0
LINE
  5
99C3
330
994D
100
AcDbEntity
  8
1
  6
Continuous
100
AcDbLine
 10
167.085348
 20
219.849283
 30
0.0
 11
165.085348
 21
221.849283
 31
0.0
  0
LINE
  5
99C4
330
994D
100
AcDbEntity
  8
1
  6
Continuous
100
AcDbLine
 10
167.327989
 20
219.849283
 30
0.0
 11
169.327989
 21
221.849283
 31
0.0
  0
LINE
  5
99C5
330
994D
100
AcDbEntity
  8
1
  6
Continuous
100
AcDbLine
 10
168.7422019999999
 20
219.849283
 30
0.0
 11
170.7422019999999
 21
221.849283
 31
0.0
  0
LINE
  5
99C6
330
994D
100
AcDbEntity
  8
1
  6
Continuous
100
AcDbLine
 10
169.913775
 20
219.849283
 30
0.0
 11
167.9137749999999
 21
221.849283
 31
0.0
  0
LINE
  5
99C7
330
994D
100
AcDbEntity
  8
1
  6
Continuous
100
AcDbLine
 10
170.1564159999998
 20
219.849283
 30
0.0
 11
172.1564159999998
 21
221.849283
 31
0.0
  0
LINE
  5
99C8
330
994D
100
AcDbEntity
  8
1
  6
Continuous
100
AcDbLine
 10
171.327989
 20
219.849283
 30
0.0
 11
169.327989
 21
221.849283
 31
0.0
  0
LINE
  5
99C9
330
994D
100
AcDbEntity
  8
1
  6
Continuous
100
AcDbLine
 10
172.7422019999999
 20
219.849283
 30
0.0
 11
170.7422019999999
 21
221.849283
 31
0.0
  0
LINE
  5
99CA
330
994D
100
AcDbEntity
  8
1
  6
Continuous
100
AcDbLine
 10
165.913775
 20
219.849283
 30
0.0
 11
167.9137749999999
 21
221.849283
 31
0.0
  0
LINE
  5
99CB
330
994D
100
AcDbEntity
  8
1
  6
Continuous
100
AcDbLine
 10
168.499561
 20
219.849283
 30
0.0
 11
166.499561
 21
221.849283
 31
0.0
  0
ARC
  5
99CC
330
994D
100
AcDbEntity
  8
1
  6
Continuous
100
AcDbCircle
 10
162.8843379999999
 20
216.849283
 30
0.0
 40
3.0
100
AcDbArc
 50
90.0
 51
180.0
  0
LINE
  5
99CD
330
994D
100
AcDbEntity
  8
1
  6
Continuous
100
AcDbLine
 10
162.3843379999998
 20
220.562487
 30
0.0
 11
163.6711339999999
 21
221.849283
 31
0.0
  0
LINE
  5
99CE
330
994D
100
AcDbEntity
  8
1
  6
Continuous
100
AcDbLine
 10
163.085348
 20
219.849283
 30
0.0
 11
165.085348
 21
221.849283
 31
0.0
  0
LINE
  5
99CF
330
994D
100
AcDbEntity
  8
1
  6
Continuous
100
AcDbLine
 10
162.8427069999999
 20
219.849283
 30
0.0
 11
162.3843379999998
 21
220.307653
 31
0.0
  0
LINE
  5
99D0
330
994D
100
AcDbEntity
  8
1
  6
Continuous
100
AcDbLine
 10
164.256921
 20
219.849283
 30
0.0
 11
162.3843379999998
 21
221.7218659999999
 31
0.0
  0
LINE
  5
99D1
330
994D
100
AcDbEntity
  8
1
  6
Continuous
100
AcDbLine
 10
162.3843379999998
 20
223.849283
 30
0.0
 11
162.3843379999998
 21
219.849283
 31
0.0
  0
LINE
  5
99D2
330
994D
100
AcDbEntity
  8
1
  6
Continuous
100
AcDbLine
 10
152.8843379999998
 20
226.5492829999999
 30
0.0
 11
152.8843379999998
 21
228.849283
 31
0.0
  0
LINE
  5
99D3
330
994D
100
AcDbEntity
  8
4
  6
CENTER
100
AcDbLine
 10
219.884338
 20
295.4774479999999
 30
0.0
 11
129.3843379999999
 21
295.4774479999999
 31
0.0
  0
CIRCLE
  5
99D4
330
994D
100
AcDbEntity
  8
1
  6
Continuous
100
AcDbCircle
 10
184.8843379999999
 20
295.4774479999999
 30
0.0
 40
12.5
  0
CIRCLE
  5
99D5
330
994D
100
AcDbEntity
  8
1
  6
Continuous
100
AcDbCircle
 10
184.8843379999999
 20
295.4774479999999
 30
0.0
 40
20.75
  0
CIRCLE
  5
99D6
330
994D
100
AcDbEntity
  8
1
  6
Continuous
100
AcDbCircle
 10
184.8843379999999
 20
295.4774479999999
 30
0.0
 40
23.5
  0
LINE
  5
99D7
330
994D
100
AcDbEntity
  8
1
  6
Continuous
100
AcDbLine
 10
158.8843379999999
 20
263.4774479999999
 30
0.0
 11
210.8843379999999
 21
263.4774479999999
 31
0.0
  0
LINE
  5
99D8
330
994D
100
AcDbEntity
  8
1
  6
Continuous
100
AcDbLine
 10
210.8843379999999
 20
327.477448
 30
0.0
 11
158.8843379999999
 21
327.477448
 31
0.0
  0
LINE
  5
99D9
330
994D
100
AcDbEntity
  8
1
  6
Continuous
100
AcDbLine
 10
216.8843379999999
 20
269.4774479999999
 30
0.0
 11
216.8843379999999
 21
321.4774479999999
 31
0.0
  0
LINE
  5
99DA
330
994D
100
AcDbEntity
  8
4
  6
CENTER
100
AcDbLine
 10
209.8843379999999
 20
264.2274479999999
 30
0.0
 11
209.8843379999999
 21
276.7274479999999
 31
0.0
  0
ARC
  5
99DB
330
994D
100
AcDbEntity
  8
1
  6
Continuous
100
AcDbCircle
 10
210.8843379999999
 20
269.4774479999999
 30
0.0
 40
6.0
100
AcDbArc
 50
270.0
 51
0.0
  0
LINE
  5
99DC
330
994D
100
AcDbEntity
  8
4
  6
CENTER
100
AcDbLine
 10
216.1343379999999
 20
270.4774479999999
 30
0.0
 11
203.6343379999999
 21
270.4774479999999
 31
0.0
  0
CIRCLE
  5
99DD
330
994D
100
AcDbEntity
  8
1
  6
Continuous
100
AcDbCircle
 10
209.8843379999999
 20
270.4774479999999
 30
0.0
 40
3.25
  0
LINE
  5
99DE
330
994D
100
AcDbEntity
  8
4
  6
CENTER
100
AcDbLine
 10
216.1343379999999
 20
320.4774479999999
 30
0.0
 11
203.6343379999999
 21
320.4774479999999
 31
0.0
  0
LINE
  5
99DF
330
994D
100
AcDbEntity
  8
4
  6
CENTER
100
AcDbLine
 10
209.8843379999999
 20
314.2274479999999
 30
0.0
 11
209.8843379999999
 21
326.7274479999999
 31
0.0
  0
CIRCLE
  5
99E0
330
994D
100
AcDbEntity
  8
1
  6
Continuous
100
AcDbCircle
 10
209.8843379999999
 20
320.4774479999999
 30
0.0
 40
3.25
  0
ARC
  5
99E1
330
994D
100
AcDbEntity
  8
1
  6
Continuous
100
AcDbCircle
 10
210.8843379999999
 20
321.4774479999999
 30
0.0
 40
6.0
100
AcDbArc
 50
0.0
 51
90.0
  0
LINE
  5
99E2
330
994D
100
AcDbEntity
  8
4
  6
CENTER
100
AcDbLine
 10
184.8843379999999
 20
330.4774479999999
 30
0.0
 11
184.8843379999999
 21
260.4774479999999
 31
0.0
  0
ARC
  5
99E3
330
994D
100
AcDbEntity
  8
1
  6
Continuous
100
AcDbCircle
 10
281.384338
 20
295.4774479999999
 30
0.0
 40
150.0
100
AcDbArc
 50
176.2946289999999
 51
183.7053709999999
  0
LINE
  5
99E4
330
994D
100
AcDbEntity
  8
1
  6
Continuous
100
AcDbLine
 10
152.8843379999998
 20
321.4774479999999
 30
0.0
 11
152.8843379999998
 21
269.4774479999999
 31
0.0
  0
LINE
  5
99E5
330
994D
100
AcDbEntity
  8
4
  6
CENTER
100
AcDbLine
 10
166.1343379999999
 20
270.4774479999999
 30
0.0
 11
153.6343379999999
 21
270.4774479999999
 31
0.0
  0
CIRCLE
  5
99E6
330
994D
100
AcDbEntity
  8
1
  6
Continuous
100
AcDbCircle
 10
159.8843379999999
 20
270.4774479999999
 30
0.0
 40
3.25
  0
ARC
  5
99E7
330
994D
100
AcDbEntity
  8
1
  6
Continuous
100
AcDbCircle
 10
158.8843379999999
 20
269.4774479999999
 30
0.0
 40
6.0
100
AcDbArc
 50
180.0
 51
270.0
  0
LINE
  5
99E8
330
994D
100
AcDbEntity
  8
4
  6
CENTER
100
AcDbLine
 10
159.8843379999999
 20
264.2274479999999
 30
0.0
 11
159.8843379999999
 21
276.7274479999999
 31
0.0
  0
LINE
  5
99E9
330
994D
100
AcDbEntity
  8
1
  6
Continuous
100
AcDbLine
 10
152.8843379999998
 20
282.9774479999999
 30
0.0
 11
134.691632
 21
282.9774479999999
 31
0.0
  0
ARC
  5
99EA
330
994D
100
AcDbEntity
  8
1
  6
Continuous
100
AcDbCircle
 10
134.691632
 20
285.977448
 30
0.0
 40
3.0
100
AcDbArc
 50
183.7053709999999
 51
270.0
  0
LINE
  5
99EB
330
994D
100
AcDbEntity
  8
4
  6
CENTER
100
AcDbLine
 10
166.1343379999999
 20
320.4774479999999
 30
0.0
 11
153.6343379999999
 21
320.4774479999999
 31
0.0
  0
CIRCLE
  5
99EC
330
994D
100
AcDbEntity
  8
1
  6
Continuous
100
AcDbCircle
 10
159.8843379999999
 20
320.4774479999999
 30
0.0
 40
3.25
  0
ARC
  5
99ED
330
994D
100
AcDbEntity
  8
1
  6
Continuous
100
AcDbCircle
 10
158.8843379999999
 20
321.4774479999999
 30
0.0
 40
6.0
100
AcDbArc
 50
90.0
 51
180.0
  0
LINE
  5
99EE
330
994D
100
AcDbEntity
  8
4
  6
CENTER
100
AcDbLine
 10
159.8843379999999
 20
314.2274479999999
 30
0.0
 11
159.8843379999999
 21
326.7274479999999
 31
0.0
  0
LINE
  5
99EF
330
994D
100
AcDbEntity
  8
1
  6
Continuous
100
AcDbLine
 10
152.8843379999998
 20
307.9774479999999
 30
0.0
 11
134.691632
 21
307.9774479999999
 31
0.0
  0
ARC
  5
99F0
330
994D
100
AcDbEntity
  8
1
  6
Continuous
100
AcDbCircle
 10
134.691632
 20
304.9774479999999
 30
0.0
 40
3.0
100
AcDbArc
 50
90.0
 51
176.2946289999999
  0
LINE
  5
99F1
330
994D
100
AcDbEntity
  8
4
  6
CENTER
100
AcDbLine
 10
59.884338
 20
231.849283
 30
0.0
 11
59.884338
 21
141.849283
 31
0.0
  0
ARC
  5
99F2
330
994D
100
AcDbEntity
  8
1
  6
Continuous
100
AcDbCircle
 10
59.884338
 20
293.849283
 30
0.0
 40
150.0
100
AcDbArc
 50
266.2946289999998
 51
273.705371
  0
LINE
  5
99F3
330
994D
100
AcDbEntity
  8
4
  6
CENTER
100
AcDbLine
 10
34.834338
 20
176.349283
 30
0.0
 11
82.93433799999998
 21
176.349283
 31
0.0
  0
LINE
  5
99F4
330
994D
100
AcDbEntity
  8
1
  6
Continuous
100
AcDbLine
 10
63.298552
 20
219.849283
 30
0.0
 11
61.298552
 21
221.849283
 31
0.0
  0
LINE
  5
99F5
330
994D
100
AcDbEntity
  8
1
  6
Continuous
100
AcDbLine
 10
61.884338
 20
219.849283
 30
0.0
 11
59.884338
 21
221.849283
 31
0.0
  0
LINE
  5
99F6
330
994D
100
AcDbEntity
  8
1
  6
Continuous
100
AcDbLine
 10
60.71276499999999
 20
219.849283
 30
0.0
 11
62.71276499999999
 21
221.849283
 31
0.0
  0
ARC
  5
99F7
330
994D
100
AcDbEntity
  8
1
  6
Continuous
100
AcDbCircle
 10
59.884338
 20
58.84928299999999
 30
0.0
 40
150.0
100
AcDbArc
 50
86.294629
 51
93.70537099999998
  0
LINE
  5
99F8
330
994D
100
AcDbEntity
  8
1
  6
Continuous
100
AcDbLine
 10
47.834338
 20
213.349283
 30
0.0
 11
71.934338
 21
213.349283
 31
0.0
  0
LINE
  5
99F9
330
994D
100
AcDbEntity
  8
1
  6
Continuous
100
AcDbLine
 10
37.384338
 20
223.849283
 30
0.0
 11
82.38433800000001
 21
223.849283
 31
0.0
  0
LINE
  5
99FA
330
994D
100
AcDbEntity
  8
1
  6
Continuous
100
AcDbLine
 10
37.384338
 20
221.849283
 30
0.0
 11
82.38433800000001
 21
221.849283
 31
0.0
  0
LINE
  5
99FB
330
994D
100
AcDbEntity
  8
1
  6
Continuous
100
AcDbLine
 10
37.384338
 20
219.849283
 30
0.0
 11
82.38433800000001
 21
219.849283
 31
0.0
  0
LINE
  5
99FC
330
994D
100
AcDbEntity
  8
1
  6
Continuous
100
AcDbLine
 10
27.88433799999999
 20
226.5492829999999
 30
0.0
 11
91.884338
 21
226.5492829999999
 31
0.0
  0
LINE
  5
99FD
330
994D
100
AcDbEntity
  8
1
  6
Continuous
100
AcDbLine
 10
27.88433799999999
 20
228.849283
 30
0.0
 11
91.884338
 21
228.849283
 31
0.0
  0
LINE
  5
99FE
330
994D
100
AcDbEntity
  8
1
  6
Continuous
100
AcDbLine
 10
47.384338
 20
205.541989
 30
0.0
 11
47.384338
 21
147.1565769999999
 31
0.0
  0
LINE
  5
99FF
330
994D
100
AcDbEntity
  8
1
  6
Continuous
100
AcDbLine
 10
41.834338
 20
207.349283
 30
0.0
 11
41.834338
 21
165.599283
 31
0.0
  0
LINE
  5
9A00
330
994D
100
AcDbEntity
  8
1
  6
Continuous
100
AcDbLine
 10
44.13433799999999
 20
209.349283
 30
0.0
 11
44.13433799999999
 21
165.599283
 31
0.0
  0
LINE
  5
9A01
330
994D
100
AcDbEntity
  8
1
  6
Continuous
100
AcDbLine
 10
34.884338
 20
216.849283
 30
0.0
 11
34.884338
 21
181.8083469999999
 31
0.0
  0
ARC
  5
9A02
330
994D
100
AcDbEntity
  8
1
  6
Continuous
100
AcDbCircle
 10
46.28433799999998
 20
167.349283
 30
0.0
 40
1.5
100
AcDbArc
 50
180.0
 51
270.0
  0
ARC
  5
9A03
330
994D
100
AcDbEntity
  8
1
  6
Continuous
100
AcDbCircle
 10
52.88433799999999
 20
181.8083469999999
 30
0.0
 40
18.0
100
AcDbArc
 50
180.0
 51
232.128771
  0
LINE
  5
9A04
330
994D
100
AcDbEntity
  8
1
  6
Continuous
100
AcDbLine
 10
41.834338
 20
165.599283
 30
0.0
 11
44.13433799999999
 21
165.599283
 31
0.0
  0
ARC
  5
9A05
330
994D
100
AcDbEntity
  8
1
  6
Continuous
100
AcDbCircle
 10
50.38433799999999
 20
147.1565769999999
 30
0.0
 40
3.0
100
AcDbArc
 50
180.0
 51
266.2946289999998
  0
LINE
  5
9A06
330
994D
100
AcDbEntity
  8
1
  6
Continuous
100
AcDbLine
 10
46.28433799999998
 20
165.849283
 30
0.0
 11
47.384338
 21
165.849283
 31
0.0
  0
ARC
  5
9A07
330
994D
100
AcDbEntity
  8
1
  6
Continuous
100
AcDbCircle
 10
46.28433799999998
 20
185.349283
 30
0.0
 40
1.5
100
AcDbArc
 50
90.0
 51
180.0
  0
LINE
  5
9A08
330
994D
100
AcDbEntity
  8
1
  6
Continuous
100
AcDbLine
 10
44.784338
 20
167.349283
 30
0.0
 11
44.784338
 21
185.349283
 31
0.0
  0
LINE
  5
9A09
330
994D
100
AcDbEntity
  8
1
  6
Continuous
100
AcDbLine
 10
40.272189
 20
182.099283
 30
0.0
 11
40.272189
 21
170.599283
 31
0.0
  0
ARC
  5
9A0A
330
994D
100
AcDbEntity
  8
1
  6
Continuous
100
AcDbCircle
 10
45.834338
 20
176.349283
 30
0.0
 40
8.0
100
AcDbArc
 50
134.048626
 51
225.9513739999999
  0
LINE
  5
9A0B
330
994D
100
AcDbEntity
  8
1
  6
Continuous
100
AcDbLine
 10
40.272189
 20
170.599283
 30
0.0
 11
41.834338
 21
170.599283
 31
0.0
  0
LINE
  5
9A0C
330
994D
100
AcDbEntity
  8
1
  6
Continuous
100
AcDbLine
 10
44.13433799999999
 20
172.349283
 30
0.0
 11
44.784338
 21
172.349283
 31
0.0
  0
LINE
  5
9A0D
330
994D
100
AcDbEntity
  8
1
  6
Continuous
100
AcDbLine
 10
40.272189
 20
182.099283
 30
0.0
 11
41.834338
 21
182.099283
 31
0.0
  0
LINE
  5
9A0E
330
994D
100
AcDbEntity
  8
1
  6
Continuous
100
AcDbLine
 10
44.13433799999999
 20
180.349283
 30
0.0
 11
44.784338
 21
180.349283
 31
0.0
  0
LINE
  5
9A0F
330
994D
100
AcDbEntity
  8
1
  6
Continuous
100
AcDbLine
 10
46.28433799999998
 20
186.849283
 30
0.0
 11
47.384338
 21
186.849283
 31
0.0
  0
LINE
  5
9A10
330
994D
100
AcDbEntity
  8
1
  6
Continuous
100
AcDbLine
 10
27.88433799999999
 20
226.5492829999999
 30
0.0
 11
27.88433799999999
 21
228.849283
 31
0.0
  0
ARC
  5
9A11
330
994D
100
AcDbEntity
  8
1
  6
Continuous
100
AcDbCircle
 10
48.134338
 20
209.349283
 30
0.0
 40
4.0
100
AcDbArc
 50
90.0
 51
180.0
  0
ARC
  5
9A12
330
994D
100
AcDbEntity
  8
1
  6
Continuous
100
AcDbCircle
 10
47.834338
 20
207.349283
 30
0.0
 40
6.0
100
AcDbArc
 50
90.0
 51
180.0
  0
ARC
  5
9A13
330
994D
100
AcDbEntity
  8
1
  6
Continuous
100
AcDbCircle
 10
50.38433799999999
 20
205.541989
 30
0.0
 40
3.0
100
AcDbArc
 50
93.70537099999998
 51
180.0
  0
LINE
  5
9A14
330
994D
100
AcDbEntity
  8
1
  6
Continuous
100
AcDbLine
 10
44.913775
 20
219.849283
 30
0.0
 11
42.913775
 21
221.849283
 31
0.0
  0
LINE
  5
9A15
330
994D
100
AcDbEntity
  8
1
  6
Continuous
100
AcDbLine
 10
46.327989
 20
219.849283
 30
0.0
 11
44.327989
 21
221.849283
 31
0.0
  0
LINE
  5
9A16
330
994D
100
AcDbEntity
  8
1
  6
Continuous
100
AcDbLine
 10
43.742203
 20
219.849283
 30
0.0
 11
45.742203
 21
221.849283
 31
0.0
  0
LINE
  5
9A17
330
994D
100
AcDbEntity
  8
4
  6
CENTER
100
AcDbLine
 10
34.884338
 20
231.849283
 30
0.0
 11
34.884338
 21
223.549283
 31
0.0
  0
ARC
  5
9A18
330
994D
100
AcDbEntity
  8
1
  6
Continuous
100
AcDbCircle
 10
37.384338
 20
228.9492829999999
 30
0.0
 40
5.099999999999997
100
AcDbArc
 50
208.072487
 51
270.0
  0
ARC
  5
9A19
330
994D
100
AcDbEntity
  8
1
  6
Continuous
100
AcDbCircle
 10
37.88433799999999
 20
216.849283
 30
0.0
 40
3.0
100
AcDbArc
 50
90.0
 51
180.0
  0
LINE
  5
9A1A
330
994D
100
AcDbEntity
  8
1
  6
Continuous
100
AcDbLine
 10
42.08534799999998
 20
219.849283
 30
0.0
 11
40.08534799999997
 21
221.849283
 31
0.0
  0
LINE
  5
9A1B
330
994D
100
AcDbEntity
  8
1
  6
Continuous
100
AcDbLine
 10
39.49956199999999
 20
219.849283
 30
0.0
 11
41.499562
 21
221.849283
 31
0.0
  0
LINE
  5
9A1C
330
994D
100
AcDbEntity
  8
1
  6
Continuous
100
AcDbLine
 10
37.384338
 20
220.307653
 30
0.0
 11
37.842708
 21
219.849283
 31
0.0
  0
LINE
  5
9A1D
330
994D
100
AcDbEntity
  8
1
  6
Continuous
100
AcDbLine
 10
37.384338
 20
221.7218659999999
 30
0.0
 11
39.25692100000001
 21
219.849283
 31
0.0
  0
LINE
  5
9A1E
330
994D
100
AcDbEntity
  8
1
  6
Continuous
100
AcDbLine
 10
40.671135
 20
219.849283
 30
0.0
 11
38.671135
 21
221.849283
 31
0.0
  0
LINE
  5
9A1F
330
994D
100
AcDbEntity
  8
1
  6
Continuous
100
AcDbLine
 10
37.384338
 20
220.562487
 30
0.0
 11
38.671135
 21
221.849283
 31
0.0
  0
LINE
  5
9A20
330
994D
100
AcDbEntity
  8
1
  6
Continuous
100
AcDbLine
 10
38.08534799999998
 20
219.849283
 30
0.0
 11
40.08534799999997
 21
221.849283
 31
0.0
  0
LINE
  5
9A21
330
994D
100
AcDbEntity
  8
1
  6
Continuous
100
AcDbLine
 10
37.384338
 20
223.849283
 30
0.0
 11
37.384338
 21
219.849283
 31
0.0
  0
LINE
  5
9A22
330
994D
100
AcDbEntity
  8
1
  6
Continuous
100
AcDbLine
 10
43.499562
 20
219.849283
 30
0.0
 11
41.499562
 21
221.849283
 31
0.0
  0
LINE
  5
9A23
330
994D
100
AcDbEntity
  8
1
  6
Continuous
100
AcDbLine
 10
40.913775
 20
219.849283
 30
0.0
 11
42.913775
 21
221.849283
 31
0.0
  0
LINE
  5
9A24
330
994D
100
AcDbEntity
  8
1
  6
Continuous
100
AcDbLine
 10
42.327989
 20
219.849283
 30
0.0
 11
44.327989
 21
221.849283
 31
0.0
  0
LINE
  5
9A25
330
994D
100
AcDbEntity
  8
1
  6
Continuous
100
AcDbLine
 10
53.39905699999999
 20
219.849283
 30
0.0
 11
51.39905699999999
 21
221.849283
 31
0.0
  0
LINE
  5
9A26
330
994D
100
AcDbEntity
  8
1
  6
Continuous
100
AcDbLine
 10
54.81327
 20
219.849283
 30
0.0
 11
52.81327
 21
221.849283
 31
0.0
  0
LINE
  5
9A27
330
994D
100
AcDbEntity
  8
1
  6
Continuous
100
AcDbLine
 10
52.227484
 20
219.849283
 30
0.0
 11
54.22748399999999
 21
221.849283
 31
0.0
  0
LINE
  5
9A28
330
994D
100
AcDbEntity
  8
1
  6
Continuous
100
AcDbLine
 10
49.156416
 20
219.849283
 30
0.0
 11
47.156416
 21
221.849283
 31
0.0
  0
LINE
  5
9A29
330
994D
100
AcDbEntity
  8
1
  6
Continuous
100
AcDbLine
 10
50.57063
 20
219.849283
 30
0.0
 11
48.57063
 21
221.849283
 31
0.0
  0
LINE
  5
9A2A
330
994D
100
AcDbEntity
  8
1
  6
Continuous
100
AcDbLine
 10
47.984843
 20
219.849283
 30
0.0
 11
49.984843
 21
221.849283
 31
0.0
  0
LINE
  5
9A2B
330
994D
100
AcDbEntity
  8
1
  6
Continuous
100
AcDbLine
 10
47.742203
 20
219.849283
 30
0.0
 11
45.742203
 21
221.849283
 31
0.0
  0
LINE
  5
9A2C
330
994D
100
AcDbEntity
  8
1
  6
Continuous
100
AcDbLine
 10
45.156416
 20
219.849283
 30
0.0
 11
47.156416
 21
221.849283
 31
0.0
  0
LINE
  5
9A2D
330
994D
100
AcDbEntity
  8
1
  6
Continuous
100
AcDbLine
 10
46.57062999999999
 20
219.849283
 30
0.0
 11
48.57063
 21
221.849283
 31
0.0
  0
LINE
  5
9A2E
330
994D
100
AcDbEntity
  8
1
  6
Continuous
100
AcDbLine
 10
51.984843
 20
219.849283
 30
0.0
 11
49.984843
 21
221.849283
 31
0.0
  0
LINE
  5
9A2F
330
994D
100
AcDbEntity
  8
1
  6
Continuous
100
AcDbLine
 10
49.399057
 20
219.849283
 30
0.0
 11
51.39905699999999
 21
221.849283
 31
0.0
  0
LINE
  5
9A30
330
994D
100
AcDbEntity
  8
1
  6
Continuous
100
AcDbLine
 10
50.81327
 20
219.849283
 30
0.0
 11
52.81327
 21
221.849283
 31
0.0
  0
LINE
  5
9A31
330
994D
100
AcDbEntity
  8
1
  6
Continuous
100
AcDbLine
 10
57.641698
 20
219.849283
 30
0.0
 11
55.641698
 21
221.849283
 31
0.0
  0
LINE
  5
9A32
330
994D
100
AcDbEntity
  8
1
  6
Continuous
100
AcDbLine
 10
59.055911
 20
219.849283
 30
0.0
 11
57.055911
 21
221.849283
 31
0.0
  0
LINE
  5
9A33
330
994D
100
AcDbEntity
  8
1
  6
Continuous
100
AcDbLine
 10
56.470125
 20
219.849283
 30
0.0
 11
58.470125
 21
221.849283
 31
0.0
  0
LINE
  5
9A34
330
994D
100
AcDbEntity
  8
1
  6
Continuous
100
AcDbLine
 10
56.22748399999998
 20
219.849283
 30
0.0
 11
54.22748399999999
 21
221.849283
 31
0.0
  0
LINE
  5
9A35
330
994D
100
AcDbEntity
  8
1
  6
Continuous
100
AcDbLine
 10
53.64169799999999
 20
219.849283
 30
0.0
 11
55.641698
 21
221.849283
 31
0.0
  0
LINE
  5
9A36
330
994D
100
AcDbEntity
  8
1
  6
Continuous
100
AcDbLine
 10
55.055911
 20
219.849283
 30
0.0
 11
57.055911
 21
221.849283
 31
0.0
  0
LINE
  5
9A37
330
994D
100
AcDbEntity
  8
1
  6
Continuous
100
AcDbLine
 10
60.47012500000001
 20
219.849283
 30
0.0
 11
58.470125
 21
221.849283
 31
0.0
  0
LINE
  5
9A38
330
994D
100
AcDbEntity
  8
1
  6
Continuous
100
AcDbLine
 10
59.298552
 20
219.849283
 30
0.0
 11
61.298552
 21
221.849283
 31
0.0
  0
LINE
  5
9A39
330
994D
100
AcDbEntity
  8
1
  6
Continuous
100
AcDbLine
 10
57.88433799999999
 20
219.849283
 30
0.0
 11
59.884338
 21
221.849283
 31
0.0
  0
LINE
  5
9A3A
330
994D
100
AcDbEntity
  8
1
  6
Continuous
100
AcDbLine
 10
72.384338
 20
205.541989
 30
0.0
 11
72.384338
 21
147.1565769999999
 31
0.0
  0
LINE
  5
9A3B
330
994D
100
AcDbEntity
  8
1
  6
Continuous
100
AcDbLine
 10
77.93433799999998
 20
207.349283
 30
0.0
 11
77.93433799999998
 21
165.599283
 31
0.0
  0
LINE
  5
9A3C
330
994D
100
AcDbEntity
  8
1
  6
Continuous
100
AcDbLine
 10
75.634338
 20
209.349283
 30
0.0
 11
75.634338
 21
165.599283
 31
0.0
  0
LINE
  5
9A3D
330
994D
100
AcDbEntity
  8
1
  6
Continuous
100
AcDbLine
 10
84.88433800000001
 20
216.849283
 30
0.0
 11
84.88433800000001
 21
181.8083469999999
 31
0.0
  0
ARC
  5
9A3E
330
994D
100
AcDbEntity
  8
1
  6
Continuous
100
AcDbCircle
 10
73.48433799999998
 20
167.349283
 30
0.0
 40
1.5
100
AcDbArc
 50
270.0
 51
0.0
  0
ARC
  5
9A3F
330
994D
100
AcDbEntity
  8
1
  6
Continuous
100
AcDbCircle
 10
66.884338
 20
181.8083469999999
 30
0.0
 40
18.0
100
AcDbArc
 50
307.871229
 51
0.0
  0
LINE
  5
9A40
330
994D
100
AcDbEntity
  8
1
  6
Continuous
100
AcDbLine
 10
75.634338
 20
165.599283
 30
0.0
 11
77.93433799999998
 21
165.599283
 31
0.0
  0
ARC
  5
9A41
330
994D
100
AcDbEntity
  8
1
  6
Continuous
100
AcDbCircle
 10
69.384338
 20
147.1565769999999
 30
0.0
 40
3.0
100
AcDbArc
 50
273.705371
 51
0.0
  0
LINE
  5
9A42
330
994D
100
AcDbEntity
  8
1
  6
Continuous
100
AcDbLine
 10
72.384338
 20
165.849283
 30
0.0
 11
73.48433799999998
 21
165.849283
 31
0.0
  0
LINE
  5
9A43
330
994D
100
AcDbEntity
  8
1
  6
Continuous
100
AcDbLine
 10
74.98433799999998
 20
167.349283
 30
0.0
 11
74.98433799999998
 21
185.349283
 31
0.0
  0
LINE
  5
9A44
330
994D
100
AcDbEntity
  8
1
  6
Continuous
100
AcDbLine
 10
74.98433799999998
 20
172.349283
 30
0.0
 11
75.634338
 21
172.349283
 31
0.0
  0
LINE
  5
9A45
330
994D
100
AcDbEntity
  8
1
  6
Continuous
100
AcDbLine
 10
74.98433799999998
 20
180.349283
 30
0.0
 11
75.634338
 21
180.349283
 31
0.0
  0
ARC
  5
9A46
330
994D
100
AcDbEntity
  8
1
  6
Continuous
100
AcDbCircle
 10
73.48433799999998
 20
185.349283
 30
0.0
 40
1.5
100
AcDbArc
 50
0.0
 51
90.0
  0
LINE
  5
9A47
330
994D
100
AcDbEntity
  8
1
  6
Continuous
100
AcDbLine
 10
72.384338
 20
186.849283
 30
0.0
 11
73.48433799999998
 21
186.849283
 31
0.0
  0
ARC
  5
9A48
330
994D
100
AcDbEntity
  8
1
  6
Continuous
100
AcDbCircle
 10
66.934338
 20
176.349283
 30
0.0
 40
13.0
100
AcDbArc
 50
337.3801349999999
 51
22.619865
  0
LINE
  5
9A49
330
994D
100
AcDbEntity
  8
1
  6
Continuous
100
AcDbLine
 10
78.93433799999998
 20
181.349283
 30
0.0
 11
78.93433799999998
 21
171.349283
 31
0.0
  0
LINE
  5
9A4A
330
994D
100
AcDbEntity
  8
1
  6
Continuous
100
AcDbLine
 10
77.93433799999998
 20
171.349283
 30
0.0
 11
78.93433799999998
 21
171.349283
 31
0.0
  0
LINE
  5
9A4B
330
994D
100
AcDbEntity
  8
1
  6
Continuous
100
AcDbLine
 10
77.93433799999998
 20
181.349283
 30
0.0
 11
78.93433799999998
 21
181.349283
 31
0.0
  0
ARC
  5
9A4C
330
994D
100
AcDbEntity
  8
1
  6
Continuous
100
AcDbCircle
 10
71.63433799999999
 20
209.349283
 30
0.0
 40
4.0
100
AcDbArc
 50
0.0
 51
90.0
  0
ARC
  5
9A4D
330
994D
100
AcDbEntity
  8
1
  6
Continuous
100
AcDbCircle
 10
71.934338
 20
207.349283
 30
0.0
 40
6.0
100
AcDbArc
 50
0.0
 51
90.0
  0
ARC
  5
9A4E
330
994D
100
AcDbEntity
  8
1
  6
Continuous
100
AcDbCircle
 10
69.384338
 20
205.541989
 30
0.0
 40
3.0
100
AcDbArc
 50
0.0
 51
86.294629
  0
LINE
  5
9A4F
330
994D
100
AcDbEntity
  8
1
  6
Continuous
100
AcDbLine
 10
78.854901
 20
219.849283
 30
0.0
 11
76.85490099999999
 21
221.849283
 31
0.0
  0
LINE
  5
9A50
330
994D
100
AcDbEntity
  8
1
  6
Continuous
100
AcDbLine
 10
77.683328
 20
219.849283
 30
0.0
 11
79.683328
 21
221.849283
 31
0.0
  0
LINE
  5
9A51
330
994D
100
AcDbEntity
  8
1
  6
Continuous
100
AcDbLine
 10
76.269115
 20
219.849283
 30
0.0
 11
78.269115
 21
221.849283
 31
0.0
  0
LINE
  5
9A52
330
994D
100
AcDbEntity
  8
1
  6
Continuous
100
AcDbLine
 10
70.36961999999999
 20
219.849283
 30
0.0
 11
68.36961999999998
 21
221.849283
 31
0.0
  0
LINE
  5
9A53
330
994D
100
AcDbEntity
  8
1
  6
Continuous
100
AcDbLine
 10
69.198047
 20
219.849283
 30
0.0
 11
71.198047
 21
221.849283
 31
0.0
  0
LINE
  5
9A54
330
994D
100
AcDbEntity
  8
1
  6
Continuous
100
AcDbLine
 10
67.783833
 20
219.849283
 30
0.0
 11
69.783833
 21
221.849283
 31
0.0
  0
LINE
  5
9A55
330
994D
100
AcDbEntity
  8
1
  6
Continuous
100
AcDbLine
 10
66.126979
 20
219.849283
 30
0.0
 11
64.12697900000001
 21
221.849283
 31
0.0
  0
LINE
  5
9A56
330
994D
100
AcDbEntity
  8
1
  6
Continuous
100
AcDbLine
 10
64.95540600000001
 20
219.849283
 30
0.0
 11
66.95540600000001
 21
221.849283
 31
0.0
  0
LINE
  5
9A57
330
994D
100
AcDbEntity
  8
1
  6
Continuous
100
AcDbLine
 10
63.541192
 20
219.849283
 30
0.0
 11
65.54119200000001
 21
221.849283
 31
0.0
  0
LINE
  5
9A58
330
994D
100
AcDbEntity
  8
1
  6
Continuous
100
AcDbLine
 10
64.712765
 20
219.849283
 30
0.0
 11
62.71276499999999
 21
221.849283
 31
0.0
  0
LINE
  5
9A59
330
994D
100
AcDbEntity
  8
1
  6
Continuous
100
AcDbLine
 10
62.12697900000001
 20
219.849283
 30
0.0
 11
64.12697900000001
 21
221.849283
 31
0.0
  0
LINE
  5
9A5A
330
994D
100
AcDbEntity
  8
1
  6
Continuous
100
AcDbLine
 10
68.95540600000001
 20
219.849283
 30
0.0
 11
66.95540600000001
 21
221.849283
 31
0.0
  0
LINE
  5
9A5B
330
994D
100
AcDbEntity
  8
1
  6
Continuous
100
AcDbLine
 10
67.54119200000001
 20
219.849283
 30
0.0
 11
65.54119200000001
 21
221.849283
 31
0.0
  0
LINE
  5
9A5C
330
994D
100
AcDbEntity
  8
1
  6
Continuous
100
AcDbLine
 10
66.36962
 20
219.849283
 30
0.0
 11
68.36961999999998
 21
221.849283
 31
0.0
  0
LINE
  5
9A5D
330
994D
100
AcDbEntity
  8
1
  6
Continuous
100
AcDbLine
 10
74.61225999999998
 20
219.849283
 30
0.0
 11
72.61225999999997
 21
221.849283
 31
0.0
  0
LINE
  5
9A5E
330
994D
100
AcDbEntity
  8
1
  6
Continuous
100
AcDbLine
 10
73.44068699999998
 20
219.849283
 30
0.0
 11
75.44068699999998
 21
221.849283
 31
0.0
  0
LINE
  5
9A5F
330
994D
100
AcDbEntity
  8
1
  6
Continuous
100
AcDbLine
 10
72.02647399999998
 20
219.849283
 30
0.0
 11
74.02647399999998
 21
221.849283
 31
0.0
  0
LINE
  5
9A60
330
994D
100
AcDbEntity
  8
1
  6
Continuous
100
AcDbLine
 10
73.198047
 20
219.849283
 30
0.0
 11
71.198047
 21
221.849283
 31
0.0
  0
LINE
  5
9A61
330
994D
100
AcDbEntity
  8
1
  6
Continuous
100
AcDbLine
 10
71.783833
 20
219.849283
 30
0.0
 11
69.783833
 21
221.849283
 31
0.0
  0
LINE
  5
9A62
330
994D
100
AcDbEntity
  8
1
  6
Continuous
100
AcDbLine
 10
70.61225999999997
 20
219.849283
 30
0.0
 11
72.61225999999997
 21
221.849283
 31
0.0
  0
LINE
  5
9A63
330
994D
100
AcDbEntity
  8
1
  6
Continuous
100
AcDbLine
 10
77.44068699999998
 20
219.849283
 30
0.0
 11
75.44068699999998
 21
221.849283
 31
0.0
  0
LINE
  5
9A64
330
994D
100
AcDbEntity
  8
1
  6
Continuous
100
AcDbLine
 10
76.02647399999998
 20
219.849283
 30
0.0
 11
74.02647399999998
 21
221.849283
 31
0.0
  0
LINE
  5
9A65
330
994D
100
AcDbEntity
  8
1
  6
Continuous
100
AcDbLine
 10
74.85490099999998
 20
219.849283
 30
0.0
 11
76.85490099999999
 21
221.849283
 31
0.0
  0
LINE
  5
9A66
330
994D
100
AcDbEntity
  8
4
  6
CENTER
100
AcDbLine
 10
84.88433800000001
 20
231.849283
 30
0.0
 11
84.88433800000001
 21
223.549283
 31
0.0
  0
ARC
  5
9A67
330
994D
100
AcDbEntity
  8
1
  6
Continuous
100
AcDbCircle
 10
82.38433800000001
 20
228.9492829999999
 30
0.0
 40
5.099999999999997
100
AcDbArc
 50
270.0
 51
331.9275129999998
  0
ARC
  5
9A68
330
994D
100
AcDbEntity
  8
1
  6
Continuous
100
AcDbCircle
 10
81.884338
 20
216.849283
 30
0.0
 40
3.0
100
AcDbArc
 50
0.0
 51
90.0
  0
LINE
  5
9A69
330
994D
100
AcDbEntity
  8
1
  6
Continuous
100
AcDbLine
 10
82.38433800000001
 20
220.562487
 30
0.0
 11
81.09754200000002
 21
221.849283
 31
0.0
  0
LINE
  5
9A6A
330
994D
100
AcDbEntity
  8
1
  6
Continuous
100
AcDbLine
 10
80.51175499999997
 20
219.849283
 30
0.0
 11
82.38433800000001
 21
221.7218659999999
 31
0.0
  0
LINE
  5
9A6B
330
994D
100
AcDbEntity
  8
1
  6
Continuous
100
AcDbLine
 10
81.68332799999998
 20
219.849283
 30
0.0
 11
79.683328
 21
221.849283
 31
0.0
  0
LINE
  5
9A6C
330
994D
100
AcDbEntity
  8
1
  6
Continuous
100
AcDbLine
 10
80.269115
 20
219.849283
 30
0.0
 11
78.269115
 21
221.849283
 31
0.0
  0
LINE
  5
9A6D
330
994D
100
AcDbEntity
  8
1
  6
Continuous
100
AcDbLine
 10
79.097542
 20
219.849283
 30
0.0
 11
81.09754200000002
 21
221.849283
 31
0.0
  0
LINE
  5
9A6E
330
994D
100
AcDbEntity
  8
1
  6
Continuous
100
AcDbLine
 10
81.92596899999998
 20
219.849283
 30
0.0
 11
82.38433800000001
 21
220.307653
 31
0.0
  0
LINE
  5
9A6F
330
994D
100
AcDbEntity
  8
1
  6
Continuous
100
AcDbLine
 10
82.38433800000001
 20
223.849283
 30
0.0
 11
82.38433800000001
 21
219.849283
 31
0.0
  0
LINE
  5
9A70
330
994D
100
AcDbEntity
  8
1
  6
Continuous
100
AcDbLine
 10
91.884338
 20
226.5492829999999
 30
0.0
 11
91.884338
 21
228.849283
 31
0.0
  0
CIRCLE
  5
9A71
330
994D
100
AcDbEntity
  8
1
  6
Continuous
100
AcDbCircle
 10
163.8843379999999
 20
176.349283
 30
0.0
 40
5.0
  0
ARC
  5
9A72
330
994D
100
AcDbEntity
  8
1
  6
Continuous
100
AcDbCircle
 10
287.384338
 20
228.9492829999999
 30
0.0
 40
5.099999999999997
100
AcDbArc
 50
208.072487
 51
270.0
  0
LINE
  5
9A73
330
994D
100
AcDbEntity
  8
1
  6
Continuous
100
AcDbLine
 10
341.884338
 20
228.849283
 30
0.0
 11
277.884338
 21
228.849283
 31
0.0
  0
LINE
  5
9A74
330
994D
100
AcDbEntity
  8
1
  6
Continuous
100
AcDbLine
 10
341.884338
 20
226.5492829999999
 30
0.0
 11
277.884338
 21
226.5492829999999
 31
0.0
  0
LINE
  5
9A75
330
994D
100
AcDbEntity
  8
1
  6
Continuous
100
AcDbLine
 10
297.384338
 20
205.778725
 30
0.0
 11
297.384338
 21
147.1565769999999
 31
0.0
  0
LINE
  5
9A76
330
994D
100
AcDbEntity
  8
1
  6
Continuous
100
AcDbLine
 10
322.384338
 20
205.778725
 30
0.0
 11
322.384338
 21
147.1565769999999
 31
0.0
  0
LINE
  5
9A77
330
994D
100
AcDbEntity
  8
4
  6
CENTER
100
AcDbLine
 10
309.884338
 20
231.849283
 30
0.0
 11
309.884338
 21
141.849283
 31
0.0
  0
ARC
  5
9A78
330
994D
100
AcDbEntity
  8
1
  6
Continuous
100
AcDbCircle
 10
309.884338
 20
293.849283
 30
0.0
 40
150.0
100
AcDbArc
 50
266.2946289999998
 51
273.705371
  0
ARC
  5
9A79
330
994D
100
AcDbEntity
  8
1
  6
Continuous
100
AcDbCircle
 10
319.384338
 20
147.1565769999999
 30
0.0
 40
3.0
100
AcDbArc
 50
273.705371
 51
0.0
  0
ARC
  5
9A7A
330
994D
100
AcDbEntity
  8
1
  6
Continuous
100
AcDbCircle
 10
300.384338
 20
147.1565769999999
 30
0.0
 40
3.0
100
AcDbArc
 50
180.0
 51
266.2946289999998
  0
LINE
  5
9A7B
330
994D
100
AcDbEntity
  8
1
  6
Continuous
100
AcDbLine
 10
284.884338
 20
216.849283
 30
0.0
 11
284.884338
 21
181.8083469999999
 31
0.0
  0
LINE
  5
9A7C
330
994D
100
AcDbEntity
  8
1
  6
Continuous
100
AcDbLine
 10
294.134338
 20
199.522162
 30
0.0
 11
294.134338
 21
165.599283
 31
0.0
  0
LINE
  5
9A7D
330
994D
100
AcDbEntity
  8
1
  6
Continuous
100
AcDbLine
 10
291.8343379999999
 20
167.599283
 30
0.0
 11
291.8343379999999
 21
165.599283
 31
0.0
  0
LINE
  5
9A7E
330
994D
100
AcDbEntity
  8
1
  6
Continuous
100
AcDbLine
 10
334.884338
 20
216.849283
 30
0.0
 11
334.884338
 21
181.8083469999999
 31
0.0
  0
LINE
  5
9A7F
330
994D
100
AcDbEntity
  8
1
  6
Continuous
100
AcDbLine
 10
325.634338
 20
165.599283
 30
0.0
 11
325.634338
 21
199.522162
 31
0.0
  0
LINE
  5
9A80
330
994D
100
AcDbEntity
  8
1
  6
Continuous
100
AcDbLine
 10
327.9343379999999
 20
167.599283
 30
0.0
 11
327.9343379999999
 21
165.599283
 31
0.0
  0
LINE
  5
9A81
330
994D
100
AcDbEntity
  8
4
  6
CENTER
100
AcDbLine
 10
334.9343379999999
 20
176.349283
 30
0.0
 11
286.834338
 21
176.349283
 31
0.0
  0
LINE
  5
9A82
330
994D
100
AcDbEntity
  8
1
  6
Continuous
100
AcDbLine
 10
324.9843379999999
 20
167.349283
 30
0.0
 11
324.9843379999999
 21
185.349283
 31
0.0
  0
ARC
  5
9A83
330
994D
100
AcDbEntity
  8
1
  6
Continuous
100
AcDbCircle
 10
316.884338
 20
181.8083469999999
 30
0.0
 40
18.0
100
AcDbArc
 50
307.871229
 51
0.0
  0
LINE
  5
9A84
330
994D
100
AcDbEntity
  8
1
  6
Continuous
100
AcDbLine
 10
325.634338
 20
172.349283
 30
0.0
 11
324.9843379999999
 21
172.349283
 31
0.0
  0
ARC
  5
9A85
330
994D
100
AcDbEntity
  8
1
  6
Continuous
100
AcDbCircle
 10
323.484338
 20
167.349283
 30
0.0
 40
1.5
100
AcDbArc
 50
270.0
 51
0.0
  0
LINE
  5
9A86
330
994D
100
AcDbEntity
  8
1
  6
Continuous
100
AcDbLine
 10
327.9343379999999
 20
165.599283
 30
0.0
 11
325.634338
 21
165.599283
 31
0.0
  0
LINE
  5
9A87
330
994D
100
AcDbEntity
  8
1
  6
Continuous
100
AcDbLine
 10
323.484338
 20
165.849283
 30
0.0
 11
322.384338
 21
165.849283
 31
0.0
  0
LINE
  5
9A88
330
994D
100
AcDbEntity
  8
1
  6
Continuous
100
AcDbLine
 10
325.634338
 20
180.349283
 30
0.0
 11
324.9843379999999
 21
180.349283
 31
0.0
  0
ARC
  5
9A89
330
994D
100
AcDbEntity
  8
1
  6
Continuous
100
AcDbCircle
 10
323.484338
 20
185.349283
 30
0.0
 40
1.5
100
AcDbArc
 50
0.0
 51
90.0
  0
LINE
  5
9A8A
330
994D
100
AcDbEntity
  8
1
  6
Continuous
100
AcDbLine
 10
323.484338
 20
186.849283
 30
0.0
 11
322.384338
 21
186.849283
 31
0.0
  0
LINE
  5
9A8B
330
994D
100
AcDbEntity
  8
1
  6
Continuous
100
AcDbLine
 10
294.784338
 20
167.349283
 30
0.0
 11
294.784338
 21
185.349283
 31
0.0
  0
ARC
  5
9A8C
330
994D
100
AcDbEntity
  8
1
  6
Continuous
100
AcDbCircle
 10
302.884338
 20
181.8083469999999
 30
0.0
 40
18.0
100
AcDbArc
 50
180.0
 51
232.128771
  0
LINE
  5
9A8D
330
994D
100
AcDbEntity
  8
1
  6
Continuous
100
AcDbLine
 10
294.134338
 20
165.599283
 30
0.0
 11
291.8343379999999
 21
165.599283
 31
0.0
  0
LINE
  5
9A8E
330
994D
100
AcDbEntity
  8
1
  6
Continuous
100
AcDbLine
 10
294.784338
 20
172.349283
 30
0.0
 11
294.134338
 21
172.349283
 31
0.0
  0
LINE
  5
9A8F
330
994D
100
AcDbEntity
  8
1
  6
Continuous
100
AcDbLine
 10
297.384338
 20
165.849283
 30
0.0
 11
296.2843379999998
 21
165.849283
 31
0.0
  0
ARC
  5
9A90
330
994D
100
AcDbEntity
  8
1
  6
Continuous
100
AcDbCircle
 10
296.2843379999998
 20
167.349283
 30
0.0
 40
1.5
100
AcDbArc
 50
180.0
 51
270.0
  0
LINE
  5
9A91
330
994D
100
AcDbEntity
  8
1
  6
Continuous
100
AcDbLine
 10
297.384338
 20
186.849283
 30
0.0
 11
296.2843379999998
 21
186.849283
 31
0.0
  0
ARC
  5
9A92
330
994D
100
AcDbEntity
  8
1
  6
Continuous
100
AcDbCircle
 10
296.2843379999998
 20
185.349283
 30
0.0
 40
1.5
100
AcDbArc
 50
90.0
 51
180.0
  0
LINE
  5
9A93
330
994D
100
AcDbEntity
  8
1
  6
Continuous
100
AcDbLine
 10
294.784338
 20
180.349283
 30
0.0
 11
294.134338
 21
180.349283
 31
0.0
  0
LINE
  5
9A94
330
994D
100
AcDbEntity
  8
1
  6
Continuous
100
AcDbLine
 10
314.7127649999998
 20
219.849283
 30
0.0
 11
312.7127649999998
 21
221.849283
 31
0.0
  0
LINE
  5
9A95
330
994D
100
AcDbEntity
  8
1
  6
Continuous
100
AcDbLine
 10
316.1269779999999
 20
219.849283
 30
0.0
 11
314.1269779999999
 21
221.849283
 31
0.0
  0
LINE
  5
9A96
330
994D
100
AcDbEntity
  8
1
  6
Continuous
100
AcDbLine
 10
313.5411919999999
 20
219.849283
 30
0.0
 11
315.5411919999999
 21
221.849283
 31
0.0
  0
LINE
  5
9A97
330
994D
100
AcDbEntity
  8
1
  6
Continuous
100
AcDbLine
 10
332.384338
 20
219.849283
 30
0.0
 11
287.384338
 21
219.849283
 31
0.0
  0
LINE
  5
9A98
330
994D
100
AcDbEntity
  8
1
  6
Continuous
100
AcDbLine
 10
332.384338
 20
221.849283
 30
0.0
 11
287.384338
 21
221.849283
 31
0.0
  0
LINE
  5
9A99
330
994D
100
AcDbEntity
  8
1
  6
Continuous
100
AcDbLine
 10
332.384338
 20
223.849283
 30
0.0
 11
287.384338
 21
223.849283
 31
0.0
  0
ARC
  5
9A9A
330
994D
100
AcDbEntity
  8
1
  6
Continuous
100
AcDbCircle
 10
309.884338
 20
58.84928299999999
 30
0.0
 40
150.0
100
AcDbArc
 50
85.79771200000001
 51
94.202288
  0
LINE
  5
9A9B
330
994D
100
AcDbEntity
  8
1
  6
Continuous
100
AcDbLine
 10
331.6833279999999
 20
219.849283
 30
0.0
 11
329.6833279999999
 21
221.849283
 31
0.0
  0
LINE
  5
9A9C
330
994D
100
AcDbEntity
  8
1
  6
Continuous
100
AcDbLine
 10
329.0975409999999
 20
219.849283
 30
0.0
 11
331.0975409999999
 21
221.849283
 31
0.0
  0
LINE
  5
9A9D
330
994D
100
AcDbEntity
  8
1
  6
Continuous
100
AcDbLine
 10
341.884338
 20
226.5492829999999
 30
0.0
 11
341.884338
 21
228.849283
 31
0.0
  0
LINE
  5
9A9E
330
994D
100
AcDbEntity
  8
1
  6
Continuous
100
AcDbLine
 10
332.384338
 20
223.849283
 30
0.0
 11
332.384338
 21
219.849283
 31
0.0
  0
LINE
  5
9A9F
330
994D
100
AcDbEntity
  8
1
  6
Continuous
100
AcDbLine
 10
332.384338
 20
220.562487
 30
0.0
 11
331.0975409999999
 21
221.849283
 31
0.0
  0
LINE
  5
9AA0
330
994D
100
AcDbEntity
  8
1
  6
Continuous
100
AcDbLine
 10
332.384338
 20
221.7218659999999
 30
0.0
 11
330.5117549999998
 21
219.849283
 31
0.0
  0
LINE
  5
9AA1
330
994D
100
AcDbEntity
  8
1
  6
Continuous
100
AcDbLine
 10
332.384338
 20
220.307653
 30
0.0
 11
331.925968
 21
219.849283
 31
0.0
  0
ARC
  5
9AA2
330
994D
100
AcDbEntity
  8
1
  6
Continuous
100
AcDbCircle
 10
331.884338
 20
216.849283
 30
0.0
 40
3.0
100
AcDbArc
 50
0.0
 51
90.0
  0
LINE
  5
9AA3
330
994D
100
AcDbEntity
  8
4
  6
CENTER
100
AcDbLine
 10
334.884338
 20
231.849283
 30
0.0
 11
334.884338
 21
223.549283
 31
0.0
  0
ARC
  5
9AA4
330
994D
100
AcDbEntity
  8
1
  6
Continuous
100
AcDbCircle
 10
332.384338
 20
228.9492829999999
 30
0.0
 40
5.099999999999997
100
AcDbArc
 50
270.0
 51
331.9275129999998
  0
LINE
  5
9AA5
330
994D
100
AcDbEntity
  8
1
  6
Continuous
100
AcDbLine
 10
326.026473
 20
219.849283
 30
0.0
 11
324.026473
 21
221.849283
 31
0.0
  0
LINE
  5
9AA6
330
994D
100
AcDbEntity
  8
1
  6
Continuous
100
AcDbLine
 10
323.440687
 20
219.849283
 30
0.0
 11
325.440687
 21
221.849283
 31
0.0
  0
LINE
  5
9AA7
330
994D
100
AcDbEntity
  8
1
  6
Continuous
100
AcDbLine
 10
324.854901
 20
219.849283
 30
0.0
 11
326.854901
 21
221.849283
 31
0.0
  0
LINE
  5
9AA8
330
994D
100
AcDbEntity
  8
1
  6
Continuous
100
AcDbLine
 10
327.440687
 20
219.849283
 30
0.0
 11
325.440687
 21
221.849283
 31
0.0
  0
LINE
  5
9AA9
330
994D
100
AcDbEntity
  8
1
  6
Continuous
100
AcDbLine
 10
328.854901
 20
219.849283
 30
0.0
 11
326.854901
 21
221.849283
 31
0.0
  0
LINE
  5
9AAA
330
994D
100
AcDbEntity
  8
1
  6
Continuous
100
AcDbLine
 10
326.269114
 20
219.849283
 30
0.0
 11
328.269114
 21
221.849283
 31
0.0
  0
LINE
  5
9AAB
330
994D
100
AcDbEntity
  8
1
  6
Continuous
100
AcDbLine
 10
330.269114
 20
219.849283
 30
0.0
 11
328.269114
 21
221.849283
 31
0.0
  0
LINE
  5
9AAC
330
994D
100
AcDbEntity
  8
1
  6
Continuous
100
AcDbLine
 10
327.6833279999999
 20
219.849283
 30
0.0
 11
329.6833279999999
 21
221.849283
 31
0.0
  0
LINE
  5
9AAD
330
994D
100
AcDbEntity
  8
1
  6
Continuous
100
AcDbLine
 10
324.61226
 20
219.849283
 30
0.0
 11
322.61226
 21
221.849283
 31
0.0
  0
LINE
  5
9AAE
330
994D
100
AcDbEntity
  8
1
  6
Continuous
100
AcDbLine
 10
322.026473
 20
219.849283
 30
0.0
 11
324.026473
 21
221.849283
 31
0.0
  0
LINE
  5
9AAF
330
994D
100
AcDbEntity
  8
1
  6
Continuous
100
AcDbLine
 10
318.9554059999999
 20
219.849283
 30
0.0
 11
316.9554059999999
 21
221.849283
 31
0.0
  0
LINE
  5
9AB0
330
994D
100
AcDbEntity
  8
1
  6
Continuous
100
AcDbLine
 10
320.369619
 20
219.849283
 30
0.0
 11
318.369619
 21
221.849283
 31
0.0
  0
LINE
  5
9AB1
330
994D
100
AcDbEntity
  8
1
  6
Continuous
100
AcDbLine
 10
317.783833
 20
219.849283
 30
0.0
 11
319.783833
 21
221.849283
 31
0.0
  0
LINE
  5
9AB2
330
994D
100
AcDbEntity
  8
1
  6
Continuous
100
AcDbLine
 10
319.1980459999999
 20
219.849283
 30
0.0
 11
321.1980459999999
 21
221.849283
 31
0.0
  0
LINE
  5
9AB3
330
994D
100
AcDbEntity
  8
1
  6
Continuous
100
AcDbLine
 10
317.5411919999999
 20
219.849283
 30
0.0
 11
315.5411919999999
 21
221.849283
 31
0.0
  0
LINE
  5
9AB4
330
994D
100
AcDbEntity
  8
1
  6
Continuous
100
AcDbLine
 10
314.9554059999999
 20
219.849283
 30
0.0
 11
316.9554059999999
 21
221.849283
 31
0.0
  0
LINE
  5
9AB5
330
994D
100
AcDbEntity
  8
1
  6
Continuous
100
AcDbLine
 10
316.369619
 20
219.849283
 30
0.0
 11
318.369619
 21
221.849283
 31
0.0
  0
LINE
  5
9AB6
330
994D
100
AcDbEntity
  8
1
  6
Continuous
100
AcDbLine
 10
323.1980459999999
 20
219.849283
 30
0.0
 11
321.1980459999999
 21
221.849283
 31
0.0
  0
LINE
  5
9AB7
330
994D
100
AcDbEntity
  8
1
  6
Continuous
100
AcDbLine
 10
321.783833
 20
219.849283
 30
0.0
 11
319.783833
 21
221.849283
 31
0.0
  0
LINE
  5
9AB8
330
994D
100
AcDbEntity
  8
1
  6
Continuous
100
AcDbLine
 10
320.61226
 20
219.849283
 30
0.0
 11
322.61226
 21
221.849283
 31
0.0
  0
LINE
  5
9AB9
330
994D
100
AcDbEntity
  8
1
  6
Continuous
100
AcDbLine
 10
299.1564159999999
 20
219.849283
 30
0.0
 11
297.1564159999999
 21
221.849283
 31
0.0
  0
LINE
  5
9ABA
330
994D
100
AcDbEntity
  8
1
  6
Continuous
100
AcDbLine
 10
297.984843
 20
219.849283
 30
0.0
 11
299.984843
 21
221.849283
 31
0.0
  0
LINE
  5
9ABB
330
994D
100
AcDbEntity
  8
1
  6
Continuous
100
AcDbLine
 10
296.5706289999999
 20
219.849283
 30
0.0
 11
298.5706289999999
 21
221.849283
 31
0.0
  0
LINE
  5
9ABC
330
994D
100
AcDbEntity
  8
1
  6
Continuous
100
AcDbLine
 10
310.470124
 20
219.849283
 30
0.0
 11
308.470124
 21
221.849283
 31
0.0
  0
LINE
  5
9ABD
330
994D
100
AcDbEntity
  8
1
  6
Continuous
100
AcDbLine
 10
307.884338
 20
219.849283
 30
0.0
 11
309.884338
 21
221.849283
 31
0.0
  0
LINE
  5
9ABE
330
994D
100
AcDbEntity
  8
1
  6
Continuous
100
AcDbLine
 10
311.884338
 20
219.849283
 30
0.0
 11
309.884338
 21
221.849283
 31
0.0
  0
LINE
  5
9ABF
330
994D
100
AcDbEntity
  8
1
  6
Continuous
100
AcDbLine
 10
309.2985509999999
 20
219.849283
 30
0.0
 11
311.2985509999999
 21
221.849283
 31
0.0
  0
LINE
  5
9AC0
330
994D
100
AcDbEntity
  8
1
  6
Continuous
100
AcDbLine
 10
313.2985509999999
 20
219.849283
 30
0.0
 11
311.2985509999999
 21
221.849283
 31
0.0
  0
LINE
  5
9AC1
330
994D
100
AcDbEntity
  8
1
  6
Continuous
100
AcDbLine
 10
310.7127649999998
 20
219.849283
 30
0.0
 11
312.7127649999998
 21
221.849283
 31
0.0
  0
LINE
  5
9AC2
330
994D
100
AcDbEntity
  8
1
  6
Continuous
100
AcDbLine
 10
312.1269779999999
 20
219.849283
 30
0.0
 11
314.1269779999999
 21
221.849283
 31
0.0
  0
LINE
  5
9AC3
330
994D
100
AcDbEntity
  8
1
  6
Continuous
100
AcDbLine
 10
307.641697
 20
219.849283
 30
0.0
 11
305.641697
 21
221.849283
 31
0.0
  0
LINE
  5
9AC4
330
994D
100
AcDbEntity
  8
1
  6
Continuous
100
AcDbLine
 10
309.055911
 20
219.849283
 30
0.0
 11
307.055911
 21
221.849283
 31
0.0
  0
LINE
  5
9AC5
330
994D
100
AcDbEntity
  8
1
  6
Continuous
100
AcDbLine
 10
306.470124
 20
219.849283
 30
0.0
 11
308.470124
 21
221.849283
 31
0.0
  0
LINE
  5
9AC6
330
994D
100
AcDbEntity
  8
1
  6
Continuous
100
AcDbLine
 10
303.3990559999999
 20
219.849283
 30
0.0
 11
301.3990559999998
 21
221.849283
 31
0.0
  0
LINE
  5
9AC7
330
994D
100
AcDbEntity
  8
1
  6
Continuous
100
AcDbLine
 10
302.227484
 20
219.849283
 30
0.0
 11
304.227484
 21
221.849283
 31
0.0
  0
LINE
  5
9AC8
330
994D
100
AcDbEntity
  8
1
  6
Continuous
100
AcDbLine
 10
300.8132699999999
 20
219.849283
 30
0.0
 11
302.81327
 21
221.849283
 31
0.0
  0
LINE
  5
9AC9
330
994D
100
AcDbEntity
  8
1
  6
Continuous
100
AcDbLine
 10
304.81327
 20
219.849283
 30
0.0
 11
302.81327
 21
221.849283
 31
0.0
  0
LINE
  5
9ACA
330
994D
100
AcDbEntity
  8
1
  6
Continuous
100
AcDbLine
 10
301.984843
 20
219.849283
 30
0.0
 11
299.984843
 21
221.849283
 31
0.0
  0
LINE
  5
9ACB
330
994D
100
AcDbEntity
  8
1
  6
Continuous
100
AcDbLine
 10
300.570629
 20
219.849283
 30
0.0
 11
298.5706289999999
 21
221.849283
 31
0.0
  0
LINE
  5
9ACC
330
994D
100
AcDbEntity
  8
1
  6
Continuous
100
AcDbLine
 10
299.3990559999998
 20
219.849283
 30
0.0
 11
301.3990559999998
 21
221.849283
 31
0.0
  0
LINE
  5
9ACD
330
994D
100
AcDbEntity
  8
1
  6
Continuous
100
AcDbLine
 10
305.055911
 20
219.849283
 30
0.0
 11
307.055911
 21
221.849283
 31
0.0
  0
LINE
  5
9ACE
330
994D
100
AcDbEntity
  8
1
  6
Continuous
100
AcDbLine
 10
306.227484
 20
219.849283
 30
0.0
 11
304.227484
 21
221.849283
 31
0.0
  0
LINE
  5
9ACF
330
994D
100
AcDbEntity
  8
1
  6
Continuous
100
AcDbLine
 10
303.641697
 20
219.849283
 30
0.0
 11
305.641697
 21
221.849283
 31
0.0
  0
LINE
  5
9AD0
330
994D
100
AcDbEntity
  8
1
  6
Continuous
100
AcDbLine
 10
294.9137749999998
 20
219.849283
 30
0.0
 11
292.9137749999998
 21
221.849283
 31
0.0
  0
LINE
  5
9AD1
330
994D
100
AcDbEntity
  8
1
  6
Continuous
100
AcDbLine
 10
292.3279889999998
 20
219.849283
 30
0.0
 11
294.3279889999999
 21
221.849283
 31
0.0
  0
LINE
  5
9AD2
330
994D
100
AcDbEntity
  8
1
  6
Continuous
100
AcDbLine
 10
293.4995609999999
 20
219.849283
 30
0.0
 11
291.4995609999999
 21
221.849283
 31
0.0
  0
LINE
  5
9AD3
330
994D
100
AcDbEntity
  8
1
  6
Continuous
100
AcDbLine
 10
293.7422019999999
 20
219.849283
 30
0.0
 11
295.742202
 21
221.849283
 31
0.0
  0
LINE
  5
9AD4
330
994D
100
AcDbEntity
  8
1
  6
Continuous
100
AcDbLine
 10
297.742202
 20
219.849283
 30
0.0
 11
295.742202
 21
221.849283
 31
0.0
  0
LINE
  5
9AD5
330
994D
100
AcDbEntity
  8
1
  6
Continuous
100
AcDbLine
 10
296.3279889999999
 20
219.849283
 30
0.0
 11
294.3279889999999
 21
221.849283
 31
0.0
  0
LINE
  5
9AD6
330
994D
100
AcDbEntity
  8
1
  6
Continuous
100
AcDbLine
 10
295.1564159999999
 20
219.849283
 30
0.0
 11
297.1564159999999
 21
221.849283
 31
0.0
  0
LINE
  5
9AD7
330
994D
100
AcDbEntity
  8
1
  6
Continuous
100
AcDbLine
 10
289.4995609999999
 20
219.849283
 30
0.0
 11
291.4995609999999
 21
221.849283
 31
0.0
  0
LINE
  5
9AD8
330
994D
100
AcDbEntity
  8
1
  6
Continuous
100
AcDbLine
 10
292.085348
 20
219.849283
 30
0.0
 11
290.085348
 21
221.849283
 31
0.0
  0
LINE
  5
9AD9
330
994D
100
AcDbEntity
  8
1
  6
Continuous
100
AcDbLine
 10
290.9137749999998
 20
219.849283
 30
0.0
 11
292.9137749999998
 21
221.849283
 31
0.0
  0
LINE
  5
9ADA
330
994D
100
AcDbEntity
  8
1
  6
Continuous
100
AcDbLine
 10
287.384338
 20
223.849283
 30
0.0
 11
287.384338
 21
219.849283
 31
0.0
  0
LINE
  5
9ADB
330
994D
100
AcDbEntity
  8
1
  6
Continuous
100
AcDbLine
 10
287.8427069999998
 20
219.849283
 30
0.0
 11
287.384338
 21
220.307653
 31
0.0
  0
LINE
  5
9ADC
330
994D
100
AcDbEntity
  8
1
  6
Continuous
100
AcDbLine
 10
289.2569209999999
 20
219.849283
 30
0.0
 11
287.384338
 21
221.7218659999999
 31
0.0
  0
LINE
  5
9ADD
330
994D
100
AcDbEntity
  8
1
  6
Continuous
100
AcDbLine
 10
287.384338
 20
220.562487
 30
0.0
 11
288.671134
 21
221.849283
 31
0.0
  0
ARC
  5
9ADE
330
994D
100
AcDbEntity
  8
1
  6
Continuous
100
AcDbCircle
 10
287.884338
 20
216.849283
 30
0.0
 40
3.0
100
AcDbArc
 50
90.0
 51
180.0
  0
LINE
  5
9ADF
330
994D
100
AcDbEntity
  8
4
  6
CENTER
100
AcDbLine
 10
284.884338
 20
231.849283
 30
0.0
 11
284.884338
 21
223.549283
 31
0.0
  0
LINE
  5
9AE0
330
994D
100
AcDbEntity
  8
1
  6
Continuous
100
AcDbLine
 10
290.671134
 20
219.849283
 30
0.0
 11
288.671134
 21
221.849283
 31
0.0
  0
LINE
  5
9AE1
330
994D
100
AcDbEntity
  8
1
  6
Continuous
100
AcDbLine
 10
288.085348
 20
219.849283
 30
0.0
 11
290.085348
 21
221.849283
 31
0.0
  0
LINE
  5
9AE2
330
994D
100
AcDbEntity
  8
1
  6
Continuous
100
AcDbLine
 10
277.884338
 20
226.5492829999999
 30
0.0
 11
277.884338
 21
228.849283
 31
0.0
  0
LINE
  5
9AE3
330
994D
100
AcDbEntity
  8
4
  6
CENTER
100
AcDbLine
 10
216.1343379999999
 20
54.22111799999999
 30
0.0
 11
203.6343379999999
 21
54.22111799999999
 31
0.0
  0
ARC
  5
9AE4
330
994D
100
AcDbEntity
  8
1
  6
Continuous
100
AcDbCircle
 10
210.8843379999999
 20
53.221118
 30
0.0
 40
6.0
100
AcDbArc
 50
270.0
 51
0.0
  0
LINE
  5
9AE5
330
994D
100
AcDbEntity
  8
4
  6
CENTER
100
AcDbLine
 10
216.1343379999999
 20
104.221118
 30
0.0
 11
203.6343379999999
 21
104.221118
 31
0.0
  0
ARC
  5
9AE6
330
994D
100
AcDbEntity
  8
1
  6
Continuous
100
AcDbCircle
 10
210.8843379999999
 20
105.221118
 30
0.0
 40
6.0
100
AcDbArc
 50
0.0
 51
90.0
  0
LINE
  5
9AE7
330
994D
100
AcDbEntity
  8
4
  6
CENTER
100
AcDbLine
 10
219.884338
 20
79.221118
 30
0.0
 11
129.3843379999999
 21
79.221118
 31
0.0
  0
ARC
  5
9AE8
330
994D
100
AcDbEntity
  8
1
  6
Continuous
100
AcDbCircle
 10
281.384338
 20
79.221118
 30
0.0
 40
150.0
100
AcDbArc
 50
176.2946289999999
 51
183.7053709999999
  0
ARC
  5
9AE9
330
994D
100
AcDbEntity
  8
1
  6
Continuous
100
AcDbCircle
 10
134.691632
 20
88.721118
 30
0.0
 40
3.0
100
AcDbArc
 50
90.0
 51
176.2946289999999
  0
ARC
  5
9AEA
330
994D
100
AcDbEntity
  8
1
  6
Continuous
100
AcDbCircle
 10
134.691632
 20
69.721118
 30
0.0
 40
3.0
100
AcDbArc
 50
183.7053709999999
 51
270.0
  0
LINE
  5
9AEB
330
994D
100
AcDbEntity
  8
1
  6
Continuous
100
AcDbLine
 10
152.8843379999998
 20
53.221118
 30
0.0
 11
152.8843379999998
 21
66.721118
 31
0.0
  0
LINE
  5
9AEC
330
994D
100
AcDbEntity
  8
4
  6
CENTER
100
AcDbLine
 10
184.8843379999999
 20
44.22111799999998
 30
0.0
 11
184.8843379999999
 21
114.2211179999998
 31
0.0
  0
LINE
  5
9AED
330
994D
100
AcDbEntity
  8
1
  6
Continuous
100
AcDbLine
 10
158.8843379999999
 20
111.2211179999998
 30
0.0
 11
210.8843379999999
 21
111.2211179999998
 31
0.0
  0
LINE
  5
9AEE
330
994D
100
AcDbEntity
  8
4
  6
CENTER
100
AcDbLine
 10
159.8843379999999
 20
110.471118
 30
0.0
 11
159.8843379999999
 21
97.97111800000001
 31
0.0
  0
ARC
  5
9AEF
330
994D
100
AcDbEntity
  8
1
  6
Continuous
100
AcDbCircle
 10
158.8843379999999
 20
105.221118
 30
0.0
 40
6.0
100
AcDbArc
 50
90.0
 51
180.0
  0
CIRCLE
  5
9AF0
330
994D
100
AcDbEntity
  8
1
  6
Continuous
100
AcDbCircle
 10
159.8843379999999
 20
104.221118
 30
0.0
 40
3.25
  0
LINE
  5
9AF1
330
994D
100
AcDbEntity
  8
4
  6
CENTER
100
AcDbLine
 10
166.1343379999999
 20
104.221118
 30
0.0
 11
153.6343379999999
 21
104.221118
 31
0.0
  0
LINE
  5
9AF2
330
994D
100
AcDbEntity
  8
4
  6
CENTER
100
AcDbLine
 10
209.8843379999999
 20
110.471118
 30
0.0
 11
209.8843379999999
 21
97.97111800000001
 31
0.0
  0
CIRCLE
  5
9AF3
330
994D
100
AcDbEntity
  8
1
  6
Continuous
100
AcDbCircle
 10
209.8843379999999
 20
104.221118
 30
0.0
 40
3.25
  0
LINE
  5
9AF4
330
994D
100
AcDbEntity
  8
1
  6
Continuous
100
AcDbLine
 10
210.8843379999999
 20
47.22111799999999
 30
0.0
 11
158.8843379999999
 21
47.22111799999999
 31
0.0
  0
CIRCLE
  5
9AF5
330
994D
100
AcDbEntity
  8
1
  6
Continuous
100
AcDbCircle
 10
159.8843379999999
 20
54.22111799999999
 30
0.0
 40
3.25
  0
LINE
  5
9AF6
330
994D
100
AcDbEntity
  8
4
  6
CENTER
100
AcDbLine
 10
159.8843379999999
 20
60.47111799999999
 30
0.0
 11
159.8843379999999
 21
47.97111799999998
 31
0.0
  0
LINE
  5
9AF7
330
994D
100
AcDbEntity
  8
4
  6
CENTER
100
AcDbLine
 10
166.1343379999999
 20
54.22111799999999
 30
0.0
 11
153.6343379999999
 21
54.22111799999999
 31
0.0
  0
ARC
  5
9AF8
330
994D
100
AcDbEntity
  8
1
  6
Continuous
100
AcDbCircle
 10
158.8843379999999
 20
53.221118
 30
0.0
 40
6.0
100
AcDbArc
 50
180.0
 51
270.0
  0
LINE
  5
9AF9
330
994D
100
AcDbEntity
  8
4
  6
CENTER
100
AcDbLine
 10
209.8843379999999
 20
60.47111799999999
 30
0.0
 11
209.8843379999999
 21
47.97111799999998
 31
0.0
  0
CIRCLE
  5
9AFA
330
994D
100
AcDbEntity
  8
1
  6
Continuous
100
AcDbCircle
 10
209.8843379999999
 20
54.22111799999999
 30
0.0
 40
3.25
  0
LINE
  5
9AFB
330
994D
100
AcDbEntity
  8
1
  6
Continuous
100
AcDbLine
 10
216.8843379999999
 20
105.221118
 30
0.0
 11
216.8843379999999
 21
53.221118
 31
0.0
  0
ARC
  5
9AFC
330
994D
100
AcDbEntity
  8
1
  6
Continuous
100
AcDbCircle
 10
177.561837
 20
120.503449
 30
0.0
 40
168.845076
100
AcDbArc
 50
22.10150399999999
 51
31.667971
  0
ARC
  5
9AFD
330
994D
100
AcDbEntity
  8
1
  6
Continuous
100
AcDbCircle
 10
442.2068389999998
 20
120.503449
 30
0.0
 40
168.845076
100
AcDbArc
 50
148.3320289999998
 51
157.8984959999999
  0
ARC
  5
9AFE
330
994D
100
AcDbEntity
  8
1
  6
Continuous
100
AcDbCircle
 10
329.9343379999999
 20
165.9986189999998
 30
0.0
 40
4.299999999999998
100
AcDbArc
 50
129.5376679999999
 51
180.0
  0
ARC
  5
9AFF
330
994D
100
AcDbEntity
  8
1
  6
Continuous
100
AcDbCircle
 10
313.0715169999998
 20
184.48582
 30
0.0
 40
20.728954
100
AcDbArc
 50
311.781926
 51
340.101046
  0
ARC
  5
9B00
330
994D
100
AcDbEntity
  8
1
  6
Continuous
100
AcDbCircle
 10
324.73478
 20
180.268683
 30
0.0
 40
10.0
100
AcDbArc
 50
348.9037369999999
 51
22.10150399999999
  0
ARC
  5
9B01
330
994D
100
AcDbEntity
  8
1
  6
Continuous
100
AcDbCircle
 10
306.697159
 20
184.48582
 30
0.0
 40
20.728954
100
AcDbArc
 50
200.3067139999998
 51
228.218074
  0
ARC
  5
9B02
330
994D
100
AcDbEntity
  8
1
  6
Continuous
100
AcDbCircle
 10
289.834338
 20
165.9986189999998
 30
0.0
 40
4.299999999999998
100
AcDbArc
 50
0.0
 51
50.462332
  0
ARC
  5
9B03
330
994D
100
AcDbEntity
  8
1
  6
Continuous
100
AcDbCircle
 10
184.8843379999999
 20
79.221118
 30
0.0
 40
25.0
100
AcDbArc
 50
233.2667379999999
 51
126.7332619999999
  0
LINE
  5
9B04
330
994D
100
AcDbEntity
  8
1
  6
Continuous
100
AcDbLine
 10
153.3843379999999
 20
91.72111800000001
 30
0.0
 11
153.3843379999999
 21
92.821118
 31
0.0
  0
ARC
  5
9B05
330
994D
100
AcDbEntity
  8
1
  6
Continuous
100
AcDbCircle
 10
154.8843379999999
 20
92.821118
 30
0.0
 40
1.5
100
AcDbArc
 50
90.0
 51
180.0
  0
LINE
  5
9B06
330
994D
100
AcDbEntity
  8
1
  6
Continuous
100
AcDbLine
 10
172.8843379999999
 20
94.32111799999999
 30
0.0
 11
154.8843379999999
 21
94.32111799999999
 31
0.0
  0
LINE
  5
9B07
330
994D
100
AcDbEntity
  8
1
  6
Continuous
100
AcDbLine
 10
159.8843379999999
 20
94.32111799999999
 30
0.0
 11
159.8843379999999
 21
94.971118
 31
0.0
  0
LINE
  5
9B08
330
994D
100
AcDbEntity
  8
1
  6
Continuous
100
AcDbLine
 10
167.8843379999999
 20
94.32111799999999
 30
0.0
 11
167.8843379999999
 21
95.616926
 31
0.0
  0
LINE
  5
9B09
330
994D
100
AcDbEntity
  8
1
  6
Continuous
100
AcDbLine
 10
174.3843379999999
 20
91.72111800000001
 30
0.0
 11
174.3843379999999
 21
92.821118
 31
0.0
  0
ARC
  5
9B0A
330
994D
100
AcDbEntity
  8
1
  6
Continuous
100
AcDbCircle
 10
172.8843379999999
 20
92.821118
 30
0.0
 40
1.5
100
AcDbArc
 50
0.0
 51
90.0
  0
LINE
  5
9B0B
330
994D
100
AcDbEntity
  8
1
  6
Continuous
100
AcDbLine
 10
158.8843379999999
 20
98.271118
 30
0.0
 11
168.310069
 21
98.271118
 31
0.0
  0
ARC
  5
9B0C
330
994D
100
AcDbEntity
  8
1
  6
Continuous
100
AcDbCircle
 10
163.8843379999999
 20
86.27111799999999
 30
0.0
 40
13.0
100
AcDbArc
 50
68.895971
 51
112.6198649999998
  0
LINE
  5
9B0D
330
994D
100
AcDbEntity
  8
1
  6
Continuous
100
AcDbLine
 10
158.8843379999999
 20
97.27111800000001
 30
0.0
 11
158.8843379999999
 21
98.271118
 31
0.0
  0
LINE
  5
9B0E
330
994D
100
AcDbEntity
  8
4
  6
CENTER
100
AcDbLine
 10
163.8843379999999
 20
44.22111799999998
 30
0.0
 11
163.8843379999999
 21
114.2211179999998
 31
0.0
  0
ARC
  5
9B0F
330
994D
100
AcDbEntity
  8
1
  6
Continuous
100
AcDbCircle
 10
46.384338
 20
79.221118
 30
0.0
 40
150.0
100
AcDbArc
 50
356.2946289999999
 51
3.705370999999998
  0
ARC
  5
9B10
330
994D
100
AcDbEntity
  8
1
  6
Continuous
100
AcDbCircle
 10
193.077044
 20
88.721118
 30
0.0
 40
3.0
100
AcDbArc
 50
3.705370999999998
 51
90.0
  0
LINE
  5
9B11
330
994D
100
AcDbEntity
  8
1
  6
Continuous
100
AcDbLine
 10
134.691632
 20
66.721118
 30
0.0
 11
193.077044
 21
66.721118
 31
0.0
  0
ARC
  5
9B12
330
994D
100
AcDbEntity
  8
1
  6
Continuous
100
AcDbCircle
 10
193.077044
 20
69.721118
 30
0.0
 40
3.0
100
AcDbArc
 50
270.0
 51
356.2946289999999
  0
LINE
  5
9B13
330
994D
100
AcDbEntity
  8
1
  6
Continuous
100
AcDbLine
 10
134.691632
 20
91.72111800000001
 30
0.0
 11
193.077044
 21
91.72111800000001
 31
0.0
  0
LINE
  5
9B14
330
994D
100
AcDbEntity
  8
1
  6
Continuous
100
AcDbLine
 10
163.9511699999999
 20
94.971118
 30
0.0
 11
153.637179
 21
94.971118
 31
0.0
  0
LINE
  5
9B15
330
994D
100
AcDbEntity
  8
1
  6
Continuous
100
AcDbLine
 10
163.9511699999999
 20
97.27111800000001
 30
0.0
 11
153.637179
 21
97.27111800000001
 31
0.0
  0
LINE
  5
9B16
330
994D
100
AcDbEntity
  8
1
  6
Continuous
100
AcDbLine
 10
153.637179
 20
97.27111800000001
 30
0.0
 11
153.637179
 21
94.971118
 31
0.0
  0
ARC
  5
9B17
330
994D
100
AcDbEntity
  8
1
  6
Continuous
100
AcDbCircle
 10
163.9511699999999
 20
107.2711179999999
 30
0.0
 40
10.0
100
AcDbArc
 50
270.0
 51
306.733262
  0
ARC
  5
9B18
330
994D
100
AcDbEntity
  8
1
  6
Continuous
100
AcDbCircle
 10
163.9511699999999
 20
107.2711179999999
 30
0.0
 40
12.3
100
AcDbArc
 50
270.0
 51
306.733262
  0
ARC
  5
9B19
330
994D
100
AcDbEntity
  8
1
  6
Continuous
100
AcDbCircle
 10
184.8843379999999
 20
79.221118
 30
0.0
 40
22.7
100
AcDbArc
 50
233.2667379999999
 51
126.7332619999999
  0
LINE
  5
9B1A
330
994D
100
AcDbEntity
  8
1
  6
Continuous
100
AcDbLine
 10
172.8843379999999
 20
64.12111800000001
 30
0.0
 11
154.8843379999999
 21
64.12111800000001
 31
0.0
  0
LINE
  5
9B1B
330
994D
100
AcDbEntity
  8
1
  6
Continuous
100
AcDbLine
 10
167.8843379999999
 20
62.82530999999998
 30
0.0
 11
167.8843379999999
 21
64.12111800000001
 31
0.0
  0
ARC
  5
9B1C
330
994D
100
AcDbEntity
  8
1
  6
Continuous
100
AcDbCircle
 10
172.8843379999999
 20
65.62111800000001
 30
0.0
 40
1.5
100
AcDbArc
 50
270.0
 51
0.0
  0
LINE
  5
9B1D
330
994D
100
AcDbEntity
  8
1
  6
Continuous
100
AcDbLine
 10
174.3843379999999
 20
65.62111800000001
 30
0.0
 11
174.3843379999999
 21
66.721118
 31
0.0
  0
LINE
  5
9B1E
330
994D
100
AcDbEntity
  8
1
  6
Continuous
100
AcDbLine
 10
159.8843379999999
 20
63.471118
 30
0.0
 11
159.8843379999999
 21
64.12111800000001
 31
0.0
  0
ARC
  5
9B1F
330
994D
100
AcDbEntity
  8
1
  6
Continuous
100
AcDbCircle
 10
154.8843379999999
 20
65.62111800000001
 30
0.0
 40
1.5
100
AcDbArc
 50
180.0
 51
270.0
  0
LINE
  5
9B20
330
994D
100
AcDbEntity
  8
1
  6
Continuous
100
AcDbLine
 10
153.3843379999999
 20
65.62111800000001
 30
0.0
 11
153.3843379999999
 21
66.721118
 31
0.0
  0
ARC
  5
9B21
330
994D
100
AcDbEntity
  8
1
  6
Continuous
100
AcDbCircle
 10
163.8843379999999
 20
65.17111800000001
 30
0.0
 40
8.0
100
AcDbArc
 50
224.0486259999999
 51
314.687856
  0
LINE
  5
9B22
330
994D
100
AcDbEntity
  8
1
  6
Continuous
100
AcDbLine
 10
158.1343379999998
 20
59.60896899999998
 30
0.0
 11
169.317982
 21
59.60896899999998
 31
0.0
  0
LINE
  5
9B23
330
994D
100
AcDbEntity
  8
1
  6
Continuous
100
AcDbLine
 10
158.1343379999998
 20
59.60896899999998
 30
0.0
 11
158.1343379999998
 21
61.171118
 31
0.0
  0
ARC
  5
9B24
330
994D
100
AcDbEntity
  8
1
  6
Continuous
100
AcDbCircle
 10
163.9511699999999
 20
51.17111799999999
 30
0.0
 40
12.3
100
AcDbArc
 50
53.26673800000001
 51
90.0
  0
ARC
  5
9B25
330
994D
100
AcDbEntity
  8
1
  6
Continuous
100
AcDbCircle
 10
163.9511699999999
 20
51.17111799999999
 30
0.0
 40
10.0
100
AcDbArc
 50
53.26673800000001
 51
90.0
  0
LINE
  5
9B26
330
994D
100
AcDbEntity
  8
1
  6
Continuous
100
AcDbLine
 10
163.9511699999999
 20
63.471118
 30
0.0
 11
153.637179
 21
63.471118
 31
0.0
  0
LINE
  5
9B27
330
994D
100
AcDbEntity
  8
1
  6
Continuous
100
AcDbLine
 10
163.9511699999999
 20
61.171118
 30
0.0
 11
153.637179
 21
61.171118
 31
0.0
  0
LINE
  5
9B28
330
994D
100
AcDbEntity
  8
1
  6
Continuous
100
AcDbLine
 10
153.637179
 20
61.171118
 30
0.0
 11
153.637179
 21
63.471118
 31
0.0
  0
ARC
  5
9B29
330
994D
100
AcDbEntity
  8
1
  6
Continuous
100
AcDbCircle
 10
309.884338
 20
193.541435
 30
0.0
 40
19.807848
100
AcDbArc
 50
61.23054299999999
 51
118.769457
  0
ARC
  5
9B2A
330
994D
100
AcDbEntity
  8
1
  6
Continuous
100
AcDbCircle
 10
302.757521
 20
206.521452
 30
0.0
 40
5.0
100
AcDbArc
 50
118.769457
 51
148.3320289999998
  0
ARC
  5
9B2B
330
994D
100
AcDbEntity
  8
1
  6
Continuous
100
AcDbCircle
 10
317.0111549999999
 20
206.521452
 30
0.0
 40
5.0
100
AcDbArc
 50
31.667971
 51
61.23054299999999
  0
LINE
  5
9B2C
330
994D
100
AcDbEntity
  8
4
  6
CENTER
100
AcDbLine
 10
163.8843379999999
 20
330.4774479999999
 30
0.0
 11
163.8843379999999
 21
260.4774479999999
 31
0.0
  0
LINE
  5
9B2D
330
994D
100
AcDbEntity
  8
1
  6
Continuous
100
AcDbLine
 10
392.884338
 20
228.849283
 30
0.0
 11
456.884338
 21
228.849283
 31
0.0
  0
LINE
  5
9B2E
330
994D
100
AcDbEntity
  8
1
  6
Continuous
100
AcDbLine
 10
392.884338
 20
226.5492829999999
 30
0.0
 11
456.884338
 21
226.5492829999999
 31
0.0
  0
LINE
  5
9B2F
330
994D
100
AcDbEntity
  8
4
  6
CENTER
100
AcDbLine
 10
445.884338
 20
140.849283
 30
0.0
 11
445.884338
 21
211.849283
 31
0.0
  0
ARC
  5
9B30
330
994D
100
AcDbEntity
  8
1
  6
Continuous
100
AcDbCircle
 10
445.884338
 20
176.349283
 30
0.0
 40
32.5
100
AcDbArc
 50
167.62996
 51
95.01326500000002
  0
ARC
  5
9B31
330
994D
100
AcDbEntity
  8
1
  6
Continuous
100
AcDbCircle
 10
452.9756729999999
 20
214.802863
 30
0.0
 40
50.0
100
AcDbArc
 50
189.7819869999999
 51
258.4010559999999
  0
LINE
  5
9B32
330
994D
100
AcDbEntity
  8
4
  6
CENTER
100
AcDbLine
 10
410.3843379999998
 20
176.349283
 30
0.0
 11
481.384338
 21
176.349283
 31
0.0
  0
ARC
  5
9B33
330
994D
100
AcDbEntity
  8
1
  6
Continuous
100
AcDbCircle
 10
445.1343379999998
 20
176.599283
 30
0.0
 40
11.0
100
AcDbArc
 50
258.4010559999999
 51
38.804988
  0
ARC
  5
9B34
330
994D
100
AcDbEntity
  8
1
  6
Continuous
100
AcDbCircle
 10
492.6706259999998
 20
214.8262549999998
 30
0.0
 40
50.0
100
AcDbArc
 50
185.4659799999998
 51
218.8049879999999
  0
LINE
  5
9B35
330
994D
100
AcDbEntity
  8
1
  6
Continuous
100
AcDbLine
 10
441.384338
 20
214.849283
 30
0.0
 11
434.5843379999998
 21
168.3081449999999
 31
0.0
  0
LINE
  5
9B36
330
994D
100
AcDbEntity
  8
4
  6
CENTER
100
AcDbLine
 10
424.884338
 20
231.849283
 30
0.0
 11
424.884338
 21
169.859822
 31
0.0
  0
LINE
  5
9B37
330
994D
100
AcDbEntity
  8
1
  6
Continuous
100
AcDbLine
 10
402.384338
 20
219.849283
 30
0.0
 11
447.3843379999998
 21
219.849283
 31
0.0
  0
LINE
  5
9B38
330
994D
100
AcDbEntity
  8
1
  6
Continuous
100
AcDbLine
 10
402.384338
 20
221.849283
 30
0.0
 11
447.3843379999998
 21
221.849283
 31
0.0
  0
LINE
  5
9B39
330
994D
100
AcDbEntity
  8
1
  6
Continuous
100
AcDbLine
 10
402.384338
 20
223.849283
 30
0.0
 11
447.3843379999998
 21
223.849283
 31
0.0
  0
LINE
  5
9B3A
330
994D
100
AcDbEntity
  8
1
  6
Continuous
100
AcDbLine
 10
425.712765
 20
219.849283
 30
0.0
 11
427.7127649999997
 21
221.849283
 31
0.0
  0
LINE
  5
9B3B
330
994D
100
AcDbEntity
  8
1
  6
Continuous
100
AcDbLine
 10
426.8843379999998
 20
219.849283
 30
0.0
 11
424.884338
 21
221.849283
 31
0.0
  0
LINE
  5
9B3C
330
994D
100
AcDbEntity
  8
1
  6
Continuous
100
AcDbLine
 10
428.2985519999998
 20
219.849283
 30
0.0
 11
426.2985519999999
 21
221.849283
 31
0.0
  0
LINE
  5
9B3D
330
994D
100
AcDbEntity
  8
1
  6
Continuous
100
AcDbLine
 10
456.884338
 20
226.5492829999999
 30
0.0
 11
456.884338
 21
228.849283
 31
0.0
  0
LINE
  5
9B3E
330
994D
100
AcDbEntity
  8
4
  6
CENTER
100
AcDbLine
 10
449.884338
 20
231.849283
 30
0.0
 11
449.884338
 21
223.549283
 31
0.0
  0
LINE
  5
9B3F
330
994D
100
AcDbEntity
  8
1
  6
Continuous
100
AcDbLine
 10
441.269115
 20
219.849283
 30
0.0
 11
443.2691150000001
 21
221.849283
 31
0.0
  0
LINE
  5
9B40
330
994D
100
AcDbEntity
  8
1
  6
Continuous
100
AcDbLine
 10
443.854901
 20
219.849283
 30
0.0
 11
441.8549009999998
 21
221.849283
 31
0.0
  0
LINE
  5
9B41
330
994D
100
AcDbEntity
  8
1
  6
Continuous
100
AcDbLine
 10
442.683328
 20
219.849283
 30
0.0
 11
444.6833279999999
 21
221.849283
 31
0.0
  0
ARC
  5
9B42
330
994D
100
AcDbEntity
  8
1
  6
Continuous
100
AcDbCircle
 10
445.884338
 20
210.3492829999999
 30
0.0
 40
3.0
100
AcDbArc
 50
90.0
 51
185.4659799999998
  0
LINE
  5
9B43
330
994D
100
AcDbEntity
  8
1
  6
Continuous
100
AcDbLine
 10
447.3843379999998
 20
223.849283
 30
0.0
 11
447.3843379999998
 21
219.849283
 31
0.0
  0
LINE
  5
9B44
330
994D
100
AcDbEntity
  8
1
  6
Continuous
100
AcDbLine
 10
445.5117549999997
 20
219.849283
 30
0.0
 11
447.3843379999998
 21
221.7218659999999
 31
0.0
  0
LINE
  5
9B45
330
994D
100
AcDbEntity
  8
1
  6
Continuous
100
AcDbLine
 10
446.925969
 20
219.849283
 30
0.0
 11
447.3843379999998
 21
220.307653
 31
0.0
  0
LINE
  5
9B46
330
994D
100
AcDbEntity
  8
1
  6
Continuous
100
AcDbLine
 10
446.683328
 20
219.849283
 30
0.0
 11
444.6833279999999
 21
221.849283
 31
0.0
  0
LINE
  5
9B47
330
994D
100
AcDbEntity
  8
1
  6
Continuous
100
AcDbLine
 10
447.3843379999998
 20
220.562487
 30
0.0
 11
446.0975419999998
 21
221.849283
 31
0.0
  0
ARC
  5
9B48
330
994D
100
AcDbEntity
  8
1
  6
Continuous
100
AcDbCircle
 10
446.884338
 20
216.849283
 30
0.0
 40
3.0
100
AcDbArc
 50
0.0
 51
90.0
  0
LINE
  5
9B49
330
994D
100
AcDbEntity
  8
1
  6
Continuous
100
AcDbLine
 10
444.097542
 20
219.849283
 30
0.0
 11
446.0975419999998
 21
221.849283
 31
0.0
  0
LINE
  5
9B4A
330
994D
100
AcDbEntity
  8
1
  6
Continuous
100
AcDbLine
 10
445.269115
 20
219.849283
 30
0.0
 11
443.2691150000001
 21
221.849283
 31
0.0
  0
ARC
  5
9B4B
330
994D
100
AcDbEntity
  8
1
  6
Continuous
100
AcDbCircle
 10
447.3843379999998
 20
228.9492829999999
 30
0.0
 40
5.099999999999997
100
AcDbArc
 50
270.0
 51
331.9275129999998
  0
LINE
  5
9B4C
330
994D
100
AcDbEntity
  8
1
  6
Continuous
100
AcDbLine
 10
445.884338
 20
213.349283
 30
0.0
 11
449.884338
 21
213.349283
 31
0.0
  0
LINE
  5
9B4D
330
994D
100
AcDbEntity
  8
1
  6
Continuous
100
AcDbLine
 10
449.884338
 20
216.849283
 30
0.0
 11
449.884338
 21
213.349283
 31
0.0
  0
LINE
  5
9B4E
330
994D
100
AcDbEntity
  8
1
  6
Continuous
100
AcDbLine
 10
437.026474
 20
219.849283
 30
0.0
 11
439.026474
 21
221.849283
 31
0.0
  0
LINE
  5
9B4F
330
994D
100
AcDbEntity
  8
1
  6
Continuous
100
AcDbLine
 10
438.440687
 20
219.849283
 30
0.0
 11
440.440687
 21
221.849283
 31
0.0
  0
LINE
  5
9B50
330
994D
100
AcDbEntity
  8
1
  6
Continuous
100
AcDbLine
 10
439.6122599999998
 20
219.849283
 30
0.0
 11
437.6122599999998
 21
221.849283
 31
0.0
  0
LINE
  5
9B51
330
994D
100
AcDbEntity
  8
1
  6
Continuous
100
AcDbLine
 10
432.783833
 20
219.849283
 30
0.0
 11
434.783833
 21
221.849283
 31
0.0
  0
LINE
  5
9B52
330
994D
100
AcDbEntity
  8
1
  6
Continuous
100
AcDbLine
 10
434.198047
 20
219.849283
 30
0.0
 11
436.1980469999998
 21
221.849283
 31
0.0
  0
LINE
  5
9B53
330
994D
100
AcDbEntity
  8
1
  6
Continuous
100
AcDbLine
 10
435.3696199999998
 20
219.849283
 30
0.0
 11
433.36962
 21
221.849283
 31
0.0
  0
LINE
  5
9B54
330
994D
100
AcDbEntity
  8
1
  6
Continuous
100
AcDbLine
 10
428.5411919999998
 20
219.849283
 30
0.0
 11
430.541192
 21
221.849283
 31
0.0
  0
LINE
  5
9B55
330
994D
100
AcDbEntity
  8
1
  6
Continuous
100
AcDbLine
 10
429.955406
 20
219.849283
 30
0.0
 11
431.9554059999998
 21
221.849283
 31
0.0
  0
LINE
  5
9B56
330
994D
100
AcDbEntity
  8
1
  6
Continuous
100
AcDbLine
 10
431.1269789999998
 20
219.849283
 30
0.0
 11
429.126979
 21
221.849283
 31
0.0
  0
LINE
  5
9B57
330
994D
100
AcDbEntity
  8
1
  6
Continuous
100
AcDbLine
 10
431.3696199999998
 20
219.849283
 30
0.0
 11
433.36962
 21
221.849283
 31
0.0
  0
LINE
  5
9B58
330
994D
100
AcDbEntity
  8
1
  6
Continuous
100
AcDbLine
 10
432.5411919999998
 20
219.849283
 30
0.0
 11
430.541192
 21
221.849283
 31
0.0
  0
LINE
  5
9B59
330
994D
100
AcDbEntity
  8
1
  6
Continuous
100
AcDbLine
 10
433.955406
 20
219.849283
 30
0.0
 11
431.9554059999998
 21
221.849283
 31
0.0
  0
LINE
  5
9B5A
330
994D
100
AcDbEntity
  8
1
  6
Continuous
100
AcDbLine
 10
427.1269789999998
 20
219.849283
 30
0.0
 11
429.126979
 21
221.849283
 31
0.0
  0
LINE
  5
9B5B
330
994D
100
AcDbEntity
  8
1
  6
Continuous
100
AcDbLine
 10
429.712765
 20
219.849283
 30
0.0
 11
427.7127649999997
 21
221.849283
 31
0.0
  0
LINE
  5
9B5C
330
994D
100
AcDbEntity
  8
1
  6
Continuous
100
AcDbLine
 10
435.6122599999998
 20
219.849283
 30
0.0
 11
437.6122599999998
 21
221.849283
 31
0.0
  0
LINE
  5
9B5D
330
994D
100
AcDbEntity
  8
1
  6
Continuous
100
AcDbLine
 10
436.783833
 20
219.849283
 30
0.0
 11
434.783833
 21
221.849283
 31
0.0
  0
LINE
  5
9B5E
330
994D
100
AcDbEntity
  8
1
  6
Continuous
100
AcDbLine
 10
438.198047
 20
219.849283
 30
0.0
 11
436.1980469999998
 21
221.849283
 31
0.0
  0
LINE
  5
9B5F
330
994D
100
AcDbEntity
  8
1
  6
Continuous
100
AcDbLine
 10
439.8549009999999
 20
219.849283
 30
0.0
 11
441.8549009999998
 21
221.849283
 31
0.0
  0
LINE
  5
9B60
330
994D
100
AcDbEntity
  8
1
  6
Continuous
100
AcDbLine
 10
441.026474
 20
219.849283
 30
0.0
 11
439.026474
 21
221.849283
 31
0.0
  0
LINE
  5
9B61
330
994D
100
AcDbEntity
  8
1
  6
Continuous
100
AcDbLine
 10
442.440687
 20
219.849283
 30
0.0
 11
440.440687
 21
221.849283
 31
0.0
  0
LINE
  5
9B62
330
994D
100
AcDbEntity
  8
4
  6
CENTER
100
AcDbLine
 10
399.884338
 20
231.849283
 30
0.0
 11
399.884338
 21
223.549283
 31
0.0
  0
LINE
  5
9B63
330
994D
100
AcDbEntity
  8
1
  6
Continuous
100
AcDbLine
 10
411.327989
 20
219.849283
 30
0.0
 11
409.3279889999998
 21
221.849283
 31
0.0
  0
LINE
  5
9B64
330
994D
100
AcDbEntity
  8
1
  6
Continuous
100
AcDbLine
 10
410.1564159999998
 20
219.849283
 30
0.0
 11
412.156416
 21
221.849283
 31
0.0
  0
LINE
  5
9B65
330
994D
100
AcDbEntity
  8
1
  6
Continuous
100
AcDbLine
 10
412.7422029999998
 20
219.849283
 30
0.0
 11
410.7422029999998
 21
221.849283
 31
0.0
  0
LINE
  5
9B66
330
994D
100
AcDbEntity
  8
1
  6
Continuous
100
AcDbLine
 10
421.470125
 20
219.849283
 30
0.0
 11
423.4701249999998
 21
221.849283
 31
0.0
  0
LINE
  5
9B67
330
994D
100
AcDbEntity
  8
1
  6
Continuous
100
AcDbLine
 10
424.0559109999998
 20
219.849283
 30
0.0
 11
422.0559109999999
 21
221.849283
 31
0.0
  0
LINE
  5
9B68
330
994D
100
AcDbEntity
  8
1
  6
Continuous
100
AcDbLine
 10
422.8843379999998
 20
219.849283
 30
0.0
 11
424.884338
 21
221.849283
 31
0.0
  0
LINE
  5
9B69
330
994D
100
AcDbEntity
  8
1
  6
Continuous
100
AcDbLine
 10
420.0559109999998
 20
219.849283
 30
0.0
 11
422.0559109999999
 21
221.849283
 31
0.0
  0
LINE
  5
9B6A
330
994D
100
AcDbEntity
  8
1
  6
Continuous
100
AcDbLine
 10
422.641698
 20
219.849283
 30
0.0
 11
420.641698
 21
221.849283
 31
0.0
  0
LINE
  5
9B6B
330
994D
100
AcDbEntity
  8
1
  6
Continuous
100
AcDbLine
 10
417.227484
 20
219.849283
 30
0.0
 11
419.227484
 21
221.849283
 31
0.0
  0
LINE
  5
9B6C
330
994D
100
AcDbEntity
  8
1
  6
Continuous
100
AcDbLine
 10
419.81327
 20
219.849283
 30
0.0
 11
417.8132699999999
 21
221.849283
 31
0.0
  0
LINE
  5
9B6D
330
994D
100
AcDbEntity
  8
1
  6
Continuous
100
AcDbLine
 10
418.3990569999998
 20
219.849283
 30
0.0
 11
416.399057
 21
221.849283
 31
0.0
  0
LINE
  5
9B6E
330
994D
100
AcDbEntity
  8
1
  6
Continuous
100
AcDbLine
 10
412.984843
 20
219.849283
 30
0.0
 11
414.984843
 21
221.849283
 31
0.0
  0
LINE
  5
9B6F
330
994D
100
AcDbEntity
  8
1
  6
Continuous
100
AcDbLine
 10
415.57063
 20
219.849283
 30
0.0
 11
413.5706299999998
 21
221.849283
 31
0.0
  0
LINE
  5
9B70
330
994D
100
AcDbEntity
  8
1
  6
Continuous
100
AcDbLine
 10
414.1564159999998
 20
219.849283
 30
0.0
 11
412.156416
 21
221.849283
 31
0.0
  0
LINE
  5
9B71
330
994D
100
AcDbEntity
  8
1
  6
Continuous
100
AcDbLine
 10
415.81327
 20
219.849283
 30
0.0
 11
417.8132699999999
 21
221.849283
 31
0.0
  0
LINE
  5
9B72
330
994D
100
AcDbEntity
  8
1
  6
Continuous
100
AcDbLine
 10
414.3990569999998
 20
219.849283
 30
0.0
 11
416.399057
 21
221.849283
 31
0.0
  0
LINE
  5
9B73
330
994D
100
AcDbEntity
  8
1
  6
Continuous
100
AcDbLine
 10
416.984843
 20
219.849283
 30
0.0
 11
414.984843
 21
221.849283
 31
0.0
  0
LINE
  5
9B74
330
994D
100
AcDbEntity
  8
1
  6
Continuous
100
AcDbLine
 10
411.57063
 20
219.849283
 30
0.0
 11
413.5706299999998
 21
221.849283
 31
0.0
  0
LINE
  5
9B75
330
994D
100
AcDbEntity
  8
1
  6
Continuous
100
AcDbLine
 10
418.641698
 20
219.849283
 30
0.0
 11
420.641698
 21
221.849283
 31
0.0
  0
LINE
  5
9B76
330
994D
100
AcDbEntity
  8
1
  6
Continuous
100
AcDbLine
 10
421.227484
 20
219.849283
 30
0.0
 11
419.227484
 21
221.849283
 31
0.0
  0
LINE
  5
9B77
330
994D
100
AcDbEntity
  8
1
  6
Continuous
100
AcDbLine
 10
424.2985519999998
 20
219.849283
 30
0.0
 11
426.2985519999999
 21
221.849283
 31
0.0
  0
LINE
  5
9B78
330
994D
100
AcDbEntity
  8
1
  6
Continuous
100
AcDbLine
 10
425.470125
 20
219.849283
 30
0.0
 11
423.4701249999998
 21
221.849283
 31
0.0
  0
LINE
  5
9B79
330
994D
100
AcDbEntity
  8
1
  6
Continuous
100
AcDbLine
 10
407.085348
 20
219.849283
 30
0.0
 11
405.0853479999998
 21
221.849283
 31
0.0
  0
LINE
  5
9B7A
330
994D
100
AcDbEntity
  8
1
  6
Continuous
100
AcDbLine
 10
405.9137749999998
 20
219.849283
 30
0.0
 11
407.913775
 21
221.849283
 31
0.0
  0
LINE
  5
9B7B
330
994D
100
AcDbEntity
  8
1
  6
Continuous
100
AcDbLine
 10
408.4995619999999
 20
219.849283
 30
0.0
 11
406.499562
 21
221.849283
 31
0.0
  0
LINE
  5
9B7C
330
994D
100
AcDbEntity
  8
1
  6
Continuous
100
AcDbLine
 10
404.4995619999999
 20
219.849283
 30
0.0
 11
406.499562
 21
221.849283
 31
0.0
  0
LINE
  5
9B7D
330
994D
100
AcDbEntity
  8
1
  6
Continuous
100
AcDbLine
 10
405.6711349999998
 20
219.849283
 30
0.0
 11
403.671135
 21
221.849283
 31
0.0
  0
LINE
  5
9B7E
330
994D
100
AcDbEntity
  8
1
  6
Continuous
100
AcDbLine
 10
402.384338
 20
223.849283
 30
0.0
 11
402.384338
 21
219.849283
 31
0.0
  0
LINE
  5
9B7F
330
994D
100
AcDbEntity
  8
1
  6
Continuous
100
AcDbLine
 10
402.384338
 20
220.307653
 30
0.0
 11
402.842708
 21
219.849283
 31
0.0
  0
ARC
  5
9B80
330
994D
100
AcDbEntity
  8
1
  6
Continuous
100
AcDbCircle
 10
402.884338
 20
216.849283
 30
0.0
 40
3.0
100
AcDbArc
 50
90.0
 51
180.0
  0
ARC
  5
9B81
330
994D
100
AcDbEntity
  8
1
  6
Continuous
100
AcDbCircle
 10
402.384338
 20
228.9492829999999
 30
0.0
 40
5.099999999999997
100
AcDbArc
 50
208.072487
 51
270.0
  0
LINE
  5
9B82
330
994D
100
AcDbEntity
  8
1
  6
Continuous
100
AcDbLine
 10
403.085348
 20
219.849283
 30
0.0
 11
405.0853479999998
 21
221.849283
 31
0.0
  0
LINE
  5
9B83
330
994D
100
AcDbEntity
  8
1
  6
Continuous
100
AcDbLine
 10
402.384338
 20
220.562487
 30
0.0
 11
403.671135
 21
221.849283
 31
0.0
  0
LINE
  5
9B84
330
994D
100
AcDbEntity
  8
1
  6
Continuous
100
AcDbLine
 10
402.384338
 20
221.7218659999999
 30
0.0
 11
404.2569209999999
 21
219.849283
 31
0.0
  0
LINE
  5
9B85
330
994D
100
AcDbEntity
  8
1
  6
Continuous
100
AcDbLine
 10
408.7422029999998
 20
219.849283
 30
0.0
 11
410.7422029999998
 21
221.849283
 31
0.0
  0
LINE
  5
9B86
330
994D
100
AcDbEntity
  8
1
  6
Continuous
100
AcDbLine
 10
409.9137749999998
 20
219.849283
 30
0.0
 11
407.913775
 21
221.849283
 31
0.0
  0
LINE
  5
9B87
330
994D
100
AcDbEntity
  8
1
  6
Continuous
100
AcDbLine
 10
407.327989
 20
219.849283
 30
0.0
 11
409.3279889999998
 21
221.849283
 31
0.0
  0
ARC
  5
9B88
330
994D
100
AcDbEntity
  8
1
  6
Continuous
100
AcDbCircle
 10
391.384338
 20
204.184132
 30
0.0
 40
12.5
100
AcDbArc
 50
9.781986999999999
 51
47.15635699999999
  0
LINE
  5
9B89
330
994D
100
AcDbEntity
  8
1
  6
Continuous
100
AcDbLine
 10
399.884338
 20
216.849283
 30
0.0
 11
399.884338
 21
213.349283
 31
0.0
  0
LINE
  5
9B8A
330
994D
100
AcDbEntity
  8
1
  6
Continuous
100
AcDbLine
 10
392.884338
 20
226.5492829999999
 30
0.0
 11
392.884338
 21
228.849283
 31
0.0
  0
CIRCLE
  5
9B8B
330
994D
100
AcDbEntity
  8
1
  6
Continuous
100
AcDbCircle
 10
445.884338
 20
176.349283
 30
0.0
 40
5.75
  0
ARC
  5
9B8C
330
994D
100
AcDbEntity
  8
1
  6
Continuous
100
AcDbCircle
 10
295.0338959999999
 20
180.268683
 30
0.0
 40
10.0
100
AcDbArc
 50
157.8984959999999
 51
191.096263
  0
ARC
  5
9B8D
330
994D
100
AcDbEntity
  8
1
  6
Continuous
100
AcDbCircle
 10
197.831234
 20
137.106664
 30
0.0
 40
142.2298409999999
100
AcDbArc
 50
18.61574799999998
 51
31.25592199999999
  0
ARC
  5
9B8E
330
994D
100
AcDbEntity
  8
1
  6
Continuous
100
AcDbCircle
 10
325.3225679999999
 20
180.0512539999998
 30
0.0
 40
7.7
100
AcDbArc
 50
340.101046
 51
18.61574799999998
  0
ARC
  5
9B8F
330
994D
100
AcDbEntity
  8
1
  6
Continuous
100
AcDbCircle
 10
421.9374419999998
 20
137.106664
 30
0.0
 40
142.2298409999999
100
AcDbArc
 50
148.744078
 51
161.384252
  0
ARC
  5
9B90
330
994D
100
AcDbEntity
  8
1
  6
Continuous
100
AcDbCircle
 10
294.446107
 20
180.0512539999998
 30
0.0
 40
7.7
100
AcDbArc
 50
161.384252
 51
199.8989539999998
  0
ARC
  5
9B91
330
994D
100
AcDbEntity
  8
1
  6
Continuous
100
AcDbCircle
 10
184.8843379999999
 20
79.221118
 30
0.0
 40
20.69999999999998
100
AcDbArc
 50
226.8418629999999
 51
133.158137
  0
ARC
  5
9B92
330
994D
100
AcDbEntity
  8
1
  6
Continuous
100
AcDbCircle
 10
184.8843379999999
 20
79.221118
 30
0.0
 40
14.69999999999999
100
AcDbArc
 50
238.2486839999998
 51
301.751316
  0
ARC
  5
9B93
330
994D
100
AcDbEntity
  8
1
  6
Continuous
100
AcDbCircle
 10
184.8843379999999
 20
79.221118
 30
0.0
 40
14.69999999999999
100
AcDbArc
 50
58.248684
 51
121.7513159999998
  0
ARC
  5
9B94
330
994D
100
AcDbEntity
  8
1
  6
Continuous
100
AcDbCircle
 10
184.8843379999999
 20
79.221118
 30
0.0
 40
14.69999999999999
100
AcDbArc
 50
319.616333
 51
40.383667
  0
LINE
  5
9B95
330
994D
100
AcDbEntity
  8
1
  6
Continuous
100
AcDbLine
 10
152.8843379999998
 20
91.72111800000001
 30
0.0
 11
152.8843379999998
 21
105.221118
 31
0.0
  0
ARC
  5
9B96
330
994D
100
AcDbEntity
  8
1
  6
Continuous
100
AcDbCircle
 10
163.8843379999999
 20
176.349283
 30
0.0
 40
22.5
100
AcDbArc
 50
88.49803399999997
 51
355.132584
  0
ARC
  5
9B97
330
994D
100
AcDbEntity
  8
1
  6
Continuous
100
AcDbCircle
 10
163.8843379999999
 20
176.349283
 30
0.0
 40
17.5
100
AcDbArc
 50
94.67525
 51
341.3869409999999
  0
ARC
  5
9B98
330
994D
100
AcDbEntity
  8
1
  6
Continuous
100
AcDbCircle
 10
445.884338
 20
176.349283
 30
0.0
 40
17.5
100
AcDbArc
 50
198.6130589999999
 51
85.32474999999998
  0
ARC
  5
9B99
330
994D
100
AcDbEntity
  8
1
  6
Continuous
100
AcDbCircle
 10
445.884338
 20
176.349283
 30
0.0
 40
22.5
100
AcDbArc
 50
184.8674159999999
 51
91.50196599999999
  0
ENDSEC
  0
SECTION
  2
OBJECTS
  0
DICTIONARY
  5
993B
330
0
100
AcDbDictionary
281
     1
  3
ACAD_CIP_PREVIOUS_PRODUCT_INFO
350
9BFB
  3
ACAD_COLOR
350
9BDD
  3
ACAD_DETAILVIEWSTYLE
350
9BF6
  3
ACAD_GROUP
350
993C
  3
ACAD_LAYOUT
350
9948
  3
ACAD_MATERIAL
350
9BAB
  3
ACAD_MLEADERSTYLE
350
9BF2
  3
ACAD_MLINESTYLE
350
9945
  3
ACAD_PLOTSETTINGS
350
9947
  3
ACAD_PLOTSTYLENAME
350
9BA9
  3
ACAD_SCALELIST
350
9BE0
  3
ACAD_SECTIONVIEWSTYLE
350
9BF4
  3
ACAD_TABLESTYLE
350
9BDE
  3
ACAD_VISUALSTYLE
350
9BC4
  3
ACDB_RECOMPOSE_DATA
350
9C19
  3
AcDbVariableDictionary
350
9C0C
  3
DWGPROPS
350
9C1A
  0
DICTIONARY
  5
9BFC
330
993F
100
AcDbDictionary
280
     1
281
     1
  3
ADSK_XREC_LAYER_RECONCILED
360
9BFD
  0
DICTIONARY
  5
9BFE
330
9955
100
AcDbDictionary
280
     1
281
     1
  3
ADSK_XREC_LAYER_RECONCILED
360
9BFF
  0
DICTIONARY
  5
9C00
330
9956
100
AcDbDictionary
280
     1
281
     1
  3
ADSK_XREC_LAYER_RECONCILED
360
9C01
  0
DICTIONARY
  5
9C02
330
9957
100
AcDbDictionary
280
     1
281
     1
  3
ADSK_XREC_LAYER_RECONCILED
360
9C03
  0
DICTIONARY
  5
9C04
330
9958
100
AcDbDictionary
280
     1
281
     1
  3
ADSK_XREC_LAYER_RECONCILED
360
9C05
  0
DICTIONARY
  5
9C06
330
9959
100
AcDbDictionary
280
     1
281
     1
  3
ADSK_XREC_LAYER_RECONCILED
360
9C07
  0
DICTIONARY
  5
9C08
330
995A
100
AcDbDictionary
280
     1
281
     1
  3
ADSK_XREC_LAYER_RECONCILED
360
9C09
  0
DICTIONARY
  5
9C0A
330
995B
100
AcDbDictionary
280
     1
281
     1
  3
ADSK_XREC_LAYER_RECONCILED
360
9C0B
  0
DICTIONARY
  5
9BA4
330
994D
100
AcDbDictionary
281
     1
  3
ACAD_LAYOUTSELFREF
350
9BA5
  0
DICTIONARY
  5
9BA2
330
9949
100
AcDbDictionary
281
     1
  3
ACAD_LAYOUTSELFREF
350
9BA3
  0
XRECORD
  5
9BFB
102
{ACAD_REACTORS
330
993B
102
}
330
993B
100
AcDbXrecord
280
     1
300
ACDLT
300
2014
300
ACDLT_F_S
  0
DICTIONARY
  5
9BDD
102
{ACAD_REACTORS
330
993B
102
}
330
993B
100
AcDbDictionary
281
     1
  0
DICTIONARY
  5
9BF6
102
{ACAD_REACTORS
330
993B
102
}
330
993B
100
AcDbDictionary
281
     1
  3
Imperial24
350
9BF7
  0
DICTIONARY
  5
993C
102
{ACAD_REACTORS
330
993B
102
}
330
993B
100
AcDbDictionary
281
     1
  0
DICTIONARY
  5
9948
102
{ACAD_REACTORS
330
993B
102
}
330
993B
100
AcDbDictionary
281
     1
  3
Model
350
9BF8
  3
レイアウト1
350
9BF9
  0
DICTIONARY
  5
9BAB
102
{ACAD_REACTORS
330
993B
102
}
330
993B
100
AcDbDictionary
281
     1
  3
ByBlock
350
9BB4
  3
ByLayer
350
9BAC
  3
Global
350
9BBC
  0
DICTIONARY
  5
9BF2
102
{ACAD_REACTORS
330
993B
102
}
330
993B
100
AcDbDictionary
281
     1
  3
Standard
350
9BF3
  0
DICTIONARY
  5
9945
102
{ACAD_REACTORS
330
993B
102
}
330
993B
100
AcDbDictionary
281
     1
  3
STANDARD
350
9946
  0
DICTIONARY
  5
9947
102
{ACAD_REACTORS
330
993B
102
}
330
993B
100
AcDbDictionary
281
     1
  0
ACDBDICTIONARYWDFLT
  5
9BA9
102
{ACAD_REACTORS
330
993B
102
}
330
993B
100
AcDbDictionary
281
     1
  3
Normal
350
9BAA
100
AcDbDictionaryWithDefault
340
9BAA
  0
DICTIONARY
  5
9BE0
102
{ACAD_REACTORS
330
993B
102
}
330
993B
100
AcDbDictionary
281
     1
  3
A0
350
9BE1
  3
A1
350
9BE2
  3
A2
350
9BE3
  3
A3
350
9BE4
  3
A4
350
9BE5
  3
A5
350
9BE6
  3
A6
350
9BE7
  3
A7
350
9BE8
  3
A8
350
9BE9
  3
A9
350
9BEA
  3
B0
350
9BEB
  3
B1
350
9BEC
  3
B2
350
9BED
  3
B3
350
9BEE
  3
B4
350
9BEF
  3
B5
350
9BF0
  3
B6
350
9BF1
  0
DICTIONARY
  5
9BF4
102
{ACAD_REACTORS
330
993B
102
}
330
993B
100
AcDbDictionary
281
     1
  3
Imperial24
350
9BF5
  0
DICTIONARY
  5
9BDE
102
{ACAD_REACTORS
330
993B
102
}
330
993B
100
AcDbDictionary
281
     1
  3
Standard
350
9BDF
  0
DICTIONARY
  5
9BC4
102
{ACAD_REACTORS
330
993B
102
}
330
993B
100
AcDbDictionary
281
     1
  3
2dWireframe
350
9BCA
  3
Basic
350
9BC9
  3
Brighten
350
9BD0
  3
ColorChange
350
9BD4
  3
Conceptual
350
9BCD
  3
Dim
350
9BCF
  3
EdgeColorOff
350
9BDC
  3
Facepattern
350
9BD3
  3
Flat
350
9BC5
  3
FlatWithEdges
350
9BC6
  3
Gouraud
350
9BC7
  3
GouraudWithEdges
350
9BC8
  3
Hidden
350
9BCC
  3
JitterOff
350
9BDA
  3
Linepattern
350
9BD2
  3
OverhangOff
350
9BDB
  3
Realistic
350
9BCE
  3
Shaded
350
9BD9
  3
Shaded with edges
350
9BD8
  3
Shades of Gray
350
9BD5
  3
Sketchy
350
9BD6
  3
Thicken
350
9BD1
  3
Wireframe
350
9BCB
  3
X-Ray
350
9BD7
  0
XRECORD
  5
9C19
102
{ACAD_REACTORS
330
993B
102
}
330
993B
100
AcDbXrecord
280
     1
 90
        1
330
9BDF
  0
DICTIONARY
  5
9C0C
102
{ACAD_REACTORS
330
993B
102
}
330
993B
100
AcDbDictionary
281
     1
  3
CANNOSCALE
350
9C11
  3
CMLEADERSTYLE
350
9C0E
  3
CTABLESTYLE
350
9C0D
  3
CVIEWDETAILSTYLE
350
9C0F
  3
CVIEWSECTIONSTYLE
350
9C10
  3
DIMASSOC
350
9C14
  3
INDEXCTL
350
9C13
  3
SORTENTS
350
9C12
  3
XCLIPFRAME
350
9C15
  0
XRECORD
  5
9C1A
102
{ACAD_REACTORS
330
993B
102
}
330
993B
100
AcDbXrecord
280
     1
  1
DWGPROPS COOKIE
  2

  3

  4

  6

  7

  8
Yoshitsune
  9

300
=
301
=
302
=
303
=
304
=
305
=
306
=
307
=
308
=
309
=
 40
0.0000095023148148
 41
2451301.694946065
 42
2457192.686833657
  1

 90
        0
  0
XRECORD
  5
9BFD
102
{ACAD_REACTORS
330
9BFC
102
}
330
9BFC
100
AcDbXrecord
280
     1
290
     1
  0
XRECORD
  5
9BFF
102
{ACAD_REACTORS
330
9BFE
102
}
330
9BFE
100
AcDbXrecord
280
     1
290
     1
  0
XRECORD
  5
9C01
102
{ACAD_REACTORS
330
9C00
102
}
330
9C00
100
AcDbXrecord
280
     1
290
     1
  0
XRECORD
  5
9C03
102
{ACAD_REACTORS
330
9C02
102
}
330
9C02
100
AcDbXrecord
280
     1
290
     1
  0
XRECORD
  5
9C05
102
{ACAD_REACTORS
330
9C04
102
}
330
9C04
100
AcDbXrecord
280
     1
290
     1
  0
XRECORD
  5
9C07
102
{ACAD_REACTORS
330
9C06
102
}
330
9C06
100
AcDbXrecord
280
     1
290
     1
  0
XRECORD
  5
9C09
102
{ACAD_REACTORS
330
9C08
102
}
330
9C08
100
AcDbXrecord
280
     1
290
     1
  0
XRECORD
  5
9C0B
102
{ACAD_REACTORS
330
9C0A
102
}
330
9C0A
100
AcDbXrecord
280
     1
290
     1
  0
XRECORD
  5
9BA5
102
{ACAD_REACTORS
330
9BA4
102
}
330
9BA4
100
AcDbXrecord
280
     1
340
994D
  0
XRECORD
  5
9BA3
102
{ACAD_REACTORS
330
9BA2
102
}
330
9BA2
100
AcDbXrecord
280
     1
340
9949
  0
ACDBDETAILVIEWSTYLE
  5
9BF7
102
{ACAD_XDICTIONARY
360
9C52
102
}
102
{ACAD_REACTORS
330
9BF6
102
}
330
9BF6
100
AcDbModelDocViewStyle
 70
     0
  3
Imperial24
290
     0
100
AcDbDetailViewStyle
 70
     0
 71
     0
 90
        3
 71
     1
340
9940
 40
0.24
340
0
 40
0.24
300

 40
0.36
280
     3
 71
     2
340
9944
 90
       25
 71
     3
340
9940
 40
0.24
 90
        1
 40
0.75
 90
        1
300
%<\AcVar ViewType \f "%tc1">% %<\AcVar ViewDetailId>%\PSCALE %<\AcVar ViewScale \f "%sn">%
 71
     4
340
9944
 90
       25
340
9944
 90
       25
280
     0
  0
LAYOUT
  5
9BF8
102
{ACAD_XDICTIONARY
360
9C54
102
}
102
{ACAD_REACTORS
330
9948
102
}
330
9948
100
AcDbPlotSettings
  1

  2
Canon LBP9100C
  4

  6

 40
0.0
 41
0.0
 42
0.0
 43
0.0
 44
0.0
 45
0.0
 46
0.0
 47
0.0
 48
0.0
 49
0.0
140
0.0
141
0.0
142
1.0
143
1.0
 70
  1712
 72
     0
 73
     0
 74
     0
  7

 75
     0
147
1.0
148
0.0
149
0.0
100
AcDbLayout
  1
Model
 70
     1
 71
     0
 10
0.0
 20
0.0
 11
12.0
 21
9.0
 12
0.0
 22
0.0
 32
0.0
 14
0.0
 24
0.0
 34
0.0
 15
0.0
 25
0.0
 35
0.0
146
0.0
 13
0.0
 23
0.0
 33
0.0
 16
1.0
 26
0.0
 36
0.0
 17
0.0
 27
1.0
 37
0.0
 76
     0
330
994D
331
9BA1
  0
LAYOUT
  5
9BF9
102
{ACAD_XDICTIONARY
360
9C56
102
}
102
{ACAD_REACTORS
330
9948
102
}
330
9948
100
AcDbPlotSettings
  1

  2
Canon LBP9100C
  4

  6

 40
0.0
 41
0.0
 42
0.0
 43
0.0
 44
0.0
 45
0.0
 46
0.0
 47
0.0
 48
0.0
 49
0.0
140
0.0
141
0.0
142
1.0
143
1.0
 70
   688
 72
     0
 73
     0
 74
     5
  7

 75
    16
147
1.0
148
0.0
149
0.0
100
AcDbLayout
  1
レイアウト1
 70
     0
 71
     1
 10
0.0
 20
0.0
 11
420.0
 21
297.0
 12
0.0
 22
0.0
 32
0.0
 14
1.000000000000000E+20
 24
1.000000000000000E+20
 34
1.000000000000000E+20
 15
-1.000000000000000E+20
 25
-1.000000000000000E+20
 35
-1.000000000000000E+20
146
0.0
 13
0.0
 23
0.0
 33
0.0
 16
1.0
 26
0.0
 36
0.0
 17
0.0
 27
1.0
 37
0.0
 76
     0
330
9949
  0
MATERIAL
  5
9BB4
102
{ACAD_XDICTIONARY
360
9BB5
102
}
102
{ACAD_REACTORS
330
9BAB
102
}
330
9BAB
100
AcDbMaterial
  1
ByBlock
 72
     0
 43
0.0208333333333333
 43
0.0
 43
0.0
 43
0.0
 43
0.0
 43
0.0208333333333333
 43
0.0
 43
0.0
 43
0.0
 43
0.0
 43
1.0
 43
0.0
 43
0.0
 43
0.0
 43
0.0
 43
1.0
 77
     0
 47
0.0208333333333333
 47
0.0
 47
0.0
 47
0.0
 47
0.0
 47
0.0208333333333333
 47
0.0
 47
0.0
 47
0.0
 47
0.0
 47
1.0
 47
0.0
 47
0.0
 47
0.0
 47
0.0
 47
1.0
171
     0
 49
0.0208333333333333
 49
0.0
 49
0.0
 49
0.0
 49
0.0
 49
0.0208333333333333
 49
0.0
 49
0.0
 49
0.0
 49
0.0
 49
1.0
 49
0.0
 49
0.0
 49
0.0
 49
0.0
 49
1.0
175
     0
142
0.0208333333333333
142
0.0
142
0.0
142
0.0
142
0.0
142
0.0208333333333333
142
0.0
142
0.0
142
0.0
142
0.0
142
1.0
142
0.0
142
0.0
142
0.0
142
0.0
142
1.0
179
     0
144
0.0208333333333333
144
0.0
144
0.0
144
0.0
144
0.0
144
0.0208333333333333
144
0.0
144
0.0
144
0.0
144
0.0
144
1.0
144
0.0
144
0.0
144
0.0
144
0.0
144
1.0
147
0.0208333333333333
147
0.0
147
0.0
147
0.0
147
0.0
147
0.0208333333333333
147
0.0
147
0.0
147
0.0
147
0.0
147
1.0
147
0.0
147
0.0
147
0.0
147
0.0
147
1.0
  0
MATERIAL
  5
9BAC
102
{ACAD_XDICTIONARY
360
9BAD
102
}
102
{ACAD_REACTORS
330
9BAB
102
}
330
9BAB
100
AcDbMaterial
  1
ByLayer
 72
     0
 43
0.0208333333333333
 43
0.0
 43
0.0
 43
0.0
 43
0.0
 43
0.0208333333333333
 43
0.0
 43
0.0
 43
0.0
 43
0.0
 43
1.0
 43
0.0
 43
0.0
 43
0.0
 43
0.0
 43
1.0
 77
     0
 47
0.0208333333333333
 47
0.0
 47
0.0
 47
0.0
 47
0.0
 47
0.0208333333333333
 47
0.0
 47
0.0
 47
0.0
 47
0.0
 47
1.0
 47
0.0
 47
0.0
 47
0.0
 47
0.0
 47
1.0
171
     0
 49
0.0208333333333333
 49
0.0
 49
0.0
 49
0.0
 49
0.0
 49
0.0208333333333333
 49
0.0
 49
0.0
 49
0.0
 49
0.0
 49
1.0
 49
0.0
 49
0.0
 49
0.0
 49
0.0
 49
1.0
175
     0
142
0.0208333333333333
142
0.0
142
0.0
142
0.0
142
0.0
142
0.0208333333333333
142
0.0
142
0.0
142
0.0
142
0.0
142
1.0
142
0.0
142
0.0
142
0.0
142
0.0
142
1.0
179
     0
144
0.0208333333333333
144
0.0
144
0.0
144
0.0
144
0.0
144
0.0208333333333333
144
0.0
144
0.0
144
0.0
144
0.0
144
1.0
144
0.0
144
0.0
144
0.0
144
0.0
144
1.0
147
0.0208333333333333
147
0.0
147
0.0
147
0.0
147
0.0
147
0.0208333333333333
147
0.0
147
0.0
147
0.0
147
0.0
147
1.0
147
0.0
147
0.0
147
0.0
147
0.0
147
1.0
  0
MATERIAL
  5
9BBC
102
{ACAD_XDICTIONARY
360
9BBD
102
}
102
{ACAD_REACTORS
330
9BAB
102
}
330
9BAB
100
AcDbMaterial
  1
Global
 72
     0
 43
0.0208333333333333
 43
0.0
 43
0.0
 43
0.0
 43
0.0
 43
0.0208333333333333
 43
0.0
 43
0.0
 43
0.0
 43
0.0
 43
1.0
 43
0.0
 43
0.0
 43
0.0
 43
0.0
 43
1.0
 77
     0
 47
0.0208333333333333
 47
0.0
 47
0.0
 47
0.0
 47
0.0
 47
0.0208333333333333
 47
0.0
 47
0.0
 47
0.0
 47
0.0
 47
1.0
 47
0.0
 47
0.0
 47
0.0
 47
0.0
 47
1.0
171
     0
 49
0.0208333333333333
 49
0.0
 49
0.0
 49
0.0
 49
0.0
 49
0.0208333333333333
 49
0.0
 49
0.0
 49
0.0
 49
0.0
 49
1.0
 49
0.0
 49
0.0
 49
0.0
 49
0.0
 49
1.0
175
     0
142
0.0208333333333333
142
0.0
142
0.0
142
0.0
142
0.0
142
0.0208333333333333
142
0.0
142
0.0
142
0.0
142
0.0
142
1.0
142
0.0
142
0.0
142
0.0
142
0.0
142
1.0
179
     0
144
0.0208333333333333
144
0.0
144
0.0
144
0.0
144
0.0
144
0.0208333333333333
144
0.0
144
0.0
144
0.0
144
0.0
144
1.0
144
0.0
144
0.0
144
0.0
144
0.0
144
1.0
147
0.0208333333333333
147
0.0
147
0.0
147
0.0
147
0.0
147
0.0208333333333333
147
0.0
147
0.0
147
0.0
147
0.0
147
1.0
147
0.0
147
0.0
147
0.0
147
0.0
147
1.0
  0
MLEADERSTYLE
  5
9BF3
102
{ACAD_REACTORS
330
9BF2
102
}
330
9BF2
100
AcDbMLeaderStyle
170
     2
171
     1
172
     0
 90
        2
 40
0.0
 41
0.0
173
     1
 91
-1056964608
340
9942
 92
       -2
290
     1
 42
0.09
291
     1
 43
0.36
  3
Standard
 44
0.18
300

342
9940
174
     1
178
     6
175
     1
176
     0
 93
-1056964608
 45
0.18
292
     0
297
     0
 46
0.18
 94
-1056964608
 47
1.0
 49
1.0
140
1.0
293
     1
141
0.0
294
     1
177
     0
142
1.0
295
     0
296
     0
143
0.125
1001
ACAD_MLEADERVER
1070
     2
  0
MLINESTYLE
  5
9946
102
{ACAD_REACTORS
330
9945
102
}
330
9945
100
AcDbMlineStyle
  2
STANDARD
 70
     0
  3

 62
   256
 51
90.0
 52
90.0
 71
     2
 49
0.5
 62
   256
  6
BYLAYER
 49
-0.5
 62
   256
  6
BYLAYER
  0
ACDBPLACEHOLDER
  5
9BAA
102
{ACAD_REACTORS
330
9BA9
102
}
330
9BA9
  0
SCALE
  5
9BE1
102
{ACAD_REACTORS
330
9BE0
102
}
330
9BE0
100
AcDbScale
 70
     0
300
1:1
140
1.0
141
1.0
290
     1
  0
SCALE
  5
9BE2
102
{ACAD_REACTORS
330
9BE0
102
}
330
9BE0
100
AcDbScale
 70
     0
300
1/128" = 1'-0"
140
0.0078125
141
12.0
290
     0
  0
SCALE
  5
9BE3
102
{ACAD_REACTORS
330
9BE0
102
}
330
9BE0
100
AcDbScale
 70
     0
300
1/64" = 1'-0"
140
0.015625
141
12.0
290
     0
  0
SCALE
  5
9BE4
102
{ACAD_REACTORS
330
9BE0
102
}
330
9BE0
100
AcDbScale
 70
     0
300
1/32" = 1'-0"
140
0.03125
141
12.0
290
     0
  0
SCALE
  5
9BE5
102
{ACAD_REACTORS
330
9BE0
102
}
330
9BE0
100
AcDbScale
 70
     0
300
1/16" = 1'-0"
140
0.0625
141
12.0
290
     0
  0
SCALE
  5
9BE6
102
{ACAD_REACTORS
330
9BE0
102
}
330
9BE0
100
AcDbScale
 70
     0
300
3/32" = 1'-0"
140
0.09375
141
12.0
290
     0
  0
SCALE
  5
9BE7
102
{ACAD_REACTORS
330
9BE0
102
}
330
9BE0
100
AcDbScale
 70
     0
300
1/8" = 1'-0"
140
0.125
141
12.0
290
     0
  0
SCALE
  5
9BE8
102
{ACAD_REACTORS
330
9BE0
102
}
330
9BE0
100
AcDbScale
 70
     0
300
3/16" = 1'-0"
140
0.1875
141
12.0
290
     0
  0
SCALE
  5
9BE9
102
{ACAD_REACTORS
330
9BE0
102
}
330
9BE0
100
AcDbScale
 70
     0
300
1/4" = 1'-0"
140
0.25
141
12.0
290
     0
  0
SCALE
  5
9BEA
102
{ACAD_REACTORS
330
9BE0
102
}
330
9BE0
100
AcDbScale
 70
     0
300
3/8" = 1'-0"
140
0.375
141
12.0
290
     0
  0
SCALE
  5
9BEB
102
{ACAD_REACTORS
330
9BE0
102
}
330
9BE0
100
AcDbScale
 70
     0
300
1/2" = 1'-0"
140
0.5
141
12.0
290
     0
  0
SCALE
  5
9BEC
102
{ACAD_REACTORS
330
9BE0
102
}
330
9BE0
100
AcDbScale
 70
     0
300
3/4" = 1'-0"
140
0.75
141
12.0
290
     0
  0
SCALE
  5
9BED
102
{ACAD_REACTORS
330
9BE0
102
}
330
9BE0
100
AcDbScale
 70
     0
300
1" = 1'-0"
140
1.0
141
12.0
290
     0
  0
SCALE
  5
9BEE
102
{ACAD_REACTORS
330
9BE0
102
}
330
9BE0
100
AcDbScale
 70
     0
300
1-1/2" = 1'-0"
140
1.5
141
12.0
290
     0
  0
SCALE
  5
9BEF
102
{ACAD_REACTORS
330
9BE0
102
}
330
9BE0
100
AcDbScale
 70
     0
300
3" = 1'-0"
140
3.0
141
12.0
290
     0
  0
SCALE
  5
9BF0
102
{ACAD_REACTORS
330
9BE0
102
}
330
9BE0
100
AcDbScale
 70
     0
300
6" = 1'-0"
140
6.0
141
12.0
290
     0
  0
SCALE
  5
9BF1
102
{ACAD_REACTORS
330
9BE0
102
}
330
9BE0
100
AcDbScale
 70
     0
300
1'-0" = 1'-0"
140
12.0
141
12.0
290
     0
  0
ACDBSECTIONVIEWSTYLE
  5
9BF5
102
{ACAD_XDICTIONARY
360
9C50
102
}
102
{ACAD_REACTORS
330
9BF4
102
}
330
9BF4
100
AcDbModelDocViewStyle
 70
     0
  3
Imperial24
290
     0
100
AcDbSectionViewStyle
 70
     0
 71
     0
 90
       78
 71
     1
340
9940
 40
0.24
340
0
340
0
 40
0.24
300
I, O, Q, S, X, Z
 40
0.48
 90
        3
 40
0.18
 90
        1
 71
     2
340
9944
 90
       25
340
9944
 90
       50
 40
0.24
 40
0.0
 40
0.24
 71
     3
340
9940
 40
0.24
 90
        1
 40
0.75
 90
        1
300
%<\AcVar ViewType \f "%tc1">% %<\AcVar ViewSectionStartId>%-%<\AcVar ViewSectionEndId>%\PSCALE %<\AcVar ViewScale \f "%sn">%
 71
     4
300
ANSI31
 40
1.0
 90
        0
290
     0
290
     0
 90
        6
 40
0.0
 40
1.570796326794896
 40
0.2617993877991494
 40
1.308996938995747
 40
-0.2617993877991494
 40
1.832595714594046
  0
TABLESTYLE
  5
9BDF
102
{ACAD_XDICTIONARY
360
9C17
102
}
102
{ACAD_REACTORS
330
9BDE
102
}
330
9BDE
100
AcDbTableStyle
  3
Standard
 70
     0
 71
     0
 40
0.06
 41
0.06
280
     0
281
     0
  7
STANDARD
140
0.18
170
     2
 62
     0
 63
     7
283
     0
274
    -2
284
     1
 64
     0
275
    -2
285
     1
 65
     0
276
    -2
286
     1
 66
     0
277
    -2
287
     1
 67
     0
278
    -2
288
     1
 68
     0
279
    -2
289
     1
 69
     0
  7
STANDARD
140
0.25
170
     5
 62
     0
 63
     7
283
     0
274
    -2
284
     1
 64
     0
275
    -2
285
     1
 65
     0
276
    -2
286
     1
 66
     0
277
    -2
287
     1
 67
     0
278
    -2
288
     1
 68
     0
279
    -2
289
     1
 69
     0
  7
STANDARD
140
0.18
170
     5
 62
     0
 63
     7
283
     0
274
    -2
284
     1
 64
     0
275
    -2
285
     1
 65
     0
276
    -2
286
     1
 66
     0
277
    -2
287
     1
 67
     0
278
    -2
288
     1
 68
     0
279
    -2
289
     1
 69
     0
  0
VISUALSTYLE
  5
9BCA
102
{ACAD_XDICTIONARY
360
9C28
102
}
102
{ACAD_REACTORS
330
9BC4
102
}
330
9BC4
100
AcDbVisualStyle
  2
2dWireframe
 70
     4
 71
     0
 72
     2
 73
     0
 90
        0
 40
-0.6
 41
-30.0
 62
     5
 63
     7
 74
     1
 91
        4
 64
     7
 65
   257
 75
     1
175
     1
 42
1.0
 92
        0
 66
   257
 43
1.0
 76
     1
 77
     6
 78
     2
 67
     7
 79
     5
170
     0
171
     0
290
     0
174
     0
 93
        1
 44
0.0
173
     0
291
     0
 45
0.0
1001
ACAD
1000
AcDbSavedByObjectVersion
1070
     0
  0
VISUALSTYLE
  5
9BC9
102
{ACAD_XDICTIONARY
360
9C26
102
}
102
{ACAD_REACTORS
330
9BC4
102
}
330
9BC4
100
AcDbVisualStyle
  2
Basic
 70
     7
 71
     1
 72
     0
 73
     1
 90
        0
 40
-0.6
 41
-30.0
 62
     5
 63
     7
 74
     0
 91
        4
 64
     7
 65
   257
 75
     1
175
     1
 42
1.0
 92
        8
 66
     7
 43
1.0
 76
     1
 77
     6
 78
     2
 67
     7
 79
     5
170
     0
171
     0
290
     0
174
     0
 93
        1
 44
0.0
173
     0
291
     1
 45
0.0
1001
ACAD
1000
AcDbSavedByObjectVersion
1070
     0
  0
VISUALSTYLE
  5
9BD0
102
{ACAD_XDICTIONARY
360
9C34
102
}
102
{ACAD_REACTORS
330
9BC4
102
}
330
9BC4
100
AcDbVisualStyle
  2
Brighten
 70
    12
 71
     2
 72
     2
 73
     0
 90
        0
 40
-0.6
 41
-30.0
 62
     5
 63
     7
 74
     1
 91
        4
 64
     7
 65
   257
 75
     1
175
     1
 42
1.0
 92
        8
 66
     7
 43
1.0
 76
     1
 77
     6
 78
     2
 67
     7
 79
     5
170
     0
171
     0
290
     0
174
     0
 93
        1
 44
50.0
173
     0
291
     1
 45
0.0
1001
ACAD
1000
AcDbSavedByObjectVersion
1070
     0
  0
VISUALSTYLE
  5
9BD4
102
{ACAD_XDICTIONARY
360
9C3C
102
}
102
{ACAD_REACTORS
330
9BC4
102
}
330
9BC4
100
AcDbVisualStyle
  2
ColorChange
 70
    16
 71
     2
 72
     2
 73
     3
 90
        0
 40
-0.6
 41
-30.0
 62
     5
 63
     8
 74
     1
 91
        4
 64
     7
 65
   257
 75
     1
175
     1
 42
1.0
 92
        8
 66
     8
 43
1.0
 76
     1
 77
     6
 78
     2
 67
     7
 79
     5
170
     0
171
     0
290
     0
174
     0
 93
        1
 44
0.0
173
     0
291
     1
 45
0.0
1001
ACAD
1000
AcDbSavedByObjectVersion
1070
     0
  0
VISUALSTYLE
  5
9BCD
102
{ACAD_XDICTIONARY
360
9C2E
102
}
102
{ACAD_REACTORS
330
9BC4
102
}
330
9BC4
100
AcDbVisualStyle
  2
Conceptual
 70
     9
 71
     3
 72
     2
 73
     0
 90
        0
 40
-0.6
 41
-30.0
 62
     5
 63
     7
 74
     2
 91
        2
 64
     7
 65
   257
 75
     1
175
     1
 42
179.0
 92
        8
 66
     7
 43
1.0
 76
     1
 77
     6
 78
     2
 67
     7
 79
     3
170
     0
171
     0
290
     0
174
     0
 93
        1
 44
0.0
173
     0
291
     0
 45
0.0
1001
ACAD
1000
AcDbSavedByObjectVersion
1070
     0
  0
VISUALSTYLE
  5
9BCF
102
{ACAD_XDICTIONARY
360
9C32
102
}
102
{ACAD_REACTORS
330
9BC4
102
}
330
9BC4
100
AcDbVisualStyle
  2
Dim
 70
    11
 71
     2
 72
     2
 73
     0
 90
        0
 40
-0.6
 41
-30.0
 62
     5
 63
     7
 74
     1
 91
        4
 64
     7
 65
   257
 75
     1
175
     1
 42
1.0
 92
        8
 66
     7
 43
1.0
 76
     1
 77
     6
 78
     2
 67
     7
 79
     5
170
     0
171
     0
290
     0
174
     0
 93
        1
 44
-50.0
173
     0
291
     1
 45
0.0
1001
ACAD
1000
AcDbSavedByObjectVersion
1070
     0
  0
VISUALSTYLE
  5
9BDC
102
{ACAD_XDICTIONARY
360
9C4C
102
}
102
{ACAD_REACTORS
330
9BC4
102
}
330
9BC4
100
AcDbVisualStyle
  2
EdgeColorOff
 70
    22
 71
     2
 72
     2
 73
     0
 90
        0
 40
-0.6
 41
-30.0
 62
     5
 63
     7
 74
     1
 91
        4
 64
     7
 65
   257
 75
     1
175
     1
 42
1.0
 92
        8
 66
     7
 43
1.0
 76
     1
 77
     6
 78
     2
 67
     7
 79
     5
170
     0
171
     0
290
     0
174
     0
 93
        1
 44
0.0
173
     0
291
     1
 45
0.0
1001
ACAD
1000
AcDbSavedByObjectVersion
1070
     0
  0
VISUALSTYLE
  5
9BD3
102
{ACAD_XDICTIONARY
360
9C3A
102
}
102
{ACAD_REACTORS
330
9BC4
102
}
330
9BC4
100
AcDbVisualStyle
  2
Facepattern
 70
    15
 71
     2
 72
     2
 73
     0
 90
        0
 40
-0.6
 41
-30.0
 62
     5
 63
     7
 74
     1
 91
        4
 64
     7
 65
   257
 75
     1
175
     1
 42
1.0
 92
        8
 66
     7
 43
1.0
 76
     1
 77
     6
 78
     2
 67
     7
 79
     5
170
     0
171
     0
290
     0
174
     0
 93
        1
 44
0.0
173
     0
291
     1
 45
0.0
1001
ACAD
1000
AcDbSavedByObjectVersion
1070
     0
  0
VISUALSTYLE
  5
9BC5
102
{ACAD_XDICTIONARY
360
9C1E
102
}
102
{ACAD_REACTORS
330
9BC4
102
}
330
9BC4
100
AcDbVisualStyle
  2
Flat
 70
     0
 71
     2
 72
     1
 73
     1
 90
        2
 40
-0.6
 41
30.0
 62
     5
 63
     7
 74
     0
 91
        0
 64
     7
 65
   257
 75
     1
175
     1
 42
1.0
 92
        8
 66
     7
 43
1.0
 76
     1
 77
     6
 78
     2
 67
     7
 79
     5
170
     0
171
     0
290
     0
174
     0
 93
       13
 44
0.0
173
     0
291
     1
 45
0.0
1001
ACAD
1000
AcDbSavedByObjectVersion
1070
     0
  0
VISUALSTYLE
  5
9BC6
102
{ACAD_XDICTIONARY
360
9C20
102
}
102
{ACAD_REACTORS
330
9BC4
102
}
330
9BC4
100
AcDbVisualStyle
  2
FlatWithEdges
 70
     1
 71
     2
 72
     1
 73
     1
 90
        2
 40
-0.6
 41
30.0
 62
     5
 63
     7
 74
     1
 91
        0
 64
     7
 65
   257
 75
     1
175
     1
 42
1.0
 92
        0
 66
   257
 43
1.0
 76
     1
 77
     6
 78
     2
 67
     7
 79
     5
170
     0
171
     0
290
     0
174
     0
 93
       13
 44
0.0
173
     0
291
     1
 45
0.0
1001
ACAD
1000
AcDbSavedByObjectVersion
1070
     0
  0
VISUALSTYLE
  5
9BC7
102
{ACAD_XDICTIONARY
360
9C22
102
}
102
{ACAD_REACTORS
330
9BC4
102
}
330
9BC4
100
AcDbVisualStyle
  2
Gouraud
 70
     2
 71
     2
 72
     2
 73
     1
 90
        2
 40
-0.6
 41
30.0
 62
     5
 63
     7
 74
     0
 91
        0
 64
     7
 65
   257
 75
     1
175
     1
 42
1.0
 92
        0
 66
     7
 43
1.0
 76
     1
 77
     6
 78
     2
 67
     7
 79
     5
170
     0
171
     0
290
     0
174
     0
 93
       13
 44
0.0
173
     0
291
     1
 45
0.0
1001
ACAD
1000
AcDbSavedByObjectVersion
1070
     0
  0
VISUALSTYLE
  5
9BC8
102
{ACAD_XDICTIONARY
360
9C24
102
}
102
{ACAD_REACTORS
330
9BC4
102
}
330
9BC4
100
AcDbVisualStyle
  2
GouraudWithEdges
 70
     3
 71
     2
 72
     2
 73
     1
 90
        2
 40
-0.6
 41
30.0
 62
     5
 63
     7
 74
     1
 91
        0
 64
     7
 65
   257
 75
     1
175
     1
 42
1.0
 92
        0
 66
   257
 43
1.0
 76
     1
 77
     6
 78
     2
 67
     7
 79
     5
170
     0
171
     0
290
     0
174
     0
 93
       13
 44
0.0
173
     0
291
     1
 45
0.0
1001
ACAD
1000
AcDbSavedByObjectVersion
1070
     0
  0
VISUALSTYLE
  5
9BCC
102
{ACAD_XDICTIONARY
360
9C2C
102
}
102
{ACAD_REACTORS
330
9BC4
102
}
330
9BC4
100
AcDbVisualStyle
  2
Hidden
 70
     6
 71
     1
 72
     2
 73
     2
 90
        0
 40
-0.6
 41
-30.0
 62
     5
 63
     7
 74
     2
 91
        2
 64
     7
 65
   257
 75
     2
175
     1
 42
40.0
 92
        0
 66
   257
 43
1.0
 76
     1
 77
     6
 78
     2
 67
     7
 79
     3
170
     0
171
     0
290
     0
174
     0
 93
        1
 44
0.0
173
     0
291
     0
 45
0.0
1001
ACAD
1000
AcDbSavedByObjectVersion
1070
     0
  0
VISUALSTYLE
  5
9BDA
102
{ACAD_XDICTIONARY
360
9C48
102
}
102
{ACAD_REACTORS
330
9BC4
102
}
330
9BC4
100
AcDbVisualStyle
  2
JitterOff
 70
    20
 71
     2
 72
     2
 73
     0
 90
        0
 40
-0.6
 41
-30.0
 62
     5
 63
     7
 74
     1
 91
        4
 64
     7
 65
   257
 75
     1
175
     1
 42
1.0
 92
       10
 66
     7
 43
1.0
 76
     1
 77
     6
 78
     2
 67
     7
 79
     5
170
     0
171
     0
290
     0
174
     0
 93
        1
 44
0.0
173
     0
291
     1
 45
0.0
1001
ACAD
1000
AcDbSavedByObjectVersion
1070
     0
  0
VISUALSTYLE
  5
9BD2
102
{ACAD_XDICTIONARY
360
9C38
102
}
102
{ACAD_REACTORS
330
9BC4
102
}
330
9BC4
100
AcDbVisualStyle
  2
Linepattern
 70
    14
 71
     2
 72
     2
 73
     0
 90
        0
 40
-0.6
 41
-30.0
 62
     5
 63
     7
 74
     1
 91
        4
 64
     7
 65
   257
 75
     7
175
     7
 42
1.0
 92
        8
 66
     7
 43
1.0
 76
     1
 77
     6
 78
     2
 67
     7
 79
     5
170
     0
171
     0
290
     0
174
     0
 93
        1
 44
0.0
173
     0
291
     1
 45
0.0
1001
ACAD
1000
AcDbSavedByObjectVersion
1070
     0
  0
VISUALSTYLE
  5
9BDB
102
{ACAD_XDICTIONARY
360
9C4A
102
}
102
{ACAD_REACTORS
330
9BC4
102
}
330
9BC4
100
AcDbVisualStyle
  2
OverhangOff
 70
    21
 71
     2
 72
     2
 73
     0
 90
        0
 40
-0.6
 41
-30.0
 62
     5
 63
     7
 74
     1
 91
        4
 64
     7
 65
   257
 75
     1
175
     1
 42
1.0
 92
        9
 66
     7
 43
1.0
 76
     1
 77
     6
 78
     2
 67
     7
 79
     5
170
     0
171
     0
290
     0
174
     0
 93
        1
 44
0.0
173
     0
291
     1
 45
0.0
1001
ACAD
1000
AcDbSavedByObjectVersion
1070
     0
  0
VISUALSTYLE
  5
9BCE
102
{ACAD_XDICTIONARY
360
9C30
102
}
102
{ACAD_REACTORS
330
9BC4
102
}
330
9BC4
100
AcDbVisualStyle
  2
Realistic
 70
     8
 71
     2
 72
     3
 73
     0
 90
        2
 40
-0.6
 41
30.0
 62
     5
 63
     7
 74
     0
 91
        0
 64
     7
 65
   257
 75
     1
175
     1
 42
1.0
 92
        8
 66
   257
 43
1.0
 76
     1
 77
     6
 78
     2
 67
     7
 79
     3
170
     0
171
     0
290
     0
174
     0
 93
       13
 44
0.0
173
     0
291
     0
 45
0.0
1001
ACAD
1000
AcDbSavedByObjectVersion
1070
     0
  0
VISUALSTYLE
  5
9BD9
102
{ACAD_XDICTIONARY
360
9C46
102
}
102
{ACAD_REACTORS
330
9BC4
102
}
330
9BC4
100
AcDbVisualStyle
  2
Shaded
 70
    27
 71
     2
 72
     2
 73
     1
 90
        2
 40
-0.6
 41
30.0
 62
     5
 63
     7
 74
     0
 91
        4
 64
     7
 65
   257
 75
     1
175
     1
 42
1.0
 92
        8
 66
   257
 43
1.0
 76
     1
 77
     6
 78
     2
 67
     8
 79
     3
170
     0
171
     0
290
     0
174
     0
 93
        5
 44
0.0
173
     0
291
     0
 45
0.0
1001
ACAD
1000
AcDbSavedByObjectVersion
1070
     0
  0
VISUALSTYLE
  5
9BD8
102
{ACAD_XDICTIONARY
360
9C44
102
}
102
{ACAD_REACTORS
330
9BC4
102
}
330
9BC4
100
AcDbVisualStyle
  2
Shaded with edges
 70
    26
 71
     2
 72
     2
 73
     1
 90
        2
 40
-0.6
 41
30.0
 62
     5
 63
     7
 74
     1
 91
       10
 64
     7
 65
   257
 75
     2
175
     1
 42
1.0
 92
        8
 66
   257
 43
1.0
 76
     1
 77
     6
 78
     2
 67
     7
 79
     3
170
     0
171
     0
290
     0
174
     0
 93
        5
 44
0.0
173
     0
291
     0
 45
0.0
1001
ACAD
1000
AcDbSavedByObjectVersion
1070
     0
  0
VISUALSTYLE
  5
9BD5
102
{ACAD_XDICTIONARY
360
9C3E
102
}
102
{ACAD_REACTORS
330
9BC4
102
}
330
9BC4
100
AcDbVisualStyle
  2
Shades of Gray
 70
    23
 71
     2
 72
     2
 73
     3
 90
        0
 40
-0.6
 41
-30.0
 62
     5
 63
     7
 74
     2
 91
        2
 64
     7
 65
     7
 75
     1
175
     1
 42
40.0
 92
        8
 66
     7
 43
1.0
 76
     1
 77
     6
 78
     2
 67
     7
 79
     3
170
     0
171
     0
290
     0
174
     0
 93
        1
 44
0.0
173
     0
291
     0
 45
0.0
1001
ACAD
1000
AcDbSavedByObjectVersion
1070
     0
  0
VISUALSTYLE
  5
9BD6
102
{ACAD_XDICTIONARY
360
9C40
102
}
102
{ACAD_REACTORS
330
9BC4
102
}
330
9BC4
100
AcDbVisualStyle
  2
Sketchy
 70
    24
 71
     1
 72
     2
 73
     2
 90
        0
 40
-0.6
 41
-30.0
 62
     5
 63
     7
 74
     2
 91
        2
 64
     7
 65
     7
 75
     1
175
     1
 42
40.0
 92
       11
 66
     7
 43
1.0
 76
     1
 77
     6
 78
     2
 67
     7
 79
     6
170
     0
171
     0
290
     0
174
     0
 93
        1
 44
0.0
173
     0
291
     0
 45
0.0
1001
ACAD
1000
AcDbSavedByObjectVersion
1070
     0
  0
VISUALSTYLE
  5
9BD1
102
{ACAD_XDICTIONARY
360
9C36
102
}
102
{ACAD_REACTORS
330
9BC4
102
}
330
9BC4
100
AcDbVisualStyle
  2
Thicken
 70
    13
 71
     2
 72
     2
 73
     0
 90
        0
 40
-0.6
 41
-30.0
 62
     5
 63
     7
 74
     1
 91
        4
 64
     7
 65
   257
 75
     1
175
     1
 42
1.0
 92
       12
 66
     7
 43
1.0
 76
     1
 77
     6
 78
     2
 67
     7
 79
     5
170
     0
171
     0
290
     0
174
     0
 93
        1
 44
0.0
173
     0
291
     1
 45
0.0
1001
ACAD
1000
AcDbSavedByObjectVersion
1070
     0
  0
VISUALSTYLE
  5
9BCB
102
{ACAD_XDICTIONARY
360
9C2A
102
}
102
{ACAD_REACTORS
330
9BC4
102
}
330
9BC4
100
AcDbVisualStyle
  2
Wireframe
 70
     5
 71
     0
 72
     2
 73
     0
 90
        0
 40
-0.6
 41
-30.0
 62
     5
 63
     7
 74
     1
 91
        4
 64
     7
 65
   257
 75
     1
175
     1
 42
1.0
 92
        0
 66
   257
 43
1.0
 76
     1
 77
     6
 78
     2
 67
     7
 79
     3
170
     0
171
     0
290
     0
174
     0
 93
        1
 44
0.0
173
     0
291
     0
 45
0.0
1001
ACAD
1000
AcDbSavedByObjectVersion
1070
     0
  0
VISUALSTYLE
  5
9BD7
102
{ACAD_XDICTIONARY
360
9C42
102
}
102
{ACAD_REACTORS
330
9BC4
102
}
330
9BC4
100
AcDbVisualStyle
  2
X-Ray
 70
    25
 71
     2
 72
     2
 73
     1
 90
        1
 40
0.5
 41
-30.0
 62
     5
 63
     7
 74
     1
 91
        0
 64
     7
 65
   257
 75
     1
175
     1
 42
1.0
 92
        8
 66
     7
 43
1.0
 76
     1
 77
     6
 78
     2
 67
     7
 79
     3
170
     0
171
     0
290
     0
174
     0
 93
       13
 44
0.0
173
     0
291
     0
 45
0.0
1001
ACAD
1000
AcDbSavedByObjectVersion
1070
     0
  0
DICTIONARYVAR
  5
9C11
102
{ACAD_REACTORS
330
9C0C
102
}
330
9C0C
100
DictionaryVariables
280
     0
  1
1:1
  0
DICTIONARYVAR
  5
9C0E
102
{ACAD_REACTORS
330
9C0C
102
}
330
9C0C
100
DictionaryVariables
280
     0
  1
STANDARD
  0
DICTIONARYVAR
  5
9C0D
102
{ACAD_REACTORS
330
9C0C
102
}
330
9C0C
100
DictionaryVariables
280
     0
  1
STANDARD
  0
DICTIONARYVAR
  5
9C0F
102
{ACAD_REACTORS
330
9C0C
102
}
330
9C0C
100
DictionaryVariables
280
     0
  1
Imperial24
  0
DICTIONARYVAR
  5
9C10
102
{ACAD_REACTORS
330
9C0C
102
}
330
9C0C
100
DictionaryVariables
280
     0
  1
Imperial24
  0
DICTIONARYVAR
  5
9C14
102
{ACAD_REACTORS
330
9C0C
102
}
330
9C0C
100
DictionaryVariables
280
     0
  1
1
  0
DICTIONARYVAR
  5
9C13
102
{ACAD_REACTORS
330
9C0C
102
}
330
9C0C
100
DictionaryVariables
280
     0
  1
0
  0
DICTIONARYVAR
  5
9C12
102
{ACAD_REACTORS
330
9C0C
102
}
330
9C0C
100
DictionaryVariables
280
     0
  1
127
  0
DICTIONARYVAR
  5
9C15
102
{ACAD_REACTORS
330
9C0C
102
}
330
9C0C
100
DictionaryVariables
280
     0
  1
2
  0
DICTIONARY
  5
9C52
330
9BF7
100
AcDbDictionary
280
     1
281
     1
  3
ACAD_XREC_ROUNDTRIP
360
9C53
  0
DICTIONARY
  5
9C54
330
9BF8
100
AcDbDictionary
280
     1
281
     1
  3
ACAD_XREC_ROUNDTRIP
360
9C55
  0
DICTIONARY
  5
9C56
330
9BF9
100
AcDbDictionary
280
     1
281
     1
  3
ACAD_XREC_ROUNDTRIP
360
9C57
  0
DICTIONARY
  5
9BB5
330
9BB4
100
AcDbDictionary
280
     1
281
     1
  3
ACAD_XREC_ROUNDTRIP
360
9C1C
  3
BUMPTILE
360
9BB7
  3
DIFFUSETILE
360
9BB6
  3
OPACITYTILE
360
9BBA
  3
REFLECTIONTILE
360
9BB9
  3
REFRACTIONTILE
360
9BBB
  3
SPECULARTILE
360
9BB8
  0
DICTIONARY
  5
9BAD
330
9BAC
100
AcDbDictionary
280
     1
281
     1
  3
ACAD_XREC_ROUNDTRIP
360
9C1B
  3
BUMPTILE
360
9BAF
  3
DIFFUSETILE
360
9BAE
  3
OPACITYTILE
360
9BB2
  3
REFLECTIONTILE
360
9BB1
  3
REFRACTIONTILE
360
9BB3
  3
SPECULARTILE
360
9BB0
  0
DICTIONARY
  5
9BBD
330
9BBC
100
AcDbDictionary
280
     1
281
     1
  3
ACAD_XREC_ROUNDTRIP
360
9C1D
  3
BUMPTILE
360
9BBF
  3
DIFFUSETILE
360
9BBE
  3
OPACITYTILE
360
9BC2
  3
REFLECTIONTILE
360
9BC1
  3
REFRACTIONTILE
360
9BC3
  3
SPECULARTILE
360
9BC0
  0
DICTIONARY
  5
9C50
330
9BF5
100
AcDbDictionary
280
     1
281
     1
  3
ACAD_XREC_ROUNDTRIP
360
9C51
  0
DICTIONARY
  5
9C17
330
9BDF
100
AcDbDictionary
280
     1
281
     1
  3
ACAD_ROUNDTRIP_2008_TABLESTYLE_CELLSTYLEMAP
360
9C18
  3
ACAD_XREC_ROUNDTRIP
360
9C4E
  0
DICTIONARY
  5
9C28
330
9BCA
100
AcDbDictionary
280
     1
281
     1
  3
ACAD_XREC_ROUNDTRIP
360
9C29
  0
DICTIONARY
  5
9C26
330
9BC9
100
AcDbDictionary
280
     1
281
     1
  3
ACAD_XREC_ROUNDTRIP
360
9C27
  0
DICTIONARY
  5
9C34
330
9BD0
100
AcDbDictionary
280
     1
281
     1
  3
ACAD_XREC_ROUNDTRIP
360
9C35
  0
DICTIONARY
  5
9C3C
330
9BD4
100
AcDbDictionary
280
     1
281
     1
  3
ACAD_XREC_ROUNDTRIP
360
9C3D
  0
DICTIONARY
  5
9C2E
330
9BCD
100
AcDbDictionary
280
     1
281
     1
  3
ACAD_XREC_ROUNDTRIP
360
9C2F
  0
DICTIONARY
  5
9C32
330
9BCF
100
AcDbDictionary
280
     1
281
     1
  3
ACAD_XREC_ROUNDTRIP
360
9C33
  0
DICTIONARY
  5
9C4C
330
9BDC
100
AcDbDictionary
280
     1
281
     1
  3
ACAD_XREC_ROUNDTRIP
360
9C4D
  0
DICTIONARY
  5
9C3A
330
9BD3
100
AcDbDictionary
280
     1
281
     1
  3
ACAD_XREC_ROUNDTRIP
360
9C3B
  0
DICTIONARY
  5
9C1E
330
9BC5
100
AcDbDictionary
280
     1
281
     1
  3
ACAD_XREC_ROUNDTRIP
360
9C1F
  0
DICTIONARY
  5
9C20
330
9BC6
100
AcDbDictionary
280
     1
281
     1
  3
ACAD_XREC_ROUNDTRIP
360
9C21
  0
DICTIONARY
  5
9C22
330
9BC7
100
AcDbDictionary
280
     1
281
     1
  3
ACAD_XREC_ROUNDTRIP
360
9C23
  0
DICTIONARY
  5
9C24
330
9BC8
100
AcDbDictionary
280
     1
281
     1
  3
ACAD_XREC_ROUNDTRIP
360
9C25
  0
DICTIONARY
  5
9C2C
330
9BCC
100
AcDbDictionary
280
     1
281
     1
  3
ACAD_XREC_ROUNDTRIP
360
9C2D
  0
DICTIONARY
  5
9C48
330
9BDA
100
AcDbDictionary
280
     1
281
     1
  3
ACAD_XREC_ROUNDTRIP
360
9C49
  0
DICTIONARY
  5
9C38
330
9BD2
100
AcDbDictionary
280
     1
281
     1
  3
ACAD_XREC_ROUNDTRIP
360
9C39
  0
DICTIONARY
  5
9C4A
330
9BDB
100
AcDbDictionary
280
     1
281
     1
  3
ACAD_XREC_ROUNDTRIP
360
9C4B
  0
DICTIONARY
  5
9C30
330
9BCE
100
AcDbDictionary
280
     1
281
     1
  3
ACAD_XREC_ROUNDTRIP
360
9C31
  0
DICTIONARY
  5
9C46
330
9BD9
100
AcDbDictionary
280
     1
281
     1
  3
ACAD_XREC_ROUNDTRIP
360
9C47
  0
DICTIONARY
  5
9C44
330
9BD8
100
AcDbDictionary
280
     1
281
     1
  3
ACAD_XREC_ROUNDTRIP
360
9C45
  0
DICTIONARY
  5
9C3E
330
9BD5
100
AcDbDictionary
280
     1
281
     1
  3
ACAD_XREC_ROUNDTRIP
360
9C3F
  0
DICTIONARY
  5
9C40
330
9BD6
100
AcDbDictionary
280
     1
281
     1
  3
ACAD_XREC_ROUNDTRIP
360
9C41
  0
DICTIONARY
  5
9C36
330
9BD1
100
AcDbDictionary
280
     1
281
     1
  3
ACAD_XREC_ROUNDTRIP
360
9C37
  0
DICTIONARY
  5
9C2A
330
9BCB
100
AcDbDictionary
280
     1
281
     1
  3
ACAD_XREC_ROUNDTRIP
360
9C2B
  0
DICTIONARY
  5
9C42
330
9BD7
100
AcDbDictionary
280
     1
281
     1
  3
ACAD_XREC_ROUNDTRIP
360
9C43
  0
XRECORD
  5
9C53
102
{ACAD_REACTORS
330
9C52
102
}
330
9C52
100
AcDbXrecord
280
     1
102
DISPLAYNAME
  1
Imperial24
102
FLAGS
 90
        0
  0
XRECORD
  5
9C55
102
{ACAD_REACTORS
330
9C54
102
}
330
9C54
100
AcDbXrecord
280
     1
102
SHADEPLOT
 70
     0
102
SHADEPLOTRESLEVEL
 70
     2
102
SHADEPLOTCUSTOMDPI
 70
   300
  0
XRECORD
  5
9C57
102
{ACAD_REACTORS
330
9C56
102
}
330
9C56
100
AcDbXrecord
280
     1
102
SHADEPLOT
 70
     0
102
SHADEPLOTRESLEVEL
 70
     2
102
SHADEPLOTCUSTOMDPI
 70
   300
  0
XRECORD
  5
9C1C
102
{ACAD_REACTORS
330
9BB5
102
}
330
9BB5
100
AcDbXrecord
280
     1
102
MATERIAL
148
0.0
149
0.0
149
0.0
 93
        0
 94
      127
282
     0
 72
     0
 77
     0
171
     0
175
     0
179
     0
273
     0
  0
XRECORD
  5
9BB7
102
{ACAD_REACTORS
330
9BB5
102
}
330
9BB5
100
AcDbXrecord
280
     1
270
     1
271
     1
  0
XRECORD
  5
9BB6
102
{ACAD_REACTORS
330
9BB5
102
}
330
9BB5
100
AcDbXrecord
280
     1
270
     1
271
     1
  0
XRECORD
  5
9BBA
102
{ACAD_REACTORS
330
9BB5
102
}
330
9BB5
100
AcDbXrecord
280
     1
270
     1
271
     1
  0
XRECORD
  5
9BB9
102
{ACAD_REACTORS
330
9BB5
102
}
330
9BB5
100
AcDbXrecord
280
     1
270
     1
271
     1
  0
XRECORD
  5
9BBB
102
{ACAD_REACTORS
330
9BB5
102
}
330
9BB5
100
AcDbXrecord
280
     1
270
     1
271
     1
  0
XRECORD
  5
9BB8
102
{ACAD_REACTORS
330
9BB5
102
}
330
9BB5
100
AcDbXrecord
280
     1
270
     1
271
     1
  0
XRECORD
  5
9C1B
102
{ACAD_REACTORS
330
9BAD
102
}
330
9BAD
100
AcDbXrecord
280
     1
102
MATERIAL
148
0.0
149
0.0
149
0.0
 93
        0
 94
      127
282
     0
 72
     0
 77
     0
171
     0
175
     0
179
     0
273
     0
  0
XRECORD
  5
9BAF
102
{ACAD_REACTORS
330
9BAD
102
}
330
9BAD
100
AcDbXrecord
280
     1
270
     1
271
     1
  0
XRECORD
  5
9BAE
102
{ACAD_REACTORS
330
9BAD
102
}
330
9BAD
100
AcDbXrecord
280
     1
270
     1
271
     1
  0
XRECORD
  5
9BB2
102
{ACAD_REACTORS
330
9BAD
102
}
330
9BAD
100
AcDbXrecord
280
     1
270
     1
271
     1
  0
XRECORD
  5
9BB1
102
{ACAD_REACTORS
330
9BAD
102
}
330
9BAD
100
AcDbXrecord
280
     1
270
     1
271
     1
  0
XRECORD
  5
9BB3
102
{ACAD_REACTORS
330
9BAD
102
}
330
9BAD
100
AcDbXrecord
280
     1
270
     1
271
     1
  0
XRECORD
  5
9BB0
102
{ACAD_REACTORS
330
9BAD
102
}
330
9BAD
100
AcDbXrecord
280
     1
270
     1
271
     1
  0
XRECORD
  5
9C1D
102
{ACAD_REACTORS
330
9BBD
102
}
330
9BBD
100
AcDbXrecord
280
     1
102
MATERIAL
148
0.0
149
0.0
149
0.0
 93
        0
 94
      127
282
     0
 72
     0
 77
     0
171
     0
175
     0
179
     0
273
     0
  0
XRECORD
  5
9BBF
102
{ACAD_REACTORS
330
9BBD
102
}
330
9BBD
100
AcDbXrecord
280
     1
270
     1
271
     1
  0
XRECORD
  5
9BBE
102
{ACAD_REACTORS
330
9BBD
102
}
330
9BBD
100
AcDbXrecord
280
     1
270
     1
271
     1
  0
XRECORD
  5
9BC2
102
{ACAD_REACTORS
330
9BBD
102
}
330
9BBD
100
AcDbXrecord
280
     1
270
     1
271
     1
  0
XRECORD
  5
9BC1
102
{ACAD_REACTORS
330
9BBD
102
}
330
9BBD
100
AcDbXrecord
280
     1
270
     1
271
     1
  0
XRECORD
  5
9BC3
102
{ACAD_REACTORS
330
9BBD
102
}
330
9BBD
100
AcDbXrecord
280
     1
270
     1
271
     1
  0
XRECORD
  5
9BC0
102
{ACAD_REACTORS
330
9BBD
102
}
330
9BBD
100
AcDbXrecord
280
     1
270
     1
271
     1
  0
XRECORD
  5
9C51
102
{ACAD_REACTORS
330
9C50
102
}
330
9C50
100
AcDbXrecord
280
     1
102
DISPLAYNAME
  1
Imperial24
102
FLAGS
 90
        0
  0
CELLSTYLEMAP
  5
9C18
102
{ACAD_REACTORS
330
9C17
102
}
330
9C17
100
AcDbCellStyleMap
 90
        3
300
CELLSTYLE
  1
TABLEFORMAT_BEGIN
 90
        5
170
     1
 91
        0
 92
    32768
 62
   257
 93
        1
300
CONTENTFORMAT
  1
CONTENTFORMAT_BEGIN
 90
        0
 91
        0
 92
      512
 93
        0
300

 40
0.0
140
1.0
 94
        5
 62
     0
340
9940
144
0.25
309
CONTENTFORMAT_END
171
     0
 94
        0
309
TABLEFORMAT_END
  1
CELLSTYLE_BEGIN
 90
        1
 91
        1
300
_TITLE
309
CELLSTYLE_END
300
CELLSTYLE
  1
TABLEFORMAT_BEGIN
 90
        5
170
     1
 91
        0
 92
        0
 62
   257
 93
        1
300
CONTENTFORMAT
  1
CONTENTFORMAT_BEGIN
 90
        0
 91
        0
 92
      512
 93
        0
300

 40
0.0
140
1.0
 94
        5
 62
     0
340
9940
144
0.18
309
CONTENTFORMAT_END
171
     0
 94
        0
309
TABLEFORMAT_END
  1
CELLSTYLE_BEGIN
 90
        2
 91
        1
300
_HEADER
309
CELLSTYLE_END
300
CELLSTYLE
  1
TABLEFORMAT_BEGIN
 90
        5
170
     1
 91
        0
 92
        0
 62
   257
 93
        1
300
CONTENTFORMAT
  1
CONTENTFORMAT_BEGIN
 90
        0
 91
        0
 92
      512
 93
        0
300

 40
0.0
140
1.0
 94
        2
 62
     0
340
9940
144
0.18
309
CONTENTFORMAT_END
171
     0
 94
        0
309
TABLEFORMAT_END
  1
CELLSTYLE_BEGIN
 90
        3
 91
        2
300
_DATA
309
CELLSTYLE_END
  0
XRECORD
  5
9C4E
102
{ACAD_REACTORS
330
9C17
102
}
330
9C17
100
AcDbXrecord
280
     1
102
ACAD_ROUNDTRIP_PRE2007_TABLESTYLE
 90
      512
 91
        0
  1

 92
      512
 93
        0
  2

 94
      512
 95
        0
  3

  0
XRECORD
  5
9C29
102
{ACAD_REACTORS
330
9C28
102
}
330
9C28
100
AcDbXrecord
280
     1
102
RTVSPost2010Prop28
280
     1
102
RTVSPost2010PropOp28
 70
     1
102
RTVSPost2010Prop29
280
     1
102
RTVSPost2010PropOp29
 70
     1
102
RTVSPost2010Prop30
280
     0
102
RTVSPost2010PropOp30
 70
     1
102
RTVSPost2010Prop31
280
     0
102
RTVSPost2010PropOp31
 70
     1
102
RTVSPost2010Prop32
280
     0
102
RTVSPost2010PropOp32
 70
     1
102
RTVSPost2010Prop33
280
     0
102
RTVSPost2010PropOp33
 70
     1
102
RTVSPost2010Prop34
280
     0
102
RTVSPost2010PropOp34
 70
     1
102
RTVSPost2010Prop35
280
     0
102
RTVSPost2010PropOp35
 70
     1
102
RTVSPost2010Prop36
280
     0
102
RTVSPost2010PropOp36
 70
     1
102
RTVSPost2010Prop37
 90
       50
102
RTVSPost2010PropOp37
 70
     1
102
RTVSPost2010Prop38
140
0.0
102
RTVSPost2010PropOp38
 70
     1
102
RTVSPost2010Prop39
140
1.0
102
RTVSPost2010PropOp39
 70
     1
102
RTVSPost2010Prop40
 90
        0
102
RTVSPost2010PropOp40
 70
     1
102
RTVSPost2010Prop41ColorIndex
 90
       18
102
RTVSPost2010Prop41ColorRGB
 90
        0
102
RTVSPost2010PropOp41
 70
     1
102
RTVSPost2010Prop42
 90
       50
102
RTVSPost2010PropOp42
 70
     1
102
RTVSPost2010Prop43
 90
        3
102
RTVSPost2010PropOp43
 70
     1
102
RTVSPost2010Prop44ColorIndex
 90
        5
102
RTVSPost2010Prop44ColorRGB
 90
      255
102
RTVSPost2010PropOp44
 70
     1
102
RTVSPost2010Prop45
280
     0
102
RTVSPost2010PropOp45
 70
     1
102
RTVSPost2010Prop46
 90
       50
102
RTVSPost2010PropOp46
 70
     1
102
RTVSPost2010Prop47
 90
       50
102
RTVSPost2010PropOp47
 70
     1
102
RTVSPost2010Prop48
 90
       50
102
RTVSPost2010PropOp48
 70
     1
102
RTVSPost2010Prop49
280
     0
102
RTVSPost2010PropOp49
 70
     1
102
RTVSPost2010Prop50
 90
       50
102
RTVSPost2010PropOp50
 70
     1
102
RTVSPost2010Prop51ColorIndex
 90
      256
102
RTVSPost2010Prop51ColorRGB
 90
-16777216
102
RTVSPost2010PropOp51
 70
     0
102
RTVSPost2010Prop52
140
1.0
102
RTVSPost2010PropOp52
 70
     0
102
RTVSPost2010Prop53
 90
        2
102
RTVSPost2010PropOp53
 70
     1
102
RTVSPost2010Prop54
  1
strokes_ogs.tif
102
RTVSPost2010PropOp54
 70
     1
102
RTVSPost2010Prop55
280
     0
102
RTVSPost2010PropOp55
 70
     1
102
RTVSPost2010Prop56
140
1.0
102
RTVSPost2010PropOp56
 70
     1
102
RTVSPost2010Prop57
140
1.0
102
RTVSPost2010PropOp57
 70
     1
102
RTVSPropertyOp0
 70
     1
102
RTVSPropertyOp1
 70
     1
102
RTVSPropertyOp2
 70
     1
102
RTVSPropertyOp3
 70
     1
102
RTVSPropertyOp4
 70
     1
102
RTVSPropertyOp5
 70
     1
102
RTVSPropertyOp6
 70
     1
102
RTVSPropertyOp7
 70
     1
102
RTVSPropertyOp8
 70
     1
102
RTVSPropertyOp9
 70
     1
102
RTVSPropertyOp10
 70
     1
102
RTVSPropertyOp11
 70
     1
102
RTVSPropertyOp12
 70
     1
102
RTVSPropertyOp13
 70
     1
102
RTVSPropertyOp14
 70
     1
102
RTVSPropertyOp15
 70
     1
102
RTVSPropertyOp16
 70
     1
102
RTVSPropertyOp17
 70
     1
102
RTVSPropertyOp18
 70
     1
102
RTVSPropertyOp19
 70
     1
102
RTVSPropertyOp20
 70
     1
102
RTVSPropertyOp21
 70
     1
102
RTVSPropertyOp22
 70
     1
102
RTVSPropertyOp23
 70
     1
102
RTVSPropertyOp24
 70
     1
102
RTVSPropertyOp25
 70
     1
102
RTVSPropertyOp26
 70
     1
102
RTVSPropertyOp27
 70
     1
102
RTVSPropertyOp28
 70
     1
102
RTVSPropertyOp29
 70
     1
102
RTVSPropertyOp30
 70
     1
102
RTVSPropertyOp31
 70
     1
102
RTVSPropertyOp32
 70
     1
102
RTVSPropertyOp33
 70
     1
102
RTVSPropertyOp34
 70
     1
102
RTVSPropertyOp35
 70
     1
102
RTVSPropertyOp36
 70
     1
102
RTVSPropertyOp37
 70
     1
102
RTVSPropertyOp38
 70
     1
102
RTVSPropertyOp39
 70
     1
102
RTVSPropertyOp40
 70
     1
102
RTVSPropertyOp41
 70
     1
102
RTVSPropertyOp42
 70
     1
102
RTVSPropertyOp43
 70
     1
102
RTVSPropertyOp44
 70
     1
102
RTVSPropertyOp45
 70
     1
102
RTVSPropertyOp46
 70
     1
102
RTVSPropertyOp47
 70
     1
102
RTVSPropertyOp48
 70
     1
102
RTVSPropertyOp49
 70
     1
102
RTVSPropertyOp50
 70
     1
102
RTVSPropertyOp51
 70
     0
102
RTVSPropertyOp52
 70
     0
102
RTVSPropertyOp53
 70
     1
102
RTVSPropertyOp54
 70
     1
102
RTVSPropertyOp55
 70
     1
102
RTVSPropertyOp56
 70
     1
102
RTVSPropertyOp57
 70
     1
102
RTVSPropertyOp58
 70
     1
102
RTVSPropertyOp59
 70
     1
102
RTVSPropertyOp60
 70
     1
102
RTVSPropertyOp61
 70
     1
102
RTVSPropertyOp62
 70
     1
  0
XRECORD
  5
9C27
102
{ACAD_REACTORS
330
9C26
102
}
330
9C26
100
AcDbXrecord
280
     1
102
RTVSPost2010Prop28
280
     0
102
RTVSPost2010PropOp28
 70
     1
102
RTVSPost2010Prop29
280
     1
102
RTVSPost2010PropOp29
 70
     1
102
RTVSPost2010Prop30
280
     1
102
RTVSPost2010PropOp30
 70
     1
102
RTVSPost2010Prop31
280
     0
102
RTVSPost2010PropOp31
 70
     1
102
RTVSPost2010Prop32
280
     0
102
RTVSPost2010PropOp32
 70
     1
102
RTVSPost2010Prop33
280
     0
102
RTVSPost2010PropOp33
 70
     1
102
RTVSPost2010Prop34
280
     0
102
RTVSPost2010PropOp34
 70
     1
102
RTVSPost2010Prop35
280
     0
102
RTVSPost2010PropOp35
 70
     1
102
RTVSPost2010Prop36
280
     0
102
RTVSPost2010PropOp36
 70
     1
102
RTVSPost2010Prop37
 90
       50
102
RTVSPost2010PropOp37
 70
     1
102
RTVSPost2010Prop38
140
0.0
102
RTVSPost2010PropOp38
 70
     1
102
RTVSPost2010Prop39
140
1.0
102
RTVSPost2010PropOp39
 70
     1
102
RTVSPost2010Prop40
 90
        0
102
RTVSPost2010PropOp40
 70
     1
102
RTVSPost2010Prop41ColorIndex
 90
       18
102
RTVSPost2010Prop41ColorRGB
 90
        0
102
RTVSPost2010PropOp41
 70
     1
102
RTVSPost2010Prop42
 90
       50
102
RTVSPost2010PropOp42
 70
     1
102
RTVSPost2010Prop43
 90
        3
102
RTVSPost2010PropOp43
 70
     1
102
RTVSPost2010Prop44ColorIndex
 90
        5
102
RTVSPost2010Prop44ColorRGB
 90
      255
102
RTVSPost2010PropOp44
 70
     1
102
RTVSPost2010Prop45
280
     0
102
RTVSPost2010PropOp45
 70
     1
102
RTVSPost2010Prop46
 90
       50
102
RTVSPost2010PropOp46
 70
     1
102
RTVSPost2010Prop47
 90
       50
102
RTVSPost2010PropOp47
 70
     1
102
RTVSPost2010Prop48
 90
       50
102
RTVSPost2010PropOp48
 70
     1
102
RTVSPost2010Prop49
280
     0
102
RTVSPost2010PropOp49
 70
     1
102
RTVSPost2010Prop50
 90
       50
102
RTVSPost2010PropOp50
 70
     1
102
RTVSPost2010Prop51ColorIndex
 90
      256
102
RTVSPost2010Prop51ColorRGB
 90
-16777216
102
RTVSPost2010PropOp51
 70
     0
102
RTVSPost2010Prop52
140
1.0
102
RTVSPost2010PropOp52
 70
     0
102
RTVSPost2010Prop53
 90
        2
102
RTVSPost2010PropOp53
 70
     1
102
RTVSPost2010Prop54
  1
strokes_ogs.tif
102
RTVSPost2010PropOp54
 70
     1
102
RTVSPost2010Prop55
280
     0
102
RTVSPost2010PropOp55
 70
     1
102
RTVSPost2010Prop56
140
1.0
102
RTVSPost2010PropOp56
 70
     1
102
RTVSPost2010Prop57
140
1.0
102
RTVSPost2010PropOp57
 70
     1
102
RTVSPropertyOp0
 70
     1
102
RTVSPropertyOp1
 70
     1
102
RTVSPropertyOp2
 70
     1
102
RTVSPropertyOp3
 70
     1
102
RTVSPropertyOp4
 70
     1
102
RTVSPropertyOp5
 70
     1
102
RTVSPropertyOp6
 70
     1
102
RTVSPropertyOp7
 70
     1
102
RTVSPropertyOp8
 70
     1
102
RTVSPropertyOp9
 70
     1
102
RTVSPropertyOp10
 70
     1
102
RTVSPropertyOp11
 70
     1
102
RTVSPropertyOp12
 70
     1
102
RTVSPropertyOp13
 70
     1
102
RTVSPropertyOp14
 70
     1
102
RTVSPropertyOp15
 70
     1
102
RTVSPropertyOp16
 70
     1
102
RTVSPropertyOp17
 70
     1
102
RTVSPropertyOp18
 70
     1
102
RTVSPropertyOp19
 70
     1
102
RTVSPropertyOp20
 70
     1
102
RTVSPropertyOp21
 70
     1
102
RTVSPropertyOp22
 70
     1
102
RTVSPropertyOp23
 70
     1
102
RTVSPropertyOp24
 70
     1
102
RTVSPropertyOp25
 70
     1
102
RTVSPropertyOp26
 70
     1
102
RTVSPropertyOp27
 70
     1
102
RTVSPropertyOp28
 70
     1
102
RTVSPropertyOp29
 70
     1
102
RTVSPropertyOp30
 70
     1
102
RTVSPropertyOp31
 70
     1
102
RTVSPropertyOp32
 70
     1
102
RTVSPropertyOp33
 70
     1
102
RTVSPropertyOp34
 70
     1
102
RTVSPropertyOp35
 70
     1
102
RTVSPropertyOp36
 70
     1
102
RTVSPropertyOp37
 70
     1
102
RTVSPropertyOp38
 70
     1
102
RTVSPropertyOp39
 70
     1
102
RTVSPropertyOp40
 70
     1
102
RTVSPropertyOp41
 70
     1
102
RTVSPropertyOp42
 70
     1
102
RTVSPropertyOp43
 70
     1
102
RTVSPropertyOp44
 70
     1
102
RTVSPropertyOp45
 70
     1
102
RTVSPropertyOp46
 70
     1
102
RTVSPropertyOp47
 70
     1
102
RTVSPropertyOp48
 70
     1
102
RTVSPropertyOp49
 70
     1
102
RTVSPropertyOp50
 70
     1
102
RTVSPropertyOp51
 70
     0
102
RTVSPropertyOp52
 70
     0
102
RTVSPropertyOp53
 70
     1
102
RTVSPropertyOp54
 70
     1
102
RTVSPropertyOp55
 70
     1
102
RTVSPropertyOp56
 70
     1
102
RTVSPropertyOp57
 70
     1
102
RTVSPropertyOp58
 70
     1
102
RTVSPropertyOp59
 70
     1
102
RTVSPropertyOp60
 70
     1
102
RTVSPropertyOp61
 70
     1
102
RTVSPropertyOp62
 70
     1
  0
XRECORD
  5
9C35
102
{ACAD_REACTORS
330
9C34
102
}
330
9C34
100
AcDbXrecord
280
     1
102
RTVSPost2010Prop28
280
     0
102
RTVSPost2010PropOp28
 70
     1
102
RTVSPost2010Prop29
280
     1
102
RTVSPost2010PropOp29
 70
     1
102
RTVSPost2010Prop30
280
     1
102
RTVSPost2010PropOp30
 70
     1
102
RTVSPost2010Prop31
280
     0
102
RTVSPost2010PropOp31
 70
     1
102
RTVSPost2010Prop32
280
     0
102
RTVSPost2010PropOp32
 70
     1
102
RTVSPost2010Prop33
280
     0
102
RTVSPost2010PropOp33
 70
     1
102
RTVSPost2010Prop34
280
     0
102
RTVSPost2010PropOp34
 70
     1
102
RTVSPost2010Prop35
280
     0
102
RTVSPost2010PropOp35
 70
     1
102
RTVSPost2010Prop36
280
     0
102
RTVSPost2010PropOp36
 70
     1
102
RTVSPost2010Prop37
 90
       50
102
RTVSPost2010PropOp37
 70
     1
102
RTVSPost2010Prop38
140
0.0
102
RTVSPost2010PropOp38
 70
     1
102
RTVSPost2010Prop39
140
1.0
102
RTVSPost2010PropOp39
 70
     1
102
RTVSPost2010Prop40
 90
        0
102
RTVSPost2010PropOp40
 70
     1
102
RTVSPost2010Prop41ColorIndex
 90
       18
102
RTVSPost2010Prop41ColorRGB
 90
        0
102
RTVSPost2010PropOp41
 70
     1
102
RTVSPost2010Prop42
 90
       50
102
RTVSPost2010PropOp42
 70
     1
102
RTVSPost2010Prop43
 90
        3
102
RTVSPost2010PropOp43
 70
     1
102
RTVSPost2010Prop44ColorIndex
 90
        5
102
RTVSPost2010Prop44ColorRGB
 90
      255
102
RTVSPost2010PropOp44
 70
     1
102
RTVSPost2010Prop45
280
     0
102
RTVSPost2010PropOp45
 70
     1
102
RTVSPost2010Prop46
 90
       50
102
RTVSPost2010PropOp46
 70
     1
102
RTVSPost2010Prop47
 90
       50
102
RTVSPost2010PropOp47
 70
     1
102
RTVSPost2010Prop48
 90
       50
102
RTVSPost2010PropOp48
 70
     1
102
RTVSPost2010Prop49
280
     0
102
RTVSPost2010PropOp49
 70
     1
102
RTVSPost2010Prop50
 90
       50
102
RTVSPost2010PropOp50
 70
     1
102
RTVSPost2010Prop51ColorIndex
 90
      256
102
RTVSPost2010Prop51ColorRGB
 90
-16777216
102
RTVSPost2010PropOp51
 70
     0
102
RTVSPost2010Prop52
140
1.0
102
RTVSPost2010PropOp52
 70
     0
102
RTVSPost2010Prop53
 90
        2
102
RTVSPost2010PropOp53
 70
     1
102
RTVSPost2010Prop54
  1
strokes_ogs.tif
102
RTVSPost2010PropOp54
 70
     1
102
RTVSPost2010Prop55
280
     0
102
RTVSPost2010PropOp55
 70
     1
102
RTVSPost2010Prop56
140
1.0
102
RTVSPost2010PropOp56
 70
     1
102
RTVSPost2010Prop57
140
1.0
102
RTVSPost2010PropOp57
 70
     1
102
RTVSPropertyOp0
 70
     1
102
RTVSPropertyOp1
 70
     1
102
RTVSPropertyOp2
 70
     1
102
RTVSPropertyOp3
 70
     1
102
RTVSPropertyOp4
 70
     1
102
RTVSPropertyOp5
 70
     1
102
RTVSPropertyOp6
 70
     1
102
RTVSPropertyOp7
 70
     1
102
RTVSPropertyOp8
 70
     1
102
RTVSPropertyOp9
 70
     1
102
RTVSPropertyOp10
 70
     1
102
RTVSPropertyOp11
 70
     1
102
RTVSPropertyOp12
 70
     1
102
RTVSPropertyOp13
 70
     1
102
RTVSPropertyOp14
 70
     1
102
RTVSPropertyOp15
 70
     1
102
RTVSPropertyOp16
 70
     1
102
RTVSPropertyOp17
 70
     1
102
RTVSPropertyOp18
 70
     1
102
RTVSPropertyOp19
 70
     1
102
RTVSPropertyOp20
 70
     1
102
RTVSPropertyOp21
 70
     1
102
RTVSPropertyOp22
 70
     1
102
RTVSPropertyOp23
 70
     1
102
RTVSPropertyOp24
 70
     1
102
RTVSPropertyOp25
 70
     1
102
RTVSPropertyOp26
 70
     1
102
RTVSPropertyOp27
 70
     1
102
RTVSPropertyOp28
 70
     1
102
RTVSPropertyOp29
 70
     1
102
RTVSPropertyOp30
 70
     1
102
RTVSPropertyOp31
 70
     1
102
RTVSPropertyOp32
 70
     1
102
RTVSPropertyOp33
 70
     1
102
RTVSPropertyOp34
 70
     1
102
RTVSPropertyOp35
 70
     1
102
RTVSPropertyOp36
 70
     1
102
RTVSPropertyOp37
 70
     1
102
RTVSPropertyOp38
 70
     1
102
RTVSPropertyOp39
 70
     1
102
RTVSPropertyOp40
 70
     1
102
RTVSPropertyOp41
 70
     1
102
RTVSPropertyOp42
 70
     1
102
RTVSPropertyOp43
 70
     1
102
RTVSPropertyOp44
 70
     1
102
RTVSPropertyOp45
 70
     1
102
RTVSPropertyOp46
 70
     1
102
RTVSPropertyOp47
 70
     1
102
RTVSPropertyOp48
 70
     1
102
RTVSPropertyOp49
 70
     1
102
RTVSPropertyOp50
 70
     1
102
RTVSPropertyOp51
 70
     0
102
RTVSPropertyOp52
 70
     0
102
RTVSPropertyOp53
 70
     1
102
RTVSPropertyOp54
 70
     1
102
RTVSPropertyOp55
 70
     1
102
RTVSPropertyOp56
 70
     1
102
RTVSPropertyOp57
 70
     1
102
RTVSPropertyOp58
 70
     1
102
RTVSPropertyOp59
 70
     1
102
RTVSPropertyOp60
 70
     1
102
RTVSPropertyOp61
 70
     1
102
RTVSPropertyOp62
 70
     1
  0
XRECORD
  5
9C3D
102
{ACAD_REACTORS
330
9C3C
102
}
330
9C3C
100
AcDbXrecord
280
     1
102
RTVSPost2010Prop28
280
     0
102
RTVSPost2010PropOp28
 70
     1
102
RTVSPost2010Prop29
280
     1
102
RTVSPost2010PropOp29
 70
     1
102
RTVSPost2010Prop30
280
     1
102
RTVSPost2010PropOp30
 70
     1
102
RTVSPost2010Prop31
280
     0
102
RTVSPost2010PropOp31
 70
     1
102
RTVSPost2010Prop32
280
     0
102
RTVSPost2010PropOp32
 70
     1
102
RTVSPost2010Prop33
280
     0
102
RTVSPost2010PropOp33
 70
     1
102
RTVSPost2010Prop34
280
     0
102
RTVSPost2010PropOp34
 70
     1
102
RTVSPost2010Prop35
280
     0
102
RTVSPost2010PropOp35
 70
     1
102
RTVSPost2010Prop36
280
     0
102
RTVSPost2010PropOp36
 70
     1
102
RTVSPost2010Prop37
 90
       50
102
RTVSPost2010PropOp37
 70
     1
102
RTVSPost2010Prop38
140
0.0
102
RTVSPost2010PropOp38
 70
     1
102
RTVSPost2010Prop39
140
1.0
102
RTVSPost2010PropOp39
 70
     1
102
RTVSPost2010Prop40
 90
        0
102
RTVSPost2010PropOp40
 70
     1
102
RTVSPost2010Prop41ColorIndex
 90
       18
102
RTVSPost2010Prop41ColorRGB
 90
        0
102
RTVSPost2010PropOp41
 70
     1
102
RTVSPost2010Prop42
 90
       50
102
RTVSPost2010PropOp42
 70
     1
102
RTVSPost2010Prop43
 90
        3
102
RTVSPost2010PropOp43
 70
     1
102
RTVSPost2010Prop44ColorIndex
 90
        5
102
RTVSPost2010Prop44ColorRGB
 90
      255
102
RTVSPost2010PropOp44
 70
     1
102
RTVSPost2010Prop45
280
     0
102
RTVSPost2010PropOp45
 70
     1
102
RTVSPost2010Prop46
 90
       50
102
RTVSPost2010PropOp46
 70
     1
102
RTVSPost2010Prop47
 90
       50
102
RTVSPost2010PropOp47
 70
     1
102
RTVSPost2010Prop48
 90
       50
102
RTVSPost2010PropOp48
 70
     1
102
RTVSPost2010Prop49
280
     0
102
RTVSPost2010PropOp49
 70
     1
102
RTVSPost2010Prop50
 90
       50
102
RTVSPost2010PropOp50
 70
     1
102
RTVSPost2010Prop51ColorIndex
 90
      256
102
RTVSPost2010Prop51ColorRGB
 90
-16777216
102
RTVSPost2010PropOp51
 70
     0
102
RTVSPost2010Prop52
140
1.0
102
RTVSPost2010PropOp52
 70
     0
102
RTVSPost2010Prop53
 90
        2
102
RTVSPost2010PropOp53
 70
     1
102
RTVSPost2010Prop54
  1
strokes_ogs.tif
102
RTVSPost2010PropOp54
 70
     1
102
RTVSPost2010Prop55
280
     0
102
RTVSPost2010PropOp55
 70
     1
102
RTVSPost2010Prop56
140
1.0
102
RTVSPost2010PropOp56
 70
     1
102
RTVSPost2010Prop57
140
1.0
102
RTVSPost2010PropOp57
 70
     1
102
RTVSPropertyOp0
 70
     1
102
RTVSPropertyOp1
 70
     1
102
RTVSPropertyOp2
 70
     1
102
RTVSPropertyOp3
 70
     1
102
RTVSPropertyOp4
 70
     1
102
RTVSPropertyOp5
 70
     1
102
RTVSPropertyOp6
 70
     1
102
RTVSPropertyOp7
 70
     1
102
RTVSPropertyOp8
 70
     1
102
RTVSPropertyOp9
 70
     1
102
RTVSPropertyOp10
 70
     1
102
RTVSPropertyOp11
 70
     1
102
RTVSPropertyOp12
 70
     1
102
RTVSPropertyOp13
 70
     1
102
RTVSPropertyOp14
 70
     1
102
RTVSPropertyOp15
 70
     1
102
RTVSPropertyOp16
 70
     1
102
RTVSPropertyOp17
 70
     1
102
RTVSPropertyOp18
 70
     1
102
RTVSPropertyOp19
 70
     1
102
RTVSPropertyOp20
 70
     1
102
RTVSPropertyOp21
 70
     1
102
RTVSPropertyOp22
 70
     1
102
RTVSPropertyOp23
 70
     1
102
RTVSPropertyOp24
 70
     1
102
RTVSPropertyOp25
 70
     1
102
RTVSPropertyOp26
 70
     1
102
RTVSPropertyOp27
 70
     1
102
RTVSPropertyOp28
 70
     1
102
RTVSPropertyOp29
 70
     1
102
RTVSPropertyOp30
 70
     1
102
RTVSPropertyOp31
 70
     1
102
RTVSPropertyOp32
 70
     1
102
RTVSPropertyOp33
 70
     1
102
RTVSPropertyOp34
 70
     1
102
RTVSPropertyOp35
 70
     1
102
RTVSPropertyOp36
 70
     1
102
RTVSPropertyOp37
 70
     1
102
RTVSPropertyOp38
 70
     1
102
RTVSPropertyOp39
 70
     1
102
RTVSPropertyOp40
 70
     1
102
RTVSPropertyOp41
 70
     1
102
RTVSPropertyOp42
 70
     1
102
RTVSPropertyOp43
 70
     1
102
RTVSPropertyOp44
 70
     1
102
RTVSPropertyOp45
 70
     1
102
RTVSPropertyOp46
 70
     1
102
RTVSPropertyOp47
 70
     1
102
RTVSPropertyOp48
 70
     1
102
RTVSPropertyOp49
 70
     1
102
RTVSPropertyOp50
 70
     1
102
RTVSPropertyOp51
 70
     0
102
RTVSPropertyOp52
 70
     0
102
RTVSPropertyOp53
 70
     1
102
RTVSPropertyOp54
 70
     1
102
RTVSPropertyOp55
 70
     1
102
RTVSPropertyOp56
 70
     1
102
RTVSPropertyOp57
 70
     1
102
RTVSPropertyOp58
 70
     1
102
RTVSPropertyOp59
 70
     1
102
RTVSPropertyOp60
 70
     1
102
RTVSPropertyOp61
 70
     1
102
RTVSPropertyOp62
 70
     1
  0
XRECORD
  5
9C2F
102
{ACAD_REACTORS
330
9C2E
102
}
330
9C2E
100
AcDbXrecord
280
     1
102
RTVSPost2010Prop28
280
     0
102
RTVSPost2010PropOp28
 70
     1
102
RTVSPost2010Prop29
280
     1
102
RTVSPost2010PropOp29
 70
     1
102
RTVSPost2010Prop30
280
     1
102
RTVSPost2010PropOp30
 70
     1
102
RTVSPost2010Prop31
280
     0
102
RTVSPost2010PropOp31
 70
     1
102
RTVSPost2010Prop32
280
     0
102
RTVSPost2010PropOp32
 70
     1
102
RTVSPost2010Prop33
280
     0
102
RTVSPost2010PropOp33
 70
     1
102
RTVSPost2010Prop34
280
     0
102
RTVSPost2010PropOp34
 70
     1
102
RTVSPost2010Prop35
280
     0
102
RTVSPost2010PropOp35
 70
     1
102
RTVSPost2010Prop36
280
     0
102
RTVSPost2010PropOp36
 70
     1
102
RTVSPost2010Prop37
 90
       50
102
RTVSPost2010PropOp37
 70
     1
102
RTVSPost2010Prop38
140
0.0
102
RTVSPost2010PropOp38
 70
     1
102
RTVSPost2010Prop39
140
1.0
102
RTVSPost2010PropOp39
 70
     1
102
RTVSPost2010Prop40
 90
        0
102
RTVSPost2010PropOp40
 70
     1
102
RTVSPost2010Prop41ColorIndex
 90
       18
102
RTVSPost2010Prop41ColorRGB
 90
        0
102
RTVSPost2010PropOp41
 70
     1
102
RTVSPost2010Prop42
 90
       50
102
RTVSPost2010PropOp42
 70
     1
102
RTVSPost2010Prop43
 90
        3
102
RTVSPost2010PropOp43
 70
     1
102
RTVSPost2010Prop44ColorIndex
 90
        5
102
RTVSPost2010Prop44ColorRGB
 90
      255
102
RTVSPost2010PropOp44
 70
     1
102
RTVSPost2010Prop45
280
     0
102
RTVSPost2010PropOp45
 70
     1
102
RTVSPost2010Prop46
 90
       50
102
RTVSPost2010PropOp46
 70
     1
102
RTVSPost2010Prop47
 90
       50
102
RTVSPost2010PropOp47
 70
     1
102
RTVSPost2010Prop48
 90
       50
102
RTVSPost2010PropOp48
 70
     1
102
RTVSPost2010Prop49
280
     0
102
RTVSPost2010PropOp49
 70
     1
102
RTVSPost2010Prop50
 90
       50
102
RTVSPost2010PropOp50
 70
     1
102
RTVSPost2010Prop51ColorIndex
 90
      256
102
RTVSPost2010Prop51ColorRGB
 90
-16777216
102
RTVSPost2010PropOp51
 70
     0
102
RTVSPost2010Prop52
140
1.0
102
RTVSPost2010PropOp52
 70
     0
102
RTVSPost2010Prop53
 90
        2
102
RTVSPost2010PropOp53
 70
     1
102
RTVSPost2010Prop54
  1
strokes_ogs.tif
102
RTVSPost2010PropOp54
 70
     1
102
RTVSPost2010Prop55
280
     0
102
RTVSPost2010PropOp55
 70
     1
102
RTVSPost2010Prop56
140
1.0
102
RTVSPost2010PropOp56
 70
     1
102
RTVSPost2010Prop57
140
1.0
102
RTVSPost2010PropOp57
 70
     1
102
RTVSPropertyOp0
 70
     1
102
RTVSPropertyOp1
 70
     1
102
RTVSPropertyOp2
 70
     1
102
RTVSPropertyOp3
 70
     1
102
RTVSPropertyOp4
 70
     1
102
RTVSPropertyOp5
 70
     1
102
RTVSPropertyOp6
 70
     1
102
RTVSPropertyOp7
 70
     1
102
RTVSPropertyOp8
 70
     1
102
RTVSPropertyOp9
 70
     1
102
RTVSPropertyOp10
 70
     1
102
RTVSPropertyOp11
 70
     1
102
RTVSPropertyOp12
 70
     1
102
RTVSPropertyOp13
 70
     1
102
RTVSPropertyOp14
 70
     1
102
RTVSPropertyOp15
 70
     1
102
RTVSPropertyOp16
 70
     1
102
RTVSPropertyOp17
 70
     1
102
RTVSPropertyOp18
 70
     1
102
RTVSPropertyOp19
 70
     1
102
RTVSPropertyOp20
 70
     1
102
RTVSPropertyOp21
 70
     1
102
RTVSPropertyOp22
 70
     1
102
RTVSPropertyOp23
 70
     1
102
RTVSPropertyOp24
 70
     1
102
RTVSPropertyOp25
 70
     1
102
RTVSPropertyOp26
 70
     1
102
RTVSPropertyOp27
 70
     1
102
RTVSPropertyOp28
 70
     1
102
RTVSPropertyOp29
 70
     1
102
RTVSPropertyOp30
 70
     1
102
RTVSPropertyOp31
 70
     1
102
RTVSPropertyOp32
 70
     1
102
RTVSPropertyOp33
 70
     1
102
RTVSPropertyOp34
 70
     1
102
RTVSPropertyOp35
 70
     1
102
RTVSPropertyOp36
 70
     1
102
RTVSPropertyOp37
 70
     1
102
RTVSPropertyOp38
 70
     1
102
RTVSPropertyOp39
 70
     1
102
RTVSPropertyOp40
 70
     1
102
RTVSPropertyOp41
 70
     1
102
RTVSPropertyOp42
 70
     1
102
RTVSPropertyOp43
 70
     1
102
RTVSPropertyOp44
 70
     1
102
RTVSPropertyOp45
 70
     1
102
RTVSPropertyOp46
 70
     1
102
RTVSPropertyOp47
 70
     1
102
RTVSPropertyOp48
 70
     1
102
RTVSPropertyOp49
 70
     1
102
RTVSPropertyOp50
 70
     1
102
RTVSPropertyOp51
 70
     0
102
RTVSPropertyOp52
 70
     0
102
RTVSPropertyOp53
 70
     1
102
RTVSPropertyOp54
 70
     1
102
RTVSPropertyOp55
 70
     1
102
RTVSPropertyOp56
 70
     1
102
RTVSPropertyOp57
 70
     1
102
RTVSPropertyOp58
 70
     1
102
RTVSPropertyOp59
 70
     1
102
RTVSPropertyOp60
 70
     1
102
RTVSPropertyOp61
 70
     1
102
RTVSPropertyOp62
 70
     1
  0
XRECORD
  5
9C33
102
{ACAD_REACTORS
330
9C32
102
}
330
9C32
100
AcDbXrecord
280
     1
102
RTVSPost2010Prop28
280
     0
102
RTVSPost2010PropOp28
 70
     1
102
RTVSPost2010Prop29
280
     1
102
RTVSPost2010PropOp29
 70
     1
102
RTVSPost2010Prop30
280
     1
102
RTVSPost2010PropOp30
 70
     1
102
RTVSPost2010Prop31
280
     0
102
RTVSPost2010PropOp31
 70
     1
102
RTVSPost2010Prop32
280
     0
102
RTVSPost2010PropOp32
 70
     1
102
RTVSPost2010Prop33
280
     0
102
RTVSPost2010PropOp33
 70
     1
102
RTVSPost2010Prop34
280
     0
102
RTVSPost2010PropOp34
 70
     1
102
RTVSPost2010Prop35
280
     0
102
RTVSPost2010PropOp35
 70
     1
102
RTVSPost2010Prop36
280
     0
102
RTVSPost2010PropOp36
 70
     1
102
RTVSPost2010Prop37
 90
       50
102
RTVSPost2010PropOp37
 70
     1
102
RTVSPost2010Prop38
140
0.0
102
RTVSPost2010PropOp38
 70
     1
102
RTVSPost2010Prop39
140
1.0
102
RTVSPost2010PropOp39
 70
     1
102
RTVSPost2010Prop40
 90
        0
102
RTVSPost2010PropOp40
 70
     1
102
RTVSPost2010Prop41ColorIndex
 90
       18
102
RTVSPost2010Prop41ColorRGB
 90
        0
102
RTVSPost2010PropOp41
 70
     1
102
RTVSPost2010Prop42
 90
       50
102
RTVSPost2010PropOp42
 70
     1
102
RTVSPost2010Prop43
 90
        3
102
RTVSPost2010PropOp43
 70
     1
102
RTVSPost2010Prop44ColorIndex
 90
        5
102
RTVSPost2010Prop44ColorRGB
 90
      255
102
RTVSPost2010PropOp44
 70
     1
102
RTVSPost2010Prop45
280
     0
102
RTVSPost2010PropOp45
 70
     1
102
RTVSPost2010Prop46
 90
       50
102
RTVSPost2010PropOp46
 70
     1
102
RTVSPost2010Prop47
 90
       50
102
RTVSPost2010PropOp47
 70
     1
102
RTVSPost2010Prop48
 90
       50
102
RTVSPost2010PropOp48
 70
     1
102
RTVSPost2010Prop49
280
     0
102
RTVSPost2010PropOp49
 70
     1
102
RTVSPost2010Prop50
 90
       50
102
RTVSPost2010PropOp50
 70
     1
102
RTVSPost2010Prop51ColorIndex
 90
      256
102
RTVSPost2010Prop51ColorRGB
 90
-16777216
102
RTVSPost2010PropOp51
 70
     0
102
RTVSPost2010Prop52
140
1.0
102
RTVSPost2010PropOp52
 70
     0
102
RTVSPost2010Prop53
 90
        2
102
RTVSPost2010PropOp53
 70
     1
102
RTVSPost2010Prop54
  1
strokes_ogs.tif
102
RTVSPost2010PropOp54
 70
     1
102
RTVSPost2010Prop55
280
     0
102
RTVSPost2010PropOp55
 70
     1
102
RTVSPost2010Prop56
140
1.0
102
RTVSPost2010PropOp56
 70
     1
102
RTVSPost2010Prop57
140
1.0
102
RTVSPost2010PropOp57
 70
     1
102
RTVSPropertyOp0
 70
     1
102
RTVSPropertyOp1
 70
     1
102
RTVSPropertyOp2
 70
     1
102
RTVSPropertyOp3
 70
     1
102
RTVSPropertyOp4
 70
     1
102
RTVSPropertyOp5
 70
     1
102
RTVSPropertyOp6
 70
     1
102
RTVSPropertyOp7
 70
     1
102
RTVSPropertyOp8
 70
     1
102
RTVSPropertyOp9
 70
     1
102
RTVSPropertyOp10
 70
     1
102
RTVSPropertyOp11
 70
     1
102
RTVSPropertyOp12
 70
     1
102
RTVSPropertyOp13
 70
     1
102
RTVSPropertyOp14
 70
     1
102
RTVSPropertyOp15
 70
     1
102
RTVSPropertyOp16
 70
     1
102
RTVSPropertyOp17
 70
     1
102
RTVSPropertyOp18
 70
     1
102
RTVSPropertyOp19
 70
     1
102
RTVSPropertyOp20
 70
     1
102
RTVSPropertyOp21
 70
     1
102
RTVSPropertyOp22
 70
     1
102
RTVSPropertyOp23
 70
     1
102
RTVSPropertyOp24
 70
     1
102
RTVSPropertyOp25
 70
     1
102
RTVSPropertyOp26
 70
     1
102
RTVSPropertyOp27
 70
     1
102
RTVSPropertyOp28
 70
     1
102
RTVSPropertyOp29
 70
     1
102
RTVSPropertyOp30
 70
     1
102
RTVSPropertyOp31
 70
     1
102
RTVSPropertyOp32
 70
     1
102
RTVSPropertyOp33
 70
     1
102
RTVSPropertyOp34
 70
     1
102
RTVSPropertyOp35
 70
     1
102
RTVSPropertyOp36
 70
     1
102
RTVSPropertyOp37
 70
     1
102
RTVSPropertyOp38
 70
     1
102
RTVSPropertyOp39
 70
     1
102
RTVSPropertyOp40
 70
     1
102
RTVSPropertyOp41
 70
     1
102
RTVSPropertyOp42
 70
     1
102
RTVSPropertyOp43
 70
     1
102
RTVSPropertyOp44
 70
     1
102
RTVSPropertyOp45
 70
     1
102
RTVSPropertyOp46
 70
     1
102
RTVSPropertyOp47
 70
     1
102
RTVSPropertyOp48
 70
     1
102
RTVSPropertyOp49
 70
     1
102
RTVSPropertyOp50
 70
     1
102
RTVSPropertyOp51
 70
     0
102
RTVSPropertyOp52
 70
     0
102
RTVSPropertyOp53
 70
     1
102
RTVSPropertyOp54
 70
     1
102
RTVSPropertyOp55
 70
     1
102
RTVSPropertyOp56
 70
     1
102
RTVSPropertyOp57
 70
     1
102
RTVSPropertyOp58
 70
     1
102
RTVSPropertyOp59
 70
     1
102
RTVSPropertyOp60
 70
     1
102
RTVSPropertyOp61
 70
     1
102
RTVSPropertyOp62
 70
     1
  0
XRECORD
  5
9C4D
102
{ACAD_REACTORS
330
9C4C
102
}
330
9C4C
100
AcDbXrecord
280
     1
102
RTVSPost2010Prop28
280
     0
102
RTVSPost2010PropOp28
 70
     1
102
RTVSPost2010Prop29
280
     1
102
RTVSPost2010PropOp29
 70
     1
102
RTVSPost2010Prop30
280
     1
102
RTVSPost2010PropOp30
 70
     1
102
RTVSPost2010Prop31
280
     0
102
RTVSPost2010PropOp31
 70
     1
102
RTVSPost2010Prop32
280
     0
102
RTVSPost2010PropOp32
 70
     1
102
RTVSPost2010Prop33
280
     0
102
RTVSPost2010PropOp33
 70
     1
102
RTVSPost2010Prop34
280
     0
102
RTVSPost2010PropOp34
 70
     1
102
RTVSPost2010Prop35
280
     0
102
RTVSPost2010PropOp35
 70
     1
102
RTVSPost2010Prop36
280
     0
102
RTVSPost2010PropOp36
 70
     1
102
RTVSPost2010Prop37
 90
       50
102
RTVSPost2010PropOp37
 70
     0
102
RTVSPost2010Prop38
140
0.0
102
RTVSPost2010PropOp38
 70
     0
102
RTVSPost2010Prop39
140
1.0
102
RTVSPost2010PropOp39
 70
     0
102
RTVSPost2010Prop40
 90
        0
102
RTVSPost2010PropOp40
 70
     0
102
RTVSPost2010Prop41ColorIndex
 90
       18
102
RTVSPost2010Prop41ColorRGB
 90
        0
102
RTVSPost2010PropOp41
 70
     0
102
RTVSPost2010Prop42
 90
       50
102
RTVSPost2010PropOp42
 70
     0
102
RTVSPost2010Prop43
 90
        3
102
RTVSPost2010PropOp43
 70
     0
102
RTVSPost2010Prop44ColorIndex
 90
        5
102
RTVSPost2010Prop44ColorRGB
 90
      255
102
RTVSPost2010PropOp44
 70
     0
102
RTVSPost2010Prop45
280
     0
102
RTVSPost2010PropOp45
 70
     1
102
RTVSPost2010Prop46
 90
       50
102
RTVSPost2010PropOp46
 70
     0
102
RTVSPost2010Prop47
 90
       50
102
RTVSPost2010PropOp47
 70
     0
102
RTVSPost2010Prop48
 90
       50
102
RTVSPost2010PropOp48
 70
     0
102
RTVSPost2010Prop49
280
     0
102
RTVSPost2010PropOp49
 70
     1
102
RTVSPost2010Prop50
 90
       50
102
RTVSPost2010PropOp50
 70
     0
102
RTVSPost2010Prop51ColorIndex
 90
      256
102
RTVSPost2010Prop51ColorRGB
 90
-16777216
102
RTVSPost2010PropOp51
 70
     0
102
RTVSPost2010Prop52
140
1.0
102
RTVSPost2010PropOp52
 70
     0
102
RTVSPost2010Prop53
 90
        2
102
RTVSPost2010PropOp53
 70
     0
102
RTVSPost2010Prop54
  1
strokes_ogs.tif
102
RTVSPost2010PropOp54
 70
     0
102
RTVSPost2010Prop55
280
     0
102
RTVSPost2010PropOp55
 70
     1
102
RTVSPost2010Prop56
140
1.0
102
RTVSPost2010PropOp56
 70
     0
102
RTVSPost2010Prop57
140
1.0
102
RTVSPost2010PropOp57
 70
     0
102
RTVSPropertyOp0
 70
     0
102
RTVSPropertyOp1
 70
     0
102
RTVSPropertyOp2
 70
     0
102
RTVSPropertyOp3
 70
     0
102
RTVSPropertyOp4
 70
     0
102
RTVSPropertyOp5
 70
     0
102
RTVSPropertyOp6
 70
     0
102
RTVSPropertyOp7
 70
     0
102
RTVSPropertyOp8
 70
     0
102
RTVSPropertyOp9
 70
     0
102
RTVSPropertyOp10
 70
     0
102
RTVSPropertyOp11
 70
     0
102
RTVSPropertyOp12
 70
     0
102
RTVSPropertyOp13
 70
     0
102
RTVSPropertyOp14
 70
     2
102
RTVSPropertyOp15
 70
     0
102
RTVSPropertyOp16
 70
     0
102
RTVSPropertyOp17
 70
     0
102
RTVSPropertyOp18
 70
     0
102
RTVSPropertyOp19
 70
     0
102
RTVSPropertyOp20
 70
     0
102
RTVSPropertyOp21
 70
     0
102
RTVSPropertyOp22
 70
     0
102
RTVSPropertyOp23
 70
     0
102
RTVSPropertyOp24
 70
     0
102
RTVSPropertyOp25
 70
     0
102
RTVSPropertyOp26
 70
     0
102
RTVSPropertyOp27
 70
     0
102
RTVSPropertyOp28
 70
     1
102
RTVSPropertyOp29
 70
     1
102
RTVSPropertyOp30
 70
     1
102
RTVSPropertyOp31
 70
     1
102
RTVSPropertyOp32
 70
     1
102
RTVSPropertyOp33
 70
     1
102
RTVSPropertyOp34
 70
     1
102
RTVSPropertyOp35
 70
     1
102
RTVSPropertyOp36
 70
     1
102
RTVSPropertyOp37
 70
     0
102
RTVSPropertyOp38
 70
     0
102
RTVSPropertyOp39
 70
     0
102
RTVSPropertyOp40
 70
     0
102
RTVSPropertyOp41
 70
     0
102
RTVSPropertyOp42
 70
     0
102
RTVSPropertyOp43
 70
     0
102
RTVSPropertyOp44
 70
     0
102
RTVSPropertyOp45
 70
     1
102
RTVSPropertyOp46
 70
     0
102
RTVSPropertyOp47
 70
     0
102
RTVSPropertyOp48
 70
     0
102
RTVSPropertyOp49
 70
     1
102
RTVSPropertyOp50
 70
     0
102
RTVSPropertyOp51
 70
     0
102
RTVSPropertyOp52
 70
     0
102
RTVSPropertyOp53
 70
     0
102
RTVSPropertyOp54
 70
     0
102
RTVSPropertyOp55
 70
     1
102
RTVSPropertyOp56
 70
     0
102
RTVSPropertyOp57
 70
     0
102
RTVSPropertyOp58
 70
     0
102
RTVSPropertyOp59
 70
     0
102
RTVSPropertyOp60
 70
     0
102
RTVSPropertyOp61
 70
     0
102
RTVSPropertyOp62
 70
     0
  0
XRECORD
  5
9C3B
102
{ACAD_REACTORS
330
9C3A
102
}
330
9C3A
100
AcDbXrecord
280
     1
102
RTVSPost2010Prop28
280
     0
102
RTVSPost2010PropOp28
 70
     1
102
RTVSPost2010Prop29
280
     1
102
RTVSPost2010PropOp29
 70
     1
102
RTVSPost2010Prop30
280
     1
102
RTVSPost2010PropOp30
 70
     1
102
RTVSPost2010Prop31
280
     0
102
RTVSPost2010PropOp31
 70
     1
102
RTVSPost2010Prop32
280
     0
102
RTVSPost2010PropOp32
 70
     1
102
RTVSPost2010Prop33
280
     0
102
RTVSPost2010PropOp33
 70
     1
102
RTVSPost2010Prop34
280
     0
102
RTVSPost2010PropOp34
 70
     1
102
RTVSPost2010Prop35
280
     0
102
RTVSPost2010PropOp35
 70
     1
102
RTVSPost2010Prop36
280
     0
102
RTVSPost2010PropOp36
 70
     1
102
RTVSPost2010Prop37
 90
       50
102
RTVSPost2010PropOp37
 70
     1
102
RTVSPost2010Prop38
140
0.0
102
RTVSPost2010PropOp38
 70
     1
102
RTVSPost2010Prop39
140
1.0
102
RTVSPost2010PropOp39
 70
     1
102
RTVSPost2010Prop40
 90
        0
102
RTVSPost2010PropOp40
 70
     1
102
RTVSPost2010Prop41ColorIndex
 90
       18
102
RTVSPost2010Prop41ColorRGB
 90
        0
102
RTVSPost2010PropOp41
 70
     1
102
RTVSPost2010Prop42
 90
       50
102
RTVSPost2010PropOp42
 70
     1
102
RTVSPost2010Prop43
 90
        3
102
RTVSPost2010PropOp43
 70
     1
102
RTVSPost2010Prop44ColorIndex
 90
        5
102
RTVSPost2010Prop44ColorRGB
 90
      255
102
RTVSPost2010PropOp44
 70
     1
102
RTVSPost2010Prop45
280
     0
102
RTVSPost2010PropOp45
 70
     1
102
RTVSPost2010Prop46
 90
       50
102
RTVSPost2010PropOp46
 70
     1
102
RTVSPost2010Prop47
 90
       50
102
RTVSPost2010PropOp47
 70
     1
102
RTVSPost2010Prop48
 90
       50
102
RTVSPost2010PropOp48
 70
     1
102
RTVSPost2010Prop49
280
     0
102
RTVSPost2010PropOp49
 70
     1
102
RTVSPost2010Prop50
 90
       50
102
RTVSPost2010PropOp50
 70
     1
102
RTVSPost2010Prop51ColorIndex
 90
      256
102
RTVSPost2010Prop51ColorRGB
 90
-16777216
102
RTVSPost2010PropOp51
 70
     0
102
RTVSPost2010Prop52
140
1.0
102
RTVSPost2010PropOp52
 70
     0
102
RTVSPost2010Prop53
 90
        2
102
RTVSPost2010PropOp53
 70
     1
102
RTVSPost2010Prop54
  1
strokes_ogs.tif
102
RTVSPost2010PropOp54
 70
     1
102
RTVSPost2010Prop55
280
     0
102
RTVSPost2010PropOp55
 70
     1
102
RTVSPost2010Prop56
140
1.0
102
RTVSPost2010PropOp56
 70
     1
102
RTVSPost2010Prop57
140
1.0
102
RTVSPost2010PropOp57
 70
     1
102
RTVSPropertyOp0
 70
     1
102
RTVSPropertyOp1
 70
     1
102
RTVSPropertyOp2
 70
     1
102
RTVSPropertyOp3
 70
     1
102
RTVSPropertyOp4
 70
     1
102
RTVSPropertyOp5
 70
     1
102
RTVSPropertyOp6
 70
     1
102
RTVSPropertyOp7
 70
     1
102
RTVSPropertyOp8
 70
     1
102
RTVSPropertyOp9
 70
     1
102
RTVSPropertyOp10
 70
     1
102
RTVSPropertyOp11
 70
     1
102
RTVSPropertyOp12
 70
     1
102
RTVSPropertyOp13
 70
     1
102
RTVSPropertyOp14
 70
     1
102
RTVSPropertyOp15
 70
     1
102
RTVSPropertyOp16
 70
     1
102
RTVSPropertyOp17
 70
     1
102
RTVSPropertyOp18
 70
     1
102
RTVSPropertyOp19
 70
     1
102
RTVSPropertyOp20
 70
     1
102
RTVSPropertyOp21
 70
     1
102
RTVSPropertyOp22
 70
     1
102
RTVSPropertyOp23
 70
     1
102
RTVSPropertyOp24
 70
     1
102
RTVSPropertyOp25
 70
     1
102
RTVSPropertyOp26
 70
     1
102
RTVSPropertyOp27
 70
     1
102
RTVSPropertyOp28
 70
     1
102
RTVSPropertyOp29
 70
     1
102
RTVSPropertyOp30
 70
     1
102
RTVSPropertyOp31
 70
     1
102
RTVSPropertyOp32
 70
     1
102
RTVSPropertyOp33
 70
     1
102
RTVSPropertyOp34
 70
     1
102
RTVSPropertyOp35
 70
     1
102
RTVSPropertyOp36
 70
     1
102
RTVSPropertyOp37
 70
     1
102
RTVSPropertyOp38
 70
     1
102
RTVSPropertyOp39
 70
     1
102
RTVSPropertyOp40
 70
     1
102
RTVSPropertyOp41
 70
     1
102
RTVSPropertyOp42
 70
     1
102
RTVSPropertyOp43
 70
     1
102
RTVSPropertyOp44
 70
     1
102
RTVSPropertyOp45
 70
     1
102
RTVSPropertyOp46
 70
     1
102
RTVSPropertyOp47
 70
     1
102
RTVSPropertyOp48
 70
     1
102
RTVSPropertyOp49
 70
     1
102
RTVSPropertyOp50
 70
     1
102
RTVSPropertyOp51
 70
     0
102
RTVSPropertyOp52
 70
     0
102
RTVSPropertyOp53
 70
     1
102
RTVSPropertyOp54
 70
     1
102
RTVSPropertyOp55
 70
     1
102
RTVSPropertyOp56
 70
     1
102
RTVSPropertyOp57
 70
     1
102
RTVSPropertyOp58
 70
     1
102
RTVSPropertyOp59
 70
     1
102
RTVSPropertyOp60
 70
     1
102
RTVSPropertyOp61
 70
     1
102
RTVSPropertyOp62
 70
     1
  0
XRECORD
  5
9C1F
102
{ACAD_REACTORS
330
9C1E
102
}
330
9C1E
100
AcDbXrecord
280
     1
102
RTVSPost2010Prop28
280
     0
102
RTVSPost2010PropOp28
 70
     1
102
RTVSPost2010Prop29
280
     1
102
RTVSPost2010PropOp29
 70
     1
102
RTVSPost2010Prop30
280
     1
102
RTVSPost2010PropOp30
 70
     1
102
RTVSPost2010Prop31
280
     0
102
RTVSPost2010PropOp31
 70
     1
102
RTVSPost2010Prop32
280
     0
102
RTVSPost2010PropOp32
 70
     1
102
RTVSPost2010Prop33
280
     0
102
RTVSPost2010PropOp33
 70
     1
102
RTVSPost2010Prop34
280
     0
102
RTVSPost2010PropOp34
 70
     1
102
RTVSPost2010Prop35
280
     0
102
RTVSPost2010PropOp35
 70
     1
102
RTVSPost2010Prop36
280
     0
102
RTVSPost2010PropOp36
 70
     1
102
RTVSPost2010Prop37
 90
       50
102
RTVSPost2010PropOp37
 70
     1
102
RTVSPost2010Prop38
140
0.0
102
RTVSPost2010PropOp38
 70
     1
102
RTVSPost2010Prop39
140
1.0
102
RTVSPost2010PropOp39
 70
     1
102
RTVSPost2010Prop40
 90
        0
102
RTVSPost2010PropOp40
 70
     1
102
RTVSPost2010Prop41ColorIndex
 90
       18
102
RTVSPost2010Prop41ColorRGB
 90
        0
102
RTVSPost2010PropOp41
 70
     1
102
RTVSPost2010Prop42
 90
       50
102
RTVSPost2010PropOp42
 70
     1
102
RTVSPost2010Prop43
 90
        3
102
RTVSPost2010PropOp43
 70
     1
102
RTVSPost2010Prop44ColorIndex
 90
        5
102
RTVSPost2010Prop44ColorRGB
 90
      255
102
RTVSPost2010PropOp44
 70
     1
102
RTVSPost2010Prop45
280
     0
102
RTVSPost2010PropOp45
 70
     1
102
RTVSPost2010Prop46
 90
       50
102
RTVSPost2010PropOp46
 70
     1
102
RTVSPost2010Prop47
 90
       50
102
RTVSPost2010PropOp47
 70
     1
102
RTVSPost2010Prop48
 90
       50
102
RTVSPost2010PropOp48
 70
     1
102
RTVSPost2010Prop49
280
     0
102
RTVSPost2010PropOp49
 70
     1
102
RTVSPost2010Prop50
 90
       50
102
RTVSPost2010PropOp50
 70
     1
102
RTVSPost2010Prop51ColorIndex
 90
      256
102
RTVSPost2010Prop51ColorRGB
 90
-16777216
102
RTVSPost2010PropOp51
 70
     0
102
RTVSPost2010Prop52
140
1.0
102
RTVSPost2010PropOp52
 70
     0
102
RTVSPost2010Prop53
 90
        2
102
RTVSPost2010PropOp53
 70
     1
102
RTVSPost2010Prop54
  1
strokes_ogs.tif
102
RTVSPost2010PropOp54
 70
     1
102
RTVSPost2010Prop55
280
     0
102
RTVSPost2010PropOp55
 70
     1
102
RTVSPost2010Prop56
140
1.0
102
RTVSPost2010PropOp56
 70
     1
102
RTVSPost2010Prop57
140
1.0
102
RTVSPost2010PropOp57
 70
     1
102
RTVSPropertyOp0
 70
     1
102
RTVSPropertyOp1
 70
     1
102
RTVSPropertyOp2
 70
     1
102
RTVSPropertyOp3
 70
     1
102
RTVSPropertyOp4
 70
     1
102
RTVSPropertyOp5
 70
     1
102
RTVSPropertyOp6
 70
     1
102
RTVSPropertyOp7
 70
     1
102
RTVSPropertyOp8
 70
     1
102
RTVSPropertyOp9
 70
     1
102
RTVSPropertyOp10
 70
     1
102
RTVSPropertyOp11
 70
     1
102
RTVSPropertyOp12
 70
     1
102
RTVSPropertyOp13
 70
     1
102
RTVSPropertyOp14
 70
     1
102
RTVSPropertyOp15
 70
     1
102
RTVSPropertyOp16
 70
     1
102
RTVSPropertyOp17
 70
     1
102
RTVSPropertyOp18
 70
     1
102
RTVSPropertyOp19
 70
     1
102
RTVSPropertyOp20
 70
     1
102
RTVSPropertyOp21
 70
     1
102
RTVSPropertyOp22
 70
     1
102
RTVSPropertyOp23
 70
     1
102
RTVSPropertyOp24
 70
     1
102
RTVSPropertyOp25
 70
     1
102
RTVSPropertyOp26
 70
     1
102
RTVSPropertyOp27
 70
     1
102
RTVSPropertyOp28
 70
     1
102
RTVSPropertyOp29
 70
     1
102
RTVSPropertyOp30
 70
     1
102
RTVSPropertyOp31
 70
     1
102
RTVSPropertyOp32
 70
     1
102
RTVSPropertyOp33
 70
     1
102
RTVSPropertyOp34
 70
     1
102
RTVSPropertyOp35
 70
     1
102
RTVSPropertyOp36
 70
     1
102
RTVSPropertyOp37
 70
     1
102
RTVSPropertyOp38
 70
     1
102
RTVSPropertyOp39
 70
     1
102
RTVSPropertyOp40
 70
     1
102
RTVSPropertyOp41
 70
     1
102
RTVSPropertyOp42
 70
     1
102
RTVSPropertyOp43
 70
     1
102
RTVSPropertyOp44
 70
     1
102
RTVSPropertyOp45
 70
     1
102
RTVSPropertyOp46
 70
     1
102
RTVSPropertyOp47
 70
     1
102
RTVSPropertyOp48
 70
     1
102
RTVSPropertyOp49
 70
     1
102
RTVSPropertyOp50
 70
     1
102
RTVSPropertyOp51
 70
     0
102
RTVSPropertyOp52
 70
     0
102
RTVSPropertyOp53
 70
     1
102
RTVSPropertyOp54
 70
     1
102
RTVSPropertyOp55
 70
     1
102
RTVSPropertyOp56
 70
     1
102
RTVSPropertyOp57
 70
     1
102
RTVSPropertyOp58
 70
     1
102
RTVSPropertyOp59
 70
     1
102
RTVSPropertyOp60
 70
     1
102
RTVSPropertyOp61
 70
     1
102
RTVSPropertyOp62
 70
     1
  0
XRECORD
  5
9C21
102
{ACAD_REACTORS
330
9C20
102
}
330
9C20
100
AcDbXrecord
280
     1
102
RTVSPost2010Prop28
280
     0
102
RTVSPost2010PropOp28
 70
     1
102
RTVSPost2010Prop29
280
     1
102
RTVSPost2010PropOp29
 70
     1
102
RTVSPost2010Prop30
280
     1
102
RTVSPost2010PropOp30
 70
     1
102
RTVSPost2010Prop31
280
     0
102
RTVSPost2010PropOp31
 70
     1
102
RTVSPost2010Prop32
280
     0
102
RTVSPost2010PropOp32
 70
     1
102
RTVSPost2010Prop33
280
     0
102
RTVSPost2010PropOp33
 70
     1
102
RTVSPost2010Prop34
280
     0
102
RTVSPost2010PropOp34
 70
     1
102
RTVSPost2010Prop35
280
     0
102
RTVSPost2010PropOp35
 70
     1
102
RTVSPost2010Prop36
280
     0
102
RTVSPost2010PropOp36
 70
     1
102
RTVSPost2010Prop37
 90
       50
102
RTVSPost2010PropOp37
 70
     1
102
RTVSPost2010Prop38
140
0.0
102
RTVSPost2010PropOp38
 70
     1
102
RTVSPost2010Prop39
140
1.0
102
RTVSPost2010PropOp39
 70
     1
102
RTVSPost2010Prop40
 90
        0
102
RTVSPost2010PropOp40
 70
     1
102
RTVSPost2010Prop41ColorIndex
 90
       18
102
RTVSPost2010Prop41ColorRGB
 90
        0
102
RTVSPost2010PropOp41
 70
     1
102
RTVSPost2010Prop42
 90
       50
102
RTVSPost2010PropOp42
 70
     1
102
RTVSPost2010Prop43
 90
        3
102
RTVSPost2010PropOp43
 70
     1
102
RTVSPost2010Prop44ColorIndex
 90
        5
102
RTVSPost2010Prop44ColorRGB
 90
      255
102
RTVSPost2010PropOp44
 70
     1
102
RTVSPost2010Prop45
280
     0
102
RTVSPost2010PropOp45
 70
     1
102
RTVSPost2010Prop46
 90
       50
102
RTVSPost2010PropOp46
 70
     1
102
RTVSPost2010Prop47
 90
       50
102
RTVSPost2010PropOp47
 70
     1
102
RTVSPost2010Prop48
 90
       50
102
RTVSPost2010PropOp48
 70
     1
102
RTVSPost2010Prop49
280
     0
102
RTVSPost2010PropOp49
 70
     1
102
RTVSPost2010Prop50
 90
       50
102
RTVSPost2010PropOp50
 70
     1
102
RTVSPost2010Prop51ColorIndex
 90
      256
102
RTVSPost2010Prop51ColorRGB
 90
-16777216
102
RTVSPost2010PropOp51
 70
     0
102
RTVSPost2010Prop52
140
1.0
102
RTVSPost2010PropOp52
 70
     0
102
RTVSPost2010Prop53
 90
        2
102
RTVSPost2010PropOp53
 70
     1
102
RTVSPost2010Prop54
  1
strokes_ogs.tif
102
RTVSPost2010PropOp54
 70
     1
102
RTVSPost2010Prop55
280
     0
102
RTVSPost2010PropOp55
 70
     1
102
RTVSPost2010Prop56
140
1.0
102
RTVSPost2010PropOp56
 70
     1
102
RTVSPost2010Prop57
140
1.0
102
RTVSPost2010PropOp57
 70
     1
102
RTVSPropertyOp0
 70
     1
102
RTVSPropertyOp1
 70
     1
102
RTVSPropertyOp2
 70
     1
102
RTVSPropertyOp3
 70
     1
102
RTVSPropertyOp4
 70
     1
102
RTVSPropertyOp5
 70
     1
102
RTVSPropertyOp6
 70
     1
102
RTVSPropertyOp7
 70
     1
102
RTVSPropertyOp8
 70
     1
102
RTVSPropertyOp9
 70
     1
102
RTVSPropertyOp10
 70
     1
102
RTVSPropertyOp11
 70
     1
102
RTVSPropertyOp12
 70
     1
102
RTVSPropertyOp13
 70
     1
102
RTVSPropertyOp14
 70
     1
102
RTVSPropertyOp15
 70
     1
102
RTVSPropertyOp16
 70
     1
102
RTVSPropertyOp17
 70
     1
102
RTVSPropertyOp18
 70
     1
102
RTVSPropertyOp19
 70
     1
102
RTVSPropertyOp20
 70
     1
102
RTVSPropertyOp21
 70
     1
102
RTVSPropertyOp22
 70
     1
102
RTVSPropertyOp23
 70
     1
102
RTVSPropertyOp24
 70
     1
102
RTVSPropertyOp25
 70
     1
102
RTVSPropertyOp26
 70
     1
102
RTVSPropertyOp27
 70
     1
102
RTVSPropertyOp28
 70
     1
102
RTVSPropertyOp29
 70
     1
102
RTVSPropertyOp30
 70
     1
102
RTVSPropertyOp31
 70
     1
102
RTVSPropertyOp32
 70
     1
102
RTVSPropertyOp33
 70
     1
102
RTVSPropertyOp34
 70
     1
102
RTVSPropertyOp35
 70
     1
102
RTVSPropertyOp36
 70
     1
102
RTVSPropertyOp37
 70
     1
102
RTVSPropertyOp38
 70
     1
102
RTVSPropertyOp39
 70
     1
102
RTVSPropertyOp40
 70
     1
102
RTVSPropertyOp41
 70
     1
102
RTVSPropertyOp42
 70
     1
102
RTVSPropertyOp43
 70
     1
102
RTVSPropertyOp44
 70
     1
102
RTVSPropertyOp45
 70
     1
102
RTVSPropertyOp46
 70
     1
102
RTVSPropertyOp47
 70
     1
102
RTVSPropertyOp48
 70
     1
102
RTVSPropertyOp49
 70
     1
102
RTVSPropertyOp50
 70
     1
102
RTVSPropertyOp51
 70
     0
102
RTVSPropertyOp52
 70
     0
102
RTVSPropertyOp53
 70
     1
102
RTVSPropertyOp54
 70
     1
102
RTVSPropertyOp55
 70
     1
102
RTVSPropertyOp56
 70
     1
102
RTVSPropertyOp57
 70
     1
102
RTVSPropertyOp58
 70
     1
102
RTVSPropertyOp59
 70
     1
102
RTVSPropertyOp60
 70
     1
102
RTVSPropertyOp61
 70
     1
102
RTVSPropertyOp62
 70
     1
  0
XRECORD
  5
9C23
102
{ACAD_REACTORS
330
9C22
102
}
330
9C22
100
AcDbXrecord
280
     1
102
RTVSPost2010Prop28
280
     0
102
RTVSPost2010PropOp28
 70
     1
102
RTVSPost2010Prop29
280
     1
102
RTVSPost2010PropOp29
 70
     1
102
RTVSPost2010Prop30
280
     1
102
RTVSPost2010PropOp30
 70
     1
102
RTVSPost2010Prop31
280
     0
102
RTVSPost2010PropOp31
 70
     1
102
RTVSPost2010Prop32
280
     0
102
RTVSPost2010PropOp32
 70
     1
102
RTVSPost2010Prop33
280
     0
102
RTVSPost2010PropOp33
 70
     1
102
RTVSPost2010Prop34
280
     0
102
RTVSPost2010PropOp34
 70
     1
102
RTVSPost2010Prop35
280
     0
102
RTVSPost2010PropOp35
 70
     1
102
RTVSPost2010Prop36
280
     0
102
RTVSPost2010PropOp36
 70
     1
102
RTVSPost2010Prop37
 90
       50
102
RTVSPost2010PropOp37
 70
     1
102
RTVSPost2010Prop38
140
0.0
102
RTVSPost2010PropOp38
 70
     1
102
RTVSPost2010Prop39
140
1.0
102
RTVSPost2010PropOp39
 70
     1
102
RTVSPost2010Prop40
 90
        0
102
RTVSPost2010PropOp40
 70
     1
102
RTVSPost2010Prop41ColorIndex
 90
       18
102
RTVSPost2010Prop41ColorRGB
 90
        0
102
RTVSPost2010PropOp41
 70
     1
102
RTVSPost2010Prop42
 90
       50
102
RTVSPost2010PropOp42
 70
     1
102
RTVSPost2010Prop43
 90
        3
102
RTVSPost2010PropOp43
 70
     1
102
RTVSPost2010Prop44ColorIndex
 90
        5
102
RTVSPost2010Prop44ColorRGB
 90
      255
102
RTVSPost2010PropOp44
 70
     1
102
RTVSPost2010Prop45
280
     0
102
RTVSPost2010PropOp45
 70
     1
102
RTVSPost2010Prop46
 90
       50
102
RTVSPost2010PropOp46
 70
     1
102
RTVSPost2010Prop47
 90
       50
102
RTVSPost2010PropOp47
 70
     1
102
RTVSPost2010Prop48
 90
       50
102
RTVSPost2010PropOp48
 70
     1
102
RTVSPost2010Prop49
280
     0
102
RTVSPost2010PropOp49
 70
     1
102
RTVSPost2010Prop50
 90
       50
102
RTVSPost2010PropOp50
 70
     1
102
RTVSPost2010Prop51ColorIndex
 90
      256
102
RTVSPost2010Prop51ColorRGB
 90
-16777216
102
RTVSPost2010PropOp51
 70
     0
102
RTVSPost2010Prop52
140
1.0
102
RTVSPost2010PropOp52
 70
     0
102
RTVSPost2010Prop53
 90
        2
102
RTVSPost2010PropOp53
 70
     1
102
RTVSPost2010Prop54
  1
strokes_ogs.tif
102
RTVSPost2010PropOp54
 70
     1
102
RTVSPost2010Prop55
280
     0
102
RTVSPost2010PropOp55
 70
     1
102
RTVSPost2010Prop56
140
1.0
102
RTVSPost2010PropOp56
 70
     1
102
RTVSPost2010Prop57
140
1.0
102
RTVSPost2010PropOp57
 70
     1
102
RTVSPropertyOp0
 70
     1
102
RTVSPropertyOp1
 70
     1
102
RTVSPropertyOp2
 70
     1
102
RTVSPropertyOp3
 70
     1
102
RTVSPropertyOp4
 70
     1
102
RTVSPropertyOp5
 70
     1
102
RTVSPropertyOp6
 70
     1
102
RTVSPropertyOp7
 70
     1
102
RTVSPropertyOp8
 70
     1
102
RTVSPropertyOp9
 70
     1
102
RTVSPropertyOp10
 70
     1
102
RTVSPropertyOp11
 70
     1
102
RTVSPropertyOp12
 70
     1
102
RTVSPropertyOp13
 70
     1
102
RTVSPropertyOp14
 70
     1
102
RTVSPropertyOp15
 70
     1
102
RTVSPropertyOp16
 70
     1
102
RTVSPropertyOp17
 70
     1
102
RTVSPropertyOp18
 70
     1
102
RTVSPropertyOp19
 70
     1
102
RTVSPropertyOp20
 70
     1
102
RTVSPropertyOp21
 70
     1
102
RTVSPropertyOp22
 70
     1
102
RTVSPropertyOp23
 70
     1
102
RTVSPropertyOp24
 70
     1
102
RTVSPropertyOp25
 70
     1
102
RTVSPropertyOp26
 70
     1
102
RTVSPropertyOp27
 70
     1
102
RTVSPropertyOp28
 70
     1
102
RTVSPropertyOp29
 70
     1
102
RTVSPropertyOp30
 70
     1
102
RTVSPropertyOp31
 70
     1
102
RTVSPropertyOp32
 70
     1
102
RTVSPropertyOp33
 70
     1
102
RTVSPropertyOp34
 70
     1
102
RTVSPropertyOp35
 70
     1
102
RTVSPropertyOp36
 70
     1
102
RTVSPropertyOp37
 70
     1
102
RTVSPropertyOp38
 70
     1
102
RTVSPropertyOp39
 70
     1
102
RTVSPropertyOp40
 70
     1
102
RTVSPropertyOp41
 70
     1
102
RTVSPropertyOp42
 70
     1
102
RTVSPropertyOp43
 70
     1
102
RTVSPropertyOp44
 70
     1
102
RTVSPropertyOp45
 70
     1
102
RTVSPropertyOp46
 70
     1
102
RTVSPropertyOp47
 70
     1
102
RTVSPropertyOp48
 70
     1
102
RTVSPropertyOp49
 70
     1
102
RTVSPropertyOp50
 70
     1
102
RTVSPropertyOp51
 70
     0
102
RTVSPropertyOp52
 70
     0
102
RTVSPropertyOp53
 70
     1
102
RTVSPropertyOp54
 70
     1
102
RTVSPropertyOp55
 70
     1
102
RTVSPropertyOp56
 70
     1
102
RTVSPropertyOp57
 70
     1
102
RTVSPropertyOp58
 70
     1
102
RTVSPropertyOp59
 70
     1
102
RTVSPropertyOp60
 70
     1
102
RTVSPropertyOp61
 70
     1
102
RTVSPropertyOp62
 70
     1
  0
XRECORD
  5
9C25
102
{ACAD_REACTORS
330
9C24
102
}
330
9C24
100
AcDbXrecord
280
     1
102
RTVSPost2010Prop28
280
     0
102
RTVSPost2010PropOp28
 70
     1
102
RTVSPost2010Prop29
280
     1
102
RTVSPost2010PropOp29
 70
     1
102
RTVSPost2010Prop30
280
     1
102
RTVSPost2010PropOp30
 70
     1
102
RTVSPost2010Prop31
280
     0
102
RTVSPost2010PropOp31
 70
     1
102
RTVSPost2010Prop32
280
     0
102
RTVSPost2010PropOp32
 70
     1
102
RTVSPost2010Prop33
280
     0
102
RTVSPost2010PropOp33
 70
     1
102
RTVSPost2010Prop34
280
     0
102
RTVSPost2010PropOp34
 70
     1
102
RTVSPost2010Prop35
280
     0
102
RTVSPost2010PropOp35
 70
     1
102
RTVSPost2010Prop36
280
     0
102
RTVSPost2010PropOp36
 70
     1
102
RTVSPost2010Prop37
 90
       50
102
RTVSPost2010PropOp37
 70
     1
102
RTVSPost2010Prop38
140
0.0
102
RTVSPost2010PropOp38
 70
     1
102
RTVSPost2010Prop39
140
1.0
102
RTVSPost2010PropOp39
 70
     1
102
RTVSPost2010Prop40
 90
        0
102
RTVSPost2010PropOp40
 70
     1
102
RTVSPost2010Prop41ColorIndex
 90
       18
102
RTVSPost2010Prop41ColorRGB
 90
        0
102
RTVSPost2010PropOp41
 70
     1
102
RTVSPost2010Prop42
 90
       50
102
RTVSPost2010PropOp42
 70
     1
102
RTVSPost2010Prop43
 90
        3
102
RTVSPost2010PropOp43
 70
     1
102
RTVSPost2010Prop44ColorIndex
 90
        5
102
RTVSPost2010Prop44ColorRGB
 90
      255
102
RTVSPost2010PropOp44
 70
     1
102
RTVSPost2010Prop45
280
     0
102
RTVSPost2010PropOp45
 70
     1
102
RTVSPost2010Prop46
 90
       50
102
RTVSPost2010PropOp46
 70
     1
102
RTVSPost2010Prop47
 90
       50
102
RTVSPost2010PropOp47
 70
     1
102
RTVSPost2010Prop48
 90
       50
102
RTVSPost2010PropOp48
 70
     1
102
RTVSPost2010Prop49
280
     0
102
RTVSPost2010PropOp49
 70
     1
102
RTVSPost2010Prop50
 90
       50
102
RTVSPost2010PropOp50
 70
     1
102
RTVSPost2010Prop51ColorIndex
 90
      256
102
RTVSPost2010Prop51ColorRGB
 90
-16777216
102
RTVSPost2010PropOp51
 70
     0
102
RTVSPost2010Prop52
140
1.0
102
RTVSPost2010PropOp52
 70
     0
102
RTVSPost2010Prop53
 90
        2
102
RTVSPost2010PropOp53
 70
     1
102
RTVSPost2010Prop54
  1
strokes_ogs.tif
102
RTVSPost2010PropOp54
 70
     1
102
RTVSPost2010Prop55
280
     0
102
RTVSPost2010PropOp55
 70
     1
102
RTVSPost2010Prop56
140
1.0
102
RTVSPost2010PropOp56
 70
     1
102
RTVSPost2010Prop57
140
1.0
102
RTVSPost2010PropOp57
 70
     1
102
RTVSPropertyOp0
 70
     1
102
RTVSPropertyOp1
 70
     1
102
RTVSPropertyOp2
 70
     1
102
RTVSPropertyOp3
 70
     1
102
RTVSPropertyOp4
 70
     1
102
RTVSPropertyOp5
 70
     1
102
RTVSPropertyOp6
 70
     1
102
RTVSPropertyOp7
 70
     1
102
RTVSPropertyOp8
 70
     1
102
RTVSPropertyOp9
 70
     1
102
RTVSPropertyOp10
 70
     1
102
RTVSPropertyOp11
 70
     1
102
RTVSPropertyOp12
 70
     1
102
RTVSPropertyOp13
 70
     1
102
RTVSPropertyOp14
 70
     1
102
RTVSPropertyOp15
 70
     1
102
RTVSPropertyOp16
 70
     1
102
RTVSPropertyOp17
 70
     1
102
RTVSPropertyOp18
 70
     1
102
RTVSPropertyOp19
 70
     1
102
RTVSPropertyOp20
 70
     1
102
RTVSPropertyOp21
 70
     1
102
RTVSPropertyOp22
 70
     1
102
RTVSPropertyOp23
 70
     1
102
RTVSPropertyOp24
 70
     1
102
RTVSPropertyOp25
 70
     1
102
RTVSPropertyOp26
 70
     1
102
RTVSPropertyOp27
 70
     1
102
RTVSPropertyOp28
 70
     1
102
RTVSPropertyOp29
 70
     1
102
RTVSPropertyOp30
 70
     1
102
RTVSPropertyOp31
 70
     1
102
RTVSPropertyOp32
 70
     1
102
RTVSPropertyOp33
 70
     1
102
RTVSPropertyOp34
 70
     1
102
RTVSPropertyOp35
 70
     1
102
RTVSPropertyOp36
 70
     1
102
RTVSPropertyOp37
 70
     1
102
RTVSPropertyOp38
 70
     1
102
RTVSPropertyOp39
 70
     1
102
RTVSPropertyOp40
 70
     1
102
RTVSPropertyOp41
 70
     1
102
RTVSPropertyOp42
 70
     1
102
RTVSPropertyOp43
 70
     1
102
RTVSPropertyOp44
 70
     1
102
RTVSPropertyOp45
 70
     1
102
RTVSPropertyOp46
 70
     1
102
RTVSPropertyOp47
 70
     1
102
RTVSPropertyOp48
 70
     1
102
RTVSPropertyOp49
 70
     1
102
RTVSPropertyOp50
 70
     1
102
RTVSPropertyOp51
 70
     0
102
RTVSPropertyOp52
 70
     0
102
RTVSPropertyOp53
 70
     1
102
RTVSPropertyOp54
 70
     1
102
RTVSPropertyOp55
 70
     1
102
RTVSPropertyOp56
 70
     1
102
RTVSPropertyOp57
 70
     1
102
RTVSPropertyOp58
 70
     1
102
RTVSPropertyOp59
 70
     1
102
RTVSPropertyOp60
 70
     1
102
RTVSPropertyOp61
 70
     1
102
RTVSPropertyOp62
 70
     1
  0
XRECORD
  5
9C2D
102
{ACAD_REACTORS
330
9C2C
102
}
330
9C2C
100
AcDbXrecord
280
     1
102
RTVSPost2010Prop28
280
     0
102
RTVSPost2010PropOp28
 70
     1
102
RTVSPost2010Prop29
280
     1
102
RTVSPost2010PropOp29
 70
     1
102
RTVSPost2010Prop30
280
     1
102
RTVSPost2010PropOp30
 70
     1
102
RTVSPost2010Prop31
280
     0
102
RTVSPost2010PropOp31
 70
     1
102
RTVSPost2010Prop32
280
     0
102
RTVSPost2010PropOp32
 70
     1
102
RTVSPost2010Prop33
280
     0
102
RTVSPost2010PropOp33
 70
     1
102
RTVSPost2010Prop34
280
     0
102
RTVSPost2010PropOp34
 70
     1
102
RTVSPost2010Prop35
280
     0
102
RTVSPost2010PropOp35
 70
     1
102
RTVSPost2010Prop36
280
     0
102
RTVSPost2010PropOp36
 70
     1
102
RTVSPost2010Prop37
 90
       50
102
RTVSPost2010PropOp37
 70
     1
102
RTVSPost2010Prop38
140
0.0
102
RTVSPost2010PropOp38
 70
     1
102
RTVSPost2010Prop39
140
1.0
102
RTVSPost2010PropOp39
 70
     1
102
RTVSPost2010Prop40
 90
        0
102
RTVSPost2010PropOp40
 70
     1
102
RTVSPost2010Prop41ColorIndex
 90
       18
102
RTVSPost2010Prop41ColorRGB
 90
        0
102
RTVSPost2010PropOp41
 70
     1
102
RTVSPost2010Prop42
 90
       50
102
RTVSPost2010PropOp42
 70
     1
102
RTVSPost2010Prop43
 90
        3
102
RTVSPost2010PropOp43
 70
     1
102
RTVSPost2010Prop44ColorIndex
 90
        5
102
RTVSPost2010Prop44ColorRGB
 90
      255
102
RTVSPost2010PropOp44
 70
     1
102
RTVSPost2010Prop45
280
     0
102
RTVSPost2010PropOp45
 70
     1
102
RTVSPost2010Prop46
 90
       50
102
RTVSPost2010PropOp46
 70
     1
102
RTVSPost2010Prop47
 90
       50
102
RTVSPost2010PropOp47
 70
     1
102
RTVSPost2010Prop48
 90
       50
102
RTVSPost2010PropOp48
 70
     1
102
RTVSPost2010Prop49
280
     0
102
RTVSPost2010PropOp49
 70
     1
102
RTVSPost2010Prop50
 90
       50
102
RTVSPost2010PropOp50
 70
     1
102
RTVSPost2010Prop51ColorIndex
 90
      256
102
RTVSPost2010Prop51ColorRGB
 90
-16777216
102
RTVSPost2010PropOp51
 70
     0
102
RTVSPost2010Prop52
140
1.0
102
RTVSPost2010PropOp52
 70
     0
102
RTVSPost2010Prop53
 90
        2
102
RTVSPost2010PropOp53
 70
     1
102
RTVSPost2010Prop54
  1
strokes_ogs.tif
102
RTVSPost2010PropOp54
 70
     1
102
RTVSPost2010Prop55
280
     0
102
RTVSPost2010PropOp55
 70
     1
102
RTVSPost2010Prop56
140
1.0
102
RTVSPost2010PropOp56
 70
     1
102
RTVSPost2010Prop57
140
1.0
102
RTVSPost2010PropOp57
 70
     1
102
RTVSPropertyOp0
 70
     1
102
RTVSPropertyOp1
 70
     1
102
RTVSPropertyOp2
 70
     1
102
RTVSPropertyOp3
 70
     1
102
RTVSPropertyOp4
 70
     1
102
RTVSPropertyOp5
 70
     1
102
RTVSPropertyOp6
 70
     1
102
RTVSPropertyOp7
 70
     1
102
RTVSPropertyOp8
 70
     1
102
RTVSPropertyOp9
 70
     1
102
RTVSPropertyOp10
 70
     1
102
RTVSPropertyOp11
 70
     1
102
RTVSPropertyOp12
 70
     1
102
RTVSPropertyOp13
 70
     1
102
RTVSPropertyOp14
 70
     1
102
RTVSPropertyOp15
 70
     1
102
RTVSPropertyOp16
 70
     1
102
RTVSPropertyOp17
 70
     1
102
RTVSPropertyOp18
 70
     1
102
RTVSPropertyOp19
 70
     1
102
RTVSPropertyOp20
 70
     1
102
RTVSPropertyOp21
 70
     1
102
RTVSPropertyOp22
 70
     1
102
RTVSPropertyOp23
 70
     1
102
RTVSPropertyOp24
 70
     1
102
RTVSPropertyOp25
 70
     1
102
RTVSPropertyOp26
 70
     1
102
RTVSPropertyOp27
 70
     1
102
RTVSPropertyOp28
 70
     1
102
RTVSPropertyOp29
 70
     1
102
RTVSPropertyOp30
 70
     1
102
RTVSPropertyOp31
 70
     1
102
RTVSPropertyOp32
 70
     1
102
RTVSPropertyOp33
 70
     1
102
RTVSPropertyOp34
 70
     1
102
RTVSPropertyOp35
 70
     1
102
RTVSPropertyOp36
 70
     1
102
RTVSPropertyOp37
 70
     1
102
RTVSPropertyOp38
 70
     1
102
RTVSPropertyOp39
 70
     1
102
RTVSPropertyOp40
 70
     1
102
RTVSPropertyOp41
 70
     1
102
RTVSPropertyOp42
 70
     1
102
RTVSPropertyOp43
 70
     1
102
RTVSPropertyOp44
 70
     1
102
RTVSPropertyOp45
 70
     1
102
RTVSPropertyOp46
 70
     1
102
RTVSPropertyOp47
 70
     1
102
RTVSPropertyOp48
 70
     1
102
RTVSPropertyOp49
 70
     1
102
RTVSPropertyOp50
 70
     1
102
RTVSPropertyOp51
 70
     0
102
RTVSPropertyOp52
 70
     0
102
RTVSPropertyOp53
 70
     1
102
RTVSPropertyOp54
 70
     1
102
RTVSPropertyOp55
 70
     1
102
RTVSPropertyOp56
 70
     1
102
RTVSPropertyOp57
 70
     1
102
RTVSPropertyOp58
 70
     1
102
RTVSPropertyOp59
 70
     1
102
RTVSPropertyOp60
 70
     1
102
RTVSPropertyOp61
 70
     1
102
RTVSPropertyOp62
 70
     1
  0
XRECORD
  5
9C49
102
{ACAD_REACTORS
330
9C48
102
}
330
9C48
100
AcDbXrecord
280
     1
102
RTVSPost2010Prop28
280
     0
102
RTVSPost2010PropOp28
 70
     1
102
RTVSPost2010Prop29
280
     1
102
RTVSPost2010PropOp29
 70
     1
102
RTVSPost2010Prop30
280
     1
102
RTVSPost2010PropOp30
 70
     1
102
RTVSPost2010Prop31
280
     0
102
RTVSPost2010PropOp31
 70
     1
102
RTVSPost2010Prop32
280
     0
102
RTVSPost2010PropOp32
 70
     1
102
RTVSPost2010Prop33
280
     0
102
RTVSPost2010PropOp33
 70
     1
102
RTVSPost2010Prop34
280
     0
102
RTVSPost2010PropOp34
 70
     1
102
RTVSPost2010Prop35
280
     0
102
RTVSPost2010PropOp35
 70
     1
102
RTVSPost2010Prop36
280
     0
102
RTVSPost2010PropOp36
 70
     1
102
RTVSPost2010Prop37
 90
       50
102
RTVSPost2010PropOp37
 70
     0
102
RTVSPost2010Prop38
140
0.0
102
RTVSPost2010PropOp38
 70
     0
102
RTVSPost2010Prop39
140
1.0
102
RTVSPost2010PropOp39
 70
     0
102
RTVSPost2010Prop40
 90
        0
102
RTVSPost2010PropOp40
 70
     0
102
RTVSPost2010Prop41ColorIndex
 90
       18
102
RTVSPost2010Prop41ColorRGB
 90
        0
102
RTVSPost2010PropOp41
 70
     0
102
RTVSPost2010Prop42
 90
       50
102
RTVSPost2010PropOp42
 70
     0
102
RTVSPost2010Prop43
 90
        3
102
RTVSPost2010PropOp43
 70
     0
102
RTVSPost2010Prop44ColorIndex
 90
        5
102
RTVSPost2010Prop44ColorRGB
 90
      255
102
RTVSPost2010PropOp44
 70
     0
102
RTVSPost2010Prop45
280
     0
102
RTVSPost2010PropOp45
 70
     1
102
RTVSPost2010Prop46
 90
       50
102
RTVSPost2010PropOp46
 70
     0
102
RTVSPost2010Prop47
 90
       50
102
RTVSPost2010PropOp47
 70
     0
102
RTVSPost2010Prop48
 90
       50
102
RTVSPost2010PropOp48
 70
     0
102
RTVSPost2010Prop49
280
     0
102
RTVSPost2010PropOp49
 70
     1
102
RTVSPost2010Prop50
 90
       50
102
RTVSPost2010PropOp50
 70
     0
102
RTVSPost2010Prop51ColorIndex
 90
      256
102
RTVSPost2010Prop51ColorRGB
 90
-16777216
102
RTVSPost2010PropOp51
 70
     0
102
RTVSPost2010Prop52
140
1.0
102
RTVSPost2010PropOp52
 70
     0
102
RTVSPost2010Prop53
 90
        2
102
RTVSPost2010PropOp53
 70
     0
102
RTVSPost2010Prop54
  1
strokes_ogs.tif
102
RTVSPost2010PropOp54
 70
     0
102
RTVSPost2010Prop55
280
     0
102
RTVSPost2010PropOp55
 70
     1
102
RTVSPost2010Prop56
140
1.0
102
RTVSPost2010PropOp56
 70
     0
102
RTVSPost2010Prop57
140
1.0
102
RTVSPost2010PropOp57
 70
     0
102
RTVSPropertyOp0
 70
     0
102
RTVSPropertyOp1
 70
     0
102
RTVSPropertyOp2
 70
     0
102
RTVSPropertyOp3
 70
     0
102
RTVSPropertyOp4
 70
     0
102
RTVSPropertyOp5
 70
     0
102
RTVSPropertyOp6
 70
     0
102
RTVSPropertyOp7
 70
     0
102
RTVSPropertyOp8
 70
     0
102
RTVSPropertyOp9
 70
     0
102
RTVSPropertyOp10
 70
     0
102
RTVSPropertyOp11
 70
     0
102
RTVSPropertyOp12
 70
     0
102
RTVSPropertyOp13
 70
     0
102
RTVSPropertyOp14
 70
     2
102
RTVSPropertyOp15
 70
     0
102
RTVSPropertyOp16
 70
     0
102
RTVSPropertyOp17
 70
     0
102
RTVSPropertyOp18
 70
     0
102
RTVSPropertyOp19
 70
     0
102
RTVSPropertyOp20
 70
     0
102
RTVSPropertyOp21
 70
     0
102
RTVSPropertyOp22
 70
     0
102
RTVSPropertyOp23
 70
     0
102
RTVSPropertyOp24
 70
     0
102
RTVSPropertyOp25
 70
     0
102
RTVSPropertyOp26
 70
     0
102
RTVSPropertyOp27
 70
     0
102
RTVSPropertyOp28
 70
     1
102
RTVSPropertyOp29
 70
     1
102
RTVSPropertyOp30
 70
     1
102
RTVSPropertyOp31
 70
     1
102
RTVSPropertyOp32
 70
     1
102
RTVSPropertyOp33
 70
     1
102
RTVSPropertyOp34
 70
     1
102
RTVSPropertyOp35
 70
     1
102
RTVSPropertyOp36
 70
     1
102
RTVSPropertyOp37
 70
     0
102
RTVSPropertyOp38
 70
     0
102
RTVSPropertyOp39
 70
     0
102
RTVSPropertyOp40
 70
     0
102
RTVSPropertyOp41
 70
     0
102
RTVSPropertyOp42
 70
     0
102
RTVSPropertyOp43
 70
     0
102
RTVSPropertyOp44
 70
     0
102
RTVSPropertyOp45
 70
     1
102
RTVSPropertyOp46
 70
     0
102
RTVSPropertyOp47
 70
     0
102
RTVSPropertyOp48
 70
     0
102
RTVSPropertyOp49
 70
     1
102
RTVSPropertyOp50
 70
     0
102
RTVSPropertyOp51
 70
     0
102
RTVSPropertyOp52
 70
     0
102
RTVSPropertyOp53
 70
     0
102
RTVSPropertyOp54
 70
     0
102
RTVSPropertyOp55
 70
     1
102
RTVSPropertyOp56
 70
     0
102
RTVSPropertyOp57
 70
     0
102
RTVSPropertyOp58
 70
     0
102
RTVSPropertyOp59
 70
     0
102
RTVSPropertyOp60
 70
     0
102
RTVSPropertyOp61
 70
     0
102
RTVSPropertyOp62
 70
     0
  0
XRECORD
  5
9C39
102
{ACAD_REACTORS
330
9C38
102
}
330
9C38
100
AcDbXrecord
280
     1
102
RTVSPost2010Prop28
280
     0
102
RTVSPost2010PropOp28
 70
     1
102
RTVSPost2010Prop29
280
     1
102
RTVSPost2010PropOp29
 70
     1
102
RTVSPost2010Prop30
280
     1
102
RTVSPost2010PropOp30
 70
     1
102
RTVSPost2010Prop31
280
     0
102
RTVSPost2010PropOp31
 70
     1
102
RTVSPost2010Prop32
280
     0
102
RTVSPost2010PropOp32
 70
     1
102
RTVSPost2010Prop33
280
     0
102
RTVSPost2010PropOp33
 70
     1
102
RTVSPost2010Prop34
280
     0
102
RTVSPost2010PropOp34
 70
     1
102
RTVSPost2010Prop35
280
     0
102
RTVSPost2010PropOp35
 70
     1
102
RTVSPost2010Prop36
280
     0
102
RTVSPost2010PropOp36
 70
     1
102
RTVSPost2010Prop37
 90
       50
102
RTVSPost2010PropOp37
 70
     1
102
RTVSPost2010Prop38
140
0.0
102
RTVSPost2010PropOp38
 70
     1
102
RTVSPost2010Prop39
140
1.0
102
RTVSPost2010PropOp39
 70
     1
102
RTVSPost2010Prop40
 90
        0
102
RTVSPost2010PropOp40
 70
     1
102
RTVSPost2010Prop41ColorIndex
 90
       18
102
RTVSPost2010Prop41ColorRGB
 90
        0
102
RTVSPost2010PropOp41
 70
     1
102
RTVSPost2010Prop42
 90
       50
102
RTVSPost2010PropOp42
 70
     1
102
RTVSPost2010Prop43
 90
        3
102
RTVSPost2010PropOp43
 70
     1
102
RTVSPost2010Prop44ColorIndex
 90
        5
102
RTVSPost2010Prop44ColorRGB
 90
      255
102
RTVSPost2010PropOp44
 70
     1
102
RTVSPost2010Prop45
280
     0
102
RTVSPost2010PropOp45
 70
     1
102
RTVSPost2010Prop46
 90
       50
102
RTVSPost2010PropOp46
 70
     1
102
RTVSPost2010Prop47
 90
       50
102
RTVSPost2010PropOp47
 70
     1
102
RTVSPost2010Prop48
 90
       50
102
RTVSPost2010PropOp48
 70
     1
102
RTVSPost2010Prop49
280
     0
102
RTVSPost2010PropOp49
 70
     1
102
RTVSPost2010Prop50
 90
       50
102
RTVSPost2010PropOp50
 70
     1
102
RTVSPost2010Prop51ColorIndex
 90
      256
102
RTVSPost2010Prop51ColorRGB
 90
-16777216
102
RTVSPost2010PropOp51
 70
     0
102
RTVSPost2010Prop52
140
1.0
102
RTVSPost2010PropOp52
 70
     0
102
RTVSPost2010Prop53
 90
        2
102
RTVSPost2010PropOp53
 70
     1
102
RTVSPost2010Prop54
  1
strokes_ogs.tif
102
RTVSPost2010PropOp54
 70
     1
102
RTVSPost2010Prop55
280
     0
102
RTVSPost2010PropOp55
 70
     1
102
RTVSPost2010Prop56
140
1.0
102
RTVSPost2010PropOp56
 70
     1
102
RTVSPost2010Prop57
140
1.0
102
RTVSPost2010PropOp57
 70
     1
102
RTVSPropertyOp0
 70
     1
102
RTVSPropertyOp1
 70
     1
102
RTVSPropertyOp2
 70
     1
102
RTVSPropertyOp3
 70
     1
102
RTVSPropertyOp4
 70
     1
102
RTVSPropertyOp5
 70
     1
102
RTVSPropertyOp6
 70
     1
102
RTVSPropertyOp7
 70
     1
102
RTVSPropertyOp8
 70
     1
102
RTVSPropertyOp9
 70
     1
102
RTVSPropertyOp10
 70
     1
102
RTVSPropertyOp11
 70
     1
102
RTVSPropertyOp12
 70
     1
102
RTVSPropertyOp13
 70
     1
102
RTVSPropertyOp14
 70
     1
102
RTVSPropertyOp15
 70
     1
102
RTVSPropertyOp16
 70
     1
102
RTVSPropertyOp17
 70
     1
102
RTVSPropertyOp18
 70
     1
102
RTVSPropertyOp19
 70
     1
102
RTVSPropertyOp20
 70
     1
102
RTVSPropertyOp21
 70
     1
102
RTVSPropertyOp22
 70
     1
102
RTVSPropertyOp23
 70
     1
102
RTVSPropertyOp24
 70
     1
102
RTVSPropertyOp25
 70
     1
102
RTVSPropertyOp26
 70
     1
102
RTVSPropertyOp27
 70
     1
102
RTVSPropertyOp28
 70
     1
102
RTVSPropertyOp29
 70
     1
102
RTVSPropertyOp30
 70
     1
102
RTVSPropertyOp31
 70
     1
102
RTVSPropertyOp32
 70
     1
102
RTVSPropertyOp33
 70
     1
102
RTVSPropertyOp34
 70
     1
102
RTVSPropertyOp35
 70
     1
102
RTVSPropertyOp36
 70
     1
102
RTVSPropertyOp37
 70
     1
102
RTVSPropertyOp38
 70
     1
102
RTVSPropertyOp39
 70
     1
102
RTVSPropertyOp40
 70
     1
102
RTVSPropertyOp41
 70
     1
102
RTVSPropertyOp42
 70
     1
102
RTVSPropertyOp43
 70
     1
102
RTVSPropertyOp44
 70
     1
102
RTVSPropertyOp45
 70
     1
102
RTVSPropertyOp46
 70
     1
102
RTVSPropertyOp47
 70
     1
102
RTVSPropertyOp48
 70
     1
102
RTVSPropertyOp49
 70
     1
102
RTVSPropertyOp50
 70
     1
102
RTVSPropertyOp51
 70
     0
102
RTVSPropertyOp52
 70
     0
102
RTVSPropertyOp53
 70
     1
102
RTVSPropertyOp54
 70
     1
102
RTVSPropertyOp55
 70
     1
102
RTVSPropertyOp56
 70
     1
102
RTVSPropertyOp57
 70
     1
102
RTVSPropertyOp58
 70
     1
102
RTVSPropertyOp59
 70
     1
102
RTVSPropertyOp60
 70
     1
102
RTVSPropertyOp61
 70
     1
102
RTVSPropertyOp62
 70
     1
  0
XRECORD
  5
9C4B
102
{ACAD_REACTORS
330
9C4A
102
}
330
9C4A
100
AcDbXrecord
280
     1
102
RTVSPost2010Prop28
280
     0
102
RTVSPost2010PropOp28
 70
     1
102
RTVSPost2010Prop29
280
     1
102
RTVSPost2010PropOp29
 70
     1
102
RTVSPost2010Prop30
280
     1
102
RTVSPost2010PropOp30
 70
     1
102
RTVSPost2010Prop31
280
     0
102
RTVSPost2010PropOp31
 70
     1
102
RTVSPost2010Prop32
280
     0
102
RTVSPost2010PropOp32
 70
     1
102
RTVSPost2010Prop33
280
     0
102
RTVSPost2010PropOp33
 70
     1
102
RTVSPost2010Prop34
280
     0
102
RTVSPost2010PropOp34
 70
     1
102
RTVSPost2010Prop35
280
     0
102
RTVSPost2010PropOp35
 70
     1
102
RTVSPost2010Prop36
280
     0
102
RTVSPost2010PropOp36
 70
     1
102
RTVSPost2010Prop37
 90
       50
102
RTVSPost2010PropOp37
 70
     0
102
RTVSPost2010Prop38
140
0.0
102
RTVSPost2010PropOp38
 70
     0
102
RTVSPost2010Prop39
140
1.0
102
RTVSPost2010PropOp39
 70
     0
102
RTVSPost2010Prop40
 90
        0
102
RTVSPost2010PropOp40
 70
     0
102
RTVSPost2010Prop41ColorIndex
 90
       18
102
RTVSPost2010Prop41ColorRGB
 90
        0
102
RTVSPost2010PropOp41
 70
     0
102
RTVSPost2010Prop42
 90
       50
102
RTVSPost2010PropOp42
 70
     0
102
RTVSPost2010Prop43
 90
        3
102
RTVSPost2010PropOp43
 70
     0
102
RTVSPost2010Prop44ColorIndex
 90
        5
102
RTVSPost2010Prop44ColorRGB
 90
      255
102
RTVSPost2010PropOp44
 70
     0
102
RTVSPost2010Prop45
280
     0
102
RTVSPost2010PropOp45
 70
     1
102
RTVSPost2010Prop46
 90
       50
102
RTVSPost2010PropOp46
 70
     0
102
RTVSPost2010Prop47
 90
       50
102
RTVSPost2010PropOp47
 70
     0
102
RTVSPost2010Prop48
 90
       50
102
RTVSPost2010PropOp48
 70
     0
102
RTVSPost2010Prop49
280
     0
102
RTVSPost2010PropOp49
 70
     1
102
RTVSPost2010Prop50
 90
       50
102
RTVSPost2010PropOp50
 70
     0
102
RTVSPost2010Prop51ColorIndex
 90
      256
102
RTVSPost2010Prop51ColorRGB
 90
-16777216
102
RTVSPost2010PropOp51
 70
     0
102
RTVSPost2010Prop52
140
1.0
102
RTVSPost2010PropOp52
 70
     0
102
RTVSPost2010Prop53
 90
        2
102
RTVSPost2010PropOp53
 70
     0
102
RTVSPost2010Prop54
  1
strokes_ogs.tif
102
RTVSPost2010PropOp54
 70
     0
102
RTVSPost2010Prop55
280
     0
102
RTVSPost2010PropOp55
 70
     1
102
RTVSPost2010Prop56
140
1.0
102
RTVSPost2010PropOp56
 70
     0
102
RTVSPost2010Prop57
140
1.0
102
RTVSPost2010PropOp57
 70
     0
102
RTVSPropertyOp0
 70
     0
102
RTVSPropertyOp1
 70
     0
102
RTVSPropertyOp2
 70
     0
102
RTVSPropertyOp3
 70
     0
102
RTVSPropertyOp4
 70
     0
102
RTVSPropertyOp5
 70
     0
102
RTVSPropertyOp6
 70
     0
102
RTVSPropertyOp7
 70
     0
102
RTVSPropertyOp8
 70
     0
102
RTVSPropertyOp9
 70
     0
102
RTVSPropertyOp10
 70
     0
102
RTVSPropertyOp11
 70
     0
102
RTVSPropertyOp12
 70
     0
102
RTVSPropertyOp13
 70
     0
102
RTVSPropertyOp14
 70
     2
102
RTVSPropertyOp15
 70
     0
102
RTVSPropertyOp16
 70
     0
102
RTVSPropertyOp17
 70
     0
102
RTVSPropertyOp18
 70
     0
102
RTVSPropertyOp19
 70
     0
102
RTVSPropertyOp20
 70
     0
102
RTVSPropertyOp21
 70
     0
102
RTVSPropertyOp22
 70
     0
102
RTVSPropertyOp23
 70
     0
102
RTVSPropertyOp24
 70
     0
102
RTVSPropertyOp25
 70
     0
102
RTVSPropertyOp26
 70
     0
102
RTVSPropertyOp27
 70
     0
102
RTVSPropertyOp28
 70
     1
102
RTVSPropertyOp29
 70
     1
102
RTVSPropertyOp30
 70
     1
102
RTVSPropertyOp31
 70
     1
102
RTVSPropertyOp32
 70
     1
102
RTVSPropertyOp33
 70
     1
102
RTVSPropertyOp34
 70
     1
102
RTVSPropertyOp35
 70
     1
102
RTVSPropertyOp36
 70
     1
102
RTVSPropertyOp37
 70
     0
102
RTVSPropertyOp38
 70
     0
102
RTVSPropertyOp39
 70
     0
102
RTVSPropertyOp40
 70
     0
102
RTVSPropertyOp41
 70
     0
102
RTVSPropertyOp42
 70
     0
102
RTVSPropertyOp43
 70
     0
102
RTVSPropertyOp44
 70
     0
102
RTVSPropertyOp45
 70
     1
102
RTVSPropertyOp46
 70
     0
102
RTVSPropertyOp47
 70
     0
102
RTVSPropertyOp48
 70
     0
102
RTVSPropertyOp49
 70
     1
102
RTVSPropertyOp50
 70
     0
102
RTVSPropertyOp51
 70
     0
102
RTVSPropertyOp52
 70
     0
102
RTVSPropertyOp53
 70
     0
102
RTVSPropertyOp54
 70
     0
102
RTVSPropertyOp55
 70
     1
102
RTVSPropertyOp56
 70
     0
102
RTVSPropertyOp57
 70
     0
102
RTVSPropertyOp58
 70
     0
102
RTVSPropertyOp59
 70
     0
102
RTVSPropertyOp60
 70
     0
102
RTVSPropertyOp61
 70
     0
102
RTVSPropertyOp62
 70
     0
  0
XRECORD
  5
9C31
102
{ACAD_REACTORS
330
9C30
102
}
330
9C30
100
AcDbXrecord
280
     1
102
RTVSPost2010Prop28
280
     0
102
RTVSPost2010PropOp28
 70
     1
102
RTVSPost2010Prop29
280
     1
102
RTVSPost2010PropOp29
 70
     1
102
RTVSPost2010Prop30
280
     1
102
RTVSPost2010PropOp30
 70
     1
102
RTVSPost2010Prop31
280
     0
102
RTVSPost2010PropOp31
 70
     1
102
RTVSPost2010Prop32
280
     0
102
RTVSPost2010PropOp32
 70
     1
102
RTVSPost2010Prop33
280
     0
102
RTVSPost2010PropOp33
 70
     1
102
RTVSPost2010Prop34
280
     0
102
RTVSPost2010PropOp34
 70
     1
102
RTVSPost2010Prop35
280
     0
102
RTVSPost2010PropOp35
 70
     1
102
RTVSPost2010Prop36
280
     0
102
RTVSPost2010PropOp36
 70
     1
102
RTVSPost2010Prop37
 90
       50
102
RTVSPost2010PropOp37
 70
     1
102
RTVSPost2010Prop38
140
0.0
102
RTVSPost2010PropOp38
 70
     1
102
RTVSPost2010Prop39
140
1.0
102
RTVSPost2010PropOp39
 70
     1
102
RTVSPost2010Prop40
 90
        0
102
RTVSPost2010PropOp40
 70
     1
102
RTVSPost2010Prop41ColorIndex
 90
       18
102
RTVSPost2010Prop41ColorRGB
 90
        0
102
RTVSPost2010PropOp41
 70
     1
102
RTVSPost2010Prop42
 90
       50
102
RTVSPost2010PropOp42
 70
     1
102
RTVSPost2010Prop43
 90
        3
102
RTVSPost2010PropOp43
 70
     1
102
RTVSPost2010Prop44ColorIndex
 90
        5
102
RTVSPost2010Prop44ColorRGB
 90
      255
102
RTVSPost2010PropOp44
 70
     1
102
RTVSPost2010Prop45
280
     0
102
RTVSPost2010PropOp45
 70
     1
102
RTVSPost2010Prop46
 90
       50
102
RTVSPost2010PropOp46
 70
     1
102
RTVSPost2010Prop47
 90
       50
102
RTVSPost2010PropOp47
 70
     1
102
RTVSPost2010Prop48
 90
       50
102
RTVSPost2010PropOp48
 70
     1
102
RTVSPost2010Prop49
280
     0
102
RTVSPost2010PropOp49
 70
     1
102
RTVSPost2010Prop50
 90
       50
102
RTVSPost2010PropOp50
 70
     1
102
RTVSPost2010Prop51ColorIndex
 90
      256
102
RTVSPost2010Prop51ColorRGB
 90
-16777216
102
RTVSPost2010PropOp51
 70
     0
102
RTVSPost2010Prop52
140
1.0
102
RTVSPost2010PropOp52
 70
     0
102
RTVSPost2010Prop53
 90
        2
102
RTVSPost2010PropOp53
 70
     1
102
RTVSPost2010Prop54
  1
strokes_ogs.tif
102
RTVSPost2010PropOp54
 70
     1
102
RTVSPost2010Prop55
280
     0
102
RTVSPost2010PropOp55
 70
     1
102
RTVSPost2010Prop56
140
1.0
102
RTVSPost2010PropOp56
 70
     1
102
RTVSPost2010Prop57
140
1.0
102
RTVSPost2010PropOp57
 70
     1
102
RTVSPropertyOp0
 70
     1
102
RTVSPropertyOp1
 70
     1
102
RTVSPropertyOp2
 70
     1
102
RTVSPropertyOp3
 70
     1
102
RTVSPropertyOp4
 70
     1
102
RTVSPropertyOp5
 70
     1
102
RTVSPropertyOp6
 70
     1
102
RTVSPropertyOp7
 70
     1
102
RTVSPropertyOp8
 70
     1
102
RTVSPropertyOp9
 70
     1
102
RTVSPropertyOp10
 70
     1
102
RTVSPropertyOp11
 70
     1
102
RTVSPropertyOp12
 70
     1
102
RTVSPropertyOp13
 70
     1
102
RTVSPropertyOp14
 70
     1
102
RTVSPropertyOp15
 70
     1
102
RTVSPropertyOp16
 70
     1
102
RTVSPropertyOp17
 70
     1
102
RTVSPropertyOp18
 70
     1
102
RTVSPropertyOp19
 70
     1
102
RTVSPropertyOp20
 70
     1
102
RTVSPropertyOp21
 70
     1
102
RTVSPropertyOp22
 70
     1
102
RTVSPropertyOp23
 70
     1
102
RTVSPropertyOp24
 70
     1
102
RTVSPropertyOp25
 70
     1
102
RTVSPropertyOp26
 70
     1
102
RTVSPropertyOp27
 70
     1
102
RTVSPropertyOp28
 70
     1
102
RTVSPropertyOp29
 70
     1
102
RTVSPropertyOp30
 70
     1
102
RTVSPropertyOp31
 70
     1
102
RTVSPropertyOp32
 70
     1
102
RTVSPropertyOp33
 70
     1
102
RTVSPropertyOp34
 70
     1
102
RTVSPropertyOp35
 70
     1
102
RTVSPropertyOp36
 70
     1
102
RTVSPropertyOp37
 70
     1
102
RTVSPropertyOp38
 70
     1
102
RTVSPropertyOp39
 70
     1
102
RTVSPropertyOp40
 70
     1
102
RTVSPropertyOp41
 70
     1
102
RTVSPropertyOp42
 70
     1
102
RTVSPropertyOp43
 70
     1
102
RTVSPropertyOp44
 70
     1
102
RTVSPropertyOp45
 70
     1
102
RTVSPropertyOp46
 70
     1
102
RTVSPropertyOp47
 70
     1
102
RTVSPropertyOp48
 70
     1
102
RTVSPropertyOp49
 70
     1
102
RTVSPropertyOp50
 70
     1
102
RTVSPropertyOp51
 70
     0
102
RTVSPropertyOp52
 70
     0
102
RTVSPropertyOp53
 70
     1
102
RTVSPropertyOp54
 70
     1
102
RTVSPropertyOp55
 70
     1
102
RTVSPropertyOp56
 70
     1
102
RTVSPropertyOp57
 70
     1
102
RTVSPropertyOp58
 70
     1
102
RTVSPropertyOp59
 70
     1
102
RTVSPropertyOp60
 70
     1
102
RTVSPropertyOp61
 70
     1
102
RTVSPropertyOp62
 70
     1
  0
XRECORD
  5
9C47
102
{ACAD_REACTORS
330
9C46
102
}
330
9C46
100
AcDbXrecord
280
     1
102
RTVSPost2010Prop28
280
     0
102
RTVSPost2010PropOp28
 70
     1
102
RTVSPost2010Prop29
280
     1
102
RTVSPost2010PropOp29
 70
     1
102
RTVSPost2010Prop30
280
     1
102
RTVSPost2010PropOp30
 70
     1
102
RTVSPost2010Prop31
280
     0
102
RTVSPost2010PropOp31
 70
     1
102
RTVSPost2010Prop32
280
     0
102
RTVSPost2010PropOp32
 70
     1
102
RTVSPost2010Prop33
280
     0
102
RTVSPost2010PropOp33
 70
     1
102
RTVSPost2010Prop34
280
     0
102
RTVSPost2010PropOp34
 70
     1
102
RTVSPost2010Prop35
280
     0
102
RTVSPost2010PropOp35
 70
     1
102
RTVSPost2010Prop36
280
     0
102
RTVSPost2010PropOp36
 70
     1
102
RTVSPost2010Prop37
 90
       50
102
RTVSPost2010PropOp37
 70
     1
102
RTVSPost2010Prop38
140
0.0
102
RTVSPost2010PropOp38
 70
     1
102
RTVSPost2010Prop39
140
1.0
102
RTVSPost2010PropOp39
 70
     1
102
RTVSPost2010Prop40
 90
        0
102
RTVSPost2010PropOp40
 70
     1
102
RTVSPost2010Prop41ColorIndex
 90
       18
102
RTVSPost2010Prop41ColorRGB
 90
        0
102
RTVSPost2010PropOp41
 70
     1
102
RTVSPost2010Prop42
 90
       50
102
RTVSPost2010PropOp42
 70
     1
102
RTVSPost2010Prop43
 90
        3
102
RTVSPost2010PropOp43
 70
     1
102
RTVSPost2010Prop44ColorIndex
 90
        5
102
RTVSPost2010Prop44ColorRGB
 90
      255
102
RTVSPost2010PropOp44
 70
     1
102
RTVSPost2010Prop45
280
     0
102
RTVSPost2010PropOp45
 70
     1
102
RTVSPost2010Prop46
 90
       50
102
RTVSPost2010PropOp46
 70
     1
102
RTVSPost2010Prop47
 90
       50
102
RTVSPost2010PropOp47
 70
     1
102
RTVSPost2010Prop48
 90
       50
102
RTVSPost2010PropOp48
 70
     1
102
RTVSPost2010Prop49
280
     0
102
RTVSPost2010PropOp49
 70
     1
102
RTVSPost2010Prop50
 90
       50
102
RTVSPost2010PropOp50
 70
     1
102
RTVSPost2010Prop51ColorIndex
 90
      256
102
RTVSPost2010Prop51ColorRGB
 90
-16777216
102
RTVSPost2010PropOp51
 70
     0
102
RTVSPost2010Prop52
140
1.0
102
RTVSPost2010PropOp52
 70
     0
102
RTVSPost2010Prop53
 90
        2
102
RTVSPost2010PropOp53
 70
     1
102
RTVSPost2010Prop54
  1
strokes_ogs.tif
102
RTVSPost2010PropOp54
 70
     1
102
RTVSPost2010Prop55
280
     0
102
RTVSPost2010PropOp55
 70
     1
102
RTVSPost2010Prop56
140
1.0
102
RTVSPost2010PropOp56
 70
     1
102
RTVSPost2010Prop57
140
1.0
102
RTVSPost2010PropOp57
 70
     1
102
RTVSPropertyOp0
 70
     1
102
RTVSPropertyOp1
 70
     1
102
RTVSPropertyOp2
 70
     1
102
RTVSPropertyOp3
 70
     1
102
RTVSPropertyOp4
 70
     1
102
RTVSPropertyOp5
 70
     1
102
RTVSPropertyOp6
 70
     1
102
RTVSPropertyOp7
 70
     1
102
RTVSPropertyOp8
 70
     1
102
RTVSPropertyOp9
 70
     1
102
RTVSPropertyOp10
 70
     1
102
RTVSPropertyOp11
 70
     1
102
RTVSPropertyOp12
 70
     1
102
RTVSPropertyOp13
 70
     1
102
RTVSPropertyOp14
 70
     1
102
RTVSPropertyOp15
 70
     1
102
RTVSPropertyOp16
 70
     1
102
RTVSPropertyOp17
 70
     1
102
RTVSPropertyOp18
 70
     1
102
RTVSPropertyOp19
 70
     1
102
RTVSPropertyOp20
 70
     1
102
RTVSPropertyOp21
 70
     1
102
RTVSPropertyOp22
 70
     1
102
RTVSPropertyOp23
 70
     1
102
RTVSPropertyOp24
 70
     1
102
RTVSPropertyOp25
 70
     1
102
RTVSPropertyOp26
 70
     1
102
RTVSPropertyOp27
 70
     1
102
RTVSPropertyOp28
 70
     1
102
RTVSPropertyOp29
 70
     1
102
RTVSPropertyOp30
 70
     1
102
RTVSPropertyOp31
 70
     1
102
RTVSPropertyOp32
 70
     1
102
RTVSPropertyOp33
 70
     1
102
RTVSPropertyOp34
 70
     1
102
RTVSPropertyOp35
 70
     1
102
RTVSPropertyOp36
 70
     1
102
RTVSPropertyOp37
 70
     1
102
RTVSPropertyOp38
 70
     1
102
RTVSPropertyOp39
 70
     1
102
RTVSPropertyOp40
 70
     1
102
RTVSPropertyOp41
 70
     1
102
RTVSPropertyOp42
 70
     1
102
RTVSPropertyOp43
 70
     1
102
RTVSPropertyOp44
 70
     1
102
RTVSPropertyOp45
 70
     1
102
RTVSPropertyOp46
 70
     1
102
RTVSPropertyOp47
 70
     1
102
RTVSPropertyOp48
 70
     1
102
RTVSPropertyOp49
 70
     1
102
RTVSPropertyOp50
 70
     1
102
RTVSPropertyOp51
 70
     0
102
RTVSPropertyOp52
 70
     0
102
RTVSPropertyOp53
 70
     1
102
RTVSPropertyOp54
 70
     1
102
RTVSPropertyOp55
 70
     1
102
RTVSPropertyOp56
 70
     1
102
RTVSPropertyOp57
 70
     1
102
RTVSPropertyOp58
 70
     1
102
RTVSPropertyOp59
 70
     1
102
RTVSPropertyOp60
 70
     1
102
RTVSPropertyOp61
 70
     1
102
RTVSPropertyOp62
 70
     1
  0
XRECORD
  5
9C45
102
{ACAD_REACTORS
330
9C44
102
}
330
9C44
100
AcDbXrecord
280
     1
102
RTVSPost2010Prop28
280
     0
102
RTVSPost2010PropOp28
 70
     1
102
RTVSPost2010Prop29
280
     1
102
RTVSPost2010PropOp29
 70
     1
102
RTVSPost2010Prop30
280
     1
102
RTVSPost2010PropOp30
 70
     1
102
RTVSPost2010Prop31
280
     0
102
RTVSPost2010PropOp31
 70
     1
102
RTVSPost2010Prop32
280
     0
102
RTVSPost2010PropOp32
 70
     1
102
RTVSPost2010Prop33
280
     0
102
RTVSPost2010PropOp33
 70
     1
102
RTVSPost2010Prop34
280
     0
102
RTVSPost2010PropOp34
 70
     1
102
RTVSPost2010Prop35
280
     0
102
RTVSPost2010PropOp35
 70
     1
102
RTVSPost2010Prop36
280
     0
102
RTVSPost2010PropOp36
 70
     1
102
RTVSPost2010Prop37
 90
       50
102
RTVSPost2010PropOp37
 70
     1
102
RTVSPost2010Prop38
140
0.0
102
RTVSPost2010PropOp38
 70
     1
102
RTVSPost2010Prop39
140
1.0
102
RTVSPost2010PropOp39
 70
     1
102
RTVSPost2010Prop40
 90
        0
102
RTVSPost2010PropOp40
 70
     1
102
RTVSPost2010Prop41ColorIndex
 90
       18
102
RTVSPost2010Prop41ColorRGB
 90
        0
102
RTVSPost2010PropOp41
 70
     1
102
RTVSPost2010Prop42
 90
       50
102
RTVSPost2010PropOp42
 70
     1
102
RTVSPost2010Prop43
 90
        3
102
RTVSPost2010PropOp43
 70
     1
102
RTVSPost2010Prop44ColorIndex
 90
        5
102
RTVSPost2010Prop44ColorRGB
 90
      255
102
RTVSPost2010PropOp44
 70
     1
102
RTVSPost2010Prop45
280
     0
102
RTVSPost2010PropOp45
 70
     1
102
RTVSPost2010Prop46
 90
       50
102
RTVSPost2010PropOp46
 70
     1
102
RTVSPost2010Prop47
 90
       50
102
RTVSPost2010PropOp47
 70
     1
102
RTVSPost2010Prop48
 90
       50
102
RTVSPost2010PropOp48
 70
     1
102
RTVSPost2010Prop49
280
     0
102
RTVSPost2010PropOp49
 70
     1
102
RTVSPost2010Prop50
 90
       50
102
RTVSPost2010PropOp50
 70
     1
102
RTVSPost2010Prop51ColorIndex
 90
      256
102
RTVSPost2010Prop51ColorRGB
 90
-16777216
102
RTVSPost2010PropOp51
 70
     0
102
RTVSPost2010Prop52
140
1.0
102
RTVSPost2010PropOp52
 70
     0
102
RTVSPost2010Prop53
 90
        2
102
RTVSPost2010PropOp53
 70
     1
102
RTVSPost2010Prop54
  1
strokes_ogs.tif
102
RTVSPost2010PropOp54
 70
     1
102
RTVSPost2010Prop55
280
     0
102
RTVSPost2010PropOp55
 70
     1
102
RTVSPost2010Prop56
140
1.0
102
RTVSPost2010PropOp56
 70
     1
102
RTVSPost2010Prop57
140
1.0
102
RTVSPost2010PropOp57
 70
     1
102
RTVSPropertyOp0
 70
     1
102
RTVSPropertyOp1
 70
     1
102
RTVSPropertyOp2
 70
     1
102
RTVSPropertyOp3
 70
     1
102
RTVSPropertyOp4
 70
     1
102
RTVSPropertyOp5
 70
     1
102
RTVSPropertyOp6
 70
     1
102
RTVSPropertyOp7
 70
     1
102
RTVSPropertyOp8
 70
     1
102
RTVSPropertyOp9
 70
     1
102
RTVSPropertyOp10
 70
     1
102
RTVSPropertyOp11
 70
     1
102
RTVSPropertyOp12
 70
     1
102
RTVSPropertyOp13
 70
     1
102
RTVSPropertyOp14
 70
     1
102
RTVSPropertyOp15
 70
     1
102
RTVSPropertyOp16
 70
     1
102
RTVSPropertyOp17
 70
     1
102
RTVSPropertyOp18
 70
     1
102
RTVSPropertyOp19
 70
     1
102
RTVSPropertyOp20
 70
     1
102
RTVSPropertyOp21
 70
     1
102
RTVSPropertyOp22
 70
     1
102
RTVSPropertyOp23
 70
     1
102
RTVSPropertyOp24
 70
     1
102
RTVSPropertyOp25
 70
     1
102
RTVSPropertyOp26
 70
     1
102
RTVSPropertyOp27
 70
     1
102
RTVSPropertyOp28
 70
     1
102
RTVSPropertyOp29
 70
     1
102
RTVSPropertyOp30
 70
     1
102
RTVSPropertyOp31
 70
     1
102
RTVSPropertyOp32
 70
     1
102
RTVSPropertyOp33
 70
     1
102
RTVSPropertyOp34
 70
     1
102
RTVSPropertyOp35
 70
     1
102
RTVSPropertyOp36
 70
     1
102
RTVSPropertyOp37
 70
     1
102
RTVSPropertyOp38
 70
     1
102
RTVSPropertyOp39
 70
     1
102
RTVSPropertyOp40
 70
     1
102
RTVSPropertyOp41
 70
     1
102
RTVSPropertyOp42
 70
     1
102
RTVSPropertyOp43
 70
     1
102
RTVSPropertyOp44
 70
     1
102
RTVSPropertyOp45
 70
     1
102
RTVSPropertyOp46
 70
     1
102
RTVSPropertyOp47
 70
     1
102
RTVSPropertyOp48
 70
     1
102
RTVSPropertyOp49
 70
     1
102
RTVSPropertyOp50
 70
     1
102
RTVSPropertyOp51
 70
     0
102
RTVSPropertyOp52
 70
     0
102
RTVSPropertyOp53
 70
     1
102
RTVSPropertyOp54
 70
     1
102
RTVSPropertyOp55
 70
     1
102
RTVSPropertyOp56
 70
     1
102
RTVSPropertyOp57
 70
     1
102
RTVSPropertyOp58
 70
     1
102
RTVSPropertyOp59
 70
     1
102
RTVSPropertyOp60
 70
     1
102
RTVSPropertyOp61
 70
     1
102
RTVSPropertyOp62
 70
     1
  0
XRECORD
  5
9C3F
102
{ACAD_REACTORS
330
9C3E
102
}
330
9C3E
100
AcDbXrecord
280
     1
102
RTVSPost2010Prop28
280
     0
102
RTVSPost2010PropOp28
 70
     1
102
RTVSPost2010Prop29
280
     1
102
RTVSPost2010PropOp29
 70
     1
102
RTVSPost2010Prop30
280
     1
102
RTVSPost2010PropOp30
 70
     1
102
RTVSPost2010Prop31
280
     0
102
RTVSPost2010PropOp31
 70
     1
102
RTVSPost2010Prop32
280
     0
102
RTVSPost2010PropOp32
 70
     1
102
RTVSPost2010Prop33
280
     0
102
RTVSPost2010PropOp33
 70
     1
102
RTVSPost2010Prop34
280
     0
102
RTVSPost2010PropOp34
 70
     1
102
RTVSPost2010Prop35
280
     0
102
RTVSPost2010PropOp35
 70
     1
102
RTVSPost2010Prop36
280
     0
102
RTVSPost2010PropOp36
 70
     1
102
RTVSPost2010Prop37
 90
       50
102
RTVSPost2010PropOp37
 70
     1
102
RTVSPost2010Prop38
140
0.0
102
RTVSPost2010PropOp38
 70
     1
102
RTVSPost2010Prop39
140
1.0
102
RTVSPost2010PropOp39
 70
     1
102
RTVSPost2010Prop40
 90
        0
102
RTVSPost2010PropOp40
 70
     1
102
RTVSPost2010Prop41ColorIndex
 90
       18
102
RTVSPost2010Prop41ColorRGB
 90
        0
102
RTVSPost2010PropOp41
 70
     1
102
RTVSPost2010Prop42
 90
       50
102
RTVSPost2010PropOp42
 70
     1
102
RTVSPost2010Prop43
 90
        3
102
RTVSPost2010PropOp43
 70
     1
102
RTVSPost2010Prop44ColorIndex
 90
        5
102
RTVSPost2010Prop44ColorRGB
 90
      255
102
RTVSPost2010PropOp44
 70
     1
102
RTVSPost2010Prop45
280
     0
102
RTVSPost2010PropOp45
 70
     1
102
RTVSPost2010Prop46
 90
       50
102
RTVSPost2010PropOp46
 70
     1
102
RTVSPost2010Prop47
 90
       50
102
RTVSPost2010PropOp47
 70
     1
102
RTVSPost2010Prop48
 90
       50
102
RTVSPost2010PropOp48
 70
     1
102
RTVSPost2010Prop49
280
     0
102
RTVSPost2010PropOp49
 70
     1
102
RTVSPost2010Prop50
 90
       50
102
RTVSPost2010PropOp50
 70
     1
102
RTVSPost2010Prop51ColorIndex
 90
      256
102
RTVSPost2010Prop51ColorRGB
 90
-16777216
102
RTVSPost2010PropOp51
 70
     0
102
RTVSPost2010Prop52
140
1.0
102
RTVSPost2010PropOp52
 70
     0
102
RTVSPost2010Prop53
 90
        2
102
RTVSPost2010PropOp53
 70
     1
102
RTVSPost2010Prop54
  1
strokes_ogs.tif
102
RTVSPost2010PropOp54
 70
     1
102
RTVSPost2010Prop55
280
     0
102
RTVSPost2010PropOp55
 70
     1
102
RTVSPost2010Prop56
140
1.0
102
RTVSPost2010PropOp56
 70
     1
102
RTVSPost2010Prop57
140
1.0
102
RTVSPost2010PropOp57
 70
     1
102
RTVSPropertyOp0
 70
     1
102
RTVSPropertyOp1
 70
     1
102
RTVSPropertyOp2
 70
     1
102
RTVSPropertyOp3
 70
     1
102
RTVSPropertyOp4
 70
     1
102
RTVSPropertyOp5
 70
     1
102
RTVSPropertyOp6
 70
     1
102
RTVSPropertyOp7
 70
     1
102
RTVSPropertyOp8
 70
     1
102
RTVSPropertyOp9
 70
     1
102
RTVSPropertyOp10
 70
     1
102
RTVSPropertyOp11
 70
     1
102
RTVSPropertyOp12
 70
     1
102
RTVSPropertyOp13
 70
     1
102
RTVSPropertyOp14
 70
     1
102
RTVSPropertyOp15
 70
     1
102
RTVSPropertyOp16
 70
     1
102
RTVSPropertyOp17
 70
     1
102
RTVSPropertyOp18
 70
     1
102
RTVSPropertyOp19
 70
     1
102
RTVSPropertyOp20
 70
     1
102
RTVSPropertyOp21
 70
     1
102
RTVSPropertyOp22
 70
     1
102
RTVSPropertyOp23
 70
     1
102
RTVSPropertyOp24
 70
     1
102
RTVSPropertyOp25
 70
     1
102
RTVSPropertyOp26
 70
     1
102
RTVSPropertyOp27
 70
     1
102
RTVSPropertyOp28
 70
     1
102
RTVSPropertyOp29
 70
     1
102
RTVSPropertyOp30
 70
     1
102
RTVSPropertyOp31
 70
     1
102
RTVSPropertyOp32
 70
     1
102
RTVSPropertyOp33
 70
     1
102
RTVSPropertyOp34
 70
     1
102
RTVSPropertyOp35
 70
     1
102
RTVSPropertyOp36
 70
     1
102
RTVSPropertyOp37
 70
     1
102
RTVSPropertyOp38
 70
     1
102
RTVSPropertyOp39
 70
     1
102
RTVSPropertyOp40
 70
     1
102
RTVSPropertyOp41
 70
     1
102
RTVSPropertyOp42
 70
     1
102
RTVSPropertyOp43
 70
     1
102
RTVSPropertyOp44
 70
     1
102
RTVSPropertyOp45
 70
     1
102
RTVSPropertyOp46
 70
     1
102
RTVSPropertyOp47
 70
     1
102
RTVSPropertyOp48
 70
     1
102
RTVSPropertyOp49
 70
     1
102
RTVSPropertyOp50
 70
     1
102
RTVSPropertyOp51
 70
     0
102
RTVSPropertyOp52
 70
     0
102
RTVSPropertyOp53
 70
     1
102
RTVSPropertyOp54
 70
     1
102
RTVSPropertyOp55
 70
     1
102
RTVSPropertyOp56
 70
     1
102
RTVSPropertyOp57
 70
     1
102
RTVSPropertyOp58
 70
     1
102
RTVSPropertyOp59
 70
     1
102
RTVSPropertyOp60
 70
     1
102
RTVSPropertyOp61
 70
     1
102
RTVSPropertyOp62
 70
     1
  0
XRECORD
  5
9C41
102
{ACAD_REACTORS
330
9C40
102
}
330
9C40
100
AcDbXrecord
280
     1
102
RTVSPost2010Prop28
280
     0
102
RTVSPost2010PropOp28
 70
     1
102
RTVSPost2010Prop29
280
     1
102
RTVSPost2010PropOp29
 70
     1
102
RTVSPost2010Prop30
280
     1
102
RTVSPost2010PropOp30
 70
     1
102
RTVSPost2010Prop31
280
     0
102
RTVSPost2010PropOp31
 70
     1
102
RTVSPost2010Prop32
280
     0
102
RTVSPost2010PropOp32
 70
     1
102
RTVSPost2010Prop33
280
     0
102
RTVSPost2010PropOp33
 70
     1
102
RTVSPost2010Prop34
280
     0
102
RTVSPost2010PropOp34
 70
     1
102
RTVSPost2010Prop35
280
     0
102
RTVSPost2010PropOp35
 70
     1
102
RTVSPost2010Prop36
280
     0
102
RTVSPost2010PropOp36
 70
     1
102
RTVSPost2010Prop37
 90
       50
102
RTVSPost2010PropOp37
 70
     1
102
RTVSPost2010Prop38
140
0.0
102
RTVSPost2010PropOp38
 70
     1
102
RTVSPost2010Prop39
140
1.0
102
RTVSPost2010PropOp39
 70
     1
102
RTVSPost2010Prop40
 90
        0
102
RTVSPost2010PropOp40
 70
     1
102
RTVSPost2010Prop41ColorIndex
 90
       18
102
RTVSPost2010Prop41ColorRGB
 90
        0
102
RTVSPost2010PropOp41
 70
     1
102
RTVSPost2010Prop42
 90
       50
102
RTVSPost2010PropOp42
 70
     1
102
RTVSPost2010Prop43
 90
        3
102
RTVSPost2010PropOp43
 70
     1
102
RTVSPost2010Prop44ColorIndex
 90
        5
102
RTVSPost2010Prop44ColorRGB
 90
      255
102
RTVSPost2010PropOp44
 70
     1
102
RTVSPost2010Prop45
280
     0
102
RTVSPost2010PropOp45
 70
     1
102
RTVSPost2010Prop46
 90
       50
102
RTVSPost2010PropOp46
 70
     1
102
RTVSPost2010Prop47
 90
       50
102
RTVSPost2010PropOp47
 70
     1
102
RTVSPost2010Prop48
 90
       50
102
RTVSPost2010PropOp48
 70
     1
102
RTVSPost2010Prop49
280
     0
102
RTVSPost2010PropOp49
 70
     1
102
RTVSPost2010Prop50
 90
       50
102
RTVSPost2010PropOp50
 70
     1
102
RTVSPost2010Prop51ColorIndex
 90
      256
102
RTVSPost2010Prop51ColorRGB
 90
-16777216
102
RTVSPost2010PropOp51
 70
     0
102
RTVSPost2010Prop52
140
1.0
102
RTVSPost2010PropOp52
 70
     0
102
RTVSPost2010Prop53
 90
        2
102
RTVSPost2010PropOp53
 70
     1
102
RTVSPost2010Prop54
  1
strokes_ogs.tif
102
RTVSPost2010PropOp54
 70
     1
102
RTVSPost2010Prop55
280
     0
102
RTVSPost2010PropOp55
 70
     1
102
RTVSPost2010Prop56
140
1.0
102
RTVSPost2010PropOp56
 70
     1
102
RTVSPost2010Prop57
140
1.0
102
RTVSPost2010PropOp57
 70
     1
102
RTVSPropertyOp0
 70
     1
102
RTVSPropertyOp1
 70
     1
102
RTVSPropertyOp2
 70
     1
102
RTVSPropertyOp3
 70
     1
102
RTVSPropertyOp4
 70
     1
102
RTVSPropertyOp5
 70
     1
102
RTVSPropertyOp6
 70
     1
102
RTVSPropertyOp7
 70
     1
102
RTVSPropertyOp8
 70
     1
102
RTVSPropertyOp9
 70
     1
102
RTVSPropertyOp10
 70
     1
102
RTVSPropertyOp11
 70
     1
102
RTVSPropertyOp12
 70
     1
102
RTVSPropertyOp13
 70
     1
102
RTVSPropertyOp14
 70
     1
102
RTVSPropertyOp15
 70
     1
102
RTVSPropertyOp16
 70
     1
102
RTVSPropertyOp17
 70
     1
102
RTVSPropertyOp18
 70
     1
102
RTVSPropertyOp19
 70
     1
102
RTVSPropertyOp20
 70
     1
102
RTVSPropertyOp21
 70
     1
102
RTVSPropertyOp22
 70
     1
102
RTVSPropertyOp23
 70
     1
102
RTVSPropertyOp24
 70
     1
102
RTVSPropertyOp25
 70
     1
102
RTVSPropertyOp26
 70
     1
102
RTVSPropertyOp27
 70
     1
102
RTVSPropertyOp28
 70
     1
102
RTVSPropertyOp29
 70
     1
102
RTVSPropertyOp30
 70
     1
102
RTVSPropertyOp31
 70
     1
102
RTVSPropertyOp32
 70
     1
102
RTVSPropertyOp33
 70
     1
102
RTVSPropertyOp34
 70
     1
102
RTVSPropertyOp35
 70
     1
102
RTVSPropertyOp36
 70
     1
102
RTVSPropertyOp37
 70
     1
102
RTVSPropertyOp38
 70
     1
102
RTVSPropertyOp39
 70
     1
102
RTVSPropertyOp40
 70
     1
102
RTVSPropertyOp41
 70
     1
102
RTVSPropertyOp42
 70
     1
102
RTVSPropertyOp43
 70
     1
102
RTVSPropertyOp44
 70
     1
102
RTVSPropertyOp45
 70
     1
102
RTVSPropertyOp46
 70
     1
102
RTVSPropertyOp47
 70
     1
102
RTVSPropertyOp48
 70
     1
102
RTVSPropertyOp49
 70
     1
102
RTVSPropertyOp50
 70
     1
102
RTVSPropertyOp51
 70
     0
102
RTVSPropertyOp52
 70
     0
102
RTVSPropertyOp53
 70
     1
102
RTVSPropertyOp54
 70
     1
102
RTVSPropertyOp55
 70
     1
102
RTVSPropertyOp56
 70
     1
102
RTVSPropertyOp57
 70
     1
102
RTVSPropertyOp58
 70
     1
102
RTVSPropertyOp59
 70
     1
102
RTVSPropertyOp60
 70
     1
102
RTVSPropertyOp61
 70
     1
102
RTVSPropertyOp62
 70
     1
  0
XRECORD
  5
9C37
102
{ACAD_REACTORS
330
9C36
102
}
330
9C36
100
AcDbXrecord
280
     1
102
RTVSPost2010Prop28
280
     0
102
RTVSPost2010PropOp28
 70
     1
102
RTVSPost2010Prop29
280
     1
102
RTVSPost2010PropOp29
 70
     1
102
RTVSPost2010Prop30
280
     1
102
RTVSPost2010PropOp30
 70
     1
102
RTVSPost2010Prop31
280
     0
102
RTVSPost2010PropOp31
 70
     1
102
RTVSPost2010Prop32
280
     0
102
RTVSPost2010PropOp32
 70
     1
102
RTVSPost2010Prop33
280
     0
102
RTVSPost2010PropOp33
 70
     1
102
RTVSPost2010Prop34
280
     0
102
RTVSPost2010PropOp34
 70
     1
102
RTVSPost2010Prop35
280
     0
102
RTVSPost2010PropOp35
 70
     1
102
RTVSPost2010Prop36
280
     0
102
RTVSPost2010PropOp36
 70
     1
102
RTVSPost2010Prop37
 90
       50
102
RTVSPost2010PropOp37
 70
     1
102
RTVSPost2010Prop38
140
0.0
102
RTVSPost2010PropOp38
 70
     1
102
RTVSPost2010Prop39
140
1.0
102
RTVSPost2010PropOp39
 70
     1
102
RTVSPost2010Prop40
 90
        0
102
RTVSPost2010PropOp40
 70
     1
102
RTVSPost2010Prop41ColorIndex
 90
       18
102
RTVSPost2010Prop41ColorRGB
 90
        0
102
RTVSPost2010PropOp41
 70
     1
102
RTVSPost2010Prop42
 90
       50
102
RTVSPost2010PropOp42
 70
     1
102
RTVSPost2010Prop43
 90
        3
102
RTVSPost2010PropOp43
 70
     1
102
RTVSPost2010Prop44ColorIndex
 90
        5
102
RTVSPost2010Prop44ColorRGB
 90
      255
102
RTVSPost2010PropOp44
 70
     1
102
RTVSPost2010Prop45
280
     0
102
RTVSPost2010PropOp45
 70
     1
102
RTVSPost2010Prop46
 90
       50
102
RTVSPost2010PropOp46
 70
     1
102
RTVSPost2010Prop47
 90
       50
102
RTVSPost2010PropOp47
 70
     1
102
RTVSPost2010Prop48
 90
       50
102
RTVSPost2010PropOp48
 70
     1
102
RTVSPost2010Prop49
280
     0
102
RTVSPost2010PropOp49
 70
     1
102
RTVSPost2010Prop50
 90
       50
102
RTVSPost2010PropOp50
 70
     1
102
RTVSPost2010Prop51ColorIndex
 90
      256
102
RTVSPost2010Prop51ColorRGB
 90
-16777216
102
RTVSPost2010PropOp51
 70
     0
102
RTVSPost2010Prop52
140
1.0
102
RTVSPost2010PropOp52
 70
     0
102
RTVSPost2010Prop53
 90
        2
102
RTVSPost2010PropOp53
 70
     1
102
RTVSPost2010Prop54
  1
strokes_ogs.tif
102
RTVSPost2010PropOp54
 70
     1
102
RTVSPost2010Prop55
280
     0
102
RTVSPost2010PropOp55
 70
     1
102
RTVSPost2010Prop56
140
1.0
102
RTVSPost2010PropOp56
 70
     1
102
RTVSPost2010Prop57
140
1.0
102
RTVSPost2010PropOp57
 70
     1
102
RTVSPropertyOp0
 70
     1
102
RTVSPropertyOp1
 70
     1
102
RTVSPropertyOp2
 70
     1
102
RTVSPropertyOp3
 70
     1
102
RTVSPropertyOp4
 70
     1
102
RTVSPropertyOp5
 70
     1
102
RTVSPropertyOp6
 70
     1
102
RTVSPropertyOp7
 70
     1
102
RTVSPropertyOp8
 70
     1
102
RTVSPropertyOp9
 70
     1
102
RTVSPropertyOp10
 70
     1
102
RTVSPropertyOp11
 70
     1
102
RTVSPropertyOp12
 70
     1
102
RTVSPropertyOp13
 70
     1
102
RTVSPropertyOp14
 70
     1
102
RTVSPropertyOp15
 70
     1
102
RTVSPropertyOp16
 70
     1
102
RTVSPropertyOp17
 70
     1
102
RTVSPropertyOp18
 70
     1
102
RTVSPropertyOp19
 70
     1
102
RTVSPropertyOp20
 70
     1
102
RTVSPropertyOp21
 70
     1
102
RTVSPropertyOp22
 70
     1
102
RTVSPropertyOp23
 70
     1
102
RTVSPropertyOp24
 70
     1
102
RTVSPropertyOp25
 70
     1
102
RTVSPropertyOp26
 70
     1
102
RTVSPropertyOp27
 70
     1
102
RTVSPropertyOp28
 70
     1
102
RTVSPropertyOp29
 70
     1
102
RTVSPropertyOp30
 70
     1
102
RTVSPropertyOp31
 70
     1
102
RTVSPropertyOp32
 70
     1
102
RTVSPropertyOp33
 70
     1
102
RTVSPropertyOp34
 70
     1
102
RTVSPropertyOp35
 70
     1
102
RTVSPropertyOp36
 70
     1
102
RTVSPropertyOp37
 70
     1
102
RTVSPropertyOp38
 70
     1
102
RTVSPropertyOp39
 70
     1
102
RTVSPropertyOp40
 70
     1
102
RTVSPropertyOp41
 70
     1
102
RTVSPropertyOp42
 70
     1
102
RTVSPropertyOp43
 70
     1
102
RTVSPropertyOp44
 70
     1
102
RTVSPropertyOp45
 70
     1
102
RTVSPropertyOp46
 70
     1
102
RTVSPropertyOp47
 70
     1
102
RTVSPropertyOp48
 70
     1
102
RTVSPropertyOp49
 70
     1
102
RTVSPropertyOp50
 70
     1
102
RTVSPropertyOp51
 70
     0
102
RTVSPropertyOp52
 70
     0
102
RTVSPropertyOp53
 70
     1
102
RTVSPropertyOp54
 70
     1
102
RTVSPropertyOp55
 70
     1
102
RTVSPropertyOp56
 70
     1
102
RTVSPropertyOp57
 70
     1
102
RTVSPropertyOp58
 70
     1
102
RTVSPropertyOp59
 70
     1
102
RTVSPropertyOp60
 70
     1
102
RTVSPropertyOp61
 70
     1
102
RTVSPropertyOp62
 70
     1
  0
XRECORD
  5
9C2B
102
{ACAD_REACTORS
330
9C2A
102
}
330
9C2A
100
AcDbXrecord
280
     1
102
RTVSPost2010Prop28
280
     0
102
RTVSPost2010PropOp28
 70
     1
102
RTVSPost2010Prop29
280
     1
102
RTVSPost2010PropOp29
 70
     1
102
RTVSPost2010Prop30
280
     1
102
RTVSPost2010PropOp30
 70
     1
102
RTVSPost2010Prop31
280
     0
102
RTVSPost2010PropOp31
 70
     1
102
RTVSPost2010Prop32
280
     0
102
RTVSPost2010PropOp32
 70
     1
102
RTVSPost2010Prop33
280
     0
102
RTVSPost2010PropOp33
 70
     1
102
RTVSPost2010Prop34
280
     0
102
RTVSPost2010PropOp34
 70
     1
102
RTVSPost2010Prop35
280
     0
102
RTVSPost2010PropOp35
 70
     1
102
RTVSPost2010Prop36
280
     0
102
RTVSPost2010PropOp36
 70
     1
102
RTVSPost2010Prop37
 90
       50
102
RTVSPost2010PropOp37
 70
     1
102
RTVSPost2010Prop38
140
0.0
102
RTVSPost2010PropOp38
 70
     1
102
RTVSPost2010Prop39
140
1.0
102
RTVSPost2010PropOp39
 70
     1
102
RTVSPost2010Prop40
 90
        0
102
RTVSPost2010PropOp40
 70
     1
102
RTVSPost2010Prop41ColorIndex
 90
       18
102
RTVSPost2010Prop41ColorRGB
 90
        0
102
RTVSPost2010PropOp41
 70
     1
102
RTVSPost2010Prop42
 90
       50
102
RTVSPost2010PropOp42
 70
     1
102
RTVSPost2010Prop43
 90
        3
102
RTVSPost2010PropOp43
 70
     1
102
RTVSPost2010Prop44ColorIndex
 90
        5
102
RTVSPost2010Prop44ColorRGB
 90
      255
102
RTVSPost2010PropOp44
 70
     1
102
RTVSPost2010Prop45
280
     0
102
RTVSPost2010PropOp45
 70
     1
102
RTVSPost2010Prop46
 90
       50
102
RTVSPost2010PropOp46
 70
     1
102
RTVSPost2010Prop47
 90
       50
102
RTVSPost2010PropOp47
 70
     1
102
RTVSPost2010Prop48
 90
       50
102
RTVSPost2010PropOp48
 70
     1
102
RTVSPost2010Prop49
280
     0
102
RTVSPost2010PropOp49
 70
     1
102
RTVSPost2010Prop50
 90
       50
102
RTVSPost2010PropOp50
 70
     1
102
RTVSPost2010Prop51ColorIndex
 90
      256
102
RTVSPost2010Prop51ColorRGB
 90
-16777216
102
RTVSPost2010PropOp51
 70
     0
102
RTVSPost2010Prop52
140
1.0
102
RTVSPost2010PropOp52
 70
     0
102
RTVSPost2010Prop53
 90
        2
102
RTVSPost2010PropOp53
 70
     1
102
RTVSPost2010Prop54
  1
strokes_ogs.tif
102
RTVSPost2010PropOp54
 70
     1
102
RTVSPost2010Prop55
280
     0
102
RTVSPost2010PropOp55
 70
     1
102
RTVSPost2010Prop56
140
1.0
102
RTVSPost2010PropOp56
 70
     1
102
RTVSPost2010Prop57
140
1.0
102
RTVSPost2010PropOp57
 70
     1
102
RTVSPropertyOp0
 70
     1
102
RTVSPropertyOp1
 70
     1
102
RTVSPropertyOp2
 70
     1
102
RTVSPropertyOp3
 70
     1
102
RTVSPropertyOp4
 70
     1
102
RTVSPropertyOp5
 70
     1
102
RTVSPropertyOp6
 70
     1
102
RTVSPropertyOp7
 70
     1
102
RTVSPropertyOp8
 70
     1
102
RTVSPropertyOp9
 70
     1
102
RTVSPropertyOp10
 70
     1
102
RTVSPropertyOp11
 70
     1
102
RTVSPropertyOp12
 70
     1
102
RTVSPropertyOp13
 70
     1
102
RTVSPropertyOp14
 70
     1
102
RTVSPropertyOp15
 70
     1
102
RTVSPropertyOp16
 70
     1
102
RTVSPropertyOp17
 70
     1
102
RTVSPropertyOp18
 70
     1
102
RTVSPropertyOp19
 70
     1
102
RTVSPropertyOp20
 70
     1
102
RTVSPropertyOp21
 70
     1
102
RTVSPropertyOp22
 70
     1
102
RTVSPropertyOp23
 70
     1
102
RTVSPropertyOp24
 70
     1
102
RTVSPropertyOp25
 70
     1
102
RTVSPropertyOp26
 70
     1
102
RTVSPropertyOp27
 70
     1
102
RTVSPropertyOp28
 70
     1
102
RTVSPropertyOp29
 70
     1
102
RTVSPropertyOp30
 70
     1
102
RTVSPropertyOp31
 70
     1
102
RTVSPropertyOp32
 70
     1
102
RTVSPropertyOp33
 70
     1
102
RTVSPropertyOp34
 70
     1
102
RTVSPropertyOp35
 70
     1
102
RTVSPropertyOp36
 70
     1
102
RTVSPropertyOp37
 70
     1
102
RTVSPropertyOp38
 70
     1
102
RTVSPropertyOp39
 70
     1
102
RTVSPropertyOp40
 70
     1
102
RTVSPropertyOp41
 70
     1
102
RTVSPropertyOp42
 70
     1
102
RTVSPropertyOp43
 70
     1
102
RTVSPropertyOp44
 70
     1
102
RTVSPropertyOp45
 70
     1
102
RTVSPropertyOp46
 70
     1
102
RTVSPropertyOp47
 70
     1
102
RTVSPropertyOp48
 70
     1
102
RTVSPropertyOp49
 70
     1
102
RTVSPropertyOp50
 70
     1
102
RTVSPropertyOp51
 70
     0
102
RTVSPropertyOp52
 70
     0
102
RTVSPropertyOp53
 70
     1
102
RTVSPropertyOp54
 70
     1
102
RTVSPropertyOp55
 70
     1
102
RTVSPropertyOp56
 70
     1
102
RTVSPropertyOp57
 70
     1
102
RTVSPropertyOp58
 70
     1
102
RTVSPropertyOp59
 70
     1
102
RTVSPropertyOp60
 70
     1
102
RTVSPropertyOp61
 70
     1
102
RTVSPropertyOp62
 70
     1
  0
XRECORD
  5
9C43
102
{ACAD_REACTORS
330
9C42
102
}
330
9C42
100
AcDbXrecord
280
     1
102
RTVSPost2010Prop28
280
     0
102
RTVSPost2010PropOp28
 70
     1
102
RTVSPost2010Prop29
280
     1
102
RTVSPost2010PropOp29
 70
     1
102
RTVSPost2010Prop30
280
     1
102
RTVSPost2010PropOp30
 70
     1
102
RTVSPost2010Prop31
280
     0
102
RTVSPost2010PropOp31
 70
     1
102
RTVSPost2010Prop32
280
     0
102
RTVSPost2010PropOp32
 70
     1
102
RTVSPost2010Prop33
280
     0
102
RTVSPost2010PropOp33
 70
     1
102
RTVSPost2010Prop34
280
     0
102
RTVSPost2010PropOp34
 70
     1
102
RTVSPost2010Prop35
280
     0
102
RTVSPost2010PropOp35
 70
     1
102
RTVSPost2010Prop36
280
     0
102
RTVSPost2010PropOp36
 70
     1
102
RTVSPost2010Prop37
 90
       50
102
RTVSPost2010PropOp37
 70
     1
102
RTVSPost2010Prop38
140
0.0
102
RTVSPost2010PropOp38
 70
     1
102
RTVSPost2010Prop39
140
1.0
102
RTVSPost2010PropOp39
 70
     1
102
RTVSPost2010Prop40
 90
        0
102
RTVSPost2010PropOp40
 70
     1
102
RTVSPost2010Prop41ColorIndex
 90
       18
102
RTVSPost2010Prop41ColorRGB
 90
        0
102
RTVSPost2010PropOp41
 70
     1
102
RTVSPost2010Prop42
 90
       50
102
RTVSPost2010PropOp42
 70
     1
102
RTVSPost2010Prop43
 90
        3
102
RTVSPost2010PropOp43
 70
     1
102
RTVSPost2010Prop44ColorIndex
 90
        5
102
RTVSPost2010Prop44ColorRGB
 90
      255
102
RTVSPost2010PropOp44
 70
     1
102
RTVSPost2010Prop45
280
     0
102
RTVSPost2010PropOp45
 70
     1
102
RTVSPost2010Prop46
 90
       50
102
RTVSPost2010PropOp46
 70
     1
102
RTVSPost2010Prop47
 90
       50
102
RTVSPost2010PropOp47
 70
     1
102
RTVSPost2010Prop48
 90
       50
102
RTVSPost2010PropOp48
 70
     1
102
RTVSPost2010Prop49
280
     0
102
RTVSPost2010PropOp49
 70
     1
102
RTVSPost2010Prop50
 90
       50
102
RTVSPost2010PropOp50
 70
     1
102
RTVSPost2010Prop51ColorIndex
 90
      256
102
RTVSPost2010Prop51ColorRGB
 90
-16777216
102
RTVSPost2010PropOp51
 70
     0
102
RTVSPost2010Prop52
140
1.0
102
RTVSPost2010PropOp52
 70
     0
102
RTVSPost2010Prop53
 90
        2
102
RTVSPost2010PropOp53
 70
     1
102
RTVSPost2010Prop54
  1
strokes_ogs.tif
102
RTVSPost2010PropOp54
 70
     1
102
RTVSPost2010Prop55
280
     0
102
RTVSPost2010PropOp55
 70
     1
102
RTVSPost2010Prop56
140
1.0
102
RTVSPost2010PropOp56
 70
     1
102
RTVSPost2010Prop57
140
1.0
102
RTVSPost2010PropOp57
 70
     1
102
RTVSPropertyOp0
 70
     1
102
RTVSPropertyOp1
 70
     1
102
RTVSPropertyOp2
 70
     1
102
RTVSPropertyOp3
 70
     1
102
RTVSPropertyOp4
 70
     1
102
RTVSPropertyOp5
 70
     1
102
RTVSPropertyOp6
 70
     1
102
RTVSPropertyOp7
 70
     1
102
RTVSPropertyOp8
 70
     1
102
RTVSPropertyOp9
 70
     1
102
RTVSPropertyOp10
 70
     1
102
RTVSPropertyOp11
 70
     1
102
RTVSPropertyOp12
 70
     1
102
RTVSPropertyOp13
 70
     1
102
RTVSPropertyOp14
 70
     1
102
RTVSPropertyOp15
 70
     1
102
RTVSPropertyOp16
 70
     1
102
RTVSPropertyOp17
 70
     1
102
RTVSPropertyOp18
 70
     1
102
RTVSPropertyOp19
 70
     1
102
RTVSPropertyOp20
 70
     1
102
RTVSPropertyOp21
 70
     1
102
RTVSPropertyOp22
 70
     1
102
RTVSPropertyOp23
 70
     1
102
RTVSPropertyOp24
 70
     1
102
RTVSPropertyOp25
 70
     1
102
RTVSPropertyOp26
 70
     1
102
RTVSPropertyOp27
 70
     1
102
RTVSPropertyOp28
 70
     1
102
RTVSPropertyOp29
 70
     1
102
RTVSPropertyOp30
 70
     1
102
RTVSPropertyOp31
 70
     1
102
RTVSPropertyOp32
 70
     1
102
RTVSPropertyOp33
 70
     1
102
RTVSPropertyOp34
 70
     1
102
RTVSPropertyOp35
 70
     1
102
RTVSPropertyOp36
 70
     1
102
RTVSPropertyOp37
 70
     1
102
RTVSPropertyOp38
 70
     1
102
RTVSPropertyOp39
 70
     1
102
RTVSPropertyOp40
 70
     1
102
RTVSPropertyOp41
 70
     1
102
RTVSPropertyOp42
 70
     1
102
RTVSPropertyOp43
 70
     1
102
RTVSPropertyOp44
 70
     1
102
RTVSPropertyOp45
 70
     1
102
RTVSPropertyOp46
 70
     1
102
RTVSPropertyOp47
 70
     1
102
RTVSPropertyOp48
 70
     1
102
RTVSPropertyOp49
 70
     1
102
RTVSPropertyOp50
 70
     1
102
RTVSPropertyOp51
 70
     0
102
RTVSPropertyOp52
 70
     0
102
RTVSPropertyOp53
 70
     1
102
RTVSPropertyOp54
 70
     1
102
RTVSPropertyOp55
 70
     1
102
RTVSPropertyOp56
 70
     1
102
RTVSPropertyOp57
 70
     1
102
RTVSPropertyOp58
 70
     1
102
RTVSPropertyOp59
 70
     1
102
RTVSPropertyOp60
 70
     1
102
RTVSPropertyOp61
 70
     1
102
RTVSPropertyOp62
 70
     1
  0
ENDSEC
  0
EOF
