  0
SECTION
  2
HEADER
  9
$ACADVER
  1
AC1015
  9
$ACADMAINTVER
 70
    20
  9
$DWGCODEPAGE
  3
ANSI_932
  9
$INSBASE
 10
0.0
 20
0.0
 30
0.0
  9
$EXTMIN
 10
10.0
 20
9.999999999999998
 30
0.0
  9
$EXTMAX
 10
482.8389579999999
 20
324.25633
 30
0.0
  9
$LIMMIN
 10
0.0
 20
0.0
  9
$LIMMAX
 10
495.0
 20
341.25
  9
$ORTHOMODE
 70
     1
  9
$REGENMODE
 70
     1
  9
$FILLMODE
 70
     1
  9
$QTEXTMODE
 70
     0
  9
$MIRRTEXT
 70
     1
  9
$LTSCALE
 40
20.0
  9
$ATTMODE
 70
     1
  9
$TEXTSIZE
 40
5.0
  9
$TRACEWID
 40
1.0
  9
$TEXTSTYLE
  7
STANDARD
  9
$CLAYER
  8
0
  9
$CELTYPE
  6
BYLAYER
  9
$CECOLOR
 62
   256
  9
$CELTSCALE
 40
1.0
  9
$DISPSILH
 70
     0
  9
$DIMSCALE
 40
1.0
  9
$DIMASZ
 40
3.0
  9
$DIMEXO
 40
1.0
  9
$DIMDLI
 40
10.0
  9
$DIMRND
 40
0.0
  9
$DIMDLE
 40
0.0
  9
$DIMEXE
 40
1.0
  9
$DIMTP
 40
0.0
  9
$DIMTM
 40
0.0
  9
$DIMTXT
 40
3.2
  9
$DIMCEN
 40
0.0
  9
$DIMTSZ
 40
0.0
  9
$DIMTOL
 70
     0
  9
$DIMLIM
 70
     0
  9
$DIMTIH
 70
     0
  9
$DIMTOH
 70
     0
  9
$DIMSE1
 70
     0
  9
$DIMSE2
 70
     0
  9
$DIMTAD
 70
     3
  9
$DIMZIN
 70
     8
  9
$DIMBLK
  1

  9
$DIMASO
 70
     1
  9
$DIMSHO
 70
     1
  9
$DIMPOST
  1

  9
$DIMAPOST
  1

  9
$DIMALT
 70
     0
  9
$DIMALTD
 70
     2
  9
$DIMALTF
 40
25.4
  9
$DIMLFAC
 40
1.0
  9
$DIMTOFL
 70
     1
  9
$DIMTVP
 40
0.0
  9
$DIMTIX
 70
     0
  9
$DIMSOXD
 70
     0
  9
$DIMSAH
 70
     1
  9
$DIMBLK1
  1
OPEN
  9
$DIMBLK2
  1
OPEN
  9
$DIMSTYLE
  2
STANDARD
  9
$DIMCLRD
 70
     0
  9
$DIMCLRE
 70
     0
  9
$DIMCLRT
 70
     0
  9
$DIMTFAC
 40
1.0
  9
$DIMGAP
 40
1.0
  9
$DIMJUST
 70
     0
  9
$DIMSD1
 70
     0
  9
$DIMSD2
 70
     0
  9
$DIMTOLJ
 70
     1
  9
$DIMTZIN
 70
     0
  9
$DIMALTZ
 70
     0
  9
$DIMALTTZ
 70
     0
  9
$DIMUPT
 70
     0
  9
$DIMDEC
 70
     4
  9
$DIMTDEC
 70
     4
  9
$DIMALTU
 70
     2
  9
$DIMALTTD
 70
     2
  9
$DIMTXSTY
  7
STANDARD
  9
$DIMAUNIT
 70
     0
  9
$DIMADEC
 70
     0
  9
$DIMALTRND
 40
0.0
  9
$DIMAZIN
 70
     0
  9
$DIMDSEP
 70
    46
  9
$DIMATFIT
 70
     3
  9
$DIMFRAC
 70
     0
  9
$DIMLDRBLK
  1
OPEN
  9
$DIMLUNIT
 70
     2
  9
$DIMLWD
 70
    -2
  9
$DIMLWE
 70
    -2
  9
$DIMTMOVE
 70
     0
  9
$LUNITS
 70
     2
  9
$LUPREC
 70
     4
  9
$SKETCHINC
 40
1.0
  9
$FILLETRAD
 40
7.7
  9
$AUNITS
 70
     0
  9
$AUPREC
 70
     2
  9
$MENU
  1
.
  9
$ELEVATION
 40
0.0
  9
$PELEVATION
 40
0.0
  9
$THICKNESS
 40
0.0
  9
$LIMCHECK
 70
     0
  9
$CHAMFERA
 40
10.0
  9
$CHAMFERB
 40
10.0
  9
$CHAMFERC
 40
0.0
  9
$CHAMFERD
 40
0.0
  9
$SKPOLY
 70
     0
  9
$TDCREATE
 40
2451303.375217940
  9
$TDUCREATE
 40
2451303.000217940
  9
$TDUPDATE
 40
2457192.686841667
  9
$TDUUPDATE
 40
2457192.311841667
  9
$TDINDWG
 40
0.0000137500
  9
$TDUSRTIMER
 40
0.0000132523
  9
$USRTIMER
 70
     1
  9
$ANGBASE
 50
0.0
  9
$ANGDIR
 70
     0
  9
$PDMODE
 70
    34
  9
$PDSIZE
 40
0.0
  9
$PLINEWID
 40
0.0
  9
$SPLFRAME
 70
     0
  9
$SPLINETYPE
 70
     6
  9
$SPLINESEGS
 70
     8
  9
$HANDSEED
  5
BA53
  9
$SURFTAB1
 70
     6
  9
$SURFTAB2
 70
     6
  9
$SURFTYPE
 70
     6
  9
$SURFU
 70
     6
  9
$SURFV
 70
     6
  9
$UCSBASE
  2

  9
$UCSNAME
  2

  9
$UCSORG
 10
0.0
 20
0.0
 30
0.0
  9
$UCSXDIR
 10
1.0
 20
0.0
 30
0.0
  9
$UCSYDIR
 10
0.0
 20
1.0
 30
0.0
  9
$UCSORTHOREF
  2

  9
$UCSORTHOVIEW
 70
     0
  9
$UCSORGTOP
 10
0.0
 20
0.0
 30
0.0
  9
$UCSORGBOTTOM
 10
0.0
 20
0.0
 30
0.0
  9
$UCSORGLEFT
 10
0.0
 20
0.0
 30
0.0
  9
$UCSORGRIGHT
 10
0.0
 20
0.0
 30
0.0
  9
$UCSORGFRONT
 10
0.0
 20
0.0
 30
0.0
  9
$UCSORGBACK
 10
0.0
 20
0.0
 30
0.0
  9
$PUCSBASE
  2

  9
$PUCSNAME
  2

  9
$PUCSORG
 10
0.0
 20
0.0
 30
0.0
  9
$PUCSXDIR
 10
1.0
 20
0.0
 30
0.0
  9
$PUCSYDIR
 10
0.0
 20
1.0
 30
0.0
  9
$PUCSORTHOREF
  2

  9
$PUCSORTHOVIEW
 70
     0
  9
$PUCSORGTOP
 10
0.0
 20
0.0
 30
0.0
  9
$PUCSORGBOTTOM
 10
0.0
 20
0.0
 30
0.0
  9
$PUCSORGLEFT
 10
0.0
 20
0.0
 30
0.0
  9
$PUCSORGRIGHT
 10
0.0
 20
0.0
 30
0.0
  9
$PUCSORGFRONT
 10
0.0
 20
0.0
 30
0.0
  9
$PUCSORGBACK
 10
0.0
 20
0.0
 30
0.0
  9
$USERI1
 70
     0
  9
$USERI2
 70
     0
  9
$USERI3
 70
     0
  9
$USERI4
 70
     0
  9
$USERI5
 70
     0
  9
$USERR1
 40
0.0
  9
$USERR2
 40
0.0
  9
$USERR3
 40
0.0
  9
$USERR4
 40
0.0
  9
$USERR5
 40
0.0
  9
$WORLDVIEW
 70
     1
  9
$SHADEDGE
 70
     3
  9
$SHADEDIF
 70
    70
  9
$TILEMODE
 70
     1
  9
$MAXACTVP
 70
    16
  9
$PINSBASE
 10
0.0
 20
0.0
 30
0.0
  9
$PLIMCHECK
 70
     0
  9
$PEXTMIN
 10
1.000000000000000E+20
 20
1.000000000000000E+20
 30
1.000000000000000E+20
  9
$PEXTMAX
 10
-1.000000000000000E+20
 20
-1.000000000000000E+20
 30
-1.000000000000000E+20
  9
$PLIMMIN
 10
0.0
 20
0.0
  9
$PLIMMAX
 10
420.0
 20
297.0
  9
$UNITMODE
 70
     0
  9
$VISRETAIN
 70
     0
  9
$PLINEGEN
 70
     0
  9
$PSLTSCALE
 70
     0
  9
$TREEDEPTH
 70
  3020
  9
$CMLSTYLE
  2
STANDARD
  9
$CMLJUST
 70
     0
  9
$CMLSCALE
 40
1.0
  9
$PROXYGRAPHICS
 70
     1
  9
$MEASUREMENT
 70
     0
  9
$CELWEIGHT
370
    -1
  9
$ENDCAPS
280
     0
  9
$JOINSTYLE
280
     0
  9
$LWDISPLAY
290
     0
  9
$INSUNITS
 70
     0
  9
$HYPERLINKBASE
  1

  9
$STYLESHEET
  1

  9
$XEDIT
290
     1
  9
$CEPSNTYPE
380
     0
  9
$PSTYLEMODE
290
     1
  9
$FINGERPRINTGUID
  2
{BF763350-65F2-4C99-9B06-49F75F3F0D62}
  9
$VERSIONGUID
  2
{C8AF950F-F18E-47D9-8601-ADB5E495F221}
  9
$EXTNAMES
290
     1
  9
$PSVPSCALE
 40
0.0
  9
$OLESTARTUP
290
     0
  0
ENDSEC
  0
SECTION
  2
CLASSES
  0
CLASS
  1
ACDBDICTIONARYWDFLT
  2
AcDbDictionaryWithDefault
  3
ObjectDBX Classes
 90
        0
280
     0
281
     0
  0
CLASS
  1
ACDBPLACEHOLDER
  2
AcDbPlaceHolder
  3
ObjectDBX Classes
 90
        0
280
     0
281
     0
  0
CLASS
  1
LAYOUT
  2
AcDbLayout
  3
ObjectDBX Classes
 90
        0
280
     0
281
     0
  0
CLASS
  1
DICTIONARYVAR
  2
AcDbDictionaryVar
  3
ObjectDBX Classes
 90
        0
280
     0
281
     0
  0
CLASS
  1
MATERIAL
  2
AcDbMaterial
  3
ObjectDBX Classes
 90
     1153
280
     0
281
     0
  0
CLASS
  1
VISUALSTYLE
  2
AcDbVisualStyle
  3
ObjectDBX Classes
 90
     4095
280
     0
281
     0
  0
CLASS
  1
TABLESTYLE
  2
AcDbTableStyle
  3
ObjectDBX Classes
 90
     4095
280
     0
281
     0
  0
CLASS
  1
SCALE
  2
AcDbScale
  3
ObjectDBX Classes
 90
     1153
280
     0
281
     0
  0
CLASS
  1
MLEADERSTYLE
  2
AcDbMLeaderStyle
  3
ACDB_MLEADERSTYLE_CLASS
 90
     4095
280
     0
281
     0
  0
CLASS
  1
ACDBSECTIONVIEWSTYLE
  2
AcDbSectionViewStyle
  3
ObjectDBX Classes
 90
     1025
280
     0
281
     0
  0
CLASS
  1
ACDBDETAILVIEWSTYLE
  2
AcDbDetailViewStyle
  3
ObjectDBX Classes
 90
     1025
280
     0
281
     0
  0
CLASS
  1
CELLSTYLEMAP
  2
AcDbCellStyleMap
  3
ObjectDBX Classes
 90
     1152
280
     0
281
     0
  0
ENDSEC
  0
SECTION
  2
TABLES
  0
TABLE
  2
VPORT
  5
B502
330
0
100
AcDbSymbolTable
 70
     1
  0
VPORT
  5
B99C
330
B502
100
AcDbSymbolTableRecord
100
AcDbViewportTableRecord
  2
*ACTIVE
 70
     0
 10
0.0
 20
0.0
 11
1.0
 21
1.0
 12
341.6110668285578
 22
167.1232517517616
 13
0.0
 23
0.0
 14
10.0
 24
10.0
 15
10.0
 25
10.0
 16
0.0
 26
0.0
 36
1.0
 17
0.0
 27
0.0
 37
0.0
 40
317.7448340883489
 41
2.35006605019815
 42
50.0
 43
0.0
 44
0.0
 50
0.0
 51
0.0
 71
     0
 72
   100
 73
     1
 74
     0
 75
     0
 76
     0
 77
     0
 78
     0
281
     0
 65
     1
110
0.0
120
0.0
130
0.0
111
1.0
121
0.0
131
0.0
112
0.0
122
1.0
132
0.0
 79
     0
146
0.0
1001
ACAD_NAV_VCDISPLAY
1070
     3
  0
ENDTAB
  0
TABLE
  2
LTYPE
  5
B4FF
330
0
100
AcDbSymbolTable
 70
     4
  0
LTYPE
  5
B50D
330
B4FF
100
AcDbSymbolTableRecord
100
AcDbLinetypeTableRecord
  2
BYBLOCK
 70
     0
  3

 72
    65
 73
     0
 40
0.0
  0
LTYPE
  5
B50E
330
B4FF
100
AcDbSymbolTableRecord
100
AcDbLinetypeTableRecord
  2
BYLAYER
 70
     0
  3

 72
    65
 73
     0
 40
0.0
  0
LTYPE
  5
B50F
330
B4FF
100
AcDbSymbolTableRecord
100
AcDbLinetypeTableRecord
  2
CONTINUOUS
 70
     0
  3
Solid line
 72
    65
 73
     0
 40
0.0
  0
LTYPE
  5
B51D
330
B4FF
100
AcDbSymbolTableRecord
100
AcDbLinetypeTableRecord
  2
DASHED
 70
     0
  3
__ __ __ __ __ __ __ __ __ __ __ __ __ __ __ __
 72
    65
 73
     2
 40
0.75
 49
0.5
 74
     0
 49
-0.25
 74
     0
  0
LTYPE
  5
B51E
330
B4FF
100
AcDbSymbolTableRecord
100
AcDbLinetypeTableRecord
  2
CENTER
 70
     0
  3
____ _ ____ _ ____ _ ____ _ ____ _ ____ _ ____ 
 72
    65
 73
     4
 40
2.0
 49
1.25
 74
     0
 49
-0.25
 74
     0
 49
0.25
 74
     0
 49
-0.25
 74
     0
  0
LTYPE
  5
B51F
330
B4FF
100
AcDbSymbolTableRecord
100
AcDbLinetypeTableRecord
  2
PHANTOM
 70
     0
  3
______  __  __  ______  __  __  ______  __  __ 
 72
    65
 73
     6
 40
2.5
 49
1.25
 74
     0
 49
-0.25
 74
     0
 49
0.25
 74
     0
 49
-0.25
 74
     0
 49
0.25
 74
     0
 49
-0.25
 74
     0
  0
ENDTAB
  0
TABLE
  2
LAYER
  5
B4FC
330
0
100
AcDbSymbolTable
 70
     8
  0
LAYER
  5
B50A
102
{ACAD_XDICTIONARY
360
B9F7
102
}
330
B4FC
100
AcDbSymbolTableRecord
100
AcDbLayerTableRecord
  2
0
 70
     0
 62
     7
  6
CONTINUOUS
370
    -3
390
B9A5
  0
LAYER
  5
B520
102
{ACAD_XDICTIONARY
360
B9F9
102
}
330
B4FC
100
AcDbSymbolTableRecord
100
AcDbLayerTableRecord
  2
4
 70
     0
 62
     1
  6
CENTER
370
    -3
390
B9A5
  0
LAYER
  5
B521
102
{ACAD_XDICTIONARY
360
B9FB
102
}
330
B4FC
100
AcDbSymbolTableRecord
100
AcDbLayerTableRecord
  2
5
 70
     0
 62
     6
  6
PHANTOM
370
    -3
390
B9A5
  0
LAYER
  5
B522
102
{ACAD_XDICTIONARY
360
B9FD
102
}
330
B4FC
100
AcDbSymbolTableRecord
100
AcDbLayerTableRecord
  2
1
 70
     0
 62
     7
  6
CONTINUOUS
370
    -3
390
B9A5
  0
LAYER
  5
B523
102
{ACAD_XDICTIONARY
360
B9FF
102
}
330
B4FC
100
AcDbSymbolTableRecord
100
AcDbLayerTableRecord
  2
2
 70
     0
 62
     4
  6
CONTINUOUS
370
    -3
390
B9A5
  0
LAYER
  5
B524
102
{ACAD_XDICTIONARY
360
BA01
102
}
330
B4FC
100
AcDbSymbolTableRecord
100
AcDbLayerTableRecord
  2
3
 70
     0
 62
     2
  6
DASHED
370
    -3
390
B9A5
  0
LAYER
  5
B525
102
{ACAD_XDICTIONARY
360
BA03
102
}
330
B4FC
100
AcDbSymbolTableRecord
100
AcDbLayerTableRecord
  2
6
 70
     0
 62
     5
  6
CONTINUOUS
370
    -3
390
B9A5
  0
LAYER
  5
B526
102
{ACAD_XDICTIONARY
360
BA05
102
}
330
B4FC
100
AcDbSymbolTableRecord
100
AcDbLayerTableRecord
  2
7
 70
     0
 62
     3
  6
CONTINUOUS
370
    -3
390
B9A5
  0
ENDTAB
  0
TABLE
  2
STYLE
  5
B4FD
330
0
100
AcDbSymbolTable
 70
     1
  0
STYLE
  5
B50B
330
B4FD
100
AcDbSymbolTableRecord
100
AcDbTextStyleTableRecord
  2
STANDARD
 70
     0
 40
0.0
 41
1.0
 50
0.0
 71
     0
 42
5.0
  3
txt
  4

  0
ENDTAB
  0
TABLE
  2
VIEW
  5
B500
330
0
100
AcDbSymbolTable
 70
     1
  0
VIEW
  5
B527
330
B500
100
AcDbSymbolTableRecord
100
AcDbViewTableRecord
  2
7
 70
     0
 40
335.276445
 10
322.9640329999999
 20
167.638223
 41
645.9280660000001
 11
0.0
 21
0.0
 31
1.0
 12
0.0
 22
0.0
 32
0.0
 42
50.0
 43
0.0
 44
0.0
 50
0.0
 71
     0
281
     0
 72
     0
  0
ENDTAB
  0
TABLE
  2
UCS
  5
B501
330
0
100
AcDbSymbolTable
 70
     0
  0
ENDTAB
  0
TABLE
  2
APPID
  5
B503
330
0
100
AcDbSymbolTable
 70
     3
  0
APPID
  5
B50C
330
B503
100
AcDbSymbolTableRecord
100
AcDbRegAppTableRecord
  2
ACAD
 70
     0
  0
APPID
  5
BA11
330
B503
100
AcDbSymbolTableRecord
100
AcDbRegAppTableRecord
  2
ACAD_NAV_VCDISPLAY
 70
     0
  0
APPID
  5
BA4A
330
B503
100
AcDbSymbolTableRecord
100
AcDbRegAppTableRecord
  2
ACAD_MLEADERVER
 70
     0
  0
ENDTAB
  0
TABLE
  2
DIMSTYLE
  5
B504
330
0
100
AcDbSymbolTable
 70
     1
100
AcDbDimStyleTable
 71
     0
  0
DIMSTYLE
105
B529
330
B504
100
AcDbSymbolTableRecord
100
AcDbDimStyleTableRecord
  2
STANDARD
 70
     0
 41
3.0
 42
1.0
 43
10.0
 44
1.0
 73
     0
 74
     0
 77
     3
 78
     8
140
3.2
141
0.0
147
1.0
172
     1
173
     1
284
     8
285
     8
286
     8
340
B50B
  0
ENDTAB
  0
TABLE
  2
BLOCK_RECORD
  5
B4FB
330
0
100
AcDbSymbolTable
 70
     1
  0
BLOCK_RECORD
  5
B518
102
{ACAD_XDICTIONARY
360
B99F
102
}
330
B4FB
100
AcDbSymbolTableRecord
100
AcDbBlockTableRecord
  2
*MODEL_SPACE
340
B9F3
  0
BLOCK_RECORD
  5
B514
102
{ACAD_XDICTIONARY
360
B99D
102
}
330
B4FB
100
AcDbSymbolTableRecord
100
AcDbBlockTableRecord
  2
*PAPER_SPACE
340
B9F4
  0
BLOCK_RECORD
  5
B531
330
B4FB
100
AcDbSymbolTableRecord
100
AcDbBlockTableRecord
  2
_OPEN
340
0
  0
ENDTAB
  0
ENDSEC
  0
SECTION
  2
BLOCKS
  0
BLOCK
  5
B519
330
B518
100
AcDbEntity
  8
0
100
AcDbBlockBegin
  2
*MODEL_SPACE
 70
     0
 10
0.0
 20
0.0
 30
0.0
  3
*MODEL_SPACE
  1

  0
ENDBLK
  5
B51A
330
B518
100
AcDbEntity
  8
0
100
AcDbBlockEnd
  0
BLOCK
  5
B515
330
B514
100
AcDbEntity
 67
     1
  8
0
100
AcDbBlockBegin
  2
*PAPER_SPACE
 70
     0
 10
0.0
 20
0.0
 30
0.0
  3
*PAPER_SPACE
  1

  0
ENDBLK
  5
B516
330
B514
100
AcDbEntity
 67
     1
  8
0
100
AcDbBlockEnd
  0
BLOCK
  5
B532
330
B531
100
AcDbEntity
  8
0
100
AcDbBlockBegin
  2
_OPEN
 70
     0
 10
0.0
 20
0.0
 30
0.0
  3
_OPEN
  1

  0
LINE
  5
B533
330
B531
100
AcDbEntity
  8
0
  6
ByBlock
 62
     0
100
AcDbLine
 10
-1.0
 20
0.166667
 30
0.0
 11
0.0
 21
0.0
 31
0.0
  0
LINE
  5
B534
330
B531
100
AcDbEntity
  8
0
  6
ByBlock
 62
     0
100
AcDbLine
 10
0.0
 20
0.0
 30
0.0
 11
-1.0
 21
-0.166667
 31
0.0
  0
LINE
  5
B535
330
B531
100
AcDbEntity
  8
0
  6
ByBlock
 62
     0
100
AcDbLine
 10
0.0
 20
0.0
 30
0.0
 11
-1.0
 21
0.0
 31
0.0
  0
ENDBLK
  5
B536
330
B531
100
AcDbEntity
  8
0
100
AcDbBlockEnd
  0
ENDSEC
  0
SECTION
  2
ENTITIES
  0
TEXT
  5
B537
330
B518
100
AcDbEntity
  8
7
  6
Continuous
100
AcDbText
 10
10.0
 20
18.0
 30
0.0
 40
3.0
  1
TYPE No.105FH-PS
100
AcDbText
  0
TEXT
  5
B538
330
B518
100
AcDbEntity
  8
7
  6
Continuous
100
AcDbText
 10
10.0
 20
26.0
 30
0.0
 40
3.0
  1
CODE No.9089
100
AcDbText
  0
TEXT
  5
B539
330
B518
100
AcDbEntity
  8
1
  6
Continuous
100
AcDbText
 10
10.0
 20
10.0
 30
0.0
 40
1.399999999999999
  1
LAYER
100
AcDbText
  0
TEXT
  5
B53A
330
B518
100
AcDbEntity
  8
1
  6
Continuous
100
AcDbText
 10
17.97951099999998
 20
10.04873699999998
 30
0.0
 40
1.399999999999999
  1
1
100
AcDbText
  0
TEXT
  5
B53B
330
B518
100
AcDbEntity
  8
7
  6
Continuous
100
AcDbText
 10
29.97951099999999
 20
10.04873699999998
 30
0.0
 40
1.399999999999999
  1
7
100
AcDbText
  0
TEXT
  5
B53C
330
B518
100
AcDbEntity
  8
4
  6
CENTER
100
AcDbText
 10
23.97951099999999
 20
10.04873699999998
 30
0.0
 40
1.399999999999999
  1
4
100
AcDbText
  0
TEXT
  5
B53D
330
B518
100
AcDbEntity
  8
3
  6
DASHED
100
AcDbText
 10
21.979511
 20
10.04873699999998
 30
0.0
 40
1.399999999999999
  1
3
100
AcDbText
  0
TEXT
  5
B53E
330
B518
100
AcDbEntity
  8
2
  6
Continuous
100
AcDbText
 10
19.97951099999999
 20
10.04873699999998
 30
0.0
 40
1.399999999999999
  1
2
100
AcDbText
  0
TEXT
  5
B53F
330
B518
100
AcDbEntity
  8
6
  6
Continuous
100
AcDbText
 10
27.979511
 20
10.04873699999998
 30
0.0
 40
1.399999999999999
  1
6
100
AcDbText
  0
TEXT
  5
B540
330
B518
100
AcDbEntity
  8
5
  6
PHANTOM
100
AcDbText
 10
25.97951099999999
 20
10.04873699999998
 30
0.0
 40
1.399999999999999
  1
5
100
AcDbText
  0
LINE
  5
B541
330
B518
100
AcDbEntity
  8
4
  6
CENTER
100
AcDbLine
 10
161.0
 20
134.6281649999999
 30
0.0
 11
161.0
 21
205.6281649999998
 31
0.0
  0
ARC
  5
B542
330
B518
100
AcDbEntity
  8
1
  6
Continuous
100
AcDbCircle
 10
161.0
 20
170.128165
 30
0.0
 40
32.5
100
AcDbArc
 50
84.98673499999998
 51
125.856115
  0
LINE
  5
B543
330
B518
100
AcDbEntity
  8
4
  6
CENTER
100
AcDbLine
 10
196.5
 20
170.128165
 30
0.0
 11
125.5
 21
170.128165
 31
0.0
  0
LINE
  5
B544
330
B518
100
AcDbEntity
  8
1
  6
Continuous
100
AcDbLine
 10
185.6568539999999
 20
213.6281649999999
 30
0.0
 11
187.656854
 21
215.6281649999999
 31
0.0
  0
LINE
  5
B545
330
B518
100
AcDbEntity
  8
1
  6
Continuous
100
AcDbLine
 10
188.2426399999999
 20
213.6281649999999
 30
0.0
 11
186.24264
 21
215.6281649999999
 31
0.0
  0
ARC
  5
B546
330
B518
100
AcDbEntity
  8
1
  6
Continuous
100
AcDbCircle
 10
153.9086649999999
 20
208.5817449999999
 30
0.0
 40
50.0
100
AcDbArc
 50
304.0277019999999
 51
350.2180129999999
  0
LINE
  5
B547
330
B518
100
AcDbEntity
  8
1
  6
Continuous
100
AcDbLine
 10
204.4999999999999
 20
217.6281649999999
 30
0.0
 11
159.4999999999998
 21
217.6281649999999
 31
0.0
  0
LINE
  5
B548
330
B518
100
AcDbEntity
  8
1
  6
Continuous
100
AcDbLine
 10
204.4999999999999
 20
215.6281649999999
 30
0.0
 11
159.4999999999998
 21
215.6281649999999
 31
0.0
  0
LINE
  5
B549
330
B518
100
AcDbEntity
  8
1
  6
Continuous
100
AcDbLine
 10
204.4999999999999
 20
213.6281649999999
 30
0.0
 11
159.4999999999998
 21
213.6281649999999
 31
0.0
  0
LINE
  5
B54A
330
B518
100
AcDbEntity
  8
1
  6
Continuous
100
AcDbLine
 10
214.0
 20
220.328165
 30
0.0
 11
150.0
 21
220.328165
 31
0.0
  0
LINE
  5
B54B
330
B518
100
AcDbEntity
  8
1
  6
Continuous
100
AcDbLine
 10
214.0
 20
222.628165
 30
0.0
 11
150.0
 21
222.628165
 31
0.0
  0
ARC
  5
B54C
330
B518
100
AcDbEntity
  8
1
  6
Continuous
100
AcDbCircle
 10
215.5
 20
197.9630139999999
 30
0.0
 40
12.5
100
AcDbArc
 50
132.8436429999999
 51
170.2180129999999
  0
LINE
  5
B54D
330
B518
100
AcDbEntity
  8
1
  6
Continuous
100
AcDbLine
 10
207.0
 20
210.628165
 30
0.0
 11
207.0
 21
207.1281649999999
 31
0.0
  0
LINE
  5
B54E
330
B518
100
AcDbEntity
  8
1
  6
Continuous
100
AcDbLine
 10
204.4999999999999
 20
215.500748
 30
0.0
 11
202.6274169999998
 21
213.6281649999999
 31
0.0
  0
LINE
  5
B54F
330
B518
100
AcDbEntity
  8
1
  6
Continuous
100
AcDbLine
 10
204.4999999999999
 20
214.341369
 30
0.0
 11
203.213203
 21
215.6281649999999
 31
0.0
  0
LINE
  5
B550
330
B518
100
AcDbEntity
  8
1
  6
Continuous
100
AcDbLine
 10
203.7989899999999
 20
213.6281649999999
 30
0.0
 11
201.7989899999999
 21
215.6281649999999
 31
0.0
  0
LINE
  5
B551
330
B518
100
AcDbEntity
  8
4
  6
CENTER
100
AcDbLine
 10
207.0
 20
225.628165
 30
0.0
 11
207.0
 21
217.3281649999999
 31
0.0
  0
ARC
  5
B552
330
B518
100
AcDbEntity
  8
1
  6
Continuous
100
AcDbCircle
 10
204.4999999999999
 20
222.728165
 30
0.0
 40
5.099999999999997
100
AcDbArc
 50
270.0
 51
331.9275129999998
  0
ARC
  5
B553
330
B518
100
AcDbEntity
  8
1
  6
Continuous
100
AcDbCircle
 10
204.0
 20
210.628165
 30
0.0
 40
3.0
100
AcDbArc
 50
0.0
 51
90.0
  0
LINE
  5
B554
330
B518
100
AcDbEntity
  8
1
  6
Continuous
100
AcDbLine
 10
204.4999999999999
 20
214.0865349999999
 30
0.0
 11
204.0416299999999
 21
213.6281649999999
 31
0.0
  0
LINE
  5
B555
330
B518
100
AcDbEntity
  8
1
  6
Continuous
100
AcDbLine
 10
204.4999999999999
 20
217.6281649999999
 30
0.0
 11
204.4999999999999
 21
213.6281649999999
 31
0.0
  0
LINE
  5
B556
330
B518
100
AcDbEntity
  8
1
  6
Continuous
100
AcDbLine
 10
214.0
 20
220.328165
 30
0.0
 11
214.0
 21
222.628165
 31
0.0
  0
LINE
  5
B557
330
B518
100
AcDbEntity
  8
1
  6
Continuous
100
AcDbLine
 10
194.1421349999999
 20
213.6281649999999
 30
0.0
 11
196.1421349999999
 21
215.6281649999999
 31
0.0
  0
LINE
  5
B558
330
B518
100
AcDbEntity
  8
1
  6
Continuous
100
AcDbLine
 10
196.727922
 20
213.6281649999999
 30
0.0
 11
194.727922
 21
215.6281649999999
 31
0.0
  0
LINE
  5
B559
330
B518
100
AcDbEntity
  8
1
  6
Continuous
100
AcDbLine
 10
195.3137079999999
 20
213.6281649999999
 30
0.0
 11
193.313708
 21
215.6281649999999
 31
0.0
  0
LINE
  5
B55A
330
B518
100
AcDbEntity
  8
1
  6
Continuous
100
AcDbLine
 10
198.3847759999999
 20
213.6281649999999
 30
0.0
 11
200.3847759999999
 21
215.6281649999999
 31
0.0
  0
LINE
  5
B55B
330
B518
100
AcDbEntity
  8
1
  6
Continuous
100
AcDbLine
 10
200.970563
 20
213.6281649999999
 30
0.0
 11
198.9705629999999
 21
215.6281649999999
 31
0.0
  0
LINE
  5
B55C
330
B518
100
AcDbEntity
  8
1
  6
Continuous
100
AcDbLine
 10
199.556349
 20
213.6281649999999
 30
0.0
 11
197.556349
 21
215.6281649999999
 31
0.0
  0
LINE
  5
B55D
330
B518
100
AcDbEntity
  8
1
  6
Continuous
100
AcDbLine
 10
201.213203
 20
213.6281649999999
 30
0.0
 11
203.213203
 21
215.6281649999999
 31
0.0
  0
LINE
  5
B55E
330
B518
100
AcDbEntity
  8
1
  6
Continuous
100
AcDbLine
 10
199.79899
 20
213.6281649999999
 30
0.0
 11
201.7989899999999
 21
215.6281649999999
 31
0.0
  0
LINE
  5
B55F
330
B518
100
AcDbEntity
  8
1
  6
Continuous
100
AcDbLine
 10
202.3847759999999
 20
213.6281649999999
 30
0.0
 11
200.3847759999999
 21
215.6281649999999
 31
0.0
  0
LINE
  5
B560
330
B518
100
AcDbEntity
  8
1
  6
Continuous
100
AcDbLine
 10
196.9705629999999
 20
213.6281649999999
 30
0.0
 11
198.9705629999999
 21
215.6281649999999
 31
0.0
  0
LINE
  5
B561
330
B518
100
AcDbEntity
  8
1
  6
Continuous
100
AcDbLine
 10
195.556349
 20
213.6281649999999
 30
0.0
 11
197.556349
 21
215.6281649999999
 31
0.0
  0
LINE
  5
B562
330
B518
100
AcDbEntity
  8
1
  6
Continuous
100
AcDbLine
 10
198.1421349999999
 20
213.6281649999999
 30
0.0
 11
196.1421349999999
 21
215.6281649999999
 31
0.0
  0
LINE
  5
B563
330
B518
100
AcDbEntity
  8
1
  6
Continuous
100
AcDbLine
 10
189.899495
 20
213.6281649999999
 30
0.0
 11
191.899495
 21
215.6281649999999
 31
0.0
  0
LINE
  5
B564
330
B518
100
AcDbEntity
  8
1
  6
Continuous
100
AcDbLine
 10
192.4852809999999
 20
213.6281649999999
 30
0.0
 11
190.4852809999999
 21
215.6281649999999
 31
0.0
  0
LINE
  5
B565
330
B518
100
AcDbEntity
  8
1
  6
Continuous
100
AcDbLine
 10
191.071068
 20
213.6281649999999
 30
0.0
 11
189.0710679999999
 21
215.6281649999999
 31
0.0
  0
LINE
  5
B566
330
B518
100
AcDbEntity
  8
1
  6
Continuous
100
AcDbLine
 10
192.727922
 20
213.6281649999999
 30
0.0
 11
194.727922
 21
215.6281649999999
 31
0.0
  0
LINE
  5
B567
330
B518
100
AcDbEntity
  8
1
  6
Continuous
100
AcDbLine
 10
191.313708
 20
213.6281649999999
 30
0.0
 11
193.313708
 21
215.6281649999999
 31
0.0
  0
LINE
  5
B568
330
B518
100
AcDbEntity
  8
1
  6
Continuous
100
AcDbLine
 10
193.899495
 20
213.6281649999999
 30
0.0
 11
191.899495
 21
215.6281649999999
 31
0.0
  0
LINE
  5
B569
330
B518
100
AcDbEntity
  8
1
  6
Continuous
100
AcDbLine
 10
188.4852809999999
 20
213.6281649999999
 30
0.0
 11
190.4852809999999
 21
215.6281649999999
 31
0.0
  0
LINE
  5
B56A
330
B518
100
AcDbEntity
  8
1
  6
Continuous
100
AcDbLine
 10
187.071068
 20
213.6281649999999
 30
0.0
 11
189.0710679999999
 21
215.6281649999999
 31
0.0
  0
LINE
  5
B56B
330
B518
100
AcDbEntity
  8
1
  6
Continuous
100
AcDbLine
 10
189.656854
 20
213.6281649999999
 30
0.0
 11
187.656854
 21
215.6281649999999
 31
0.0
  0
LINE
  5
B56C
330
B518
100
AcDbEntity
  8
4
  6
CENTER
100
AcDbLine
 10
182.0
 20
225.628165
 30
0.0
 11
182.0
 21
163.6387039999999
 31
0.0
  0
LINE
  5
B56D
330
B518
100
AcDbEntity
  8
1
  6
Continuous
100
AcDbLine
 10
165.5
 20
208.628165
 30
0.0
 11
170.07995
 21
177.281679
 31
0.0
  0
ARC
  5
B56E
330
B518
100
AcDbEntity
  8
1
  6
Continuous
100
AcDbCircle
 10
114.213712
 20
208.605137
 30
0.0
 40
50.0
100
AcDbArc
 50
336.6095899999999
 51
354.53402
  0
ARC
  5
B56F
330
B518
100
AcDbEntity
  8
1
  6
Continuous
100
AcDbCircle
 10
161.0
 20
204.128165
 30
0.0
 40
3.0
100
AcDbArc
 50
354.53402
 51
90.0
  0
LINE
  5
B570
330
B518
100
AcDbEntity
  8
1
  6
Continuous
100
AcDbLine
 10
157.0
 20
210.628165
 30
0.0
 11
157.0
 21
207.1281649999999
 31
0.0
  0
LINE
  5
B571
330
B518
100
AcDbEntity
  8
1
  6
Continuous
100
AcDbLine
 10
161.0
 20
207.1281649999999
 30
0.0
 11
157.0
 21
207.1281649999999
 31
0.0
  0
LINE
  5
B572
330
B518
100
AcDbEntity
  8
1
  6
Continuous
100
AcDbLine
 10
168.6862909999998
 20
213.6281649999999
 30
0.0
 11
170.6862909999999
 21
215.6281649999999
 31
0.0
  0
LINE
  5
B573
330
B518
100
AcDbEntity
  8
1
  6
Continuous
100
AcDbLine
 10
170.100505
 20
213.6281649999999
 30
0.0
 11
172.100505
 21
215.6281649999999
 31
0.0
  0
LINE
  5
B574
330
B518
100
AcDbEntity
  8
1
  6
Continuous
100
AcDbLine
 10
171.2720779999999
 20
213.6281649999999
 30
0.0
 11
169.2720779999999
 21
215.6281649999999
 31
0.0
  0
LINE
  5
B575
330
B518
100
AcDbEntity
  8
1
  6
Continuous
100
AcDbLine
 10
177.1715729999999
 20
213.6281649999999
 30
0.0
 11
179.1715729999999
 21
215.6281649999999
 31
0.0
  0
LINE
  5
B576
330
B518
100
AcDbEntity
  8
1
  6
Continuous
100
AcDbLine
 10
178.585786
 20
213.6281649999999
 30
0.0
 11
180.585786
 21
215.6281649999999
 31
0.0
  0
LINE
  5
B577
330
B518
100
AcDbEntity
  8
1
  6
Continuous
100
AcDbLine
 10
179.757359
 20
213.6281649999999
 30
0.0
 11
177.757359
 21
215.6281649999999
 31
0.0
  0
LINE
  5
B578
330
B518
100
AcDbEntity
  8
1
  6
Continuous
100
AcDbLine
 10
181.414213
 20
213.6281649999999
 30
0.0
 11
183.414213
 21
215.6281649999999
 31
0.0
  0
LINE
  5
B579
330
B518
100
AcDbEntity
  8
1
  6
Continuous
100
AcDbLine
 10
184.0
 20
213.6281649999999
 30
0.0
 11
182.0
 21
215.6281649999999
 31
0.0
  0
LINE
  5
B57A
330
B518
100
AcDbEntity
  8
1
  6
Continuous
100
AcDbLine
 10
184.2426399999999
 20
213.6281649999999
 30
0.0
 11
186.24264
 21
215.6281649999999
 31
0.0
  0
LINE
  5
B57B
330
B518
100
AcDbEntity
  8
1
  6
Continuous
100
AcDbLine
 10
182.828427
 20
213.6281649999999
 30
0.0
 11
184.828427
 21
215.6281649999999
 31
0.0
  0
LINE
  5
B57C
330
B518
100
AcDbEntity
  8
1
  6
Continuous
100
AcDbLine
 10
186.828427
 20
213.6281649999999
 30
0.0
 11
184.828427
 21
215.6281649999999
 31
0.0
  0
LINE
  5
B57D
330
B518
100
AcDbEntity
  8
1
  6
Continuous
100
AcDbLine
 10
185.4142129999999
 20
213.6281649999999
 30
0.0
 11
183.414213
 21
215.6281649999999
 31
0.0
  0
LINE
  5
B57E
330
B518
100
AcDbEntity
  8
1
  6
Continuous
100
AcDbLine
 10
180.0
 20
213.6281649999999
 30
0.0
 11
182.0
 21
215.6281649999999
 31
0.0
  0
LINE
  5
B57F
330
B518
100
AcDbEntity
  8
1
  6
Continuous
100
AcDbLine
 10
181.1715729999999
 20
213.6281649999999
 30
0.0
 11
179.1715729999999
 21
215.6281649999999
 31
0.0
  0
LINE
  5
B580
330
B518
100
AcDbEntity
  8
1
  6
Continuous
100
AcDbLine
 10
182.585786
 20
213.6281649999999
 30
0.0
 11
180.585786
 21
215.6281649999999
 31
0.0
  0
LINE
  5
B581
330
B518
100
AcDbEntity
  8
1
  6
Continuous
100
AcDbLine
 10
172.928932
 20
213.6281649999999
 30
0.0
 11
174.928932
 21
215.6281649999999
 31
0.0
  0
LINE
  5
B582
330
B518
100
AcDbEntity
  8
1
  6
Continuous
100
AcDbLine
 10
174.343146
 20
213.6281649999999
 30
0.0
 11
176.3431459999999
 21
215.6281649999999
 31
0.0
  0
LINE
  5
B583
330
B518
100
AcDbEntity
  8
1
  6
Continuous
100
AcDbLine
 10
175.5147179999999
 20
213.6281649999999
 30
0.0
 11
173.514718
 21
215.6281649999999
 31
0.0
  0
LINE
  5
B584
330
B518
100
AcDbEntity
  8
1
  6
Continuous
100
AcDbLine
 10
175.7573589999998
 20
213.6281649999999
 30
0.0
 11
177.757359
 21
215.6281649999999
 31
0.0
  0
LINE
  5
B585
330
B518
100
AcDbEntity
  8
1
  6
Continuous
100
AcDbLine
 10
176.928932
 20
213.6281649999999
 30
0.0
 11
174.928932
 21
215.6281649999999
 31
0.0
  0
LINE
  5
B586
330
B518
100
AcDbEntity
  8
1
  6
Continuous
100
AcDbLine
 10
178.3431459999999
 20
213.6281649999999
 30
0.0
 11
176.3431459999999
 21
215.6281649999999
 31
0.0
  0
LINE
  5
B587
330
B518
100
AcDbEntity
  8
1
  6
Continuous
100
AcDbLine
 10
171.5147179999999
 20
213.6281649999999
 30
0.0
 11
173.514718
 21
215.6281649999999
 31
0.0
  0
LINE
  5
B588
330
B518
100
AcDbEntity
  8
1
  6
Continuous
100
AcDbLine
 10
172.6862909999999
 20
213.6281649999999
 30
0.0
 11
170.6862909999999
 21
215.6281649999999
 31
0.0
  0
LINE
  5
B589
330
B518
100
AcDbEntity
  8
1
  6
Continuous
100
AcDbLine
 10
174.100505
 20
213.6281649999999
 30
0.0
 11
172.100505
 21
215.6281649999999
 31
0.0
  0
LINE
  5
B58A
330
B518
100
AcDbEntity
  8
4
  6
CENTER
100
AcDbLine
 10
157.0
 20
225.628165
 30
0.0
 11
157.0
 21
217.3281649999999
 31
0.0
  0
ARC
  5
B58B
330
B518
100
AcDbEntity
  8
1
  6
Continuous
100
AcDbCircle
 10
159.4999999999998
 20
222.728165
 30
0.0
 40
5.099999999999997
100
AcDbArc
 50
208.072487
 51
270.0
  0
LINE
  5
B58C
330
B518
100
AcDbEntity
  8
1
  6
Continuous
100
AcDbLine
 10
161.6152229999999
 20
213.6281649999999
 30
0.0
 11
163.6152229999999
 21
215.6281649999999
 31
0.0
  0
LINE
  5
B58D
330
B518
100
AcDbEntity
  8
1
  6
Continuous
100
AcDbLine
 10
162.786796
 20
213.6281649999999
 30
0.0
 11
160.786796
 21
215.6281649999999
 31
0.0
  0
LINE
  5
B58E
330
B518
100
AcDbEntity
  8
1
  6
Continuous
100
AcDbLine
 10
164.20101
 20
213.6281649999999
 30
0.0
 11
162.2010099999999
 21
215.6281649999999
 31
0.0
  0
LINE
  5
B58F
330
B518
100
AcDbEntity
  8
1
  6
Continuous
100
AcDbLine
 10
164.443651
 20
213.6281649999999
 30
0.0
 11
166.4436509999999
 21
215.6281649999999
 31
0.0
  0
LINE
  5
B590
330
B518
100
AcDbEntity
  8
1
  6
Continuous
100
AcDbLine
 10
165.8578639999998
 20
213.6281649999999
 30
0.0
 11
167.8578639999998
 21
215.6281649999999
 31
0.0
  0
LINE
  5
B591
330
B518
100
AcDbEntity
  8
1
  6
Continuous
100
AcDbLine
 10
167.029437
 20
213.6281649999999
 30
0.0
 11
165.029437
 21
215.6281649999999
 31
0.0
  0
LINE
  5
B592
330
B518
100
AcDbEntity
  8
1
  6
Continuous
100
AcDbLine
 10
167.2720779999998
 20
213.6281649999999
 30
0.0
 11
169.2720779999999
 21
215.6281649999999
 31
0.0
  0
LINE
  5
B593
330
B518
100
AcDbEntity
  8
1
  6
Continuous
100
AcDbLine
 10
168.4436509999999
 20
213.6281649999999
 30
0.0
 11
166.4436509999999
 21
215.6281649999999
 31
0.0
  0
LINE
  5
B594
330
B518
100
AcDbEntity
  8
1
  6
Continuous
100
AcDbLine
 10
169.8578639999998
 20
213.6281649999999
 30
0.0
 11
167.8578639999998
 21
215.6281649999999
 31
0.0
  0
LINE
  5
B595
330
B518
100
AcDbEntity
  8
1
  6
Continuous
100
AcDbLine
 10
163.029437
 20
213.6281649999999
 30
0.0
 11
165.029437
 21
215.6281649999999
 31
0.0
  0
LINE
  5
B596
330
B518
100
AcDbEntity
  8
1
  6
Continuous
100
AcDbLine
 10
165.615223
 20
213.6281649999999
 30
0.0
 11
163.6152229999999
 21
215.6281649999999
 31
0.0
  0
ARC
  5
B597
330
B518
100
AcDbEntity
  8
1
  6
Continuous
100
AcDbCircle
 10
160.0
 20
210.628165
 30
0.0
 40
3.0
100
AcDbArc
 50
90.0
 51
180.0
  0
LINE
  5
B598
330
B518
100
AcDbEntity
  8
1
  6
Continuous
100
AcDbLine
 10
159.4999999999998
 20
214.341369
 30
0.0
 11
160.786796
 21
215.6281649999999
 31
0.0
  0
LINE
  5
B599
330
B518
100
AcDbEntity
  8
1
  6
Continuous
100
AcDbLine
 10
160.20101
 20
213.6281649999999
 30
0.0
 11
162.2010099999999
 21
215.6281649999999
 31
0.0
  0
LINE
  5
B59A
330
B518
100
AcDbEntity
  8
1
  6
Continuous
100
AcDbLine
 10
159.958369
 20
213.6281649999999
 30
0.0
 11
159.4999999999998
 21
214.0865349999999
 31
0.0
  0
LINE
  5
B59B
330
B518
100
AcDbEntity
  8
1
  6
Continuous
100
AcDbLine
 10
161.3725829999999
 20
213.6281649999999
 30
0.0
 11
159.4999999999998
 21
215.500748
 31
0.0
  0
LINE
  5
B59C
330
B518
100
AcDbEntity
  8
1
  6
Continuous
100
AcDbLine
 10
159.4999999999998
 20
217.6281649999999
 30
0.0
 11
159.4999999999998
 21
213.6281649999999
 31
0.0
  0
LINE
  5
B59D
330
B518
100
AcDbEntity
  8
1
  6
Continuous
100
AcDbLine
 10
150.0
 20
220.328165
 30
0.0
 11
150.0
 21
222.628165
 31
0.0
  0
LINE
  5
B59E
330
B518
100
AcDbEntity
  8
4
  6
CENTER
100
AcDbLine
 10
217.0
 20
289.2563299999998
 30
0.0
 11
126.5
 21
289.2563299999998
 31
0.0
  0
CIRCLE
  5
B59F
330
B518
100
AcDbEntity
  8
1
  6
Continuous
100
AcDbCircle
 10
182.0
 20
289.2563299999998
 30
0.0
 40
12.5
  0
CIRCLE
  5
B5A0
330
B518
100
AcDbEntity
  8
1
  6
Continuous
100
AcDbCircle
 10
182.0
 20
289.2563299999998
 30
0.0
 40
20.75
  0
CIRCLE
  5
B5A1
330
B518
100
AcDbEntity
  8
1
  6
Continuous
100
AcDbCircle
 10
182.0
 20
289.2563299999998
 30
0.0
 40
23.5
  0
LINE
  5
B5A2
330
B518
100
AcDbEntity
  8
1
  6
Continuous
100
AcDbLine
 10
156.0
 20
257.25633
 30
0.0
 11
208.0
 21
257.25633
 31
0.0
  0
LINE
  5
B5A3
330
B518
100
AcDbEntity
  8
1
  6
Continuous
100
AcDbLine
 10
208.0
 20
321.2563299999998
 30
0.0
 11
156.0
 21
321.2563299999998
 31
0.0
  0
LINE
  5
B5A4
330
B518
100
AcDbEntity
  8
1
  6
Continuous
100
AcDbLine
 10
214.0
 20
263.25633
 30
0.0
 11
214.0
 21
315.25633
 31
0.0
  0
LINE
  5
B5A5
330
B518
100
AcDbEntity
  8
4
  6
CENTER
100
AcDbLine
 10
207.0
 20
258.0063299999998
 30
0.0
 11
207.0
 21
270.5063299999998
 31
0.0
  0
ARC
  5
B5A6
330
B518
100
AcDbEntity
  8
1
  6
Continuous
100
AcDbCircle
 10
208.0
 20
263.25633
 30
0.0
 40
6.0
100
AcDbArc
 50
270.0
 51
0.0
  0
LINE
  5
B5A7
330
B518
100
AcDbEntity
  8
4
  6
CENTER
100
AcDbLine
 10
213.2499999999998
 20
264.2563299999998
 30
0.0
 11
200.7499999999998
 21
264.2563299999998
 31
0.0
  0
CIRCLE
  5
B5A8
330
B518
100
AcDbEntity
  8
1
  6
Continuous
100
AcDbCircle
 10
207.0
 20
264.2563299999998
 30
0.0
 40
3.25
  0
LINE
  5
B5A9
330
B518
100
AcDbEntity
  8
4
  6
CENTER
100
AcDbLine
 10
213.2499999999998
 20
314.2563299999999
 30
0.0
 11
200.7499999999998
 21
314.2563299999999
 31
0.0
  0
LINE
  5
B5AA
330
B518
100
AcDbEntity
  8
4
  6
CENTER
100
AcDbLine
 10
207.0
 20
308.0063299999999
 30
0.0
 11
207.0
 21
320.5063299999999
 31
0.0
  0
CIRCLE
  5
B5AB
330
B518
100
AcDbEntity
  8
1
  6
Continuous
100
AcDbCircle
 10
207.0
 20
314.2563299999999
 30
0.0
 40
3.25
  0
ARC
  5
B5AC
330
B518
100
AcDbEntity
  8
1
  6
Continuous
100
AcDbCircle
 10
208.0
 20
315.25633
 30
0.0
 40
6.0
100
AcDbArc
 50
0.0
 51
90.0
  0
LINE
  5
B5AD
330
B518
100
AcDbEntity
  8
4
  6
CENTER
100
AcDbLine
 10
182.0
 20
324.25633
 30
0.0
 11
182.0
 21
254.2563299999999
 31
0.0
  0
ARC
  5
B5AE
330
B518
100
AcDbEntity
  8
1
  6
Continuous
100
AcDbCircle
 10
278.5
 20
289.2563299999998
 30
0.0
 40
150.0
100
AcDbArc
 50
176.2946289999999
 51
183.7053709999999
  0
LINE
  5
B5AF
330
B518
100
AcDbEntity
  8
1
  6
Continuous
100
AcDbLine
 10
150.0
 20
315.25633
 30
0.0
 11
150.0
 21
263.25633
 31
0.0
  0
LINE
  5
B5B0
330
B518
100
AcDbEntity
  8
4
  6
CENTER
100
AcDbLine
 10
163.25
 20
264.2563299999998
 30
0.0
 11
150.75
 21
264.2563299999998
 31
0.0
  0
CIRCLE
  5
B5B1
330
B518
100
AcDbEntity
  8
1
  6
Continuous
100
AcDbCircle
 10
157.0
 20
264.2563299999998
 30
0.0
 40
3.25
  0
ARC
  5
B5B2
330
B518
100
AcDbEntity
  8
1
  6
Continuous
100
AcDbCircle
 10
156.0
 20
263.25633
 30
0.0
 40
6.0
100
AcDbArc
 50
180.0
 51
270.0
  0
LINE
  5
B5B3
330
B518
100
AcDbEntity
  8
4
  6
CENTER
100
AcDbLine
 10
157.0
 20
258.0063299999998
 30
0.0
 11
157.0
 21
270.5063299999998
 31
0.0
  0
LINE
  5
B5B4
330
B518
100
AcDbEntity
  8
1
  6
Continuous
100
AcDbLine
 10
150.0
 20
276.7563299999998
 30
0.0
 11
131.8072939999999
 21
276.7563299999998
 31
0.0
  0
ARC
  5
B5B5
330
B518
100
AcDbEntity
  8
1
  6
Continuous
100
AcDbCircle
 10
131.8072939999999
 20
279.7563299999998
 30
0.0
 40
3.0
100
AcDbArc
 50
183.7053709999999
 51
270.0
  0
LINE
  5
B5B6
330
B518
100
AcDbEntity
  8
4
  6
CENTER
100
AcDbLine
 10
163.25
 20
314.2563299999999
 30
0.0
 11
150.75
 21
314.2563299999999
 31
0.0
  0
CIRCLE
  5
B5B7
330
B518
100
AcDbEntity
  8
1
  6
Continuous
100
AcDbCircle
 10
157.0
 20
314.2563299999999
 30
0.0
 40
3.25
  0
ARC
  5
B5B8
330
B518
100
AcDbEntity
  8
1
  6
Continuous
100
AcDbCircle
 10
156.0
 20
315.25633
 30
0.0
 40
6.0
100
AcDbArc
 50
90.0
 51
180.0
  0
LINE
  5
B5B9
330
B518
100
AcDbEntity
  8
4
  6
CENTER
100
AcDbLine
 10
157.0
 20
308.0063299999999
 30
0.0
 11
157.0
 21
320.5063299999999
 31
0.0
  0
LINE
  5
B5BA
330
B518
100
AcDbEntity
  8
1
  6
Continuous
100
AcDbLine
 10
150.0
 20
301.7563299999999
 30
0.0
 11
131.8072939999999
 21
301.7563299999999
 31
0.0
  0
ARC
  5
B5BB
330
B518
100
AcDbEntity
  8
1
  6
Continuous
100
AcDbCircle
 10
131.8072939999999
 20
298.75633
 30
0.0
 40
3.0
100
AcDbArc
 50
90.0
 51
176.2946289999999
  0
LINE
  5
B5BC
330
B518
100
AcDbEntity
  8
4
  6
CENTER
100
AcDbLine
 10
57.0
 20
225.628165
 30
0.0
 11
57.0
 21
135.6281649999999
 31
0.0
  0
ARC
  5
B5BD
330
B518
100
AcDbEntity
  8
1
  6
Continuous
100
AcDbCircle
 10
57.0
 20
287.6281649999999
 30
0.0
 40
150.0
100
AcDbArc
 50
266.2946289999998
 51
273.705371
  0
LINE
  5
B5BE
330
B518
100
AcDbEntity
  8
4
  6
CENTER
100
AcDbLine
 10
31.95
 20
170.128165
 30
0.0
 11
80.04999999999999
 21
170.128165
 31
0.0
  0
LINE
  5
B5BF
330
B518
100
AcDbEntity
  8
1
  6
Continuous
100
AcDbLine
 10
60.414214
 20
213.6281649999999
 30
0.0
 11
58.414214
 21
215.6281649999999
 31
0.0
  0
LINE
  5
B5C0
330
B518
100
AcDbEntity
  8
1
  6
Continuous
100
AcDbLine
 10
59.0
 20
213.6281649999999
 30
0.0
 11
57.0
 21
215.6281649999999
 31
0.0
  0
LINE
  5
B5C1
330
B518
100
AcDbEntity
  8
1
  6
Continuous
100
AcDbLine
 10
57.82842699999999
 20
213.6281649999999
 30
0.0
 11
59.82842699999999
 21
215.6281649999999
 31
0.0
  0
ARC
  5
B5C2
330
B518
100
AcDbEntity
  8
1
  6
Continuous
100
AcDbCircle
 10
57.0
 20
52.628165
 30
0.0
 40
150.0
100
AcDbArc
 50
86.294629
 51
93.70537099999998
  0
LINE
  5
B5C3
330
B518
100
AcDbEntity
  8
1
  6
Continuous
100
AcDbLine
 10
44.95
 20
207.1281649999999
 30
0.0
 11
69.05
 21
207.1281649999999
 31
0.0
  0
LINE
  5
B5C4
330
B518
100
AcDbEntity
  8
1
  6
Continuous
100
AcDbLine
 10
34.5
 20
217.6281649999999
 30
0.0
 11
79.5
 21
217.6281649999999
 31
0.0
  0
LINE
  5
B5C5
330
B518
100
AcDbEntity
  8
1
  6
Continuous
100
AcDbLine
 10
34.5
 20
215.6281649999999
 30
0.0
 11
79.5
 21
215.6281649999999
 31
0.0
  0
LINE
  5
B5C6
330
B518
100
AcDbEntity
  8
1
  6
Continuous
100
AcDbLine
 10
34.5
 20
213.6281649999999
 30
0.0
 11
79.5
 21
213.6281649999999
 31
0.0
  0
LINE
  5
B5C7
330
B518
100
AcDbEntity
  8
1
  6
Continuous
100
AcDbLine
 10
25.0
 20
220.328165
 30
0.0
 11
89.0
 21
220.328165
 31
0.0
  0
LINE
  5
B5C8
330
B518
100
AcDbEntity
  8
1
  6
Continuous
100
AcDbLine
 10
25.0
 20
222.628165
 30
0.0
 11
89.0
 21
222.628165
 31
0.0
  0
LINE
  5
B5C9
330
B518
100
AcDbEntity
  8
1
  6
Continuous
100
AcDbLine
 10
44.5
 20
199.3208709999999
 30
0.0
 11
44.5
 21
140.935459
 31
0.0
  0
LINE
  5
B5CA
330
B518
100
AcDbEntity
  8
1
  6
Continuous
100
AcDbLine
 10
38.95
 20
201.1281649999999
 30
0.0
 11
38.95
 21
159.3781649999999
 31
0.0
  0
LINE
  5
B5CB
330
B518
100
AcDbEntity
  8
1
  6
Continuous
100
AcDbLine
 10
41.25
 20
203.1281649999999
 30
0.0
 11
41.25
 21
159.3781649999999
 31
0.0
  0
LINE
  5
B5CC
330
B518
100
AcDbEntity
  8
1
  6
Continuous
100
AcDbLine
 10
32.0
 20
210.628165
 30
0.0
 11
32.0
 21
175.587229
 31
0.0
  0
ARC
  5
B5CD
330
B518
100
AcDbEntity
  8
1
  6
Continuous
100
AcDbCircle
 10
43.39999999999998
 20
161.128165
 30
0.0
 40
1.5
100
AcDbArc
 50
180.0
 51
270.0
  0
ARC
  5
B5CE
330
B518
100
AcDbEntity
  8
1
  6
Continuous
100
AcDbCircle
 10
50.0
 20
175.587229
 30
0.0
 40
18.0
100
AcDbArc
 50
180.0
 51
232.128771
  0
LINE
  5
B5CF
330
B518
100
AcDbEntity
  8
1
  6
Continuous
100
AcDbLine
 10
38.95
 20
159.3781649999999
 30
0.0
 11
41.25
 21
159.3781649999999
 31
0.0
  0
ARC
  5
B5D0
330
B518
100
AcDbEntity
  8
1
  6
Continuous
100
AcDbCircle
 10
47.5
 20
140.935459
 30
0.0
 40
3.0
100
AcDbArc
 50
180.0
 51
266.2946289999998
  0
LINE
  5
B5D1
330
B518
100
AcDbEntity
  8
1
  6
Continuous
100
AcDbLine
 10
43.39999999999998
 20
159.6281649999999
 30
0.0
 11
44.5
 21
159.6281649999999
 31
0.0
  0
ARC
  5
B5D2
330
B518
100
AcDbEntity
  8
1
  6
Continuous
100
AcDbCircle
 10
43.39999999999998
 20
179.1281649999999
 30
0.0
 40
1.5
100
AcDbArc
 50
90.0
 51
180.0
  0
LINE
  5
B5D3
330
B518
100
AcDbEntity
  8
1
  6
Continuous
100
AcDbLine
 10
41.9
 20
161.128165
 30
0.0
 11
41.9
 21
179.1281649999999
 31
0.0
  0
LINE
  5
B5D4
330
B518
100
AcDbEntity
  8
1
  6
Continuous
100
AcDbLine
 10
37.38785099999999
 20
175.8781649999999
 30
0.0
 11
37.38785099999999
 21
164.378165
 31
0.0
  0
ARC
  5
B5D5
330
B518
100
AcDbEntity
  8
1
  6
Continuous
100
AcDbCircle
 10
42.95
 20
170.128165
 30
0.0
 40
8.0
100
AcDbArc
 50
134.048626
 51
225.9513739999999
  0
LINE
  5
B5D6
330
B518
100
AcDbEntity
  8
1
  6
Continuous
100
AcDbLine
 10
37.38785099999999
 20
164.378165
 30
0.0
 11
38.95
 21
164.378165
 31
0.0
  0
LINE
  5
B5D7
330
B518
100
AcDbEntity
  8
1
  6
Continuous
100
AcDbLine
 10
41.25
 20
166.128165
 30
0.0
 11
41.9
 21
166.128165
 31
0.0
  0
LINE
  5
B5D8
330
B518
100
AcDbEntity
  8
1
  6
Continuous
100
AcDbLine
 10
37.38785099999999
 20
175.8781649999999
 30
0.0
 11
38.95
 21
175.8781649999999
 31
0.0
  0
LINE
  5
B5D9
330
B518
100
AcDbEntity
  8
1
  6
Continuous
100
AcDbLine
 10
41.25
 20
174.1281649999999
 30
0.0
 11
41.9
 21
174.1281649999999
 31
0.0
  0
LINE
  5
B5DA
330
B518
100
AcDbEntity
  8
1
  6
Continuous
100
AcDbLine
 10
43.39999999999998
 20
180.628165
 30
0.0
 11
44.5
 21
180.628165
 31
0.0
  0
LINE
  5
B5DB
330
B518
100
AcDbEntity
  8
1
  6
Continuous
100
AcDbLine
 10
25.0
 20
220.328165
 30
0.0
 11
25.0
 21
222.628165
 31
0.0
  0
ARC
  5
B5DC
330
B518
100
AcDbEntity
  8
1
  6
Continuous
100
AcDbCircle
 10
45.25
 20
203.1281649999999
 30
0.0
 40
4.0
100
AcDbArc
 50
90.0
 51
180.0
  0
ARC
  5
B5DD
330
B518
100
AcDbEntity
  8
1
  6
Continuous
100
AcDbCircle
 10
44.95
 20
201.1281649999999
 30
0.0
 40
6.0
100
AcDbArc
 50
90.0
 51
180.0
  0
ARC
  5
B5DE
330
B518
100
AcDbEntity
  8
1
  6
Continuous
100
AcDbCircle
 10
47.5
 20
199.3208709999999
 30
0.0
 40
3.0
100
AcDbArc
 50
93.70537099999998
 51
180.0
  0
LINE
  5
B5DF
330
B518
100
AcDbEntity
  8
1
  6
Continuous
100
AcDbLine
 10
42.029437
 20
213.6281649999999
 30
0.0
 11
40.029437
 21
215.6281649999999
 31
0.0
  0
LINE
  5
B5E0
330
B518
100
AcDbEntity
  8
1
  6
Continuous
100
AcDbLine
 10
43.443651
 20
213.6281649999999
 30
0.0
 11
41.443651
 21
215.6281649999999
 31
0.0
  0
LINE
  5
B5E1
330
B518
100
AcDbEntity
  8
1
  6
Continuous
100
AcDbLine
 10
40.857865
 20
213.6281649999999
 30
0.0
 11
42.85786499999999
 21
215.6281649999999
 31
0.0
  0
LINE
  5
B5E2
330
B518
100
AcDbEntity
  8
4
  6
CENTER
100
AcDbLine
 10
32.0
 20
225.628165
 30
0.0
 11
32.0
 21
217.3281649999999
 31
0.0
  0
ARC
  5
B5E3
330
B518
100
AcDbEntity
  8
1
  6
Continuous
100
AcDbCircle
 10
34.5
 20
222.728165
 30
0.0
 40
5.099999999999997
100
AcDbArc
 50
208.072487
 51
270.0
  0
ARC
  5
B5E4
330
B518
100
AcDbEntity
  8
1
  6
Continuous
100
AcDbCircle
 10
35.0
 20
210.628165
 30
0.0
 40
3.0
100
AcDbArc
 50
90.0
 51
180.0
  0
LINE
  5
B5E5
330
B518
100
AcDbEntity
  8
1
  6
Continuous
100
AcDbLine
 10
39.20100999999998
 20
213.6281649999999
 30
0.0
 11
37.20100999999999
 21
215.6281649999999
 31
0.0
  0
LINE
  5
B5E6
330
B518
100
AcDbEntity
  8
1
  6
Continuous
100
AcDbLine
 10
36.61522399999999
 20
213.6281649999999
 30
0.0
 11
38.615224
 21
215.6281649999999
 31
0.0
  0
LINE
  5
B5E7
330
B518
100
AcDbEntity
  8
1
  6
Continuous
100
AcDbLine
 10
34.5
 20
214.0865349999999
 30
0.0
 11
34.95837
 21
213.6281649999999
 31
0.0
  0
LINE
  5
B5E8
330
B518
100
AcDbEntity
  8
1
  6
Continuous
100
AcDbLine
 10
34.5
 20
215.500748
 30
0.0
 11
36.372583
 21
213.6281649999999
 31
0.0
  0
LINE
  5
B5E9
330
B518
100
AcDbEntity
  8
1
  6
Continuous
100
AcDbLine
 10
37.786797
 20
213.6281649999999
 30
0.0
 11
35.786797
 21
215.6281649999999
 31
0.0
  0
LINE
  5
B5EA
330
B518
100
AcDbEntity
  8
1
  6
Continuous
100
AcDbLine
 10
34.5
 20
214.341369
 30
0.0
 11
35.786797
 21
215.6281649999999
 31
0.0
  0
LINE
  5
B5EB
330
B518
100
AcDbEntity
  8
1
  6
Continuous
100
AcDbLine
 10
35.20100999999999
 20
213.6281649999999
 30
0.0
 11
37.20100999999999
 21
215.6281649999999
 31
0.0
  0
LINE
  5
B5EC
330
B518
100
AcDbEntity
  8
1
  6
Continuous
100
AcDbLine
 10
34.5
 20
217.6281649999999
 30
0.0
 11
34.5
 21
213.6281649999999
 31
0.0
  0
LINE
  5
B5ED
330
B518
100
AcDbEntity
  8
1
  6
Continuous
100
AcDbLine
 10
40.615224
 20
213.6281649999999
 30
0.0
 11
38.615224
 21
215.6281649999999
 31
0.0
  0
LINE
  5
B5EE
330
B518
100
AcDbEntity
  8
1
  6
Continuous
100
AcDbLine
 10
38.029437
 20
213.6281649999999
 30
0.0
 11
40.029437
 21
215.6281649999999
 31
0.0
  0
LINE
  5
B5EF
330
B518
100
AcDbEntity
  8
1
  6
Continuous
100
AcDbLine
 10
39.443651
 20
213.6281649999999
 30
0.0
 11
41.443651
 21
215.6281649999999
 31
0.0
  0
LINE
  5
B5F0
330
B518
100
AcDbEntity
  8
1
  6
Continuous
100
AcDbLine
 10
50.514719
 20
213.6281649999999
 30
0.0
 11
48.51471899999999
 21
215.6281649999999
 31
0.0
  0
LINE
  5
B5F1
330
B518
100
AcDbEntity
  8
1
  6
Continuous
100
AcDbLine
 10
51.928932
 20
213.6281649999999
 30
0.0
 11
49.92893200000001
 21
215.6281649999999
 31
0.0
  0
LINE
  5
B5F2
330
B518
100
AcDbEntity
  8
1
  6
Continuous
100
AcDbLine
 10
49.343146
 20
213.6281649999999
 30
0.0
 11
51.34314599999999
 21
215.6281649999999
 31
0.0
  0
LINE
  5
B5F3
330
B518
100
AcDbEntity
  8
1
  6
Continuous
100
AcDbLine
 10
46.27207799999999
 20
213.6281649999999
 30
0.0
 11
44.272078
 21
215.6281649999999
 31
0.0
  0
LINE
  5
B5F4
330
B518
100
AcDbEntity
  8
1
  6
Continuous
100
AcDbLine
 10
47.686292
 20
213.6281649999999
 30
0.0
 11
45.686292
 21
215.6281649999999
 31
0.0
  0
LINE
  5
B5F5
330
B518
100
AcDbEntity
  8
1
  6
Continuous
100
AcDbLine
 10
45.100505
 20
213.6281649999999
 30
0.0
 11
47.100505
 21
215.6281649999999
 31
0.0
  0
LINE
  5
B5F6
330
B518
100
AcDbEntity
  8
1
  6
Continuous
100
AcDbLine
 10
44.85786499999998
 20
213.6281649999999
 30
0.0
 11
42.85786499999999
 21
215.6281649999999
 31
0.0
  0
LINE
  5
B5F7
330
B518
100
AcDbEntity
  8
1
  6
Continuous
100
AcDbLine
 10
42.272078
 20
213.6281649999999
 30
0.0
 11
44.272078
 21
215.6281649999999
 31
0.0
  0
LINE
  5
B5F8
330
B518
100
AcDbEntity
  8
1
  6
Continuous
100
AcDbLine
 10
43.68629199999999
 20
213.6281649999999
 30
0.0
 11
45.686292
 21
215.6281649999999
 31
0.0
  0
LINE
  5
B5F9
330
B518
100
AcDbEntity
  8
1
  6
Continuous
100
AcDbLine
 10
49.100505
 20
213.6281649999999
 30
0.0
 11
47.100505
 21
215.6281649999999
 31
0.0
  0
LINE
  5
B5FA
330
B518
100
AcDbEntity
  8
1
  6
Continuous
100
AcDbLine
 10
46.51471899999999
 20
213.6281649999999
 30
0.0
 11
48.51471899999999
 21
215.6281649999999
 31
0.0
  0
LINE
  5
B5FB
330
B518
100
AcDbEntity
  8
1
  6
Continuous
100
AcDbLine
 10
47.928932
 20
213.6281649999999
 30
0.0
 11
49.92893200000001
 21
215.6281649999999
 31
0.0
  0
LINE
  5
B5FC
330
B518
100
AcDbEntity
  8
1
  6
Continuous
100
AcDbLine
 10
54.75736
 20
213.6281649999999
 30
0.0
 11
52.75736
 21
215.6281649999999
 31
0.0
  0
LINE
  5
B5FD
330
B518
100
AcDbEntity
  8
1
  6
Continuous
100
AcDbLine
 10
56.17157299999998
 20
213.6281649999999
 30
0.0
 11
54.17157299999999
 21
215.6281649999999
 31
0.0
  0
LINE
  5
B5FE
330
B518
100
AcDbEntity
  8
1
  6
Continuous
100
AcDbLine
 10
53.58578699999998
 20
213.6281649999999
 30
0.0
 11
55.58578699999999
 21
215.6281649999999
 31
0.0
  0
LINE
  5
B5FF
330
B518
100
AcDbEntity
  8
1
  6
Continuous
100
AcDbLine
 10
53.34314599999999
 20
213.6281649999999
 30
0.0
 11
51.34314599999999
 21
215.6281649999999
 31
0.0
  0
LINE
  5
B600
330
B518
100
AcDbEntity
  8
1
  6
Continuous
100
AcDbLine
 10
50.75736
 20
213.6281649999999
 30
0.0
 11
52.75736
 21
215.6281649999999
 31
0.0
  0
LINE
  5
B601
330
B518
100
AcDbEntity
  8
1
  6
Continuous
100
AcDbLine
 10
52.171573
 20
213.6281649999999
 30
0.0
 11
54.17157299999999
 21
215.6281649999999
 31
0.0
  0
LINE
  5
B602
330
B518
100
AcDbEntity
  8
1
  6
Continuous
100
AcDbLine
 10
57.58578700000001
 20
213.6281649999999
 30
0.0
 11
55.58578699999999
 21
215.6281649999999
 31
0.0
  0
LINE
  5
B603
330
B518
100
AcDbEntity
  8
1
  6
Continuous
100
AcDbLine
 10
56.414214
 20
213.6281649999999
 30
0.0
 11
58.414214
 21
215.6281649999999
 31
0.0
  0
LINE
  5
B604
330
B518
100
AcDbEntity
  8
1
  6
Continuous
100
AcDbLine
 10
55.0
 20
213.6281649999999
 30
0.0
 11
57.0
 21
215.6281649999999
 31
0.0
  0
LINE
  5
B605
330
B518
100
AcDbEntity
  8
1
  6
Continuous
100
AcDbLine
 10
69.5
 20
199.3208709999999
 30
0.0
 11
69.5
 21
140.935459
 31
0.0
  0
LINE
  5
B606
330
B518
100
AcDbEntity
  8
1
  6
Continuous
100
AcDbLine
 10
75.04999999999999
 20
201.1281649999999
 30
0.0
 11
75.04999999999999
 21
190.060122
 31
0.0
  0
LINE
  5
B607
330
B518
100
AcDbEntity
  8
1
  6
Continuous
100
AcDbLine
 10
72.75
 20
203.1281649999999
 30
0.0
 11
72.75
 21
159.3781649999999
 31
0.0
  0
LINE
  5
B608
330
B518
100
AcDbEntity
  8
1
  6
Continuous
100
AcDbLine
 10
82.0
 20
210.628165
 30
0.0
 11
82.0
 21
202.144976
 31
0.0
  0
ARC
  5
B609
330
B518
100
AcDbEntity
  8
1
  6
Continuous
100
AcDbCircle
 10
70.59999999999998
 20
161.128165
 30
0.0
 40
1.5
100
AcDbArc
 50
270.0
 51
0.0
  0
ARC
  5
B60A
330
B518
100
AcDbEntity
  8
1
  6
Continuous
100
AcDbCircle
 10
64.0
 20
175.587229
 30
0.0
 40
18.0
100
AcDbArc
 50
319.387472
 51
323.010534
  0
LINE
  5
B60B
330
B518
100
AcDbEntity
  8
1
  6
Continuous
100
AcDbLine
 10
72.75
 20
159.3781649999999
 30
0.0
 11
73.40898100000003
 21
159.3781649999999
 31
0.0
  0
ARC
  5
B60C
330
B518
100
AcDbEntity
  8
1
  6
Continuous
100
AcDbCircle
 10
66.5
 20
140.935459
 30
0.0
 40
3.0
100
AcDbArc
 50
273.705371
 51
0.0
  0
LINE
  5
B60D
330
B518
100
AcDbEntity
  8
1
  6
Continuous
100
AcDbLine
 10
69.5
 20
159.6281649999999
 30
0.0
 11
70.59999999999998
 21
159.6281649999999
 31
0.0
  0
LINE
  5
B60E
330
B518
100
AcDbEntity
  8
1
  6
Continuous
100
AcDbLine
 10
72.09999999999998
 20
161.128165
 30
0.0
 11
72.09999999999998
 21
179.1281649999999
 31
0.0
  0
LINE
  5
B60F
330
B518
100
AcDbEntity
  8
1
  6
Continuous
100
AcDbLine
 10
72.09999999999998
 20
166.128165
 30
0.0
 11
72.75
 21
166.128165
 31
0.0
  0
LINE
  5
B610
330
B518
100
AcDbEntity
  8
1
  6
Continuous
100
AcDbLine
 10
72.09999999999998
 20
174.1281649999999
 30
0.0
 11
72.75
 21
174.1281649999999
 31
0.0
  0
ARC
  5
B611
330
B518
100
AcDbEntity
  8
1
  6
Continuous
100
AcDbCircle
 10
70.59999999999998
 20
179.1281649999999
 30
0.0
 40
1.5
100
AcDbArc
 50
0.0
 51
90.0
  0
LINE
  5
B612
330
B518
100
AcDbEntity
  8
1
  6
Continuous
100
AcDbLine
 10
69.5
 20
180.628165
 30
0.0
 11
70.59999999999998
 21
180.628165
 31
0.0
  0
ARC
  5
B613
330
B518
100
AcDbEntity
  8
1
  6
Continuous
100
AcDbCircle
 10
68.75
 20
203.1281649999999
 30
0.0
 40
4.0
100
AcDbArc
 50
0.0
 51
90.0
  0
ARC
  5
B614
330
B518
100
AcDbEntity
  8
1
  6
Continuous
100
AcDbCircle
 10
69.05
 20
201.1281649999999
 30
0.0
 40
6.0
100
AcDbArc
 50
0.0
 51
90.0
  0
ARC
  5
B615
330
B518
100
AcDbEntity
  8
1
  6
Continuous
100
AcDbCircle
 10
66.5
 20
199.3208709999999
 30
0.0
 40
3.0
100
AcDbArc
 50
0.0
 51
86.294629
  0
LINE
  5
B616
330
B518
100
AcDbEntity
  8
1
  6
Continuous
100
AcDbLine
 10
75.970563
 20
213.6281649999999
 30
0.0
 11
73.970563
 21
215.6281649999999
 31
0.0
  0
LINE
  5
B617
330
B518
100
AcDbEntity
  8
1
  6
Continuous
100
AcDbLine
 10
74.79899
 20
213.6281649999999
 30
0.0
 11
76.79899
 21
215.6281649999999
 31
0.0
  0
LINE
  5
B618
330
B518
100
AcDbEntity
  8
1
  6
Continuous
100
AcDbLine
 10
73.384777
 20
213.6281649999999
 30
0.0
 11
75.384777
 21
215.6281649999999
 31
0.0
  0
LINE
  5
B619
330
B518
100
AcDbEntity
  8
1
  6
Continuous
100
AcDbLine
 10
67.48528199999999
 20
213.6281649999999
 30
0.0
 11
65.48528199999998
 21
215.6281649999999
 31
0.0
  0
LINE
  5
B61A
330
B518
100
AcDbEntity
  8
1
  6
Continuous
100
AcDbLine
 10
66.313709
 20
213.6281649999999
 30
0.0
 11
68.313709
 21
215.6281649999999
 31
0.0
  0
LINE
  5
B61B
330
B518
100
AcDbEntity
  8
1
  6
Continuous
100
AcDbLine
 10
64.899495
 20
213.6281649999999
 30
0.0
 11
66.899495
 21
215.6281649999999
 31
0.0
  0
LINE
  5
B61C
330
B518
100
AcDbEntity
  8
1
  6
Continuous
100
AcDbLine
 10
63.242641
 20
213.6281649999999
 30
0.0
 11
61.24264100000001
 21
215.6281649999999
 31
0.0
  0
LINE
  5
B61D
330
B518
100
AcDbEntity
  8
1
  6
Continuous
100
AcDbLine
 10
62.071068
 20
213.6281649999999
 30
0.0
 11
64.07106800000001
 21
215.6281649999999
 31
0.0
  0
LINE
  5
B61E
330
B518
100
AcDbEntity
  8
1
  6
Continuous
100
AcDbLine
 10
60.656854
 20
213.6281649999999
 30
0.0
 11
62.656854
 21
215.6281649999999
 31
0.0
  0
LINE
  5
B61F
330
B518
100
AcDbEntity
  8
1
  6
Continuous
100
AcDbLine
 10
61.82842700000001
 20
213.6281649999999
 30
0.0
 11
59.82842699999999
 21
215.6281649999999
 31
0.0
  0
LINE
  5
B620
330
B518
100
AcDbEntity
  8
1
  6
Continuous
100
AcDbLine
 10
59.24264100000001
 20
213.6281649999999
 30
0.0
 11
61.24264100000001
 21
215.6281649999999
 31
0.0
  0
LINE
  5
B621
330
B518
100
AcDbEntity
  8
1
  6
Continuous
100
AcDbLine
 10
66.07106800000001
 20
213.6281649999999
 30
0.0
 11
64.07106800000001
 21
215.6281649999999
 31
0.0
  0
LINE
  5
B622
330
B518
100
AcDbEntity
  8
1
  6
Continuous
100
AcDbLine
 10
64.65685400000001
 20
213.6281649999999
 30
0.0
 11
62.656854
 21
215.6281649999999
 31
0.0
  0
LINE
  5
B623
330
B518
100
AcDbEntity
  8
1
  6
Continuous
100
AcDbLine
 10
63.485282
 20
213.6281649999999
 30
0.0
 11
65.48528199999998
 21
215.6281649999999
 31
0.0
  0
LINE
  5
B624
330
B518
100
AcDbEntity
  8
1
  6
Continuous
100
AcDbLine
 10
71.72792199999998
 20
213.6281649999999
 30
0.0
 11
69.72792199999999
 21
215.6281649999999
 31
0.0
  0
LINE
  5
B625
330
B518
100
AcDbEntity
  8
1
  6
Continuous
100
AcDbLine
 10
70.556349
 20
213.6281649999999
 30
0.0
 11
72.55634899999998
 21
215.6281649999999
 31
0.0
  0
LINE
  5
B626
330
B518
100
AcDbEntity
  8
1
  6
Continuous
100
AcDbLine
 10
69.142136
 20
213.6281649999999
 30
0.0
 11
71.14213599999998
 21
215.6281649999999
 31
0.0
  0
LINE
  5
B627
330
B518
100
AcDbEntity
  8
1
  6
Continuous
100
AcDbLine
 10
70.313709
 20
213.6281649999999
 30
0.0
 11
68.313709
 21
215.6281649999999
 31
0.0
  0
LINE
  5
B628
330
B518
100
AcDbEntity
  8
1
  6
Continuous
100
AcDbLine
 10
68.899495
 20
213.6281649999999
 30
0.0
 11
66.899495
 21
215.6281649999999
 31
0.0
  0
LINE
  5
B629
330
B518
100
AcDbEntity
  8
1
  6
Continuous
100
AcDbLine
 10
67.72792199999999
 20
213.6281649999999
 30
0.0
 11
69.72792199999999
 21
215.6281649999999
 31
0.0
  0
LINE
  5
B62A
330
B518
100
AcDbEntity
  8
1
  6
Continuous
100
AcDbLine
 10
74.55634899999998
 20
213.6281649999999
 30
0.0
 11
72.55634899999998
 21
215.6281649999999
 31
0.0
  0
LINE
  5
B62B
330
B518
100
AcDbEntity
  8
1
  6
Continuous
100
AcDbLine
 10
73.14213599999998
 20
213.6281649999999
 30
0.0
 11
71.14213599999998
 21
215.6281649999999
 31
0.0
  0
LINE
  5
B62C
330
B518
100
AcDbEntity
  8
1
  6
Continuous
100
AcDbLine
 10
71.97056299999998
 20
213.6281649999999
 30
0.0
 11
73.970563
 21
215.6281649999999
 31
0.0
  0
LINE
  5
B62D
330
B518
100
AcDbEntity
  8
4
  6
CENTER
100
AcDbLine
 10
82.0
 20
225.628165
 30
0.0
 11
82.0
 21
217.3281649999999
 31
0.0
  0
ARC
  5
B62E
330
B518
100
AcDbEntity
  8
1
  6
Continuous
100
AcDbCircle
 10
79.5
 20
222.728165
 30
0.0
 40
5.099999999999997
100
AcDbArc
 50
270.0
 51
331.9275129999998
  0
ARC
  5
B62F
330
B518
100
AcDbEntity
  8
1
  6
Continuous
100
AcDbCircle
 10
79.0
 20
210.628165
 30
0.0
 40
3.0
100
AcDbArc
 50
0.0
 51
90.0
  0
LINE
  5
B630
330
B518
100
AcDbEntity
  8
1
  6
Continuous
100
AcDbLine
 10
79.5
 20
214.341369
 30
0.0
 11
78.21320400000002
 21
215.6281649999999
 31
0.0
  0
LINE
  5
B631
330
B518
100
AcDbEntity
  8
1
  6
Continuous
100
AcDbLine
 10
77.62741699999998
 20
213.6281649999999
 30
0.0
 11
79.5
 21
215.500748
 31
0.0
  0
LINE
  5
B632
330
B518
100
AcDbEntity
  8
1
  6
Continuous
100
AcDbLine
 10
78.79899
 20
213.6281649999999
 30
0.0
 11
76.79899
 21
215.6281649999999
 31
0.0
  0
LINE
  5
B633
330
B518
100
AcDbEntity
  8
1
  6
Continuous
100
AcDbLine
 10
77.384777
 20
213.6281649999999
 30
0.0
 11
75.384777
 21
215.6281649999999
 31
0.0
  0
LINE
  5
B634
330
B518
100
AcDbEntity
  8
1
  6
Continuous
100
AcDbLine
 10
76.213204
 20
213.6281649999999
 30
0.0
 11
78.21320400000002
 21
215.6281649999999
 31
0.0
  0
LINE
  5
B635
330
B518
100
AcDbEntity
  8
1
  6
Continuous
100
AcDbLine
 10
79.04163100000002
 20
213.6281649999999
 30
0.0
 11
79.5
 21
214.0865349999999
 31
0.0
  0
LINE
  5
B636
330
B518
100
AcDbEntity
  8
1
  6
Continuous
100
AcDbLine
 10
79.5
 20
217.6281649999999
 30
0.0
 11
79.5
 21
213.6281649999999
 31
0.0
  0
LINE
  5
B637
330
B518
100
AcDbEntity
  8
1
  6
Continuous
100
AcDbLine
 10
89.0
 20
220.328165
 30
0.0
 11
89.0
 21
222.628165
 31
0.0
  0
ARC
  5
B638
330
B518
100
AcDbEntity
  8
1
  6
Continuous
100
AcDbCircle
 10
284.5
 20
222.728165
 30
0.0
 40
5.099999999999997
100
AcDbArc
 50
208.072487
 51
270.0
  0
LINE
  5
B639
330
B518
100
AcDbEntity
  8
1
  6
Continuous
100
AcDbLine
 10
339.0
 20
222.628165
 30
0.0
 11
275.0
 21
222.628165
 31
0.0
  0
LINE
  5
B63A
330
B518
100
AcDbEntity
  8
1
  6
Continuous
100
AcDbLine
 10
339.0
 20
220.328165
 30
0.0
 11
275.0
 21
220.328165
 31
0.0
  0
LINE
  5
B63B
330
B518
100
AcDbEntity
  8
1
  6
Continuous
100
AcDbLine
 10
294.4999999999998
 20
199.557607
 30
0.0
 11
294.4999999999998
 21
140.935459
 31
0.0
  0
LINE
  5
B63C
330
B518
100
AcDbEntity
  8
1
  6
Continuous
100
AcDbLine
 10
319.5
 20
199.557607
 30
0.0
 11
319.5
 21
140.935459
 31
0.0
  0
LINE
  5
B63D
330
B518
100
AcDbEntity
  8
4
  6
CENTER
100
AcDbLine
 10
307.0
 20
225.628165
 30
0.0
 11
307.0
 21
135.6281649999999
 31
0.0
  0
ARC
  5
B63E
330
B518
100
AcDbEntity
  8
1
  6
Continuous
100
AcDbCircle
 10
307.0
 20
287.6281649999999
 30
0.0
 40
150.0
100
AcDbArc
 50
266.2946289999998
 51
273.705371
  0
ARC
  5
B63F
330
B518
100
AcDbEntity
  8
1
  6
Continuous
100
AcDbCircle
 10
316.5
 20
140.935459
 30
0.0
 40
3.0
100
AcDbArc
 50
273.705371
 51
0.0
  0
ARC
  5
B640
330
B518
100
AcDbEntity
  8
1
  6
Continuous
100
AcDbCircle
 10
297.5
 20
140.935459
 30
0.0
 40
3.0
100
AcDbArc
 50
180.0
 51
266.2946289999998
  0
LINE
  5
B641
330
B518
100
AcDbEntity
  8
1
  6
Continuous
100
AcDbLine
 10
282.0
 20
210.628165
 30
0.0
 11
282.0
 21
175.587229
 31
0.0
  0
LINE
  5
B642
330
B518
100
AcDbEntity
  8
1
  6
Continuous
100
AcDbLine
 10
291.25
 20
193.3010439999999
 30
0.0
 11
291.25
 21
159.3781649999999
 31
0.0
  0
LINE
  5
B643
330
B518
100
AcDbEntity
  8
1
  6
Continuous
100
AcDbLine
 10
332.0
 20
210.628165
 30
0.0
 11
332.0
 21
175.587229
 31
0.0
  0
LINE
  5
B644
330
B518
100
AcDbEntity
  8
1
  6
Continuous
100
AcDbLine
 10
322.75
 20
159.3781649999999
 30
0.0
 11
322.75
 21
193.3010439999999
 31
0.0
  0
LINE
  5
B645
330
B518
100
AcDbEntity
  8
1
  6
Continuous
100
AcDbLine
 10
325.05
 20
161.3781649999999
 30
0.0
 11
325.05
 21
159.3781649999999
 31
0.0
  0
LINE
  5
B646
330
B518
100
AcDbEntity
  8
4
  6
CENTER
100
AcDbLine
 10
332.05
 20
170.128165
 30
0.0
 11
283.95
 21
170.128165
 31
0.0
  0
LINE
  5
B647
330
B518
100
AcDbEntity
  8
1
  6
Continuous
100
AcDbLine
 10
322.1
 20
161.128165
 30
0.0
 11
322.1
 21
179.1281649999999
 31
0.0
  0
ARC
  5
B648
330
B518
100
AcDbEntity
  8
1
  6
Continuous
100
AcDbCircle
 10
314.0
 20
175.587229
 30
0.0
 40
18.0
100
AcDbArc
 50
307.871229
 51
0.0
  0
LINE
  5
B649
330
B518
100
AcDbEntity
  8
1
  6
Continuous
100
AcDbLine
 10
322.75
 20
166.128165
 30
0.0
 11
322.1
 21
166.128165
 31
0.0
  0
ARC
  5
B64A
330
B518
100
AcDbEntity
  8
1
  6
Continuous
100
AcDbCircle
 10
320.6
 20
161.128165
 30
0.0
 40
1.5
100
AcDbArc
 50
270.0
 51
0.0
  0
LINE
  5
B64B
330
B518
100
AcDbEntity
  8
1
  6
Continuous
100
AcDbLine
 10
325.05
 20
159.3781649999999
 30
0.0
 11
322.75
 21
159.3781649999999
 31
0.0
  0
LINE
  5
B64C
330
B518
100
AcDbEntity
  8
1
  6
Continuous
100
AcDbLine
 10
320.6
 20
159.6281649999999
 30
0.0
 11
319.5
 21
159.6281649999999
 31
0.0
  0
LINE
  5
B64D
330
B518
100
AcDbEntity
  8
1
  6
Continuous
100
AcDbLine
 10
322.75
 20
174.1281649999999
 30
0.0
 11
322.1
 21
174.1281649999999
 31
0.0
  0
ARC
  5
B64E
330
B518
100
AcDbEntity
  8
1
  6
Continuous
100
AcDbCircle
 10
320.6
 20
179.1281649999999
 30
0.0
 40
1.5
100
AcDbArc
 50
0.0
 51
90.0
  0
LINE
  5
B64F
330
B518
100
AcDbEntity
  8
1
  6
Continuous
100
AcDbLine
 10
320.6
 20
180.628165
 30
0.0
 11
319.5
 21
180.628165
 31
0.0
  0
LINE
  5
B650
330
B518
100
AcDbEntity
  8
1
  6
Continuous
100
AcDbLine
 10
291.9
 20
161.128165
 30
0.0
 11
291.9
 21
179.1281649999999
 31
0.0
  0
ARC
  5
B651
330
B518
100
AcDbEntity
  8
1
  6
Continuous
100
AcDbCircle
 10
300.0
 20
175.587229
 30
0.0
 40
18.0
100
AcDbArc
 50
180.0
 51
213.086743
  0
LINE
  5
B652
330
B518
100
AcDbEntity
  8
1
  6
Continuous
100
AcDbLine
 10
291.25
 20
159.3781649999999
 30
0.0
 11
290.591019
 21
159.3781649999999
 31
0.0
  0
LINE
  5
B653
330
B518
100
AcDbEntity
  8
1
  6
Continuous
100
AcDbLine
 10
291.9
 20
166.128165
 30
0.0
 11
291.25
 21
166.128165
 31
0.0
  0
LINE
  5
B654
330
B518
100
AcDbEntity
  8
1
  6
Continuous
100
AcDbLine
 10
294.4999999999998
 20
159.6281649999999
 30
0.0
 11
293.3999999999999
 21
159.6281649999999
 31
0.0
  0
ARC
  5
B655
330
B518
100
AcDbEntity
  8
1
  6
Continuous
100
AcDbCircle
 10
293.3999999999999
 20
161.128165
 30
0.0
 40
1.5
100
AcDbArc
 50
180.0
 51
270.0
  0
LINE
  5
B656
330
B518
100
AcDbEntity
  8
1
  6
Continuous
100
AcDbLine
 10
294.4999999999998
 20
180.628165
 30
0.0
 11
293.3999999999999
 21
180.628165
 31
0.0
  0
ARC
  5
B657
330
B518
100
AcDbEntity
  8
1
  6
Continuous
100
AcDbCircle
 10
293.3999999999999
 20
179.1281649999999
 30
0.0
 40
1.5
100
AcDbArc
 50
90.0
 51
180.0
  0
LINE
  5
B658
330
B518
100
AcDbEntity
  8
1
  6
Continuous
100
AcDbLine
 10
291.9
 20
174.1281649999999
 30
0.0
 11
291.25
 21
174.1281649999999
 31
0.0
  0
LINE
  5
B659
330
B518
100
AcDbEntity
  8
1
  6
Continuous
100
AcDbLine
 10
311.8284269999999
 20
213.6281649999999
 30
0.0
 11
309.8284269999999
 21
215.6281649999999
 31
0.0
  0
LINE
  5
B65A
330
B518
100
AcDbEntity
  8
1
  6
Continuous
100
AcDbLine
 10
313.2426399999999
 20
213.6281649999999
 30
0.0
 11
311.2426399999999
 21
215.6281649999999
 31
0.0
  0
LINE
  5
B65B
330
B518
100
AcDbEntity
  8
1
  6
Continuous
100
AcDbLine
 10
310.656854
 20
213.6281649999999
 30
0.0
 11
312.656854
 21
215.6281649999999
 31
0.0
  0
LINE
  5
B65C
330
B518
100
AcDbEntity
  8
1
  6
Continuous
100
AcDbLine
 10
329.4999999999999
 20
213.6281649999999
 30
0.0
 11
284.5
 21
213.6281649999999
 31
0.0
  0
LINE
  5
B65D
330
B518
100
AcDbEntity
  8
1
  6
Continuous
100
AcDbLine
 10
329.4999999999999
 20
215.6281649999999
 30
0.0
 11
284.5
 21
215.6281649999999
 31
0.0
  0
LINE
  5
B65E
330
B518
100
AcDbEntity
  8
1
  6
Continuous
100
AcDbLine
 10
329.4999999999999
 20
217.6281649999999
 30
0.0
 11
284.5
 21
217.6281649999999
 31
0.0
  0
ARC
  5
B65F
330
B518
100
AcDbEntity
  8
1
  6
Continuous
100
AcDbCircle
 10
307.0
 20
52.628165
 30
0.0
 40
150.0
100
AcDbArc
 50
85.79771200000001
 51
94.202288
  0
LINE
  5
B660
330
B518
100
AcDbEntity
  8
1
  6
Continuous
100
AcDbLine
 10
328.7989899999999
 20
213.6281649999999
 30
0.0
 11
326.7989899999999
 21
215.6281649999999
 31
0.0
  0
LINE
  5
B661
330
B518
100
AcDbEntity
  8
1
  6
Continuous
100
AcDbLine
 10
326.2132029999999
 20
213.6281649999999
 30
0.0
 11
328.2132029999999
 21
215.6281649999999
 31
0.0
  0
LINE
  5
B662
330
B518
100
AcDbEntity
  8
1
  6
Continuous
100
AcDbLine
 10
339.0
 20
220.328165
 30
0.0
 11
339.0
 21
222.628165
 31
0.0
  0
LINE
  5
B663
330
B518
100
AcDbEntity
  8
1
  6
Continuous
100
AcDbLine
 10
329.4999999999999
 20
217.6281649999999
 30
0.0
 11
329.4999999999999
 21
213.6281649999999
 31
0.0
  0
LINE
  5
B664
330
B518
100
AcDbEntity
  8
1
  6
Continuous
100
AcDbLine
 10
329.4999999999999
 20
214.341369
 30
0.0
 11
328.2132029999999
 21
215.6281649999999
 31
0.0
  0
LINE
  5
B665
330
B518
100
AcDbEntity
  8
1
  6
Continuous
100
AcDbLine
 10
329.4999999999999
 20
215.500748
 30
0.0
 11
327.6274169999999
 21
213.6281649999999
 31
0.0
  0
LINE
  5
B666
330
B518
100
AcDbEntity
  8
1
  6
Continuous
100
AcDbLine
 10
329.4999999999999
 20
214.0865349999999
 30
0.0
 11
329.0416299999999
 21
213.6281649999999
 31
0.0
  0
ARC
  5
B667
330
B518
100
AcDbEntity
  8
1
  6
Continuous
100
AcDbCircle
 10
329.0
 20
210.628165
 30
0.0
 40
3.0
100
AcDbArc
 50
0.0
 51
90.0
  0
LINE
  5
B668
330
B518
100
AcDbEntity
  8
4
  6
CENTER
100
AcDbLine
 10
332.0
 20
225.628165
 30
0.0
 11
332.0
 21
217.3281649999999
 31
0.0
  0
ARC
  5
B669
330
B518
100
AcDbEntity
  8
1
  6
Continuous
100
AcDbCircle
 10
329.4999999999999
 20
222.728165
 30
0.0
 40
5.099999999999997
100
AcDbArc
 50
270.0
 51
331.9275129999998
  0
LINE
  5
B66A
330
B518
100
AcDbEntity
  8
1
  6
Continuous
100
AcDbLine
 10
323.142135
 20
213.6281649999999
 30
0.0
 11
321.142135
 21
215.6281649999999
 31
0.0
  0
LINE
  5
B66B
330
B518
100
AcDbEntity
  8
1
  6
Continuous
100
AcDbLine
 10
320.556349
 20
213.6281649999999
 30
0.0
 11
322.556349
 21
215.6281649999999
 31
0.0
  0
LINE
  5
B66C
330
B518
100
AcDbEntity
  8
1
  6
Continuous
100
AcDbLine
 10
321.9705629999999
 20
213.6281649999999
 30
0.0
 11
323.9705629999999
 21
215.6281649999999
 31
0.0
  0
LINE
  5
B66D
330
B518
100
AcDbEntity
  8
1
  6
Continuous
100
AcDbLine
 10
324.556349
 20
213.6281649999999
 30
0.0
 11
322.556349
 21
215.6281649999999
 31
0.0
  0
LINE
  5
B66E
330
B518
100
AcDbEntity
  8
1
  6
Continuous
100
AcDbLine
 10
325.9705629999999
 20
213.6281649999999
 30
0.0
 11
323.9705629999999
 21
215.6281649999999
 31
0.0
  0
LINE
  5
B66F
330
B518
100
AcDbEntity
  8
1
  6
Continuous
100
AcDbLine
 10
323.3847759999998
 20
213.6281649999999
 30
0.0
 11
325.3847759999998
 21
215.6281649999999
 31
0.0
  0
LINE
  5
B670
330
B518
100
AcDbEntity
  8
1
  6
Continuous
100
AcDbLine
 10
327.3847759999998
 20
213.6281649999999
 30
0.0
 11
325.3847759999998
 21
215.6281649999999
 31
0.0
  0
LINE
  5
B671
330
B518
100
AcDbEntity
  8
1
  6
Continuous
100
AcDbLine
 10
324.79899
 20
213.6281649999999
 30
0.0
 11
326.7989899999999
 21
215.6281649999999
 31
0.0
  0
LINE
  5
B672
330
B518
100
AcDbEntity
  8
1
  6
Continuous
100
AcDbLine
 10
321.7279219999999
 20
213.6281649999999
 30
0.0
 11
319.7279219999999
 21
215.6281649999999
 31
0.0
  0
LINE
  5
B673
330
B518
100
AcDbEntity
  8
1
  6
Continuous
100
AcDbLine
 10
319.142135
 20
213.6281649999999
 30
0.0
 11
321.142135
 21
215.6281649999999
 31
0.0
  0
LINE
  5
B674
330
B518
100
AcDbEntity
  8
1
  6
Continuous
100
AcDbLine
 10
316.0710680000001
 20
213.6281649999999
 30
0.0
 11
314.0710680000001
 21
215.6281649999999
 31
0.0
  0
LINE
  5
B675
330
B518
100
AcDbEntity
  8
1
  6
Continuous
100
AcDbLine
 10
317.4852809999998
 20
213.6281649999999
 30
0.0
 11
315.4852809999998
 21
215.6281649999999
 31
0.0
  0
LINE
  5
B676
330
B518
100
AcDbEntity
  8
1
  6
Continuous
100
AcDbLine
 10
314.899495
 20
213.6281649999999
 30
0.0
 11
316.899495
 21
215.6281649999999
 31
0.0
  0
LINE
  5
B677
330
B518
100
AcDbEntity
  8
1
  6
Continuous
100
AcDbLine
 10
316.313708
 20
213.6281649999999
 30
0.0
 11
318.313708
 21
215.6281649999999
 31
0.0
  0
LINE
  5
B678
330
B518
100
AcDbEntity
  8
1
  6
Continuous
100
AcDbLine
 10
314.656854
 20
213.6281649999999
 30
0.0
 11
312.656854
 21
215.6281649999999
 31
0.0
  0
LINE
  5
B679
330
B518
100
AcDbEntity
  8
1
  6
Continuous
100
AcDbLine
 10
312.0710680000001
 20
213.6281649999999
 30
0.0
 11
314.0710680000001
 21
215.6281649999999
 31
0.0
  0
LINE
  5
B67A
330
B518
100
AcDbEntity
  8
1
  6
Continuous
100
AcDbLine
 10
313.4852809999998
 20
213.6281649999999
 30
0.0
 11
315.4852809999998
 21
215.6281649999999
 31
0.0
  0
LINE
  5
B67B
330
B518
100
AcDbEntity
  8
1
  6
Continuous
100
AcDbLine
 10
320.313708
 20
213.6281649999999
 30
0.0
 11
318.313708
 21
215.6281649999999
 31
0.0
  0
LINE
  5
B67C
330
B518
100
AcDbEntity
  8
1
  6
Continuous
100
AcDbLine
 10
318.899495
 20
213.6281649999999
 30
0.0
 11
316.899495
 21
215.6281649999999
 31
0.0
  0
LINE
  5
B67D
330
B518
100
AcDbEntity
  8
1
  6
Continuous
100
AcDbLine
 10
317.7279219999999
 20
213.6281649999999
 30
0.0
 11
319.7279219999999
 21
215.6281649999999
 31
0.0
  0
LINE
  5
B67E
330
B518
100
AcDbEntity
  8
1
  6
Continuous
100
AcDbLine
 10
296.2720779999999
 20
213.6281649999999
 30
0.0
 11
294.2720779999999
 21
215.6281649999999
 31
0.0
  0
LINE
  5
B67F
330
B518
100
AcDbEntity
  8
1
  6
Continuous
100
AcDbLine
 10
295.100505
 20
213.6281649999999
 30
0.0
 11
297.100505
 21
215.6281649999999
 31
0.0
  0
LINE
  5
B680
330
B518
100
AcDbEntity
  8
1
  6
Continuous
100
AcDbLine
 10
293.6862909999998
 20
213.6281649999999
 30
0.0
 11
295.6862909999999
 21
215.6281649999999
 31
0.0
  0
LINE
  5
B681
330
B518
100
AcDbEntity
  8
1
  6
Continuous
100
AcDbLine
 10
307.5857859999999
 20
213.6281649999999
 30
0.0
 11
305.5857859999999
 21
215.6281649999999
 31
0.0
  0
LINE
  5
B682
330
B518
100
AcDbEntity
  8
1
  6
Continuous
100
AcDbLine
 10
305.0
 20
213.6281649999999
 30
0.0
 11
307.0
 21
215.6281649999999
 31
0.0
  0
LINE
  5
B683
330
B518
100
AcDbEntity
  8
1
  6
Continuous
100
AcDbLine
 10
309.0
 20
213.6281649999999
 30
0.0
 11
307.0
 21
215.6281649999999
 31
0.0
  0
LINE
  5
B684
330
B518
100
AcDbEntity
  8
1
  6
Continuous
100
AcDbLine
 10
306.4142129999999
 20
213.6281649999999
 30
0.0
 11
308.4142129999999
 21
215.6281649999999
 31
0.0
  0
LINE
  5
B685
330
B518
100
AcDbEntity
  8
1
  6
Continuous
100
AcDbLine
 10
310.4142129999999
 20
213.6281649999999
 30
0.0
 11
308.4142129999999
 21
215.6281649999999
 31
0.0
  0
LINE
  5
B686
330
B518
100
AcDbEntity
  8
1
  6
Continuous
100
AcDbLine
 10
307.8284269999999
 20
213.6281649999999
 30
0.0
 11
309.8284269999999
 21
215.6281649999999
 31
0.0
  0
LINE
  5
B687
330
B518
100
AcDbEntity
  8
1
  6
Continuous
100
AcDbLine
 10
309.2426399999999
 20
213.6281649999999
 30
0.0
 11
311.2426399999999
 21
215.6281649999999
 31
0.0
  0
LINE
  5
B688
330
B518
100
AcDbEntity
  8
1
  6
Continuous
100
AcDbLine
 10
304.757359
 20
213.6281649999999
 30
0.0
 11
302.757359
 21
215.6281649999999
 31
0.0
  0
LINE
  5
B689
330
B518
100
AcDbEntity
  8
1
  6
Continuous
100
AcDbLine
 10
306.171573
 20
213.6281649999999
 30
0.0
 11
304.171573
 21
215.6281649999999
 31
0.0
  0
LINE
  5
B68A
330
B518
100
AcDbEntity
  8
1
  6
Continuous
100
AcDbLine
 10
303.585786
 20
213.6281649999999
 30
0.0
 11
305.5857859999999
 21
215.6281649999999
 31
0.0
  0
LINE
  5
B68B
330
B518
100
AcDbEntity
  8
1
  6
Continuous
100
AcDbLine
 10
300.514718
 20
213.6281649999999
 30
0.0
 11
298.514718
 21
215.6281649999999
 31
0.0
  0
LINE
  5
B68C
330
B518
100
AcDbEntity
  8
1
  6
Continuous
100
AcDbLine
 10
299.343146
 20
213.6281649999999
 30
0.0
 11
301.343146
 21
215.6281649999999
 31
0.0
  0
LINE
  5
B68D
330
B518
100
AcDbEntity
  8
1
  6
Continuous
100
AcDbLine
 10
297.9289319999999
 20
213.6281649999999
 30
0.0
 11
299.9289319999999
 21
215.6281649999999
 31
0.0
  0
LINE
  5
B68E
330
B518
100
AcDbEntity
  8
1
  6
Continuous
100
AcDbLine
 10
301.9289319999999
 20
213.6281649999999
 30
0.0
 11
299.9289319999999
 21
215.6281649999999
 31
0.0
  0
LINE
  5
B68F
330
B518
100
AcDbEntity
  8
1
  6
Continuous
100
AcDbLine
 10
299.100505
 20
213.6281649999999
 30
0.0
 11
297.100505
 21
215.6281649999999
 31
0.0
  0
LINE
  5
B690
330
B518
100
AcDbEntity
  8
1
  6
Continuous
100
AcDbLine
 10
297.6862909999999
 20
213.6281649999999
 30
0.0
 11
295.6862909999999
 21
215.6281649999999
 31
0.0
  0
LINE
  5
B691
330
B518
100
AcDbEntity
  8
1
  6
Continuous
100
AcDbLine
 10
296.514718
 20
213.6281649999999
 30
0.0
 11
298.514718
 21
215.6281649999999
 31
0.0
  0
LINE
  5
B692
330
B518
100
AcDbEntity
  8
1
  6
Continuous
100
AcDbLine
 10
302.171573
 20
213.6281649999999
 30
0.0
 11
304.171573
 21
215.6281649999999
 31
0.0
  0
LINE
  5
B693
330
B518
100
AcDbEntity
  8
1
  6
Continuous
100
AcDbLine
 10
303.343146
 20
213.6281649999999
 30
0.0
 11
301.343146
 21
215.6281649999999
 31
0.0
  0
LINE
  5
B694
330
B518
100
AcDbEntity
  8
1
  6
Continuous
100
AcDbLine
 10
300.757359
 20
213.6281649999999
 30
0.0
 11
302.757359
 21
215.6281649999999
 31
0.0
  0
LINE
  5
B695
330
B518
100
AcDbEntity
  8
1
  6
Continuous
100
AcDbLine
 10
292.0294369999999
 20
213.6281649999999
 30
0.0
 11
290.0294369999999
 21
215.6281649999999
 31
0.0
  0
LINE
  5
B696
330
B518
100
AcDbEntity
  8
1
  6
Continuous
100
AcDbLine
 10
289.4436509999998
 20
213.6281649999999
 30
0.0
 11
291.4436509999998
 21
215.6281649999999
 31
0.0
  0
LINE
  5
B697
330
B518
100
AcDbEntity
  8
1
  6
Continuous
100
AcDbLine
 10
290.615223
 20
213.6281649999999
 30
0.0
 11
288.615223
 21
215.6281649999999
 31
0.0
  0
LINE
  5
B698
330
B518
100
AcDbEntity
  8
1
  6
Continuous
100
AcDbLine
 10
290.8578639999999
 20
213.6281649999999
 30
0.0
 11
292.8578639999999
 21
215.6281649999999
 31
0.0
  0
LINE
  5
B699
330
B518
100
AcDbEntity
  8
1
  6
Continuous
100
AcDbLine
 10
294.857864
 20
213.6281649999999
 30
0.0
 11
292.8578639999999
 21
215.6281649999999
 31
0.0
  0
LINE
  5
B69A
330
B518
100
AcDbEntity
  8
1
  6
Continuous
100
AcDbLine
 10
293.4436509999999
 20
213.6281649999999
 30
0.0
 11
291.4436509999998
 21
215.6281649999999
 31
0.0
  0
LINE
  5
B69B
330
B518
100
AcDbEntity
  8
1
  6
Continuous
100
AcDbLine
 10
292.2720779999999
 20
213.6281649999999
 30
0.0
 11
294.2720779999999
 21
215.6281649999999
 31
0.0
  0
LINE
  5
B69C
330
B518
100
AcDbEntity
  8
1
  6
Continuous
100
AcDbLine
 10
286.615223
 20
213.6281649999999
 30
0.0
 11
288.615223
 21
215.6281649999999
 31
0.0
  0
LINE
  5
B69D
330
B518
100
AcDbEntity
  8
1
  6
Continuous
100
AcDbLine
 10
289.2010099999998
 20
213.6281649999999
 30
0.0
 11
287.20101
 21
215.6281649999999
 31
0.0
  0
LINE
  5
B69E
330
B518
100
AcDbEntity
  8
1
  6
Continuous
100
AcDbLine
 10
288.0294369999999
 20
213.6281649999999
 30
0.0
 11
290.0294369999999
 21
215.6281649999999
 31
0.0
  0
LINE
  5
B69F
330
B518
100
AcDbEntity
  8
1
  6
Continuous
100
AcDbLine
 10
284.5
 20
217.6281649999999
 30
0.0
 11
284.5
 21
213.6281649999999
 31
0.0
  0
LINE
  5
B6A0
330
B518
100
AcDbEntity
  8
1
  6
Continuous
100
AcDbLine
 10
284.958369
 20
213.6281649999999
 30
0.0
 11
284.5
 21
214.0865349999999
 31
0.0
  0
LINE
  5
B6A1
330
B518
100
AcDbEntity
  8
1
  6
Continuous
100
AcDbLine
 10
286.372583
 20
213.6281649999999
 30
0.0
 11
284.5
 21
215.500748
 31
0.0
  0
LINE
  5
B6A2
330
B518
100
AcDbEntity
  8
1
  6
Continuous
100
AcDbLine
 10
284.5
 20
214.341369
 30
0.0
 11
285.7867959999999
 21
215.6281649999999
 31
0.0
  0
ARC
  5
B6A3
330
B518
100
AcDbEntity
  8
1
  6
Continuous
100
AcDbCircle
 10
285.0
 20
210.628165
 30
0.0
 40
3.0
100
AcDbArc
 50
90.0
 51
180.0
  0
LINE
  5
B6A4
330
B518
100
AcDbEntity
  8
4
  6
CENTER
100
AcDbLine
 10
282.0
 20
225.628165
 30
0.0
 11
282.0
 21
217.3281649999999
 31
0.0
  0
LINE
  5
B6A5
330
B518
100
AcDbEntity
  8
1
  6
Continuous
100
AcDbLine
 10
287.7867959999999
 20
213.6281649999999
 30
0.0
 11
285.7867959999999
 21
215.6281649999999
 31
0.0
  0
LINE
  5
B6A6
330
B518
100
AcDbEntity
  8
1
  6
Continuous
100
AcDbLine
 10
285.20101
 20
213.6281649999999
 30
0.0
 11
287.20101
 21
215.6281649999999
 31
0.0
  0
LINE
  5
B6A7
330
B518
100
AcDbEntity
  8
1
  6
Continuous
100
AcDbLine
 10
275.0
 20
220.328165
 30
0.0
 11
275.0
 21
222.628165
 31
0.0
  0
LINE
  5
B6A8
330
B518
100
AcDbEntity
  8
4
  6
CENTER
100
AcDbLine
 10
213.2499999999998
 20
48.0
 30
0.0
 11
200.7499999999998
 21
48.0
 31
0.0
  0
ARC
  5
B6A9
330
B518
100
AcDbEntity
  8
1
  6
Continuous
100
AcDbCircle
 10
208.0
 20
47.0
 30
0.0
 40
6.0
100
AcDbArc
 50
270.0
 51
0.0
  0
LINE
  5
B6AA
330
B518
100
AcDbEntity
  8
4
  6
CENTER
100
AcDbLine
 10
213.2499999999998
 20
98.0
 30
0.0
 11
200.7499999999998
 21
98.0
 31
0.0
  0
ARC
  5
B6AB
330
B518
100
AcDbEntity
  8
1
  6
Continuous
100
AcDbCircle
 10
208.0
 20
99.0
 30
0.0
 40
6.0
100
AcDbArc
 50
0.0
 51
90.0
  0
LINE
  5
B6AC
330
B518
100
AcDbEntity
  8
4
  6
CENTER
100
AcDbLine
 10
217.0
 20
73.0
 30
0.0
 11
126.5
 21
73.0
 31
0.0
  0
ARC
  5
B6AD
330
B518
100
AcDbEntity
  8
1
  6
Continuous
100
AcDbCircle
 10
278.5
 20
73.0
 30
0.0
 40
150.0
100
AcDbArc
 50
176.2946289999999
 51
183.7053709999999
  0
ARC
  5
B6AE
330
B518
100
AcDbEntity
  8
1
  6
Continuous
100
AcDbCircle
 10
131.8072939999999
 20
82.5
 30
0.0
 40
3.0
100
AcDbArc
 50
90.0
 51
176.2946289999999
  0
ARC
  5
B6AF
330
B518
100
AcDbEntity
  8
1
  6
Continuous
100
AcDbCircle
 10
131.8072939999999
 20
63.5
 30
0.0
 40
3.0
100
AcDbArc
 50
183.7053709999999
 51
270.0
  0
LINE
  5
B6B0
330
B518
100
AcDbEntity
  8
1
  6
Continuous
100
AcDbLine
 10
150.0
 20
47.0
 30
0.0
 11
150.0
 21
60.5
 31
0.0
  0
LINE
  5
B6B1
330
B518
100
AcDbEntity
  8
4
  6
CENTER
100
AcDbLine
 10
182.0
 20
38.0
 30
0.0
 11
182.0
 21
108.0
 31
0.0
  0
LINE
  5
B6B2
330
B518
100
AcDbEntity
  8
1
  6
Continuous
100
AcDbLine
 10
156.0
 20
105.0
 30
0.0
 11
183.355431
 21
105.0
 31
0.0
  0
LINE
  5
B6B3
330
B518
100
AcDbEntity
  8
4
  6
CENTER
100
AcDbLine
 10
157.0
 20
104.2499999999999
 30
0.0
 11
157.0
 21
91.75
 31
0.0
  0
ARC
  5
B6B4
330
B518
100
AcDbEntity
  8
1
  6
Continuous
100
AcDbCircle
 10
156.0
 20
99.0
 30
0.0
 40
6.0
100
AcDbArc
 50
90.0
 51
180.0
  0
ARC
  5
B6B5
330
B518
100
AcDbEntity
  8
1
  6
Continuous
100
AcDbCircle
 10
157.0
 20
98.0
 30
0.0
 40
3.25
100
AcDbArc
 50
154.287925
 51
188.0966789999999
  0
LINE
  5
B6B6
330
B518
100
AcDbEntity
  8
4
  6
CENTER
100
AcDbLine
 10
163.25
 20
98.0
 30
0.0
 11
150.75
 21
98.0
 31
0.0
  0
LINE
  5
B6B7
330
B518
100
AcDbEntity
  8
4
  6
CENTER
100
AcDbLine
 10
207.0
 20
104.2499999999999
 30
0.0
 11
207.0
 21
91.75
 31
0.0
  0
CIRCLE
  5
B6B8
330
B518
100
AcDbEntity
  8
1
  6
Continuous
100
AcDbCircle
 10
207.0
 20
98.0
 30
0.0
 40
3.25
  0
LINE
  5
B6B9
330
B518
100
AcDbEntity
  8
1
  6
Continuous
100
AcDbLine
 10
208.0
 20
41.0
 30
0.0
 11
156.0
 21
41.0
 31
0.0
  0
CIRCLE
  5
B6BA
330
B518
100
AcDbEntity
  8
1
  6
Continuous
100
AcDbCircle
 10
157.0
 20
48.0
 30
0.0
 40
3.25
  0
LINE
  5
B6BB
330
B518
100
AcDbEntity
  8
4
  6
CENTER
100
AcDbLine
 10
157.0
 20
54.25
 30
0.0
 11
157.0
 21
41.74999999999999
 31
0.0
  0
LINE
  5
B6BC
330
B518
100
AcDbEntity
  8
4
  6
CENTER
100
AcDbLine
 10
163.25
 20
48.0
 30
0.0
 11
150.75
 21
48.0
 31
0.0
  0
ARC
  5
B6BD
330
B518
100
AcDbEntity
  8
1
  6
Continuous
100
AcDbCircle
 10
156.0
 20
47.0
 30
0.0
 40
6.0
100
AcDbArc
 50
180.0
 51
270.0
  0
LINE
  5
B6BE
330
B518
100
AcDbEntity
  8
4
  6
CENTER
100
AcDbLine
 10
207.0
 20
54.25
 30
0.0
 11
207.0
 21
41.74999999999999
 31
0.0
  0
CIRCLE
  5
B6BF
330
B518
100
AcDbEntity
  8
1
  6
Continuous
100
AcDbCircle
 10
207.0
 20
48.0
 30
0.0
 40
3.25
  0
LINE
  5
B6C0
330
B518
100
AcDbEntity
  8
1
  6
Continuous
100
AcDbLine
 10
214.0
 20
99.0
 30
0.0
 11
214.0
 21
47.0
 31
0.0
  0
ARC
  5
B6C1
330
B518
100
AcDbEntity
  8
1
  6
Continuous
100
AcDbCircle
 10
174.677499
 20
114.282331
 30
0.0
 40
168.845076
100
AcDbArc
 50
22.10150399999999
 51
31.667971
  0
ARC
  5
B6C2
330
B518
100
AcDbEntity
  8
1
  6
Continuous
100
AcDbCircle
 10
439.322501
 20
114.282331
 30
0.0
 40
168.845076
100
AcDbArc
 50
148.3320289999998
 51
157.8984959999999
  0
ARC
  5
B6C3
330
B518
100
AcDbEntity
  8
1
  6
Continuous
100
AcDbCircle
 10
327.05
 20
159.777501
 30
0.0
 40
4.299999999999998
100
AcDbArc
 50
129.5376679999999
 51
180.0
  0
ARC
  5
B6C4
330
B518
100
AcDbEntity
  8
1
  6
Continuous
100
AcDbCircle
 10
310.187179
 20
178.2647019999998
 30
0.0
 40
20.728954
100
AcDbArc
 50
311.781926
 51
340.101046
  0
ARC
  5
B6C5
330
B518
100
AcDbEntity
  8
1
  6
Continuous
100
AcDbCircle
 10
321.8504419999998
 20
174.047565
 30
0.0
 40
10.0
100
AcDbArc
 50
348.9037369999999
 51
22.10150399999999
  0
ARC
  5
B6C6
330
B518
100
AcDbEntity
  8
1
  6
Continuous
100
AcDbCircle
 10
303.8128209999998
 20
178.2647019999998
 30
0.0
 40
20.728954
100
AcDbArc
 50
200.3067139999998
 51
205.795166
  0
ARC
  5
B6C7
330
B518
100
AcDbEntity
  8
1
  6
Continuous
100
AcDbCircle
 10
286.95
 20
159.777501
 30
0.0
 40
4.299999999999998
100
AcDbArc
 50
0.0
 51
32.140237
  0
ARC
  5
B6C8
330
B518
100
AcDbEntity
  8
1
  6
Continuous
100
AcDbCircle
 10
182.0
 20
73.0
 30
0.0
 40
25.0
100
AcDbArc
 50
233.2667379999999
 51
61.1349
  0
LINE
  5
B6C9
330
B518
100
AcDbEntity
  8
1
  6
Continuous
100
AcDbLine
 10
150.5
 20
85.5
 30
0.0
 11
150.5
 21
86.59999999999998
 31
0.0
  0
ARC
  5
B6CA
330
B518
100
AcDbEntity
  8
1
  6
Continuous
100
AcDbCircle
 10
152.0
 20
86.59999999999998
 30
0.0
 40
1.5
100
AcDbArc
 50
90.0
 51
180.0
  0
LINE
  5
B6CB
330
B518
100
AcDbEntity
  8
1
  6
Continuous
100
AcDbLine
 10
170.0
 20
88.09999999999998
 30
0.0
 11
152.0
 21
88.09999999999998
 31
0.0
  0
LINE
  5
B6CC
330
B518
100
AcDbEntity
  8
1
  6
Continuous
100
AcDbLine
 10
157.0
 20
88.09999999999998
 30
0.0
 11
157.0
 21
88.75
 31
0.0
  0
LINE
  5
B6CD
330
B518
100
AcDbEntity
  8
1
  6
Continuous
100
AcDbLine
 10
165.0
 20
88.09999999999998
 30
0.0
 11
165.0
 21
89.23751800000003
 31
0.0
  0
LINE
  5
B6CE
330
B518
100
AcDbEntity
  8
1
  6
Continuous
100
AcDbLine
 10
171.5
 20
85.5
 30
0.0
 11
171.5
 21
86.59999999999998
 31
0.0
  0
ARC
  5
B6CF
330
B518
100
AcDbEntity
  8
1
  6
Continuous
100
AcDbCircle
 10
170.0
 20
86.59999999999998
 30
0.0
 40
1.5
100
AcDbArc
 50
0.0
 51
90.0
  0
LINE
  5
B6D0
330
B518
100
AcDbEntity
  8
4
  6
CENTER
100
AcDbLine
 10
161.0
 20
38.0
 30
0.0
 11
161.0
 21
108.0
 31
0.0
  0
ARC
  5
B6D1
330
B518
100
AcDbEntity
  8
1
  6
Continuous
100
AcDbCircle
 10
43.5
 20
73.0
 30
0.0
 40
150.0
100
AcDbArc
 50
356.2946289999999
 51
3.705370999999998
  0
ARC
  5
B6D2
330
B518
100
AcDbEntity
  8
1
  6
Continuous
100
AcDbCircle
 10
190.192706
 20
82.5
 30
0.0
 40
3.0
100
AcDbArc
 50
3.705370999999998
 51
90.0
  0
LINE
  5
B6D3
330
B518
100
AcDbEntity
  8
1
  6
Continuous
100
AcDbLine
 10
131.8072939999999
 20
60.5
 30
0.0
 11
190.192706
 21
60.5
 31
0.0
  0
ARC
  5
B6D4
330
B518
100
AcDbEntity
  8
1
  6
Continuous
100
AcDbCircle
 10
190.192706
 20
63.5
 30
0.0
 40
3.0
100
AcDbArc
 50
270.0
 51
356.2946289999999
  0
LINE
  5
B6D5
330
B518
100
AcDbEntity
  8
1
  6
Continuous
100
AcDbLine
 10
131.8072939999999
 20
85.5
 30
0.0
 11
190.192706
 21
85.5
 31
0.0
  0
LINE
  5
B6D6
330
B518
100
AcDbEntity
  8
1
  6
Continuous
100
AcDbLine
 10
161.066833
 20
88.75
 30
0.0
 11
150.7528409999999
 21
88.75
 31
0.0
  0
LINE
  5
B6D7
330
B518
100
AcDbEntity
  8
1
  6
Continuous
100
AcDbLine
 10
150.7528409999999
 20
89.23751800000003
 30
0.0
 11
150.7528409999999
 21
88.75
 31
0.0
  0
ARC
  5
B6D8
330
B518
100
AcDbEntity
  8
1
  6
Continuous
100
AcDbCircle
 10
161.066833
 20
101.0499999999999
 30
0.0
 40
12.3
100
AcDbArc
 50
270.0
 51
286.1854779999998
  0
ARC
  5
B6D9
330
B518
100
AcDbEntity
  8
1
  6
Continuous
100
AcDbCircle
 10
182.0
 20
73.0
 30
0.0
 40
22.7
100
AcDbArc
 50
233.2667379999999
 51
57.741323
  0
LINE
  5
B6DA
330
B518
100
AcDbEntity
  8
1
  6
Continuous
100
AcDbLine
 10
170.0
 20
57.9
 30
0.0
 11
152.0
 21
57.9
 31
0.0
  0
LINE
  5
B6DB
330
B518
100
AcDbEntity
  8
1
  6
Continuous
100
AcDbLine
 10
165.0
 20
56.60419199999999
 30
0.0
 11
165.0
 21
57.9
 31
0.0
  0
ARC
  5
B6DC
330
B518
100
AcDbEntity
  8
1
  6
Continuous
100
AcDbCircle
 10
170.0
 20
59.4
 30
0.0
 40
1.5
100
AcDbArc
 50
270.0
 51
0.0
  0
LINE
  5
B6DD
330
B518
100
AcDbEntity
  8
1
  6
Continuous
100
AcDbLine
 10
171.5
 20
59.4
 30
0.0
 11
171.5
 21
60.5
 31
0.0
  0
LINE
  5
B6DE
330
B518
100
AcDbEntity
  8
1
  6
Continuous
100
AcDbLine
 10
157.0
 20
57.25
 30
0.0
 11
157.0
 21
57.9
 31
0.0
  0
ARC
  5
B6DF
330
B518
100
AcDbEntity
  8
1
  6
Continuous
100
AcDbCircle
 10
152.0
 20
59.4
 30
0.0
 40
1.5
100
AcDbArc
 50
180.0
 51
270.0
  0
LINE
  5
B6E0
330
B518
100
AcDbEntity
  8
1
  6
Continuous
100
AcDbLine
 10
150.5
 20
59.4
 30
0.0
 11
150.5
 21
60.5
 31
0.0
  0
ARC
  5
B6E1
330
B518
100
AcDbEntity
  8
1
  6
Continuous
100
AcDbCircle
 10
161.0
 20
58.95
 30
0.0
 40
8.0
100
AcDbArc
 50
224.0486259999999
 51
314.687856
  0
LINE
  5
B6E2
330
B518
100
AcDbEntity
  8
1
  6
Continuous
100
AcDbLine
 10
155.25
 20
53.38785099999999
 30
0.0
 11
166.4336439999999
 21
53.38785099999999
 31
0.0
  0
LINE
  5
B6E3
330
B518
100
AcDbEntity
  8
1
  6
Continuous
100
AcDbLine
 10
155.25
 20
53.38785099999999
 30
0.0
 11
155.25
 21
54.95
 31
0.0
  0
ARC
  5
B6E4
330
B518
100
AcDbEntity
  8
1
  6
Continuous
100
AcDbCircle
 10
161.066833
 20
44.95
 30
0.0
 40
12.3
100
AcDbArc
 50
53.26673800000001
 51
90.0
  0
ARC
  5
B6E5
330
B518
100
AcDbEntity
  8
1
  6
Continuous
100
AcDbCircle
 10
161.066833
 20
44.95
 30
0.0
 40
10.0
100
AcDbArc
 50
53.26673800000001
 51
90.0
  0
LINE
  5
B6E6
330
B518
100
AcDbEntity
  8
1
  6
Continuous
100
AcDbLine
 10
161.066833
 20
57.25
 30
0.0
 11
150.7528409999999
 21
57.25
 31
0.0
  0
LINE
  5
B6E7
330
B518
100
AcDbEntity
  8
1
  6
Continuous
100
AcDbLine
 10
161.066833
 20
54.95
 30
0.0
 11
150.7528409999999
 21
54.95
 31
0.0
  0
LINE
  5
B6E8
330
B518
100
AcDbEntity
  8
1
  6
Continuous
100
AcDbLine
 10
150.7528409999999
 20
54.95
 30
0.0
 11
150.7528409999999
 21
57.25
 31
0.0
  0
ARC
  5
B6E9
330
B518
100
AcDbEntity
  8
1
  6
Continuous
100
AcDbCircle
 10
307.0
 20
187.320317
 30
0.0
 40
19.807848
100
AcDbArc
 50
61.23054299999999
 51
118.769457
  0
ARC
  5
B6EA
330
B518
100
AcDbEntity
  8
1
  6
Continuous
100
AcDbCircle
 10
299.873183
 20
200.3003339999999
 30
0.0
 40
5.0
100
AcDbArc
 50
118.769457
 51
148.3320289999998
  0
ARC
  5
B6EB
330
B518
100
AcDbEntity
  8
1
  6
Continuous
100
AcDbCircle
 10
314.126817
 20
200.3003339999999
 30
0.0
 40
5.0
100
AcDbArc
 50
31.667971
 51
61.23054299999999
  0
LINE
  5
B6EC
330
B518
100
AcDbEntity
  8
4
  6
CENTER
100
AcDbLine
 10
161.0
 20
324.25633
 30
0.0
 11
161.0
 21
254.2563299999999
 31
0.0
  0
LINE
  5
B6ED
330
B518
100
AcDbEntity
  8
1
  6
Continuous
100
AcDbLine
 10
390.0
 20
222.628165
 30
0.0
 11
454.0
 21
222.628165
 31
0.0
  0
LINE
  5
B6EE
330
B518
100
AcDbEntity
  8
1
  6
Continuous
100
AcDbLine
 10
390.0
 20
220.328165
 30
0.0
 11
454.0
 21
220.328165
 31
0.0
  0
LINE
  5
B6EF
330
B518
100
AcDbEntity
  8
4
  6
CENTER
100
AcDbLine
 10
443.0
 20
134.6281649999999
 30
0.0
 11
443.0
 21
205.6281649999998
 31
0.0
  0
ARC
  5
B6F0
330
B518
100
AcDbEntity
  8
1
  6
Continuous
100
AcDbCircle
 10
443.0
 20
170.128165
 30
0.0
 40
32.5
100
AcDbArc
 50
167.62996
 51
95.01326500000002
  0
ARC
  5
B6F1
330
B518
100
AcDbEntity
  8
1
  6
Continuous
100
AcDbCircle
 10
450.0913349999998
 20
208.5817449999999
 30
0.0
 40
50.0
100
AcDbArc
 50
189.7819869999999
 51
258.4010559999999
  0
LINE
  5
B6F2
330
B518
100
AcDbEntity
  8
4
  6
CENTER
100
AcDbLine
 10
407.5
 20
170.128165
 30
0.0
 11
478.5
 21
170.128165
 31
0.0
  0
ARC
  5
B6F3
330
B518
100
AcDbEntity
  8
1
  6
Continuous
100
AcDbCircle
 10
442.25
 20
170.3781649999999
 30
0.0
 40
11.0
100
AcDbArc
 50
258.4010559999999
 51
38.804988
  0
ARC
  5
B6F4
330
B518
100
AcDbEntity
  8
1
  6
Continuous
100
AcDbCircle
 10
489.7862879999998
 20
208.605137
 30
0.0
 40
50.0
100
AcDbArc
 50
185.4659799999998
 51
218.8049879999999
  0
LINE
  5
B6F5
330
B518
100
AcDbEntity
  8
1
  6
Continuous
100
AcDbLine
 10
438.4999999999998
 20
208.628165
 30
0.0
 11
431.7
 21
162.087027
 31
0.0
  0
LINE
  5
B6F6
330
B518
100
AcDbEntity
  8
4
  6
CENTER
100
AcDbLine
 10
422.0
 20
225.628165
 30
0.0
 11
422.0
 21
163.6387039999999
 31
0.0
  0
LINE
  5
B6F7
330
B518
100
AcDbEntity
  8
1
  6
Continuous
100
AcDbLine
 10
399.5
 20
213.6281649999999
 30
0.0
 11
444.5
 21
213.6281649999999
 31
0.0
  0
LINE
  5
B6F8
330
B518
100
AcDbEntity
  8
1
  6
Continuous
100
AcDbLine
 10
399.5
 20
215.6281649999999
 30
0.0
 11
444.5
 21
215.6281649999999
 31
0.0
  0
LINE
  5
B6F9
330
B518
100
AcDbEntity
  8
1
  6
Continuous
100
AcDbLine
 10
399.5
 20
217.6281649999999
 30
0.0
 11
444.5
 21
217.6281649999999
 31
0.0
  0
LINE
  5
B6FA
330
B518
100
AcDbEntity
  8
1
  6
Continuous
100
AcDbLine
 10
422.8284269999998
 20
213.6281649999999
 30
0.0
 11
424.828427
 21
215.6281649999999
 31
0.0
  0
LINE
  5
B6FB
330
B518
100
AcDbEntity
  8
1
  6
Continuous
100
AcDbLine
 10
424.0
 20
213.6281649999999
 30
0.0
 11
422.0
 21
215.6281649999999
 31
0.0
  0
LINE
  5
B6FC
330
B518
100
AcDbEntity
  8
1
  6
Continuous
100
AcDbLine
 10
425.4142139999998
 20
213.6281649999999
 30
0.0
 11
423.4142139999998
 21
215.6281649999999
 31
0.0
  0
LINE
  5
B6FD
330
B518
100
AcDbEntity
  8
1
  6
Continuous
100
AcDbLine
 10
454.0
 20
220.328165
 30
0.0
 11
454.0
 21
222.628165
 31
0.0
  0
LINE
  5
B6FE
330
B518
100
AcDbEntity
  8
4
  6
CENTER
100
AcDbLine
 10
447.0
 20
225.628165
 30
0.0
 11
447.0
 21
217.3281649999999
 31
0.0
  0
LINE
  5
B6FF
330
B518
100
AcDbEntity
  8
1
  6
Continuous
100
AcDbLine
 10
438.3847769999999
 20
213.6281649999999
 30
0.0
 11
440.3847769999998
 21
215.6281649999999
 31
0.0
  0
LINE
  5
B700
330
B518
100
AcDbEntity
  8
1
  6
Continuous
100
AcDbLine
 10
440.9705629999998
 20
213.6281649999999
 30
0.0
 11
438.9705629999999
 21
215.6281649999999
 31
0.0
  0
LINE
  5
B701
330
B518
100
AcDbEntity
  8
1
  6
Continuous
100
AcDbLine
 10
439.79899
 20
213.6281649999999
 30
0.0
 11
441.7989900000002
 21
215.6281649999999
 31
0.0
  0
ARC
  5
B702
330
B518
100
AcDbEntity
  8
1
  6
Continuous
100
AcDbCircle
 10
443.0
 20
204.128165
 30
0.0
 40
3.0
100
AcDbArc
 50
90.0
 51
185.4659799999998
  0
LINE
  5
B703
330
B518
100
AcDbEntity
  8
1
  6
Continuous
100
AcDbLine
 10
444.5
 20
217.6281649999999
 30
0.0
 11
444.5
 21
213.6281649999999
 31
0.0
  0
LINE
  5
B704
330
B518
100
AcDbEntity
  8
1
  6
Continuous
100
AcDbLine
 10
442.627417
 20
213.6281649999999
 30
0.0
 11
444.5
 21
215.500748
 31
0.0
  0
LINE
  5
B705
330
B518
100
AcDbEntity
  8
1
  6
Continuous
100
AcDbLine
 10
444.0416309999998
 20
213.6281649999999
 30
0.0
 11
444.5
 21
214.0865349999999
 31
0.0
  0
LINE
  5
B706
330
B518
100
AcDbEntity
  8
1
  6
Continuous
100
AcDbLine
 10
443.79899
 20
213.6281649999999
 30
0.0
 11
441.7989900000002
 21
215.6281649999999
 31
0.0
  0
LINE
  5
B707
330
B518
100
AcDbEntity
  8
1
  6
Continuous
100
AcDbLine
 10
444.5
 20
214.341369
 30
0.0
 11
443.2132039999998
 21
215.6281649999999
 31
0.0
  0
ARC
  5
B708
330
B518
100
AcDbEntity
  8
1
  6
Continuous
100
AcDbCircle
 10
444.0
 20
210.628165
 30
0.0
 40
3.0
100
AcDbArc
 50
0.0
 51
90.0
  0
LINE
  5
B709
330
B518
100
AcDbEntity
  8
1
  6
Continuous
100
AcDbLine
 10
441.213204
 20
213.6281649999999
 30
0.0
 11
443.2132039999998
 21
215.6281649999999
 31
0.0
  0
LINE
  5
B70A
330
B518
100
AcDbEntity
  8
1
  6
Continuous
100
AcDbLine
 10
442.3847769999999
 20
213.6281649999999
 30
0.0
 11
440.3847769999998
 21
215.6281649999999
 31
0.0
  0
ARC
  5
B70B
330
B518
100
AcDbEntity
  8
1
  6
Continuous
100
AcDbCircle
 10
444.5
 20
222.728165
 30
0.0
 40
5.099999999999997
100
AcDbArc
 50
270.0
 51
331.9275129999998
  0
LINE
  5
B70C
330
B518
100
AcDbEntity
  8
1
  6
Continuous
100
AcDbLine
 10
443.0
 20
207.1281649999999
 30
0.0
 11
447.0
 21
207.1281649999999
 31
0.0
  0
LINE
  5
B70D
330
B518
100
AcDbEntity
  8
1
  6
Continuous
100
AcDbLine
 10
447.0
 20
210.628165
 30
0.0
 11
447.0
 21
207.1281649999999
 31
0.0
  0
LINE
  5
B70E
330
B518
100
AcDbEntity
  8
1
  6
Continuous
100
AcDbLine
 10
434.142136
 20
213.6281649999999
 30
0.0
 11
436.142136
 21
215.6281649999999
 31
0.0
  0
LINE
  5
B70F
330
B518
100
AcDbEntity
  8
1
  6
Continuous
100
AcDbLine
 10
435.556349
 20
213.6281649999999
 30
0.0
 11
437.556349
 21
215.6281649999999
 31
0.0
  0
LINE
  5
B710
330
B518
100
AcDbEntity
  8
1
  6
Continuous
100
AcDbLine
 10
436.7279219999998
 20
213.6281649999999
 30
0.0
 11
434.7279219999999
 21
215.6281649999999
 31
0.0
  0
LINE
  5
B711
330
B518
100
AcDbEntity
  8
1
  6
Continuous
100
AcDbLine
 10
429.8994949999998
 20
213.6281649999999
 30
0.0
 11
431.899495
 21
215.6281649999999
 31
0.0
  0
LINE
  5
B712
330
B518
100
AcDbEntity
  8
1
  6
Continuous
100
AcDbLine
 10
431.3137089999998
 20
213.6281649999999
 30
0.0
 11
433.313709
 21
215.6281649999999
 31
0.0
  0
LINE
  5
B713
330
B518
100
AcDbEntity
  8
1
  6
Continuous
100
AcDbLine
 10
432.485282
 20
213.6281649999999
 30
0.0
 11
430.4852819999998
 21
215.6281649999999
 31
0.0
  0
LINE
  5
B714
330
B518
100
AcDbEntity
  8
1
  6
Continuous
100
AcDbLine
 10
425.6568539999998
 20
213.6281649999999
 30
0.0
 11
427.656854
 21
215.6281649999999
 31
0.0
  0
LINE
  5
B715
330
B518
100
AcDbEntity
  8
1
  6
Continuous
100
AcDbLine
 10
427.0710679999998
 20
213.6281649999999
 30
0.0
 11
429.071068
 21
215.6281649999999
 31
0.0
  0
LINE
  5
B716
330
B518
100
AcDbEntity
  8
1
  6
Continuous
100
AcDbLine
 10
428.242641
 20
213.6281649999999
 30
0.0
 11
426.2426409999998
 21
215.6281649999999
 31
0.0
  0
LINE
  5
B717
330
B518
100
AcDbEntity
  8
1
  6
Continuous
100
AcDbLine
 10
428.485282
 20
213.6281649999999
 30
0.0
 11
430.4852819999998
 21
215.6281649999999
 31
0.0
  0
LINE
  5
B718
330
B518
100
AcDbEntity
  8
1
  6
Continuous
100
AcDbLine
 10
429.6568539999998
 20
213.6281649999999
 30
0.0
 11
427.656854
 21
215.6281649999999
 31
0.0
  0
LINE
  5
B719
330
B518
100
AcDbEntity
  8
1
  6
Continuous
100
AcDbLine
 10
431.0710679999998
 20
213.6281649999999
 30
0.0
 11
429.071068
 21
215.6281649999999
 31
0.0
  0
LINE
  5
B71A
330
B518
100
AcDbEntity
  8
1
  6
Continuous
100
AcDbLine
 10
424.242641
 20
213.6281649999999
 30
0.0
 11
426.2426409999998
 21
215.6281649999999
 31
0.0
  0
LINE
  5
B71B
330
B518
100
AcDbEntity
  8
1
  6
Continuous
100
AcDbLine
 10
426.8284269999998
 20
213.6281649999999
 30
0.0
 11
424.828427
 21
215.6281649999999
 31
0.0
  0
LINE
  5
B71C
330
B518
100
AcDbEntity
  8
1
  6
Continuous
100
AcDbLine
 10
432.727922
 20
213.6281649999999
 30
0.0
 11
434.7279219999999
 21
215.6281649999999
 31
0.0
  0
LINE
  5
B71D
330
B518
100
AcDbEntity
  8
1
  6
Continuous
100
AcDbLine
 10
433.899495
 20
213.6281649999999
 30
0.0
 11
431.899495
 21
215.6281649999999
 31
0.0
  0
LINE
  5
B71E
330
B518
100
AcDbEntity
  8
1
  6
Continuous
100
AcDbLine
 10
435.3137089999998
 20
213.6281649999999
 30
0.0
 11
433.313709
 21
215.6281649999999
 31
0.0
  0
LINE
  5
B71F
330
B518
100
AcDbEntity
  8
1
  6
Continuous
100
AcDbLine
 10
436.9705629999998
 20
213.6281649999999
 30
0.0
 11
438.9705629999999
 21
215.6281649999999
 31
0.0
  0
LINE
  5
B720
330
B518
100
AcDbEntity
  8
1
  6
Continuous
100
AcDbLine
 10
438.142136
 20
213.6281649999999
 30
0.0
 11
436.142136
 21
215.6281649999999
 31
0.0
  0
LINE
  5
B721
330
B518
100
AcDbEntity
  8
1
  6
Continuous
100
AcDbLine
 10
439.5563489999998
 20
213.6281649999999
 30
0.0
 11
437.556349
 21
215.6281649999999
 31
0.0
  0
LINE
  5
B722
330
B518
100
AcDbEntity
  8
4
  6
CENTER
100
AcDbLine
 10
397.0
 20
225.628165
 30
0.0
 11
397.0
 21
217.3281649999999
 31
0.0
  0
LINE
  5
B723
330
B518
100
AcDbEntity
  8
1
  6
Continuous
100
AcDbLine
 10
408.4436509999998
 20
213.6281649999999
 30
0.0
 11
406.443651
 21
215.6281649999999
 31
0.0
  0
LINE
  5
B724
330
B518
100
AcDbEntity
  8
1
  6
Continuous
100
AcDbLine
 10
407.272078
 20
213.6281649999999
 30
0.0
 11
409.2720779999998
 21
215.6281649999999
 31
0.0
  0
LINE
  5
B725
330
B518
100
AcDbEntity
  8
1
  6
Continuous
100
AcDbLine
 10
409.857865
 20
213.6281649999999
 30
0.0
 11
407.8578649999998
 21
215.6281649999999
 31
0.0
  0
LINE
  5
B726
330
B518
100
AcDbEntity
  8
1
  6
Continuous
100
AcDbLine
 10
418.5857869999998
 20
213.6281649999999
 30
0.0
 11
420.5857869999999
 21
215.6281649999999
 31
0.0
  0
LINE
  5
B727
330
B518
100
AcDbEntity
  8
1
  6
Continuous
100
AcDbLine
 10
421.1715729999998
 20
213.6281649999999
 30
0.0
 11
419.171573
 21
215.6281649999999
 31
0.0
  0
LINE
  5
B728
330
B518
100
AcDbEntity
  8
1
  6
Continuous
100
AcDbLine
 10
420.0
 20
213.6281649999999
 30
0.0
 11
422.0
 21
215.6281649999999
 31
0.0
  0
LINE
  5
B729
330
B518
100
AcDbEntity
  8
1
  6
Continuous
100
AcDbLine
 10
417.171573
 20
213.6281649999999
 30
0.0
 11
419.171573
 21
215.6281649999999
 31
0.0
  0
LINE
  5
B72A
330
B518
100
AcDbEntity
  8
1
  6
Continuous
100
AcDbLine
 10
419.7573599999998
 20
213.6281649999999
 30
0.0
 11
417.75736
 21
215.6281649999999
 31
0.0
  0
LINE
  5
B72B
330
B518
100
AcDbEntity
  8
1
  6
Continuous
100
AcDbLine
 10
414.343146
 20
213.6281649999999
 30
0.0
 11
416.3431459999998
 21
215.6281649999999
 31
0.0
  0
LINE
  5
B72C
330
B518
100
AcDbEntity
  8
1
  6
Continuous
100
AcDbLine
 10
416.9289319999998
 20
213.6281649999999
 30
0.0
 11
414.9289319999998
 21
215.6281649999999
 31
0.0
  0
LINE
  5
B72D
330
B518
100
AcDbEntity
  8
1
  6
Continuous
100
AcDbLine
 10
415.514719
 20
213.6281649999999
 30
0.0
 11
413.514719
 21
215.6281649999999
 31
0.0
  0
LINE
  5
B72E
330
B518
100
AcDbEntity
  8
1
  6
Continuous
100
AcDbLine
 10
410.100505
 20
213.6281649999999
 30
0.0
 11
412.1005049999998
 21
215.6281649999999
 31
0.0
  0
LINE
  5
B72F
330
B518
100
AcDbEntity
  8
1
  6
Continuous
100
AcDbLine
 10
412.6862919999998
 20
213.6281649999999
 30
0.0
 11
410.686292
 21
215.6281649999999
 31
0.0
  0
LINE
  5
B730
330
B518
100
AcDbEntity
  8
1
  6
Continuous
100
AcDbLine
 10
411.272078
 20
213.6281649999999
 30
0.0
 11
409.2720779999998
 21
215.6281649999999
 31
0.0
  0
LINE
  5
B731
330
B518
100
AcDbEntity
  8
1
  6
Continuous
100
AcDbLine
 10
412.9289319999998
 20
213.6281649999999
 30
0.0
 11
414.9289319999998
 21
215.6281649999999
 31
0.0
  0
LINE
  5
B732
330
B518
100
AcDbEntity
  8
1
  6
Continuous
100
AcDbLine
 10
411.514719
 20
213.6281649999999
 30
0.0
 11
413.514719
 21
215.6281649999999
 31
0.0
  0
LINE
  5
B733
330
B518
100
AcDbEntity
  8
1
  6
Continuous
100
AcDbLine
 10
414.100505
 20
213.6281649999999
 30
0.0
 11
412.1005049999998
 21
215.6281649999999
 31
0.0
  0
LINE
  5
B734
330
B518
100
AcDbEntity
  8
1
  6
Continuous
100
AcDbLine
 10
408.6862919999998
 20
213.6281649999999
 30
0.0
 11
410.686292
 21
215.6281649999999
 31
0.0
  0
LINE
  5
B735
330
B518
100
AcDbEntity
  8
1
  6
Continuous
100
AcDbLine
 10
415.75736
 20
213.6281649999999
 30
0.0
 11
417.75736
 21
215.6281649999999
 31
0.0
  0
LINE
  5
B736
330
B518
100
AcDbEntity
  8
1
  6
Continuous
100
AcDbLine
 10
418.3431459999998
 20
213.6281649999999
 30
0.0
 11
416.3431459999998
 21
215.6281649999999
 31
0.0
  0
LINE
  5
B737
330
B518
100
AcDbEntity
  8
1
  6
Continuous
100
AcDbLine
 10
421.4142139999998
 20
213.6281649999999
 30
0.0
 11
423.4142139999998
 21
215.6281649999999
 31
0.0
  0
LINE
  5
B738
330
B518
100
AcDbEntity
  8
1
  6
Continuous
100
AcDbLine
 10
422.5857869999998
 20
213.6281649999999
 30
0.0
 11
420.5857869999999
 21
215.6281649999999
 31
0.0
  0
LINE
  5
B739
330
B518
100
AcDbEntity
  8
1
  6
Continuous
100
AcDbLine
 10
404.2010099999997
 20
213.6281649999999
 30
0.0
 11
402.20101
 21
215.6281649999999
 31
0.0
  0
LINE
  5
B73A
330
B518
100
AcDbEntity
  8
1
  6
Continuous
100
AcDbLine
 10
403.029437
 20
213.6281649999999
 30
0.0
 11
405.0294369999998
 21
215.6281649999999
 31
0.0
  0
LINE
  5
B73B
330
B518
100
AcDbEntity
  8
1
  6
Continuous
100
AcDbLine
 10
405.615224
 20
213.6281649999999
 30
0.0
 11
403.6152239999998
 21
215.6281649999999
 31
0.0
  0
LINE
  5
B73C
330
B518
100
AcDbEntity
  8
1
  6
Continuous
100
AcDbLine
 10
401.615224
 20
213.6281649999999
 30
0.0
 11
403.6152239999998
 21
215.6281649999999
 31
0.0
  0
LINE
  5
B73D
330
B518
100
AcDbEntity
  8
1
  6
Continuous
100
AcDbLine
 10
402.7867969999999
 20
213.6281649999999
 30
0.0
 11
400.7867969999998
 21
215.6281649999999
 31
0.0
  0
LINE
  5
B73E
330
B518
100
AcDbEntity
  8
1
  6
Continuous
100
AcDbLine
 10
399.5
 20
217.6281649999999
 30
0.0
 11
399.5
 21
213.6281649999999
 31
0.0
  0
LINE
  5
B73F
330
B518
100
AcDbEntity
  8
1
  6
Continuous
100
AcDbLine
 10
399.5
 20
214.0865349999999
 30
0.0
 11
399.95837
 21
213.6281649999999
 31
0.0
  0
ARC
  5
B740
330
B518
100
AcDbEntity
  8
1
  6
Continuous
100
AcDbCircle
 10
400.0
 20
210.628165
 30
0.0
 40
3.0
100
AcDbArc
 50
90.0
 51
180.0
  0
ARC
  5
B741
330
B518
100
AcDbEntity
  8
1
  6
Continuous
100
AcDbCircle
 10
399.5
 20
222.728165
 30
0.0
 40
5.099999999999997
100
AcDbArc
 50
208.072487
 51
270.0
  0
LINE
  5
B742
330
B518
100
AcDbEntity
  8
1
  6
Continuous
100
AcDbLine
 10
400.2010099999997
 20
213.6281649999999
 30
0.0
 11
402.20101
 21
215.6281649999999
 31
0.0
  0
LINE
  5
B743
330
B518
100
AcDbEntity
  8
1
  6
Continuous
100
AcDbLine
 10
399.5
 20
214.341369
 30
0.0
 11
400.7867969999998
 21
215.6281649999999
 31
0.0
  0
LINE
  5
B744
330
B518
100
AcDbEntity
  8
1
  6
Continuous
100
AcDbLine
 10
399.5
 20
215.500748
 30
0.0
 11
401.372583
 21
213.6281649999999
 31
0.0
  0
LINE
  5
B745
330
B518
100
AcDbEntity
  8
1
  6
Continuous
100
AcDbLine
 10
405.857865
 20
213.6281649999999
 30
0.0
 11
407.8578649999998
 21
215.6281649999999
 31
0.0
  0
LINE
  5
B746
330
B518
100
AcDbEntity
  8
1
  6
Continuous
100
AcDbLine
 10
407.029437
 20
213.6281649999999
 30
0.0
 11
405.0294369999998
 21
215.6281649999999
 31
0.0
  0
LINE
  5
B747
330
B518
100
AcDbEntity
  8
1
  6
Continuous
100
AcDbLine
 10
404.4436509999998
 20
213.6281649999999
 30
0.0
 11
406.443651
 21
215.6281649999999
 31
0.0
  0
ARC
  5
B748
330
B518
100
AcDbEntity
  8
1
  6
Continuous
100
AcDbCircle
 10
388.5
 20
197.9630139999999
 30
0.0
 40
12.5
100
AcDbArc
 50
9.781986999999999
 51
47.15635699999999
  0
LINE
  5
B749
330
B518
100
AcDbEntity
  8
1
  6
Continuous
100
AcDbLine
 10
397.0
 20
210.628165
 30
0.0
 11
397.0
 21
207.1281649999999
 31
0.0
  0
LINE
  5
B74A
330
B518
100
AcDbEntity
  8
1
  6
Continuous
100
AcDbLine
 10
390.0
 20
220.328165
 30
0.0
 11
390.0
 21
222.628165
 31
0.0
  0
CIRCLE
  5
B74B
330
B518
100
AcDbEntity
  8
1
  6
Continuous
100
AcDbCircle
 10
443.0
 20
170.128165
 30
0.0
 40
5.75
  0
ARC
  5
B74C
330
B518
100
AcDbEntity
  8
1
  6
Continuous
100
AcDbCircle
 10
292.149558
 20
174.047565
 30
0.0
 40
10.0
100
AcDbArc
 50
157.8984959999999
 51
191.096263
  0
ARC
  5
B74D
330
B518
100
AcDbEntity
  8
1
  6
Continuous
100
AcDbCircle
 10
194.946896
 20
130.885547
 30
0.0
 40
142.2298409999999
100
AcDbArc
 50
18.61574799999998
 51
31.25592199999999
  0
ARC
  5
B74E
330
B518
100
AcDbEntity
  8
1
  6
Continuous
100
AcDbCircle
 10
322.4382299999998
 20
173.830136
 30
0.0
 40
7.7
100
AcDbArc
 50
340.101046
 51
18.61574799999998
  0
ARC
  5
B74F
330
B518
100
AcDbEntity
  8
1
  6
Continuous
100
AcDbCircle
 10
419.053104
 20
130.885547
 30
0.0
 40
142.2298409999999
100
AcDbArc
 50
148.744078
 51
161.384252
  0
ARC
  5
B750
330
B518
100
AcDbEntity
  8
1
  6
Continuous
100
AcDbCircle
 10
291.56177
 20
173.830136
 30
0.0
 40
7.7
100
AcDbArc
 50
161.384252
 51
199.8989539999998
  0
ARC
  5
B751
330
B518
100
AcDbEntity
  8
1
  6
Continuous
100
AcDbCircle
 10
182.0
 20
73.0
 30
0.0
 40
20.69999999999998
100
AcDbArc
 50
226.8418629999999
 51
52.91429799999998
  0
ARC
  5
B752
330
B518
100
AcDbEntity
  8
1
  6
Continuous
100
AcDbCircle
 10
182.0
 20
73.0
 30
0.0
 40
14.69999999999999
100
AcDbArc
 50
238.2486839999998
 51
301.751316
  0
ARC
  5
B753
330
B518
100
AcDbEntity
  8
1
  6
Continuous
100
AcDbCircle
 10
182.0
 20
73.0
 30
0.0
 40
14.69999999999999
100
AcDbArc
 50
58.248684
 51
121.7513159999998
  0
ARC
  5
B754
330
B518
100
AcDbEntity
  8
1
  6
Continuous
100
AcDbCircle
 10
182.0
 20
73.0
 30
0.0
 40
14.69999999999999
100
AcDbArc
 50
319.616333
 51
40.383667
  0
LINE
  5
B755
330
B518
100
AcDbEntity
  8
1
  6
Continuous
100
AcDbLine
 10
150.0
 20
85.5
 30
0.0
 11
150.0
 21
89.23751800000003
 31
0.0
  0
ARC
  5
B756
330
B518
100
AcDbEntity
  8
1
  6
Continuous
100
AcDbCircle
 10
161.0
 20
170.128165
 30
0.0
 40
22.5
100
AcDbArc
 50
88.49803399999997
 51
104.2997189999999
  0
ARC
  5
B757
330
B518
100
AcDbEntity
  8
1
  6
Continuous
100
AcDbCircle
 10
443.0
 20
170.128165
 30
0.0
 40
17.5
100
AcDbArc
 50
198.6130589999999
 51
85.32474999999998
  0
ARC
  5
B758
330
B518
100
AcDbEntity
  8
1
  6
Continuous
100
AcDbCircle
 10
443.0
 20
170.128165
 30
0.0
 40
22.5
100
AcDbArc
 50
184.8674159999999
 51
91.50196599999999
  0
LINE
  5
B759
330
B518
100
AcDbEntity
  8
1
  6
Continuous
100
AcDbLine
 10
80.425537
 20
173.835227
 30
0.0
 11
80.425537
 21
167.144881
 31
0.0
  0
ARC
  5
B75A
330
B518
100
AcDbEntity
  8
1
  6
Continuous
100
AcDbCircle
 10
91.889639
 20
170.128165
 30
0.0
 40
11.464102
100
AcDbArc
 50
162.412046
 51
197.5879539999999
  0
ARC
  5
B75B
330
B518
100
AcDbEntity
  8
1
  6
Continuous
100
AcDbCircle
 10
73.96143499999998
 20
170.128165
 30
0.0
 40
11.464102
100
AcDbArc
 50
342.4120459999999
 51
17.587954
  0
ARC
  5
B75C
330
B518
100
AcDbEntity
  8
1
  6
Continuous
100
AcDbCircle
 10
72.94996600000001
 20
169.587188
 30
0.0
 40
6.111798999999998
100
AcDbArc
 50
284.557494
 51
12.415794
  0
LINE
  5
B75D
330
B518
100
AcDbEntity
  8
1
  6
Continuous
100
AcDbLine
 10
73.73751799999998
 20
193.5737409999999
 30
0.0
 11
73.73751799999998
 21
162.0318519999999
 31
0.0
  0
LINE
  5
B75E
330
B518
100
AcDbEntity
  8
1
  6
Continuous
100
AcDbLine
 10
73.23751800000002
 20
193.5737409999999
 30
0.0
 11
73.23751800000002
 21
162.0318519999999
 31
0.0
  0
LINE
  5
B75F
330
B518
100
AcDbEntity
  8
1
  6
Continuous
100
AcDbLine
 10
85.425537
 20
176.1281649999999
 30
0.0
 11
85.425537
 21
164.1281649999999
 31
0.0
  0
LINE
  5
B760
330
B518
100
AcDbEntity
  8
1
  6
Continuous
100
AcDbLine
 10
87.225537
 20
174.1281649999999
 30
0.0
 11
87.225537
 21
166.128165
 31
0.0
  0
LINE
  5
B761
330
B518
100
AcDbEntity
  8
1
  6
Continuous
100
AcDbLine
 10
88.42553700000001
 20
172.9281649999999
 30
0.0
 11
88.42553700000001
 21
167.3281649999998
 31
0.0
  0
LINE
  5
B762
330
B518
100
AcDbEntity
  8
1
  6
Continuous
100
AcDbLine
 10
75.36431899999998
 20
158.229474
 30
0.0
 11
75.36431899999998
 21
141.096877
 31
0.0
  0
LINE
  5
B763
330
B518
100
AcDbEntity
  8
1
  6
Continuous
100
AcDbLine
 10
73.40898100000003
 20
162.0318519999999
 30
0.0
 11
73.40898100000003
 21
142.361411
 31
0.0
  0
LINE
  5
B764
330
B518
100
AcDbEntity
  8
1
  6
Continuous
100
AcDbLine
 10
73.90898100000002
 20
163.263646
 30
0.0
 11
73.90898100000002
 21
142.361411
 31
0.0
  0
LINE
  5
B765
330
B518
100
AcDbEntity
  8
1
  6
Continuous
100
AcDbLine
 10
88.36431899999999
 20
163.799056
 30
0.0
 11
88.36431899999999
 21
141.0969
 31
0.0
  0
LINE
  5
B766
330
B518
100
AcDbEntity
  8
1
  6
Continuous
100
AcDbLine
 10
73.90898100000002
 20
142.361411
 30
0.0
 11
73.40898100000003
 21
142.361411
 31
0.0
  0
ARC
  5
B767
330
B518
100
AcDbEntity
  8
1
  6
Continuous
100
AcDbCircle
 10
76.422852
 20
141.096933
 30
0.0
 40
1.058532999999999
100
AcDbArc
 50
180.003047
 51
187.22098
  0
ARC
  5
B768
330
B518
100
AcDbEntity
  8
1
  6
Continuous
100
AcDbCircle
 10
76.43688899999998
 20
141.09882
 30
0.0
 40
1.072695999999997
100
AcDbArc
 50
187.2267219999999
 51
194.3612169999999
  0
ARC
  5
B769
330
B518
100
AcDbEntity
  8
1
  6
Continuous
100
AcDbCircle
 10
76.46349999999998
 20
141.105719
 30
0.0
 40
1.100186
100
AcDbArc
 50
194.3655269999999
 51
201.2565579999999
  0
ARC
  5
B76A
330
B518
100
AcDbEntity
  8
1
  6
Continuous
100
AcDbCircle
 10
76.500241
 20
141.120083
 30
0.0
 40
1.139636
100
AcDbArc
 50
201.259887
 51
207.9449649999999
  0
ARC
  5
B76B
330
B518
100
AcDbEntity
  8
1
  6
Continuous
100
AcDbCircle
 10
76.54425399999998
 20
141.1434739999999
 30
0.0
 40
1.189478
100
AcDbArc
 50
207.946822
 51
214.3741079999998
  0
ARC
  5
B76C
330
B518
100
AcDbEntity
  8
1
  6
Continuous
100
AcDbCircle
 10
76.59214
 20
141.1762439999999
 30
0.0
 40
1.247503999999999
100
AcDbArc
 50
214.37461
 51
220.516195
  0
ARC
  5
B76D
330
B518
100
AcDbEntity
  8
1
  6
Continuous
100
AcDbCircle
 10
76.640462
 20
141.2175169999999
 30
0.0
 40
1.311053
100
AcDbArc
 50
220.515483
 51
226.3317499999998
  0
ARC
  5
B76E
330
B518
100
AcDbEntity
  8
1
  6
Continuous
100
AcDbCircle
 10
76.68631600000002
 20
141.2655219999998
 30
0.0
 40
1.377437999999999
100
AcDbArc
 50
226.330829
 51
231.908668
  0
ARC
  5
B76F
330
B518
100
AcDbEntity
  8
1
  6
Continuous
100
AcDbCircle
 10
76.727889
 20
141.3184949999999
 30
0.0
 40
1.444777
100
AcDbArc
 50
231.907136
 51
237.251652
  0
ARC
  5
B770
330
B518
100
AcDbEntity
  8
1
  6
Continuous
100
AcDbCircle
 10
76.763025
 20
141.373019
 30
0.0
 40
1.509641
100
AcDbArc
 50
237.249515
 51
242.3308979999999
  0
ARC
  5
B771
330
B518
100
AcDbEntity
  8
1
  6
Continuous
100
AcDbCircle
 10
76.79101199999998
 20
141.426274
 30
0.0
 40
1.569801999999999
100
AcDbArc
 50
242.328806
 51
247.2156689999999
  0
ARC
  5
B772
330
B518
100
AcDbEntity
  8
1
  6
Continuous
100
AcDbCircle
 10
76.811796
 20
141.475601
 30
0.0
 40
1.623329
100
AcDbArc
 50
247.2135669999999
 51
251.9395739999999
  0
ARC
  5
B773
330
B518
100
AcDbEntity
  8
1
  6
Continuous
100
AcDbCircle
 10
76.82583699999998
 20
141.518465
 30
0.0
 40
1.668433999999999
100
AcDbArc
 50
251.937506
 51
256.535996
  0
ARC
  5
B774
330
B518
100
AcDbEntity
  8
1
  6
Continuous
100
AcDbCircle
 10
76.834096
 20
141.5527029999998
 30
0.0
 40
1.703654
100
AcDbArc
 50
256.533976
 51
261.037522
  0
ARC
  5
B775
330
B518
100
AcDbEntity
  8
1
  6
Continuous
100
AcDbCircle
 10
76.83792699999997
 20
141.5766159999998
 30
0.0
 40
1.727872
100
AcDbArc
 50
261.035547
 51
265.4758729999999
  0
ARC
  5
B776
330
B518
100
AcDbEntity
  8
1
  6
Continuous
100
AcDbCircle
 10
76.83896999999999
 20
141.589052
 30
0.0
 40
1.740350999999999
100
AcDbArc
 50
265.4739469999999
 51
269.902474
  0
LINE
  5
B777
330
B518
100
AcDbEntity
  8
1
  6
Continuous
100
AcDbLine
 10
86.88961799999999
 20
139.8487079999999
 30
0.0
 11
76.83898899999999
 21
139.8487079999999
 31
0.0
  0
ARC
  5
B778
330
B518
100
AcDbEntity
  8
1
  6
Continuous
100
AcDbCircle
 10
86.88964699999997
 20
141.589244
 30
0.0
 40
1.740536999999998
100
AcDbArc
 50
269.999036
 51
274.4032899999999
  0
ARC
  5
B779
330
B518
100
AcDbEntity
  8
1
  6
Continuous
100
AcDbCircle
 10
86.890646
 20
141.577067
 30
0.0
 40
1.728318999999999
100
AcDbArc
 50
274.4012609999999
 51
278.8708839999998
  0
ARC
  5
B77A
330
B518
100
AcDbEntity
  8
1
  6
Continuous
100
AcDbCircle
 10
86.894407
 20
141.553349
 30
0.0
 40
1.704304
100
AcDbArc
 50
278.868939
 51
283.3690589999998
  0
ARC
  5
B77B
330
B518
100
AcDbEntity
  8
1
  6
Continuous
100
AcDbCircle
 10
86.90255299999998
 20
141.519324
 30
0.0
 40
1.669318
100
AcDbArc
 50
283.3670419999999
 51
287.961504
  0
ARC
  5
B77C
330
B518
100
AcDbEntity
  8
1
  6
Continuous
100
AcDbCircle
 10
86.916454
 20
141.4766349999999
 30
0.0
 40
1.624422
100
AcDbArc
 50
287.959436
 51
292.6812709999999
  0
ARC
  5
B77D
330
B518
100
AcDbEntity
  8
1
  6
Continuous
100
AcDbCircle
 10
86.93708199999996
 20
141.4274269999999
 30
0.0
 40
1.571066
100
AcDbArc
 50
292.679167
 51
297.562031
  0
ARC
  5
B77E
330
B518
100
AcDbEntity
  8
1
  6
Continuous
100
AcDbCircle
 10
86.96491399999997
 20
141.3742229999998
 30
0.0
 40
1.511021999999999
100
AcDbArc
 50
297.559932
 51
302.6376649999999
  0
ARC
  5
B77F
330
B518
100
AcDbEntity
  8
1
  6
Continuous
100
AcDbCircle
 10
86.999829
 20
141.3197999999999
 30
0.0
 40
1.446361999999998
100
AcDbArc
 50
302.635654
 51
307.9412899999999
  0
ARC
  5
B780
330
B518
100
AcDbEntity
  8
1
  6
Continuous
100
AcDbCircle
 10
87.04102799999999
 20
141.267027
 30
0.0
 40
1.379410999999999
100
AcDbArc
 50
307.9395069999999
 51
313.5034989999998
  0
ARC
  5
B781
330
B518
100
AcDbEntity
  8
1
  6
Continuous
100
AcDbCircle
 10
87.08698000000003
 20
141.2186539999999
 30
0.0
 40
1.312691999999998
100
AcDbArc
 50
313.5021509999999
 51
319.349606
  0
ARC
  5
B782
330
B518
100
AcDbEntity
  8
1
  6
Continuous
100
AcDbCircle
 10
87.13543299999995
 20
141.1770699999999
 30
0.0
 40
1.248841
100
AcDbArc
 50
319.348971
 51
325.4957589999999
  0
ARC
  5
B783
330
B518
100
AcDbEntity
  8
1
  6
Continuous
100
AcDbCircle
 10
87.183497
 20
141.1440199999999
 30
0.0
 40
1.190509999999998
100
AcDbArc
 50
325.4961609999999
 51
331.944093
  0
ARC
  5
B784
330
B518
100
AcDbEntity
  8
1
  6
Continuous
100
AcDbCircle
 10
87.22784299999998
 20
141.1203459999998
 30
0.0
 40
1.140241
100
AcDbArc
 50
331.9458369999999
 51
338.6775749999998
  0
ARC
  5
B785
330
B518
100
AcDbEntity
  8
1
  6
Continuous
100
AcDbCircle
 10
87.26501
 20
141.105771
 30
0.0
 40
1.100317999999999
100
AcDbArc
 50
338.6808439999999
 51
345.655934
  0
ARC
  5
B786
330
B518
100
AcDbEntity
  8
1
  6
Continuous
100
AcDbCircle
 10
87.29181700000003
 20
141.098825
 30
0.0
 40
1.072626
100
AcDbArc
 50
345.66066
 51
352.814565
  0
ARC
  5
B787
330
B518
100
AcDbEntity
  8
1
  6
Continuous
100
AcDbCircle
 10
87.30583100000002
 20
141.0969519999999
 30
0.0
 40
1.058487999999997
100
AcDbArc
 50
352.8203020000002
 51
0.087132
  0
LINE
  5
B788
330
B518
100
AcDbEntity
  8
1
  6
Continuous
100
AcDbLine
 10
88.42553700000001
 20
168.8261709999999
 30
0.0
 11
91.11431899999999
 21
168.8261709999999
 31
0.0
  0
LINE
  5
B789
330
B518
100
AcDbEntity
  8
1
  6
Continuous
100
AcDbLine
 10
91.11431899999999
 20
166.8794389999999
 30
0.0
 11
88.06431600000001
 21
166.8794389999999
 31
0.0
  0
ARC
  5
B78A
330
B518
100
AcDbEntity
  8
1
  6
Continuous
100
AcDbCircle
 10
89.36431899999998
 20
156.7924869999999
 30
0.0
 40
1.0
100
AcDbArc
 50
90.00000300000001
 51
180.000005
  0
ARC
  5
B78B
330
B518
100
AcDbEntity
  8
1
  6
Continuous
100
AcDbCircle
 10
90.425537
 20
167.144881
 30
0.0
 40
10.0
100
AcDbArc
 50
179.9999909999999
 51
220.5254839999998
  0
LINE
  5
B78C
330
B518
100
AcDbEntity
  8
1
  6
Continuous
100
AcDbLine
 10
83.359482
 20
157.173183
 30
0.0
 11
80.52436099999999
 21
160.489689
 31
0.0
  0
LINE
  5
B78D
330
B518
100
AcDbEntity
  8
1
  6
Continuous
100
AcDbLine
 10
84.766075
 20
158.375609
 30
0.0
 11
82.82436399999998
 21
160.647012
 31
0.0
  0
LINE
  5
B78E
330
B518
100
AcDbEntity
  8
1
  6
Continuous
100
AcDbLine
 10
80.96143499999998
 20
166.664063
 30
0.0
 11
84.88963899999998
 21
166.664063
 31
0.0
  0
LINE
  5
B78F
330
B518
100
AcDbEntity
  8
1
  6
Continuous
100
AcDbLine
 10
81.23654300000003
 20
163.199962
 30
0.0
 11
84.88963899999998
 21
163.199962
 31
0.0
  0
ARC
  5
B790
330
B518
100
AcDbEntity
  8
1
  6
Continuous
100
AcDbCircle
 10
83.49252400000002
 20
164.9320129999999
 30
0.0
 40
3.066986999999998
100
AcDbArc
 50
145.615753
 51
165.15572
  0
ARC
  5
B791
330
B518
100
AcDbEntity
  8
1
  6
Continuous
100
AcDbCircle
 10
82.35854999999999
 20
164.9320129999999
 30
0.0
 40
3.066986999999998
100
AcDbArc
 50
334.384247
 51
34.38424699999998
  0
LINE
  5
B792
330
B518
100
AcDbEntity
  8
1
  6
Continuous
100
AcDbLine
 10
84.88963899999998
 20
163.199962
 30
0.0
 11
85.425537
 21
164.1281649999999
 31
0.0
  0
ARC
  5
B793
330
B518
100
AcDbEntity
  8
1
  6
Continuous
100
AcDbCircle
 10
74.73751800000002
 20
162.703711
 30
0.0
 40
1.0
100
AcDbArc
 50
104.557492
 51
180.000005
  0
LINE
  5
B794
330
B518
100
AcDbEntity
  8
1
  6
Continuous
100
AcDbLine
 10
74.237465
 20
157.2082699999999
 30
0.0
 11
75.47152
 21
158.326624
 31
0.0
  0
ARC
  5
B795
330
B518
100
AcDbEntity
  8
1
  6
Continuous
100
AcDbCircle
 10
74.800003
 20
159.067614
 30
0.0
 40
1.0
100
AcDbArc
 50
312.1842299999999
 51
0.0
  0
ARC
  5
B796
330
B518
100
AcDbEntity
  8
1
  6
Continuous
100
AcDbCircle
 10
74.90898100000002
 20
156.467281
 30
0.0
 40
1.0
100
AcDbArc
 50
132.18423
 51
180.0
  0
LINE
  5
B797
330
B518
100
AcDbEntity
  8
1
  6
Continuous
100
AcDbLine
 10
75.800003
 20
164.180583
 30
0.0
 11
75.800003
 21
159.067614
 31
0.0
  0
ARC
  5
B798
330
B518
100
AcDbEntity
  8
1
  6
Continuous
100
AcDbCircle
 10
88.125534
 20
166.9875549999999
 30
0.0
 40
10.0
100
AcDbArc
 50
183.556229
 51
220.525488
  0
LINE
  5
B799
330
B518
100
AcDbEntity
  8
1
  6
Continuous
100
AcDbLine
 10
85.88168299999997
 20
152.656844
 30
0.0
 11
83.56432299999999
 21
152.656844
 31
0.0
  0
LINE
  5
B79A
330
B518
100
AcDbEntity
  8
1
  6
Continuous
100
AcDbLine
 10
83.56432299999999
 20
153.444159
 30
0.0
 11
83.56432299999999
 21
151.312461
 31
0.0
  0
ARC
  5
B79B
330
B518
100
AcDbEntity
  8
1
  6
Continuous
100
AcDbCircle
 10
84.56432300000001
 20
151.312461
 30
0.0
 40
1.0
100
AcDbArc
 50
180.0
 51
270.0
  0
LINE
  5
B79C
330
B518
100
AcDbEntity
  8
1
  6
Continuous
100
AcDbLine
 10
84.56432300000001
 20
150.312461
 30
0.0
 11
86.36431899999998
 21
150.312461
 31
0.0
  0
LINE
  5
B79D
330
B518
100
AcDbEntity
  8
1
  6
Continuous
100
AcDbLine
 10
77.36431899999998
 20
150.312461
 30
0.0
 11
78.664314
 21
150.312461
 31
0.0
  0
ARC
  5
B79E
330
B518
100
AcDbEntity
  8
1
  6
Continuous
100
AcDbCircle
 10
78.664322
 20
153.656844
 30
0.0
 40
1.0
100
AcDbArc
 50
179.9999909999999
 51
270.000001
  0
ARC
  5
B79F
330
B518
100
AcDbEntity
  8
1
  6
Continuous
100
AcDbCircle
 10
77.36431899999998
 20
152.312461
 30
0.0
 40
2.0
100
AcDbArc
 50
179.9999909999999
 51
270.000001
  0
LINE
  5
B7A0
330
B518
100
AcDbEntity
  8
1
  6
Continuous
100
AcDbLine
 10
79.66431400000002
 20
153.444159
 30
0.0
 11
79.66431400000002
 21
151.312461
 31
0.0
  0
LINE
  5
B7A1
330
B518
100
AcDbEntity
  8
1
  6
Continuous
100
AcDbLine
 10
79.66431400000002
 20
152.656844
 30
0.0
 11
78.664322
 21
152.656844
 31
0.0
  0
ARC
  5
B7A2
330
B518
100
AcDbEntity
  8
1
  6
Continuous
100
AcDbCircle
 10
78.664314
 20
151.312461
 30
0.0
 40
1.0
100
AcDbArc
 50
270.0
 51
0.0
  0
LINE
  5
B7A3
330
B518
100
AcDbEntity
  8
1
  6
Continuous
100
AcDbLine
 10
77.664322
 20
165.6975939999998
 30
0.0
 11
77.664322
 21
153.656844
 31
0.0
  0
ARC
  5
B7A4
330
B518
100
AcDbEntity
  8
1
  6
Continuous
100
AcDbCircle
 10
73.36431899999998
 20
148.6288209999998
 30
0.0
 40
13.149504
100
AcDbArc
 50
17.837903
 51
40.52549299999999
  0
ARC
  5
B7A5
330
B518
100
AcDbEntity
  8
1
  6
Continuous
100
AcDbCircle
 10
73.36431899999998
 20
163.799056
 30
0.0
 40
15.0
100
AcDbArc
 50
0.0
 51
12.06898699999998
  0
LINE
  5
B7A6
330
B518
100
AcDbEntity
  8
1
  6
Continuous
100
AcDbLine
 10
88.42553700000001
 20
167.3281649999998
 30
0.0
 11
87.225537
 21
166.128165
 31
0.0
  0
LINE
  5
B7A7
330
B518
100
AcDbEntity
  8
2
  6
Continuous
100
AcDbLine
 10
87.90203699999997
 20
166.8046649999998
 30
0.0
 11
85.425537
 21
166.8046649999998
 31
0.0
  0
LINE
  5
B7A8
330
B518
100
AcDbEntity
  8
1
  6
Continuous
100
AcDbLine
 10
85.425537
 20
166.128165
 30
0.0
 11
87.225537
 21
166.128165
 31
0.0
  0
ARC
  5
B7A9
330
B518
100
AcDbEntity
  8
1
  6
Continuous
100
AcDbCircle
 10
86.36431899999998
 20
152.312461
 30
0.0
 40
2.0
100
AcDbArc
 50
269.9999969999999
 51
0.0
  0
ARC
  5
B7AA
330
B518
100
AcDbEntity
  8
1
  6
Continuous
100
AcDbCircle
 10
73.36431899999998
 20
148.6288209999998
 30
0.0
 40
15.0
100
AcDbArc
 50
10.441013
 51
40.52549299999999
  0
ARC
  5
B7AB
330
B518
100
AcDbEntity
  8
1
  6
Continuous
100
AcDbCircle
 10
96.10394300000001
 20
162.3359589999998
 30
0.0
 40
3.260378999999999
100
AcDbArc
 50
298.842643
 51
61.157357
  0
ARC
  5
B7AC
330
B518
100
AcDbEntity
  8
1
  6
Continuous
100
AcDbCircle
 10
96.10394300000001
 20
164.282691
 30
0.0
 40
3.260378999999999
100
AcDbArc
 50
0.0
 51
61.157357
  0
LINE
  5
B7AD
330
B518
100
AcDbEntity
  8
1
  6
Continuous
100
AcDbLine
 10
99.364319
 20
162.3359589999998
 30
0.0
 11
99.364319
 21
164.282691
 31
0.0
  0
LINE
  5
B7AE
330
B518
100
AcDbEntity
  8
1
  6
Continuous
100
AcDbLine
 10
91.11431899999999
 20
157.7924869999999
 30
0.0
 11
89.36431899999998
 21
157.7924869999999
 31
0.0
  0
ARC
  5
B7AF
330
B518
100
AcDbEntity
  8
1
  6
Continuous
100
AcDbCircle
 10
91.11431899999999
 20
155.222586
 30
0.0
 40
13.60358299999999
100
AcDbArc
 50
61.157357
 51
90.00000300000001
  0
ARC
  5
B7B0
330
B518
100
AcDbEntity
  8
1
  6
Continuous
100
AcDbCircle
 10
91.11431899999999
 20
153.275855
 30
0.0
 40
13.60358299999999
100
AcDbArc
 50
61.157357
 51
90.00000300000001
  0
ARC
  5
B7B1
330
B518
100
AcDbEntity
  8
1
  6
Continuous
100
AcDbCircle
 10
91.11431899999999
 20
171.396071
 30
0.0
 40
13.60358299999999
100
AcDbArc
 50
269.9999969999999
 51
298.842643
  0
ARC
  5
B7B2
330
B518
100
AcDbEntity
  8
1
  6
Continuous
100
AcDbCircle
 10
67.03250099999999
 20
185.203562
 30
0.0
 40
14.39302999999999
100
AcDbArc
 50
0.0
 51
31.757344
  0
LINE
  5
B7B3
330
B518
100
AcDbEntity
  8
1
  6
Continuous
100
AcDbLine
 10
76.970673
 20
200.144976
 30
0.0
 11
76.970673
 21
181.8340479999999
 31
0.0
  0
ARC
  5
B7B4
330
B518
100
AcDbEntity
  8
1
  6
Continuous
100
AcDbCircle
 10
86.720673
 20
204.714877
 30
0.0
 40
13.60358299999999
100
AcDbArc
 50
269.9999969999999
 51
298.842643
  0
LINE
  5
B7B5
330
B518
100
AcDbEntity
  8
1
  6
Continuous
100
AcDbLine
 10
84.01354399999998
 20
177.0563679999999
 30
0.0
 11
81.42552899999998
 21
183.1170179999998
 31
0.0
  0
LINE
  5
B7B6
330
B518
100
AcDbEntity
  8
1
  6
Continuous
100
AcDbLine
 10
80.157211
 20
191.111296
 30
0.0
 11
86.720673
 21
191.111296
 31
0.0
  0
LINE
  5
B7B7
330
B518
100
AcDbEntity
  8
1
  6
Continuous
100
AcDbLine
 10
84.88963899999998
 20
177.0563679999999
 30
0.0
 11
85.425537
 21
176.1281649999999
 31
0.0
  0
LINE
  5
B7B8
330
B518
100
AcDbEntity
  8
1
  6
Continuous
100
AcDbLine
 10
81.425537
 20
177.0563679999999
 30
0.0
 11
84.88963899999998
 21
177.0563679999999
 31
0.0
  0
ARC
  5
B7B9
330
B518
100
AcDbEntity
  8
1
  6
Continuous
100
AcDbCircle
 10
67.03250099999999
 20
185.203562
 30
0.0
 40
12.09303
100
AcDbArc
 50
0.0
 51
34.733595
  0
LINE
  5
B7BA
330
B518
100
AcDbEntity
  8
1
  6
Continuous
100
AcDbLine
 10
75.800003
 20
189.091876
 30
0.0
 11
75.800003
 21
176.976724
 31
0.0
  0
ARC
  5
B7BB
330
B518
100
AcDbEntity
  8
1
  6
Continuous
100
AcDbCircle
 10
75.73751800000002
 20
179.900092
 30
0.0
 40
2.0
100
AcDbArc
 50
179.9999909999999
 51
224.849062
  0
LINE
  5
B7BC
330
B518
100
AcDbEntity
  8
1
  6
Continuous
100
AcDbLine
 10
79.125534
 20
185.203562
 30
0.0
 11
79.125534
 21
176.201655
 31
0.0
  0
LINE
  5
B7BD
330
B518
100
AcDbEntity
  8
1
  6
Continuous
100
AcDbLine
 10
75.3311
 20
177.4727389999999
 30
0.0
 11
74.31959499999997
 21
178.4895969999998
 31
0.0
  0
LINE
  5
B7BE
330
B518
100
AcDbEntity
  8
1
  6
Continuous
100
AcDbLine
 10
75.800003
 20
184.95822
 30
0.0
 11
76.970673
 21
184.95822
 31
0.0
  0
LINE
  5
B7BF
330
B518
100
AcDbEntity
  8
1
  6
Continuous
100
AcDbLine
 10
74.73751800000002
 20
190.091876
 30
0.0
 11
74.800003
 21
190.091876
 31
0.0
  0
LINE
  5
B7C0
330
B518
100
AcDbEntity
  8
1
  6
Continuous
100
AcDbLine
 10
75.800003
 20
187.2582189999999
 30
0.0
 11
76.970673
 21
187.2582189999999
 31
0.0
  0
ARC
  5
B7C1
330
B518
100
AcDbEntity
  8
1
  6
Continuous
100
AcDbCircle
 10
74.73751800000002
 20
191.091876
 30
0.0
 40
1.0
100
AcDbArc
 50
180.0
 51
270.0
  0
ARC
  5
B7C2
330
B518
100
AcDbEntity
  8
1
  6
Continuous
100
AcDbCircle
 10
74.800003
 20
189.091876
 30
0.0
 40
1.0
100
AcDbArc
 50
0.0
 51
90.0
  0
ARC
  5
B7C3
330
B518
100
AcDbEntity
  8
1
  6
Continuous
100
AcDbCircle
 10
81.425537
 20
173.835227
 30
0.0
 40
1.0
100
AcDbArc
 50
120.0000029999998
 51
180.000005
  0
ARC
  5
B7C4
330
B518
100
AcDbEntity
  8
1
  6
Continuous
100
AcDbCircle
 10
80.425537
 20
175.567275
 30
0.0
 40
1.0
100
AcDbArc
 50
299.999998
 51
0.0
  0
ARC
  5
B7C5
330
B518
100
AcDbEntity
  8
1
  6
Continuous
100
AcDbCircle
 10
83.49252400000002
 20
175.3243169999999
 30
0.0
 40
3.066986999999998
100
AcDbArc
 50
198.1855119999999
 51
214.384247
  0
LINE
  5
B7C6
330
B518
100
AcDbEntity
  8
1
  6
Continuous
100
AcDbLine
 10
80.96143499999998
 20
173.5922669999999
 30
0.0
 11
84.88963899999998
 21
173.5922669999999
 31
0.0
  0
LINE
  5
B7C7
330
B518
100
AcDbEntity
  8
1
  6
Continuous
100
AcDbLine
 10
78.125534
 20
173.835227
 30
0.0
 11
78.125534
 21
173.35279
 31
0.0
  0
ARC
  5
B7C8
330
B518
100
AcDbEntity
  8
1
  6
Continuous
100
AcDbCircle
 10
85.40911899999997
 20
181.8340479999999
 30
0.0
 40
8.438442999999997
100
AcDbArc
 50
179.9999909999999
 51
221.8719609999999
  0
LINE
  5
B7C9
330
B518
100
AcDbEntity
  8
1
  6
Continuous
100
AcDbLine
 10
81.425537
 20
185.203562
 30
0.0
 11
81.425537
 21
175.567275
 31
0.0
  0
ARC
  5
B7CA
330
B518
100
AcDbEntity
  8
1
  6
Continuous
100
AcDbCircle
 10
81.425537
 20
173.835227
 30
0.0
 40
3.299999999999998
100
AcDbArc
 50
134.18438
 51
180.000005
  0
ARC
  5
B7CB
330
B518
100
AcDbEntity
  8
1
  6
Continuous
100
AcDbCircle
 10
65.827591
 20
168.019171
 30
0.0
 40
13.404729
100
AcDbArc
 50
12.41579699999999
 51
44.84906099999999
  0
LINE
  5
B7CC
330
B518
100
AcDbEntity
  8
1
  6
Continuous
100
AcDbLine
 10
78.125534
 20
177.5729849999999
 30
0.0
 11
78.125534
 21
173.35279
 31
0.0
  0
ARC
  5
B7CD
330
B518
100
AcDbEntity
  8
1
  6
Continuous
100
AcDbCircle
 10
82.35854999999999
 20
175.3243169999999
 30
0.0
 40
3.066986999999998
100
AcDbArc
 50
325.6157529999999
 51
25.615753
  0
LINE
  5
B7CE
330
B518
100
AcDbEntity
  8
1
  6
Continuous
100
AcDbLine
 10
88.42553700000001
 20
172.9281649999999
 30
0.0
 11
87.225537
 21
174.1281649999999
 31
0.0
  0
LINE
  5
B7CF
330
B518
100
AcDbEntity
  8
2
  6
Continuous
100
AcDbLine
 10
87.90203699999997
 20
173.4516649999999
 30
0.0
 11
85.425537
 21
173.4516649999999
 31
0.0
  0
LINE
  5
B7D0
330
B518
100
AcDbEntity
  8
1
  6
Continuous
100
AcDbLine
 10
85.425537
 20
174.1281649999999
 30
0.0
 11
87.225537
 21
174.1281649999999
 31
0.0
  0
ARC
  5
B7D1
330
B518
100
AcDbEntity
  8
1
  6
Continuous
100
AcDbCircle
 10
86.720673
 20
188.5413919999998
 30
0.0
 40
13.60358299999999
100
AcDbArc
 50
61.157357
 51
90.00000300000001
  0
ARC
  5
B7D2
330
B518
100
AcDbEntity
  8
1
  6
Continuous
100
AcDbCircle
 10
86.720673
 20
186.5946609999998
 30
0.0
 40
13.60358299999999
100
AcDbArc
 50
61.157357
 51
90.00000300000001
  0
LINE
  5
B7D3
330
B518
100
AcDbEntity
  8
1
  6
Continuous
100
AcDbLine
 10
86.720673
 20
200.1982449999999
 30
0.0
 11
80.27067599999998
 21
200.1982449999999
 31
0.0
  0
ARC
  5
B7D4
330
B518
100
AcDbEntity
  8
1
  6
Continuous
100
AcDbCircle
 10
78.970673
 20
200.144976
 30
0.0
 40
2.0
100
AcDbArc
 50
90.00000300000001
 51
180.000005
  0
LINE
  5
B7D5
330
B518
100
AcDbEntity
  8
1
  6
Continuous
100
AcDbLine
 10
86.720673
 20
202.144976
 30
0.0
 11
78.970673
 21
202.144976
 31
0.0
  0
ARC
  5
B7D6
330
B518
100
AcDbEntity
  8
1
  6
Continuous
100
AcDbCircle
 10
80.27067599999998
 20
199.1982449999999
 30
0.0
 40
1.0
100
AcDbArc
 50
90.00000300000001
 51
180.000005
  0
LINE
  5
B7D7
330
B518
100
AcDbEntity
  8
1
  6
Continuous
100
AcDbLine
 10
73.23751800000002
 20
193.5737409999999
 30
0.0
 11
73.73751799999998
 21
193.5737409999999
 31
0.0
  0
LINE
  5
B7D8
330
B518
100
AcDbEntity
  8
1
  6
Continuous
100
AcDbLine
 10
79.27067599999998
 20
199.1982449999999
 30
0.0
 11
79.27067599999998
 21
192.778941
 31
0.0
  0
LINE
  5
B7D9
330
B518
100
AcDbEntity
  8
1
  6
Continuous
100
AcDbLine
 10
94.97067300000001
 20
195.6547689999999
 30
0.0
 11
94.97067300000001
 21
197.6014999999999
 31
0.0
  0
ARC
  5
B7DA
330
B518
100
AcDbEntity
  8
1
  6
Continuous
100
AcDbCircle
 10
91.710297
 20
195.6547689999999
 30
0.0
 40
3.260378999999999
100
AcDbArc
 50
298.842643
 51
61.157357
  0
ARC
  5
B7DB
330
B518
100
AcDbEntity
  8
1
  6
Continuous
100
AcDbCircle
 10
91.710297
 20
197.6014999999999
 30
0.0
 40
3.260378999999999
100
AcDbArc
 50
0.0
 51
61.157357
  0
LINE
  5
B7DC
330
B518
100
AcDbEntity
  8
1
  6
Continuous
100
AcDbLine
 10
82.0
 20
191.111296
 30
0.0
 11
82.0
 21
181.771715
 31
0.0
  0
LINE
  5
B7DD
330
B518
100
AcDbEntity
  8
1
  6
Continuous
100
AcDbLine
 10
73.23751800000002
 20
162.0318519999999
 30
0.0
 11
73.73751799999998
 21
162.0318519999999
 31
0.0
  0
ARC
  5
B7DE
330
B518
100
AcDbEntity
  8
5
  6
PHANTOM
100
AcDbCircle
 10
147.17606
 20
169.7002169999999
 30
0.0
 40
15.79532099999999
100
AcDbArc
 50
97.32105600000002
 51
128.220661
  0
LINE
  5
B7DF
330
B518
100
AcDbEntity
  8
5
  6
PHANTOM
100
AcDbLine
 10
144.5122649999998
 20
178.556574
 30
0.0
 11
138.1025939999998
 21
178.558441
 31
0.0
  0
LINE
  5
B7E0
330
B518
100
AcDbEntity
  8
1
  6
Continuous
100
AcDbLine
 10
147.854984
 20
192.58164
 30
0.0
 11
134.0826419999999
 21
201.6685879999998
 31
0.0
  0
LINE
  5
B7E1
330
B518
100
AcDbEntity
  8
1
  6
Continuous
100
AcDbLine
 10
146.5883169999998
 20
190.661857
 30
0.0
 11
132.815975
 21
199.748804
 31
0.0
  0
ARC
  5
B7E2
330
B518
100
AcDbEntity
  8
5
  6
PHANTOM
100
AcDbCircle
 10
140.2331659999999
 20
156.531996
 30
0.0
 40
8.575032999999997
100
AcDbArc
 50
181.2138309999999
 51
15.13168599999999
  0
ARC
  5
B7E3
330
B518
100
AcDbEntity
  8
5
  6
PHANTOM
100
AcDbCircle
 10
139.96112
 20
155.1311959999999
 30
0.0
 40
6.0
100
AcDbArc
 50
129.0671949999999
 51
39.154663
  0
ARC
  5
B7E4
330
B518
100
AcDbEntity
  8
5
  6
PHANTOM
100
AcDbCircle
 10
150.2357849999999
 20
254.7427939999999
 30
0.0
 40
95.98788500000001
100
AcDbArc
 50
253.5469040000001
 51
286.052505
  0
ARC
  5
B7E5
330
B518
100
AcDbEntity
  8
1
  6
Continuous
100
AcDbCircle
 10
198.854485
 20
246.615324
 30
0.0
 40
95.98788500000001
100
AcDbArc
 50
220.146904
 51
252.652505
  0
ARC
  5
B7E6
330
B518
100
AcDbEntity
  8
1
  6
Continuous
100
AcDbCircle
 10
136.4406659999999
 20
170.1304979999999
 30
0.0
 40
8.575032999999997
100
AcDbArc
 50
147.813831
 51
341.7316859999999
  0
LINE
  5
B7E7
330
B518
100
AcDbEntity
  8
1
  6
Continuous
100
AcDbLine
 10
144.8552489999999
 20
189.980785
 30
0.0
 11
140.0839689999999
 21
174.090892
 31
0.0
  0
ARC
  5
B7E8
330
B518
100
AcDbEntity
  8
1
  6
Continuous
100
AcDbCircle
 10
135.4424359999999
 20
169.1107989999999
 30
0.0
 40
6.0
100
AcDbArc
 50
95.66719500000001
 51
5.754662999999997
  0
LINE
  5
B7E9
330
B518
100
AcDbEntity
  8
5
  6
PHANTOM
100
AcDbLine
 10
136.330862
 20
177.7360319999999
 30
0.0
 11
141.094649
 21
161.8438899999999
 31
0.0
  0
LINE
  5
B7EA
330
B518
100
AcDbEntity
  8
5
  6
PHANTOM
100
AcDbLine
 10
120.8987999999998
 20
165.563456
 30
0.0
 11
120.9034629999998
 21
181.563456
 31
0.0
  0
ARC
  5
B7EB
330
B518
100
AcDbEntity
  8
5
  6
PHANTOM
100
AcDbCircle
 10
129.860762
 20
174.9278539999999
 30
0.0
 40
10.06566899999999
100
AcDbArc
 50
221.412749
 51
256.3596039999998
  0
ARC
  5
B7EC
330
B518
100
AcDbEntity
  8
5
  6
PHANTOM
100
AcDbCircle
 10
123.8987999999998
 20
165.562576
 30
0.0
 40
3.0
100
AcDbArc
 50
179.983304
 51
253.546914
  0
LINE
  5
B7ED
330
B518
100
AcDbEntity
  8
5
  6
PHANTOM
100
AcDbLine
 10
131.570282
 20
160.5872119999999
 30
0.0
 11
131.660054
 21
156.350347
 31
0.0
  0
LINE
  5
B7EE
330
B518
100
AcDbEntity
  8
5
  6
PHANTOM
100
AcDbLine
 10
127.4869999999999
 20
165.146081
 30
0.0
 11
141.0946459999999
 21
161.843887
 31
0.0
  0
LINE
  5
B7EF
330
B518
100
AcDbEntity
  8
1
  6
Continuous
100
AcDbLine
 10
125.271057
 20
188.3135889999999
 30
0.0
 11
134.0826419999999
 21
201.6685879999998
 31
0.0
  0
ARC
  5
B7F0
330
B518
100
AcDbEntity
  8
1
  6
Continuous
100
AcDbCircle
 10
127.7751159999999
 20
186.6614129999999
 30
0.0
 40
3.0
100
AcDbArc
 50
146.5833039999999
 51
220.1469139999999
  0
LINE
  5
B7F1
330
B518
100
AcDbEntity
  8
5
  6
PHANTOM
100
AcDbLine
 10
137.4034639999998
 20
181.558646
 30
0.0
 11
120.9034629999998
 21
181.563456
 31
0.0
  0
LINE
  5
B7F2
330
B518
100
AcDbEntity
  8
5
  6
PHANTOM
100
AcDbLine
 10
137.402793
 20
179.258644
 30
0.0
 11
120.902794
 21
179.2634529999999
 31
0.0
  0
ARC
  5
B7F3
330
B518
100
AcDbEntity
  8
5
  6
PHANTOM
100
AcDbCircle
 10
138.1027939999998
 20
179.2584399999999
 30
0.0
 40
0.7
100
AcDbArc
 50
179.983304
 51
269.9832999999998
  0
LINE
  5
B7F4
330
B518
100
AcDbEntity
  8
5
  6
PHANTOM
100
AcDbLine
 10
137.402793
 20
179.258644
 30
0.0
 11
137.4034639999998
 21
181.558646
 31
0.0
  0
ARC
  5
B7F5
330
B518
100
AcDbEntity
  8
1
  6
Continuous
100
AcDbCircle
 10
137.9078519999999
 20
191.1980489999999
 30
0.0
 40
10.06566899999999
100
AcDbArc
 50
188.0127489999999
 51
222.959604
  0
LINE
  5
B7F6
330
B518
100
AcDbEntity
  8
1
  6
Continuous
100
AcDbLine
 10
131.4407939999999
 20
178.2847369999998
 30
0.0
 11
129.1834279999999
 21
174.698182
 31
0.0
  0
LINE
  5
B7F7
330
B518
100
AcDbEntity
  8
1
  6
Continuous
100
AcDbLine
 10
130.5414449999998
 20
184.3384669999998
 30
0.0
 11
140.0839649999998
 21
174.0908909999999
 31
0.0
  0
ARC
  5
B7F8
330
B518
100
AcDbEntity
  8
1
  6
Continuous
100
AcDbCircle
 10
191.2269359999999
 20
168.410451
 30
0.0
 40
6.0
100
AcDbArc
 50
288.381573
 51
98.41279900000001
  0
ARC
  5
B7F9
330
B518
100
AcDbEntity
  8
1
  6
Continuous
100
AcDbCircle
 10
144.9629969999998
 20
136.081182
 30
0.0
 40
48.252899
100
AcDbArc
 50
38.913825
 51
73.93123100000003
  0
ARC
  5
B7FA
330
B518
100
AcDbEntity
  8
1
  6
Continuous
100
AcDbCircle
 10
191.2269359999999
 20
168.410451
 30
0.0
 40
8.202799
100
AcDbArc
 50
299.6882959999999
 51
82.515546
  0
LINE
  5
B7FB
330
B518
100
AcDbEntity
  8
5
  6
PHANTOM
100
AcDbLine
 10
197.9034649999999
 20
181.541009
 30
0.0
 11
198.396615
 21
158.0408659999999
 31
0.0
  0
ARC
  5
B7FC
330
B518
100
AcDbEntity
  8
5
  6
PHANTOM
100
AcDbCircle
 10
177.1289699999999
 20
161.278478
 30
0.0
 40
1.268591
100
AcDbArc
 50
359.9832989999999
 51
106.05251
  0
ARC
  5
B7FD
330
B518
100
AcDbEntity
  8
5
  6
PHANTOM
100
AcDbCircle
 10
179.3969109999999
 20
159.046404
 30
0.0
 40
1.0
100
AcDbArc
 50
179.983304
 51
269.9832999999998
  0
ARC
  5
B7FE
330
B518
100
AcDbEntity
  8
1
  6
Continuous
100
AcDbCircle
 10
176.098656
 20
159.527837
 30
0.0
 40
17.642815
100
AcDbArc
 50
260.994776
 51
286.0543159999998
  0
LINE
  5
B7FF
330
B518
100
AcDbEntity
  8
1
  6
Continuous
100
AcDbLine
 10
169.9698419999998
 20
149.836074
 30
0.0
 11
185.828901
 21
139.372318
 31
0.0
  0
ARC
  5
B800
330
B518
100
AcDbEntity
  8
5
  6
PHANTOM
100
AcDbCircle
 10
172.2316999999999
 20
184.828348
 30
0.0
 40
34.461349
100
AcDbArc
 50
274.652039
 51
294.394776
  0
ARC
  5
B801
330
B518
100
AcDbEntity
  8
1
  6
Continuous
100
AcDbCircle
 10
174.624458
 20
168.6528909999998
 30
0.0
 40
25.922735
100
AcDbArc
 50
210.860647
 51
241.252039
  0
ARC
  5
B802
330
B518
100
AcDbEntity
  8
1
  6
Continuous
100
AcDbCircle
 10
178.7311709999999
 20
176.1390699999998
 30
0.0
 40
34.461349
100
AcDbArc
 50
241.252039
 51
260.994776
  0
ARC
  5
B803
330
B518
100
AcDbEntity
  8
5
  6
PHANTOM
100
AcDbCircle
 10
175.455903
 20
181.5690899999999
 30
0.0
 40
31.752382
100
AcDbArc
 50
225.802553
 51
244.260647
  0
ARC
  5
B804
330
B518
100
AcDbEntity
  8
1
  6
Continuous
100
AcDbCircle
 10
179.6287309999999
 20
171.643224
 30
0.0
 40
31.752382
100
AcDbArc
 50
192.402553
 51
210.860647
  0
LINE
  5
B805
330
B518
100
AcDbEntity
  8
5
  6
PHANTOM
100
AcDbLine
 10
178.3969069999999
 20
159.046697
 30
0.0
 11
178.397558
 21
161.2781029999999
 31
0.0
  0
ARC
  5
B806
330
B518
100
AcDbEntity
  8
1
  6
Continuous
100
AcDbCircle
 10
170.5205689999999
 20
150.6707589999998
 30
0.0
 40
1.0
100
AcDbArc
 50
146.5833039999999
 51
236.5833
  0
LINE
  5
B807
330
B518
100
AcDbEntity
  8
1
  6
Continuous
100
AcDbLine
 10
169.685879
 20
151.221487
 30
0.0
 11
170.9161039999998
 21
153.086038
 31
0.0
  0
ARC
  5
B808
330
B518
100
AcDbEntity
  8
5
  6
PHANTOM
100
AcDbCircle
 10
172.924217
 20
176.3178609999999
 30
0.0
 40
25.922735
100
AcDbArc
 50
244.260647
 51
274.652039
  0
ARC
  5
B809
330
B518
100
AcDbEntity
  8
1
  6
Continuous
100
AcDbCircle
 10
169.8558959999998
 20
153.7826589999999
 30
0.0
 40
1.268591
100
AcDbArc
 50
326.583299
 51
72.65250999999998
  0
LINE
  5
B80A
330
B518
100
AcDbEntity
  8
1
  6
Continuous
100
AcDbLine
 10
198.353573
 20
159.26283
 30
0.0
 11
185.828901
 21
139.3723159999999
 31
0.0
  0
LINE
  5
B80B
330
B518
100
AcDbEntity
  8
1
  6
Continuous
100
AcDbLine
 10
183.3145659999999
 20
166.4299959999999
 30
0.0
 11
197.12775
 21
157.3160999999998
 31
0.0
  0
LINE
  5
B80C
330
B518
100
AcDbEntity
  8
1
  6
Continuous
100
AcDbLine
 10
184.581232
 20
168.34978
 30
0.0
 11
198.353573
 21
159.262833
 31
0.0
  0
LINE
  5
B80D
330
B518
100
AcDbEntity
  8
5
  6
PHANTOM
100
AcDbLine
 10
179.396616
 20
158.0464049999999
 30
0.0
 11
198.3966139999998
 21
158.0408669999999
 31
0.0
  0
LINE
  5
B80E
330
B518
100
AcDbEntity
  8
1
  6
Continuous
100
AcDbLine
 10
184.581232
 20
168.34978
 30
0.0
 11
183.3145659999999
 21
166.4299959999999
 31
0.0
  0
ARC
  5
B80F
330
B518
100
AcDbEntity
  8
1
  6
Continuous
100
AcDbCircle
 10
182.8972239999999
 20
166.7053579999999
 30
0.0
 40
0.5
100
AcDbArc
 50
218.913823
 51
326.583299
  0
ARC
  5
B810
330
B518
100
AcDbEntity
  8
5
  6
PHANTOM
100
AcDbCircle
 10
179.1781139999999
 20
169.511347
 30
0.0
 40
17.642815
100
AcDbArc
 50
294.394776
 51
319.454316
  0
ARC
  5
B811
330
B518
100
AcDbEntity
  8
5
  6
PHANTOM
100
AcDbCircle
 10
166.091509
 20
132.797376
 30
0.0
 40
48.252899
100
AcDbArc
 50
72.31382499999998
 51
107.331231
  0
ARC
  5
B812
330
B518
100
AcDbEntity
  8
1
  6
Continuous
100
AcDbCircle
 10
149.485779
 20
177.3020299999998
 30
0.0
 40
15.79532099999999
100
AcDbArc
 50
63.921056
 51
97.943055
  0
LINE
  5
B813
330
B518
100
AcDbEntity
  8
1
  6
Continuous
100
AcDbLine
 10
146.5883169999998
 20
190.661857
 30
0.0
 11
147.854984
 21
192.58164
 31
0.0
  0
ARC
  5
B814
330
B518
100
AcDbEntity
  8
1
  6
Continuous
100
AcDbCircle
 10
141.536987
 20
166.379972
 30
0.0
 40
29.076162
100
AcDbArc
 50
34.854742
 51
51.94479099999998
  0
ARC
  5
B815
330
B518
100
AcDbEntity
  8
5
  6
PHANTOM
100
AcDbCircle
 10
138.15257
 20
135.14686
 30
0.0
 40
51.749001
100
AcDbArc
 50
62.15266800000001
 51
68.254739
  0
LINE
  5
B816
330
B518
100
AcDbEntity
  8
1
  6
Continuous
100
AcDbLine
 10
156.7924139999998
 20
183.7997679999998
 30
0.0
 11
157.588061
 21
185.421993
 31
0.0
  0
ARC
  5
B817
330
B518
100
AcDbEntity
  8
1
  6
Continuous
100
AcDbCircle
 10
157.235016
 20
183.582681
 30
0.0
 40
0.492976
100
AcDbArc
 50
153.8735889999998
 51
254.4024709999999
  0
LINE
  5
B818
330
B518
100
AcDbEntity
  8
1
  6
Continuous
100
AcDbLine
 10
157.102461
 20
183.1078599999999
 30
0.0
 11
158.318959
 21
182.448848
 31
0.0
  0
LINE
  5
B819
330
B518
100
AcDbEntity
  8
1
  6
Continuous
100
AcDbLine
 10
157.015638
 20
186.4352909999998
 30
0.0
 11
153.0136919999999
 21
186.781831
 31
0.0
  0
LINE
  5
B81A
330
B518
100
AcDbEntity
  8
1
  6
Continuous
100
AcDbLine
 10
152.137169
 20
186.1621089999999
 30
0.0
 11
146.7870969999998
 21
189.692068
 31
0.0
  0
ARC
  5
B81B
330
B518
100
AcDbEntity
  8
1
  6
Continuous
100
AcDbCircle
 10
147.1725999999998
 20
190.27635
 30
0.0
 40
0.7
100
AcDbArc
 50
146.5833039999999
 51
236.5833
  0
ARC
  5
B81C
330
B518
100
AcDbEntity
  8
1
  6
Continuous
100
AcDbCircle
 10
152.352135
 20
186.487909
 30
0.0
 40
0.390329
100
AcDbArc
 50
236.583304
 51
326.583299
  0
LINE
  5
B81D
330
B518
100
AcDbEntity
  8
1
  6
Continuous
100
AcDbLine
 10
153.013694
 20
186.781833
 30
0.0
 11
152.677933
 21
186.2729469999999
 31
0.0
  0
LINE
  5
B81E
330
B518
100
AcDbEntity
  8
1
  6
Continuous
100
AcDbLine
 10
153.013694
 20
186.781833
 30
0.0
 11
152.677933
 21
186.2729469999999
 31
0.0
  0
ARC
  5
B81F
330
B518
100
AcDbEntity
  8
1
  6
Continuous
100
AcDbCircle
 10
156.9547959999999
 20
185.732587
 30
0.0
 40
0.7053340000000003
100
AcDbArc
 50
333.873591
 51
85.05093599999998
  0
ARC
  5
B820
330
B518
100
AcDbEntity
  8
5
  6
PHANTOM
100
AcDbCircle
 10
148.16324
 20
162.016498
 30
0.0
 40
23.5422
100
AcDbArc
 50
88.34478400000001
 51
97.32105600000002
  0
LINE
  5
B821
330
B518
100
AcDbEntity
  8
5
  6
PHANTOM
100
AcDbLine
 10
149.6991089999999
 20
179.147002
 30
0.0
 11
149.4703499999999
 21
180.9393009999998
 31
0.0
  0
ARC
  5
B822
330
B518
100
AcDbEntity
  8
5
  6
PHANTOM
100
AcDbCircle
 10
150.1881159999998
 20
179.2094109999999
 30
0.0
 40
0.492976
100
AcDbArc
 50
187.273589
 51
287.8024709999999
  0
LINE
  5
B823
330
B518
100
AcDbEntity
  8
5
  6
PHANTOM
100
AcDbLine
 10
150.3388329999999
 20
178.7400389999999
 30
0.0
 11
151.7171969999999
 21
178.859523
 31
0.0
  0
LINE
  5
B824
330
B518
100
AcDbEntity
  8
5
  6
PHANTOM
100
AcDbLine
 10
148.434663
 20
181.470143
 30
0.0
 11
144.902883
 21
179.5564579999999
 31
0.0
  0
ARC
  5
B825
330
B518
100
AcDbEntity
  8
5
  6
PHANTOM
100
AcDbCircle
 10
144.512382
 20
178.946902
 30
0.0
 40
0.390329
100
AcDbArc
 50
269.9833039999999
 51
359.9832989999999
  0
LINE
  5
B826
330
B518
100
AcDbEntity
  8
5
  6
PHANTOM
100
AcDbLine
 10
144.9028839999998
 20
179.5564599999999
 30
0.0
 11
144.9027059999998
 21
178.946787
 31
0.0
  0
LINE
  5
B827
330
B518
100
AcDbEntity
  8
5
  6
PHANTOM
100
AcDbLine
 10
144.9028839999998
 20
179.5564599999999
 30
0.0
 11
144.9027059999998
 21
178.946787
 31
0.0
  0
ARC
  5
B828
330
B518
100
AcDbEntity
  8
5
  6
PHANTOM
100
AcDbCircle
 10
148.7706929999999
 20
180.85
 30
0.0
 40
0.7053340000000003
100
AcDbArc
 50
7.273590999999998
 51
118.450936
  0
ARC
  5
B829
330
B518
100
AcDbEntity
  8
5
  6
PHANTOM
100
AcDbCircle
 10
99.75973899999999
 20
176.019537
 30
0.0
 40
50.0
100
AcDbArc
 50
5.242294
 51
10.98703
  0
ARC
  5
B82A
330
B518
100
AcDbEntity
  8
5
  6
PHANTOM
100
AcDbCircle
 10
146.552411
 20
156.2063039999999
 30
0.0
 40
29.076162
100
AcDbArc
 50
68.25474200000001
 51
85.344791
  0
ARC
  5
B82B
330
B518
100
AcDbEntity
  8
1
  6
Continuous
100
AcDbCircle
 10
113.379028
 20
208.6794719999998
 30
0.0
 40
50.0
100
AcDbArc
 50
331.842294
 51
337.5870299999998
  0
ARC
  5
B82C
330
B518
100
AcDbEntity
  8
1
  6
Continuous
100
AcDbCircle
 10
146.080185
 20
170.3438699999999
 30
0.0
 40
23.5422
100
AcDbArc
 50
54.944784
 51
63.921056
  0
ARC
  5
B82D
330
B518
100
AcDbEntity
  8
1
  6
Continuous
100
AcDbCircle
 10
122.93158
 20
153.4224909999998
 30
0.0
 40
51.749001
100
AcDbArc
 50
28.752668
 51
34.85473900000001
  0
ARC
  5
B82E
330
B518
100
AcDbEntity
  8
5
  6
PHANTOM
100
AcDbCircle
 10
186.918219
 20
185.254805
 30
0.0
 40
8.202799
100
AcDbArc
 50
333.088296
 51
119.9338389999999
  0
ARC
  5
B82F
330
B518
100
AcDbEntity
  8
5
  6
PHANTOM
100
AcDbCircle
 10
186.918219
 20
185.254805
 30
0.0
 40
6.0
100
AcDbArc
 50
321.7815729999998
 51
139.1216229999998
  0
LINE
  5
B830
330
B518
100
AcDbEntity
  8
5
  6
PHANTOM
100
AcDbLine
 10
181.4027959999999
 20
179.2458189999999
 30
0.0
 11
197.9517279999998
 21
179.2409939999998
 31
0.0
  0
LINE
  5
B831
330
B518
100
AcDbEntity
  8
5
  6
PHANTOM
100
AcDbLine
 10
181.4034649999999
 20
181.545822
 30
0.0
 11
197.9034639999999
 21
181.5410119999999
 31
0.0
  0
LINE
  5
B832
330
B518
100
AcDbEntity
  8
5
  6
PHANTOM
100
AcDbLine
 10
181.4034649999999
 20
181.545822
 30
0.0
 11
181.4027959999999
 21
179.2458189999999
 31
0.0
  0
ARC
  5
B833
330
B518
100
AcDbEntity
  8
5
  6
PHANTOM
100
AcDbCircle
 10
180.9027979999999
 20
179.2459659999999
 30
0.0
 40
0.5
100
AcDbArc
 50
252.313823
 51
359.9832989999999
  0
LINE
  5
B834
330
B518
100
AcDbEntity
  8
1
  6
Continuous
100
AcDbLine
 10
167.0
 20
173.115878
 30
0.0
 11
167.0
 21
166.187675
 31
0.0
  0
LINE
  5
B835
330
B518
100
AcDbEntity
  8
1
  6
Continuous
100
AcDbLine
 10
155.0
 20
173.115878
 30
0.0
 11
155.0
 21
166.187675
 31
0.0
  0
CIRCLE
  5
B836
330
B518
100
AcDbEntity
  8
1
  6
Continuous
100
AcDbCircle
 10
161.0
 20
169.6517769999998
 30
0.0
 40
2.799999999999998
  0
CIRCLE
  5
B837
330
B518
100
AcDbEntity
  8
2
  6
Continuous
100
AcDbCircle
 10
161.0
 20
169.6517769999998
 30
0.0
 40
3.3235
  0
CIRCLE
  5
B838
330
B518
100
AcDbEntity
  8
1
  6
Continuous
100
AcDbCircle
 10
161.0
 20
169.6517769999998
 30
0.0
 40
4.0
  0
CIRCLE
  5
B839
330
B518
100
AcDbEntity
  8
1
  6
Continuous
100
AcDbCircle
 10
161.0
 20
169.6517769999998
 30
0.0
 40
6.0
  0
CIRCLE
  5
B83A
330
B518
100
AcDbEntity
  8
1
  6
Continuous
100
AcDbCircle
 10
161.0
 20
169.6517769999998
 30
0.0
 40
7.0
  0
LINE
  5
B83B
330
B518
100
AcDbEntity
  8
1
  6
Continuous
100
AcDbLine
 10
161.0
 20
162.7235739999998
 30
0.0
 11
155.0
 21
166.187675
 31
0.0
  0
LINE
  5
B83C
330
B518
100
AcDbEntity
  8
1
  6
Continuous
100
AcDbLine
 10
161.0
 20
162.7235739999998
 30
0.0
 11
167.0
 21
166.187675
 31
0.0
  0
LINE
  5
B83D
330
B518
100
AcDbEntity
  8
1
  6
Continuous
100
AcDbLine
 10
155.0
 20
173.115878
 30
0.0
 11
161.0
 21
176.57998
 31
0.0
  0
LINE
  5
B83E
330
B518
100
AcDbEntity
  8
1
  6
Continuous
100
AcDbLine
 10
167.0
 20
173.115878
 30
0.0
 11
161.0
 21
176.57998
 31
0.0
  0
LINE
  5
B83F
330
B518
100
AcDbEntity
  8
1
  6
Continuous
100
AcDbLine
 10
198.353573
 20
257.25633
 30
0.0
 11
198.353573
 21
255.142011
 31
0.0
  0
LINE
  5
B840
330
B518
100
AcDbEntity
  8
1
  6
Continuous
100
AcDbLine
 10
183.355431
 20
256.8920109999999
 30
0.0
 11
183.355431
 21
255.142011
 31
0.0
  0
LINE
  5
B841
330
B518
100
AcDbEntity
  8
1
  6
Continuous
100
AcDbLine
 10
184.581253
 20
257.25633
 30
0.0
 11
184.581253
 21
255.142011
 31
0.0
  0
ARC
  5
B842
330
B518
100
AcDbEntity
  8
1
  6
Continuous
100
AcDbCircle
 10
188.9043269999999
 20
255.142011
 30
0.0
 40
9.449244
100
AcDbArc
 50
320.1487589999999
 51
0.0
  0
ARC
  5
B843
330
B518
100
AcDbEntity
  8
1
  6
Continuous
100
AcDbCircle
 10
190.2416
 20
253.0026369999999
 30
0.0
 40
6.110624999999997
100
AcDbArc
 50
219.8512389999999
 51
269.9999969999999
  0
ARC
  5
B844
330
B518
100
AcDbEntity
  8
1
  6
Continuous
100
AcDbCircle
 10
194.030518
 20
255.142011
 30
0.0
 40
9.449244
100
AcDbArc
 50
179.9999909999999
 51
219.851235
  0
ARC
  5
B845
330
B518
100
AcDbEntity
  8
1
  6
Continuous
100
AcDbCircle
 10
192.804695
 20
255.142011
 30
0.0
 40
9.449244
100
AcDbArc
 50
179.9999909999999
 51
219.851235
  0
ARC
  5
B846
330
B518
100
AcDbEntity
  8
1
  6
Continuous
100
AcDbCircle
 10
191.467422
 20
253.0026369999999
 30
0.0
 40
6.110624999999997
100
AcDbArc
 50
219.8512389999999
 51
320.1487589999999
  0
ARC
  5
B847
330
B518
100
AcDbEntity
  8
1
  6
Continuous
100
AcDbCircle
 10
182.355431
 20
256.8920109999999
 30
0.0
 40
1.0
100
AcDbArc
 50
0.0
 51
21.365669
  0
ARC
  5
B848
330
B518
100
AcDbEntity
  8
1
  6
Continuous
100
AcDbCircle
 10
142.7317659999999
 20
270.518812
 30
0.0
 40
2.0
100
AcDbArc
 50
90.00000300000001
 51
155.667101
  0
LINE
  5
B849
330
B518
100
AcDbEntity
  8
1
  6
Continuous
100
AcDbLine
 10
127.8656309999999
 20
272.518812
 30
0.0
 11
150.0
 21
272.518812
 31
0.0
  0
LINE
  5
B84A
330
B518
100
AcDbEntity
  8
1
  6
Continuous
100
AcDbLine
 10
127.8656309999999
 20
273.018812
 30
0.0
 11
150.0
 21
273.018812
 31
0.0
  0
ARC
  5
B84B
330
B518
100
AcDbEntity
  8
1
  6
Continuous
100
AcDbCircle
 10
140.9688339999999
 20
257.396276
 30
0.0
 40
6.110624999999997
100
AcDbArc
 50
219.8512389999999
 51
320.148978
  0
LINE
  5
B84C
330
B518
100
AcDbEntity
  8
1
  6
Continuous
100
AcDbLine
 10
125.8525389999998
 20
269.2856569999999
 30
0.0
 11
145.8549879999999
 21
269.2856569999999
 31
0.0
  0
ARC
  5
B84D
330
B518
100
AcDbEntity
  8
1
  6
Continuous
100
AcDbCircle
 10
143.5319289999999
 20
259.5356499999999
 30
0.0
 40
9.449244
100
AcDbArc
 50
179.9999909999999
 51
219.851235
  0
ARC
  5
B84E
330
B518
100
AcDbEntity
  8
1
  6
Continuous
100
AcDbCircle
 10
142.3060909999998
 20
259.5356499999999
 30
0.0
 40
9.449244
100
AcDbArc
 50
179.9999909999999
 51
219.851235
  0
ARC
  5
B84F
330
B518
100
AcDbEntity
  8
1
  6
Continuous
100
AcDbCircle
 10
139.743011
 20
257.396276
 30
0.0
 40
6.110624999999997
100
AcDbArc
 50
215.239372
 51
275.7565829999999
  0
ARC
  5
B850
330
B518
100
AcDbEntity
  8
1
  6
Continuous
100
AcDbCircle
 10
127.002548
 20
267.0582249999998
 30
0.0
 40
2.227427999999997
100
AcDbArc
 50
180.000005
 51
270.000001
  0
ARC
  5
B851
330
B518
100
AcDbEntity
  8
1
  6
Continuous
100
AcDbCircle
 10
128.1531069999997
 20
270.518812
 30
0.0
 40
2.0
100
AcDbArc
 50
24.332904
 51
90.00000300000001
  0
LINE
  5
B852
330
B518
100
AcDbEntity
  8
1
  6
Continuous
100
AcDbLine
 10
127.8656309999999
 20
273.018812
 30
0.0
 11
127.8656309999999
 21
272.518812
 31
0.0
  0
ARC
  5
B853
330
B518
100
AcDbEntity
  8
1
  6
Continuous
100
AcDbCircle
 10
132.082672
 20
267.2856569999999
 30
0.0
 40
2.0
100
AcDbArc
 50
0.0
 51
90.00000300000001
  0
ARC
  5
B854
330
B518
100
AcDbEntity
  8
1
  6
Continuous
100
AcDbCircle
 10
131.856842
 20
266.1307959999999
 30
0.0
 40
1.0
100
AcDbArc
 50
0.0
 51
90.00000300000001
  0
ARC
  5
B855
330
B518
100
AcDbEntity
  8
1
  6
Continuous
100
AcDbCircle
 10
135.4424359999999
 20
273.8151069999998
 30
0.0
 40
6.0
100
AcDbArc
 50
204.332899
 51
229.017462
  0
ARC
  5
B856
330
B518
100
AcDbEntity
  8
1
  6
Continuous
100
AcDbCircle
 10
135.4424359999999
 20
273.8151069999998
 30
0.0
 40
6.0
100
AcDbArc
 50
310.982543
 51
335.667096
  0
LINE
  5
B857
330
B518
100
AcDbEntity
  8
1
  6
Continuous
100
AcDbLine
 10
132.856842
 20
266.1307959999999
 30
0.0
 11
132.856842
 21
259.5356499999999
 31
0.0
  0
LINE
  5
B858
330
B518
100
AcDbEntity
  8
1
  6
Continuous
100
AcDbLine
 10
134.0826639999999
 20
267.2856569999999
 30
0.0
 11
134.0826639999999
 21
259.5356499999999
 31
0.0
  0
ARC
  5
B859
330
B518
100
AcDbEntity
  8
1
  6
Continuous
100
AcDbCircle
 10
125.8525389999998
 20
268.208219
 30
0.0
 40
1.077428
100
AcDbArc
 50
90.00000300000001
 51
270.000001
  0
LINE
  5
B85A
330
B518
100
AcDbEntity
  8
1
  6
Continuous
100
AcDbLine
 10
124.7751159999999
 20
268.208219
 30
0.0
 11
124.7751159999999
 21
267.0582249999998
 31
0.0
  0
LINE
  5
B85B
330
B518
100
AcDbEntity
  8
1
  6
Continuous
100
AcDbLine
 10
125.8525389999998
 20
267.1307959999999
 30
0.0
 11
131.856842
 21
267.1307959999999
 31
0.0
  0
LINE
  5
B85C
330
B518
100
AcDbEntity
  8
1
  6
Continuous
100
AcDbLine
 10
127.002548
 20
264.830793
 30
0.0
 11
132.856842
 21
264.830793
 31
0.0
  0
ARC
  5
B85D
330
B518
100
AcDbEntity
  8
1
  6
Continuous
100
AcDbCircle
 10
138.4057239999999
 20
259.5356499999999
 30
0.0
 40
9.449244
100
AcDbArc
 50
320.1487589999999
 51
0.0
  0
ARC
  5
B85E
330
B518
100
AcDbEntity
  8
1
  6
Continuous
100
AcDbCircle
 10
147.580452
 20
248.130796
 30
0.0
 40
17.700001
100
AcDbArc
 50
82.143203
 51
89.11127900000002
  0
LINE
  5
B85F
330
B518
100
AcDbEntity
  8
1
  6
Continuous
100
AcDbLine
 10
154.1568389999999
 20
265.830793
 30
0.0
 11
157.5806959999999
 21
265.830793
 31
0.0
  0
LINE
  5
B860
330
B518
100
AcDbEntity
  8
1
  6
Continuous
100
AcDbLine
 10
148.427562
 20
272.1903199999999
 30
0.0
 11
149.701307
 21
270.7848029999999
 31
0.0
  0
LINE
  5
B861
330
B518
100
AcDbEntity
  8
1
  6
Continuous
100
AcDbLine
 10
147.667641
 20
268.1307959999999
 30
0.0
 11
150.0
 21
268.1307959999999
 31
0.0
  0
ARC
  5
B862
330
B518
100
AcDbEntity
  8
1
  6
Continuous
100
AcDbCircle
 10
145.8549879999999
 20
267.2856569999999
 30
0.0
 40
2.0
100
AcDbArc
 50
0.0
 51
90.00000300000001
  0
ARC
  5
B863
330
B518
100
AcDbEntity
  8
1
  6
Continuous
100
AcDbCircle
 10
150.4422989999999
 20
271.4563269999998
 30
0.0
 40
1.0
100
AcDbArc
 50
222.184445
 51
243.749348
  0
ARC
  5
B864
330
B518
100
AcDbEntity
  8
1
  6
Continuous
100
AcDbCircle
 10
147.686577
 20
271.518812
 30
0.0
 40
1.0
100
AcDbArc
 50
42.184444
 51
90.00000300000001
  0
ARC
  5
B865
330
B518
100
AcDbEntity
  8
1
  6
Continuous
100
AcDbCircle
 10
158.0156399999999
 20
266.7803169999999
 30
0.0
 40
1.0
100
AcDbArc
 50
179.9999909999999
 51
265.7892979999999
  0
LINE
  5
B866
330
B518
100
AcDbEntity
  8
1
  6
Continuous
100
AcDbLine
 10
157.0156399999999
 20
267.5062919999999
 30
0.0
 11
157.0156399999999
 21
266.7803169999999
 31
0.0
  0
ARC
  5
B867
330
B518
100
AcDbEntity
  8
1
  6
Continuous
100
AcDbCircle
 10
156.642609
 20
248.130796
 30
0.0
 40
17.700001
100
AcDbArc
 50
79.07039199999998
 51
86.68520200000001
  0
LINE
  5
B868
330
B518
100
AcDbEntity
  8
1
  6
Continuous
100
AcDbLine
 10
159.809737
 20
262.622966
 30
0.0
 11
153.7823979999998
 21
264.7140819999999
 31
0.0
  0
LINE
  5
B869
330
B518
100
AcDbEntity
  8
1
  6
Continuous
100
AcDbLine
 10
147.8549879999999
 20
267.2856569999999
 30
0.0
 11
147.8549879999999
 21
259.5356499999999
 31
0.0
  0
LINE
  5
B86A
330
B518
100
AcDbEntity
  8
1
  6
Continuous
100
AcDbLine
 10
276.7744629999999
 20
174.1281649999999
 30
0.0
 11
276.7744629999999
 21
169.534493
 31
0.0
  0
LINE
  5
B86B
330
B518
100
AcDbEntity
  8
1
  6
Continuous
100
AcDbLine
 10
275.5744629999999
 20
172.9281649999999
 30
0.0
 11
275.5744629999999
 21
168.8261709999999
 31
0.0
  0
ARC
  5
B86C
330
B518
100
AcDbEntity
  8
1
  6
Continuous
100
AcDbCircle
 10
290.878571
 20
167.1158659999998
 30
0.0
 40
6.111798999999998
100
AcDbArc
 50
112.3236629999999
 51
192.4158
  0
LINE
  5
B86D
330
B518
100
AcDbEntity
  8
1
  6
Continuous
100
AcDbLine
 10
290.091019
 20
177.0896399999998
 30
0.0
 11
290.091019
 21
142.361411
 31
0.0
  0
LINE
  5
B86E
330
B518
100
AcDbEntity
  8
1
  6
Continuous
100
AcDbLine
 10
290.591019
 20
177.0896399999998
 30
0.0
 11
290.591019
 21
142.361411
 31
0.0
  0
LINE
  5
B86F
330
B518
100
AcDbEntity
  8
1
  6
Continuous
100
AcDbLine
 10
276.443954
 20
168.760504
 30
0.0
 11
282.0
 21
181.771733
 31
0.0
  0
LINE
  5
B870
330
B518
100
AcDbEntity
  8
1
  6
Continuous
100
AcDbLine
 10
277.9356839999999
 20
166.5527179999999
 30
0.0
 11
282.0
 21
176.0705989999999
 31
0.0
  0
LINE
  5
B871
330
B518
100
AcDbEntity
  8
1
  6
Continuous
100
AcDbLine
 10
285.356415
 20
161.743796
 30
0.0
 11
286.532639
 21
161.743796
 31
0.0
  0
LINE
  5
B872
330
B518
100
AcDbEntity
  8
1
  6
Continuous
100
AcDbLine
 10
277.1103819999999
 20
139.8487079999999
 30
0.0
 11
287.1610109999998
 21
139.8487079999999
 31
0.0
  0
ARC
  5
B873
330
B518
100
AcDbEntity
  8
1
  6
Continuous
100
AcDbCircle
 10
303.9853669999998
 20
160.743796
 30
0.0
 40
17.349686
100
AcDbArc
 50
179.9999909999999
 51
207.782401
  0
ARC
  5
B874
330
B518
100
AcDbEntity
  8
1
  6
Continuous
100
AcDbCircle
 10
298.000946
 20
168.683882
 30
0.0
 40
13.404729
100
AcDbArc
 50
192.415804
 51
224.8490659999999
  0
LINE
  5
B875
330
B518
100
AcDbEntity
  8
1
  6
Continuous
100
AcDbLine
 10
286.3356779999999
 20
152.153998
 30
0.0
 11
286.3356779999999
 21
142.7635709999998
 31
0.0
  0
LINE
  5
B876
330
B518
100
AcDbEntity
  8
1
  6
Continuous
100
AcDbLine
 10
277.935677
 20
166.8261709999999
 30
0.0
 11
277.935677
 21
142.7635559999998
 31
0.0
  0
LINE
  5
B877
330
B518
100
AcDbEntity
  8
1
  6
Continuous
100
AcDbLine
 10
275.6356809999999
 20
156.7924869999999
 30
0.0
 11
275.6356809999999
 21
141.0969
 31
0.0
  0
LINE
  5
B878
330
B518
100
AcDbEntity
  8
1
  6
Continuous
100
AcDbLine
 10
279.0794829999999
 20
141.795439
 30
0.0
 11
285.191864
 21
141.795439
 31
0.0
  0
ARC
  5
B879
330
B518
100
AcDbEntity
  8
1
  6
Continuous
100
AcDbCircle
 10
278.7567199999999
 20
142.7635999999999
 30
0.0
 40
0.8210360000000001
100
AcDbArc
 50
180.0030449999999
 51
187.220869
  0
ARC
  5
B87A
330
B518
100
AcDbEntity
  8
1
  6
Continuous
100
AcDbCircle
 10
278.7675629999998
 20
142.7650559999999
 30
0.0
 40
0.831976
100
AcDbArc
 50
187.2265219999999
 51
194.310457
  0
ARC
  5
B87B
330
B518
100
AcDbEntity
  8
1
  6
Continuous
100
AcDbCircle
 10
278.788062
 20
142.7703549999999
 30
0.0
 40
0.8531479999999998
100
AcDbArc
 50
194.3150179999999
 51
201.2072439999998
  0
ARC
  5
B87C
330
B518
100
AcDbEntity
  8
1
  6
Continuous
100
AcDbCircle
 10
278.816506
 20
142.781448
 30
0.0
 40
0.883679
100
AcDbArc
 50
201.210584
 51
207.897347
  0
ARC
  5
B87D
330
B518
100
AcDbEntity
  8
1
  6
Continuous
100
AcDbCircle
 10
278.8506089999998
 20
142.7995359999999
 30
0.0
 40
0.922283
100
AcDbArc
 50
207.8992149999999
 51
214.3284969999999
  0
ARC
  5
B87E
330
B518
100
AcDbEntity
  8
1
  6
Continuous
100
AcDbCircle
 10
278.8877359999998
 20
142.8249
 30
0.0
 40
0.9672459999999999
100
AcDbArc
 50
214.329009
 51
220.472729
  0
ARC
  5
B87F
330
B518
100
AcDbEntity
  8
1
  6
Continuous
100
AcDbCircle
 10
278.9252189999999
 20
142.856866
 30
0.0
 40
1.016509
100
AcDbArc
 50
220.472021
 51
226.290013
  0
ARC
  5
B880
330
B518
100
AcDbEntity
  8
1
  6
Continuous
100
AcDbCircle
 10
278.9608
 20
142.8940619999999
 30
0.0
 40
1.067981999999998
100
AcDbArc
 50
226.289096
 51
231.868293
  0
ARC
  5
B881
330
B518
100
AcDbEntity
  8
1
  6
Continuous
100
AcDbCircle
 10
278.9930739999999
 20
142.9351259999999
 30
0.0
 40
1.120211
100
AcDbArc
 50
231.8667669999999
 51
237.212872
  0
ARC
  5
B882
330
B518
100
AcDbEntity
  8
1
  6
Continuous
100
AcDbCircle
 10
279.0203639999999
 20
142.9774139999999
 30
0.0
 40
1.170539999999999
100
AcDbArc
 50
237.210738
 51
242.2937399999999
  0
ARC
  5
B883
330
B518
100
AcDbEntity
  8
1
  6
Continuous
100
AcDbCircle
 10
279.042114
 20
143.0187349999999
 30
0.0
 40
1.217235999999998
100
AcDbArc
 50
242.291648
 51
247.1798729999999
  0
ARC
  5
B884
330
B518
100
AcDbEntity
  8
1
  6
Continuous
100
AcDbCircle
 10
279.0582759999999
 20
143.057026
 30
0.0
 40
1.258797999999998
100
AcDbArc
 50
247.177772
 51
251.904881
  0
ARC
  5
B885
330
B518
100
AcDbEntity
  8
1
  6
Continuous
100
AcDbCircle
 10
279.069204
 20
143.0903189999999
 30
0.0
 40
1.293838999999998
100
AcDbArc
 50
251.902813
 51
256.5021479999999
  0
ARC
  5
B886
330
B518
100
AcDbEntity
  8
1
  6
Continuous
100
AcDbCircle
 10
279.075641
 20
143.1169339999999
 30
0.0
 40
1.321220999999998
100
AcDbArc
 50
256.5001279999999
 51
261.0042659999999
  0
ARC
  5
B887
330
B518
100
AcDbEntity
  8
1
  6
Continuous
100
AcDbCircle
 10
279.078639
 20
143.1355849999999
 30
0.0
 40
1.340111
100
AcDbArc
 50
261.002321
 51
265.479104
  0
ARC
  5
B888
330
B518
100
AcDbEntity
  8
1
  6
Continuous
100
AcDbCircle
 10
279.079456
 20
143.1453099999999
 30
0.0
 40
1.349869999999999
100
AcDbArc
 50
265.477077
 51
269.905512
  0
ARC
  5
B889
330
B518
100
AcDbEntity
  8
1
  6
Continuous
100
AcDbCircle
 10
276.6942379999999
 20
141.096956
 30
0.0
 40
1.058556999999998
100
AcDbArc
 50
180.0030449999999
 51
187.2209019999999
  0
ARC
  5
B88A
330
B518
100
AcDbEntity
  8
1
  6
Continuous
100
AcDbCircle
 10
276.708272
 20
141.0988419999999
 30
0.0
 40
1.072716
100
AcDbArc
 50
187.2266449999999
 51
194.3610879999999
  0
ARC
  5
B88B
330
B518
100
AcDbEntity
  8
1
  6
Continuous
100
AcDbCircle
 10
276.7348789999999
 20
141.1057399999999
 30
0.0
 40
1.100203
100
AcDbArc
 50
194.3653979999998
 51
201.256402
  0
ARC
  5
B88C
330
B518
100
AcDbEntity
  8
1
  6
Continuous
100
AcDbCircle
 10
276.7716179999998
 20
141.1201029999998
 30
0.0
 40
1.13965
100
AcDbArc
 50
201.259731
 51
207.944803
  0
ARC
  5
B88D
330
B518
100
AcDbEntity
  8
1
  6
Continuous
100
AcDbCircle
 10
276.8156289999998
 20
141.143493
 30
0.0
 40
1.189489999999999
100
AcDbArc
 50
207.9466609999998
 51
214.373957
  0
ARC
  5
B88E
330
B518
100
AcDbEntity
  8
1
  6
Continuous
100
AcDbCircle
 10
276.863513
 20
141.176262
 30
0.0
 40
1.247512999999998
100
AcDbArc
 50
214.3744599999999
 51
220.516068
  0
ARC
  5
B88F
330
B518
100
AcDbEntity
  8
1
  6
Continuous
100
AcDbCircle
 10
276.9118339999999
 20
141.217534
 30
0.0
 40
1.311061
100
AcDbArc
 50
220.5153559999998
 51
226.331651
  0
ARC
  5
B890
330
B518
100
AcDbEntity
  8
1
  6
Continuous
100
AcDbCircle
 10
276.9576879999998
 20
141.2655379999999
 30
0.0
 40
1.377445999999999
100
AcDbArc
 50
226.3307289999999
 51
231.908594
  0
ARC
  5
B891
330
B518
100
AcDbEntity
  8
1
  6
Continuous
100
AcDbCircle
 10
276.999261
 20
141.318511
 30
0.0
 40
1.444784
100
AcDbArc
 50
231.907063
 51
237.251608
  0
ARC
  5
B892
330
B518
100
AcDbEntity
  8
1
  6
Continuous
100
AcDbCircle
 10
277.034397
 20
141.373036
 30
0.0
 40
1.509649999999999
100
AcDbArc
 50
237.249471
 51
242.330884
  0
ARC
  5
B893
330
B518
100
AcDbEntity
  8
1
  6
Continuous
100
AcDbCircle
 10
277.062385
 20
141.4262929999999
 30
0.0
 40
1.569812999999999
100
AcDbArc
 50
242.3287919999999
 51
247.2156779999999
  0
ARC
  5
B894
330
B518
100
AcDbEntity
  8
1
  6
Continuous
100
AcDbCircle
 10
277.08317
 20
141.4756219999999
 30
0.0
 40
1.623342
100
AcDbArc
 50
247.213577
 51
251.9395999999999
  0
ARC
  5
B895
330
B518
100
AcDbEntity
  8
1
  6
Continuous
100
AcDbCircle
 10
277.097212
 20
141.5184889999999
 30
0.0
 40
1.668450999999999
100
AcDbArc
 50
251.9375329999999
 51
256.53603
  0
ARC
  5
B896
330
B518
100
AcDbEntity
  8
1
  6
Continuous
100
AcDbCircle
 10
277.105472
 20
141.5527319999999
 30
0.0
 40
1.703675
100
AcDbArc
 50
256.53401
 51
261.037553
  0
ARC
  5
B897
330
B518
100
AcDbEntity
  8
1
  6
Continuous
100
AcDbCircle
 10
277.109304
 20
141.576649
 30
0.0
 40
1.727897999999999
100
AcDbArc
 50
261.0355779999998
 51
265.47589
  0
ARC
  5
B898
330
B518
100
AcDbEntity
  8
1
  6
Continuous
100
AcDbCircle
 10
277.1103469999999
 20
141.5890899999999
 30
0.0
 40
1.740381999999999
100
AcDbArc
 50
265.473964
 51
269.902464
  0
ARC
  5
B899
330
B518
100
AcDbEntity
  8
1
  6
Continuous
100
AcDbCircle
 10
285.1918859999999
 20
143.145491
 30
0.0
 40
1.350052
100
AcDbArc
 50
269.99907
 51
274.3638649999999
  0
ARC
  5
B89A
330
B518
100
AcDbEntity
  8
1
  6
Continuous
100
AcDbCircle
 10
285.192648
 20
143.136133
 30
0.0
 40
1.340662999999999
100
AcDbArc
 50
274.36183
 51
278.8304259999998
  0
ARC
  5
B89B
330
B518
100
AcDbEntity
  8
1
  6
Continuous
100
AcDbCircle
 10
285.1955399999998
 20
143.1178089999999
 30
0.0
 40
1.322112
100
AcDbArc
 50
278.8284799999999
 51
283.327893
  0
ARC
  5
B89C
330
B518
100
AcDbEntity
  8
1
  6
Continuous
100
AcDbCircle
 10
285.2018239999999
 20
143.0914809999999
 30
0.0
 40
1.295044
100
AcDbArc
 50
283.325877
 51
287.919353
  0
ARC
  5
B89D
330
B518
100
AcDbEntity
  8
1
  6
Continuous
100
AcDbCircle
 10
285.2125629999998
 20
143.05842
 30
0.0
 40
1.260283
100
AcDbArc
 50
287.917287
 51
292.63785
  0
ARC
  5
B89E
330
B518
100
AcDbEntity
  8
1
  6
Continuous
100
AcDbCircle
 10
285.228514
 20
143.0202879999999
 30
0.0
 40
1.218949
100
AcDbArc
 50
292.6357469999999
 51
297.517046
  0
ARC
  5
B89F
330
B518
100
AcDbEntity
  8
1
  6
Continuous
100
AcDbCircle
 10
285.25005
 20
142.9790389999998
 30
0.0
 40
1.172415999999999
100
AcDbArc
 50
297.514947
 51
302.590822
  0
ARC
  5
B8A0
330
B518
100
AcDbEntity
  8
1
  6
Continuous
100
AcDbCircle
 10
285.277084
 20
142.936825
 30
0.0
 40
1.122287999999999
100
AcDbArc
 50
302.58881
 51
307.8923029999999
  0
ARC
  5
B8A1
330
B518
100
AcDbEntity
  8
1
  6
Continuous
100
AcDbCircle
 10
285.3089989999999
 20
142.8958719999999
 30
0.0
 40
1.070367999999998
100
AcDbArc
 50
307.890517
 51
313.45211
  0
ARC
  5
B8A2
330
B518
100
AcDbEntity
  8
1
  6
Continuous
100
AcDbCircle
 10
285.344613
 20
142.858315
 30
0.0
 40
1.01861
100
AcDbArc
 50
313.450758
 51
319.295615
  0
ARC
  5
B8A3
330
B518
100
AcDbEntity
  8
1
  6
Continuous
100
AcDbCircle
 10
285.382183
 20
142.826008
 30
0.0
 40
0.969059
100
AcDbArc
 50
319.294972
 51
325.4390599999999
  0
ARC
  5
B8A4
330
B518
100
AcDbEntity
  8
1
  6
Continuous
100
AcDbCircle
 10
285.419474
 20
142.800313
 30
0.0
 40
0.9237729999999999
100
AcDbArc
 50
325.439452
 51
331.884721
  0
ARC
  5
B8A5
330
B518
100
AcDbEntity
  8
1
  6
Continuous
100
AcDbCircle
 10
285.453904
 20
142.781887
 30
0.0
 40
0.8847219999999998
100
AcDbArc
 50
331.8864529999999
 51
338.6157509999998
  0
ARC
  5
B8A6
330
B518
100
AcDbEntity
  8
1
  6
Continuous
100
AcDbCircle
 10
285.4827890000001
 20
142.7705239999999
 30
0.0
 40
0.853683
100
AcDbArc
 50
338.619007
 51
345.5920909999999
  0
ARC
  5
B8A7
330
B518
100
AcDbEntity
  8
1
  6
Continuous
100
AcDbCircle
 10
285.5036589999999
 20
142.7650919999998
 30
0.0
 40
0.832118
100
AcDbArc
 50
345.596805
 51
352.749344
  0
ARC
  5
B8A8
330
B518
100
AcDbEntity
  8
1
  6
Continuous
100
AcDbCircle
 10
285.5146159999998
 20
142.7636149999998
 30
0.0
 40
0.821062
100
AcDbArc
 50
352.755083
 51
359.996972
  0
ARC
  5
B8A9
330
B518
100
AcDbEntity
  8
1
  6
Continuous
100
AcDbCircle
 10
272.8856809999999
 20
171.396071
 30
0.0
 40
13.60358299999999
100
AcDbArc
 50
241.1573589999999
 51
269.9999969999999
  0
ARC
  5
B8AA
330
B518
100
AcDbEntity
  8
1
  6
Continuous
100
AcDbCircle
 10
272.8856809999999
 20
173.3428029999998
 30
0.0
 40
13.60358299999999
100
AcDbArc
 50
241.1573589999999
 51
269.9999969999999
  0
ARC
  5
B8AB
330
B518
100
AcDbEntity
  8
1
  6
Continuous
100
AcDbCircle
 10
272.8856809999999
 20
155.222586
 30
0.0
 40
13.60358299999999
100
AcDbArc
 50
90.00000300000001
 51
118.8426409999999
  0
ARC
  5
B8AC
330
B518
100
AcDbEntity
  8
1
  6
Continuous
100
AcDbCircle
 10
267.896057
 20
162.3359589999998
 30
0.0
 40
3.260378999999999
100
AcDbArc
 50
179.9999909999999
 51
241.1573689999999
  0
ARC
  5
B8AD
330
B518
100
AcDbEntity
  8
1
  6
Continuous
100
AcDbCircle
 10
267.896057
 20
164.282691
 30
0.0
 40
3.260378999999999
100
AcDbArc
 50
118.8426409999999
 51
241.1573689999999
  0
LINE
  5
B8AE
330
B518
100
AcDbEntity
  8
1
  6
Continuous
100
AcDbLine
 10
264.6356809999999
 20
164.282691
 30
0.0
 11
264.6356809999999
 21
162.3359589999998
 31
0.0
  0
LINE
  5
B8AF
330
B518
100
AcDbEntity
  8
1
  6
Continuous
100
AcDbLine
 10
272.8856809999999
 20
157.7924869999999
 30
0.0
 11
274.6356809999999
 21
157.7924869999999
 31
0.0
  0
LINE
  5
B8B0
330
B518
100
AcDbEntity
  8
1
  6
Continuous
100
AcDbLine
 10
275.935677
 20
168.8261709999999
 30
0.0
 11
272.8856809999999
 21
168.8261709999999
 31
0.0
  0
LINE
  5
B8B1
330
B518
100
AcDbEntity
  8
1
  6
Continuous
100
AcDbLine
 10
272.8856809999999
 20
159.7392179999999
 30
0.0
 11
275.935677
 21
159.7392179999999
 31
0.0
  0
ARC
  5
B8B2
330
B518
100
AcDbEntity
  8
1
  6
Continuous
100
AcDbCircle
 10
275.935677
 20
157.7392179999999
 30
0.0
 40
2.0
100
AcDbArc
 50
0.0
 51
90.00000300000001
  0
ARC
  5
B8B3
330
B518
100
AcDbEntity
  8
1
  6
Continuous
100
AcDbCircle
 10
274.6356809999999
 20
156.7924869999999
 30
0.0
 40
1.0
100
AcDbArc
 50
0.0
 51
90.00000300000001
  0
ARC
  5
B8B4
330
B518
100
AcDbEntity
  8
1
  6
Continuous
100
AcDbCircle
 10
275.935677
 20
166.8261709999999
 30
0.0
 40
2.0
100
AcDbArc
 50
0.0
 51
90.00000300000001
  0
ARC
  5
B8B5
330
B518
100
AcDbEntity
  8
1
  6
Continuous
100
AcDbCircle
 10
285.356415
 20
160.743796
 30
0.0
 40
1.0
100
AcDbArc
 50
90.00000300000001
 51
180.000005
  0
ARC
  5
B8B6
330
B518
100
AcDbEntity
  8
1
  6
Continuous
100
AcDbCircle
 10
275.9356839999999
 20
166.8261709999999
 30
0.0
 40
2.0
100
AcDbArc
 50
74.301142
 51
89.99999700000001
  0
LINE
  5
B8B7
330
B518
100
AcDbEntity
  8
1
  6
Continuous
100
AcDbLine
 10
281.4356769999998
 20
153.444159
 30
0.0
 11
283.335686
 21
153.444159
 31
0.0
  0
LINE
  5
B8B8
330
B518
100
AcDbEntity
  8
1
  6
Continuous
100
AcDbLine
 10
278.822983
 20
150.312461
 30
0.0
 11
285.448395
 21
150.312461
 31
0.0
  0
ARC
  5
B8B9
330
B518
100
AcDbEntity
  8
1
  6
Continuous
100
AcDbCircle
 10
281.4356769999998
 20
152.444159
 30
0.0
 40
1.0
100
AcDbArc
 50
90.00000300000001
 51
180.000005
  0
LINE
  5
B8BA
330
B518
100
AcDbEntity
  8
1
  6
Continuous
100
AcDbLine
 10
280.435677
 20
153.444159
 30
0.0
 11
280.435677
 21
150.312461
 31
0.0
  0
ARC
  5
B8BB
330
B518
100
AcDbEntity
  8
1
  6
Continuous
100
AcDbCircle
 10
283.335686
 20
152.444159
 30
0.0
 40
1.0
100
AcDbArc
 50
0.0
 51
90.00000300000001
  0
LINE
  5
B8BC
330
B518
100
AcDbEntity
  8
1
  6
Continuous
100
AcDbLine
 10
284.335686
 20
153.444159
 30
0.0
 11
284.335686
 21
150.312461
 31
0.0
  0
ARC
  5
B8BD
330
B518
100
AcDbEntity
  8
1
  6
Continuous
100
AcDbCircle
 10
278.572584
 20
151.063509
 30
0.0
 40
0.6369
100
AcDbArc
 50
180.002995
 51
187.1486129999999
  0
ARC
  5
B8BE
330
B518
100
AcDbEntity
  8
1
  6
Continuous
100
AcDbCircle
 10
278.5808149999999
 20
151.064603
 30
0.0
 40
0.645203
100
AcDbArc
 50
187.154081
 51
194.178683
  0
ARC
  5
B8BF
330
B518
100
AcDbEntity
  8
1
  6
Continuous
100
AcDbCircle
 10
278.5965529999999
 20
151.068635
 30
0.0
 40
0.661449
100
AcDbArc
 50
194.183355
 51
201.0787939999999
  0
ARC
  5
B8C0
330
B518
100
AcDbEntity
  8
1
  6
Continuous
100
AcDbCircle
 10
278.6185179999999
 20
151.077144
 30
0.0
 40
0.685004
100
AcDbArc
 50
201.08216
 51
207.773348
  0
ARC
  5
B8C1
330
B518
100
AcDbEntity
  8
1
  6
Continuous
100
AcDbCircle
 10
278.644909
 20
151.091069
 30
0.0
 40
0.7148439999999999
100
AcDbArc
 50
207.7752439999998
 51
214.2097099999999
  0
ARC
  5
B8C2
330
B518
100
AcDbEntity
  8
1
  6
Continuous
100
AcDbCircle
 10
278.6736839999999
 20
151.110641
 30
0.0
 40
0.7496450000000002
100
AcDbArc
 50
214.2102449999999
 51
220.3594709999999
  0
ARC
  5
B8C3
330
B518
100
AcDbEntity
  8
1
  6
Continuous
100
AcDbCircle
 10
278.702561
 20
151.135155
 30
0.0
 40
0.787524
100
AcDbArc
 50
220.357993
 51
226.1186579999999
  0
ARC
  5
B8C4
330
B518
100
AcDbEntity
  8
1
  6
Continuous
100
AcDbCircle
 10
278.730114
 20
151.163792
 30
0.0
 40
0.8272629999999999
100
AcDbArc
 50
226.118018
 51
231.702655
  0
ARC
  5
B8C5
330
B518
100
AcDbEntity
  8
1
  6
Continuous
100
AcDbCircle
 10
278.755319
 20
151.195678
 30
0.0
 40
0.867908
100
AcDbArc
 50
231.701346
 51
237.1045089999999
  0
ARC
  5
B8C6
330
B518
100
AcDbEntity
  8
1
  6
Continuous
100
AcDbCircle
 10
278.776722
 20
151.2286879999998
 30
0.0
 40
0.907249
100
AcDbArc
 50
237.101781
 51
242.1892319999999
  0
ARC
  5
B8C7
330
B518
100
AcDbEntity
  8
1
  6
Continuous
100
AcDbCircle
 10
278.7936849999999
 20
151.2607739999999
 30
0.0
 40
0.9435439999999999
100
AcDbArc
 50
242.187141
 51
247.079112
  0
ARC
  5
B8C8
330
B518
100
AcDbEntity
  8
1
  6
Continuous
100
AcDbCircle
 10
278.8063119999999
 20
151.2905439999999
 30
0.0
 40
0.9758799999999999
100
AcDbArc
 50
247.077011
 51
251.807163
  0
ARC
  5
B8C9
330
B518
100
AcDbEntity
  8
1
  6
Continuous
100
AcDbCircle
 10
278.8148699999999
 20
151.3164659999999
 30
0.0
 40
1.003179
100
AcDbArc
 50
251.805094
 51
256.4067799999999
  0
ARC
  5
B8CA
330
B518
100
AcDbEntity
  8
1
  6
Continuous
100
AcDbCircle
 10
278.819928
 20
151.337232
 30
0.0
 40
1.024551999999999
100
AcDbArc
 50
256.4047579999999
 51
260.9105739999999
  0
ARC
  5
B8CB
330
B518
100
AcDbEntity
  8
1
  6
Continuous
100
AcDbCircle
 10
278.822311
 20
151.351921
 30
0.0
 40
1.039433
100
AcDbArc
 50
260.9087629999998
 51
265.4371729999999
  0
ARC
  5
B8CC
330
B518
100
AcDbEntity
  8
1
  6
Continuous
100
AcDbCircle
 10
278.8229609999999
 20
151.35958
 30
0.0
 40
1.04712
100
AcDbArc
 50
265.4350949999999
 51
269.8643979999999
  0
ARC
  5
B8CD
330
B518
100
AcDbEntity
  8
1
  6
Continuous
100
AcDbCircle
 10
285.448412
 20
151.359704
 30
0.0
 40
1.047250999999999
100
AcDbArc
 50
269.999071
 51
274.3639289999999
  0
ARC
  5
B8CE
330
B518
100
AcDbEntity
  8
1
  6
Continuous
100
AcDbCircle
 10
285.449003
 20
151.352448
 30
0.0
 40
1.039970999999998
100
AcDbArc
 50
274.361894
 51
278.830549
  0
ARC
  5
B8CF
330
B518
100
AcDbEntity
  8
1
  6
Continuous
100
AcDbCircle
 10
285.4512459999999
 20
151.338236
 30
0.0
 40
1.025582999999999
100
AcDbArc
 50
278.828603
 51
283.32807
  0
ARC
  5
B8D0
330
B518
100
AcDbEntity
  8
1
  6
Continuous
100
AcDbCircle
 10
285.45612
 20
151.3178149999999
 30
0.0
 40
1.004588999999999
100
AcDbArc
 50
283.3260539999999
 51
287.919573
  0
ARC
  5
B8D1
330
B518
100
AcDbEntity
  8
1
  6
Continuous
100
AcDbCircle
 10
285.464449
 20
151.292172
 30
0.0
 40
0.977627
100
AcDbArc
 50
287.917506
 51
292.638099
  0
ARC
  5
B8D2
330
B518
100
AcDbEntity
  8
1
  6
Continuous
100
AcDbCircle
 10
285.476822
 20
151.262595
 30
0.0
 40
0.9455659999999999
100
AcDbArc
 50
292.6359959999999
 51
297.517311
  0
ARC
  5
B8D3
330
B518
100
AcDbEntity
  8
1
  6
Continuous
100
AcDbCircle
 10
285.493527
 20
151.230599
 30
0.0
 40
0.9094719999999998
100
AcDbArc
 50
297.515212
 51
302.591088
  0
ARC
  5
B8D4
330
B518
100
AcDbEntity
  8
1
  6
Continuous
100
AcDbCircle
 10
285.5144969999999
 20
151.197856
 30
0.0
 40
0.870589
100
AcDbArc
 50
302.5890769999999
 51
307.892557
  0
ARC
  5
B8D5
330
B518
100
AcDbEntity
  8
1
  6
Continuous
100
AcDbCircle
 10
285.5392529999999
 20
151.1660889999998
 30
0.0
 40
0.8303149999999998
100
AcDbArc
 50
307.8907709999999
 51
313.452338
  0
ARC
  5
B8D6
330
B518
100
AcDbEntity
  8
1
  6
Continuous
100
AcDbCircle
 10
285.5668789999999
 20
151.136956
 30
0.0
 40
0.790167
100
AcDbArc
 50
313.450985
 51
319.2958019999999
  0
ARC
  5
B8D7
330
B518
100
AcDbEntity
  8
1
  6
Continuous
100
AcDbCircle
 10
285.5960229999999
 20
151.111896
 30
0.0
 40
0.7517300000000003
100
AcDbArc
 50
319.295159
 51
325.4391969999999
  0
ARC
  5
B8D8
330
B518
100
AcDbEntity
  8
1
  6
Continuous
100
AcDbCircle
 10
285.62495
 20
151.091963
 30
0.0
 40
0.7166000000000003
100
AcDbArc
 50
325.439588
 51
331.8848019999999
  0
ARC
  5
B8D9
330
B518
100
AcDbEntity
  8
1
  6
Continuous
100
AcDbCircle
 10
285.651659
 20
151.0776689999999
 30
0.0
 40
0.6863070000000003
100
AcDbArc
 50
331.8865339999998
 51
338.615778
  0
ARC
  5
B8DA
330
B518
100
AcDbEntity
  8
1
  6
Continuous
100
AcDbCircle
 10
285.6740669999999
 20
151.0688539999999
 30
0.0
 40
0.6622270000000002
100
AcDbArc
 50
338.619033
 51
345.592075
  0
ARC
  5
B8DB
330
B518
100
AcDbEntity
  8
1
  6
Continuous
100
AcDbCircle
 10
285.690299
 20
151.064631
 30
0.0
 40
0.6454550000000002
100
AcDbArc
 50
345.596673
 51
352.825529
  0
ARC
  5
B8DC
330
B518
100
AcDbEntity
  8
1
  6
Continuous
100
AcDbCircle
 10
285.698794
 20
151.063492
 30
0.0
 40
0.6368840000000003
100
AcDbArc
 50
352.831695
 51
359.997106
  0
LINE
  5
B8DD
330
B518
100
AcDbEntity
  8
1
  6
Continuous
100
AcDbLine
 10
277.935677
 20
154.009082
 30
0.0
 11
285.777283
 21
163.1821549999999
 31
0.0
  0
ARC
  5
B8DE
330
B518
100
AcDbEntity
  8
1
  6
Continuous
100
AcDbCircle
 10
303.9853669999998
 20
160.743796
 30
0.0
 40
19.62895799999998
100
AcDbArc
 50
179.9999909999999
 51
205.951377
  0
LINE
  5
B8DF
330
B518
100
AcDbEntity
  8
1
  6
Continuous
100
AcDbLine
 10
288.6356809999999
 20
159.0913229999999
 30
0.0
 11
288.6356809999999
 21
141.096877
 31
0.0
  0
LINE
  5
B8E0
330
B518
100
AcDbEntity
  8
1
  6
Continuous
100
AcDbLine
 10
290.091019
 20
142.361411
 30
0.0
 11
290.591019
 21
142.361411
 31
0.0
  0
ARC
  5
B8E1
330
B518
100
AcDbEntity
  8
1
  6
Continuous
100
AcDbCircle
 10
287.1620399999999
 20
141.5770179999998
 30
0.0
 40
1.728277
100
AcDbArc
 50
274.401282
 51
278.870939
  0
ARC
  5
B8E2
330
B518
100
AcDbEntity
  8
1
  6
Continuous
100
AcDbCircle
 10
287.1658
 20
141.5532969999999
 30
0.0
 40
1.704259999999997
100
AcDbArc
 50
278.8689939999998
 51
283.3691559999999
  0
ARC
  5
B8E3
330
B518
100
AcDbEntity
  8
1
  6
Continuous
100
AcDbCircle
 10
287.173948
 20
141.519271
 30
0.0
 40
1.669272
100
AcDbArc
 50
283.367139
 51
287.96165
  0
ARC
  5
B8E4
330
B518
100
AcDbEntity
  8
1
  6
Continuous
100
AcDbCircle
 10
287.1878479999999
 20
141.476582
 30
0.0
 40
1.624376999999999
100
AcDbArc
 50
287.9595829999999
 51
292.6814719999999
  0
ARC
  5
B8E5
330
B518
100
AcDbEntity
  8
1
  6
Continuous
100
AcDbCircle
 10
287.2084759999999
 20
141.427375
 30
0.0
 40
1.571021999999999
100
AcDbArc
 50
292.679368
 51
297.562287
  0
ARC
  5
B8E6
330
B518
100
AcDbEntity
  8
1
  6
Continuous
100
AcDbCircle
 10
287.2363059999999
 20
141.374174
 30
0.0
 40
1.510980999999999
100
AcDbArc
 50
297.5601879999999
 51
302.6379739999999
  0
ARC
  5
B8E7
330
B518
100
AcDbEntity
  8
1
  6
Continuous
100
AcDbCircle
 10
287.27122
 20
141.3197549999999
 30
0.0
 40
1.446325
100
AcDbArc
 50
302.6359639999999
 51
307.9416469999999
  0
ARC
  5
B8E8
330
B518
100
AcDbEntity
  8
1
  6
Continuous
100
AcDbCircle
 10
287.3124159999999
 20
141.266986
 30
0.0
 40
1.379378999999999
100
AcDbArc
 50
307.9398639999999
 51
313.503893
  0
ARC
  5
B8E9
330
B518
100
AcDbEntity
  8
1
  6
Continuous
100
AcDbCircle
 10
287.358364
 20
141.218617
 30
0.0
 40
1.312664999999998
100
AcDbArc
 50
313.502545
 51
319.3500199999999
  0
ARC
  5
B8EA
330
B518
100
AcDbEntity
  8
1
  6
Continuous
100
AcDbCircle
 10
287.4068129999999
 20
141.177037
 30
0.0
 40
1.24882
100
AcDbArc
 50
319.3493849999999
 51
325.496173
  0
ARC
  5
B8EB
330
B518
100
AcDbEntity
  8
1
  6
Continuous
100
AcDbCircle
 10
287.454873
 20
141.143991
 30
0.0
 40
1.190495999999998
100
AcDbArc
 50
325.496575
 51
331.9444799999998
  0
ARC
  5
B8EC
330
B518
100
AcDbEntity
  8
1
  6
Continuous
100
AcDbCircle
 10
287.4992139999998
 20
141.1203199999999
 30
0.0
 40
1.140230999999998
100
AcDbArc
 50
331.946225
 51
338.677905
  0
ARC
  5
B8ED
330
B518
100
AcDbEntity
  8
1
  6
Continuous
100
AcDbCircle
 10
287.536377
 20
141.105747
 30
0.0
 40
1.100314
100
AcDbArc
 50
338.681175
 51
345.656179
  0
ARC
  5
B8EE
330
B518
100
AcDbEntity
  8
1
  6
Continuous
100
AcDbCircle
 10
287.5631809999998
 20
141.098802
 30
0.0
 40
1.072624999999999
100
AcDbArc
 50
345.6609049999999
 51
352.8147
  0
ARC
  5
B8EF
330
B518
100
AcDbEntity
  8
1
  6
Continuous
100
AcDbCircle
 10
287.5771919999999
 20
141.0969289999999
 30
0.0
 40
1.058489
100
AcDbArc
 50
352.8204359999999
 51
0.087138
  0
ARC
  5
B8F0
330
B518
100
AcDbEntity
  8
1
  6
Continuous
100
AcDbCircle
 10
287.16104
 20
141.5892
 30
0.0
 40
1.740499999999999
100
AcDbArc
 50
269.9990349999998
 51
274.4033109999999
  0
LINE
  5
B8F1
330
B518
100
AcDbEntity
  8
1
  6
Continuous
100
AcDbLine
 10
294.4999999999998
 20
159.6281649999999
 30
0.0
 11
293.3999999999999
 21
159.6281649999999
 31
0.0
  0
ARC
  5
B8F2
330
B518
100
AcDbEntity
  8
1
  6
Continuous
100
AcDbCircle
 10
288.091019
 20
156.802962
 30
0.0
 40
2.0
100
AcDbArc
 50
0.0
 51
44.84906399999998
  0
LINE
  5
B8F3
330
B518
100
AcDbEntity
  8
1
  6
Continuous
100
AcDbLine
 10
288.497437
 20
159.2303
 30
0.0
 11
289.508942
 21
158.2134419999999
 31
0.0
  0
ARC
  5
B8F4
330
B518
100
AcDbEntity
  8
1
  6
Continuous
100
AcDbCircle
 10
287.6356809999998
 20
160.743796
 30
0.0
 40
1.0
100
AcDbArc
 50
145.7614689999998
 51
180.000005
  0
ARC
  5
B8F5
330
B518
100
AcDbEntity
  8
1
  6
Continuous
100
AcDbCircle
 10
277.2793199999999
 20
204.714877
 30
0.0
 40
13.60358299999999
100
AcDbArc
 50
241.1573589999999
 51
269.9999969999999
  0
LINE
  5
B8F6
330
B518
100
AcDbEntity
  8
1
  6
Continuous
100
AcDbLine
 10
277.2793199999999
 20
191.111296
 30
0.0
 11
282.0
 21
191.111296
 31
0.0
  0
LINE
  5
B8F7
330
B518
100
AcDbEntity
  8
1
  6
Continuous
100
AcDbLine
 10
279.1103609999999
 20
177.0563679999999
 30
0.0
 11
278.5744629999999
 21
176.1281649999999
 31
0.0
  0
LINE
  5
B8F8
330
B518
100
AcDbEntity
  8
1
  6
Continuous
100
AcDbLine
 10
279.986448
 20
177.0563679999999
 30
0.0
 11
279.1103609999999
 21
177.0563679999999
 31
0.0
  0
LINE
  5
B8F9
330
B518
100
AcDbEntity
  8
2
  6
Continuous
100
AcDbLine
 10
276.097963
 20
173.4516649999999
 30
0.0
 11
278.5744629999999
 21
173.4516649999999
 31
0.0
  0
LINE
  5
B8FA
330
B518
100
AcDbEntity
  8
1
  6
Continuous
100
AcDbLine
 10
278.5744629999999
 20
174.1281649999999
 30
0.0
 11
276.7744629999999
 21
174.1281649999999
 31
0.0
  0
LINE
  5
B8FB
330
B518
100
AcDbEntity
  8
1
  6
Continuous
100
AcDbLine
 10
275.5744629999999
 20
172.9281649999999
 30
0.0
 11
276.7744629999999
 21
174.1281649999999
 31
0.0
  0
LINE
  5
B8FC
330
B518
100
AcDbEntity
  8
1
  6
Continuous
100
AcDbLine
 10
278.5744629999999
 20
176.1281649999999
 30
0.0
 11
278.5744629999999
 21
173.74976
 31
0.0
  0
ARC
  5
B8FD
330
B518
100
AcDbEntity
  8
1
  6
Continuous
100
AcDbCircle
 10
281.64145
 20
175.3243169999999
 30
0.0
 40
3.066986999999998
100
AcDbArc
 50
154.3842469999999
 51
200.9831489999998
  0
LINE
  5
B8FE
330
B518
100
AcDbEntity
  8
1
  6
Continuous
100
AcDbLine
 10
282.0
 20
202.144976
 30
0.0
 11
277.2793199999999
 21
202.144976
 31
0.0
  0
ARC
  5
B8FF
330
B518
100
AcDbEntity
  8
1
  6
Continuous
100
AcDbCircle
 10
277.2793199999999
 20
188.5413919999998
 30
0.0
 40
13.60358299999999
100
AcDbArc
 50
90.00000300000001
 51
118.8426409999999
  0
LINE
  5
B900
330
B518
100
AcDbEntity
  8
1
  6
Continuous
100
AcDbLine
 10
277.2793199999999
 20
193.058028
 30
0.0
 11
282.0
 21
193.058028
 31
0.0
  0
ARC
  5
B901
330
B518
100
AcDbEntity
  8
1
  6
Continuous
100
AcDbCircle
 10
272.2896959999999
 20
195.6547689999999
 30
0.0
 40
3.260378999999999
100
AcDbArc
 50
179.9999909999999
 51
241.1573689999999
  0
LINE
  5
B902
330
B518
100
AcDbEntity
  8
1
  6
Continuous
100
AcDbLine
 10
269.0293199999999
 20
197.6014999999999
 30
0.0
 11
269.0293199999999
 21
195.6547689999999
 31
0.0
  0
ARC
  5
B903
330
B518
100
AcDbEntity
  8
1
  6
Continuous
100
AcDbCircle
 10
277.2793199999999
 20
206.661608
 30
0.0
 40
13.60358299999999
100
AcDbArc
 50
241.1573589999999
 51
269.9999969999999
  0
ARC
  5
B904
330
B518
100
AcDbEntity
  8
1
  6
Continuous
100
AcDbCircle
 10
272.2896959999999
 20
197.6014999999999
 30
0.0
 40
3.260378999999999
100
AcDbArc
 50
118.8426409999999
 51
241.1573689999999
  0
ARC
  5
B905
330
B518
100
AcDbEntity
  8
1
  6
Continuous
100
AcDbCircle
 10
288.091019
 20
174.740271
 30
0.0
 40
2.0
100
AcDbArc
 50
292.3236719999999
 51
0.0
  0
LINE
  5
B906
330
B518
100
AcDbEntity
  8
1
  6
Continuous
100
AcDbLine
 10
290.591019
 20
177.0896399999998
 30
0.0
 11
290.091019
 21
177.0896399999998
 31
0.0
  0
LINE
  5
B907
330
B518
100
AcDbEntity
  8
1
  6
Continuous
100
AcDbLine
 10
288.557068
 20
172.7696039999999
 30
0.0
 11
288.8506929999999
 21
172.8901669999999
 31
0.0
  0
ARC
  5
B908
330
B518
100
AcDbEntity
  8
1
  6
Continuous
100
AcDbCircle
 10
412.773064
 20
168.410451
 30
0.0
 40
8.202799
100
AcDbArc
 50
101.6277139999999
 51
240.311691
  0
ARC
  5
B909
330
B518
100
AcDbEntity
  8
1
  6
Continuous
100
AcDbCircle
 10
412.773064
 20
168.410451
 30
0.0
 40
6.0
100
AcDbArc
 50
109.825935
 51
256.678992
  0
ARC
  5
B90A
330
B518
100
AcDbEntity
  8
1
  6
Continuous
100
AcDbCircle
 10
467.5593339999998
 20
170.1304979999999
 30
0.0
 40
8.575032999999997
100
AcDbArc
 50
334.3147
 51
25.696188
  0
ARC
  5
B90B
330
B518
100
AcDbEntity
  8
1
  6
Continuous
100
AcDbCircle
 10
405.1455149999998
 20
246.615324
 30
0.0
 40
95.98788500000001
100
AcDbArc
 50
315.8646489999999
 51
319.8530959999998
  0
LINE
  5
B90C
330
B518
100
AcDbEntity
  8
1
  6
Continuous
100
AcDbLine
 10
423.0222509999999
 20
142.573093
 30
0.0
 11
418.171099
 21
139.372318
 31
0.0
  0
LINE
  5
B90D
330
B518
100
AcDbEntity
  8
1
  6
Continuous
100
AcDbLine
 10
405.646427
 20
159.26283
 30
0.0
 11
418.171099
 21
139.3723159999999
 31
0.0
  0
ARC
  5
B90E
330
B518
100
AcDbEntity
  8
1
  6
Continuous
100
AcDbCircle
 10
427.9013439999998
 20
159.527837
 30
0.0
 40
17.642815
100
AcDbArc
 50
201.2879079999999
 51
266.637372
  0
LINE
  5
B90F
330
B518
100
AcDbEntity
  8
1
  6
Continuous
100
AcDbLine
 10
408.71037
 20
161.284413
 30
0.0
 11
405.646427
 21
159.262833
 31
0.0
  0
LINE
  5
B910
330
B518
100
AcDbEntity
  8
1
  6
Continuous
100
AcDbLine
 10
462.036931
 20
196.469107
 30
0.0
 11
469.917358
 21
201.6685879999998
 31
0.0
  0
LINE
  5
B911
330
B518
100
AcDbEntity
  8
1
  6
Continuous
100
AcDbLine
 10
478.7289429999998
 20
188.3135889999999
 30
0.0
 11
469.917358
 21
201.6685879999998
 31
0.0
  0
ARC
  5
B912
330
B518
100
AcDbEntity
  8
1
  6
Continuous
100
AcDbCircle
 10
476.2248839999998
 20
186.6614129999999
 30
0.0
 40
3.0
100
AcDbArc
 50
319.8530859999999
 51
33.416696
  0
ARC
  5
B913
330
B518
100
AcDbEntity
  8
1
  6
Continuous
100
AcDbCircle
 10
498.085229
 20
186.8743289999999
 30
0.0
 40
92.96617299999999
100
AcDbArc
 50
195.9775389999999
 51
201.2879079999999
  0
LINE
  5
B914
330
B518
100
AcDbEntity
  8
5
  6
PHANTOM
100
AcDbLine
 10
482.8389569999997
 20
165.6421319999998
 30
0.0
 11
482.8342949999998
 21
181.642133
 31
0.0
  0
LINE
  5
B915
330
B518
100
AcDbEntity
  8
5
  6
PHANTOM
100
AcDbLine
 10
473.393123
 20
181.6393799999999
 30
0.0
 11
482.8342949999998
 21
181.642133
 31
0.0
  0
ARC
  5
B916
330
B518
100
AcDbEntity
  8
5
  6
PHANTOM
100
AcDbCircle
 10
453.501972
 20
254.8214709999998
 30
0.0
 40
95.98788500000001
100
AcDbArc
 50
282.464649
 51
286.453096
  0
ARC
  5
B917
330
B518
100
AcDbEntity
  8
5
  6
PHANTOM
100
AcDbCircle
 10
479.838958
 20
165.641253
 30
0.0
 40
3.0
100
AcDbArc
 50
286.4530859999998
 51
0.016696
  0
ARC
  5
B918
330
B518
100
AcDbEntity
  8
5
  6
PHANTOM
100
AcDbCircle
 10
463.504592
 20
156.610673
 30
0.0
 40
8.575032999999997
100
AcDbArc
 50
300.9147
 51
352.2961879999999
  0
ARC
  5
B919
330
B518
100
AcDbEntity
  8
5
  6
PHANTOM
100
AcDbCircle
 10
416.819539
 20
185.333482
 30
0.0
 40
6.0
100
AcDbArc
 50
76.42593499999998
 51
223.2789919999999
  0
ARC
  5
B91A
330
B518
100
AcDbEntity
  8
5
  6
PHANTOM
100
AcDbCircle
 10
416.819539
 20
185.333482
 30
0.0
 40
8.202799
100
AcDbArc
 50
68.227714
 51
206.911691
  0
LINE
  5
B91B
330
B518
100
AcDbEntity
  8
5
  6
PHANTOM
100
AcDbLine
 10
409.50506
 20
181.620758
 30
0.0
 11
405.834294
 21
181.6196879999999
 31
0.0
  0
ARC
  5
B91C
330
B518
100
AcDbEntity
  8
5
  6
PHANTOM
100
AcDbCircle
 10
498.2062269999998
 20
153.7853059999999
 30
0.0
 40
92.96617299999999
100
AcDbArc
 50
162.577539
 51
167.887908
  0
LINE
  5
B91D
330
B518
100
AcDbEntity
  8
5
  6
PHANTOM
100
AcDbLine
 10
405.834292
 20
181.6196859999998
 30
0.0
 11
405.3411419999997
 21
158.119542
 31
0.0
  0
ARC
  5
B91E
330
B518
100
AcDbEntity
  8
5
  6
PHANTOM
100
AcDbCircle
 10
424.5596429999998
 20
169.590023
 30
0.0
 40
17.642815
100
AcDbArc
 50
167.887908
 51
233.237372
  0
LINE
  5
B91F
330
B518
100
AcDbEntity
  8
5
  6
PHANTOM
100
AcDbLine
 10
411.1530829999998
 20
158.1212379999998
 30
0.0
 11
405.3411429999998
 21
158.1195439999999
 31
0.0
  0
ARC
  5
B920
330
B518
100
AcDbEntity
  8
1
  6
Continuous
100
AcDbCircle
 10
142.7317659999999
 20
91.73751800000003
 30
0.0
 40
2.0
100
AcDbArc
 50
204.332899
 51
269.9999969999999
  0
LINE
  5
B921
330
B518
100
AcDbEntity
  8
1
  6
Continuous
100
AcDbLine
 10
140.5150989999999
 20
94.125534
 30
0.0
 11
147.580452
 21
94.125534
 31
0.0
  0
LINE
  5
B922
330
B518
100
AcDbEntity
  8
1
  6
Continuous
100
AcDbLine
 10
141.0824429999999
 20
96.425537
 30
0.0
 11
147.580452
 21
96.425537
 31
0.0
  0
ARC
  5
B923
330
B518
100
AcDbEntity
  8
1
  6
Continuous
100
AcDbCircle
 10
142.234726
 20
95.970673
 30
0.0
 40
3.0
100
AcDbArc
 50
269.9999969999999
 51
306.8698979999999
  0
ARC
  5
B924
330
B518
100
AcDbEntity
  8
1
  6
Continuous
100
AcDbCircle
 10
140.9688109999999
 20
104.860062
 30
0.0
 40
6.110624999999997
100
AcDbArc
 50
39.851241
 51
90.00000300000001
  0
ARC
  5
B925
330
B518
100
AcDbEntity
  8
1
  6
Continuous
100
AcDbCircle
 10
139.7429959999997
 20
104.860062
 30
0.0
 40
6.110624999999997
100
AcDbArc
 50
39.851241
 51
140.148761
  0
LINE
  5
B926
330
B518
100
AcDbEntity
  8
1
  6
Continuous
100
AcDbLine
 10
127.8656309999999
 20
89.73751799999998
 30
0.0
 11
165.660088
 21
89.73751799999998
 31
0.0
  0
LINE
  5
B927
330
B518
100
AcDbEntity
  8
1
  6
Continuous
100
AcDbLine
 10
127.8656309999999
 20
89.23751800000003
 30
0.0
 11
165.686584
 21
89.23751800000003
 31
0.0
  0
ARC
  5
B928
330
B518
100
AcDbEntity
  8
1
  6
Continuous
100
AcDbCircle
 10
142.3060909999998
 20
102.720673
 30
0.0
 40
9.449244
100
AcDbArc
 50
140.148761
 51
180.000005
  0
LINE
  5
B929
330
B518
100
AcDbEntity
  8
1
  6
Continuous
100
AcDbLine
 10
132.856842
 20
97.42553700000001
 30
0.0
 11
132.856842
 21
102.720673
 31
0.0
  0
ARC
  5
B92A
330
B518
100
AcDbEntity
  8
1
  6
Continuous
100
AcDbCircle
 10
128.1531069999997
 20
91.73751800000003
 30
0.0
 40
2.0
100
AcDbArc
 50
269.9999969999999
 51
335.667096
  0
LINE
  5
B92B
330
B518
100
AcDbEntity
  8
1
  6
Continuous
100
AcDbLine
 10
127.8656309999999
 20
89.23751800000003
 30
0.0
 11
127.8656309999999
 21
89.73751799999998
 31
0.0
  0
ARC
  5
B92C
330
B518
100
AcDbEntity
  8
1
  6
Continuous
100
AcDbCircle
 10
135.4424359999999
 20
88.44122299999998
 30
0.0
 40
6.0
100
AcDbArc
 50
24.332904
 51
155.667101
  0
LINE
  5
B92D
330
B518
100
AcDbEntity
  8
1
  6
Continuous
100
AcDbLine
 10
139.377411
 20
92.970673
 30
0.0
 11
142.234726
 21
92.970673
 31
0.0
  0
ARC
  5
B92E
330
B518
100
AcDbEntity
  8
1
  6
Continuous
100
AcDbCircle
 10
140.5150989999999
 20
96.12553400000001
 30
0.0
 40
2.0
100
AcDbArc
 50
227.969766
 51
269.9999969999999
  0
ARC
  5
B92F
330
B518
100
AcDbEntity
  8
1
  6
Continuous
100
AcDbCircle
 10
137.8370059999998
 20
93.15437300000001
 30
0.0
 40
2.0
100
AcDbArc
 50
47.96976799999998
 51
85.95499399999999
  0
ARC
  5
B930
330
B518
100
AcDbEntity
  8
1
  6
Continuous
100
AcDbCircle
 10
141.0824429999999
 20
98.42553700000001
 30
0.0
 40
2.0
100
AcDbArc
 50
228.5903839999999
 51
269.9999969999999
  0
ARC
  5
B931
330
B518
100
AcDbEntity
  8
1
  6
Continuous
100
AcDbCircle
 10
138.4366989999997
 20
95.425537
 30
0.0
 40
2.0
100
AcDbArc
 50
48.590379
 51
90.00000300000001
  0
LINE
  5
B932
330
B518
100
AcDbEntity
  8
1
  6
Continuous
100
AcDbLine
 10
126.38224
 20
95.96939799999999
 30
0.0
 11
137.9780849999999
 21
95.149384
 31
0.0
  0
LINE
  5
B933
330
B518
100
AcDbEntity
  8
1
  6
Continuous
100
AcDbLine
 10
127.002548
 20
97.42553700000001
 30
0.0
 11
138.4366989999997
 21
97.42553700000001
 31
0.0
  0
LINE
  5
B934
330
B518
100
AcDbEntity
  8
1
  6
Continuous
100
AcDbLine
 10
126.276352
 20
92.970673
 30
0.0
 11
131.507462
 21
92.970673
 31
0.0
  0
LINE
  5
B935
330
B518
100
AcDbEntity
  8
1
  6
Continuous
100
AcDbLine
 10
140.9688109999999
 20
110.970686
 30
0.0
 11
139.7429959999997
 21
110.970686
 31
0.0
  0
LINE
  5
B936
330
B518
100
AcDbEntity
  8
1
  6
Continuous
100
AcDbLine
 10
165.686584
 20
89.23751800000003
 30
0.0
 11
178.676136
 21
90.61790499999998
 31
0.0
  0
ARC
  5
B937
330
B518
100
AcDbEntity
  8
1
  6
Continuous
100
AcDbCircle
 10
183.3266529999999
 20
46.85611
 30
0.0
 40
44.50822099999999
100
AcDbArc
 50
75.344274
 51
96.065996
  0
LINE
  5
B938
330
B518
100
AcDbEntity
  8
1
  6
Continuous
100
AcDbLine
 10
171.969841
 20
91.36431899999999
 30
0.0
 11
193.5773089999999
 21
91.36431899999999
 31
0.0
  0
LINE
  5
B939
330
B518
100
AcDbEntity
  8
1
  6
Continuous
100
AcDbLine
 10
171.969841
 20
104.364319
 30
0.0
 11
196.127754
 21
104.364319
 31
0.0
  0
ARC
  5
B93A
330
B518
100
AcDbEntity
  8
1
  6
Continuous
100
AcDbCircle
 10
171.969841
 20
102.364319
 30
0.0
 40
2.0
100
AcDbArc
 50
90.00000300000001
 51
180.000005
  0
LINE
  5
B93B
330
B518
100
AcDbEntity
  8
1
  6
Continuous
100
AcDbLine
 10
163.8
 20
104.425537
 30
0.0
 11
165.0
 21
103.225537
 31
0.0
  0
ARC
  5
B93C
330
B518
100
AcDbEntity
  8
1
  6
Continuous
100
AcDbCircle
 10
137.1799009999998
 20
102.720673
 30
0.0
 40
9.449244
100
AcDbArc
 50
0.0
 51
39.851241
  0
ARC
  5
B93D
330
B518
100
AcDbEntity
  8
1
  6
Continuous
100
AcDbCircle
 10
138.4057239999999
 20
102.720673
 30
0.0
 40
9.449244
100
AcDbArc
 50
0.0
 51
39.851241
  0
LINE
  5
B93E
330
B518
100
AcDbEntity
  8
1
  6
Continuous
100
AcDbLine
 10
158.1999999999998
 20
104.425537
 30
0.0
 11
157.0
 21
103.225537
 31
0.0
  0
LINE
  5
B93F
330
B518
100
AcDbEntity
  8
1
  6
Continuous
100
AcDbLine
 10
170.164985
 20
103.226013
 30
0.0
 11
153.3820189999999
 21
97.40335100000001
 31
0.0
  0
LINE
  5
B940
330
B518
100
AcDbEntity
  8
1
  6
Continuous
100
AcDbLine
 10
155.844278
 20
92.83163499999997
 30
0.0
 11
162.969841
 21
92.83163499999997
 31
0.0
  0
LINE
  5
B941
330
B518
100
AcDbEntity
  8
1
  6
Continuous
100
AcDbLine
 10
150.4422989999999
 20
91.80000300000001
 30
0.0
 11
162.098343
 21
91.80000300000001
 31
0.0
  0
LINE
  5
B942
330
B518
100
AcDbEntity
  8
1
  6
Continuous
100
AcDbLine
 10
169.9698389999998
 20
100.7238159999999
 30
0.0
 11
154.135897
 21
95.230408
 31
0.0
  0
LINE
  5
B943
330
B518
100
AcDbEntity
  8
1
  6
Continuous
100
AcDbLine
 10
157.0
 20
103.225537
 30
0.0
 11
165.0
 21
103.225537
 31
0.0
  0
LINE
  5
B944
330
B518
100
AcDbEntity
  8
1
  6
Continuous
100
AcDbLine
 10
155.0
 20
101.425537
 30
0.0
 11
164.975378
 21
101.425537
 31
0.0
  0
ARC
  5
B945
330
B518
100
AcDbEntity
  8
1
  6
Continuous
100
AcDbCircle
 10
161.0
 20
89.96143499999998
 30
0.0
 40
11.464102
100
AcDbArc
 50
75.3451
 51
107.587954
  0
LINE
  5
B946
330
B518
100
AcDbEntity
  8
1
  6
Continuous
100
AcDbLine
 10
146.6291659999999
 20
96.425537
 30
0.0
 11
146.6291659999999
 21
102.720673
 31
0.0
  0
LINE
  5
B947
330
B518
100
AcDbEntity
  8
1
  6
Continuous
100
AcDbLine
 10
147.8549879999999
 20
96.425537
 30
0.0
 11
147.8549879999999
 21
102.720673
 31
0.0
  0
LINE
  5
B948
330
B518
100
AcDbEntity
  8
1
  6
Continuous
100
AcDbLine
 10
144.034725
 20
93.570679
 30
0.0
 11
144.7745319999999
 21
94.125534
 31
0.0
  0
ARC
  5
B949
330
B518
100
AcDbEntity
  8
1
  6
Continuous
100
AcDbCircle
 10
147.580452
 20
114.125534
 30
0.0
 40
17.700001
100
AcDbArc
 50
269.9999969999999
 51
289.133645
  0
ARC
  5
B94A
330
B518
100
AcDbEntity
  8
1
  6
Continuous
100
AcDbCircle
 10
147.580452
 20
114.125534
 30
0.0
 40
20.0
100
AcDbArc
 50
269.9999969999999
 51
289.133645
  0
LINE
  5
B94B
330
B518
100
AcDbEntity
  8
1
  6
Continuous
100
AcDbLine
 10
151.5016939999999
 20
94.513704
 30
0.0
 11
153.434676
 21
93.450559
 31
0.0
  0
LINE
  5
B94C
330
B518
100
AcDbEntity
  8
1
  6
Continuous
100
AcDbLine
 10
148.4275669999999
 20
90.06600999999998
 30
0.0
 11
149.701307
 21
91.47152700000004
 31
0.0
  0
ARC
  5
B94D
330
B518
100
AcDbEntity
  8
1
  6
Continuous
100
AcDbCircle
 10
147.686577
 20
90.737518
 30
0.0
 40
1.0
100
AcDbArc
 50
269.9999969999999
 51
317.815556
  0
ARC
  5
B94E
330
B518
100
AcDbEntity
  8
1
  6
Continuous
100
AcDbCircle
 10
150.4422989999999
 20
90.800003
 30
0.0
 40
1.0
100
AcDbArc
 50
90.00000300000001
 51
137.815555
  0
ARC
  5
B94F
330
B518
100
AcDbEntity
  8
1
  6
Continuous
100
AcDbCircle
 10
155.844278
 20
97.831635
 30
0.0
 40
5.0
100
AcDbArc
 50
241.1891
 51
270.0
  0
LINE
  5
B950
330
B518
100
AcDbEntity
  8
1
  6
Continuous
100
AcDbLine
 10
154.071797
 20
97.64266200000001
 30
0.0
 11
154.071797
 21
100.889639
 31
0.0
  0
LINE
  5
B951
330
B518
100
AcDbEntity
  8
2
  6
Continuous
100
AcDbLine
 10
157.6764999999998
 20
103.902037
 30
0.0
 11
157.6764999999998
 21
101.425537
 31
0.0
  0
LINE
  5
B952
330
B518
100
AcDbEntity
  8
1
  6
Continuous
100
AcDbLine
 10
157.0
 20
101.425537
 30
0.0
 11
157.0
 21
103.225537
 31
0.0
  0
LINE
  5
B953
330
B518
100
AcDbEntity
  8
1
  6
Continuous
100
AcDbLine
 10
154.071797
 20
100.889639
 30
0.0
 11
155.0
 21
101.425537
 31
0.0
  0
ARC
  5
B954
330
B518
100
AcDbEntity
  8
1
  6
Continuous
100
AcDbCircle
 10
155.803848
 20
98.35855
 30
0.0
 40
3.066986999999998
100
AcDbArc
 50
55.61575300000001
 51
115.615753
  0
LINE
  5
B955
330
B518
100
AcDbEntity
  8
1
  6
Continuous
100
AcDbLine
 10
157.535898
 20
98.84449299999999
 30
0.0
 11
157.535898
 21
100.889639
 31
0.0
  0
LINE
  5
B956
330
B518
100
AcDbEntity
  8
1
  6
Continuous
100
AcDbLine
 10
169.969841
 20
93.36431899999999
 30
0.0
 11
169.969841
 21
102.364319
 31
0.0
  0
ARC
  5
B957
330
B518
100
AcDbEntity
  8
1
  6
Continuous
100
AcDbCircle
 10
171.969841
 20
93.36431899999999
 30
0.0
 40
2.0
100
AcDbArc
 50
179.9999909999999
 51
270.000001
  0
ARC
  5
B958
330
B518
100
AcDbEntity
  8
1
  6
Continuous
100
AcDbCircle
 10
162.969841
 20
100.8316349999999
 30
0.0
 40
8.0
100
AcDbArc
 50
270.0
 51
331.0449759999999
  0
LINE
  5
B959
330
B518
100
AcDbEntity
  8
1
  6
Continuous
100
AcDbLine
 10
169.4698409999998
 20
91.254273
 30
0.0
 11
169.4698409999998
 21
93.860042
 31
0.0
  0
LINE
  5
B95A
330
B518
100
AcDbEntity
  8
1
  6
Continuous
100
AcDbLine
 10
168.764734
 20
94.316036
 30
0.0
 11
164.1494149999998
 21
92.24005699999999
 31
0.0
  0
ARC
  5
B95B
330
B518
100
AcDbEntity
  8
1
  6
Continuous
100
AcDbCircle
 10
168.969841
 20
93.860042
 30
0.0
 40
0.5
100
AcDbArc
 50
0.0
 51
114.2183029999999
  0
ARC
  5
B95C
330
B518
100
AcDbEntity
  8
1
  6
Continuous
100
AcDbCircle
 10
162.098343
 20
96.80000300000001
 30
0.0
 40
5.0
100
AcDbArc
 50
270.0
 51
294.2183029999998
  0
ARC
  5
B95D
330
B518
100
AcDbEntity
  8
1
  6
Continuous
100
AcDbCircle
 10
170.4698409999998
 20
91.254273
 30
0.0
 40
1.0
100
AcDbArc
 50
180.0
 51
276.0659609999998
  0
LINE
  5
B95E
330
B518
100
AcDbEntity
  8
1
  6
Continuous
100
AcDbLine
 10
165.0
 20
101.425537
 30
0.0
 11
165.0
 21
103.225537
 31
0.0
  0
LINE
  5
B95F
330
B518
100
AcDbEntity
  8
2
  6
Continuous
100
AcDbLine
 10
164.3234999999999
 20
103.902037
 30
0.0
 11
164.3234999999999
 21
101.425537
 31
0.0
  0
LINE
  5
B960
330
B518
100
AcDbEntity
  8
1
  6
Continuous
100
AcDbLine
 10
165.6600889999999
 20
89.73751799999998
 30
0.0
 11
178.623299
 21
91.11509699999999
 31
0.0
  0
LINE
  5
B961
330
B518
100
AcDbEntity
  8
1
  6
Continuous
100
AcDbLine
 10
158.1999999999998
 20
104.425537
 30
0.0
 11
163.8
 21
104.425537
 31
0.0
  0
LINE
  5
B962
330
B518
100
AcDbEntity
  8
1
  6
Continuous
100
AcDbLine
 10
198.353573
 20
104.064316
 30
0.0
 11
198.353573
 21
107.1143189999999
 31
0.0
  0
ARC
  5
B963
330
B518
100
AcDbEntity
  8
1
  6
Continuous
100
AcDbCircle
 10
196.127754
 20
105.364319
 30
0.0
 40
1.0
100
AcDbArc
 50
269.9999969999999
 51
0.0
  0
ARC
  5
B964
330
B518
100
AcDbEntity
  8
1
  6
Continuous
100
AcDbCircle
 10
187.8289029999999
 20
102.364319
 30
0.0
 40
2.0
100
AcDbArc
 50
90.00000300000001
 51
180.000005
  0
ARC
  5
B965
330
B518
100
AcDbEntity
  8
1
  6
Continuous
100
AcDbCircle
 10
196.353569
 20
104.064316
 30
0.0
 40
2.0
100
AcDbArc
 50
269.9999969999999
 51
0.0
  0
LINE
  5
B966
330
B518
100
AcDbEntity
  8
1
  6
Continuous
100
AcDbLine
 10
194.5876959999999
 20
89.91618299999997
 30
0.0
 11
194.4611929999999
 21
89.43244900000001
 31
0.0
  0
ARC
  5
B967
330
B518
100
AcDbEntity
  8
1
  6
Continuous
100
AcDbCircle
 10
193.1194379999998
 20
94.57955899999999
 30
0.0
 40
1.0
100
AcDbArc
 50
308.848884
 51
90.00000300000001
  0
ARC
  5
B968
330
B518
100
AcDbEntity
  8
1
  6
Continuous
100
AcDbCircle
 10
193.1194379999998
 20
92.27955599999999
 30
0.0
 40
1.0
100
AcDbArc
 50
308.848884
 51
0.0
  0
LINE
  5
B969
330
B518
100
AcDbEntity
  8
1
  6
Continuous
100
AcDbLine
 10
194.1194379999998
 20
92.27955599999999
 30
0.0
 11
194.1194379999998
 21
94.57955899999999
 31
0.0
  0
LINE
  5
B96A
330
B518
100
AcDbEntity
  8
1
  6
Continuous
100
AcDbLine
 10
193.7467159999999
 20
91.500763
 30
0.0
 11
193.577316
 21
91.36431899999999
 31
0.0
  0
LINE
  5
B96B
330
B518
100
AcDbEntity
  8
1
  6
Continuous
100
AcDbLine
 10
193.7467119999998
 20
93.800766
 30
0.0
 11
193.577312
 21
93.664322
 31
0.0
  0
LINE
  5
B96C
330
B518
100
AcDbEntity
  8
1
  6
Continuous
100
AcDbLine
 10
186.9468689999999
 20
94.66432199999998
 30
0.0
 11
186.9468689999999
 21
101.064316
 31
0.0
  0
LINE
  5
B96D
330
B518
100
AcDbEntity
  8
1
  6
Continuous
100
AcDbLine
 10
185.8289029999999
 20
93.36431899999999
 30
0.0
 11
185.8289029999999
 21
102.364319
 31
0.0
  0
ARC
  5
B96E
330
B518
100
AcDbEntity
  8
1
  6
Continuous
100
AcDbCircle
 10
187.8289029999999
 20
93.36431899999999
 30
0.0
 40
2.0
100
AcDbArc
 50
179.9999909999999
 51
270.000001
  0
ARC
  5
B96F
330
B518
100
AcDbEntity
  8
1
  6
Continuous
100
AcDbCircle
 10
187.9468689999999
 20
94.66432199999998
 30
0.0
 40
1.0
100
AcDbArc
 50
179.9999909999999
 51
270.000001
  0
ARC
  5
B970
330
B518
100
AcDbEntity
  8
1
  6
Continuous
100
AcDbCircle
 10
187.9468689999999
 20
101.064316
 30
0.0
 40
1.0
100
AcDbArc
 50
90.00000300000001
 51
180.000005
  0
ARC
  5
B971
330
B518
100
AcDbEntity
  8
1
  6
Continuous
100
AcDbCircle
 10
183.3266529999999
 20
46.85611
 30
0.0
 40
44.008221
100
AcDbArc
 50
75.344274
 51
96.065996
  0
LINE
  5
B972
330
B518
100
AcDbEntity
  8
1
  6
Continuous
100
AcDbLine
 10
186.9468689999999
 20
95.57955900000001
 30
0.0
 11
193.1194379999998
 21
95.57955900000001
 31
0.0
  0
LINE
  5
B973
330
B518
100
AcDbEntity
  8
1
  6
Continuous
100
AcDbLine
 10
187.9468689999999
 20
93.664322
 30
0.0
 11
193.5773089999999
 21
93.664322
 31
0.0
  0
LINE
  5
B974
330
B518
100
AcDbEntity
  8
1
  6
Continuous
100
AcDbLine
 10
187.9468689999999
 20
102.064316
 30
0.0
 11
196.353569
 21
102.064316
 31
0.0
  0
ARC
  5
B975
330
B518
100
AcDbEntity
  8
1
  6
Continuous
100
AcDbCircle
 10
187.6784899999999
 20
107.1143189999999
 30
0.0
 40
9.449244
100
AcDbArc
 50
0.0
 51
39.851241
  0
ARC
  5
B976
330
B518
100
AcDbEntity
  8
1
  6
Continuous
100
AcDbCircle
 10
188.904312
 20
107.1143189999999
 30
0.0
 40
9.449244
100
AcDbArc
 50
0.0
 51
39.851241
  0
LINE
  5
B977
330
B518
100
AcDbEntity
  8
1
  6
Continuous
100
AcDbLine
 10
191.4673999999999
 20
115.3643169999998
 30
0.0
 11
190.2415849999999
 21
115.3643169999998
 31
0.0
  0
LINE
  5
B978
330
B518
100
AcDbEntity
  8
1
  6
Continuous
100
AcDbLine
 10
183.355431
 20
104.364319
 30
0.0
 11
183.355431
 21
107.1143189999999
 31
0.0
  0
ARC
  5
B979
330
B518
100
AcDbEntity
  8
1
  6
Continuous
100
AcDbCircle
 10
192.804672
 20
107.1143189999999
 30
0.0
 40
9.449244
100
AcDbArc
 50
140.148761
 51
180.000005
  0
ARC
  5
B97A
330
B518
100
AcDbEntity
  8
1
  6
Continuous
100
AcDbCircle
 10
191.4673999999999
 20
109.253693
 30
0.0
 40
6.110624999999997
100
AcDbArc
 50
39.851241
 51
90.00000300000001
  0
ARC
  5
B97B
330
B518
100
AcDbEntity
  8
1
  6
Continuous
100
AcDbCircle
 10
190.2415849999999
 20
109.253693
 30
0.0
 40
6.110624999999997
100
AcDbArc
 50
39.851241
 51
140.148761
  0
LINE
  5
B97C
330
B518
100
AcDbEntity
  8
1
  6
Continuous
100
AcDbLine
 10
197.12775
 20
105.364319
 30
0.0
 11
197.12775
 21
107.1143189999999
 31
0.0
  0
ARC
  5
B97D
330
B518
100
AcDbEntity
  8
1
  6
Continuous
100
AcDbCircle
 10
127.002548
 20
95.198105
 30
0.0
 40
2.227427999999997
100
AcDbArc
 50
90.00000300000001
 51
190.323153
  0
LINE
  5
B97E
330
B518
100
AcDbEntity
  8
1
  6
Continuous
100
AcDbLine
 10
124.7751159999999
 20
95.198105
 30
0.0
 11
124.7751159999999
 21
94.471909
 31
0.0
  0
ARC
  5
B97F
330
B518
100
AcDbEntity
  8
1
  6
Continuous
100
AcDbCircle
 10
126.276352
 20
94.471909
 30
0.0
 40
1.501229999999999
100
AcDbArc
 50
85.95499399999999
 51
270.000001
  0
ARC
  5
B980
330
B518
100
AcDbEntity
  8
1
  6
Continuous
100
AcDbCircle
 10
182.0
 20
73.0
 30
0.0
 40
25.0
100
AcDbArc
 50
118.7642209999999
 51
121.3125189999999
  0
ARC
  5
B981
330
B518
100
AcDbEntity
  8
1
  6
Continuous
100
AcDbCircle
 10
182.0
 20
73.0
 30
0.0
 40
25.0
100
AcDbArc
 50
64.579581
 51
78.587292
  0
ARC
  5
B982
330
B518
100
AcDbEntity
  8
1
  6
Continuous
100
AcDbCircle
 10
182.0
 20
73.0
 30
0.0
 40
22.7
100
AcDbArc
 50
121.2715759999999
 51
123.5036
  0
ARC
  5
B983
330
B518
100
AcDbEntity
  8
1
  6
Continuous
100
AcDbCircle
 10
182.0
 20
73.0
 30
0.0
 40
20.69999999999998
100
AcDbArc
 50
117.480844
 51
123.50973
  0
ARC
  5
B984
330
B518
100
AcDbEntity
  8
1
  6
Continuous
100
AcDbCircle
 10
182.0
 20
73.0
 30
0.0
 40
20.69999999999998
100
AcDbArc
 50
126.3757779999999
 51
133.158137
  0
ARC
  5
B985
330
B518
100
AcDbEntity
  8
1
  6
Continuous
100
AcDbCircle
 10
182.0
 20
73.0
 30
0.0
 40
20.69999999999998
100
AcDbArc
 50
56.05522099999999
 51
62.519156
  0
LINE
  5
B986
330
B518
100
AcDbEntity
  8
1
  6
Continuous
100
AcDbLine
 10
198.353573
 20
105.0
 30
0.0
 11
208.0
 21
105.0
 31
0.0
  0
LINE
  5
B987
330
B518
100
AcDbEntity
  8
1
  6
Continuous
100
AcDbLine
 10
150.0
 20
96.591686
 30
0.0
 11
150.0
 21
99.0
 31
0.0
  0
LINE
  5
B988
330
B518
100
AcDbEntity
  8
1
  6
Continuous
100
AcDbLine
 10
150.0
 20
91.696871
 30
0.0
 11
150.0
 21
94.27242900000001
 31
0.0
  0
ARC
  5
B989
330
B518
100
AcDbEntity
  8
1
  6
Continuous
100
AcDbCircle
 10
161.0
 20
170.128165
 30
0.0
 40
32.5
100
AcDbArc
 50
162.735522
 51
173.426615
  0
ARC
  5
B98A
330
B518
100
AcDbEntity
  8
1
  6
Continuous
100
AcDbCircle
 10
161.0
 20
170.128165
 30
0.0
 40
32.5
100
AcDbArc
 50
186.562498
 51
299.763124
  0
ARC
  5
B98B
330
B518
100
AcDbEntity
  8
1
  6
Continuous
100
AcDbCircle
 10
161.0
 20
170.128165
 30
0.0
 40
22.5
100
AcDbArc
 50
200.3910269999999
 51
265.8704149999999
  0
ARC
  5
B98C
330
B518
100
AcDbEntity
  8
1
  6
Continuous
100
AcDbCircle
 10
161.0
 20
170.128165
 30
0.0
 40
17.5
100
AcDbArc
 50
193.4793649999998
 51
242.0442319999999
  0
ARC
  5
B98D
330
B518
100
AcDbEntity
  8
1
  6
Continuous
100
AcDbCircle
 10
161.0
 20
170.128165
 30
0.0
 40
22.5
100
AcDbArc
 50
350.16785
 51
355.132584
  0
ARC
  5
B98E
330
B518
100
AcDbEntity
  8
1
  6
Continuous
100
AcDbCircle
 10
161.0
 20
170.128165
 30
0.0
 40
32.5
100
AcDbArc
 50
11.207422
 51
12.37004
  0
ARC
  5
B98F
330
B518
100
AcDbEntity
  8
1
  6
Continuous
100
AcDbCircle
 10
283.335686
 20
153.444159
 30
0.0
 40
1.0
100
AcDbArc
 50
0.0
 51
90.00000300000001
  0
LINE
  5
B990
330
B518
100
AcDbEntity
  8
1
  6
Continuous
100
AcDbLine
 10
281.4356769999998
 20
154.444159
 30
0.0
 11
283.335686
 21
154.444159
 31
0.0
  0
ARC
  5
B991
330
B518
100
AcDbEntity
  8
1
  6
Continuous
100
AcDbCircle
 10
281.4356769999998
 20
153.444159
 30
0.0
 40
1.0
100
AcDbArc
 50
90.00000300000001
 51
180.000005
  0
LINE
  5
B992
330
B518
100
AcDbEntity
  8
1
  6
Continuous
100
AcDbLine
 10
80.664314
 20
154.444159
 30
0.0
 11
82.564323
 21
154.444159
 31
0.0
  0
ARC
  5
B993
330
B518
100
AcDbEntity
  8
1
  6
Continuous
100
AcDbCircle
 10
82.564323
 20
153.444159
 30
0.0
 40
1.0
100
AcDbArc
 50
0.0
 51
90.00000300000001
  0
ARC
  5
B994
330
B518
100
AcDbEntity
  8
1
  6
Continuous
100
AcDbCircle
 10
80.664314
 20
153.444159
 30
0.0
 40
1.0
100
AcDbArc
 50
90.00000300000001
 51
180.000005
  0
ENDSEC
  0
SECTION
  2
OBJECTS
  0
DICTIONARY
  5
B506
330
0
100
AcDbDictionary
281
     1
  3
ACAD_CIP_PREVIOUS_PRODUCT_INFO
350
B9F6
  3
ACAD_COLOR
350
B9D8
  3
ACAD_DETAILVIEWSTYLE
350
B9F1
  3
ACAD_GROUP
350
B507
  3
ACAD_LAYOUT
350
B513
  3
ACAD_MATERIAL
350
B9A6
  3
ACAD_MLEADERSTYLE
350
B9ED
  3
ACAD_MLINESTYLE
350
B510
  3
ACAD_PLOTSETTINGS
350
B512
  3
ACAD_PLOTSTYLENAME
350
B9A4
  3
ACAD_SCALELIST
350
B9DB
  3
ACAD_SECTIONVIEWSTYLE
350
B9EF
  3
ACAD_TABLESTYLE
350
B9D9
  3
ACAD_VISUALSTYLE
350
B9BF
  3
ACDB_RECOMPOSE_DATA
350
BA14
  3
AcDbVariableDictionary
350
BA07
  3
DWGPROPS
350
BA15
  0
DICTIONARY
  5
B9F7
330
B50A
100
AcDbDictionary
280
     1
281
     1
  3
ADSK_XREC_LAYER_RECONCILED
360
B9F8
  0
DICTIONARY
  5
B9F9
330
B520
100
AcDbDictionary
280
     1
281
     1
  3
ADSK_XREC_LAYER_RECONCILED
360
B9FA
  0
DICTIONARY
  5
B9FB
330
B521
100
AcDbDictionary
280
     1
281
     1
  3
ADSK_XREC_LAYER_RECONCILED
360
B9FC
  0
DICTIONARY
  5
B9FD
330
B522
100
AcDbDictionary
280
     1
281
     1
  3
ADSK_XREC_LAYER_RECONCILED
360
B9FE
  0
DICTIONARY
  5
B9FF
330
B523
100
AcDbDictionary
280
     1
281
     1
  3
ADSK_XREC_LAYER_RECONCILED
360
BA00
  0
DICTIONARY
  5
BA01
330
B524
100
AcDbDictionary
280
     1
281
     1
  3
ADSK_XREC_LAYER_RECONCILED
360
BA02
  0
DICTIONARY
  5
BA03
330
B525
100
AcDbDictionary
280
     1
281
     1
  3
ADSK_XREC_LAYER_RECONCILED
360
BA04
  0
DICTIONARY
  5
BA05
330
B526
100
AcDbDictionary
280
     1
281
     1
  3
ADSK_XREC_LAYER_RECONCILED
360
BA06
  0
DICTIONARY
  5
B99F
330
B518
100
AcDbDictionary
281
     1
  3
ACAD_LAYOUTSELFREF
350
B9A0
  0
DICTIONARY
  5
B99D
330
B514
100
AcDbDictionary
281
     1
  3
ACAD_LAYOUTSELFREF
350
B99E
  0
XRECORD
  5
B9F6
102
{ACAD_REACTORS
330
B506
102
}
330
B506
100
AcDbXrecord
280
     1
300
ACDLT
300
2014
300
ACDLT_F_S
  0
DICTIONARY
  5
B9D8
102
{ACAD_REACTORS
330
B506
102
}
330
B506
100
AcDbDictionary
281
     1
  0
DICTIONARY
  5
B9F1
102
{ACAD_REACTORS
330
B506
102
}
330
B506
100
AcDbDictionary
281
     1
  3
Imperial24
350
B9F2
  0
DICTIONARY
  5
B507
102
{ACAD_REACTORS
330
B506
102
}
330
B506
100
AcDbDictionary
281
     1
  0
DICTIONARY
  5
B513
102
{ACAD_REACTORS
330
B506
102
}
330
B506
100
AcDbDictionary
281
     1
  3
Model
350
B9F3
  3
レイアウト1
350
B9F4
  0
DICTIONARY
  5
B9A6
102
{ACAD_REACTORS
330
B506
102
}
330
B506
100
AcDbDictionary
281
     1
  3
ByBlock
350
B9AF
  3
ByLayer
350
B9A7
  3
Global
350
B9B7
  0
DICTIONARY
  5
B9ED
102
{ACAD_REACTORS
330
B506
102
}
330
B506
100
AcDbDictionary
281
     1
  3
Standard
350
B9EE
  0
DICTIONARY
  5
B510
102
{ACAD_REACTORS
330
B506
102
}
330
B506
100
AcDbDictionary
281
     1
  3
STANDARD
350
B511
  0
DICTIONARY
  5
B512
102
{ACAD_REACTORS
330
B506
102
}
330
B506
100
AcDbDictionary
281
     1
  0
ACDBDICTIONARYWDFLT
  5
B9A4
102
{ACAD_REACTORS
330
B506
102
}
330
B506
100
AcDbDictionary
281
     1
  3
Normal
350
B9A5
100
AcDbDictionaryWithDefault
340
B9A5
  0
DICTIONARY
  5
B9DB
102
{ACAD_REACTORS
330
B506
102
}
330
B506
100
AcDbDictionary
281
     1
  3
A0
350
B9DC
  3
A1
350
B9DD
  3
A2
350
B9DE
  3
A3
350
B9DF
  3
A4
350
B9E0
  3
A5
350
B9E1
  3
A6
350
B9E2
  3
A7
350
B9E3
  3
A8
350
B9E4
  3
A9
350
B9E5
  3
B0
350
B9E6
  3
B1
350
B9E7
  3
B2
350
B9E8
  3
B3
350
B9E9
  3
B4
350
B9EA
  3
B5
350
B9EB
  3
B6
350
B9EC
  0
DICTIONARY
  5
B9EF
102
{ACAD_REACTORS
330
B506
102
}
330
B506
100
AcDbDictionary
281
     1
  3
Imperial24
350
B9F0
  0
DICTIONARY
  5
B9D9
102
{ACAD_REACTORS
330
B506
102
}
330
B506
100
AcDbDictionary
281
     1
  3
Standard
350
B9DA
  0
DICTIONARY
  5
B9BF
102
{ACAD_REACTORS
330
B506
102
}
330
B506
100
AcDbDictionary
281
     1
  3
2dWireframe
350
B9C5
  3
Basic
350
B9C4
  3
Brighten
350
B9CB
  3
ColorChange
350
B9CF
  3
Conceptual
350
B9C8
  3
Dim
350
B9CA
  3
EdgeColorOff
350
B9D7
  3
Facepattern
350
B9CE
  3
Flat
350
B9C0
  3
FlatWithEdges
350
B9C1
  3
Gouraud
350
B9C2
  3
GouraudWithEdges
350
B9C3
  3
Hidden
350
B9C7
  3
JitterOff
350
B9D5
  3
Linepattern
350
B9CD
  3
OverhangOff
350
B9D6
  3
Realistic
350
B9C9
  3
Shaded
350
B9D4
  3
Shaded with edges
350
B9D3
  3
Shades of Gray
350
B9D0
  3
Sketchy
350
B9D1
  3
Thicken
350
B9CC
  3
Wireframe
350
B9C6
  3
X-Ray
350
B9D2
  0
XRECORD
  5
BA14
102
{ACAD_REACTORS
330
B506
102
}
330
B506
100
AcDbXrecord
280
     1
 90
        1
330
B9DA
  0
DICTIONARY
  5
BA07
102
{ACAD_REACTORS
330
B506
102
}
330
B506
100
AcDbDictionary
281
     1
  3
CANNOSCALE
350
BA0C
  3
CMLEADERSTYLE
350
BA09
  3
CTABLESTYLE
350
BA08
  3
CVIEWDETAILSTYLE
350
BA0A
  3
CVIEWSECTIONSTYLE
350
BA0B
  3
DIMASSOC
350
BA0F
  3
INDEXCTL
350
BA0E
  3
SORTENTS
350
BA0D
  3
XCLIPFRAME
350
BA10
  0
XRECORD
  5
BA15
102
{ACAD_REACTORS
330
B506
102
}
330
B506
100
AcDbXrecord
280
     1
  1
DWGPROPS COOKIE
  2

  3

  4

  6

  7

  8
Yoshitsune
  9

300
=
301
=
302
=
303
=
304
=
305
=
306
=
307
=
308
=
309
=
 40
0.0000130671296296
 41
2451303.37521794
 42
2457192.686841667
  1

 90
        0
  0
XRECORD
  5
B9F8
102
{ACAD_REACTORS
330
B9F7
102
}
330
B9F7
100
AcDbXrecord
280
     1
290
     1
  0
XRECORD
  5
B9FA
102
{ACAD_REACTORS
330
B9F9
102
}
330
B9F9
100
AcDbXrecord
280
     1
290
     1
  0
XRECORD
  5
B9FC
102
{ACAD_REACTORS
330
B9FB
102
}
330
B9FB
100
AcDbXrecord
280
     1
290
     1
  0
XRECORD
  5
B9FE
102
{ACAD_REACTORS
330
B9FD
102
}
330
B9FD
100
AcDbXrecord
280
     1
290
     1
  0
XRECORD
  5
BA00
102
{ACAD_REACTORS
330
B9FF
102
}
330
B9FF
100
AcDbXrecord
280
     1
290
     1
  0
XRECORD
  5
BA02
102
{ACAD_REACTORS
330
BA01
102
}
330
BA01
100
AcDbXrecord
280
     1
290
     1
  0
XRECORD
  5
BA04
102
{ACAD_REACTORS
330
BA03
102
}
330
BA03
100
AcDbXrecord
280
     1
290
     1
  0
XRECORD
  5
BA06
102
{ACAD_REACTORS
330
BA05
102
}
330
BA05
100
AcDbXrecord
280
     1
290
     1
  0
XRECORD
  5
B9A0
102
{ACAD_REACTORS
330
B99F
102
}
330
B99F
100
AcDbXrecord
280
     1
340
B518
  0
XRECORD
  5
B99E
102
{ACAD_REACTORS
330
B99D
102
}
330
B99D
100
AcDbXrecord
280
     1
340
B514
  0
ACDBDETAILVIEWSTYLE
  5
B9F2
102
{ACAD_XDICTIONARY
360
BA4D
102
}
102
{ACAD_REACTORS
330
B9F1
102
}
330
B9F1
100
AcDbModelDocViewStyle
 70
     0
  3
Imperial24
290
     0
100
AcDbDetailViewStyle
 70
     0
 71
     0
 90
        3
 71
     1
340
B50B
 40
0.24
340
0
 40
0.24
300

 40
0.36
280
     3
 71
     2
340
B50F
 90
       25
 71
     3
340
B50B
 40
0.24
 90
        1
 40
0.75
 90
        1
300
%<\AcVar ViewType \f "%tc1">% %<\AcVar ViewDetailId>%\PSCALE %<\AcVar ViewScale \f "%sn">%
 71
     4
340
B50F
 90
       25
340
B50F
 90
       25
280
     0
  0
LAYOUT
  5
B9F3
102
{ACAD_XDICTIONARY
360
BA4F
102
}
102
{ACAD_REACTORS
330
B513
102
}
330
B513
100
AcDbPlotSettings
  1

  2
Canon LBP9100C
  4

  6

 40
0.0
 41
0.0
 42
0.0
 43
0.0
 44
0.0
 45
0.0
 46
0.0
 47
0.0
 48
0.0
 49
0.0
140
0.0
141
0.0
142
1.0
143
1.0
 70
  1712
 72
     0
 73
     0
 74
     0
  7

 75
     0
147
1.0
148
0.0
149
0.0
100
AcDbLayout
  1
Model
 70
     1
 71
     0
 10
0.0
 20
0.0
 11
12.0
 21
9.0
 12
0.0
 22
0.0
 32
0.0
 14
0.0
 24
0.0
 34
0.0
 15
0.0
 25
0.0
 35
0.0
146
0.0
 13
0.0
 23
0.0
 33
0.0
 16
1.0
 26
0.0
 36
0.0
 17
0.0
 27
1.0
 37
0.0
 76
     0
330
B518
331
B99C
  0
LAYOUT
  5
B9F4
102
{ACAD_XDICTIONARY
360
BA51
102
}
102
{ACAD_REACTORS
330
B513
102
}
330
B513
100
AcDbPlotSettings
  1

  2
Canon LBP9100C
  4

  6

 40
0.0
 41
0.0
 42
0.0
 43
0.0
 44
0.0
 45
0.0
 46
0.0
 47
0.0
 48
0.0
 49
0.0
140
0.0
141
0.0
142
1.0
143
1.0
 70
   688
 72
     0
 73
     0
 74
     5
  7

 75
    16
147
1.0
148
0.0
149
0.0
100
AcDbLayout
  1
レイアウト1
 70
     0
 71
     1
 10
0.0
 20
0.0
 11
420.0
 21
297.0
 12
0.0
 22
0.0
 32
0.0
 14
1.000000000000000E+20
 24
1.000000000000000E+20
 34
1.000000000000000E+20
 15
-1.000000000000000E+20
 25
-1.000000000000000E+20
 35
-1.000000000000000E+20
146
0.0
 13
0.0
 23
0.0
 33
0.0
 16
1.0
 26
0.0
 36
0.0
 17
0.0
 27
1.0
 37
0.0
 76
     0
330
B514
  0
MATERIAL
  5
B9AF
102
{ACAD_XDICTIONARY
360
B9B0
102
}
102
{ACAD_REACTORS
330
B9A6
102
}
330
B9A6
100
AcDbMaterial
  1
ByBlock
 72
     0
 43
0.0208333333333333
 43
0.0
 43
0.0
 43
0.0
 43
0.0
 43
0.0208333333333333
 43
0.0
 43
0.0
 43
0.0
 43
0.0
 43
1.0
 43
0.0
 43
0.0
 43
0.0
 43
0.0
 43
1.0
 77
     0
 47
0.0208333333333333
 47
0.0
 47
0.0
 47
0.0
 47
0.0
 47
0.0208333333333333
 47
0.0
 47
0.0
 47
0.0
 47
0.0
 47
1.0
 47
0.0
 47
0.0
 47
0.0
 47
0.0
 47
1.0
171
     0
 49
0.0208333333333333
 49
0.0
 49
0.0
 49
0.0
 49
0.0
 49
0.0208333333333333
 49
0.0
 49
0.0
 49
0.0
 49
0.0
 49
1.0
 49
0.0
 49
0.0
 49
0.0
 49
0.0
 49
1.0
175
     0
142
0.0208333333333333
142
0.0
142
0.0
142
0.0
142
0.0
142
0.0208333333333333
142
0.0
142
0.0
142
0.0
142
0.0
142
1.0
142
0.0
142
0.0
142
0.0
142
0.0
142
1.0
179
     0
144
0.0208333333333333
144
0.0
144
0.0
144
0.0
144
0.0
144
0.0208333333333333
144
0.0
144
0.0
144
0.0
144
0.0
144
1.0
144
0.0
144
0.0
144
0.0
144
0.0
144
1.0
147
0.0208333333333333
147
0.0
147
0.0
147
0.0
147
0.0
147
0.0208333333333333
147
0.0
147
0.0
147
0.0
147
0.0
147
1.0
147
0.0
147
0.0
147
0.0
147
0.0
147
1.0
  0
MATERIAL
  5
B9A7
102
{ACAD_XDICTIONARY
360
B9A8
102
}
102
{ACAD_REACTORS
330
B9A6
102
}
330
B9A6
100
AcDbMaterial
  1
ByLayer
 72
     0
 43
0.0208333333333333
 43
0.0
 43
0.0
 43
0.0
 43
0.0
 43
0.0208333333333333
 43
0.0
 43
0.0
 43
0.0
 43
0.0
 43
1.0
 43
0.0
 43
0.0
 43
0.0
 43
0.0
 43
1.0
 77
     0
 47
0.0208333333333333
 47
0.0
 47
0.0
 47
0.0
 47
0.0
 47
0.0208333333333333
 47
0.0
 47
0.0
 47
0.0
 47
0.0
 47
1.0
 47
0.0
 47
0.0
 47
0.0
 47
0.0
 47
1.0
171
     0
 49
0.0208333333333333
 49
0.0
 49
0.0
 49
0.0
 49
0.0
 49
0.0208333333333333
 49
0.0
 49
0.0
 49
0.0
 49
0.0
 49
1.0
 49
0.0
 49
0.0
 49
0.0
 49
0.0
 49
1.0
175
     0
142
0.0208333333333333
142
0.0
142
0.0
142
0.0
142
0.0
142
0.0208333333333333
142
0.0
142
0.0
142
0.0
142
0.0
142
1.0
142
0.0
142
0.0
142
0.0
142
0.0
142
1.0
179
     0
144
0.0208333333333333
144
0.0
144
0.0
144
0.0
144
0.0
144
0.0208333333333333
144
0.0
144
0.0
144
0.0
144
0.0
144
1.0
144
0.0
144
0.0
144
0.0
144
0.0
144
1.0
147
0.0208333333333333
147
0.0
147
0.0
147
0.0
147
0.0
147
0.0208333333333333
147
0.0
147
0.0
147
0.0
147
0.0
147
1.0
147
0.0
147
0.0
147
0.0
147
0.0
147
1.0
  0
MATERIAL
  5
B9B7
102
{ACAD_XDICTIONARY
360
B9B8
102
}
102
{ACAD_REACTORS
330
B9A6
102
}
330
B9A6
100
AcDbMaterial
  1
Global
 72
     0
 43
0.0208333333333333
 43
0.0
 43
0.0
 43
0.0
 43
0.0
 43
0.0208333333333333
 43
0.0
 43
0.0
 43
0.0
 43
0.0
 43
1.0
 43
0.0
 43
0.0
 43
0.0
 43
0.0
 43
1.0
 77
     0
 47
0.0208333333333333
 47
0.0
 47
0.0
 47
0.0
 47
0.0
 47
0.0208333333333333
 47
0.0
 47
0.0
 47
0.0
 47
0.0
 47
1.0
 47
0.0
 47
0.0
 47
0.0
 47
0.0
 47
1.0
171
     0
 49
0.0208333333333333
 49
0.0
 49
0.0
 49
0.0
 49
0.0
 49
0.0208333333333333
 49
0.0
 49
0.0
 49
0.0
 49
0.0
 49
1.0
 49
0.0
 49
0.0
 49
0.0
 49
0.0
 49
1.0
175
     0
142
0.0208333333333333
142
0.0
142
0.0
142
0.0
142
0.0
142
0.0208333333333333
142
0.0
142
0.0
142
0.0
142
0.0
142
1.0
142
0.0
142
0.0
142
0.0
142
0.0
142
1.0
179
     0
144
0.0208333333333333
144
0.0
144
0.0
144
0.0
144
0.0
144
0.0208333333333333
144
0.0
144
0.0
144
0.0
144
0.0
144
1.0
144
0.0
144
0.0
144
0.0
144
0.0
144
1.0
147
0.0208333333333333
147
0.0
147
0.0
147
0.0
147
0.0
147
0.0208333333333333
147
0.0
147
0.0
147
0.0
147
0.0
147
1.0
147
0.0
147
0.0
147
0.0
147
0.0
147
1.0
  0
MLEADERSTYLE
  5
B9EE
102
{ACAD_REACTORS
330
B9ED
102
}
330
B9ED
100
AcDbMLeaderStyle
170
     2
171
     1
172
     0
 90
        2
 40
0.0
 41
0.0
173
     1
 91
-1056964608
340
B50D
 92
       -2
290
     1
 42
0.09
291
     1
 43
0.36
  3
Standard
 44
0.18
300

342
B50B
174
     1
178
     6
175
     1
176
     0
 93
-1056964608
 45
0.18
292
     0
297
     0
 46
0.18
 94
-1056964608
 47
1.0
 49
1.0
140
1.0
293
     1
141
0.0
294
     1
177
     0
142
1.0
295
     0
296
     0
143
0.125
1001
ACAD_MLEADERVER
1070
     2
  0
MLINESTYLE
  5
B511
102
{ACAD_REACTORS
330
B510
102
}
330
B510
100
AcDbMlineStyle
  2
STANDARD
 70
     0
  3

 62
   256
 51
90.0
 52
90.0
 71
     2
 49
0.5
 62
   256
  6
BYLAYER
 49
-0.5
 62
   256
  6
BYLAYER
  0
ACDBPLACEHOLDER
  5
B9A5
102
{ACAD_REACTORS
330
B9A4
102
}
330
B9A4
  0
SCALE
  5
B9DC
102
{ACAD_REACTORS
330
B9DB
102
}
330
B9DB
100
AcDbScale
 70
     0
300
1:1
140
1.0
141
1.0
290
     1
  0
SCALE
  5
B9DD
102
{ACAD_REACTORS
330
B9DB
102
}
330
B9DB
100
AcDbScale
 70
     0
300
1/128" = 1'-0"
140
0.0078125
141
12.0
290
     0
  0
SCALE
  5
B9DE
102
{ACAD_REACTORS
330
B9DB
102
}
330
B9DB
100
AcDbScale
 70
     0
300
1/64" = 1'-0"
140
0.015625
141
12.0
290
     0
  0
SCALE
  5
B9DF
102
{ACAD_REACTORS
330
B9DB
102
}
330
B9DB
100
AcDbScale
 70
     0
300
1/32" = 1'-0"
140
0.03125
141
12.0
290
     0
  0
SCALE
  5
B9E0
102
{ACAD_REACTORS
330
B9DB
102
}
330
B9DB
100
AcDbScale
 70
     0
300
1/16" = 1'-0"
140
0.0625
141
12.0
290
     0
  0
SCALE
  5
B9E1
102
{ACAD_REACTORS
330
B9DB
102
}
330
B9DB
100
AcDbScale
 70
     0
300
3/32" = 1'-0"
140
0.09375
141
12.0
290
     0
  0
SCALE
  5
B9E2
102
{ACAD_REACTORS
330
B9DB
102
}
330
B9DB
100
AcDbScale
 70
     0
300
1/8" = 1'-0"
140
0.125
141
12.0
290
     0
  0
SCALE
  5
B9E3
102
{ACAD_REACTORS
330
B9DB
102
}
330
B9DB
100
AcDbScale
 70
     0
300
3/16" = 1'-0"
140
0.1875
141
12.0
290
     0
  0
SCALE
  5
B9E4
102
{ACAD_REACTORS
330
B9DB
102
}
330
B9DB
100
AcDbScale
 70
     0
300
1/4" = 1'-0"
140
0.25
141
12.0
290
     0
  0
SCALE
  5
B9E5
102
{ACAD_REACTORS
330
B9DB
102
}
330
B9DB
100
AcDbScale
 70
     0
300
3/8" = 1'-0"
140
0.375
141
12.0
290
     0
  0
SCALE
  5
B9E6
102
{ACAD_REACTORS
330
B9DB
102
}
330
B9DB
100
AcDbScale
 70
     0
300
1/2" = 1'-0"
140
0.5
141
12.0
290
     0
  0
SCALE
  5
B9E7
102
{ACAD_REACTORS
330
B9DB
102
}
330
B9DB
100
AcDbScale
 70
     0
300
3/4" = 1'-0"
140
0.75
141
12.0
290
     0
  0
SCALE
  5
B9E8
102
{ACAD_REACTORS
330
B9DB
102
}
330
B9DB
100
AcDbScale
 70
     0
300
1" = 1'-0"
140
1.0
141
12.0
290
     0
  0
SCALE
  5
B9E9
102
{ACAD_REACTORS
330
B9DB
102
}
330
B9DB
100
AcDbScale
 70
     0
300
1-1/2" = 1'-0"
140
1.5
141
12.0
290
     0
  0
SCALE
  5
B9EA
102
{ACAD_REACTORS
330
B9DB
102
}
330
B9DB
100
AcDbScale
 70
     0
300
3" = 1'-0"
140
3.0
141
12.0
290
     0
  0
SCALE
  5
B9EB
102
{ACAD_REACTORS
330
B9DB
102
}
330
B9DB
100
AcDbScale
 70
     0
300
6" = 1'-0"
140
6.0
141
12.0
290
     0
  0
SCALE
  5
B9EC
102
{ACAD_REACTORS
330
B9DB
102
}
330
B9DB
100
AcDbScale
 70
     0
300
1'-0" = 1'-0"
140
12.0
141
12.0
290
     0
  0
ACDBSECTIONVIEWSTYLE
  5
B9F0
102
{ACAD_XDICTIONARY
360
BA4B
102
}
102
{ACAD_REACTORS
330
B9EF
102
}
330
B9EF
100
AcDbModelDocViewStyle
 70
     0
  3
Imperial24
290
     0
100
AcDbSectionViewStyle
 70
     0
 71
     0
 90
       78
 71
     1
340
B50B
 40
0.24
340
0
340
0
 40
0.24
300
I, O, Q, S, X, Z
 40
0.48
 90
        3
 40
0.18
 90
        1
 71
     2
340
B50F
 90
       25
340
B50F
 90
       50
 40
0.24
 40
0.0
 40
0.24
 71
     3
340
B50B
 40
0.24
 90
        1
 40
0.75
 90
        1
300
%<\AcVar ViewType \f "%tc1">% %<\AcVar ViewSectionStartId>%-%<\AcVar ViewSectionEndId>%\PSCALE %<\AcVar ViewScale \f "%sn">%
 71
     4
300
ANSI31
 40
1.0
 90
        0
290
     0
290
     0
 90
        6
 40
0.0
 40
1.570796326794896
 40
0.2617993877991494
 40
1.308996938995747
 40
-0.2617993877991494
 40
1.832595714594046
  0
TABLESTYLE
  5
B9DA
102
{ACAD_XDICTIONARY
360
BA12
102
}
102
{ACAD_REACTORS
330
B9D9
102
}
330
B9D9
100
AcDbTableStyle
  3
Standard
 70
     0
 71
     0
 40
0.06
 41
0.06
280
     0
281
     0
  7
STANDARD
140
0.18
170
     2
 62
     0
 63
     7
283
     0
274
    -2
284
     1
 64
     0
275
    -2
285
     1
 65
     0
276
    -2
286
     1
 66
     0
277
    -2
287
     1
 67
     0
278
    -2
288
     1
 68
     0
279
    -2
289
     1
 69
     0
  7
STANDARD
140
0.25
170
     5
 62
     0
 63
     7
283
     0
274
    -2
284
     1
 64
     0
275
    -2
285
     1
 65
     0
276
    -2
286
     1
 66
     0
277
    -2
287
     1
 67
     0
278
    -2
288
     1
 68
     0
279
    -2
289
     1
 69
     0
  7
STANDARD
140
0.18
170
     5
 62
     0
 63
     7
283
     0
274
    -2
284
     1
 64
     0
275
    -2
285
     1
 65
     0
276
    -2
286
     1
 66
     0
277
    -2
287
     1
 67
     0
278
    -2
288
     1
 68
     0
279
    -2
289
     1
 69
     0
  0
VISUALSTYLE
  5
B9C5
102
{ACAD_XDICTIONARY
360
BA23
102
}
102
{ACAD_REACTORS
330
B9BF
102
}
330
B9BF
100
AcDbVisualStyle
  2
2dWireframe
 70
     4
 71
     0
 72
     2
 73
     0
 90
        0
 40
-0.6
 41
-30.0
 62
     5
 63
     7
 74
     1
 91
        4
 64
     7
 65
   257
 75
     1
175
     1
 42
1.0
 92
        0
 66
   257
 43
1.0
 76
     1
 77
     6
 78
     2
 67
     7
 79
     5
170
     0
171
     0
290
     0
174
     0
 93
        1
 44
0.0
173
     0
291
     0
 45
0.0
1001
ACAD
1000
AcDbSavedByObjectVersion
1070
     0
  0
VISUALSTYLE
  5
B9C4
102
{ACAD_XDICTIONARY
360
BA21
102
}
102
{ACAD_REACTORS
330
B9BF
102
}
330
B9BF
100
AcDbVisualStyle
  2
Basic
 70
     7
 71
     1
 72
     0
 73
     1
 90
        0
 40
-0.6
 41
-30.0
 62
     5
 63
     7
 74
     0
 91
        4
 64
     7
 65
   257
 75
     1
175
     1
 42
1.0
 92
        8
 66
     7
 43
1.0
 76
     1
 77
     6
 78
     2
 67
     7
 79
     5
170
     0
171
     0
290
     0
174
     0
 93
        1
 44
0.0
173
     0
291
     1
 45
0.0
1001
ACAD
1000
AcDbSavedByObjectVersion
1070
     0
  0
VISUALSTYLE
  5
B9CB
102
{ACAD_XDICTIONARY
360
BA2F
102
}
102
{ACAD_REACTORS
330
B9BF
102
}
330
B9BF
100
AcDbVisualStyle
  2
Brighten
 70
    12
 71
     2
 72
     2
 73
     0
 90
        0
 40
-0.6
 41
-30.0
 62
     5
 63
     7
 74
     1
 91
        4
 64
     7
 65
   257
 75
     1
175
     1
 42
1.0
 92
        8
 66
     7
 43
1.0
 76
     1
 77
     6
 78
     2
 67
     7
 79
     5
170
     0
171
     0
290
     0
174
     0
 93
        1
 44
50.0
173
     0
291
     1
 45
0.0
1001
ACAD
1000
AcDbSavedByObjectVersion
1070
     0
  0
VISUALSTYLE
  5
B9CF
102
{ACAD_XDICTIONARY
360
BA37
102
}
102
{ACAD_REACTORS
330
B9BF
102
}
330
B9BF
100
AcDbVisualStyle
  2
ColorChange
 70
    16
 71
     2
 72
     2
 73
     3
 90
        0
 40
-0.6
 41
-30.0
 62
     5
 63
     8
 74
     1
 91
        4
 64
     7
 65
   257
 75
     1
175
     1
 42
1.0
 92
        8
 66
     8
 43
1.0
 76
     1
 77
     6
 78
     2
 67
     7
 79
     5
170
     0
171
     0
290
     0
174
     0
 93
        1
 44
0.0
173
     0
291
     1
 45
0.0
1001
ACAD
1000
AcDbSavedByObjectVersion
1070
     0
  0
VISUALSTYLE
  5
B9C8
102
{ACAD_XDICTIONARY
360
BA29
102
}
102
{ACAD_REACTORS
330
B9BF
102
}
330
B9BF
100
AcDbVisualStyle
  2
Conceptual
 70
     9
 71
     3
 72
     2
 73
     0
 90
        0
 40
-0.6
 41
-30.0
 62
     5
 63
     7
 74
     2
 91
        2
 64
     7
 65
   257
 75
     1
175
     1
 42
179.0
 92
        8
 66
     7
 43
1.0
 76
     1
 77
     6
 78
     2
 67
     7
 79
     3
170
     0
171
     0
290
     0
174
     0
 93
        1
 44
0.0
173
     0
291
     0
 45
0.0
1001
ACAD
1000
AcDbSavedByObjectVersion
1070
     0
  0
VISUALSTYLE
  5
B9CA
102
{ACAD_XDICTIONARY
360
BA2D
102
}
102
{ACAD_REACTORS
330
B9BF
102
}
330
B9BF
100
AcDbVisualStyle
  2
Dim
 70
    11
 71
     2
 72
     2
 73
     0
 90
        0
 40
-0.6
 41
-30.0
 62
     5
 63
     7
 74
     1
 91
        4
 64
     7
 65
   257
 75
     1
175
     1
 42
1.0
 92
        8
 66
     7
 43
1.0
 76
     1
 77
     6
 78
     2
 67
     7
 79
     5
170
     0
171
     0
290
     0
174
     0
 93
        1
 44
-50.0
173
     0
291
     1
 45
0.0
1001
ACAD
1000
AcDbSavedByObjectVersion
1070
     0
  0
VISUALSTYLE
  5
B9D7
102
{ACAD_XDICTIONARY
360
BA47
102
}
102
{ACAD_REACTORS
330
B9BF
102
}
330
B9BF
100
AcDbVisualStyle
  2
EdgeColorOff
 70
    22
 71
     2
 72
     2
 73
     0
 90
        0
 40
-0.6
 41
-30.0
 62
     5
 63
     7
 74
     1
 91
        4
 64
     7
 65
   257
 75
     1
175
     1
 42
1.0
 92
        8
 66
     7
 43
1.0
 76
     1
 77
     6
 78
     2
 67
     7
 79
     5
170
     0
171
     0
290
     0
174
     0
 93
        1
 44
0.0
173
     0
291
     1
 45
0.0
1001
ACAD
1000
AcDbSavedByObjectVersion
1070
     0
  0
VISUALSTYLE
  5
B9CE
102
{ACAD_XDICTIONARY
360
BA35
102
}
102
{ACAD_REACTORS
330
B9BF
102
}
330
B9BF
100
AcDbVisualStyle
  2
Facepattern
 70
    15
 71
     2
 72
     2
 73
     0
 90
        0
 40
-0.6
 41
-30.0
 62
     5
 63
     7
 74
     1
 91
        4
 64
     7
 65
   257
 75
     1
175
     1
 42
1.0
 92
        8
 66
     7
 43
1.0
 76
     1
 77
     6
 78
     2
 67
     7
 79
     5
170
     0
171
     0
290
     0
174
     0
 93
        1
 44
0.0
173
     0
291
     1
 45
0.0
1001
ACAD
1000
AcDbSavedByObjectVersion
1070
     0
  0
VISUALSTYLE
  5
B9C0
102
{ACAD_XDICTIONARY
360
BA19
102
}
102
{ACAD_REACTORS
330
B9BF
102
}
330
B9BF
100
AcDbVisualStyle
  2
Flat
 70
     0
 71
     2
 72
     1
 73
     1
 90
        2
 40
-0.6
 41
30.0
 62
     5
 63
     7
 74
     0
 91
        0
 64
     7
 65
   257
 75
     1
175
     1
 42
1.0
 92
        8
 66
     7
 43
1.0
 76
     1
 77
     6
 78
     2
 67
     7
 79
     5
170
     0
171
     0
290
     0
174
     0
 93
       13
 44
0.0
173
     0
291
     1
 45
0.0
1001
ACAD
1000
AcDbSavedByObjectVersion
1070
     0
  0
VISUALSTYLE
  5
B9C1
102
{ACAD_XDICTIONARY
360
BA1B
102
}
102
{ACAD_REACTORS
330
B9BF
102
}
330
B9BF
100
AcDbVisualStyle
  2
FlatWithEdges
 70
     1
 71
     2
 72
     1
 73
     1
 90
        2
 40
-0.6
 41
30.0
 62
     5
 63
     7
 74
     1
 91
        0
 64
     7
 65
   257
 75
     1
175
     1
 42
1.0
 92
        0
 66
   257
 43
1.0
 76
     1
 77
     6
 78
     2
 67
     7
 79
     5
170
     0
171
     0
290
     0
174
     0
 93
       13
 44
0.0
173
     0
291
     1
 45
0.0
1001
ACAD
1000
AcDbSavedByObjectVersion
1070
     0
  0
VISUALSTYLE
  5
B9C2
102
{ACAD_XDICTIONARY
360
BA1D
102
}
102
{ACAD_REACTORS
330
B9BF
102
}
330
B9BF
100
AcDbVisualStyle
  2
Gouraud
 70
     2
 71
     2
 72
     2
 73
     1
 90
        2
 40
-0.6
 41
30.0
 62
     5
 63
     7
 74
     0
 91
        0
 64
     7
 65
   257
 75
     1
175
     1
 42
1.0
 92
        0
 66
     7
 43
1.0
 76
     1
 77
     6
 78
     2
 67
     7
 79
     5
170
     0
171
     0
290
     0
174
     0
 93
       13
 44
0.0
173
     0
291
     1
 45
0.0
1001
ACAD
1000
AcDbSavedByObjectVersion
1070
     0
  0
VISUALSTYLE
  5
B9C3
102
{ACAD_XDICTIONARY
360
BA1F
102
}
102
{ACAD_REACTORS
330
B9BF
102
}
330
B9BF
100
AcDbVisualStyle
  2
GouraudWithEdges
 70
     3
 71
     2
 72
     2
 73
     1
 90
        2
 40
-0.6
 41
30.0
 62
     5
 63
     7
 74
     1
 91
        0
 64
     7
 65
   257
 75
     1
175
     1
 42
1.0
 92
        0
 66
   257
 43
1.0
 76
     1
 77
     6
 78
     2
 67
     7
 79
     5
170
     0
171
     0
290
     0
174
     0
 93
       13
 44
0.0
173
     0
291
     1
 45
0.0
1001
ACAD
1000
AcDbSavedByObjectVersion
1070
     0
  0
VISUALSTYLE
  5
B9C7
102
{ACAD_XDICTIONARY
360
BA27
102
}
102
{ACAD_REACTORS
330
B9BF
102
}
330
B9BF
100
AcDbVisualStyle
  2
Hidden
 70
     6
 71
     1
 72
     2
 73
     2
 90
        0
 40
-0.6
 41
-30.0
 62
     5
 63
     7
 74
     2
 91
        2
 64
     7
 65
   257
 75
     2
175
     1
 42
40.0
 92
        0
 66
   257
 43
1.0
 76
     1
 77
     6
 78
     2
 67
     7
 79
     3
170
     0
171
     0
290
     0
174
     0
 93
        1
 44
0.0
173
     0
291
     0
 45
0.0
1001
ACAD
1000
AcDbSavedByObjectVersion
1070
     0
  0
VISUALSTYLE
  5
B9D5
102
{ACAD_XDICTIONARY
360
BA43
102
}
102
{ACAD_REACTORS
330
B9BF
102
}
330
B9BF
100
AcDbVisualStyle
  2
JitterOff
 70
    20
 71
     2
 72
     2
 73
     0
 90
        0
 40
-0.6
 41
-30.0
 62
     5
 63
     7
 74
     1
 91
        4
 64
     7
 65
   257
 75
     1
175
     1
 42
1.0
 92
       10
 66
     7
 43
1.0
 76
     1
 77
     6
 78
     2
 67
     7
 79
     5
170
     0
171
     0
290
     0
174
     0
 93
        1
 44
0.0
173
     0
291
     1
 45
0.0
1001
ACAD
1000
AcDbSavedByObjectVersion
1070
     0
  0
VISUALSTYLE
  5
B9CD
102
{ACAD_XDICTIONARY
360
BA33
102
}
102
{ACAD_REACTORS
330
B9BF
102
}
330
B9BF
100
AcDbVisualStyle
  2
Linepattern
 70
    14
 71
     2
 72
     2
 73
     0
 90
        0
 40
-0.6
 41
-30.0
 62
     5
 63
     7
 74
     1
 91
        4
 64
     7
 65
   257
 75
     7
175
     7
 42
1.0
 92
        8
 66
     7
 43
1.0
 76
     1
 77
     6
 78
     2
 67
     7
 79
     5
170
     0
171
     0
290
     0
174
     0
 93
        1
 44
0.0
173
     0
291
     1
 45
0.0
1001
ACAD
1000
AcDbSavedByObjectVersion
1070
     0
  0
VISUALSTYLE
  5
B9D6
102
{ACAD_XDICTIONARY
360
BA45
102
}
102
{ACAD_REACTORS
330
B9BF
102
}
330
B9BF
100
AcDbVisualStyle
  2
OverhangOff
 70
    21
 71
     2
 72
     2
 73
     0
 90
        0
 40
-0.6
 41
-30.0
 62
     5
 63
     7
 74
     1
 91
        4
 64
     7
 65
   257
 75
     1
175
     1
 42
1.0
 92
        9
 66
     7
 43
1.0
 76
     1
 77
     6
 78
     2
 67
     7
 79
     5
170
     0
171
     0
290
     0
174
     0
 93
        1
 44
0.0
173
     0
291
     1
 45
0.0
1001
ACAD
1000
AcDbSavedByObjectVersion
1070
     0
  0
VISUALSTYLE
  5
B9C9
102
{ACAD_XDICTIONARY
360
BA2B
102
}
102
{ACAD_REACTORS
330
B9BF
102
}
330
B9BF
100
AcDbVisualStyle
  2
Realistic
 70
     8
 71
     2
 72
     3
 73
     0
 90
        2
 40
-0.6
 41
30.0
 62
     5
 63
     7
 74
     0
 91
        0
 64
     7
 65
   257
 75
     1
175
     1
 42
1.0
 92
        8
 66
   257
 43
1.0
 76
     1
 77
     6
 78
     2
 67
     7
 79
     3
170
     0
171
     0
290
     0
174
     0
 93
       13
 44
0.0
173
     0
291
     0
 45
0.0
1001
ACAD
1000
AcDbSavedByObjectVersion
1070
     0
  0
VISUALSTYLE
  5
B9D4
102
{ACAD_XDICTIONARY
360
BA41
102
}
102
{ACAD_REACTORS
330
B9BF
102
}
330
B9BF
100
AcDbVisualStyle
  2
Shaded
 70
    27
 71
     2
 72
     2
 73
     1
 90
        2
 40
-0.6
 41
30.0
 62
     5
 63
     7
 74
     0
 91
        4
 64
     7
 65
   257
 75
     1
175
     1
 42
1.0
 92
        8
 66
   257
 43
1.0
 76
     1
 77
     6
 78
     2
 67
     8
 79
     3
170
     0
171
     0
290
     0
174
     0
 93
        5
 44
0.0
173
     0
291
     0
 45
0.0
1001
ACAD
1000
AcDbSavedByObjectVersion
1070
     0
  0
VISUALSTYLE
  5
B9D3
102
{ACAD_XDICTIONARY
360
BA3F
102
}
102
{ACAD_REACTORS
330
B9BF
102
}
330
B9BF
100
AcDbVisualStyle
  2
Shaded with edges
 70
    26
 71
     2
 72
     2
 73
     1
 90
        2
 40
-0.6
 41
30.0
 62
     5
 63
     7
 74
     1
 91
       10
 64
     7
 65
   257
 75
     2
175
     1
 42
1.0
 92
        8
 66
   257
 43
1.0
 76
     1
 77
     6
 78
     2
 67
     7
 79
     3
170
     0
171
     0
290
     0
174
     0
 93
        5
 44
0.0
173
     0
291
     0
 45
0.0
1001
ACAD
1000
AcDbSavedByObjectVersion
1070
     0
  0
VISUALSTYLE
  5
B9D0
102
{ACAD_XDICTIONARY
360
BA39
102
}
102
{ACAD_REACTORS
330
B9BF
102
}
330
B9BF
100
AcDbVisualStyle
  2
Shades of Gray
 70
    23
 71
     2
 72
     2
 73
     3
 90
        0
 40
-0.6
 41
-30.0
 62
     5
 63
     7
 74
     2
 91
        2
 64
     7
 65
     7
 75
     1
175
     1
 42
40.0
 92
        8
 66
     7
 43
1.0
 76
     1
 77
     6
 78
     2
 67
     7
 79
     3
170
     0
171
     0
290
     0
174
     0
 93
        1
 44
0.0
173
     0
291
     0
 45
0.0
1001
ACAD
1000
AcDbSavedByObjectVersion
1070
     0
  0
VISUALSTYLE
  5
B9D1
102
{ACAD_XDICTIONARY
360
BA3B
102
}
102
{ACAD_REACTORS
330
B9BF
102
}
330
B9BF
100
AcDbVisualStyle
  2
Sketchy
 70
    24
 71
     1
 72
     2
 73
     2
 90
        0
 40
-0.6
 41
-30.0
 62
     5
 63
     7
 74
     2
 91
        2
 64
     7
 65
     7
 75
     1
175
     1
 42
40.0
 92
       11
 66
     7
 43
1.0
 76
     1
 77
     6
 78
     2
 67
     7
 79
     6
170
     0
171
     0
290
     0
174
     0
 93
        1
 44
0.0
173
     0
291
     0
 45
0.0
1001
ACAD
1000
AcDbSavedByObjectVersion
1070
     0
  0
VISUALSTYLE
  5
B9CC
102
{ACAD_XDICTIONARY
360
BA31
102
}
102
{ACAD_REACTORS
330
B9BF
102
}
330
B9BF
100
AcDbVisualStyle
  2
Thicken
 70
    13
 71
     2
 72
     2
 73
     0
 90
        0
 40
-0.6
 41
-30.0
 62
     5
 63
     7
 74
     1
 91
        4
 64
     7
 65
   257
 75
     1
175
     1
 42
1.0
 92
       12
 66
     7
 43
1.0
 76
     1
 77
     6
 78
     2
 67
     7
 79
     5
170
     0
171
     0
290
     0
174
     0
 93
        1
 44
0.0
173
     0
291
     1
 45
0.0
1001
ACAD
1000
AcDbSavedByObjectVersion
1070
     0
  0
VISUALSTYLE
  5
B9C6
102
{ACAD_XDICTIONARY
360
BA25
102
}
102
{ACAD_REACTORS
330
B9BF
102
}
330
B9BF
100
AcDbVisualStyle
  2
Wireframe
 70
     5
 71
     0
 72
     2
 73
     0
 90
        0
 40
-0.6
 41
-30.0
 62
     5
 63
     7
 74
     1
 91
        4
 64
     7
 65
   257
 75
     1
175
     1
 42
1.0
 92
        0
 66
   257
 43
1.0
 76
     1
 77
     6
 78
     2
 67
     7
 79
     3
170
     0
171
     0
290
     0
174
     0
 93
        1
 44
0.0
173
     0
291
     0
 45
0.0
1001
ACAD
1000
AcDbSavedByObjectVersion
1070
     0
  0
VISUALSTYLE
  5
B9D2
102
{ACAD_XDICTIONARY
360
BA3D
102
}
102
{ACAD_REACTORS
330
B9BF
102
}
330
B9BF
100
AcDbVisualStyle
  2
X-Ray
 70
    25
 71
     2
 72
     2
 73
     1
 90
        1
 40
0.5
 41
-30.0
 62
     5
 63
     7
 74
     1
 91
        0
 64
     7
 65
   257
 75
     1
175
     1
 42
1.0
 92
        8
 66
     7
 43
1.0
 76
     1
 77
     6
 78
     2
 67
     7
 79
     3
170
     0
171
     0
290
     0
174
     0
 93
       13
 44
0.0
173
     0
291
     0
 45
0.0
1001
ACAD
1000
AcDbSavedByObjectVersion
1070
     0
  0
DICTIONARYVAR
  5
BA0C
102
{ACAD_REACTORS
330
BA07
102
}
330
BA07
100
DictionaryVariables
280
     0
  1
1:1
  0
DICTIONARYVAR
  5
BA09
102
{ACAD_REACTORS
330
BA07
102
}
330
BA07
100
DictionaryVariables
280
     0
  1
STANDARD
  0
DICTIONARYVAR
  5
BA08
102
{ACAD_REACTORS
330
BA07
102
}
330
BA07
100
DictionaryVariables
280
     0
  1
STANDARD
  0
DICTIONARYVAR
  5
BA0A
102
{ACAD_REACTORS
330
BA07
102
}
330
BA07
100
DictionaryVariables
280
     0
  1
Imperial24
  0
DICTIONARYVAR
  5
BA0B
102
{ACAD_REACTORS
330
BA07
102
}
330
BA07
100
DictionaryVariables
280
     0
  1
Imperial24
  0
DICTIONARYVAR
  5
BA0F
102
{ACAD_REACTORS
330
BA07
102
}
330
BA07
100
DictionaryVariables
280
     0
  1
1
  0
DICTIONARYVAR
  5
BA0E
102
{ACAD_REACTORS
330
BA07
102
}
330
BA07
100
DictionaryVariables
280
     0
  1
0
  0
DICTIONARYVAR
  5
BA0D
102
{ACAD_REACTORS
330
BA07
102
}
330
BA07
100
DictionaryVariables
280
     0
  1
127
  0
DICTIONARYVAR
  5
BA10
102
{ACAD_REACTORS
330
BA07
102
}
330
BA07
100
DictionaryVariables
280
     0
  1
2
  0
DICTIONARY
  5
BA4D
330
B9F2
100
AcDbDictionary
280
     1
281
     1
  3
ACAD_XREC_ROUNDTRIP
360
BA4E
  0
DICTIONARY
  5
BA4F
330
B9F3
100
AcDbDictionary
280
     1
281
     1
  3
ACAD_XREC_ROUNDTRIP
360
BA50
  0
DICTIONARY
  5
BA51
330
B9F4
100
AcDbDictionary
280
     1
281
     1
  3
ACAD_XREC_ROUNDTRIP
360
BA52
  0
DICTIONARY
  5
B9B0
330
B9AF
100
AcDbDictionary
280
     1
281
     1
  3
ACAD_XREC_ROUNDTRIP
360
BA17
  3
BUMPTILE
360
B9B2
  3
DIFFUSETILE
360
B9B1
  3
OPACITYTILE
360
B9B5
  3
REFLECTIONTILE
360
B9B4
  3
REFRACTIONTILE
360
B9B6
  3
SPECULARTILE
360
B9B3
  0
DICTIONARY
  5
B9A8
330
B9A7
100
AcDbDictionary
280
     1
281
     1
  3
ACAD_XREC_ROUNDTRIP
360
BA16
  3
BUMPTILE
360
B9AA
  3
DIFFUSETILE
360
B9A9
  3
OPACITYTILE
360
B9AD
  3
REFLECTIONTILE
360
B9AC
  3
REFRACTIONTILE
360
B9AE
  3
SPECULARTILE
360
B9AB
  0
DICTIONARY
  5
B9B8
330
B9B7
100
AcDbDictionary
280
     1
281
     1
  3
ACAD_XREC_ROUNDTRIP
360
BA18
  3
BUMPTILE
360
B9BA
  3
DIFFUSETILE
360
B9B9
  3
OPACITYTILE
360
B9BD
  3
REFLECTIONTILE
360
B9BC
  3
REFRACTIONTILE
360
B9BE
  3
SPECULARTILE
360
B9BB
  0
DICTIONARY
  5
BA4B
330
B9F0
100
AcDbDictionary
280
     1
281
     1
  3
ACAD_XREC_ROUNDTRIP
360
BA4C
  0
DICTIONARY
  5
BA12
330
B9DA
100
AcDbDictionary
280
     1
281
     1
  3
ACAD_ROUNDTRIP_2008_TABLESTYLE_CELLSTYLEMAP
360
BA13
  3
ACAD_XREC_ROUNDTRIP
360
BA49
  0
DICTIONARY
  5
BA23
330
B9C5
100
AcDbDictionary
280
     1
281
     1
  3
ACAD_XREC_ROUNDTRIP
360
BA24
  0
DICTIONARY
  5
BA21
330
B9C4
100
AcDbDictionary
280
     1
281
     1
  3
ACAD_XREC_ROUNDTRIP
360
BA22
  0
DICTIONARY
  5
BA2F
330
B9CB
100
AcDbDictionary
280
     1
281
     1
  3
ACAD_XREC_ROUNDTRIP
360
BA30
  0
DICTIONARY
  5
BA37
330
B9CF
100
AcDbDictionary
280
     1
281
     1
  3
ACAD_XREC_ROUNDTRIP
360
BA38
  0
DICTIONARY
  5
BA29
330
B9C8
100
AcDbDictionary
280
     1
281
     1
  3
ACAD_XREC_ROUNDTRIP
360
BA2A
  0
DICTIONARY
  5
BA2D
330
B9CA
100
AcDbDictionary
280
     1
281
     1
  3
ACAD_XREC_ROUNDTRIP
360
BA2E
  0
DICTIONARY
  5
BA47
330
B9D7
100
AcDbDictionary
280
     1
281
     1
  3
ACAD_XREC_ROUNDTRIP
360
BA48
  0
DICTIONARY
  5
BA35
330
B9CE
100
AcDbDictionary
280
     1
281
     1
  3
ACAD_XREC_ROUNDTRIP
360
BA36
  0
DICTIONARY
  5
BA19
330
B9C0
100
AcDbDictionary
280
     1
281
     1
  3
ACAD_XREC_ROUNDTRIP
360
BA1A
  0
DICTIONARY
  5
BA1B
330
B9C1
100
AcDbDictionary
280
     1
281
     1
  3
ACAD_XREC_ROUNDTRIP
360
BA1C
  0
DICTIONARY
  5
BA1D
330
B9C2
100
AcDbDictionary
280
     1
281
     1
  3
ACAD_XREC_ROUNDTRIP
360
BA1E
  0
DICTIONARY
  5
BA1F
330
B9C3
100
AcDbDictionary
280
     1
281
     1
  3
ACAD_XREC_ROUNDTRIP
360
BA20
  0
DICTIONARY
  5
BA27
330
B9C7
100
AcDbDictionary
280
     1
281
     1
  3
ACAD_XREC_ROUNDTRIP
360
BA28
  0
DICTIONARY
  5
BA43
330
B9D5
100
AcDbDictionary
280
     1
281
     1
  3
ACAD_XREC_ROUNDTRIP
360
BA44
  0
DICTIONARY
  5
BA33
330
B9CD
100
AcDbDictionary
280
     1
281
     1
  3
ACAD_XREC_ROUNDTRIP
360
BA34
  0
DICTIONARY
  5
BA45
330
B9D6
100
AcDbDictionary
280
     1
281
     1
  3
ACAD_XREC_ROUNDTRIP
360
BA46
  0
DICTIONARY
  5
BA2B
330
B9C9
100
AcDbDictionary
280
     1
281
     1
  3
ACAD_XREC_ROUNDTRIP
360
BA2C
  0
DICTIONARY
  5
BA41
330
B9D4
100
AcDbDictionary
280
     1
281
     1
  3
ACAD_XREC_ROUNDTRIP
360
BA42
  0
DICTIONARY
  5
BA3F
330
B9D3
100
AcDbDictionary
280
     1
281
     1
  3
ACAD_XREC_ROUNDTRIP
360
BA40
  0
DICTIONARY
  5
BA39
330
B9D0
100
AcDbDictionary
280
     1
281
     1
  3
ACAD_XREC_ROUNDTRIP
360
BA3A
  0
DICTIONARY
  5
BA3B
330
B9D1
100
AcDbDictionary
280
     1
281
     1
  3
ACAD_XREC_ROUNDTRIP
360
BA3C
  0
DICTIONARY
  5
BA31
330
B9CC
100
AcDbDictionary
280
     1
281
     1
  3
ACAD_XREC_ROUNDTRIP
360
BA32
  0
DICTIONARY
  5
BA25
330
B9C6
100
AcDbDictionary
280
     1
281
     1
  3
ACAD_XREC_ROUNDTRIP
360
BA26
  0
DICTIONARY
  5
BA3D
330
B9D2
100
AcDbDictionary
280
     1
281
     1
  3
ACAD_XREC_ROUNDTRIP
360
BA3E
  0
XRECORD
  5
BA4E
102
{ACAD_REACTORS
330
BA4D
102
}
330
BA4D
100
AcDbXrecord
280
     1
102
DISPLAYNAME
  1
Imperial24
102
FLAGS
 90
        0
  0
XRECORD
  5
BA50
102
{ACAD_REACTORS
330
BA4F
102
}
330
BA4F
100
AcDbXrecord
280
     1
102
SHADEPLOT
 70
     0
102
SHADEPLOTRESLEVEL
 70
     2
102
SHADEPLOTCUSTOMDPI
 70
   300
  0
XRECORD
  5
BA52
102
{ACAD_REACTORS
330
BA51
102
}
330
BA51
100
AcDbXrecord
280
     1
102
SHADEPLOT
 70
     0
102
SHADEPLOTRESLEVEL
 70
     2
102
SHADEPLOTCUSTOMDPI
 70
   300
  0
XRECORD
  5
BA17
102
{ACAD_REACTORS
330
B9B0
102
}
330
B9B0
100
AcDbXrecord
280
     1
102
MATERIAL
148
0.0
149
0.0
149
0.0
 93
        0
 94
      127
282
     0
 72
     0
 77
     0
171
     0
175
     0
179
     0
273
     0
  0
XRECORD
  5
B9B2
102
{ACAD_REACTORS
330
B9B0
102
}
330
B9B0
100
AcDbXrecord
280
     1
270
     1
271
     1
  0
XRECORD
  5
B9B1
102
{ACAD_REACTORS
330
B9B0
102
}
330
B9B0
100
AcDbXrecord
280
     1
270
     1
271
     1
  0
XRECORD
  5
B9B5
102
{ACAD_REACTORS
330
B9B0
102
}
330
B9B0
100
AcDbXrecord
280
     1
270
     1
271
     1
  0
XRECORD
  5
B9B4
102
{ACAD_REACTORS
330
B9B0
102
}
330
B9B0
100
AcDbXrecord
280
     1
270
     1
271
     1
  0
XRECORD
  5
B9B6
102
{ACAD_REACTORS
330
B9B0
102
}
330
B9B0
100
AcDbXrecord
280
     1
270
     1
271
     1
  0
XRECORD
  5
B9B3
102
{ACAD_REACTORS
330
B9B0
102
}
330
B9B0
100
AcDbXrecord
280
     1
270
     1
271
     1
  0
XRECORD
  5
BA16
102
{ACAD_REACTORS
330
B9A8
102
}
330
B9A8
100
AcDbXrecord
280
     1
102
MATERIAL
148
0.0
149
0.0
149
0.0
 93
        0
 94
      127
282
     0
 72
     0
 77
     0
171
     0
175
     0
179
     0
273
     0
  0
XRECORD
  5
B9AA
102
{ACAD_REACTORS
330
B9A8
102
}
330
B9A8
100
AcDbXrecord
280
     1
270
     1
271
     1
  0
XRECORD
  5
B9A9
102
{ACAD_REACTORS
330
B9A8
102
}
330
B9A8
100
AcDbXrecord
280
     1
270
     1
271
     1
  0
XRECORD
  5
B9AD
102
{ACAD_REACTORS
330
B9A8
102
}
330
B9A8
100
AcDbXrecord
280
     1
270
     1
271
     1
  0
XRECORD
  5
B9AC
102
{ACAD_REACTORS
330
B9A8
102
}
330
B9A8
100
AcDbXrecord
280
     1
270
     1
271
     1
  0
XRECORD
  5
B9AE
102
{ACAD_REACTORS
330
B9A8
102
}
330
B9A8
100
AcDbXrecord
280
     1
270
     1
271
     1
  0
XRECORD
  5
B9AB
102
{ACAD_REACTORS
330
B9A8
102
}
330
B9A8
100
AcDbXrecord
280
     1
270
     1
271
     1
  0
XRECORD
  5
BA18
102
{ACAD_REACTORS
330
B9B8
102
}
330
B9B8
100
AcDbXrecord
280
     1
102
MATERIAL
148
0.0
149
0.0
149
0.0
 93
        0
 94
      127
282
     0
 72
     0
 77
     0
171
     0
175
     0
179
     0
273
     0
  0
XRECORD
  5
B9BA
102
{ACAD_REACTORS
330
B9B8
102
}
330
B9B8
100
AcDbXrecord
280
     1
270
     1
271
     1
  0
XRECORD
  5
B9B9
102
{ACAD_REACTORS
330
B9B8
102
}
330
B9B8
100
AcDbXrecord
280
     1
270
     1
271
     1
  0
XRECORD
  5
B9BD
102
{ACAD_REACTORS
330
B9B8
102
}
330
B9B8
100
AcDbXrecord
280
     1
270
     1
271
     1
  0
XRECORD
  5
B9BC
102
{ACAD_REACTORS
330
B9B8
102
}
330
B9B8
100
AcDbXrecord
280
     1
270
     1
271
     1
  0
XRECORD
  5
B9BE
102
{ACAD_REACTORS
330
B9B8
102
}
330
B9B8
100
AcDbXrecord
280
     1
270
     1
271
     1
  0
XRECORD
  5
B9BB
102
{ACAD_REACTORS
330
B9B8
102
}
330
B9B8
100
AcDbXrecord
280
     1
270
     1
271
     1
  0
XRECORD
  5
BA4C
102
{ACAD_REACTORS
330
BA4B
102
}
330
BA4B
100
AcDbXrecord
280
     1
102
DISPLAYNAME
  1
Imperial24
102
FLAGS
 90
        0
  0
CELLSTYLEMAP
  5
BA13
102
{ACAD_REACTORS
330
BA12
102
}
330
BA12
100
AcDbCellStyleMap
 90
        3
300
CELLSTYLE
  1
TABLEFORMAT_BEGIN
 90
        5
170
     1
 91
        0
 92
    32768
 62
   257
 93
        1
300
CONTENTFORMAT
  1
CONTENTFORMAT_BEGIN
 90
        0
 91
        0
 92
      512
 93
        0
300

 40
0.0
140
1.0
 94
        5
 62
     0
340
B50B
144
0.25
309
CONTENTFORMAT_END
171
     0
 94
        0
309
TABLEFORMAT_END
  1
CELLSTYLE_BEGIN
 90
        1
 91
        1
300
_TITLE
309
CELLSTYLE_END
300
CELLSTYLE
  1
TABLEFORMAT_BEGIN
 90
        5
170
     1
 91
        0
 92
        0
 62
   257
 93
        1
300
CONTENTFORMAT
  1
CONTENTFORMAT_BEGIN
 90
        0
 91
        0
 92
      512
 93
        0
300

 40
0.0
140
1.0
 94
        5
 62
     0
340
B50B
144
0.18
309
CONTENTFORMAT_END
171
     0
 94
        0
309
TABLEFORMAT_END
  1
CELLSTYLE_BEGIN
 90
        2
 91
        1
300
_HEADER
309
CELLSTYLE_END
300
CELLSTYLE
  1
TABLEFORMAT_BEGIN
 90
        5
170
     1
 91
        0
 92
        0
 62
   257
 93
        1
300
CONTENTFORMAT
  1
CONTENTFORMAT_BEGIN
 90
        0
 91
        0
 92
      512
 93
        0
300

 40
0.0
140
1.0
 94
        2
 62
     0
340
B50B
144
0.18
309
CONTENTFORMAT_END
171
     0
 94
        0
309
TABLEFORMAT_END
  1
CELLSTYLE_BEGIN
 90
        3
 91
        2
300
_DATA
309
CELLSTYLE_END
  0
XRECORD
  5
BA49
102
{ACAD_REACTORS
330
BA12
102
}
330
BA12
100
AcDbXrecord
280
     1
102
ACAD_ROUNDTRIP_PRE2007_TABLESTYLE
 90
      512
 91
        0
  1

 92
      512
 93
        0
  2

 94
      512
 95
        0
  3

  0
XRECORD
  5
BA24
102
{ACAD_REACTORS
330
BA23
102
}
330
BA23
100
AcDbXrecord
280
     1
102
RTVSPost2010Prop28
280
     1
102
RTVSPost2010PropOp28
 70
     1
102
RTVSPost2010Prop29
280
     1
102
RTVSPost2010PropOp29
 70
     1
102
RTVSPost2010Prop30
280
     0
102
RTVSPost2010PropOp30
 70
     1
102
RTVSPost2010Prop31
280
     0
102
RTVSPost2010PropOp31
 70
     1
102
RTVSPost2010Prop32
280
     0
102
RTVSPost2010PropOp32
 70
     1
102
RTVSPost2010Prop33
280
     0
102
RTVSPost2010PropOp33
 70
     1
102
RTVSPost2010Prop34
280
     0
102
RTVSPost2010PropOp34
 70
     1
102
RTVSPost2010Prop35
280
     0
102
RTVSPost2010PropOp35
 70
     1
102
RTVSPost2010Prop36
280
     0
102
RTVSPost2010PropOp36
 70
     1
102
RTVSPost2010Prop37
 90
       50
102
RTVSPost2010PropOp37
 70
     1
102
RTVSPost2010Prop38
140
0.0
102
RTVSPost2010PropOp38
 70
     1
102
RTVSPost2010Prop39
140
1.0
102
RTVSPost2010PropOp39
 70
     1
102
RTVSPost2010Prop40
 90
        0
102
RTVSPost2010PropOp40
 70
     1
102
RTVSPost2010Prop41ColorIndex
 90
       18
102
RTVSPost2010Prop41ColorRGB
 90
        0
102
RTVSPost2010PropOp41
 70
     1
102
RTVSPost2010Prop42
 90
       50
102
RTVSPost2010PropOp42
 70
     1
102
RTVSPost2010Prop43
 90
        3
102
RTVSPost2010PropOp43
 70
     1
102
RTVSPost2010Prop44ColorIndex
 90
        5
102
RTVSPost2010Prop44ColorRGB
 90
      255
102
RTVSPost2010PropOp44
 70
     1
102
RTVSPost2010Prop45
280
     0
102
RTVSPost2010PropOp45
 70
     1
102
RTVSPost2010Prop46
 90
       50
102
RTVSPost2010PropOp46
 70
     1
102
RTVSPost2010Prop47
 90
       50
102
RTVSPost2010PropOp47
 70
     1
102
RTVSPost2010Prop48
 90
       50
102
RTVSPost2010PropOp48
 70
     1
102
RTVSPost2010Prop49
280
     0
102
RTVSPost2010PropOp49
 70
     1
102
RTVSPost2010Prop50
 90
       50
102
RTVSPost2010PropOp50
 70
     1
102
RTVSPost2010Prop51ColorIndex
 90
      256
102
RTVSPost2010Prop51ColorRGB
 90
-16777216
102
RTVSPost2010PropOp51
 70
     0
102
RTVSPost2010Prop52
140
1.0
102
RTVSPost2010PropOp52
 70
     0
102
RTVSPost2010Prop53
 90
        2
102
RTVSPost2010PropOp53
 70
     1
102
RTVSPost2010Prop54
  1
strokes_ogs.tif
102
RTVSPost2010PropOp54
 70
     1
102
RTVSPost2010Prop55
280
     0
102
RTVSPost2010PropOp55
 70
     1
102
RTVSPost2010Prop56
140
1.0
102
RTVSPost2010PropOp56
 70
     1
102
RTVSPost2010Prop57
140
1.0
102
RTVSPost2010PropOp57
 70
     1
102
RTVSPropertyOp0
 70
     1
102
RTVSPropertyOp1
 70
     1
102
RTVSPropertyOp2
 70
     1
102
RTVSPropertyOp3
 70
     1
102
RTVSPropertyOp4
 70
     1
102
RTVSPropertyOp5
 70
     1
102
RTVSPropertyOp6
 70
     1
102
RTVSPropertyOp7
 70
     1
102
RTVSPropertyOp8
 70
     1
102
RTVSPropertyOp9
 70
     1
102
RTVSPropertyOp10
 70
     1
102
RTVSPropertyOp11
 70
     1
102
RTVSPropertyOp12
 70
     1
102
RTVSPropertyOp13
 70
     1
102
RTVSPropertyOp14
 70
     1
102
RTVSPropertyOp15
 70
     1
102
RTVSPropertyOp16
 70
     1
102
RTVSPropertyOp17
 70
     1
102
RTVSPropertyOp18
 70
     1
102
RTVSPropertyOp19
 70
     1
102
RTVSPropertyOp20
 70
     1
102
RTVSPropertyOp21
 70
     1
102
RTVSPropertyOp22
 70
     1
102
RTVSPropertyOp23
 70
     1
102
RTVSPropertyOp24
 70
     1
102
RTVSPropertyOp25
 70
     1
102
RTVSPropertyOp26
 70
     1
102
RTVSPropertyOp27
 70
     1
102
RTVSPropertyOp28
 70
     1
102
RTVSPropertyOp29
 70
     1
102
RTVSPropertyOp30
 70
     1
102
RTVSPropertyOp31
 70
     1
102
RTVSPropertyOp32
 70
     1
102
RTVSPropertyOp33
 70
     1
102
RTVSPropertyOp34
 70
     1
102
RTVSPropertyOp35
 70
     1
102
RTVSPropertyOp36
 70
     1
102
RTVSPropertyOp37
 70
     1
102
RTVSPropertyOp38
 70
     1
102
RTVSPropertyOp39
 70
     1
102
RTVSPropertyOp40
 70
     1
102
RTVSPropertyOp41
 70
     1
102
RTVSPropertyOp42
 70
     1
102
RTVSPropertyOp43
 70
     1
102
RTVSPropertyOp44
 70
     1
102
RTVSPropertyOp45
 70
     1
102
RTVSPropertyOp46
 70
     1
102
RTVSPropertyOp47
 70
     1
102
RTVSPropertyOp48
 70
     1
102
RTVSPropertyOp49
 70
     1
102
RTVSPropertyOp50
 70
     1
102
RTVSPropertyOp51
 70
     0
102
RTVSPropertyOp52
 70
     0
102
RTVSPropertyOp53
 70
     1
102
RTVSPropertyOp54
 70
     1
102
RTVSPropertyOp55
 70
     1
102
RTVSPropertyOp56
 70
     1
102
RTVSPropertyOp57
 70
     1
102
RTVSPropertyOp58
 70
     1
102
RTVSPropertyOp59
 70
     1
102
RTVSPropertyOp60
 70
     1
102
RTVSPropertyOp61
 70
     1
102
RTVSPropertyOp62
 70
     1
  0
XRECORD
  5
BA22
102
{ACAD_REACTORS
330
BA21
102
}
330
BA21
100
AcDbXrecord
280
     1
102
RTVSPost2010Prop28
280
     0
102
RTVSPost2010PropOp28
 70
     1
102
RTVSPost2010Prop29
280
     1
102
RTVSPost2010PropOp29
 70
     1
102
RTVSPost2010Prop30
280
     1
102
RTVSPost2010PropOp30
 70
     1
102
RTVSPost2010Prop31
280
     0
102
RTVSPost2010PropOp31
 70
     1
102
RTVSPost2010Prop32
280
     0
102
RTVSPost2010PropOp32
 70
     1
102
RTVSPost2010Prop33
280
     0
102
RTVSPost2010PropOp33
 70
     1
102
RTVSPost2010Prop34
280
     0
102
RTVSPost2010PropOp34
 70
     1
102
RTVSPost2010Prop35
280
     0
102
RTVSPost2010PropOp35
 70
     1
102
RTVSPost2010Prop36
280
     0
102
RTVSPost2010PropOp36
 70
     1
102
RTVSPost2010Prop37
 90
       50
102
RTVSPost2010PropOp37
 70
     1
102
RTVSPost2010Prop38
140
0.0
102
RTVSPost2010PropOp38
 70
     1
102
RTVSPost2010Prop39
140
1.0
102
RTVSPost2010PropOp39
 70
     1
102
RTVSPost2010Prop40
 90
        0
102
RTVSPost2010PropOp40
 70
     1
102
RTVSPost2010Prop41ColorIndex
 90
       18
102
RTVSPost2010Prop41ColorRGB
 90
        0
102
RTVSPost2010PropOp41
 70
     1
102
RTVSPost2010Prop42
 90
       50
102
RTVSPost2010PropOp42
 70
     1
102
RTVSPost2010Prop43
 90
        3
102
RTVSPost2010PropOp43
 70
     1
102
RTVSPost2010Prop44ColorIndex
 90
        5
102
RTVSPost2010Prop44ColorRGB
 90
      255
102
RTVSPost2010PropOp44
 70
     1
102
RTVSPost2010Prop45
280
     0
102
RTVSPost2010PropOp45
 70
     1
102
RTVSPost2010Prop46
 90
       50
102
RTVSPost2010PropOp46
 70
     1
102
RTVSPost2010Prop47
 90
       50
102
RTVSPost2010PropOp47
 70
     1
102
RTVSPost2010Prop48
 90
       50
102
RTVSPost2010PropOp48
 70
     1
102
RTVSPost2010Prop49
280
     0
102
RTVSPost2010PropOp49
 70
     1
102
RTVSPost2010Prop50
 90
       50
102
RTVSPost2010PropOp50
 70
     1
102
RTVSPost2010Prop51ColorIndex
 90
      256
102
RTVSPost2010Prop51ColorRGB
 90
-16777216
102
RTVSPost2010PropOp51
 70
     0
102
RTVSPost2010Prop52
140
1.0
102
RTVSPost2010PropOp52
 70
     0
102
RTVSPost2010Prop53
 90
        2
102
RTVSPost2010PropOp53
 70
     1
102
RTVSPost2010Prop54
  1
strokes_ogs.tif
102
RTVSPost2010PropOp54
 70
     1
102
RTVSPost2010Prop55
280
     0
102
RTVSPost2010PropOp55
 70
     1
102
RTVSPost2010Prop56
140
1.0
102
RTVSPost2010PropOp56
 70
     1
102
RTVSPost2010Prop57
140
1.0
102
RTVSPost2010PropOp57
 70
     1
102
RTVSPropertyOp0
 70
     1
102
RTVSPropertyOp1
 70
     1
102
RTVSPropertyOp2
 70
     1
102
RTVSPropertyOp3
 70
     1
102
RTVSPropertyOp4
 70
     1
102
RTVSPropertyOp5
 70
     1
102
RTVSPropertyOp6
 70
     1
102
RTVSPropertyOp7
 70
     1
102
RTVSPropertyOp8
 70
     1
102
RTVSPropertyOp9
 70
     1
102
RTVSPropertyOp10
 70
     1
102
RTVSPropertyOp11
 70
     1
102
RTVSPropertyOp12
 70
     1
102
RTVSPropertyOp13
 70
     1
102
RTVSPropertyOp14
 70
     1
102
RTVSPropertyOp15
 70
     1
102
RTVSPropertyOp16
 70
     1
102
RTVSPropertyOp17
 70
     1
102
RTVSPropertyOp18
 70
     1
102
RTVSPropertyOp19
 70
     1
102
RTVSPropertyOp20
 70
     1
102
RTVSPropertyOp21
 70
     1
102
RTVSPropertyOp22
 70
     1
102
RTVSPropertyOp23
 70
     1
102
RTVSPropertyOp24
 70
     1
102
RTVSPropertyOp25
 70
     1
102
RTVSPropertyOp26
 70
     1
102
RTVSPropertyOp27
 70
     1
102
RTVSPropertyOp28
 70
     1
102
RTVSPropertyOp29
 70
     1
102
RTVSPropertyOp30
 70
     1
102
RTVSPropertyOp31
 70
     1
102
RTVSPropertyOp32
 70
     1
102
RTVSPropertyOp33
 70
     1
102
RTVSPropertyOp34
 70
     1
102
RTVSPropertyOp35
 70
     1
102
RTVSPropertyOp36
 70
     1
102
RTVSPropertyOp37
 70
     1
102
RTVSPropertyOp38
 70
     1
102
RTVSPropertyOp39
 70
     1
102
RTVSPropertyOp40
 70
     1
102
RTVSPropertyOp41
 70
     1
102
RTVSPropertyOp42
 70
     1
102
RTVSPropertyOp43
 70
     1
102
RTVSPropertyOp44
 70
     1
102
RTVSPropertyOp45
 70
     1
102
RTVSPropertyOp46
 70
     1
102
RTVSPropertyOp47
 70
     1
102
RTVSPropertyOp48
 70
     1
102
RTVSPropertyOp49
 70
     1
102
RTVSPropertyOp50
 70
     1
102
RTVSPropertyOp51
 70
     0
102
RTVSPropertyOp52
 70
     0
102
RTVSPropertyOp53
 70
     1
102
RTVSPropertyOp54
 70
     1
102
RTVSPropertyOp55
 70
     1
102
RTVSPropertyOp56
 70
     1
102
RTVSPropertyOp57
 70
     1
102
RTVSPropertyOp58
 70
     1
102
RTVSPropertyOp59
 70
     1
102
RTVSPropertyOp60
 70
     1
102
RTVSPropertyOp61
 70
     1
102
RTVSPropertyOp62
 70
     1
  0
XRECORD
  5
BA30
102
{ACAD_REACTORS
330
BA2F
102
}
330
BA2F
100
AcDbXrecord
280
     1
102
RTVSPost2010Prop28
280
     0
102
RTVSPost2010PropOp28
 70
     1
102
RTVSPost2010Prop29
280
     1
102
RTVSPost2010PropOp29
 70
     1
102
RTVSPost2010Prop30
280
     1
102
RTVSPost2010PropOp30
 70
     1
102
RTVSPost2010Prop31
280
     0
102
RTVSPost2010PropOp31
 70
     1
102
RTVSPost2010Prop32
280
     0
102
RTVSPost2010PropOp32
 70
     1
102
RTVSPost2010Prop33
280
     0
102
RTVSPost2010PropOp33
 70
     1
102
RTVSPost2010Prop34
280
     0
102
RTVSPost2010PropOp34
 70
     1
102
RTVSPost2010Prop35
280
     0
102
RTVSPost2010PropOp35
 70
     1
102
RTVSPost2010Prop36
280
     0
102
RTVSPost2010PropOp36
 70
     1
102
RTVSPost2010Prop37
 90
       50
102
RTVSPost2010PropOp37
 70
     1
102
RTVSPost2010Prop38
140
0.0
102
RTVSPost2010PropOp38
 70
     1
102
RTVSPost2010Prop39
140
1.0
102
RTVSPost2010PropOp39
 70
     1
102
RTVSPost2010Prop40
 90
        0
102
RTVSPost2010PropOp40
 70
     1
102
RTVSPost2010Prop41ColorIndex
 90
       18
102
RTVSPost2010Prop41ColorRGB
 90
        0
102
RTVSPost2010PropOp41
 70
     1
102
RTVSPost2010Prop42
 90
       50
102
RTVSPost2010PropOp42
 70
     1
102
RTVSPost2010Prop43
 90
        3
102
RTVSPost2010PropOp43
 70
     1
102
RTVSPost2010Prop44ColorIndex
 90
        5
102
RTVSPost2010Prop44ColorRGB
 90
      255
102
RTVSPost2010PropOp44
 70
     1
102
RTVSPost2010Prop45
280
     0
102
RTVSPost2010PropOp45
 70
     1
102
RTVSPost2010Prop46
 90
       50
102
RTVSPost2010PropOp46
 70
     1
102
RTVSPost2010Prop47
 90
       50
102
RTVSPost2010PropOp47
 70
     1
102
RTVSPost2010Prop48
 90
       50
102
RTVSPost2010PropOp48
 70
     1
102
RTVSPost2010Prop49
280
     0
102
RTVSPost2010PropOp49
 70
     1
102
RTVSPost2010Prop50
 90
       50
102
RTVSPost2010PropOp50
 70
     1
102
RTVSPost2010Prop51ColorIndex
 90
      256
102
RTVSPost2010Prop51ColorRGB
 90
-16777216
102
RTVSPost2010PropOp51
 70
     0
102
RTVSPost2010Prop52
140
1.0
102
RTVSPost2010PropOp52
 70
     0
102
RTVSPost2010Prop53
 90
        2
102
RTVSPost2010PropOp53
 70
     1
102
RTVSPost2010Prop54
  1
strokes_ogs.tif
102
RTVSPost2010PropOp54
 70
     1
102
RTVSPost2010Prop55
280
     0
102
RTVSPost2010PropOp55
 70
     1
102
RTVSPost2010Prop56
140
1.0
102
RTVSPost2010PropOp56
 70
     1
102
RTVSPost2010Prop57
140
1.0
102
RTVSPost2010PropOp57
 70
     1
102
RTVSPropertyOp0
 70
     1
102
RTVSPropertyOp1
 70
     1
102
RTVSPropertyOp2
 70
     1
102
RTVSPropertyOp3
 70
     1
102
RTVSPropertyOp4
 70
     1
102
RTVSPropertyOp5
 70
     1
102
RTVSPropertyOp6
 70
     1
102
RTVSPropertyOp7
 70
     1
102
RTVSPropertyOp8
 70
     1
102
RTVSPropertyOp9
 70
     1
102
RTVSPropertyOp10
 70
     1
102
RTVSPropertyOp11
 70
     1
102
RTVSPropertyOp12
 70
     1
102
RTVSPropertyOp13
 70
     1
102
RTVSPropertyOp14
 70
     1
102
RTVSPropertyOp15
 70
     1
102
RTVSPropertyOp16
 70
     1
102
RTVSPropertyOp17
 70
     1
102
RTVSPropertyOp18
 70
     1
102
RTVSPropertyOp19
 70
     1
102
RTVSPropertyOp20
 70
     1
102
RTVSPropertyOp21
 70
     1
102
RTVSPropertyOp22
 70
     1
102
RTVSPropertyOp23
 70
     1
102
RTVSPropertyOp24
 70
     1
102
RTVSPropertyOp25
 70
     1
102
RTVSPropertyOp26
 70
     1
102
RTVSPropertyOp27
 70
     1
102
RTVSPropertyOp28
 70
     1
102
RTVSPropertyOp29
 70
     1
102
RTVSPropertyOp30
 70
     1
102
RTVSPropertyOp31
 70
     1
102
RTVSPropertyOp32
 70
     1
102
RTVSPropertyOp33
 70
     1
102
RTVSPropertyOp34
 70
     1
102
RTVSPropertyOp35
 70
     1
102
RTVSPropertyOp36
 70
     1
102
RTVSPropertyOp37
 70
     1
102
RTVSPropertyOp38
 70
     1
102
RTVSPropertyOp39
 70
     1
102
RTVSPropertyOp40
 70
     1
102
RTVSPropertyOp41
 70
     1
102
RTVSPropertyOp42
 70
     1
102
RTVSPropertyOp43
 70
     1
102
RTVSPropertyOp44
 70
     1
102
RTVSPropertyOp45
 70
     1
102
RTVSPropertyOp46
 70
     1
102
RTVSPropertyOp47
 70
     1
102
RTVSPropertyOp48
 70
     1
102
RTVSPropertyOp49
 70
     1
102
RTVSPropertyOp50
 70
     1
102
RTVSPropertyOp51
 70
     0
102
RTVSPropertyOp52
 70
     0
102
RTVSPropertyOp53
 70
     1
102
RTVSPropertyOp54
 70
     1
102
RTVSPropertyOp55
 70
     1
102
RTVSPropertyOp56
 70
     1
102
RTVSPropertyOp57
 70
     1
102
RTVSPropertyOp58
 70
     1
102
RTVSPropertyOp59
 70
     1
102
RTVSPropertyOp60
 70
     1
102
RTVSPropertyOp61
 70
     1
102
RTVSPropertyOp62
 70
     1
  0
XRECORD
  5
BA38
102
{ACAD_REACTORS
330
BA37
102
}
330
BA37
100
AcDbXrecord
280
     1
102
RTVSPost2010Prop28
280
     0
102
RTVSPost2010PropOp28
 70
     1
102
RTVSPost2010Prop29
280
     1
102
RTVSPost2010PropOp29
 70
     1
102
RTVSPost2010Prop30
280
     1
102
RTVSPost2010PropOp30
 70
     1
102
RTVSPost2010Prop31
280
     0
102
RTVSPost2010PropOp31
 70
     1
102
RTVSPost2010Prop32
280
     0
102
RTVSPost2010PropOp32
 70
     1
102
RTVSPost2010Prop33
280
     0
102
RTVSPost2010PropOp33
 70
     1
102
RTVSPost2010Prop34
280
     0
102
RTVSPost2010PropOp34
 70
     1
102
RTVSPost2010Prop35
280
     0
102
RTVSPost2010PropOp35
 70
     1
102
RTVSPost2010Prop36
280
     0
102
RTVSPost2010PropOp36
 70
     1
102
RTVSPost2010Prop37
 90
       50
102
RTVSPost2010PropOp37
 70
     1
102
RTVSPost2010Prop38
140
0.0
102
RTVSPost2010PropOp38
 70
     1
102
RTVSPost2010Prop39
140
1.0
102
RTVSPost2010PropOp39
 70
     1
102
RTVSPost2010Prop40
 90
        0
102
RTVSPost2010PropOp40
 70
     1
102
RTVSPost2010Prop41ColorIndex
 90
       18
102
RTVSPost2010Prop41ColorRGB
 90
        0
102
RTVSPost2010PropOp41
 70
     1
102
RTVSPost2010Prop42
 90
       50
102
RTVSPost2010PropOp42
 70
     1
102
RTVSPost2010Prop43
 90
        3
102
RTVSPost2010PropOp43
 70
     1
102
RTVSPost2010Prop44ColorIndex
 90
        5
102
RTVSPost2010Prop44ColorRGB
 90
      255
102
RTVSPost2010PropOp44
 70
     1
102
RTVSPost2010Prop45
280
     0
102
RTVSPost2010PropOp45
 70
     1
102
RTVSPost2010Prop46
 90
       50
102
RTVSPost2010PropOp46
 70
     1
102
RTVSPost2010Prop47
 90
       50
102
RTVSPost2010PropOp47
 70
     1
102
RTVSPost2010Prop48
 90
       50
102
RTVSPost2010PropOp48
 70
     1
102
RTVSPost2010Prop49
280
     0
102
RTVSPost2010PropOp49
 70
     1
102
RTVSPost2010Prop50
 90
       50
102
RTVSPost2010PropOp50
 70
     1
102
RTVSPost2010Prop51ColorIndex
 90
      256
102
RTVSPost2010Prop51ColorRGB
 90
-16777216
102
RTVSPost2010PropOp51
 70
     0
102
RTVSPost2010Prop52
140
1.0
102
RTVSPost2010PropOp52
 70
     0
102
RTVSPost2010Prop53
 90
        2
102
RTVSPost2010PropOp53
 70
     1
102
RTVSPost2010Prop54
  1
strokes_ogs.tif
102
RTVSPost2010PropOp54
 70
     1
102
RTVSPost2010Prop55
280
     0
102
RTVSPost2010PropOp55
 70
     1
102
RTVSPost2010Prop56
140
1.0
102
RTVSPost2010PropOp56
 70
     1
102
RTVSPost2010Prop57
140
1.0
102
RTVSPost2010PropOp57
 70
     1
102
RTVSPropertyOp0
 70
     1
102
RTVSPropertyOp1
 70
     1
102
RTVSPropertyOp2
 70
     1
102
RTVSPropertyOp3
 70
     1
102
RTVSPropertyOp4
 70
     1
102
RTVSPropertyOp5
 70
     1
102
RTVSPropertyOp6
 70
     1
102
RTVSPropertyOp7
 70
     1
102
RTVSPropertyOp8
 70
     1
102
RTVSPropertyOp9
 70
     1
102
RTVSPropertyOp10
 70
     1
102
RTVSPropertyOp11
 70
     1
102
RTVSPropertyOp12
 70
     1
102
RTVSPropertyOp13
 70
     1
102
RTVSPropertyOp14
 70
     1
102
RTVSPropertyOp15
 70
     1
102
RTVSPropertyOp16
 70
     1
102
RTVSPropertyOp17
 70
     1
102
RTVSPropertyOp18
 70
     1
102
RTVSPropertyOp19
 70
     1
102
RTVSPropertyOp20
 70
     1
102
RTVSPropertyOp21
 70
     1
102
RTVSPropertyOp22
 70
     1
102
RTVSPropertyOp23
 70
     1
102
RTVSPropertyOp24
 70
     1
102
RTVSPropertyOp25
 70
     1
102
RTVSPropertyOp26
 70
     1
102
RTVSPropertyOp27
 70
     1
102
RTVSPropertyOp28
 70
     1
102
RTVSPropertyOp29
 70
     1
102
RTVSPropertyOp30
 70
     1
102
RTVSPropertyOp31
 70
     1
102
RTVSPropertyOp32
 70
     1
102
RTVSPropertyOp33
 70
     1
102
RTVSPropertyOp34
 70
     1
102
RTVSPropertyOp35
 70
     1
102
RTVSPropertyOp36
 70
     1
102
RTVSPropertyOp37
 70
     1
102
RTVSPropertyOp38
 70
     1
102
RTVSPropertyOp39
 70
     1
102
RTVSPropertyOp40
 70
     1
102
RTVSPropertyOp41
 70
     1
102
RTVSPropertyOp42
 70
     1
102
RTVSPropertyOp43
 70
     1
102
RTVSPropertyOp44
 70
     1
102
RTVSPropertyOp45
 70
     1
102
RTVSPropertyOp46
 70
     1
102
RTVSPropertyOp47
 70
     1
102
RTVSPropertyOp48
 70
     1
102
RTVSPropertyOp49
 70
     1
102
RTVSPropertyOp50
 70
     1
102
RTVSPropertyOp51
 70
     0
102
RTVSPropertyOp52
 70
     0
102
RTVSPropertyOp53
 70
     1
102
RTVSPropertyOp54
 70
     1
102
RTVSPropertyOp55
 70
     1
102
RTVSPropertyOp56
 70
     1
102
RTVSPropertyOp57
 70
     1
102
RTVSPropertyOp58
 70
     1
102
RTVSPropertyOp59
 70
     1
102
RTVSPropertyOp60
 70
     1
102
RTVSPropertyOp61
 70
     1
102
RTVSPropertyOp62
 70
     1
  0
XRECORD
  5
BA2A
102
{ACAD_REACTORS
330
BA29
102
}
330
BA29
100
AcDbXrecord
280
     1
102
RTVSPost2010Prop28
280
     0
102
RTVSPost2010PropOp28
 70
     1
102
RTVSPost2010Prop29
280
     1
102
RTVSPost2010PropOp29
 70
     1
102
RTVSPost2010Prop30
280
     1
102
RTVSPost2010PropOp30
 70
     1
102
RTVSPost2010Prop31
280
     0
102
RTVSPost2010PropOp31
 70
     1
102
RTVSPost2010Prop32
280
     0
102
RTVSPost2010PropOp32
 70
     1
102
RTVSPost2010Prop33
280
     0
102
RTVSPost2010PropOp33
 70
     1
102
RTVSPost2010Prop34
280
     0
102
RTVSPost2010PropOp34
 70
     1
102
RTVSPost2010Prop35
280
     0
102
RTVSPost2010PropOp35
 70
     1
102
RTVSPost2010Prop36
280
     0
102
RTVSPost2010PropOp36
 70
     1
102
RTVSPost2010Prop37
 90
       50
102
RTVSPost2010PropOp37
 70
     1
102
RTVSPost2010Prop38
140
0.0
102
RTVSPost2010PropOp38
 70
     1
102
RTVSPost2010Prop39
140
1.0
102
RTVSPost2010PropOp39
 70
     1
102
RTVSPost2010Prop40
 90
        0
102
RTVSPost2010PropOp40
 70
     1
102
RTVSPost2010Prop41ColorIndex
 90
       18
102
RTVSPost2010Prop41ColorRGB
 90
        0
102
RTVSPost2010PropOp41
 70
     1
102
RTVSPost2010Prop42
 90
       50
102
RTVSPost2010PropOp42
 70
     1
102
RTVSPost2010Prop43
 90
        3
102
RTVSPost2010PropOp43
 70
     1
102
RTVSPost2010Prop44ColorIndex
 90
        5
102
RTVSPost2010Prop44ColorRGB
 90
      255
102
RTVSPost2010PropOp44
 70
     1
102
RTVSPost2010Prop45
280
     0
102
RTVSPost2010PropOp45
 70
     1
102
RTVSPost2010Prop46
 90
       50
102
RTVSPost2010PropOp46
 70
     1
102
RTVSPost2010Prop47
 90
       50
102
RTVSPost2010PropOp47
 70
     1
102
RTVSPost2010Prop48
 90
       50
102
RTVSPost2010PropOp48
 70
     1
102
RTVSPost2010Prop49
280
     0
102
RTVSPost2010PropOp49
 70
     1
102
RTVSPost2010Prop50
 90
       50
102
RTVSPost2010PropOp50
 70
     1
102
RTVSPost2010Prop51ColorIndex
 90
      256
102
RTVSPost2010Prop51ColorRGB
 90
-16777216
102
RTVSPost2010PropOp51
 70
     0
102
RTVSPost2010Prop52
140
1.0
102
RTVSPost2010PropOp52
 70
     0
102
RTVSPost2010Prop53
 90
        2
102
RTVSPost2010PropOp53
 70
     1
102
RTVSPost2010Prop54
  1
strokes_ogs.tif
102
RTVSPost2010PropOp54
 70
     1
102
RTVSPost2010Prop55
280
     0
102
RTVSPost2010PropOp55
 70
     1
102
RTVSPost2010Prop56
140
1.0
102
RTVSPost2010PropOp56
 70
     1
102
RTVSPost2010Prop57
140
1.0
102
RTVSPost2010PropOp57
 70
     1
102
RTVSPropertyOp0
 70
     1
102
RTVSPropertyOp1
 70
     1
102
RTVSPropertyOp2
 70
     1
102
RTVSPropertyOp3
 70
     1
102
RTVSPropertyOp4
 70
     1
102
RTVSPropertyOp5
 70
     1
102
RTVSPropertyOp6
 70
     1
102
RTVSPropertyOp7
 70
     1
102
RTVSPropertyOp8
 70
     1
102
RTVSPropertyOp9
 70
     1
102
RTVSPropertyOp10
 70
     1
102
RTVSPropertyOp11
 70
     1
102
RTVSPropertyOp12
 70
     1
102
RTVSPropertyOp13
 70
     1
102
RTVSPropertyOp14
 70
     1
102
RTVSPropertyOp15
 70
     1
102
RTVSPropertyOp16
 70
     1
102
RTVSPropertyOp17
 70
     1
102
RTVSPropertyOp18
 70
     1
102
RTVSPropertyOp19
 70
     1
102
RTVSPropertyOp20
 70
     1
102
RTVSPropertyOp21
 70
     1
102
RTVSPropertyOp22
 70
     1
102
RTVSPropertyOp23
 70
     1
102
RTVSPropertyOp24
 70
     1
102
RTVSPropertyOp25
 70
     1
102
RTVSPropertyOp26
 70
     1
102
RTVSPropertyOp27
 70
     1
102
RTVSPropertyOp28
 70
     1
102
RTVSPropertyOp29
 70
     1
102
RTVSPropertyOp30
 70
     1
102
RTVSPropertyOp31
 70
     1
102
RTVSPropertyOp32
 70
     1
102
RTVSPropertyOp33
 70
     1
102
RTVSPropertyOp34
 70
     1
102
RTVSPropertyOp35
 70
     1
102
RTVSPropertyOp36
 70
     1
102
RTVSPropertyOp37
 70
     1
102
RTVSPropertyOp38
 70
     1
102
RTVSPropertyOp39
 70
     1
102
RTVSPropertyOp40
 70
     1
102
RTVSPropertyOp41
 70
     1
102
RTVSPropertyOp42
 70
     1
102
RTVSPropertyOp43
 70
     1
102
RTVSPropertyOp44
 70
     1
102
RTVSPropertyOp45
 70
     1
102
RTVSPropertyOp46
 70
     1
102
RTVSPropertyOp47
 70
     1
102
RTVSPropertyOp48
 70
     1
102
RTVSPropertyOp49
 70
     1
102
RTVSPropertyOp50
 70
     1
102
RTVSPropertyOp51
 70
     0
102
RTVSPropertyOp52
 70
     0
102
RTVSPropertyOp53
 70
     1
102
RTVSPropertyOp54
 70
     1
102
RTVSPropertyOp55
 70
     1
102
RTVSPropertyOp56
 70
     1
102
RTVSPropertyOp57
 70
     1
102
RTVSPropertyOp58
 70
     1
102
RTVSPropertyOp59
 70
     1
102
RTVSPropertyOp60
 70
     1
102
RTVSPropertyOp61
 70
     1
102
RTVSPropertyOp62
 70
     1
  0
XRECORD
  5
BA2E
102
{ACAD_REACTORS
330
BA2D
102
}
330
BA2D
100
AcDbXrecord
280
     1
102
RTVSPost2010Prop28
280
     0
102
RTVSPost2010PropOp28
 70
     1
102
RTVSPost2010Prop29
280
     1
102
RTVSPost2010PropOp29
 70
     1
102
RTVSPost2010Prop30
280
     1
102
RTVSPost2010PropOp30
 70
     1
102
RTVSPost2010Prop31
280
     0
102
RTVSPost2010PropOp31
 70
     1
102
RTVSPost2010Prop32
280
     0
102
RTVSPost2010PropOp32
 70
     1
102
RTVSPost2010Prop33
280
     0
102
RTVSPost2010PropOp33
 70
     1
102
RTVSPost2010Prop34
280
     0
102
RTVSPost2010PropOp34
 70
     1
102
RTVSPost2010Prop35
280
     0
102
RTVSPost2010PropOp35
 70
     1
102
RTVSPost2010Prop36
280
     0
102
RTVSPost2010PropOp36
 70
     1
102
RTVSPost2010Prop37
 90
       50
102
RTVSPost2010PropOp37
 70
     1
102
RTVSPost2010Prop38
140
0.0
102
RTVSPost2010PropOp38
 70
     1
102
RTVSPost2010Prop39
140
1.0
102
RTVSPost2010PropOp39
 70
     1
102
RTVSPost2010Prop40
 90
        0
102
RTVSPost2010PropOp40
 70
     1
102
RTVSPost2010Prop41ColorIndex
 90
       18
102
RTVSPost2010Prop41ColorRGB
 90
        0
102
RTVSPost2010PropOp41
 70
     1
102
RTVSPost2010Prop42
 90
       50
102
RTVSPost2010PropOp42
 70
     1
102
RTVSPost2010Prop43
 90
        3
102
RTVSPost2010PropOp43
 70
     1
102
RTVSPost2010Prop44ColorIndex
 90
        5
102
RTVSPost2010Prop44ColorRGB
 90
      255
102
RTVSPost2010PropOp44
 70
     1
102
RTVSPost2010Prop45
280
     0
102
RTVSPost2010PropOp45
 70
     1
102
RTVSPost2010Prop46
 90
       50
102
RTVSPost2010PropOp46
 70
     1
102
RTVSPost2010Prop47
 90
       50
102
RTVSPost2010PropOp47
 70
     1
102
RTVSPost2010Prop48
 90
       50
102
RTVSPost2010PropOp48
 70
     1
102
RTVSPost2010Prop49
280
     0
102
RTVSPost2010PropOp49
 70
     1
102
RTVSPost2010Prop50
 90
       50
102
RTVSPost2010PropOp50
 70
     1
102
RTVSPost2010Prop51ColorIndex
 90
      256
102
RTVSPost2010Prop51ColorRGB
 90
-16777216
102
RTVSPost2010PropOp51
 70
     0
102
RTVSPost2010Prop52
140
1.0
102
RTVSPost2010PropOp52
 70
     0
102
RTVSPost2010Prop53
 90
        2
102
RTVSPost2010PropOp53
 70
     1
102
RTVSPost2010Prop54
  1
strokes_ogs.tif
102
RTVSPost2010PropOp54
 70
     1
102
RTVSPost2010Prop55
280
     0
102
RTVSPost2010PropOp55
 70
     1
102
RTVSPost2010Prop56
140
1.0
102
RTVSPost2010PropOp56
 70
     1
102
RTVSPost2010Prop57
140
1.0
102
RTVSPost2010PropOp57
 70
     1
102
RTVSPropertyOp0
 70
     1
102
RTVSPropertyOp1
 70
     1
102
RTVSPropertyOp2
 70
     1
102
RTVSPropertyOp3
 70
     1
102
RTVSPropertyOp4
 70
     1
102
RTVSPropertyOp5
 70
     1
102
RTVSPropertyOp6
 70
     1
102
RTVSPropertyOp7
 70
     1
102
RTVSPropertyOp8
 70
     1
102
RTVSPropertyOp9
 70
     1
102
RTVSPropertyOp10
 70
     1
102
RTVSPropertyOp11
 70
     1
102
RTVSPropertyOp12
 70
     1
102
RTVSPropertyOp13
 70
     1
102
RTVSPropertyOp14
 70
     1
102
RTVSPropertyOp15
 70
     1
102
RTVSPropertyOp16
 70
     1
102
RTVSPropertyOp17
 70
     1
102
RTVSPropertyOp18
 70
     1
102
RTVSPropertyOp19
 70
     1
102
RTVSPropertyOp20
 70
     1
102
RTVSPropertyOp21
 70
     1
102
RTVSPropertyOp22
 70
     1
102
RTVSPropertyOp23
 70
     1
102
RTVSPropertyOp24
 70
     1
102
RTVSPropertyOp25
 70
     1
102
RTVSPropertyOp26
 70
     1
102
RTVSPropertyOp27
 70
     1
102
RTVSPropertyOp28
 70
     1
102
RTVSPropertyOp29
 70
     1
102
RTVSPropertyOp30
 70
     1
102
RTVSPropertyOp31
 70
     1
102
RTVSPropertyOp32
 70
     1
102
RTVSPropertyOp33
 70
     1
102
RTVSPropertyOp34
 70
     1
102
RTVSPropertyOp35
 70
     1
102
RTVSPropertyOp36
 70
     1
102
RTVSPropertyOp37
 70
     1
102
RTVSPropertyOp38
 70
     1
102
RTVSPropertyOp39
 70
     1
102
RTVSPropertyOp40
 70
     1
102
RTVSPropertyOp41
 70
     1
102
RTVSPropertyOp42
 70
     1
102
RTVSPropertyOp43
 70
     1
102
RTVSPropertyOp44
 70
     1
102
RTVSPropertyOp45
 70
     1
102
RTVSPropertyOp46
 70
     1
102
RTVSPropertyOp47
 70
     1
102
RTVSPropertyOp48
 70
     1
102
RTVSPropertyOp49
 70
     1
102
RTVSPropertyOp50
 70
     1
102
RTVSPropertyOp51
 70
     0
102
RTVSPropertyOp52
 70
     0
102
RTVSPropertyOp53
 70
     1
102
RTVSPropertyOp54
 70
     1
102
RTVSPropertyOp55
 70
     1
102
RTVSPropertyOp56
 70
     1
102
RTVSPropertyOp57
 70
     1
102
RTVSPropertyOp58
 70
     1
102
RTVSPropertyOp59
 70
     1
102
RTVSPropertyOp60
 70
     1
102
RTVSPropertyOp61
 70
     1
102
RTVSPropertyOp62
 70
     1
  0
XRECORD
  5
BA48
102
{ACAD_REACTORS
330
BA47
102
}
330
BA47
100
AcDbXrecord
280
     1
102
RTVSPost2010Prop28
280
     0
102
RTVSPost2010PropOp28
 70
     1
102
RTVSPost2010Prop29
280
     1
102
RTVSPost2010PropOp29
 70
     1
102
RTVSPost2010Prop30
280
     1
102
RTVSPost2010PropOp30
 70
     1
102
RTVSPost2010Prop31
280
     0
102
RTVSPost2010PropOp31
 70
     1
102
RTVSPost2010Prop32
280
     0
102
RTVSPost2010PropOp32
 70
     1
102
RTVSPost2010Prop33
280
     0
102
RTVSPost2010PropOp33
 70
     1
102
RTVSPost2010Prop34
280
     0
102
RTVSPost2010PropOp34
 70
     1
102
RTVSPost2010Prop35
280
     0
102
RTVSPost2010PropOp35
 70
     1
102
RTVSPost2010Prop36
280
     0
102
RTVSPost2010PropOp36
 70
     1
102
RTVSPost2010Prop37
 90
       50
102
RTVSPost2010PropOp37
 70
     0
102
RTVSPost2010Prop38
140
0.0
102
RTVSPost2010PropOp38
 70
     0
102
RTVSPost2010Prop39
140
1.0
102
RTVSPost2010PropOp39
 70
     0
102
RTVSPost2010Prop40
 90
        0
102
RTVSPost2010PropOp40
 70
     0
102
RTVSPost2010Prop41ColorIndex
 90
       18
102
RTVSPost2010Prop41ColorRGB
 90
        0
102
RTVSPost2010PropOp41
 70
     0
102
RTVSPost2010Prop42
 90
       50
102
RTVSPost2010PropOp42
 70
     0
102
RTVSPost2010Prop43
 90
        3
102
RTVSPost2010PropOp43
 70
     0
102
RTVSPost2010Prop44ColorIndex
 90
        5
102
RTVSPost2010Prop44ColorRGB
 90
      255
102
RTVSPost2010PropOp44
 70
     0
102
RTVSPost2010Prop45
280
     0
102
RTVSPost2010PropOp45
 70
     1
102
RTVSPost2010Prop46
 90
       50
102
RTVSPost2010PropOp46
 70
     0
102
RTVSPost2010Prop47
 90
       50
102
RTVSPost2010PropOp47
 70
     0
102
RTVSPost2010Prop48
 90
       50
102
RTVSPost2010PropOp48
 70
     0
102
RTVSPost2010Prop49
280
     0
102
RTVSPost2010PropOp49
 70
     1
102
RTVSPost2010Prop50
 90
       50
102
RTVSPost2010PropOp50
 70
     0
102
RTVSPost2010Prop51ColorIndex
 90
      256
102
RTVSPost2010Prop51ColorRGB
 90
-16777216
102
RTVSPost2010PropOp51
 70
     0
102
RTVSPost2010Prop52
140
1.0
102
RTVSPost2010PropOp52
 70
     0
102
RTVSPost2010Prop53
 90
        2
102
RTVSPost2010PropOp53
 70
     0
102
RTVSPost2010Prop54
  1
strokes_ogs.tif
102
RTVSPost2010PropOp54
 70
     0
102
RTVSPost2010Prop55
280
     0
102
RTVSPost2010PropOp55
 70
     1
102
RTVSPost2010Prop56
140
1.0
102
RTVSPost2010PropOp56
 70
     0
102
RTVSPost2010Prop57
140
1.0
102
RTVSPost2010PropOp57
 70
     0
102
RTVSPropertyOp0
 70
     0
102
RTVSPropertyOp1
 70
     0
102
RTVSPropertyOp2
 70
     0
102
RTVSPropertyOp3
 70
     0
102
RTVSPropertyOp4
 70
     0
102
RTVSPropertyOp5
 70
     0
102
RTVSPropertyOp6
 70
     0
102
RTVSPropertyOp7
 70
     0
102
RTVSPropertyOp8
 70
     0
102
RTVSPropertyOp9
 70
     0
102
RTVSPropertyOp10
 70
     0
102
RTVSPropertyOp11
 70
     0
102
RTVSPropertyOp12
 70
     0
102
RTVSPropertyOp13
 70
     0
102
RTVSPropertyOp14
 70
     2
102
RTVSPropertyOp15
 70
     0
102
RTVSPropertyOp16
 70
     0
102
RTVSPropertyOp17
 70
     0
102
RTVSPropertyOp18
 70
     0
102
RTVSPropertyOp19
 70
     0
102
RTVSPropertyOp20
 70
     0
102
RTVSPropertyOp21
 70
     0
102
RTVSPropertyOp22
 70
     0
102
RTVSPropertyOp23
 70
     0
102
RTVSPropertyOp24
 70
     0
102
RTVSPropertyOp25
 70
     0
102
RTVSPropertyOp26
 70
     0
102
RTVSPropertyOp27
 70
     0
102
RTVSPropertyOp28
 70
     1
102
RTVSPropertyOp29
 70
     1
102
RTVSPropertyOp30
 70
     1
102
RTVSPropertyOp31
 70
     1
102
RTVSPropertyOp32
 70
     1
102
RTVSPropertyOp33
 70
     1
102
RTVSPropertyOp34
 70
     1
102
RTVSPropertyOp35
 70
     1
102
RTVSPropertyOp36
 70
     1
102
RTVSPropertyOp37
 70
     0
102
RTVSPropertyOp38
 70
     0
102
RTVSPropertyOp39
 70
     0
102
RTVSPropertyOp40
 70
     0
102
RTVSPropertyOp41
 70
     0
102
RTVSPropertyOp42
 70
     0
102
RTVSPropertyOp43
 70
     0
102
RTVSPropertyOp44
 70
     0
102
RTVSPropertyOp45
 70
     1
102
RTVSPropertyOp46
 70
     0
102
RTVSPropertyOp47
 70
     0
102
RTVSPropertyOp48
 70
     0
102
RTVSPropertyOp49
 70
     1
102
RTVSPropertyOp50
 70
     0
102
RTVSPropertyOp51
 70
     0
102
RTVSPropertyOp52
 70
     0
102
RTVSPropertyOp53
 70
     0
102
RTVSPropertyOp54
 70
     0
102
RTVSPropertyOp55
 70
     1
102
RTVSPropertyOp56
 70
     0
102
RTVSPropertyOp57
 70
     0
102
RTVSPropertyOp58
 70
     0
102
RTVSPropertyOp59
 70
     0
102
RTVSPropertyOp60
 70
     0
102
RTVSPropertyOp61
 70
     0
102
RTVSPropertyOp62
 70
     0
  0
XRECORD
  5
BA36
102
{ACAD_REACTORS
330
BA35
102
}
330
BA35
100
AcDbXrecord
280
     1
102
RTVSPost2010Prop28
280
     0
102
RTVSPost2010PropOp28
 70
     1
102
RTVSPost2010Prop29
280
     1
102
RTVSPost2010PropOp29
 70
     1
102
RTVSPost2010Prop30
280
     1
102
RTVSPost2010PropOp30
 70
     1
102
RTVSPost2010Prop31
280
     0
102
RTVSPost2010PropOp31
 70
     1
102
RTVSPost2010Prop32
280
     0
102
RTVSPost2010PropOp32
 70
     1
102
RTVSPost2010Prop33
280
     0
102
RTVSPost2010PropOp33
 70
     1
102
RTVSPost2010Prop34
280
     0
102
RTVSPost2010PropOp34
 70
     1
102
RTVSPost2010Prop35
280
     0
102
RTVSPost2010PropOp35
 70
     1
102
RTVSPost2010Prop36
280
     0
102
RTVSPost2010PropOp36
 70
     1
102
RTVSPost2010Prop37
 90
       50
102
RTVSPost2010PropOp37
 70
     1
102
RTVSPost2010Prop38
140
0.0
102
RTVSPost2010PropOp38
 70
     1
102
RTVSPost2010Prop39
140
1.0
102
RTVSPost2010PropOp39
 70
     1
102
RTVSPost2010Prop40
 90
        0
102
RTVSPost2010PropOp40
 70
     1
102
RTVSPost2010Prop41ColorIndex
 90
       18
102
RTVSPost2010Prop41ColorRGB
 90
        0
102
RTVSPost2010PropOp41
 70
     1
102
RTVSPost2010Prop42
 90
       50
102
RTVSPost2010PropOp42
 70
     1
102
RTVSPost2010Prop43
 90
        3
102
RTVSPost2010PropOp43
 70
     1
102
RTVSPost2010Prop44ColorIndex
 90
        5
102
RTVSPost2010Prop44ColorRGB
 90
      255
102
RTVSPost2010PropOp44
 70
     1
102
RTVSPost2010Prop45
280
     0
102
RTVSPost2010PropOp45
 70
     1
102
RTVSPost2010Prop46
 90
       50
102
RTVSPost2010PropOp46
 70
     1
102
RTVSPost2010Prop47
 90
       50
102
RTVSPost2010PropOp47
 70
     1
102
RTVSPost2010Prop48
 90
       50
102
RTVSPost2010PropOp48
 70
     1
102
RTVSPost2010Prop49
280
     0
102
RTVSPost2010PropOp49
 70
     1
102
RTVSPost2010Prop50
 90
       50
102
RTVSPost2010PropOp50
 70
     1
102
RTVSPost2010Prop51ColorIndex
 90
      256
102
RTVSPost2010Prop51ColorRGB
 90
-16777216
102
RTVSPost2010PropOp51
 70
     0
102
RTVSPost2010Prop52
140
1.0
102
RTVSPost2010PropOp52
 70
     0
102
RTVSPost2010Prop53
 90
        2
102
RTVSPost2010PropOp53
 70
     1
102
RTVSPost2010Prop54
  1
strokes_ogs.tif
102
RTVSPost2010PropOp54
 70
     1
102
RTVSPost2010Prop55
280
     0
102
RTVSPost2010PropOp55
 70
     1
102
RTVSPost2010Prop56
140
1.0
102
RTVSPost2010PropOp56
 70
     1
102
RTVSPost2010Prop57
140
1.0
102
RTVSPost2010PropOp57
 70
     1
102
RTVSPropertyOp0
 70
     1
102
RTVSPropertyOp1
 70
     1
102
RTVSPropertyOp2
 70
     1
102
RTVSPropertyOp3
 70
     1
102
RTVSPropertyOp4
 70
     1
102
RTVSPropertyOp5
 70
     1
102
RTVSPropertyOp6
 70
     1
102
RTVSPropertyOp7
 70
     1
102
RTVSPropertyOp8
 70
     1
102
RTVSPropertyOp9
 70
     1
102
RTVSPropertyOp10
 70
     1
102
RTVSPropertyOp11
 70
     1
102
RTVSPropertyOp12
 70
     1
102
RTVSPropertyOp13
 70
     1
102
RTVSPropertyOp14
 70
     1
102
RTVSPropertyOp15
 70
     1
102
RTVSPropertyOp16
 70
     1
102
RTVSPropertyOp17
 70
     1
102
RTVSPropertyOp18
 70
     1
102
RTVSPropertyOp19
 70
     1
102
RTVSPropertyOp20
 70
     1
102
RTVSPropertyOp21
 70
     1
102
RTVSPropertyOp22
 70
     1
102
RTVSPropertyOp23
 70
     1
102
RTVSPropertyOp24
 70
     1
102
RTVSPropertyOp25
 70
     1
102
RTVSPropertyOp26
 70
     1
102
RTVSPropertyOp27
 70
     1
102
RTVSPropertyOp28
 70
     1
102
RTVSPropertyOp29
 70
     1
102
RTVSPropertyOp30
 70
     1
102
RTVSPropertyOp31
 70
     1
102
RTVSPropertyOp32
 70
     1
102
RTVSPropertyOp33
 70
     1
102
RTVSPropertyOp34
 70
     1
102
RTVSPropertyOp35
 70
     1
102
RTVSPropertyOp36
 70
     1
102
RTVSPropertyOp37
 70
     1
102
RTVSPropertyOp38
 70
     1
102
RTVSPropertyOp39
 70
     1
102
RTVSPropertyOp40
 70
     1
102
RTVSPropertyOp41
 70
     1
102
RTVSPropertyOp42
 70
     1
102
RTVSPropertyOp43
 70
     1
102
RTVSPropertyOp44
 70
     1
102
RTVSPropertyOp45
 70
     1
102
RTVSPropertyOp46
 70
     1
102
RTVSPropertyOp47
 70
     1
102
RTVSPropertyOp48
 70
     1
102
RTVSPropertyOp49
 70
     1
102
RTVSPropertyOp50
 70
     1
102
RTVSPropertyOp51
 70
     0
102
RTVSPropertyOp52
 70
     0
102
RTVSPropertyOp53
 70
     1
102
RTVSPropertyOp54
 70
     1
102
RTVSPropertyOp55
 70
     1
102
RTVSPropertyOp56
 70
     1
102
RTVSPropertyOp57
 70
     1
102
RTVSPropertyOp58
 70
     1
102
RTVSPropertyOp59
 70
     1
102
RTVSPropertyOp60
 70
     1
102
RTVSPropertyOp61
 70
     1
102
RTVSPropertyOp62
 70
     1
  0
XRECORD
  5
BA1A
102
{ACAD_REACTORS
330
BA19
102
}
330
BA19
100
AcDbXrecord
280
     1
102
RTVSPost2010Prop28
280
     0
102
RTVSPost2010PropOp28
 70
     1
102
RTVSPost2010Prop29
280
     1
102
RTVSPost2010PropOp29
 70
     1
102
RTVSPost2010Prop30
280
     1
102
RTVSPost2010PropOp30
 70
     1
102
RTVSPost2010Prop31
280
     0
102
RTVSPost2010PropOp31
 70
     1
102
RTVSPost2010Prop32
280
     0
102
RTVSPost2010PropOp32
 70
     1
102
RTVSPost2010Prop33
280
     0
102
RTVSPost2010PropOp33
 70
     1
102
RTVSPost2010Prop34
280
     0
102
RTVSPost2010PropOp34
 70
     1
102
RTVSPost2010Prop35
280
     0
102
RTVSPost2010PropOp35
 70
     1
102
RTVSPost2010Prop36
280
     0
102
RTVSPost2010PropOp36
 70
     1
102
RTVSPost2010Prop37
 90
       50
102
RTVSPost2010PropOp37
 70
     1
102
RTVSPost2010Prop38
140
0.0
102
RTVSPost2010PropOp38
 70
     1
102
RTVSPost2010Prop39
140
1.0
102
RTVSPost2010PropOp39
 70
     1
102
RTVSPost2010Prop40
 90
        0
102
RTVSPost2010PropOp40
 70
     1
102
RTVSPost2010Prop41ColorIndex
 90
       18
102
RTVSPost2010Prop41ColorRGB
 90
        0
102
RTVSPost2010PropOp41
 70
     1
102
RTVSPost2010Prop42
 90
       50
102
RTVSPost2010PropOp42
 70
     1
102
RTVSPost2010Prop43
 90
        3
102
RTVSPost2010PropOp43
 70
     1
102
RTVSPost2010Prop44ColorIndex
 90
        5
102
RTVSPost2010Prop44ColorRGB
 90
      255
102
RTVSPost2010PropOp44
 70
     1
102
RTVSPost2010Prop45
280
     0
102
RTVSPost2010PropOp45
 70
     1
102
RTVSPost2010Prop46
 90
       50
102
RTVSPost2010PropOp46
 70
     1
102
RTVSPost2010Prop47
 90
       50
102
RTVSPost2010PropOp47
 70
     1
102
RTVSPost2010Prop48
 90
       50
102
RTVSPost2010PropOp48
 70
     1
102
RTVSPost2010Prop49
280
     0
102
RTVSPost2010PropOp49
 70
     1
102
RTVSPost2010Prop50
 90
       50
102
RTVSPost2010PropOp50
 70
     1
102
RTVSPost2010Prop51ColorIndex
 90
      256
102
RTVSPost2010Prop51ColorRGB
 90
-16777216
102
RTVSPost2010PropOp51
 70
     0
102
RTVSPost2010Prop52
140
1.0
102
RTVSPost2010PropOp52
 70
     0
102
RTVSPost2010Prop53
 90
        2
102
RTVSPost2010PropOp53
 70
     1
102
RTVSPost2010Prop54
  1
strokes_ogs.tif
102
RTVSPost2010PropOp54
 70
     1
102
RTVSPost2010Prop55
280
     0
102
RTVSPost2010PropOp55
 70
     1
102
RTVSPost2010Prop56
140
1.0
102
RTVSPost2010PropOp56
 70
     1
102
RTVSPost2010Prop57
140
1.0
102
RTVSPost2010PropOp57
 70
     1
102
RTVSPropertyOp0
 70
     1
102
RTVSPropertyOp1
 70
     1
102
RTVSPropertyOp2
 70
     1
102
RTVSPropertyOp3
 70
     1
102
RTVSPropertyOp4
 70
     1
102
RTVSPropertyOp5
 70
     1
102
RTVSPropertyOp6
 70
     1
102
RTVSPropertyOp7
 70
     1
102
RTVSPropertyOp8
 70
     1
102
RTVSPropertyOp9
 70
     1
102
RTVSPropertyOp10
 70
     1
102
RTVSPropertyOp11
 70
     1
102
RTVSPropertyOp12
 70
     1
102
RTVSPropertyOp13
 70
     1
102
RTVSPropertyOp14
 70
     1
102
RTVSPropertyOp15
 70
     1
102
RTVSPropertyOp16
 70
     1
102
RTVSPropertyOp17
 70
     1
102
RTVSPropertyOp18
 70
     1
102
RTVSPropertyOp19
 70
     1
102
RTVSPropertyOp20
 70
     1
102
RTVSPropertyOp21
 70
     1
102
RTVSPropertyOp22
 70
     1
102
RTVSPropertyOp23
 70
     1
102
RTVSPropertyOp24
 70
     1
102
RTVSPropertyOp25
 70
     1
102
RTVSPropertyOp26
 70
     1
102
RTVSPropertyOp27
 70
     1
102
RTVSPropertyOp28
 70
     1
102
RTVSPropertyOp29
 70
     1
102
RTVSPropertyOp30
 70
     1
102
RTVSPropertyOp31
 70
     1
102
RTVSPropertyOp32
 70
     1
102
RTVSPropertyOp33
 70
     1
102
RTVSPropertyOp34
 70
     1
102
RTVSPropertyOp35
 70
     1
102
RTVSPropertyOp36
 70
     1
102
RTVSPropertyOp37
 70
     1
102
RTVSPropertyOp38
 70
     1
102
RTVSPropertyOp39
 70
     1
102
RTVSPropertyOp40
 70
     1
102
RTVSPropertyOp41
 70
     1
102
RTVSPropertyOp42
 70
     1
102
RTVSPropertyOp43
 70
     1
102
RTVSPropertyOp44
 70
     1
102
RTVSPropertyOp45
 70
     1
102
RTVSPropertyOp46
 70
     1
102
RTVSPropertyOp47
 70
     1
102
RTVSPropertyOp48
 70
     1
102
RTVSPropertyOp49
 70
     1
102
RTVSPropertyOp50
 70
     1
102
RTVSPropertyOp51
 70
     0
102
RTVSPropertyOp52
 70
     0
102
RTVSPropertyOp53
 70
     1
102
RTVSPropertyOp54
 70
     1
102
RTVSPropertyOp55
 70
     1
102
RTVSPropertyOp56
 70
     1
102
RTVSPropertyOp57
 70
     1
102
RTVSPropertyOp58
 70
     1
102
RTVSPropertyOp59
 70
     1
102
RTVSPropertyOp60
 70
     1
102
RTVSPropertyOp61
 70
     1
102
RTVSPropertyOp62
 70
     1
  0
XRECORD
  5
BA1C
102
{ACAD_REACTORS
330
BA1B
102
}
330
BA1B
100
AcDbXrecord
280
     1
102
RTVSPost2010Prop28
280
     0
102
RTVSPost2010PropOp28
 70
     1
102
RTVSPost2010Prop29
280
     1
102
RTVSPost2010PropOp29
 70
     1
102
RTVSPost2010Prop30
280
     1
102
RTVSPost2010PropOp30
 70
     1
102
RTVSPost2010Prop31
280
     0
102
RTVSPost2010PropOp31
 70
     1
102
RTVSPost2010Prop32
280
     0
102
RTVSPost2010PropOp32
 70
     1
102
RTVSPost2010Prop33
280
     0
102
RTVSPost2010PropOp33
 70
     1
102
RTVSPost2010Prop34
280
     0
102
RTVSPost2010PropOp34
 70
     1
102
RTVSPost2010Prop35
280
     0
102
RTVSPost2010PropOp35
 70
     1
102
RTVSPost2010Prop36
280
     0
102
RTVSPost2010PropOp36
 70
     1
102
RTVSPost2010Prop37
 90
       50
102
RTVSPost2010PropOp37
 70
     1
102
RTVSPost2010Prop38
140
0.0
102
RTVSPost2010PropOp38
 70
     1
102
RTVSPost2010Prop39
140
1.0
102
RTVSPost2010PropOp39
 70
     1
102
RTVSPost2010Prop40
 90
        0
102
RTVSPost2010PropOp40
 70
     1
102
RTVSPost2010Prop41ColorIndex
 90
       18
102
RTVSPost2010Prop41ColorRGB
 90
        0
102
RTVSPost2010PropOp41
 70
     1
102
RTVSPost2010Prop42
 90
       50
102
RTVSPost2010PropOp42
 70
     1
102
RTVSPost2010Prop43
 90
        3
102
RTVSPost2010PropOp43
 70
     1
102
RTVSPost2010Prop44ColorIndex
 90
        5
102
RTVSPost2010Prop44ColorRGB
 90
      255
102
RTVSPost2010PropOp44
 70
     1
102
RTVSPost2010Prop45
280
     0
102
RTVSPost2010PropOp45
 70
     1
102
RTVSPost2010Prop46
 90
       50
102
RTVSPost2010PropOp46
 70
     1
102
RTVSPost2010Prop47
 90
       50
102
RTVSPost2010PropOp47
 70
     1
102
RTVSPost2010Prop48
 90
       50
102
RTVSPost2010PropOp48
 70
     1
102
RTVSPost2010Prop49
280
     0
102
RTVSPost2010PropOp49
 70
     1
102
RTVSPost2010Prop50
 90
       50
102
RTVSPost2010PropOp50
 70
     1
102
RTVSPost2010Prop51ColorIndex
 90
      256
102
RTVSPost2010Prop51ColorRGB
 90
-16777216
102
RTVSPost2010PropOp51
 70
     0
102
RTVSPost2010Prop52
140
1.0
102
RTVSPost2010PropOp52
 70
     0
102
RTVSPost2010Prop53
 90
        2
102
RTVSPost2010PropOp53
 70
     1
102
RTVSPost2010Prop54
  1
strokes_ogs.tif
102
RTVSPost2010PropOp54
 70
     1
102
RTVSPost2010Prop55
280
     0
102
RTVSPost2010PropOp55
 70
     1
102
RTVSPost2010Prop56
140
1.0
102
RTVSPost2010PropOp56
 70
     1
102
RTVSPost2010Prop57
140
1.0
102
RTVSPost2010PropOp57
 70
     1
102
RTVSPropertyOp0
 70
     1
102
RTVSPropertyOp1
 70
     1
102
RTVSPropertyOp2
 70
     1
102
RTVSPropertyOp3
 70
     1
102
RTVSPropertyOp4
 70
     1
102
RTVSPropertyOp5
 70
     1
102
RTVSPropertyOp6
 70
     1
102
RTVSPropertyOp7
 70
     1
102
RTVSPropertyOp8
 70
     1
102
RTVSPropertyOp9
 70
     1
102
RTVSPropertyOp10
 70
     1
102
RTVSPropertyOp11
 70
     1
102
RTVSPropertyOp12
 70
     1
102
RTVSPropertyOp13
 70
     1
102
RTVSPropertyOp14
 70
     1
102
RTVSPropertyOp15
 70
     1
102
RTVSPropertyOp16
 70
     1
102
RTVSPropertyOp17
 70
     1
102
RTVSPropertyOp18
 70
     1
102
RTVSPropertyOp19
 70
     1
102
RTVSPropertyOp20
 70
     1
102
RTVSPropertyOp21
 70
     1
102
RTVSPropertyOp22
 70
     1
102
RTVSPropertyOp23
 70
     1
102
RTVSPropertyOp24
 70
     1
102
RTVSPropertyOp25
 70
     1
102
RTVSPropertyOp26
 70
     1
102
RTVSPropertyOp27
 70
     1
102
RTVSPropertyOp28
 70
     1
102
RTVSPropertyOp29
 70
     1
102
RTVSPropertyOp30
 70
     1
102
RTVSPropertyOp31
 70
     1
102
RTVSPropertyOp32
 70
     1
102
RTVSPropertyOp33
 70
     1
102
RTVSPropertyOp34
 70
     1
102
RTVSPropertyOp35
 70
     1
102
RTVSPropertyOp36
 70
     1
102
RTVSPropertyOp37
 70
     1
102
RTVSPropertyOp38
 70
     1
102
RTVSPropertyOp39
 70
     1
102
RTVSPropertyOp40
 70
     1
102
RTVSPropertyOp41
 70
     1
102
RTVSPropertyOp42
 70
     1
102
RTVSPropertyOp43
 70
     1
102
RTVSPropertyOp44
 70
     1
102
RTVSPropertyOp45
 70
     1
102
RTVSPropertyOp46
 70
     1
102
RTVSPropertyOp47
 70
     1
102
RTVSPropertyOp48
 70
     1
102
RTVSPropertyOp49
 70
     1
102
RTVSPropertyOp50
 70
     1
102
RTVSPropertyOp51
 70
     0
102
RTVSPropertyOp52
 70
     0
102
RTVSPropertyOp53
 70
     1
102
RTVSPropertyOp54
 70
     1
102
RTVSPropertyOp55
 70
     1
102
RTVSPropertyOp56
 70
     1
102
RTVSPropertyOp57
 70
     1
102
RTVSPropertyOp58
 70
     1
102
RTVSPropertyOp59
 70
     1
102
RTVSPropertyOp60
 70
     1
102
RTVSPropertyOp61
 70
     1
102
RTVSPropertyOp62
 70
     1
  0
XRECORD
  5
BA1E
102
{ACAD_REACTORS
330
BA1D
102
}
330
BA1D
100
AcDbXrecord
280
     1
102
RTVSPost2010Prop28
280
     0
102
RTVSPost2010PropOp28
 70
     1
102
RTVSPost2010Prop29
280
     1
102
RTVSPost2010PropOp29
 70
     1
102
RTVSPost2010Prop30
280
     1
102
RTVSPost2010PropOp30
 70
     1
102
RTVSPost2010Prop31
280
     0
102
RTVSPost2010PropOp31
 70
     1
102
RTVSPost2010Prop32
280
     0
102
RTVSPost2010PropOp32
 70
     1
102
RTVSPost2010Prop33
280
     0
102
RTVSPost2010PropOp33
 70
     1
102
RTVSPost2010Prop34
280
     0
102
RTVSPost2010PropOp34
 70
     1
102
RTVSPost2010Prop35
280
     0
102
RTVSPost2010PropOp35
 70
     1
102
RTVSPost2010Prop36
280
     0
102
RTVSPost2010PropOp36
 70
     1
102
RTVSPost2010Prop37
 90
       50
102
RTVSPost2010PropOp37
 70
     1
102
RTVSPost2010Prop38
140
0.0
102
RTVSPost2010PropOp38
 70
     1
102
RTVSPost2010Prop39
140
1.0
102
RTVSPost2010PropOp39
 70
     1
102
RTVSPost2010Prop40
 90
        0
102
RTVSPost2010PropOp40
 70
     1
102
RTVSPost2010Prop41ColorIndex
 90
       18
102
RTVSPost2010Prop41ColorRGB
 90
        0
102
RTVSPost2010PropOp41
 70
     1
102
RTVSPost2010Prop42
 90
       50
102
RTVSPost2010PropOp42
 70
     1
102
RTVSPost2010Prop43
 90
        3
102
RTVSPost2010PropOp43
 70
     1
102
RTVSPost2010Prop44ColorIndex
 90
        5
102
RTVSPost2010Prop44ColorRGB
 90
      255
102
RTVSPost2010PropOp44
 70
     1
102
RTVSPost2010Prop45
280
     0
102
RTVSPost2010PropOp45
 70
     1
102
RTVSPost2010Prop46
 90
       50
102
RTVSPost2010PropOp46
 70
     1
102
RTVSPost2010Prop47
 90
       50
102
RTVSPost2010PropOp47
 70
     1
102
RTVSPost2010Prop48
 90
       50
102
RTVSPost2010PropOp48
 70
     1
102
RTVSPost2010Prop49
280
     0
102
RTVSPost2010PropOp49
 70
     1
102
RTVSPost2010Prop50
 90
       50
102
RTVSPost2010PropOp50
 70
     1
102
RTVSPost2010Prop51ColorIndex
 90
      256
102
RTVSPost2010Prop51ColorRGB
 90
-16777216
102
RTVSPost2010PropOp51
 70
     0
102
RTVSPost2010Prop52
140
1.0
102
RTVSPost2010PropOp52
 70
     0
102
RTVSPost2010Prop53
 90
        2
102
RTVSPost2010PropOp53
 70
     1
102
RTVSPost2010Prop54
  1
strokes_ogs.tif
102
RTVSPost2010PropOp54
 70
     1
102
RTVSPost2010Prop55
280
     0
102
RTVSPost2010PropOp55
 70
     1
102
RTVSPost2010Prop56
140
1.0
102
RTVSPost2010PropOp56
 70
     1
102
RTVSPost2010Prop57
140
1.0
102
RTVSPost2010PropOp57
 70
     1
102
RTVSPropertyOp0
 70
     1
102
RTVSPropertyOp1
 70
     1
102
RTVSPropertyOp2
 70
     1
102
RTVSPropertyOp3
 70
     1
102
RTVSPropertyOp4
 70
     1
102
RTVSPropertyOp5
 70
     1
102
RTVSPropertyOp6
 70
     1
102
RTVSPropertyOp7
 70
     1
102
RTVSPropertyOp8
 70
     1
102
RTVSPropertyOp9
 70
     1
102
RTVSPropertyOp10
 70
     1
102
RTVSPropertyOp11
 70
     1
102
RTVSPropertyOp12
 70
     1
102
RTVSPropertyOp13
 70
     1
102
RTVSPropertyOp14
 70
     1
102
RTVSPropertyOp15
 70
     1
102
RTVSPropertyOp16
 70
     1
102
RTVSPropertyOp17
 70
     1
102
RTVSPropertyOp18
 70
     1
102
RTVSPropertyOp19
 70
     1
102
RTVSPropertyOp20
 70
     1
102
RTVSPropertyOp21
 70
     1
102
RTVSPropertyOp22
 70
     1
102
RTVSPropertyOp23
 70
     1
102
RTVSPropertyOp24
 70
     1
102
RTVSPropertyOp25
 70
     1
102
RTVSPropertyOp26
 70
     1
102
RTVSPropertyOp27
 70
     1
102
RTVSPropertyOp28
 70
     1
102
RTVSPropertyOp29
 70
     1
102
RTVSPropertyOp30
 70
     1
102
RTVSPropertyOp31
 70
     1
102
RTVSPropertyOp32
 70
     1
102
RTVSPropertyOp33
 70
     1
102
RTVSPropertyOp34
 70
     1
102
RTVSPropertyOp35
 70
     1
102
RTVSPropertyOp36
 70
     1
102
RTVSPropertyOp37
 70
     1
102
RTVSPropertyOp38
 70
     1
102
RTVSPropertyOp39
 70
     1
102
RTVSPropertyOp40
 70
     1
102
RTVSPropertyOp41
 70
     1
102
RTVSPropertyOp42
 70
     1
102
RTVSPropertyOp43
 70
     1
102
RTVSPropertyOp44
 70
     1
102
RTVSPropertyOp45
 70
     1
102
RTVSPropertyOp46
 70
     1
102
RTVSPropertyOp47
 70
     1
102
RTVSPropertyOp48
 70
     1
102
RTVSPropertyOp49
 70
     1
102
RTVSPropertyOp50
 70
     1
102
RTVSPropertyOp51
 70
     0
102
RTVSPropertyOp52
 70
     0
102
RTVSPropertyOp53
 70
     1
102
RTVSPropertyOp54
 70
     1
102
RTVSPropertyOp55
 70
     1
102
RTVSPropertyOp56
 70
     1
102
RTVSPropertyOp57
 70
     1
102
RTVSPropertyOp58
 70
     1
102
RTVSPropertyOp59
 70
     1
102
RTVSPropertyOp60
 70
     1
102
RTVSPropertyOp61
 70
     1
102
RTVSPropertyOp62
 70
     1
  0
XRECORD
  5
BA20
102
{ACAD_REACTORS
330
BA1F
102
}
330
BA1F
100
AcDbXrecord
280
     1
102
RTVSPost2010Prop28
280
     0
102
RTVSPost2010PropOp28
 70
     1
102
RTVSPost2010Prop29
280
     1
102
RTVSPost2010PropOp29
 70
     1
102
RTVSPost2010Prop30
280
     1
102
RTVSPost2010PropOp30
 70
     1
102
RTVSPost2010Prop31
280
     0
102
RTVSPost2010PropOp31
 70
     1
102
RTVSPost2010Prop32
280
     0
102
RTVSPost2010PropOp32
 70
     1
102
RTVSPost2010Prop33
280
     0
102
RTVSPost2010PropOp33
 70
     1
102
RTVSPost2010Prop34
280
     0
102
RTVSPost2010PropOp34
 70
     1
102
RTVSPost2010Prop35
280
     0
102
RTVSPost2010PropOp35
 70
     1
102
RTVSPost2010Prop36
280
     0
102
RTVSPost2010PropOp36
 70
     1
102
RTVSPost2010Prop37
 90
       50
102
RTVSPost2010PropOp37
 70
     1
102
RTVSPost2010Prop38
140
0.0
102
RTVSPost2010PropOp38
 70
     1
102
RTVSPost2010Prop39
140
1.0
102
RTVSPost2010PropOp39
 70
     1
102
RTVSPost2010Prop40
 90
        0
102
RTVSPost2010PropOp40
 70
     1
102
RTVSPost2010Prop41ColorIndex
 90
       18
102
RTVSPost2010Prop41ColorRGB
 90
        0
102
RTVSPost2010PropOp41
 70
     1
102
RTVSPost2010Prop42
 90
       50
102
RTVSPost2010PropOp42
 70
     1
102
RTVSPost2010Prop43
 90
        3
102
RTVSPost2010PropOp43
 70
     1
102
RTVSPost2010Prop44ColorIndex
 90
        5
102
RTVSPost2010Prop44ColorRGB
 90
      255
102
RTVSPost2010PropOp44
 70
     1
102
RTVSPost2010Prop45
280
     0
102
RTVSPost2010PropOp45
 70
     1
102
RTVSPost2010Prop46
 90
       50
102
RTVSPost2010PropOp46
 70
     1
102
RTVSPost2010Prop47
 90
       50
102
RTVSPost2010PropOp47
 70
     1
102
RTVSPost2010Prop48
 90
       50
102
RTVSPost2010PropOp48
 70
     1
102
RTVSPost2010Prop49
280
     0
102
RTVSPost2010PropOp49
 70
     1
102
RTVSPost2010Prop50
 90
       50
102
RTVSPost2010PropOp50
 70
     1
102
RTVSPost2010Prop51ColorIndex
 90
      256
102
RTVSPost2010Prop51ColorRGB
 90
-16777216
102
RTVSPost2010PropOp51
 70
     0
102
RTVSPost2010Prop52
140
1.0
102
RTVSPost2010PropOp52
 70
     0
102
RTVSPost2010Prop53
 90
        2
102
RTVSPost2010PropOp53
 70
     1
102
RTVSPost2010Prop54
  1
strokes_ogs.tif
102
RTVSPost2010PropOp54
 70
     1
102
RTVSPost2010Prop55
280
     0
102
RTVSPost2010PropOp55
 70
     1
102
RTVSPost2010Prop56
140
1.0
102
RTVSPost2010PropOp56
 70
     1
102
RTVSPost2010Prop57
140
1.0
102
RTVSPost2010PropOp57
 70
     1
102
RTVSPropertyOp0
 70
     1
102
RTVSPropertyOp1
 70
     1
102
RTVSPropertyOp2
 70
     1
102
RTVSPropertyOp3
 70
     1
102
RTVSPropertyOp4
 70
     1
102
RTVSPropertyOp5
 70
     1
102
RTVSPropertyOp6
 70
     1
102
RTVSPropertyOp7
 70
     1
102
RTVSPropertyOp8
 70
     1
102
RTVSPropertyOp9
 70
     1
102
RTVSPropertyOp10
 70
     1
102
RTVSPropertyOp11
 70
     1
102
RTVSPropertyOp12
 70
     1
102
RTVSPropertyOp13
 70
     1
102
RTVSPropertyOp14
 70
     1
102
RTVSPropertyOp15
 70
     1
102
RTVSPropertyOp16
 70
     1
102
RTVSPropertyOp17
 70
     1
102
RTVSPropertyOp18
 70
     1
102
RTVSPropertyOp19
 70
     1
102
RTVSPropertyOp20
 70
     1
102
RTVSPropertyOp21
 70
     1
102
RTVSPropertyOp22
 70
     1
102
RTVSPropertyOp23
 70
     1
102
RTVSPropertyOp24
 70
     1
102
RTVSPropertyOp25
 70
     1
102
RTVSPropertyOp26
 70
     1
102
RTVSPropertyOp27
 70
     1
102
RTVSPropertyOp28
 70
     1
102
RTVSPropertyOp29
 70
     1
102
RTVSPropertyOp30
 70
     1
102
RTVSPropertyOp31
 70
     1
102
RTVSPropertyOp32
 70
     1
102
RTVSPropertyOp33
 70
     1
102
RTVSPropertyOp34
 70
     1
102
RTVSPropertyOp35
 70
     1
102
RTVSPropertyOp36
 70
     1
102
RTVSPropertyOp37
 70
     1
102
RTVSPropertyOp38
 70
     1
102
RTVSPropertyOp39
 70
     1
102
RTVSPropertyOp40
 70
     1
102
RTVSPropertyOp41
 70
     1
102
RTVSPropertyOp42
 70
     1
102
RTVSPropertyOp43
 70
     1
102
RTVSPropertyOp44
 70
     1
102
RTVSPropertyOp45
 70
     1
102
RTVSPropertyOp46
 70
     1
102
RTVSPropertyOp47
 70
     1
102
RTVSPropertyOp48
 70
     1
102
RTVSPropertyOp49
 70
     1
102
RTVSPropertyOp50
 70
     1
102
RTVSPropertyOp51
 70
     0
102
RTVSPropertyOp52
 70
     0
102
RTVSPropertyOp53
 70
     1
102
RTVSPropertyOp54
 70
     1
102
RTVSPropertyOp55
 70
     1
102
RTVSPropertyOp56
 70
     1
102
RTVSPropertyOp57
 70
     1
102
RTVSPropertyOp58
 70
     1
102
RTVSPropertyOp59
 70
     1
102
RTVSPropertyOp60
 70
     1
102
RTVSPropertyOp61
 70
     1
102
RTVSPropertyOp62
 70
     1
  0
XRECORD
  5
BA28
102
{ACAD_REACTORS
330
BA27
102
}
330
BA27
100
AcDbXrecord
280
     1
102
RTVSPost2010Prop28
280
     0
102
RTVSPost2010PropOp28
 70
     1
102
RTVSPost2010Prop29
280
     1
102
RTVSPost2010PropOp29
 70
     1
102
RTVSPost2010Prop30
280
     1
102
RTVSPost2010PropOp30
 70
     1
102
RTVSPost2010Prop31
280
     0
102
RTVSPost2010PropOp31
 70
     1
102
RTVSPost2010Prop32
280
     0
102
RTVSPost2010PropOp32
 70
     1
102
RTVSPost2010Prop33
280
     0
102
RTVSPost2010PropOp33
 70
     1
102
RTVSPost2010Prop34
280
     0
102
RTVSPost2010PropOp34
 70
     1
102
RTVSPost2010Prop35
280
     0
102
RTVSPost2010PropOp35
 70
     1
102
RTVSPost2010Prop36
280
     0
102
RTVSPost2010PropOp36
 70
     1
102
RTVSPost2010Prop37
 90
       50
102
RTVSPost2010PropOp37
 70
     1
102
RTVSPost2010Prop38
140
0.0
102
RTVSPost2010PropOp38
 70
     1
102
RTVSPost2010Prop39
140
1.0
102
RTVSPost2010PropOp39
 70
     1
102
RTVSPost2010Prop40
 90
        0
102
RTVSPost2010PropOp40
 70
     1
102
RTVSPost2010Prop41ColorIndex
 90
       18
102
RTVSPost2010Prop41ColorRGB
 90
        0
102
RTVSPost2010PropOp41
 70
     1
102
RTVSPost2010Prop42
 90
       50
102
RTVSPost2010PropOp42
 70
     1
102
RTVSPost2010Prop43
 90
        3
102
RTVSPost2010PropOp43
 70
     1
102
RTVSPost2010Prop44ColorIndex
 90
        5
102
RTVSPost2010Prop44ColorRGB
 90
      255
102
RTVSPost2010PropOp44
 70
     1
102
RTVSPost2010Prop45
280
     0
102
RTVSPost2010PropOp45
 70
     1
102
RTVSPost2010Prop46
 90
       50
102
RTVSPost2010PropOp46
 70
     1
102
RTVSPost2010Prop47
 90
       50
102
RTVSPost2010PropOp47
 70
     1
102
RTVSPost2010Prop48
 90
       50
102
RTVSPost2010PropOp48
 70
     1
102
RTVSPost2010Prop49
280
     0
102
RTVSPost2010PropOp49
 70
     1
102
RTVSPost2010Prop50
 90
       50
102
RTVSPost2010PropOp50
 70
     1
102
RTVSPost2010Prop51ColorIndex
 90
      256
102
RTVSPost2010Prop51ColorRGB
 90
-16777216
102
RTVSPost2010PropOp51
 70
     0
102
RTVSPost2010Prop52
140
1.0
102
RTVSPost2010PropOp52
 70
     0
102
RTVSPost2010Prop53
 90
        2
102
RTVSPost2010PropOp53
 70
     1
102
RTVSPost2010Prop54
  1
strokes_ogs.tif
102
RTVSPost2010PropOp54
 70
     1
102
RTVSPost2010Prop55
280
     0
102
RTVSPost2010PropOp55
 70
     1
102
RTVSPost2010Prop56
140
1.0
102
RTVSPost2010PropOp56
 70
     1
102
RTVSPost2010Prop57
140
1.0
102
RTVSPost2010PropOp57
 70
     1
102
RTVSPropertyOp0
 70
     1
102
RTVSPropertyOp1
 70
     1
102
RTVSPropertyOp2
 70
     1
102
RTVSPropertyOp3
 70
     1
102
RTVSPropertyOp4
 70
     1
102
RTVSPropertyOp5
 70
     1
102
RTVSPropertyOp6
 70
     1
102
RTVSPropertyOp7
 70
     1
102
RTVSPropertyOp8
 70
     1
102
RTVSPropertyOp9
 70
     1
102
RTVSPropertyOp10
 70
     1
102
RTVSPropertyOp11
 70
     1
102
RTVSPropertyOp12
 70
     1
102
RTVSPropertyOp13
 70
     1
102
RTVSPropertyOp14
 70
     1
102
RTVSPropertyOp15
 70
     1
102
RTVSPropertyOp16
 70
     1
102
RTVSPropertyOp17
 70
     1
102
RTVSPropertyOp18
 70
     1
102
RTVSPropertyOp19
 70
     1
102
RTVSPropertyOp20
 70
     1
102
RTVSPropertyOp21
 70
     1
102
RTVSPropertyOp22
 70
     1
102
RTVSPropertyOp23
 70
     1
102
RTVSPropertyOp24
 70
     1
102
RTVSPropertyOp25
 70
     1
102
RTVSPropertyOp26
 70
     1
102
RTVSPropertyOp27
 70
     1
102
RTVSPropertyOp28
 70
     1
102
RTVSPropertyOp29
 70
     1
102
RTVSPropertyOp30
 70
     1
102
RTVSPropertyOp31
 70
     1
102
RTVSPropertyOp32
 70
     1
102
RTVSPropertyOp33
 70
     1
102
RTVSPropertyOp34
 70
     1
102
RTVSPropertyOp35
 70
     1
102
RTVSPropertyOp36
 70
     1
102
RTVSPropertyOp37
 70
     1
102
RTVSPropertyOp38
 70
     1
102
RTVSPropertyOp39
 70
     1
102
RTVSPropertyOp40
 70
     1
102
RTVSPropertyOp41
 70
     1
102
RTVSPropertyOp42
 70
     1
102
RTVSPropertyOp43
 70
     1
102
RTVSPropertyOp44
 70
     1
102
RTVSPropertyOp45
 70
     1
102
RTVSPropertyOp46
 70
     1
102
RTVSPropertyOp47
 70
     1
102
RTVSPropertyOp48
 70
     1
102
RTVSPropertyOp49
 70
     1
102
RTVSPropertyOp50
 70
     1
102
RTVSPropertyOp51
 70
     0
102
RTVSPropertyOp52
 70
     0
102
RTVSPropertyOp53
 70
     1
102
RTVSPropertyOp54
 70
     1
102
RTVSPropertyOp55
 70
     1
102
RTVSPropertyOp56
 70
     1
102
RTVSPropertyOp57
 70
     1
102
RTVSPropertyOp58
 70
     1
102
RTVSPropertyOp59
 70
     1
102
RTVSPropertyOp60
 70
     1
102
RTVSPropertyOp61
 70
     1
102
RTVSPropertyOp62
 70
     1
  0
XRECORD
  5
BA44
102
{ACAD_REACTORS
330
BA43
102
}
330
BA43
100
AcDbXrecord
280
     1
102
RTVSPost2010Prop28
280
     0
102
RTVSPost2010PropOp28
 70
     1
102
RTVSPost2010Prop29
280
     1
102
RTVSPost2010PropOp29
 70
     1
102
RTVSPost2010Prop30
280
     1
102
RTVSPost2010PropOp30
 70
     1
102
RTVSPost2010Prop31
280
     0
102
RTVSPost2010PropOp31
 70
     1
102
RTVSPost2010Prop32
280
     0
102
RTVSPost2010PropOp32
 70
     1
102
RTVSPost2010Prop33
280
     0
102
RTVSPost2010PropOp33
 70
     1
102
RTVSPost2010Prop34
280
     0
102
RTVSPost2010PropOp34
 70
     1
102
RTVSPost2010Prop35
280
     0
102
RTVSPost2010PropOp35
 70
     1
102
RTVSPost2010Prop36
280
     0
102
RTVSPost2010PropOp36
 70
     1
102
RTVSPost2010Prop37
 90
       50
102
RTVSPost2010PropOp37
 70
     0
102
RTVSPost2010Prop38
140
0.0
102
RTVSPost2010PropOp38
 70
     0
102
RTVSPost2010Prop39
140
1.0
102
RTVSPost2010PropOp39
 70
     0
102
RTVSPost2010Prop40
 90
        0
102
RTVSPost2010PropOp40
 70
     0
102
RTVSPost2010Prop41ColorIndex
 90
       18
102
RTVSPost2010Prop41ColorRGB
 90
        0
102
RTVSPost2010PropOp41
 70
     0
102
RTVSPost2010Prop42
 90
       50
102
RTVSPost2010PropOp42
 70
     0
102
RTVSPost2010Prop43
 90
        3
102
RTVSPost2010PropOp43
 70
     0
102
RTVSPost2010Prop44ColorIndex
 90
        5
102
RTVSPost2010Prop44ColorRGB
 90
      255
102
RTVSPost2010PropOp44
 70
     0
102
RTVSPost2010Prop45
280
     0
102
RTVSPost2010PropOp45
 70
     1
102
RTVSPost2010Prop46
 90
       50
102
RTVSPost2010PropOp46
 70
     0
102
RTVSPost2010Prop47
 90
       50
102
RTVSPost2010PropOp47
 70
     0
102
RTVSPost2010Prop48
 90
       50
102
RTVSPost2010PropOp48
 70
     0
102
RTVSPost2010Prop49
280
     0
102
RTVSPost2010PropOp49
 70
     1
102
RTVSPost2010Prop50
 90
       50
102
RTVSPost2010PropOp50
 70
     0
102
RTVSPost2010Prop51ColorIndex
 90
      256
102
RTVSPost2010Prop51ColorRGB
 90
-16777216
102
RTVSPost2010PropOp51
 70
     0
102
RTVSPost2010Prop52
140
1.0
102
RTVSPost2010PropOp52
 70
     0
102
RTVSPost2010Prop53
 90
        2
102
RTVSPost2010PropOp53
 70
     0
102
RTVSPost2010Prop54
  1
strokes_ogs.tif
102
RTVSPost2010PropOp54
 70
     0
102
RTVSPost2010Prop55
280
     0
102
RTVSPost2010PropOp55
 70
     1
102
RTVSPost2010Prop56
140
1.0
102
RTVSPost2010PropOp56
 70
     0
102
RTVSPost2010Prop57
140
1.0
102
RTVSPost2010PropOp57
 70
     0
102
RTVSPropertyOp0
 70
     0
102
RTVSPropertyOp1
 70
     0
102
RTVSPropertyOp2
 70
     0
102
RTVSPropertyOp3
 70
     0
102
RTVSPropertyOp4
 70
     0
102
RTVSPropertyOp5
 70
     0
102
RTVSPropertyOp6
 70
     0
102
RTVSPropertyOp7
 70
     0
102
RTVSPropertyOp8
 70
     0
102
RTVSPropertyOp9
 70
     0
102
RTVSPropertyOp10
 70
     0
102
RTVSPropertyOp11
 70
     0
102
RTVSPropertyOp12
 70
     0
102
RTVSPropertyOp13
 70
     0
102
RTVSPropertyOp14
 70
     2
102
RTVSPropertyOp15
 70
     0
102
RTVSPropertyOp16
 70
     0
102
RTVSPropertyOp17
 70
     0
102
RTVSPropertyOp18
 70
     0
102
RTVSPropertyOp19
 70
     0
102
RTVSPropertyOp20
 70
     0
102
RTVSPropertyOp21
 70
     0
102
RTVSPropertyOp22
 70
     0
102
RTVSPropertyOp23
 70
     0
102
RTVSPropertyOp24
 70
     0
102
RTVSPropertyOp25
 70
     0
102
RTVSPropertyOp26
 70
     0
102
RTVSPropertyOp27
 70
     0
102
RTVSPropertyOp28
 70
     1
102
RTVSPropertyOp29
 70
     1
102
RTVSPropertyOp30
 70
     1
102
RTVSPropertyOp31
 70
     1
102
RTVSPropertyOp32
 70
     1
102
RTVSPropertyOp33
 70
     1
102
RTVSPropertyOp34
 70
     1
102
RTVSPropertyOp35
 70
     1
102
RTVSPropertyOp36
 70
     1
102
RTVSPropertyOp37
 70
     0
102
RTVSPropertyOp38
 70
     0
102
RTVSPropertyOp39
 70
     0
102
RTVSPropertyOp40
 70
     0
102
RTVSPropertyOp41
 70
     0
102
RTVSPropertyOp42
 70
     0
102
RTVSPropertyOp43
 70
     0
102
RTVSPropertyOp44
 70
     0
102
RTVSPropertyOp45
 70
     1
102
RTVSPropertyOp46
 70
     0
102
RTVSPropertyOp47
 70
     0
102
RTVSPropertyOp48
 70
     0
102
RTVSPropertyOp49
 70
     1
102
RTVSPropertyOp50
 70
     0
102
RTVSPropertyOp51
 70
     0
102
RTVSPropertyOp52
 70
     0
102
RTVSPropertyOp53
 70
     0
102
RTVSPropertyOp54
 70
     0
102
RTVSPropertyOp55
 70
     1
102
RTVSPropertyOp56
 70
     0
102
RTVSPropertyOp57
 70
     0
102
RTVSPropertyOp58
 70
     0
102
RTVSPropertyOp59
 70
     0
102
RTVSPropertyOp60
 70
     0
102
RTVSPropertyOp61
 70
     0
102
RTVSPropertyOp62
 70
     0
  0
XRECORD
  5
BA34
102
{ACAD_REACTORS
330
BA33
102
}
330
BA33
100
AcDbXrecord
280
     1
102
RTVSPost2010Prop28
280
     0
102
RTVSPost2010PropOp28
 70
     1
102
RTVSPost2010Prop29
280
     1
102
RTVSPost2010PropOp29
 70
     1
102
RTVSPost2010Prop30
280
     1
102
RTVSPost2010PropOp30
 70
     1
102
RTVSPost2010Prop31
280
     0
102
RTVSPost2010PropOp31
 70
     1
102
RTVSPost2010Prop32
280
     0
102
RTVSPost2010PropOp32
 70
     1
102
RTVSPost2010Prop33
280
     0
102
RTVSPost2010PropOp33
 70
     1
102
RTVSPost2010Prop34
280
     0
102
RTVSPost2010PropOp34
 70
     1
102
RTVSPost2010Prop35
280
     0
102
RTVSPost2010PropOp35
 70
     1
102
RTVSPost2010Prop36
280
     0
102
RTVSPost2010PropOp36
 70
     1
102
RTVSPost2010Prop37
 90
       50
102
RTVSPost2010PropOp37
 70
     1
102
RTVSPost2010Prop38
140
0.0
102
RTVSPost2010PropOp38
 70
     1
102
RTVSPost2010Prop39
140
1.0
102
RTVSPost2010PropOp39
 70
     1
102
RTVSPost2010Prop40
 90
        0
102
RTVSPost2010PropOp40
 70
     1
102
RTVSPost2010Prop41ColorIndex
 90
       18
102
RTVSPost2010Prop41ColorRGB
 90
        0
102
RTVSPost2010PropOp41
 70
     1
102
RTVSPost2010Prop42
 90
       50
102
RTVSPost2010PropOp42
 70
     1
102
RTVSPost2010Prop43
 90
        3
102
RTVSPost2010PropOp43
 70
     1
102
RTVSPost2010Prop44ColorIndex
 90
        5
102
RTVSPost2010Prop44ColorRGB
 90
      255
102
RTVSPost2010PropOp44
 70
     1
102
RTVSPost2010Prop45
280
     0
102
RTVSPost2010PropOp45
 70
     1
102
RTVSPost2010Prop46
 90
       50
102
RTVSPost2010PropOp46
 70
     1
102
RTVSPost2010Prop47
 90
       50
102
RTVSPost2010PropOp47
 70
     1
102
RTVSPost2010Prop48
 90
       50
102
RTVSPost2010PropOp48
 70
     1
102
RTVSPost2010Prop49
280
     0
102
RTVSPost2010PropOp49
 70
     1
102
RTVSPost2010Prop50
 90
       50
102
RTVSPost2010PropOp50
 70
     1
102
RTVSPost2010Prop51ColorIndex
 90
      256
102
RTVSPost2010Prop51ColorRGB
 90
-16777216
102
RTVSPost2010PropOp51
 70
     0
102
RTVSPost2010Prop52
140
1.0
102
RTVSPost2010PropOp52
 70
     0
102
RTVSPost2010Prop53
 90
        2
102
RTVSPost2010PropOp53
 70
     1
102
RTVSPost2010Prop54
  1
strokes_ogs.tif
102
RTVSPost2010PropOp54
 70
     1
102
RTVSPost2010Prop55
280
     0
102
RTVSPost2010PropOp55
 70
     1
102
RTVSPost2010Prop56
140
1.0
102
RTVSPost2010PropOp56
 70
     1
102
RTVSPost2010Prop57
140
1.0
102
RTVSPost2010PropOp57
 70
     1
102
RTVSPropertyOp0
 70
     1
102
RTVSPropertyOp1
 70
     1
102
RTVSPropertyOp2
 70
     1
102
RTVSPropertyOp3
 70
     1
102
RTVSPropertyOp4
 70
     1
102
RTVSPropertyOp5
 70
     1
102
RTVSPropertyOp6
 70
     1
102
RTVSPropertyOp7
 70
     1
102
RTVSPropertyOp8
 70
     1
102
RTVSPropertyOp9
 70
     1
102
RTVSPropertyOp10
 70
     1
102
RTVSPropertyOp11
 70
     1
102
RTVSPropertyOp12
 70
     1
102
RTVSPropertyOp13
 70
     1
102
RTVSPropertyOp14
 70
     1
102
RTVSPropertyOp15
 70
     1
102
RTVSPropertyOp16
 70
     1
102
RTVSPropertyOp17
 70
     1
102
RTVSPropertyOp18
 70
     1
102
RTVSPropertyOp19
 70
     1
102
RTVSPropertyOp20
 70
     1
102
RTVSPropertyOp21
 70
     1
102
RTVSPropertyOp22
 70
     1
102
RTVSPropertyOp23
 70
     1
102
RTVSPropertyOp24
 70
     1
102
RTVSPropertyOp25
 70
     1
102
RTVSPropertyOp26
 70
     1
102
RTVSPropertyOp27
 70
     1
102
RTVSPropertyOp28
 70
     1
102
RTVSPropertyOp29
 70
     1
102
RTVSPropertyOp30
 70
     1
102
RTVSPropertyOp31
 70
     1
102
RTVSPropertyOp32
 70
     1
102
RTVSPropertyOp33
 70
     1
102
RTVSPropertyOp34
 70
     1
102
RTVSPropertyOp35
 70
     1
102
RTVSPropertyOp36
 70
     1
102
RTVSPropertyOp37
 70
     1
102
RTVSPropertyOp38
 70
     1
102
RTVSPropertyOp39
 70
     1
102
RTVSPropertyOp40
 70
     1
102
RTVSPropertyOp41
 70
     1
102
RTVSPropertyOp42
 70
     1
102
RTVSPropertyOp43
 70
     1
102
RTVSPropertyOp44
 70
     1
102
RTVSPropertyOp45
 70
     1
102
RTVSPropertyOp46
 70
     1
102
RTVSPropertyOp47
 70
     1
102
RTVSPropertyOp48
 70
     1
102
RTVSPropertyOp49
 70
     1
102
RTVSPropertyOp50
 70
     1
102
RTVSPropertyOp51
 70
     0
102
RTVSPropertyOp52
 70
     0
102
RTVSPropertyOp53
 70
     1
102
RTVSPropertyOp54
 70
     1
102
RTVSPropertyOp55
 70
     1
102
RTVSPropertyOp56
 70
     1
102
RTVSPropertyOp57
 70
     1
102
RTVSPropertyOp58
 70
     1
102
RTVSPropertyOp59
 70
     1
102
RTVSPropertyOp60
 70
     1
102
RTVSPropertyOp61
 70
     1
102
RTVSPropertyOp62
 70
     1
  0
XRECORD
  5
BA46
102
{ACAD_REACTORS
330
BA45
102
}
330
BA45
100
AcDbXrecord
280
     1
102
RTVSPost2010Prop28
280
     0
102
RTVSPost2010PropOp28
 70
     1
102
RTVSPost2010Prop29
280
     1
102
RTVSPost2010PropOp29
 70
     1
102
RTVSPost2010Prop30
280
     1
102
RTVSPost2010PropOp30
 70
     1
102
RTVSPost2010Prop31
280
     0
102
RTVSPost2010PropOp31
 70
     1
102
RTVSPost2010Prop32
280
     0
102
RTVSPost2010PropOp32
 70
     1
102
RTVSPost2010Prop33
280
     0
102
RTVSPost2010PropOp33
 70
     1
102
RTVSPost2010Prop34
280
     0
102
RTVSPost2010PropOp34
 70
     1
102
RTVSPost2010Prop35
280
     0
102
RTVSPost2010PropOp35
 70
     1
102
RTVSPost2010Prop36
280
     0
102
RTVSPost2010PropOp36
 70
     1
102
RTVSPost2010Prop37
 90
       50
102
RTVSPost2010PropOp37
 70
     0
102
RTVSPost2010Prop38
140
0.0
102
RTVSPost2010PropOp38
 70
     0
102
RTVSPost2010Prop39
140
1.0
102
RTVSPost2010PropOp39
 70
     0
102
RTVSPost2010Prop40
 90
        0
102
RTVSPost2010PropOp40
 70
     0
102
RTVSPost2010Prop41ColorIndex
 90
       18
102
RTVSPost2010Prop41ColorRGB
 90
        0
102
RTVSPost2010PropOp41
 70
     0
102
RTVSPost2010Prop42
 90
       50
102
RTVSPost2010PropOp42
 70
     0
102
RTVSPost2010Prop43
 90
        3
102
RTVSPost2010PropOp43
 70
     0
102
RTVSPost2010Prop44ColorIndex
 90
        5
102
RTVSPost2010Prop44ColorRGB
 90
      255
102
RTVSPost2010PropOp44
 70
     0
102
RTVSPost2010Prop45
280
     0
102
RTVSPost2010PropOp45
 70
     1
102
RTVSPost2010Prop46
 90
       50
102
RTVSPost2010PropOp46
 70
     0
102
RTVSPost2010Prop47
 90
       50
102
RTVSPost2010PropOp47
 70
     0
102
RTVSPost2010Prop48
 90
       50
102
RTVSPost2010PropOp48
 70
     0
102
RTVSPost2010Prop49
280
     0
102
RTVSPost2010PropOp49
 70
     1
102
RTVSPost2010Prop50
 90
       50
102
RTVSPost2010PropOp50
 70
     0
102
RTVSPost2010Prop51ColorIndex
 90
      256
102
RTVSPost2010Prop51ColorRGB
 90
-16777216
102
RTVSPost2010PropOp51
 70
     0
102
RTVSPost2010Prop52
140
1.0
102
RTVSPost2010PropOp52
 70
     0
102
RTVSPost2010Prop53
 90
        2
102
RTVSPost2010PropOp53
 70
     0
102
RTVSPost2010Prop54
  1
strokes_ogs.tif
102
RTVSPost2010PropOp54
 70
     0
102
RTVSPost2010Prop55
280
     0
102
RTVSPost2010PropOp55
 70
     1
102
RTVSPost2010Prop56
140
1.0
102
RTVSPost2010PropOp56
 70
     0
102
RTVSPost2010Prop57
140
1.0
102
RTVSPost2010PropOp57
 70
     0
102
RTVSPropertyOp0
 70
     0
102
RTVSPropertyOp1
 70
     0
102
RTVSPropertyOp2
 70
     0
102
RTVSPropertyOp3
 70
     0
102
RTVSPropertyOp4
 70
     0
102
RTVSPropertyOp5
 70
     0
102
RTVSPropertyOp6
 70
     0
102
RTVSPropertyOp7
 70
     0
102
RTVSPropertyOp8
 70
     0
102
RTVSPropertyOp9
 70
     0
102
RTVSPropertyOp10
 70
     0
102
RTVSPropertyOp11
 70
     0
102
RTVSPropertyOp12
 70
     0
102
RTVSPropertyOp13
 70
     0
102
RTVSPropertyOp14
 70
     2
102
RTVSPropertyOp15
 70
     0
102
RTVSPropertyOp16
 70
     0
102
RTVSPropertyOp17
 70
     0
102
RTVSPropertyOp18
 70
     0
102
RTVSPropertyOp19
 70
     0
102
RTVSPropertyOp20
 70
     0
102
RTVSPropertyOp21
 70
     0
102
RTVSPropertyOp22
 70
     0
102
RTVSPropertyOp23
 70
     0
102
RTVSPropertyOp24
 70
     0
102
RTVSPropertyOp25
 70
     0
102
RTVSPropertyOp26
 70
     0
102
RTVSPropertyOp27
 70
     0
102
RTVSPropertyOp28
 70
     1
102
RTVSPropertyOp29
 70
     1
102
RTVSPropertyOp30
 70
     1
102
RTVSPropertyOp31
 70
     1
102
RTVSPropertyOp32
 70
     1
102
RTVSPropertyOp33
 70
     1
102
RTVSPropertyOp34
 70
     1
102
RTVSPropertyOp35
 70
     1
102
RTVSPropertyOp36
 70
     1
102
RTVSPropertyOp37
 70
     0
102
RTVSPropertyOp38
 70
     0
102
RTVSPropertyOp39
 70
     0
102
RTVSPropertyOp40
 70
     0
102
RTVSPropertyOp41
 70
     0
102
RTVSPropertyOp42
 70
     0
102
RTVSPropertyOp43
 70
     0
102
RTVSPropertyOp44
 70
     0
102
RTVSPropertyOp45
 70
     1
102
RTVSPropertyOp46
 70
     0
102
RTVSPropertyOp47
 70
     0
102
RTVSPropertyOp48
 70
     0
102
RTVSPropertyOp49
 70
     1
102
RTVSPropertyOp50
 70
     0
102
RTVSPropertyOp51
 70
     0
102
RTVSPropertyOp52
 70
     0
102
RTVSPropertyOp53
 70
     0
102
RTVSPropertyOp54
 70
     0
102
RTVSPropertyOp55
 70
     1
102
RTVSPropertyOp56
 70
     0
102
RTVSPropertyOp57
 70
     0
102
RTVSPropertyOp58
 70
     0
102
RTVSPropertyOp59
 70
     0
102
RTVSPropertyOp60
 70
     0
102
RTVSPropertyOp61
 70
     0
102
RTVSPropertyOp62
 70
     0
  0
XRECORD
  5
BA2C
102
{ACAD_REACTORS
330
BA2B
102
}
330
BA2B
100
AcDbXrecord
280
     1
102
RTVSPost2010Prop28
280
     0
102
RTVSPost2010PropOp28
 70
     1
102
RTVSPost2010Prop29
280
     1
102
RTVSPost2010PropOp29
 70
     1
102
RTVSPost2010Prop30
280
     1
102
RTVSPost2010PropOp30
 70
     1
102
RTVSPost2010Prop31
280
     0
102
RTVSPost2010PropOp31
 70
     1
102
RTVSPost2010Prop32
280
     0
102
RTVSPost2010PropOp32
 70
     1
102
RTVSPost2010Prop33
280
     0
102
RTVSPost2010PropOp33
 70
     1
102
RTVSPost2010Prop34
280
     0
102
RTVSPost2010PropOp34
 70
     1
102
RTVSPost2010Prop35
280
     0
102
RTVSPost2010PropOp35
 70
     1
102
RTVSPost2010Prop36
280
     0
102
RTVSPost2010PropOp36
 70
     1
102
RTVSPost2010Prop37
 90
       50
102
RTVSPost2010PropOp37
 70
     1
102
RTVSPost2010Prop38
140
0.0
102
RTVSPost2010PropOp38
 70
     1
102
RTVSPost2010Prop39
140
1.0
102
RTVSPost2010PropOp39
 70
     1
102
RTVSPost2010Prop40
 90
        0
102
RTVSPost2010PropOp40
 70
     1
102
RTVSPost2010Prop41ColorIndex
 90
       18
102
RTVSPost2010Prop41ColorRGB
 90
        0
102
RTVSPost2010PropOp41
 70
     1
102
RTVSPost2010Prop42
 90
       50
102
RTVSPost2010PropOp42
 70
     1
102
RTVSPost2010Prop43
 90
        3
102
RTVSPost2010PropOp43
 70
     1
102
RTVSPost2010Prop44ColorIndex
 90
        5
102
RTVSPost2010Prop44ColorRGB
 90
      255
102
RTVSPost2010PropOp44
 70
     1
102
RTVSPost2010Prop45
280
     0
102
RTVSPost2010PropOp45
 70
     1
102
RTVSPost2010Prop46
 90
       50
102
RTVSPost2010PropOp46
 70
     1
102
RTVSPost2010Prop47
 90
       50
102
RTVSPost2010PropOp47
 70
     1
102
RTVSPost2010Prop48
 90
       50
102
RTVSPost2010PropOp48
 70
     1
102
RTVSPost2010Prop49
280
     0
102
RTVSPost2010PropOp49
 70
     1
102
RTVSPost2010Prop50
 90
       50
102
RTVSPost2010PropOp50
 70
     1
102
RTVSPost2010Prop51ColorIndex
 90
      256
102
RTVSPost2010Prop51ColorRGB
 90
-16777216
102
RTVSPost2010PropOp51
 70
     0
102
RTVSPost2010Prop52
140
1.0
102
RTVSPost2010PropOp52
 70
     0
102
RTVSPost2010Prop53
 90
        2
102
RTVSPost2010PropOp53
 70
     1
102
RTVSPost2010Prop54
  1
strokes_ogs.tif
102
RTVSPost2010PropOp54
 70
     1
102
RTVSPost2010Prop55
280
     0
102
RTVSPost2010PropOp55
 70
     1
102
RTVSPost2010Prop56
140
1.0
102
RTVSPost2010PropOp56
 70
     1
102
RTVSPost2010Prop57
140
1.0
102
RTVSPost2010PropOp57
 70
     1
102
RTVSPropertyOp0
 70
     1
102
RTVSPropertyOp1
 70
     1
102
RTVSPropertyOp2
 70
     1
102
RTVSPropertyOp3
 70
     1
102
RTVSPropertyOp4
 70
     1
102
RTVSPropertyOp5
 70
     1
102
RTVSPropertyOp6
 70
     1
102
RTVSPropertyOp7
 70
     1
102
RTVSPropertyOp8
 70
     1
102
RTVSPropertyOp9
 70
     1
102
RTVSPropertyOp10
 70
     1
102
RTVSPropertyOp11
 70
     1
102
RTVSPropertyOp12
 70
     1
102
RTVSPropertyOp13
 70
     1
102
RTVSPropertyOp14
 70
     1
102
RTVSPropertyOp15
 70
     1
102
RTVSPropertyOp16
 70
     1
102
RTVSPropertyOp17
 70
     1
102
RTVSPropertyOp18
 70
     1
102
RTVSPropertyOp19
 70
     1
102
RTVSPropertyOp20
 70
     1
102
RTVSPropertyOp21
 70
     1
102
RTVSPropertyOp22
 70
     1
102
RTVSPropertyOp23
 70
     1
102
RTVSPropertyOp24
 70
     1
102
RTVSPropertyOp25
 70
     1
102
RTVSPropertyOp26
 70
     1
102
RTVSPropertyOp27
 70
     1
102
RTVSPropertyOp28
 70
     1
102
RTVSPropertyOp29
 70
     1
102
RTVSPropertyOp30
 70
     1
102
RTVSPropertyOp31
 70
     1
102
RTVSPropertyOp32
 70
     1
102
RTVSPropertyOp33
 70
     1
102
RTVSPropertyOp34
 70
     1
102
RTVSPropertyOp35
 70
     1
102
RTVSPropertyOp36
 70
     1
102
RTVSPropertyOp37
 70
     1
102
RTVSPropertyOp38
 70
     1
102
RTVSPropertyOp39
 70
     1
102
RTVSPropertyOp40
 70
     1
102
RTVSPropertyOp41
 70
     1
102
RTVSPropertyOp42
 70
     1
102
RTVSPropertyOp43
 70
     1
102
RTVSPropertyOp44
 70
     1
102
RTVSPropertyOp45
 70
     1
102
RTVSPropertyOp46
 70
     1
102
RTVSPropertyOp47
 70
     1
102
RTVSPropertyOp48
 70
     1
102
RTVSPropertyOp49
 70
     1
102
RTVSPropertyOp50
 70
     1
102
RTVSPropertyOp51
 70
     0
102
RTVSPropertyOp52
 70
     0
102
RTVSPropertyOp53
 70
     1
102
RTVSPropertyOp54
 70
     1
102
RTVSPropertyOp55
 70
     1
102
RTVSPropertyOp56
 70
     1
102
RTVSPropertyOp57
 70
     1
102
RTVSPropertyOp58
 70
     1
102
RTVSPropertyOp59
 70
     1
102
RTVSPropertyOp60
 70
     1
102
RTVSPropertyOp61
 70
     1
102
RTVSPropertyOp62
 70
     1
  0
XRECORD
  5
BA42
102
{ACAD_REACTORS
330
BA41
102
}
330
BA41
100
AcDbXrecord
280
     1
102
RTVSPost2010Prop28
280
     0
102
RTVSPost2010PropOp28
 70
     1
102
RTVSPost2010Prop29
280
     1
102
RTVSPost2010PropOp29
 70
     1
102
RTVSPost2010Prop30
280
     1
102
RTVSPost2010PropOp30
 70
     1
102
RTVSPost2010Prop31
280
     0
102
RTVSPost2010PropOp31
 70
     1
102
RTVSPost2010Prop32
280
     0
102
RTVSPost2010PropOp32
 70
     1
102
RTVSPost2010Prop33
280
     0
102
RTVSPost2010PropOp33
 70
     1
102
RTVSPost2010Prop34
280
     0
102
RTVSPost2010PropOp34
 70
     1
102
RTVSPost2010Prop35
280
     0
102
RTVSPost2010PropOp35
 70
     1
102
RTVSPost2010Prop36
280
     0
102
RTVSPost2010PropOp36
 70
     1
102
RTVSPost2010Prop37
 90
       50
102
RTVSPost2010PropOp37
 70
     1
102
RTVSPost2010Prop38
140
0.0
102
RTVSPost2010PropOp38
 70
     1
102
RTVSPost2010Prop39
140
1.0
102
RTVSPost2010PropOp39
 70
     1
102
RTVSPost2010Prop40
 90
        0
102
RTVSPost2010PropOp40
 70
     1
102
RTVSPost2010Prop41ColorIndex
 90
       18
102
RTVSPost2010Prop41ColorRGB
 90
        0
102
RTVSPost2010PropOp41
 70
     1
102
RTVSPost2010Prop42
 90
       50
102
RTVSPost2010PropOp42
 70
     1
102
RTVSPost2010Prop43
 90
        3
102
RTVSPost2010PropOp43
 70
     1
102
RTVSPost2010Prop44ColorIndex
 90
        5
102
RTVSPost2010Prop44ColorRGB
 90
      255
102
RTVSPost2010PropOp44
 70
     1
102
RTVSPost2010Prop45
280
     0
102
RTVSPost2010PropOp45
 70
     1
102
RTVSPost2010Prop46
 90
       50
102
RTVSPost2010PropOp46
 70
     1
102
RTVSPost2010Prop47
 90
       50
102
RTVSPost2010PropOp47
 70
     1
102
RTVSPost2010Prop48
 90
       50
102
RTVSPost2010PropOp48
 70
     1
102
RTVSPost2010Prop49
280
     0
102
RTVSPost2010PropOp49
 70
     1
102
RTVSPost2010Prop50
 90
       50
102
RTVSPost2010PropOp50
 70
     1
102
RTVSPost2010Prop51ColorIndex
 90
      256
102
RTVSPost2010Prop51ColorRGB
 90
-16777216
102
RTVSPost2010PropOp51
 70
     0
102
RTVSPost2010Prop52
140
1.0
102
RTVSPost2010PropOp52
 70
     0
102
RTVSPost2010Prop53
 90
        2
102
RTVSPost2010PropOp53
 70
     1
102
RTVSPost2010Prop54
  1
strokes_ogs.tif
102
RTVSPost2010PropOp54
 70
     1
102
RTVSPost2010Prop55
280
     0
102
RTVSPost2010PropOp55
 70
     1
102
RTVSPost2010Prop56
140
1.0
102
RTVSPost2010PropOp56
 70
     1
102
RTVSPost2010Prop57
140
1.0
102
RTVSPost2010PropOp57
 70
     1
102
RTVSPropertyOp0
 70
     1
102
RTVSPropertyOp1
 70
     1
102
RTVSPropertyOp2
 70
     1
102
RTVSPropertyOp3
 70
     1
102
RTVSPropertyOp4
 70
     1
102
RTVSPropertyOp5
 70
     1
102
RTVSPropertyOp6
 70
     1
102
RTVSPropertyOp7
 70
     1
102
RTVSPropertyOp8
 70
     1
102
RTVSPropertyOp9
 70
     1
102
RTVSPropertyOp10
 70
     1
102
RTVSPropertyOp11
 70
     1
102
RTVSPropertyOp12
 70
     1
102
RTVSPropertyOp13
 70
     1
102
RTVSPropertyOp14
 70
     1
102
RTVSPropertyOp15
 70
     1
102
RTVSPropertyOp16
 70
     1
102
RTVSPropertyOp17
 70
     1
102
RTVSPropertyOp18
 70
     1
102
RTVSPropertyOp19
 70
     1
102
RTVSPropertyOp20
 70
     1
102
RTVSPropertyOp21
 70
     1
102
RTVSPropertyOp22
 70
     1
102
RTVSPropertyOp23
 70
     1
102
RTVSPropertyOp24
 70
     1
102
RTVSPropertyOp25
 70
     1
102
RTVSPropertyOp26
 70
     1
102
RTVSPropertyOp27
 70
     1
102
RTVSPropertyOp28
 70
     1
102
RTVSPropertyOp29
 70
     1
102
RTVSPropertyOp30
 70
     1
102
RTVSPropertyOp31
 70
     1
102
RTVSPropertyOp32
 70
     1
102
RTVSPropertyOp33
 70
     1
102
RTVSPropertyOp34
 70
     1
102
RTVSPropertyOp35
 70
     1
102
RTVSPropertyOp36
 70
     1
102
RTVSPropertyOp37
 70
     1
102
RTVSPropertyOp38
 70
     1
102
RTVSPropertyOp39
 70
     1
102
RTVSPropertyOp40
 70
     1
102
RTVSPropertyOp41
 70
     1
102
RTVSPropertyOp42
 70
     1
102
RTVSPropertyOp43
 70
     1
102
RTVSPropertyOp44
 70
     1
102
RTVSPropertyOp45
 70
     1
102
RTVSPropertyOp46
 70
     1
102
RTVSPropertyOp47
 70
     1
102
RTVSPropertyOp48
 70
     1
102
RTVSPropertyOp49
 70
     1
102
RTVSPropertyOp50
 70
     1
102
RTVSPropertyOp51
 70
     0
102
RTVSPropertyOp52
 70
     0
102
RTVSPropertyOp53
 70
     1
102
RTVSPropertyOp54
 70
     1
102
RTVSPropertyOp55
 70
     1
102
RTVSPropertyOp56
 70
     1
102
RTVSPropertyOp57
 70
     1
102
RTVSPropertyOp58
 70
     1
102
RTVSPropertyOp59
 70
     1
102
RTVSPropertyOp60
 70
     1
102
RTVSPropertyOp61
 70
     1
102
RTVSPropertyOp62
 70
     1
  0
XRECORD
  5
BA40
102
{ACAD_REACTORS
330
BA3F
102
}
330
BA3F
100
AcDbXrecord
280
     1
102
RTVSPost2010Prop28
280
     0
102
RTVSPost2010PropOp28
 70
     1
102
RTVSPost2010Prop29
280
     1
102
RTVSPost2010PropOp29
 70
     1
102
RTVSPost2010Prop30
280
     1
102
RTVSPost2010PropOp30
 70
     1
102
RTVSPost2010Prop31
280
     0
102
RTVSPost2010PropOp31
 70
     1
102
RTVSPost2010Prop32
280
     0
102
RTVSPost2010PropOp32
 70
     1
102
RTVSPost2010Prop33
280
     0
102
RTVSPost2010PropOp33
 70
     1
102
RTVSPost2010Prop34
280
     0
102
RTVSPost2010PropOp34
 70
     1
102
RTVSPost2010Prop35
280
     0
102
RTVSPost2010PropOp35
 70
     1
102
RTVSPost2010Prop36
280
     0
102
RTVSPost2010PropOp36
 70
     1
102
RTVSPost2010Prop37
 90
       50
102
RTVSPost2010PropOp37
 70
     1
102
RTVSPost2010Prop38
140
0.0
102
RTVSPost2010PropOp38
 70
     1
102
RTVSPost2010Prop39
140
1.0
102
RTVSPost2010PropOp39
 70
     1
102
RTVSPost2010Prop40
 90
        0
102
RTVSPost2010PropOp40
 70
     1
102
RTVSPost2010Prop41ColorIndex
 90
       18
102
RTVSPost2010Prop41ColorRGB
 90
        0
102
RTVSPost2010PropOp41
 70
     1
102
RTVSPost2010Prop42
 90
       50
102
RTVSPost2010PropOp42
 70
     1
102
RTVSPost2010Prop43
 90
        3
102
RTVSPost2010PropOp43
 70
     1
102
RTVSPost2010Prop44ColorIndex
 90
        5
102
RTVSPost2010Prop44ColorRGB
 90
      255
102
RTVSPost2010PropOp44
 70
     1
102
RTVSPost2010Prop45
280
     0
102
RTVSPost2010PropOp45
 70
     1
102
RTVSPost2010Prop46
 90
       50
102
RTVSPost2010PropOp46
 70
     1
102
RTVSPost2010Prop47
 90
       50
102
RTVSPost2010PropOp47
 70
     1
102
RTVSPost2010Prop48
 90
       50
102
RTVSPost2010PropOp48
 70
     1
102
RTVSPost2010Prop49
280
     0
102
RTVSPost2010PropOp49
 70
     1
102
RTVSPost2010Prop50
 90
       50
102
RTVSPost2010PropOp50
 70
     1
102
RTVSPost2010Prop51ColorIndex
 90
      256
102
RTVSPost2010Prop51ColorRGB
 90
-16777216
102
RTVSPost2010PropOp51
 70
     0
102
RTVSPost2010Prop52
140
1.0
102
RTVSPost2010PropOp52
 70
     0
102
RTVSPost2010Prop53
 90
        2
102
RTVSPost2010PropOp53
 70
     1
102
RTVSPost2010Prop54
  1
strokes_ogs.tif
102
RTVSPost2010PropOp54
 70
     1
102
RTVSPost2010Prop55
280
     0
102
RTVSPost2010PropOp55
 70
     1
102
RTVSPost2010Prop56
140
1.0
102
RTVSPost2010PropOp56
 70
     1
102
RTVSPost2010Prop57
140
1.0
102
RTVSPost2010PropOp57
 70
     1
102
RTVSPropertyOp0
 70
     1
102
RTVSPropertyOp1
 70
     1
102
RTVSPropertyOp2
 70
     1
102
RTVSPropertyOp3
 70
     1
102
RTVSPropertyOp4
 70
     1
102
RTVSPropertyOp5
 70
     1
102
RTVSPropertyOp6
 70
     1
102
RTVSPropertyOp7
 70
     1
102
RTVSPropertyOp8
 70
     1
102
RTVSPropertyOp9
 70
     1
102
RTVSPropertyOp10
 70
     1
102
RTVSPropertyOp11
 70
     1
102
RTVSPropertyOp12
 70
     1
102
RTVSPropertyOp13
 70
     1
102
RTVSPropertyOp14
 70
     1
102
RTVSPropertyOp15
 70
     1
102
RTVSPropertyOp16
 70
     1
102
RTVSPropertyOp17
 70
     1
102
RTVSPropertyOp18
 70
     1
102
RTVSPropertyOp19
 70
     1
102
RTVSPropertyOp20
 70
     1
102
RTVSPropertyOp21
 70
     1
102
RTVSPropertyOp22
 70
     1
102
RTVSPropertyOp23
 70
     1
102
RTVSPropertyOp24
 70
     1
102
RTVSPropertyOp25
 70
     1
102
RTVSPropertyOp26
 70
     1
102
RTVSPropertyOp27
 70
     1
102
RTVSPropertyOp28
 70
     1
102
RTVSPropertyOp29
 70
     1
102
RTVSPropertyOp30
 70
     1
102
RTVSPropertyOp31
 70
     1
102
RTVSPropertyOp32
 70
     1
102
RTVSPropertyOp33
 70
     1
102
RTVSPropertyOp34
 70
     1
102
RTVSPropertyOp35
 70
     1
102
RTVSPropertyOp36
 70
     1
102
RTVSPropertyOp37
 70
     1
102
RTVSPropertyOp38
 70
     1
102
RTVSPropertyOp39
 70
     1
102
RTVSPropertyOp40
 70
     1
102
RTVSPropertyOp41
 70
     1
102
RTVSPropertyOp42
 70
     1
102
RTVSPropertyOp43
 70
     1
102
RTVSPropertyOp44
 70
     1
102
RTVSPropertyOp45
 70
     1
102
RTVSPropertyOp46
 70
     1
102
RTVSPropertyOp47
 70
     1
102
RTVSPropertyOp48
 70
     1
102
RTVSPropertyOp49
 70
     1
102
RTVSPropertyOp50
 70
     1
102
RTVSPropertyOp51
 70
     0
102
RTVSPropertyOp52
 70
     0
102
RTVSPropertyOp53
 70
     1
102
RTVSPropertyOp54
 70
     1
102
RTVSPropertyOp55
 70
     1
102
RTVSPropertyOp56
 70
     1
102
RTVSPropertyOp57
 70
     1
102
RTVSPropertyOp58
 70
     1
102
RTVSPropertyOp59
 70
     1
102
RTVSPropertyOp60
 70
     1
102
RTVSPropertyOp61
 70
     1
102
RTVSPropertyOp62
 70
     1
  0
XRECORD
  5
BA3A
102
{ACAD_REACTORS
330
BA39
102
}
330
BA39
100
AcDbXrecord
280
     1
102
RTVSPost2010Prop28
280
     0
102
RTVSPost2010PropOp28
 70
     1
102
RTVSPost2010Prop29
280
     1
102
RTVSPost2010PropOp29
 70
     1
102
RTVSPost2010Prop30
280
     1
102
RTVSPost2010PropOp30
 70
     1
102
RTVSPost2010Prop31
280
     0
102
RTVSPost2010PropOp31
 70
     1
102
RTVSPost2010Prop32
280
     0
102
RTVSPost2010PropOp32
 70
     1
102
RTVSPost2010Prop33
280
     0
102
RTVSPost2010PropOp33
 70
     1
102
RTVSPost2010Prop34
280
     0
102
RTVSPost2010PropOp34
 70
     1
102
RTVSPost2010Prop35
280
     0
102
RTVSPost2010PropOp35
 70
     1
102
RTVSPost2010Prop36
280
     0
102
RTVSPost2010PropOp36
 70
     1
102
RTVSPost2010Prop37
 90
       50
102
RTVSPost2010PropOp37
 70
     1
102
RTVSPost2010Prop38
140
0.0
102
RTVSPost2010PropOp38
 70
     1
102
RTVSPost2010Prop39
140
1.0
102
RTVSPost2010PropOp39
 70
     1
102
RTVSPost2010Prop40
 90
        0
102
RTVSPost2010PropOp40
 70
     1
102
RTVSPost2010Prop41ColorIndex
 90
       18
102
RTVSPost2010Prop41ColorRGB
 90
        0
102
RTVSPost2010PropOp41
 70
     1
102
RTVSPost2010Prop42
 90
       50
102
RTVSPost2010PropOp42
 70
     1
102
RTVSPost2010Prop43
 90
        3
102
RTVSPost2010PropOp43
 70
     1
102
RTVSPost2010Prop44ColorIndex
 90
        5
102
RTVSPost2010Prop44ColorRGB
 90
      255
102
RTVSPost2010PropOp44
 70
     1
102
RTVSPost2010Prop45
280
     0
102
RTVSPost2010PropOp45
 70
     1
102
RTVSPost2010Prop46
 90
       50
102
RTVSPost2010PropOp46
 70
     1
102
RTVSPost2010Prop47
 90
       50
102
RTVSPost2010PropOp47
 70
     1
102
RTVSPost2010Prop48
 90
       50
102
RTVSPost2010PropOp48
 70
     1
102
RTVSPost2010Prop49
280
     0
102
RTVSPost2010PropOp49
 70
     1
102
RTVSPost2010Prop50
 90
       50
102
RTVSPost2010PropOp50
 70
     1
102
RTVSPost2010Prop51ColorIndex
 90
      256
102
RTVSPost2010Prop51ColorRGB
 90
-16777216
102
RTVSPost2010PropOp51
 70
     0
102
RTVSPost2010Prop52
140
1.0
102
RTVSPost2010PropOp52
 70
     0
102
RTVSPost2010Prop53
 90
        2
102
RTVSPost2010PropOp53
 70
     1
102
RTVSPost2010Prop54
  1
strokes_ogs.tif
102
RTVSPost2010PropOp54
 70
     1
102
RTVSPost2010Prop55
280
     0
102
RTVSPost2010PropOp55
 70
     1
102
RTVSPost2010Prop56
140
1.0
102
RTVSPost2010PropOp56
 70
     1
102
RTVSPost2010Prop57
140
1.0
102
RTVSPost2010PropOp57
 70
     1
102
RTVSPropertyOp0
 70
     1
102
RTVSPropertyOp1
 70
     1
102
RTVSPropertyOp2
 70
     1
102
RTVSPropertyOp3
 70
     1
102
RTVSPropertyOp4
 70
     1
102
RTVSPropertyOp5
 70
     1
102
RTVSPropertyOp6
 70
     1
102
RTVSPropertyOp7
 70
     1
102
RTVSPropertyOp8
 70
     1
102
RTVSPropertyOp9
 70
     1
102
RTVSPropertyOp10
 70
     1
102
RTVSPropertyOp11
 70
     1
102
RTVSPropertyOp12
 70
     1
102
RTVSPropertyOp13
 70
     1
102
RTVSPropertyOp14
 70
     1
102
RTVSPropertyOp15
 70
     1
102
RTVSPropertyOp16
 70
     1
102
RTVSPropertyOp17
 70
     1
102
RTVSPropertyOp18
 70
     1
102
RTVSPropertyOp19
 70
     1
102
RTVSPropertyOp20
 70
     1
102
RTVSPropertyOp21
 70
     1
102
RTVSPropertyOp22
 70
     1
102
RTVSPropertyOp23
 70
     1
102
RTVSPropertyOp24
 70
     1
102
RTVSPropertyOp25
 70
     1
102
RTVSPropertyOp26
 70
     1
102
RTVSPropertyOp27
 70
     1
102
RTVSPropertyOp28
 70
     1
102
RTVSPropertyOp29
 70
     1
102
RTVSPropertyOp30
 70
     1
102
RTVSPropertyOp31
 70
     1
102
RTVSPropertyOp32
 70
     1
102
RTVSPropertyOp33
 70
     1
102
RTVSPropertyOp34
 70
     1
102
RTVSPropertyOp35
 70
     1
102
RTVSPropertyOp36
 70
     1
102
RTVSPropertyOp37
 70
     1
102
RTVSPropertyOp38
 70
     1
102
RTVSPropertyOp39
 70
     1
102
RTVSPropertyOp40
 70
     1
102
RTVSPropertyOp41
 70
     1
102
RTVSPropertyOp42
 70
     1
102
RTVSPropertyOp43
 70
     1
102
RTVSPropertyOp44
 70
     1
102
RTVSPropertyOp45
 70
     1
102
RTVSPropertyOp46
 70
     1
102
RTVSPropertyOp47
 70
     1
102
RTVSPropertyOp48
 70
     1
102
RTVSPropertyOp49
 70
     1
102
RTVSPropertyOp50
 70
     1
102
RTVSPropertyOp51
 70
     0
102
RTVSPropertyOp52
 70
     0
102
RTVSPropertyOp53
 70
     1
102
RTVSPropertyOp54
 70
     1
102
RTVSPropertyOp55
 70
     1
102
RTVSPropertyOp56
 70
     1
102
RTVSPropertyOp57
 70
     1
102
RTVSPropertyOp58
 70
     1
102
RTVSPropertyOp59
 70
     1
102
RTVSPropertyOp60
 70
     1
102
RTVSPropertyOp61
 70
     1
102
RTVSPropertyOp62
 70
     1
  0
XRECORD
  5
BA3C
102
{ACAD_REACTORS
330
BA3B
102
}
330
BA3B
100
AcDbXrecord
280
     1
102
RTVSPost2010Prop28
280
     0
102
RTVSPost2010PropOp28
 70
     1
102
RTVSPost2010Prop29
280
     1
102
RTVSPost2010PropOp29
 70
     1
102
RTVSPost2010Prop30
280
     1
102
RTVSPost2010PropOp30
 70
     1
102
RTVSPost2010Prop31
280
     0
102
RTVSPost2010PropOp31
 70
     1
102
RTVSPost2010Prop32
280
     0
102
RTVSPost2010PropOp32
 70
     1
102
RTVSPost2010Prop33
280
     0
102
RTVSPost2010PropOp33
 70
     1
102
RTVSPost2010Prop34
280
     0
102
RTVSPost2010PropOp34
 70
     1
102
RTVSPost2010Prop35
280
     0
102
RTVSPost2010PropOp35
 70
     1
102
RTVSPost2010Prop36
280
     0
102
RTVSPost2010PropOp36
 70
     1
102
RTVSPost2010Prop37
 90
       50
102
RTVSPost2010PropOp37
 70
     1
102
RTVSPost2010Prop38
140
0.0
102
RTVSPost2010PropOp38
 70
     1
102
RTVSPost2010Prop39
140
1.0
102
RTVSPost2010PropOp39
 70
     1
102
RTVSPost2010Prop40
 90
        0
102
RTVSPost2010PropOp40
 70
     1
102
RTVSPost2010Prop41ColorIndex
 90
       18
102
RTVSPost2010Prop41ColorRGB
 90
        0
102
RTVSPost2010PropOp41
 70
     1
102
RTVSPost2010Prop42
 90
       50
102
RTVSPost2010PropOp42
 70
     1
102
RTVSPost2010Prop43
 90
        3
102
RTVSPost2010PropOp43
 70
     1
102
RTVSPost2010Prop44ColorIndex
 90
        5
102
RTVSPost2010Prop44ColorRGB
 90
      255
102
RTVSPost2010PropOp44
 70
     1
102
RTVSPost2010Prop45
280
     0
102
RTVSPost2010PropOp45
 70
     1
102
RTVSPost2010Prop46
 90
       50
102
RTVSPost2010PropOp46
 70
     1
102
RTVSPost2010Prop47
 90
       50
102
RTVSPost2010PropOp47
 70
     1
102
RTVSPost2010Prop48
 90
       50
102
RTVSPost2010PropOp48
 70
     1
102
RTVSPost2010Prop49
280
     0
102
RTVSPost2010PropOp49
 70
     1
102
RTVSPost2010Prop50
 90
       50
102
RTVSPost2010PropOp50
 70
     1
102
RTVSPost2010Prop51ColorIndex
 90
      256
102
RTVSPost2010Prop51ColorRGB
 90
-16777216
102
RTVSPost2010PropOp51
 70
     0
102
RTVSPost2010Prop52
140
1.0
102
RTVSPost2010PropOp52
 70
     0
102
RTVSPost2010Prop53
 90
        2
102
RTVSPost2010PropOp53
 70
     1
102
RTVSPost2010Prop54
  1
strokes_ogs.tif
102
RTVSPost2010PropOp54
 70
     1
102
RTVSPost2010Prop55
280
     0
102
RTVSPost2010PropOp55
 70
     1
102
RTVSPost2010Prop56
140
1.0
102
RTVSPost2010PropOp56
 70
     1
102
RTVSPost2010Prop57
140
1.0
102
RTVSPost2010PropOp57
 70
     1
102
RTVSPropertyOp0
 70
     1
102
RTVSPropertyOp1
 70
     1
102
RTVSPropertyOp2
 70
     1
102
RTVSPropertyOp3
 70
     1
102
RTVSPropertyOp4
 70
     1
102
RTVSPropertyOp5
 70
     1
102
RTVSPropertyOp6
 70
     1
102
RTVSPropertyOp7
 70
     1
102
RTVSPropertyOp8
 70
     1
102
RTVSPropertyOp9
 70
     1
102
RTVSPropertyOp10
 70
     1
102
RTVSPropertyOp11
 70
     1
102
RTVSPropertyOp12
 70
     1
102
RTVSPropertyOp13
 70
     1
102
RTVSPropertyOp14
 70
     1
102
RTVSPropertyOp15
 70
     1
102
RTVSPropertyOp16
 70
     1
102
RTVSPropertyOp17
 70
     1
102
RTVSPropertyOp18
 70
     1
102
RTVSPropertyOp19
 70
     1
102
RTVSPropertyOp20
 70
     1
102
RTVSPropertyOp21
 70
     1
102
RTVSPropertyOp22
 70
     1
102
RTVSPropertyOp23
 70
     1
102
RTVSPropertyOp24
 70
     1
102
RTVSPropertyOp25
 70
     1
102
RTVSPropertyOp26
 70
     1
102
RTVSPropertyOp27
 70
     1
102
RTVSPropertyOp28
 70
     1
102
RTVSPropertyOp29
 70
     1
102
RTVSPropertyOp30
 70
     1
102
RTVSPropertyOp31
 70
     1
102
RTVSPropertyOp32
 70
     1
102
RTVSPropertyOp33
 70
     1
102
RTVSPropertyOp34
 70
     1
102
RTVSPropertyOp35
 70
     1
102
RTVSPropertyOp36
 70
     1
102
RTVSPropertyOp37
 70
     1
102
RTVSPropertyOp38
 70
     1
102
RTVSPropertyOp39
 70
     1
102
RTVSPropertyOp40
 70
     1
102
RTVSPropertyOp41
 70
     1
102
RTVSPropertyOp42
 70
     1
102
RTVSPropertyOp43
 70
     1
102
RTVSPropertyOp44
 70
     1
102
RTVSPropertyOp45
 70
     1
102
RTVSPropertyOp46
 70
     1
102
RTVSPropertyOp47
 70
     1
102
RTVSPropertyOp48
 70
     1
102
RTVSPropertyOp49
 70
     1
102
RTVSPropertyOp50
 70
     1
102
RTVSPropertyOp51
 70
     0
102
RTVSPropertyOp52
 70
     0
102
RTVSPropertyOp53
 70
     1
102
RTVSPropertyOp54
 70
     1
102
RTVSPropertyOp55
 70
     1
102
RTVSPropertyOp56
 70
     1
102
RTVSPropertyOp57
 70
     1
102
RTVSPropertyOp58
 70
     1
102
RTVSPropertyOp59
 70
     1
102
RTVSPropertyOp60
 70
     1
102
RTVSPropertyOp61
 70
     1
102
RTVSPropertyOp62
 70
     1
  0
XRECORD
  5
BA32
102
{ACAD_REACTORS
330
BA31
102
}
330
BA31
100
AcDbXrecord
280
     1
102
RTVSPost2010Prop28
280
     0
102
RTVSPost2010PropOp28
 70
     1
102
RTVSPost2010Prop29
280
     1
102
RTVSPost2010PropOp29
 70
     1
102
RTVSPost2010Prop30
280
     1
102
RTVSPost2010PropOp30
 70
     1
102
RTVSPost2010Prop31
280
     0
102
RTVSPost2010PropOp31
 70
     1
102
RTVSPost2010Prop32
280
     0
102
RTVSPost2010PropOp32
 70
     1
102
RTVSPost2010Prop33
280
     0
102
RTVSPost2010PropOp33
 70
     1
102
RTVSPost2010Prop34
280
     0
102
RTVSPost2010PropOp34
 70
     1
102
RTVSPost2010Prop35
280
     0
102
RTVSPost2010PropOp35
 70
     1
102
RTVSPost2010Prop36
280
     0
102
RTVSPost2010PropOp36
 70
     1
102
RTVSPost2010Prop37
 90
       50
102
RTVSPost2010PropOp37
 70
     1
102
RTVSPost2010Prop38
140
0.0
102
RTVSPost2010PropOp38
 70
     1
102
RTVSPost2010Prop39
140
1.0
102
RTVSPost2010PropOp39
 70
     1
102
RTVSPost2010Prop40
 90
        0
102
RTVSPost2010PropOp40
 70
     1
102
RTVSPost2010Prop41ColorIndex
 90
       18
102
RTVSPost2010Prop41ColorRGB
 90
        0
102
RTVSPost2010PropOp41
 70
     1
102
RTVSPost2010Prop42
 90
       50
102
RTVSPost2010PropOp42
 70
     1
102
RTVSPost2010Prop43
 90
        3
102
RTVSPost2010PropOp43
 70
     1
102
RTVSPost2010Prop44ColorIndex
 90
        5
102
RTVSPost2010Prop44ColorRGB
 90
      255
102
RTVSPost2010PropOp44
 70
     1
102
RTVSPost2010Prop45
280
     0
102
RTVSPost2010PropOp45
 70
     1
102
RTVSPost2010Prop46
 90
       50
102
RTVSPost2010PropOp46
 70
     1
102
RTVSPost2010Prop47
 90
       50
102
RTVSPost2010PropOp47
 70
     1
102
RTVSPost2010Prop48
 90
       50
102
RTVSPost2010PropOp48
 70
     1
102
RTVSPost2010Prop49
280
     0
102
RTVSPost2010PropOp49
 70
     1
102
RTVSPost2010Prop50
 90
       50
102
RTVSPost2010PropOp50
 70
     1
102
RTVSPost2010Prop51ColorIndex
 90
      256
102
RTVSPost2010Prop51ColorRGB
 90
-16777216
102
RTVSPost2010PropOp51
 70
     0
102
RTVSPost2010Prop52
140
1.0
102
RTVSPost2010PropOp52
 70
     0
102
RTVSPost2010Prop53
 90
        2
102
RTVSPost2010PropOp53
 70
     1
102
RTVSPost2010Prop54
  1
strokes_ogs.tif
102
RTVSPost2010PropOp54
 70
     1
102
RTVSPost2010Prop55
280
     0
102
RTVSPost2010PropOp55
 70
     1
102
RTVSPost2010Prop56
140
1.0
102
RTVSPost2010PropOp56
 70
     1
102
RTVSPost2010Prop57
140
1.0
102
RTVSPost2010PropOp57
 70
     1
102
RTVSPropertyOp0
 70
     1
102
RTVSPropertyOp1
 70
     1
102
RTVSPropertyOp2
 70
     1
102
RTVSPropertyOp3
 70
     1
102
RTVSPropertyOp4
 70
     1
102
RTVSPropertyOp5
 70
     1
102
RTVSPropertyOp6
 70
     1
102
RTVSPropertyOp7
 70
     1
102
RTVSPropertyOp8
 70
     1
102
RTVSPropertyOp9
 70
     1
102
RTVSPropertyOp10
 70
     1
102
RTVSPropertyOp11
 70
     1
102
RTVSPropertyOp12
 70
     1
102
RTVSPropertyOp13
 70
     1
102
RTVSPropertyOp14
 70
     1
102
RTVSPropertyOp15
 70
     1
102
RTVSPropertyOp16
 70
     1
102
RTVSPropertyOp17
 70
     1
102
RTVSPropertyOp18
 70
     1
102
RTVSPropertyOp19
 70
     1
102
RTVSPropertyOp20
 70
     1
102
RTVSPropertyOp21
 70
     1
102
RTVSPropertyOp22
 70
     1
102
RTVSPropertyOp23
 70
     1
102
RTVSPropertyOp24
 70
     1
102
RTVSPropertyOp25
 70
     1
102
RTVSPropertyOp26
 70
     1
102
RTVSPropertyOp27
 70
     1
102
RTVSPropertyOp28
 70
     1
102
RTVSPropertyOp29
 70
     1
102
RTVSPropertyOp30
 70
     1
102
RTVSPropertyOp31
 70
     1
102
RTVSPropertyOp32
 70
     1
102
RTVSPropertyOp33
 70
     1
102
RTVSPropertyOp34
 70
     1
102
RTVSPropertyOp35
 70
     1
102
RTVSPropertyOp36
 70
     1
102
RTVSPropertyOp37
 70
     1
102
RTVSPropertyOp38
 70
     1
102
RTVSPropertyOp39
 70
     1
102
RTVSPropertyOp40
 70
     1
102
RTVSPropertyOp41
 70
     1
102
RTVSPropertyOp42
 70
     1
102
RTVSPropertyOp43
 70
     1
102
RTVSPropertyOp44
 70
     1
102
RTVSPropertyOp45
 70
     1
102
RTVSPropertyOp46
 70
     1
102
RTVSPropertyOp47
 70
     1
102
RTVSPropertyOp48
 70
     1
102
RTVSPropertyOp49
 70
     1
102
RTVSPropertyOp50
 70
     1
102
RTVSPropertyOp51
 70
     0
102
RTVSPropertyOp52
 70
     0
102
RTVSPropertyOp53
 70
     1
102
RTVSPropertyOp54
 70
     1
102
RTVSPropertyOp55
 70
     1
102
RTVSPropertyOp56
 70
     1
102
RTVSPropertyOp57
 70
     1
102
RTVSPropertyOp58
 70
     1
102
RTVSPropertyOp59
 70
     1
102
RTVSPropertyOp60
 70
     1
102
RTVSPropertyOp61
 70
     1
102
RTVSPropertyOp62
 70
     1
  0
XRECORD
  5
BA26
102
{ACAD_REACTORS
330
BA25
102
}
330
BA25
100
AcDbXrecord
280
     1
102
RTVSPost2010Prop28
280
     0
102
RTVSPost2010PropOp28
 70
     1
102
RTVSPost2010Prop29
280
     1
102
RTVSPost2010PropOp29
 70
     1
102
RTVSPost2010Prop30
280
     1
102
RTVSPost2010PropOp30
 70
     1
102
RTVSPost2010Prop31
280
     0
102
RTVSPost2010PropOp31
 70
     1
102
RTVSPost2010Prop32
280
     0
102
RTVSPost2010PropOp32
 70
     1
102
RTVSPost2010Prop33
280
     0
102
RTVSPost2010PropOp33
 70
     1
102
RTVSPost2010Prop34
280
     0
102
RTVSPost2010PropOp34
 70
     1
102
RTVSPost2010Prop35
280
     0
102
RTVSPost2010PropOp35
 70
     1
102
RTVSPost2010Prop36
280
     0
102
RTVSPost2010PropOp36
 70
     1
102
RTVSPost2010Prop37
 90
       50
102
RTVSPost2010PropOp37
 70
     1
102
RTVSPost2010Prop38
140
0.0
102
RTVSPost2010PropOp38
 70
     1
102
RTVSPost2010Prop39
140
1.0
102
RTVSPost2010PropOp39
 70
     1
102
RTVSPost2010Prop40
 90
        0
102
RTVSPost2010PropOp40
 70
     1
102
RTVSPost2010Prop41ColorIndex
 90
       18
102
RTVSPost2010Prop41ColorRGB
 90
        0
102
RTVSPost2010PropOp41
 70
     1
102
RTVSPost2010Prop42
 90
       50
102
RTVSPost2010PropOp42
 70
     1
102
RTVSPost2010Prop43
 90
        3
102
RTVSPost2010PropOp43
 70
     1
102
RTVSPost2010Prop44ColorIndex
 90
        5
102
RTVSPost2010Prop44ColorRGB
 90
      255
102
RTVSPost2010PropOp44
 70
     1
102
RTVSPost2010Prop45
280
     0
102
RTVSPost2010PropOp45
 70
     1
102
RTVSPost2010Prop46
 90
       50
102
RTVSPost2010PropOp46
 70
     1
102
RTVSPost2010Prop47
 90
       50
102
RTVSPost2010PropOp47
 70
     1
102
RTVSPost2010Prop48
 90
       50
102
RTVSPost2010PropOp48
 70
     1
102
RTVSPost2010Prop49
280
     0
102
RTVSPost2010PropOp49
 70
     1
102
RTVSPost2010Prop50
 90
       50
102
RTVSPost2010PropOp50
 70
     1
102
RTVSPost2010Prop51ColorIndex
 90
      256
102
RTVSPost2010Prop51ColorRGB
 90
-16777216
102
RTVSPost2010PropOp51
 70
     0
102
RTVSPost2010Prop52
140
1.0
102
RTVSPost2010PropOp52
 70
     0
102
RTVSPost2010Prop53
 90
        2
102
RTVSPost2010PropOp53
 70
     1
102
RTVSPost2010Prop54
  1
strokes_ogs.tif
102
RTVSPost2010PropOp54
 70
     1
102
RTVSPost2010Prop55
280
     0
102
RTVSPost2010PropOp55
 70
     1
102
RTVSPost2010Prop56
140
1.0
102
RTVSPost2010PropOp56
 70
     1
102
RTVSPost2010Prop57
140
1.0
102
RTVSPost2010PropOp57
 70
     1
102
RTVSPropertyOp0
 70
     1
102
RTVSPropertyOp1
 70
     1
102
RTVSPropertyOp2
 70
     1
102
RTVSPropertyOp3
 70
     1
102
RTVSPropertyOp4
 70
     1
102
RTVSPropertyOp5
 70
     1
102
RTVSPropertyOp6
 70
     1
102
RTVSPropertyOp7
 70
     1
102
RTVSPropertyOp8
 70
     1
102
RTVSPropertyOp9
 70
     1
102
RTVSPropertyOp10
 70
     1
102
RTVSPropertyOp11
 70
     1
102
RTVSPropertyOp12
 70
     1
102
RTVSPropertyOp13
 70
     1
102
RTVSPropertyOp14
 70
     1
102
RTVSPropertyOp15
 70
     1
102
RTVSPropertyOp16
 70
     1
102
RTVSPropertyOp17
 70
     1
102
RTVSPropertyOp18
 70
     1
102
RTVSPropertyOp19
 70
     1
102
RTVSPropertyOp20
 70
     1
102
RTVSPropertyOp21
 70
     1
102
RTVSPropertyOp22
 70
     1
102
RTVSPropertyOp23
 70
     1
102
RTVSPropertyOp24
 70
     1
102
RTVSPropertyOp25
 70
     1
102
RTVSPropertyOp26
 70
     1
102
RTVSPropertyOp27
 70
     1
102
RTVSPropertyOp28
 70
     1
102
RTVSPropertyOp29
 70
     1
102
RTVSPropertyOp30
 70
     1
102
RTVSPropertyOp31
 70
     1
102
RTVSPropertyOp32
 70
     1
102
RTVSPropertyOp33
 70
     1
102
RTVSPropertyOp34
 70
     1
102
RTVSPropertyOp35
 70
     1
102
RTVSPropertyOp36
 70
     1
102
RTVSPropertyOp37
 70
     1
102
RTVSPropertyOp38
 70
     1
102
RTVSPropertyOp39
 70
     1
102
RTVSPropertyOp40
 70
     1
102
RTVSPropertyOp41
 70
     1
102
RTVSPropertyOp42
 70
     1
102
RTVSPropertyOp43
 70
     1
102
RTVSPropertyOp44
 70
     1
102
RTVSPropertyOp45
 70
     1
102
RTVSPropertyOp46
 70
     1
102
RTVSPropertyOp47
 70
     1
102
RTVSPropertyOp48
 70
     1
102
RTVSPropertyOp49
 70
     1
102
RTVSPropertyOp50
 70
     1
102
RTVSPropertyOp51
 70
     0
102
RTVSPropertyOp52
 70
     0
102
RTVSPropertyOp53
 70
     1
102
RTVSPropertyOp54
 70
     1
102
RTVSPropertyOp55
 70
     1
102
RTVSPropertyOp56
 70
     1
102
RTVSPropertyOp57
 70
     1
102
RTVSPropertyOp58
 70
     1
102
RTVSPropertyOp59
 70
     1
102
RTVSPropertyOp60
 70
     1
102
RTVSPropertyOp61
 70
     1
102
RTVSPropertyOp62
 70
     1
  0
XRECORD
  5
BA3E
102
{ACAD_REACTORS
330
BA3D
102
}
330
BA3D
100
AcDbXrecord
280
     1
102
RTVSPost2010Prop28
280
     0
102
RTVSPost2010PropOp28
 70
     1
102
RTVSPost2010Prop29
280
     1
102
RTVSPost2010PropOp29
 70
     1
102
RTVSPost2010Prop30
280
     1
102
RTVSPost2010PropOp30
 70
     1
102
RTVSPost2010Prop31
280
     0
102
RTVSPost2010PropOp31
 70
     1
102
RTVSPost2010Prop32
280
     0
102
RTVSPost2010PropOp32
 70
     1
102
RTVSPost2010Prop33
280
     0
102
RTVSPost2010PropOp33
 70
     1
102
RTVSPost2010Prop34
280
     0
102
RTVSPost2010PropOp34
 70
     1
102
RTVSPost2010Prop35
280
     0
102
RTVSPost2010PropOp35
 70
     1
102
RTVSPost2010Prop36
280
     0
102
RTVSPost2010PropOp36
 70
     1
102
RTVSPost2010Prop37
 90
       50
102
RTVSPost2010PropOp37
 70
     1
102
RTVSPost2010Prop38
140
0.0
102
RTVSPost2010PropOp38
 70
     1
102
RTVSPost2010Prop39
140
1.0
102
RTVSPost2010PropOp39
 70
     1
102
RTVSPost2010Prop40
 90
        0
102
RTVSPost2010PropOp40
 70
     1
102
RTVSPost2010Prop41ColorIndex
 90
       18
102
RTVSPost2010Prop41ColorRGB
 90
        0
102
RTVSPost2010PropOp41
 70
     1
102
RTVSPost2010Prop42
 90
       50
102
RTVSPost2010PropOp42
 70
     1
102
RTVSPost2010Prop43
 90
        3
102
RTVSPost2010PropOp43
 70
     1
102
RTVSPost2010Prop44ColorIndex
 90
        5
102
RTVSPost2010Prop44ColorRGB
 90
      255
102
RTVSPost2010PropOp44
 70
     1
102
RTVSPost2010Prop45
280
     0
102
RTVSPost2010PropOp45
 70
     1
102
RTVSPost2010Prop46
 90
       50
102
RTVSPost2010PropOp46
 70
     1
102
RTVSPost2010Prop47
 90
       50
102
RTVSPost2010PropOp47
 70
     1
102
RTVSPost2010Prop48
 90
       50
102
RTVSPost2010PropOp48
 70
     1
102
RTVSPost2010Prop49
280
     0
102
RTVSPost2010PropOp49
 70
     1
102
RTVSPost2010Prop50
 90
       50
102
RTVSPost2010PropOp50
 70
     1
102
RTVSPost2010Prop51ColorIndex
 90
      256
102
RTVSPost2010Prop51ColorRGB
 90
-16777216
102
RTVSPost2010PropOp51
 70
     0
102
RTVSPost2010Prop52
140
1.0
102
RTVSPost2010PropOp52
 70
     0
102
RTVSPost2010Prop53
 90
        2
102
RTVSPost2010PropOp53
 70
     1
102
RTVSPost2010Prop54
  1
strokes_ogs.tif
102
RTVSPost2010PropOp54
 70
     1
102
RTVSPost2010Prop55
280
     0
102
RTVSPost2010PropOp55
 70
     1
102
RTVSPost2010Prop56
140
1.0
102
RTVSPost2010PropOp56
 70
     1
102
RTVSPost2010Prop57
140
1.0
102
RTVSPost2010PropOp57
 70
     1
102
RTVSPropertyOp0
 70
     1
102
RTVSPropertyOp1
 70
     1
102
RTVSPropertyOp2
 70
     1
102
RTVSPropertyOp3
 70
     1
102
RTVSPropertyOp4
 70
     1
102
RTVSPropertyOp5
 70
     1
102
RTVSPropertyOp6
 70
     1
102
RTVSPropertyOp7
 70
     1
102
RTVSPropertyOp8
 70
     1
102
RTVSPropertyOp9
 70
     1
102
RTVSPropertyOp10
 70
     1
102
RTVSPropertyOp11
 70
     1
102
RTVSPropertyOp12
 70
     1
102
RTVSPropertyOp13
 70
     1
102
RTVSPropertyOp14
 70
     1
102
RTVSPropertyOp15
 70
     1
102
RTVSPropertyOp16
 70
     1
102
RTVSPropertyOp17
 70
     1
102
RTVSPropertyOp18
 70
     1
102
RTVSPropertyOp19
 70
     1
102
RTVSPropertyOp20
 70
     1
102
RTVSPropertyOp21
 70
     1
102
RTVSPropertyOp22
 70
     1
102
RTVSPropertyOp23
 70
     1
102
RTVSPropertyOp24
 70
     1
102
RTVSPropertyOp25
 70
     1
102
RTVSPropertyOp26
 70
     1
102
RTVSPropertyOp27
 70
     1
102
RTVSPropertyOp28
 70
     1
102
RTVSPropertyOp29
 70
     1
102
RTVSPropertyOp30
 70
     1
102
RTVSPropertyOp31
 70
     1
102
RTVSPropertyOp32
 70
     1
102
RTVSPropertyOp33
 70
     1
102
RTVSPropertyOp34
 70
     1
102
RTVSPropertyOp35
 70
     1
102
RTVSPropertyOp36
 70
     1
102
RTVSPropertyOp37
 70
     1
102
RTVSPropertyOp38
 70
     1
102
RTVSPropertyOp39
 70
     1
102
RTVSPropertyOp40
 70
     1
102
RTVSPropertyOp41
 70
     1
102
RTVSPropertyOp42
 70
     1
102
RTVSPropertyOp43
 70
     1
102
RTVSPropertyOp44
 70
     1
102
RTVSPropertyOp45
 70
     1
102
RTVSPropertyOp46
 70
     1
102
RTVSPropertyOp47
 70
     1
102
RTVSPropertyOp48
 70
     1
102
RTVSPropertyOp49
 70
     1
102
RTVSPropertyOp50
 70
     1
102
RTVSPropertyOp51
 70
     0
102
RTVSPropertyOp52
 70
     0
102
RTVSPropertyOp53
 70
     1
102
RTVSPropertyOp54
 70
     1
102
RTVSPropertyOp55
 70
     1
102
RTVSPropertyOp56
 70
     1
102
RTVSPropertyOp57
 70
     1
102
RTVSPropertyOp58
 70
     1
102
RTVSPropertyOp59
 70
     1
102
RTVSPropertyOp60
 70
     1
102
RTVSPropertyOp61
 70
     1
102
RTVSPropertyOp62
 70
     1
  0
ENDSEC
  0
EOF
