  0
SECTION
  2
HEADER
  9
$ACADVER
  1
AC1015
  9
$ACADMAINTVER
 70
    20
  9
$DWGCODEPAGE
  3
ANSI_932
  9
$INSBASE
 10
0.0
 20
0.0
 30
0.0
  9
$EXTMIN
 10
10.0
 20
9.999999999999998
 30
0.0
  9
$EXTMAX
 10
469.8294781981407
 20
330.9206459999999
 30
0.0
  9
$LIMMIN
 10
0.0
 20
0.0
  9
$LIMMAX
 10
495.0
 20
341.25
  9
$ORTHOMODE
 70
     1
  9
$REGENMODE
 70
     1
  9
$FILLMODE
 70
     1
  9
$QTEXTMODE
 70
     0
  9
$MIRRTEXT
 70
     1
  9
$LTSCALE
 40
20.0
  9
$ATTMODE
 70
     1
  9
$TEXTSIZE
 40
5.0
  9
$TRACEWID
 40
1.0
  9
$TEXTSTYLE
  7
STANDARD
  9
$CLAYER
  8
0
  9
$CELTYPE
  6
BYLAYER
  9
$CECOLOR
 62
   256
  9
$CELTSCALE
 40
1.0
  9
$DISPSILH
 70
     0
  9
$DIMSCALE
 40
1.0
  9
$DIMASZ
 40
3.0
  9
$DIMEXO
 40
1.0
  9
$DIMDLI
 40
10.0
  9
$DIMRND
 40
0.0
  9
$DIMDLE
 40
0.0
  9
$DIMEXE
 40
1.0
  9
$DIMTP
 40
0.0
  9
$DIMTM
 40
0.0
  9
$DIMTXT
 40
3.2
  9
$DIMCEN
 40
0.0
  9
$DIMTSZ
 40
0.0
  9
$DIMTOL
 70
     0
  9
$DIMLIM
 70
     0
  9
$DIMTIH
 70
     0
  9
$DIMTOH
 70
     0
  9
$DIMSE1
 70
     0
  9
$DIMSE2
 70
     0
  9
$DIMTAD
 70
     3
  9
$DIMZIN
 70
     8
  9
$DIMBLK
  1

  9
$DIMASO
 70
     1
  9
$DIMSHO
 70
     1
  9
$DIMPOST
  1

  9
$DIMAPOST
  1

  9
$DIMALT
 70
     0
  9
$DIMALTD
 70
     2
  9
$DIMALTF
 40
25.4
  9
$DIMLFAC
 40
1.0
  9
$DIMTOFL
 70
     1
  9
$DIMTVP
 40
0.0
  9
$DIMTIX
 70
     0
  9
$DIMSOXD
 70
     0
  9
$DIMSAH
 70
     1
  9
$DIMBLK1
  1
OPEN
  9
$DIMBLK2
  1
OPEN
  9
$DIMSTYLE
  2
STANDARD
  9
$DIMCLRD
 70
     0
  9
$DIMCLRE
 70
     0
  9
$DIMCLRT
 70
     0
  9
$DIMTFAC
 40
1.0
  9
$DIMGAP
 40
1.0
  9
$DIMJUST
 70
     0
  9
$DIMSD1
 70
     0
  9
$DIMSD2
 70
     0
  9
$DIMTOLJ
 70
     1
  9
$DIMTZIN
 70
     0
  9
$DIMALTZ
 70
     0
  9
$DIMALTTZ
 70
     0
  9
$DIMUPT
 70
     0
  9
$DIMDEC
 70
     4
  9
$DIMTDEC
 70
     4
  9
$DIMALTU
 70
     2
  9
$DIMALTTD
 70
     2
  9
$DIMTXSTY
  7
STANDARD
  9
$DIMAUNIT
 70
     0
  9
$DIMADEC
 70
     0
  9
$DIMALTRND
 40
0.0
  9
$DIMAZIN
 70
     0
  9
$DIMDSEP
 70
    46
  9
$DIMATFIT
 70
     3
  9
$DIMFRAC
 70
     0
  9
$DIMLDRBLK
  1
OPEN
  9
$DIMLUNIT
 70
     2
  9
$DIMLWD
 70
    -2
  9
$DIMLWE
 70
    -2
  9
$DIMTMOVE
 70
     0
  9
$LUNITS
 70
     2
  9
$LUPREC
 70
     4
  9
$SKETCHINC
 40
1.0
  9
$FILLETRAD
 40
8.0
  9
$AUNITS
 70
     0
  9
$AUPREC
 70
     2
  9
$MENU
  1
.
  9
$ELEVATION
 40
0.0
  9
$PELEVATION
 40
0.0
  9
$THICKNESS
 40
0.0
  9
$LIMCHECK
 70
     0
  9
$CHAMFERA
 40
10.0
  9
$CHAMFERB
 40
10.0
  9
$CHAMFERC
 40
0.0
  9
$CHAMFERD
 40
0.0
  9
$SKPOLY
 70
     0
  9
$TDCREATE
 40
2451301.440629514
  9
$TDUCREATE
 40
2451301.065629514
  9
$TDUPDATE
 40
2457192.686959421
  9
$TDUUPDATE
 40
2457192.311959421
  9
$TDINDWG
 40
0.0000136921
  9
$TDUSRTIMER
 40
0.0000132060
  9
$USRTIMER
 70
     1
  9
$ANGBASE
 50
0.0
  9
$ANGDIR
 70
     0
  9
$PDMODE
 70
     0
  9
$PDSIZE
 40
0.0
  9
$PLINEWID
 40
0.0
  9
$SPLFRAME
 70
     0
  9
$SPLINETYPE
 70
     6
  9
$SPLINESEGS
 70
     8
  9
$HANDSEED
  5
B274
  9
$SURFTAB1
 70
     6
  9
$SURFTAB2
 70
     6
  9
$SURFTYPE
 70
     6
  9
$SURFU
 70
     6
  9
$SURFV
 70
     6
  9
$UCSBASE
  2

  9
$UCSNAME
  2

  9
$UCSORG
 10
0.0
 20
0.0
 30
0.0
  9
$UCSXDIR
 10
1.0
 20
0.0
 30
0.0
  9
$UCSYDIR
 10
0.0
 20
1.0
 30
0.0
  9
$UCSORTHOREF
  2

  9
$UCSORTHOVIEW
 70
     0
  9
$UCSORGTOP
 10
0.0
 20
0.0
 30
0.0
  9
$UCSORGBOTTOM
 10
0.0
 20
0.0
 30
0.0
  9
$UCSORGLEFT
 10
0.0
 20
0.0
 30
0.0
  9
$UCSORGRIGHT
 10
0.0
 20
0.0
 30
0.0
  9
$UCSORGFRONT
 10
0.0
 20
0.0
 30
0.0
  9
$UCSORGBACK
 10
0.0
 20
0.0
 30
0.0
  9
$PUCSBASE
  2

  9
$PUCSNAME
  2

  9
$PUCSORG
 10
0.0
 20
0.0
 30
0.0
  9
$PUCSXDIR
 10
1.0
 20
0.0
 30
0.0
  9
$PUCSYDIR
 10
0.0
 20
1.0
 30
0.0
  9
$PUCSORTHOREF
  2

  9
$PUCSORTHOVIEW
 70
     0
  9
$PUCSORGTOP
 10
0.0
 20
0.0
 30
0.0
  9
$PUCSORGBOTTOM
 10
0.0
 20
0.0
 30
0.0
  9
$PUCSORGLEFT
 10
0.0
 20
0.0
 30
0.0
  9
$PUCSORGRIGHT
 10
0.0
 20
0.0
 30
0.0
  9
$PUCSORGFRONT
 10
0.0
 20
0.0
 30
0.0
  9
$PUCSORGBACK
 10
0.0
 20
0.0
 30
0.0
  9
$USERI1
 70
     0
  9
$USERI2
 70
     0
  9
$USERI3
 70
     0
  9
$USERI4
 70
     0
  9
$USERI5
 70
     0
  9
$USERR1
 40
0.0
  9
$USERR2
 40
0.0
  9
$USERR3
 40
0.0
  9
$USERR4
 40
0.0
  9
$USERR5
 40
0.0
  9
$WORLDVIEW
 70
     1
  9
$SHADEDGE
 70
     3
  9
$SHADEDIF
 70
    70
  9
$TILEMODE
 70
     1
  9
$MAXACTVP
 70
    16
  9
$PINSBASE
 10
0.0
 20
0.0
 30
0.0
  9
$PLIMCHECK
 70
     0
  9
$PEXTMIN
 10
1.000000000000000E+20
 20
1.000000000000000E+20
 30
1.000000000000000E+20
  9
$PEXTMAX
 10
-1.000000000000000E+20
 20
-1.000000000000000E+20
 30
-1.000000000000000E+20
  9
$PLIMMIN
 10
0.0
 20
0.0
  9
$PLIMMAX
 10
420.0
 20
297.0
  9
$UNITMODE
 70
     0
  9
$VISRETAIN
 70
     0
  9
$PLINEGEN
 70
     0
  9
$PSLTSCALE
 70
     0
  9
$TREEDEPTH
 70
  3020
  9
$CMLSTYLE
  2
STANDARD
  9
$CMLJUST
 70
     0
  9
$CMLSCALE
 40
1.0
  9
$PROXYGRAPHICS
 70
     1
  9
$MEASUREMENT
 70
     0
  9
$CELWEIGHT
370
    -1
  9
$ENDCAPS
280
     0
  9
$JOINSTYLE
280
     0
  9
$LWDISPLAY
290
     0
  9
$INSUNITS
 70
     0
  9
$HYPERLINKBASE
  1

  9
$STYLESHEET
  1

  9
$XEDIT
290
     1
  9
$CEPSNTYPE
380
     0
  9
$PSTYLEMODE
290
     1
  9
$FINGERPRINTGUID
  2
{4B296C19-084A-4B05-BDF6-EB8F1C8889DE}
  9
$VERSIONGUID
  2
{7EE2DE29-F06E-4019-9323-E341836C1A6F}
  9
$EXTNAMES
290
     1
  9
$PSVPSCALE
 40
0.0
  9
$OLESTARTUP
290
     0
  0
ENDSEC
  0
SECTION
  2
CLASSES
  0
CLASS
  1
ACDBDICTIONARYWDFLT
  2
AcDbDictionaryWithDefault
  3
ObjectDBX Classes
 90
        0
280
     0
281
     0
  0
CLASS
  1
ACDBPLACEHOLDER
  2
AcDbPlaceHolder
  3
ObjectDBX Classes
 90
        0
280
     0
281
     0
  0
CLASS
  1
LAYOUT
  2
AcDbLayout
  3
ObjectDBX Classes
 90
        0
280
     0
281
     0
  0
CLASS
  1
DICTIONARYVAR
  2
AcDbDictionaryVar
  3
ObjectDBX Classes
 90
        0
280
     0
281
     0
  0
CLASS
  1
MATERIAL
  2
AcDbMaterial
  3
ObjectDBX Classes
 90
     1153
280
     0
281
     0
  0
CLASS
  1
VISUALSTYLE
  2
AcDbVisualStyle
  3
ObjectDBX Classes
 90
     4095
280
     0
281
     0
  0
CLASS
  1
TABLESTYLE
  2
AcDbTableStyle
  3
ObjectDBX Classes
 90
     4095
280
     0
281
     0
  0
CLASS
  1
SCALE
  2
AcDbScale
  3
ObjectDBX Classes
 90
     1153
280
     0
281
     0
  0
CLASS
  1
MLEADERSTYLE
  2
AcDbMLeaderStyle
  3
ACDB_MLEADERSTYLE_CLASS
 90
     4095
280
     0
281
     0
  0
CLASS
  1
ACDBSECTIONVIEWSTYLE
  2
AcDbSectionViewStyle
  3
ObjectDBX Classes
 90
     1025
280
     0
281
     0
  0
CLASS
  1
ACDBDETAILVIEWSTYLE
  2
AcDbDetailViewStyle
  3
ObjectDBX Classes
 90
     1025
280
     0
281
     0
  0
CLASS
  1
CELLSTYLEMAP
  2
AcDbCellStyleMap
  3
ObjectDBX Classes
 90
     1152
280
     0
281
     0
  0
ENDSEC
  0
SECTION
  2
TABLES
  0
TABLE
  2
VPORT
  5
AD44
330
0
100
AcDbSymbolTable
 70
     1
  0
VPORT
  5
B1BD
330
AD44
100
AcDbSymbolTableRecord
100
AcDbViewportTableRecord
  2
*ACTIVE
 70
     0
 10
0.0
 20
0.0
 11
1.0
 21
1.0
 12
337.134120386145
 22
170.4557712868911
 13
0.0
 23
0.0
 14
10.0
 24
10.0
 15
10.0
 25
10.0
 16
0.0
 26
0.0
 36
1.0
 17
0.0
 27
0.0
 37
0.0
 40
324.4835199991634
 41
2.35006605019815
 42
50.0
 43
0.0
 44
0.0
 50
0.0
 51
0.0
 71
     0
 72
   100
 73
     1
 74
     0
 75
     0
 76
     0
 77
     0
 78
     0
281
     0
 65
     1
110
0.0
120
0.0
130
0.0
111
1.0
121
0.0
131
0.0
112
0.0
122
1.0
132
0.0
 79
     0
146
0.0
1001
ACAD_NAV_VCDISPLAY
1070
     3
  0
ENDTAB
  0
TABLE
  2
LTYPE
  5
AD41
330
0
100
AcDbSymbolTable
 70
     4
  0
LTYPE
  5
AD4F
330
AD41
100
AcDbSymbolTableRecord
100
AcDbLinetypeTableRecord
  2
BYBLOCK
 70
     0
  3

 72
    65
 73
     0
 40
0.0
  0
LTYPE
  5
AD50
330
AD41
100
AcDbSymbolTableRecord
100
AcDbLinetypeTableRecord
  2
BYLAYER
 70
     0
  3

 72
    65
 73
     0
 40
0.0
  0
LTYPE
  5
AD51
330
AD41
100
AcDbSymbolTableRecord
100
AcDbLinetypeTableRecord
  2
CONTINUOUS
 70
     0
  3
Solid line
 72
    65
 73
     0
 40
0.0
  0
LTYPE
  5
AD5F
330
AD41
100
AcDbSymbolTableRecord
100
AcDbLinetypeTableRecord
  2
DASHED
 70
     0
  3
__ __ __ __ __ __ __ __ __ __ __ __ __ __ __ __
 72
    65
 73
     2
 40
0.75
 49
0.5
 74
     0
 49
-0.25
 74
     0
  0
LTYPE
  5
AD60
330
AD41
100
AcDbSymbolTableRecord
100
AcDbLinetypeTableRecord
  2
CENTER
 70
     0
  3
____ _ ____ _ ____ _ ____ _ ____ _ ____ _ ____ 
 72
    65
 73
     4
 40
2.0
 49
1.25
 74
     0
 49
-0.25
 74
     0
 49
0.25
 74
     0
 49
-0.25
 74
     0
  0
LTYPE
  5
AD61
330
AD41
100
AcDbSymbolTableRecord
100
AcDbLinetypeTableRecord
  2
PHANTOM
 70
     0
  3
______  __  __  ______  __  __  ______  __  __ 
 72
    65
 73
     6
 40
2.5
 49
1.25
 74
     0
 49
-0.25
 74
     0
 49
0.25
 74
     0
 49
-0.25
 74
     0
 49
0.25
 74
     0
 49
-0.25
 74
     0
  0
ENDTAB
  0
TABLE
  2
LAYER
  5
AD3E
330
0
100
AcDbSymbolTable
 70
     8
  0
LAYER
  5
AD4C
102
{ACAD_XDICTIONARY
360
B218
102
}
330
AD3E
100
AcDbSymbolTableRecord
100
AcDbLayerTableRecord
  2
0
 70
     0
 62
     7
  6
CONTINUOUS
370
    -3
390
B1C6
  0
LAYER
  5
AD62
102
{ACAD_XDICTIONARY
360
B21A
102
}
330
AD3E
100
AcDbSymbolTableRecord
100
AcDbLayerTableRecord
  2
4
 70
     0
 62
     1
  6
CENTER
370
    -3
390
B1C6
  0
LAYER
  5
AD63
102
{ACAD_XDICTIONARY
360
B21C
102
}
330
AD3E
100
AcDbSymbolTableRecord
100
AcDbLayerTableRecord
  2
5
 70
     0
 62
     6
  6
PHANTOM
370
    -3
390
B1C6
  0
LAYER
  5
AD64
102
{ACAD_XDICTIONARY
360
B21E
102
}
330
AD3E
100
AcDbSymbolTableRecord
100
AcDbLayerTableRecord
  2
1
 70
     0
 62
     7
  6
CONTINUOUS
370
    -3
390
B1C6
  0
LAYER
  5
AD65
102
{ACAD_XDICTIONARY
360
B220
102
}
330
AD3E
100
AcDbSymbolTableRecord
100
AcDbLayerTableRecord
  2
2
 70
     0
 62
     4
  6
CONTINUOUS
370
    -3
390
B1C6
  0
LAYER
  5
AD66
102
{ACAD_XDICTIONARY
360
B222
102
}
330
AD3E
100
AcDbSymbolTableRecord
100
AcDbLayerTableRecord
  2
3
 70
     0
 62
     2
  6
DASHED
370
    -3
390
B1C6
  0
LAYER
  5
AD67
102
{ACAD_XDICTIONARY
360
B224
102
}
330
AD3E
100
AcDbSymbolTableRecord
100
AcDbLayerTableRecord
  2
6
 70
     0
 62
     5
  6
CONTINUOUS
370
    -3
390
B1C6
  0
LAYER
  5
AD68
102
{ACAD_XDICTIONARY
360
B226
102
}
330
AD3E
100
AcDbSymbolTableRecord
100
AcDbLayerTableRecord
  2
7
 70
     0
 62
     3
  6
CONTINUOUS
370
    -3
390
B1C6
  0
ENDTAB
  0
TABLE
  2
STYLE
  5
AD3F
330
0
100
AcDbSymbolTable
 70
     1
  0
STYLE
  5
AD4D
330
AD3F
100
AcDbSymbolTableRecord
100
AcDbTextStyleTableRecord
  2
STANDARD
 70
     0
 40
0.0
 41
1.0
 50
0.0
 71
     0
 42
5.0
  3
txt
  4

  0
ENDTAB
  0
TABLE
  2
VIEW
  5
AD42
330
0
100
AcDbSymbolTable
 70
     0
  0
ENDTAB
  0
TABLE
  2
UCS
  5
AD43
330
0
100
AcDbSymbolTable
 70
     0
  0
ENDTAB
  0
TABLE
  2
APPID
  5
AD45
330
0
100
AcDbSymbolTable
 70
     3
  0
APPID
  5
AD4E
330
AD45
100
AcDbSymbolTableRecord
100
AcDbRegAppTableRecord
  2
ACAD
 70
     0
  0
APPID
  5
B232
330
AD45
100
AcDbSymbolTableRecord
100
AcDbRegAppTableRecord
  2
ACAD_NAV_VCDISPLAY
 70
     0
  0
APPID
  5
B26B
330
AD45
100
AcDbSymbolTableRecord
100
AcDbRegAppTableRecord
  2
ACAD_MLEADERVER
 70
     0
  0
ENDTAB
  0
TABLE
  2
DIMSTYLE
  5
AD46
330
0
100
AcDbSymbolTable
 70
     1
100
AcDbDimStyleTable
 71
     0
  0
DIMSTYLE
105
AD6A
330
AD46
100
AcDbSymbolTableRecord
100
AcDbDimStyleTableRecord
  2
STANDARD
 70
     0
 41
3.0
 42
1.0
 43
10.0
 44
1.0
 73
     0
 74
     0
 77
     3
 78
     8
140
3.2
141
0.0
147
1.0
172
     1
173
     1
284
     8
285
     8
286
     8
340
AD4D
  0
ENDTAB
  0
TABLE
  2
BLOCK_RECORD
  5
AD3D
330
0
100
AcDbSymbolTable
 70
     1
  0
BLOCK_RECORD
  5
AD5A
102
{ACAD_XDICTIONARY
360
B1C0
102
}
330
AD3D
100
AcDbSymbolTableRecord
100
AcDbBlockTableRecord
  2
*MODEL_SPACE
340
B214
  0
BLOCK_RECORD
  5
AD56
102
{ACAD_XDICTIONARY
360
B1BE
102
}
330
AD3D
100
AcDbSymbolTableRecord
100
AcDbBlockTableRecord
  2
*PAPER_SPACE
340
B215
  0
BLOCK_RECORD
  5
AD72
330
AD3D
100
AcDbSymbolTableRecord
100
AcDbBlockTableRecord
  2
_OPEN
340
0
  0
ENDTAB
  0
ENDSEC
  0
SECTION
  2
BLOCKS
  0
BLOCK
  5
AD5B
330
AD5A
100
AcDbEntity
  8
0
100
AcDbBlockBegin
  2
*MODEL_SPACE
 70
     0
 10
0.0
 20
0.0
 30
0.0
  3
*MODEL_SPACE
  1

  0
ENDBLK
  5
AD5C
330
AD5A
100
AcDbEntity
  8
0
100
AcDbBlockEnd
  0
BLOCK
  5
AD57
330
AD56
100
AcDbEntity
 67
     1
  8
0
100
AcDbBlockBegin
  2
*PAPER_SPACE
 70
     0
 10
0.0
 20
0.0
 30
0.0
  3
*PAPER_SPACE
  1

  0
ENDBLK
  5
AD58
330
AD56
100
AcDbEntity
 67
     1
  8
0
100
AcDbBlockEnd
  0
BLOCK
  5
AD73
330
AD72
100
AcDbEntity
  8
0
100
AcDbBlockBegin
  2
_OPEN
 70
     0
 10
0.0
 20
0.0
 30
0.0
  3
_OPEN
  1

  0
LINE
  5
AD74
330
AD72
100
AcDbEntity
  8
0
  6
ByBlock
 62
     0
100
AcDbLine
 10
-1.0
 20
0.166667
 30
0.0
 11
0.0
 21
0.0
 31
0.0
  0
LINE
  5
AD75
330
AD72
100
AcDbEntity
  8
0
  6
ByBlock
 62
     0
100
AcDbLine
 10
0.0
 20
0.0
 30
0.0
 11
-1.0
 21
-0.166667
 31
0.0
  0
LINE
  5
AD76
330
AD72
100
AcDbEntity
  8
0
  6
ByBlock
 62
     0
100
AcDbLine
 10
0.0
 20
0.0
 30
0.0
 11
-1.0
 21
0.0
 31
0.0
  0
ENDBLK
  5
AD77
330
AD72
100
AcDbEntity
  8
0
100
AcDbBlockEnd
  0
ENDSEC
  0
SECTION
  2
ENTITIES
  0
TEXT
  5
AD78
330
AD5A
100
AcDbEntity
  8
7
  6
Continuous
100
AcDbText
 10
10.0
 20
18.0
 30
0.0
 40
3.0
  1
TYPE No.105S
100
AcDbText
  0
TEXT
  5
AD79
330
AD5A
100
AcDbEntity
  8
7
  6
Continuous
100
AcDbText
 10
10.0
 20
26.0
 30
0.0
 40
3.0
  1
CODE No.9016
100
AcDbText
  0
TEXT
  5
AD7A
330
AD5A
100
AcDbEntity
  8
1
  6
Continuous
100
AcDbText
 10
10.0
 20
10.0
 30
0.0
 40
1.399999999999999
  1
LAYER
100
AcDbText
  0
TEXT
  5
AD7B
330
AD5A
100
AcDbEntity
  8
1
  6
Continuous
100
AcDbText
 10
17.97951099999998
 20
10.04873699999998
 30
0.0
 40
1.399999999999999
  1
1
100
AcDbText
  0
TEXT
  5
AD7C
330
AD5A
100
AcDbEntity
  8
7
  6
Continuous
100
AcDbText
 10
29.97951099999999
 20
10.04873699999998
 30
0.0
 40
1.399999999999999
  1
7
100
AcDbText
  0
TEXT
  5
AD7D
330
AD5A
100
AcDbEntity
  8
4
  6
CENTER
100
AcDbText
 10
23.97951099999999
 20
10.04873699999998
 30
0.0
 40
1.399999999999999
  1
4
100
AcDbText
  0
TEXT
  5
AD7E
330
AD5A
100
AcDbEntity
  8
3
  6
DASHED
100
AcDbText
 10
21.979511
 20
10.04873699999998
 30
0.0
 40
1.399999999999999
  1
3
100
AcDbText
  0
TEXT
  5
AD7F
330
AD5A
100
AcDbEntity
  8
2
  6
Continuous
100
AcDbText
 10
19.97951099999999
 20
10.04873699999998
 30
0.0
 40
1.399999999999999
  1
2
100
AcDbText
  0
TEXT
  5
AD80
330
AD5A
100
AcDbEntity
  8
6
  6
Continuous
100
AcDbText
 10
27.979511
 20
10.04873699999998
 30
0.0
 40
1.399999999999999
  1
6
100
AcDbText
  0
TEXT
  5
AD81
330
AD5A
100
AcDbEntity
  8
5
  6
PHANTOM
100
AcDbText
 10
25.97951099999999
 20
10.04873699999998
 30
0.0
 40
1.399999999999999
  1
5
100
AcDbText
  0
CIRCLE
  5
AD82
330
AD5A
100
AcDbEntity
  8
1
  6
Continuous
100
AcDbCircle
 10
212.490146
 20
316.9206459999998
 30
0.0
 40
3.25
  0
CIRCLE
  5
AD83
330
AD5A
100
AcDbEntity
  8
1
  6
Continuous
100
AcDbCircle
 10
212.490146
 20
280.920646
 30
0.0
 40
3.25
  0
CIRCLE
  5
AD84
330
AD5A
100
AcDbEntity
  8
1
  6
Continuous
100
AcDbCircle
 10
158.490146
 20
280.920646
 30
0.0
 40
3.25
  0
CIRCLE
  5
AD85
330
AD5A
100
AcDbEntity
  8
1
  6
Continuous
100
AcDbCircle
 10
158.490146
 20
316.9206459999998
 30
0.0
 40
3.25
  0
CIRCLE
  5
AD86
330
AD5A
100
AcDbEntity
  8
1
  6
Continuous
100
AcDbCircle
 10
185.490146
 20
298.9206459999999
 30
0.0
 40
23.5
  0
CIRCLE
  5
AD87
330
AD5A
100
AcDbEntity
  8
1
  6
Continuous
100
AcDbCircle
 10
185.490146
 20
298.9206459999999
 30
0.0
 40
20.89999999999999
  0
CIRCLE
  5
AD88
330
AD5A
100
AcDbEntity
  8
1
  6
Continuous
100
AcDbCircle
 10
185.490146
 20
298.9206459999999
 30
0.0
 40
12.0
  0
ARC
  5
AD89
330
AD5A
100
AcDbEntity
  8
1
  6
Continuous
100
AcDbCircle
 10
205.427976
 20
211.132781
 30
0.0
 40
4.377608
100
AcDbArc
 50
8.294477
 51
67.581971
  0
ARC
  5
AD8A
330
AD5A
100
AcDbEntity
  8
1
  6
Continuous
100
AcDbCircle
 10
80.27936399999999
 20
191.216185
 30
0.0
 40
131.100749
100
AcDbArc
 50
7.561295
 51
9.017450999999999
  0
ARC
  5
AD8B
330
AD5A
100
AcDbEntity
  8
1
  6
Continuous
100
AcDbCircle
 10
160.854892
 20
214.858092
 30
0.0
 40
1.997709
100
AcDbArc
 50
270.1599779999999
 51
299.197035
  0
ARC
  5
AD8C
330
AD5A
100
AcDbEntity
  8
1
  6
Continuous
100
AcDbCircle
 10
165.5953659999999
 20
211.2232759999999
 30
0.0
 40
4.224822999999998
100
AcDbArc
 50
110.5384659999999
 51
148.632099
  0
ARC
  5
AD8D
330
AD5A
100
AcDbEntity
  8
1
  6
Continuous
100
AcDbCircle
 10
161.6764959999999
 20
213.3878249999999
 30
0.0
 40
0.313453
100
AcDbArc
 50
299.197035
 51
6.338015999999998
  0
LINE
  5
AD8E
330
AD5A
100
AcDbEntity
  8
1
  6
Continuous
100
AcDbLine
 10
210.240147
 20
208.4673099999998
 30
0.0
 11
202.222361
 21
208.4673099999998
 31
0.0
  0
LINE
  5
AD8F
330
AD5A
100
AcDbEntity
  8
1
  6
Continuous
100
AcDbLine
 10
220.490146
 20
221.917417
 30
0.0
 11
150.490146
 21
221.917417
 31
0.0
  0
ARC
  5
AD90
330
AD5A
100
AcDbEntity
  8
1
  6
Continuous
100
AcDbCircle
 10
205.2460299999999
 20
230.5325559999999
 30
0.0
 40
10.64
100
AcDbArc
 50
270.0
 51
305.934008
  0
ARC
  5
AD91
330
AD5A
100
AcDbEntity
  8
1
  6
Continuous
100
AcDbCircle
 10
165.734262
 20
230.5325559999999
 30
0.0
 40
10.64
100
AcDbArc
 50
234.0659919999999
 51
270.0
  0
LINE
  5
AD92
330
AD5A
100
AcDbEntity
  8
1
  6
Continuous
100
AcDbLine
 10
205.2460299999999
 20
219.892556
 30
0.0
 11
165.734262
 21
219.892556
 31
0.0
  0
LINE
  5
AD93
330
AD5A
100
AcDbEntity
  8
1
  6
Continuous
100
AcDbLine
 10
220.490146
 20
224.2177
 30
0.0
 11
150.490146
 21
224.2177
 31
0.0
  0
ARC
  5
AD94
330
AD5A
100
AcDbEntity
  8
1
  6
Continuous
100
AcDbCircle
 10
208.216259
 20
217.2349639999999
 30
0.0
 40
0.9569799999999998
100
AcDbArc
 50
24.04026499999999
 51
73.98808699999998
  0
LINE
  5
AD95
330
AD5A
100
AcDbEntity
  8
1
  6
Continuous
100
AcDbLine
 10
208.48023
 20
218.1548169999998
 30
0.0
 11
207.66523
 21
218.1548169999998
 31
0.0
  0
LINE
  5
AD96
330
AD5A
100
AcDbEntity
  8
1
  6
Continuous
100
AcDbLine
 10
207.66523
 20
218.1548169999998
 30
0.0
 11
207.49523
 21
218.514817
 31
0.0
  0
ARC
  5
AD97
330
AD5A
100
AcDbEntity
  8
1
  6
Continuous
100
AcDbCircle
 10
204.878748
 20
219.7050439999999
 30
0.0
 40
4.697225
100
AcDbArc
 50
319.789963
 51
333.713305
  0
ARC
  5
AD98
330
AD5A
100
AcDbEntity
  8
1
  6
Continuous
100
AcDbCircle
 10
202.676648
 20
214.603845
 30
0.0
 40
6.206
100
AcDbArc
 50
39.064301
 51
58.798683
  0
ARC
  5
AD99
330
AD5A
100
AcDbEntity
  8
1
  6
Continuous
100
AcDbCircle
 10
162.7640319999999
 20
217.2349639999999
 30
0.0
 40
0.9569799999999998
100
AcDbArc
 50
106.011913
 51
155.9597349999999
  0
LINE
  5
AD9A
330
AD5A
100
AcDbEntity
  8
1
  6
Continuous
100
AcDbLine
 10
162.500062
 20
218.1548169999998
 30
0.0
 11
163.315062
 21
218.1548169999998
 31
0.0
  0
LINE
  5
AD9B
330
AD5A
100
AcDbEntity
  8
1
  6
Continuous
100
AcDbLine
 10
163.315062
 20
218.1548169999998
 30
0.0
 11
163.4850619999999
 21
218.514817
 31
0.0
  0
ARC
  5
AD9C
330
AD5A
100
AcDbEntity
  8
1
  6
Continuous
100
AcDbCircle
 10
166.1015439999999
 20
219.7050439999999
 30
0.0
 40
4.697225
100
AcDbArc
 50
206.286695
 51
220.210037
  0
ARC
  5
AD9D
330
AD5A
100
AcDbEntity
  8
1
  6
Continuous
100
AcDbCircle
 10
168.3036439999999
 20
214.603845
 30
0.0
 40
6.206
100
AcDbArc
 50
121.2013169999998
 51
140.935699
  0
LINE
  5
AD9E
330
AD5A
100
AcDbEntity
  8
1
  6
Continuous
100
AcDbLine
 10
207.66523
 20
218.1548169999998
 30
0.0
 11
163.315062
 21
218.1548169999998
 31
0.0
  0
LINE
  5
AD9F
330
AD5A
100
AcDbEntity
  8
1
  6
Continuous
100
AcDbLine
 10
208.490146
 20
216.6725559999999
 30
0.0
 11
162.490146
 21
216.6725559999999
 31
0.0
  0
ARC
  5
ADA0
330
AD5A
100
AcDbEntity
  8
1
  6
Continuous
100
AcDbCircle
 10
160.490146
 20
175.717882
 30
0.0
 40
31.5
100
AcDbArc
 50
96.61782700000001
 51
149.9482249999998
  0
LINE
  5
ADA1
330
AD5A
100
AcDbEntity
  8
1
  6
Continuous
100
AcDbLine
 10
150.490146
 20
288.4206459999999
 30
0.0
 11
131.5568719999999
 21
288.4206459999999
 31
0.0
  0
LINE
  5
ADA2
330
AD5A
100
AcDbEntity
  8
1
  6
Continuous
100
AcDbLine
 10
150.490146
 20
285.9206459999999
 30
0.0
 11
147.9886639999998
 21
285.9206459999999
 31
0.0
  0
ARC
  5
ADA3
330
AD5A
100
AcDbEntity
  8
1
  6
Continuous
100
AcDbCircle
 10
168.990146
 20
298.9206459999999
 30
0.0
 40
40.0
100
AcDbArc
 50
166.48065
 51
193.518908
  0
ARC
  5
ADA4
330
AD5A
100
AcDbEntity
  8
1
  6
Continuous
100
AcDbCircle
 10
131.5568719999999
 20
289.9206459999998
 30
0.0
 40
1.5
100
AcDbArc
 50
193.518908
 51
270.0
  0
LINE
  5
ADA5
330
AD5A
100
AcDbEntity
  8
1
  6
Continuous
100
AcDbLine
 10
144.418294
 20
288.4206459999999
 30
0.0
 11
147.9886639999998
 21
285.9206459999999
 31
0.0
  0
LINE
  5
ADA6
330
AD5A
100
AcDbEntity
  8
1
  6
Continuous
100
AcDbLine
 10
150.490146
 20
309.4206459999999
 30
0.0
 11
131.5568719999999
 21
309.4206459999999
 31
0.0
  0
LINE
  5
ADA7
330
AD5A
100
AcDbEntity
  8
1
  6
Continuous
100
AcDbLine
 10
150.490146
 20
311.920646
 30
0.0
 11
147.9886639999998
 21
311.920646
 31
0.0
  0
ARC
  5
ADA8
330
AD5A
100
AcDbEntity
  8
1
  6
Continuous
100
AcDbCircle
 10
131.5568719999999
 20
307.9206459999999
 30
0.0
 40
1.5
100
AcDbArc
 50
90.0
 51
166.4810919999998
  0
LINE
  5
ADA9
330
AD5A
100
AcDbEntity
  8
1
  6
Continuous
100
AcDbLine
 10
144.418294
 20
309.4206459999999
 30
0.0
 11
147.9886639999998
 21
311.920646
 31
0.0
  0
LINE
  5
ADAA
330
AD5A
100
AcDbEntity
  8
1
  6
Continuous
100
AcDbLine
 10
268.9924409999999
 20
221.9173819999999
 30
0.0
 11
322.9924409999999
 21
221.9173819999999
 31
0.0
  0
ARC
  5
ADAB
330
AD5A
100
AcDbEntity
  8
1
  6
Continuous
100
AcDbCircle
 10
276.236557
 20
230.5325199999999
 30
0.0
 40
10.64
100
AcDbArc
 50
234.0659919999999
 51
270.0
  0
ARC
  5
ADAC
330
AD5A
100
AcDbEntity
  8
1
  6
Continuous
100
AcDbCircle
 10
315.748325
 20
230.5325199999999
 30
0.0
 40
10.64
100
AcDbArc
 50
270.0
 51
305.934008
  0
LINE
  5
ADAD
330
AD5A
100
AcDbEntity
  8
1
  6
Continuous
100
AcDbLine
 10
276.236557
 20
219.89252
 30
0.0
 11
315.748325
 21
219.89252
 31
0.0
  0
LINE
  5
ADAE
330
AD5A
100
AcDbEntity
  8
1
  6
Continuous
100
AcDbLine
 10
268.9924409999999
 20
224.2176649999999
 30
0.0
 11
322.9924409999999
 21
224.2176649999999
 31
0.0
  0
ARC
  5
ADAF
330
AD5A
100
AcDbEntity
  8
1
  6
Continuous
100
AcDbCircle
 10
273.2663269999998
 20
217.234929
 30
0.0
 40
0.9569799999999998
100
AcDbArc
 50
106.011913
 51
155.9597349999999
  0
LINE
  5
ADB0
330
AD5A
100
AcDbEntity
  8
1
  6
Continuous
100
AcDbLine
 10
273.0023569999999
 20
218.154782
 30
0.0
 11
273.8173569999998
 21
218.154782
 31
0.0
  0
LINE
  5
ADB1
330
AD5A
100
AcDbEntity
  8
1
  6
Continuous
100
AcDbLine
 10
273.8173569999998
 20
218.154782
 30
0.0
 11
273.9873569999999
 21
218.514782
 31
0.0
  0
ARC
  5
ADB2
330
AD5A
100
AcDbEntity
  8
1
  6
Continuous
100
AcDbCircle
 10
276.6038389999998
 20
219.7050089999999
 30
0.0
 40
4.697225
100
AcDbArc
 50
206.286695
 51
220.210037
  0
ARC
  5
ADB3
330
AD5A
100
AcDbEntity
  8
1
  6
Continuous
100
AcDbCircle
 10
278.805939
 20
214.6038089999999
 30
0.0
 40
6.206
100
AcDbArc
 50
121.2013169999998
 51
140.935699
  0
ARC
  5
ADB4
330
AD5A
100
AcDbEntity
  8
1
  6
Continuous
100
AcDbCircle
 10
318.7185549999999
 20
217.234929
 30
0.0
 40
0.9569799999999998
100
AcDbArc
 50
24.04026499999999
 51
73.98808699999998
  0
LINE
  5
ADB5
330
AD5A
100
AcDbEntity
  8
1
  6
Continuous
100
AcDbLine
 10
318.982525
 20
218.154782
 30
0.0
 11
318.167525
 21
218.154782
 31
0.0
  0
LINE
  5
ADB6
330
AD5A
100
AcDbEntity
  8
1
  6
Continuous
100
AcDbLine
 10
318.167525
 20
218.154782
 30
0.0
 11
317.997525
 21
218.514782
 31
0.0
  0
ARC
  5
ADB7
330
AD5A
100
AcDbEntity
  8
1
  6
Continuous
100
AcDbCircle
 10
315.381043
 20
219.7050089999999
 30
0.0
 40
4.697225
100
AcDbArc
 50
319.789963
 51
333.713305
  0
ARC
  5
ADB8
330
AD5A
100
AcDbEntity
  8
1
  6
Continuous
100
AcDbCircle
 10
313.1789429999999
 20
214.6038089999999
 30
0.0
 40
6.206
100
AcDbArc
 50
39.064301
 51
58.798683
  0
LINE
  5
ADB9
330
AD5A
100
AcDbEntity
  8
1
  6
Continuous
100
AcDbLine
 10
273.8173569999998
 20
218.154782
 30
0.0
 11
318.167525
 21
218.154782
 31
0.0
  0
LINE
  5
ADBA
330
AD5A
100
AcDbEntity
  8
1
  6
Continuous
100
AcDbLine
 10
272.9924409999999
 20
216.67252
 30
0.0
 11
318.9924409999999
 21
216.67252
 31
0.0
  0
LINE
  5
ADBB
330
AD5A
100
AcDbEntity
  8
1
  6
Continuous
100
AcDbLine
 10
271.2424410000001
 20
211.191224
 30
0.0
 11
271.2424410000001
 21
189.4850059999999
 31
0.0
  0
LINE
  5
ADBC
330
AD5A
100
AcDbEntity
  8
1
  6
Continuous
100
AcDbLine
 10
320.7424409999999
 20
211.191224
 30
0.0
 11
320.7424409999999
 21
189.4850059999999
 31
0.0
  0
ARC
  5
ADBD
330
AD5A
100
AcDbEntity
  8
1
  6
Continuous
100
AcDbCircle
 10
275.2424409999999
 20
211.191224
 30
0.0
 40
4.0
100
AcDbArc
 50
94.384039
 51
180.0
  0
ARC
  5
ADBE
330
AD5A
100
AcDbEntity
  8
1
  6
Continuous
100
AcDbCircle
 10
316.7424409999999
 20
211.191224
 30
0.0
 40
4.0
100
AcDbArc
 50
0.0
 51
85.615961
  0
ARC
  5
ADBF
330
AD5A
100
AcDbEntity
  8
1
  6
Continuous
100
AcDbCircle
 10
292.5841909999999
 20
189.4850059999999
 30
0.0
 40
28.15825
100
AcDbArc
 50
323.663991
 51
0.0
  0
ARC
  5
ADC0
330
AD5A
100
AcDbEntity
  8
1
  6
Continuous
100
AcDbCircle
 10
299.4006909999999
 20
189.4850059999999
 30
0.0
 40
28.15825
100
AcDbArc
 50
180.0
 51
182.984359
  0
LINE
  5
ADC1
330
AD5A
100
AcDbEntity
  8
1
  6
Continuous
100
AcDbLine
 10
275.0637259999999
 20
208.46721
 30
0.0
 11
316.9211559999999
 21
208.46721
 31
0.0
  0
ARC
  5
ADC2
330
AD5A
100
AcDbEntity
  8
1
  6
Continuous
100
AcDbCircle
 10
353.326634
 20
189.4850059999999
 30
0.0
 40
82.084193
100
AcDbArc
 50
167.757229
 51
180.0
  0
ARC
  5
ADC3
330
AD5A
100
AcDbEntity
  8
1
  6
Continuous
100
AcDbCircle
 10
353.326634
 20
189.4850059999999
 30
0.0
 40
79.784193
100
AcDbArc
 50
167.389352
 51
180.0
  0
ARC
  5
ADC4
330
AD5A
100
AcDbEntity
  8
1
  6
Continuous
100
AcDbCircle
 10
275.0637259999999
 20
206.46721
 30
0.0
 40
2.0
100
AcDbArc
 50
90.0
 51
167.757229
  0
ARC
  5
ADC5
330
AD5A
100
AcDbEntity
  8
1
  6
Continuous
100
AcDbCircle
 10
277.4188909999999
 20
206.46721
 30
0.0
 40
2.0
100
AcDbArc
 50
90.0
 51
167.389352
  0
ARC
  5
ADC6
330
AD5A
100
AcDbEntity
  8
1
  6
Continuous
100
AcDbCircle
 10
292.5841909999999
 20
189.4850059999999
 30
0.0
 40
25.85825
100
AcDbArc
 50
322.428066
 51
0.0
  0
ARC
  5
ADC7
330
AD5A
100
AcDbEntity
  8
1
  6
Continuous
100
AcDbCircle
 10
238.6582479999999
 20
189.4850059999999
 30
0.0
 40
82.084193
100
AcDbArc
 50
0.0
 51
12.242771
  0
ARC
  5
ADC8
330
AD5A
100
AcDbEntity
  8
1
  6
Continuous
100
AcDbCircle
 10
238.6582479999999
 20
189.4850059999999
 30
0.0
 40
79.784193
100
AcDbArc
 50
0.0
 51
12.61064799999999
  0
ARC
  5
ADC9
330
AD5A
100
AcDbEntity
  8
1
  6
Continuous
100
AcDbCircle
 10
316.9211559999999
 20
206.46721
 30
0.0
 40
2.0
100
AcDbArc
 50
12.242771
 51
90.0
  0
ARC
  5
ADCA
330
AD5A
100
AcDbEntity
  8
1
  6
Continuous
100
AcDbCircle
 10
314.565991
 20
206.46721
 30
0.0
 40
2.0
100
AcDbArc
 50
12.61064799999999
 51
90.0
  0
ARC
  5
ADCB
330
AD5A
100
AcDbEntity
  8
1
  6
Continuous
100
AcDbCircle
 10
304.992441
 20
204.651056
 30
0.0
 40
1.5
100
AcDbArc
 50
0.0
 51
36.98973999999999
  0
ARC
  5
ADCC
330
AD5A
100
AcDbEntity
  8
1
  6
Continuous
100
AcDbCircle
 10
286.9924409999999
 20
204.651056
 30
0.0
 40
1.5
100
AcDbArc
 50
143.0102599999999
 51
180.0
  0
LINE
  5
ADCD
330
AD5A
100
AcDbEntity
  8
1
  6
Continuous
100
AcDbLine
 10
282.9924409999999
 20
188.2192639999999
 30
0.0
 11
282.9924409999999
 21
163.2163
 31
0.0
  0
LINE
  5
ADCE
330
AD5A
100
AcDbEntity
  8
1
  6
Continuous
100
AcDbLine
 10
308.992441
 20
185.2177819999998
 30
0.0
 11
310.4924409999999
 21
183.7177819999998
 31
0.0
  0
LINE
  5
ADCF
330
AD5A
100
AcDbEntity
  8
1
  6
Continuous
100
AcDbLine
 10
282.9924409999999
 20
185.2177819999998
 30
0.0
 11
281.4924409999999
 21
183.7177819999998
 31
0.0
  0
LINE
  5
ADD0
330
AD5A
100
AcDbEntity
  8
1
  6
Continuous
100
AcDbLine
 10
306.4924409999999
 20
191.789634
 30
0.0
 11
308.992441
 21
188.2192639999999
 31
0.0
  0
LINE
  5
ADD1
330
AD5A
100
AcDbEntity
  8
1
  6
Continuous
100
AcDbLine
 10
285.4924409999999
 20
191.789634
 30
0.0
 11
282.9924409999999
 21
188.2192639999999
 31
0.0
  0
LINE
  5
ADD2
330
AD5A
100
AcDbEntity
  8
1
  6
Continuous
100
AcDbLine
 10
281.4924409999999
 20
167.7177819999998
 30
0.0
 11
281.4924409999999
 21
183.7177819999998
 31
0.0
  0
LINE
  5
ADD3
330
AD5A
100
AcDbEntity
  8
1
  6
Continuous
100
AcDbLine
 10
306.4924409999999
 20
146.7845079999999
 30
0.0
 11
306.4924409999999
 21
204.651056
 31
0.0
  0
LINE
  5
ADD4
330
AD5A
100
AcDbEntity
  8
1
  6
Continuous
100
AcDbLine
 10
285.4924409999999
 20
146.7845079999999
 30
0.0
 11
285.4924409999999
 21
204.651056
 31
0.0
  0
ARC
  5
ADD5
330
AD5A
100
AcDbEntity
  8
1
  6
Continuous
100
AcDbCircle
 10
295.9924409999999
 20
184.217782
 30
0.0
 40
40.0
100
AcDbArc
 50
256.4810919999998
 51
283.518908
  0
ARC
  5
ADD6
330
AD5A
100
AcDbEntity
  8
1
  6
Continuous
100
AcDbCircle
 10
304.992441
 20
146.7845079999999
 30
0.0
 40
1.5
100
AcDbArc
 50
283.518908
 51
0.0
  0
ARC
  5
ADD7
330
AD5A
100
AcDbEntity
  8
1
  6
Continuous
100
AcDbCircle
 10
286.9924409999999
 20
146.7845079999999
 30
0.0
 40
1.5
100
AcDbArc
 50
180.0
 51
256.4810919999998
  0
LINE
  5
ADD8
330
AD5A
100
AcDbEntity
  8
1
  6
Continuous
100
AcDbLine
 10
308.992441
 20
163.2163
 30
0.0
 11
308.992441
 21
188.2192639999999
 31
0.0
  0
LINE
  5
ADD9
330
AD5A
100
AcDbEntity
  8
1
  6
Continuous
100
AcDbLine
 10
308.992441
 20
166.217782
 30
0.0
 11
310.4924409999999
 21
167.7177819999998
 31
0.0
  0
LINE
  5
ADDA
330
AD5A
100
AcDbEntity
  8
1
  6
Continuous
100
AcDbLine
 10
282.9924409999999
 20
166.217782
 30
0.0
 11
281.4924409999999
 21
167.7177819999998
 31
0.0
  0
LINE
  5
ADDB
330
AD5A
100
AcDbEntity
  8
1
  6
Continuous
100
AcDbLine
 10
306.4924409999999
 20
159.64593
 30
0.0
 11
308.992441
 21
163.2163
 31
0.0
  0
LINE
  5
ADDC
330
AD5A
100
AcDbEntity
  8
1
  6
Continuous
100
AcDbLine
 10
285.4924409999999
 20
159.64593
 30
0.0
 11
282.9924409999999
 21
163.2163
 31
0.0
  0
LINE
  5
ADDD
330
AD5A
100
AcDbEntity
  8
1
  6
Continuous
100
AcDbLine
 10
310.4924409999999
 20
167.7177819999998
 30
0.0
 11
310.4924409999999
 21
183.7177819999998
 31
0.0
  0
LINE
  5
ADDE
330
AD5A
100
AcDbEntity
  8
1
  6
Continuous
100
AcDbLine
 10
280.5886899999998
 20
165.1057189999999
 30
0.0
 11
277.2598049999999
 21
165.1057189999999
 31
0.0
  0
LINE
  5
ADDF
330
AD5A
100
AcDbEntity
  8
1
  6
Continuous
100
AcDbLine
 10
280.4497519999998
 20
179.7177819999998
 30
0.0
 11
281.4924409999999
 21
179.7177819999998
 31
0.0
  0
LINE
  5
ADE0
330
AD5A
100
AcDbEntity
  8
1
  6
Continuous
100
AcDbLine
 10
310.4924409999999
 20
179.7177819999998
 30
0.0
 11
311.5351309999998
 21
179.7177819999998
 31
0.0
  0
LINE
  5
ADE1
330
AD5A
100
AcDbEntity
  8
1
  6
Continuous
100
AcDbLine
 10
280.534866
 20
171.717782
 30
0.0
 11
281.4924409999999
 21
171.717782
 31
0.0
  0
LINE
  5
ADE2
330
AD5A
100
AcDbEntity
  8
1
  6
Continuous
100
AcDbLine
 10
310.4924409999999
 20
171.717782
 30
0.0
 11
311.4500159999999
 21
171.717782
 31
0.0
  0
LINE
  5
ADE3
330
AD5A
100
AcDbEntity
  8
1
  6
Continuous
100
AcDbLine
 10
162.490146
 20
215.179556
 30
0.0
 11
208.490146
 21
215.179556
 31
0.0
  0
LINE
  5
ADE4
330
AD5A
100
AcDbEntity
  8
1
  6
Continuous
100
AcDbLine
 10
208.490146
 20
216.6725559999999
 30
0.0
 11
208.490146
 21
215.179556
 31
0.0
  0
LINE
  5
ADE5
330
AD5A
100
AcDbEntity
  8
1
  6
Continuous
100
AcDbLine
 10
162.490146
 20
216.6725559999999
 30
0.0
 11
162.490146
 21
215.179556
 31
0.0
  0
LINE
  5
ADE6
330
AD5A
100
AcDbEntity
  8
1
  6
Continuous
100
AcDbLine
 10
318.9924409999999
 20
215.17952
 30
0.0
 11
272.9924409999999
 21
215.17952
 31
0.0
  0
LINE
  5
ADE7
330
AD5A
100
AcDbEntity
  8
1
  6
Continuous
100
AcDbLine
 10
272.9924409999999
 20
216.67252
 30
0.0
 11
272.9924409999999
 21
215.17952
 31
0.0
  0
LINE
  5
ADE8
330
AD5A
100
AcDbEntity
  8
1
  6
Continuous
100
AcDbLine
 10
318.9924409999999
 20
216.67252
 30
0.0
 11
318.9924409999999
 21
215.17952
 31
0.0
  0
ARC
  5
ADE9
330
AD5A
100
AcDbEntity
  8
1
  6
Continuous
100
AcDbCircle
 10
160.490146
 20
175.717882
 30
0.0
 40
24.0
100
AcDbArc
 50
102.730931
 51
145.488629
  0
LINE
  5
ADEA
330
AD5A
100
AcDbEntity
  8
1
  6
Continuous
100
AcDbLine
 10
187.490146
 20
215.179556
 30
0.0
 11
185.490146
 21
216.6725559999999
 31
0.0
  0
LINE
  5
ADEB
330
AD5A
100
AcDbEntity
  8
1
  6
Continuous
100
AcDbLine
 10
186.0759319999999
 20
215.179556
 30
0.0
 11
184.075932
 21
216.6725559999999
 31
0.0
  0
LINE
  5
ADEC
330
AD5A
100
AcDbEntity
  8
1
  6
Continuous
100
AcDbLine
 10
184.661719
 20
215.179556
 30
0.0
 11
182.661719
 21
216.6725559999999
 31
0.0
  0
LINE
  5
ADED
330
AD5A
100
AcDbEntity
  8
1
  6
Continuous
100
AcDbLine
 10
183.247505
 20
215.179556
 30
0.0
 11
181.2475049999999
 21
216.6725559999999
 31
0.0
  0
LINE
  5
ADEE
330
AD5A
100
AcDbEntity
  8
1
  6
Continuous
100
AcDbLine
 10
181.8332919999998
 20
215.179556
 30
0.0
 11
179.833292
 21
216.6725559999999
 31
0.0
  0
LINE
  5
ADEF
330
AD5A
100
AcDbEntity
  8
1
  6
Continuous
100
AcDbLine
 10
180.419078
 20
215.179556
 30
0.0
 11
178.419078
 21
216.6725559999999
 31
0.0
  0
LINE
  5
ADF0
330
AD5A
100
AcDbEntity
  8
1
  6
Continuous
100
AcDbLine
 10
179.0048649999999
 20
215.179556
 30
0.0
 11
177.0048649999999
 21
216.6725559999999
 31
0.0
  0
LINE
  5
ADF1
330
AD5A
100
AcDbEntity
  8
1
  6
Continuous
100
AcDbLine
 10
177.590651
 20
215.179556
 30
0.0
 11
175.590651
 21
216.6725559999999
 31
0.0
  0
LINE
  5
ADF2
330
AD5A
100
AcDbEntity
  8
1
  6
Continuous
100
AcDbLine
 10
176.1764369999999
 20
215.179556
 30
0.0
 11
174.176437
 21
216.6725559999999
 31
0.0
  0
LINE
  5
ADF3
330
AD5A
100
AcDbEntity
  8
1
  6
Continuous
100
AcDbLine
 10
174.762224
 20
215.179556
 30
0.0
 11
172.762224
 21
216.6725559999999
 31
0.0
  0
LINE
  5
ADF4
330
AD5A
100
AcDbEntity
  8
1
  6
Continuous
100
AcDbLine
 10
173.3480099999999
 20
215.179556
 30
0.0
 11
171.3480099999999
 21
216.6725559999999
 31
0.0
  0
LINE
  5
ADF5
330
AD5A
100
AcDbEntity
  8
1
  6
Continuous
100
AcDbLine
 10
171.9337969999999
 20
215.179556
 30
0.0
 11
169.933797
 21
216.6725559999999
 31
0.0
  0
LINE
  5
ADF6
330
AD5A
100
AcDbEntity
  8
1
  6
Continuous
100
AcDbLine
 10
170.519583
 20
215.179556
 30
0.0
 11
168.519583
 21
216.6725559999999
 31
0.0
  0
LINE
  5
ADF7
330
AD5A
100
AcDbEntity
  8
1
  6
Continuous
100
AcDbLine
 10
169.1053699999999
 20
215.179556
 30
0.0
 11
167.1053699999999
 21
216.6725559999999
 31
0.0
  0
LINE
  5
ADF8
330
AD5A
100
AcDbEntity
  8
1
  6
Continuous
100
AcDbLine
 10
167.691156
 20
215.179556
 30
0.0
 11
165.691156
 21
216.6725559999999
 31
0.0
  0
LINE
  5
ADF9
330
AD5A
100
AcDbEntity
  8
1
  6
Continuous
100
AcDbLine
 10
166.2769429999999
 20
215.179556
 30
0.0
 11
164.2769429999999
 21
216.6725559999999
 31
0.0
  0
LINE
  5
ADFA
330
AD5A
100
AcDbEntity
  8
1
  6
Continuous
100
AcDbLine
 10
164.862729
 20
215.179556
 30
0.0
 11
162.862729
 21
216.6725559999999
 31
0.0
  0
LINE
  5
ADFB
330
AD5A
100
AcDbEntity
  8
1
  6
Continuous
100
AcDbLine
 10
163.4485149999999
 20
215.179556
 30
0.0
 11
162.490146
 21
216.1379249999999
 31
0.0
  0
LINE
  5
ADFC
330
AD5A
100
AcDbEntity
  8
1
  6
Continuous
100
AcDbLine
 10
188.9043599999999
 20
215.179556
 30
0.0
 11
186.9043599999999
 21
216.6725559999999
 31
0.0
  0
LINE
  5
ADFD
330
AD5A
100
AcDbEntity
  8
1
  6
Continuous
100
AcDbLine
 10
190.3185729999999
 20
215.179556
 30
0.0
 11
188.3185729999999
 21
216.6725559999999
 31
0.0
  0
LINE
  5
ADFE
330
AD5A
100
AcDbEntity
  8
1
  6
Continuous
100
AcDbLine
 10
191.732787
 20
215.179556
 30
0.0
 11
189.7327869999998
 21
216.6725559999999
 31
0.0
  0
LINE
  5
ADFF
330
AD5A
100
AcDbEntity
  8
1
  6
Continuous
100
AcDbLine
 10
193.147
 20
215.179556
 30
0.0
 11
191.1469999999999
 21
216.6725559999999
 31
0.0
  0
LINE
  5
AE00
330
AD5A
100
AcDbEntity
  8
1
  6
Continuous
100
AcDbLine
 10
194.5612139999999
 20
215.179556
 30
0.0
 11
192.5612139999999
 21
216.6725559999999
 31
0.0
  0
LINE
  5
AE01
330
AD5A
100
AcDbEntity
  8
1
  6
Continuous
100
AcDbLine
 10
195.9754269999999
 20
215.179556
 30
0.0
 11
193.975427
 21
216.6725559999999
 31
0.0
  0
LINE
  5
AE02
330
AD5A
100
AcDbEntity
  8
1
  6
Continuous
100
AcDbLine
 10
197.3896409999999
 20
215.179556
 30
0.0
 11
195.3896409999999
 21
216.6725559999999
 31
0.0
  0
LINE
  5
AE03
330
AD5A
100
AcDbEntity
  8
1
  6
Continuous
100
AcDbLine
 10
198.8038539999998
 20
215.179556
 30
0.0
 11
196.803854
 21
216.6725559999999
 31
0.0
  0
LINE
  5
AE04
330
AD5A
100
AcDbEntity
  8
1
  6
Continuous
100
AcDbLine
 10
200.2180679999999
 20
215.179556
 30
0.0
 11
198.2180679999999
 21
216.6725559999999
 31
0.0
  0
LINE
  5
AE05
330
AD5A
100
AcDbEntity
  8
1
  6
Continuous
100
AcDbLine
 10
201.632282
 20
215.179556
 30
0.0
 11
199.6322819999998
 21
216.6725559999999
 31
0.0
  0
LINE
  5
AE06
330
AD5A
100
AcDbEntity
  8
1
  6
Continuous
100
AcDbLine
 10
203.0464949999999
 20
215.179556
 30
0.0
 11
201.0464949999999
 21
216.6725559999999
 31
0.0
  0
LINE
  5
AE07
330
AD5A
100
AcDbEntity
  8
1
  6
Continuous
100
AcDbLine
 10
204.4607089999999
 20
215.179556
 30
0.0
 11
202.4607089999999
 21
216.6725559999999
 31
0.0
  0
LINE
  5
AE08
330
AD5A
100
AcDbEntity
  8
1
  6
Continuous
100
AcDbLine
 10
205.874922
 20
215.179556
 30
0.0
 11
203.874922
 21
216.6725559999999
 31
0.0
  0
LINE
  5
AE09
330
AD5A
100
AcDbEntity
  8
1
  6
Continuous
100
AcDbLine
 10
207.289136
 20
215.179556
 30
0.0
 11
205.289136
 21
216.6725559999999
 31
0.0
  0
LINE
  5
AE0A
330
AD5A
100
AcDbEntity
  8
1
  6
Continuous
100
AcDbLine
 10
208.490146
 20
215.3927589999999
 30
0.0
 11
206.703349
 21
216.6725559999999
 31
0.0
  0
LINE
  5
AE0B
330
AD5A
100
AcDbEntity
  8
1
  6
Continuous
100
AcDbLine
 10
208.490146
 20
216.299973
 30
0.0
 11
208.1175629999999
 21
216.6725559999999
 31
0.0
  0
LINE
  5
AE0C
330
AD5A
100
AcDbEntity
  8
1
  6
Continuous
100
AcDbLine
 10
183.490146
 20
215.179556
 30
0.0
 11
185.490146
 21
216.6725559999999
 31
0.0
  0
LINE
  5
AE0D
330
AD5A
100
AcDbEntity
  8
1
  6
Continuous
100
AcDbLine
 10
180.661719
 20
215.179556
 30
0.0
 11
182.661719
 21
216.6725559999999
 31
0.0
  0
LINE
  5
AE0E
330
AD5A
100
AcDbEntity
  8
1
  6
Continuous
100
AcDbLine
 10
177.8332919999998
 20
215.179556
 30
0.0
 11
179.833292
 21
216.6725559999999
 31
0.0
  0
LINE
  5
AE0F
330
AD5A
100
AcDbEntity
  8
1
  6
Continuous
100
AcDbLine
 10
175.004865
 20
215.179556
 30
0.0
 11
177.0048649999999
 21
216.6725559999999
 31
0.0
  0
LINE
  5
AE10
330
AD5A
100
AcDbEntity
  8
1
  6
Continuous
100
AcDbLine
 10
172.1764369999999
 20
215.179556
 30
0.0
 11
174.176437
 21
216.6725559999999
 31
0.0
  0
LINE
  5
AE11
330
AD5A
100
AcDbEntity
  8
1
  6
Continuous
100
AcDbLine
 10
169.3480099999999
 20
215.179556
 30
0.0
 11
171.3480099999999
 21
216.6725559999999
 31
0.0
  0
LINE
  5
AE12
330
AD5A
100
AcDbEntity
  8
1
  6
Continuous
100
AcDbLine
 10
166.519583
 20
215.179556
 30
0.0
 11
168.519583
 21
216.6725559999999
 31
0.0
  0
LINE
  5
AE13
330
AD5A
100
AcDbEntity
  8
1
  6
Continuous
100
AcDbLine
 10
163.691156
 20
215.179556
 30
0.0
 11
165.691156
 21
216.6725559999999
 31
0.0
  0
LINE
  5
AE14
330
AD5A
100
AcDbEntity
  8
1
  6
Continuous
100
AcDbLine
 10
162.490146
 20
216.299973
 30
0.0
 11
162.862729
 21
216.6725559999999
 31
0.0
  0
LINE
  5
AE15
330
AD5A
100
AcDbEntity
  8
1
  6
Continuous
100
AcDbLine
 10
186.3185729999999
 20
215.179556
 30
0.0
 11
188.3185729999999
 21
216.6725559999999
 31
0.0
  0
LINE
  5
AE16
330
AD5A
100
AcDbEntity
  8
1
  6
Continuous
100
AcDbLine
 10
189.1469999999999
 20
215.179556
 30
0.0
 11
191.1469999999999
 21
216.6725559999999
 31
0.0
  0
LINE
  5
AE17
330
AD5A
100
AcDbEntity
  8
1
  6
Continuous
100
AcDbLine
 10
191.975427
 20
215.179556
 30
0.0
 11
193.975427
 21
216.6725559999999
 31
0.0
  0
LINE
  5
AE18
330
AD5A
100
AcDbEntity
  8
1
  6
Continuous
100
AcDbLine
 10
194.8038539999998
 20
215.179556
 30
0.0
 11
196.803854
 21
216.6725559999999
 31
0.0
  0
LINE
  5
AE19
330
AD5A
100
AcDbEntity
  8
1
  6
Continuous
100
AcDbLine
 10
197.632282
 20
215.179556
 30
0.0
 11
199.6322819999998
 21
216.6725559999999
 31
0.0
  0
LINE
  5
AE1A
330
AD5A
100
AcDbEntity
  8
1
  6
Continuous
100
AcDbLine
 10
200.4607089999999
 20
215.179556
 30
0.0
 11
202.4607089999999
 21
216.6725559999999
 31
0.0
  0
LINE
  5
AE1B
330
AD5A
100
AcDbEntity
  8
1
  6
Continuous
100
AcDbLine
 10
203.289136
 20
215.179556
 30
0.0
 11
205.289136
 21
216.6725559999999
 31
0.0
  0
LINE
  5
AE1C
330
AD5A
100
AcDbEntity
  8
1
  6
Continuous
100
AcDbLine
 10
206.117563
 20
215.179556
 30
0.0
 11
208.1175629999999
 21
216.6725559999999
 31
0.0
  0
LINE
  5
AE1D
330
AD5A
100
AcDbEntity
  8
1
  6
Continuous
100
AcDbLine
 10
293.9924409999999
 20
215.17952
 30
0.0
 11
295.9924409999999
 21
216.67252
 31
0.0
  0
LINE
  5
AE1E
330
AD5A
100
AcDbEntity
  8
1
  6
Continuous
100
AcDbLine
 10
295.4066549999998
 20
215.17952
 30
0.0
 11
297.4066549999998
 21
216.67252
 31
0.0
  0
LINE
  5
AE1F
330
AD5A
100
AcDbEntity
  8
1
  6
Continuous
100
AcDbLine
 10
296.820868
 20
215.17952
 30
0.0
 11
298.8208679999999
 21
216.67252
 31
0.0
  0
LINE
  5
AE20
330
AD5A
100
AcDbEntity
  8
1
  6
Continuous
100
AcDbLine
 10
298.2350819999999
 20
215.17952
 30
0.0
 11
300.2350819999999
 21
216.67252
 31
0.0
  0
LINE
  5
AE21
330
AD5A
100
AcDbEntity
  8
1
  6
Continuous
100
AcDbLine
 10
299.649295
 20
215.17952
 30
0.0
 11
301.6492949999999
 21
216.67252
 31
0.0
  0
LINE
  5
AE22
330
AD5A
100
AcDbEntity
  8
1
  6
Continuous
100
AcDbLine
 10
301.063509
 20
215.17952
 30
0.0
 11
303.063509
 21
216.67252
 31
0.0
  0
LINE
  5
AE23
330
AD5A
100
AcDbEntity
  8
1
  6
Continuous
100
AcDbLine
 10
302.477722
 20
215.17952
 30
0.0
 11
304.477722
 21
216.67252
 31
0.0
  0
LINE
  5
AE24
330
AD5A
100
AcDbEntity
  8
1
  6
Continuous
100
AcDbLine
 10
303.8919359999998
 20
215.17952
 30
0.0
 11
305.8919359999998
 21
216.67252
 31
0.0
  0
LINE
  5
AE25
330
AD5A
100
AcDbEntity
  8
1
  6
Continuous
100
AcDbLine
 10
305.306149
 20
215.17952
 30
0.0
 11
307.306149
 21
216.67252
 31
0.0
  0
LINE
  5
AE26
330
AD5A
100
AcDbEntity
  8
1
  6
Continuous
100
AcDbLine
 10
306.7203629999998
 20
215.17952
 30
0.0
 11
308.7203629999998
 21
216.67252
 31
0.0
  0
LINE
  5
AE27
330
AD5A
100
AcDbEntity
  8
1
  6
Continuous
100
AcDbLine
 10
308.1345769999999
 20
215.17952
 30
0.0
 11
310.134577
 21
216.67252
 31
0.0
  0
LINE
  5
AE28
330
AD5A
100
AcDbEntity
  8
1
  6
Continuous
100
AcDbLine
 10
309.54879
 20
215.17952
 30
0.0
 11
311.54879
 21
216.67252
 31
0.0
  0
LINE
  5
AE29
330
AD5A
100
AcDbEntity
  8
1
  6
Continuous
100
AcDbLine
 10
310.963004
 20
215.17952
 30
0.0
 11
312.963004
 21
216.67252
 31
0.0
  0
LINE
  5
AE2A
330
AD5A
100
AcDbEntity
  8
1
  6
Continuous
100
AcDbLine
 10
312.3772169999999
 20
215.17952
 30
0.0
 11
314.3772169999999
 21
216.67252
 31
0.0
  0
LINE
  5
AE2B
330
AD5A
100
AcDbEntity
  8
1
  6
Continuous
100
AcDbLine
 10
313.7914309999998
 20
215.17952
 30
0.0
 11
315.7914309999998
 21
216.67252
 31
0.0
  0
LINE
  5
AE2C
330
AD5A
100
AcDbEntity
  8
1
  6
Continuous
100
AcDbLine
 10
315.2056439999999
 20
215.17952
 30
0.0
 11
317.2056439999999
 21
216.67252
 31
0.0
  0
LINE
  5
AE2D
330
AD5A
100
AcDbEntity
  8
1
  6
Continuous
100
AcDbLine
 10
316.619858
 20
215.17952
 30
0.0
 11
318.619858
 21
216.67252
 31
0.0
  0
LINE
  5
AE2E
330
AD5A
100
AcDbEntity
  8
1
  6
Continuous
100
AcDbLine
 10
318.0340719999999
 20
215.17952
 30
0.0
 11
318.9924409999999
 21
216.1378899999998
 31
0.0
  0
LINE
  5
AE2F
330
AD5A
100
AcDbEntity
  8
1
  6
Continuous
100
AcDbLine
 10
292.578227
 20
215.17952
 30
0.0
 11
294.578227
 21
216.67252
 31
0.0
  0
LINE
  5
AE30
330
AD5A
100
AcDbEntity
  8
1
  6
Continuous
100
AcDbLine
 10
291.164014
 20
215.17952
 30
0.0
 11
293.164014
 21
216.67252
 31
0.0
  0
LINE
  5
AE31
330
AD5A
100
AcDbEntity
  8
1
  6
Continuous
100
AcDbLine
 10
289.7498
 20
215.17952
 30
0.0
 11
291.7498
 21
216.67252
 31
0.0
  0
LINE
  5
AE32
330
AD5A
100
AcDbEntity
  8
1
  6
Continuous
100
AcDbLine
 10
288.3355869999999
 20
215.17952
 30
0.0
 11
290.335587
 21
216.67252
 31
0.0
  0
LINE
  5
AE33
330
AD5A
100
AcDbEntity
  8
1
  6
Continuous
100
AcDbLine
 10
286.921373
 20
215.17952
 30
0.0
 11
288.921373
 21
216.67252
 31
0.0
  0
LINE
  5
AE34
330
AD5A
100
AcDbEntity
  8
1
  6
Continuous
100
AcDbLine
 10
285.50716
 20
215.17952
 30
0.0
 11
287.50716
 21
216.67252
 31
0.0
  0
LINE
  5
AE35
330
AD5A
100
AcDbEntity
  8
1
  6
Continuous
100
AcDbLine
 10
284.0929459999999
 20
215.17952
 30
0.0
 11
286.0929459999999
 21
216.67252
 31
0.0
  0
LINE
  5
AE36
330
AD5A
100
AcDbEntity
  8
1
  6
Continuous
100
AcDbLine
 10
282.6787319999999
 20
215.17952
 30
0.0
 11
284.6787319999999
 21
216.67252
 31
0.0
  0
LINE
  5
AE37
330
AD5A
100
AcDbEntity
  8
1
  6
Continuous
100
AcDbLine
 10
281.2645189999999
 20
215.17952
 30
0.0
 11
283.264519
 21
216.67252
 31
0.0
  0
LINE
  5
AE38
330
AD5A
100
AcDbEntity
  8
1
  6
Continuous
100
AcDbLine
 10
279.8503049999998
 20
215.17952
 30
0.0
 11
281.8503049999998
 21
216.67252
 31
0.0
  0
LINE
  5
AE39
330
AD5A
100
AcDbEntity
  8
1
  6
Continuous
100
AcDbLine
 10
278.4360919999999
 20
215.17952
 30
0.0
 11
280.4360919999999
 21
216.67252
 31
0.0
  0
LINE
  5
AE3A
330
AD5A
100
AcDbEntity
  8
1
  6
Continuous
100
AcDbLine
 10
277.0218779999999
 20
215.17952
 30
0.0
 11
279.0218779999999
 21
216.67252
 31
0.0
  0
LINE
  5
AE3B
330
AD5A
100
AcDbEntity
  8
1
  6
Continuous
100
AcDbLine
 10
275.607665
 20
215.17952
 30
0.0
 11
277.6076649999998
 21
216.67252
 31
0.0
  0
LINE
  5
AE3C
330
AD5A
100
AcDbEntity
  8
1
  6
Continuous
100
AcDbLine
 10
274.1934509999999
 20
215.17952
 30
0.0
 11
276.1934509999999
 21
216.67252
 31
0.0
  0
LINE
  5
AE3D
330
AD5A
100
AcDbEntity
  8
1
  6
Continuous
100
AcDbLine
 10
272.9924409999999
 20
215.3927239999999
 30
0.0
 11
274.7792379999999
 21
216.67252
 31
0.0
  0
LINE
  5
AE3E
330
AD5A
100
AcDbEntity
  8
1
  6
Continuous
100
AcDbLine
 10
272.9924409999999
 20
216.299937
 30
0.0
 11
273.365024
 21
216.67252
 31
0.0
  0
LINE
  5
AE3F
330
AD5A
100
AcDbEntity
  8
1
  6
Continuous
100
AcDbLine
 10
297.9924409999999
 20
215.17952
 30
0.0
 11
295.9924409999999
 21
216.67252
 31
0.0
  0
LINE
  5
AE40
330
AD5A
100
AcDbEntity
  8
1
  6
Continuous
100
AcDbLine
 10
300.820868
 20
215.17952
 30
0.0
 11
298.8208679999999
 21
216.67252
 31
0.0
  0
LINE
  5
AE41
330
AD5A
100
AcDbEntity
  8
1
  6
Continuous
100
AcDbLine
 10
303.6492949999999
 20
215.17952
 30
0.0
 11
301.6492949999999
 21
216.67252
 31
0.0
  0
LINE
  5
AE42
330
AD5A
100
AcDbEntity
  8
1
  6
Continuous
100
AcDbLine
 10
306.477722
 20
215.17952
 30
0.0
 11
304.477722
 21
216.67252
 31
0.0
  0
LINE
  5
AE43
330
AD5A
100
AcDbEntity
  8
1
  6
Continuous
100
AcDbLine
 10
309.306149
 20
215.17952
 30
0.0
 11
307.306149
 21
216.67252
 31
0.0
  0
LINE
  5
AE44
330
AD5A
100
AcDbEntity
  8
1
  6
Continuous
100
AcDbLine
 10
312.134577
 20
215.17952
 30
0.0
 11
310.134577
 21
216.67252
 31
0.0
  0
LINE
  5
AE45
330
AD5A
100
AcDbEntity
  8
1
  6
Continuous
100
AcDbLine
 10
314.963004
 20
215.17952
 30
0.0
 11
312.963004
 21
216.67252
 31
0.0
  0
LINE
  5
AE46
330
AD5A
100
AcDbEntity
  8
1
  6
Continuous
100
AcDbLine
 10
317.7914309999998
 20
215.17952
 30
0.0
 11
315.7914309999998
 21
216.67252
 31
0.0
  0
LINE
  5
AE47
330
AD5A
100
AcDbEntity
  8
1
  6
Continuous
100
AcDbLine
 10
318.9924409999999
 20
216.299937
 30
0.0
 11
318.619858
 21
216.67252
 31
0.0
  0
LINE
  5
AE48
330
AD5A
100
AcDbEntity
  8
1
  6
Continuous
100
AcDbLine
 10
295.164014
 20
215.17952
 30
0.0
 11
293.164014
 21
216.67252
 31
0.0
  0
LINE
  5
AE49
330
AD5A
100
AcDbEntity
  8
1
  6
Continuous
100
AcDbLine
 10
292.3355869999999
 20
215.17952
 30
0.0
 11
290.335587
 21
216.67252
 31
0.0
  0
LINE
  5
AE4A
330
AD5A
100
AcDbEntity
  8
1
  6
Continuous
100
AcDbLine
 10
289.5071599999998
 20
215.17952
 30
0.0
 11
287.50716
 21
216.67252
 31
0.0
  0
LINE
  5
AE4B
330
AD5A
100
AcDbEntity
  8
1
  6
Continuous
100
AcDbLine
 10
286.6787319999999
 20
215.17952
 30
0.0
 11
284.6787319999999
 21
216.67252
 31
0.0
  0
LINE
  5
AE4C
330
AD5A
100
AcDbEntity
  8
1
  6
Continuous
100
AcDbLine
 10
283.8503049999999
 20
215.17952
 30
0.0
 11
281.8503049999998
 21
216.67252
 31
0.0
  0
LINE
  5
AE4D
330
AD5A
100
AcDbEntity
  8
1
  6
Continuous
100
AcDbLine
 10
281.0218779999999
 20
215.17952
 30
0.0
 11
279.0218779999999
 21
216.67252
 31
0.0
  0
LINE
  5
AE4E
330
AD5A
100
AcDbEntity
  8
1
  6
Continuous
100
AcDbLine
 10
278.1934509999999
 20
215.17952
 30
0.0
 11
276.1934509999999
 21
216.67252
 31
0.0
  0
LINE
  5
AE4F
330
AD5A
100
AcDbEntity
  8
1
  6
Continuous
100
AcDbLine
 10
275.365024
 20
215.17952
 30
0.0
 11
273.365024
 21
216.67252
 31
0.0
  0
LINE
  5
AE50
330
AD5A
100
AcDbEntity
  8
4
  6
CENTER
100
AcDbLine
 10
218.740146
 20
316.9206459999998
 30
0.0
 11
206.240146
 21
316.9206459999998
 31
0.0
  0
LINE
  5
AE51
330
AD5A
100
AcDbEntity
  8
4
  6
CENTER
100
AcDbLine
 10
212.490146
 20
310.6706459999998
 30
0.0
 11
212.490146
 21
323.1706459999998
 31
0.0
  0
LINE
  5
AE52
330
AD5A
100
AcDbEntity
  8
4
  6
CENTER
100
AcDbLine
 10
218.740146
 20
280.920646
 30
0.0
 11
206.240146
 21
280.920646
 31
0.0
  0
LINE
  5
AE53
330
AD5A
100
AcDbEntity
  8
4
  6
CENTER
100
AcDbLine
 10
212.490146
 20
274.6706459999999
 30
0.0
 11
212.490146
 21
287.170646
 31
0.0
  0
LINE
  5
AE54
330
AD5A
100
AcDbEntity
  8
4
  6
CENTER
100
AcDbLine
 10
164.740146
 20
280.920646
 30
0.0
 11
152.240146
 21
280.920646
 31
0.0
  0
LINE
  5
AE55
330
AD5A
100
AcDbEntity
  8
4
  6
CENTER
100
AcDbLine
 10
158.490146
 20
274.6706459999999
 30
0.0
 11
158.490146
 21
287.170646
 31
0.0
  0
LINE
  5
AE56
330
AD5A
100
AcDbEntity
  8
4
  6
CENTER
100
AcDbLine
 10
164.740146
 20
316.9206459999998
 30
0.0
 11
152.240146
 21
316.9206459999998
 31
0.0
  0
LINE
  5
AE57
330
AD5A
100
AcDbEntity
  8
4
  6
CENTER
100
AcDbLine
 10
158.490146
 20
310.6706459999998
 30
0.0
 11
158.490146
 21
323.1706459999998
 31
0.0
  0
LINE
  5
AE58
330
AD5A
100
AcDbEntity
  8
4
  6
CENTER
100
AcDbLine
 10
225.490146
 20
298.9206459999999
 30
0.0
 11
123.990146
 21
298.9206459999999
 31
0.0
  0
LINE
  5
AE59
330
AD5A
100
AcDbEntity
  8
4
  6
CENTER
100
AcDbLine
 10
185.490146
 20
266.9206459999999
 30
0.0
 11
185.490146
 21
330.9206459999999
 31
0.0
  0
LINE
  5
AE5A
330
AD5A
100
AcDbEntity
  8
4
  6
CENTER
100
AcDbLine
 10
185.490146
 20
202.215713
 30
0.0
 11
185.490146
 21
229.2177
 31
0.0
  0
LINE
  5
AE5B
330
AD5A
100
AcDbEntity
  8
4
  6
CENTER
100
AcDbLine
 10
196.990146
 20
175.717882
 30
0.0
 11
123.990146
 21
175.717882
 31
0.0
  0
LINE
  5
AE5C
330
AD5A
100
AcDbEntity
  8
4
  6
CENTER
100
AcDbLine
 10
160.490146
 20
139.217882
 30
0.0
 11
160.490146
 21
207.891468
 31
0.0
  0
LINE
  5
AE5D
330
AD5A
100
AcDbEntity
  8
4
  6
CENTER
100
AcDbLine
 10
262.6393339999999
 20
175.717782
 30
0.0
 11
323.792704
 21
175.717782
 31
0.0
  0
LINE
  5
AE5E
330
AD5A
100
AcDbEntity
  8
4
  6
CENTER
100
AcDbLine
 10
295.9924409999999
 20
229.217665
 30
0.0
 11
295.9924409999999
 21
139.217782
 31
0.0
  0
LINE
  5
AE5F
330
AD5A
100
AcDbEntity
  8
1
  6
Continuous
100
AcDbLine
 10
213.490146
 20
325.9206459999999
 30
0.0
 11
157.490146
 21
325.9206459999999
 31
0.0
  0
LINE
  5
AE60
330
AD5A
100
AcDbEntity
  8
1
  6
Continuous
100
AcDbLine
 10
150.490146
 20
278.9206459999999
 30
0.0
 11
150.490146
 21
318.9206459999998
 31
0.0
  0
LINE
  5
AE61
330
AD5A
100
AcDbEntity
  8
1
  6
Continuous
100
AcDbLine
 10
213.490146
 20
271.9206459999999
 30
0.0
 11
157.490146
 21
271.9206459999999
 31
0.0
  0
LINE
  5
AE62
330
AD5A
100
AcDbEntity
  8
1
  6
Continuous
100
AcDbLine
 10
220.490146
 20
278.9206459999999
 30
0.0
 11
220.490146
 21
318.9206459999998
 31
0.0
  0
ARC
  5
AE63
330
AD5A
100
AcDbEntity
  8
1
  6
Continuous
100
AcDbCircle
 10
157.490146
 20
318.9206459999998
 30
0.0
 40
7.0
100
AcDbArc
 50
90.0
 51
180.0
  0
ARC
  5
AE64
330
AD5A
100
AcDbEntity
  8
1
  6
Continuous
100
AcDbCircle
 10
213.490146
 20
318.9206459999998
 30
0.0
 40
7.0
100
AcDbArc
 50
0.0
 51
90.0
  0
ARC
  5
AE65
330
AD5A
100
AcDbEntity
  8
1
  6
Continuous
100
AcDbCircle
 10
157.490146
 20
278.9206459999999
 30
0.0
 40
7.0
100
AcDbArc
 50
180.0
 51
270.0
  0
ARC
  5
AE66
330
AD5A
100
AcDbEntity
  8
1
  6
Continuous
100
AcDbCircle
 10
213.490146
 20
278.9206459999999
 30
0.0
 40
7.0
100
AcDbArc
 50
270.0
 51
0.0
  0
LINE
  5
AE67
330
AD5A
100
AcDbEntity
  8
1
  6
Continuous
100
AcDbLine
 10
220.490146
 20
221.917417
 30
0.0
 11
220.490146
 21
224.2177
 31
0.0
  0
LINE
  5
AE68
330
AD5A
100
AcDbEntity
  8
1
  6
Continuous
100
AcDbLine
 10
150.490146
 20
221.917417
 30
0.0
 11
150.490146
 21
224.2177
 31
0.0
  0
LINE
  5
AE69
330
AD5A
100
AcDbEntity
  8
4
  6
CENTER
100
AcDbLine
 10
158.490146
 20
216.917417
 30
0.0
 11
158.490146
 21
229.2177
 31
0.0
  0
LINE
  5
AE6A
330
AD5A
100
AcDbEntity
  8
4
  6
CENTER
100
AcDbLine
 10
212.490146
 20
216.917417
 30
0.0
 11
212.490146
 21
229.2177
 31
0.0
  0
LINE
  5
AE6B
330
AD5A
100
AcDbEntity
  8
4
  6
CENTER
100
AcDbLine
 10
277.992441
 20
229.217665
 30
0.0
 11
277.992441
 21
216.9173819999998
 31
0.0
  0
LINE
  5
AE6C
330
AD5A
100
AcDbEntity
  8
4
  6
CENTER
100
AcDbLine
 10
313.9924409999999
 20
229.217665
 30
0.0
 11
313.9924409999999
 21
216.9173819999998
 31
0.0
  0
LINE
  5
AE6D
330
AD5A
100
AcDbEntity
  8
1
  6
Continuous
100
AcDbLine
 10
268.9924409999999
 20
224.2176649999999
 30
0.0
 11
268.9924409999999
 21
221.9173819999999
 31
0.0
  0
LINE
  5
AE6E
330
AD5A
100
AcDbEntity
  8
1
  6
Continuous
100
AcDbLine
 10
322.9924409999999
 20
224.2176649999999
 30
0.0
 11
322.9924409999999
 21
221.9173819999999
 31
0.0
  0
ARC
  5
AE6F
330
AD5A
100
AcDbEntity
  8
1
  6
Continuous
100
AcDbCircle
 10
161.590146
 20
176.117882
 30
0.0
 40
11.0
100
AcDbArc
 50
236.9033229999998
 51
272.0894609999999
  0
LINE
  5
AE70
330
AD5A
100
AcDbEntity
  8
1
  6
Continuous
100
AcDbLine
 10
166.8243219999999
 20
212.8770429999999
 30
0.0
 11
155.702287
 21
212.845989
 31
0.0
  0
ARC
  5
AE71
330
AD5A
100
AcDbEntity
  8
1
  6
Continuous
100
AcDbCircle
 10
202.222361
 20
194.23831
 30
0.0
 40
14.229
100
AcDbArc
 50
90.0
 51
133.500573
  0
ARC
  5
AE72
330
AD5A
100
AcDbEntity
  8
1
  6
Continuous
100
AcDbCircle
 10
200.835986
 20
197.46731
 30
0.0
 40
11.0
100
AcDbArc
 50
139.8530389999999
 51
146.327459
  0
ARC
  5
AE73
330
AD5A
100
AcDbEntity
  8
1
  6
Continuous
100
AcDbCircle
 10
156.646199
 20
294.757624
 30
0.0
 40
84.15427099999998
100
AcDbArc
 50
268.6251529999998
 51
270.661561
  0
ARC
  5
AE74
330
AD5A
100
AcDbEntity
  8
1
  6
Continuous
100
AcDbCircle
 10
155.716879
 20
207.620059
 30
0.0
 40
5.22595
100
AcDbArc
 50
90.15997800000002
 51
100.38805
  0
ARC
  5
AE75
330
AD5A
100
AcDbEntity
  8
1
  6
Continuous
100
AcDbCircle
 10
154.9009879999998
 20
212.0707279999999
 30
0.0
 40
0.7011149999999999
100
AcDbArc
 50
100.38805
 51
140.399055
  0
ARC
  5
AE76
330
AD5A
100
AcDbEntity
  8
1
  6
Continuous
100
AcDbCircle
 10
154.63379
 20
210.907969
 30
0.0
 40
0.28047
100
AcDbArc
 50
216.5458509999999
 51
268.6251529999998
  0
ARC
  5
AE77
330
AD5A
100
AcDbEntity
  8
1
  6
Continuous
100
AcDbCircle
 10
141.337801
 20
209.431971
 30
0.0
 40
13.13604599999999
100
AcDbArc
 50
5.718930999999998
 51
8.653186999999999
  0
ARC
  5
AE78
330
AD5A
100
AcDbEntity
  8
1
  6
Continuous
100
AcDbCircle
 10
122.542776
 20
213.0080229999999
 30
0.0
 40
31.82178
100
AcDbArc
 50
357.118506
 51
359.117028
  0
LINE
  5
AE79
330
AD5A
100
AcDbEntity
  8
1
  6
Continuous
100
AcDbLine
 10
158.090134
 20
212.852656
 30
0.0
 11
152.6227849999999
 21
186.8782929999999
 31
0.0
  0
LINE
  5
AE7A
330
AD5A
100
AcDbEntity
  8
1
  6
Continuous
100
AcDbLine
 10
191.681567
 20
203.5662129999999
 30
0.0
 11
179.015971
 21
183.2722039999999
 31
0.0
  0
ARC
  5
AE7B
330
AD5A
100
AcDbEntity
  8
1
  6
Continuous
100
AcDbCircle
 10
160.490146
 20
175.717882
 30
0.0
 40
17.5
100
AcDbArc
 50
112.953035
 51
137.6352139999999
  0
LINE
  5
AE7C
330
AD5A
100
AcDbEntity
  8
1
  6
Continuous
100
AcDbLine
 10
43.48785099999999
 20
146.7845079999999
 30
0.0
 11
43.48785099999999
 21
204.651056
 31
0.0
  0
LINE
  5
AE7D
330
AD5A
100
AcDbEntity
  8
1
  6
Continuous
100
AcDbLine
 10
64.48785100000001
 20
146.7845079999999
 30
0.0
 11
64.48785100000001
 21
204.651056
 31
0.0
  0
LINE
  5
AE7E
330
AD5A
100
AcDbEntity
  8
1
  6
Continuous
100
AcDbLine
 10
64.48785100000001
 20
191.789634
 30
0.0
 11
66.38882199999999
 21
189.0747669999998
 31
0.0
  0
LINE
  5
AE7F
330
AD5A
100
AcDbEntity
  8
1
  6
Continuous
100
AcDbLine
 10
43.48785099999999
 20
191.789634
 30
0.0
 11
40.98785099999999
 21
188.2192639999999
 31
0.0
  0
LINE
  5
AE80
330
AD5A
100
AcDbEntity
  8
4
  6
CENTER
100
AcDbLine
 10
53.987851
 20
229.217665
 30
0.0
 11
53.987851
 21
139.217782
 31
0.0
  0
LINE
  5
AE81
330
AD5A
100
AcDbEntity
  8
4
  6
CENTER
100
AcDbLine
 10
87.340958
 20
175.717782
 30
0.0
 11
26.187589
 21
175.717782
 31
0.0
  0
ARC
  5
AE82
330
AD5A
100
AcDbEntity
  8
1
  6
Continuous
100
AcDbCircle
 10
53.987851
 20
184.217782
 30
0.0
 40
40.0
100
AcDbArc
 50
256.4810919999998
 51
283.518908
  0
LINE
  5
AE83
330
AD5A
100
AcDbEntity
  8
1
  6
Continuous
100
AcDbLine
 10
66.98785100000001
 20
174.909357
 30
0.0
 11
66.98785100000001
 21
163.2163
 31
0.0
  0
LINE
  5
AE84
330
AD5A
100
AcDbEntity
  8
1
  6
Continuous
100
AcDbLine
 10
66.98785100000001
 20
166.217782
 30
0.0
 11
68.487851
 21
167.7177819999998
 31
0.0
  0
LINE
  5
AE85
330
AD5A
100
AcDbEntity
  8
1
  6
Continuous
100
AcDbLine
 10
64.48785100000001
 20
159.64593
 30
0.0
 11
66.98785100000001
 21
163.2163
 31
0.0
  0
ARC
  5
AE86
330
AD5A
100
AcDbEntity
  8
1
  6
Continuous
100
AcDbCircle
 10
62.98785099999999
 20
146.7845079999999
 30
0.0
 40
1.5
100
AcDbArc
 50
283.518908
 51
0.0
  0
LINE
  5
AE87
330
AD5A
100
AcDbEntity
  8
1
  6
Continuous
100
AcDbLine
 10
69.445426
 20
171.717782
 30
0.0
 11
68.487851
 21
171.717782
 31
0.0
  0
LINE
  5
AE88
330
AD5A
100
AcDbEntity
  8
1
  6
Continuous
100
AcDbLine
 10
68.487851
 20
167.7177819999998
 30
0.0
 11
68.487851
 21
174.255448
 31
0.0
  0
LINE
  5
AE89
330
AD5A
100
AcDbEntity
  8
1
  6
Continuous
100
AcDbLine
 10
40.98785099999999
 20
163.2163
 30
0.0
 11
40.98785099999999
 21
188.2192639999999
 31
0.0
  0
LINE
  5
AE8A
330
AD5A
100
AcDbEntity
  8
1
  6
Continuous
100
AcDbLine
 10
40.98785099999999
 20
166.217782
 30
0.0
 11
39.487851
 21
167.7177819999998
 31
0.0
  0
ARC
  5
AE8B
330
AD5A
100
AcDbEntity
  8
1
  6
Continuous
100
AcDbCircle
 10
44.987851
 20
146.7845079999999
 30
0.0
 40
1.5
100
AcDbArc
 50
180.0
 51
256.4810919999998
  0
LINE
  5
AE8C
330
AD5A
100
AcDbEntity
  8
1
  6
Continuous
100
AcDbLine
 10
43.48785099999999
 20
159.64593
 30
0.0
 11
40.98785099999999
 21
163.2163
 31
0.0
  0
LINE
  5
AE8D
330
AD5A
100
AcDbEntity
  8
1
  6
Continuous
100
AcDbLine
 10
39.487851
 20
171.717782
 30
0.0
 11
38.530276
 21
171.717782
 31
0.0
  0
LINE
  5
AE8E
330
AD5A
100
AcDbEntity
  8
1
  6
Continuous
100
AcDbLine
 10
39.487851
 20
179.7177819999998
 30
0.0
 11
38.44516199999999
 21
179.7177819999998
 31
0.0
  0
LINE
  5
AE8F
330
AD5A
100
AcDbEntity
  8
1
  6
Continuous
100
AcDbLine
 10
40.98785099999999
 20
185.2177819999998
 30
0.0
 11
39.487851
 21
183.7177819999998
 31
0.0
  0
LINE
  5
AE90
330
AD5A
100
AcDbEntity
  8
1
  6
Continuous
100
AcDbLine
 10
39.487851
 20
167.7177819999998
 30
0.0
 11
39.487851
 21
183.7177819999998
 31
0.0
  0
ARC
  5
AE91
330
AD5A
100
AcDbEntity
  8
1
  6
Continuous
100
AcDbCircle
 10
53.987851
 20
167.2177819999998
 30
0.0
 40
40.0
100
AcDbArc
 50
76.481092
 51
103.5189079999999
  0
LINE
  5
AE92
330
AD5A
100
AcDbEntity
  8
1
  6
Continuous
100
AcDbLine
 10
76.98785100000002
 20
216.67252
 30
0.0
 11
30.98785100000001
 21
216.67252
 31
0.0
  0
LINE
  5
AE93
330
AD5A
100
AcDbEntity
  8
1
  6
Continuous
100
AcDbLine
 10
76.16293500000002
 20
218.154782
 30
0.0
 11
31.81276699999999
 21
218.154782
 31
0.0
  0
LINE
  5
AE94
330
AD5A
100
AcDbEntity
  8
1
  6
Continuous
100
AcDbLine
 10
80.987851
 20
224.2176649999999
 30
0.0
 11
26.987851
 21
224.2176649999999
 31
0.0
  0
LINE
  5
AE95
330
AD5A
100
AcDbEntity
  8
1
  6
Continuous
100
AcDbLine
 10
73.743735
 20
219.89252
 30
0.0
 11
34.231967
 21
219.89252
 31
0.0
  0
LINE
  5
AE96
330
AD5A
100
AcDbEntity
  8
1
  6
Continuous
100
AcDbLine
 10
80.987851
 20
221.9173819999999
 30
0.0
 11
26.987851
 21
221.9173819999999
 31
0.0
  0
LINE
  5
AE97
330
AD5A
100
AcDbEntity
  8
1
  6
Continuous
100
AcDbLine
 10
30.98785100000001
 20
215.17952
 30
0.0
 11
76.98785100000002
 21
215.17952
 31
0.0
  0
LINE
  5
AE98
330
AD5A
100
AcDbEntity
  8
1
  6
Continuous
100
AcDbLine
 10
49.159424
 20
215.17952
 30
0.0
 11
51.159424
 21
216.67252
 31
0.0
  0
LINE
  5
AE99
330
AD5A
100
AcDbEntity
  8
1
  6
Continuous
100
AcDbLine
 10
50.33099700000001
 20
215.17952
 30
0.0
 11
48.33099699999999
 21
216.67252
 31
0.0
  0
LINE
  5
AE9A
330
AD5A
100
AcDbEntity
  8
1
  6
Continuous
100
AcDbLine
 10
51.74521
 20
215.17952
 30
0.0
 11
49.74521
 21
216.67252
 31
0.0
  0
ARC
  5
AE9B
330
AD5A
100
AcDbEntity
  8
1
  6
Continuous
100
AcDbCircle
 10
74.737851
 20
211.191224
 30
0.0
 40
4.0
100
AcDbArc
 50
0.0
 51
85.615961
  0
LINE
  5
AE9C
330
AD5A
100
AcDbEntity
  8
1
  6
Continuous
100
AcDbLine
 10
78.737851
 20
211.191224
 30
0.0
 11
78.737851
 21
192.9900909999999
 31
0.0
  0
ARC
  5
AE9D
330
AD5A
100
AcDbEntity
  8
1
  6
Continuous
100
AcDbCircle
 10
62.98785099999999
 20
204.651056
 30
0.0
 40
1.5
100
AcDbArc
 50
0.0
 51
76.481092
  0
LINE
  5
AE9E
330
AD5A
100
AcDbEntity
  8
1
  6
Continuous
100
AcDbLine
 10
67.30156
 20
215.17952
 30
0.0
 11
65.30155999999999
 21
216.67252
 31
0.0
  0
LINE
  5
AE9F
330
AD5A
100
AcDbEntity
  8
1
  6
Continuous
100
AcDbLine
 10
65.88734599999999
 20
215.17952
 30
0.0
 11
63.88734599999999
 21
216.67252
 31
0.0
  0
LINE
  5
AEA0
330
AD5A
100
AcDbEntity
  8
1
  6
Continuous
100
AcDbLine
 10
80.987851
 20
224.2176649999999
 30
0.0
 11
80.987851
 21
221.9173819999999
 31
0.0
  0
LINE
  5
AEA1
330
AD5A
100
AcDbEntity
  8
1
  6
Continuous
100
AcDbLine
 10
76.98785100000002
 20
216.299937
 30
0.0
 11
76.615268
 21
216.67252
 31
0.0
  0
ARC
  5
AEA2
330
AD5A
100
AcDbEntity
  8
1
  6
Continuous
100
AcDbCircle
 10
71.174353
 20
214.6038089999999
 30
0.0
 40
6.206
100
AcDbArc
 50
39.064301
 51
58.798683
  0
ARC
  5
AEA3
330
AD5A
100
AcDbEntity
  8
1
  6
Continuous
100
AcDbCircle
 10
73.376453
 20
219.7050089999999
 30
0.0
 40
4.697225
100
AcDbArc
 50
319.789963
 51
333.713305
  0
LINE
  5
AEA4
330
AD5A
100
AcDbEntity
  8
1
  6
Continuous
100
AcDbLine
 10
76.16293500000002
 20
218.154782
 30
0.0
 11
75.992935
 21
218.514782
 31
0.0
  0
LINE
  5
AEA5
330
AD5A
100
AcDbEntity
  8
1
  6
Continuous
100
AcDbLine
 10
76.977935
 20
218.154782
 30
0.0
 11
76.16293500000002
 21
218.154782
 31
0.0
  0
ARC
  5
AEA6
330
AD5A
100
AcDbEntity
  8
1
  6
Continuous
100
AcDbCircle
 10
76.713965
 20
217.234929
 30
0.0
 40
0.9569799999999998
100
AcDbArc
 50
24.04026499999999
 51
73.98808699999998
  0
ARC
  5
AEA7
330
AD5A
100
AcDbEntity
  8
1
  6
Continuous
100
AcDbCircle
 10
73.743735
 20
230.5325199999999
 30
0.0
 40
10.64
100
AcDbArc
 50
270.0
 51
305.934008
  0
LINE
  5
AEA8
330
AD5A
100
AcDbEntity
  8
1
  6
Continuous
100
AcDbLine
 10
74.615268
 20
215.17952
 30
0.0
 11
76.615268
 21
216.67252
 31
0.0
  0
LINE
  5
AEA9
330
AD5A
100
AcDbEntity
  8
1
  6
Continuous
100
AcDbLine
 10
71.78684100000002
 20
215.17952
 30
0.0
 11
73.78684099999998
 21
216.67252
 31
0.0
  0
LINE
  5
AEAA
330
AD5A
100
AcDbEntity
  8
1
  6
Continuous
100
AcDbLine
 10
68.95841400000001
 20
215.17952
 30
0.0
 11
70.95841400000002
 21
216.67252
 31
0.0
  0
LINE
  5
AEAB
330
AD5A
100
AcDbEntity
  8
1
  6
Continuous
100
AcDbLine
 10
66.129987
 20
215.17952
 30
0.0
 11
68.129987
 21
216.67252
 31
0.0
  0
LINE
  5
AEAC
330
AD5A
100
AcDbEntity
  8
1
  6
Continuous
100
AcDbLine
 10
76.98785100000002
 20
215.3927239999999
 30
0.0
 11
75.201054
 21
216.67252
 31
0.0
  0
LINE
  5
AEAD
330
AD5A
100
AcDbEntity
  8
1
  6
Continuous
100
AcDbLine
 10
75.78684100000002
 20
215.17952
 30
0.0
 11
73.78684099999998
 21
216.67252
 31
0.0
  0
LINE
  5
AEAE
330
AD5A
100
AcDbEntity
  8
1
  6
Continuous
100
AcDbLine
 10
74.37262699999998
 20
215.17952
 30
0.0
 11
72.37262699999998
 21
216.67252
 31
0.0
  0
LINE
  5
AEAF
330
AD5A
100
AcDbEntity
  8
1
  6
Continuous
100
AcDbLine
 10
72.958414
 20
215.17952
 30
0.0
 11
70.95841400000002
 21
216.67252
 31
0.0
  0
LINE
  5
AEB0
330
AD5A
100
AcDbEntity
  8
1
  6
Continuous
100
AcDbLine
 10
71.5442
 20
215.17952
 30
0.0
 11
69.5442
 21
216.67252
 31
0.0
  0
LINE
  5
AEB1
330
AD5A
100
AcDbEntity
  8
1
  6
Continuous
100
AcDbLine
 10
70.129987
 20
215.17952
 30
0.0
 11
68.129987
 21
216.67252
 31
0.0
  0
LINE
  5
AEB2
330
AD5A
100
AcDbEntity
  8
1
  6
Continuous
100
AcDbLine
 10
68.715773
 20
215.17952
 30
0.0
 11
66.715773
 21
216.67252
 31
0.0
  0
LINE
  5
AEB3
330
AD5A
100
AcDbEntity
  8
1
  6
Continuous
100
AcDbLine
 10
76.98785100000002
 20
216.67252
 30
0.0
 11
76.98785100000002
 21
215.17952
 31
0.0
  0
LINE
  5
AEB4
330
AD5A
100
AcDbEntity
  8
4
  6
CENTER
100
AcDbLine
 10
71.98785100000002
 20
229.217665
 30
0.0
 11
71.98785100000002
 21
216.9173819999998
 31
0.0
  0
LINE
  5
AEB5
330
AD5A
100
AcDbEntity
  8
1
  6
Continuous
100
AcDbLine
 10
63.30155999999998
 20
215.17952
 30
0.0
 11
65.30155999999999
 21
216.67252
 31
0.0
  0
LINE
  5
AEB6
330
AD5A
100
AcDbEntity
  8
1
  6
Continuous
100
AcDbLine
 10
60.47313199999999
 20
215.17952
 30
0.0
 11
62.47313199999999
 21
216.67252
 31
0.0
  0
LINE
  5
AEB7
330
AD5A
100
AcDbEntity
  8
1
  6
Continuous
100
AcDbLine
 10
57.644705
 20
215.17952
 30
0.0
 11
59.644705
 21
216.67252
 31
0.0
  0
LINE
  5
AEB8
330
AD5A
100
AcDbEntity
  8
1
  6
Continuous
100
AcDbLine
 10
54.816278
 20
215.17952
 30
0.0
 11
56.81627800000001
 21
216.67252
 31
0.0
  0
LINE
  5
AEB9
330
AD5A
100
AcDbEntity
  8
1
  6
Continuous
100
AcDbLine
 10
51.987851
 20
215.17952
 30
0.0
 11
53.987851
 21
216.67252
 31
0.0
  0
LINE
  5
AEBA
330
AD5A
100
AcDbEntity
  8
1
  6
Continuous
100
AcDbLine
 10
64.47313199999999
 20
215.17952
 30
0.0
 11
62.47313199999999
 21
216.67252
 31
0.0
  0
LINE
  5
AEBB
330
AD5A
100
AcDbEntity
  8
1
  6
Continuous
100
AcDbLine
 10
63.05891899999998
 20
215.17952
 30
0.0
 11
61.05891899999999
 21
216.67252
 31
0.0
  0
LINE
  5
AEBC
330
AD5A
100
AcDbEntity
  8
1
  6
Continuous
100
AcDbLine
 10
61.644705
 20
215.17952
 30
0.0
 11
59.644705
 21
216.67252
 31
0.0
  0
LINE
  5
AEBD
330
AD5A
100
AcDbEntity
  8
1
  6
Continuous
100
AcDbLine
 10
60.23049199999999
 20
215.17952
 30
0.0
 11
58.23049199999999
 21
216.67252
 31
0.0
  0
LINE
  5
AEBE
330
AD5A
100
AcDbEntity
  8
1
  6
Continuous
100
AcDbLine
 10
58.816278
 20
215.17952
 30
0.0
 11
56.81627800000001
 21
216.67252
 31
0.0
  0
LINE
  5
AEBF
330
AD5A
100
AcDbEntity
  8
1
  6
Continuous
100
AcDbLine
 10
57.402065
 20
215.17952
 30
0.0
 11
55.402065
 21
216.67252
 31
0.0
  0
LINE
  5
AEC0
330
AD5A
100
AcDbEntity
  8
1
  6
Continuous
100
AcDbLine
 10
53.159424
 20
215.17952
 30
0.0
 11
51.159424
 21
216.67252
 31
0.0
  0
LINE
  5
AEC1
330
AD5A
100
AcDbEntity
  8
1
  6
Continuous
100
AcDbLine
 10
54.573637
 20
215.17952
 30
0.0
 11
52.57363699999999
 21
216.67252
 31
0.0
  0
LINE
  5
AEC2
330
AD5A
100
AcDbEntity
  8
1
  6
Continuous
100
AcDbLine
 10
55.987851
 20
215.17952
 30
0.0
 11
53.987851
 21
216.67252
 31
0.0
  0
ARC
  5
AEC3
330
AD5A
100
AcDbEntity
  8
1
  6
Continuous
100
AcDbCircle
 10
33.237851
 20
211.191224
 30
0.0
 40
4.0
100
AcDbArc
 50
94.384039
 51
180.0
  0
ARC
  5
AEC4
330
AD5A
100
AcDbEntity
  8
1
  6
Continuous
100
AcDbCircle
 10
44.987851
 20
204.651056
 30
0.0
 40
1.5
100
AcDbArc
 50
103.5189079999999
 51
180.0
  0
LINE
  5
AEC5
330
AD5A
100
AcDbEntity
  8
1
  6
Continuous
100
AcDbLine
 10
29.23785099999999
 20
211.191224
 30
0.0
 11
29.23785099999999
 21
189.4850059999999
 31
0.0
  0
ARC
  5
AEC6
330
AD5A
100
AcDbEntity
  8
1
  6
Continuous
100
AcDbCircle
 10
34.231967
 20
230.5325199999999
 30
0.0
 40
10.64
100
AcDbArc
 50
234.0659919999999
 51
270.0
  0
LINE
  5
AEC7
330
AD5A
100
AcDbEntity
  8
1
  6
Continuous
100
AcDbLine
 10
32.18886099999998
 20
215.17952
 30
0.0
 11
34.18886099999999
 21
216.67252
 31
0.0
  0
LINE
  5
AEC8
330
AD5A
100
AcDbEntity
  8
1
  6
Continuous
100
AcDbLine
 10
34.77464799999999
 20
215.17952
 30
0.0
 11
32.774648
 21
216.67252
 31
0.0
  0
LINE
  5
AEC9
330
AD5A
100
AcDbEntity
  8
1
  6
Continuous
100
AcDbLine
 10
35.017288
 20
215.17952
 30
0.0
 11
37.017288
 21
216.67252
 31
0.0
  0
LINE
  5
AECA
330
AD5A
100
AcDbEntity
  8
1
  6
Continuous
100
AcDbLine
 10
37.84571500000001
 20
215.17952
 30
0.0
 11
39.84571499999999
 21
216.67252
 31
0.0
  0
LINE
  5
AECB
330
AD5A
100
AcDbEntity
  8
1
  6
Continuous
100
AcDbLine
 10
40.674143
 20
215.17952
 30
0.0
 11
42.674143
 21
216.67252
 31
0.0
  0
LINE
  5
AECC
330
AD5A
100
AcDbEntity
  8
1
  6
Continuous
100
AcDbLine
 10
43.50257
 20
215.17952
 30
0.0
 11
45.50257
 21
216.67252
 31
0.0
  0
LINE
  5
AECD
330
AD5A
100
AcDbEntity
  8
1
  6
Continuous
100
AcDbLine
 10
46.33099699999998
 20
215.17952
 30
0.0
 11
48.33099699999999
 21
216.67252
 31
0.0
  0
LINE
  5
AECE
330
AD5A
100
AcDbEntity
  8
1
  6
Continuous
100
AcDbLine
 10
36.18886099999999
 20
215.17952
 30
0.0
 11
34.18886099999999
 21
216.67252
 31
0.0
  0
LINE
  5
AECF
330
AD5A
100
AcDbEntity
  8
1
  6
Continuous
100
AcDbLine
 10
37.60307499999999
 20
215.17952
 30
0.0
 11
35.60307499999999
 21
216.67252
 31
0.0
  0
LINE
  5
AED0
330
AD5A
100
AcDbEntity
  8
1
  6
Continuous
100
AcDbLine
 10
39.017288
 20
215.17952
 30
0.0
 11
37.017288
 21
216.67252
 31
0.0
  0
LINE
  5
AED1
330
AD5A
100
AcDbEntity
  8
1
  6
Continuous
100
AcDbLine
 10
40.431502
 20
215.17952
 30
0.0
 11
38.431502
 21
216.67252
 31
0.0
  0
LINE
  5
AED2
330
AD5A
100
AcDbEntity
  8
1
  6
Continuous
100
AcDbLine
 10
41.84571499999999
 20
215.17952
 30
0.0
 11
39.84571499999999
 21
216.67252
 31
0.0
  0
LINE
  5
AED3
330
AD5A
100
AcDbEntity
  8
1
  6
Continuous
100
AcDbLine
 10
43.259929
 20
215.17952
 30
0.0
 11
41.25992899999999
 21
216.67252
 31
0.0
  0
LINE
  5
AED4
330
AD5A
100
AcDbEntity
  8
1
  6
Continuous
100
AcDbLine
 10
44.674143
 20
215.17952
 30
0.0
 11
42.674143
 21
216.67252
 31
0.0
  0
LINE
  5
AED5
330
AD5A
100
AcDbEntity
  8
1
  6
Continuous
100
AcDbLine
 10
46.08835599999999
 20
215.17952
 30
0.0
 11
44.08835599999998
 21
216.67252
 31
0.0
  0
LINE
  5
AED6
330
AD5A
100
AcDbEntity
  8
1
  6
Continuous
100
AcDbLine
 10
47.50257
 20
215.17952
 30
0.0
 11
45.50257
 21
216.67252
 31
0.0
  0
LINE
  5
AED7
330
AD5A
100
AcDbEntity
  8
1
  6
Continuous
100
AcDbLine
 10
48.916783
 20
215.17952
 30
0.0
 11
46.916783
 21
216.67252
 31
0.0
  0
LINE
  5
AED8
330
AD5A
100
AcDbEntity
  8
4
  6
CENTER
100
AcDbLine
 10
35.987851
 20
229.217665
 30
0.0
 11
35.987851
 21
216.9173819999998
 31
0.0
  0
LINE
  5
AED9
330
AD5A
100
AcDbEntity
  8
1
  6
Continuous
100
AcDbLine
 10
26.987851
 20
224.2176649999999
 30
0.0
 11
26.987851
 21
221.9173819999999
 31
0.0
  0
LINE
  5
AEDA
330
AD5A
100
AcDbEntity
  8
1
  6
Continuous
100
AcDbLine
 10
30.98785100000001
 20
216.299937
 30
0.0
 11
31.360434
 21
216.67252
 31
0.0
  0
ARC
  5
AEDB
330
AD5A
100
AcDbEntity
  8
1
  6
Continuous
100
AcDbCircle
 10
36.801349
 20
214.6038089999999
 30
0.0
 40
6.206
100
AcDbArc
 50
121.2013169999998
 51
140.935699
  0
ARC
  5
AEDC
330
AD5A
100
AcDbEntity
  8
1
  6
Continuous
100
AcDbCircle
 10
34.599249
 20
219.7050089999999
 30
0.0
 40
4.697225
100
AcDbArc
 50
206.286695
 51
220.210037
  0
LINE
  5
AEDD
330
AD5A
100
AcDbEntity
  8
1
  6
Continuous
100
AcDbLine
 10
31.81276699999999
 20
218.154782
 30
0.0
 11
31.982767
 21
218.514782
 31
0.0
  0
LINE
  5
AEDE
330
AD5A
100
AcDbEntity
  8
1
  6
Continuous
100
AcDbLine
 10
30.997767
 20
218.154782
 30
0.0
 11
31.81276699999999
 21
218.154782
 31
0.0
  0
ARC
  5
AEDF
330
AD5A
100
AcDbEntity
  8
1
  6
Continuous
100
AcDbCircle
 10
31.261737
 20
217.234929
 30
0.0
 40
0.9569799999999998
100
AcDbArc
 50
106.011913
 51
155.9597349999999
  0
LINE
  5
AEE0
330
AD5A
100
AcDbEntity
  8
1
  6
Continuous
100
AcDbLine
 10
31.94622
 20
215.17952
 30
0.0
 11
30.98785100000001
 21
216.1378899999998
 31
0.0
  0
LINE
  5
AEE1
330
AD5A
100
AcDbEntity
  8
1
  6
Continuous
100
AcDbLine
 10
33.36043399999999
 20
215.17952
 30
0.0
 11
31.360434
 21
216.67252
 31
0.0
  0
LINE
  5
AEE2
330
AD5A
100
AcDbEntity
  8
1
  6
Continuous
100
AcDbLine
 10
30.98785100000001
 20
216.67252
 30
0.0
 11
30.98785100000001
 21
215.17952
 31
0.0
  0
LINE
  5
AEE3
330
AD5A
100
AcDbEntity
  8
1
  6
Continuous
100
AcDbLine
 10
39.087182
 20
210.5764409999999
 30
0.0
 11
68.88851999999999
 21
210.5764409999999
 31
0.0
  0
LINE
  5
AEE4
330
AD5A
100
AcDbEntity
  8
1
  6
Continuous
100
AcDbLine
 10
38.98785099999999
 20
212.80205
 30
0.0
 11
68.98785100000001
 21
212.80205
 31
0.0
  0
ARC
  5
AEE5
330
AD5A
100
AcDbEntity
  8
1
  6
Continuous
100
AcDbCircle
 10
67.63674399999999
 20
208.509672
 30
0.0
 40
4.5
100
AcDbArc
 50
359.391148
 51
72.527617
  0
ARC
  5
AEE6
330
AD5A
100
AcDbEntity
  8
1
  6
Continuous
100
AcDbCircle
 10
67.337851
 20
208.615465
 30
0.0
 40
2.5
100
AcDbArc
 50
0.0
 51
51.66432999999999
  0
LINE
  5
AEE7
330
AD5A
100
AcDbEntity
  8
1
  6
Continuous
100
AcDbLine
 10
69.83771
 20
208.5888989999999
 30
0.0
 11
69.671749
 21
192.9900909999999
 31
0.0
  0
LINE
  5
AEE8
330
AD5A
100
AcDbEntity
  8
1
  6
Continuous
100
AcDbLine
 10
72.13649000000002
 20
208.461854
 30
0.0
 11
71.97188100000002
 21
192.9900909999999
 31
0.0
  0
LINE
  5
AEE9
330
AD5A
100
AcDbEntity
  8
1
  6
Continuous
100
AcDbLine
 10
69.375078
 20
165.1057189999999
 30
0.0
 11
71.675208
 21
165.1057189999999
 31
0.0
  0
LINE
  5
AEEA
330
AD5A
100
AcDbEntity
  8
1
  6
Continuous
100
AcDbLine
 10
35.83921199999998
 20
208.461854
 30
0.0
 11
36.300494
 21
165.1057189999999
 31
0.0
  0
LINE
  5
AEEB
330
AD5A
100
AcDbEntity
  8
1
  6
Continuous
100
AcDbLine
 10
38.60062399999998
 20
165.1057189999999
 30
0.0
 11
36.300494
 21
165.1057189999999
 31
0.0
  0
LINE
  5
AEEC
330
AD5A
100
AcDbEntity
  8
1
  6
Continuous
100
AcDbLine
 10
38.137992
 20
208.5888989999999
 30
0.0
 11
38.60062399999998
 21
165.1057189999999
 31
0.0
  0
ARC
  5
AEED
330
AD5A
100
AcDbEntity
  8
1
  6
Continuous
100
AcDbCircle
 10
40.33895799999998
 20
208.509672
 30
0.0
 40
4.5
100
AcDbArc
 50
107.4723829999999
 51
180.608852
  0
ARC
  5
AEEE
330
AD5A
100
AcDbEntity
  8
1
  6
Continuous
100
AcDbCircle
 10
40.63785099999999
 20
208.615465
 30
0.0
 40
2.5
100
AcDbArc
 50
128.3356699999999
 51
180.608852
  0
ARC
  5
AEEF
330
AD5A
100
AcDbEntity
  8
1
  6
Continuous
100
AcDbCircle
 10
57.396101
 20
189.4850059999999
 30
0.0
 40
28.15825
100
AcDbArc
 50
180.0
 51
203.2610639999998
  0
ARC
  5
AEF0
330
AD5A
100
AcDbEntity
  8
1
  6
Continuous
100
AcDbCircle
 10
50.57960099999998
 20
189.4850059999999
 30
0.0
 40
28.15825
100
AcDbArc
 50
346.4546149999998
 51
357.094602
  0
LINE
  5
AEF1
330
AD5A
100
AcDbEntity
  8
1
  6
Continuous
100
AcDbLine
 10
280.1438769999999
 20
208.46721
 30
0.0
 11
280.6052139999998
 21
165.1057189999999
 31
0.0
  0
LINE
  5
AEF2
330
AD5A
100
AcDbEntity
  8
1
  6
Continuous
100
AcDbLine
 10
311.8410059999998
 20
208.46721
 30
0.0
 11
311.379668
 21
165.1057189999999
 31
0.0
  0
LINE
  5
AEF3
330
AD5A
100
AcDbEntity
  8
1
  6
Continuous
100
AcDbLine
 10
311.3961929999998
 20
165.1057189999999
 30
0.0
 11
313.679798
 21
165.1057189999999
 31
0.0
  0
CIRCLE
  5
AEF4
330
AD5A
100
AcDbEntity
  8
1
  6
Continuous
100
AcDbCircle
 10
212.490146
 20
86.81031800000004
 30
0.0
 40
3.25
  0
LINE
  5
AEF5
330
AD5A
100
AcDbEntity
  8
4
  6
CENTER
100
AcDbLine
 10
212.490146
 20
93.06031800000004
 30
0.0
 11
212.490146
 21
80.56031800000003
 31
0.0
  0
LINE
  5
AEF6
330
AD5A
100
AcDbEntity
  8
4
  6
CENTER
100
AcDbLine
 10
158.490146
 20
93.06031800000004
 30
0.0
 11
158.490146
 21
80.56031800000003
 31
0.0
  0
LINE
  5
AEF7
330
AD5A
100
AcDbEntity
  8
4
  6
CENTER
100
AcDbLine
 10
185.490146
 20
100.810318
 30
0.0
 11
185.490146
 21
36.810318
 31
0.0
  0
LINE
  5
AEF8
330
AD5A
100
AcDbEntity
  8
1
  6
Continuous
100
AcDbLine
 10
150.490146
 20
82.806641
 30
0.0
 11
150.490146
 21
81.81031800000003
 31
0.0
  0
LINE
  5
AEF9
330
AD5A
100
AcDbEntity
  8
1
  6
Continuous
100
AcDbLine
 10
220.490146
 20
88.81031799999998
 30
0.0
 11
220.490146
 21
48.810318
 31
0.0
  0
LINE
  5
AEFA
330
AD5A
100
AcDbEntity
  8
1
  6
Continuous
100
AcDbLine
 10
213.490146
 20
95.81031800000003
 30
0.0
 11
205.542309
 21
95.81031800000003
 31
0.0
  0
ARC
  5
AEFB
330
AD5A
100
AcDbEntity
  8
1
  6
Continuous
100
AcDbCircle
 10
157.490146
 20
88.81031799999998
 30
0.0
 40
7.0
100
AcDbArc
 50
93.22818299999999
 51
181.6350939999999
  0
ARC
  5
AEFC
330
AD5A
100
AcDbEntity
  8
1
  6
Continuous
100
AcDbCircle
 10
213.490146
 20
88.81031799999998
 30
0.0
 40
7.0
100
AcDbArc
 50
0.0
 51
90.0
  0
LINE
  5
AEFD
330
AD5A
100
AcDbEntity
  8
4
  6
CENTER
100
AcDbLine
 10
225.490146
 20
68.81031800000001
 30
0.0
 11
123.990146
 21
68.81031800000001
 31
0.0
  0
LINE
  5
AEFE
330
AD5A
100
AcDbEntity
  8
1
  6
Continuous
100
AcDbLine
 10
213.490146
 20
41.810318
 30
0.0
 11
157.490146
 21
41.810318
 31
0.0
  0
ARC
  5
AEFF
330
AD5A
100
AcDbEntity
  8
1
  6
Continuous
100
AcDbCircle
 10
157.490146
 20
48.810318
 30
0.0
 40
7.0
100
AcDbArc
 50
180.0
 51
270.0
  0
LINE
  5
AF00
330
AD5A
100
AcDbEntity
  8
4
  6
CENTER
100
AcDbLine
 10
164.740146
 20
50.810318
 30
0.0
 11
152.240146
 21
50.810318
 31
0.0
  0
LINE
  5
AF01
330
AD5A
100
AcDbEntity
  8
4
  6
CENTER
100
AcDbLine
 10
164.740146
 20
86.81031800000004
 30
0.0
 11
152.240146
 21
86.81031800000004
 31
0.0
  0
LINE
  5
AF02
330
AD5A
100
AcDbEntity
  8
4
  6
CENTER
100
AcDbLine
 10
158.490146
 20
57.060318
 30
0.0
 11
158.490146
 21
44.560318
 31
0.0
  0
ARC
  5
AF03
330
AD5A
100
AcDbEntity
  8
1
  6
Continuous
100
AcDbCircle
 10
213.490146
 20
48.810318
 30
0.0
 40
7.0
100
AcDbArc
 50
270.0
 51
0.0
  0
LINE
  5
AF04
330
AD5A
100
AcDbEntity
  8
4
  6
CENTER
100
AcDbLine
 10
218.740146
 20
86.81031800000004
 30
0.0
 11
206.240146
 21
86.81031800000004
 31
0.0
  0
LINE
  5
AF05
330
AD5A
100
AcDbEntity
  8
4
  6
CENTER
100
AcDbLine
 10
218.740146
 20
50.810318
 30
0.0
 11
206.240146
 21
50.810318
 31
0.0
  0
CIRCLE
  5
AF06
330
AD5A
100
AcDbEntity
  8
1
  6
Continuous
100
AcDbCircle
 10
212.490146
 20
50.810318
 30
0.0
 40
3.25
  0
LINE
  5
AF07
330
AD5A
100
AcDbEntity
  8
4
  6
CENTER
100
AcDbLine
 10
212.490146
 20
57.060318
 30
0.0
 11
212.490146
 21
44.560318
 31
0.0
  0
ARC
  5
AF08
330
AD5A
100
AcDbEntity
  8
1
  6
Continuous
100
AcDbCircle
 10
131.5568719999999
 20
59.810318
 30
0.0
 40
1.5
100
AcDbArc
 50
193.518908
 51
270.0
  0
LINE
  5
AF09
330
AD5A
100
AcDbEntity
  8
1
  6
Continuous
100
AcDbLine
 10
189.4234199999999
 20
58.310318
 30
0.0
 11
131.5568719999999
 21
58.310318
 31
0.0
  0
ARC
  5
AF0A
330
AD5A
100
AcDbEntity
  8
1
  6
Continuous
100
AcDbCircle
 10
168.990146
 20
68.81031800000001
 30
0.0
 40
40.0
100
AcDbArc
 50
166.4810919999998
 51
193.518908
  0
ARC
  5
AF0B
330
AD5A
100
AcDbEntity
  8
1
  6
Continuous
100
AcDbCircle
 10
131.5568719999999
 20
77.81031799999998
 30
0.0
 40
1.5
100
AcDbArc
 50
90.0
 51
166.4810919999998
  0
LINE
  5
AF0C
330
AD5A
100
AcDbEntity
  8
1
  6
Continuous
100
AcDbLine
 10
189.4234199999999
 20
79.31031800000003
 30
0.0
 11
131.5568719999999
 21
79.31031800000003
 31
0.0
  0
LINE
  5
AF0D
330
AD5A
100
AcDbEntity
  8
1
  6
Continuous
100
AcDbLine
 10
168.490146
 20
83.31031800000003
 30
0.0
 11
152.490146
 21
83.31031800000003
 31
0.0
  0
LINE
  5
AF0E
330
AD5A
100
AcDbEntity
  8
1
  6
Continuous
100
AcDbLine
 10
147.9886639999998
 20
81.81031800000003
 30
0.0
 11
172.9916279999999
 21
81.81031800000003
 31
0.0
  0
LINE
  5
AF0F
330
AD5A
100
AcDbEntity
  8
1
  6
Continuous
100
AcDbLine
 10
156.490146
 20
84.353008
 30
0.0
 11
156.490146
 21
83.31031800000003
 31
0.0
  0
LINE
  5
AF10
330
AD5A
100
AcDbEntity
  8
1
  6
Continuous
100
AcDbLine
 10
164.4901459999998
 20
84.26789300000001
 30
0.0
 11
164.4901459999998
 21
83.31031800000003
 31
0.0
  0
LINE
  5
AF11
330
AD5A
100
AcDbEntity
  8
1
  6
Continuous
100
AcDbLine
 10
176.5619979999999
 20
79.31031800000003
 30
0.0
 11
172.9916279999999
 21
81.81031800000003
 31
0.0
  0
LINE
  5
AF12
330
AD5A
100
AcDbEntity
  8
1
  6
Continuous
100
AcDbLine
 10
169.990146
 20
81.81031800000003
 30
0.0
 11
168.490146
 21
83.31031800000003
 31
0.0
  0
LINE
  5
AF13
330
AD5A
100
AcDbEntity
  8
1
  6
Continuous
100
AcDbLine
 10
150.990146
 20
81.81031800000003
 30
0.0
 11
152.490146
 21
83.31031800000003
 31
0.0
  0
LINE
  5
AF14
330
AD5A
100
AcDbEntity
  8
1
  6
Continuous
100
AcDbLine
 10
144.418294
 20
79.31031800000003
 30
0.0
 11
147.9886639999998
 21
81.81031800000003
 31
0.0
  0
ARC
  5
AF15
330
AD5A
100
AcDbEntity
  8
1
  6
Continuous
100
AcDbCircle
 10
189.4234199999999
 20
77.81031799999998
 30
0.0
 40
1.5
100
AcDbArc
 50
13.51890799999999
 51
90.0
  0
ARC
  5
AF16
330
AD5A
100
AcDbEntity
  8
1
  6
Continuous
100
AcDbCircle
 10
151.9901459999998
 20
68.81031800000001
 30
0.0
 40
40.0
100
AcDbArc
 50
346.481092
 51
13.51890799999999
  0
ARC
  5
AF17
330
AD5A
100
AcDbEntity
  8
1
  6
Continuous
100
AcDbCircle
 10
189.4234199999999
 20
59.810318
 30
0.0
 40
1.5
100
AcDbArc
 50
270.0
 51
346.481092
  0
LINE
  5
AF18
330
AD5A
100
AcDbEntity
  8
1
  6
Continuous
100
AcDbLine
 10
168.490146
 20
54.310318
 30
0.0
 11
152.490146
 21
54.310318
 31
0.0
  0
LINE
  5
AF19
330
AD5A
100
AcDbEntity
  8
1
  6
Continuous
100
AcDbLine
 10
172.9916279999999
 20
55.810318
 30
0.0
 11
147.9886639999998
 21
55.810318
 31
0.0
  0
LINE
  5
AF1A
330
AD5A
100
AcDbEntity
  8
1
  6
Continuous
100
AcDbLine
 10
176.5619979999999
 20
58.310318
 30
0.0
 11
172.9916279999999
 21
55.810318
 31
0.0
  0
LINE
  5
AF1B
330
AD5A
100
AcDbEntity
  8
1
  6
Continuous
100
AcDbLine
 10
169.990146
 20
55.810318
 30
0.0
 11
168.490146
 21
54.310318
 31
0.0
  0
LINE
  5
AF1C
330
AD5A
100
AcDbEntity
  8
1
  6
Continuous
100
AcDbLine
 10
150.990146
 20
55.810318
 30
0.0
 11
152.490146
 21
54.310318
 31
0.0
  0
LINE
  5
AF1D
330
AD5A
100
AcDbEntity
  8
1
  6
Continuous
100
AcDbLine
 10
144.418294
 20
58.310318
 30
0.0
 11
147.9886639999998
 21
55.810318
 31
0.0
  0
LINE
  5
AF1E
330
AD5A
100
AcDbEntity
  8
1
  6
Continuous
100
AcDbLine
 10
156.490146
 20
54.310318
 30
0.0
 11
156.490146
 21
53.26762900000001
 31
0.0
  0
LINE
  5
AF1F
330
AD5A
100
AcDbEntity
  8
1
  6
Continuous
100
AcDbLine
 10
164.4901459999998
 20
54.310318
 30
0.0
 11
164.4901459999998
 21
53.35274399999999
 31
0.0
  0
LINE
  5
AF20
330
AD5A
100
AcDbEntity
  8
1
  6
Continuous
100
AcDbLine
 10
165.427809
 20
84.36298399999998
 30
0.0
 11
150.5974219999998
 21
84.20519899999998
 31
0.0
  0
LINE
  5
AF21
330
AD5A
100
AcDbEntity
  8
1
  6
Continuous
100
AcDbLine
 10
165.470648
 20
50.95706599999999
 30
0.0
 11
150.5974219999998
 21
51.115308
 31
0.0
  0
LINE
  5
AF22
330
AD5A
100
AcDbEntity
  8
1
  6
Continuous
100
AcDbLine
 10
165.427809
 20
53.257653
 30
0.0
 11
150.5974219999998
 21
53.415438
 31
0.0
  0
LINE
  5
AF23
330
AD5A
100
AcDbEntity
  8
4
  6
CENTER
100
AcDbLine
 10
160.490146
 20
101.993427
 30
0.0
 11
160.490146
 21
36.810318
 31
0.0
  0
LINE
  5
AF24
330
AD5A
100
AcDbEntity
  8
1
  6
Continuous
100
AcDbLine
 10
150.5974219999998
 20
53.415438
 30
0.0
 11
150.5974219999998
 21
51.115308
 31
0.0
  0
LINE
  5
AF25
330
AD5A
100
AcDbEntity
  8
1
  6
Continuous
100
AcDbLine
 10
150.490146
 20
55.810318
 30
0.0
 11
150.490146
 21
48.810318
 31
0.0
  0
ARC
  5
AF26
330
AD5A
100
AcDbEntity
  8
1
  6
Continuous
100
AcDbCircle
 10
185.490146
 20
68.81031800000001
 30
0.0
 40
24.75
100
AcDbArc
 50
232.1293309999998
 51
62.43460699999999
  0
ARC
  5
AF27
330
AD5A
100
AcDbEntity
  8
1
  6
Continuous
100
AcDbCircle
 10
185.490146
 20
68.81031800000001
 30
0.0
 40
22.45
100
AcDbArc
 50
232.2467339999999
 51
77.769526
  0
ARC
  5
AF28
330
AD5A
100
AcDbEntity
  8
1
  6
Continuous
100
AcDbCircle
 10
165.3161019999998
 20
94.86239000000001
 30
0.0
 40
10.5
100
AcDbArc
 50
270.6095659999999
 51
307.753266
  0
ARC
  5
AF29
330
AD5A
100
AcDbEntity
  8
1
  6
Continuous
100
AcDbCircle
 10
165.3161019999998
 20
42.758247
 30
0.0
 40
10.5
100
AcDbArc
 50
52.246734
 51
89.390434
  0
ARC
  5
AF2A
330
AD5A
100
AcDbEntity
  8
1
  6
Continuous
100
AcDbCircle
 10
165.3855379999999
 20
42.95751899999999
 30
0.0
 40
8.0
100
AcDbArc
 50
52.129331
 51
89.39043199999996
  0
ARC
  5
AF2B
330
AD5A
100
AcDbEntity
  8
1
  6
Continuous
100
AcDbCircle
 10
185.490146
 20
68.81031800000001
 30
0.0
 40
20.44999999999999
100
AcDbArc
 50
219.4716859999998
 51
84.56916900000001
  0
ARC
  5
AF2C
330
AD5A
100
AcDbEntity
  8
1
  6
Continuous
100
AcDbCircle
 10
185.490146
 20
68.81031800000001
 30
0.0
 40
18.44999999999998
100
AcDbArc
 50
224.7978069999998
 51
135.202193
  0
ARC
  5
AF2D
330
AD5A
100
AcDbEntity
  8
1
  6
Continuous
100
AcDbCircle
 10
185.490146
 20
68.81031800000001
 30
0.0
 40
9.449999999999999
100
AcDbArc
 50
307.8441509999998
 51
52.15584899999999
  0
ARC
  5
AF2E
330
AD5A
100
AcDbEntity
  8
1
  6
Continuous
100
AcDbCircle
 10
185.490146
 20
68.81031800000001
 30
0.0
 40
26.0
100
AcDbArc
 50
223.690664
 51
57.550413
  0
LINE
  5
AF2F
330
AD5A
100
AcDbEntity
  8
1
  6
Continuous
100
AcDbLine
 10
313.7121409999999
 20
168.1456459999999
 30
0.0
 11
313.679798
 21
165.1057189999999
 31
0.0
  0
ARC
  5
AF30
330
AD5A
100
AcDbEntity
  8
1
  6
Continuous
100
AcDbCircle
 10
321.7116889999999
 20
168.060536
 30
0.0
 40
8.0
100
AcDbArc
 50
143.6639909999998
 51
179.390432
  0
ARC
  5
AF31
330
AD5A
100
AcDbEntity
  8
1
  6
Continuous
100
AcDbCircle
 10
319.419848
 20
168.839702
 30
0.0
 40
8.0
100
AcDbArc
 50
142.4280659999998
 51
179.390434
  0
ARC
  5
AF32
330
AD5A
100
AcDbEntity
  8
1
  6
Continuous
100
AcDbCircle
 10
299.4006909999999
 20
189.4850059999999
 30
0.0
 40
28.15825
100
AcDbArc
 50
180.0
 51
216.3360089999999
  0
ARC
  5
AF33
330
AD5A
100
AcDbEntity
  8
1
  6
Continuous
100
AcDbCircle
 10
299.4006909999999
 20
189.4850059999999
 30
0.0
 40
25.85825
100
AcDbArc
 50
180.0
 51
217.571934
  0
ARC
  5
AF34
330
AD5A
100
AcDbEntity
  8
1
  6
Continuous
100
AcDbCircle
 10
270.273194
 20
168.060536
 30
0.0
 40
8.0
100
AcDbArc
 50
0.609568
 51
36.33600899999999
  0
ARC
  5
AF35
330
AD5A
100
AcDbEntity
  8
1
  6
Continuous
100
AcDbCircle
 10
272.565035
 20
168.839702
 30
0.0
 40
8.0
100
AcDbArc
 50
0.6095660000000001
 51
37.57193400000001
  0
LINE
  5
AF36
330
AD5A
100
AcDbEntity
  8
1
  6
Continuous
100
AcDbLine
 10
278.272742
 20
168.1456459999999
 30
0.0
 11
278.3050839999999
 21
165.1057189999999
 31
0.0
  0
ARC
  5
AF37
330
AD5A
100
AcDbEntity
  8
1
  6
Continuous
100
AcDbCircle
 10
198.155812
 20
299.6250819999999
 30
0.0
 40
43.83148900000001
100
AcDbArc
 50
200.998235
 51
203.923978
  0
ARC
  5
AF38
330
AD5A
100
AcDbEntity
  8
1
  6
Continuous
100
AcDbCircle
 10
198.155812
 20
299.6250819999999
 30
0.0
 40
43.83148900000001
100
AcDbArc
 50
156.0760219999998
 51
160.6540899999999
  0
LINE
  5
AF39
330
AD5A
100
AcDbEntity
  8
1
  6
Continuous
100
AcDbLine
 10
161.615282
 20
281.812849
 30
0.0
 11
155.384701
 21
281.879139
 31
0.0
  0
LINE
  5
AF3A
330
AD5A
100
AcDbEntity
  8
1
  6
Continuous
100
AcDbLine
 10
161.6986719999998
 20
317.4382029999998
 30
0.0
 11
155.271336
 21
317.36982
 31
0.0
  0
LINE
  5
AF3B
330
AD5A
100
AcDbEntity
  8
1
  6
Continuous
100
AcDbLine
 10
157.143033
 20
315.089604
 30
0.0
 11
155.8147339999999
 21
315.075471
 31
0.0
  0
LINE
  5
AF3C
330
AD5A
100
AcDbEntity
  8
1
  6
Continuous
100
AcDbLine
 10
156.490146
 20
314.3589089999999
 30
0.0
 11
156.490146
 21
315.0826569999999
 31
0.0
  0
LINE
  5
AF3D
330
AD5A
100
AcDbEntity
  8
1
  6
Continuous
100
AcDbLine
 10
156.8232379999998
 20
319.7106129999998
 30
0.0
 11
160.157055
 21
319.7106129999998
 31
0.0
  0
LINE
  5
AF3E
330
AD5A
100
AcDbEntity
  8
1
  6
Continuous
100
AcDbLine
 10
59.588285
 20
209.3610889999999
 30
0.0
 11
60.803637
 21
210.5764409999999
 31
0.0
  0
LINE
  5
AF3F
330
AD5A
100
AcDbEntity
  8
1
  6
Continuous
100
AcDbLine
 10
69.38942
 20
209.3610889999999
 30
0.0
 11
38.586282
 21
209.3610889999999
 31
0.0
  0
LINE
  5
AF40
330
AD5A
100
AcDbEntity
  8
1
  6
Continuous
100
AcDbLine
 10
38.507466
 20
208.353936
 30
0.0
 11
69.468237
 21
208.353936
 31
0.0
  0
LINE
  5
AF41
330
AD5A
100
AcDbEntity
  8
1
  6
Continuous
100
AcDbLine
 10
44.031936
 20
209.3610889999999
 30
0.0
 11
45.24728699999999
 21
210.5764409999999
 31
0.0
  0
LINE
  5
AF42
330
AD5A
100
AcDbEntity
  8
1
  6
Continuous
100
AcDbLine
 10
45.150426
 20
209.3610889999999
 30
0.0
 11
43.93507399999999
 21
210.5764409999999
 31
0.0
  0
LINE
  5
AF43
330
AD5A
100
AcDbEntity
  8
1
  6
Continuous
100
AcDbLine
 10
42.72191999999999
 20
205.5535639999999
 30
0.0
 11
43.789737
 21
205.5535639999999
 31
0.0
  0
LINE
  5
AF44
330
AD5A
100
AcDbEntity
  8
1
  6
Continuous
100
AcDbLine
 10
43.736212
 20
209.3610889999999
 30
0.0
 11
42.52086
 21
210.5764409999999
 31
0.0
  0
LINE
  5
AF45
330
AD5A
100
AcDbEntity
  8
1
  6
Continuous
100
AcDbLine
 10
42.617722
 20
209.3610889999999
 30
0.0
 11
43.83307399999998
 21
210.5764409999999
 31
0.0
  0
LINE
  5
AF46
330
AD5A
100
AcDbEntity
  8
1
  6
Continuous
100
AcDbLine
 10
38.866056
 20
209.988604
 30
0.0
 11
39.493571
 21
209.3610889999999
 31
0.0
  0
ARC
  5
AF47
330
AD5A
100
AcDbEntity
  8
1
  6
Continuous
100
AcDbCircle
 10
42.227783
 20
210.0128329999999
 30
0.0
 40
4.217937
100
AcDbArc
 50
212.9024809999999
 51
227.0719179999999
  0
ARC
  5
AF48
330
AD5A
100
AcDbEntity
  8
1
  6
Continuous
100
AcDbCircle
 10
43.003175
 20
210.846435
 30
0.0
 40
5.356411999999998
100
AcDbArc
 50
227.0719179999999
 51
260.59491
  0
ARC
  5
AF49
330
AD5A
100
AcDbEntity
  8
1
  6
Continuous
100
AcDbCircle
 10
37.49265799999999
 20
210.1638349999999
 30
0.0
 40
2.088299
100
AcDbArc
 50
319.8145149999998
 51
335.385289
  0
LINE
  5
AF4A
330
AD5A
100
AcDbEntity
  8
1
  6
Continuous
100
AcDbLine
 10
38.709404
 20
209.6954119999999
 30
0.0
 11
39.59043299999999
 21
210.5764409999999
 31
0.0
  0
ARC
  5
AF4B
330
AD5A
100
AcDbEntity
  8
1
  6
Continuous
100
AcDbCircle
 10
40.98785099999999
 20
208.6664889999999
 30
0.0
 40
2.5
100
AcDbArc
 50
130.183595
 51
187.18198
  0
ARC
  5
AF4C
330
AD5A
100
AcDbEntity
  8
1
  6
Continuous
100
AcDbCircle
 10
38.82010499999999
 20
209.042632
 30
0.0
 40
0.3507099999999999
100
AcDbArc
 50
305.759494
 51
319.8145149999998
  0
LINE
  5
AF4D
330
AD5A
100
AcDbEntity
  8
1
  6
Continuous
100
AcDbLine
 10
39.025055
 20
208.7580389999998
 30
0.0
 11
38.806344
 21
208.353936
 31
0.0
  0
LINE
  5
AF4E
330
AD5A
100
AcDbEntity
  8
1
  6
Continuous
100
AcDbLine
 10
38.730922
 20
208.353936
 30
0.0
 11
38.62296699999999
 21
208.3471679999999
 31
0.0
  0
ARC
  5
AF4F
330
AD5A
100
AcDbEntity
  8
1
  6
Continuous
100
AcDbCircle
 10
38.78015299999999
 20
208.2492709999999
 30
0.0
 40
0.18518
100
AcDbArc
 50
148.0847599999999
 51
201.017471
  0
ARC
  5
AF50
330
AD5A
100
AcDbEntity
  8
1
  6
Continuous
100
AcDbCircle
 10
37.490958
 20
207.7539439999999
 30
0.0
 40
1.195896999999998
100
AcDbArc
 50
358.4503999999999
 51
21.017471
  0
ARC
  5
AF51
330
AD5A
100
AcDbEntity
  8
1
  6
Continuous
100
AcDbCircle
 10
39.527945
 20
209.231376
 30
0.0
 40
0.150422
100
AcDbArc
 50
120.421811
 51
155.3852889999998
  0
LINE
  5
AF52
330
AD5A
100
AcDbEntity
  8
1
  6
Continuous
100
AcDbLine
 10
41.20350799999999
 20
209.3610889999999
 30
0.0
 11
42.41886
 21
210.5764409999999
 31
0.0
  0
LINE
  5
AF53
330
AD5A
100
AcDbEntity
  8
1
  6
Continuous
100
AcDbLine
 10
39.789295
 20
209.3610889999999
 30
0.0
 11
41.00464699999998
 21
210.5764409999999
 31
0.0
  0
LINE
  5
AF54
330
AD5A
100
AcDbEntity
  8
1
  6
Continuous
100
AcDbLine
 10
42.321999
 20
209.3610889999999
 30
0.0
 11
41.106647
 21
210.5764409999999
 31
0.0
  0
LINE
  5
AF55
330
AD5A
100
AcDbEntity
  8
1
  6
Continuous
100
AcDbLine
 10
40.90778499999998
 20
209.3610889999999
 30
0.0
 11
39.692433
 21
210.5764409999999
 31
0.0
  0
ARC
  5
AF56
330
AD5A
100
AcDbEntity
  8
1
  6
Continuous
100
AcDbCircle
 10
42.72191999999999
 20
226.412562
 30
0.0
 40
20.85899799999999
100
AcDbArc
 50
268.368019
 51
270.0
  0
LINE
  5
AF57
330
AD5A
100
AcDbEntity
  8
1
  6
Continuous
100
AcDbLine
 10
56.464134
 20
209.3610889999999
 30
0.0
 11
55.24878199999999
 21
210.5764409999999
 31
0.0
  0
LINE
  5
AF58
330
AD5A
100
AcDbEntity
  8
1
  6
Continuous
100
AcDbLine
 10
49.393066
 20
209.3610889999999
 30
0.0
 11
48.177715
 21
210.5764409999999
 31
0.0
  0
LINE
  5
AF59
330
AD5A
100
AcDbEntity
  8
1
  6
Continuous
100
AcDbLine
 10
50.80728
 20
209.3610889999999
 30
0.0
 11
49.591928
 21
210.5764409999999
 31
0.0
  0
LINE
  5
AF5A
330
AD5A
100
AcDbEntity
  8
1
  6
Continuous
100
AcDbLine
 10
48.274576
 20
209.3610889999999
 30
0.0
 11
49.489928
 21
210.5764409999999
 31
0.0
  0
LINE
  5
AF5B
330
AD5A
100
AcDbEntity
  8
1
  6
Continuous
100
AcDbLine
 10
49.68879000000001
 20
209.3610889999999
 30
0.0
 11
50.904142
 21
210.5764409999999
 31
0.0
  0
LINE
  5
AF5C
330
AD5A
100
AcDbEntity
  8
1
  6
Continuous
100
AcDbLine
 10
52.221494
 20
209.3610889999999
 30
0.0
 11
51.00614199999998
 21
210.5764409999999
 31
0.0
  0
LINE
  5
AF5D
330
AD5A
100
AcDbEntity
  8
1
  6
Continuous
100
AcDbLine
 10
51.103003
 20
209.3610889999999
 30
0.0
 11
52.31835499999998
 21
210.5764409999999
 31
0.0
  0
LINE
  5
AF5E
330
AD5A
100
AcDbEntity
  8
1
  6
Continuous
100
AcDbLine
 10
55.04992099999999
 20
209.3610889999999
 30
0.0
 11
53.83456899999998
 21
210.5764409999999
 31
0.0
  0
LINE
  5
AF5F
330
AD5A
100
AcDbEntity
  8
1
  6
Continuous
100
AcDbLine
 10
52.517217
 20
209.3610889999999
 30
0.0
 11
53.73256899999999
 21
210.5764409999999
 31
0.0
  0
LINE
  5
AF60
330
AD5A
100
AcDbEntity
  8
1
  6
Continuous
100
AcDbLine
 10
53.93143000000002
 20
209.3610889999999
 30
0.0
 11
55.14678199999998
 21
210.5764409999999
 31
0.0
  0
LINE
  5
AF61
330
AD5A
100
AcDbEntity
  8
1
  6
Continuous
100
AcDbLine
 10
53.635707
 20
209.3610889999999
 30
0.0
 11
52.420355
 21
210.5764409999999
 31
0.0
  0
LINE
  5
AF62
330
AD5A
100
AcDbEntity
  8
1
  6
Continuous
100
AcDbLine
 10
46.564639
 20
209.3610889999999
 30
0.0
 11
45.349287
 21
210.5764409999999
 31
0.0
  0
LINE
  5
AF63
330
AD5A
100
AcDbEntity
  8
1
  6
Continuous
100
AcDbLine
 10
45.446149
 20
209.3610889999999
 30
0.0
 11
46.661501
 21
210.5764409999999
 31
0.0
  0
LINE
  5
AF64
330
AD5A
100
AcDbEntity
  8
1
  6
Continuous
100
AcDbLine
 10
47.97885299999999
 20
209.3610889999999
 30
0.0
 11
46.76350099999999
 21
210.5764409999999
 31
0.0
  0
LINE
  5
AF65
330
AD5A
100
AcDbEntity
  8
1
  6
Continuous
100
AcDbLine
 10
46.860363
 20
209.3610889999999
 30
0.0
 11
48.075715
 21
210.5764409999999
 31
0.0
  0
LINE
  5
AF66
330
AD5A
100
AcDbEntity
  8
1
  6
Continuous
100
AcDbLine
 10
55.34564399999999
 20
209.3610889999999
 30
0.0
 11
56.56099600000001
 21
210.5764409999999
 31
0.0
  0
LINE
  5
AF67
330
AD5A
100
AcDbEntity
  8
1
  6
Continuous
100
AcDbLine
 10
57.87834799999998
 20
209.3610889999999
 30
0.0
 11
56.662996
 21
210.5764409999999
 31
0.0
  0
LINE
  5
AF68
330
AD5A
100
AcDbEntity
  8
1
  6
Continuous
100
AcDbLine
 10
56.75985799999999
 20
209.3610889999999
 30
0.0
 11
57.975209
 21
210.5764409999999
 31
0.0
  0
LINE
  5
AF69
330
AD5A
100
AcDbEntity
  8
1
  6
Continuous
100
AcDbLine
 10
59.29256099999999
 20
209.3610889999999
 30
0.0
 11
58.07720899999999
 21
210.5764409999999
 31
0.0
  0
LINE
  5
AF6A
330
AD5A
100
AcDbEntity
  8
1
  6
Continuous
100
AcDbLine
 10
68.073566
 20
209.3610889999999
 30
0.0
 11
68.940326
 21
210.2278479999999
 31
0.0
  0
ARC
  5
AF6B
330
AD5A
100
AcDbEntity
  8
1
  6
Continuous
100
AcDbCircle
 10
68.44775699999999
 20
209.231376
 30
0.0
 40
0.150422
100
AcDbArc
 50
24.614711
 51
59.57818899999999
  0
ARC
  5
AF6C
330
AD5A
100
AcDbEntity
  8
1
  6
Continuous
100
AcDbCircle
 10
65.747919
 20
210.0128329999999
 30
0.0
 40
4.217937
100
AcDbArc
 50
312.9280819999999
 51
327.0975189999999
  0
ARC
  5
AF6D
330
AD5A
100
AcDbEntity
  8
1
  6
Continuous
100
AcDbCircle
 10
70.48304399999998
 20
210.1638349999999
 30
0.0
 40
2.088299
100
AcDbArc
 50
204.614711
 51
220.185485
  0
ARC
  5
AF6E
330
AD5A
100
AcDbEntity
  8
1
  6
Continuous
100
AcDbCircle
 10
69.155597
 20
209.042632
 30
0.0
 40
0.3507099999999999
100
AcDbArc
 50
220.185485
 51
234.240506
  0
LINE
  5
AF6F
330
AD5A
100
AcDbEntity
  8
1
  6
Continuous
100
AcDbLine
 10
68.950647
 20
208.7580389999998
 30
0.0
 11
69.169358
 21
208.353936
 31
0.0
  0
LINE
  5
AF70
330
AD5A
100
AcDbEntity
  8
1
  6
Continuous
100
AcDbLine
 10
69.24478
 20
208.353936
 30
0.0
 11
69.352735
 21
208.3471679999999
 31
0.0
  0
ARC
  5
AF71
330
AD5A
100
AcDbEntity
  8
1
  6
Continuous
100
AcDbCircle
 10
69.195549
 20
208.2492709999999
 30
0.0
 40
0.18518
100
AcDbArc
 50
338.982529
 51
31.91524
  0
ARC
  5
AF72
330
AD5A
100
AcDbEntity
  8
1
  6
Continuous
100
AcDbCircle
 10
70.48474399999998
 20
207.7539439999999
 30
0.0
 40
1.195896999999998
100
AcDbArc
 50
158.982529
 51
181.5495999999999
  0
LINE
  5
AF73
330
AD5A
100
AcDbEntity
  8
1
  6
Continuous
100
AcDbLine
 10
64.18596599999999
 20
205.5535639999999
 30
0.0
 11
65.253782
 21
205.5535639999999
 31
0.0
  0
ARC
  5
AF74
330
AD5A
100
AcDbEntity
  8
1
  6
Continuous
100
AcDbCircle
 10
65.253782
 20
226.412562
 30
0.0
 40
20.85899799999999
100
AcDbArc
 50
270.0
 51
271.6319809999999
  0
ARC
  5
AF75
330
AD5A
100
AcDbEntity
  8
1
  6
Continuous
100
AcDbCircle
 10
64.972527
 20
210.846435
 30
0.0
 40
5.356411999999998
100
AcDbArc
 50
279.4050899999999
 51
312.9280819999999
  0
LINE
  5
AF76
330
AD5A
100
AcDbEntity
  8
1
  6
Continuous
100
AcDbLine
 10
66.363629
 20
209.3610889999999
 30
0.0
 11
65.14827700000001
 21
210.5764409999999
 31
0.0
  0
LINE
  5
AF77
330
AD5A
100
AcDbEntity
  8
1
  6
Continuous
100
AcDbLine
 10
63.830925
 20
209.3610889999999
 30
0.0
 11
65.046277
 21
210.5764409999999
 31
0.0
  0
LINE
  5
AF78
330
AD5A
100
AcDbEntity
  8
1
  6
Continuous
100
AcDbLine
 10
65.24513899999999
 20
209.3610889999999
 30
0.0
 11
66.460491
 21
210.5764409999999
 31
0.0
  0
LINE
  5
AF79
330
AD5A
100
AcDbEntity
  8
1
  6
Continuous
100
AcDbLine
 10
67.777843
 20
209.3610889999999
 30
0.0
 11
66.56249100000001
 21
210.5764409999999
 31
0.0
  0
LINE
  5
AF7A
330
AD5A
100
AcDbEntity
  8
1
  6
Continuous
100
AcDbLine
 10
66.659353
 20
209.3610889999999
 30
0.0
 11
67.87470400000001
 21
210.5764409999999
 31
0.0
  0
LINE
  5
AF7B
330
AD5A
100
AcDbEntity
  8
1
  6
Continuous
100
AcDbLine
 10
69.19205600000001
 20
209.3610889999999
 30
0.0
 11
67.976704
 21
210.5764409999999
 31
0.0
  0
ARC
  5
AF7C
330
AD5A
100
AcDbEntity
  8
1
  6
Continuous
100
AcDbCircle
 10
66.98785100000001
 20
208.6664889999999
 30
0.0
 40
2.5
100
AcDbArc
 50
352.8180199999998
 51
49.81640500000001
  0
LINE
  5
AF7D
330
AD5A
100
AcDbEntity
  8
1
  6
Continuous
100
AcDbLine
 10
61.002498
 20
209.3610889999999
 30
0.0
 11
62.21785
 21
210.5764409999999
 31
0.0
  0
LINE
  5
AF7E
330
AD5A
100
AcDbEntity
  8
1
  6
Continuous
100
AcDbLine
 10
63.53520200000001
 20
209.3610889999999
 30
0.0
 11
62.31985
 21
210.5764409999999
 31
0.0
  0
LINE
  5
AF7F
330
AD5A
100
AcDbEntity
  8
1
  6
Continuous
100
AcDbLine
 10
62.12098799999999
 20
209.3610889999999
 30
0.0
 11
60.905637
 21
210.5764409999999
 31
0.0
  0
LINE
  5
AF80
330
AD5A
100
AcDbEntity
  8
1
  6
Continuous
100
AcDbLine
 10
62.41671199999998
 20
209.3610889999999
 30
0.0
 11
63.632064
 21
210.5764409999999
 31
0.0
  0
LINE
  5
AF81
330
AD5A
100
AcDbEntity
  8
1
  6
Continuous
100
AcDbLine
 10
64.949416
 20
209.3610889999999
 30
0.0
 11
63.734064
 21
210.5764409999999
 31
0.0
  0
ARC
  5
AF82
330
AD5A
100
AcDbEntity
  8
1
  6
Continuous
100
AcDbCircle
 10
306.9771169999999
 20
210.846435
 30
0.0
 40
5.356411999999998
100
AcDbArc
 50
279.4050899999999
 51
333.628947
  0
ARC
  5
AF83
330
AD5A
100
AcDbEntity
  8
1
  6
Continuous
100
AcDbCircle
 10
307.258372
 20
226.412562
 30
0.0
 40
20.85899799999999
100
AcDbArc
 50
270.0
 51
271.6319809999999
  0
LINE
  5
AF84
330
AD5A
100
AcDbEntity
  8
1
  6
Continuous
100
AcDbLine
 10
284.72651
 20
205.5535639999999
 30
0.0
 11
307.258372
 21
205.5535639999999
 31
0.0
  0
ARC
  5
AF85
330
AD5A
100
AcDbEntity
  8
1
  6
Continuous
100
AcDbCircle
 10
285.007765
 20
210.846435
 30
0.0
 40
5.356411999999998
100
AcDbArc
 50
206.371053
 51
260.59491
  0
ARC
  5
AF86
330
AD5A
100
AcDbEntity
  8
1
  6
Continuous
100
AcDbCircle
 10
284.72651
 20
226.412562
 30
0.0
 40
20.85899799999999
100
AcDbArc
 50
268.368019
 51
270.0
  0
ARC
  5
AF87
330
AD5A
100
AcDbEntity
  8
1
  6
Continuous
100
AcDbCircle
 10
196.4748219999999
 20
210.84647
 30
0.0
 40
5.356411999999998
100
AcDbArc
 50
279.4050899999999
 51
333.2380249999999
  0
ARC
  5
AF88
330
AD5A
100
AcDbEntity
  8
1
  6
Continuous
100
AcDbCircle
 10
196.756077
 20
226.412597
 30
0.0
 40
20.85899799999999
100
AcDbArc
 50
270.0
 51
271.6319809999999
  0
LINE
  5
AF89
330
AD5A
100
AcDbEntity
  8
1
  6
Continuous
100
AcDbLine
 10
193.595156
 20
205.553599
 30
0.0
 11
196.756077
 21
205.553599
 31
0.0
  0
ARC
  5
AF8A
330
AD5A
100
AcDbEntity
  8
1
  6
Continuous
100
AcDbCircle
 10
185.490146
 20
68.81031800000001
 30
0.0
 40
15.0
100
AcDbArc
 50
228.415325
 51
131.584675
  0
LINE
  5
AF8B
330
AD5A
100
AcDbEntity
  8
1
  6
Continuous
100
AcDbLine
 10
169.597422
 20
182.108691
 30
0.0
 11
169.597422
 21
209.884775
 31
0.0
  0
LINE
  5
AF8C
330
AD5A
100
AcDbEntity
  8
4
  6
CENTER
100
AcDbLine
 10
160.490146
 20
265.737537
 30
0.0
 11
160.490146
 21
330.9206459999999
 31
0.0
  0
ARC
  5
AF8D
330
AD5A
100
AcDbEntity
  8
1
  6
Continuous
100
AcDbCircle
 10
163.548435
 20
91.61058099999999
 30
0.0
 40
5.0
100
AcDbArc
 50
269.9999969999999
 51
310.236358
  0
ARC
  5
AF8E
330
AD5A
100
AcDbEntity
  8
1
  6
Continuous
100
AcDbCircle
 10
184.6046939999999
 20
88.312989
 30
0.0
 40
59.110611
100
AcDbArc
 50
175.5217639999999
 51
185.782634
  0
ARC
  5
AF8F
330
AD5A
100
AcDbEntity
  8
1
  6
Continuous
100
AcDbCircle
 10
144.263653
 20
83.61058100000002
 30
0.0
 40
5.0
100
AcDbArc
 50
90.00000300000001
 51
136.218875
  0
ARC
  5
AF90
330
AD5A
100
AcDbEntity
  8
1
  6
Continuous
100
AcDbCircle
 10
44.85318399999999
 20
92.121796
 30
0.0
 40
95.85849000000001
100
AcDbArc
 50
356.9281329999999
 51
0.019878
  0
ARC
  5
AF91
330
AD5A
100
AcDbEntity
  8
1
  6
Continuous
100
AcDbCircle
 10
44.581333
 20
92.121796
 30
0.0
 40
95.85849000000001
100
AcDbArc
 50
356.7491959999999
 51
0.019878
  0
ARC
  5
AF92
330
AD5A
100
AcDbEntity
  8
1
  6
Continuous
100
AcDbCircle
 10
167.7913849999999
 20
91.61058099999999
 30
0.0
 40
5.0
100
AcDbArc
 50
269.9999969999999
 51
310.236358
  0
LINE
  5
AF93
330
AD5A
100
AcDbEntity
  8
1
  6
Continuous
100
AcDbLine
 10
184.435161
 20
87.44072799999997
 30
0.0
 11
183.5156669999999
 21
89.164776
 31
0.0
  0
LINE
  5
AF94
330
AD5A
100
AcDbEntity
  8
1
  6
Continuous
100
AcDbLine
 10
186.158558
 20
87.44071299999998
 30
0.0
 11
188.585932
 21
90.75077099999999
 31
0.0
  0
LINE
  5
AF95
330
AD5A
100
AcDbEntity
  8
1
  6
Continuous
100
AcDbLine
 10
185.53853
 20
87.44072799999997
 30
0.0
 11
187.9659039999999
 21
90.750779
 31
0.0
  0
LINE
  5
AF96
330
AD5A
100
AcDbEntity
  8
1
  6
Continuous
100
AcDbLine
 10
142.9834549999999
 20
86.61058100000003
 30
0.0
 11
167.7913849999999
 21
86.61058100000003
 31
0.0
  0
LINE
  5
AF97
330
AD5A
100
AcDbEntity
  8
1
  6
Continuous
100
AcDbLine
 10
127.250919
 20
81.04129099999999
 30
0.0
 11
139.909809
 21
81.04129099999999
 31
0.0
  0
ARC
  5
AF98
330
AD5A
100
AcDbEntity
  8
1
  6
Continuous
100
AcDbCircle
 10
135.5125689999999
 20
86.04129099999999
 30
0.0
 40
5.0
100
AcDbArc
 50
269.9999969999999
 51
316.218873
  0
LINE
  5
AF99
330
AD5A
100
AcDbEntity
  8
1
  6
Continuous
100
AcDbLine
 10
140.6537109999999
 20
87.070115
 30
0.0
 11
136.792753
 21
83.041291
 31
0.0
  0
LINE
  5
AF9A
330
AD5A
100
AcDbEntity
  8
1
  6
Continuous
100
AcDbLine
 10
129.2509189999998
 20
83.041291
 30
0.0
 11
136.7927589999999
 21
83.041291
 31
0.0
  0
ARC
  5
AF9B
330
AD5A
100
AcDbEntity
  8
1
  6
Continuous
100
AcDbCircle
 10
129.2509189999998
 20
81.04129099999999
 30
0.0
 40
2.0
100
AcDbArc
 50
90.00000300000001
 51
180.000005
  0
ARC
  5
AF9C
330
AD5A
100
AcDbEntity
  8
1
  6
Continuous
100
AcDbCircle
 10
127.250919
 20
82.50477700000002
 30
0.0
 40
1.463484999999999
100
AcDbArc
 50
185.7826379999999
 51
269.9999969999999
  0
ARC
  5
AF9D
330
AD5A
100
AcDbEntity
  8
1
  6
Continuous
100
AcDbCircle
 10
139.909809
 20
86.04129099999999
 30
0.0
 40
5.0
100
AcDbArc
 50
269.9999969999999
 51
316.218873
  0
LINE
  5
AF9E
330
AD5A
100
AcDbEntity
  8
1
  6
Continuous
100
AcDbLine
 10
147.3099249999999
 20
82.806641
 30
0.0
 11
151.986469
 21
82.806641
 31
0.0
  0
LINE
  5
AF9F
330
AD5A
100
AcDbEntity
  8
1
  6
Continuous
100
AcDbLine
 10
148.0497419999998
 20
86.61057300000001
 30
0.0
 11
148.76298
 21
82.806641
 31
0.0
  0
LINE
  5
AFA0
330
AD5A
100
AcDbEntity
  8
1
  6
Continuous
100
AcDbLine
 10
142.9834539999999
 20
86.61058100000003
 30
0.0
 11
139.1225029999999
 21
82.58176500000002
 31
0.0
  0
LINE
  5
AFA1
330
AD5A
100
AcDbEntity
  8
1
  6
Continuous
100
AcDbLine
 10
147.3807009999999
 20
86.61058100000003
 30
0.0
 11
143.5197499999999
 21
82.58176500000002
 31
0.0
  0
LINE
  5
AFA2
330
AD5A
100
AcDbEntity
  8
1
  6
Continuous
100
AcDbLine
 10
146.724983
 20
85.926354
 30
0.0
 11
147.309931
 21
82.80663399999998
 31
0.0
  0
LINE
  5
AFA3
330
AD5A
100
AcDbEntity
  8
1
  6
Continuous
100
AcDbLine
 10
152.338736
 20
84.22372499999999
 30
0.0
 11
152.093009
 21
82.91318100000003
 31
0.0
  0
LINE
  5
AFA4
330
AD5A
100
AcDbEntity
  8
1
  6
Continuous
100
AcDbLine
 10
186.1585499999999
 20
87.44072
 30
0.0
 11
184.435169
 21
87.44072
 31
0.0
  0
LINE
  5
AFA5
330
AD5A
100
AcDbEntity
  8
1
  6
Continuous
100
AcDbLine
 10
144.263653
 20
88.61058100000002
 30
0.0
 11
164.6473649999998
 21
88.61058100000002
 31
0.0
  0
LINE
  5
AFA6
330
AD5A
100
AcDbEntity
  8
1
  6
Continuous
100
AcDbLine
 10
144.263652
 20
278.9206459999999
 30
0.0
 11
150.490146
 21
278.9206459999999
 31
0.0
  0
LINE
  5
AFA7
330
AD5A
100
AcDbEntity
  8
1
  6
Continuous
100
AcDbLine
 10
148.762981
 20
284.724586
 30
0.0
 11
150.490146
 21
284.724586
 31
0.0
  0
ARC
  5
AFA8
330
AD5A
100
AcDbEntity
  8
1
  6
Continuous
100
AcDbCircle
 10
169.412304
 20
204.316775
 30
0.0
 40
39.88799999999999
100
AcDbArc
 50
241.562635
 51
264.6114149999998
  0
ARC
  5
AFA9
330
AD5A
100
AcDbEntity
  8
1
  6
Continuous
100
AcDbCircle
 10
169.412304
 20
204.316775
 30
0.0
 40
39.88799999999999
100
AcDbArc
 50
241.562635
 51
264.6114149999998
  0
ARC
  5
AFAA
330
AD5A
100
AcDbEntity
  8
1
  6
Continuous
100
AcDbCircle
 10
151.5426439999998
 20
185.4005799999999
 30
0.0
 40
1.831034
100
AcDbArc
 50
54.315433
 51
82.71075600000001
  0
ARC
  5
AFAB
330
AD5A
100
AcDbEntity
  8
5
  6
PHANTOM
100
AcDbCircle
 10
158.063305
 20
135.313836
 30
0.0
 40
29.571854
100
AcDbArc
 50
94.76263899999999
 51
101.8202869999998
  0
ARC
  5
AFAC
330
AD5A
100
AcDbEntity
  8
5
  6
PHANTOM
100
AcDbCircle
 10
158.063305
 20
135.313836
 30
0.0
 40
29.571854
100
AcDbArc
 50
94.76263899999999
 51
101.8202869999998
  0
ARC
  5
AFAD
330
AD5A
100
AcDbEntity
  8
5
  6
PHANTOM
100
AcDbCircle
 10
162.923137
 20
165.5477469999999
 30
0.0
 40
20.10314199999999
100
AcDbArc
 50
96.85045
 51
127.437246
  0
LINE
  5
AFAE
330
AD5A
100
AcDbEntity
  8
1
  6
Continuous
100
AcDbLine
 10
75.22825799999998
 20
164.2601559999999
 30
0.0
 11
73.69822099999997
 21
164.460687
 31
0.0
  0
ARC
  5
AFAF
330
AD5A
100
AcDbEntity
  8
1
  6
Continuous
100
AcDbCircle
 10
74.958112
 20
166.209085
 30
0.0
 40
1.0
100
AcDbArc
 50
179.999997
 51
245.4705209999999
  0
LINE
  5
AFB0
330
AD5A
100
AcDbEntity
  8
1
  6
Continuous
100
AcDbLine
 10
68.38882199999999
 20
192.9900909999999
 30
0.0
 11
80.38917299999999
 21
192.9900909999999
 31
0.0
  0
LINE
  5
AFB1
330
AD5A
100
AcDbEntity
  8
1
  6
Continuous
100
AcDbLine
 10
69.189039
 20
188.057748
 30
0.0
 11
80.38917299999999
 21
188.057748
 31
0.0
  0
LINE
  5
AFB2
330
AD5A
100
AcDbEntity
  8
1
  6
Continuous
100
AcDbLine
 10
68.38882199999999
 20
191.0083399999998
 30
0.0
 11
80.38917299999999
 21
191.0083399999998
 31
0.0
  0
LINE
  5
AFB3
330
AD5A
100
AcDbEntity
  8
1
  6
Continuous
100
AcDbLine
 10
73.958112
 20
185.323755
 30
0.0
 11
73.958112
 21
166.209085
 31
0.0
  0
LINE
  5
AFB4
330
AD5A
100
AcDbEntity
  8
1
  6
Continuous
100
AcDbLine
 10
66.38882199999999
 20
175.8254479999999
 30
0.0
 11
66.38882199999999
 21
190.9900909999999
 31
0.0
  0
LINE
  5
AFB5
330
AD5A
100
AcDbEntity
  8
1
  6
Continuous
100
AcDbLine
 10
68.38882199999999
 20
175.170511
 30
0.0
 11
68.38882199999999
 21
191.0083399999998
 31
0.0
  0
ARC
  5
AFB6
330
AD5A
100
AcDbEntity
  8
1
  6
Continuous
100
AcDbCircle
 10
73.958112
 20
166.4437189999999
 30
0.0
 40
2.0
100
AcDbArc
 50
179.999997
 51
262.5335079999999
  0
ARC
  5
AFB7
330
AD5A
100
AcDbEntity
  8
1
  6
Continuous
100
AcDbCircle
 10
72.958112
 20
172.087655
 30
0.0
 40
1.0
100
AcDbArc
 50
0.000003
 51
66.44556500000001
  0
ARC
  5
AFB8
330
AD5A
100
AcDbEntity
  8
1
  6
Continuous
100
AcDbCircle
 10
67.38882199999999
 20
175.8254479999999
 30
0.0
 40
1.0
100
AcDbArc
 50
179.999997
 51
246.445558
  0
LINE
  5
AFB9
330
AD5A
100
AcDbEntity
  8
1
  6
Continuous
100
AcDbLine
 10
66.38882199999999
 20
176.7561889999998
 30
0.0
 11
68.38882199999999
 21
176.7561889999998
 31
0.0
  0
LINE
  5
AFBA
330
AD5A
100
AcDbEntity
  8
1
  6
Continuous
100
AcDbLine
 10
68.388829
 20
175.1704949999999
 30
0.0
 11
73.35774
 21
173.004343
 31
0.0
  0
LINE
  5
AFBB
330
AD5A
100
AcDbEntity
  8
1
  6
Continuous
100
AcDbLine
 10
66.9892
 20
174.9087769999999
 30
0.0
 11
71.958111
 21
172.7426089999999
 31
0.0
  0
LINE
  5
AFBC
330
AD5A
100
AcDbEntity
  8
1
  6
Continuous
100
AcDbLine
 10
71.958112
 20
172.7426089999999
 30
0.0
 11
71.958112
 21
166.6767969999999
 31
0.0
  0
LINE
  5
AFBD
330
AD5A
100
AcDbEntity
  8
1
  6
Continuous
100
AcDbLine
 10
71.958112
 20
172.7426089999999
 30
0.0
 11
71.958112
 21
166.4437189999999
 31
0.0
  0
ARC
  5
AFBE
330
AD5A
100
AcDbEntity
  8
1
  6
Continuous
100
AcDbCircle
 10
72.958112
 20
185.323755
 30
0.0
 40
1.0
100
AcDbArc
 50
0.000003
 51
66.44556500000001
  0
LINE
  5
AFBF
330
AD5A
100
AcDbEntity
  8
1
  6
Continuous
100
AcDbLine
 10
73.958112
 20
185.173318
 30
0.0
 11
73.958112
 21
182.498743
 31
0.0
  0
ARC
  5
AFC0
330
AD5A
100
AcDbEntity
  8
1
  6
Continuous
100
AcDbCircle
 10
68.38882199999999
 20
190.9900909999999
 30
0.0
 40
2.0
100
AcDbArc
 50
90.00000500000002
 51
180.0000009999999
  0
LINE
  5
AFC1
330
AD5A
100
AcDbEntity
  8
1
  6
Continuous
100
AcDbLine
 10
68.410275
 20
188.3972259999999
 30
0.0
 11
73.35773
 21
186.2404109999999
 31
0.0
  0
LINE
  5
AFC2
330
AD5A
100
AcDbEntity
  8
1
  6
Continuous
100
AcDbLine
 10
76.09830999999998
 20
158.4711699999998
 30
0.0
 11
76.09830999999998
 21
163.2686249999999
 31
0.0
  0
LINE
  5
AFC3
330
AD5A
100
AcDbEntity
  8
1
  6
Continuous
100
AcDbLine
 10
78.09830999999999
 20
158.4711699999998
 30
0.0
 11
78.09830999999999
 21
168.7895789999998
 31
0.0
  0
LINE
  5
AFC4
330
AD5A
100
AcDbEntity
  8
1
  6
Continuous
100
AcDbLine
 10
76.09830999999998
 20
158.4711699999998
 30
0.0
 11
78.09830999999999
 21
158.4711699999998
 31
0.0
  0
ARC
  5
AFC5
330
AD5A
100
AcDbEntity
  8
1
  6
Continuous
100
AcDbCircle
 10
132.473003
 20
64.446389
 30
0.0
 40
31.59524499999999
100
AcDbArc
 50
79.824394
 51
97.448098
  0
ARC
  5
AFC6
330
AD5A
100
AcDbEntity
  8
1
  6
Continuous
100
AcDbCircle
 10
128.78133
 20
92.68505899999999
 30
0.0
 40
3.116303999999998
100
AcDbArc
 50
97.448098
 51
175.5217639999999
  0
ARC
  5
AFC7
330
AD5A
100
AcDbEntity
  8
1
  6
Continuous
100
AcDbCircle
 10
137.2666509999999
 20
92.15386999999996
 30
0.0
 40
3.444999999999998
100
AcDbArc
 50
0.019878
 51
79.824394
  0
ARC
  5
AFC8
330
AD5A
100
AcDbEntity
  8
1
  6
Continuous
100
AcDbCircle
 10
136.9948159999998
 20
92.15386999999996
 30
0.0
 40
3.444999999999998
100
AcDbArc
 50
0.019878
 51
79.824394
  0
LINE
  5
AFC9
330
AD5A
100
AcDbEntity
  8
1
  6
Continuous
100
AcDbLine
 10
78.59830999999998
 20
182.6459859999999
 30
0.0
 11
78.59830999999998
 21
182.8155909999999
 31
0.0
  0
LINE
  5
AFCA
330
AD5A
100
AcDbEntity
  8
1
  6
Continuous
100
AcDbLine
 10
76.611503
 20
183.0449769999999
 30
0.0
 11
76.56543899999999
 21
182.6459859999999
 31
0.0
  0
LINE
  5
AFCB
330
AD5A
100
AcDbEntity
  8
1
  6
Continuous
100
AcDbLine
 10
78.59831199999998
 20
182.8155909999999
 30
0.0
 11
78.57801999999998
 21
182.6459859999999
 31
0.0
  0
ARC
  5
AFCC
330
AD5A
100
AcDbEntity
  8
1
  6
Continuous
100
AcDbCircle
 10
90.09831
 20
162.583108
 30
0.0
 40
1.0
100
AcDbArc
 50
269.9999969999999
 51
0.000003
  0
ARC
  5
AFCD
330
AD5A
100
AcDbEntity
  8
1
  6
Continuous
100
AcDbCircle
 10
90.09831
 20
169.299112
 30
0.0
 40
1.0
100
AcDbArc
 50
0.000003
 51
90.00000500000002
  0
ARC
  5
AFCE
330
AD5A
100
AcDbEntity
  8
1
  6
Continuous
100
AcDbCircle
 10
90.09831
 20
167.4713219999999
 30
0.0
 40
1.0
100
AcDbArc
 50
0.000003
 51
90.00000500000002
  0
LINE
  5
AFCF
330
AD5A
100
AcDbEntity
  8
1
  6
Continuous
100
AcDbLine
 10
74.542955
 20
165.299325
 30
0.0
 11
76.92862599999997
 21
164.2106409999998
 31
0.0
  0
ARC
  5
AFD0
330
AD5A
100
AcDbEntity
  8
1
  6
Continuous
100
AcDbCircle
 10
75.09831
 20
163.2686249999999
 30
0.0
 40
1.0
100
AcDbArc
 50
0.000003
 51
82.53350199999998
  0
ARC
  5
AFD1
330
AD5A
100
AcDbEntity
  8
1
  6
Continuous
100
AcDbCircle
 10
76.09830999999998
 20
162.3911379999999
 30
0.0
 40
2.0
100
AcDbArc
 50
0.000003
 51
65.47051399999999
  0
LINE
  5
AFD2
330
AD5A
100
AcDbEntity
  8
1
  6
Continuous
100
AcDbLine
 10
78.09830999999999
 20
161.583108
 30
0.0
 11
90.09831
 21
161.583108
 31
0.0
  0
LINE
  5
AFD3
330
AD5A
100
AcDbEntity
  8
1
  6
Continuous
100
AcDbLine
 10
78.09830999999999
 20
168.4713219999999
 30
0.0
 11
90.09831
 21
168.4713219999999
 31
0.0
  0
LINE
  5
AFD4
330
AD5A
100
AcDbEntity
  8
1
  6
Continuous
100
AcDbLine
 10
80.45811200000001
 20
170.299112
 30
0.0
 11
90.09831
 21
170.299112
 31
0.0
  0
LINE
  5
AFD5
330
AD5A
100
AcDbEntity
  8
1
  6
Continuous
100
AcDbLine
 10
91.09830999999998
 20
162.583108
 30
0.0
 11
91.09830999999998
 21
169.299112
 31
0.0
  0
LINE
  5
AFD6
330
AD5A
100
AcDbEntity
  8
1
  6
Continuous
100
AcDbLine
 10
76.611503
 20
183.0449769999999
 30
0.0
 11
78.59830399999998
 21
182.8155909999999
 31
0.0
  0
LINE
  5
AFD7
330
AD5A
100
AcDbEntity
  8
1
  6
Continuous
100
AcDbLine
 10
81.38917300000001
 20
189.057748
 30
0.0
 11
81.38917300000001
 21
191.9900909999999
 31
0.0
  0
ARC
  5
AFD8
330
AD5A
100
AcDbEntity
  8
1
  6
Continuous
100
AcDbCircle
 10
80.38917299999999
 20
190.0083399999998
 30
0.0
 40
1.0
100
AcDbArc
 50
0.000003
 51
90.00000500000002
  0
ARC
  5
AFD9
330
AD5A
100
AcDbEntity
  8
1
  6
Continuous
100
AcDbCircle
 10
80.38917299999999
 20
191.9900909999999
 30
0.0
 40
1.0
100
AcDbArc
 50
0.000003
 51
90.00000500000002
  0
ARC
  5
AFDA
330
AD5A
100
AcDbEntity
  8
1
  6
Continuous
100
AcDbCircle
 10
80.38917299999999
 20
189.057748
 30
0.0
 40
1.0
100
AcDbArc
 50
269.9999969999999
 51
0.000003
  0
ARC
  5
AFDB
330
AD5A
100
AcDbEntity
  8
1
  6
Continuous
100
AcDbCircle
 10
486.323826
 20
212.8767439999998
 30
0.0
 40
359.841339
100
AcDbArc
 50
184.5489009999998
 51
185.373783
  0
LINE
  5
AFDC
330
AD5A
100
AcDbEntity
  8
1
  6
Continuous
100
AcDbLine
 10
139.883157
 20
188.142737
 30
0.0
 11
136.7927589999999
 21
175.170602
 31
0.0
  0
LINE
  5
AFDD
330
AD5A
100
AcDbEntity
  8
5
  6
PHANTOM
100
AcDbLine
 10
143.666622
 20
179.201236
 30
0.0
 11
147.078304
 21
180.642479
 31
0.0
  0
ARC
  5
AFDE
330
AD5A
100
AcDbEntity
  8
1
  6
Continuous
100
AcDbCircle
 10
124.5596499999999
 20
133.187318
 30
0.0
 40
43.729221
100
AcDbArc
 50
66.534696
 51
82.02330500000002
  0
ARC
  5
AFDF
330
AD5A
100
AcDbEntity
  8
5
  6
PHANTOM
100
AcDbCircle
 10
127.713657
 20
195.3375989999999
 30
0.0
 40
22.284143
100
AcDbArc
 50
292.058442
 51
294.4420549999999
  0
LINE
  5
AFE0
330
AD5A
100
AcDbEntity
  8
5
  6
PHANTOM
100
AcDbLine
 10
136.4435649999998
 20
174.830926
 30
0.0
 11
140.9606949999998
 21
162.2841159999999
 31
0.0
  0
ARC
  5
AFE1
330
AD5A
100
AcDbEntity
  8
5
  6
PHANTOM
100
AcDbCircle
 10
133.274135
 20
174.4205189999999
 30
0.0
 40
3.713918
100
AcDbArc
 50
9.766933999999999
 51
41.011915
  0
ARC
  5
AFE2
330
AD5A
100
AcDbEntity
  8
5
  6
PHANTOM
100
AcDbCircle
 10
129.942127
 20
225.886495
 30
0.0
 40
50.0
100
AcDbArc
 50
277.500577
 51
282.5814449999999
  0
ARC
  5
AFE3
330
AD5A
100
AcDbEntity
  8
5
  6
PHANTOM
100
AcDbCircle
 10
153.7129549999999
 20
120.455598
 30
0.0
 40
43.729221
100
AcDbArc
 50
99.734695
 51
115.223311
  0
ARC
  5
AFE4
330
AD5A
100
AcDbEntity
  8
1
  6
Continuous
100
AcDbCircle
 10
131.043201
 20
179.456828
 30
0.0
 40
2.992333999999998
100
AcDbArc
 50
185.373783
 51
262.0233059999999
  0
LINE
  5
AFE5
330
AD5A
100
AcDbEntity
  8
5
  6
PHANTOM
100
AcDbLine
 10
124.002159
 20
169.789508
 30
0.0
 11
136.0825079999999
 21
174.6846239999999
 31
0.0
  0
ARC
  5
AFE6
330
AD5A
100
AcDbEntity
  8
5
  6
PHANTOM
100
AcDbCircle
 10
127.713657
 20
195.3375989999999
 30
0.0
 40
20.284143
100
AcDbArc
 50
292.058442
 51
294.3486379999999
  0
LINE
  5
AFE7
330
AD5A
100
AcDbEntity
  8
5
  6
PHANTOM
100
AcDbLine
 10
123.251053
 20
171.643113
 30
0.0
 11
135.3314049999999
 21
176.5382289999998
 31
0.0
  0
ARC
  5
AFE8
330
AD5A
100
AcDbEntity
  8
5
  6
PHANTOM
100
AcDbCircle
 10
119.639011
 20
180.557063
 30
0.0
 40
9.617974999999999
100
AcDbArc
 50
285.1670679999998
 51
292.058442
  0
ARC
  5
AFE9
330
AD5A
100
AcDbEntity
  8
5
  6
PHANTOM
100
AcDbCircle
 10
119.639011
 20
180.557063
 30
0.0
 40
11.617975
100
AcDbArc
 50
285.2903119999999
 51
292.058442
  0
ARC
  5
AFEA
330
AD5A
100
AcDbEntity
  8
5
  6
PHANTOM
100
AcDbCircle
 10
128.0907929999999
 20
174.762705
 30
0.0
 40
7.701836
100
AcDbArc
 50
226.438041
 51
243.730632
  0
ARC
  5
AFEB
330
AD5A
100
AcDbEntity
  8
5
  6
PHANTOM
100
AcDbCircle
 10
114.8326299999999
 20
168.353495
 30
0.0
 40
7.883719999999997
100
AcDbArc
 50
9.903945
 51
21.744057
  0
ARC
  5
AFEC
330
AD5A
100
AcDbEntity
  8
5
  6
PHANTOM
100
AcDbCircle
 10
124.294254
 20
170.0054869999999
 30
0.0
 40
1.721049999999999
100
AcDbArc
 50
189.9039469999999
 51
208.5966169999999
  0
ARC
  5
AFED
330
AD5A
100
AcDbEntity
  8
5
  6
PHANTOM
100
AcDbCircle
 10
412.789325
 20
385.225644
 30
0.0
 40
359.841339
100
AcDbArc
 50
217.7488929999999
 51
218.5737889999999
  0
ARC
  5
AFEE
330
AD5A
100
AcDbEntity
  8
5
  6
PHANTOM
100
AcDbCircle
 10
120.1300079999999
 20
158.633586
 30
0.0
 40
10.28489299999999
100
AcDbArc
 50
37.74889799999999
 51
63.73062400000002
  0
ARC
  5
AFEF
330
AD5A
100
AcDbEntity
  8
5
  6
PHANTOM
100
AcDbCircle
 10
133.8026919999998
 20
162.7224379999999
 30
0.0
 40
2.992333999999998
100
AcDbArc
 50
218.5737889999999
 51
295.2233059999999
  0
ARC
  5
AFF0
330
AD5A
100
AcDbEntity
  8
1
  6
Continuous
100
AcDbCircle
 10
136.3356819999999
 20
143.238069
 30
0.0
 40
29.571854
100
AcDbArc
 50
61.56264000000001
 51
68.620281
  0
ARC
  5
AFF1
330
AD5A
100
AcDbEntity
  8
1
  6
Continuous
100
AcDbCircle
 10
136.3356819999999
 20
143.238069
 30
0.0
 40
29.571854
100
AcDbArc
 50
61.56264000000001
 51
68.620281
  0
ARC
  5
AFF2
330
AD5A
100
AcDbEntity
  8
1
  6
Continuous
100
AcDbCircle
 10
112.553287
 20
105.5287749999999
 30
0.0
 40
73.881302
100
AcDbArc
 50
62.960902
 51
66.534696
  0
ARC
  5
AFF3
330
AD5A
100
AcDbEntity
  8
1
  6
Continuous
100
AcDbCircle
 10
112.553287
 20
105.5287749999999
 30
0.0
 40
73.881302
100
AcDbArc
 50
62.960902
 51
66.534696
  0
ARC
  5
AFF4
330
AD5A
100
AcDbEntity
  8
1
  6
Continuous
100
AcDbCircle
 10
140.8677329999999
 20
161.005405
 30
0.0
 40
11.596752
100
AcDbArc
 50
57.398314
 51
66.68448199999999
  0
ARC
  5
AFF5
330
AD5A
100
AcDbEntity
  8
1
  6
Continuous
100
AcDbCircle
 10
140.8677329999999
 20
161.005405
 30
0.0
 40
11.596752
100
AcDbArc
 50
57.398314
 51
62.960902
  0
ARC
  5
AFF6
330
AD5A
100
AcDbEntity
  8
5
  6
PHANTOM
100
AcDbCircle
 10
152.126827
 20
152.662501
 30
0.0
 40
11.596752
100
AcDbArc
 50
90.59831300000002
 51
96.160901
  0
ARC
  5
AFF7
330
AD5A
100
AcDbEntity
  8
5
  6
PHANTOM
100
AcDbCircle
 10
152.126827
 20
152.6624939999998
 30
0.0
 40
11.596752
100
AcDbArc
 50
90.59831300000002
 51
99.88448200000002
  0
ARC
  5
AFF8
330
AD5A
100
AcDbEntity
  8
5
  6
PHANTOM
100
AcDbCircle
 10
158.81126
 20
90.73768300000001
 30
0.0
 40
73.881302
100
AcDbArc
 50
96.160901
 51
99.734695
  0
ARC
  5
AFF9
330
AD5A
100
AcDbEntity
  8
5
  6
PHANTOM
100
AcDbCircle
 10
141.955074
 20
172.06177
 30
0.0
 40
5.149
100
AcDbArc
 50
89.292771
 51
102.58145
  0
ARC
  5
AFFA
330
AD5A
100
AcDbEntity
  8
5
  6
PHANTOM
100
AcDbCircle
 10
142.032467
 20
178.3309039999998
 30
0.0
 40
1.120613999999998
100
AcDbArc
 50
269.292772
 51
309.3717279999999
  0
ARC
  5
AFFB
330
AD5A
100
AcDbEntity
  8
5
  6
PHANTOM
100
AcDbCircle
 10
150.2009539999999
 20
174.721125
 30
0.0
 40
7.946253999999998
100
AcDbArc
 50
147.6186109999999
 51
159.8025759999998
  0
ARC
  5
AFFC
330
AD5A
100
AcDbEntity
  8
5
  6
PHANTOM
100
AcDbCircle
 10
129.100132
 20
226.62605
 30
0.0
 40
50.9091
100
AcDbArc
 50
283.256725
 51
285.6012489999999
  0
LINE
  5
AFFD
330
AD5A
100
AcDbEntity
  8
5
  6
PHANTOM
100
AcDbLine
 10
143.4903239999998
 20
178.9767629999998
 30
0.0
 11
143.666616
 21
179.201234
 31
0.0
  0
LINE
  5
AFFE
330
AD5A
100
AcDbEntity
  8
1
  6
Continuous
100
AcDbLine
 10
126.7121469999999
 20
190.7367049999998
 30
0.0
 11
139.500931
 21
188.218011
 31
0.0
  0
LINE
  5
AFFF
330
AD5A
100
AcDbEntity
  8
1
  6
Continuous
100
AcDbLine
 10
127.0986139999999
 20
192.699012
 30
0.0
 11
139.887399
 21
190.180316
 31
0.0
  0
ARC
  5
B000
330
AD5A
100
AcDbEntity
  8
1
  6
Continuous
100
AcDbCircle
 10
128.9571259999999
 20
202.135715
 30
0.0
 40
11.617975
100
AcDbArc
 50
252.0903129999999
 51
258.858436
  0
ARC
  5
B001
330
AD5A
100
AcDbEntity
  8
1
  6
Continuous
100
AcDbCircle
 10
127.074817
 20
190.757494
 30
0.0
 40
1.721049999999999
100
AcDbArc
 50
156.7039509999998
 51
175.396621
  0
ARC
  5
B002
330
AD5A
100
AcDbEntity
  8
1
  6
Continuous
100
AcDbCircle
 10
117.3634979999998
 20
183.522082
 30
0.0
 40
10.28489299999999
100
AcDbArc
 50
4.548898
 51
30.53062800000001
  0
ARC
  5
B003
330
AD5A
100
AcDbEntity
  8
1
  6
Continuous
100
AcDbCircle
 10
132.856502
 20
192.6593189999999
 30
0.0
 40
7.701836
100
AcDbArc
 50
193.2380489999999
 51
210.530626
  0
ARC
  5
B004
330
AD5A
100
AcDbEntity
  8
1
  6
Continuous
100
AcDbCircle
 10
128.9571259999999
 20
202.135715
 30
0.0
 40
9.617974999999999
100
AcDbArc
 50
251.9670689999999
 51
258.858436
  0
ARC
  5
B005
330
AD5A
100
AcDbEntity
  8
1
  6
Continuous
100
AcDbCircle
 10
118.2531009999999
 20
194.556006
 30
0.0
 40
7.883719999999997
100
AcDbArc
 50
336.7039439999999
 51
348.544058
  0
ARC
  5
B006
330
AD5A
100
AcDbEntity
  8
1
  6
Continuous
100
AcDbCircle
 10
151.334728
 20
180.5178169999998
 30
0.0
 40
7.946253999999998
100
AcDbArc
 50
114.418612
 51
126.602583
  0
ARC
  5
B007
330
AD5A
100
AcDbEntity
  8
1
  6
Continuous
100
AcDbCircle
 10
162.399135
 20
234.424161
 30
0.0
 40
50.0
100
AcDbArc
 50
244.300584
 51
249.3814459999999
  0
ARC
  5
B008
330
AD5A
100
AcDbEntity
  8
1
  6
Continuous
100
AcDbCircle
 10
137.0063739999999
 20
189.534784
 30
0.0
 40
3.713918
100
AcDbArc
 50
336.566934
 51
7.811913999999998
  0
ARC
  5
B009
330
AD5A
100
AcDbEntity
  8
1
  6
Continuous
100
AcDbCircle
 10
143.80698
 20
210.0821639999999
 30
0.0
 40
22.284143
100
AcDbArc
 50
258.858436
 51
261.2420559999999
  0
ARC
  5
B00A
330
AD5A
100
AcDbEntity
  8
1
  6
Continuous
100
AcDbCircle
 10
143.80698
 20
210.0821639999999
 30
0.0
 40
20.284143
100
AcDbArc
 50
258.858436
 51
261.148639
  0
ARC
  5
B00B
330
AD5A
100
AcDbEntity
  8
1
  6
Continuous
100
AcDbCircle
 10
142.97871
 20
182.8076989999999
 30
0.0
 40
5.149
100
AcDbArc
 50
56.09277099999999
 51
69.38145099999998
  0
ARC
  5
B00C
330
AD5A
100
AcDbEntity
  8
1
  6
Continuous
100
AcDbCircle
 10
162.0995439999999
 20
235.5040409999999
 30
0.0
 40
50.9091
100
AcDbArc
 50
250.0567259999999
 51
252.40125
  0
ARC
  5
B00D
330
AD5A
100
AcDbEntity
  8
1
  6
Continuous
100
AcDbCircle
 10
146.476215
 20
188.0111179999999
 30
0.0
 40
1.120613999999998
100
AcDbArc
 50
236.092773
 51
276.171729
  0
LINE
  5
B00E
330
AD5A
100
AcDbEntity
  8
1
  6
Continuous
100
AcDbLine
 10
148.320176
 20
187.844575
 30
0.0
 11
151.964121
 21
187.182445
 31
0.0
  0
LINE
  5
B00F
330
AD5A
100
AcDbEntity
  8
1
  6
Continuous
100
AcDbLine
 10
148.049751
 20
187.753274
 30
0.0
 11
148.3201779999999
 21
187.8445729999999
 31
0.0
  0
ARC
  5
B010
330
AD5A
100
AcDbEntity
  8
5
  6
PHANTOM
100
AcDbCircle
 10
147.7013049999999
 20
178.920695
 30
0.0
 40
1.831034
100
AcDbArc
 50
87.51543199999996
 51
115.9107549999999
  0
ARC
  5
B011
330
AD5A
100
AcDbEntity
  8
5
  6
PHANTOM
100
AcDbCircle
 10
147.7733879999999
 20
180.5819729999998
 30
0.0
 40
0.16819
100
AcDbArc
 50
48.638091
 51
87.51543199999996
  0
ARC
  5
B012
330
AD5A
100
AcDbEntity
  8
5
  6
PHANTOM
100
AcDbCircle
 10
134.9341239999999
 20
202.106589
 30
0.0
 40
25.939594
100
AcDbArc
 50
301.488693
 51
307.437244
  0
ARC
  5
B013
330
AD5A
100
AcDbEntity
  8
5
  6
PHANTOM
100
AcDbCircle
 10
148.07336
 20
180.655806
 30
0.0
 40
0.784566
100
AcDbArc
 50
281.868045
 51
301.488693
  0
ARC
  5
B014
330
AD5A
100
AcDbEntity
  8
5
  6
PHANTOM
100
AcDbCircle
 10
138.782383
 20
176.337252
 30
0.0
 40
10.09724599999999
100
AcDbArc
 50
20.588675
 51
25.650881
  0
LINE
  5
B015
330
AD5A
100
AcDbEntity
  8
5
  6
PHANTOM
100
AcDbLine
 10
147.884531
 20
180.708212
 30
0.0
 11
148.414197
 21
179.9491459999999
 31
0.0
  0
ARC
  5
B016
330
AD5A
100
AcDbEntity
  8
1
  6
Continuous
100
AcDbCircle
 10
184.6046929999999
 20
279.2182389999999
 30
0.0
 40
59.110611
100
AcDbArc
 50
174.217362
 51
184.478232
  0
ARC
  5
B017
330
AD5A
100
AcDbEntity
  8
1
  6
Continuous
100
AcDbCircle
 10
184.876529
 20
279.2182389999999
 30
0.0
 40
59.110611
100
AcDbArc
 50
174.217362
 51
184.478232
  0
ARC
  5
B018
330
AD5A
100
AcDbEntity
  8
1
  6
Continuous
100
AcDbCircle
 10
44.85318099999999
 20
275.4094309999999
 30
0.0
 40
95.85849000000001
100
AcDbArc
 50
359.980122
 51
5.435683
  0
ARC
  5
B019
330
AD5A
100
AcDbEntity
  8
1
  6
Continuous
100
AcDbCircle
 10
132.473003
 20
303.084831
 30
0.0
 40
31.59524499999999
100
AcDbArc
 50
262.551902
 51
280.175606
  0
ARC
  5
B01A
330
AD5A
100
AcDbEntity
  8
1
  6
Continuous
100
AcDbCircle
 10
129.053166
 20
274.846184
 30
0.0
 40
3.116303999999998
100
AcDbArc
 50
184.478236
 51
262.551902
  0
ARC
  5
B01B
330
AD5A
100
AcDbEntity
  8
1
  6
Continuous
100
AcDbCircle
 10
128.7813309999999
 20
274.846184
 30
0.0
 40
3.116303999999998
100
AcDbArc
 50
184.478236
 51
262.551902
  0
ARC
  5
B01C
330
AD5A
100
AcDbEntity
  8
1
  6
Continuous
100
AcDbCircle
 10
137.26665
 20
275.3773729999999
 30
0.0
 40
3.444999999999998
100
AcDbArc
 50
280.175606
 51
359.980122
  0
LINE
  5
B01D
330
AD5A
100
AcDbEntity
  8
1
  6
Continuous
100
AcDbLine
 10
127.25092
 20
286.4899369999998
 30
0.0
 11
139.9098079999999
 21
286.4899369999998
 31
0.0
  0
ARC
  5
B01E
330
AD5A
100
AcDbEntity
  8
1
  6
Continuous
100
AcDbCircle
 10
127.25092
 20
285.0264509999998
 30
0.0
 40
1.463484999999999
100
AcDbArc
 50
90.00000300000001
 51
174.217362
  0
ARC
  5
B01F
330
AD5A
100
AcDbEntity
  8
1
  6
Continuous
100
AcDbCircle
 10
127.522756
 20
285.0264509999998
 30
0.0
 40
1.463484999999999
100
AcDbArc
 50
90.00000300000001
 51
174.217362
  0
ARC
  5
B020
330
AD5A
100
AcDbEntity
  8
1
  6
Continuous
100
AcDbCircle
 10
139.9098079999999
 20
281.489937
 30
0.0
 40
5.0
100
AcDbArc
 50
43.78112699999999
 51
90.00000300000001
  0
ARC
  5
B021
330
AD5A
100
AcDbEntity
  8
1
  6
Continuous
100
AcDbCircle
 10
148.6608929999998
 20
283.9206459999999
 30
0.0
 40
5.0
100
AcDbArc
 50
223.781125
 51
269.9999969999999
  0
LINE
  5
B022
330
AD5A
100
AcDbEntity
  8
1
  6
Continuous
100
AcDbLine
 10
145.0509539999998
 20
280.4611279999999
 30
0.0
 11
141.189998
 21
284.489952
 31
0.0
  0
LINE
  5
B023
330
AD5A
100
AcDbEntity
  8
1
  6
Continuous
100
AcDbLine
 10
147.380705
 20
280.920646
 30
0.0
 11
143.5197499999999
 21
284.94947
 31
0.0
  0
ARC
  5
B024
330
AD5A
100
AcDbEntity
  8
1
  6
Continuous
100
AcDbCircle
 10
144.263652
 20
283.9206459999999
 30
0.0
 40
5.0
100
AcDbArc
 50
222.443419
 51
269.9999969999999
  0
LINE
  5
B025
330
AD5A
100
AcDbEntity
  8
1
  6
Continuous
100
AcDbLine
 10
140.280604
 20
284.4899369999998
 30
0.0
 11
141.190005
 21
284.4899369999998
 31
0.0
  0
LINE
  5
B026
330
AD5A
100
AcDbEntity
  8
1
  6
Continuous
100
AcDbLine
 10
147.7907679999999
 20
279.5394359999999
 30
0.0
 11
148.762987
 21
284.724602
 31
0.0
  0
ARC
  5
B027
330
AD5A
100
AcDbEntity
  8
1
  6
Continuous
100
AcDbCircle
 10
147.299328
 20
279.6315839999999
 30
0.0
 40
0.5
100
AcDbArc
 50
252.388
 51
349.3803450000001
  0
LINE
  5
B028
330
AD5A
100
AcDbEntity
  8
1
  6
Continuous
100
AcDbLine
 10
147.380703
 20
280.920646
 30
0.0
 11
148.0497479999999
 21
280.920646
 31
0.0
  0
LINE
  5
B029
330
AD5A
100
AcDbEntity
  8
1
  6
Continuous
100
AcDbLine
 10
171.3718599999999
 20
92.75077900000002
 30
0.0
 11
202.7941929999999
 21
92.75077900000002
 31
0.0
  0
LINE
  5
B02A
330
AD5A
100
AcDbEntity
  8
1
  6
Continuous
100
AcDbLine
 10
170.2729449999999
 20
90.750779
 30
0.0
 11
204.7598869999999
 21
90.750779
 31
0.0
  0
ARC
  5
B02B
330
AD5A
100
AcDbEntity
  8
1
  6
Continuous
100
AcDbCircle
 10
171.3718599999999
 20
87.75077900000002
 30
0.0
 40
5.0
100
AcDbArc
 50
90.00000300000001
 51
130.236353
  0
LINE
  5
B02C
330
AD5A
100
AcDbEntity
  8
1
  6
Continuous
100
AcDbLine
 10
170.2729439999998
 20
90.75077099999999
 30
0.0
 11
166.7781479999999
 21
87.79364099999998
 31
0.0
  0
LINE
  5
B02D
330
AD5A
100
AcDbEntity
  8
1
  6
Continuous
100
AcDbLine
 10
168.1421459999999
 20
91.567696
 30
0.0
 11
164.6473609999999
 21
88.610573
 31
0.0
  0
LINE
  5
B02E
330
AD5A
100
AcDbEntity
  8
1
  6
Continuous
100
AcDbLine
 10
173.9249759999999
 20
90.25077900000002
 30
0.0
 11
182.9364659999999
 21
90.25077900000002
 31
0.0
  0
LINE
  5
B02F
330
AD5A
100
AcDbEntity
  8
1
  6
Continuous
100
AcDbLine
 10
174.5158889999999
 20
90.750779
 30
0.0
 11
171.0210959999998
 21
87.79364800000001
 31
0.0
  0
ARC
  5
B030
330
AD5A
100
AcDbEntity
  8
1
  6
Continuous
100
AcDbCircle
 10
198.299652
 20
80.16504000000002
 30
0.0
 40
25.585737
100
AcDbArc
 50
81.893647
 51
98.30342900000005
  0
ARC
  5
B031
330
AD5A
100
AcDbEntity
  8
1
  6
Continuous
100
AcDbCircle
 10
194.98016
 20
102.9098209999998
 30
0.0
 40
2.6
100
AcDbArc
 50
98.30342900000005
 51
155.497958
  0
LINE
  5
B032
330
AD5A
100
AcDbEntity
  8
1
  6
Continuous
100
AcDbLine
 10
191.90642
 20
100.9154979999999
 30
0.0
 11
191.7004259999999
 21
92.750771
 31
0.0
  0
ARC
  5
B033
330
AD5A
100
AcDbEntity
  8
1
  6
Continuous
100
AcDbCircle
 10
199.792404
 20
100.7165529999999
 30
0.0
 40
7.888494999999998
100
AcDbArc
 50
155.497958
 51
178.554751
  0
ARC
  5
B034
330
AD5A
100
AcDbEntity
  8
1
  6
Continuous
100
AcDbCircle
 10
201.712681
 20
101.9879769999999
 30
0.0
 40
3.542552999999998
100
AcDbArc
 50
9.463780999999999
 51
81.893647
  0
ARC
  5
B035
330
AD5A
100
AcDbEntity
  8
1
  6
Continuous
100
AcDbCircle
 10
201.407982
 20
101.9879769999999
 30
0.0
 40
3.542552999999998
100
AcDbArc
 50
9.463780999999999
 51
81.893647
  0
ARC
  5
B036
330
AD5A
100
AcDbEntity
  8
1
  6
Continuous
100
AcDbCircle
 10
176.2698629999999
 20
97.74684200000001
 30
0.0
 40
29.336432
100
AcDbArc
 50
346.203344
 51
9.463780999999999
  0
ARC
  5
B037
330
AD5A
100
AcDbEntity
  8
1
  6
Continuous
100
AcDbCircle
 10
202.7941929999999
 20
90.750779
 30
0.0
 40
2.0
100
AcDbArc
 50
0.0
 51
90.00000300000001
  0
ARC
  5
B038
330
AD5A
100
AcDbEntity
  8
1
  6
Continuous
100
AcDbCircle
 10
175.965168
 20
97.74684200000001
 30
0.0
 40
29.336432
100
AcDbArc
 50
347.768027
 51
9.463780999999999
  0
LINE
  5
B039
330
AD5A
100
AcDbEntity
  8
1
  6
Continuous
100
AcDbLine
 10
174.0526419999999
 20
180.2065759999999
 30
0.0
 11
185.6868399999999
 21
176.9686049999999
 31
0.0
  0
ARC
  5
B03A
330
AD5A
100
AcDbEntity
  8
1
  6
Continuous
100
AcDbCircle
 10
250.806049
 20
398.0661749999999
 30
0.0
 40
247.318985
100
AcDbArc
 50
252.089534
 51
254.949129
  0
ARC
  5
B03B
330
AD5A
100
AcDbEntity
  8
1
  6
Continuous
100
AcDbCircle
 10
172.4195209999998
 20
137.6244439999998
 30
0.0
 40
45.539955
100
AcDbArc
 50
74.610855
 51
82.904966
  0
ARC
  5
B03C
330
AD5A
100
AcDbEntity
  8
1
  6
Continuous
100
AcDbCircle
 10
183.4584999999999
 20
179.815493
 30
0.0
 40
2.435163999999998
100
AcDbArc
 50
13.35799399999999
 51
73.00248899999998
  0
ARC
  5
B03D
330
AD5A
100
AcDbEntity
  8
5
  6
PHANTOM
100
AcDbCircle
 10
158.201397
 20
133.66816
 30
0.0
 40
59.437527
100
AcDbArc
 50
61.26737099999999
 51
64.532645
  0
ARC
  5
B03E
330
AD5A
100
AcDbEntity
  8
5
  6
PHANTOM
100
AcDbCircle
 10
114.3135259999999
 20
411.224668
 30
0.0
 40
247.318985
100
AcDbArc
 50
285.2895329999999
 51
288.1491279999999
  0
LINE
  5
B03F
330
AD5A
100
AcDbEntity
  8
5
  6
PHANTOM
100
AcDbLine
 10
168.29978
 20
186.5562439999999
 30
0.0
 11
173.9982039999999
 21
170.7282559999999
 31
0.0
  0
LINE
  5
B040
330
AD5A
100
AcDbEntity
  8
1
  6
Continuous
100
AcDbLine
 10
168.8279359999999
 20
182.237029
 30
0.0
 11
167.873826
 21
178.232098
 31
0.0
  0
ARC
  5
B041
330
AD5A
100
AcDbEntity
  8
1
  6
Continuous
100
AcDbCircle
 10
161.674091
 20
122.280625
 30
0.0
 40
42.51230200000001
100
AcDbArc
 50
72.08953199999998
 51
84.61141399999998
  0
LINE
  5
B042
330
AD5A
100
AcDbEntity
  8
5
  6
PHANTOM
100
AcDbLine
 10
167.910604
 20
174.5908649999998
 30
0.0
 11
169.9992059999999
 21
168.7895519999999
 31
0.0
  0
ARC
  5
B043
330
AD5A
100
AcDbEntity
  8
5
  6
PHANTOM
100
AcDbCircle
 10
152.296184
 20
204.533858
 30
0.0
 40
39.88799999999999
100
AcDbArc
 50
274.7626409999999
 51
297.811414
  0
LINE
  5
B044
330
AD5A
100
AcDbEntity
  8
1
  6
Continuous
100
AcDbLine
 10
165.947109
 20
170.144593
 30
0.0
 11
164.653285
 21
164.7136919999999
 31
0.0
  0
ARC
  5
B045
330
AD5A
100
AcDbEntity
  8
5
  6
PHANTOM
100
AcDbCircle
 10
190.7411079999999
 20
131.6517729999999
 30
0.0
 40
42.51230200000001
100
AcDbArc
 50
105.289531
 51
117.811419
  0
ARC
  5
B046
330
AD5A
100
AcDbEntity
  8
1
  6
Continuous
100
AcDbCircle
 10
212.7346879999998
 20
278.487546
 30
0.0
 40
105.565331
100
AcDbArc
 50
243.650446
 51
245.6229229999999
  0
ARC
  5
B047
330
AD5A
100
AcDbEntity
  8
5
  6
PHANTOM
100
AcDbCircle
 10
166.711231
 20
188.431406
 30
0.0
 40
2.387342999999999
100
AcDbArc
 50
272.4022569999998
 51
326.3522549999998
  0
ARC
  5
B048
330
AD5A
100
AcDbEntity
  8
5
  6
PHANTOM
100
AcDbCircle
 10
273.258518
 20
150.7842359999999
 30
0.0
 40
110.8852159999998
100
AcDbArc
 50
159.1096939999999
 51
161.1040129999999
  0
ARC
  5
B049
330
AD5A
100
AcDbEntity
  8
1
  6
Continuous
100
AcDbCircle
 10
156.9572029999999
 20
165.8756579999999
 30
0.0
 40
20.10314199999999
100
AcDbArc
 50
63.65045099999999
 51
94.23723999999999
  0
ARC
  5
B04A
330
AD5A
100
AcDbEntity
  8
1
  6
Continuous
100
AcDbCircle
 10
142.6650119999999
 20
188.1225189999999
 30
0.0
 40
10.09724599999999
100
AcDbArc
 50
347.3886749999999
 51
352.4508809999999
  0
ARC
  5
B04B
330
AD5A
100
AcDbEntity
  8
1
  6
Continuous
100
AcDbCircle
 10
152.8040499999999
 20
186.648737
 30
0.0
 40
0.784566
100
AcDbArc
 50
248.668039
 51
268.288694
  0
ARC
  5
B04C
330
AD5A
100
AcDbEntity
  8
1
  6
Continuous
100
AcDbCircle
 10
153.5552629999999
 20
211.7925459999999
 30
0.0
 40
25.939594
100
AcDbArc
 50
268.288694
 51
274.2372419999999
  0
ARC
  5
B04D
330
AD5A
100
AcDbEntity
  8
1
  6
Continuous
100
AcDbCircle
 10
152.512615
 20
186.751208
 30
0.0
 40
0.16819
100
AcDbArc
 50
15.43808999999998
 51
54.315433
  0
LINE
  5
B04E
330
AD5A
100
AcDbEntity
  8
1
  6
Continuous
100
AcDbLine
 10
152.674737
 20
186.795979
 30
0.0
 11
152.7023049999999
 21
185.870799
 31
0.0
  0
ARC
  5
B04F
330
AD5A
100
AcDbEntity
  8
5
  6
PHANTOM
100
AcDbCircle
 10
164.7132449999998
 20
182.21538
 30
0.0
 40
3.832845999999998
100
AcDbArc
 50
87.663928
 51
98.82291999999999
  0
ARC
  5
B050
330
AD5A
100
AcDbEntity
  8
5
  6
PHANTOM
100
AcDbCircle
 10
147.9336199999998
 20
290.319058
 30
0.0
 40
105.565331
100
AcDbArc
 50
276.850452
 51
278.822922
  0
LINE
  5
B051
330
AD5A
100
AcDbEntity
  8
5
  6
PHANTOM
100
AcDbLine
 10
163.8972639999998
 20
185.7383379999999
 30
0.0
 11
165.489315
 21
181.316243
 31
0.0
  0
ARC
  5
B052
330
AD5A
100
AcDbEntity
  8
5
  6
PHANTOM
100
AcDbCircle
 10
166.4518539999999
 20
191.189776
 30
0.0
 40
4.931963999999998
100
AcDbArc
 50
276.65881
 51
291.13416
  0
ARC
  5
B053
330
AD5A
100
AcDbEntity
  8
5
  6
PHANTOM
100
AcDbCircle
 10
165.8268319999999
 20
209.512752
 30
0.0
 40
23.48722799999999
100
AcDbArc
 50
267.663929
 51
272.4022569999998
  0
ARC
  5
B054
330
AD5A
100
AcDbEntity
  8
5
  6
PHANTOM
100
AcDbCircle
 10
159.0160939999998
 20
254.8825499999999
 30
0.0
 40
69.05731199999999
100
AcDbArc
 50
274.4828489999999
 51
276.65881
  0
ARC
  5
B055
330
AD5A
100
AcDbEntity
  8
1
  6
Continuous
100
AcDbCircle
 10
174.665828
 20
151.0515009999998
 30
0.0
 40
32.51303499999998
100
AcDbArc
 50
73.00248899999998
 51
84.200817
  0
ARC
  5
B056
330
AD5A
100
AcDbEntity
  8
1
  6
Continuous
100
AcDbCircle
 10
172.6571919999999
 20
182.949667
 30
0.0
 40
2.387342999999999
100
AcDbArc
 50
239.2022579999999
 51
293.152256
  0
ARC
  5
B057
330
AD5A
100
AcDbEntity
  8
1
  6
Continuous
100
AcDbCircle
 10
173.9505349999998
 20
185.3997939999999
 30
0.0
 40
4.931963999999998
100
AcDbArc
 50
243.4588039999999
 51
257.9341609999999
  0
ARC
  5
B058
330
AD5A
100
AcDbEntity
  8
1
  6
Continuous
100
AcDbCircle
 10
183.460521
 20
201.0740499999998
 30
0.0
 40
23.48722799999999
100
AcDbArc
 50
234.4639229999999
 51
239.2022579999999
  0
ARC
  5
B059
330
AD5A
100
AcDbEntity
  8
1
  6
Continuous
100
AcDbCircle
 10
202.6043739999999
 20
242.7671899999999
 30
0.0
 40
69.05731199999999
100
AcDbArc
 50
241.282856
 51
243.4588039999999
  0
ARC
  5
B05A
330
AD5A
100
AcDbEntity
  8
1
  6
Continuous
100
AcDbCircle
 10
167.5816689999998
 20
178.842341
 30
0.0
 40
3.832845999999998
100
AcDbArc
 50
54.46392800000001
 51
65.62292099999999
  0
ARC
  5
B05B
330
AD5A
100
AcDbEntity
  8
1
  6
Continuous
100
AcDbCircle
 10
177.697346
 20
180.027331
 30
0.0
 40
2.809866999999998
100
AcDbArc
 50
82.904966
 51
130.3993079999999
  0
ARC
  5
B05C
330
AD5A
100
AcDbEntity
  8
1
  6
Continuous
100
AcDbCircle
 10
177.688205
 20
180.8104919999999
 30
0.0
 40
2.600959
100
AcDbArc
 50
84.200817
 51
125.909702
  0
ARC
  5
B05D
330
AD5A
100
AcDbEntity
  8
1
  6
Continuous
100
AcDbCircle
 10
170.078853
 20
188.979254
 30
0.0
 40
8.945066
100
AcDbArc
 50
293.152256
 51
310.39931
  0
ARC
  5
B05E
330
AD5A
100
AcDbEntity
  8
1
  6
Continuous
100
AcDbCircle
 10
241.197956
 20
93.106488
 30
0.0
 40
110.8852159999998
100
AcDbArc
 50
125.909702
 51
127.904021
  0
ARC
  5
B05F
330
AD5A
100
AcDbEntity
  8
5
  6
PHANTOM
100
AcDbCircle
 10
172.092342
 20
189.396219
 30
0.0
 40
2.600959
100
AcDbArc
 50
117.4008159999999
 51
159.1096939999999
  0
ARC
  5
B060
330
AD5A
100
AcDbEntity
  8
5
  6
PHANTOM
100
AcDbCircle
 10
172.52882
 20
188.745905
 30
0.0
 40
2.809866999999998
100
AcDbArc
 50
116.104965
 51
163.599314
  0
ARC
  5
B061
330
AD5A
100
AcDbEntity
  8
5
  6
PHANTOM
100
AcDbCircle
 10
161.2521929999998
 20
192.0649469999999
 30
0.0
 40
8.945066
100
AcDbArc
 50
326.3522549999998
 51
343.59931
  0
ARC
  5
B062
330
AD5A
100
AcDbEntity
  8
5
  6
PHANTOM
100
AcDbCircle
 10
162.6905629999999
 20
183.0292609999999
 30
0.0
 40
19.695513
100
AcDbArc
 50
21.11058499999999
 51
27.709768
  0
LINE
  5
B063
330
AD5A
100
AcDbEntity
  8
5
  6
PHANTOM
100
AcDbLine
 10
169.380912
 20
186.9001879999999
 30
0.0
 11
180.888983
 21
190.5612269999998
 31
0.0
  0
ARC
  5
B064
330
AD5A
100
AcDbEntity
  8
5
  6
PHANTOM
100
AcDbCircle
 10
185.858249
 20
162.840015
 30
0.0
 40
32.51303499999998
100
AcDbArc
 50
106.202488
 51
117.4008159999999
  0
ARC
  5
B065
330
AD5A
100
AcDbEntity
  8
5
  6
PHANTOM
100
AcDbCircle
 10
191.330791
 20
150.3747439999999
 30
0.0
 40
45.539955
100
AcDbArc
 50
107.810855
 51
116.104965
  0
ARC
  5
B066
330
AD5A
100
AcDbEntity
  8
5
  6
PHANTOM
100
AcDbCircle
 10
177.465542
 20
191.7232419999999
 30
0.0
 40
2.435163999999998
100
AcDbArc
 50
46.55799499999999
 51
106.202488
  0
ARC
  5
B067
330
AD5A
100
AcDbEntity
  8
5
  6
PHANTOM
100
AcDbCircle
 10
175.706074
 20
189.865389
 30
0.0
 40
4.993939
100
AcDbArc
 50
27.709768
 51
46.55799499999999
  0
ARC
  5
B068
330
AD5A
100
AcDbEntity
  8
5
  6
PHANTOM
100
AcDbCircle
 10
178.222591
 20
191.1754359999999
 30
0.0
 40
2.685296
100
AcDbArc
 50
78.060388
 51
107.810855
  0
ARC
  5
B069
330
AD5A
100
AcDbEntity
  8
5
  6
PHANTOM
100
AcDbCircle
 10
183.3879429999998
 20
186.139933
 30
0.0
 40
1.246833
100
AcDbArc
 50
72.670399
 51
101.533624
  0
ARC
  5
B06A
330
AD5A
100
AcDbEntity
  8
5
  6
PHANTOM
100
AcDbCircle
 10
176.44096
 20
220.1831709999999
 30
0.0
 40
33.49799
100
AcDbArc
 50
279.580287
 51
281.5336259999999
  0
ARC
  5
B06B
330
AD5A
100
AcDbEntity
  8
5
  6
PHANTOM
100
AcDbCircle
 10
203.0860399999999
 20
195.540874
 30
0.0
 40
22.67846899999998
100
AcDbArc
 50
193.821648
 51
201.7087399999998
  0
ARC
  5
B06C
330
AD5A
100
AcDbEntity
  8
5
  6
PHANTOM
100
AcDbCircle
 10
176.6235079999999
 20
188.040358
 30
0.0
 40
4.760283
100
AcDbArc
 50
23.063986
 51
31.12087199999999
  0
ARC
  5
B06D
330
AD5A
100
AcDbEntity
  8
5
  6
PHANTOM
100
AcDbCircle
 10
186.7668869999999
 20
190.462835
 30
0.0
 40
5.790506999999997
100
AcDbArc
 50
185.525837
 51
214.8692849999999
  0
ARC
  5
B06E
330
AD5A
100
AcDbEntity
  8
1
  6
Continuous
100
AcDbCircle
 10
180.968952
 20
179.224329
 30
0.0
 40
4.993939
100
AcDbArc
 50
354.5097689999999
 51
13.35799399999999
  0
ARC
  5
B06F
330
AD5A
100
AcDbEntity
  8
5
  6
PHANTOM
100
AcDbCircle
 10
184.4499929999998
 20
197.263274
 30
0.0
 40
22.155483
100
AcDbArc
 50
288.1491279999999
 51
328.7024339999998
  0
ARC
  5
B070
330
AD5A
100
AcDbEntity
  8
1
  6
Continuous
100
AcDbCircle
 10
-175.6965909999999
 20
-559.236178
 30
0.0
 40
815.039795
100
AcDbArc
 50
62.233521
 51
63.24001099999999
  0
ARC
  5
B071
330
AD5A
100
AcDbEntity
  8
1
  6
Continuous
100
AcDbCircle
 10
192.3363529999998
 20
180.6267649999998
 30
0.0
 40
22.155483
100
AcDbArc
 50
254.949129
 51
295.502435
  0
LINE
  5
B072
330
AD5A
100
AcDbEntity
  8
1
  6
Continuous
100
AcDbLine
 10
193.196384
 20
169.7850599999999
 30
0.0
 11
204.78524
 21
163.804325
 31
0.0
  0
ARC
  5
B073
330
AD5A
100
AcDbEntity
  8
1
  6
Continuous
100
AcDbCircle
 10
189.7181889999998
 20
169.47706
 30
0.0
 40
1.907894999999999
100
AcDbArc
 50
233.445611
 51
306.95546
  0
ARC
  5
B074
330
AD5A
100
AcDbEntity
  8
1
  6
Continuous
100
AcDbCircle
 10
190.5513799999999
 20
173.667758
 30
0.0
 40
5.790506999999997
100
AcDbArc
 50
152.3258409999999
 51
181.6692899999999
  0
ARC
  5
B075
330
AD5A
100
AcDbEntity
  8
1
  6
Continuous
100
AcDbCircle
 10
206.9872129999999
 20
168.9811039999999
 30
0.0
 40
22.67846899999998
100
AcDbArc
 50
160.621652
 51
168.508744
  0
ARC
  5
B076
330
AD5A
100
AcDbEntity
  8
1
  6
Continuous
100
AcDbCircle
 10
198.1847759999999
 20
204.190768
 30
0.0
 40
33.49799
100
AcDbArc
 50
246.3802879999999
 51
248.3336269999998
  0
ARC
  5
B077
330
AD5A
100
AcDbEntity
  8
1
  6
Continuous
100
AcDbCircle
 10
185.3569369999999
 20
171.900691
 30
0.0
 40
1.246833
100
AcDbArc
 50
39.470396
 51
68.33362499999998
  0
ARC
  5
B078
330
AD5A
100
AcDbEntity
  8
1
  6
Continuous
100
AcDbCircle
 10
135.5501209999999
 20
141.7854089999999
 30
0.0
 40
59.437527
100
AcDbArc
 50
28.067371
 51
31.332649
  0
ARC
  5
B079
330
AD5A
100
AcDbEntity
  8
1
  6
Continuous
100
AcDbCircle
 10
189.555172
 20
169.2571889999999
 30
0.0
 40
1.634177
100
AcDbArc
 50
162.3994129999998
 51
233.4456209999999
  0
ARC
  5
B07A
330
AD5A
100
AcDbEntity
  8
1
  6
Continuous
100
AcDbCircle
 10
180.737301
 20
177.194857
 30
0.0
 40
4.760283
100
AcDbArc
 50
349.863987
 51
357.920874
  0
ARC
  5
B07B
330
AD5A
100
AcDbEntity
  8
1
  6
Continuous
100
AcDbCircle
 10
166.33482
 20
180.630919
 30
0.0
 40
19.695513
100
AcDbArc
 50
347.9105839999999
 51
354.5097689999999
  0
ARC
  5
B07C
330
AD5A
100
AcDbEntity
  8
1
  6
Continuous
100
AcDbCircle
 10
195.3437309999999
 20
174.028727
 30
0.0
 40
4.756031
100
AcDbArc
 50
231.1676879999999
 51
243.160079
  0
ARC
  5
B07D
330
AD5A
100
AcDbEntity
  8
1
  6
Continuous
100
AcDbCircle
 10
194.6235619999999
 20
167.9140869999999
 30
0.0
 40
3.393712999999998
100
AcDbArc
 50
148.0066199999999
 51
169.32431
  0
ARC
  5
B07E
330
AD5A
100
AcDbEntity
  8
1
  6
Continuous
100
AcDbCircle
 10
190.134823
 20
168.9232879999998
 30
0.0
 40
1.214896999999999
100
AcDbArc
 50
306.95546
 51
341.7472309999999
  0
ARC
  5
B07F
330
AD5A
100
AcDbEntity
  8
1
  6
Continuous
100
AcDbCircle
 10
193.355907
 20
168.705996
 30
0.0
 40
1.899032
100
AcDbArc
 50
121.577012
 51
148.0066199999999
  0
ARC
  5
B080
330
AD5A
100
AcDbEntity
  8
1
  6
Continuous
100
AcDbCircle
 10
210.418091
 20
174.5085929999999
 30
0.0
 40
12.095881
100
AcDbArc
 50
242.2455439999999
 51
246.5590000000001
  0
ARC
  5
B081
330
AD5A
100
AcDbEntity
  8
1
  6
Continuous
100
AcDbCircle
 10
202.152645
 20
163.6917439999998
 30
0.0
 40
3.379898999999998
100
AcDbArc
 50
321.402423
 51
342.624456
  0
ARC
  5
B082
330
AD5A
100
AcDbEntity
  8
1
  6
Continuous
100
AcDbCircle
 10
197.016739
 20
170.81521
 30
0.0
 40
11.28476
100
AcDbArc
 50
295.502435
 51
308.263745
  0
LINE
  5
B083
330
AD5A
100
AcDbEntity
  8
1
  6
Continuous
100
AcDbLine
 10
204.0051919999999
 20
161.9547719999999
 30
0.0
 11
204.7941929999999
 21
161.5832029999999
 31
0.0
  0
LINE
  5
B084
330
AD5A
100
AcDbEntity
  8
1
  6
Continuous
100
AcDbLine
 10
205.6062959999999
 20
163.410978
 30
0.0
 11
205.3783109999999
 21
162.682387
 31
0.0
  0
ARC
  5
B085
330
AD5A
100
AcDbEntity
  8
5
  6
PHANTOM
100
AcDbCircle
 10
281.614918
 20
-623.348971
 30
0.0
 40
815.039795
100
AcDbArc
 50
95.43352
 51
96.44001000000001
  0
LINE
  5
B086
330
AD5A
100
AcDbEntity
  8
5
  6
PHANTOM
100
AcDbLine
 10
191.106157
 20
188.6622369999998
 30
0.0
 11
204.0781289999999
 21
190.0034039999999
 31
0.0
  0
ARC
  5
B087
330
AD5A
100
AcDbEntity
  8
1
  6
Continuous
100
AcDbCircle
 10
183.7920109999998
 20
178.942576
 30
0.0
 40
2.685296
100
AcDbArc
 50
44.86038899999999
 51
74.610855
  0
ARC
  5
B088
330
AD5A
100
AcDbEntity
  8
5
  6
PHANTOM
100
AcDbCircle
 10
188.3483619999999
 20
186.226744
 30
0.0
 40
1.634177
100
AcDbArc
 50
195.5994089999999
 51
266.6456099999999
  0
ARC
  5
B089
330
AD5A
100
AcDbEntity
  8
5
  6
PHANTOM
100
AcDbCircle
 10
191.8304939999999
 20
187.8466699999999
 30
0.0
 40
1.899032
100
AcDbArc
 50
154.777004
 51
181.206613
  0
ARC
  5
B08A
330
AD5A
100
AcDbEntity
  8
5
  6
PHANTOM
100
AcDbCircle
 10
193.32484
 20
187.8781449999999
 30
0.0
 40
3.393712999999998
100
AcDbArc
 50
181.206616
 51
202.524306
  0
ARC
  5
B08B
330
AD5A
100
AcDbEntity
  8
5
  6
PHANTOM
100
AcDbCircle
 10
189.016224
 20
186.264739
 30
0.0
 40
1.214896999999999
100
AcDbArc
 50
340.1554589999999
 51
14.94723
  0
ARC
  5
B08C
330
AD5A
100
AcDbEntity
  8
5
  6
PHANTOM
100
AcDbCircle
 10
188.364376
 20
186.4999909999999
 30
0.0
 40
1.907894999999999
100
AcDbArc
 50
266.6456099999999
 51
340.1554589999999
  0
ARC
  5
B08D
330
AD5A
100
AcDbEntity
  8
5
  6
PHANTOM
100
AcDbCircle
 10
190.579296
 20
193.388998
 30
0.0
 40
4.756031
100
AcDbArc
 50
264.3676869999998
 51
276.3600779999998
  0
LINE
  5
B08E
330
AD5A
100
AcDbEntity
  8
5
  6
PHANTOM
100
AcDbLine
 10
204.9805409999999
 20
190.1238509999998
 30
0.0
 11
205.1887199999999
 21
189.389356
 31
0.0
  0
LINE
  5
B08F
330
AD5A
100
AcDbEntity
  8
5
  6
PHANTOM
100
AcDbLine
 10
204.4381519999999
 20
188.0286399999999
 30
0.0
 11
205.3018189999999
 21
188.149751
 31
0.0
  0
ARC
  5
B090
330
AD5A
100
AcDbEntity
  8
5
  6
PHANTOM
100
AcDbCircle
 10
202.9302329999999
 20
202.044696
 30
0.0
 40
12.095881
100
AcDbArc
 50
275.4455429999999
 51
279.759006
  0
ARC
  5
B091
330
AD5A
100
AcDbEntity
  8
5
  6
PHANTOM
100
AcDbCircle
 10
193.738819
 20
191.6161179999998
 30
0.0
 40
11.28476
100
AcDbArc
 50
328.7024339999998
 51
341.463744
  0
ARC
  5
B092
330
AD5A
100
AcDbEntity
  8
5
  6
PHANTOM
100
AcDbCircle
 10
201.9369119999999
 20
188.4676879999999
 30
0.0
 40
3.379898999999998
100
AcDbArc
 50
354.602423
 51
15.824455
  0
LINE
  5
B093
330
AD5A
100
AcDbEntity
  8
1
  6
Continuous
100
AcDbLine
 10
271.2786359999999
 20
188.057748
 30
0.0
 11
269.5911199999999
 21
188.057748
 31
0.0
  0
LINE
  5
B094
330
AD5A
100
AcDbEntity
  8
1
  6
Continuous
100
AcDbLine
 10
271.2424410000001
 20
192.9900909999999
 30
0.0
 11
269.5911199999999
 21
192.9900909999999
 31
0.0
  0
LINE
  5
B095
330
AD5A
100
AcDbEntity
  8
1
  6
Continuous
100
AcDbLine
 10
271.2424410000001
 20
190.039499
 30
0.0
 11
269.5911199999999
 21
190.039499
 31
0.0
  0
LINE
  5
B096
330
AD5A
100
AcDbEntity
  8
1
  6
Continuous
100
AcDbLine
 10
271.881983
 20
170.299112
 30
0.0
 11
259.881983
 21
170.299112
 31
0.0
  0
LINE
  5
B097
330
AD5A
100
AcDbEntity
  8
1
  6
Continuous
100
AcDbLine
 10
271.881983
 20
163.4108819999999
 30
0.0
 11
259.881983
 21
163.4108819999999
 31
0.0
  0
LINE
  5
B098
330
AD5A
100
AcDbEntity
  8
1
  6
Continuous
100
AcDbLine
 10
271.881983
 20
161.583108
 30
0.0
 11
259.881983
 21
161.583108
 31
0.0
  0
ARC
  5
B099
330
AD5A
100
AcDbEntity
  8
1
  6
Continuous
100
AcDbCircle
 10
259.881983
 20
169.299112
 30
0.0
 40
1.0
100
AcDbArc
 50
90.00000300000001
 51
180.0000029999999
  0
ARC
  5
B09A
330
AD5A
100
AcDbEntity
  8
1
  6
Continuous
100
AcDbCircle
 10
259.881983
 20
164.4108819999999
 30
0.0
 40
1.0
100
AcDbArc
 50
180.0000029999999
 51
269.999991
  0
ARC
  5
B09B
330
AD5A
100
AcDbEntity
  8
1
  6
Continuous
100
AcDbCircle
 10
259.881983
 20
162.583108
 30
0.0
 40
1.0
100
AcDbArc
 50
180.0000029999999
 51
269.999991
  0
LINE
  5
B09C
330
AD5A
100
AcDbEntity
  8
1
  6
Continuous
100
AcDbLine
 10
258.8819829999998
 20
162.583108
 30
0.0
 11
258.8819829999998
 21
169.299112
 31
0.0
  0
LINE
  5
B09D
330
AD5A
100
AcDbEntity
  8
1
  6
Continuous
100
AcDbLine
 10
268.59112
 20
189.057748
 30
0.0
 11
268.59112
 21
191.9900909999999
 31
0.0
  0
ARC
  5
B09E
330
AD5A
100
AcDbEntity
  8
1
  6
Continuous
100
AcDbCircle
 10
269.5911199999999
 20
191.9900909999999
 30
0.0
 40
1.0
100
AcDbArc
 50
90.00000300000001
 51
180.0000029999999
  0
ARC
  5
B09F
330
AD5A
100
AcDbEntity
  8
1
  6
Continuous
100
AcDbCircle
 10
269.5911199999999
 20
191.039499
 30
0.0
 40
1.0
100
AcDbArc
 50
180.0000029999999
 51
269.999991
  0
ARC
  5
B0A0
330
AD5A
100
AcDbEntity
  8
1
  6
Continuous
100
AcDbCircle
 10
269.5911199999999
 20
189.057748
 30
0.0
 40
1.0
100
AcDbArc
 50
180.0000029999999
 51
269.999991
  0
LINE
  5
B0A1
330
AD5A
100
AcDbEntity
  8
1
  6
Continuous
100
AcDbLine
 10
271.3819829999998
 20
180.836648
 30
0.0
 11
271.881983
 21
176.5058229999999
 31
0.0
  0
LINE
  5
B0A2
330
AD5A
100
AcDbEntity
  8
1
  6
Continuous
100
AcDbLine
 10
273.733715
 20
177.905137
 30
0.0
 11
273.8952680000001
 21
176.5058379999999
 31
0.0
  0
LINE
  5
B0A3
330
AD5A
100
AcDbEntity
  8
1
  6
Continuous
100
AcDbLine
 10
278.022181
 20
170.0488029999999
 30
0.0
 11
278.022181
 21
166.6767969999999
 31
0.0
  0
LINE
  5
B0A4
330
AD5A
100
AcDbEntity
  8
1
  6
Continuous
100
AcDbLine
 10
273.881983
 20
173.4989709999999
 30
0.0
 11
271.881983
 21
173.4989709999999
 31
0.0
  0
ARC
  5
B0A5
330
AD5A
100
AcDbEntity
  8
1
  6
Continuous
100
AcDbCircle
 10
272.8819829999998
 20
171.545129
 30
0.0
 40
1.0
100
AcDbArc
 50
82.11423499999998
 51
180.0000029999999
  0
ARC
  5
B0A6
330
AD5A
100
AcDbEntity
  8
1
  6
Continuous
100
AcDbCircle
 10
273.881983
 20
168.009149
 30
0.0
 40
2.0
100
AcDbArc
 50
97.885763
 51
112.097351
  0
ARC
  5
B0A7
330
AD5A
100
AcDbEntity
  8
1
  6
Continuous
100
AcDbCircle
 10
271.881983
 20
168.299112
 30
0.0
 40
2.0
100
AcDbArc
 50
359.999997
 51
90.00000300000001
  0
LINE
  5
B0A8
330
AD5A
100
AcDbEntity
  8
1
  6
Continuous
100
AcDbLine
 10
277.192042
 20
168.972406
 30
0.0
 11
277.192042
 21
171.9576959999999
 31
0.0
  0
LINE
  5
B0A9
330
AD5A
100
AcDbEntity
  8
1
  6
Continuous
100
AcDbLine
 10
273.0191819999999
 20
172.535684
 30
0.0
 11
277.192042
 21
171.9577119999999
 31
0.0
  0
LINE
  5
B0AA
330
AD5A
100
AcDbEntity
  8
1
  6
Continuous
100
AcDbLine
 10
277.192043
 20
170.4867189999999
 30
0.0
 11
273.6075859999999
 21
169.9902429999999
 31
0.0
  0
LINE
  5
B0AB
330
AD5A
100
AcDbEntity
  8
1
  6
Continuous
100
AcDbLine
 10
277.192041
 20
168.972406
 30
0.0
 11
273.813385
 21
168.504434
 31
0.0
  0
LINE
  5
B0AC
330
AD5A
100
AcDbEntity
  8
1
  6
Continuous
100
AcDbLine
 10
271.881983
 20
170.299112
 30
0.0
 11
271.881983
 21
176.5058229999999
 31
0.0
  0
LINE
  5
B0AD
330
AD5A
100
AcDbEntity
  8
1
  6
Continuous
100
AcDbLine
 10
273.881983
 20
172.416162
 30
0.0
 11
273.881983
 21
177.5819579999999
 31
0.0
  0
LINE
  5
B0AE
330
AD5A
100
AcDbEntity
  8
1
  6
Continuous
100
AcDbLine
 10
273.881983
 20
158.4711849999999
 30
0.0
 11
271.881983
 21
158.4711849999999
 31
0.0
  0
LINE
  5
B0AF
330
AD5A
100
AcDbEntity
  8
1
  6
Continuous
100
AcDbLine
 10
271.881983
 20
158.4711849999999
 30
0.0
 11
271.881983
 21
161.583108
 31
0.0
  0
ARC
  5
B0B0
330
AD5A
100
AcDbEntity
  8
1
  6
Continuous
100
AcDbCircle
 10
271.881983
 20
161.410882
 30
0.0
 40
2.0
100
AcDbArc
 50
359.999997
 51
90.00000300000001
  0
LINE
  5
B0B1
330
AD5A
100
AcDbEntity
  8
1
  6
Continuous
100
AcDbLine
 10
273.8819889999999
 20
163.430475
 30
0.0
 11
276.887923
 21
164.87388
 31
0.0
  0
LINE
  5
B0B2
330
AD5A
100
AcDbEntity
  8
1
  6
Continuous
100
AcDbLine
 10
273.881983
 20
158.4711849999999
 30
0.0
 11
273.881983
 21
168.5139249999998
 31
0.0
  0
ARC
  5
B0B3
330
AD5A
100
AcDbEntity
  8
1
  6
Continuous
100
AcDbCircle
 10
276.0221809999998
 20
166.6767969999999
 30
0.0
 40
2.0
100
AcDbArc
 50
295.64965
 51
359.999997
  0
LINE
  5
B0B4
330
AD5A
100
AcDbEntity
  8
1
  6
Continuous
100
AcDbLine
 10
272.025673
 20
182.889903
 30
0.0
 11
271.3819849999998
 21
182.8155909999999
 31
0.0
  0
LINE
  5
B0B5
330
AD5A
100
AcDbEntity
  8
1
  6
Continuous
100
AcDbLine
 10
272.559927
 20
180.9726379999999
 30
0.0
 11
271.3819829999998
 21
180.836648
 31
0.0
  0
LINE
  5
B0B6
330
AD5A
100
AcDbEntity
  8
1
  6
Continuous
100
AcDbLine
 10
271.3819829999998
 20
180.836633
 30
0.0
 11
271.3819829999998
 21
182.8155909999999
 31
0.0
  0
ARC
  5
B0B7
330
AD5A
100
AcDbEntity
  8
1
  6
Continuous
100
AcDbCircle
 10
198.299653
 20
287.3661879999999
 30
0.0
 40
25.585737
100
AcDbArc
 50
261.696571
 51
280.245834
  0
ARC
  5
B0B8
330
AD5A
100
AcDbEntity
  8
1
  6
Continuous
100
AcDbCircle
 10
194.980161
 20
264.6214059999999
 30
0.0
 40
2.6
100
AcDbArc
 50
204.502042
 51
261.696571
  0
ARC
  5
B0B9
330
AD5A
100
AcDbEntity
  8
1
  6
Continuous
100
AcDbCircle
 10
195.2848559999999
 20
264.6214059999999
 30
0.0
 40
2.6
100
AcDbArc
 50
204.502042
 51
261.696571
  0
LINE
  5
B0BA
330
AD5A
100
AcDbEntity
  8
1
  6
Continuous
100
AcDbLine
 10
191.906425
 20
266.6157149999999
 30
0.0
 11
191.772582
 21
271.9206459999999
 31
0.0
  0
LINE
  5
B0BB
330
AD5A
100
AcDbEntity
  8
1
  6
Continuous
100
AcDbLine
 10
192.211124
 20
266.61573
 30
0.0
 11
192.077282
 21
271.9206459999999
 31
0.0
  0
ARC
  5
B0BC
330
AD5A
100
AcDbEntity
  8
1
  6
Continuous
100
AcDbCircle
 10
199.792405
 20
266.814689
 30
0.0
 40
7.888494999999998
100
AcDbArc
 50
181.4452489999999
 51
204.502042
  0
ARC
  5
B0BD
330
AD5A
100
AcDbEntity
  8
1
  6
Continuous
100
AcDbCircle
 10
200.0971079999999
 20
266.814689
 30
0.0
 40
7.888494999999998
100
AcDbArc
 50
181.4452489999999
 51
204.502042
  0
ARC
  5
B0BE
330
AD5A
100
AcDbEntity
  8
1
  6
Continuous
100
AcDbCircle
 10
201.712682
 20
265.543266
 30
0.0
 40
3.542552999999998
100
AcDbArc
 50
288.7370029999999
 51
350.536219
  0
ARC
  5
B0BF
330
AD5A
100
AcDbEntity
  8
1
  6
Continuous
100
AcDbCircle
 10
176.2698629999999
 20
269.784401
 30
0.0
 40
29.336432
100
AcDbArc
 50
350.536219
 51
4.17591
  0
LINE
  5
B0C0
330
AD5A
100
AcDbEntity
  8
1
  6
Continuous
100
AcDbLine
 10
155.240146
 20
280.920646
 30
0.0
 11
161.740146
 21
280.920646
 31
0.0
  0
LINE
  5
B0C1
330
AD5A
100
AcDbEntity
  8
1
  6
Continuous
100
AcDbLine
 10
71.757391
 20
172.8301109999999
 30
0.0
 11
71.675208
 21
165.1057189999999
 31
0.0
  0
LINE
  5
B0C2
330
AD5A
100
AcDbEntity
  8
1
  6
Continuous
100
AcDbLine
 10
71.919404
 20
188.057748
 30
0.0
 11
71.90679799999998
 21
186.872937
 31
0.0
  0
LINE
  5
B0C3
330
AD5A
100
AcDbEntity
  8
1
  6
Continuous
100
AcDbLine
 10
69.46788000000001
 20
173.82821
 30
0.0
 11
69.375078
 21
165.1057189999999
 31
0.0
  0
LINE
  5
B0C4
330
AD5A
100
AcDbEntity
  8
1
  6
Continuous
100
AcDbLine
 10
183.5156669999999
 20
89.164776
 30
0.0
 11
182.669801
 21
90.75077099999999
 31
0.0
  0
ARC
  5
B0C5
330
AD5A
100
AcDbEntity
  8
1
  6
Continuous
100
AcDbCircle
 10
185.490146
 20
68.81031800000001
 30
0.0
 40
20.44999999999999
100
AcDbArc
 50
95.54062700000001
 51
140.5283139999999
  0
ARC
  5
B0C6
330
AD5A
100
AcDbEntity
  8
1
  6
Continuous
100
AcDbCircle
 10
185.490146
 20
68.81031800000001
 30
0.0
 40
22.45
100
AcDbArc
 50
107.2477389999999
 51
127.753266
  0
ARC
  5
B0C7
330
AD5A
100
AcDbEntity
  8
1
  6
Continuous
100
AcDbCircle
 10
185.490146
 20
68.81031800000001
 30
0.0
 40
24.75
100
AcDbArc
 50
75.30532499999998
 51
104.6946749999999
  0
ARC
  5
B0C8
330
AD5A
100
AcDbEntity
  8
1
  6
Continuous
100
AcDbCircle
 10
185.490146
 20
68.81031800000001
 30
0.0
 40
26.0
100
AcDbArc
 50
76.106536
 51
112.9585979999998
  0
LINE
  5
B0C9
330
AD5A
100
AcDbEntity
  8
1
  6
Continuous
100
AcDbLine
 10
191.7776169999999
 20
95.81031800000003
 30
0.0
 11
163.873227
 21
95.81031800000003
 31
0.0
  0
LINE
  5
B0CA
330
AD5A
100
AcDbEntity
  8
1
  6
Continuous
100
AcDbLine
 10
155.928409
 20
278.9206459999999
 30
0.0
 11
161.051884
 21
278.9206459999999
 31
0.0
  0
CIRCLE
  5
B0CB
330
AD5A
100
AcDbEntity
  8
2
  6
Continuous
100
AcDbCircle
 10
160.490146
 20
175.717882
 30
0.0
 40
3.3235
  0
CIRCLE
  5
B0CC
330
AD5A
100
AcDbEntity
  8
1
  6
Continuous
100
AcDbCircle
 10
160.490146
 20
175.717882
 30
0.0
 40
4.0
  0
CIRCLE
  5
B0CD
330
AD5A
100
AcDbEntity
  8
1
  6
Continuous
100
AcDbCircle
 10
160.490146
 20
175.717882
 30
0.0
 40
6.0
  0
LINE
  5
B0CE
330
AD5A
100
AcDbEntity
  8
1
  6
Continuous
100
AcDbLine
 10
166.490146
 20
179.181984
 30
0.0
 11
166.490146
 21
172.253781
 31
0.0
  0
LINE
  5
B0CF
330
AD5A
100
AcDbEntity
  8
1
  6
Continuous
100
AcDbLine
 10
154.490146
 20
179.181984
 30
0.0
 11
154.490146
 21
172.253781
 31
0.0
  0
LINE
  5
B0D0
330
AD5A
100
AcDbEntity
  8
1
  6
Continuous
100
AcDbLine
 10
160.490146
 20
168.789679
 30
0.0
 11
166.490146
 21
172.253781
 31
0.0
  0
LINE
  5
B0D1
330
AD5A
100
AcDbEntity
  8
1
  6
Continuous
100
AcDbLine
 10
160.490146
 20
168.789679
 30
0.0
 11
154.490146
 21
172.253781
 31
0.0
  0
LINE
  5
B0D2
330
AD5A
100
AcDbEntity
  8
1
  6
Continuous
100
AcDbLine
 10
166.490146
 20
179.181984
 30
0.0
 11
160.490146
 21
182.646086
 31
0.0
  0
LINE
  5
B0D3
330
AD5A
100
AcDbEntity
  8
1
  6
Continuous
100
AcDbLine
 10
154.490146
 20
179.181984
 30
0.0
 11
160.490146
 21
182.646086
 31
0.0
  0
ARC
  5
B0D4
330
AD5A
100
AcDbEntity
  8
1
  6
Continuous
100
AcDbCircle
 10
431.4947359999998
 20
175.717882
 30
0.0
 40
17.5
100
AcDbArc
 50
163.99821
 51
67.046965
  0
LINE
  5
B0D5
330
AD5A
100
AcDbEntity
  8
1
  6
Continuous
100
AcDbLine
 10
400.303316
 20
203.5662129999999
 30
0.0
 11
421.2403169999998
 21
170.0189799999999
 31
0.0
  0
LINE
  5
B0D6
330
AD5A
100
AcDbEntity
  8
4
  6
CENTER
100
AcDbLine
 10
394.9947359999999
 20
175.717882
 30
0.0
 11
467.9947359999999
 21
175.717882
 31
0.0
  0
LINE
  5
B0D7
330
AD5A
100
AcDbEntity
  8
1
  6
Continuous
100
AcDbLine
 10
414.3942309999998
 20
215.179556
 30
0.0
 11
416.394231
 21
216.6725559999999
 31
0.0
  0
LINE
  5
B0D8
330
AD5A
100
AcDbEntity
  8
1
  6
Continuous
100
AcDbLine
 10
412.980017
 20
215.179556
 30
0.0
 11
414.9800169999998
 21
216.6725559999999
 31
0.0
  0
ARC
  5
B0D9
330
AD5A
100
AcDbEntity
  8
1
  6
Continuous
100
AcDbCircle
 10
431.4947359999998
 20
175.717882
 30
0.0
 40
24.0
100
AcDbArc
 50
151.190096
 51
77.26906899999999
  0
LINE
  5
B0DA
330
AD5A
100
AcDbEntity
  8
1
  6
Continuous
100
AcDbLine
 10
429.494736
 20
215.179556
 30
0.0
 11
383.494736
 21
215.179556
 31
0.0
  0
ARC
  5
B0DB
330
AD5A
100
AcDbEntity
  8
1
  6
Continuous
100
AcDbCircle
 10
431.4947359999998
 20
175.717882
 30
0.0
 40
31.5
100
AcDbArc
 50
143.80463
 51
83.38217299999998
  0
LINE
  5
B0DC
330
AD5A
100
AcDbEntity
  8
1
  6
Continuous
100
AcDbLine
 10
383.494736
 20
216.6725559999999
 30
0.0
 11
429.494736
 21
216.6725559999999
 31
0.0
  0
LINE
  5
B0DD
330
AD5A
100
AcDbEntity
  8
1
  6
Continuous
100
AcDbLine
 10
384.319652
 20
218.1548169999998
 30
0.0
 11
428.66982
 21
218.1548169999998
 31
0.0
  0
LINE
  5
B0DE
330
AD5A
100
AcDbEntity
  8
1
  6
Continuous
100
AcDbLine
 10
371.494736
 20
224.2177
 30
0.0
 11
441.494736
 21
224.2177
 31
0.0
  0
LINE
  5
B0DF
330
AD5A
100
AcDbEntity
  8
1
  6
Continuous
100
AcDbLine
 10
386.738852
 20
219.892556
 30
0.0
 11
426.25062
 21
219.892556
 31
0.0
  0
LINE
  5
B0E0
330
AD5A
100
AcDbEntity
  8
1
  6
Continuous
100
AcDbLine
 10
371.494736
 20
221.917417
 30
0.0
 11
441.494736
 21
221.917417
 31
0.0
  0
ARC
  5
B0E1
330
AD5A
100
AcDbEntity
  8
1
  6
Continuous
100
AcDbCircle
 10
105.6610569999999
 20
212.8767439999998
 30
0.0
 40
359.841339
100
AcDbArc
 50
354.6262169999998
 51
355.451099
  0
LINE
  5
B0E2
330
AD5A
100
AcDbEntity
  8
1
  6
Continuous
100
AcDbLine
 10
422.387461
 20
175.717882
 30
0.0
 11
422.387461
 21
209.884775
 31
0.0
  0
LINE
  5
B0E3
330
AD5A
100
AcDbEntity
  8
1
  6
Continuous
100
AcDbLine
 10
433.8947479999998
 20
212.852656
 30
0.0
 11
441.061286
 21
178.8057659999998
 31
0.0
  0
LINE
  5
B0E4
330
AD5A
100
AcDbEntity
  8
4
  6
CENTER
100
AcDbLine
 10
431.4947359999998
 20
139.217882
 30
0.0
 11
431.4947359999998
 21
207.891468
 31
0.0
  0
ARC
  5
B0E5
330
AD5A
100
AcDbEntity
  8
1
  6
Continuous
100
AcDbCircle
 10
460.9416819999998
 20
179.456828
 30
0.0
 40
2.992333999999998
100
AcDbArc
 50
312.3546989999999
 51
354.6262169999998
  0
ARC
  5
B0E6
330
AD5A
100
AcDbEntity
  8
5
  6
PHANTOM
100
AcDbCircle
 10
179.195557
 20
385.225644
 30
0.0
 40
359.841339
100
AcDbArc
 50
321.4262109999999
 51
322.2511069999999
  0
ARC
  5
B0E7
330
AD5A
100
AcDbEntity
  8
5
  6
PHANTOM
100
AcDbCircle
 10
471.854874
 20
158.633586
 30
0.0
 40
10.28489299999999
100
AcDbArc
 50
116.269376
 51
142.2511019999998
  0
ARC
  5
B0E8
330
AD5A
100
AcDbEntity
  8
5
  6
PHANTOM
100
AcDbCircle
 10
458.182191
 20
162.7224379999999
 30
0.0
 40
2.992333999999998
100
AcDbArc
 50
279.154908
 51
321.4262109999999
  0
ARC
  5
B0E9
330
AD5A
100
AcDbEntity
  8
5
  6
PHANTOM
100
AcDbCircle
 10
472.3458719999999
 20
180.557063
 30
0.0
 40
9.617974999999999
100
AcDbArc
 50
247.9415579999999
 51
254.8329319999999
  0
ARC
  5
B0EA
330
AD5A
100
AcDbEntity
  8
5
  6
PHANTOM
100
AcDbCircle
 10
477.1522529999998
 20
168.353495
 30
0.0
 40
7.883719999999997
100
AcDbArc
 50
158.255943
 51
170.096055
  0
ARC
  5
B0EB
330
AD5A
100
AcDbEntity
  8
5
  6
PHANTOM
100
AcDbCircle
 10
467.6906289999998
 20
170.0054869999999
 30
0.0
 40
1.721049999999999
100
AcDbArc
 50
331.403383
 51
350.0960529999999
  0
LINE
  5
B0EC
330
AD5A
100
AcDbEntity
  8
5
  6
PHANTOM
100
AcDbLine
 10
468.7338299999998
 20
171.643113
 30
0.0
 11
462.9471969999998
 21
173.987932
 31
0.0
  0
ARC
  5
B0ED
330
AD5A
100
AcDbEntity
  8
5
  6
PHANTOM
100
AcDbCircle
 10
463.8940889999998
 20
174.762705
 30
0.0
 40
7.701836
100
AcDbArc
 50
296.269368
 51
313.561959
  0
ARC
  5
B0EE
330
AD5A
100
AcDbEntity
  8
1
  6
Continuous
100
AcDbCircle
 10
430.394736
 20
176.117882
 30
0.0
 40
11.0
100
AcDbArc
 50
213.672541
 51
14.14360199999999
  0
LINE
  5
B0EF
330
AD5A
100
AcDbEntity
  8
1
  6
Continuous
100
AcDbLine
 10
464.886269
 20
192.699012
 30
0.0
 11
458.760293
 21
191.4925269999999
 31
0.0
  0
ARC
  5
B0F0
330
AD5A
100
AcDbEntity
  8
1
  6
Continuous
100
AcDbCircle
 10
464.910065
 20
190.757494
 30
0.0
 40
1.721049999999999
100
AcDbArc
 50
4.603379000000001
 51
23.296049
  0
ARC
  5
B0F1
330
AD5A
100
AcDbEntity
  8
1
  6
Continuous
100
AcDbCircle
 10
474.621384
 20
183.522082
 30
0.0
 40
10.28489299999999
100
AcDbArc
 50
149.4693719999999
 51
175.4511019999999
  0
ARC
  5
B0F2
330
AD5A
100
AcDbEntity
  8
1
  6
Continuous
100
AcDbCircle
 10
459.1283809999998
 20
192.6593189999999
 30
0.0
 40
7.701836
100
AcDbArc
 50
329.469374
 51
346.7619509999999
  0
ARC
  5
B0F3
330
AD5A
100
AcDbEntity
  8
1
  6
Continuous
100
AcDbCircle
 10
463.0277559999998
 20
202.135715
 30
0.0
 40
9.617974999999999
100
AcDbArc
 50
281.141564
 51
288.032931
  0
ARC
  5
B0F4
330
AD5A
100
AcDbEntity
  8
1
  6
Continuous
100
AcDbCircle
 10
473.731782
 20
194.556006
 30
0.0
 40
7.883719999999997
100
AcDbArc
 50
191.455942
 51
203.2960559999999
  0
LINE
  5
B0F5
330
AD5A
100
AcDbEntity
  8
1
  6
Continuous
100
AcDbLine
 10
425.1605599999998
 20
212.8770429999999
 30
0.0
 11
436.282595
 21
212.845989
 31
0.0
  0
ARC
  5
B0F6
330
AD5A
100
AcDbEntity
  8
1
  6
Continuous
100
AcDbCircle
 10
469.4421059999998
 20
213.0080229999999
 30
0.0
 40
31.82178
100
AcDbArc
 50
180.882972
 51
182.8814939999999
  0
ARC
  5
B0F7
330
AD5A
100
AcDbEntity
  8
1
  6
Continuous
100
AcDbCircle
 10
450.6470809999998
 20
209.431971
 30
0.0
 40
13.13604599999999
100
AcDbArc
 50
171.346813
 51
174.2810689999998
  0
ARC
  5
B0F8
330
AD5A
100
AcDbEntity
  8
1
  6
Continuous
100
AcDbCircle
 10
437.351092
 20
210.907969
 30
0.0
 40
0.28047
100
AcDbArc
 50
271.374847
 51
323.4541489999998
  0
ARC
  5
B0F9
330
AD5A
100
AcDbEntity
  8
1
  6
Continuous
100
AcDbCircle
 10
437.0838939999998
 20
212.0707279999999
 30
0.0
 40
0.7011149999999999
100
AcDbArc
 50
39.600945
 51
79.61194999999998
  0
ARC
  5
B0FA
330
AD5A
100
AcDbEntity
  8
1
  6
Continuous
100
AcDbCircle
 10
436.2680029999999
 20
207.620059
 30
0.0
 40
5.22595
100
AcDbArc
 50
79.61194999999998
 51
89.84002199999997
  0
ARC
  5
B0FB
330
AD5A
100
AcDbEntity
  8
1
  6
Continuous
100
AcDbCircle
 10
435.3386829999998
 20
294.757624
 30
0.0
 40
84.15427099999998
100
AcDbArc
 50
269.3384389999998
 51
271.374847
  0
LINE
  5
B0FC
330
AD5A
100
AcDbEntity
  8
1
  6
Continuous
100
AcDbLine
 10
441.494736
 20
221.917417
 30
0.0
 11
441.494736
 21
224.2177
 31
0.0
  0
LINE
  5
B0FD
330
AD5A
100
AcDbEntity
  8
4
  6
CENTER
100
AcDbLine
 10
433.494736
 20
216.917417
 30
0.0
 11
433.494736
 21
229.2177
 31
0.0
  0
LINE
  5
B0FE
330
AD5A
100
AcDbEntity
  8
1
  6
Continuous
100
AcDbLine
 10
429.494736
 20
216.299973
 30
0.0
 11
429.122153
 21
216.6725559999999
 31
0.0
  0
LINE
  5
B0FF
330
AD5A
100
AcDbEntity
  8
1
  6
Continuous
100
AcDbLine
 10
428.2937259999997
 20
215.179556
 30
0.0
 11
426.293726
 21
216.6725559999999
 31
0.0
  0
LINE
  5
B100
330
AD5A
100
AcDbEntity
  8
1
  6
Continuous
100
AcDbLine
 10
425.465299
 20
215.179556
 30
0.0
 11
423.4652989999998
 21
216.6725559999999
 31
0.0
  0
LINE
  5
B101
330
AD5A
100
AcDbEntity
  8
1
  6
Continuous
100
AcDbLine
 10
422.6368719999999
 20
215.179556
 30
0.0
 11
420.6368719999998
 21
216.6725559999999
 31
0.0
  0
LINE
  5
B102
330
AD5A
100
AcDbEntity
  8
1
  6
Continuous
100
AcDbLine
 10
419.808445
 20
215.179556
 30
0.0
 11
417.808445
 21
216.6725559999999
 31
0.0
  0
LINE
  5
B103
330
AD5A
100
AcDbEntity
  8
1
  6
Continuous
100
AcDbLine
 10
416.980017
 20
215.179556
 30
0.0
 11
414.9800169999998
 21
216.6725559999999
 31
0.0
  0
LINE
  5
B104
330
AD5A
100
AcDbEntity
  8
1
  6
Continuous
100
AcDbLine
 10
428.5363669999998
 20
215.179556
 30
0.0
 11
429.494736
 21
216.1379249999999
 31
0.0
  0
LINE
  5
B105
330
AD5A
100
AcDbEntity
  8
1
  6
Continuous
100
AcDbLine
 10
427.122153
 20
215.179556
 30
0.0
 11
429.122153
 21
216.6725559999999
 31
0.0
  0
LINE
  5
B106
330
AD5A
100
AcDbEntity
  8
1
  6
Continuous
100
AcDbLine
 10
425.7079389999998
 20
215.179556
 30
0.0
 11
427.7079389999998
 21
216.6725559999999
 31
0.0
  0
LINE
  5
B107
330
AD5A
100
AcDbEntity
  8
1
  6
Continuous
100
AcDbLine
 10
424.2937259999997
 20
215.179556
 30
0.0
 11
426.293726
 21
216.6725559999999
 31
0.0
  0
LINE
  5
B108
330
AD5A
100
AcDbEntity
  8
1
  6
Continuous
100
AcDbLine
 10
422.879512
 20
215.179556
 30
0.0
 11
424.8795119999998
 21
216.6725559999999
 31
0.0
  0
LINE
  5
B109
330
AD5A
100
AcDbEntity
  8
1
  6
Continuous
100
AcDbLine
 10
421.465299
 20
215.179556
 30
0.0
 11
423.4652989999998
 21
216.6725559999999
 31
0.0
  0
LINE
  5
B10A
330
AD5A
100
AcDbEntity
  8
1
  6
Continuous
100
AcDbLine
 10
420.0510849999998
 20
215.179556
 30
0.0
 11
422.0510849999998
 21
216.6725559999999
 31
0.0
  0
LINE
  5
B10B
330
AD5A
100
AcDbEntity
  8
1
  6
Continuous
100
AcDbLine
 10
418.6368719999999
 20
215.179556
 30
0.0
 11
420.6368719999998
 21
216.6725559999999
 31
0.0
  0
LINE
  5
B10C
330
AD5A
100
AcDbEntity
  8
1
  6
Continuous
100
AcDbLine
 10
417.222658
 20
215.179556
 30
0.0
 11
419.222658
 21
216.6725559999999
 31
0.0
  0
LINE
  5
B10D
330
AD5A
100
AcDbEntity
  8
1
  6
Continuous
100
AcDbLine
 10
415.808445
 20
215.179556
 30
0.0
 11
417.808445
 21
216.6725559999999
 31
0.0
  0
LINE
  5
B10E
330
AD5A
100
AcDbEntity
  8
1
  6
Continuous
100
AcDbLine
 10
429.494736
 20
216.6725559999999
 30
0.0
 11
429.494736
 21
215.179556
 31
0.0
  0
ARC
  5
B10F
330
AD5A
100
AcDbEntity
  8
1
  6
Continuous
100
AcDbCircle
 10
423.6812379999998
 20
214.603845
 30
0.0
 40
6.206
100
AcDbArc
 50
39.064301
 51
58.798683
  0
ARC
  5
B110
330
AD5A
100
AcDbEntity
  8
1
  6
Continuous
100
AcDbCircle
 10
425.8833379999998
 20
219.7050439999999
 30
0.0
 40
4.697225
100
AcDbArc
 50
319.789963
 51
333.713305
  0
LINE
  5
B111
330
AD5A
100
AcDbEntity
  8
1
  6
Continuous
100
AcDbLine
 10
428.66982
 20
218.1548169999998
 30
0.0
 11
428.49982
 21
218.514817
 31
0.0
  0
LINE
  5
B112
330
AD5A
100
AcDbEntity
  8
1
  6
Continuous
100
AcDbLine
 10
429.48482
 20
218.1548169999998
 30
0.0
 11
428.66982
 21
218.1548169999998
 31
0.0
  0
ARC
  5
B113
330
AD5A
100
AcDbEntity
  8
1
  6
Continuous
100
AcDbCircle
 10
429.22085
 20
217.2349639999999
 30
0.0
 40
0.9569799999999998
100
AcDbArc
 50
24.04026499999999
 51
73.98808699999998
  0
ARC
  5
B114
330
AD5A
100
AcDbEntity
  8
1
  6
Continuous
100
AcDbCircle
 10
426.25062
 20
230.5325559999999
 30
0.0
 40
10.64
100
AcDbArc
 50
270.0
 51
305.934008
  0
ARC
  5
B115
330
AD5A
100
AcDbEntity
  8
1
  6
Continuous
100
AcDbCircle
 10
430.308386
 20
213.3878249999999
 30
0.0
 40
0.313453
100
AcDbArc
 50
173.6619839999999
 51
240.802965
  0
ARC
  5
B116
330
AD5A
100
AcDbEntity
  8
1
  6
Continuous
100
AcDbCircle
 10
426.389516
 20
211.2232759999999
 30
0.0
 40
4.224822999999998
100
AcDbArc
 50
31.367901
 51
69.461534
  0
ARC
  5
B117
330
AD5A
100
AcDbEntity
  8
1
  6
Continuous
100
AcDbCircle
 10
431.12999
 20
214.858092
 30
0.0
 40
1.997709
100
AcDbArc
 50
240.802965
 51
269.8400219999999
  0
ARC
  5
B118
330
AD5A
100
AcDbEntity
  8
5
  6
PHANTOM
100
AcDbCircle
 10
407.5348899999998
 20
197.263274
 30
0.0
 40
22.155483
100
AcDbArc
 50
211.297566
 51
250.1250599999999
  0
ARC
  5
B119
330
AD5A
100
AcDbEntity
  8
1
  6
Continuous
100
AcDbCircle
 10
399.64853
 20
180.6267649999998
 30
0.0
 40
22.155483
100
AcDbArc
 50
244.4975649999999
 51
283.3250579999999
  0
LINE
  5
B11A
330
AD5A
100
AcDbEntity
  8
1
  6
Continuous
100
AcDbLine
 10
398.7884989999998
 20
169.7850599999999
 30
0.0
 11
387.1996429999999
 21
163.804325
 31
0.0
  0
ARC
  5
B11B
330
AD5A
100
AcDbEntity
  8
1
  6
Continuous
100
AcDbCircle
 10
396.6411519999999
 20
174.028727
 30
0.0
 40
4.756031
100
AcDbArc
 50
296.839921
 51
308.832312
  0
ARC
  5
B11C
330
AD5A
100
AcDbEntity
  8
1
  6
Continuous
100
AcDbCircle
 10
397.3613209999999
 20
167.9140869999999
 30
0.0
 40
3.393712999999998
100
AcDbArc
 50
10.67568999999999
 51
31.99338
  0
ARC
  5
B11D
330
AD5A
100
AcDbEntity
  8
1
  6
Continuous
100
AcDbCircle
 10
401.85006
 20
168.9232879999998
 30
0.0
 40
1.214896999999999
100
AcDbArc
 50
198.252769
 51
219.982837
  0
ARC
  5
B11E
330
AD5A
100
AcDbEntity
  8
1
  6
Continuous
100
AcDbCircle
 10
398.6289759999999
 20
168.705996
 30
0.0
 40
1.899032
100
AcDbArc
 50
31.99338
 51
58.422988
  0
ARC
  5
B11F
330
AD5A
100
AcDbEntity
  8
1
  6
Continuous
100
AcDbCircle
 10
381.566792
 20
174.5085929999999
 30
0.0
 40
12.095881
100
AcDbArc
 50
293.4409999999999
 51
297.754456
  0
ARC
  5
B120
330
AD5A
100
AcDbEntity
  8
1
  6
Continuous
100
AcDbCircle
 10
389.8322379999998
 20
163.6917439999998
 30
0.0
 40
3.379898999999998
100
AcDbArc
 50
197.3755439999999
 51
218.597577
  0
ARC
  5
B121
330
AD5A
100
AcDbEntity
  8
1
  6
Continuous
100
AcDbCircle
 10
394.9681439999998
 20
170.81521
 30
0.0
 40
11.28476
100
AcDbArc
 50
231.736134
 51
244.4975649999999
  0
LINE
  5
B122
330
AD5A
100
AcDbEntity
  8
1
  6
Continuous
100
AcDbLine
 10
387.9796909999998
 20
161.9547719999999
 30
0.0
 11
387.19069
 21
161.5832029999999
 31
0.0
  0
LINE
  5
B123
330
AD5A
100
AcDbEntity
  8
1
  6
Continuous
100
AcDbLine
 10
386.378587
 20
163.410978
 30
0.0
 11
386.606572
 21
162.682387
 31
0.0
  0
ARC
  5
B124
330
AD5A
100
AcDbEntity
  8
1
  6
Continuous
100
AcDbCircle
 10
395.51006
 20
210.84647
 30
0.0
 40
5.356411999999998
100
AcDbArc
 50
206.7619749999999
 51
260.59491
  0
ARC
  5
B125
330
AD5A
100
AcDbEntity
  8
1
  6
Continuous
100
AcDbCircle
 10
389.762521
 20
194.23831
 30
0.0
 40
14.229
100
AcDbArc
 50
46.49942699999999
 51
90.0
  0
LINE
  5
B126
330
AD5A
100
AcDbEntity
  8
4
  6
CENTER
100
AcDbLine
 10
406.4947359999998
 20
202.215713
 30
0.0
 11
406.4947359999998
 21
229.2177
 31
0.0
  0
LINE
  5
B127
330
AD5A
100
AcDbEntity
  8
5
  6
PHANTOM
100
AcDbLine
 10
400.878726
 20
188.6622369999998
 30
0.0
 11
387.9067539999999
 21
190.0034039999999
 31
0.0
  0
LINE
  5
B128
330
AD5A
100
AcDbEntity
  8
1
  6
Continuous
100
AcDbLine
 10
398.3897269999998
 20
205.553599
 30
0.0
 11
395.2288049999999
 21
205.553599
 31
0.0
  0
ARC
  5
B129
330
AD5A
100
AcDbEntity
  8
5
  6
PHANTOM
100
AcDbCircle
 10
400.1543889999998
 20
187.8466699999999
 30
0.0
 40
1.899032
100
AcDbArc
 50
358.793387
 51
25.222996
  0
ARC
  5
B12A
330
AD5A
100
AcDbEntity
  8
5
  6
PHANTOM
100
AcDbCircle
 10
398.6600419999999
 20
187.8781449999999
 30
0.0
 40
3.393712999999998
100
AcDbArc
 50
337.4756939999999
 51
358.793384
  0
ARC
  5
B12B
330
AD5A
100
AcDbEntity
  8
5
  6
PHANTOM
100
AcDbCircle
 10
402.9686589999998
 20
186.264739
 30
0.0
 40
1.214896999999999
100
AcDbArc
 50
165.05277
 51
186.782711
  0
ARC
  5
B12C
330
AD5A
100
AcDbEntity
  8
5
  6
PHANTOM
100
AcDbCircle
 10
401.4055869999998
 20
193.388998
 30
0.0
 40
4.756031
100
AcDbArc
 50
263.639922
 51
275.632313
  0
ARC
  5
B12D
330
AD5A
100
AcDbEntity
  8
1
  6
Continuous
100
AcDbCircle
 10
391.1488959999999
 20
197.46731
 30
0.0
 40
11.0
100
AcDbArc
 50
33.67254099999998
 51
40.146961
  0
LINE
  5
B12E
330
AD5A
100
AcDbEntity
  8
5
  6
PHANTOM
100
AcDbLine
 10
387.004342
 20
190.1238509999998
 30
0.0
 11
386.7961619999999
 21
189.389356
 31
0.0
  0
LINE
  5
B12F
330
AD5A
100
AcDbEntity
  8
5
  6
PHANTOM
100
AcDbLine
 10
387.546731
 20
188.0286399999999
 30
0.0
 11
386.683064
 21
188.149751
 31
0.0
  0
ARC
  5
B130
330
AD5A
100
AcDbEntity
  8
5
  6
PHANTOM
100
AcDbCircle
 10
389.0546499999999
 20
202.044696
 30
0.0
 40
12.095881
100
AcDbArc
 50
260.240994
 51
264.5544569999998
  0
ARC
  5
B131
330
AD5A
100
AcDbEntity
  8
5
  6
PHANTOM
100
AcDbCircle
 10
398.2460639999998
 20
191.6161179999998
 30
0.0
 40
11.28476
100
AcDbArc
 50
198.536256
 51
211.297566
  0
ARC
  5
B132
330
AD5A
100
AcDbEntity
  8
5
  6
PHANTOM
100
AcDbCircle
 10
390.047971
 20
188.4676879999999
 30
0.0
 40
3.379898999999998
100
AcDbArc
 50
164.1755449999998
 51
185.397577
  0
ARC
  5
B133
330
AD5A
100
AcDbEntity
  8
1
  6
Continuous
100
AcDbCircle
 10
395.2288049999999
 20
226.412597
 30
0.0
 40
20.85899799999999
100
AcDbArc
 50
268.368019
 51
270.0
  0
LINE
  5
B134
330
AD5A
100
AcDbEntity
  8
1
  6
Continuous
100
AcDbLine
 10
397.1810279999999
 20
215.179556
 30
0.0
 11
395.1810279999999
 21
216.6725559999999
 31
0.0
  0
LINE
  5
B135
330
AD5A
100
AcDbEntity
  8
1
  6
Continuous
100
AcDbLine
 10
394.5952409999999
 20
215.179556
 30
0.0
 11
396.5952409999999
 21
216.6725559999999
 31
0.0
  0
LINE
  5
B136
330
AD5A
100
AcDbEntity
  8
1
  6
Continuous
100
AcDbLine
 10
400.009455
 20
215.179556
 30
0.0
 11
398.009455
 21
216.6725559999999
 31
0.0
  0
LINE
  5
B137
330
AD5A
100
AcDbEntity
  8
1
  6
Continuous
100
AcDbLine
 10
402.8378819999998
 20
215.179556
 30
0.0
 11
400.8378819999999
 21
216.6725559999999
 31
0.0
  0
LINE
  5
B138
330
AD5A
100
AcDbEntity
  8
1
  6
Continuous
100
AcDbLine
 10
405.6663089999998
 20
215.179556
 30
0.0
 11
403.666309
 21
216.6725559999999
 31
0.0
  0
LINE
  5
B139
330
AD5A
100
AcDbEntity
  8
1
  6
Continuous
100
AcDbLine
 10
414.1515899999998
 20
215.179556
 30
0.0
 11
412.15159
 21
216.6725559999999
 31
0.0
  0
LINE
  5
B13A
330
AD5A
100
AcDbEntity
  8
1
  6
Continuous
100
AcDbLine
 10
411.3231629999998
 20
215.179556
 30
0.0
 11
409.323163
 21
216.6725559999999
 31
0.0
  0
LINE
  5
B13B
330
AD5A
100
AcDbEntity
  8
1
  6
Continuous
100
AcDbLine
 10
408.494736
 20
215.179556
 30
0.0
 11
406.4947359999998
 21
216.6725559999999
 31
0.0
  0
LINE
  5
B13C
330
AD5A
100
AcDbEntity
  8
1
  6
Continuous
100
AcDbLine
 10
396.0094549999998
 20
215.179556
 30
0.0
 11
398.009455
 21
216.6725559999999
 31
0.0
  0
LINE
  5
B13D
330
AD5A
100
AcDbEntity
  8
1
  6
Continuous
100
AcDbLine
 10
397.423668
 20
215.179556
 30
0.0
 11
399.423668
 21
216.6725559999999
 31
0.0
  0
LINE
  5
B13E
330
AD5A
100
AcDbEntity
  8
1
  6
Continuous
100
AcDbLine
 10
398.8378819999999
 20
215.179556
 30
0.0
 11
400.8378819999999
 21
216.6725559999999
 31
0.0
  0
LINE
  5
B13F
330
AD5A
100
AcDbEntity
  8
1
  6
Continuous
100
AcDbLine
 10
400.252095
 20
215.179556
 30
0.0
 11
402.2520949999998
 21
216.6725559999999
 31
0.0
  0
LINE
  5
B140
330
AD5A
100
AcDbEntity
  8
1
  6
Continuous
100
AcDbLine
 10
401.6663089999998
 20
215.179556
 30
0.0
 11
403.666309
 21
216.6725559999999
 31
0.0
  0
LINE
  5
B141
330
AD5A
100
AcDbEntity
  8
1
  6
Continuous
100
AcDbLine
 10
403.0805219999998
 20
215.179556
 30
0.0
 11
405.0805219999999
 21
216.6725559999999
 31
0.0
  0
LINE
  5
B142
330
AD5A
100
AcDbEntity
  8
1
  6
Continuous
100
AcDbLine
 10
411.565804
 20
215.179556
 30
0.0
 11
413.565804
 21
216.6725559999999
 31
0.0
  0
LINE
  5
B143
330
AD5A
100
AcDbEntity
  8
1
  6
Continuous
100
AcDbLine
 10
410.1515899999998
 20
215.179556
 30
0.0
 11
412.15159
 21
216.6725559999999
 31
0.0
  0
LINE
  5
B144
330
AD5A
100
AcDbEntity
  8
1
  6
Continuous
100
AcDbLine
 10
408.737377
 20
215.179556
 30
0.0
 11
410.7373769999998
 21
216.6725559999999
 31
0.0
  0
LINE
  5
B145
330
AD5A
100
AcDbEntity
  8
1
  6
Continuous
100
AcDbLine
 10
407.3231629999998
 20
215.179556
 30
0.0
 11
409.323163
 21
216.6725559999999
 31
0.0
  0
LINE
  5
B146
330
AD5A
100
AcDbEntity
  8
1
  6
Continuous
100
AcDbLine
 10
405.9089499999998
 20
215.179556
 30
0.0
 11
407.90895
 21
216.6725559999999
 31
0.0
  0
LINE
  5
B147
330
AD5A
100
AcDbEntity
  8
1
  6
Continuous
100
AcDbLine
 10
404.494736
 20
215.179556
 30
0.0
 11
406.4947359999998
 21
216.6725559999999
 31
0.0
  0
LINE
  5
B148
330
AD5A
100
AcDbEntity
  8
4
  6
CENTER
100
AcDbLine
 10
379.494736
 20
216.917417
 30
0.0
 11
379.494736
 21
229.2177
 31
0.0
  0
LINE
  5
B149
330
AD5A
100
AcDbEntity
  8
1
  6
Continuous
100
AcDbLine
 10
385.867319
 20
215.179556
 30
0.0
 11
383.867319
 21
216.6725559999999
 31
0.0
  0
LINE
  5
B14A
330
AD5A
100
AcDbEntity
  8
1
  6
Continuous
100
AcDbLine
 10
388.6957459999999
 20
215.179556
 30
0.0
 11
386.695746
 21
216.6725559999999
 31
0.0
  0
LINE
  5
B14B
330
AD5A
100
AcDbEntity
  8
1
  6
Continuous
100
AcDbLine
 10
391.524173
 20
215.179556
 30
0.0
 11
389.524173
 21
216.6725559999999
 31
0.0
  0
LINE
  5
B14C
330
AD5A
100
AcDbEntity
  8
1
  6
Continuous
100
AcDbLine
 10
394.3525999999998
 20
215.179556
 30
0.0
 11
392.3525999999998
 21
216.6725559999999
 31
0.0
  0
LINE
  5
B14D
330
AD5A
100
AcDbEntity
  8
1
  6
Continuous
100
AcDbLine
 10
383.494736
 20
216.299973
 30
0.0
 11
383.867319
 21
216.6725559999999
 31
0.0
  0
LINE
  5
B14E
330
AD5A
100
AcDbEntity
  8
1
  6
Continuous
100
AcDbLine
 10
383.494736
 20
215.3927589999999
 30
0.0
 11
385.281533
 21
216.6725559999999
 31
0.0
  0
LINE
  5
B14F
330
AD5A
100
AcDbEntity
  8
1
  6
Continuous
100
AcDbLine
 10
384.695746
 20
215.179556
 30
0.0
 11
386.695746
 21
216.6725559999999
 31
0.0
  0
LINE
  5
B150
330
AD5A
100
AcDbEntity
  8
1
  6
Continuous
100
AcDbLine
 10
386.10996
 20
215.179556
 30
0.0
 11
388.10996
 21
216.6725559999999
 31
0.0
  0
LINE
  5
B151
330
AD5A
100
AcDbEntity
  8
1
  6
Continuous
100
AcDbLine
 10
387.524173
 20
215.179556
 30
0.0
 11
389.524173
 21
216.6725559999999
 31
0.0
  0
LINE
  5
B152
330
AD5A
100
AcDbEntity
  8
1
  6
Continuous
100
AcDbLine
 10
388.9383869999999
 20
215.179556
 30
0.0
 11
390.9383869999999
 21
216.6725559999999
 31
0.0
  0
LINE
  5
B153
330
AD5A
100
AcDbEntity
  8
1
  6
Continuous
100
AcDbLine
 10
390.3525999999999
 20
215.179556
 30
0.0
 11
392.3525999999998
 21
216.6725559999999
 31
0.0
  0
LINE
  5
B154
330
AD5A
100
AcDbEntity
  8
1
  6
Continuous
100
AcDbLine
 10
391.766814
 20
215.179556
 30
0.0
 11
393.7668139999999
 21
216.6725559999999
 31
0.0
  0
LINE
  5
B155
330
AD5A
100
AcDbEntity
  8
1
  6
Continuous
100
AcDbLine
 10
393.1810279999999
 20
215.179556
 30
0.0
 11
395.1810279999999
 21
216.6725559999999
 31
0.0
  0
LINE
  5
B156
330
AD5A
100
AcDbEntity
  8
1
  6
Continuous
100
AcDbLine
 10
383.494736
 20
216.6725559999999
 30
0.0
 11
383.494736
 21
215.179556
 31
0.0
  0
ARC
  5
B157
330
AD5A
100
AcDbEntity
  8
1
  6
Continuous
100
AcDbCircle
 10
389.3082339999999
 20
214.603845
 30
0.0
 40
6.206
100
AcDbArc
 50
121.2013169999998
 51
140.935699
  0
ARC
  5
B158
330
AD5A
100
AcDbEntity
  8
1
  6
Continuous
100
AcDbCircle
 10
387.106134
 20
219.7050439999999
 30
0.0
 40
4.697225
100
AcDbArc
 50
206.286695
 51
220.210037
  0
LINE
  5
B159
330
AD5A
100
AcDbEntity
  8
1
  6
Continuous
100
AcDbLine
 10
384.319652
 20
218.1548169999998
 30
0.0
 11
384.4896519999999
 21
218.514817
 31
0.0
  0
LINE
  5
B15A
330
AD5A
100
AcDbEntity
  8
1
  6
Continuous
100
AcDbLine
 10
383.504652
 20
218.1548169999998
 30
0.0
 11
384.319652
 21
218.1548169999998
 31
0.0
  0
ARC
  5
B15B
330
AD5A
100
AcDbEntity
  8
1
  6
Continuous
100
AcDbCircle
 10
383.768623
 20
217.2349639999999
 30
0.0
 40
0.9569799999999998
100
AcDbArc
 50
106.011913
 51
155.9597349999999
  0
ARC
  5
B15C
330
AD5A
100
AcDbEntity
  8
1
  6
Continuous
100
AcDbCircle
 10
386.738852
 20
230.5325559999999
 30
0.0
 40
10.64
100
AcDbArc
 50
234.0659919999999
 51
270.0
  0
LINE
  5
B15D
330
AD5A
100
AcDbEntity
  8
1
  6
Continuous
100
AcDbLine
 10
381.744736
 20
208.4673099999998
 30
0.0
 11
389.762521
 21
208.4673099999998
 31
0.0
  0
ARC
  5
B15E
330
AD5A
100
AcDbEntity
  8
1
  6
Continuous
100
AcDbCircle
 10
511.705519
 20
191.216185
 30
0.0
 40
131.100749
100
AcDbArc
 50
170.982549
 51
172.4387049999999
  0
ARC
  5
B15F
330
AD5A
100
AcDbEntity
  8
1
  6
Continuous
100
AcDbCircle
 10
386.556906
 20
211.132781
 30
0.0
 40
4.377608
100
AcDbArc
 50
112.4180289999999
 51
171.7055229999999
  0
LINE
  5
B160
330
AD5A
100
AcDbEntity
  8
1
  6
Continuous
100
AcDbLine
 10
371.494736
 20
221.917417
 30
0.0
 11
371.494736
 21
224.2177
 31
0.0
  0
LINE
  5
B161
330
AD5A
100
AcDbEntity
  8
1
  6
Continuous
100
AcDbLine
 10
33.861351
 20
168.717782
 30
0.0
 11
36.187589
 21
168.717782
 31
0.0
  0
LINE
  5
B162
330
AD5A
100
AcDbEntity
  8
1
  6
Continuous
100
AcDbLine
 10
33.861351
 20
182.7177819999998
 30
0.0
 11
33.861351
 21
168.717782
 31
0.0
  0
ARC
  5
B163
330
AD5A
100
AcDbEntity
  8
1
  6
Continuous
100
AcDbCircle
 10
41.687589
 20
175.717782
 30
0.0
 40
10.5
100
AcDbArc
 50
138.1896849999999
 51
221.810315
  0
LINE
  5
B164
330
AD5A
100
AcDbEntity
  8
1
  6
Continuous
100
AcDbLine
 10
33.861351
 20
182.7177819999998
 30
0.0
 11
36.187589
 21
182.7177819999998
 31
0.0
  0
LINE
  5
B165
330
AD5A
100
AcDbEntity
  8
1
  6
Continuous
100
AcDbLine
 10
167.490146
 20
48.683818
 30
0.0
 11
167.490146
 21
50.048656
 31
0.0
  0
LINE
  5
B166
330
AD5A
100
AcDbEntity
  8
1
  6
Continuous
100
AcDbLine
 10
153.490146
 20
48.683818
 30
0.0
 11
167.490146
 21
48.683818
 31
0.0
  0
ARC
  5
B167
330
AD5A
100
AcDbEntity
  8
1
  6
Continuous
100
AcDbCircle
 10
160.490146
 20
56.51005600000001
 30
0.0
 40
10.5
100
AcDbArc
 50
228.1896849999998
 51
311.810315
  0
LINE
  5
B168
330
AD5A
100
AcDbEntity
  8
1
  6
Continuous
100
AcDbLine
 10
153.490146
 20
48.683818
 30
0.0
 11
153.490146
 21
51.010056
 31
0.0
  0
CIRCLE
  5
B169
330
AD5A
100
AcDbEntity
  8
1
  6
Continuous
100
AcDbCircle
 10
431.4947359999998
 20
175.717882
 30
0.0
 40
7.0
  0
LINE
  5
B16A
330
AD5A
100
AcDbEntity
  8
1
  6
Continuous
100
AcDbLine
 10
316.1189419999999
 20
168.717782
 30
0.0
 11
313.792704
 21
168.717782
 31
0.0
  0
ARC
  5
B16B
330
AD5A
100
AcDbEntity
  8
1
  6
Continuous
100
AcDbCircle
 10
308.292704
 20
175.717782
 30
0.0
 40
10.5
100
AcDbArc
 50
318.189685
 51
14.601151
  0
LINE
  5
B16C
330
AD5A
100
AcDbEntity
  8
1
  6
Continuous
100
AcDbLine
 10
316.1189419999999
 20
174.0252989999999
 30
0.0
 11
316.1189419999999
 21
168.717782
 31
0.0
  0
ARC
  5
B16D
330
AD5A
100
AcDbEntity
  8
1
  6
Continuous
100
AcDbCircle
 10
160.490146
 20
175.717882
 30
0.0
 40
24.0
100
AcDbArc
 50
15.975804
 51
28.80990399999999
  0
ARC
  5
B16E
330
AD5A
100
AcDbEntity
  8
1
  6
Continuous
100
AcDbCircle
 10
160.490146
 20
175.717882
 30
0.0
 40
31.5
100
AcDbArc
 50
346.0849109999998
 51
36.19536999999999
  0
ARC
  5
B16F
330
AD5A
100
AcDbEntity
  8
1
  6
Continuous
100
AcDbCircle
 10
160.490146
 20
175.717882
 30
0.0
 40
17.5
100
AcDbArc
 50
189.8217129999999
 51
314.818467
  0
ARC
  5
B170
330
AD5A
100
AcDbEntity
  8
1
  6
Continuous
100
AcDbCircle
 10
160.490146
 20
175.717882
 30
0.0
 40
31.5
100
AcDbArc
 50
177.220254
 51
328.0907279999999
  0
ARC
  5
B171
330
AD5A
100
AcDbEntity
  8
1
  6
Continuous
100
AcDbCircle
 10
160.490146
 20
175.717882
 30
0.0
 40
24.0
100
AcDbArc
 50
181.101933
 51
322.8240739999999
  0
LINE
  5
B172
330
AD5A
100
AcDbEntity
  8
1
  6
Continuous
100
AcDbLine
 10
150.5974219999998
 20
84.20519899999998
 30
0.0
 11
150.5974219999998
 21
86.61058100000003
 31
0.0
  0
LINE
  5
B173
330
AD5A
100
AcDbEntity
  8
1
  6
Continuous
100
AcDbLine
 10
81.34093
 20
178.9177819999999
 30
0.0
 11
80.54092999999998
 21
179.7177819999998
 31
0.0
  0
LINE
  5
B174
330
AD5A
100
AcDbEntity
  8
2
  6
Continuous
100
AcDbLine
 10
81.21742999999998
 20
179.041282
 30
0.0
 11
80.45811200000001
 21
179.041282
 31
0.0
  0
LINE
  5
B175
330
AD5A
100
AcDbEntity
  8
1
  6
Continuous
100
AcDbLine
 10
81.34093
 20
172.517782
 30
0.0
 11
80.54092999999998
 21
171.717782
 31
0.0
  0
LINE
  5
B176
330
AD5A
100
AcDbEntity
  8
2
  6
Continuous
100
AcDbLine
 10
81.21742999999998
 20
172.3942819999998
 30
0.0
 11
80.45811200000001
 21
172.3942819999998
 31
0.0
  0
LINE
  5
B177
330
AD5A
100
AcDbEntity
  8
1
  6
Continuous
100
AcDbLine
 10
75.458112
 20
168.717782
 30
0.0
 11
75.458112
 21
182.7177819999998
 31
0.0
  0
LINE
  5
B178
330
AD5A
100
AcDbEntity
  8
1
  6
Continuous
100
AcDbLine
 10
80.54092999999998
 20
179.7177819999998
 30
0.0
 11
80.54092999999998
 21
171.717782
 31
0.0
  0
ARC
  5
B179
330
AD5A
100
AcDbEntity
  8
1
  6
Continuous
100
AcDbCircle
 10
86.92221399999999
 20
175.717782
 30
0.0
 40
11.464102
100
AcDbArc
 50
162.412046
 51
197.5879539999999
  0
ARC
  5
B17A
330
AD5A
100
AcDbEntity
  8
1
  6
Continuous
100
AcDbCircle
 10
68.99401000000001
 20
175.717782
 30
0.0
 40
11.464102
100
AcDbArc
 50
342.4120459999999
 51
17.587954
  0
LINE
  5
B17B
330
AD5A
100
AcDbEntity
  8
1
  6
Continuous
100
AcDbLine
 10
80.45811200000001
 20
181.7177819999998
 30
0.0
 11
80.45811200000001
 21
169.717782
 31
0.0
  0
LINE
  5
B17C
330
AD5A
100
AcDbEntity
  8
1
  6
Continuous
100
AcDbLine
 10
75.458112
 20
168.717782
 30
0.0
 11
73.958112
 21
168.717782
 31
0.0
  0
LINE
  5
B17D
330
AD5A
100
AcDbEntity
  8
1
  6
Continuous
100
AcDbLine
 10
80.45811200000001
 20
171.717782
 30
0.0
 11
80.54092999999998
 21
171.717782
 31
0.0
  0
ARC
  5
B17E
330
AD5A
100
AcDbEntity
  8
1
  6
Continuous
100
AcDbCircle
 10
77.391125
 20
170.52163
 30
0.0
 40
3.066986999999998
100
AcDbArc
 50
334.384247
 51
34.38424699999998
  0
ARC
  5
B17F
330
AD5A
100
AcDbEntity
  8
1
  6
Continuous
100
AcDbCircle
 10
78.52509899999998
 20
170.52163
 30
0.0
 40
3.066986999999998
100
AcDbArc
 50
145.615753
 51
205.615753
  0
LINE
  5
B180
330
AD5A
100
AcDbEntity
  8
1
  6
Continuous
100
AcDbLine
 10
75.99401
 20
172.253681
 30
0.0
 11
79.92221399999998
 21
172.253681
 31
0.0
  0
LINE
  5
B181
330
AD5A
100
AcDbEntity
  8
1
  6
Continuous
100
AcDbLine
 10
75.99401
 20
168.7895789999998
 30
0.0
 11
79.92221399999998
 21
168.7895789999998
 31
0.0
  0
LINE
  5
B182
330
AD5A
100
AcDbEntity
  8
1
  6
Continuous
100
AcDbLine
 10
75.99401
 20
168.7895789999998
 30
0.0
 11
75.458112
 21
169.717782
 31
0.0
  0
LINE
  5
B183
330
AD5A
100
AcDbEntity
  8
1
  6
Continuous
100
AcDbLine
 10
79.92221399999998
 20
168.7895789999998
 30
0.0
 11
80.45811200000001
 21
169.717782
 31
0.0
  0
LINE
  5
B184
330
AD5A
100
AcDbEntity
  8
1
  6
Continuous
100
AcDbLine
 10
75.458112
 20
182.7177819999998
 30
0.0
 11
73.958112
 21
182.7177819999998
 31
0.0
  0
LINE
  5
B185
330
AD5A
100
AcDbEntity
  8
1
  6
Continuous
100
AcDbLine
 10
80.45811200000001
 20
179.7177819999998
 30
0.0
 11
80.54092999999998
 21
179.7177819999998
 31
0.0
  0
LINE
  5
B186
330
AD5A
100
AcDbEntity
  8
1
  6
Continuous
100
AcDbLine
 10
79.92221399999998
 20
182.6459859999999
 30
0.0
 11
80.45811200000001
 21
181.7177819999998
 31
0.0
  0
LINE
  5
B187
330
AD5A
100
AcDbEntity
  8
1
  6
Continuous
100
AcDbLine
 10
75.99401
 20
182.6459859999999
 30
0.0
 11
75.458112
 21
181.7177819999998
 31
0.0
  0
LINE
  5
B188
330
AD5A
100
AcDbEntity
  8
1
  6
Continuous
100
AcDbLine
 10
75.99401
 20
182.6459859999999
 30
0.0
 11
79.92221399999998
 21
182.6459859999999
 31
0.0
  0
LINE
  5
B189
330
AD5A
100
AcDbEntity
  8
1
  6
Continuous
100
AcDbLine
 10
75.99401
 20
179.1818839999999
 30
0.0
 11
79.92221399999998
 21
179.1818839999999
 31
0.0
  0
ARC
  5
B18A
330
AD5A
100
AcDbEntity
  8
1
  6
Continuous
100
AcDbCircle
 10
78.52509899999998
 20
180.913935
 30
0.0
 40
3.066986999999998
100
AcDbArc
 50
154.3842469999999
 51
214.384247
  0
ARC
  5
B18B
330
AD5A
100
AcDbEntity
  8
1
  6
Continuous
100
AcDbCircle
 10
77.391125
 20
180.913935
 30
0.0
 40
3.066986999999998
100
AcDbArc
 50
325.6157529999999
 51
25.615753
  0
LINE
  5
B18C
330
AD5A
100
AcDbEntity
  8
1
  6
Continuous
100
AcDbLine
 10
81.34093
 20
172.517782
 30
0.0
 11
81.34093
 21
178.9177819999999
 31
0.0
  0
CIRCLE
  5
B18D
330
AD5A
100
AcDbEntity
  8
1
  6
Continuous
100
AcDbCircle
 10
160.490146
 20
175.717882
 30
0.0
 40
7.0
  0
LINE
  5
B18E
330
AD5A
100
AcDbEntity
  8
1
  6
Continuous
100
AcDbLine
 10
166.490146
 20
95.11058099999999
 30
0.0
 11
166.490146
 21
90.11058099999999
 31
0.0
  0
LINE
  5
B18F
330
AD5A
100
AcDbEntity
  8
1
  6
Continuous
100
AcDbLine
 10
154.490146
 20
95.11058099999999
 30
0.0
 11
154.490146
 21
90.11058099999999
 31
0.0
  0
LINE
  5
B190
330
AD5A
100
AcDbEntity
  8
1
  6
Continuous
100
AcDbLine
 10
160.490146
 20
90.64648000000001
 30
0.0
 11
160.490146
 21
94.574683
 31
0.0
  0
ARC
  5
B191
330
AD5A
100
AcDbEntity
  8
1
  6
Continuous
100
AcDbCircle
 10
157.490146
 20
98.775645
 30
0.0
 40
8.665063999999999
100
AcDbArc
 50
249.7438419999999
 51
290.256158
  0
LINE
  5
B192
330
AD5A
100
AcDbEntity
  8
1
  6
Continuous
100
AcDbLine
 10
166.4200989999999
 20
90.11058099999999
 30
0.0
 11
153.490146
 21
90.11058099999999
 31
0.0
  0
LINE
  5
B193
330
AD5A
100
AcDbEntity
  8
1
  6
Continuous
100
AcDbLine
 10
153.490146
 20
90.11058099999999
 30
0.0
 11
153.490146
 21
88.61058100000002
 31
0.0
  0
ARC
  5
B194
330
AD5A
100
AcDbEntity
  8
1
  6
Continuous
100
AcDbCircle
 10
163.490146
 20
98.775645
 30
0.0
 40
8.665063999999999
100
AcDbArc
 50
249.7438419999999
 51
290.256158
  0
ARC
  5
B195
330
AD5A
100
AcDbEntity
  8
1
  6
Continuous
100
AcDbCircle
 10
157.490146
 20
86.445518
 30
0.0
 40
8.665063999999999
100
AcDbArc
 50
69.743842
 51
110.256158
  0
LINE
  5
B196
330
AD5A
100
AcDbEntity
  8
1
  6
Continuous
100
AcDbLine
 10
154.490146
 20
95.11058099999999
 30
0.0
 11
166.490146
 21
95.11058099999999
 31
0.0
  0
LINE
  5
B197
330
AD5A
100
AcDbEntity
  8
1
  6
Continuous
100
AcDbLine
 10
164.4901459999998
 20
95.11058099999999
 30
0.0
 11
164.4901459999998
 21
95.19339900000002
 31
0.0
  0
LINE
  5
B198
330
AD5A
100
AcDbEntity
  8
1
  6
Continuous
100
AcDbLine
 10
163.6901459999999
 20
95.993399
 30
0.0
 11
164.4901459999998
 21
95.19339900000002
 31
0.0
  0
LINE
  5
B199
330
AD5A
100
AcDbEntity
  8
2
  6
Continuous
100
AcDbLine
 10
163.813646
 20
95.869899
 30
0.0
 11
163.813646
 21
95.11058099999999
 31
0.0
  0
LINE
  5
B19A
330
AD5A
100
AcDbEntity
  8
1
  6
Continuous
100
AcDbLine
 10
156.490146
 20
95.11058099999999
 30
0.0
 11
156.490146
 21
95.19339900000002
 31
0.0
  0
LINE
  5
B19B
330
AD5A
100
AcDbEntity
  8
1
  6
Continuous
100
AcDbLine
 10
157.2901459999999
 20
95.993399
 30
0.0
 11
156.490146
 21
95.19339900000002
 31
0.0
  0
LINE
  5
B19C
330
AD5A
100
AcDbEntity
  8
2
  6
Continuous
100
AcDbLine
 10
157.1666459999998
 20
95.869899
 30
0.0
 11
157.1666459999998
 21
95.11058099999999
 31
0.0
  0
LINE
  5
B19D
330
AD5A
100
AcDbEntity
  8
1
  6
Continuous
100
AcDbLine
 10
163.6901459999999
 20
95.993399
 30
0.0
 11
157.2901459999999
 21
95.993399
 31
0.0
  0
LINE
  5
B19E
330
AD5A
100
AcDbEntity
  8
1
  6
Continuous
100
AcDbLine
 10
156.490146
 20
95.19339900000002
 30
0.0
 11
164.4901459999998
 21
95.19339900000002
 31
0.0
  0
ARC
  5
B19F
330
AD5A
100
AcDbEntity
  8
1
  6
Continuous
100
AcDbCircle
 10
163.490146
 20
86.445518
 30
0.0
 40
8.665063999999999
100
AcDbArc
 50
69.743842
 51
110.256158
  0
LINE
  5
B1A0
330
AD5A
100
AcDbEntity
  8
1
  6
Continuous
100
AcDbLine
 10
268.6393629999999
 20
172.517782
 30
0.0
 11
268.6393629999999
 21
178.9177819999999
 31
0.0
  0
LINE
  5
B1A1
330
AD5A
100
AcDbEntity
  8
1
  6
Continuous
100
AcDbLine
 10
269.522181
 20
181.7177819999998
 30
0.0
 11
269.522181
 21
170.299112
 31
0.0
  0
ARC
  5
B1A2
330
AD5A
100
AcDbEntity
  8
1
  6
Continuous
100
AcDbCircle
 10
280.9862819999998
 20
175.717782
 30
0.0
 40
11.464102
100
AcDbArc
 50
162.412046
 51
197.5879539999999
  0
LINE
  5
B1A3
330
AD5A
100
AcDbEntity
  8
1
  6
Continuous
100
AcDbLine
 10
269.4393629999999
 20
179.7177819999998
 30
0.0
 11
269.4393629999999
 21
171.717782
 31
0.0
  0
LINE
  5
B1A4
330
AD5A
100
AcDbEntity
  8
1
  6
Continuous
100
AcDbLine
 10
271.881983
 20
172.253681
 30
0.0
 11
270.058079
 21
172.253681
 31
0.0
  0
ARC
  5
B1A5
330
AD5A
100
AcDbEntity
  8
1
  6
Continuous
100
AcDbCircle
 10
272.5891679999999
 20
170.52163
 30
0.0
 40
3.066986999999998
100
AcDbArc
 50
145.615753
 51
184.16062
  0
LINE
  5
B1A6
330
AD5A
100
AcDbEntity
  8
1
  6
Continuous
100
AcDbLine
 10
269.522181
 20
171.717782
 30
0.0
 11
269.4393629999999
 21
171.717782
 31
0.0
  0
LINE
  5
B1A7
330
AD5A
100
AcDbEntity
  8
2
  6
Continuous
100
AcDbLine
 10
268.7628629999999
 20
172.3942819999998
 30
0.0
 11
269.522181
 21
172.3942819999998
 31
0.0
  0
LINE
  5
B1A8
330
AD5A
100
AcDbEntity
  8
1
  6
Continuous
100
AcDbLine
 10
268.6393629999999
 20
172.517782
 30
0.0
 11
269.4393629999999
 21
171.717782
 31
0.0
  0
LINE
  5
B1A9
330
AD5A
100
AcDbEntity
  8
1
  6
Continuous
100
AcDbLine
 10
271.5730279999998
 20
179.1818839999999
 30
0.0
 11
270.058079
 21
179.1818839999999
 31
0.0
  0
LINE
  5
B1AA
330
AD5A
100
AcDbEntity
  8
1
  6
Continuous
100
AcDbLine
 10
271.3819829999998
 20
182.6459859999999
 30
0.0
 11
270.058079
 21
182.6459859999999
 31
0.0
  0
ARC
  5
B1AB
330
AD5A
100
AcDbEntity
  8
1
  6
Continuous
100
AcDbCircle
 10
272.5891679999999
 20
180.913935
 30
0.0
 40
3.066986999999998
100
AcDbArc
 50
154.3842469999999
 51
214.384247
  0
LINE
  5
B1AC
330
AD5A
100
AcDbEntity
  8
1
  6
Continuous
100
AcDbLine
 10
270.058079
 20
182.6459859999999
 30
0.0
 11
269.522181
 21
181.7177819999998
 31
0.0
  0
LINE
  5
B1AD
330
AD5A
100
AcDbEntity
  8
1
  6
Continuous
100
AcDbLine
 10
269.522181
 20
179.7177819999998
 30
0.0
 11
269.4393629999999
 21
179.7177819999998
 31
0.0
  0
LINE
  5
B1AE
330
AD5A
100
AcDbEntity
  8
2
  6
Continuous
100
AcDbLine
 10
268.7628629999999
 20
179.041282
 30
0.0
 11
269.522181
 21
179.041282
 31
0.0
  0
LINE
  5
B1AF
330
AD5A
100
AcDbEntity
  8
1
  6
Continuous
100
AcDbLine
 10
268.6393629999999
 20
178.9177819999999
 30
0.0
 11
269.4393629999999
 21
179.7177819999998
 31
0.0
  0
LINE
  5
B1B0
330
AD5A
100
AcDbEntity
  8
1
  6
Continuous
100
AcDbLine
 10
163.6901459999999
 20
271.737566
 30
0.0
 11
157.2901459999999
 21
271.737566
 31
0.0
  0
LINE
  5
B1B1
330
AD5A
100
AcDbEntity
  8
1
  6
Continuous
100
AcDbLine
 10
157.2901459999999
 20
271.737566
 30
0.0
 11
157.095958
 21
271.931754
 31
0.0
  0
LINE
  5
B1B2
330
AD5A
100
AcDbEntity
  8
2
  6
Continuous
100
AcDbLine
 10
157.1666459999998
 20
271.8610659999999
 30
0.0
 11
157.1666459999998
 21
271.9281259999998
 31
0.0
  0
LINE
  5
B1B3
330
AD5A
100
AcDbEntity
  8
1
  6
Continuous
100
AcDbLine
 10
163.6901459999999
 20
271.737566
 30
0.0
 11
163.873227
 21
271.9206459999999
 31
0.0
  0
LINE
  5
B1B4
330
AD5A
100
AcDbEntity
  8
2
  6
Continuous
100
AcDbLine
 10
163.813646
 20
271.8610659999999
 30
0.0
 11
163.813646
 21
271.9206459999999
 31
0.0
  0
LINE
  5
B1B5
330
AD5A
100
AcDbEntity
  8
1
  6
Continuous
100
AcDbLine
 10
172.9596569999999
 20
180.5107689999999
 30
0.0
 11
169.061072
 21
164.146226
 31
0.0
  0
ENDSEC
  0
SECTION
  2
OBJECTS
  0
DICTIONARY
  5
AD48
330
0
100
AcDbDictionary
281
     1
  3
ACAD_CIP_PREVIOUS_PRODUCT_INFO
350
B217
  3
ACAD_COLOR
350
B1F9
  3
ACAD_DETAILVIEWSTYLE
350
B212
  3
ACAD_GROUP
350
AD49
  3
ACAD_LAYOUT
350
AD55
  3
ACAD_MATERIAL
350
B1C7
  3
ACAD_MLEADERSTYLE
350
B20E
  3
ACAD_MLINESTYLE
350
AD52
  3
ACAD_PLOTSETTINGS
350
AD54
  3
ACAD_PLOTSTYLENAME
350
B1C5
  3
ACAD_SCALELIST
350
B1FC
  3
ACAD_SECTIONVIEWSTYLE
350
B210
  3
ACAD_TABLESTYLE
350
B1FA
  3
ACAD_VISUALSTYLE
350
B1E0
  3
ACDB_RECOMPOSE_DATA
350
B235
  3
AcDbVariableDictionary
350
B228
  3
DWGPROPS
350
B236
  0
DICTIONARY
  5
B218
330
AD4C
100
AcDbDictionary
280
     1
281
     1
  3
ADSK_XREC_LAYER_RECONCILED
360
B219
  0
DICTIONARY
  5
B21A
330
AD62
100
AcDbDictionary
280
     1
281
     1
  3
ADSK_XREC_LAYER_RECONCILED
360
B21B
  0
DICTIONARY
  5
B21C
330
AD63
100
AcDbDictionary
280
     1
281
     1
  3
ADSK_XREC_LAYER_RECONCILED
360
B21D
  0
DICTIONARY
  5
B21E
330
AD64
100
AcDbDictionary
280
     1
281
     1
  3
ADSK_XREC_LAYER_RECONCILED
360
B21F
  0
DICTIONARY
  5
B220
330
AD65
100
AcDbDictionary
280
     1
281
     1
  3
ADSK_XREC_LAYER_RECONCILED
360
B221
  0
DICTIONARY
  5
B222
330
AD66
100
AcDbDictionary
280
     1
281
     1
  3
ADSK_XREC_LAYER_RECONCILED
360
B223
  0
DICTIONARY
  5
B224
330
AD67
100
AcDbDictionary
280
     1
281
     1
  3
ADSK_XREC_LAYER_RECONCILED
360
B225
  0
DICTIONARY
  5
B226
330
AD68
100
AcDbDictionary
280
     1
281
     1
  3
ADSK_XREC_LAYER_RECONCILED
360
B227
  0
DICTIONARY
  5
B1C0
330
AD5A
100
AcDbDictionary
281
     1
  3
ACAD_LAYOUTSELFREF
350
B1C1
  0
DICTIONARY
  5
B1BE
330
AD56
100
AcDbDictionary
281
     1
  3
ACAD_LAYOUTSELFREF
350
B1BF
  0
XRECORD
  5
B217
102
{ACAD_REACTORS
330
AD48
102
}
330
AD48
100
AcDbXrecord
280
     1
300
ACDLT
300
2014
300
ACDLT_F_S
  0
DICTIONARY
  5
B1F9
102
{ACAD_REACTORS
330
AD48
102
}
330
AD48
100
AcDbDictionary
281
     1
  0
DICTIONARY
  5
B212
102
{ACAD_REACTORS
330
AD48
102
}
330
AD48
100
AcDbDictionary
281
     1
  3
Imperial24
350
B213
  0
DICTIONARY
  5
AD49
102
{ACAD_REACTORS
330
AD48
102
}
330
AD48
100
AcDbDictionary
281
     1
  0
DICTIONARY
  5
AD55
102
{ACAD_REACTORS
330
AD48
102
}
330
AD48
100
AcDbDictionary
281
     1
  3
Model
350
B214
  3
レイアウト1
350
B215
  0
DICTIONARY
  5
B1C7
102
{ACAD_REACTORS
330
AD48
102
}
330
AD48
100
AcDbDictionary
281
     1
  3
ByBlock
350
B1D0
  3
ByLayer
350
B1C8
  3
Global
350
B1D8
  0
DICTIONARY
  5
B20E
102
{ACAD_REACTORS
330
AD48
102
}
330
AD48
100
AcDbDictionary
281
     1
  3
Standard
350
B20F
  0
DICTIONARY
  5
AD52
102
{ACAD_REACTORS
330
AD48
102
}
330
AD48
100
AcDbDictionary
281
     1
  3
STANDARD
350
AD53
  0
DICTIONARY
  5
AD54
102
{ACAD_REACTORS
330
AD48
102
}
330
AD48
100
AcDbDictionary
281
     1
  0
ACDBDICTIONARYWDFLT
  5
B1C5
102
{ACAD_REACTORS
330
AD48
102
}
330
AD48
100
AcDbDictionary
281
     1
  3
Normal
350
B1C6
100
AcDbDictionaryWithDefault
340
B1C6
  0
DICTIONARY
  5
B1FC
102
{ACAD_REACTORS
330
AD48
102
}
330
AD48
100
AcDbDictionary
281
     1
  3
A0
350
B1FD
  3
A1
350
B1FE
  3
A2
350
B1FF
  3
A3
350
B200
  3
A4
350
B201
  3
A5
350
B202
  3
A6
350
B203
  3
A7
350
B204
  3
A8
350
B205
  3
A9
350
B206
  3
B0
350
B207
  3
B1
350
B208
  3
B2
350
B209
  3
B3
350
B20A
  3
B4
350
B20B
  3
B5
350
B20C
  3
B6
350
B20D
  0
DICTIONARY
  5
B210
102
{ACAD_REACTORS
330
AD48
102
}
330
AD48
100
AcDbDictionary
281
     1
  3
Imperial24
350
B211
  0
DICTIONARY
  5
B1FA
102
{ACAD_REACTORS
330
AD48
102
}
330
AD48
100
AcDbDictionary
281
     1
  3
Standard
350
B1FB
  0
DICTIONARY
  5
B1E0
102
{ACAD_REACTORS
330
AD48
102
}
330
AD48
100
AcDbDictionary
281
     1
  3
2dWireframe
350
B1E6
  3
Basic
350
B1E5
  3
Brighten
350
B1EC
  3
ColorChange
350
B1F0
  3
Conceptual
350
B1E9
  3
Dim
350
B1EB
  3
EdgeColorOff
350
B1F8
  3
Facepattern
350
B1EF
  3
Flat
350
B1E1
  3
FlatWithEdges
350
B1E2
  3
Gouraud
350
B1E3
  3
GouraudWithEdges
350
B1E4
  3
Hidden
350
B1E8
  3
JitterOff
350
B1F6
  3
Linepattern
350
B1EE
  3
OverhangOff
350
B1F7
  3
Realistic
350
B1EA
  3
Shaded
350
B1F5
  3
Shaded with edges
350
B1F4
  3
Shades of Gray
350
B1F1
  3
Sketchy
350
B1F2
  3
Thicken
350
B1ED
  3
Wireframe
350
B1E7
  3
X-Ray
350
B1F3
  0
XRECORD
  5
B235
102
{ACAD_REACTORS
330
AD48
102
}
330
AD48
100
AcDbXrecord
280
     1
 90
        1
330
B1FB
  0
DICTIONARY
  5
B228
102
{ACAD_REACTORS
330
AD48
102
}
330
AD48
100
AcDbDictionary
281
     1
  3
CANNOSCALE
350
B22D
  3
CMLEADERSTYLE
350
B22A
  3
CTABLESTYLE
350
B229
  3
CVIEWDETAILSTYLE
350
B22B
  3
CVIEWSECTIONSTYLE
350
B22C
  3
DIMASSOC
350
B230
  3
INDEXCTL
350
B22F
  3
SORTENTS
350
B22E
  3
XCLIPFRAME
350
B231
  0
XRECORD
  5
B236
102
{ACAD_REACTORS
330
AD48
102
}
330
AD48
100
AcDbXrecord
280
     1
  1
DWGPROPS COOKIE
  2

  3

  4

  6

  7

  8
Yoshitsune
  9

300
=
301
=
302
=
303
=
304
=
305
=
306
=
307
=
308
=
309
=
 40
0.0000130092592593
 41
2451301.440629514
 42
2457192.686959421
  1

 90
        0
  0
XRECORD
  5
B219
102
{ACAD_REACTORS
330
B218
102
}
330
B218
100
AcDbXrecord
280
     1
290
     1
  0
XRECORD
  5
B21B
102
{ACAD_REACTORS
330
B21A
102
}
330
B21A
100
AcDbXrecord
280
     1
290
     1
  0
XRECORD
  5
B21D
102
{ACAD_REACTORS
330
B21C
102
}
330
B21C
100
AcDbXrecord
280
     1
290
     1
  0
XRECORD
  5
B21F
102
{ACAD_REACTORS
330
B21E
102
}
330
B21E
100
AcDbXrecord
280
     1
290
     1
  0
XRECORD
  5
B221
102
{ACAD_REACTORS
330
B220
102
}
330
B220
100
AcDbXrecord
280
     1
290
     1
  0
XRECORD
  5
B223
102
{ACAD_REACTORS
330
B222
102
}
330
B222
100
AcDbXrecord
280
     1
290
     1
  0
XRECORD
  5
B225
102
{ACAD_REACTORS
330
B224
102
}
330
B224
100
AcDbXrecord
280
     1
290
     1
  0
XRECORD
  5
B227
102
{ACAD_REACTORS
330
B226
102
}
330
B226
100
AcDbXrecord
280
     1
290
     1
  0
XRECORD
  5
B1C1
102
{ACAD_REACTORS
330
B1C0
102
}
330
B1C0
100
AcDbXrecord
280
     1
340
AD5A
  0
XRECORD
  5
B1BF
102
{ACAD_REACTORS
330
B1BE
102
}
330
B1BE
100
AcDbXrecord
280
     1
340
AD56
  0
ACDBDETAILVIEWSTYLE
  5
B213
102
{ACAD_XDICTIONARY
360
B26E
102
}
102
{ACAD_REACTORS
330
B212
102
}
330
B212
100
AcDbModelDocViewStyle
 70
     0
  3
Imperial24
290
     0
100
AcDbDetailViewStyle
 70
     0
 71
     0
 90
        3
 71
     1
340
AD4D
 40
0.24
340
0
 40
0.24
300

 40
0.36
280
     3
 71
     2
340
AD51
 90
       25
 71
     3
340
AD4D
 40
0.24
 90
        1
 40
0.75
 90
        1
300
%<\AcVar ViewType \f "%tc1">% %<\AcVar ViewDetailId>%\PSCALE %<\AcVar ViewScale \f "%sn">%
 71
     4
340
AD51
 90
       25
340
AD51
 90
       25
280
     0
  0
LAYOUT
  5
B214
102
{ACAD_XDICTIONARY
360
B270
102
}
102
{ACAD_REACTORS
330
AD55
102
}
330
AD55
100
AcDbPlotSettings
  1

  2
Canon LBP9100C
  4

  6

 40
0.0
 41
0.0
 42
0.0
 43
0.0
 44
0.0
 45
0.0
 46
0.0
 47
0.0
 48
0.0
 49
0.0
140
0.0
141
0.0
142
1.0
143
1.0
 70
  1712
 72
     0
 73
     0
 74
     0
  7

 75
     0
147
1.0
148
0.0
149
0.0
100
AcDbLayout
  1
Model
 70
     1
 71
     0
 10
0.0
 20
0.0
 11
12.0
 21
9.0
 12
0.0
 22
0.0
 32
0.0
 14
0.0
 24
0.0
 34
0.0
 15
0.0
 25
0.0
 35
0.0
146
0.0
 13
0.0
 23
0.0
 33
0.0
 16
1.0
 26
0.0
 36
0.0
 17
0.0
 27
1.0
 37
0.0
 76
     0
330
AD5A
331
B1BD
  0
LAYOUT
  5
B215
102
{ACAD_XDICTIONARY
360
B272
102
}
102
{ACAD_REACTORS
330
AD55
102
}
330
AD55
100
AcDbPlotSettings
  1

  2
Canon LBP9100C
  4

  6

 40
0.0
 41
0.0
 42
0.0
 43
0.0
 44
0.0
 45
0.0
 46
0.0
 47
0.0
 48
0.0
 49
0.0
140
0.0
141
0.0
142
1.0
143
1.0
 70
   688
 72
     0
 73
     0
 74
     5
  7

 75
    16
147
1.0
148
0.0
149
0.0
100
AcDbLayout
  1
レイアウト1
 70
     0
 71
     1
 10
0.0
 20
0.0
 11
420.0
 21
297.0
 12
0.0
 22
0.0
 32
0.0
 14
1.000000000000000E+20
 24
1.000000000000000E+20
 34
1.000000000000000E+20
 15
-1.000000000000000E+20
 25
-1.000000000000000E+20
 35
-1.000000000000000E+20
146
0.0
 13
0.0
 23
0.0
 33
0.0
 16
1.0
 26
0.0
 36
0.0
 17
0.0
 27
1.0
 37
0.0
 76
     0
330
AD56
  0
MATERIAL
  5
B1D0
102
{ACAD_XDICTIONARY
360
B1D1
102
}
102
{ACAD_REACTORS
330
B1C7
102
}
330
B1C7
100
AcDbMaterial
  1
ByBlock
 72
     0
 43
0.0208333333333333
 43
0.0
 43
0.0
 43
0.0
 43
0.0
 43
0.0208333333333333
 43
0.0
 43
0.0
 43
0.0
 43
0.0
 43
1.0
 43
0.0
 43
0.0
 43
0.0
 43
0.0
 43
1.0
 77
     0
 47
0.0208333333333333
 47
0.0
 47
0.0
 47
0.0
 47
0.0
 47
0.0208333333333333
 47
0.0
 47
0.0
 47
0.0
 47
0.0
 47
1.0
 47
0.0
 47
0.0
 47
0.0
 47
0.0
 47
1.0
171
     0
 49
0.0208333333333333
 49
0.0
 49
0.0
 49
0.0
 49
0.0
 49
0.0208333333333333
 49
0.0
 49
0.0
 49
0.0
 49
0.0
 49
1.0
 49
0.0
 49
0.0
 49
0.0
 49
0.0
 49
1.0
175
     0
142
0.0208333333333333
142
0.0
142
0.0
142
0.0
142
0.0
142
0.0208333333333333
142
0.0
142
0.0
142
0.0
142
0.0
142
1.0
142
0.0
142
0.0
142
0.0
142
0.0
142
1.0
179
     0
144
0.0208333333333333
144
0.0
144
0.0
144
0.0
144
0.0
144
0.0208333333333333
144
0.0
144
0.0
144
0.0
144
0.0
144
1.0
144
0.0
144
0.0
144
0.0
144
0.0
144
1.0
147
0.0208333333333333
147
0.0
147
0.0
147
0.0
147
0.0
147
0.0208333333333333
147
0.0
147
0.0
147
0.0
147
0.0
147
1.0
147
0.0
147
0.0
147
0.0
147
0.0
147
1.0
  0
MATERIAL
  5
B1C8
102
{ACAD_XDICTIONARY
360
B1C9
102
}
102
{ACAD_REACTORS
330
B1C7
102
}
330
B1C7
100
AcDbMaterial
  1
ByLayer
 72
     0
 43
0.0208333333333333
 43
0.0
 43
0.0
 43
0.0
 43
0.0
 43
0.0208333333333333
 43
0.0
 43
0.0
 43
0.0
 43
0.0
 43
1.0
 43
0.0
 43
0.0
 43
0.0
 43
0.0
 43
1.0
 77
     0
 47
0.0208333333333333
 47
0.0
 47
0.0
 47
0.0
 47
0.0
 47
0.0208333333333333
 47
0.0
 47
0.0
 47
0.0
 47
0.0
 47
1.0
 47
0.0
 47
0.0
 47
0.0
 47
0.0
 47
1.0
171
     0
 49
0.0208333333333333
 49
0.0
 49
0.0
 49
0.0
 49
0.0
 49
0.0208333333333333
 49
0.0
 49
0.0
 49
0.0
 49
0.0
 49
1.0
 49
0.0
 49
0.0
 49
0.0
 49
0.0
 49
1.0
175
     0
142
0.0208333333333333
142
0.0
142
0.0
142
0.0
142
0.0
142
0.0208333333333333
142
0.0
142
0.0
142
0.0
142
0.0
142
1.0
142
0.0
142
0.0
142
0.0
142
0.0
142
1.0
179
     0
144
0.0208333333333333
144
0.0
144
0.0
144
0.0
144
0.0
144
0.0208333333333333
144
0.0
144
0.0
144
0.0
144
0.0
144
1.0
144
0.0
144
0.0
144
0.0
144
0.0
144
1.0
147
0.0208333333333333
147
0.0
147
0.0
147
0.0
147
0.0
147
0.0208333333333333
147
0.0
147
0.0
147
0.0
147
0.0
147
1.0
147
0.0
147
0.0
147
0.0
147
0.0
147
1.0
  0
MATERIAL
  5
B1D8
102
{ACAD_XDICTIONARY
360
B1D9
102
}
102
{ACAD_REACTORS
330
B1C7
102
}
330
B1C7
100
AcDbMaterial
  1
Global
 72
     0
 43
0.0208333333333333
 43
0.0
 43
0.0
 43
0.0
 43
0.0
 43
0.0208333333333333
 43
0.0
 43
0.0
 43
0.0
 43
0.0
 43
1.0
 43
0.0
 43
0.0
 43
0.0
 43
0.0
 43
1.0
 77
     0
 47
0.0208333333333333
 47
0.0
 47
0.0
 47
0.0
 47
0.0
 47
0.0208333333333333
 47
0.0
 47
0.0
 47
0.0
 47
0.0
 47
1.0
 47
0.0
 47
0.0
 47
0.0
 47
0.0
 47
1.0
171
     0
 49
0.0208333333333333
 49
0.0
 49
0.0
 49
0.0
 49
0.0
 49
0.0208333333333333
 49
0.0
 49
0.0
 49
0.0
 49
0.0
 49
1.0
 49
0.0
 49
0.0
 49
0.0
 49
0.0
 49
1.0
175
     0
142
0.0208333333333333
142
0.0
142
0.0
142
0.0
142
0.0
142
0.0208333333333333
142
0.0
142
0.0
142
0.0
142
0.0
142
1.0
142
0.0
142
0.0
142
0.0
142
0.0
142
1.0
179
     0
144
0.0208333333333333
144
0.0
144
0.0
144
0.0
144
0.0
144
0.0208333333333333
144
0.0
144
0.0
144
0.0
144
0.0
144
1.0
144
0.0
144
0.0
144
0.0
144
0.0
144
1.0
147
0.0208333333333333
147
0.0
147
0.0
147
0.0
147
0.0
147
0.0208333333333333
147
0.0
147
0.0
147
0.0
147
0.0
147
1.0
147
0.0
147
0.0
147
0.0
147
0.0
147
1.0
  0
MLEADERSTYLE
  5
B20F
102
{ACAD_REACTORS
330
B20E
102
}
330
B20E
100
AcDbMLeaderStyle
170
     2
171
     1
172
     0
 90
        2
 40
0.0
 41
0.0
173
     1
 91
-1056964608
340
AD4F
 92
       -2
290
     1
 42
0.09
291
     1
 43
0.36
  3
Standard
 44
0.18
300

342
AD4D
174
     1
178
     6
175
     1
176
     0
 93
-1056964608
 45
0.18
292
     0
297
     0
 46
0.18
 94
-1056964608
 47
1.0
 49
1.0
140
1.0
293
     1
141
0.0
294
     1
177
     0
142
1.0
295
     0
296
     0
143
0.125
1001
ACAD_MLEADERVER
1070
     2
  0
MLINESTYLE
  5
AD53
102
{ACAD_REACTORS
330
AD52
102
}
330
AD52
100
AcDbMlineStyle
  2
STANDARD
 70
     0
  3

 62
   256
 51
90.0
 52
90.0
 71
     2
 49
0.5
 62
   256
  6
BYLAYER
 49
-0.5
 62
   256
  6
BYLAYER
  0
ACDBPLACEHOLDER
  5
B1C6
102
{ACAD_REACTORS
330
B1C5
102
}
330
B1C5
  0
SCALE
  5
B1FD
102
{ACAD_REACTORS
330
B1FC
102
}
330
B1FC
100
AcDbScale
 70
     0
300
1:1
140
1.0
141
1.0
290
     1
  0
SCALE
  5
B1FE
102
{ACAD_REACTORS
330
B1FC
102
}
330
B1FC
100
AcDbScale
 70
     0
300
1/128" = 1'-0"
140
0.0078125
141
12.0
290
     0
  0
SCALE
  5
B1FF
102
{ACAD_REACTORS
330
B1FC
102
}
330
B1FC
100
AcDbScale
 70
     0
300
1/64" = 1'-0"
140
0.015625
141
12.0
290
     0
  0
SCALE
  5
B200
102
{ACAD_REACTORS
330
B1FC
102
}
330
B1FC
100
AcDbScale
 70
     0
300
1/32" = 1'-0"
140
0.03125
141
12.0
290
     0
  0
SCALE
  5
B201
102
{ACAD_REACTORS
330
B1FC
102
}
330
B1FC
100
AcDbScale
 70
     0
300
1/16" = 1'-0"
140
0.0625
141
12.0
290
     0
  0
SCALE
  5
B202
102
{ACAD_REACTORS
330
B1FC
102
}
330
B1FC
100
AcDbScale
 70
     0
300
3/32" = 1'-0"
140
0.09375
141
12.0
290
     0
  0
SCALE
  5
B203
102
{ACAD_REACTORS
330
B1FC
102
}
330
B1FC
100
AcDbScale
 70
     0
300
1/8" = 1'-0"
140
0.125
141
12.0
290
     0
  0
SCALE
  5
B204
102
{ACAD_REACTORS
330
B1FC
102
}
330
B1FC
100
AcDbScale
 70
     0
300
3/16" = 1'-0"
140
0.1875
141
12.0
290
     0
  0
SCALE
  5
B205
102
{ACAD_REACTORS
330
B1FC
102
}
330
B1FC
100
AcDbScale
 70
     0
300
1/4" = 1'-0"
140
0.25
141
12.0
290
     0
  0
SCALE
  5
B206
102
{ACAD_REACTORS
330
B1FC
102
}
330
B1FC
100
AcDbScale
 70
     0
300
3/8" = 1'-0"
140
0.375
141
12.0
290
     0
  0
SCALE
  5
B207
102
{ACAD_REACTORS
330
B1FC
102
}
330
B1FC
100
AcDbScale
 70
     0
300
1/2" = 1'-0"
140
0.5
141
12.0
290
     0
  0
SCALE
  5
B208
102
{ACAD_REACTORS
330
B1FC
102
}
330
B1FC
100
AcDbScale
 70
     0
300
3/4" = 1'-0"
140
0.75
141
12.0
290
     0
  0
SCALE
  5
B209
102
{ACAD_REACTORS
330
B1FC
102
}
330
B1FC
100
AcDbScale
 70
     0
300
1" = 1'-0"
140
1.0
141
12.0
290
     0
  0
SCALE
  5
B20A
102
{ACAD_REACTORS
330
B1FC
102
}
330
B1FC
100
AcDbScale
 70
     0
300
1-1/2" = 1'-0"
140
1.5
141
12.0
290
     0
  0
SCALE
  5
B20B
102
{ACAD_REACTORS
330
B1FC
102
}
330
B1FC
100
AcDbScale
 70
     0
300
3" = 1'-0"
140
3.0
141
12.0
290
     0
  0
SCALE
  5
B20C
102
{ACAD_REACTORS
330
B1FC
102
}
330
B1FC
100
AcDbScale
 70
     0
300
6" = 1'-0"
140
6.0
141
12.0
290
     0
  0
SCALE
  5
B20D
102
{ACAD_REACTORS
330
B1FC
102
}
330
B1FC
100
AcDbScale
 70
     0
300
1'-0" = 1'-0"
140
12.0
141
12.0
290
     0
  0
ACDBSECTIONVIEWSTYLE
  5
B211
102
{ACAD_XDICTIONARY
360
B26C
102
}
102
{ACAD_REACTORS
330
B210
102
}
330
B210
100
AcDbModelDocViewStyle
 70
     0
  3
Imperial24
290
     0
100
AcDbSectionViewStyle
 70
     0
 71
     0
 90
       78
 71
     1
340
AD4D
 40
0.24
340
0
340
0
 40
0.24
300
I, O, Q, S, X, Z
 40
0.48
 90
        3
 40
0.18
 90
        1
 71
     2
340
AD51
 90
       25
340
AD51
 90
       50
 40
0.24
 40
0.0
 40
0.24
 71
     3
340
AD4D
 40
0.24
 90
        1
 40
0.75
 90
        1
300
%<\AcVar ViewType \f "%tc1">% %<\AcVar ViewSectionStartId>%-%<\AcVar ViewSectionEndId>%\PSCALE %<\AcVar ViewScale \f "%sn">%
 71
     4
300
ANSI31
 40
1.0
 90
        0
290
     0
290
     0
 90
        6
 40
0.0
 40
1.570796326794896
 40
0.2617993877991494
 40
1.308996938995747
 40
-0.2617993877991494
 40
1.832595714594046
  0
TABLESTYLE
  5
B1FB
102
{ACAD_XDICTIONARY
360
B233
102
}
102
{ACAD_REACTORS
330
B1FA
102
}
330
B1FA
100
AcDbTableStyle
  3
Standard
 70
     0
 71
     0
 40
0.06
 41
0.06
280
     0
281
     0
  7
STANDARD
140
0.18
170
     2
 62
     0
 63
     7
283
     0
274
    -2
284
     1
 64
     0
275
    -2
285
     1
 65
     0
276
    -2
286
     1
 66
     0
277
    -2
287
     1
 67
     0
278
    -2
288
     1
 68
     0
279
    -2
289
     1
 69
     0
  7
STANDARD
140
0.25
170
     5
 62
     0
 63
     7
283
     0
274
    -2
284
     1
 64
     0
275
    -2
285
     1
 65
     0
276
    -2
286
     1
 66
     0
277
    -2
287
     1
 67
     0
278
    -2
288
     1
 68
     0
279
    -2
289
     1
 69
     0
  7
STANDARD
140
0.18
170
     5
 62
     0
 63
     7
283
     0
274
    -2
284
     1
 64
     0
275
    -2
285
     1
 65
     0
276
    -2
286
     1
 66
     0
277
    -2
287
     1
 67
     0
278
    -2
288
     1
 68
     0
279
    -2
289
     1
 69
     0
  0
VISUALSTYLE
  5
B1E6
102
{ACAD_XDICTIONARY
360
B244
102
}
102
{ACAD_REACTORS
330
B1E0
102
}
330
B1E0
100
AcDbVisualStyle
  2
2dWireframe
 70
     4
 71
     0
 72
     2
 73
     0
 90
        0
 40
-0.6
 41
-30.0
 62
     5
 63
     7
 74
     1
 91
        4
 64
     7
 65
   257
 75
     1
175
     1
 42
1.0
 92
        0
 66
   257
 43
1.0
 76
     1
 77
     6
 78
     2
 67
     7
 79
     5
170
     0
171
     0
290
     0
174
     0
 93
        1
 44
0.0
173
     0
291
     0
 45
0.0
1001
ACAD
1000
AcDbSavedByObjectVersion
1070
     0
  0
VISUALSTYLE
  5
B1E5
102
{ACAD_XDICTIONARY
360
B242
102
}
102
{ACAD_REACTORS
330
B1E0
102
}
330
B1E0
100
AcDbVisualStyle
  2
Basic
 70
     7
 71
     1
 72
     0
 73
     1
 90
        0
 40
-0.6
 41
-30.0
 62
     5
 63
     7
 74
     0
 91
        4
 64
     7
 65
   257
 75
     1
175
     1
 42
1.0
 92
        8
 66
     7
 43
1.0
 76
     1
 77
     6
 78
     2
 67
     7
 79
     5
170
     0
171
     0
290
     0
174
     0
 93
        1
 44
0.0
173
     0
291
     1
 45
0.0
1001
ACAD
1000
AcDbSavedByObjectVersion
1070
     0
  0
VISUALSTYLE
  5
B1EC
102
{ACAD_XDICTIONARY
360
B250
102
}
102
{ACAD_REACTORS
330
B1E0
102
}
330
B1E0
100
AcDbVisualStyle
  2
Brighten
 70
    12
 71
     2
 72
     2
 73
     0
 90
        0
 40
-0.6
 41
-30.0
 62
     5
 63
     7
 74
     1
 91
        4
 64
     7
 65
   257
 75
     1
175
     1
 42
1.0
 92
        8
 66
     7
 43
1.0
 76
     1
 77
     6
 78
     2
 67
     7
 79
     5
170
     0
171
     0
290
     0
174
     0
 93
        1
 44
50.0
173
     0
291
     1
 45
0.0
1001
ACAD
1000
AcDbSavedByObjectVersion
1070
     0
  0
VISUALSTYLE
  5
B1F0
102
{ACAD_XDICTIONARY
360
B258
102
}
102
{ACAD_REACTORS
330
B1E0
102
}
330
B1E0
100
AcDbVisualStyle
  2
ColorChange
 70
    16
 71
     2
 72
     2
 73
     3
 90
        0
 40
-0.6
 41
-30.0
 62
     5
 63
     8
 74
     1
 91
        4
 64
     7
 65
   257
 75
     1
175
     1
 42
1.0
 92
        8
 66
     8
 43
1.0
 76
     1
 77
     6
 78
     2
 67
     7
 79
     5
170
     0
171
     0
290
     0
174
     0
 93
        1
 44
0.0
173
     0
291
     1
 45
0.0
1001
ACAD
1000
AcDbSavedByObjectVersion
1070
     0
  0
VISUALSTYLE
  5
B1E9
102
{ACAD_XDICTIONARY
360
B24A
102
}
102
{ACAD_REACTORS
330
B1E0
102
}
330
B1E0
100
AcDbVisualStyle
  2
Conceptual
 70
     9
 71
     3
 72
     2
 73
     0
 90
        0
 40
-0.6
 41
-30.0
 62
     5
 63
     7
 74
     2
 91
        2
 64
     7
 65
   257
 75
     1
175
     1
 42
179.0
 92
        8
 66
     7
 43
1.0
 76
     1
 77
     6
 78
     2
 67
     7
 79
     3
170
     0
171
     0
290
     0
174
     0
 93
        1
 44
0.0
173
     0
291
     0
 45
0.0
1001
ACAD
1000
AcDbSavedByObjectVersion
1070
     0
  0
VISUALSTYLE
  5
B1EB
102
{ACAD_XDICTIONARY
360
B24E
102
}
102
{ACAD_REACTORS
330
B1E0
102
}
330
B1E0
100
AcDbVisualStyle
  2
Dim
 70
    11
 71
     2
 72
     2
 73
     0
 90
        0
 40
-0.6
 41
-30.0
 62
     5
 63
     7
 74
     1
 91
        4
 64
     7
 65
   257
 75
     1
175
     1
 42
1.0
 92
        8
 66
     7
 43
1.0
 76
     1
 77
     6
 78
     2
 67
     7
 79
     5
170
     0
171
     0
290
     0
174
     0
 93
        1
 44
-50.0
173
     0
291
     1
 45
0.0
1001
ACAD
1000
AcDbSavedByObjectVersion
1070
     0
  0
VISUALSTYLE
  5
B1F8
102
{ACAD_XDICTIONARY
360
B268
102
}
102
{ACAD_REACTORS
330
B1E0
102
}
330
B1E0
100
AcDbVisualStyle
  2
EdgeColorOff
 70
    22
 71
     2
 72
     2
 73
     0
 90
        0
 40
-0.6
 41
-30.0
 62
     5
 63
     7
 74
     1
 91
        4
 64
     7
 65
   257
 75
     1
175
     1
 42
1.0
 92
        8
 66
     7
 43
1.0
 76
     1
 77
     6
 78
     2
 67
     7
 79
     5
170
     0
171
     0
290
     0
174
     0
 93
        1
 44
0.0
173
     0
291
     1
 45
0.0
1001
ACAD
1000
AcDbSavedByObjectVersion
1070
     0
  0
VISUALSTYLE
  5
B1EF
102
{ACAD_XDICTIONARY
360
B256
102
}
102
{ACAD_REACTORS
330
B1E0
102
}
330
B1E0
100
AcDbVisualStyle
  2
Facepattern
 70
    15
 71
     2
 72
     2
 73
     0
 90
        0
 40
-0.6
 41
-30.0
 62
     5
 63
     7
 74
     1
 91
        4
 64
     7
 65
   257
 75
     1
175
     1
 42
1.0
 92
        8
 66
     7
 43
1.0
 76
     1
 77
     6
 78
     2
 67
     7
 79
     5
170
     0
171
     0
290
     0
174
     0
 93
        1
 44
0.0
173
     0
291
     1
 45
0.0
1001
ACAD
1000
AcDbSavedByObjectVersion
1070
     0
  0
VISUALSTYLE
  5
B1E1
102
{ACAD_XDICTIONARY
360
B23A
102
}
102
{ACAD_REACTORS
330
B1E0
102
}
330
B1E0
100
AcDbVisualStyle
  2
Flat
 70
     0
 71
     2
 72
     1
 73
     1
 90
        2
 40
-0.6
 41
30.0
 62
     5
 63
     7
 74
     0
 91
        0
 64
     7
 65
   257
 75
     1
175
     1
 42
1.0
 92
        8
 66
     7
 43
1.0
 76
     1
 77
     6
 78
     2
 67
     7
 79
     5
170
     0
171
     0
290
     0
174
     0
 93
       13
 44
0.0
173
     0
291
     1
 45
0.0
1001
ACAD
1000
AcDbSavedByObjectVersion
1070
     0
  0
VISUALSTYLE
  5
B1E2
102
{ACAD_XDICTIONARY
360
B23C
102
}
102
{ACAD_REACTORS
330
B1E0
102
}
330
B1E0
100
AcDbVisualStyle
  2
FlatWithEdges
 70
     1
 71
     2
 72
     1
 73
     1
 90
        2
 40
-0.6
 41
30.0
 62
     5
 63
     7
 74
     1
 91
        0
 64
     7
 65
   257
 75
     1
175
     1
 42
1.0
 92
        0
 66
   257
 43
1.0
 76
     1
 77
     6
 78
     2
 67
     7
 79
     5
170
     0
171
     0
290
     0
174
     0
 93
       13
 44
0.0
173
     0
291
     1
 45
0.0
1001
ACAD
1000
AcDbSavedByObjectVersion
1070
     0
  0
VISUALSTYLE
  5
B1E3
102
{ACAD_XDICTIONARY
360
B23E
102
}
102
{ACAD_REACTORS
330
B1E0
102
}
330
B1E0
100
AcDbVisualStyle
  2
Gouraud
 70
     2
 71
     2
 72
     2
 73
     1
 90
        2
 40
-0.6
 41
30.0
 62
     5
 63
     7
 74
     0
 91
        0
 64
     7
 65
   257
 75
     1
175
     1
 42
1.0
 92
        0
 66
     7
 43
1.0
 76
     1
 77
     6
 78
     2
 67
     7
 79
     5
170
     0
171
     0
290
     0
174
     0
 93
       13
 44
0.0
173
     0
291
     1
 45
0.0
1001
ACAD
1000
AcDbSavedByObjectVersion
1070
     0
  0
VISUALSTYLE
  5
B1E4
102
{ACAD_XDICTIONARY
360
B240
102
}
102
{ACAD_REACTORS
330
B1E0
102
}
330
B1E0
100
AcDbVisualStyle
  2
GouraudWithEdges
 70
     3
 71
     2
 72
     2
 73
     1
 90
        2
 40
-0.6
 41
30.0
 62
     5
 63
     7
 74
     1
 91
        0
 64
     7
 65
   257
 75
     1
175
     1
 42
1.0
 92
        0
 66
   257
 43
1.0
 76
     1
 77
     6
 78
     2
 67
     7
 79
     5
170
     0
171
     0
290
     0
174
     0
 93
       13
 44
0.0
173
     0
291
     1
 45
0.0
1001
ACAD
1000
AcDbSavedByObjectVersion
1070
     0
  0
VISUALSTYLE
  5
B1E8
102
{ACAD_XDICTIONARY
360
B248
102
}
102
{ACAD_REACTORS
330
B1E0
102
}
330
B1E0
100
AcDbVisualStyle
  2
Hidden
 70
     6
 71
     1
 72
     2
 73
     2
 90
        0
 40
-0.6
 41
-30.0
 62
     5
 63
     7
 74
     2
 91
        2
 64
     7
 65
   257
 75
     2
175
     1
 42
40.0
 92
        0
 66
   257
 43
1.0
 76
     1
 77
     6
 78
     2
 67
     7
 79
     3
170
     0
171
     0
290
     0
174
     0
 93
        1
 44
0.0
173
     0
291
     0
 45
0.0
1001
ACAD
1000
AcDbSavedByObjectVersion
1070
     0
  0
VISUALSTYLE
  5
B1F6
102
{ACAD_XDICTIONARY
360
B264
102
}
102
{ACAD_REACTORS
330
B1E0
102
}
330
B1E0
100
AcDbVisualStyle
  2
JitterOff
 70
    20
 71
     2
 72
     2
 73
     0
 90
        0
 40
-0.6
 41
-30.0
 62
     5
 63
     7
 74
     1
 91
        4
 64
     7
 65
   257
 75
     1
175
     1
 42
1.0
 92
       10
 66
     7
 43
1.0
 76
     1
 77
     6
 78
     2
 67
     7
 79
     5
170
     0
171
     0
290
     0
174
     0
 93
        1
 44
0.0
173
     0
291
     1
 45
0.0
1001
ACAD
1000
AcDbSavedByObjectVersion
1070
     0
  0
VISUALSTYLE
  5
B1EE
102
{ACAD_XDICTIONARY
360
B254
102
}
102
{ACAD_REACTORS
330
B1E0
102
}
330
B1E0
100
AcDbVisualStyle
  2
Linepattern
 70
    14
 71
     2
 72
     2
 73
     0
 90
        0
 40
-0.6
 41
-30.0
 62
     5
 63
     7
 74
     1
 91
        4
 64
     7
 65
   257
 75
     7
175
     7
 42
1.0
 92
        8
 66
     7
 43
1.0
 76
     1
 77
     6
 78
     2
 67
     7
 79
     5
170
     0
171
     0
290
     0
174
     0
 93
        1
 44
0.0
173
     0
291
     1
 45
0.0
1001
ACAD
1000
AcDbSavedByObjectVersion
1070
     0
  0
VISUALSTYLE
  5
B1F7
102
{ACAD_XDICTIONARY
360
B266
102
}
102
{ACAD_REACTORS
330
B1E0
102
}
330
B1E0
100
AcDbVisualStyle
  2
OverhangOff
 70
    21
 71
     2
 72
     2
 73
     0
 90
        0
 40
-0.6
 41
-30.0
 62
     5
 63
     7
 74
     1
 91
        4
 64
     7
 65
   257
 75
     1
175
     1
 42
1.0
 92
        9
 66
     7
 43
1.0
 76
     1
 77
     6
 78
     2
 67
     7
 79
     5
170
     0
171
     0
290
     0
174
     0
 93
        1
 44
0.0
173
     0
291
     1
 45
0.0
1001
ACAD
1000
AcDbSavedByObjectVersion
1070
     0
  0
VISUALSTYLE
  5
B1EA
102
{ACAD_XDICTIONARY
360
B24C
102
}
102
{ACAD_REACTORS
330
B1E0
102
}
330
B1E0
100
AcDbVisualStyle
  2
Realistic
 70
     8
 71
     2
 72
     3
 73
     0
 90
        2
 40
-0.6
 41
30.0
 62
     5
 63
     7
 74
     0
 91
        0
 64
     7
 65
   257
 75
     1
175
     1
 42
1.0
 92
        8
 66
   257
 43
1.0
 76
     1
 77
     6
 78
     2
 67
     7
 79
     3
170
     0
171
     0
290
     0
174
     0
 93
       13
 44
0.0
173
     0
291
     0
 45
0.0
1001
ACAD
1000
AcDbSavedByObjectVersion
1070
     0
  0
VISUALSTYLE
  5
B1F5
102
{ACAD_XDICTIONARY
360
B262
102
}
102
{ACAD_REACTORS
330
B1E0
102
}
330
B1E0
100
AcDbVisualStyle
  2
Shaded
 70
    27
 71
     2
 72
     2
 73
     1
 90
        2
 40
-0.6
 41
30.0
 62
     5
 63
     7
 74
     0
 91
        4
 64
     7
 65
   257
 75
     1
175
     1
 42
1.0
 92
        8
 66
   257
 43
1.0
 76
     1
 77
     6
 78
     2
 67
     8
 79
     3
170
     0
171
     0
290
     0
174
     0
 93
        5
 44
0.0
173
     0
291
     0
 45
0.0
1001
ACAD
1000
AcDbSavedByObjectVersion
1070
     0
  0
VISUALSTYLE
  5
B1F4
102
{ACAD_XDICTIONARY
360
B260
102
}
102
{ACAD_REACTORS
330
B1E0
102
}
330
B1E0
100
AcDbVisualStyle
  2
Shaded with edges
 70
    26
 71
     2
 72
     2
 73
     1
 90
        2
 40
-0.6
 41
30.0
 62
     5
 63
     7
 74
     1
 91
       10
 64
     7
 65
   257
 75
     2
175
     1
 42
1.0
 92
        8
 66
   257
 43
1.0
 76
     1
 77
     6
 78
     2
 67
     7
 79
     3
170
     0
171
     0
290
     0
174
     0
 93
        5
 44
0.0
173
     0
291
     0
 45
0.0
1001
ACAD
1000
AcDbSavedByObjectVersion
1070
     0
  0
VISUALSTYLE
  5
B1F1
102
{ACAD_XDICTIONARY
360
B25A
102
}
102
{ACAD_REACTORS
330
B1E0
102
}
330
B1E0
100
AcDbVisualStyle
  2
Shades of Gray
 70
    23
 71
     2
 72
     2
 73
     3
 90
        0
 40
-0.6
 41
-30.0
 62
     5
 63
     7
 74
     2
 91
        2
 64
     7
 65
     7
 75
     1
175
     1
 42
40.0
 92
        8
 66
     7
 43
1.0
 76
     1
 77
     6
 78
     2
 67
     7
 79
     3
170
     0
171
     0
290
     0
174
     0
 93
        1
 44
0.0
173
     0
291
     0
 45
0.0
1001
ACAD
1000
AcDbSavedByObjectVersion
1070
     0
  0
VISUALSTYLE
  5
B1F2
102
{ACAD_XDICTIONARY
360
B25C
102
}
102
{ACAD_REACTORS
330
B1E0
102
}
330
B1E0
100
AcDbVisualStyle
  2
Sketchy
 70
    24
 71
     1
 72
     2
 73
     2
 90
        0
 40
-0.6
 41
-30.0
 62
     5
 63
     7
 74
     2
 91
        2
 64
     7
 65
     7
 75
     1
175
     1
 42
40.0
 92
       11
 66
     7
 43
1.0
 76
     1
 77
     6
 78
     2
 67
     7
 79
     6
170
     0
171
     0
290
     0
174
     0
 93
        1
 44
0.0
173
     0
291
     0
 45
0.0
1001
ACAD
1000
AcDbSavedByObjectVersion
1070
     0
  0
VISUALSTYLE
  5
B1ED
102
{ACAD_XDICTIONARY
360
B252
102
}
102
{ACAD_REACTORS
330
B1E0
102
}
330
B1E0
100
AcDbVisualStyle
  2
Thicken
 70
    13
 71
     2
 72
     2
 73
     0
 90
        0
 40
-0.6
 41
-30.0
 62
     5
 63
     7
 74
     1
 91
        4
 64
     7
 65
   257
 75
     1
175
     1
 42
1.0
 92
       12
 66
     7
 43
1.0
 76
     1
 77
     6
 78
     2
 67
     7
 79
     5
170
     0
171
     0
290
     0
174
     0
 93
        1
 44
0.0
173
     0
291
     1
 45
0.0
1001
ACAD
1000
AcDbSavedByObjectVersion
1070
     0
  0
VISUALSTYLE
  5
B1E7
102
{ACAD_XDICTIONARY
360
B246
102
}
102
{ACAD_REACTORS
330
B1E0
102
}
330
B1E0
100
AcDbVisualStyle
  2
Wireframe
 70
     5
 71
     0
 72
     2
 73
     0
 90
        0
 40
-0.6
 41
-30.0
 62
     5
 63
     7
 74
     1
 91
        4
 64
     7
 65
   257
 75
     1
175
     1
 42
1.0
 92
        0
 66
   257
 43
1.0
 76
     1
 77
     6
 78
     2
 67
     7
 79
     3
170
     0
171
     0
290
     0
174
     0
 93
        1
 44
0.0
173
     0
291
     0
 45
0.0
1001
ACAD
1000
AcDbSavedByObjectVersion
1070
     0
  0
VISUALSTYLE
  5
B1F3
102
{ACAD_XDICTIONARY
360
B25E
102
}
102
{ACAD_REACTORS
330
B1E0
102
}
330
B1E0
100
AcDbVisualStyle
  2
X-Ray
 70
    25
 71
     2
 72
     2
 73
     1
 90
        1
 40
0.5
 41
-30.0
 62
     5
 63
     7
 74
     1
 91
        0
 64
     7
 65
   257
 75
     1
175
     1
 42
1.0
 92
        8
 66
     7
 43
1.0
 76
     1
 77
     6
 78
     2
 67
     7
 79
     3
170
     0
171
     0
290
     0
174
     0
 93
       13
 44
0.0
173
     0
291
     0
 45
0.0
1001
ACAD
1000
AcDbSavedByObjectVersion
1070
     0
  0
DICTIONARYVAR
  5
B22D
102
{ACAD_REACTORS
330
B228
102
}
330
B228
100
DictionaryVariables
280
     0
  1
1:1
  0
DICTIONARYVAR
  5
B22A
102
{ACAD_REACTORS
330
B228
102
}
330
B228
100
DictionaryVariables
280
     0
  1
STANDARD
  0
DICTIONARYVAR
  5
B229
102
{ACAD_REACTORS
330
B228
102
}
330
B228
100
DictionaryVariables
280
     0
  1
STANDARD
  0
DICTIONARYVAR
  5
B22B
102
{ACAD_REACTORS
330
B228
102
}
330
B228
100
DictionaryVariables
280
     0
  1
Imperial24
  0
DICTIONARYVAR
  5
B22C
102
{ACAD_REACTORS
330
B228
102
}
330
B228
100
DictionaryVariables
280
     0
  1
Imperial24
  0
DICTIONARYVAR
  5
B230
102
{ACAD_REACTORS
330
B228
102
}
330
B228
100
DictionaryVariables
280
     0
  1
1
  0
DICTIONARYVAR
  5
B22F
102
{ACAD_REACTORS
330
B228
102
}
330
B228
100
DictionaryVariables
280
     0
  1
0
  0
DICTIONARYVAR
  5
B22E
102
{ACAD_REACTORS
330
B228
102
}
330
B228
100
DictionaryVariables
280
     0
  1
127
  0
DICTIONARYVAR
  5
B231
102
{ACAD_REACTORS
330
B228
102
}
330
B228
100
DictionaryVariables
280
     0
  1
2
  0
DICTIONARY
  5
B26E
330
B213
100
AcDbDictionary
280
     1
281
     1
  3
ACAD_XREC_ROUNDTRIP
360
B26F
  0
DICTIONARY
  5
B270
330
B214
100
AcDbDictionary
280
     1
281
     1
  3
ACAD_XREC_ROUNDTRIP
360
B271
  0
DICTIONARY
  5
B272
330
B215
100
AcDbDictionary
280
     1
281
     1
  3
ACAD_XREC_ROUNDTRIP
360
B273
  0
DICTIONARY
  5
B1D1
330
B1D0
100
AcDbDictionary
280
     1
281
     1
  3
ACAD_XREC_ROUNDTRIP
360
B238
  3
BUMPTILE
360
B1D3
  3
DIFFUSETILE
360
B1D2
  3
OPACITYTILE
360
B1D6
  3
REFLECTIONTILE
360
B1D5
  3
REFRACTIONTILE
360
B1D7
  3
SPECULARTILE
360
B1D4
  0
DICTIONARY
  5
B1C9
330
B1C8
100
AcDbDictionary
280
     1
281
     1
  3
ACAD_XREC_ROUNDTRIP
360
B237
  3
BUMPTILE
360
B1CB
  3
DIFFUSETILE
360
B1CA
  3
OPACITYTILE
360
B1CE
  3
REFLECTIONTILE
360
B1CD
  3
REFRACTIONTILE
360
B1CF
  3
SPECULARTILE
360
B1CC
  0
DICTIONARY
  5
B1D9
330
B1D8
100
AcDbDictionary
280
     1
281
     1
  3
ACAD_XREC_ROUNDTRIP
360
B239
  3
BUMPTILE
360
B1DB
  3
DIFFUSETILE
360
B1DA
  3
OPACITYTILE
360
B1DE
  3
REFLECTIONTILE
360
B1DD
  3
REFRACTIONTILE
360
B1DF
  3
SPECULARTILE
360
B1DC
  0
DICTIONARY
  5
B26C
330
B211
100
AcDbDictionary
280
     1
281
     1
  3
ACAD_XREC_ROUNDTRIP
360
B26D
  0
DICTIONARY
  5
B233
330
B1FB
100
AcDbDictionary
280
     1
281
     1
  3
ACAD_ROUNDTRIP_2008_TABLESTYLE_CELLSTYLEMAP
360
B234
  3
ACAD_XREC_ROUNDTRIP
360
B26A
  0
DICTIONARY
  5
B244
330
B1E6
100
AcDbDictionary
280
     1
281
     1
  3
ACAD_XREC_ROUNDTRIP
360
B245
  0
DICTIONARY
  5
B242
330
B1E5
100
AcDbDictionary
280
     1
281
     1
  3
ACAD_XREC_ROUNDTRIP
360
B243
  0
DICTIONARY
  5
B250
330
B1EC
100
AcDbDictionary
280
     1
281
     1
  3
ACAD_XREC_ROUNDTRIP
360
B251
  0
DICTIONARY
  5
B258
330
B1F0
100
AcDbDictionary
280
     1
281
     1
  3
ACAD_XREC_ROUNDTRIP
360
B259
  0
DICTIONARY
  5
B24A
330
B1E9
100
AcDbDictionary
280
     1
281
     1
  3
ACAD_XREC_ROUNDTRIP
360
B24B
  0
DICTIONARY
  5
B24E
330
B1EB
100
AcDbDictionary
280
     1
281
     1
  3
ACAD_XREC_ROUNDTRIP
360
B24F
  0
DICTIONARY
  5
B268
330
B1F8
100
AcDbDictionary
280
     1
281
     1
  3
ACAD_XREC_ROUNDTRIP
360
B269
  0
DICTIONARY
  5
B256
330
B1EF
100
AcDbDictionary
280
     1
281
     1
  3
ACAD_XREC_ROUNDTRIP
360
B257
  0
DICTIONARY
  5
B23A
330
B1E1
100
AcDbDictionary
280
     1
281
     1
  3
ACAD_XREC_ROUNDTRIP
360
B23B
  0
DICTIONARY
  5
B23C
330
B1E2
100
AcDbDictionary
280
     1
281
     1
  3
ACAD_XREC_ROUNDTRIP
360
B23D
  0
DICTIONARY
  5
B23E
330
B1E3
100
AcDbDictionary
280
     1
281
     1
  3
ACAD_XREC_ROUNDTRIP
360
B23F
  0
DICTIONARY
  5
B240
330
B1E4
100
AcDbDictionary
280
     1
281
     1
  3
ACAD_XREC_ROUNDTRIP
360
B241
  0
DICTIONARY
  5
B248
330
B1E8
100
AcDbDictionary
280
     1
281
     1
  3
ACAD_XREC_ROUNDTRIP
360
B249
  0
DICTIONARY
  5
B264
330
B1F6
100
AcDbDictionary
280
     1
281
     1
  3
ACAD_XREC_ROUNDTRIP
360
B265
  0
DICTIONARY
  5
B254
330
B1EE
100
AcDbDictionary
280
     1
281
     1
  3
ACAD_XREC_ROUNDTRIP
360
B255
  0
DICTIONARY
  5
B266
330
B1F7
100
AcDbDictionary
280
     1
281
     1
  3
ACAD_XREC_ROUNDTRIP
360
B267
  0
DICTIONARY
  5
B24C
330
B1EA
100
AcDbDictionary
280
     1
281
     1
  3
ACAD_XREC_ROUNDTRIP
360
B24D
  0
DICTIONARY
  5
B262
330
B1F5
100
AcDbDictionary
280
     1
281
     1
  3
ACAD_XREC_ROUNDTRIP
360
B263
  0
DICTIONARY
  5
B260
330
B1F4
100
AcDbDictionary
280
     1
281
     1
  3
ACAD_XREC_ROUNDTRIP
360
B261
  0
DICTIONARY
  5
B25A
330
B1F1
100
AcDbDictionary
280
     1
281
     1
  3
ACAD_XREC_ROUNDTRIP
360
B25B
  0
DICTIONARY
  5
B25C
330
B1F2
100
AcDbDictionary
280
     1
281
     1
  3
ACAD_XREC_ROUNDTRIP
360
B25D
  0
DICTIONARY
  5
B252
330
B1ED
100
AcDbDictionary
280
     1
281
     1
  3
ACAD_XREC_ROUNDTRIP
360
B253
  0
DICTIONARY
  5
B246
330
B1E7
100
AcDbDictionary
280
     1
281
     1
  3
ACAD_XREC_ROUNDTRIP
360
B247
  0
DICTIONARY
  5
B25E
330
B1F3
100
AcDbDictionary
280
     1
281
     1
  3
ACAD_XREC_ROUNDTRIP
360
B25F
  0
XRECORD
  5
B26F
102
{ACAD_REACTORS
330
B26E
102
}
330
B26E
100
AcDbXrecord
280
     1
102
DISPLAYNAME
  1
Imperial24
102
FLAGS
 90
        0
  0
XRECORD
  5
B271
102
{ACAD_REACTORS
330
B270
102
}
330
B270
100
AcDbXrecord
280
     1
102
SHADEPLOT
 70
     0
102
SHADEPLOTRESLEVEL
 70
     2
102
SHADEPLOTCUSTOMDPI
 70
   300
  0
XRECORD
  5
B273
102
{ACAD_REACTORS
330
B272
102
}
330
B272
100
AcDbXrecord
280
     1
102
SHADEPLOT
 70
     0
102
SHADEPLOTRESLEVEL
 70
     2
102
SHADEPLOTCUSTOMDPI
 70
   300
  0
XRECORD
  5
B238
102
{ACAD_REACTORS
330
B1D1
102
}
330
B1D1
100
AcDbXrecord
280
     1
102
MATERIAL
148
0.0
149
0.0
149
0.0
 93
        0
 94
      127
282
     0
 72
     0
 77
     0
171
     0
175
     0
179
     0
273
     0
  0
XRECORD
  5
B1D3
102
{ACAD_REACTORS
330
B1D1
102
}
330
B1D1
100
AcDbXrecord
280
     1
270
     1
271
     1
  0
XRECORD
  5
B1D2
102
{ACAD_REACTORS
330
B1D1
102
}
330
B1D1
100
AcDbXrecord
280
     1
270
     1
271
     1
  0
XRECORD
  5
B1D6
102
{ACAD_REACTORS
330
B1D1
102
}
330
B1D1
100
AcDbXrecord
280
     1
270
     1
271
     1
  0
XRECORD
  5
B1D5
102
{ACAD_REACTORS
330
B1D1
102
}
330
B1D1
100
AcDbXrecord
280
     1
270
     1
271
     1
  0
XRECORD
  5
B1D7
102
{ACAD_REACTORS
330
B1D1
102
}
330
B1D1
100
AcDbXrecord
280
     1
270
     1
271
     1
  0
XRECORD
  5
B1D4
102
{ACAD_REACTORS
330
B1D1
102
}
330
B1D1
100
AcDbXrecord
280
     1
270
     1
271
     1
  0
XRECORD
  5
B237
102
{ACAD_REACTORS
330
B1C9
102
}
330
B1C9
100
AcDbXrecord
280
     1
102
MATERIAL
148
0.0
149
0.0
149
0.0
 93
        0
 94
      127
282
     0
 72
     0
 77
     0
171
     0
175
     0
179
     0
273
     0
  0
XRECORD
  5
B1CB
102
{ACAD_REACTORS
330
B1C9
102
}
330
B1C9
100
AcDbXrecord
280
     1
270
     1
271
     1
  0
XRECORD
  5
B1CA
102
{ACAD_REACTORS
330
B1C9
102
}
330
B1C9
100
AcDbXrecord
280
     1
270
     1
271
     1
  0
XRECORD
  5
B1CE
102
{ACAD_REACTORS
330
B1C9
102
}
330
B1C9
100
AcDbXrecord
280
     1
270
     1
271
     1
  0
XRECORD
  5
B1CD
102
{ACAD_REACTORS
330
B1C9
102
}
330
B1C9
100
AcDbXrecord
280
     1
270
     1
271
     1
  0
XRECORD
  5
B1CF
102
{ACAD_REACTORS
330
B1C9
102
}
330
B1C9
100
AcDbXrecord
280
     1
270
     1
271
     1
  0
XRECORD
  5
B1CC
102
{ACAD_REACTORS
330
B1C9
102
}
330
B1C9
100
AcDbXrecord
280
     1
270
     1
271
     1
  0
XRECORD
  5
B239
102
{ACAD_REACTORS
330
B1D9
102
}
330
B1D9
100
AcDbXrecord
280
     1
102
MATERIAL
148
0.0
149
0.0
149
0.0
 93
        0
 94
      127
282
     0
 72
     0
 77
     0
171
     0
175
     0
179
     0
273
     0
  0
XRECORD
  5
B1DB
102
{ACAD_REACTORS
330
B1D9
102
}
330
B1D9
100
AcDbXrecord
280
     1
270
     1
271
     1
  0
XRECORD
  5
B1DA
102
{ACAD_REACTORS
330
B1D9
102
}
330
B1D9
100
AcDbXrecord
280
     1
270
     1
271
     1
  0
XRECORD
  5
B1DE
102
{ACAD_REACTORS
330
B1D9
102
}
330
B1D9
100
AcDbXrecord
280
     1
270
     1
271
     1
  0
XRECORD
  5
B1DD
102
{ACAD_REACTORS
330
B1D9
102
}
330
B1D9
100
AcDbXrecord
280
     1
270
     1
271
     1
  0
XRECORD
  5
B1DF
102
{ACAD_REACTORS
330
B1D9
102
}
330
B1D9
100
AcDbXrecord
280
     1
270
     1
271
     1
  0
XRECORD
  5
B1DC
102
{ACAD_REACTORS
330
B1D9
102
}
330
B1D9
100
AcDbXrecord
280
     1
270
     1
271
     1
  0
XRECORD
  5
B26D
102
{ACAD_REACTORS
330
B26C
102
}
330
B26C
100
AcDbXrecord
280
     1
102
DISPLAYNAME
  1
Imperial24
102
FLAGS
 90
        0
  0
CELLSTYLEMAP
  5
B234
102
{ACAD_REACTORS
330
B233
102
}
330
B233
100
AcDbCellStyleMap
 90
        3
300
CELLSTYLE
  1
TABLEFORMAT_BEGIN
 90
        5
170
     1
 91
        0
 92
    32768
 62
   257
 93
        1
300
CONTENTFORMAT
  1
CONTENTFORMAT_BEGIN
 90
        0
 91
        0
 92
      512
 93
        0
300

 40
0.0
140
1.0
 94
        5
 62
     0
340
AD4D
144
0.25
309
CONTENTFORMAT_END
171
     0
 94
        0
309
TABLEFORMAT_END
  1
CELLSTYLE_BEGIN
 90
        1
 91
        1
300
_TITLE
309
CELLSTYLE_END
300
CELLSTYLE
  1
TABLEFORMAT_BEGIN
 90
        5
170
     1
 91
        0
 92
        0
 62
   257
 93
        1
300
CONTENTFORMAT
  1
CONTENTFORMAT_BEGIN
 90
        0
 91
        0
 92
      512
 93
        0
300

 40
0.0
140
1.0
 94
        5
 62
     0
340
AD4D
144
0.18
309
CONTENTFORMAT_END
171
     0
 94
        0
309
TABLEFORMAT_END
  1
CELLSTYLE_BEGIN
 90
        2
 91
        1
300
_HEADER
309
CELLSTYLE_END
300
CELLSTYLE
  1
TABLEFORMAT_BEGIN
 90
        5
170
     1
 91
        0
 92
        0
 62
   257
 93
        1
300
CONTENTFORMAT
  1
CONTENTFORMAT_BEGIN
 90
        0
 91
        0
 92
      512
 93
        0
300

 40
0.0
140
1.0
 94
        2
 62
     0
340
AD4D
144
0.18
309
CONTENTFORMAT_END
171
     0
 94
        0
309
TABLEFORMAT_END
  1
CELLSTYLE_BEGIN
 90
        3
 91
        2
300
_DATA
309
CELLSTYLE_END
  0
XRECORD
  5
B26A
102
{ACAD_REACTORS
330
B233
102
}
330
B233
100
AcDbXrecord
280
     1
102
ACAD_ROUNDTRIP_PRE2007_TABLESTYLE
 90
      512
 91
        0
  1

 92
      512
 93
        0
  2

 94
      512
 95
        0
  3

  0
XRECORD
  5
B245
102
{ACAD_REACTORS
330
B244
102
}
330
B244
100
AcDbXrecord
280
     1
102
RTVSPost2010Prop28
280
     1
102
RTVSPost2010PropOp28
 70
     1
102
RTVSPost2010Prop29
280
     1
102
RTVSPost2010PropOp29
 70
     1
102
RTVSPost2010Prop30
280
     0
102
RTVSPost2010PropOp30
 70
     1
102
RTVSPost2010Prop31
280
     0
102
RTVSPost2010PropOp31
 70
     1
102
RTVSPost2010Prop32
280
     0
102
RTVSPost2010PropOp32
 70
     1
102
RTVSPost2010Prop33
280
     0
102
RTVSPost2010PropOp33
 70
     1
102
RTVSPost2010Prop34
280
     0
102
RTVSPost2010PropOp34
 70
     1
102
RTVSPost2010Prop35
280
     0
102
RTVSPost2010PropOp35
 70
     1
102
RTVSPost2010Prop36
280
     0
102
RTVSPost2010PropOp36
 70
     1
102
RTVSPost2010Prop37
 90
       50
102
RTVSPost2010PropOp37
 70
     1
102
RTVSPost2010Prop38
140
0.0
102
RTVSPost2010PropOp38
 70
     1
102
RTVSPost2010Prop39
140
1.0
102
RTVSPost2010PropOp39
 70
     1
102
RTVSPost2010Prop40
 90
        0
102
RTVSPost2010PropOp40
 70
     1
102
RTVSPost2010Prop41ColorIndex
 90
       18
102
RTVSPost2010Prop41ColorRGB
 90
        0
102
RTVSPost2010PropOp41
 70
     1
102
RTVSPost2010Prop42
 90
       50
102
RTVSPost2010PropOp42
 70
     1
102
RTVSPost2010Prop43
 90
        3
102
RTVSPost2010PropOp43
 70
     1
102
RTVSPost2010Prop44ColorIndex
 90
        5
102
RTVSPost2010Prop44ColorRGB
 90
      255
102
RTVSPost2010PropOp44
 70
     1
102
RTVSPost2010Prop45
280
     0
102
RTVSPost2010PropOp45
 70
     1
102
RTVSPost2010Prop46
 90
       50
102
RTVSPost2010PropOp46
 70
     1
102
RTVSPost2010Prop47
 90
       50
102
RTVSPost2010PropOp47
 70
     1
102
RTVSPost2010Prop48
 90
       50
102
RTVSPost2010PropOp48
 70
     1
102
RTVSPost2010Prop49
280
     0
102
RTVSPost2010PropOp49
 70
     1
102
RTVSPost2010Prop50
 90
       50
102
RTVSPost2010PropOp50
 70
     1
102
RTVSPost2010Prop51ColorIndex
 90
      256
102
RTVSPost2010Prop51ColorRGB
 90
-16777216
102
RTVSPost2010PropOp51
 70
     0
102
RTVSPost2010Prop52
140
1.0
102
RTVSPost2010PropOp52
 70
     0
102
RTVSPost2010Prop53
 90
        2
102
RTVSPost2010PropOp53
 70
     1
102
RTVSPost2010Prop54
  1
strokes_ogs.tif
102
RTVSPost2010PropOp54
 70
     1
102
RTVSPost2010Prop55
280
     0
102
RTVSPost2010PropOp55
 70
     1
102
RTVSPost2010Prop56
140
1.0
102
RTVSPost2010PropOp56
 70
     1
102
RTVSPost2010Prop57
140
1.0
102
RTVSPost2010PropOp57
 70
     1
102
RTVSPropertyOp0
 70
     1
102
RTVSPropertyOp1
 70
     1
102
RTVSPropertyOp2
 70
     1
102
RTVSPropertyOp3
 70
     1
102
RTVSPropertyOp4
 70
     1
102
RTVSPropertyOp5
 70
     1
102
RTVSPropertyOp6
 70
     1
102
RTVSPropertyOp7
 70
     1
102
RTVSPropertyOp8
 70
     1
102
RTVSPropertyOp9
 70
     1
102
RTVSPropertyOp10
 70
     1
102
RTVSPropertyOp11
 70
     1
102
RTVSPropertyOp12
 70
     1
102
RTVSPropertyOp13
 70
     1
102
RTVSPropertyOp14
 70
     1
102
RTVSPropertyOp15
 70
     1
102
RTVSPropertyOp16
 70
     1
102
RTVSPropertyOp17
 70
     1
102
RTVSPropertyOp18
 70
     1
102
RTVSPropertyOp19
 70
     1
102
RTVSPropertyOp20
 70
     1
102
RTVSPropertyOp21
 70
     1
102
RTVSPropertyOp22
 70
     1
102
RTVSPropertyOp23
 70
     1
102
RTVSPropertyOp24
 70
     1
102
RTVSPropertyOp25
 70
     1
102
RTVSPropertyOp26
 70
     1
102
RTVSPropertyOp27
 70
     1
102
RTVSPropertyOp28
 70
     1
102
RTVSPropertyOp29
 70
     1
102
RTVSPropertyOp30
 70
     1
102
RTVSPropertyOp31
 70
     1
102
RTVSPropertyOp32
 70
     1
102
RTVSPropertyOp33
 70
     1
102
RTVSPropertyOp34
 70
     1
102
RTVSPropertyOp35
 70
     1
102
RTVSPropertyOp36
 70
     1
102
RTVSPropertyOp37
 70
     1
102
RTVSPropertyOp38
 70
     1
102
RTVSPropertyOp39
 70
     1
102
RTVSPropertyOp40
 70
     1
102
RTVSPropertyOp41
 70
     1
102
RTVSPropertyOp42
 70
     1
102
RTVSPropertyOp43
 70
     1
102
RTVSPropertyOp44
 70
     1
102
RTVSPropertyOp45
 70
     1
102
RTVSPropertyOp46
 70
     1
102
RTVSPropertyOp47
 70
     1
102
RTVSPropertyOp48
 70
     1
102
RTVSPropertyOp49
 70
     1
102
RTVSPropertyOp50
 70
     1
102
RTVSPropertyOp51
 70
     0
102
RTVSPropertyOp52
 70
     0
102
RTVSPropertyOp53
 70
     1
102
RTVSPropertyOp54
 70
     1
102
RTVSPropertyOp55
 70
     1
102
RTVSPropertyOp56
 70
     1
102
RTVSPropertyOp57
 70
     1
102
RTVSPropertyOp58
 70
     1
102
RTVSPropertyOp59
 70
     1
102
RTVSPropertyOp60
 70
     1
102
RTVSPropertyOp61
 70
     1
102
RTVSPropertyOp62
 70
     1
  0
XRECORD
  5
B243
102
{ACAD_REACTORS
330
B242
102
}
330
B242
100
AcDbXrecord
280
     1
102
RTVSPost2010Prop28
280
     0
102
RTVSPost2010PropOp28
 70
     1
102
RTVSPost2010Prop29
280
     1
102
RTVSPost2010PropOp29
 70
     1
102
RTVSPost2010Prop30
280
     1
102
RTVSPost2010PropOp30
 70
     1
102
RTVSPost2010Prop31
280
     0
102
RTVSPost2010PropOp31
 70
     1
102
RTVSPost2010Prop32
280
     0
102
RTVSPost2010PropOp32
 70
     1
102
RTVSPost2010Prop33
280
     0
102
RTVSPost2010PropOp33
 70
     1
102
RTVSPost2010Prop34
280
     0
102
RTVSPost2010PropOp34
 70
     1
102
RTVSPost2010Prop35
280
     0
102
RTVSPost2010PropOp35
 70
     1
102
RTVSPost2010Prop36
280
     0
102
RTVSPost2010PropOp36
 70
     1
102
RTVSPost2010Prop37
 90
       50
102
RTVSPost2010PropOp37
 70
     1
102
RTVSPost2010Prop38
140
0.0
102
RTVSPost2010PropOp38
 70
     1
102
RTVSPost2010Prop39
140
1.0
102
RTVSPost2010PropOp39
 70
     1
102
RTVSPost2010Prop40
 90
        0
102
RTVSPost2010PropOp40
 70
     1
102
RTVSPost2010Prop41ColorIndex
 90
       18
102
RTVSPost2010Prop41ColorRGB
 90
        0
102
RTVSPost2010PropOp41
 70
     1
102
RTVSPost2010Prop42
 90
       50
102
RTVSPost2010PropOp42
 70
     1
102
RTVSPost2010Prop43
 90
        3
102
RTVSPost2010PropOp43
 70
     1
102
RTVSPost2010Prop44ColorIndex
 90
        5
102
RTVSPost2010Prop44ColorRGB
 90
      255
102
RTVSPost2010PropOp44
 70
     1
102
RTVSPost2010Prop45
280
     0
102
RTVSPost2010PropOp45
 70
     1
102
RTVSPost2010Prop46
 90
       50
102
RTVSPost2010PropOp46
 70
     1
102
RTVSPost2010Prop47
 90
       50
102
RTVSPost2010PropOp47
 70
     1
102
RTVSPost2010Prop48
 90
       50
102
RTVSPost2010PropOp48
 70
     1
102
RTVSPost2010Prop49
280
     0
102
RTVSPost2010PropOp49
 70
     1
102
RTVSPost2010Prop50
 90
       50
102
RTVSPost2010PropOp50
 70
     1
102
RTVSPost2010Prop51ColorIndex
 90
      256
102
RTVSPost2010Prop51ColorRGB
 90
-16777216
102
RTVSPost2010PropOp51
 70
     0
102
RTVSPost2010Prop52
140
1.0
102
RTVSPost2010PropOp52
 70
     0
102
RTVSPost2010Prop53
 90
        2
102
RTVSPost2010PropOp53
 70
     1
102
RTVSPost2010Prop54
  1
strokes_ogs.tif
102
RTVSPost2010PropOp54
 70
     1
102
RTVSPost2010Prop55
280
     0
102
RTVSPost2010PropOp55
 70
     1
102
RTVSPost2010Prop56
140
1.0
102
RTVSPost2010PropOp56
 70
     1
102
RTVSPost2010Prop57
140
1.0
102
RTVSPost2010PropOp57
 70
     1
102
RTVSPropertyOp0
 70
     1
102
RTVSPropertyOp1
 70
     1
102
RTVSPropertyOp2
 70
     1
102
RTVSPropertyOp3
 70
     1
102
RTVSPropertyOp4
 70
     1
102
RTVSPropertyOp5
 70
     1
102
RTVSPropertyOp6
 70
     1
102
RTVSPropertyOp7
 70
     1
102
RTVSPropertyOp8
 70
     1
102
RTVSPropertyOp9
 70
     1
102
RTVSPropertyOp10
 70
     1
102
RTVSPropertyOp11
 70
     1
102
RTVSPropertyOp12
 70
     1
102
RTVSPropertyOp13
 70
     1
102
RTVSPropertyOp14
 70
     1
102
RTVSPropertyOp15
 70
     1
102
RTVSPropertyOp16
 70
     1
102
RTVSPropertyOp17
 70
     1
102
RTVSPropertyOp18
 70
     1
102
RTVSPropertyOp19
 70
     1
102
RTVSPropertyOp20
 70
     1
102
RTVSPropertyOp21
 70
     1
102
RTVSPropertyOp22
 70
     1
102
RTVSPropertyOp23
 70
     1
102
RTVSPropertyOp24
 70
     1
102
RTVSPropertyOp25
 70
     1
102
RTVSPropertyOp26
 70
     1
102
RTVSPropertyOp27
 70
     1
102
RTVSPropertyOp28
 70
     1
102
RTVSPropertyOp29
 70
     1
102
RTVSPropertyOp30
 70
     1
102
RTVSPropertyOp31
 70
     1
102
RTVSPropertyOp32
 70
     1
102
RTVSPropertyOp33
 70
     1
102
RTVSPropertyOp34
 70
     1
102
RTVSPropertyOp35
 70
     1
102
RTVSPropertyOp36
 70
     1
102
RTVSPropertyOp37
 70
     1
102
RTVSPropertyOp38
 70
     1
102
RTVSPropertyOp39
 70
     1
102
RTVSPropertyOp40
 70
     1
102
RTVSPropertyOp41
 70
     1
102
RTVSPropertyOp42
 70
     1
102
RTVSPropertyOp43
 70
     1
102
RTVSPropertyOp44
 70
     1
102
RTVSPropertyOp45
 70
     1
102
RTVSPropertyOp46
 70
     1
102
RTVSPropertyOp47
 70
     1
102
RTVSPropertyOp48
 70
     1
102
RTVSPropertyOp49
 70
     1
102
RTVSPropertyOp50
 70
     1
102
RTVSPropertyOp51
 70
     0
102
RTVSPropertyOp52
 70
     0
102
RTVSPropertyOp53
 70
     1
102
RTVSPropertyOp54
 70
     1
102
RTVSPropertyOp55
 70
     1
102
RTVSPropertyOp56
 70
     1
102
RTVSPropertyOp57
 70
     1
102
RTVSPropertyOp58
 70
     1
102
RTVSPropertyOp59
 70
     1
102
RTVSPropertyOp60
 70
     1
102
RTVSPropertyOp61
 70
     1
102
RTVSPropertyOp62
 70
     1
  0
XRECORD
  5
B251
102
{ACAD_REACTORS
330
B250
102
}
330
B250
100
AcDbXrecord
280
     1
102
RTVSPost2010Prop28
280
     0
102
RTVSPost2010PropOp28
 70
     1
102
RTVSPost2010Prop29
280
     1
102
RTVSPost2010PropOp29
 70
     1
102
RTVSPost2010Prop30
280
     1
102
RTVSPost2010PropOp30
 70
     1
102
RTVSPost2010Prop31
280
     0
102
RTVSPost2010PropOp31
 70
     1
102
RTVSPost2010Prop32
280
     0
102
RTVSPost2010PropOp32
 70
     1
102
RTVSPost2010Prop33
280
     0
102
RTVSPost2010PropOp33
 70
     1
102
RTVSPost2010Prop34
280
     0
102
RTVSPost2010PropOp34
 70
     1
102
RTVSPost2010Prop35
280
     0
102
RTVSPost2010PropOp35
 70
     1
102
RTVSPost2010Prop36
280
     0
102
RTVSPost2010PropOp36
 70
     1
102
RTVSPost2010Prop37
 90
       50
102
RTVSPost2010PropOp37
 70
     1
102
RTVSPost2010Prop38
140
0.0
102
RTVSPost2010PropOp38
 70
     1
102
RTVSPost2010Prop39
140
1.0
102
RTVSPost2010PropOp39
 70
     1
102
RTVSPost2010Prop40
 90
        0
102
RTVSPost2010PropOp40
 70
     1
102
RTVSPost2010Prop41ColorIndex
 90
       18
102
RTVSPost2010Prop41ColorRGB
 90
        0
102
RTVSPost2010PropOp41
 70
     1
102
RTVSPost2010Prop42
 90
       50
102
RTVSPost2010PropOp42
 70
     1
102
RTVSPost2010Prop43
 90
        3
102
RTVSPost2010PropOp43
 70
     1
102
RTVSPost2010Prop44ColorIndex
 90
        5
102
RTVSPost2010Prop44ColorRGB
 90
      255
102
RTVSPost2010PropOp44
 70
     1
102
RTVSPost2010Prop45
280
     0
102
RTVSPost2010PropOp45
 70
     1
102
RTVSPost2010Prop46
 90
       50
102
RTVSPost2010PropOp46
 70
     1
102
RTVSPost2010Prop47
 90
       50
102
RTVSPost2010PropOp47
 70
     1
102
RTVSPost2010Prop48
 90
       50
102
RTVSPost2010PropOp48
 70
     1
102
RTVSPost2010Prop49
280
     0
102
RTVSPost2010PropOp49
 70
     1
102
RTVSPost2010Prop50
 90
       50
102
RTVSPost2010PropOp50
 70
     1
102
RTVSPost2010Prop51ColorIndex
 90
      256
102
RTVSPost2010Prop51ColorRGB
 90
-16777216
102
RTVSPost2010PropOp51
 70
     0
102
RTVSPost2010Prop52
140
1.0
102
RTVSPost2010PropOp52
 70
     0
102
RTVSPost2010Prop53
 90
        2
102
RTVSPost2010PropOp53
 70
     1
102
RTVSPost2010Prop54
  1
strokes_ogs.tif
102
RTVSPost2010PropOp54
 70
     1
102
RTVSPost2010Prop55
280
     0
102
RTVSPost2010PropOp55
 70
     1
102
RTVSPost2010Prop56
140
1.0
102
RTVSPost2010PropOp56
 70
     1
102
RTVSPost2010Prop57
140
1.0
102
RTVSPost2010PropOp57
 70
     1
102
RTVSPropertyOp0
 70
     1
102
RTVSPropertyOp1
 70
     1
102
RTVSPropertyOp2
 70
     1
102
RTVSPropertyOp3
 70
     1
102
RTVSPropertyOp4
 70
     1
102
RTVSPropertyOp5
 70
     1
102
RTVSPropertyOp6
 70
     1
102
RTVSPropertyOp7
 70
     1
102
RTVSPropertyOp8
 70
     1
102
RTVSPropertyOp9
 70
     1
102
RTVSPropertyOp10
 70
     1
102
RTVSPropertyOp11
 70
     1
102
RTVSPropertyOp12
 70
     1
102
RTVSPropertyOp13
 70
     1
102
RTVSPropertyOp14
 70
     1
102
RTVSPropertyOp15
 70
     1
102
RTVSPropertyOp16
 70
     1
102
RTVSPropertyOp17
 70
     1
102
RTVSPropertyOp18
 70
     1
102
RTVSPropertyOp19
 70
     1
102
RTVSPropertyOp20
 70
     1
102
RTVSPropertyOp21
 70
     1
102
RTVSPropertyOp22
 70
     1
102
RTVSPropertyOp23
 70
     1
102
RTVSPropertyOp24
 70
     1
102
RTVSPropertyOp25
 70
     1
102
RTVSPropertyOp26
 70
     1
102
RTVSPropertyOp27
 70
     1
102
RTVSPropertyOp28
 70
     1
102
RTVSPropertyOp29
 70
     1
102
RTVSPropertyOp30
 70
     1
102
RTVSPropertyOp31
 70
     1
102
RTVSPropertyOp32
 70
     1
102
RTVSPropertyOp33
 70
     1
102
RTVSPropertyOp34
 70
     1
102
RTVSPropertyOp35
 70
     1
102
RTVSPropertyOp36
 70
     1
102
RTVSPropertyOp37
 70
     1
102
RTVSPropertyOp38
 70
     1
102
RTVSPropertyOp39
 70
     1
102
RTVSPropertyOp40
 70
     1
102
RTVSPropertyOp41
 70
     1
102
RTVSPropertyOp42
 70
     1
102
RTVSPropertyOp43
 70
     1
102
RTVSPropertyOp44
 70
     1
102
RTVSPropertyOp45
 70
     1
102
RTVSPropertyOp46
 70
     1
102
RTVSPropertyOp47
 70
     1
102
RTVSPropertyOp48
 70
     1
102
RTVSPropertyOp49
 70
     1
102
RTVSPropertyOp50
 70
     1
102
RTVSPropertyOp51
 70
     0
102
RTVSPropertyOp52
 70
     0
102
RTVSPropertyOp53
 70
     1
102
RTVSPropertyOp54
 70
     1
102
RTVSPropertyOp55
 70
     1
102
RTVSPropertyOp56
 70
     1
102
RTVSPropertyOp57
 70
     1
102
RTVSPropertyOp58
 70
     1
102
RTVSPropertyOp59
 70
     1
102
RTVSPropertyOp60
 70
     1
102
RTVSPropertyOp61
 70
     1
102
RTVSPropertyOp62
 70
     1
  0
XRECORD
  5
B259
102
{ACAD_REACTORS
330
B258
102
}
330
B258
100
AcDbXrecord
280
     1
102
RTVSPost2010Prop28
280
     0
102
RTVSPost2010PropOp28
 70
     1
102
RTVSPost2010Prop29
280
     1
102
RTVSPost2010PropOp29
 70
     1
102
RTVSPost2010Prop30
280
     1
102
RTVSPost2010PropOp30
 70
     1
102
RTVSPost2010Prop31
280
     0
102
RTVSPost2010PropOp31
 70
     1
102
RTVSPost2010Prop32
280
     0
102
RTVSPost2010PropOp32
 70
     1
102
RTVSPost2010Prop33
280
     0
102
RTVSPost2010PropOp33
 70
     1
102
RTVSPost2010Prop34
280
     0
102
RTVSPost2010PropOp34
 70
     1
102
RTVSPost2010Prop35
280
     0
102
RTVSPost2010PropOp35
 70
     1
102
RTVSPost2010Prop36
280
     0
102
RTVSPost2010PropOp36
 70
     1
102
RTVSPost2010Prop37
 90
       50
102
RTVSPost2010PropOp37
 70
     1
102
RTVSPost2010Prop38
140
0.0
102
RTVSPost2010PropOp38
 70
     1
102
RTVSPost2010Prop39
140
1.0
102
RTVSPost2010PropOp39
 70
     1
102
RTVSPost2010Prop40
 90
        0
102
RTVSPost2010PropOp40
 70
     1
102
RTVSPost2010Prop41ColorIndex
 90
       18
102
RTVSPost2010Prop41ColorRGB
 90
        0
102
RTVSPost2010PropOp41
 70
     1
102
RTVSPost2010Prop42
 90
       50
102
RTVSPost2010PropOp42
 70
     1
102
RTVSPost2010Prop43
 90
        3
102
RTVSPost2010PropOp43
 70
     1
102
RTVSPost2010Prop44ColorIndex
 90
        5
102
RTVSPost2010Prop44ColorRGB
 90
      255
102
RTVSPost2010PropOp44
 70
     1
102
RTVSPost2010Prop45
280
     0
102
RTVSPost2010PropOp45
 70
     1
102
RTVSPost2010Prop46
 90
       50
102
RTVSPost2010PropOp46
 70
     1
102
RTVSPost2010Prop47
 90
       50
102
RTVSPost2010PropOp47
 70
     1
102
RTVSPost2010Prop48
 90
       50
102
RTVSPost2010PropOp48
 70
     1
102
RTVSPost2010Prop49
280
     0
102
RTVSPost2010PropOp49
 70
     1
102
RTVSPost2010Prop50
 90
       50
102
RTVSPost2010PropOp50
 70
     1
102
RTVSPost2010Prop51ColorIndex
 90
      256
102
RTVSPost2010Prop51ColorRGB
 90
-16777216
102
RTVSPost2010PropOp51
 70
     0
102
RTVSPost2010Prop52
140
1.0
102
RTVSPost2010PropOp52
 70
     0
102
RTVSPost2010Prop53
 90
        2
102
RTVSPost2010PropOp53
 70
     1
102
RTVSPost2010Prop54
  1
strokes_ogs.tif
102
RTVSPost2010PropOp54
 70
     1
102
RTVSPost2010Prop55
280
     0
102
RTVSPost2010PropOp55
 70
     1
102
RTVSPost2010Prop56
140
1.0
102
RTVSPost2010PropOp56
 70
     1
102
RTVSPost2010Prop57
140
1.0
102
RTVSPost2010PropOp57
 70
     1
102
RTVSPropertyOp0
 70
     1
102
RTVSPropertyOp1
 70
     1
102
RTVSPropertyOp2
 70
     1
102
RTVSPropertyOp3
 70
     1
102
RTVSPropertyOp4
 70
     1
102
RTVSPropertyOp5
 70
     1
102
RTVSPropertyOp6
 70
     1
102
RTVSPropertyOp7
 70
     1
102
RTVSPropertyOp8
 70
     1
102
RTVSPropertyOp9
 70
     1
102
RTVSPropertyOp10
 70
     1
102
RTVSPropertyOp11
 70
     1
102
RTVSPropertyOp12
 70
     1
102
RTVSPropertyOp13
 70
     1
102
RTVSPropertyOp14
 70
     1
102
RTVSPropertyOp15
 70
     1
102
RTVSPropertyOp16
 70
     1
102
RTVSPropertyOp17
 70
     1
102
RTVSPropertyOp18
 70
     1
102
RTVSPropertyOp19
 70
     1
102
RTVSPropertyOp20
 70
     1
102
RTVSPropertyOp21
 70
     1
102
RTVSPropertyOp22
 70
     1
102
RTVSPropertyOp23
 70
     1
102
RTVSPropertyOp24
 70
     1
102
RTVSPropertyOp25
 70
     1
102
RTVSPropertyOp26
 70
     1
102
RTVSPropertyOp27
 70
     1
102
RTVSPropertyOp28
 70
     1
102
RTVSPropertyOp29
 70
     1
102
RTVSPropertyOp30
 70
     1
102
RTVSPropertyOp31
 70
     1
102
RTVSPropertyOp32
 70
     1
102
RTVSPropertyOp33
 70
     1
102
RTVSPropertyOp34
 70
     1
102
RTVSPropertyOp35
 70
     1
102
RTVSPropertyOp36
 70
     1
102
RTVSPropertyOp37
 70
     1
102
RTVSPropertyOp38
 70
     1
102
RTVSPropertyOp39
 70
     1
102
RTVSPropertyOp40
 70
     1
102
RTVSPropertyOp41
 70
     1
102
RTVSPropertyOp42
 70
     1
102
RTVSPropertyOp43
 70
     1
102
RTVSPropertyOp44
 70
     1
102
RTVSPropertyOp45
 70
     1
102
RTVSPropertyOp46
 70
     1
102
RTVSPropertyOp47
 70
     1
102
RTVSPropertyOp48
 70
     1
102
RTVSPropertyOp49
 70
     1
102
RTVSPropertyOp50
 70
     1
102
RTVSPropertyOp51
 70
     0
102
RTVSPropertyOp52
 70
     0
102
RTVSPropertyOp53
 70
     1
102
RTVSPropertyOp54
 70
     1
102
RTVSPropertyOp55
 70
     1
102
RTVSPropertyOp56
 70
     1
102
RTVSPropertyOp57
 70
     1
102
RTVSPropertyOp58
 70
     1
102
RTVSPropertyOp59
 70
     1
102
RTVSPropertyOp60
 70
     1
102
RTVSPropertyOp61
 70
     1
102
RTVSPropertyOp62
 70
     1
  0
XRECORD
  5
B24B
102
{ACAD_REACTORS
330
B24A
102
}
330
B24A
100
AcDbXrecord
280
     1
102
RTVSPost2010Prop28
280
     0
102
RTVSPost2010PropOp28
 70
     1
102
RTVSPost2010Prop29
280
     1
102
RTVSPost2010PropOp29
 70
     1
102
RTVSPost2010Prop30
280
     1
102
RTVSPost2010PropOp30
 70
     1
102
RTVSPost2010Prop31
280
     0
102
RTVSPost2010PropOp31
 70
     1
102
RTVSPost2010Prop32
280
     0
102
RTVSPost2010PropOp32
 70
     1
102
RTVSPost2010Prop33
280
     0
102
RTVSPost2010PropOp33
 70
     1
102
RTVSPost2010Prop34
280
     0
102
RTVSPost2010PropOp34
 70
     1
102
RTVSPost2010Prop35
280
     0
102
RTVSPost2010PropOp35
 70
     1
102
RTVSPost2010Prop36
280
     0
102
RTVSPost2010PropOp36
 70
     1
102
RTVSPost2010Prop37
 90
       50
102
RTVSPost2010PropOp37
 70
     1
102
RTVSPost2010Prop38
140
0.0
102
RTVSPost2010PropOp38
 70
     1
102
RTVSPost2010Prop39
140
1.0
102
RTVSPost2010PropOp39
 70
     1
102
RTVSPost2010Prop40
 90
        0
102
RTVSPost2010PropOp40
 70
     1
102
RTVSPost2010Prop41ColorIndex
 90
       18
102
RTVSPost2010Prop41ColorRGB
 90
        0
102
RTVSPost2010PropOp41
 70
     1
102
RTVSPost2010Prop42
 90
       50
102
RTVSPost2010PropOp42
 70
     1
102
RTVSPost2010Prop43
 90
        3
102
RTVSPost2010PropOp43
 70
     1
102
RTVSPost2010Prop44ColorIndex
 90
        5
102
RTVSPost2010Prop44ColorRGB
 90
      255
102
RTVSPost2010PropOp44
 70
     1
102
RTVSPost2010Prop45
280
     0
102
RTVSPost2010PropOp45
 70
     1
102
RTVSPost2010Prop46
 90
       50
102
RTVSPost2010PropOp46
 70
     1
102
RTVSPost2010Prop47
 90
       50
102
RTVSPost2010PropOp47
 70
     1
102
RTVSPost2010Prop48
 90
       50
102
RTVSPost2010PropOp48
 70
     1
102
RTVSPost2010Prop49
280
     0
102
RTVSPost2010PropOp49
 70
     1
102
RTVSPost2010Prop50
 90
       50
102
RTVSPost2010PropOp50
 70
     1
102
RTVSPost2010Prop51ColorIndex
 90
      256
102
RTVSPost2010Prop51ColorRGB
 90
-16777216
102
RTVSPost2010PropOp51
 70
     0
102
RTVSPost2010Prop52
140
1.0
102
RTVSPost2010PropOp52
 70
     0
102
RTVSPost2010Prop53
 90
        2
102
RTVSPost2010PropOp53
 70
     1
102
RTVSPost2010Prop54
  1
strokes_ogs.tif
102
RTVSPost2010PropOp54
 70
     1
102
RTVSPost2010Prop55
280
     0
102
RTVSPost2010PropOp55
 70
     1
102
RTVSPost2010Prop56
140
1.0
102
RTVSPost2010PropOp56
 70
     1
102
RTVSPost2010Prop57
140
1.0
102
RTVSPost2010PropOp57
 70
     1
102
RTVSPropertyOp0
 70
     1
102
RTVSPropertyOp1
 70
     1
102
RTVSPropertyOp2
 70
     1
102
RTVSPropertyOp3
 70
     1
102
RTVSPropertyOp4
 70
     1
102
RTVSPropertyOp5
 70
     1
102
RTVSPropertyOp6
 70
     1
102
RTVSPropertyOp7
 70
     1
102
RTVSPropertyOp8
 70
     1
102
RTVSPropertyOp9
 70
     1
102
RTVSPropertyOp10
 70
     1
102
RTVSPropertyOp11
 70
     1
102
RTVSPropertyOp12
 70
     1
102
RTVSPropertyOp13
 70
     1
102
RTVSPropertyOp14
 70
     1
102
RTVSPropertyOp15
 70
     1
102
RTVSPropertyOp16
 70
     1
102
RTVSPropertyOp17
 70
     1
102
RTVSPropertyOp18
 70
     1
102
RTVSPropertyOp19
 70
     1
102
RTVSPropertyOp20
 70
     1
102
RTVSPropertyOp21
 70
     1
102
RTVSPropertyOp22
 70
     1
102
RTVSPropertyOp23
 70
     1
102
RTVSPropertyOp24
 70
     1
102
RTVSPropertyOp25
 70
     1
102
RTVSPropertyOp26
 70
     1
102
RTVSPropertyOp27
 70
     1
102
RTVSPropertyOp28
 70
     1
102
RTVSPropertyOp29
 70
     1
102
RTVSPropertyOp30
 70
     1
102
RTVSPropertyOp31
 70
     1
102
RTVSPropertyOp32
 70
     1
102
RTVSPropertyOp33
 70
     1
102
RTVSPropertyOp34
 70
     1
102
RTVSPropertyOp35
 70
     1
102
RTVSPropertyOp36
 70
     1
102
RTVSPropertyOp37
 70
     1
102
RTVSPropertyOp38
 70
     1
102
RTVSPropertyOp39
 70
     1
102
RTVSPropertyOp40
 70
     1
102
RTVSPropertyOp41
 70
     1
102
RTVSPropertyOp42
 70
     1
102
RTVSPropertyOp43
 70
     1
102
RTVSPropertyOp44
 70
     1
102
RTVSPropertyOp45
 70
     1
102
RTVSPropertyOp46
 70
     1
102
RTVSPropertyOp47
 70
     1
102
RTVSPropertyOp48
 70
     1
102
RTVSPropertyOp49
 70
     1
102
RTVSPropertyOp50
 70
     1
102
RTVSPropertyOp51
 70
     0
102
RTVSPropertyOp52
 70
     0
102
RTVSPropertyOp53
 70
     1
102
RTVSPropertyOp54
 70
     1
102
RTVSPropertyOp55
 70
     1
102
RTVSPropertyOp56
 70
     1
102
RTVSPropertyOp57
 70
     1
102
RTVSPropertyOp58
 70
     1
102
RTVSPropertyOp59
 70
     1
102
RTVSPropertyOp60
 70
     1
102
RTVSPropertyOp61
 70
     1
102
RTVSPropertyOp62
 70
     1
  0
XRECORD
  5
B24F
102
{ACAD_REACTORS
330
B24E
102
}
330
B24E
100
AcDbXrecord
280
     1
102
RTVSPost2010Prop28
280
     0
102
RTVSPost2010PropOp28
 70
     1
102
RTVSPost2010Prop29
280
     1
102
RTVSPost2010PropOp29
 70
     1
102
RTVSPost2010Prop30
280
     1
102
RTVSPost2010PropOp30
 70
     1
102
RTVSPost2010Prop31
280
     0
102
RTVSPost2010PropOp31
 70
     1
102
RTVSPost2010Prop32
280
     0
102
RTVSPost2010PropOp32
 70
     1
102
RTVSPost2010Prop33
280
     0
102
RTVSPost2010PropOp33
 70
     1
102
RTVSPost2010Prop34
280
     0
102
RTVSPost2010PropOp34
 70
     1
102
RTVSPost2010Prop35
280
     0
102
RTVSPost2010PropOp35
 70
     1
102
RTVSPost2010Prop36
280
     0
102
RTVSPost2010PropOp36
 70
     1
102
RTVSPost2010Prop37
 90
       50
102
RTVSPost2010PropOp37
 70
     1
102
RTVSPost2010Prop38
140
0.0
102
RTVSPost2010PropOp38
 70
     1
102
RTVSPost2010Prop39
140
1.0
102
RTVSPost2010PropOp39
 70
     1
102
RTVSPost2010Prop40
 90
        0
102
RTVSPost2010PropOp40
 70
     1
102
RTVSPost2010Prop41ColorIndex
 90
       18
102
RTVSPost2010Prop41ColorRGB
 90
        0
102
RTVSPost2010PropOp41
 70
     1
102
RTVSPost2010Prop42
 90
       50
102
RTVSPost2010PropOp42
 70
     1
102
RTVSPost2010Prop43
 90
        3
102
RTVSPost2010PropOp43
 70
     1
102
RTVSPost2010Prop44ColorIndex
 90
        5
102
RTVSPost2010Prop44ColorRGB
 90
      255
102
RTVSPost2010PropOp44
 70
     1
102
RTVSPost2010Prop45
280
     0
102
RTVSPost2010PropOp45
 70
     1
102
RTVSPost2010Prop46
 90
       50
102
RTVSPost2010PropOp46
 70
     1
102
RTVSPost2010Prop47
 90
       50
102
RTVSPost2010PropOp47
 70
     1
102
RTVSPost2010Prop48
 90
       50
102
RTVSPost2010PropOp48
 70
     1
102
RTVSPost2010Prop49
280
     0
102
RTVSPost2010PropOp49
 70
     1
102
RTVSPost2010Prop50
 90
       50
102
RTVSPost2010PropOp50
 70
     1
102
RTVSPost2010Prop51ColorIndex
 90
      256
102
RTVSPost2010Prop51ColorRGB
 90
-16777216
102
RTVSPost2010PropOp51
 70
     0
102
RTVSPost2010Prop52
140
1.0
102
RTVSPost2010PropOp52
 70
     0
102
RTVSPost2010Prop53
 90
        2
102
RTVSPost2010PropOp53
 70
     1
102
RTVSPost2010Prop54
  1
strokes_ogs.tif
102
RTVSPost2010PropOp54
 70
     1
102
RTVSPost2010Prop55
280
     0
102
RTVSPost2010PropOp55
 70
     1
102
RTVSPost2010Prop56
140
1.0
102
RTVSPost2010PropOp56
 70
     1
102
RTVSPost2010Prop57
140
1.0
102
RTVSPost2010PropOp57
 70
     1
102
RTVSPropertyOp0
 70
     1
102
RTVSPropertyOp1
 70
     1
102
RTVSPropertyOp2
 70
     1
102
RTVSPropertyOp3
 70
     1
102
RTVSPropertyOp4
 70
     1
102
RTVSPropertyOp5
 70
     1
102
RTVSPropertyOp6
 70
     1
102
RTVSPropertyOp7
 70
     1
102
RTVSPropertyOp8
 70
     1
102
RTVSPropertyOp9
 70
     1
102
RTVSPropertyOp10
 70
     1
102
RTVSPropertyOp11
 70
     1
102
RTVSPropertyOp12
 70
     1
102
RTVSPropertyOp13
 70
     1
102
RTVSPropertyOp14
 70
     1
102
RTVSPropertyOp15
 70
     1
102
RTVSPropertyOp16
 70
     1
102
RTVSPropertyOp17
 70
     1
102
RTVSPropertyOp18
 70
     1
102
RTVSPropertyOp19
 70
     1
102
RTVSPropertyOp20
 70
     1
102
RTVSPropertyOp21
 70
     1
102
RTVSPropertyOp22
 70
     1
102
RTVSPropertyOp23
 70
     1
102
RTVSPropertyOp24
 70
     1
102
RTVSPropertyOp25
 70
     1
102
RTVSPropertyOp26
 70
     1
102
RTVSPropertyOp27
 70
     1
102
RTVSPropertyOp28
 70
     1
102
RTVSPropertyOp29
 70
     1
102
RTVSPropertyOp30
 70
     1
102
RTVSPropertyOp31
 70
     1
102
RTVSPropertyOp32
 70
     1
102
RTVSPropertyOp33
 70
     1
102
RTVSPropertyOp34
 70
     1
102
RTVSPropertyOp35
 70
     1
102
RTVSPropertyOp36
 70
     1
102
RTVSPropertyOp37
 70
     1
102
RTVSPropertyOp38
 70
     1
102
RTVSPropertyOp39
 70
     1
102
RTVSPropertyOp40
 70
     1
102
RTVSPropertyOp41
 70
     1
102
RTVSPropertyOp42
 70
     1
102
RTVSPropertyOp43
 70
     1
102
RTVSPropertyOp44
 70
     1
102
RTVSPropertyOp45
 70
     1
102
RTVSPropertyOp46
 70
     1
102
RTVSPropertyOp47
 70
     1
102
RTVSPropertyOp48
 70
     1
102
RTVSPropertyOp49
 70
     1
102
RTVSPropertyOp50
 70
     1
102
RTVSPropertyOp51
 70
     0
102
RTVSPropertyOp52
 70
     0
102
RTVSPropertyOp53
 70
     1
102
RTVSPropertyOp54
 70
     1
102
RTVSPropertyOp55
 70
     1
102
RTVSPropertyOp56
 70
     1
102
RTVSPropertyOp57
 70
     1
102
RTVSPropertyOp58
 70
     1
102
RTVSPropertyOp59
 70
     1
102
RTVSPropertyOp60
 70
     1
102
RTVSPropertyOp61
 70
     1
102
RTVSPropertyOp62
 70
     1
  0
XRECORD
  5
B269
102
{ACAD_REACTORS
330
B268
102
}
330
B268
100
AcDbXrecord
280
     1
102
RTVSPost2010Prop28
280
     0
102
RTVSPost2010PropOp28
 70
     1
102
RTVSPost2010Prop29
280
     1
102
RTVSPost2010PropOp29
 70
     1
102
RTVSPost2010Prop30
280
     1
102
RTVSPost2010PropOp30
 70
     1
102
RTVSPost2010Prop31
280
     0
102
RTVSPost2010PropOp31
 70
     1
102
RTVSPost2010Prop32
280
     0
102
RTVSPost2010PropOp32
 70
     1
102
RTVSPost2010Prop33
280
     0
102
RTVSPost2010PropOp33
 70
     1
102
RTVSPost2010Prop34
280
     0
102
RTVSPost2010PropOp34
 70
     1
102
RTVSPost2010Prop35
280
     0
102
RTVSPost2010PropOp35
 70
     1
102
RTVSPost2010Prop36
280
     0
102
RTVSPost2010PropOp36
 70
     1
102
RTVSPost2010Prop37
 90
       50
102
RTVSPost2010PropOp37
 70
     0
102
RTVSPost2010Prop38
140
0.0
102
RTVSPost2010PropOp38
 70
     0
102
RTVSPost2010Prop39
140
1.0
102
RTVSPost2010PropOp39
 70
     0
102
RTVSPost2010Prop40
 90
        0
102
RTVSPost2010PropOp40
 70
     0
102
RTVSPost2010Prop41ColorIndex
 90
       18
102
RTVSPost2010Prop41ColorRGB
 90
        0
102
RTVSPost2010PropOp41
 70
     0
102
RTVSPost2010Prop42
 90
       50
102
RTVSPost2010PropOp42
 70
     0
102
RTVSPost2010Prop43
 90
        3
102
RTVSPost2010PropOp43
 70
     0
102
RTVSPost2010Prop44ColorIndex
 90
        5
102
RTVSPost2010Prop44ColorRGB
 90
      255
102
RTVSPost2010PropOp44
 70
     0
102
RTVSPost2010Prop45
280
     0
102
RTVSPost2010PropOp45
 70
     1
102
RTVSPost2010Prop46
 90
       50
102
RTVSPost2010PropOp46
 70
     0
102
RTVSPost2010Prop47
 90
       50
102
RTVSPost2010PropOp47
 70
     0
102
RTVSPost2010Prop48
 90
       50
102
RTVSPost2010PropOp48
 70
     0
102
RTVSPost2010Prop49
280
     0
102
RTVSPost2010PropOp49
 70
     1
102
RTVSPost2010Prop50
 90
       50
102
RTVSPost2010PropOp50
 70
     0
102
RTVSPost2010Prop51ColorIndex
 90
      256
102
RTVSPost2010Prop51ColorRGB
 90
-16777216
102
RTVSPost2010PropOp51
 70
     0
102
RTVSPost2010Prop52
140
1.0
102
RTVSPost2010PropOp52
 70
     0
102
RTVSPost2010Prop53
 90
        2
102
RTVSPost2010PropOp53
 70
     0
102
RTVSPost2010Prop54
  1
strokes_ogs.tif
102
RTVSPost2010PropOp54
 70
     0
102
RTVSPost2010Prop55
280
     0
102
RTVSPost2010PropOp55
 70
     1
102
RTVSPost2010Prop56
140
1.0
102
RTVSPost2010PropOp56
 70
     0
102
RTVSPost2010Prop57
140
1.0
102
RTVSPost2010PropOp57
 70
     0
102
RTVSPropertyOp0
 70
     0
102
RTVSPropertyOp1
 70
     0
102
RTVSPropertyOp2
 70
     0
102
RTVSPropertyOp3
 70
     0
102
RTVSPropertyOp4
 70
     0
102
RTVSPropertyOp5
 70
     0
102
RTVSPropertyOp6
 70
     0
102
RTVSPropertyOp7
 70
     0
102
RTVSPropertyOp8
 70
     0
102
RTVSPropertyOp9
 70
     0
102
RTVSPropertyOp10
 70
     0
102
RTVSPropertyOp11
 70
     0
102
RTVSPropertyOp12
 70
     0
102
RTVSPropertyOp13
 70
     0
102
RTVSPropertyOp14
 70
     2
102
RTVSPropertyOp15
 70
     0
102
RTVSPropertyOp16
 70
     0
102
RTVSPropertyOp17
 70
     0
102
RTVSPropertyOp18
 70
     0
102
RTVSPropertyOp19
 70
     0
102
RTVSPropertyOp20
 70
     0
102
RTVSPropertyOp21
 70
     0
102
RTVSPropertyOp22
 70
     0
102
RTVSPropertyOp23
 70
     0
102
RTVSPropertyOp24
 70
     0
102
RTVSPropertyOp25
 70
     0
102
RTVSPropertyOp26
 70
     0
102
RTVSPropertyOp27
 70
     0
102
RTVSPropertyOp28
 70
     1
102
RTVSPropertyOp29
 70
     1
102
RTVSPropertyOp30
 70
     1
102
RTVSPropertyOp31
 70
     1
102
RTVSPropertyOp32
 70
     1
102
RTVSPropertyOp33
 70
     1
102
RTVSPropertyOp34
 70
     1
102
RTVSPropertyOp35
 70
     1
102
RTVSPropertyOp36
 70
     1
102
RTVSPropertyOp37
 70
     0
102
RTVSPropertyOp38
 70
     0
102
RTVSPropertyOp39
 70
     0
102
RTVSPropertyOp40
 70
     0
102
RTVSPropertyOp41
 70
     0
102
RTVSPropertyOp42
 70
     0
102
RTVSPropertyOp43
 70
     0
102
RTVSPropertyOp44
 70
     0
102
RTVSPropertyOp45
 70
     1
102
RTVSPropertyOp46
 70
     0
102
RTVSPropertyOp47
 70
     0
102
RTVSPropertyOp48
 70
     0
102
RTVSPropertyOp49
 70
     1
102
RTVSPropertyOp50
 70
     0
102
RTVSPropertyOp51
 70
     0
102
RTVSPropertyOp52
 70
     0
102
RTVSPropertyOp53
 70
     0
102
RTVSPropertyOp54
 70
     0
102
RTVSPropertyOp55
 70
     1
102
RTVSPropertyOp56
 70
     0
102
RTVSPropertyOp57
 70
     0
102
RTVSPropertyOp58
 70
     0
102
RTVSPropertyOp59
 70
     0
102
RTVSPropertyOp60
 70
     0
102
RTVSPropertyOp61
 70
     0
102
RTVSPropertyOp62
 70
     0
  0
XRECORD
  5
B257
102
{ACAD_REACTORS
330
B256
102
}
330
B256
100
AcDbXrecord
280
     1
102
RTVSPost2010Prop28
280
     0
102
RTVSPost2010PropOp28
 70
     1
102
RTVSPost2010Prop29
280
     1
102
RTVSPost2010PropOp29
 70
     1
102
RTVSPost2010Prop30
280
     1
102
RTVSPost2010PropOp30
 70
     1
102
RTVSPost2010Prop31
280
     0
102
RTVSPost2010PropOp31
 70
     1
102
RTVSPost2010Prop32
280
     0
102
RTVSPost2010PropOp32
 70
     1
102
RTVSPost2010Prop33
280
     0
102
RTVSPost2010PropOp33
 70
     1
102
RTVSPost2010Prop34
280
     0
102
RTVSPost2010PropOp34
 70
     1
102
RTVSPost2010Prop35
280
     0
102
RTVSPost2010PropOp35
 70
     1
102
RTVSPost2010Prop36
280
     0
102
RTVSPost2010PropOp36
 70
     1
102
RTVSPost2010Prop37
 90
       50
102
RTVSPost2010PropOp37
 70
     1
102
RTVSPost2010Prop38
140
0.0
102
RTVSPost2010PropOp38
 70
     1
102
RTVSPost2010Prop39
140
1.0
102
RTVSPost2010PropOp39
 70
     1
102
RTVSPost2010Prop40
 90
        0
102
RTVSPost2010PropOp40
 70
     1
102
RTVSPost2010Prop41ColorIndex
 90
       18
102
RTVSPost2010Prop41ColorRGB
 90
        0
102
RTVSPost2010PropOp41
 70
     1
102
RTVSPost2010Prop42
 90
       50
102
RTVSPost2010PropOp42
 70
     1
102
RTVSPost2010Prop43
 90
        3
102
RTVSPost2010PropOp43
 70
     1
102
RTVSPost2010Prop44ColorIndex
 90
        5
102
RTVSPost2010Prop44ColorRGB
 90
      255
102
RTVSPost2010PropOp44
 70
     1
102
RTVSPost2010Prop45
280
     0
102
RTVSPost2010PropOp45
 70
     1
102
RTVSPost2010Prop46
 90
       50
102
RTVSPost2010PropOp46
 70
     1
102
RTVSPost2010Prop47
 90
       50
102
RTVSPost2010PropOp47
 70
     1
102
RTVSPost2010Prop48
 90
       50
102
RTVSPost2010PropOp48
 70
     1
102
RTVSPost2010Prop49
280
     0
102
RTVSPost2010PropOp49
 70
     1
102
RTVSPost2010Prop50
 90
       50
102
RTVSPost2010PropOp50
 70
     1
102
RTVSPost2010Prop51ColorIndex
 90
      256
102
RTVSPost2010Prop51ColorRGB
 90
-16777216
102
RTVSPost2010PropOp51
 70
     0
102
RTVSPost2010Prop52
140
1.0
102
RTVSPost2010PropOp52
 70
     0
102
RTVSPost2010Prop53
 90
        2
102
RTVSPost2010PropOp53
 70
     1
102
RTVSPost2010Prop54
  1
strokes_ogs.tif
102
RTVSPost2010PropOp54
 70
     1
102
RTVSPost2010Prop55
280
     0
102
RTVSPost2010PropOp55
 70
     1
102
RTVSPost2010Prop56
140
1.0
102
RTVSPost2010PropOp56
 70
     1
102
RTVSPost2010Prop57
140
1.0
102
RTVSPost2010PropOp57
 70
     1
102
RTVSPropertyOp0
 70
     1
102
RTVSPropertyOp1
 70
     1
102
RTVSPropertyOp2
 70
     1
102
RTVSPropertyOp3
 70
     1
102
RTVSPropertyOp4
 70
     1
102
RTVSPropertyOp5
 70
     1
102
RTVSPropertyOp6
 70
     1
102
RTVSPropertyOp7
 70
     1
102
RTVSPropertyOp8
 70
     1
102
RTVSPropertyOp9
 70
     1
102
RTVSPropertyOp10
 70
     1
102
RTVSPropertyOp11
 70
     1
102
RTVSPropertyOp12
 70
     1
102
RTVSPropertyOp13
 70
     1
102
RTVSPropertyOp14
 70
     1
102
RTVSPropertyOp15
 70
     1
102
RTVSPropertyOp16
 70
     1
102
RTVSPropertyOp17
 70
     1
102
RTVSPropertyOp18
 70
     1
102
RTVSPropertyOp19
 70
     1
102
RTVSPropertyOp20
 70
     1
102
RTVSPropertyOp21
 70
     1
102
RTVSPropertyOp22
 70
     1
102
RTVSPropertyOp23
 70
     1
102
RTVSPropertyOp24
 70
     1
102
RTVSPropertyOp25
 70
     1
102
RTVSPropertyOp26
 70
     1
102
RTVSPropertyOp27
 70
     1
102
RTVSPropertyOp28
 70
     1
102
RTVSPropertyOp29
 70
     1
102
RTVSPropertyOp30
 70
     1
102
RTVSPropertyOp31
 70
     1
102
RTVSPropertyOp32
 70
     1
102
RTVSPropertyOp33
 70
     1
102
RTVSPropertyOp34
 70
     1
102
RTVSPropertyOp35
 70
     1
102
RTVSPropertyOp36
 70
     1
102
RTVSPropertyOp37
 70
     1
102
RTVSPropertyOp38
 70
     1
102
RTVSPropertyOp39
 70
     1
102
RTVSPropertyOp40
 70
     1
102
RTVSPropertyOp41
 70
     1
102
RTVSPropertyOp42
 70
     1
102
RTVSPropertyOp43
 70
     1
102
RTVSPropertyOp44
 70
     1
102
RTVSPropertyOp45
 70
     1
102
RTVSPropertyOp46
 70
     1
102
RTVSPropertyOp47
 70
     1
102
RTVSPropertyOp48
 70
     1
102
RTVSPropertyOp49
 70
     1
102
RTVSPropertyOp50
 70
     1
102
RTVSPropertyOp51
 70
     0
102
RTVSPropertyOp52
 70
     0
102
RTVSPropertyOp53
 70
     1
102
RTVSPropertyOp54
 70
     1
102
RTVSPropertyOp55
 70
     1
102
RTVSPropertyOp56
 70
     1
102
RTVSPropertyOp57
 70
     1
102
RTVSPropertyOp58
 70
     1
102
RTVSPropertyOp59
 70
     1
102
RTVSPropertyOp60
 70
     1
102
RTVSPropertyOp61
 70
     1
102
RTVSPropertyOp62
 70
     1
  0
XRECORD
  5
B23B
102
{ACAD_REACTORS
330
B23A
102
}
330
B23A
100
AcDbXrecord
280
     1
102
RTVSPost2010Prop28
280
     0
102
RTVSPost2010PropOp28
 70
     1
102
RTVSPost2010Prop29
280
     1
102
RTVSPost2010PropOp29
 70
     1
102
RTVSPost2010Prop30
280
     1
102
RTVSPost2010PropOp30
 70
     1
102
RTVSPost2010Prop31
280
     0
102
RTVSPost2010PropOp31
 70
     1
102
RTVSPost2010Prop32
280
     0
102
RTVSPost2010PropOp32
 70
     1
102
RTVSPost2010Prop33
280
     0
102
RTVSPost2010PropOp33
 70
     1
102
RTVSPost2010Prop34
280
     0
102
RTVSPost2010PropOp34
 70
     1
102
RTVSPost2010Prop35
280
     0
102
RTVSPost2010PropOp35
 70
     1
102
RTVSPost2010Prop36
280
     0
102
RTVSPost2010PropOp36
 70
     1
102
RTVSPost2010Prop37
 90
       50
102
RTVSPost2010PropOp37
 70
     1
102
RTVSPost2010Prop38
140
0.0
102
RTVSPost2010PropOp38
 70
     1
102
RTVSPost2010Prop39
140
1.0
102
RTVSPost2010PropOp39
 70
     1
102
RTVSPost2010Prop40
 90
        0
102
RTVSPost2010PropOp40
 70
     1
102
RTVSPost2010Prop41ColorIndex
 90
       18
102
RTVSPost2010Prop41ColorRGB
 90
        0
102
RTVSPost2010PropOp41
 70
     1
102
RTVSPost2010Prop42
 90
       50
102
RTVSPost2010PropOp42
 70
     1
102
RTVSPost2010Prop43
 90
        3
102
RTVSPost2010PropOp43
 70
     1
102
RTVSPost2010Prop44ColorIndex
 90
        5
102
RTVSPost2010Prop44ColorRGB
 90
      255
102
RTVSPost2010PropOp44
 70
     1
102
RTVSPost2010Prop45
280
     0
102
RTVSPost2010PropOp45
 70
     1
102
RTVSPost2010Prop46
 90
       50
102
RTVSPost2010PropOp46
 70
     1
102
RTVSPost2010Prop47
 90
       50
102
RTVSPost2010PropOp47
 70
     1
102
RTVSPost2010Prop48
 90
       50
102
RTVSPost2010PropOp48
 70
     1
102
RTVSPost2010Prop49
280
     0
102
RTVSPost2010PropOp49
 70
     1
102
RTVSPost2010Prop50
 90
       50
102
RTVSPost2010PropOp50
 70
     1
102
RTVSPost2010Prop51ColorIndex
 90
      256
102
RTVSPost2010Prop51ColorRGB
 90
-16777216
102
RTVSPost2010PropOp51
 70
     0
102
RTVSPost2010Prop52
140
1.0
102
RTVSPost2010PropOp52
 70
     0
102
RTVSPost2010Prop53
 90
        2
102
RTVSPost2010PropOp53
 70
     1
102
RTVSPost2010Prop54
  1
strokes_ogs.tif
102
RTVSPost2010PropOp54
 70
     1
102
RTVSPost2010Prop55
280
     0
102
RTVSPost2010PropOp55
 70
     1
102
RTVSPost2010Prop56
140
1.0
102
RTVSPost2010PropOp56
 70
     1
102
RTVSPost2010Prop57
140
1.0
102
RTVSPost2010PropOp57
 70
     1
102
RTVSPropertyOp0
 70
     1
102
RTVSPropertyOp1
 70
     1
102
RTVSPropertyOp2
 70
     1
102
RTVSPropertyOp3
 70
     1
102
RTVSPropertyOp4
 70
     1
102
RTVSPropertyOp5
 70
     1
102
RTVSPropertyOp6
 70
     1
102
RTVSPropertyOp7
 70
     1
102
RTVSPropertyOp8
 70
     1
102
RTVSPropertyOp9
 70
     1
102
RTVSPropertyOp10
 70
     1
102
RTVSPropertyOp11
 70
     1
102
RTVSPropertyOp12
 70
     1
102
RTVSPropertyOp13
 70
     1
102
RTVSPropertyOp14
 70
     1
102
RTVSPropertyOp15
 70
     1
102
RTVSPropertyOp16
 70
     1
102
RTVSPropertyOp17
 70
     1
102
RTVSPropertyOp18
 70
     1
102
RTVSPropertyOp19
 70
     1
102
RTVSPropertyOp20
 70
     1
102
RTVSPropertyOp21
 70
     1
102
RTVSPropertyOp22
 70
     1
102
RTVSPropertyOp23
 70
     1
102
RTVSPropertyOp24
 70
     1
102
RTVSPropertyOp25
 70
     1
102
RTVSPropertyOp26
 70
     1
102
RTVSPropertyOp27
 70
     1
102
RTVSPropertyOp28
 70
     1
102
RTVSPropertyOp29
 70
     1
102
RTVSPropertyOp30
 70
     1
102
RTVSPropertyOp31
 70
     1
102
RTVSPropertyOp32
 70
     1
102
RTVSPropertyOp33
 70
     1
102
RTVSPropertyOp34
 70
     1
102
RTVSPropertyOp35
 70
     1
102
RTVSPropertyOp36
 70
     1
102
RTVSPropertyOp37
 70
     1
102
RTVSPropertyOp38
 70
     1
102
RTVSPropertyOp39
 70
     1
102
RTVSPropertyOp40
 70
     1
102
RTVSPropertyOp41
 70
     1
102
RTVSPropertyOp42
 70
     1
102
RTVSPropertyOp43
 70
     1
102
RTVSPropertyOp44
 70
     1
102
RTVSPropertyOp45
 70
     1
102
RTVSPropertyOp46
 70
     1
102
RTVSPropertyOp47
 70
     1
102
RTVSPropertyOp48
 70
     1
102
RTVSPropertyOp49
 70
     1
102
RTVSPropertyOp50
 70
     1
102
RTVSPropertyOp51
 70
     0
102
RTVSPropertyOp52
 70
     0
102
RTVSPropertyOp53
 70
     1
102
RTVSPropertyOp54
 70
     1
102
RTVSPropertyOp55
 70
     1
102
RTVSPropertyOp56
 70
     1
102
RTVSPropertyOp57
 70
     1
102
RTVSPropertyOp58
 70
     1
102
RTVSPropertyOp59
 70
     1
102
RTVSPropertyOp60
 70
     1
102
RTVSPropertyOp61
 70
     1
102
RTVSPropertyOp62
 70
     1
  0
XRECORD
  5
B23D
102
{ACAD_REACTORS
330
B23C
102
}
330
B23C
100
AcDbXrecord
280
     1
102
RTVSPost2010Prop28
280
     0
102
RTVSPost2010PropOp28
 70
     1
102
RTVSPost2010Prop29
280
     1
102
RTVSPost2010PropOp29
 70
     1
102
RTVSPost2010Prop30
280
     1
102
RTVSPost2010PropOp30
 70
     1
102
RTVSPost2010Prop31
280
     0
102
RTVSPost2010PropOp31
 70
     1
102
RTVSPost2010Prop32
280
     0
102
RTVSPost2010PropOp32
 70
     1
102
RTVSPost2010Prop33
280
     0
102
RTVSPost2010PropOp33
 70
     1
102
RTVSPost2010Prop34
280
     0
102
RTVSPost2010PropOp34
 70
     1
102
RTVSPost2010Prop35
280
     0
102
RTVSPost2010PropOp35
 70
     1
102
RTVSPost2010Prop36
280
     0
102
RTVSPost2010PropOp36
 70
     1
102
RTVSPost2010Prop37
 90
       50
102
RTVSPost2010PropOp37
 70
     1
102
RTVSPost2010Prop38
140
0.0
102
RTVSPost2010PropOp38
 70
     1
102
RTVSPost2010Prop39
140
1.0
102
RTVSPost2010PropOp39
 70
     1
102
RTVSPost2010Prop40
 90
        0
102
RTVSPost2010PropOp40
 70
     1
102
RTVSPost2010Prop41ColorIndex
 90
       18
102
RTVSPost2010Prop41ColorRGB
 90
        0
102
RTVSPost2010PropOp41
 70
     1
102
RTVSPost2010Prop42
 90
       50
102
RTVSPost2010PropOp42
 70
     1
102
RTVSPost2010Prop43
 90
        3
102
RTVSPost2010PropOp43
 70
     1
102
RTVSPost2010Prop44ColorIndex
 90
        5
102
RTVSPost2010Prop44ColorRGB
 90
      255
102
RTVSPost2010PropOp44
 70
     1
102
RTVSPost2010Prop45
280
     0
102
RTVSPost2010PropOp45
 70
     1
102
RTVSPost2010Prop46
 90
       50
102
RTVSPost2010PropOp46
 70
     1
102
RTVSPost2010Prop47
 90
       50
102
RTVSPost2010PropOp47
 70
     1
102
RTVSPost2010Prop48
 90
       50
102
RTVSPost2010PropOp48
 70
     1
102
RTVSPost2010Prop49
280
     0
102
RTVSPost2010PropOp49
 70
     1
102
RTVSPost2010Prop50
 90
       50
102
RTVSPost2010PropOp50
 70
     1
102
RTVSPost2010Prop51ColorIndex
 90
      256
102
RTVSPost2010Prop51ColorRGB
 90
-16777216
102
RTVSPost2010PropOp51
 70
     0
102
RTVSPost2010Prop52
140
1.0
102
RTVSPost2010PropOp52
 70
     0
102
RTVSPost2010Prop53
 90
        2
102
RTVSPost2010PropOp53
 70
     1
102
RTVSPost2010Prop54
  1
strokes_ogs.tif
102
RTVSPost2010PropOp54
 70
     1
102
RTVSPost2010Prop55
280
     0
102
RTVSPost2010PropOp55
 70
     1
102
RTVSPost2010Prop56
140
1.0
102
RTVSPost2010PropOp56
 70
     1
102
RTVSPost2010Prop57
140
1.0
102
RTVSPost2010PropOp57
 70
     1
102
RTVSPropertyOp0
 70
     1
102
RTVSPropertyOp1
 70
     1
102
RTVSPropertyOp2
 70
     1
102
RTVSPropertyOp3
 70
     1
102
RTVSPropertyOp4
 70
     1
102
RTVSPropertyOp5
 70
     1
102
RTVSPropertyOp6
 70
     1
102
RTVSPropertyOp7
 70
     1
102
RTVSPropertyOp8
 70
     1
102
RTVSPropertyOp9
 70
     1
102
RTVSPropertyOp10
 70
     1
102
RTVSPropertyOp11
 70
     1
102
RTVSPropertyOp12
 70
     1
102
RTVSPropertyOp13
 70
     1
102
RTVSPropertyOp14
 70
     1
102
RTVSPropertyOp15
 70
     1
102
RTVSPropertyOp16
 70
     1
102
RTVSPropertyOp17
 70
     1
102
RTVSPropertyOp18
 70
     1
102
RTVSPropertyOp19
 70
     1
102
RTVSPropertyOp20
 70
     1
102
RTVSPropertyOp21
 70
     1
102
RTVSPropertyOp22
 70
     1
102
RTVSPropertyOp23
 70
     1
102
RTVSPropertyOp24
 70
     1
102
RTVSPropertyOp25
 70
     1
102
RTVSPropertyOp26
 70
     1
102
RTVSPropertyOp27
 70
     1
102
RTVSPropertyOp28
 70
     1
102
RTVSPropertyOp29
 70
     1
102
RTVSPropertyOp30
 70
     1
102
RTVSPropertyOp31
 70
     1
102
RTVSPropertyOp32
 70
     1
102
RTVSPropertyOp33
 70
     1
102
RTVSPropertyOp34
 70
     1
102
RTVSPropertyOp35
 70
     1
102
RTVSPropertyOp36
 70
     1
102
RTVSPropertyOp37
 70
     1
102
RTVSPropertyOp38
 70
     1
102
RTVSPropertyOp39
 70
     1
102
RTVSPropertyOp40
 70
     1
102
RTVSPropertyOp41
 70
     1
102
RTVSPropertyOp42
 70
     1
102
RTVSPropertyOp43
 70
     1
102
RTVSPropertyOp44
 70
     1
102
RTVSPropertyOp45
 70
     1
102
RTVSPropertyOp46
 70
     1
102
RTVSPropertyOp47
 70
     1
102
RTVSPropertyOp48
 70
     1
102
RTVSPropertyOp49
 70
     1
102
RTVSPropertyOp50
 70
     1
102
RTVSPropertyOp51
 70
     0
102
RTVSPropertyOp52
 70
     0
102
RTVSPropertyOp53
 70
     1
102
RTVSPropertyOp54
 70
     1
102
RTVSPropertyOp55
 70
     1
102
RTVSPropertyOp56
 70
     1
102
RTVSPropertyOp57
 70
     1
102
RTVSPropertyOp58
 70
     1
102
RTVSPropertyOp59
 70
     1
102
RTVSPropertyOp60
 70
     1
102
RTVSPropertyOp61
 70
     1
102
RTVSPropertyOp62
 70
     1
  0
XRECORD
  5
B23F
102
{ACAD_REACTORS
330
B23E
102
}
330
B23E
100
AcDbXrecord
280
     1
102
RTVSPost2010Prop28
280
     0
102
RTVSPost2010PropOp28
 70
     1
102
RTVSPost2010Prop29
280
     1
102
RTVSPost2010PropOp29
 70
     1
102
RTVSPost2010Prop30
280
     1
102
RTVSPost2010PropOp30
 70
     1
102
RTVSPost2010Prop31
280
     0
102
RTVSPost2010PropOp31
 70
     1
102
RTVSPost2010Prop32
280
     0
102
RTVSPost2010PropOp32
 70
     1
102
RTVSPost2010Prop33
280
     0
102
RTVSPost2010PropOp33
 70
     1
102
RTVSPost2010Prop34
280
     0
102
RTVSPost2010PropOp34
 70
     1
102
RTVSPost2010Prop35
280
     0
102
RTVSPost2010PropOp35
 70
     1
102
RTVSPost2010Prop36
280
     0
102
RTVSPost2010PropOp36
 70
     1
102
RTVSPost2010Prop37
 90
       50
102
RTVSPost2010PropOp37
 70
     1
102
RTVSPost2010Prop38
140
0.0
102
RTVSPost2010PropOp38
 70
     1
102
RTVSPost2010Prop39
140
1.0
102
RTVSPost2010PropOp39
 70
     1
102
RTVSPost2010Prop40
 90
        0
102
RTVSPost2010PropOp40
 70
     1
102
RTVSPost2010Prop41ColorIndex
 90
       18
102
RTVSPost2010Prop41ColorRGB
 90
        0
102
RTVSPost2010PropOp41
 70
     1
102
RTVSPost2010Prop42
 90
       50
102
RTVSPost2010PropOp42
 70
     1
102
RTVSPost2010Prop43
 90
        3
102
RTVSPost2010PropOp43
 70
     1
102
RTVSPost2010Prop44ColorIndex
 90
        5
102
RTVSPost2010Prop44ColorRGB
 90
      255
102
RTVSPost2010PropOp44
 70
     1
102
RTVSPost2010Prop45
280
     0
102
RTVSPost2010PropOp45
 70
     1
102
RTVSPost2010Prop46
 90
       50
102
RTVSPost2010PropOp46
 70
     1
102
RTVSPost2010Prop47
 90
       50
102
RTVSPost2010PropOp47
 70
     1
102
RTVSPost2010Prop48
 90
       50
102
RTVSPost2010PropOp48
 70
     1
102
RTVSPost2010Prop49
280
     0
102
RTVSPost2010PropOp49
 70
     1
102
RTVSPost2010Prop50
 90
       50
102
RTVSPost2010PropOp50
 70
     1
102
RTVSPost2010Prop51ColorIndex
 90
      256
102
RTVSPost2010Prop51ColorRGB
 90
-16777216
102
RTVSPost2010PropOp51
 70
     0
102
RTVSPost2010Prop52
140
1.0
102
RTVSPost2010PropOp52
 70
     0
102
RTVSPost2010Prop53
 90
        2
102
RTVSPost2010PropOp53
 70
     1
102
RTVSPost2010Prop54
  1
strokes_ogs.tif
102
RTVSPost2010PropOp54
 70
     1
102
RTVSPost2010Prop55
280
     0
102
RTVSPost2010PropOp55
 70
     1
102
RTVSPost2010Prop56
140
1.0
102
RTVSPost2010PropOp56
 70
     1
102
RTVSPost2010Prop57
140
1.0
102
RTVSPost2010PropOp57
 70
     1
102
RTVSPropertyOp0
 70
     1
102
RTVSPropertyOp1
 70
     1
102
RTVSPropertyOp2
 70
     1
102
RTVSPropertyOp3
 70
     1
102
RTVSPropertyOp4
 70
     1
102
RTVSPropertyOp5
 70
     1
102
RTVSPropertyOp6
 70
     1
102
RTVSPropertyOp7
 70
     1
102
RTVSPropertyOp8
 70
     1
102
RTVSPropertyOp9
 70
     1
102
RTVSPropertyOp10
 70
     1
102
RTVSPropertyOp11
 70
     1
102
RTVSPropertyOp12
 70
     1
102
RTVSPropertyOp13
 70
     1
102
RTVSPropertyOp14
 70
     1
102
RTVSPropertyOp15
 70
     1
102
RTVSPropertyOp16
 70
     1
102
RTVSPropertyOp17
 70
     1
102
RTVSPropertyOp18
 70
     1
102
RTVSPropertyOp19
 70
     1
102
RTVSPropertyOp20
 70
     1
102
RTVSPropertyOp21
 70
     1
102
RTVSPropertyOp22
 70
     1
102
RTVSPropertyOp23
 70
     1
102
RTVSPropertyOp24
 70
     1
102
RTVSPropertyOp25
 70
     1
102
RTVSPropertyOp26
 70
     1
102
RTVSPropertyOp27
 70
     1
102
RTVSPropertyOp28
 70
     1
102
RTVSPropertyOp29
 70
     1
102
RTVSPropertyOp30
 70
     1
102
RTVSPropertyOp31
 70
     1
102
RTVSPropertyOp32
 70
     1
102
RTVSPropertyOp33
 70
     1
102
RTVSPropertyOp34
 70
     1
102
RTVSPropertyOp35
 70
     1
102
RTVSPropertyOp36
 70
     1
102
RTVSPropertyOp37
 70
     1
102
RTVSPropertyOp38
 70
     1
102
RTVSPropertyOp39
 70
     1
102
RTVSPropertyOp40
 70
     1
102
RTVSPropertyOp41
 70
     1
102
RTVSPropertyOp42
 70
     1
102
RTVSPropertyOp43
 70
     1
102
RTVSPropertyOp44
 70
     1
102
RTVSPropertyOp45
 70
     1
102
RTVSPropertyOp46
 70
     1
102
RTVSPropertyOp47
 70
     1
102
RTVSPropertyOp48
 70
     1
102
RTVSPropertyOp49
 70
     1
102
RTVSPropertyOp50
 70
     1
102
RTVSPropertyOp51
 70
     0
102
RTVSPropertyOp52
 70
     0
102
RTVSPropertyOp53
 70
     1
102
RTVSPropertyOp54
 70
     1
102
RTVSPropertyOp55
 70
     1
102
RTVSPropertyOp56
 70
     1
102
RTVSPropertyOp57
 70
     1
102
RTVSPropertyOp58
 70
     1
102
RTVSPropertyOp59
 70
     1
102
RTVSPropertyOp60
 70
     1
102
RTVSPropertyOp61
 70
     1
102
RTVSPropertyOp62
 70
     1
  0
XRECORD
  5
B241
102
{ACAD_REACTORS
330
B240
102
}
330
B240
100
AcDbXrecord
280
     1
102
RTVSPost2010Prop28
280
     0
102
RTVSPost2010PropOp28
 70
     1
102
RTVSPost2010Prop29
280
     1
102
RTVSPost2010PropOp29
 70
     1
102
RTVSPost2010Prop30
280
     1
102
RTVSPost2010PropOp30
 70
     1
102
RTVSPost2010Prop31
280
     0
102
RTVSPost2010PropOp31
 70
     1
102
RTVSPost2010Prop32
280
     0
102
RTVSPost2010PropOp32
 70
     1
102
RTVSPost2010Prop33
280
     0
102
RTVSPost2010PropOp33
 70
     1
102
RTVSPost2010Prop34
280
     0
102
RTVSPost2010PropOp34
 70
     1
102
RTVSPost2010Prop35
280
     0
102
RTVSPost2010PropOp35
 70
     1
102
RTVSPost2010Prop36
280
     0
102
RTVSPost2010PropOp36
 70
     1
102
RTVSPost2010Prop37
 90
       50
102
RTVSPost2010PropOp37
 70
     1
102
RTVSPost2010Prop38
140
0.0
102
RTVSPost2010PropOp38
 70
     1
102
RTVSPost2010Prop39
140
1.0
102
RTVSPost2010PropOp39
 70
     1
102
RTVSPost2010Prop40
 90
        0
102
RTVSPost2010PropOp40
 70
     1
102
RTVSPost2010Prop41ColorIndex
 90
       18
102
RTVSPost2010Prop41ColorRGB
 90
        0
102
RTVSPost2010PropOp41
 70
     1
102
RTVSPost2010Prop42
 90
       50
102
RTVSPost2010PropOp42
 70
     1
102
RTVSPost2010Prop43
 90
        3
102
RTVSPost2010PropOp43
 70
     1
102
RTVSPost2010Prop44ColorIndex
 90
        5
102
RTVSPost2010Prop44ColorRGB
 90
      255
102
RTVSPost2010PropOp44
 70
     1
102
RTVSPost2010Prop45
280
     0
102
RTVSPost2010PropOp45
 70
     1
102
RTVSPost2010Prop46
 90
       50
102
RTVSPost2010PropOp46
 70
     1
102
RTVSPost2010Prop47
 90
       50
102
RTVSPost2010PropOp47
 70
     1
102
RTVSPost2010Prop48
 90
       50
102
RTVSPost2010PropOp48
 70
     1
102
RTVSPost2010Prop49
280
     0
102
RTVSPost2010PropOp49
 70
     1
102
RTVSPost2010Prop50
 90
       50
102
RTVSPost2010PropOp50
 70
     1
102
RTVSPost2010Prop51ColorIndex
 90
      256
102
RTVSPost2010Prop51ColorRGB
 90
-16777216
102
RTVSPost2010PropOp51
 70
     0
102
RTVSPost2010Prop52
140
1.0
102
RTVSPost2010PropOp52
 70
     0
102
RTVSPost2010Prop53
 90
        2
102
RTVSPost2010PropOp53
 70
     1
102
RTVSPost2010Prop54
  1
strokes_ogs.tif
102
RTVSPost2010PropOp54
 70
     1
102
RTVSPost2010Prop55
280
     0
102
RTVSPost2010PropOp55
 70
     1
102
RTVSPost2010Prop56
140
1.0
102
RTVSPost2010PropOp56
 70
     1
102
RTVSPost2010Prop57
140
1.0
102
RTVSPost2010PropOp57
 70
     1
102
RTVSPropertyOp0
 70
     1
102
RTVSPropertyOp1
 70
     1
102
RTVSPropertyOp2
 70
     1
102
RTVSPropertyOp3
 70
     1
102
RTVSPropertyOp4
 70
     1
102
RTVSPropertyOp5
 70
     1
102
RTVSPropertyOp6
 70
     1
102
RTVSPropertyOp7
 70
     1
102
RTVSPropertyOp8
 70
     1
102
RTVSPropertyOp9
 70
     1
102
RTVSPropertyOp10
 70
     1
102
RTVSPropertyOp11
 70
     1
102
RTVSPropertyOp12
 70
     1
102
RTVSPropertyOp13
 70
     1
102
RTVSPropertyOp14
 70
     1
102
RTVSPropertyOp15
 70
     1
102
RTVSPropertyOp16
 70
     1
102
RTVSPropertyOp17
 70
     1
102
RTVSPropertyOp18
 70
     1
102
RTVSPropertyOp19
 70
     1
102
RTVSPropertyOp20
 70
     1
102
RTVSPropertyOp21
 70
     1
102
RTVSPropertyOp22
 70
     1
102
RTVSPropertyOp23
 70
     1
102
RTVSPropertyOp24
 70
     1
102
RTVSPropertyOp25
 70
     1
102
RTVSPropertyOp26
 70
     1
102
RTVSPropertyOp27
 70
     1
102
RTVSPropertyOp28
 70
     1
102
RTVSPropertyOp29
 70
     1
102
RTVSPropertyOp30
 70
     1
102
RTVSPropertyOp31
 70
     1
102
RTVSPropertyOp32
 70
     1
102
RTVSPropertyOp33
 70
     1
102
RTVSPropertyOp34
 70
     1
102
RTVSPropertyOp35
 70
     1
102
RTVSPropertyOp36
 70
     1
102
RTVSPropertyOp37
 70
     1
102
RTVSPropertyOp38
 70
     1
102
RTVSPropertyOp39
 70
     1
102
RTVSPropertyOp40
 70
     1
102
RTVSPropertyOp41
 70
     1
102
RTVSPropertyOp42
 70
     1
102
RTVSPropertyOp43
 70
     1
102
RTVSPropertyOp44
 70
     1
102
RTVSPropertyOp45
 70
     1
102
RTVSPropertyOp46
 70
     1
102
RTVSPropertyOp47
 70
     1
102
RTVSPropertyOp48
 70
     1
102
RTVSPropertyOp49
 70
     1
102
RTVSPropertyOp50
 70
     1
102
RTVSPropertyOp51
 70
     0
102
RTVSPropertyOp52
 70
     0
102
RTVSPropertyOp53
 70
     1
102
RTVSPropertyOp54
 70
     1
102
RTVSPropertyOp55
 70
     1
102
RTVSPropertyOp56
 70
     1
102
RTVSPropertyOp57
 70
     1
102
RTVSPropertyOp58
 70
     1
102
RTVSPropertyOp59
 70
     1
102
RTVSPropertyOp60
 70
     1
102
RTVSPropertyOp61
 70
     1
102
RTVSPropertyOp62
 70
     1
  0
XRECORD
  5
B249
102
{ACAD_REACTORS
330
B248
102
}
330
B248
100
AcDbXrecord
280
     1
102
RTVSPost2010Prop28
280
     0
102
RTVSPost2010PropOp28
 70
     1
102
RTVSPost2010Prop29
280
     1
102
RTVSPost2010PropOp29
 70
     1
102
RTVSPost2010Prop30
280
     1
102
RTVSPost2010PropOp30
 70
     1
102
RTVSPost2010Prop31
280
     0
102
RTVSPost2010PropOp31
 70
     1
102
RTVSPost2010Prop32
280
     0
102
RTVSPost2010PropOp32
 70
     1
102
RTVSPost2010Prop33
280
     0
102
RTVSPost2010PropOp33
 70
     1
102
RTVSPost2010Prop34
280
     0
102
RTVSPost2010PropOp34
 70
     1
102
RTVSPost2010Prop35
280
     0
102
RTVSPost2010PropOp35
 70
     1
102
RTVSPost2010Prop36
280
     0
102
RTVSPost2010PropOp36
 70
     1
102
RTVSPost2010Prop37
 90
       50
102
RTVSPost2010PropOp37
 70
     1
102
RTVSPost2010Prop38
140
0.0
102
RTVSPost2010PropOp38
 70
     1
102
RTVSPost2010Prop39
140
1.0
102
RTVSPost2010PropOp39
 70
     1
102
RTVSPost2010Prop40
 90
        0
102
RTVSPost2010PropOp40
 70
     1
102
RTVSPost2010Prop41ColorIndex
 90
       18
102
RTVSPost2010Prop41ColorRGB
 90
        0
102
RTVSPost2010PropOp41
 70
     1
102
RTVSPost2010Prop42
 90
       50
102
RTVSPost2010PropOp42
 70
     1
102
RTVSPost2010Prop43
 90
        3
102
RTVSPost2010PropOp43
 70
     1
102
RTVSPost2010Prop44ColorIndex
 90
        5
102
RTVSPost2010Prop44ColorRGB
 90
      255
102
RTVSPost2010PropOp44
 70
     1
102
RTVSPost2010Prop45
280
     0
102
RTVSPost2010PropOp45
 70
     1
102
RTVSPost2010Prop46
 90
       50
102
RTVSPost2010PropOp46
 70
     1
102
RTVSPost2010Prop47
 90
       50
102
RTVSPost2010PropOp47
 70
     1
102
RTVSPost2010Prop48
 90
       50
102
RTVSPost2010PropOp48
 70
     1
102
RTVSPost2010Prop49
280
     0
102
RTVSPost2010PropOp49
 70
     1
102
RTVSPost2010Prop50
 90
       50
102
RTVSPost2010PropOp50
 70
     1
102
RTVSPost2010Prop51ColorIndex
 90
      256
102
RTVSPost2010Prop51ColorRGB
 90
-16777216
102
RTVSPost2010PropOp51
 70
     0
102
RTVSPost2010Prop52
140
1.0
102
RTVSPost2010PropOp52
 70
     0
102
RTVSPost2010Prop53
 90
        2
102
RTVSPost2010PropOp53
 70
     1
102
RTVSPost2010Prop54
  1
strokes_ogs.tif
102
RTVSPost2010PropOp54
 70
     1
102
RTVSPost2010Prop55
280
     0
102
RTVSPost2010PropOp55
 70
     1
102
RTVSPost2010Prop56
140
1.0
102
RTVSPost2010PropOp56
 70
     1
102
RTVSPost2010Prop57
140
1.0
102
RTVSPost2010PropOp57
 70
     1
102
RTVSPropertyOp0
 70
     1
102
RTVSPropertyOp1
 70
     1
102
RTVSPropertyOp2
 70
     1
102
RTVSPropertyOp3
 70
     1
102
RTVSPropertyOp4
 70
     1
102
RTVSPropertyOp5
 70
     1
102
RTVSPropertyOp6
 70
     1
102
RTVSPropertyOp7
 70
     1
102
RTVSPropertyOp8
 70
     1
102
RTVSPropertyOp9
 70
     1
102
RTVSPropertyOp10
 70
     1
102
RTVSPropertyOp11
 70
     1
102
RTVSPropertyOp12
 70
     1
102
RTVSPropertyOp13
 70
     1
102
RTVSPropertyOp14
 70
     1
102
RTVSPropertyOp15
 70
     1
102
RTVSPropertyOp16
 70
     1
102
RTVSPropertyOp17
 70
     1
102
RTVSPropertyOp18
 70
     1
102
RTVSPropertyOp19
 70
     1
102
RTVSPropertyOp20
 70
     1
102
RTVSPropertyOp21
 70
     1
102
RTVSPropertyOp22
 70
     1
102
RTVSPropertyOp23
 70
     1
102
RTVSPropertyOp24
 70
     1
102
RTVSPropertyOp25
 70
     1
102
RTVSPropertyOp26
 70
     1
102
RTVSPropertyOp27
 70
     1
102
RTVSPropertyOp28
 70
     1
102
RTVSPropertyOp29
 70
     1
102
RTVSPropertyOp30
 70
     1
102
RTVSPropertyOp31
 70
     1
102
RTVSPropertyOp32
 70
     1
102
RTVSPropertyOp33
 70
     1
102
RTVSPropertyOp34
 70
     1
102
RTVSPropertyOp35
 70
     1
102
RTVSPropertyOp36
 70
     1
102
RTVSPropertyOp37
 70
     1
102
RTVSPropertyOp38
 70
     1
102
RTVSPropertyOp39
 70
     1
102
RTVSPropertyOp40
 70
     1
102
RTVSPropertyOp41
 70
     1
102
RTVSPropertyOp42
 70
     1
102
RTVSPropertyOp43
 70
     1
102
RTVSPropertyOp44
 70
     1
102
RTVSPropertyOp45
 70
     1
102
RTVSPropertyOp46
 70
     1
102
RTVSPropertyOp47
 70
     1
102
RTVSPropertyOp48
 70
     1
102
RTVSPropertyOp49
 70
     1
102
RTVSPropertyOp50
 70
     1
102
RTVSPropertyOp51
 70
     0
102
RTVSPropertyOp52
 70
     0
102
RTVSPropertyOp53
 70
     1
102
RTVSPropertyOp54
 70
     1
102
RTVSPropertyOp55
 70
     1
102
RTVSPropertyOp56
 70
     1
102
RTVSPropertyOp57
 70
     1
102
RTVSPropertyOp58
 70
     1
102
RTVSPropertyOp59
 70
     1
102
RTVSPropertyOp60
 70
     1
102
RTVSPropertyOp61
 70
     1
102
RTVSPropertyOp62
 70
     1
  0
XRECORD
  5
B265
102
{ACAD_REACTORS
330
B264
102
}
330
B264
100
AcDbXrecord
280
     1
102
RTVSPost2010Prop28
280
     0
102
RTVSPost2010PropOp28
 70
     1
102
RTVSPost2010Prop29
280
     1
102
RTVSPost2010PropOp29
 70
     1
102
RTVSPost2010Prop30
280
     1
102
RTVSPost2010PropOp30
 70
     1
102
RTVSPost2010Prop31
280
     0
102
RTVSPost2010PropOp31
 70
     1
102
RTVSPost2010Prop32
280
     0
102
RTVSPost2010PropOp32
 70
     1
102
RTVSPost2010Prop33
280
     0
102
RTVSPost2010PropOp33
 70
     1
102
RTVSPost2010Prop34
280
     0
102
RTVSPost2010PropOp34
 70
     1
102
RTVSPost2010Prop35
280
     0
102
RTVSPost2010PropOp35
 70
     1
102
RTVSPost2010Prop36
280
     0
102
RTVSPost2010PropOp36
 70
     1
102
RTVSPost2010Prop37
 90
       50
102
RTVSPost2010PropOp37
 70
     0
102
RTVSPost2010Prop38
140
0.0
102
RTVSPost2010PropOp38
 70
     0
102
RTVSPost2010Prop39
140
1.0
102
RTVSPost2010PropOp39
 70
     0
102
RTVSPost2010Prop40
 90
        0
102
RTVSPost2010PropOp40
 70
     0
102
RTVSPost2010Prop41ColorIndex
 90
       18
102
RTVSPost2010Prop41ColorRGB
 90
        0
102
RTVSPost2010PropOp41
 70
     0
102
RTVSPost2010Prop42
 90
       50
102
RTVSPost2010PropOp42
 70
     0
102
RTVSPost2010Prop43
 90
        3
102
RTVSPost2010PropOp43
 70
     0
102
RTVSPost2010Prop44ColorIndex
 90
        5
102
RTVSPost2010Prop44ColorRGB
 90
      255
102
RTVSPost2010PropOp44
 70
     0
102
RTVSPost2010Prop45
280
     0
102
RTVSPost2010PropOp45
 70
     1
102
RTVSPost2010Prop46
 90
       50
102
RTVSPost2010PropOp46
 70
     0
102
RTVSPost2010Prop47
 90
       50
102
RTVSPost2010PropOp47
 70
     0
102
RTVSPost2010Prop48
 90
       50
102
RTVSPost2010PropOp48
 70
     0
102
RTVSPost2010Prop49
280
     0
102
RTVSPost2010PropOp49
 70
     1
102
RTVSPost2010Prop50
 90
       50
102
RTVSPost2010PropOp50
 70
     0
102
RTVSPost2010Prop51ColorIndex
 90
      256
102
RTVSPost2010Prop51ColorRGB
 90
-16777216
102
RTVSPost2010PropOp51
 70
     0
102
RTVSPost2010Prop52
140
1.0
102
RTVSPost2010PropOp52
 70
     0
102
RTVSPost2010Prop53
 90
        2
102
RTVSPost2010PropOp53
 70
     0
102
RTVSPost2010Prop54
  1
strokes_ogs.tif
102
RTVSPost2010PropOp54
 70
     0
102
RTVSPost2010Prop55
280
     0
102
RTVSPost2010PropOp55
 70
     1
102
RTVSPost2010Prop56
140
1.0
102
RTVSPost2010PropOp56
 70
     0
102
RTVSPost2010Prop57
140
1.0
102
RTVSPost2010PropOp57
 70
     0
102
RTVSPropertyOp0
 70
     0
102
RTVSPropertyOp1
 70
     0
102
RTVSPropertyOp2
 70
     0
102
RTVSPropertyOp3
 70
     0
102
RTVSPropertyOp4
 70
     0
102
RTVSPropertyOp5
 70
     0
102
RTVSPropertyOp6
 70
     0
102
RTVSPropertyOp7
 70
     0
102
RTVSPropertyOp8
 70
     0
102
RTVSPropertyOp9
 70
     0
102
RTVSPropertyOp10
 70
     0
102
RTVSPropertyOp11
 70
     0
102
RTVSPropertyOp12
 70
     0
102
RTVSPropertyOp13
 70
     0
102
RTVSPropertyOp14
 70
     2
102
RTVSPropertyOp15
 70
     0
102
RTVSPropertyOp16
 70
     0
102
RTVSPropertyOp17
 70
     0
102
RTVSPropertyOp18
 70
     0
102
RTVSPropertyOp19
 70
     0
102
RTVSPropertyOp20
 70
     0
102
RTVSPropertyOp21
 70
     0
102
RTVSPropertyOp22
 70
     0
102
RTVSPropertyOp23
 70
     0
102
RTVSPropertyOp24
 70
     0
102
RTVSPropertyOp25
 70
     0
102
RTVSPropertyOp26
 70
     0
102
RTVSPropertyOp27
 70
     0
102
RTVSPropertyOp28
 70
     1
102
RTVSPropertyOp29
 70
     1
102
RTVSPropertyOp30
 70
     1
102
RTVSPropertyOp31
 70
     1
102
RTVSPropertyOp32
 70
     1
102
RTVSPropertyOp33
 70
     1
102
RTVSPropertyOp34
 70
     1
102
RTVSPropertyOp35
 70
     1
102
RTVSPropertyOp36
 70
     1
102
RTVSPropertyOp37
 70
     0
102
RTVSPropertyOp38
 70
     0
102
RTVSPropertyOp39
 70
     0
102
RTVSPropertyOp40
 70
     0
102
RTVSPropertyOp41
 70
     0
102
RTVSPropertyOp42
 70
     0
102
RTVSPropertyOp43
 70
     0
102
RTVSPropertyOp44
 70
     0
102
RTVSPropertyOp45
 70
     1
102
RTVSPropertyOp46
 70
     0
102
RTVSPropertyOp47
 70
     0
102
RTVSPropertyOp48
 70
     0
102
RTVSPropertyOp49
 70
     1
102
RTVSPropertyOp50
 70
     0
102
RTVSPropertyOp51
 70
     0
102
RTVSPropertyOp52
 70
     0
102
RTVSPropertyOp53
 70
     0
102
RTVSPropertyOp54
 70
     0
102
RTVSPropertyOp55
 70
     1
102
RTVSPropertyOp56
 70
     0
102
RTVSPropertyOp57
 70
     0
102
RTVSPropertyOp58
 70
     0
102
RTVSPropertyOp59
 70
     0
102
RTVSPropertyOp60
 70
     0
102
RTVSPropertyOp61
 70
     0
102
RTVSPropertyOp62
 70
     0
  0
XRECORD
  5
B255
102
{ACAD_REACTORS
330
B254
102
}
330
B254
100
AcDbXrecord
280
     1
102
RTVSPost2010Prop28
280
     0
102
RTVSPost2010PropOp28
 70
     1
102
RTVSPost2010Prop29
280
     1
102
RTVSPost2010PropOp29
 70
     1
102
RTVSPost2010Prop30
280
     1
102
RTVSPost2010PropOp30
 70
     1
102
RTVSPost2010Prop31
280
     0
102
RTVSPost2010PropOp31
 70
     1
102
RTVSPost2010Prop32
280
     0
102
RTVSPost2010PropOp32
 70
     1
102
RTVSPost2010Prop33
280
     0
102
RTVSPost2010PropOp33
 70
     1
102
RTVSPost2010Prop34
280
     0
102
RTVSPost2010PropOp34
 70
     1
102
RTVSPost2010Prop35
280
     0
102
RTVSPost2010PropOp35
 70
     1
102
RTVSPost2010Prop36
280
     0
102
RTVSPost2010PropOp36
 70
     1
102
RTVSPost2010Prop37
 90
       50
102
RTVSPost2010PropOp37
 70
     1
102
RTVSPost2010Prop38
140
0.0
102
RTVSPost2010PropOp38
 70
     1
102
RTVSPost2010Prop39
140
1.0
102
RTVSPost2010PropOp39
 70
     1
102
RTVSPost2010Prop40
 90
        0
102
RTVSPost2010PropOp40
 70
     1
102
RTVSPost2010Prop41ColorIndex
 90
       18
102
RTVSPost2010Prop41ColorRGB
 90
        0
102
RTVSPost2010PropOp41
 70
     1
102
RTVSPost2010Prop42
 90
       50
102
RTVSPost2010PropOp42
 70
     1
102
RTVSPost2010Prop43
 90
        3
102
RTVSPost2010PropOp43
 70
     1
102
RTVSPost2010Prop44ColorIndex
 90
        5
102
RTVSPost2010Prop44ColorRGB
 90
      255
102
RTVSPost2010PropOp44
 70
     1
102
RTVSPost2010Prop45
280
     0
102
RTVSPost2010PropOp45
 70
     1
102
RTVSPost2010Prop46
 90
       50
102
RTVSPost2010PropOp46
 70
     1
102
RTVSPost2010Prop47
 90
       50
102
RTVSPost2010PropOp47
 70
     1
102
RTVSPost2010Prop48
 90
       50
102
RTVSPost2010PropOp48
 70
     1
102
RTVSPost2010Prop49
280
     0
102
RTVSPost2010PropOp49
 70
     1
102
RTVSPost2010Prop50
 90
       50
102
RTVSPost2010PropOp50
 70
     1
102
RTVSPost2010Prop51ColorIndex
 90
      256
102
RTVSPost2010Prop51ColorRGB
 90
-16777216
102
RTVSPost2010PropOp51
 70
     0
102
RTVSPost2010Prop52
140
1.0
102
RTVSPost2010PropOp52
 70
     0
102
RTVSPost2010Prop53
 90
        2
102
RTVSPost2010PropOp53
 70
     1
102
RTVSPost2010Prop54
  1
strokes_ogs.tif
102
RTVSPost2010PropOp54
 70
     1
102
RTVSPost2010Prop55
280
     0
102
RTVSPost2010PropOp55
 70
     1
102
RTVSPost2010Prop56
140
1.0
102
RTVSPost2010PropOp56
 70
     1
102
RTVSPost2010Prop57
140
1.0
102
RTVSPost2010PropOp57
 70
     1
102
RTVSPropertyOp0
 70
     1
102
RTVSPropertyOp1
 70
     1
102
RTVSPropertyOp2
 70
     1
102
RTVSPropertyOp3
 70
     1
102
RTVSPropertyOp4
 70
     1
102
RTVSPropertyOp5
 70
     1
102
RTVSPropertyOp6
 70
     1
102
RTVSPropertyOp7
 70
     1
102
RTVSPropertyOp8
 70
     1
102
RTVSPropertyOp9
 70
     1
102
RTVSPropertyOp10
 70
     1
102
RTVSPropertyOp11
 70
     1
102
RTVSPropertyOp12
 70
     1
102
RTVSPropertyOp13
 70
     1
102
RTVSPropertyOp14
 70
     1
102
RTVSPropertyOp15
 70
     1
102
RTVSPropertyOp16
 70
     1
102
RTVSPropertyOp17
 70
     1
102
RTVSPropertyOp18
 70
     1
102
RTVSPropertyOp19
 70
     1
102
RTVSPropertyOp20
 70
     1
102
RTVSPropertyOp21
 70
     1
102
RTVSPropertyOp22
 70
     1
102
RTVSPropertyOp23
 70
     1
102
RTVSPropertyOp24
 70
     1
102
RTVSPropertyOp25
 70
     1
102
RTVSPropertyOp26
 70
     1
102
RTVSPropertyOp27
 70
     1
102
RTVSPropertyOp28
 70
     1
102
RTVSPropertyOp29
 70
     1
102
RTVSPropertyOp30
 70
     1
102
RTVSPropertyOp31
 70
     1
102
RTVSPropertyOp32
 70
     1
102
RTVSPropertyOp33
 70
     1
102
RTVSPropertyOp34
 70
     1
102
RTVSPropertyOp35
 70
     1
102
RTVSPropertyOp36
 70
     1
102
RTVSPropertyOp37
 70
     1
102
RTVSPropertyOp38
 70
     1
102
RTVSPropertyOp39
 70
     1
102
RTVSPropertyOp40
 70
     1
102
RTVSPropertyOp41
 70
     1
102
RTVSPropertyOp42
 70
     1
102
RTVSPropertyOp43
 70
     1
102
RTVSPropertyOp44
 70
     1
102
RTVSPropertyOp45
 70
     1
102
RTVSPropertyOp46
 70
     1
102
RTVSPropertyOp47
 70
     1
102
RTVSPropertyOp48
 70
     1
102
RTVSPropertyOp49
 70
     1
102
RTVSPropertyOp50
 70
     1
102
RTVSPropertyOp51
 70
     0
102
RTVSPropertyOp52
 70
     0
102
RTVSPropertyOp53
 70
     1
102
RTVSPropertyOp54
 70
     1
102
RTVSPropertyOp55
 70
     1
102
RTVSPropertyOp56
 70
     1
102
RTVSPropertyOp57
 70
     1
102
RTVSPropertyOp58
 70
     1
102
RTVSPropertyOp59
 70
     1
102
RTVSPropertyOp60
 70
     1
102
RTVSPropertyOp61
 70
     1
102
RTVSPropertyOp62
 70
     1
  0
XRECORD
  5
B267
102
{ACAD_REACTORS
330
B266
102
}
330
B266
100
AcDbXrecord
280
     1
102
RTVSPost2010Prop28
280
     0
102
RTVSPost2010PropOp28
 70
     1
102
RTVSPost2010Prop29
280
     1
102
RTVSPost2010PropOp29
 70
     1
102
RTVSPost2010Prop30
280
     1
102
RTVSPost2010PropOp30
 70
     1
102
RTVSPost2010Prop31
280
     0
102
RTVSPost2010PropOp31
 70
     1
102
RTVSPost2010Prop32
280
     0
102
RTVSPost2010PropOp32
 70
     1
102
RTVSPost2010Prop33
280
     0
102
RTVSPost2010PropOp33
 70
     1
102
RTVSPost2010Prop34
280
     0
102
RTVSPost2010PropOp34
 70
     1
102
RTVSPost2010Prop35
280
     0
102
RTVSPost2010PropOp35
 70
     1
102
RTVSPost2010Prop36
280
     0
102
RTVSPost2010PropOp36
 70
     1
102
RTVSPost2010Prop37
 90
       50
102
RTVSPost2010PropOp37
 70
     0
102
RTVSPost2010Prop38
140
0.0
102
RTVSPost2010PropOp38
 70
     0
102
RTVSPost2010Prop39
140
1.0
102
RTVSPost2010PropOp39
 70
     0
102
RTVSPost2010Prop40
 90
        0
102
RTVSPost2010PropOp40
 70
     0
102
RTVSPost2010Prop41ColorIndex
 90
       18
102
RTVSPost2010Prop41ColorRGB
 90
        0
102
RTVSPost2010PropOp41
 70
     0
102
RTVSPost2010Prop42
 90
       50
102
RTVSPost2010PropOp42
 70
     0
102
RTVSPost2010Prop43
 90
        3
102
RTVSPost2010PropOp43
 70
     0
102
RTVSPost2010Prop44ColorIndex
 90
        5
102
RTVSPost2010Prop44ColorRGB
 90
      255
102
RTVSPost2010PropOp44
 70
     0
102
RTVSPost2010Prop45
280
     0
102
RTVSPost2010PropOp45
 70
     1
102
RTVSPost2010Prop46
 90
       50
102
RTVSPost2010PropOp46
 70
     0
102
RTVSPost2010Prop47
 90
       50
102
RTVSPost2010PropOp47
 70
     0
102
RTVSPost2010Prop48
 90
       50
102
RTVSPost2010PropOp48
 70
     0
102
RTVSPost2010Prop49
280
     0
102
RTVSPost2010PropOp49
 70
     1
102
RTVSPost2010Prop50
 90
       50
102
RTVSPost2010PropOp50
 70
     0
102
RTVSPost2010Prop51ColorIndex
 90
      256
102
RTVSPost2010Prop51ColorRGB
 90
-16777216
102
RTVSPost2010PropOp51
 70
     0
102
RTVSPost2010Prop52
140
1.0
102
RTVSPost2010PropOp52
 70
     0
102
RTVSPost2010Prop53
 90
        2
102
RTVSPost2010PropOp53
 70
     0
102
RTVSPost2010Prop54
  1
strokes_ogs.tif
102
RTVSPost2010PropOp54
 70
     0
102
RTVSPost2010Prop55
280
     0
102
RTVSPost2010PropOp55
 70
     1
102
RTVSPost2010Prop56
140
1.0
102
RTVSPost2010PropOp56
 70
     0
102
RTVSPost2010Prop57
140
1.0
102
RTVSPost2010PropOp57
 70
     0
102
RTVSPropertyOp0
 70
     0
102
RTVSPropertyOp1
 70
     0
102
RTVSPropertyOp2
 70
     0
102
RTVSPropertyOp3
 70
     0
102
RTVSPropertyOp4
 70
     0
102
RTVSPropertyOp5
 70
     0
102
RTVSPropertyOp6
 70
     0
102
RTVSPropertyOp7
 70
     0
102
RTVSPropertyOp8
 70
     0
102
RTVSPropertyOp9
 70
     0
102
RTVSPropertyOp10
 70
     0
102
RTVSPropertyOp11
 70
     0
102
RTVSPropertyOp12
 70
     0
102
RTVSPropertyOp13
 70
     0
102
RTVSPropertyOp14
 70
     2
102
RTVSPropertyOp15
 70
     0
102
RTVSPropertyOp16
 70
     0
102
RTVSPropertyOp17
 70
     0
102
RTVSPropertyOp18
 70
     0
102
RTVSPropertyOp19
 70
     0
102
RTVSPropertyOp20
 70
     0
102
RTVSPropertyOp21
 70
     0
102
RTVSPropertyOp22
 70
     0
102
RTVSPropertyOp23
 70
     0
102
RTVSPropertyOp24
 70
     0
102
RTVSPropertyOp25
 70
     0
102
RTVSPropertyOp26
 70
     0
102
RTVSPropertyOp27
 70
     0
102
RTVSPropertyOp28
 70
     1
102
RTVSPropertyOp29
 70
     1
102
RTVSPropertyOp30
 70
     1
102
RTVSPropertyOp31
 70
     1
102
RTVSPropertyOp32
 70
     1
102
RTVSPropertyOp33
 70
     1
102
RTVSPropertyOp34
 70
     1
102
RTVSPropertyOp35
 70
     1
102
RTVSPropertyOp36
 70
     1
102
RTVSPropertyOp37
 70
     0
102
RTVSPropertyOp38
 70
     0
102
RTVSPropertyOp39
 70
     0
102
RTVSPropertyOp40
 70
     0
102
RTVSPropertyOp41
 70
     0
102
RTVSPropertyOp42
 70
     0
102
RTVSPropertyOp43
 70
     0
102
RTVSPropertyOp44
 70
     0
102
RTVSPropertyOp45
 70
     1
102
RTVSPropertyOp46
 70
     0
102
RTVSPropertyOp47
 70
     0
102
RTVSPropertyOp48
 70
     0
102
RTVSPropertyOp49
 70
     1
102
RTVSPropertyOp50
 70
     0
102
RTVSPropertyOp51
 70
     0
102
RTVSPropertyOp52
 70
     0
102
RTVSPropertyOp53
 70
     0
102
RTVSPropertyOp54
 70
     0
102
RTVSPropertyOp55
 70
     1
102
RTVSPropertyOp56
 70
     0
102
RTVSPropertyOp57
 70
     0
102
RTVSPropertyOp58
 70
     0
102
RTVSPropertyOp59
 70
     0
102
RTVSPropertyOp60
 70
     0
102
RTVSPropertyOp61
 70
     0
102
RTVSPropertyOp62
 70
     0
  0
XRECORD
  5
B24D
102
{ACAD_REACTORS
330
B24C
102
}
330
B24C
100
AcDbXrecord
280
     1
102
RTVSPost2010Prop28
280
     0
102
RTVSPost2010PropOp28
 70
     1
102
RTVSPost2010Prop29
280
     1
102
RTVSPost2010PropOp29
 70
     1
102
RTVSPost2010Prop30
280
     1
102
RTVSPost2010PropOp30
 70
     1
102
RTVSPost2010Prop31
280
     0
102
RTVSPost2010PropOp31
 70
     1
102
RTVSPost2010Prop32
280
     0
102
RTVSPost2010PropOp32
 70
     1
102
RTVSPost2010Prop33
280
     0
102
RTVSPost2010PropOp33
 70
     1
102
RTVSPost2010Prop34
280
     0
102
RTVSPost2010PropOp34
 70
     1
102
RTVSPost2010Prop35
280
     0
102
RTVSPost2010PropOp35
 70
     1
102
RTVSPost2010Prop36
280
     0
102
RTVSPost2010PropOp36
 70
     1
102
RTVSPost2010Prop37
 90
       50
102
RTVSPost2010PropOp37
 70
     1
102
RTVSPost2010Prop38
140
0.0
102
RTVSPost2010PropOp38
 70
     1
102
RTVSPost2010Prop39
140
1.0
102
RTVSPost2010PropOp39
 70
     1
102
RTVSPost2010Prop40
 90
        0
102
RTVSPost2010PropOp40
 70
     1
102
RTVSPost2010Prop41ColorIndex
 90
       18
102
RTVSPost2010Prop41ColorRGB
 90
        0
102
RTVSPost2010PropOp41
 70
     1
102
RTVSPost2010Prop42
 90
       50
102
RTVSPost2010PropOp42
 70
     1
102
RTVSPost2010Prop43
 90
        3
102
RTVSPost2010PropOp43
 70
     1
102
RTVSPost2010Prop44ColorIndex
 90
        5
102
RTVSPost2010Prop44ColorRGB
 90
      255
102
RTVSPost2010PropOp44
 70
     1
102
RTVSPost2010Prop45
280
     0
102
RTVSPost2010PropOp45
 70
     1
102
RTVSPost2010Prop46
 90
       50
102
RTVSPost2010PropOp46
 70
     1
102
RTVSPost2010Prop47
 90
       50
102
RTVSPost2010PropOp47
 70
     1
102
RTVSPost2010Prop48
 90
       50
102
RTVSPost2010PropOp48
 70
     1
102
RTVSPost2010Prop49
280
     0
102
RTVSPost2010PropOp49
 70
     1
102
RTVSPost2010Prop50
 90
       50
102
RTVSPost2010PropOp50
 70
     1
102
RTVSPost2010Prop51ColorIndex
 90
      256
102
RTVSPost2010Prop51ColorRGB
 90
-16777216
102
RTVSPost2010PropOp51
 70
     0
102
RTVSPost2010Prop52
140
1.0
102
RTVSPost2010PropOp52
 70
     0
102
RTVSPost2010Prop53
 90
        2
102
RTVSPost2010PropOp53
 70
     1
102
RTVSPost2010Prop54
  1
strokes_ogs.tif
102
RTVSPost2010PropOp54
 70
     1
102
RTVSPost2010Prop55
280
     0
102
RTVSPost2010PropOp55
 70
     1
102
RTVSPost2010Prop56
140
1.0
102
RTVSPost2010PropOp56
 70
     1
102
RTVSPost2010Prop57
140
1.0
102
RTVSPost2010PropOp57
 70
     1
102
RTVSPropertyOp0
 70
     1
102
RTVSPropertyOp1
 70
     1
102
RTVSPropertyOp2
 70
     1
102
RTVSPropertyOp3
 70
     1
102
RTVSPropertyOp4
 70
     1
102
RTVSPropertyOp5
 70
     1
102
RTVSPropertyOp6
 70
     1
102
RTVSPropertyOp7
 70
     1
102
RTVSPropertyOp8
 70
     1
102
RTVSPropertyOp9
 70
     1
102
RTVSPropertyOp10
 70
     1
102
RTVSPropertyOp11
 70
     1
102
RTVSPropertyOp12
 70
     1
102
RTVSPropertyOp13
 70
     1
102
RTVSPropertyOp14
 70
     1
102
RTVSPropertyOp15
 70
     1
102
RTVSPropertyOp16
 70
     1
102
RTVSPropertyOp17
 70
     1
102
RTVSPropertyOp18
 70
     1
102
RTVSPropertyOp19
 70
     1
102
RTVSPropertyOp20
 70
     1
102
RTVSPropertyOp21
 70
     1
102
RTVSPropertyOp22
 70
     1
102
RTVSPropertyOp23
 70
     1
102
RTVSPropertyOp24
 70
     1
102
RTVSPropertyOp25
 70
     1
102
RTVSPropertyOp26
 70
     1
102
RTVSPropertyOp27
 70
     1
102
RTVSPropertyOp28
 70
     1
102
RTVSPropertyOp29
 70
     1
102
RTVSPropertyOp30
 70
     1
102
RTVSPropertyOp31
 70
     1
102
RTVSPropertyOp32
 70
     1
102
RTVSPropertyOp33
 70
     1
102
RTVSPropertyOp34
 70
     1
102
RTVSPropertyOp35
 70
     1
102
RTVSPropertyOp36
 70
     1
102
RTVSPropertyOp37
 70
     1
102
RTVSPropertyOp38
 70
     1
102
RTVSPropertyOp39
 70
     1
102
RTVSPropertyOp40
 70
     1
102
RTVSPropertyOp41
 70
     1
102
RTVSPropertyOp42
 70
     1
102
RTVSPropertyOp43
 70
     1
102
RTVSPropertyOp44
 70
     1
102
RTVSPropertyOp45
 70
     1
102
RTVSPropertyOp46
 70
     1
102
RTVSPropertyOp47
 70
     1
102
RTVSPropertyOp48
 70
     1
102
RTVSPropertyOp49
 70
     1
102
RTVSPropertyOp50
 70
     1
102
RTVSPropertyOp51
 70
     0
102
RTVSPropertyOp52
 70
     0
102
RTVSPropertyOp53
 70
     1
102
RTVSPropertyOp54
 70
     1
102
RTVSPropertyOp55
 70
     1
102
RTVSPropertyOp56
 70
     1
102
RTVSPropertyOp57
 70
     1
102
RTVSPropertyOp58
 70
     1
102
RTVSPropertyOp59
 70
     1
102
RTVSPropertyOp60
 70
     1
102
RTVSPropertyOp61
 70
     1
102
RTVSPropertyOp62
 70
     1
  0
XRECORD
  5
B263
102
{ACAD_REACTORS
330
B262
102
}
330
B262
100
AcDbXrecord
280
     1
102
RTVSPost2010Prop28
280
     0
102
RTVSPost2010PropOp28
 70
     1
102
RTVSPost2010Prop29
280
     1
102
RTVSPost2010PropOp29
 70
     1
102
RTVSPost2010Prop30
280
     1
102
RTVSPost2010PropOp30
 70
     1
102
RTVSPost2010Prop31
280
     0
102
RTVSPost2010PropOp31
 70
     1
102
RTVSPost2010Prop32
280
     0
102
RTVSPost2010PropOp32
 70
     1
102
RTVSPost2010Prop33
280
     0
102
RTVSPost2010PropOp33
 70
     1
102
RTVSPost2010Prop34
280
     0
102
RTVSPost2010PropOp34
 70
     1
102
RTVSPost2010Prop35
280
     0
102
RTVSPost2010PropOp35
 70
     1
102
RTVSPost2010Prop36
280
     0
102
RTVSPost2010PropOp36
 70
     1
102
RTVSPost2010Prop37
 90
       50
102
RTVSPost2010PropOp37
 70
     1
102
RTVSPost2010Prop38
140
0.0
102
RTVSPost2010PropOp38
 70
     1
102
RTVSPost2010Prop39
140
1.0
102
RTVSPost2010PropOp39
 70
     1
102
RTVSPost2010Prop40
 90
        0
102
RTVSPost2010PropOp40
 70
     1
102
RTVSPost2010Prop41ColorIndex
 90
       18
102
RTVSPost2010Prop41ColorRGB
 90
        0
102
RTVSPost2010PropOp41
 70
     1
102
RTVSPost2010Prop42
 90
       50
102
RTVSPost2010PropOp42
 70
     1
102
RTVSPost2010Prop43
 90
        3
102
RTVSPost2010PropOp43
 70
     1
102
RTVSPost2010Prop44ColorIndex
 90
        5
102
RTVSPost2010Prop44ColorRGB
 90
      255
102
RTVSPost2010PropOp44
 70
     1
102
RTVSPost2010Prop45
280
     0
102
RTVSPost2010PropOp45
 70
     1
102
RTVSPost2010Prop46
 90
       50
102
RTVSPost2010PropOp46
 70
     1
102
RTVSPost2010Prop47
 90
       50
102
RTVSPost2010PropOp47
 70
     1
102
RTVSPost2010Prop48
 90
       50
102
RTVSPost2010PropOp48
 70
     1
102
RTVSPost2010Prop49
280
     0
102
RTVSPost2010PropOp49
 70
     1
102
RTVSPost2010Prop50
 90
       50
102
RTVSPost2010PropOp50
 70
     1
102
RTVSPost2010Prop51ColorIndex
 90
      256
102
RTVSPost2010Prop51ColorRGB
 90
-16777216
102
RTVSPost2010PropOp51
 70
     0
102
RTVSPost2010Prop52
140
1.0
102
RTVSPost2010PropOp52
 70
     0
102
RTVSPost2010Prop53
 90
        2
102
RTVSPost2010PropOp53
 70
     1
102
RTVSPost2010Prop54
  1
strokes_ogs.tif
102
RTVSPost2010PropOp54
 70
     1
102
RTVSPost2010Prop55
280
     0
102
RTVSPost2010PropOp55
 70
     1
102
RTVSPost2010Prop56
140
1.0
102
RTVSPost2010PropOp56
 70
     1
102
RTVSPost2010Prop57
140
1.0
102
RTVSPost2010PropOp57
 70
     1
102
RTVSPropertyOp0
 70
     1
102
RTVSPropertyOp1
 70
     1
102
RTVSPropertyOp2
 70
     1
102
RTVSPropertyOp3
 70
     1
102
RTVSPropertyOp4
 70
     1
102
RTVSPropertyOp5
 70
     1
102
RTVSPropertyOp6
 70
     1
102
RTVSPropertyOp7
 70
     1
102
RTVSPropertyOp8
 70
     1
102
RTVSPropertyOp9
 70
     1
102
RTVSPropertyOp10
 70
     1
102
RTVSPropertyOp11
 70
     1
102
RTVSPropertyOp12
 70
     1
102
RTVSPropertyOp13
 70
     1
102
RTVSPropertyOp14
 70
     1
102
RTVSPropertyOp15
 70
     1
102
RTVSPropertyOp16
 70
     1
102
RTVSPropertyOp17
 70
     1
102
RTVSPropertyOp18
 70
     1
102
RTVSPropertyOp19
 70
     1
102
RTVSPropertyOp20
 70
     1
102
RTVSPropertyOp21
 70
     1
102
RTVSPropertyOp22
 70
     1
102
RTVSPropertyOp23
 70
     1
102
RTVSPropertyOp24
 70
     1
102
RTVSPropertyOp25
 70
     1
102
RTVSPropertyOp26
 70
     1
102
RTVSPropertyOp27
 70
     1
102
RTVSPropertyOp28
 70
     1
102
RTVSPropertyOp29
 70
     1
102
RTVSPropertyOp30
 70
     1
102
RTVSPropertyOp31
 70
     1
102
RTVSPropertyOp32
 70
     1
102
RTVSPropertyOp33
 70
     1
102
RTVSPropertyOp34
 70
     1
102
RTVSPropertyOp35
 70
     1
102
RTVSPropertyOp36
 70
     1
102
RTVSPropertyOp37
 70
     1
102
RTVSPropertyOp38
 70
     1
102
RTVSPropertyOp39
 70
     1
102
RTVSPropertyOp40
 70
     1
102
RTVSPropertyOp41
 70
     1
102
RTVSPropertyOp42
 70
     1
102
RTVSPropertyOp43
 70
     1
102
RTVSPropertyOp44
 70
     1
102
RTVSPropertyOp45
 70
     1
102
RTVSPropertyOp46
 70
     1
102
RTVSPropertyOp47
 70
     1
102
RTVSPropertyOp48
 70
     1
102
RTVSPropertyOp49
 70
     1
102
RTVSPropertyOp50
 70
     1
102
RTVSPropertyOp51
 70
     0
102
RTVSPropertyOp52
 70
     0
102
RTVSPropertyOp53
 70
     1
102
RTVSPropertyOp54
 70
     1
102
RTVSPropertyOp55
 70
     1
102
RTVSPropertyOp56
 70
     1
102
RTVSPropertyOp57
 70
     1
102
RTVSPropertyOp58
 70
     1
102
RTVSPropertyOp59
 70
     1
102
RTVSPropertyOp60
 70
     1
102
RTVSPropertyOp61
 70
     1
102
RTVSPropertyOp62
 70
     1
  0
XRECORD
  5
B261
102
{ACAD_REACTORS
330
B260
102
}
330
B260
100
AcDbXrecord
280
     1
102
RTVSPost2010Prop28
280
     0
102
RTVSPost2010PropOp28
 70
     1
102
RTVSPost2010Prop29
280
     1
102
RTVSPost2010PropOp29
 70
     1
102
RTVSPost2010Prop30
280
     1
102
RTVSPost2010PropOp30
 70
     1
102
RTVSPost2010Prop31
280
     0
102
RTVSPost2010PropOp31
 70
     1
102
RTVSPost2010Prop32
280
     0
102
RTVSPost2010PropOp32
 70
     1
102
RTVSPost2010Prop33
280
     0
102
RTVSPost2010PropOp33
 70
     1
102
RTVSPost2010Prop34
280
     0
102
RTVSPost2010PropOp34
 70
     1
102
RTVSPost2010Prop35
280
     0
102
RTVSPost2010PropOp35
 70
     1
102
RTVSPost2010Prop36
280
     0
102
RTVSPost2010PropOp36
 70
     1
102
RTVSPost2010Prop37
 90
       50
102
RTVSPost2010PropOp37
 70
     1
102
RTVSPost2010Prop38
140
0.0
102
RTVSPost2010PropOp38
 70
     1
102
RTVSPost2010Prop39
140
1.0
102
RTVSPost2010PropOp39
 70
     1
102
RTVSPost2010Prop40
 90
        0
102
RTVSPost2010PropOp40
 70
     1
102
RTVSPost2010Prop41ColorIndex
 90
       18
102
RTVSPost2010Prop41ColorRGB
 90
        0
102
RTVSPost2010PropOp41
 70
     1
102
RTVSPost2010Prop42
 90
       50
102
RTVSPost2010PropOp42
 70
     1
102
RTVSPost2010Prop43
 90
        3
102
RTVSPost2010PropOp43
 70
     1
102
RTVSPost2010Prop44ColorIndex
 90
        5
102
RTVSPost2010Prop44ColorRGB
 90
      255
102
RTVSPost2010PropOp44
 70
     1
102
RTVSPost2010Prop45
280
     0
102
RTVSPost2010PropOp45
 70
     1
102
RTVSPost2010Prop46
 90
       50
102
RTVSPost2010PropOp46
 70
     1
102
RTVSPost2010Prop47
 90
       50
102
RTVSPost2010PropOp47
 70
     1
102
RTVSPost2010Prop48
 90
       50
102
RTVSPost2010PropOp48
 70
     1
102
RTVSPost2010Prop49
280
     0
102
RTVSPost2010PropOp49
 70
     1
102
RTVSPost2010Prop50
 90
       50
102
RTVSPost2010PropOp50
 70
     1
102
RTVSPost2010Prop51ColorIndex
 90
      256
102
RTVSPost2010Prop51ColorRGB
 90
-16777216
102
RTVSPost2010PropOp51
 70
     0
102
RTVSPost2010Prop52
140
1.0
102
RTVSPost2010PropOp52
 70
     0
102
RTVSPost2010Prop53
 90
        2
102
RTVSPost2010PropOp53
 70
     1
102
RTVSPost2010Prop54
  1
strokes_ogs.tif
102
RTVSPost2010PropOp54
 70
     1
102
RTVSPost2010Prop55
280
     0
102
RTVSPost2010PropOp55
 70
     1
102
RTVSPost2010Prop56
140
1.0
102
RTVSPost2010PropOp56
 70
     1
102
RTVSPost2010Prop57
140
1.0
102
RTVSPost2010PropOp57
 70
     1
102
RTVSPropertyOp0
 70
     1
102
RTVSPropertyOp1
 70
     1
102
RTVSPropertyOp2
 70
     1
102
RTVSPropertyOp3
 70
     1
102
RTVSPropertyOp4
 70
     1
102
RTVSPropertyOp5
 70
     1
102
RTVSPropertyOp6
 70
     1
102
RTVSPropertyOp7
 70
     1
102
RTVSPropertyOp8
 70
     1
102
RTVSPropertyOp9
 70
     1
102
RTVSPropertyOp10
 70
     1
102
RTVSPropertyOp11
 70
     1
102
RTVSPropertyOp12
 70
     1
102
RTVSPropertyOp13
 70
     1
102
RTVSPropertyOp14
 70
     1
102
RTVSPropertyOp15
 70
     1
102
RTVSPropertyOp16
 70
     1
102
RTVSPropertyOp17
 70
     1
102
RTVSPropertyOp18
 70
     1
102
RTVSPropertyOp19
 70
     1
102
RTVSPropertyOp20
 70
     1
102
RTVSPropertyOp21
 70
     1
102
RTVSPropertyOp22
 70
     1
102
RTVSPropertyOp23
 70
     1
102
RTVSPropertyOp24
 70
     1
102
RTVSPropertyOp25
 70
     1
102
RTVSPropertyOp26
 70
     1
102
RTVSPropertyOp27
 70
     1
102
RTVSPropertyOp28
 70
     1
102
RTVSPropertyOp29
 70
     1
102
RTVSPropertyOp30
 70
     1
102
RTVSPropertyOp31
 70
     1
102
RTVSPropertyOp32
 70
     1
102
RTVSPropertyOp33
 70
     1
102
RTVSPropertyOp34
 70
     1
102
RTVSPropertyOp35
 70
     1
102
RTVSPropertyOp36
 70
     1
102
RTVSPropertyOp37
 70
     1
102
RTVSPropertyOp38
 70
     1
102
RTVSPropertyOp39
 70
     1
102
RTVSPropertyOp40
 70
     1
102
RTVSPropertyOp41
 70
     1
102
RTVSPropertyOp42
 70
     1
102
RTVSPropertyOp43
 70
     1
102
RTVSPropertyOp44
 70
     1
102
RTVSPropertyOp45
 70
     1
102
RTVSPropertyOp46
 70
     1
102
RTVSPropertyOp47
 70
     1
102
RTVSPropertyOp48
 70
     1
102
RTVSPropertyOp49
 70
     1
102
RTVSPropertyOp50
 70
     1
102
RTVSPropertyOp51
 70
     0
102
RTVSPropertyOp52
 70
     0
102
RTVSPropertyOp53
 70
     1
102
RTVSPropertyOp54
 70
     1
102
RTVSPropertyOp55
 70
     1
102
RTVSPropertyOp56
 70
     1
102
RTVSPropertyOp57
 70
     1
102
RTVSPropertyOp58
 70
     1
102
RTVSPropertyOp59
 70
     1
102
RTVSPropertyOp60
 70
     1
102
RTVSPropertyOp61
 70
     1
102
RTVSPropertyOp62
 70
     1
  0
XRECORD
  5
B25B
102
{ACAD_REACTORS
330
B25A
102
}
330
B25A
100
AcDbXrecord
280
     1
102
RTVSPost2010Prop28
280
     0
102
RTVSPost2010PropOp28
 70
     1
102
RTVSPost2010Prop29
280
     1
102
RTVSPost2010PropOp29
 70
     1
102
RTVSPost2010Prop30
280
     1
102
RTVSPost2010PropOp30
 70
     1
102
RTVSPost2010Prop31
280
     0
102
RTVSPost2010PropOp31
 70
     1
102
RTVSPost2010Prop32
280
     0
102
RTVSPost2010PropOp32
 70
     1
102
RTVSPost2010Prop33
280
     0
102
RTVSPost2010PropOp33
 70
     1
102
RTVSPost2010Prop34
280
     0
102
RTVSPost2010PropOp34
 70
     1
102
RTVSPost2010Prop35
280
     0
102
RTVSPost2010PropOp35
 70
     1
102
RTVSPost2010Prop36
280
     0
102
RTVSPost2010PropOp36
 70
     1
102
RTVSPost2010Prop37
 90
       50
102
RTVSPost2010PropOp37
 70
     1
102
RTVSPost2010Prop38
140
0.0
102
RTVSPost2010PropOp38
 70
     1
102
RTVSPost2010Prop39
140
1.0
102
RTVSPost2010PropOp39
 70
     1
102
RTVSPost2010Prop40
 90
        0
102
RTVSPost2010PropOp40
 70
     1
102
RTVSPost2010Prop41ColorIndex
 90
       18
102
RTVSPost2010Prop41ColorRGB
 90
        0
102
RTVSPost2010PropOp41
 70
     1
102
RTVSPost2010Prop42
 90
       50
102
RTVSPost2010PropOp42
 70
     1
102
RTVSPost2010Prop43
 90
        3
102
RTVSPost2010PropOp43
 70
     1
102
RTVSPost2010Prop44ColorIndex
 90
        5
102
RTVSPost2010Prop44ColorRGB
 90
      255
102
RTVSPost2010PropOp44
 70
     1
102
RTVSPost2010Prop45
280
     0
102
RTVSPost2010PropOp45
 70
     1
102
RTVSPost2010Prop46
 90
       50
102
RTVSPost2010PropOp46
 70
     1
102
RTVSPost2010Prop47
 90
       50
102
RTVSPost2010PropOp47
 70
     1
102
RTVSPost2010Prop48
 90
       50
102
RTVSPost2010PropOp48
 70
     1
102
RTVSPost2010Prop49
280
     0
102
RTVSPost2010PropOp49
 70
     1
102
RTVSPost2010Prop50
 90
       50
102
RTVSPost2010PropOp50
 70
     1
102
RTVSPost2010Prop51ColorIndex
 90
      256
102
RTVSPost2010Prop51ColorRGB
 90
-16777216
102
RTVSPost2010PropOp51
 70
     0
102
RTVSPost2010Prop52
140
1.0
102
RTVSPost2010PropOp52
 70
     0
102
RTVSPost2010Prop53
 90
        2
102
RTVSPost2010PropOp53
 70
     1
102
RTVSPost2010Prop54
  1
strokes_ogs.tif
102
RTVSPost2010PropOp54
 70
     1
102
RTVSPost2010Prop55
280
     0
102
RTVSPost2010PropOp55
 70
     1
102
RTVSPost2010Prop56
140
1.0
102
RTVSPost2010PropOp56
 70
     1
102
RTVSPost2010Prop57
140
1.0
102
RTVSPost2010PropOp57
 70
     1
102
RTVSPropertyOp0
 70
     1
102
RTVSPropertyOp1
 70
     1
102
RTVSPropertyOp2
 70
     1
102
RTVSPropertyOp3
 70
     1
102
RTVSPropertyOp4
 70
     1
102
RTVSPropertyOp5
 70
     1
102
RTVSPropertyOp6
 70
     1
102
RTVSPropertyOp7
 70
     1
102
RTVSPropertyOp8
 70
     1
102
RTVSPropertyOp9
 70
     1
102
RTVSPropertyOp10
 70
     1
102
RTVSPropertyOp11
 70
     1
102
RTVSPropertyOp12
 70
     1
102
RTVSPropertyOp13
 70
     1
102
RTVSPropertyOp14
 70
     1
102
RTVSPropertyOp15
 70
     1
102
RTVSPropertyOp16
 70
     1
102
RTVSPropertyOp17
 70
     1
102
RTVSPropertyOp18
 70
     1
102
RTVSPropertyOp19
 70
     1
102
RTVSPropertyOp20
 70
     1
102
RTVSPropertyOp21
 70
     1
102
RTVSPropertyOp22
 70
     1
102
RTVSPropertyOp23
 70
     1
102
RTVSPropertyOp24
 70
     1
102
RTVSPropertyOp25
 70
     1
102
RTVSPropertyOp26
 70
     1
102
RTVSPropertyOp27
 70
     1
102
RTVSPropertyOp28
 70
     1
102
RTVSPropertyOp29
 70
     1
102
RTVSPropertyOp30
 70
     1
102
RTVSPropertyOp31
 70
     1
102
RTVSPropertyOp32
 70
     1
102
RTVSPropertyOp33
 70
     1
102
RTVSPropertyOp34
 70
     1
102
RTVSPropertyOp35
 70
     1
102
RTVSPropertyOp36
 70
     1
102
RTVSPropertyOp37
 70
     1
102
RTVSPropertyOp38
 70
     1
102
RTVSPropertyOp39
 70
     1
102
RTVSPropertyOp40
 70
     1
102
RTVSPropertyOp41
 70
     1
102
RTVSPropertyOp42
 70
     1
102
RTVSPropertyOp43
 70
     1
102
RTVSPropertyOp44
 70
     1
102
RTVSPropertyOp45
 70
     1
102
RTVSPropertyOp46
 70
     1
102
RTVSPropertyOp47
 70
     1
102
RTVSPropertyOp48
 70
     1
102
RTVSPropertyOp49
 70
     1
102
RTVSPropertyOp50
 70
     1
102
RTVSPropertyOp51
 70
     0
102
RTVSPropertyOp52
 70
     0
102
RTVSPropertyOp53
 70
     1
102
RTVSPropertyOp54
 70
     1
102
RTVSPropertyOp55
 70
     1
102
RTVSPropertyOp56
 70
     1
102
RTVSPropertyOp57
 70
     1
102
RTVSPropertyOp58
 70
     1
102
RTVSPropertyOp59
 70
     1
102
RTVSPropertyOp60
 70
     1
102
RTVSPropertyOp61
 70
     1
102
RTVSPropertyOp62
 70
     1
  0
XRECORD
  5
B25D
102
{ACAD_REACTORS
330
B25C
102
}
330
B25C
100
AcDbXrecord
280
     1
102
RTVSPost2010Prop28
280
     0
102
RTVSPost2010PropOp28
 70
     1
102
RTVSPost2010Prop29
280
     1
102
RTVSPost2010PropOp29
 70
     1
102
RTVSPost2010Prop30
280
     1
102
RTVSPost2010PropOp30
 70
     1
102
RTVSPost2010Prop31
280
     0
102
RTVSPost2010PropOp31
 70
     1
102
RTVSPost2010Prop32
280
     0
102
RTVSPost2010PropOp32
 70
     1
102
RTVSPost2010Prop33
280
     0
102
RTVSPost2010PropOp33
 70
     1
102
RTVSPost2010Prop34
280
     0
102
RTVSPost2010PropOp34
 70
     1
102
RTVSPost2010Prop35
280
     0
102
RTVSPost2010PropOp35
 70
     1
102
RTVSPost2010Prop36
280
     0
102
RTVSPost2010PropOp36
 70
     1
102
RTVSPost2010Prop37
 90
       50
102
RTVSPost2010PropOp37
 70
     1
102
RTVSPost2010Prop38
140
0.0
102
RTVSPost2010PropOp38
 70
     1
102
RTVSPost2010Prop39
140
1.0
102
RTVSPost2010PropOp39
 70
     1
102
RTVSPost2010Prop40
 90
        0
102
RTVSPost2010PropOp40
 70
     1
102
RTVSPost2010Prop41ColorIndex
 90
       18
102
RTVSPost2010Prop41ColorRGB
 90
        0
102
RTVSPost2010PropOp41
 70
     1
102
RTVSPost2010Prop42
 90
       50
102
RTVSPost2010PropOp42
 70
     1
102
RTVSPost2010Prop43
 90
        3
102
RTVSPost2010PropOp43
 70
     1
102
RTVSPost2010Prop44ColorIndex
 90
        5
102
RTVSPost2010Prop44ColorRGB
 90
      255
102
RTVSPost2010PropOp44
 70
     1
102
RTVSPost2010Prop45
280
     0
102
RTVSPost2010PropOp45
 70
     1
102
RTVSPost2010Prop46
 90
       50
102
RTVSPost2010PropOp46
 70
     1
102
RTVSPost2010Prop47
 90
       50
102
RTVSPost2010PropOp47
 70
     1
102
RTVSPost2010Prop48
 90
       50
102
RTVSPost2010PropOp48
 70
     1
102
RTVSPost2010Prop49
280
     0
102
RTVSPost2010PropOp49
 70
     1
102
RTVSPost2010Prop50
 90
       50
102
RTVSPost2010PropOp50
 70
     1
102
RTVSPost2010Prop51ColorIndex
 90
      256
102
RTVSPost2010Prop51ColorRGB
 90
-16777216
102
RTVSPost2010PropOp51
 70
     0
102
RTVSPost2010Prop52
140
1.0
102
RTVSPost2010PropOp52
 70
     0
102
RTVSPost2010Prop53
 90
        2
102
RTVSPost2010PropOp53
 70
     1
102
RTVSPost2010Prop54
  1
strokes_ogs.tif
102
RTVSPost2010PropOp54
 70
     1
102
RTVSPost2010Prop55
280
     0
102
RTVSPost2010PropOp55
 70
     1
102
RTVSPost2010Prop56
140
1.0
102
RTVSPost2010PropOp56
 70
     1
102
RTVSPost2010Prop57
140
1.0
102
RTVSPost2010PropOp57
 70
     1
102
RTVSPropertyOp0
 70
     1
102
RTVSPropertyOp1
 70
     1
102
RTVSPropertyOp2
 70
     1
102
RTVSPropertyOp3
 70
     1
102
RTVSPropertyOp4
 70
     1
102
RTVSPropertyOp5
 70
     1
102
RTVSPropertyOp6
 70
     1
102
RTVSPropertyOp7
 70
     1
102
RTVSPropertyOp8
 70
     1
102
RTVSPropertyOp9
 70
     1
102
RTVSPropertyOp10
 70
     1
102
RTVSPropertyOp11
 70
     1
102
RTVSPropertyOp12
 70
     1
102
RTVSPropertyOp13
 70
     1
102
RTVSPropertyOp14
 70
     1
102
RTVSPropertyOp15
 70
     1
102
RTVSPropertyOp16
 70
     1
102
RTVSPropertyOp17
 70
     1
102
RTVSPropertyOp18
 70
     1
102
RTVSPropertyOp19
 70
     1
102
RTVSPropertyOp20
 70
     1
102
RTVSPropertyOp21
 70
     1
102
RTVSPropertyOp22
 70
     1
102
RTVSPropertyOp23
 70
     1
102
RTVSPropertyOp24
 70
     1
102
RTVSPropertyOp25
 70
     1
102
RTVSPropertyOp26
 70
     1
102
RTVSPropertyOp27
 70
     1
102
RTVSPropertyOp28
 70
     1
102
RTVSPropertyOp29
 70
     1
102
RTVSPropertyOp30
 70
     1
102
RTVSPropertyOp31
 70
     1
102
RTVSPropertyOp32
 70
     1
102
RTVSPropertyOp33
 70
     1
102
RTVSPropertyOp34
 70
     1
102
RTVSPropertyOp35
 70
     1
102
RTVSPropertyOp36
 70
     1
102
RTVSPropertyOp37
 70
     1
102
RTVSPropertyOp38
 70
     1
102
RTVSPropertyOp39
 70
     1
102
RTVSPropertyOp40
 70
     1
102
RTVSPropertyOp41
 70
     1
102
RTVSPropertyOp42
 70
     1
102
RTVSPropertyOp43
 70
     1
102
RTVSPropertyOp44
 70
     1
102
RTVSPropertyOp45
 70
     1
102
RTVSPropertyOp46
 70
     1
102
RTVSPropertyOp47
 70
     1
102
RTVSPropertyOp48
 70
     1
102
RTVSPropertyOp49
 70
     1
102
RTVSPropertyOp50
 70
     1
102
RTVSPropertyOp51
 70
     0
102
RTVSPropertyOp52
 70
     0
102
RTVSPropertyOp53
 70
     1
102
RTVSPropertyOp54
 70
     1
102
RTVSPropertyOp55
 70
     1
102
RTVSPropertyOp56
 70
     1
102
RTVSPropertyOp57
 70
     1
102
RTVSPropertyOp58
 70
     1
102
RTVSPropertyOp59
 70
     1
102
RTVSPropertyOp60
 70
     1
102
RTVSPropertyOp61
 70
     1
102
RTVSPropertyOp62
 70
     1
  0
XRECORD
  5
B253
102
{ACAD_REACTORS
330
B252
102
}
330
B252
100
AcDbXrecord
280
     1
102
RTVSPost2010Prop28
280
     0
102
RTVSPost2010PropOp28
 70
     1
102
RTVSPost2010Prop29
280
     1
102
RTVSPost2010PropOp29
 70
     1
102
RTVSPost2010Prop30
280
     1
102
RTVSPost2010PropOp30
 70
     1
102
RTVSPost2010Prop31
280
     0
102
RTVSPost2010PropOp31
 70
     1
102
RTVSPost2010Prop32
280
     0
102
RTVSPost2010PropOp32
 70
     1
102
RTVSPost2010Prop33
280
     0
102
RTVSPost2010PropOp33
 70
     1
102
RTVSPost2010Prop34
280
     0
102
RTVSPost2010PropOp34
 70
     1
102
RTVSPost2010Prop35
280
     0
102
RTVSPost2010PropOp35
 70
     1
102
RTVSPost2010Prop36
280
     0
102
RTVSPost2010PropOp36
 70
     1
102
RTVSPost2010Prop37
 90
       50
102
RTVSPost2010PropOp37
 70
     1
102
RTVSPost2010Prop38
140
0.0
102
RTVSPost2010PropOp38
 70
     1
102
RTVSPost2010Prop39
140
1.0
102
RTVSPost2010PropOp39
 70
     1
102
RTVSPost2010Prop40
 90
        0
102
RTVSPost2010PropOp40
 70
     1
102
RTVSPost2010Prop41ColorIndex
 90
       18
102
RTVSPost2010Prop41ColorRGB
 90
        0
102
RTVSPost2010PropOp41
 70
     1
102
RTVSPost2010Prop42
 90
       50
102
RTVSPost2010PropOp42
 70
     1
102
RTVSPost2010Prop43
 90
        3
102
RTVSPost2010PropOp43
 70
     1
102
RTVSPost2010Prop44ColorIndex
 90
        5
102
RTVSPost2010Prop44ColorRGB
 90
      255
102
RTVSPost2010PropOp44
 70
     1
102
RTVSPost2010Prop45
280
     0
102
RTVSPost2010PropOp45
 70
     1
102
RTVSPost2010Prop46
 90
       50
102
RTVSPost2010PropOp46
 70
     1
102
RTVSPost2010Prop47
 90
       50
102
RTVSPost2010PropOp47
 70
     1
102
RTVSPost2010Prop48
 90
       50
102
RTVSPost2010PropOp48
 70
     1
102
RTVSPost2010Prop49
280
     0
102
RTVSPost2010PropOp49
 70
     1
102
RTVSPost2010Prop50
 90
       50
102
RTVSPost2010PropOp50
 70
     1
102
RTVSPost2010Prop51ColorIndex
 90
      256
102
RTVSPost2010Prop51ColorRGB
 90
-16777216
102
RTVSPost2010PropOp51
 70
     0
102
RTVSPost2010Prop52
140
1.0
102
RTVSPost2010PropOp52
 70
     0
102
RTVSPost2010Prop53
 90
        2
102
RTVSPost2010PropOp53
 70
     1
102
RTVSPost2010Prop54
  1
strokes_ogs.tif
102
RTVSPost2010PropOp54
 70
     1
102
RTVSPost2010Prop55
280
     0
102
RTVSPost2010PropOp55
 70
     1
102
RTVSPost2010Prop56
140
1.0
102
RTVSPost2010PropOp56
 70
     1
102
RTVSPost2010Prop57
140
1.0
102
RTVSPost2010PropOp57
 70
     1
102
RTVSPropertyOp0
 70
     1
102
RTVSPropertyOp1
 70
     1
102
RTVSPropertyOp2
 70
     1
102
RTVSPropertyOp3
 70
     1
102
RTVSPropertyOp4
 70
     1
102
RTVSPropertyOp5
 70
     1
102
RTVSPropertyOp6
 70
     1
102
RTVSPropertyOp7
 70
     1
102
RTVSPropertyOp8
 70
     1
102
RTVSPropertyOp9
 70
     1
102
RTVSPropertyOp10
 70
     1
102
RTVSPropertyOp11
 70
     1
102
RTVSPropertyOp12
 70
     1
102
RTVSPropertyOp13
 70
     1
102
RTVSPropertyOp14
 70
     1
102
RTVSPropertyOp15
 70
     1
102
RTVSPropertyOp16
 70
     1
102
RTVSPropertyOp17
 70
     1
102
RTVSPropertyOp18
 70
     1
102
RTVSPropertyOp19
 70
     1
102
RTVSPropertyOp20
 70
     1
102
RTVSPropertyOp21
 70
     1
102
RTVSPropertyOp22
 70
     1
102
RTVSPropertyOp23
 70
     1
102
RTVSPropertyOp24
 70
     1
102
RTVSPropertyOp25
 70
     1
102
RTVSPropertyOp26
 70
     1
102
RTVSPropertyOp27
 70
     1
102
RTVSPropertyOp28
 70
     1
102
RTVSPropertyOp29
 70
     1
102
RTVSPropertyOp30
 70
     1
102
RTVSPropertyOp31
 70
     1
102
RTVSPropertyOp32
 70
     1
102
RTVSPropertyOp33
 70
     1
102
RTVSPropertyOp34
 70
     1
102
RTVSPropertyOp35
 70
     1
102
RTVSPropertyOp36
 70
     1
102
RTVSPropertyOp37
 70
     1
102
RTVSPropertyOp38
 70
     1
102
RTVSPropertyOp39
 70
     1
102
RTVSPropertyOp40
 70
     1
102
RTVSPropertyOp41
 70
     1
102
RTVSPropertyOp42
 70
     1
102
RTVSPropertyOp43
 70
     1
102
RTVSPropertyOp44
 70
     1
102
RTVSPropertyOp45
 70
     1
102
RTVSPropertyOp46
 70
     1
102
RTVSPropertyOp47
 70
     1
102
RTVSPropertyOp48
 70
     1
102
RTVSPropertyOp49
 70
     1
102
RTVSPropertyOp50
 70
     1
102
RTVSPropertyOp51
 70
     0
102
RTVSPropertyOp52
 70
     0
102
RTVSPropertyOp53
 70
     1
102
RTVSPropertyOp54
 70
     1
102
RTVSPropertyOp55
 70
     1
102
RTVSPropertyOp56
 70
     1
102
RTVSPropertyOp57
 70
     1
102
RTVSPropertyOp58
 70
     1
102
RTVSPropertyOp59
 70
     1
102
RTVSPropertyOp60
 70
     1
102
RTVSPropertyOp61
 70
     1
102
RTVSPropertyOp62
 70
     1
  0
XRECORD
  5
B247
102
{ACAD_REACTORS
330
B246
102
}
330
B246
100
AcDbXrecord
280
     1
102
RTVSPost2010Prop28
280
     0
102
RTVSPost2010PropOp28
 70
     1
102
RTVSPost2010Prop29
280
     1
102
RTVSPost2010PropOp29
 70
     1
102
RTVSPost2010Prop30
280
     1
102
RTVSPost2010PropOp30
 70
     1
102
RTVSPost2010Prop31
280
     0
102
RTVSPost2010PropOp31
 70
     1
102
RTVSPost2010Prop32
280
     0
102
RTVSPost2010PropOp32
 70
     1
102
RTVSPost2010Prop33
280
     0
102
RTVSPost2010PropOp33
 70
     1
102
RTVSPost2010Prop34
280
     0
102
RTVSPost2010PropOp34
 70
     1
102
RTVSPost2010Prop35
280
     0
102
RTVSPost2010PropOp35
 70
     1
102
RTVSPost2010Prop36
280
     0
102
RTVSPost2010PropOp36
 70
     1
102
RTVSPost2010Prop37
 90
       50
102
RTVSPost2010PropOp37
 70
     1
102
RTVSPost2010Prop38
140
0.0
102
RTVSPost2010PropOp38
 70
     1
102
RTVSPost2010Prop39
140
1.0
102
RTVSPost2010PropOp39
 70
     1
102
RTVSPost2010Prop40
 90
        0
102
RTVSPost2010PropOp40
 70
     1
102
RTVSPost2010Prop41ColorIndex
 90
       18
102
RTVSPost2010Prop41ColorRGB
 90
        0
102
RTVSPost2010PropOp41
 70
     1
102
RTVSPost2010Prop42
 90
       50
102
RTVSPost2010PropOp42
 70
     1
102
RTVSPost2010Prop43
 90
        3
102
RTVSPost2010PropOp43
 70
     1
102
RTVSPost2010Prop44ColorIndex
 90
        5
102
RTVSPost2010Prop44ColorRGB
 90
      255
102
RTVSPost2010PropOp44
 70
     1
102
RTVSPost2010Prop45
280
     0
102
RTVSPost2010PropOp45
 70
     1
102
RTVSPost2010Prop46
 90
       50
102
RTVSPost2010PropOp46
 70
     1
102
RTVSPost2010Prop47
 90
       50
102
RTVSPost2010PropOp47
 70
     1
102
RTVSPost2010Prop48
 90
       50
102
RTVSPost2010PropOp48
 70
     1
102
RTVSPost2010Prop49
280
     0
102
RTVSPost2010PropOp49
 70
     1
102
RTVSPost2010Prop50
 90
       50
102
RTVSPost2010PropOp50
 70
     1
102
RTVSPost2010Prop51ColorIndex
 90
      256
102
RTVSPost2010Prop51ColorRGB
 90
-16777216
102
RTVSPost2010PropOp51
 70
     0
102
RTVSPost2010Prop52
140
1.0
102
RTVSPost2010PropOp52
 70
     0
102
RTVSPost2010Prop53
 90
        2
102
RTVSPost2010PropOp53
 70
     1
102
RTVSPost2010Prop54
  1
strokes_ogs.tif
102
RTVSPost2010PropOp54
 70
     1
102
RTVSPost2010Prop55
280
     0
102
RTVSPost2010PropOp55
 70
     1
102
RTVSPost2010Prop56
140
1.0
102
RTVSPost2010PropOp56
 70
     1
102
RTVSPost2010Prop57
140
1.0
102
RTVSPost2010PropOp57
 70
     1
102
RTVSPropertyOp0
 70
     1
102
RTVSPropertyOp1
 70
     1
102
RTVSPropertyOp2
 70
     1
102
RTVSPropertyOp3
 70
     1
102
RTVSPropertyOp4
 70
     1
102
RTVSPropertyOp5
 70
     1
102
RTVSPropertyOp6
 70
     1
102
RTVSPropertyOp7
 70
     1
102
RTVSPropertyOp8
 70
     1
102
RTVSPropertyOp9
 70
     1
102
RTVSPropertyOp10
 70
     1
102
RTVSPropertyOp11
 70
     1
102
RTVSPropertyOp12
 70
     1
102
RTVSPropertyOp13
 70
     1
102
RTVSPropertyOp14
 70
     1
102
RTVSPropertyOp15
 70
     1
102
RTVSPropertyOp16
 70
     1
102
RTVSPropertyOp17
 70
     1
102
RTVSPropertyOp18
 70
     1
102
RTVSPropertyOp19
 70
     1
102
RTVSPropertyOp20
 70
     1
102
RTVSPropertyOp21
 70
     1
102
RTVSPropertyOp22
 70
     1
102
RTVSPropertyOp23
 70
     1
102
RTVSPropertyOp24
 70
     1
102
RTVSPropertyOp25
 70
     1
102
RTVSPropertyOp26
 70
     1
102
RTVSPropertyOp27
 70
     1
102
RTVSPropertyOp28
 70
     1
102
RTVSPropertyOp29
 70
     1
102
RTVSPropertyOp30
 70
     1
102
RTVSPropertyOp31
 70
     1
102
RTVSPropertyOp32
 70
     1
102
RTVSPropertyOp33
 70
     1
102
RTVSPropertyOp34
 70
     1
102
RTVSPropertyOp35
 70
     1
102
RTVSPropertyOp36
 70
     1
102
RTVSPropertyOp37
 70
     1
102
RTVSPropertyOp38
 70
     1
102
RTVSPropertyOp39
 70
     1
102
RTVSPropertyOp40
 70
     1
102
RTVSPropertyOp41
 70
     1
102
RTVSPropertyOp42
 70
     1
102
RTVSPropertyOp43
 70
     1
102
RTVSPropertyOp44
 70
     1
102
RTVSPropertyOp45
 70
     1
102
RTVSPropertyOp46
 70
     1
102
RTVSPropertyOp47
 70
     1
102
RTVSPropertyOp48
 70
     1
102
RTVSPropertyOp49
 70
     1
102
RTVSPropertyOp50
 70
     1
102
RTVSPropertyOp51
 70
     0
102
RTVSPropertyOp52
 70
     0
102
RTVSPropertyOp53
 70
     1
102
RTVSPropertyOp54
 70
     1
102
RTVSPropertyOp55
 70
     1
102
RTVSPropertyOp56
 70
     1
102
RTVSPropertyOp57
 70
     1
102
RTVSPropertyOp58
 70
     1
102
RTVSPropertyOp59
 70
     1
102
RTVSPropertyOp60
 70
     1
102
RTVSPropertyOp61
 70
     1
102
RTVSPropertyOp62
 70
     1
  0
XRECORD
  5
B25F
102
{ACAD_REACTORS
330
B25E
102
}
330
B25E
100
AcDbXrecord
280
     1
102
RTVSPost2010Prop28
280
     0
102
RTVSPost2010PropOp28
 70
     1
102
RTVSPost2010Prop29
280
     1
102
RTVSPost2010PropOp29
 70
     1
102
RTVSPost2010Prop30
280
     1
102
RTVSPost2010PropOp30
 70
     1
102
RTVSPost2010Prop31
280
     0
102
RTVSPost2010PropOp31
 70
     1
102
RTVSPost2010Prop32
280
     0
102
RTVSPost2010PropOp32
 70
     1
102
RTVSPost2010Prop33
280
     0
102
RTVSPost2010PropOp33
 70
     1
102
RTVSPost2010Prop34
280
     0
102
RTVSPost2010PropOp34
 70
     1
102
RTVSPost2010Prop35
280
     0
102
RTVSPost2010PropOp35
 70
     1
102
RTVSPost2010Prop36
280
     0
102
RTVSPost2010PropOp36
 70
     1
102
RTVSPost2010Prop37
 90
       50
102
RTVSPost2010PropOp37
 70
     1
102
RTVSPost2010Prop38
140
0.0
102
RTVSPost2010PropOp38
 70
     1
102
RTVSPost2010Prop39
140
1.0
102
RTVSPost2010PropOp39
 70
     1
102
RTVSPost2010Prop40
 90
        0
102
RTVSPost2010PropOp40
 70
     1
102
RTVSPost2010Prop41ColorIndex
 90
       18
102
RTVSPost2010Prop41ColorRGB
 90
        0
102
RTVSPost2010PropOp41
 70
     1
102
RTVSPost2010Prop42
 90
       50
102
RTVSPost2010PropOp42
 70
     1
102
RTVSPost2010Prop43
 90
        3
102
RTVSPost2010PropOp43
 70
     1
102
RTVSPost2010Prop44ColorIndex
 90
        5
102
RTVSPost2010Prop44ColorRGB
 90
      255
102
RTVSPost2010PropOp44
 70
     1
102
RTVSPost2010Prop45
280
     0
102
RTVSPost2010PropOp45
 70
     1
102
RTVSPost2010Prop46
 90
       50
102
RTVSPost2010PropOp46
 70
     1
102
RTVSPost2010Prop47
 90
       50
102
RTVSPost2010PropOp47
 70
     1
102
RTVSPost2010Prop48
 90
       50
102
RTVSPost2010PropOp48
 70
     1
102
RTVSPost2010Prop49
280
     0
102
RTVSPost2010PropOp49
 70
     1
102
RTVSPost2010Prop50
 90
       50
102
RTVSPost2010PropOp50
 70
     1
102
RTVSPost2010Prop51ColorIndex
 90
      256
102
RTVSPost2010Prop51ColorRGB
 90
-16777216
102
RTVSPost2010PropOp51
 70
     0
102
RTVSPost2010Prop52
140
1.0
102
RTVSPost2010PropOp52
 70
     0
102
RTVSPost2010Prop53
 90
        2
102
RTVSPost2010PropOp53
 70
     1
102
RTVSPost2010Prop54
  1
strokes_ogs.tif
102
RTVSPost2010PropOp54
 70
     1
102
RTVSPost2010Prop55
280
     0
102
RTVSPost2010PropOp55
 70
     1
102
RTVSPost2010Prop56
140
1.0
102
RTVSPost2010PropOp56
 70
     1
102
RTVSPost2010Prop57
140
1.0
102
RTVSPost2010PropOp57
 70
     1
102
RTVSPropertyOp0
 70
     1
102
RTVSPropertyOp1
 70
     1
102
RTVSPropertyOp2
 70
     1
102
RTVSPropertyOp3
 70
     1
102
RTVSPropertyOp4
 70
     1
102
RTVSPropertyOp5
 70
     1
102
RTVSPropertyOp6
 70
     1
102
RTVSPropertyOp7
 70
     1
102
RTVSPropertyOp8
 70
     1
102
RTVSPropertyOp9
 70
     1
102
RTVSPropertyOp10
 70
     1
102
RTVSPropertyOp11
 70
     1
102
RTVSPropertyOp12
 70
     1
102
RTVSPropertyOp13
 70
     1
102
RTVSPropertyOp14
 70
     1
102
RTVSPropertyOp15
 70
     1
102
RTVSPropertyOp16
 70
     1
102
RTVSPropertyOp17
 70
     1
102
RTVSPropertyOp18
 70
     1
102
RTVSPropertyOp19
 70
     1
102
RTVSPropertyOp20
 70
     1
102
RTVSPropertyOp21
 70
     1
102
RTVSPropertyOp22
 70
     1
102
RTVSPropertyOp23
 70
     1
102
RTVSPropertyOp24
 70
     1
102
RTVSPropertyOp25
 70
     1
102
RTVSPropertyOp26
 70
     1
102
RTVSPropertyOp27
 70
     1
102
RTVSPropertyOp28
 70
     1
102
RTVSPropertyOp29
 70
     1
102
RTVSPropertyOp30
 70
     1
102
RTVSPropertyOp31
 70
     1
102
RTVSPropertyOp32
 70
     1
102
RTVSPropertyOp33
 70
     1
102
RTVSPropertyOp34
 70
     1
102
RTVSPropertyOp35
 70
     1
102
RTVSPropertyOp36
 70
     1
102
RTVSPropertyOp37
 70
     1
102
RTVSPropertyOp38
 70
     1
102
RTVSPropertyOp39
 70
     1
102
RTVSPropertyOp40
 70
     1
102
RTVSPropertyOp41
 70
     1
102
RTVSPropertyOp42
 70
     1
102
RTVSPropertyOp43
 70
     1
102
RTVSPropertyOp44
 70
     1
102
RTVSPropertyOp45
 70
     1
102
RTVSPropertyOp46
 70
     1
102
RTVSPropertyOp47
 70
     1
102
RTVSPropertyOp48
 70
     1
102
RTVSPropertyOp49
 70
     1
102
RTVSPropertyOp50
 70
     1
102
RTVSPropertyOp51
 70
     0
102
RTVSPropertyOp52
 70
     0
102
RTVSPropertyOp53
 70
     1
102
RTVSPropertyOp54
 70
     1
102
RTVSPropertyOp55
 70
     1
102
RTVSPropertyOp56
 70
     1
102
RTVSPropertyOp57
 70
     1
102
RTVSPropertyOp58
 70
     1
102
RTVSPropertyOp59
 70
     1
102
RTVSPropertyOp60
 70
     1
102
RTVSPropertyOp61
 70
     1
102
RTVSPropertyOp62
 70
     1
  0
ENDSEC
  0
EOF
