  0
SECTION
  2
HEADER
  9
$ACADVER
  1
AC1015
  9
$ACADMAINTVER
 70
    20
  9
$DWGCODEPAGE
  3
ANSI_932
  9
$INSBASE
 10
0.0
 20
0.0
 30
0.0
  9
$EXTMIN
 10
10.00000153760811
 20
9.999999806846743
 30
0.0
  9
$EXTMAX
 10
459.6375055376078
 20
331.5054978068465
 30
0.0
  9
$LIMMIN
 10
0.0000015376083204
 20
-0.0000001931532552
  9
$LIMMAX
 10
495.0000015376081
 20
341.2499998068465
  9
$ORTHOMODE
 70
     1
  9
$REGENMODE
 70
     1
  9
$FILLMODE
 70
     1
  9
$QTEXTMODE
 70
     0
  9
$MIRRTEXT
 70
     1
  9
$LTSCALE
 40
1.0
  9
$ATTMODE
 70
     1
  9
$TEXTSIZE
 40
2.5
  9
$TRACEWID
 40
1.0
  9
$TEXTSTYLE
  7
STANDARD
  9
$CLAYER
  8
0
  9
$CELTYPE
  6
BYLAYER
  9
$CECOLOR
 62
   256
  9
$CELTSCALE
 40
1.0
  9
$DISPSILH
 70
     0
  9
$DIMSCALE
 40
1.0
  9
$DIMASZ
 40
3.0
  9
$DIMEXO
 40
1.0
  9
$DIMDLI
 40
10.0
  9
$DIMRND
 40
0.0
  9
$DIMDLE
 40
0.0
  9
$DIMEXE
 40
1.0
  9
$DIMTP
 40
0.0
  9
$DIMTM
 40
0.0
  9
$DIMTXT
 40
3.2
  9
$DIMCEN
 40
0.0
  9
$DIMTSZ
 40
0.0
  9
$DIMTOL
 70
     0
  9
$DIMLIM
 70
     0
  9
$DIMTIH
 70
     0
  9
$DIMTOH
 70
     0
  9
$DIMSE1
 70
     0
  9
$DIMSE2
 70
     0
  9
$DIMTAD
 70
     3
  9
$DIMZIN
 70
     8
  9
$DIMBLK
  1

  9
$DIMASO
 70
     1
  9
$DIMSHO
 70
     1
  9
$DIMPOST
  1

  9
$DIMAPOST
  1

  9
$DIMALT
 70
     0
  9
$DIMALTD
 70
     2
  9
$DIMALTF
 40
25.4
  9
$DIMLFAC
 40
1.0
  9
$DIMTOFL
 70
     1
  9
$DIMTVP
 40
0.0
  9
$DIMTIX
 70
     0
  9
$DIMSOXD
 70
     0
  9
$DIMSAH
 70
     1
  9
$DIMBLK1
  1
OPEN
  9
$DIMBLK2
  1
OPEN
  9
$DIMSTYLE
  2
STANDARD
  9
$DIMCLRD
 70
     0
  9
$DIMCLRE
 70
     0
  9
$DIMCLRT
 70
     0
  9
$DIMTFAC
 40
1.0
  9
$DIMGAP
 40
1.0
  9
$DIMJUST
 70
     0
  9
$DIMSD1
 70
     0
  9
$DIMSD2
 70
     0
  9
$DIMTOLJ
 70
     1
  9
$DIMTZIN
 70
     0
  9
$DIMALTZ
 70
     0
  9
$DIMALTTZ
 70
     0
  9
$DIMUPT
 70
     0
  9
$DIMDEC
 70
     4
  9
$DIMTDEC
 70
     4
  9
$DIMALTU
 70
     2
  9
$DIMALTTD
 70
     2
  9
$DIMTXSTY
  7
STANDARD
  9
$DIMAUNIT
 70
     0
  9
$DIMADEC
 70
     0
  9
$DIMALTRND
 40
0.0
  9
$DIMAZIN
 70
     0
  9
$DIMDSEP
 70
    46
  9
$DIMATFIT
 70
     3
  9
$DIMFRAC
 70
     0
  9
$DIMLDRBLK
  1
OPEN
  9
$DIMLUNIT
 70
     2
  9
$DIMLWD
 70
    -2
  9
$DIMLWE
 70
    -2
  9
$DIMTMOVE
 70
     0
  9
$LUNITS
 70
     2
  9
$LUPREC
 70
     4
  9
$SKETCHINC
 40
1.0
  9
$FILLETRAD
 40
10.0
  9
$AUNITS
 70
     0
  9
$AUPREC
 70
     0
  9
$MENU
  1
.
  9
$ELEVATION
 40
0.0
  9
$PELEVATION
 40
0.0
  9
$THICKNESS
 40
0.0
  9
$LIMCHECK
 70
     0
  9
$CHAMFERA
 40
10.0
  9
$CHAMFERB
 40
10.0
  9
$CHAMFERC
 40
20.0
  9
$CHAMFERD
 40
0.0
  9
$SKPOLY
 70
     0
  9
$TDCREATE
 40
2454875.565629618
  9
$TDUCREATE
 40
2454875.190629618
  9
$TDUPDATE
 40
2457192.687043577
  9
$TDUUPDATE
 40
2457192.312043577
  9
$TDINDWG
 40
0.0051093403
  9
$TDUSRTIMER
 40
0.0051093287
  9
$USRTIMER
 70
     1
  9
$ANGBASE
 50
0.0
  9
$ANGDIR
 70
     0
  9
$PDMODE
 70
     0
  9
$PDSIZE
 40
0.0
  9
$PLINEWID
 40
0.0
  9
$SPLFRAME
 70
     0
  9
$SPLINETYPE
 70
     6
  9
$SPLINESEGS
 70
     8
  9
$HANDSEED
  5
812
  9
$SURFTAB1
 70
     6
  9
$SURFTAB2
 70
     6
  9
$SURFTYPE
 70
     6
  9
$SURFU
 70
     6
  9
$SURFV
 70
     6
  9
$UCSBASE
  2

  9
$UCSNAME
  2

  9
$UCSORG
 10
0.0
 20
0.0
 30
0.0
  9
$UCSXDIR
 10
1.0
 20
0.0
 30
0.0
  9
$UCSYDIR
 10
0.0
 20
1.0
 30
0.0
  9
$UCSORTHOREF
  2

  9
$UCSORTHOVIEW
 70
     0
  9
$UCSORGTOP
 10
0.0
 20
0.0
 30
0.0
  9
$UCSORGBOTTOM
 10
0.0
 20
0.0
 30
0.0
  9
$UCSORGLEFT
 10
0.0
 20
0.0
 30
0.0
  9
$UCSORGRIGHT
 10
0.0
 20
0.0
 30
0.0
  9
$UCSORGFRONT
 10
0.0
 20
0.0
 30
0.0
  9
$UCSORGBACK
 10
0.0
 20
0.0
 30
0.0
  9
$PUCSBASE
  2

  9
$PUCSNAME
  2

  9
$PUCSORG
 10
0.0
 20
0.0
 30
0.0
  9
$PUCSXDIR
 10
1.0
 20
0.0
 30
0.0
  9
$PUCSYDIR
 10
0.0
 20
1.0
 30
0.0
  9
$PUCSORTHOREF
  2

  9
$PUCSORTHOVIEW
 70
     0
  9
$PUCSORGTOP
 10
0.0
 20
0.0
 30
0.0
  9
$PUCSORGBOTTOM
 10
0.0
 20
0.0
 30
0.0
  9
$PUCSORGLEFT
 10
0.0
 20
0.0
 30
0.0
  9
$PUCSORGRIGHT
 10
0.0
 20
0.0
 30
0.0
  9
$PUCSORGFRONT
 10
0.0
 20
0.0
 30
0.0
  9
$PUCSORGBACK
 10
0.0
 20
0.0
 30
0.0
  9
$USERI1
 70
     0
  9
$USERI2
 70
     0
  9
$USERI3
 70
     0
  9
$USERI4
 70
     0
  9
$USERI5
 70
     0
  9
$USERR1
 40
0.0
  9
$USERR2
 40
0.0
  9
$USERR3
 40
0.0
  9
$USERR4
 40
0.0
  9
$USERR5
 40
0.0
  9
$WORLDVIEW
 70
     1
  9
$SHADEDGE
 70
     3
  9
$SHADEDIF
 70
    70
  9
$TILEMODE
 70
     1
  9
$MAXACTVP
 70
    48
  9
$PINSBASE
 10
0.0
 20
0.0
 30
0.0
  9
$PLIMCHECK
 70
     0
  9
$PEXTMIN
 10
1.000000000000000E+20
 20
1.000000000000000E+20
 30
1.000000000000000E+20
  9
$PEXTMAX
 10
-1.000000000000000E+20
 20
-1.000000000000000E+20
 30
-1.000000000000000E+20
  9
$PLIMMIN
 10
0.0
 20
0.0
  9
$PLIMMAX
 10
420.0
 20
297.0
  9
$UNITMODE
 70
     0
  9
$VISRETAIN
 70
     1
  9
$PLINEGEN
 70
     0
  9
$PSLTSCALE
 70
     1
  9
$TREEDEPTH
 70
  3020
  9
$CMLSTYLE
  2
STANDARD
  9
$CMLJUST
 70
     0
  9
$CMLSCALE
 40
20.0
  9
$PROXYGRAPHICS
 70
     1
  9
$MEASUREMENT
 70
     0
  9
$CELWEIGHT
370
    -1
  9
$ENDCAPS
280
     0
  9
$JOINSTYLE
280
     0
  9
$LWDISPLAY
290
     0
  9
$INSUNITS
 70
     0
  9
$HYPERLINKBASE
  1

  9
$STYLESHEET
  1

  9
$XEDIT
290
     1
  9
$CEPSNTYPE
380
     0
  9
$PSTYLEMODE
290
     1
  9
$FINGERPRINTGUID
  2
{54886648-E6A7-4A2F-BA6C-93B1B7D8800F}
  9
$VERSIONGUID
  2
{295C2A46-F260-4A1B-AFA2-EC52ADD024DB}
  9
$EXTNAMES
290
     1
  9
$PSVPSCALE
 40
0.0
  9
$OLESTARTUP
290
     0
  0
ENDSEC
  0
SECTION
  2
CLASSES
  0
CLASS
  1
ACDBDICTIONARYWDFLT
  2
AcDbDictionaryWithDefault
  3
ObjectDBX Classes
 90
        0
280
     0
281
     0
  0
CLASS
  1
ACDBPLACEHOLDER
  2
AcDbPlaceHolder
  3
ObjectDBX Classes
 90
        0
280
     0
281
     0
  0
CLASS
  1
LAYOUT
  2
AcDbLayout
  3
ObjectDBX Classes
 90
        0
280
     0
281
     0
  0
CLASS
  1
MATERIAL
  2
AcDbMaterial
  3
ObjectDBX Classes
 90
     1153
280
     0
281
     0
  0
CLASS
  1
VISUALSTYLE
  2
AcDbVisualStyle
  3
ObjectDBX Classes
 90
     4095
280
     0
281
     0
  0
CLASS
  1
TABLESTYLE
  2
AcDbTableStyle
  3
ObjectDBX Classes
 90
     4095
280
     0
281
     0
  0
CLASS
  1
SCALE
  2
AcDbScale
  3
ObjectDBX Classes
 90
     1153
280
     0
281
     0
  0
CLASS
  1
MLEADERSTYLE
  2
AcDbMLeaderStyle
  3
ACDB_MLEADERSTYLE_CLASS
 90
     4095
280
     0
281
     0
  0
CLASS
  1
ACDBSECTIONVIEWSTYLE
  2
AcDbSectionViewStyle
  3
ObjectDBX Classes
 90
     1025
280
     0
281
     0
  0
CLASS
  1
ACDBDETAILVIEWSTYLE
  2
AcDbDetailViewStyle
  3
ObjectDBX Classes
 90
     1025
280
     0
281
     0
  0
CLASS
  1
DICTIONARYVAR
  2
AcDbDictionaryVar
  3
ObjectDBX Classes
 90
        0
280
     0
281
     0
  0
CLASS
  1
CELLSTYLEMAP
  2
AcDbCellStyleMap
  3
ObjectDBX Classes
 90
     1152
280
     0
281
     0
  0
ENDSEC
  0
SECTION
  2
TABLES
  0
TABLE
  2
VPORT
  5
8
330
0
100
AcDbSymbolTable
 70
     1
  0
VPORT
  5
75C
330
8
100
AcDbSymbolTableRecord
100
AcDbViewportTableRecord
  2
*ACTIVE
 70
     0
 10
0.0
 20
0.0
 11
1.0
 21
1.0
 12
368.009807928121
 22
170.7551771457221
 13
0.0
 23
0.0
 14
10.0
 24
10.0
 15
10.0
 25
10.0
 16
0.0
 26
0.0
 36
1.0
 17
0.0
 27
0.0
 37
0.0
 40
323.9812052970521
 41
2.35006605019815
 42
50.0
 43
0.0
 44
0.0
 50
0.0
 51
0.0
 71
     0
 72
   100
 73
     1
 74
     0
 75
     0
 76
     0
 77
     0
 78
     0
281
     0
 65
     1
110
0.0
120
0.0
130
0.0
111
1.0
121
0.0
131
0.0
112
0.0
122
1.0
132
0.0
 79
     0
146
0.0
1001
ACAD_NAV_VCDISPLAY
1070
     3
  0
ENDTAB
  0
TABLE
  2
LTYPE
  5
5
330
0
100
AcDbSymbolTable
 70
     4
  0
LTYPE
  5
12
330
5
100
AcDbSymbolTableRecord
100
AcDbLinetypeTableRecord
  2
BYBLOCK
 70
     0
  3

 72
    65
 73
     0
 40
0.0
  0
LTYPE
  5
13
330
5
100
AcDbSymbolTableRecord
100
AcDbLinetypeTableRecord
  2
BYLAYER
 70
     0
  3

 72
    65
 73
     0
 40
0.0
  0
LTYPE
  5
14
330
5
100
AcDbSymbolTableRecord
100
AcDbLinetypeTableRecord
  2
CONTINUOUS
 70
     0
  3
Solid line
 72
    65
 73
     0
 40
0.0
  0
LTYPE
  5
4B
330
5
100
AcDbSymbolTableRecord
100
AcDbLinetypeTableRecord
  2
DASHED
 70
     0
  3
Dashed __ __ __ __ __ __ __ __ __ __ __ __ __ _
 72
    65
 73
     2
 40
19.04999999999999
 49
12.7
 74
     0
 49
-6.349999999999998
 74
     0
  0
LTYPE
  5
4C
330
5
100
AcDbSymbolTableRecord
100
AcDbLinetypeTableRecord
  2
CENTER
 70
     0
  3
Center ____ _ ____ _ ____ _ ____ _ ____ _ ____
 72
    65
 73
     4
 40
50.8
 49
31.75
 74
     0
 49
-6.349999999999998
 74
     0
 49
6.349999999999998
 74
     0
 49
-6.349999999999998
 74
     0
  0
LTYPE
  5
4D
330
5
100
AcDbSymbolTableRecord
100
AcDbLinetypeTableRecord
  2
PHANTOM
 70
     0
  3
Phantom ______  __  __  ______  __  __  ______
 72
    65
 73
     6
 40
63.5
 49
31.75
 74
     0
 49
-6.349999999999998
 74
     0
 49
6.349999999999998
 74
     0
 49
-6.349999999999998
 74
     0
 49
6.349999999999998
 74
     0
 49
-6.349999999999998
 74
     0
  0
ENDTAB
  0
TABLE
  2
LAYER
  5
2
330
0
100
AcDbSymbolTable
 70
     8
  0
LAYER
  5
E
102
{ACAD_XDICTIONARY
360
7B6
102
}
330
2
100
AcDbSymbolTableRecord
100
AcDbLayerTableRecord
  2
0
 70
     0
 62
     7
  6
CONTINUOUS
370
    -3
390
765
  0
LAYER
  5
4E
102
{ACAD_XDICTIONARY
360
7B8
102
}
330
2
100
AcDbSymbolTableRecord
100
AcDbLayerTableRecord
  2
4
 70
     0
 62
     1
  6
CENTER
370
    -3
390
765
  0
LAYER
  5
4F
102
{ACAD_XDICTIONARY
360
7BA
102
}
330
2
100
AcDbSymbolTableRecord
100
AcDbLayerTableRecord
  2
5
 70
     0
 62
     6
  6
PHANTOM
370
    -3
390
765
  0
LAYER
  5
50
102
{ACAD_XDICTIONARY
360
7BC
102
}
330
2
100
AcDbSymbolTableRecord
100
AcDbLayerTableRecord
  2
1
 70
     0
 62
     7
  6
CONTINUOUS
370
    -3
390
765
  0
LAYER
  5
51
102
{ACAD_XDICTIONARY
360
7BE
102
}
330
2
100
AcDbSymbolTableRecord
100
AcDbLayerTableRecord
  2
2
 70
     0
 62
     4
  6
CONTINUOUS
370
    -3
390
765
  0
LAYER
  5
52
102
{ACAD_XDICTIONARY
360
7C0
102
}
330
2
100
AcDbSymbolTableRecord
100
AcDbLayerTableRecord
  2
3
 70
     0
 62
     2
  6
DASHED
370
    -3
390
765
  0
LAYER
  5
53
102
{ACAD_XDICTIONARY
360
7C2
102
}
330
2
100
AcDbSymbolTableRecord
100
AcDbLayerTableRecord
  2
6
 70
     0
 62
     5
  6
CONTINUOUS
370
    -3
390
765
  0
LAYER
  5
54
102
{ACAD_XDICTIONARY
360
7C4
102
}
330
2
100
AcDbSymbolTableRecord
100
AcDbLayerTableRecord
  2
7
 70
     0
 62
     3
  6
CONTINUOUS
370
    -3
390
765
  0
ENDTAB
  0
TABLE
  2
STYLE
  5
3
330
0
100
AcDbSymbolTable
 70
     1
  0
STYLE
  5
F
330
3
100
AcDbSymbolTableRecord
100
AcDbTextStyleTableRecord
  2
STANDARD
 70
     0
 40
0.0
 41
1.0
 50
0.0
 71
     0
 42
2.5
  3
simplex.shx
  4

  0
ENDTAB
  0
TABLE
  2
VIEW
  5
6
330
0
100
AcDbSymbolTable
 70
     0
  0
ENDTAB
  0
TABLE
  2
UCS
  5
7
330
0
100
AcDbSymbolTable
 70
     0
  0
ENDTAB
  0
TABLE
  2
APPID
  5
9
330
0
100
AcDbSymbolTable
 70
     5
  0
APPID
  5
10
330
9
100
AcDbSymbolTableRecord
100
AcDbRegAppTableRecord
  2
ACAD
 70
     0
  0
APPID
  5
3E
330
9
100
AcDbSymbolTableRecord
100
AcDbRegAppTableRecord
  2
CONTENTTABDATA
 70
     0
  0
APPID
  5
3F
330
9
100
AcDbSymbolTableRecord
100
AcDbRegAppTableRecord
  2
CONTENTCURRENTTAB
 70
     0
  0
APPID
  5
7D0
330
9
100
AcDbSymbolTableRecord
100
AcDbRegAppTableRecord
  2
ACAD_NAV_VCDISPLAY
 70
     0
  0
APPID
  5
809
330
9
100
AcDbSymbolTableRecord
100
AcDbRegAppTableRecord
  2
ACAD_MLEADERVER
 70
     0
  0
ENDTAB
  0
TABLE
  2
DIMSTYLE
  5
A
330
0
100
AcDbSymbolTable
 70
     1
100
AcDbDimStyleTable
 71
     0
  0
DIMSTYLE
105
1D
330
A
100
AcDbSymbolTableRecord
100
AcDbDimStyleTableRecord
  2
STANDARD
 70
     0
 41
3.0
 42
1.0
 43
10.0
 44
1.0
 73
     0
 74
     0
 77
     3
 78
     8
140
3.2
141
0.0
147
1.0
172
     1
173
     1
340
F
341
2E
343
2E
344
2E
  0
ENDTAB
  0
TABLE
  2
BLOCK_RECORD
  5
1
330
0
100
AcDbSymbolTable
 70
     1
  0
BLOCK_RECORD
  5
18
102
{ACAD_XDICTIONARY
360
75F
102
}
330
1
100
AcDbSymbolTableRecord
100
AcDbBlockTableRecord
  2
*MODEL_SPACE
340
7B3
  0
BLOCK_RECORD
  5
15
102
{ACAD_XDICTIONARY
360
75D
102
}
330
1
100
AcDbSymbolTableRecord
100
AcDbBlockTableRecord
  2
*PAPER_SPACE
340
7B4
  0
BLOCK_RECORD
  5
2E
330
1
100
AcDbSymbolTableRecord
100
AcDbBlockTableRecord
  2
_OPEN
340
0
  0
ENDTAB
  0
ENDSEC
  0
SECTION
  2
BLOCKS
  0
BLOCK
  5
19
330
18
100
AcDbEntity
  8
0
100
AcDbBlockBegin
  2
*MODEL_SPACE
 70
     0
 10
0.0
 20
0.0
 30
0.0
  3
*MODEL_SPACE
  1

  0
ENDBLK
  5
1A
330
18
100
AcDbEntity
  8
0
100
AcDbBlockEnd
  0
BLOCK
  5
16
330
15
100
AcDbEntity
 67
     1
  8
0
100
AcDbBlockBegin
  2
*PAPER_SPACE
 70
     0
 10
0.0
 20
0.0
 30
0.0
  3
*PAPER_SPACE
  1

  0
ENDBLK
  5
17
330
15
100
AcDbEntity
 67
     1
  8
0
100
AcDbBlockEnd
  0
BLOCK
  5
2F
330
2E
100
AcDbEntity
  8
0
100
AcDbBlockBegin
  2
_OPEN
 70
     0
 10
0.0
 20
0.0
 30
0.0
  3
_OPEN
  1

  0
LINE
  5
30
330
2E
100
AcDbEntity
  8
0
  6
ByBlock
 62
     0
100
AcDbLine
 10
-1.0
 20
0.1666666666666666
 30
0.0
 11
0.0
 21
0.0
 31
0.0
  0
LINE
  5
31
330
2E
100
AcDbEntity
  8
0
  6
ByBlock
 62
     0
100
AcDbLine
 10
0.0
 20
0.0
 30
0.0
 11
-1.0
 21
-0.1666666666666666
 31
0.0
  0
LINE
  5
32
330
2E
100
AcDbEntity
  8
0
  6
ByBlock
 62
     0
100
AcDbLine
 10
0.0
 20
0.0
 30
0.0
 11
-1.0
 21
0.0
 31
0.0
  0
ENDBLK
  5
33
330
2E
100
AcDbEntity
  8
0
100
AcDbBlockEnd
  0
ENDSEC
  0
SECTION
  2
ENTITIES
  0
LINE
  5
3E5
330
18
100
AcDbEntity
  8
1
  6
Continuous
100
AcDbLine
 10
70.70466253760812
 20
213.8724978068467
 30
0.0
 11
70.70466253760812
 21
143.5945718068467
 31
0.0
  0
LINE
  5
3E6
330
18
100
AcDbEntity
  8
1
  6
Continuous
100
AcDbLine
 10
47.70466253760811
 20
143.5945718068467
 30
0.0
 11
47.70466253760811
 21
213.8724978068467
 31
0.0
  0
LINE
  5
3E7
330
18
100
AcDbEntity
  8
1
  6
Continuous
100
AcDbLine
 10
46.7046625376081
 20
195.7335348068466
 30
0.0
 11
46.7046625376081
 21
161.7335348068466
 31
0.0
  0
LINE
  5
3E8
330
18
100
AcDbEntity
  8
1
  6
Continuous
100
AcDbLine
 10
44.4546625376081
 20
191.2335348068467
 30
0.0
 11
44.4546625376081
 21
166.2335348068467
 31
0.0
  0
LINE
  5
3E9
330
18
100
AcDbEntity
  8
1
  6
Continuous
100
AcDbLine
 10
43.95466253760811
 20
167.4835348068466
 30
0.0
 11
43.95466253760811
 21
189.9835348068467
 31
0.0
  0
LINE
  5
3EA
330
18
100
AcDbEntity
  8
1
  6
Continuous
100
AcDbLine
 10
71.70466253760811
 20
161.7335348068466
 30
0.0
 11
71.70466253760811
 21
195.7335348068466
 31
0.0
  0
LINE
  5
3EB
330
18
100
AcDbEntity
  8
1
  6
Continuous
100
AcDbLine
 10
73.95466253760813
 20
191.2335348068467
 30
0.0
 11
73.95466253760813
 21
166.2335348068467
 31
0.0
  0
LINE
  5
3EC
330
18
100
AcDbEntity
  8
1
  6
Continuous
100
AcDbLine
 10
74.45466253760812
 20
189.9835348068467
 30
0.0
 11
74.45466253760812
 21
167.4835348068466
 31
0.0
  0
ARC
  5
3ED
330
18
100
AcDbEntity
  8
1
  6
Continuous
100
AcDbCircle
 10
163.6692485376079
 20
178.7334898068466
 30
0.0
 40
11.25
100
AcDbArc
 50
309.695973
 51
340.9727299999999
  0
ARC
  5
3EE
330
18
100
AcDbEntity
  8
1
  6
Continuous
100
AcDbCircle
 10
163.6692485376079
 20
178.7334898068466
 30
0.0
 40
11.25
100
AcDbArc
 50
148.126145
 51
230.3040269999999
  0
ARC
  5
3EF
330
18
100
AcDbEntity
  8
1
  6
Continuous
100
AcDbCircle
 10
163.6692485376079
 20
178.7334898068466
 30
0.0
 40
37.5
100
AcDbArc
 50
97.39539
 51
42.09619599999999
  0
ARC
  5
3F0
330
18
100
AcDbEntity
  8
1
  6
Continuous
100
AcDbCircle
 10
163.6692485376079
 20
178.7334898068466
 30
0.0
 40
27.0
100
AcDbArc
 50
103.9032549999999
 51
35.10282800000001
  0
ARC
  5
3F1
330
18
100
AcDbEntity
  8
1
  6
Continuous
100
AcDbCircle
 10
163.6692485376079
 20
178.7334898068466
 30
0.0
 40
28.0
100
AcDbArc
 50
103.0579949999999
 51
36.01371799999999
  0
ARC
  5
3F2
330
18
100
AcDbEntity
  8
1
  6
Continuous
100
AcDbCircle
 10
163.6692485376079
 20
178.7334898068466
 30
0.0
 40
19.0
100
AcDbArc
 50
114.349773
 51
23.751462
  0
ARC
  5
3F3
330
18
100
AcDbEntity
  8
1
  6
Continuous
100
AcDbCircle
 10
163.6692485376079
 20
178.7334898068466
 30
0.0
 40
15.37132
100
AcDbArc
 50
123.6457469999999
 51
13.413944
  0
ARC
  5
3F4
330
18
100
AcDbEntity
  8
1
  6
Continuous
100
AcDbCircle
 10
163.6692485376079
 20
178.7334898068466
 30
0.0
 40
17.0
100
AcDbArc
 50
118.8376019999997
 51
18.79890599999998
  0
ARC
  5
3F5
330
18
100
AcDbEntity
  8
1
  6
Continuous
100
AcDbCircle
 10
79.45466253760812
 20
192.4980858068465
 30
0.0
 40
45.0
100
AcDbArc
 50
207.47971
 51
209.7767939999999
  0
ARC
  5
3F6
330
18
100
AcDbEntity
  8
1
  6
Continuous
100
AcDbCircle
 10
163.6692485376079
 20
177.7334898068466
 30
0.0
 40
10.5
100
AcDbArc
 50
170.99538
 51
328.8638009999999
  0
ARC
  5
3F7
330
18
100
AcDbEntity
  8
1
  6
Continuous
100
AcDbCircle
 10
38.95466253760811
 20
192.4980858068465
 30
0.0
 40
45.0
100
AcDbArc
 50
330.223206
 51
331.5110009999999
  0
LINE
  5
3F8
330
18
100
AcDbEntity
  8
1
  6
Continuous
100
AcDbLine
 10
42.6961625376081
 20
218.9335348068466
 30
0.0
 11
42.6961625376081
 21
167.2335348068466
 31
0.0
  0
LINE
  5
3F9
330
18
100
AcDbEntity
  8
1
  6
Continuous
100
AcDbLine
 10
75.71316253760811
 20
218.9335348068466
 30
0.0
 11
75.71316253760811
 21
167.2335348068466
 31
0.0
  0
LINE
  5
3FA
330
18
100
AcDbEntity
  8
1
  6
Continuous
100
AcDbLine
 10
40.39616253760811
 20
218.9335348068466
 30
0.0
 11
40.39616253760811
 21
167.2335348068466
 31
0.0
  0
LINE
  5
3FB
330
18
100
AcDbEntity
  8
1
  6
Continuous
100
AcDbLine
 10
78.01316253760809
 20
218.9335348068466
 30
0.0
 11
78.01316253760809
 21
167.2335348068466
 31
0.0
  0
LINE
  5
3FC
330
18
100
AcDbEntity
  8
4
  6
CENTER
100
AcDbLine
 10
59.2046625376081
 20
239.2335348068467
 30
0.0
 11
59.2046625376081
 21
136.2335348068466
 31
0.0
  0
LINE
  5
3FD
330
18
100
AcDbEntity
  8
4
  6
CENTER
100
AcDbLine
 10
163.6692485376079
 20
136.2334898068467
 30
0.0
 11
163.6692485376079
 21
219.2334898068467
 31
0.0
  0
TEXT
  5
3FE
330
18
100
AcDbEntity
  8
1
  6
Continuous
100
AcDbText
 10
10.00000153760811
 20
9.999999806846743
 30
0.0
 40
1.399999999999999
  1
LAYER
100
AcDbText
  0
TEXT
  5
3FF
330
18
100
AcDbEntity
  8
7
  6
Continuous
100
AcDbText
 10
10.00000153760811
 20
25.99999980684674
 30
0.0
 40
3.0
  1
CODE No.9026
100
AcDbText
  0
TEXT
  5
400
330
18
100
AcDbEntity
  8
7
  6
Continuous
100
AcDbText
 10
10.00000153760811
 20
17.99999980684674
 30
0.0
 40
3.0
  1
TYPE No.106B
100
AcDbText
  0
TEXT
  5
401
330
18
100
AcDbEntity
  8
5
  6
PHANTOM
100
AcDbText
 10
25.97951253760811
 20
10.04873680684672
 30
0.0
 40
1.399999999999999
  1
5
100
AcDbText
  0
TEXT
  5
402
330
18
100
AcDbEntity
  8
6
  6
Continuous
100
AcDbText
 10
27.97951253760811
 20
10.04873680684672
 30
0.0
 40
1.399999999999999
  1
6
100
AcDbText
  0
TEXT
  5
403
330
18
100
AcDbEntity
  8
2
  6
Continuous
100
AcDbText
 10
19.9795125376081
 20
10.04873680684672
 30
0.0
 40
1.399999999999999
  1
2
100
AcDbText
  0
TEXT
  5
404
330
18
100
AcDbEntity
  8
3
  6
DASHED
100
AcDbText
 10
21.97951253760811
 20
10.04873680684672
 30
0.0
 40
1.399999999999999
  1
3
100
AcDbText
  0
TEXT
  5
405
330
18
100
AcDbEntity
  8
4
  6
CENTER
100
AcDbText
 10
23.9795125376081
 20
10.04873680684672
 30
0.0
 40
1.399999999999999
  1
4
100
AcDbText
  0
TEXT
  5
406
330
18
100
AcDbEntity
  8
7
  6
Continuous
100
AcDbText
 10
29.97951253760811
 20
10.04873680684672
 30
0.0
 40
1.399999999999999
  1
7
100
AcDbText
  0
TEXT
  5
407
330
18
100
AcDbEntity
  8
1
  6
Continuous
100
AcDbText
 10
17.9795125376081
 20
10.04873680684672
 30
0.0
 40
1.399999999999999
  1
1
100
AcDbText
  0
ARC
  5
408
330
18
100
AcDbEntity
  8
1
  6
Continuous
100
AcDbCircle
 10
59.2046625376081
 20
201.2335348068466
 30
0.0
 40
60.0
100
AcDbArc
 50
260.157513
 51
279.842487
  0
ARC
  5
409
330
18
100
AcDbEntity
  8
1
  6
Continuous
100
AcDbCircle
 10
49.2046625376081
 20
143.5945728068467
 30
0.0
 40
1.5
100
AcDbArc
 50
180.0
 51
260.157513
  0
ARC
  5
40A
330
18
100
AcDbEntity
  8
1
  6
Continuous
100
AcDbCircle
 10
45.9546625376081
 20
166.2335348068467
 30
0.0
 40
1.5
100
AcDbArc
 50
180.0
 51
225.0
  0
LINE
  5
40B
330
18
100
AcDbEntity
  8
1
  6
Continuous
100
AcDbLine
 10
43.95466253760811
 20
167.4835348068466
 30
0.0
 11
44.4546625376081
 21
167.4835348068466
 31
0.0
  0
LINE
  5
40C
330
18
100
AcDbEntity
  8
1
  6
Continuous
100
AcDbLine
 10
40.39616253760811
 20
167.2335348068466
 30
0.0
 11
42.6961625376081
 21
167.2335348068466
 31
0.0
  0
LINE
  5
40D
330
18
100
AcDbEntity
  8
1
  6
Continuous
100
AcDbLine
 10
44.89400253760812
 20
165.1728748068467
 30
0.0
 11
46.7046625376081
 21
163.3622138068466
 31
0.0
  0
LINE
  5
40E
330
18
100
AcDbEntity
  8
1
  6
Continuous
100
AcDbLine
 10
46.7046625376081
 20
161.7335348068466
 30
0.0
 11
47.70466253760811
 21
160.7335348068466
 31
0.0
  0
ARC
  5
40F
330
18
100
AcDbEntity
  8
1
  6
Continuous
100
AcDbCircle
 10
69.20466253760811
 20
143.5945728068467
 30
0.0
 40
1.5
100
AcDbArc
 50
279.842487
 51
0.0
  0
LINE
  5
410
330
18
100
AcDbEntity
  8
1
  6
Continuous
100
AcDbLine
 10
73.51532253760812
 20
165.1728748068467
 30
0.0
 11
71.70466253760811
 21
163.3622138068466
 31
0.0
  0
LINE
  5
411
330
18
100
AcDbEntity
  8
1
  6
Continuous
100
AcDbLine
 10
71.70466253760811
 20
161.7335348068466
 30
0.0
 11
70.70466253760812
 21
160.7335348068466
 31
0.0
  0
ARC
  5
412
330
18
100
AcDbEntity
  8
1
  6
Continuous
100
AcDbCircle
 10
72.45466253760811
 20
166.2335348068467
 30
0.0
 40
1.5
100
AcDbArc
 50
315.0
 51
0.0
  0
LINE
  5
413
330
18
100
AcDbEntity
  8
1
  6
Continuous
100
AcDbLine
 10
74.45466253760812
 20
167.4835348068466
 30
0.0
 11
73.95466253760813
 21
167.4835348068466
 31
0.0
  0
LINE
  5
414
330
18
100
AcDbEntity
  8
1
  6
Continuous
100
AcDbLine
 10
75.71316253760811
 20
167.2335348068466
 30
0.0
 11
78.01316253760809
 21
167.2335348068466
 31
0.0
  0
ARC
  5
415
330
18
100
AcDbEntity
  8
1
  6
Continuous
100
AcDbCircle
 10
198.8082115376079
 20
64.60120880684673
 30
0.0
 40
1.5
100
AcDbArc
 50
270.0
 51
350.1575129999998
  0
ARC
  5
416
330
18
100
AcDbEntity
  8
1
  6
Continuous
100
AcDbCircle
 10
128.530286537608
 20
64.60120880684673
 30
0.0
 40
1.5
100
AcDbArc
 50
189.842487
 51
270.0
  0
ARC
  5
417
330
18
100
AcDbEntity
  8
1
  6
Continuous
100
AcDbCircle
 10
188.6691735376079
 20
74.60120880684673
 30
0.0
 40
20.44999999999999
100
AcDbArc
 50
227.7499099999999
 51
132.25009
  0
ARC
  5
418
330
18
100
AcDbEntity
  8
1
  6
Continuous
100
AcDbCircle
 10
188.6691735376079
 20
74.60120880684673
 30
0.0
 40
18.44999999999998
100
AcDbArc
 50
231.300271
 51
128.6997289999999
  0
ARC
  5
419
330
18
100
AcDbEntity
  8
1
  6
Continuous
100
AcDbCircle
 10
188.6691735376079
 20
74.60120880684673
 30
0.0
 40
26.000075
100
AcDbArc
 50
226.504025
 51
131.7114699999999
  0
ARC
  5
41A
330
18
100
AcDbEntity
  8
1
  6
Continuous
100
AcDbCircle
 10
188.6691735376079
 20
74.60120880684673
 30
0.0
 40
22.45
100
AcDbArc
 50
234.9429129999998
 51
125.057087
  0
ARC
  5
41B
330
18
100
AcDbEntity
  8
1
  6
Continuous
100
AcDbCircle
 10
188.6691735376079
 20
74.60120880684673
 30
0.0
 40
24.75
100
AcDbArc
 50
234.9429129999998
 51
125.057087
  0
LINE
  5
41C
330
18
100
AcDbEntity
  8
4
  6
CENTER
100
AcDbLine
 10
163.6692485376079
 20
106.6012088068467
 30
0.0
 11
163.6692485376079
 21
42.60120880684673
 31
0.0
  0
LINE
  5
41D
330
18
100
AcDbEntity
  8
1
  6
Continuous
100
AcDbLine
 10
223.6691735376081
 20
94.60120880684671
 30
0.0
 11
223.6691735376081
 21
54.60120880684672
 31
0.0
  0
LINE
  5
41E
330
18
100
AcDbEntity
  8
4
  6
CENTER
100
AcDbLine
 10
188.6691735376079
 20
106.6012088068467
 30
0.0
 11
188.6691735376079
 21
42.60120880684673
 31
0.0
  0
LINE
  5
420
330
18
100
AcDbEntity
  8
1
  6
Continuous
100
AcDbLine
 10
156.669248537608
 20
53.29270880684674
 30
0.0
 11
170.669248537608
 21
53.29270880684674
 31
0.0
  0
LINE
  5
421
330
18
100
AcDbEntity
  8
1
  6
Continuous
100
AcDbLine
 10
174.919248537608
 20
59.35120880684674
 30
0.0
 11
152.419248537608
 21
59.35120880684674
 31
0.0
  0
LINE
  5
422
330
18
100
AcDbEntity
  8
1
  6
Continuous
100
AcDbLine
 10
198.8082115376079
 20
63.10120880684674
 30
0.0
 11
128.530286537608
 21
63.10120880684674
 31
0.0
  0
LINE
  5
423
330
18
100
AcDbEntity
  8
1
  6
Continuous
100
AcDbLine
 10
151.1692485376079
 20
59.85120880684674
 30
0.0
 11
176.1692485376079
 21
59.85120880684674
 31
0.0
  0
LINE
  5
424
330
18
100
AcDbEntity
  8
1
  6
Continuous
100
AcDbLine
 10
146.669248537608
 20
62.10120880684672
 30
0.0
 11
180.669248537608
 21
62.10120880684672
 31
0.0
  0
ARC
  5
425
330
18
100
AcDbEntity
  8
1
  6
Continuous
100
AcDbCircle
 10
169.857825537608
 20
47.79270880684673
 30
0.0
 40
8.0
100
AcDbArc
 50
54.942913
 51
90.0
  0
ARC
  5
426
330
18
100
AcDbEntity
  8
1
  6
Continuous
100
AcDbCircle
 10
169.857825537608
 20
47.79270880684673
 30
0.0
 40
10.3
100
AcDbArc
 50
54.942913
 51
90.0
  0
LINE
  5
427
330
18
100
AcDbEntity
  8
1
  6
Continuous
100
AcDbLine
 10
216.6691735376081
 20
47.60120880684672
 30
0.0
 11
160.6691735376081
 21
47.60120880684672
 31
0.0
  0
ARC
  5
428
330
18
100
AcDbEntity
  8
1
  6
Continuous
100
AcDbCircle
 10
151.1692485376079
 20
61.35120880684674
 30
0.0
 40
1.5
100
AcDbArc
 50
225.0
 51
270.0
  0
LINE
  5
429
330
18
100
AcDbEntity
  8
1
  6
Continuous
100
AcDbLine
 10
146.669248537608
 20
62.10120880684672
 30
0.0
 11
145.669248537608
 21
63.10120880684674
 31
0.0
  0
LINE
  5
42A
330
18
100
AcDbEntity
  8
1
  6
Continuous
100
AcDbLine
 10
150.1085885376079
 20
60.29054880684674
 30
0.0
 11
148.297928537608
 21
62.10120880684672
 31
0.0
  0
ARC
  5
42B
330
18
100
AcDbEntity
  8
1
  6
Continuous
100
AcDbCircle
 10
160.6691735376081
 20
54.60120880684672
 30
0.0
 40
7.0
100
AcDbArc
 50
180.0
 51
270.0
  0
LINE
  5
42C
330
18
100
AcDbEntity
  8
4
  6
CENTER
100
AcDbLine
 10
161.6691735376081
 20
62.85120880684672
 30
0.0
 11
161.6691735376081
 21
50.35120880684672
 31
0.0
  0
ARC
  5
42D
330
18
100
AcDbEntity
  8
1
  6
Continuous
100
AcDbCircle
 10
163.6692485376079
 20
62.29270880684673
 30
0.0
 40
11.40175399999999
100
AcDbArc
 50
232.1250159999999
 51
307.8749820294593
  0
LINE
  5
42E
330
18
100
AcDbEntity
  8
1
  6
Continuous
100
AcDbLine
 10
153.4691735376079
 20
58.09270880684675
 30
0.0
 11
169.857825537608
 21
58.09270880684675
 31
0.0
  0
LINE
  5
42F
330
18
100
AcDbEntity
  8
1
  6
Continuous
100
AcDbLine
 10
153.4691735376079
 20
55.79270880684674
 30
0.0
 11
169.857825537608
 21
55.79270880684674
 31
0.0
  0
LINE
  5
430
330
18
100
AcDbEntity
  8
4
  6
CENTER
100
AcDbLine
 10
167.9191735376081
 20
56.60120880684672
 30
0.0
 11
155.4191735376081
 21
56.60120880684672
 31
0.0
  0
LINE
  5
431
330
18
100
AcDbEntity
  8
1
  6
Continuous
100
AcDbLine
 10
153.4691735376079
 20
58.09270880684675
 30
0.0
 11
153.4691735376079
 21
55.79270880684674
 31
0.0
  0
LINE
  5
432
330
18
100
AcDbEntity
  8
1
  6
Continuous
100
AcDbLine
 10
153.6691735376081
 20
55.79270880684674
 30
0.0
 11
153.6691735376081
 21
54.60120880684672
 31
0.0
  0
LINE
  5
433
330
18
100
AcDbEntity
  8
1
  6
Continuous
100
AcDbLine
 10
156.669248537608
 20
53.29270880684674
 30
0.0
 11
156.669248537608
 21
55.79270880684674
 31
0.0
  0
LINE
  5
434
330
18
100
AcDbEntity
  8
1
  6
Continuous
100
AcDbLine
 10
152.419248537608
 20
59.85120880684674
 30
0.0
 11
152.419248537608
 21
59.35120880684674
 31
0.0
  0
LINE
  5
435
330
18
100
AcDbEntity
  8
1
  6
Continuous
100
AcDbLine
 10
153.6691735376081
 20
59.35120880684674
 30
0.0
 11
153.6691735376081
 21
58.09270880684675
 31
0.0
  0
LINE
  5
436
330
18
100
AcDbEntity
  8
1
  6
Continuous
100
AcDbLine
 10
158.169248537608
 20
58.09270880684675
 30
0.0
 11
158.169248537608
 21
59.35120880684674
 31
0.0
  0
LINE
  5
438
330
18
100
AcDbEntity
  8
1
  6
Continuous
100
AcDbLine
 10
169.169248537608
 20
58.09270880684675
 30
0.0
 11
169.169248537608
 21
59.35120880684674
 31
0.0
  0
LINE
  5
439
330
18
100
AcDbEntity
  8
1
  6
Continuous
100
AcDbLine
 10
170.669248537608
 20
53.29270880684674
 30
0.0
 11
170.669248537608
 21
55.79270880684674
 31
0.0
  0
LINE
  5
43A
330
18
100
AcDbEntity
  8
1
  6
Continuous
100
AcDbLine
 10
174.919248537608
 20
59.35120880684674
 30
0.0
 11
174.919248537608
 21
59.85120880684674
 31
0.0
  0
LINE
  5
43B
330
18
100
AcDbEntity
  8
1
  6
Continuous
100
AcDbLine
 10
177.2299085376081
 20
60.29054880684674
 30
0.0
 11
179.0405695376081
 21
62.10120880684672
 31
0.0
  0
ARC
  5
43C
330
18
100
AcDbEntity
  8
1
  6
Continuous
100
AcDbCircle
 10
176.1692485376079
 20
61.35120880684674
 30
0.0
 40
1.5
100
AcDbArc
 50
270.0
 51
315.0
  0
LINE
  5
43D
330
18
100
AcDbEntity
  8
1
  6
Continuous
100
AcDbLine
 10
180.669248537608
 20
62.10120880684672
 30
0.0
 11
181.669248537608
 21
63.10120880684674
 31
0.0
  0
ARC
  5
43E
330
18
100
AcDbEntity
  8
1
  6
Continuous
100
AcDbCircle
 10
216.6691735376081
 20
54.60120880684672
 30
0.0
 40
7.0
100
AcDbArc
 50
270.0
 51
0.0
  0
LINE
  5
43F
330
18
100
AcDbEntity
  8
4
  6
CENTER
100
AcDbLine
 10
215.6691735376081
 20
62.85120880684672
 30
0.0
 11
215.6691735376081
 21
50.35120880684672
 31
0.0
  0
CIRCLE
  5
440
330
18
100
AcDbEntity
  8
1
  6
Continuous
100
AcDbCircle
 10
215.6691735376081
 20
56.60120880684672
 30
0.0
 40
3.25
  0
LINE
  5
441
330
18
100
AcDbEntity
  8
4
  6
CENTER
100
AcDbLine
 10
221.9191735376081
 20
56.60120880684672
 30
0.0
 11
209.419173537608
 21
56.60120880684672
 31
0.0
  0
LINE
  5
442
330
18
100
AcDbEntity
  8
1
  6
Continuous
100
AcDbLine
 10
171.3692485376079
 20
95.40970880684676
 30
0.0
 11
155.969248537608
 21
95.40970880684676
 31
0.0
  0
LINE
  5
443
330
18
100
AcDbEntity
  8
1
  6
Continuous
100
AcDbLine
 10
152.419248537608
 20
89.85120880684673
 30
0.0
 11
174.919248537608
 21
89.85120880684673
 31
0.0
  0
LINE
  5
444
330
18
100
AcDbEntity
  8
1
  6
Continuous
100
AcDbLine
 10
128.530286537608
 20
86.10120880684673
 30
0.0
 11
198.8082115376079
 21
86.10120880684673
 31
0.0
  0
LINE
  5
445
330
18
100
AcDbEntity
  8
1
  6
Continuous
100
AcDbLine
 10
151.1692485376079
 20
89.35120880684673
 30
0.0
 11
176.1692485376079
 21
89.35120880684673
 31
0.0
  0
LINE
  5
446
330
18
100
AcDbEntity
  8
1
  6
Continuous
100
AcDbLine
 10
180.669248537608
 20
87.10120880684669
 30
0.0
 11
146.669248537608
 21
87.10120880684669
 31
0.0
  0
ARC
  5
447
330
18
100
AcDbEntity
  8
1
  6
Continuous
100
AcDbCircle
 10
169.857825537608
 20
101.4097088068466
 30
0.0
 40
10.3
100
AcDbArc
 50
270.0
 51
305.057087
  0
ARC
  5
448
330
18
100
AcDbEntity
  8
1
  6
Continuous
100
AcDbCircle
 10
169.857825537608
 20
101.4097088068466
 30
0.0
 40
8.0
100
AcDbArc
 50
270.0
 51
305.057087
  0
LINE
  5
449
330
18
100
AcDbEntity
  8
4
  6
CENTER
100
AcDbLine
 10
228.969173537608
 20
74.60120880684673
 30
0.0
 11
121.1692395376079
 21
74.60120880684673
 31
0.0
  0
LINE
  5
44A
330
18
100
AcDbEntity
  8
1
  6
Continuous
100
AcDbLine
 10
216.6691735376081
 20
101.6012088068467
 30
0.0
 11
167.2777485376079
 21
101.6012088068467
 31
0.0
  0
ARC
  5
44B
330
18
100
AcDbEntity
  8
1
  6
Continuous
100
AcDbCircle
 10
186.169248537608
 20
74.60120880684673
 30
0.0
 40
60.0
100
AcDbArc
 50
170.1575129999999
 51
189.842487
  0
ARC
  5
44C
330
18
100
AcDbEntity
  8
1
  6
Continuous
100
AcDbCircle
 10
128.530286537608
 20
84.60120880684669
 30
0.0
 40
1.5
100
AcDbArc
 50
90.0
 51
170.1575129999999
  0
LINE
  5
44D
330
18
100
AcDbEntity
  8
1
  6
Continuous
100
AcDbLine
 10
169.169248537608
 20
89.85120880684673
 30
0.0
 11
169.169248537608
 21
91.10970880684671
 31
0.0
  0
LINE
  5
44E
330
18
100
AcDbEntity
  8
1
  6
Continuous
100
AcDbLine
 10
158.169248537608
 20
89.85120880684673
 30
0.0
 11
158.169248537608
 21
91.10970880684671
 31
0.0
  0
LINE
  5
44F
330
18
100
AcDbEntity
  8
1
  6
Continuous
100
AcDbLine
 10
153.6691735376081
 20
91.10970880684671
 30
0.0
 11
153.6691735376081
 21
89.85120880684673
 31
0.0
  0
LINE
  5
450
330
18
100
AcDbEntity
  8
4
  6
CENTER
100
AcDbLine
 10
161.6691735376081
 20
98.85120880684674
 30
0.0
 11
161.6691735376081
 21
86.35120880684672
 31
0.0
  0
ARC
  5
451
330
18
100
AcDbEntity
  8
1
  6
Continuous
100
AcDbCircle
 10
151.1692485376079
 20
87.85120880684671
 30
0.0
 40
1.5
100
AcDbArc
 50
90.0
 51
135.0
  0
LINE
  5
452
330
18
100
AcDbEntity
  8
1
  6
Continuous
100
AcDbLine
 10
146.669248537608
 20
87.10120880684669
 30
0.0
 11
145.669248537608
 21
86.10120880684673
 31
0.0
  0
LINE
  5
453
330
18
100
AcDbEntity
  8
1
  6
Continuous
100
AcDbLine
 10
150.1085885376079
 20
88.91186880684671
 30
0.0
 11
148.297928537608
 21
87.10120880684669
 31
0.0
  0
LINE
  5
454
330
18
100
AcDbEntity
  8
1
  6
Continuous
100
AcDbLine
 10
152.419248537608
 20
89.35120880684673
 30
0.0
 11
152.419248537608
 21
89.85120880684673
 31
0.0
  0
ARC
  5
455
330
18
100
AcDbEntity
  8
1
  6
Continuous
100
AcDbCircle
 10
160.6692485376079
 20
91.74464480684674
 30
0.0
 40
8.665063999999999
100
AcDbArc
 50
69.743842
 51
110.2561579999999
  0
ARC
  5
456
330
18
100
AcDbEntity
  8
1
  6
Continuous
100
AcDbCircle
 10
160.6692485376079
 20
104.0747718068466
 30
0.0
 40
8.665063999999999
100
AcDbArc
 50
249.7438419999999
 51
290.256158
  0
LINE
  5
457
330
18
100
AcDbEntity
  8
1
  6
Continuous
100
AcDbLine
 10
157.669248537608
 20
100.4097088068466
 30
0.0
 11
169.669248537608
 21
100.4097088068466
 31
0.0
  0
LINE
  5
458
330
18
100
AcDbEntity
  8
1
  6
Continuous
100
AcDbLine
 10
167.6692485376079
 20
101.2097088068467
 30
0.0
 11
159.6692485376079
 21
101.2097088068467
 31
0.0
  0
LINE
  5
459
330
18
100
AcDbEntity
  8
1
  6
Continuous
100
AcDbLine
 10
167.0692485376079
 20
101.8097088068466
 30
0.0
 11
160.2692485376081
 21
101.8097088068466
 31
0.0
  0
LINE
  5
45A
330
18
100
AcDbEntity
  8
1
  6
Continuous
100
AcDbLine
 10
153.4691735376079
 20
91.10970880684671
 30
0.0
 11
169.857825537608
 21
91.10970880684671
 31
0.0
  0
LINE
  5
45B
330
18
100
AcDbEntity
  8
1
  6
Continuous
100
AcDbLine
 10
153.4691735376079
 20
93.40970880684674
 30
0.0
 11
169.857825537608
 21
93.40970880684674
 31
0.0
  0
LINE
  5
45C
330
18
100
AcDbEntity
  8
4
  6
CENTER
100
AcDbLine
 10
167.9191735376081
 20
92.60120880684672
 30
0.0
 11
155.4191735376081
 21
92.60120880684672
 31
0.0
  0
LINE
  5
45D
330
18
100
AcDbEntity
  8
1
  6
Continuous
100
AcDbLine
 10
157.669248537608
 20
100.4097088068466
 30
0.0
 11
157.669248537608
 21
95.40970880684676
 31
0.0
  0
ARC
  5
45E
330
18
100
AcDbEntity
  8
1
  6
Continuous
100
AcDbCircle
 10
160.6691735376081
 20
94.60120880684671
 30
0.0
 40
7.0
100
AcDbArc
 50
95.22537899999996
 51
180.0
  0
LINE
  5
45F
330
18
100
AcDbEntity
  8
1
  6
Continuous
100
AcDbLine
 10
153.4691735376079
 20
93.40970880684674
 30
0.0
 11
153.4691735376079
 21
91.10970880684671
 31
0.0
  0
LINE
  5
460
330
18
100
AcDbEntity
  8
1
  6
Continuous
100
AcDbLine
 10
153.6691735376081
 20
94.60120880684671
 30
0.0
 11
153.6691735376081
 21
93.40970880684674
 31
0.0
  0
LINE
  5
461
330
18
100
AcDbEntity
  8
1
  6
Continuous
100
AcDbLine
 10
155.969248537608
 20
93.40970880684674
 30
0.0
 11
155.969248537608
 21
95.40970880684676
 31
0.0
  0
LINE
  5
462
330
18
100
AcDbEntity
  8
2
  6
Continuous
100
AcDbLine
 10
160.345748537608
 20
100.4097088068466
 30
0.0
 11
160.345748537608
 21
101.8097088068466
 31
0.0
  0
LINE
  5
463
330
18
100
AcDbEntity
  8
1
  6
Continuous
100
AcDbLine
 10
159.6692485376079
 20
100.4097088068466
 30
0.0
 11
159.6692485376079
 21
101.2097088068467
 31
0.0
  0
LINE
  5
464
330
18
100
AcDbEntity
  8
1
  6
Continuous
100
AcDbLine
 10
159.6692485376079
 20
101.2097088068467
 30
0.0
 11
160.2692485376081
 21
101.8097088068466
 31
0.0
  0
LINE
  5
465
330
18
100
AcDbEntity
  8
1
  6
Continuous
100
AcDbLine
 10
163.6692485376079
 20
95.94560680684672
 30
0.0
 11
163.6692485376079
 21
99.87380980684674
 31
0.0
  0
LINE
  5
466
330
18
100
AcDbEntity
  8
1
  6
Continuous
100
AcDbLine
 10
169.669248537608
 20
100.4097088068466
 30
0.0
 11
169.669248537608
 21
95.40970880684676
 31
0.0
  0
ARC
  5
467
330
18
100
AcDbEntity
  8
1
  6
Continuous
100
AcDbCircle
 10
166.669248537608
 20
104.0747718068466
 30
0.0
 40
8.665063999999999
100
AcDbArc
 50
249.7438419999999
 51
290.256158
  0
LINE
  5
468
330
18
100
AcDbEntity
  8
1
  6
Continuous
100
AcDbLine
 10
165.6692485376079
 20
93.40970880684674
 30
0.0
 11
163.6692485376079
 21
95.40970880684676
 31
0.0
  0
LINE
  5
469
330
18
100
AcDbEntity
  8
1
  6
Continuous
100
AcDbLine
 10
163.6692485376079
 20
93.40970880684674
 30
0.0
 11
161.6692485376079
 21
95.40970880684676
 31
0.0
  0
ARC
  5
46A
330
18
100
AcDbEntity
  8
1
  6
Continuous
100
AcDbCircle
 10
166.669248537608
 20
91.74464480684674
 30
0.0
 40
8.665063999999999
100
AcDbArc
 50
69.743842
 51
110.2561579999999
  0
LINE
  5
46B
330
18
100
AcDbEntity
  8
2
  6
Continuous
100
AcDbLine
 10
166.9927485376081
 20
100.4097088068466
 30
0.0
 11
166.9927485376081
 21
101.8097088068466
 31
0.0
  0
LINE
  5
46C
330
18
100
AcDbEntity
  8
1
  6
Continuous
100
AcDbLine
 10
167.6692485376079
 20
100.4097088068466
 30
0.0
 11
167.6692485376079
 21
101.2097088068467
 31
0.0
  0
LINE
  5
46D
330
18
100
AcDbEntity
  8
1
  6
Continuous
100
AcDbLine
 10
167.0692485376079
 20
101.8097088068466
 30
0.0
 11
167.6692485376079
 21
101.2097088068467
 31
0.0
  0
LINE
  5
46E
330
18
100
AcDbEntity
  8
1
  6
Continuous
100
AcDbLine
 10
174.919248537608
 20
89.85120880684673
 30
0.0
 11
174.919248537608
 21
89.35120880684673
 31
0.0
  0
LINE
  5
46F
330
18
100
AcDbEntity
  8
1
  6
Continuous
100
AcDbLine
 10
177.2299085376081
 20
88.91186880684671
 30
0.0
 11
179.0405695376081
 21
87.10120880684669
 31
0.0
  0
ARC
  5
470
330
18
100
AcDbEntity
  8
1
  6
Continuous
100
AcDbCircle
 10
176.1692485376079
 20
87.85120880684671
 30
0.0
 40
1.5
100
AcDbArc
 50
45.0
 51
90.0
  0
LINE
  5
471
330
18
100
AcDbEntity
  8
1
  6
Continuous
100
AcDbLine
 10
180.669248537608
 20
87.10120880684669
 30
0.0
 11
181.669248537608
 21
86.10120880684673
 31
0.0
  0
ARC
  5
472
330
18
100
AcDbEntity
  8
1
  6
Continuous
100
AcDbCircle
 10
141.1692485376081
 20
74.60120880684673
 30
0.0
 40
60.0
100
AcDbArc
 50
350.1575129999998
 51
9.842487
  0
ARC
  5
473
330
18
100
AcDbEntity
  8
1
  6
Continuous
100
AcDbCircle
 10
198.8082115376079
 20
84.60120880684669
 30
0.0
 40
1.5
100
AcDbArc
 50
9.842487
 51
90.0
  0
LINE
  5
474
330
18
100
AcDbEntity
  8
1
  6
Continuous
100
AcDbLine
 10
171.3692485376079
 20
93.55378080684673
 30
0.0
 11
171.3692485376079
 21
95.40970880684676
 31
0.0
  0
CIRCLE
  5
475
330
18
100
AcDbEntity
  8
1
  6
Continuous
100
AcDbCircle
 10
215.6691735376081
 20
92.60120880684672
 30
0.0
 40
3.25
  0
LINE
  5
476
330
18
100
AcDbEntity
  8
4
  6
CENTER
100
AcDbLine
 10
215.6691735376081
 20
98.85120880684674
 30
0.0
 11
215.6691735376081
 21
86.35120880684672
 31
0.0
  0
ARC
  5
477
330
18
100
AcDbEntity
  8
1
  6
Continuous
100
AcDbCircle
 10
216.6691735376081
 20
94.60120880684671
 30
0.0
 40
7.0
100
AcDbArc
 50
0.0
 51
90.0
  0
LINE
  5
478
330
18
100
AcDbEntity
  8
4
  6
CENTER
100
AcDbLine
 10
221.9191735376081
 20
92.60120880684672
 30
0.0
 11
209.419173537608
 21
92.60120880684672
 31
0.0
  0
ARC
  5
479
330
18
100
AcDbEntity
  8
1
  6
Continuous
100
AcDbCircle
 10
80.49266253760809
 20
222.0714898068466
 30
0.0
 40
3.461999999999998
100
AcDbArc
 50
0.0
 51
90.0
  0
ARC
  5
47A
330
18
100
AcDbEntity
  8
1
  6
Continuous
100
AcDbCircle
 10
37.91666253760811
 20
222.0714898068466
 30
0.0
 40
3.461999999999998
100
AcDbArc
 50
90.0
 51
180.0
  0
ARC
  5
47B
330
18
100
AcDbEntity
  8
1
  6
Continuous
100
AcDbCircle
 10
73.41051653760811
 20
218.6392558068466
 30
0.0
 40
4.612044999999998
100
AcDbArc
 50
3.658345999999997
 51
84.96300599999996
  0
ARC
  5
47C
330
18
100
AcDbEntity
  8
1
  6
Continuous
100
AcDbCircle
 10
45.37433253760811
 20
218.2168098068467
 30
0.0
 40
5.029499999999997
100
AcDbArc
 50
94.091859
 51
171.807218
  0
ARC
  5
47D
330
18
100
AcDbEntity
  8
1
  6
Continuous
100
AcDbCircle
 10
59.2046625376081
 20
156.2335348068466
 30
0.0
 40
60.0
100
AcDbArc
 50
80.15751300000003
 51
99.84248700000001
  0
LINE
  5
47E
330
18
100
AcDbEntity
  8
1
  6
Continuous
100
AcDbLine
 10
53.99952253760811
 20
219.4710348068467
 30
0.0
 11
55.1728085376081
 21
220.9334898068466
 31
0.0
  0
LINE
  5
47F
330
18
100
AcDbEntity
  8
1
  6
Continuous
100
AcDbLine
 10
54.51030853760811
 20
219.4710348068467
 30
0.0
 11
53.75859453760813
 21
220.9334898068466
 31
0.0
  0
LINE
  5
480
330
18
100
AcDbEntity
  8
1
  6
Continuous
100
AcDbLine
 10
45.0154485376081
 20
223.2334898068467
 30
0.0
 11
73.81544853760809
 21
223.2334898068467
 31
0.0
  0
LINE
  5
481
330
18
100
AcDbEntity
  8
1
  6
Continuous
100
AcDbLine
 10
45.0154485376081
 20
220.9334898068466
 30
0.0
 11
73.81544853760809
 21
220.9334898068466
 31
0.0
  0
LINE
  5
482
330
18
100
AcDbEntity
  8
1
  6
Continuous
100
AcDbLine
 10
42.92445853760812
 20
219.4710348068467
 30
0.0
 11
75.57070253760811
 21
219.4710348068467
 31
0.0
  0
LINE
  5
483
330
18
100
AcDbEntity
  8
1
  6
Continuous
100
AcDbLine
 10
42.6961625376081
 20
217.9710348068467
 30
0.0
 11
75.71316253760811
 21
217.9710348068467
 31
0.0
  0
LINE
  5
484
330
18
100
AcDbEntity
  8
4
  6
CENTER
100
AcDbLine
 10
30.3961625376081
 20
178.7335348068467
 30
0.0
 11
91.41316253760813
 21
178.7335348068467
 31
0.0
  0
LINE
  5
485
330
18
100
AcDbEntity
  8
1
  6
Continuous
100
AcDbLine
 10
34.45466253760811
 20
222.0714898068466
 30
0.0
 11
34.45466253760811
 21
192.4980858068465
 31
0.0
  0
ARC
  5
486
330
18
100
AcDbEntity
  8
1
  6
Continuous
100
AcDbCircle
 10
79.45466253760812
 20
192.4980858068465
 30
0.0
 40
45.0
100
AcDbArc
 50
180.0
 51
194.187871897229
  0
LINE
  5
488
330
18
100
AcDbEntity
  8
1
  6
Continuous
100
AcDbLine
 10
37.89616253760811
 20
171.7335348068466
 30
0.0
 11
37.89616253760811
 21
185.7335348068466
 31
0.0
  0
LINE
  5
48A
330
18
100
AcDbEntity
  8
1
  6
Continuous
100
AcDbLine
 10
37.89616253760811
 20
171.7335348068466
 30
0.0
 11
40.39616253760811
 21
171.7335348068466
 31
0.0
  0
ARC
  5
48B
330
18
100
AcDbEntity
  8
1
  6
Continuous
100
AcDbCircle
 10
46.8961625376081
 20
178.7335348068467
 30
0.0
 40
11.40175399999999
100
AcDbArc
 50
142.1250179705418
 51
217.874984
  0
LINE
  5
48C
330
18
100
AcDbEntity
  8
1
  6
Continuous
100
AcDbLine
 10
42.6961625376081
 20
173.2335348068466
 30
0.0
 11
43.95466253760811
 21
173.2335348068466
 31
0.0
  0
ARC
  5
48D
330
18
100
AcDbEntity
  8
1
  6
Continuous
100
AcDbCircle
 10
45.9546625376081
 20
191.2335348068467
 30
0.0
 40
1.5
100
AcDbArc
 50
135.0
 51
180.0
  0
LINE
  5
48E
330
18
100
AcDbEntity
  8
1
  6
Continuous
100
AcDbLine
 10
37.89616253760811
 20
185.7335348068466
 30
0.0
 11
40.39616253760811
 21
185.7335348068466
 31
0.0
  0
LINE
  5
48F
330
18
100
AcDbEntity
  8
1
  6
Continuous
100
AcDbLine
 10
44.4546625376081
 20
189.9835348068467
 30
0.0
 11
43.95466253760811
 21
189.9835348068467
 31
0.0
  0
LINE
  5
490
330
18
100
AcDbEntity
  8
1
  6
Continuous
100
AcDbLine
 10
42.6961625376081
 20
184.2335348068466
 30
0.0
 11
43.95466253760811
 21
184.2335348068466
 31
0.0
  0
LINE
  5
491
330
18
100
AcDbEntity
  8
1
  6
Continuous
100
AcDbLine
 10
46.7046625376081
 20
195.7335348068466
 30
0.0
 11
47.70466253760811
 21
196.7335348068466
 31
0.0
  0
LINE
  5
492
330
18
100
AcDbEntity
  8
1
  6
Continuous
100
AcDbLine
 10
44.89400253760812
 20
192.2941948068467
 30
0.0
 11
46.7046625376081
 21
194.1048548068465
 31
0.0
  0
ARC
  5
493
330
18
100
AcDbEntity
  8
1
  6
Continuous
100
AcDbCircle
 10
45.45498253760809
 20
218.0789958068466
 30
0.0
 40
2.888134999999998
100
AcDbArc
 50
98.75362899999997
 51
162.789725
  0
LINE
  5
494
330
18
100
AcDbEntity
  8
1
  6
Continuous
100
AcDbLine
 10
44.74955953760811
 20
220.9097368068467
 30
0.0
 11
42.9915275376081
 21
219.4710348068467
 31
0.0
  0
ARC
  5
495
330
18
100
AcDbEntity
  8
1
  6
Continuous
100
AcDbCircle
 10
48.2981625376081
 20
223.1601568068466
 30
0.0
 40
7.487396
100
AcDbArc
 50
233.119947
 51
265.563802
  0
LINE
  5
496
330
18
100
AcDbEntity
  8
1
  6
Continuous
100
AcDbLine
 10
42.6961625376081
 20
217.9710348068467
 30
0.0
 11
43.80466253760809
 21
217.1710348068467
 31
0.0
  0
LINE
  5
497
330
18
100
AcDbEntity
  8
1
  6
Continuous
100
AcDbLine
 10
43.90466253760811
 20
219.4710348068467
 30
0.0
 11
42.6961625376081
 21
217.9710348068467
 31
0.0
  0
LINE
  5
498
330
18
100
AcDbEntity
  8
1
  6
Continuous
100
AcDbLine
 10
43.66871253760812
 20
219.9131358068466
 30
0.0
 11
44.11081353760812
 21
219.4710348068467
 31
0.0
  0
LINE
  5
499
330
18
100
AcDbEntity
  8
1
  6
Continuous
100
AcDbLine
 10
47.7190205376081
 20
215.6951918068467
 30
0.0
 11
51.1618135376081
 21
215.6920298068466
 31
0.0
  0
ARC
  5
49A
330
18
100
AcDbEntity
  8
1
  6
Continuous
100
AcDbCircle
 10
49.2046625376081
 20
213.8724978068467
 30
0.0
 40
1.5
100
AcDbArc
 50
99.84248700000001
 51
180.0
  0
LINE
  5
49B
330
18
100
AcDbEntity
  8
1
  6
Continuous
100
AcDbLine
 10
48.3426675376081
 20
219.4710348068467
 30
0.0
 11
49.51595353760811
 21
220.9334898068466
 31
0.0
  0
LINE
  5
49C
330
18
100
AcDbEntity
  8
1
  6
Continuous
100
AcDbLine
 10
46.92845453760812
 20
219.4710348068467
 30
0.0
 11
48.1017405376081
 21
220.9334898068466
 31
0.0
  0
LINE
  5
49D
330
18
100
AcDbEntity
  8
1
  6
Continuous
100
AcDbLine
 10
45.01424053760811
 20
219.4710348068467
 30
0.0
 11
46.68752653760811
 21
220.9334898068466
 31
0.0
  0
LINE
  5
49E
330
18
100
AcDbEntity
  8
1
  6
Continuous
100
AcDbLine
 10
48.85345453760812
 20
219.4710348068467
 30
0.0
 11
48.1017405376081
 21
220.9334898068466
 31
0.0
  0
LINE
  5
49F
330
18
100
AcDbEntity
  8
1
  6
Continuous
100
AcDbLine
 10
47.4392405376081
 20
219.4710348068467
 30
0.0
 11
46.68752653760811
 21
220.9334898068466
 31
0.0
  0
LINE
  5
4A0
330
18
100
AcDbEntity
  8
1
  6
Continuous
100
AcDbLine
 10
44.7903055376081
 20
220.9164978068467
 30
0.0
 11
45.52502753760809
 21
219.4710348068467
 31
0.0
  0
LINE
  5
4A1
330
18
100
AcDbEntity
  8
1
  6
Continuous
100
AcDbLine
 10
52.58530853760809
 20
219.4710348068467
 30
0.0
 11
53.75859453760813
 21
220.9334898068466
 31
0.0
  0
LINE
  5
4A2
330
18
100
AcDbEntity
  8
1
  6
Continuous
100
AcDbLine
 10
51.17109553760812
 20
219.4710348068467
 30
0.0
 11
52.34438153760812
 21
220.9334898068466
 31
0.0
  0
LINE
  5
4A3
330
18
100
AcDbEntity
  8
1
  6
Continuous
100
AcDbLine
 10
49.7568815376081
 20
219.4710348068467
 30
0.0
 11
50.9301675376081
 21
220.9334898068466
 31
0.0
  0
LINE
  5
4A4
330
18
100
AcDbEntity
  8
1
  6
Continuous
100
AcDbLine
 10
53.09609553760811
 20
219.4710348068467
 30
0.0
 11
52.34438153760812
 21
220.9334898068466
 31
0.0
  0
LINE
  5
4A5
330
18
100
AcDbEntity
  8
1
  6
Continuous
100
AcDbLine
 10
51.6818815376081
 20
219.4710348068467
 30
0.0
 11
50.9301675376081
 21
220.9334898068466
 31
0.0
  0
LINE
  5
4A6
330
18
100
AcDbEntity
  8
1
  6
Continuous
100
AcDbLine
 10
50.2676675376081
 20
219.4710348068467
 30
0.0
 11
49.51595353760811
 21
220.9334898068466
 31
0.0
  0
LINE
  5
4A7
330
18
100
AcDbEntity
  8
1
  6
Continuous
100
AcDbLine
 10
83.95466253760814
 20
222.0714898068466
 30
0.0
 11
83.95466253760814
 21
192.4980858068465
 31
0.0
  0
LINE
  5
4A8
330
18
100
AcDbEntity
  8
1
  6
Continuous
100
AcDbLine
 10
73.51532253760812
 20
192.2941948068467
 30
0.0
 11
71.70466253760811
 21
194.1048548068465
 31
0.0
  0
LINE
  5
4A9
330
18
100
AcDbEntity
  8
1
  6
Continuous
100
AcDbLine
 10
71.70466253760811
 20
195.7335348068466
 30
0.0
 11
70.70466253760812
 21
196.7335348068466
 31
0.0
  0
ARC
  5
4AA
330
18
100
AcDbEntity
  8
1
  6
Continuous
100
AcDbCircle
 10
81.94617553760812
 20
183.9296878068467
 30
0.0
 40
3.066986999999998
100
AcDbArc
 50
325.6157529999998
 51
25.615753
  0
ARC
  5
4AB
330
18
100
AcDbEntity
  8
1
  6
Continuous
100
AcDbCircle
 10
83.08015053760813
 20
183.9296878068467
 30
0.0
 40
3.066986999999998
100
AcDbArc
 50
154.3842469999999
 51
214.384247
  0
LINE
  5
4AC
330
18
100
AcDbEntity
  8
1
  6
Continuous
100
AcDbLine
 10
80.0131625376081
 20
171.0335348068467
 30
0.0
 11
80.0131625376081
 21
186.4335348068467
 31
0.0
  0
LINE
  5
4AD
330
18
100
AcDbEntity
  8
1
  6
Continuous
100
AcDbLine
 10
85.0131625376081
 20
184.7335348068466
 30
0.0
 11
85.0131625376081
 21
172.7335348068466
 31
0.0
  0
LINE
  5
4AE
330
18
100
AcDbEntity
  8
1
  6
Continuous
100
AcDbLine
 10
80.54906153760809
 20
182.1976368068466
 30
0.0
 11
84.47726453760806
 21
182.1976368068466
 31
0.0
  0
LINE
  5
4AF
330
18
100
AcDbEntity
  8
1
  6
Continuous
100
AcDbLine
 10
80.54906153760809
 20
171.8053318068465
 30
0.0
 11
84.47726453760806
 21
171.8053318068465
 31
0.0
  0
LINE
  5
4B0
330
18
100
AcDbEntity
  8
1
  6
Continuous
100
AcDbLine
 10
80.54906153760809
 20
175.2694338068466
 30
0.0
 11
84.47726453760806
 21
175.2694338068466
 31
0.0
  0
LINE
  5
4B1
330
18
100
AcDbEntity
  8
1
  6
Continuous
100
AcDbLine
 10
78.01316253760809
 20
176.7335348068466
 30
0.0
 11
80.0131625376081
 21
178.7335348068467
 31
0.0
  0
ARC
  5
4B2
330
18
100
AcDbEntity
  8
1
  6
Continuous
100
AcDbCircle
 10
91.47726453760808
 20
178.7335348068467
 30
0.0
 40
11.464102
100
AcDbArc
 50
162.412046
 51
197.5879539999999
  0
LINE
  5
4B3
330
18
100
AcDbEntity
  8
1
  6
Continuous
100
AcDbLine
 10
78.01316253760809
 20
171.0335348068467
 30
0.0
 11
80.0131625376081
 21
171.0335348068467
 31
0.0
  0
LINE
  5
4B4
330
18
100
AcDbEntity
  8
1
  6
Continuous
100
AcDbLine
 10
74.45466253760812
 20
173.2335348068466
 30
0.0
 11
75.71316253760811
 21
173.2335348068466
 31
0.0
  0
LINE
  5
4B5
330
18
100
AcDbEntity
  8
1
  6
Continuous
100
AcDbLine
 10
80.54906153760809
 20
171.8053318068465
 30
0.0
 11
80.0131625376081
 21
172.7335348068466
 31
0.0
  0
ARC
  5
4B6
330
18
100
AcDbEntity
  8
1
  6
Continuous
100
AcDbCircle
 10
83.08015053760813
 20
173.5373828068467
 30
0.0
 40
3.066986999999998
100
AcDbArc
 50
145.615753
 51
205.615753
  0
LINE
  5
4B7
330
18
100
AcDbEntity
  8
1
  6
Continuous
100
AcDbLine
 10
78.01316253760809
 20
178.7335348068467
 30
0.0
 11
80.0131625376081
 21
180.7335348068466
 31
0.0
  0
ARC
  5
4B8
330
18
100
AcDbEntity
  8
1
  6
Continuous
100
AcDbCircle
 10
73.54906153760808
 20
178.7335348068467
 30
0.0
 40
11.464102
100
AcDbArc
 50
342.4120459999998
 51
17.587954
  0
LINE
  5
4B9
330
18
100
AcDbEntity
  8
1
  6
Continuous
100
AcDbLine
 10
86.41316253760811
 20
175.3335348068467
 30
0.0
 11
86.41316253760811
 21
182.1335348068467
 31
0.0
  0
LINE
  5
4BA
330
18
100
AcDbEntity
  8
1
  6
Continuous
100
AcDbLine
 10
85.81316253760808
 20
174.7335348068466
 30
0.0
 11
85.81316253760808
 21
182.7335348068467
 31
0.0
  0
LINE
  5
4BB
330
18
100
AcDbEntity
  8
1
  6
Continuous
100
AcDbLine
 10
84.47726453760806
 20
171.8053318068465
 30
0.0
 11
85.0131625376081
 21
172.7335348068466
 31
0.0
  0
ARC
  5
4BC
330
18
100
AcDbEntity
  8
1
  6
Continuous
100
AcDbCircle
 10
81.94617553760812
 20
173.5373828068467
 30
0.0
 40
3.066986999999998
100
AcDbArc
 50
334.384247
 51
34.38424699999997
  0
LINE
  5
4BD
330
18
100
AcDbEntity
  8
2
  6
Continuous
100
AcDbLine
 10
85.0131625376081
 20
175.4100348068465
 30
0.0
 11
86.41316253760811
 21
175.4100348068465
 31
0.0
  0
LINE
  5
4BE
330
18
100
AcDbEntity
  8
1
  6
Continuous
100
AcDbLine
 10
86.41316253760811
 20
175.3335348068467
 30
0.0
 11
85.81316253760808
 21
174.7335348068466
 31
0.0
  0
LINE
  5
4BF
330
18
100
AcDbEntity
  8
1
  6
Continuous
100
AcDbLine
 10
85.0131625376081
 20
174.7335348068466
 30
0.0
 11
85.81316253760808
 21
174.7335348068466
 31
0.0
  0
LINE
  5
4C0
330
18
100
AcDbEntity
  8
2
  6
Continuous
100
AcDbLine
 10
85.0131625376081
 20
182.0570348068467
 30
0.0
 11
86.41316253760811
 21
182.0570348068467
 31
0.0
  0
LINE
  5
4C1
330
18
100
AcDbEntity
  8
1
  6
Continuous
100
AcDbLine
 10
85.81316253760808
 20
182.7335348068467
 30
0.0
 11
86.41316253760811
 21
182.1335348068467
 31
0.0
  0
LINE
  5
4C2
330
18
100
AcDbEntity
  8
1
  6
Continuous
100
AcDbLine
 10
85.0131625376081
 20
182.7335348068467
 30
0.0
 11
85.81316253760808
 21
182.7335348068467
 31
0.0
  0
LINE
  5
4C3
330
18
100
AcDbEntity
  8
1
  6
Continuous
100
AcDbLine
 10
80.54906153760809
 20
185.6617388068466
 30
0.0
 11
84.47726453760806
 21
185.6617388068466
 31
0.0
  0
LINE
  5
4C4
330
18
100
AcDbEntity
  8
1
  6
Continuous
100
AcDbLine
 10
78.01316253760809
 20
186.4335348068467
 30
0.0
 11
80.0131625376081
 21
186.4335348068467
 31
0.0
  0
LINE
  5
4C5
330
18
100
AcDbEntity
  8
1
  6
Continuous
100
AcDbLine
 10
74.45466253760812
 20
184.2335348068466
 30
0.0
 11
75.71316253760811
 21
184.2335348068466
 31
0.0
  0
LINE
  5
4C6
330
18
100
AcDbEntity
  8
1
  6
Continuous
100
AcDbLine
 10
73.95466253760813
 20
189.9835348068467
 30
0.0
 11
74.45466253760812
 21
189.9835348068467
 31
0.0
  0
LINE
  5
4C7
330
18
100
AcDbEntity
  8
1
  6
Continuous
100
AcDbLine
 10
80.54906153760809
 20
185.6617388068466
 30
0.0
 11
80.0131625376081
 21
184.7335348068466
 31
0.0
  0
ARC
  5
4C8
330
18
100
AcDbEntity
  8
1
  6
Continuous
100
AcDbCircle
 10
72.45466253760811
 20
191.2335348068467
 30
0.0
 40
1.5
100
AcDbArc
 50
0.0
 51
45.0
  0
ARC
  5
4C9
330
18
100
AcDbEntity
  8
1
  6
Continuous
100
AcDbCircle
 10
38.95466253760811
 20
192.4980858068465
 30
0.0
 40
45.0
100
AcDbArc
 50
351.2618569999998
 51
0.0
  0
LINE
  5
4CA
330
18
100
AcDbEntity
  8
1
  6
Continuous
100
AcDbLine
 10
84.47726453760806
 20
185.6617388068466
 30
0.0
 11
85.0131625376081
 21
184.7335348068466
 31
0.0
  0
LINE
  5
4CB
330
18
100
AcDbEntity
  8
1
  6
Continuous
100
AcDbLine
 10
72.88429853760813
 20
219.4710348068467
 30
0.0
 11
74.01541753760811
 21
220.8850278068466
 31
0.0
  0
ARC
  5
4CC
330
18
100
AcDbEntity
  8
1
  6
Continuous
100
AcDbCircle
 10
70.6012305376081
 20
223.5215698068467
 30
0.0
 40
7.848514999999999
100
AcDbArc
 50
270.9161379999998
 51
305.988185
  0
LINE
  5
4CD
330
18
100
AcDbEntity
  8
1
  6
Continuous
100
AcDbLine
 10
64.40980353760811
 20
219.4710348068467
 30
0.0
 11
63.65808953760811
 21
220.9334898068466
 31
0.0
  0
LINE
  5
4CE
330
18
100
AcDbEntity
  8
1
  6
Continuous
100
AcDbLine
 10
58.24216253760813
 20
219.4710348068467
 30
0.0
 11
59.4154485376081
 21
220.9334898068466
 31
0.0
  0
LINE
  5
4CF
330
18
100
AcDbEntity
  8
1
  6
Continuous
100
AcDbLine
 10
58.7529495376081
 20
219.4710348068467
 30
0.0
 11
58.00123553760811
 21
220.9334898068466
 31
0.0
  0
LINE
  5
4D0
330
18
100
AcDbEntity
  8
1
  6
Continuous
100
AcDbLine
 10
55.41373553760811
 20
219.4710348068467
 30
0.0
 11
56.5870215376081
 21
220.9334898068466
 31
0.0
  0
LINE
  5
4D1
330
18
100
AcDbEntity
  8
1
  6
Continuous
100
AcDbLine
 10
57.33873553760811
 20
219.4710348068467
 30
0.0
 11
56.5870215376081
 21
220.9334898068466
 31
0.0
  0
LINE
  5
4D2
330
18
100
AcDbEntity
  8
1
  6
Continuous
100
AcDbLine
 10
55.92452253760811
 20
219.4710348068467
 30
0.0
 11
55.1728085376081
 21
220.9334898068466
 31
0.0
  0
LINE
  5
4D3
330
18
100
AcDbEntity
  8
1
  6
Continuous
100
AcDbLine
 10
56.82794953760811
 20
219.4710348068467
 30
0.0
 11
58.00123553760811
 21
220.9334898068466
 31
0.0
  0
LINE
  5
4D4
330
18
100
AcDbEntity
  8
1
  6
Continuous
100
AcDbLine
 10
62.48480353760811
 20
219.4710348068467
 30
0.0
 11
63.65808953760811
 21
220.9334898068466
 31
0.0
  0
LINE
  5
4D5
330
18
100
AcDbEntity
  8
1
  6
Continuous
100
AcDbLine
 10
62.9955895376081
 20
219.4710348068467
 30
0.0
 11
62.24387553760811
 21
220.9334898068466
 31
0.0
  0
LINE
  5
4D6
330
18
100
AcDbEntity
  8
1
  6
Continuous
100
AcDbLine
 10
59.6563765376081
 20
219.4710348068467
 30
0.0
 11
60.82966253760812
 21
220.9334898068466
 31
0.0
  0
LINE
  5
4D7
330
18
100
AcDbEntity
  8
1
  6
Continuous
100
AcDbLine
 10
60.16716253760812
 20
219.4710348068467
 30
0.0
 11
59.4154485376081
 21
220.9334898068466
 31
0.0
  0
LINE
  5
4D8
330
18
100
AcDbEntity
  8
1
  6
Continuous
100
AcDbLine
 10
61.5813765376081
 20
219.4710348068467
 30
0.0
 11
60.82966253760812
 21
220.9334898068466
 31
0.0
  0
LINE
  5
4D9
330
18
100
AcDbEntity
  8
1
  6
Continuous
100
AcDbLine
 10
61.07058953760811
 20
219.4710348068467
 30
0.0
 11
62.24387553760811
 21
220.9334898068466
 31
0.0
  0
LINE
  5
4DA
330
18
100
AcDbEntity
  8
1
  6
Continuous
100
AcDbLine
 10
67.3567345376081
 20
215.6771528068465
 30
0.0
 11
70.72672053760808
 21
215.6740578068467
 31
0.0
  0
ARC
  5
4DB
330
18
100
AcDbEntity
  8
1
  6
Continuous
100
AcDbCircle
 10
69.20466253760811
 20
213.8724978068467
 30
0.0
 40
1.5
100
AcDbArc
 50
0.0
 51
80.15751300000003
  0
LINE
  5
4DC
330
18
100
AcDbEntity
  8
1
  6
Continuous
100
AcDbLine
 10
68.14165753760811
 20
219.4710348068467
 30
0.0
 11
69.3149435376081
 21
220.9334898068466
 31
0.0
  0
LINE
  5
4DD
330
18
100
AcDbEntity
  8
1
  6
Continuous
100
AcDbLine
 10
68.65244453760812
 20
219.4710348068467
 30
0.0
 11
67.90073053760811
 21
220.9334898068466
 31
0.0
  0
LINE
  5
4DE
330
18
100
AcDbEntity
  8
1
  6
Continuous
100
AcDbLine
 10
66.72744453760812
 20
219.4710348068467
 30
0.0
 11
67.90073053760811
 21
220.9334898068466
 31
0.0
  0
LINE
  5
4DF
330
18
100
AcDbEntity
  8
1
  6
Continuous
100
AcDbLine
 10
67.23823053760812
 20
219.4710348068467
 30
0.0
 11
66.4865165376081
 21
220.9334898068466
 31
0.0
  0
LINE
  5
4E0
330
18
100
AcDbEntity
  8
1
  6
Continuous
100
AcDbLine
 10
63.89901753760812
 20
219.4710348068467
 30
0.0
 11
65.07230353760812
 21
220.9334898068466
 31
0.0
  0
LINE
  5
4E1
330
18
100
AcDbEntity
  8
1
  6
Continuous
100
AcDbLine
 10
65.82401753760811
 20
219.4710348068467
 30
0.0
 11
65.07230353760812
 21
220.9334898068466
 31
0.0
  0
LINE
  5
4E2
330
18
100
AcDbEntity
  8
1
  6
Continuous
100
AcDbLine
 10
65.31323053760812
 20
219.4710348068467
 30
0.0
 11
66.4865165376081
 21
220.9334898068466
 31
0.0
  0
LINE
  5
4E3
330
18
100
AcDbEntity
  8
1
  6
Continuous
100
AcDbLine
 10
71.4700845376081
 20
219.4710348068467
 30
0.0
 11
72.64337053760809
 21
220.9334898068466
 31
0.0
  0
LINE
  5
4E4
330
18
100
AcDbEntity
  8
1
  6
Continuous
100
AcDbLine
 10
71.98087153760811
 20
219.4710348068467
 30
0.0
 11
71.2291575376081
 21
220.9334898068466
 31
0.0
  0
LINE
  5
4E5
330
18
100
AcDbEntity
  8
1
  6
Continuous
100
AcDbLine
 10
73.39508453760811
 20
219.4710348068467
 30
0.0
 11
72.64337053760809
 21
220.9334898068466
 31
0.0
  0
LINE
  5
4E6
330
18
100
AcDbEntity
  8
1
  6
Continuous
100
AcDbLine
 10
70.56665753760814
 20
219.4710348068467
 30
0.0
 11
69.3149435376081
 21
220.9334898068466
 31
0.0
  0
LINE
  5
4E7
330
18
100
AcDbEntity
  8
1
  6
Continuous
100
AcDbLine
 10
69.55587153760811
 20
219.4710348068467
 30
0.0
 11
71.2291575376081
 21
220.9334898068466
 31
0.0
  0
LINE
  5
4E8
330
18
100
AcDbEntity
  8
1
  6
Continuous
100
AcDbLine
 10
75.71316253760811
 20
217.9710348068467
 30
0.0
 11
75.21316253760808
 21
217.1710348068467
 31
0.0
  0
ARC
  5
4E9
330
18
100
AcDbEntity
  8
1
  6
Continuous
100
AcDbCircle
 10
73.35485153760811
 20
218.5961108068467
 30
0.0
 40
2.382327999999998
100
AcDbArc
 50
8.142542999999998
 51
78.852283
  0
LINE
  5
4EA
330
18
100
AcDbEntity
  8
1
  6
Continuous
100
AcDbLine
 10
74.50466253760808
 20
219.4710348068467
 30
0.0
 11
75.71316253760811
 21
217.9710348068467
 31
0.0
  0
LINE
  5
4EB
330
18
100
AcDbEntity
  8
1
  6
Continuous
100
AcDbLine
 10
74.29851253760813
 20
219.4710348068467
 30
0.0
 11
75.34200953760809
 21
219.9101468068467
 31
0.0
  0
LINE
  5
4EC
330
18
100
AcDbEntity
  8
1
  6
Continuous
100
AcDbLine
 10
75.41779853760809
 20
219.4710348068467
 30
0.0
 11
74.14171653760813
 21
220.8447398068467
 31
0.0
  0
LINE
  5
4ED
330
18
100
AcDbEntity
  8
1
  6
Continuous
100
AcDbLine
 10
53.54780853760811
 20
225.5334898068467
 30
0.0
 11
54.96202253760809
 21
226.6585348068467
 31
0.0
  0
LINE
  5
4EE
330
18
100
AcDbEntity
  8
1
  6
Continuous
100
AcDbLine
 10
55.3835945376081
 20
225.5334898068467
 30
0.0
 11
53.54780853760811
 21
226.6585348068467
 31
0.0
  0
LINE
  5
4EF
330
18
100
AcDbEntity
  8
1
  6
Continuous
100
AcDbLine
 10
36.41544853760811
 20
225.5334898068467
 30
0.0
 11
82.41544853760812
 21
225.5334898068467
 31
0.0
  0
LINE
  5
4F0
330
18
100
AcDbEntity
  8
1
  6
Continuous
100
AcDbLine
 10
32.20466253760811
 20
231.9335348068467
 30
0.0
 11
86.20466253760808
 21
231.9335348068467
 31
0.0
  0
LINE
  5
4F1
330
18
100
AcDbEntity
  8
1
  6
Continuous
100
AcDbLine
 10
32.20466253760811
 20
234.2335348068466
 30
0.0
 11
86.20466253760808
 21
234.2335348068466
 31
0.0
  0
LINE
  5
4F2
330
18
100
AcDbEntity
  8
1
  6
Continuous
100
AcDbLine
 10
36.20466253760811
 20
226.6585348068467
 30
0.0
 11
82.20466253760813
 21
226.6585348068467
 31
0.0
  0
LINE
  5
4F3
330
18
100
AcDbEntity
  8
1
  6
Continuous
100
AcDbLine
 10
36.15466253760811
 20
228.9585348068467
 30
0.0
 11
82.25466253760812
 21
228.9585348068467
 31
0.0
  0
LINE
  5
4F4
330
18
100
AcDbEntity
  8
1
  6
Continuous
100
AcDbLine
 10
36.41246553760811
 20
229.8335348068467
 30
0.0
 11
81.99685953760813
 21
229.8335348068467
 31
0.0
  0
ARC
  5
4F5
330
18
100
AcDbEntity
  8
1
  6
Continuous
100
AcDbCircle
 10
36.41246553760811
 20
233.3335348068467
 30
0.0
 40
3.5
100
AcDbArc
 50
203.578178
 51
270.0
  0
LINE
  5
4F6
330
18
100
AcDbEntity
  8
1
  6
Continuous
100
AcDbLine
 10
32.20466253760811
 20
234.2335348068466
 30
0.0
 11
32.20466253760811
 21
231.9335348068467
 31
0.0
  0
LINE
  5
4F7
330
18
100
AcDbEntity
  8
4
  6
CENTER
100
AcDbLine
 10
41.2046625376081
 20
239.2335348068467
 30
0.0
 11
41.2046625376081
 21
226.9335348068466
 31
0.0
  0
LINE
  5
4F8
330
18
100
AcDbEntity
  8
1
  6
Continuous
100
AcDbLine
 10
43.64831353760811
 20
225.5334898068467
 30
0.0
 11
45.0625275376081
 21
226.6585348068467
 31
0.0
  0
LINE
  5
4F9
330
18
100
AcDbEntity
  8
1
  6
Continuous
100
AcDbLine
 10
45.48409953760809
 20
225.5334898068467
 30
0.0
 11
43.64831353760811
 21
226.6585348068467
 31
0.0
  0
LINE
  5
4FA
330
18
100
AcDbEntity
  8
1
  6
Continuous
100
AcDbLine
 10
39.40567253760811
 20
225.5334898068467
 30
0.0
 11
40.8198865376081
 21
226.6585348068467
 31
0.0
  0
LINE
  5
4FB
330
18
100
AcDbEntity
  8
1
  6
Continuous
100
AcDbLine
 10
41.2414585376081
 20
225.5334898068467
 30
0.0
 11
39.40567253760811
 21
226.6585348068467
 31
0.0
  0
LINE
  5
4FC
330
18
100
AcDbEntity
  8
1
  6
Continuous
100
AcDbLine
 10
39.82724553760811
 20
225.5334898068467
 30
0.0
 11
37.99145953760811
 21
226.6585348068467
 31
0.0
  0
LINE
  5
4FD
330
18
100
AcDbEntity
  8
1
  6
Continuous
100
AcDbLine
 10
37.99145853760811
 20
225.5334898068467
 30
0.0
 11
39.40567253760811
 21
226.6585348068467
 31
0.0
  0
LINE
  5
4FE
330
18
100
AcDbEntity
  8
1
  6
Continuous
100
AcDbLine
 10
36.5546625376081
 20
226.6585348068467
 30
0.0
 11
35.65466253760811
 21
228.1585348068465
 31
0.0
  0
LINE
  5
4FF
330
18
100
AcDbEntity
  8
1
  6
Continuous
100
AcDbLine
 10
36.20466253760811
 20
226.6585348068467
 30
0.0
 11
36.41544853760811
 21
225.5334898068467
 31
0.0
  0
LINE
  5
500
330
18
100
AcDbEntity
  8
1
  6
Continuous
100
AcDbLine
 10
36.26345453760812
 20
226.3447438068467
 30
0.0
 11
36.57724553760811
 21
226.6585348068467
 31
0.0
  0
LINE
  5
501
330
18
100
AcDbEntity
  8
1
  6
Continuous
100
AcDbLine
 10
36.41544853760811
 20
226.1168598068466
 30
0.0
 11
36.9988185376081
 21
225.5334898068467
 31
0.0
  0
LINE
  5
502
330
18
100
AcDbEntity
  8
1
  6
Continuous
100
AcDbLine
 10
35.65466253760811
 20
228.1585348068465
 30
0.0
 11
36.15466253760811
 21
228.9585348068467
 31
0.0
  0
ARC
  5
503
330
18
100
AcDbEntity
  8
1
  6
Continuous
100
AcDbCircle
 10
42.4546625376081
 20
224.4840348068467
 30
0.0
 40
6.974499999999999
100
AcDbArc
 50
129.9139999999999
 51
140.0924019999999
  0
LINE
  5
504
330
18
100
AcDbEntity
  8
1
  6
Continuous
100
AcDbLine
 10
36.57724553760811
 20
225.5334898068467
 30
0.0
 11
37.99145953760811
 21
226.6585348068467
 31
0.0
  0
LINE
  5
505
330
18
100
AcDbEntity
  8
1
  6
Continuous
100
AcDbLine
 10
38.41303153760811
 20
225.5334898068467
 30
0.0
 11
36.57724553760811
 21
226.6585348068467
 31
0.0
  0
LINE
  5
506
330
18
100
AcDbEntity
  8
1
  6
Continuous
100
AcDbLine
 10
42.2340995376081
 20
225.5334898068467
 30
0.0
 11
43.64831353760811
 21
226.6585348068467
 31
0.0
  0
LINE
  5
507
330
18
100
AcDbEntity
  8
1
  6
Continuous
100
AcDbLine
 10
44.0698865376081
 20
225.5334898068467
 30
0.0
 11
42.23410053760811
 21
226.6585348068467
 31
0.0
  0
LINE
  5
508
330
18
100
AcDbEntity
  8
1
  6
Continuous
100
AcDbLine
 10
40.8198865376081
 20
225.5334898068467
 30
0.0
 11
42.23410053760811
 21
226.6585348068467
 31
0.0
  0
LINE
  5
509
330
18
100
AcDbEntity
  8
1
  6
Continuous
100
AcDbLine
 10
42.65567253760813
 20
225.5334898068467
 30
0.0
 11
40.8198865376081
 21
226.6585348068467
 31
0.0
  0
LINE
  5
50A
330
18
100
AcDbEntity
  8
1
  6
Continuous
100
AcDbLine
 10
49.72674053760812
 20
225.5334898068467
 30
0.0
 11
47.8909545376081
 21
226.6585348068467
 31
0.0
  0
LINE
  5
50B
330
18
100
AcDbEntity
  8
1
  6
Continuous
100
AcDbLine
 10
49.3051675376081
 20
225.5334898068467
 30
0.0
 11
50.71938153760811
 21
226.6585348068467
 31
0.0
  0
LINE
  5
50C
330
18
100
AcDbEntity
  8
1
  6
Continuous
100
AcDbLine
 10
51.1409535376081
 20
225.5334898068467
 30
0.0
 11
49.3051675376081
 21
226.6585348068467
 31
0.0
  0
LINE
  5
50D
330
18
100
AcDbEntity
  8
1
  6
Continuous
100
AcDbLine
 10
47.8909535376081
 20
225.5334898068467
 30
0.0
 11
49.3051675376081
 21
226.6585348068467
 31
0.0
  0
LINE
  5
50E
330
18
100
AcDbEntity
  8
1
  6
Continuous
100
AcDbLine
 10
46.47674053760812
 20
225.5334898068467
 30
0.0
 11
47.8909545376081
 21
226.6585348068467
 31
0.0
  0
LINE
  5
50F
330
18
100
AcDbEntity
  8
1
  6
Continuous
100
AcDbLine
 10
48.3125265376081
 20
225.5334898068467
 30
0.0
 11
46.47674053760812
 21
226.6585348068467
 31
0.0
  0
LINE
  5
510
330
18
100
AcDbEntity
  8
1
  6
Continuous
100
AcDbLine
 10
45.0625265376081
 20
225.5334898068467
 30
0.0
 11
46.47674053760812
 21
226.6585348068467
 31
0.0
  0
LINE
  5
511
330
18
100
AcDbEntity
  8
1
  6
Continuous
100
AcDbLine
 10
46.89831353760809
 20
225.5334898068467
 30
0.0
 11
45.0625275376081
 21
226.6585348068467
 31
0.0
  0
LINE
  5
512
330
18
100
AcDbEntity
  8
1
  6
Continuous
100
AcDbLine
 10
52.13359453760811
 20
225.5334898068467
 30
0.0
 11
53.54780853760811
 21
226.6585348068467
 31
0.0
  0
LINE
  5
513
330
18
100
AcDbEntity
  8
1
  6
Continuous
100
AcDbLine
 10
50.71938153760811
 20
225.5334898068467
 30
0.0
 11
52.13359553760811
 21
226.6585348068467
 31
0.0
  0
LINE
  5
514
330
18
100
AcDbEntity
  8
1
  6
Continuous
100
AcDbLine
 10
52.55516753760811
 20
225.5334898068467
 30
0.0
 11
50.71938153760811
 21
226.6585348068467
 31
0.0
  0
LINE
  5
515
330
18
100
AcDbEntity
  8
1
  6
Continuous
100
AcDbLine
 10
53.96938153760811
 20
225.5334898068467
 30
0.0
 11
52.13359553760811
 21
226.6585348068467
 31
0.0
  0
LINE
  5
516
330
18
100
AcDbEntity
  8
1
  6
Continuous
100
AcDbLine
 10
73.76837053760809
 20
225.5334898068467
 30
0.0
 11
71.93258453760811
 21
226.6585348068467
 31
0.0
  0
LINE
  5
517
330
18
100
AcDbEntity
  8
1
  6
Continuous
100
AcDbLine
 10
73.34679853760809
 20
225.5334898068467
 30
0.0
 11
74.76101253760809
 21
226.6585348068467
 31
0.0
  0
LINE
  5
518
330
18
100
AcDbEntity
  8
1
  6
Continuous
100
AcDbLine
 10
75.18258453760809
 20
225.5334898068467
 30
0.0
 11
73.34679853760809
 21
226.6585348068467
 31
0.0
  0
LINE
  5
519
330
18
100
AcDbEntity
  8
1
  6
Continuous
100
AcDbLine
 10
63.44730353760811
 20
225.5334898068467
 30
0.0
 11
64.86151753760812
 21
226.6585348068467
 31
0.0
  0
LINE
  5
51A
330
18
100
AcDbEntity
  8
1
  6
Continuous
100
AcDbLine
 10
63.86887553760811
 20
225.5334898068467
 30
0.0
 11
62.0330895376081
 21
226.6585348068467
 31
0.0
  0
LINE
  5
51B
330
18
100
AcDbEntity
  8
1
  6
Continuous
100
AcDbLine
 10
65.28308953760812
 20
225.5334898068467
 30
0.0
 11
63.44730353760811
 21
226.6585348068467
 31
0.0
  0
LINE
  5
51C
330
18
100
AcDbEntity
  8
1
  6
Continuous
100
AcDbLine
 10
59.62623553760811
 20
225.5334898068467
 30
0.0
 11
57.79044953760811
 21
226.6585348068467
 31
0.0
  0
LINE
  5
51D
330
18
100
AcDbEntity
  8
1
  6
Continuous
100
AcDbLine
 10
57.79044853760812
 20
225.5334898068467
 30
0.0
 11
59.2046625376081
 21
226.6585348068467
 31
0.0
  0
LINE
  5
51E
330
18
100
AcDbEntity
  8
1
  6
Continuous
100
AcDbLine
 10
54.96202153760811
 20
225.5334898068467
 30
0.0
 11
56.3762355376081
 21
226.6585348068467
 31
0.0
  0
LINE
  5
51F
330
18
100
AcDbEntity
  8
1
  6
Continuous
100
AcDbLine
 10
56.7978085376081
 20
225.5334898068467
 30
0.0
 11
54.96202253760809
 21
226.6585348068467
 31
0.0
  0
LINE
  5
520
330
18
100
AcDbEntity
  8
1
  6
Continuous
100
AcDbLine
 10
56.3762355376081
 20
225.5334898068467
 30
0.0
 11
57.79044953760811
 21
226.6585348068467
 31
0.0
  0
LINE
  5
521
330
18
100
AcDbEntity
  8
1
  6
Continuous
100
AcDbLine
 10
58.2120215376081
 20
225.5334898068467
 30
0.0
 11
56.3762355376081
 21
226.6585348068467
 31
0.0
  0
LINE
  5
522
330
18
100
AcDbEntity
  8
1
  6
Continuous
100
AcDbLine
 10
59.2046625376081
 20
225.5334898068467
 30
0.0
 11
60.61887653760812
 21
226.6585348068467
 31
0.0
  0
LINE
  5
523
330
18
100
AcDbEntity
  8
1
  6
Continuous
100
AcDbLine
 10
61.04044853760811
 20
225.5334898068467
 30
0.0
 11
59.2046625376081
 21
226.6585348068467
 31
0.0
  0
LINE
  5
524
330
18
100
AcDbEntity
  8
1
  6
Continuous
100
AcDbLine
 10
60.61887553760811
 20
225.5334898068467
 30
0.0
 11
62.0330895376081
 21
226.6585348068467
 31
0.0
  0
LINE
  5
525
330
18
100
AcDbEntity
  8
1
  6
Continuous
100
AcDbLine
 10
62.0330895376081
 20
225.5334898068467
 30
0.0
 11
63.44730353760811
 21
226.6585348068467
 31
0.0
  0
LINE
  5
526
330
18
100
AcDbEntity
  8
1
  6
Continuous
100
AcDbLine
 10
62.4546625376081
 20
225.5334898068467
 30
0.0
 11
60.61887653760812
 21
226.6585348068467
 31
0.0
  0
LINE
  5
527
330
18
100
AcDbEntity
  8
1
  6
Continuous
100
AcDbLine
 10
67.6899435376081
 20
225.5334898068467
 30
0.0
 11
69.10415753760812
 21
226.6585348068467
 31
0.0
  0
LINE
  5
528
330
18
100
AcDbEntity
  8
1
  6
Continuous
100
AcDbLine
 10
69.5257305376081
 20
225.5334898068467
 30
0.0
 11
67.68994453760811
 21
226.6585348068467
 31
0.0
  0
LINE
  5
529
330
18
100
AcDbEntity
  8
1
  6
Continuous
100
AcDbLine
 10
66.27573053760811
 20
225.5334898068467
 30
0.0
 11
67.68994453760811
 21
226.6585348068467
 31
0.0
  0
LINE
  5
52A
330
18
100
AcDbEntity
  8
1
  6
Continuous
100
AcDbLine
 10
68.11151653760811
 20
225.5334898068467
 30
0.0
 11
66.27573053760811
 21
226.6585348068467
 31
0.0
  0
LINE
  5
52B
330
18
100
AcDbEntity
  8
1
  6
Continuous
100
AcDbLine
 10
64.86151653760811
 20
225.5334898068467
 30
0.0
 11
66.27573053760811
 21
226.6585348068467
 31
0.0
  0
LINE
  5
52C
330
18
100
AcDbEntity
  8
1
  6
Continuous
100
AcDbLine
 10
66.69730353760812
 20
225.5334898068467
 30
0.0
 11
64.86151753760812
 21
226.6585348068467
 31
0.0
  0
LINE
  5
52D
330
18
100
AcDbEntity
  8
1
  6
Continuous
100
AcDbLine
 10
70.51837053760808
 20
225.5334898068467
 30
0.0
 11
71.93258453760811
 21
226.6585348068467
 31
0.0
  0
LINE
  5
52E
330
18
100
AcDbEntity
  8
1
  6
Continuous
100
AcDbLine
 10
71.93258453760811
 20
225.5334898068467
 30
0.0
 11
73.34679853760809
 21
226.6585348068467
 31
0.0
  0
LINE
  5
52F
330
18
100
AcDbEntity
  8
1
  6
Continuous
100
AcDbLine
 10
72.3541575376081
 20
225.5334898068467
 30
0.0
 11
70.51837153760809
 21
226.6585348068467
 31
0.0
  0
LINE
  5
530
330
18
100
AcDbEntity
  8
1
  6
Continuous
100
AcDbLine
 10
69.10415753760812
 20
225.5334898068467
 30
0.0
 11
70.51837153760809
 21
226.6585348068467
 31
0.0
  0
LINE
  5
531
330
18
100
AcDbEntity
  8
1
  6
Continuous
100
AcDbLine
 10
70.93994353760812
 20
225.5334898068467
 30
0.0
 11
69.10415753760812
 21
226.6585348068467
 31
0.0
  0
LINE
  5
532
330
18
100
AcDbEntity
  8
4
  6
CENTER
100
AcDbLine
 10
77.20466253760811
 20
239.2335348068467
 30
0.0
 11
77.20466253760811
 21
226.9335348068466
 31
0.0
  0
ARC
  5
533
330
18
100
AcDbEntity
  8
1
  6
Continuous
100
AcDbCircle
 10
81.99685953760813
 20
233.3335348068467
 30
0.0
 40
3.5
100
AcDbArc
 50
270.0
 51
336.421822
  0
LINE
  5
534
330
18
100
AcDbEntity
  8
1
  6
Continuous
100
AcDbLine
 10
77.5894385376081
 20
225.5334898068467
 30
0.0
 11
79.00365253760813
 21
226.6585348068467
 31
0.0
  0
LINE
  5
535
330
18
100
AcDbEntity
  8
1
  6
Continuous
100
AcDbLine
 10
79.42522553760811
 20
225.5334898068467
 30
0.0
 11
77.58943953760812
 21
226.6585348068467
 31
0.0
  0
LINE
  5
536
330
18
100
AcDbEntity
  8
1
  6
Continuous
100
AcDbLine
 10
74.76101153760808
 20
225.5334898068467
 30
0.0
 11
76.17522553760811
 21
226.6585348068467
 31
0.0
  0
LINE
  5
537
330
18
100
AcDbEntity
  8
1
  6
Continuous
100
AcDbLine
 10
76.17522553760811
 20
225.5334898068467
 30
0.0
 11
77.58943953760812
 21
226.6585348068467
 31
0.0
  0
LINE
  5
538
330
18
100
AcDbEntity
  8
1
  6
Continuous
100
AcDbLine
 10
76.5967985376081
 20
225.5334898068467
 30
0.0
 11
74.76101253760809
 21
226.6585348068467
 31
0.0
  0
LINE
  5
539
330
18
100
AcDbEntity
  8
1
  6
Continuous
100
AcDbLine
 10
78.01101153760811
 20
225.5334898068467
 30
0.0
 11
76.17522553760811
 21
226.6585348068467
 31
0.0
  0
ARC
  5
53A
330
18
100
AcDbEntity
  8
1
  6
Continuous
100
AcDbCircle
 10
75.95466253760811
 20
224.4840348068467
 30
0.0
 40
6.974499999999999
100
AcDbArc
 50
39.907598
 51
50.08600000000002
  0
LINE
  5
53B
330
18
100
AcDbEntity
  8
1
  6
Continuous
100
AcDbLine
 10
82.20466253760813
 20
226.6585348068467
 30
0.0
 11
82.41544853760812
 21
225.5334898068467
 31
0.0
  0
LINE
  5
53C
330
18
100
AcDbEntity
  8
1
  6
Continuous
100
AcDbLine
 10
79.00365253760813
 20
225.5334898068467
 30
0.0
 11
80.41786653760814
 21
226.6585348068467
 31
0.0
  0
LINE
  5
53D
330
18
100
AcDbEntity
  8
1
  6
Continuous
100
AcDbLine
 10
80.41786553760806
 20
225.5334898068467
 30
0.0
 11
81.83207953760812
 21
226.6585348068467
 31
0.0
  0
LINE
  5
53E
330
18
100
AcDbEntity
  8
1
  6
Continuous
100
AcDbLine
 10
81.83207953760812
 20
225.5334898068467
 30
0.0
 11
82.32339653760808
 21
226.0248068068466
 31
0.0
  0
LINE
  5
53F
330
18
100
AcDbEntity
  8
1
  6
Continuous
100
AcDbLine
 10
80.83943853760812
 20
225.5334898068467
 30
0.0
 11
79.00365253760813
 21
226.6585348068467
 31
0.0
  0
LINE
  5
540
330
18
100
AcDbEntity
  8
1
  6
Continuous
100
AcDbLine
 10
82.25365253760813
 20
225.5334898068467
 30
0.0
 11
80.41786653760814
 21
226.6585348068467
 31
0.0
  0
LINE
  5
541
330
18
100
AcDbEntity
  8
1
  6
Continuous
100
AcDbLine
 10
82.20466253760813
 20
226.2859518068467
 30
0.0
 11
81.83207953760812
 21
226.6585348068467
 31
0.0
  0
LINE
  5
542
330
18
100
AcDbEntity
  8
1
  6
Continuous
100
AcDbLine
 10
81.85466253760806
 20
226.6585348068467
 30
0.0
 11
82.75466253760811
 21
228.1585348068465
 31
0.0
  0
LINE
  5
543
330
18
100
AcDbEntity
  8
1
  6
Continuous
100
AcDbLine
 10
82.75466253760811
 20
228.1585348068465
 30
0.0
 11
82.25466253760812
 21
228.9585348068467
 31
0.0
  0
LINE
  5
544
330
18
100
AcDbEntity
  8
1
  6
Continuous
100
AcDbLine
 10
86.20466253760808
 20
234.2335348068466
 30
0.0
 11
86.20466253760808
 21
231.9335348068467
 31
0.0
  0
LINE
  5
545
330
18
100
AcDbEntity
  8
4
  6
CENTER
100
AcDbLine
 10
163.6691735376079
 20
267.5054978068467
 30
0.0
 11
163.6691735376079
 21
331.5054978068465
 31
0.0
  0
LINE
  5
546
330
18
100
AcDbEntity
  8
4
  6
CENTER
100
AcDbLine
 10
215.6691735376081
 20
275.2554978068465
 30
0.0
 11
215.6691735376081
 21
287.7554978068465
 31
0.0
  0
ARC
  5
547
330
18
100
AcDbEntity
  8
1
  6
Continuous
100
AcDbCircle
 10
216.6691735376081
 20
279.5054978068465
 30
0.0
 40
7.0
100
AcDbArc
 50
270.0
 51
0.0
  0
LINE
  5
548
330
18
100
AcDbEntity
  8
4
  6
CENTER
100
AcDbLine
 10
161.6691735376081
 20
275.2554978068465
 30
0.0
 11
161.6691735376081
 21
287.7554978068465
 31
0.0
  0
ARC
  5
549
330
18
100
AcDbEntity
  8
1
  6
Continuous
100
AcDbCircle
 10
160.6691735376081
 20
279.5054978068465
 30
0.0
 40
7.0
100
AcDbArc
 50
180.0
 51
270.0
  0
LINE
  5
54A
330
18
100
AcDbEntity
  8
4
  6
CENTER
100
AcDbLine
 10
188.6691735376079
 20
267.5054978068467
 30
0.0
 11
188.6691735376079
 21
331.5054978068465
 31
0.0
  0
CIRCLE
  5
54B
330
18
100
AcDbEntity
  8
1
  6
Continuous
100
AcDbCircle
 10
188.6691735376079
 20
299.5054978068466
 30
0.0
 40
23.5
  0
CIRCLE
  5
54C
330
18
100
AcDbEntity
  8
1
  6
Continuous
100
AcDbCircle
 10
163.6692485376079
 20
178.7334898068466
 30
0.0
 40
7.7
  0
LINE
  5
54D
330
18
100
AcDbEntity
  8
1
  6
Continuous
100
AcDbLine
 10
216.6691735376081
 20
272.5054978068466
 30
0.0
 11
160.6691735376081
 21
272.5054978068466
 31
0.0
  0
LINE
  5
54E
330
18
100
AcDbEntity
  8
1
  6
Continuous
100
AcDbLine
 10
170.073685537608
 20
226.6584898068467
 30
0.0
 11
171.698685537608
 21
225.5334898068467
 31
0.0
  0
LINE
  5
54F
330
18
100
AcDbEntity
  8
1
  6
Continuous
100
AcDbLine
 10
170.4952585376081
 20
226.6584898068467
 30
0.0
 11
168.8702585376081
 21
225.5334898068467
 31
0.0
  0
LINE
  5
550
330
18
100
AcDbEntity
  8
1
  6
Continuous
100
AcDbLine
 10
168.6594715376081
 20
226.6584898068467
 30
0.0
 11
170.284471537608
 21
225.5334898068467
 31
0.0
  0
LINE
  5
551
330
18
100
AcDbEntity
  8
1
  6
Continuous
100
AcDbLine
 10
170.669248537608
 20
223.2334898068467
 30
0.0
 11
156.669248537608
 21
223.2334898068467
 31
0.0
  0
LINE
  5
552
330
18
100
AcDbEntity
  8
1
  6
Continuous
100
AcDbLine
 10
211.6692485376081
 20
225.5334898068467
 30
0.0
 11
165.6692485376079
 21
225.5334898068467
 31
0.0
  0
LINE
  5
553
330
18
100
AcDbEntity
  8
1
  6
Continuous
100
AcDbLine
 10
223.6692485376081
 20
231.9334898068465
 30
0.0
 11
153.6692485376081
 21
231.9334898068465
 31
0.0
  0
LINE
  5
554
330
18
100
AcDbEntity
  8
1
  6
Continuous
100
AcDbLine
 10
223.6692485376081
 20
234.2334898068466
 30
0.0
 11
153.6692485376081
 21
234.2334898068466
 31
0.0
  0
LINE
  5
555
330
18
100
AcDbEntity
  8
1
  6
Continuous
100
AcDbLine
 10
211.6692485376081
 20
226.6584898068467
 30
0.0
 11
165.6692485376079
 21
226.6584898068467
 31
0.0
  0
LINE
  5
556
330
18
100
AcDbEntity
  8
1
  6
Continuous
100
AcDbLine
 10
211.7192485376081
 20
228.9584898068466
 30
0.0
 11
165.6192485376081
 21
228.9584898068466
 31
0.0
  0
LINE
  5
557
330
18
100
AcDbEntity
  8
1
  6
Continuous
100
AcDbLine
 10
211.461445537608
 20
229.8334898068466
 30
0.0
 11
165.877051537608
 21
229.8334898068466
 31
0.0
  0
LINE
  5
558
330
18
100
AcDbEntity
  8
4
  6
CENTER
100
AcDbLine
 10
206.169248537608
 20
178.7334898068466
 30
0.0
 11
121.1692485376081
 21
178.7334898068466
 31
0.0
  0
ARC
  5
559
330
18
100
AcDbEntity
  8
1
  6
Continuous
100
AcDbCircle
 10
167.336438537608
 20
222.5334898068467
 30
0.0
 40
3.0
100
AcDbArc
 50
90.0
 51
166.5066009999998
  0
LINE
  5
55A
330
18
100
AcDbEntity
  8
1
  6
Continuous
100
AcDbLine
 10
159.948482537608
 20
223.2334898068467
 30
0.0
 11
153.216976537608
 21
178.7334898068466
 31
0.0
  0
LINE
  5
55B
330
18
100
AcDbEntity
  8
1
  6
Continuous
100
AcDbLine
 10
157.669248537608
 20
182.1975908068466
 30
0.0
 11
163.6692485376079
 21
185.6616928068466
 31
0.0
  0
LINE
  5
55C
330
18
100
AcDbEntity
  8
1
  6
Continuous
100
AcDbLine
 10
169.669248537608
 20
182.1975908068466
 30
0.0
 11
163.6692485376079
 21
185.6616928068466
 31
0.0
  0
CIRCLE
  5
55D
330
18
100
AcDbEntity
  8
1
  6
Continuous
100
AcDbCircle
 10
163.6692485376079
 20
178.7334898068466
 30
0.0
 40
6.0
  0
CIRCLE
  5
55E
330
18
100
AcDbEntity
  8
1
  6
Continuous
100
AcDbCircle
 10
163.6692485376079
 20
178.7334898068466
 30
0.0
 40
4.0
  0
CIRCLE
  5
55F
330
18
100
AcDbEntity
  8
2
  6
Continuous
100
AcDbCircle
 10
163.6692485376079
 20
178.7334898068466
 30
0.0
 40
3.3235
  0
LINE
  5
560
330
18
100
AcDbEntity
  8
1
  6
Continuous
100
AcDbLine
 10
163.6692485376079
 20
171.8052858068467
 30
0.0
 11
157.669248537608
 21
175.2693878068465
 31
0.0
  0
LINE
  5
561
330
18
100
AcDbEntity
  8
1
  6
Continuous
100
AcDbLine
 10
157.669248537608
 20
182.1975908068466
 30
0.0
 11
157.669248537608
 21
175.2693878068465
 31
0.0
  0
LINE
  5
562
330
18
100
AcDbEntity
  8
1
  6
Continuous
100
AcDbLine
 10
169.669248537608
 20
182.1975908068466
 30
0.0
 11
169.669248537608
 21
175.2693878068465
 31
0.0
  0
LINE
  5
563
330
18
100
AcDbEntity
  8
1
  6
Continuous
100
AcDbLine
 10
163.6692485376079
 20
171.8052858068467
 30
0.0
 11
169.669248537608
 21
175.2693878068465
 31
0.0
  0
LINE
  5
564
330
18
100
AcDbEntity
  8
1
  6
Continuous
100
AcDbLine
 10
156.669248537608
 20
223.2334898068467
 30
0.0
 11
156.669248537608
 21
220.9334898068466
 31
0.0
  0
LINE
  5
565
330
18
100
AcDbEntity
  8
1
  6
Continuous
100
AcDbLine
 10
159.8047735376079
 20
220.9334898068466
 30
0.0
 11
156.669248537608
 21
220.9334898068466
 31
0.0
  0
LINE
  5
566
330
18
100
AcDbEntity
  8
4
  6
CENTER
100
AcDbLine
 10
161.6692485376079
 20
239.2334898068466
 30
0.0
 11
161.6692485376079
 21
226.9334898068467
 31
0.0
  0
LINE
  5
567
330
18
100
AcDbEntity
  8
1
  6
Continuous
100
AcDbLine
 10
153.6692485376081
 20
234.2334898068466
 30
0.0
 11
153.6692485376081
 21
231.9334898068465
 31
0.0
  0
ARC
  5
568
330
18
100
AcDbEntity
  8
1
  6
Continuous
100
AcDbCircle
 10
165.877051537608
 20
233.3334898068467
 30
0.0
 40
3.5
100
AcDbArc
 50
203.578178
 51
270.0
  0
LINE
  5
569
330
18
100
AcDbEntity
  8
1
  6
Continuous
100
AcDbLine
 10
166.0192485376081
 20
226.6584898068467
 30
0.0
 11
165.1192485376079
 21
228.1584898068466
 31
0.0
  0
LINE
  5
56A
330
18
100
AcDbEntity
  8
1
  6
Continuous
100
AcDbLine
 10
165.1192485376079
 20
228.1584898068466
 30
0.0
 11
165.6192485376081
 21
228.9584898068466
 31
0.0
  0
ARC
  5
56B
330
18
100
AcDbEntity
  8
1
  6
Continuous
100
AcDbCircle
 10
171.919248537608
 20
224.4839898068465
 30
0.0
 40
6.974499999999999
100
AcDbArc
 50
129.9139999999999
 51
140.0924019999999
  0
LINE
  5
56C
330
18
100
AcDbEntity
  8
1
  6
Continuous
100
AcDbLine
 10
165.6692485376079
 20
226.6584898068467
 30
0.0
 11
165.6692485376079
 21
225.5334898068467
 31
0.0
  0
LINE
  5
56D
330
18
100
AcDbEntity
  8
1
  6
Continuous
100
AcDbLine
 10
169.081044537608
 20
226.6584898068467
 30
0.0
 11
167.456044537608
 21
225.5334898068467
 31
0.0
  0
LINE
  5
56E
330
18
100
AcDbEntity
  8
1
  6
Continuous
100
AcDbLine
 10
167.6668315376081
 20
226.6584898068467
 30
0.0
 11
166.0418315376081
 21
225.5334898068467
 31
0.0
  0
LINE
  5
56F
330
18
100
AcDbEntity
  8
1
  6
Continuous
100
AcDbLine
 10
165.6692485376079
 20
226.0751208068467
 30
0.0
 11
166.2526175376079
 21
226.6584898068467
 31
0.0
  0
LINE
  5
570
330
18
100
AcDbEntity
  8
1
  6
Continuous
100
AcDbLine
 10
167.2452585376081
 20
226.6584898068467
 30
0.0
 11
168.8702585376081
 21
225.5334898068467
 31
0.0
  0
LINE
  5
571
330
18
100
AcDbEntity
  8
1
  6
Continuous
100
AcDbLine
 10
165.8310445376081
 20
226.6584898068467
 30
0.0
 11
167.456044537608
 21
225.5334898068467
 31
0.0
  0
LINE
  5
572
330
18
100
AcDbEntity
  8
1
  6
Continuous
100
AcDbLine
 10
167.0692485376079
 20
272.2969978068466
 30
0.0
 11
160.2692485376081
 21
272.2969978068466
 31
0.0
  0
LINE
  5
573
330
18
100
AcDbEntity
  8
2
  6
Continuous
100
AcDbLine
 10
160.345748537608
 20
272.5129728068465
 30
0.0
 11
160.345748537608
 21
272.2969978068466
 31
0.0
  0
LINE
  5
574
330
18
100
AcDbEntity
  8
1
  6
Continuous
100
AcDbLine
 10
160.031657537608
 20
272.5345888068466
 30
0.0
 11
160.2692485376081
 21
272.2969978068466
 31
0.0
  0
LINE
  5
575
330
18
100
AcDbEntity
  8
2
  6
Continuous
100
AcDbLine
 10
166.9927485376081
 20
272.5054978068466
 30
0.0
 11
166.9927485376081
 21
272.2969978068466
 31
0.0
  0
LINE
  5
576
330
18
100
AcDbEntity
  8
1
  6
Continuous
100
AcDbLine
 10
167.0692485376079
 20
272.2969978068466
 30
0.0
 11
167.2777485376079
 21
272.5054978068466
 31
0.0
  0
ARC
  5
577
330
18
100
AcDbEntity
  8
1
  6
Continuous
100
AcDbCircle
 10
209.987824537608
 20
222.0718268068467
 30
0.0
 40
3.462340999999999
100
AcDbArc
 50
7.662535
 51
91.134876
  0
LINE
  5
578
330
18
100
AcDbEntity
  8
4
  6
CENTER
100
AcDbLine
 10
188.6692485376079
 20
239.2334898068466
 30
0.0
 11
188.6692485376079
 21
206.4256018068467
 31
0.0
  0
LINE
  5
579
330
18
100
AcDbEntity
  8
1
  6
Continuous
100
AcDbLine
 10
213.4192485376081
 20
217.9334898068465
 30
0.0
 11
205.563347537608
 21
217.9334898068465
 31
0.0
  0
LINE
  5
57A
330
18
100
AcDbEntity
  8
1
  6
Continuous
100
AcDbLine
 10
197.0039425376081
 20
213.1042318068467
 30
0.0
 11
172.656624537608
 21
172.3042098068467
 31
0.0
  0
ARC
  5
57B
330
18
100
AcDbEntity
  8
1
  6
Continuous
100
AcDbCircle
 10
205.563347537608
 20
207.9334898068465
 30
0.0
 40
10.0
100
AcDbArc
 50
90.0
 51
148.863801
  0
ARC
  5
57C
330
18
100
AcDbEntity
  8
1
  6
Continuous
100
AcDbCircle
 10
200.065816537608
 20
223.5215238068467
 30
0.0
 40
7.848514999999999
100
AcDbArc
 50
270.9161379999998
 51
314.603254
  0
LINE
  5
57D
330
18
100
AcDbEntity
  8
1
  6
Continuous
100
AcDbLine
 10
200.1913065376081
 20
215.6740118068467
 30
0.0
 11
199.232130537608
 21
215.6740118068467
 31
0.0
  0
LINE
  5
57E
330
18
100
AcDbEntity
  8
1
  6
Continuous
100
AcDbLine
 10
203.6136195376081
 20
217.7419838068465
 30
0.0
 11
203.569248537608
 21
217.6709898068467
 31
0.0
  0
LINE
  5
57F
330
18
100
AcDbEntity
  8
1
  6
Continuous
100
AcDbLine
 10
213.4192485376081
 20
222.5334898068467
 30
0.0
 11
213.4192485376081
 21
217.9334898068465
 31
0.0
  0
LINE
  5
580
330
18
100
AcDbEntity
  8
1
  6
Continuous
100
AcDbLine
 10
210.093237537608
 20
226.6584898068467
 30
0.0
 11
208.468237537608
 21
225.5334898068467
 31
0.0
  0
LINE
  5
581
330
18
100
AcDbEntity
  8
1
  6
Continuous
100
AcDbLine
 10
208.2574515376081
 20
226.6584898068467
 30
0.0
 11
209.8824515376081
 21
225.5334898068467
 31
0.0
  0
LINE
  5
582
330
18
100
AcDbEntity
  8
1
  6
Continuous
100
AcDbLine
 10
190.294248537608
 20
226.6584898068467
 30
0.0
 11
188.6692485376079
 21
225.5334898068467
 31
0.0
  0
LINE
  5
583
330
18
100
AcDbEntity
  8
1
  6
Continuous
100
AcDbLine
 10
188.4584615376081
 20
226.6584898068467
 30
0.0
 11
190.0834615376079
 21
225.5334898068467
 31
0.0
  0
LINE
  5
584
330
18
100
AcDbEntity
  8
1
  6
Continuous
100
AcDbLine
 10
180.3947535376081
 20
226.6584898068467
 30
0.0
 11
178.7697535376081
 21
225.5334898068467
 31
0.0
  0
LINE
  5
585
330
18
100
AcDbEntity
  8
1
  6
Continuous
100
AcDbLine
 10
178.5589665376081
 20
226.6584898068467
 30
0.0
 11
180.1839665376079
 21
225.5334898068467
 31
0.0
  0
LINE
  5
586
330
18
100
AcDbEntity
  8
1
  6
Continuous
100
AcDbLine
 10
176.152112537608
 20
226.6584898068467
 30
0.0
 11
174.5271125376081
 21
225.5334898068467
 31
0.0
  0
LINE
  5
587
330
18
100
AcDbEntity
  8
1
  6
Continuous
100
AcDbLine
 10
174.3163265376081
 20
226.6584898068467
 30
0.0
 11
175.9413265376081
 21
225.5334898068467
 31
0.0
  0
LINE
  5
588
330
18
100
AcDbEntity
  8
1
  6
Continuous
100
AcDbLine
 10
171.9094715376081
 20
226.6584898068467
 30
0.0
 11
170.284471537608
 21
225.5334898068467
 31
0.0
  0
LINE
  5
589
330
18
100
AcDbEntity
  8
1
  6
Continuous
100
AcDbLine
 10
171.4878985376081
 20
226.6584898068467
 30
0.0
 11
173.1128985376081
 21
225.5334898068467
 31
0.0
  0
LINE
  5
58A
330
18
100
AcDbEntity
  8
1
  6
Continuous
100
AcDbLine
 10
174.7378985376079
 20
226.6584898068467
 30
0.0
 11
173.1128985376081
 21
225.5334898068467
 31
0.0
  0
LINE
  5
58B
330
18
100
AcDbEntity
  8
1
  6
Continuous
100
AcDbLine
 10
173.3236855376081
 20
226.6584898068467
 30
0.0
 11
171.698685537608
 21
225.5334898068467
 31
0.0
  0
LINE
  5
58C
330
18
100
AcDbEntity
  8
1
  6
Continuous
100
AcDbLine
 10
172.902112537608
 20
226.6584898068467
 30
0.0
 11
174.5271125376081
 21
225.5334898068467
 31
0.0
  0
LINE
  5
58D
330
18
100
AcDbEntity
  8
1
  6
Continuous
100
AcDbLine
 10
175.7305395376081
 20
226.6584898068467
 30
0.0
 11
177.355539537608
 21
225.5334898068467
 31
0.0
  0
LINE
  5
58E
330
18
100
AcDbEntity
  8
1
  6
Continuous
100
AcDbLine
 10
178.980539537608
 20
226.6584898068467
 30
0.0
 11
177.355539537608
 21
225.5334898068467
 31
0.0
  0
LINE
  5
58F
330
18
100
AcDbEntity
  8
1
  6
Continuous
100
AcDbLine
 10
177.5663265376081
 20
226.6584898068467
 30
0.0
 11
175.9413265376081
 21
225.5334898068467
 31
0.0
  0
LINE
  5
590
330
18
100
AcDbEntity
  8
1
  6
Continuous
100
AcDbLine
 10
177.1447535376081
 20
226.6584898068467
 30
0.0
 11
178.7697535376081
 21
225.5334898068467
 31
0.0
  0
LINE
  5
591
330
18
100
AcDbEntity
  8
1
  6
Continuous
100
AcDbLine
 10
186.051607537608
 20
226.6584898068467
 30
0.0
 11
184.426607537608
 21
225.5334898068467
 31
0.0
  0
LINE
  5
592
330
18
100
AcDbEntity
  8
1
  6
Continuous
100
AcDbLine
 10
184.2158215376081
 20
226.6584898068467
 30
0.0
 11
185.8408215376081
 21
225.5334898068467
 31
0.0
  0
LINE
  5
593
330
18
100
AcDbEntity
  8
1
  6
Continuous
100
AcDbLine
 10
184.6373935376079
 20
226.6584898068467
 30
0.0
 11
183.0123935376081
 21
225.5334898068467
 31
0.0
  0
LINE
  5
594
330
18
100
AcDbEntity
  8
1
  6
Continuous
100
AcDbLine
 10
183.223180537608
 20
226.6584898068467
 30
0.0
 11
181.5981805376081
 21
225.5334898068467
 31
0.0
  0
LINE
  5
595
330
18
100
AcDbEntity
  8
1
  6
Continuous
100
AcDbLine
 10
182.801607537608
 20
226.6584898068467
 30
0.0
 11
184.426607537608
 21
225.5334898068467
 31
0.0
  0
LINE
  5
596
330
18
100
AcDbEntity
  8
1
  6
Continuous
100
AcDbLine
 10
181.8089665376081
 20
226.6584898068467
 30
0.0
 11
180.1839665376079
 21
225.5334898068467
 31
0.0
  0
LINE
  5
597
330
18
100
AcDbEntity
  8
1
  6
Continuous
100
AcDbLine
 10
181.3873935376079
 20
226.6584898068467
 30
0.0
 11
183.0123935376081
 21
225.5334898068467
 31
0.0
  0
LINE
  5
598
330
18
100
AcDbEntity
  8
1
  6
Continuous
100
AcDbLine
 10
179.973180537608
 20
226.6584898068467
 30
0.0
 11
181.5981805376081
 21
225.5334898068467
 31
0.0
  0
LINE
  5
599
330
18
100
AcDbEntity
  8
1
  6
Continuous
100
AcDbLine
 10
188.8800345376081
 20
226.6584898068467
 30
0.0
 11
187.255034537608
 21
225.5334898068467
 31
0.0
  0
LINE
  5
59A
330
18
100
AcDbEntity
  8
1
  6
Continuous
100
AcDbLine
 10
187.4658215376081
 20
226.6584898068467
 30
0.0
 11
185.8408215376081
 21
225.5334898068467
 31
0.0
  0
LINE
  5
59B
330
18
100
AcDbEntity
  8
1
  6
Continuous
100
AcDbLine
 10
187.0442485376081
 20
226.6584898068467
 30
0.0
 11
188.6692485376079
 21
225.5334898068467
 31
0.0
  0
LINE
  5
59C
330
18
100
AcDbEntity
  8
1
  6
Continuous
100
AcDbLine
 10
185.6300345376081
 20
226.6584898068467
 30
0.0
 11
187.255034537608
 21
225.5334898068467
 31
0.0
  0
LINE
  5
59D
330
18
100
AcDbEntity
  8
1
  6
Continuous
100
AcDbLine
 10
200.193743537608
 20
226.6584898068467
 30
0.0
 11
198.568743537608
 21
225.5334898068467
 31
0.0
  0
LINE
  5
59E
330
18
100
AcDbEntity
  8
1
  6
Continuous
100
AcDbLine
 10
198.3579565376081
 20
226.6584898068467
 30
0.0
 11
199.9829565376081
 21
225.5334898068467
 31
0.0
  0
LINE
  5
59F
330
18
100
AcDbEntity
  8
1
  6
Continuous
100
AcDbLine
 10
195.951102537608
 20
226.6584898068467
 30
0.0
 11
194.3261025376081
 21
225.5334898068467
 31
0.0
  0
LINE
  5
5A0
330
18
100
AcDbEntity
  8
1
  6
Continuous
100
AcDbLine
 10
194.115315537608
 20
226.6584898068467
 30
0.0
 11
195.740315537608
 21
225.5334898068467
 31
0.0
  0
LINE
  5
5A1
330
18
100
AcDbEntity
  8
1
  6
Continuous
100
AcDbLine
 10
194.5368885376081
 20
226.6584898068467
 30
0.0
 11
192.9118885376081
 21
225.5334898068467
 31
0.0
  0
LINE
  5
5A2
330
18
100
AcDbEntity
  8
1
  6
Continuous
100
AcDbLine
 10
191.7084615376081
 20
226.6584898068467
 30
0.0
 11
190.0834615376079
 21
225.5334898068467
 31
0.0
  0
LINE
  5
5A3
330
18
100
AcDbEntity
  8
1
  6
Continuous
100
AcDbLine
 10
193.122675537608
 20
226.6584898068467
 30
0.0
 11
191.497675537608
 21
225.5334898068467
 31
0.0
  0
LINE
  5
5A4
330
18
100
AcDbEntity
  8
1
  6
Continuous
100
AcDbLine
 10
189.8726755376079
 20
226.6584898068467
 30
0.0
 11
191.497675537608
 21
225.5334898068467
 31
0.0
  0
LINE
  5
5A5
330
18
100
AcDbEntity
  8
1
  6
Continuous
100
AcDbLine
 10
191.2868885376081
 20
226.6584898068467
 30
0.0
 11
192.9118885376081
 21
225.5334898068467
 31
0.0
  0
LINE
  5
5A6
330
18
100
AcDbEntity
  8
1
  6
Continuous
100
AcDbLine
 10
192.7011025376081
 20
226.6584898068467
 30
0.0
 11
194.3261025376081
 21
225.5334898068467
 31
0.0
  0
LINE
  5
5A7
330
18
100
AcDbEntity
  8
1
  6
Continuous
100
AcDbLine
 10
197.365315537608
 20
226.6584898068467
 30
0.0
 11
195.740315537608
 21
225.5334898068467
 31
0.0
  0
LINE
  5
5A8
330
18
100
AcDbEntity
  8
1
  6
Continuous
100
AcDbLine
 10
195.529529537608
 20
226.6584898068467
 30
0.0
 11
197.154529537608
 21
225.5334898068467
 31
0.0
  0
LINE
  5
5A9
330
18
100
AcDbEntity
  8
1
  6
Continuous
100
AcDbLine
 10
198.7795295376081
 20
226.6584898068467
 30
0.0
 11
197.154529537608
 21
225.5334898068467
 31
0.0
  0
LINE
  5
5AA
330
18
100
AcDbEntity
  8
1
  6
Continuous
100
AcDbLine
 10
196.9437435376081
 20
226.6584898068467
 30
0.0
 11
198.568743537608
 21
225.5334898068467
 31
0.0
  0
LINE
  5
5AB
330
18
100
AcDbEntity
  8
1
  6
Continuous
100
AcDbLine
 10
204.4363835376081
 20
226.6584898068467
 30
0.0
 11
202.8113835376081
 21
225.5334898068467
 31
0.0
  0
LINE
  5
5AC
330
18
100
AcDbEntity
  8
1
  6
Continuous
100
AcDbLine
 10
202.600597537608
 20
226.6584898068467
 30
0.0
 11
204.2255975376078
 21
225.5334898068467
 31
0.0
  0
LINE
  5
5AD
330
18
100
AcDbEntity
  8
1
  6
Continuous
100
AcDbLine
 10
201.6079565376081
 20
226.6584898068467
 30
0.0
 11
199.9829565376081
 21
225.5334898068467
 31
0.0
  0
LINE
  5
5AE
330
18
100
AcDbEntity
  8
1
  6
Continuous
100
AcDbLine
 10
199.7721705376079
 20
226.6584898068467
 30
0.0
 11
201.397170537608
 21
225.5334898068467
 31
0.0
  0
LINE
  5
5AF
330
18
100
AcDbEntity
  8
1
  6
Continuous
100
AcDbLine
 10
203.022170537608
 20
226.6584898068467
 30
0.0
 11
201.397170537608
 21
225.5334898068467
 31
0.0
  0
LINE
  5
5B0
330
18
100
AcDbEntity
  8
1
  6
Continuous
100
AcDbLine
 10
201.1863835376081
 20
226.6584898068467
 30
0.0
 11
202.8113835376081
 21
225.5334898068467
 31
0.0
  0
LINE
  5
5B1
330
18
100
AcDbEntity
  8
1
  6
Continuous
100
AcDbLine
 10
208.6790245376081
 20
226.6584898068467
 30
0.0
 11
207.0540245376081
 21
225.5334898068467
 31
0.0
  0
LINE
  5
5B2
330
18
100
AcDbEntity
  8
1
  6
Continuous
100
AcDbLine
 10
206.8432375376081
 20
226.6584898068467
 30
0.0
 11
208.468237537608
 21
225.5334898068467
 31
0.0
  0
LINE
  5
5B3
330
18
100
AcDbEntity
  8
1
  6
Continuous
100
AcDbLine
 10
205.8505975376081
 20
226.6584898068467
 30
0.0
 11
204.2255975376078
 21
225.5334898068467
 31
0.0
  0
LINE
  5
5B4
330
18
100
AcDbEntity
  8
1
  6
Continuous
100
AcDbLine
 10
204.0148105376081
 20
226.6584898068467
 30
0.0
 11
205.6398105376081
 21
225.5334898068467
 31
0.0
  0
LINE
  5
5B5
330
18
100
AcDbEntity
  8
1
  6
Continuous
100
AcDbLine
 10
207.2648105376081
 20
226.6584898068467
 30
0.0
 11
205.6398105376081
 21
225.5334898068467
 31
0.0
  0
LINE
  5
5B6
330
18
100
AcDbEntity
  8
1
  6
Continuous
100
AcDbLine
 10
205.4290245376079
 20
226.6584898068467
 30
0.0
 11
207.0540245376081
 21
225.5334898068467
 31
0.0
  0
LINE
  5
5B7
330
18
100
AcDbEntity
  8
4
  6
CENTER
100
AcDbLine
 10
215.6692485376081
 20
239.2334898068466
 30
0.0
 11
215.6692485376081
 21
226.9334898068467
 31
0.0
  0
ARC
  5
5B8
330
18
100
AcDbEntity
  8
1
  6
Continuous
100
AcDbCircle
 10
211.461445537608
 20
233.3334898068467
 30
0.0
 40
3.5
100
AcDbArc
 50
270.0
 51
336.421822
  0
ARC
  5
5B9
330
18
100
AcDbEntity
  8
1
  6
Continuous
100
AcDbCircle
 10
205.419248537608
 20
224.4839898068465
 30
0.0
 40
6.974499999999999
100
AcDbArc
 50
39.907598
 51
50.08600000000002
  0
LINE
  5
5BA
330
18
100
AcDbEntity
  8
1
  6
Continuous
100
AcDbLine
 10
211.319248537608
 20
226.6584898068467
 30
0.0
 11
212.2192485376081
 21
228.1584898068466
 31
0.0
  0
LINE
  5
5BB
330
18
100
AcDbEntity
  8
1
  6
Continuous
100
AcDbLine
 10
211.6692485376081
 20
226.6584898068467
 30
0.0
 11
211.6692485376081
 21
225.5334898068467
 31
0.0
  0
LINE
  5
5BC
330
18
100
AcDbEntity
  8
1
  6
Continuous
100
AcDbLine
 10
211.6692485376081
 20
225.4060728068466
 30
0.0
 11
211.296665537608
 21
225.5334898068467
 31
0.0
  0
LINE
  5
5BD
330
18
100
AcDbEntity
  8
1
  6
Continuous
100
AcDbLine
 10
211.0858785376081
 20
226.6584898068467
 30
0.0
 11
211.6692485376081
 21
226.0751208068467
 31
0.0
  0
LINE
  5
5BE
330
18
100
AcDbEntity
  8
1
  6
Continuous
100
AcDbLine
 10
211.507451537608
 20
226.6584898068467
 30
0.0
 11
209.8824515376081
 21
225.5334898068467
 31
0.0
  0
LINE
  5
5BF
330
18
100
AcDbEntity
  8
1
  6
Continuous
100
AcDbLine
 10
209.671665537608
 20
226.6584898068467
 30
0.0
 11
211.296665537608
 21
225.5334898068467
 31
0.0
  0
LINE
  5
5C0
330
18
100
AcDbEntity
  8
1
  6
Continuous
100
AcDbLine
 10
212.2192485376081
 20
228.1584898068466
 30
0.0
 11
211.7192485376081
 21
228.9584898068466
 31
0.0
  0
LINE
  5
5C1
330
18
100
AcDbEntity
  8
1
  6
Continuous
100
AcDbLine
 10
223.6692485376081
 20
234.2334898068466
 30
0.0
 11
223.6692485376081
 21
231.9334898068465
 31
0.0
  0
LINE
  5
5C2
330
18
100
AcDbEntity
  8
1
  6
Continuous
100
AcDbLine
 10
216.6691735376081
 20
326.5054978068465
 30
0.0
 11
160.6691735376081
 21
326.5054978068465
 31
0.0
  0
CIRCLE
  5
5C3
330
18
100
AcDbEntity
  8
1
  6
Continuous
100
AcDbCircle
 10
188.6691735376079
 20
299.5054978068466
 30
0.0
 40
20.89999999999998
  0
LINE
  5
5C4
330
18
100
AcDbEntity
  8
4
  6
CENTER
100
AcDbLine
 10
228.969173537608
 20
299.5054978068466
 30
0.0
 11
121.1692395376079
 21
299.5054978068466
 31
0.0
  0
LINE
  5
5C5
330
18
100
AcDbEntity
  8
1
  6
Continuous
100
AcDbLine
 10
153.6691735376081
 20
288.0054978068467
 30
0.0
 11
128.530286537608
 21
288.0054978068467
 31
0.0
  0
LINE
  5
5C6
330
18
100
AcDbEntity
  8
1
  6
Continuous
100
AcDbLine
 10
128.530286537608
 20
311.0054978068467
 30
0.0
 11
153.6691735376081
 21
311.0054978068467
 31
0.0
  0
ARC
  5
5C7
330
18
100
AcDbEntity
  8
1
  6
Continuous
100
AcDbCircle
 10
186.169248537608
 20
299.5054978068466
 30
0.0
 40
60.0
100
AcDbArc
 50
170.1575129999999
 51
189.842487
  0
ARC
  5
5C8
330
18
100
AcDbEntity
  8
1
  6
Continuous
100
AcDbCircle
 10
128.530286537608
 20
289.5054978068466
 30
0.0
 40
1.5
100
AcDbArc
 50
189.842487
 51
270.0
  0
ARC
  5
5C9
330
18
100
AcDbEntity
  8
1
  6
Continuous
100
AcDbCircle
 10
128.530286537608
 20
309.5054978068467
 30
0.0
 40
1.5
100
AcDbArc
 50
90.0
 51
170.1575129999999
  0
LINE
  5
5CA
330
18
100
AcDbEntity
  8
1
  6
Continuous
100
AcDbLine
 10
153.6691735376081
 20
279.5054978068465
 30
0.0
 11
153.6691735376081
 21
319.5054978068467
 31
0.0
  0
ARC
  5
5CB
330
18
100
AcDbEntity
  8
1
  6
Continuous
100
AcDbCircle
 10
151.1692485376079
 20
286.2554978068467
 30
0.0
 40
1.5
100
AcDbArc
 50
225.0
 51
270.0
  0
LINE
  5
5CC
330
18
100
AcDbEntity
  8
1
  6
Continuous
100
AcDbLine
 10
146.669248537608
 20
287.0054978068465
 30
0.0
 11
153.6691735376081
 21
287.0054978068465
 31
0.0
  0
LINE
  5
5CD
330
18
100
AcDbEntity
  8
1
  6
Continuous
100
AcDbLine
 10
146.669248537608
 20
287.0054978068465
 30
0.0
 11
145.669248537608
 21
288.0054978068467
 31
0.0
  0
LINE
  5
5CE
330
18
100
AcDbEntity
  8
1
  6
Continuous
100
AcDbLine
 10
150.1085885376079
 20
285.1948378068466
 30
0.0
 11
148.297928537608
 21
287.0054978068465
 31
0.0
  0
CIRCLE
  5
5D2
330
18
100
AcDbEntity
  8
1
  6
Continuous
100
AcDbCircle
 10
161.6691735376081
 20
281.5054978068465
 30
0.0
 40
3.25
  0
LINE
  5
5D3
330
18
100
AcDbEntity
  8
4
  6
CENTER
100
AcDbLine
 10
167.9191735376081
 20
281.5054978068465
 30
0.0
 11
155.4191735376081
 21
281.5054978068465
 31
0.0
  0
LINE
  5
5D4
330
18
100
AcDbEntity
  8
1
  6
Continuous
100
AcDbLine
 10
153.4691735376079
 20
282.9969978068467
 30
0.0
 11
153.4691735376079
 21
280.6969978068467
 31
0.0
  0
LINE
  5
5D5
330
18
100
AcDbEntity
  8
1
  6
Continuous
100
AcDbLine
 10
153.4691735376079
 20
280.6969978068467
 30
0.0
 11
153.6691735376081
 21
280.6969978068467
 31
0.0
  0
LINE
  5
5D6
330
18
100
AcDbEntity
  8
1
  6
Continuous
100
AcDbLine
 10
153.4691735376079
 20
282.9969978068467
 30
0.0
 11
153.6691735376081
 21
282.9969978068467
 31
0.0
  0
LINE
  5
5D9
330
18
100
AcDbEntity
  8
1
  6
Continuous
100
AcDbLine
 10
152.419248537608
 20
284.7554978068465
 30
0.0
 11
152.419248537608
 21
284.2554978068467
 31
0.0
  0
LINE
  5
5DA
330
18
100
AcDbEntity
  8
1
  6
Continuous
100
AcDbLine
 10
153.6691735376081
 20
284.2554978068467
 30
0.0
 11
152.419248537608
 21
284.2554978068467
 31
0.0
  0
LINE
  5
5DB
330
18
100
AcDbEntity
  8
1
  6
Continuous
100
AcDbLine
 10
151.1692485376079
 20
284.7554978068465
 30
0.0
 11
153.6691735376081
 21
284.7554978068465
 31
0.0
  0
ARC
  5
5DE
330
18
100
AcDbEntity
  8
1
  6
Continuous
100
AcDbCircle
 10
151.1692485376079
 20
312.7554978068465
 30
0.0
 40
1.5
100
AcDbArc
 50
90.0
 51
135.0
  0
LINE
  5
5DF
330
18
100
AcDbEntity
  8
1
  6
Continuous
100
AcDbLine
 10
153.6691735376081
 20
312.0054978068466
 30
0.0
 11
146.669248537608
 21
312.0054978068466
 31
0.0
  0
LINE
  5
5E0
330
18
100
AcDbEntity
  8
1
  6
Continuous
100
AcDbLine
 10
146.669248537608
 20
312.0054978068466
 30
0.0
 11
145.669248537608
 21
311.0054978068467
 31
0.0
  0
LINE
  5
5E1
330
18
100
AcDbEntity
  8
1
  6
Continuous
100
AcDbLine
 10
150.1085885376079
 20
313.8161578068466
 30
0.0
 11
148.297928537608
 21
312.0054978068466
 31
0.0
  0
LINE
  5
5E2
330
18
100
AcDbEntity
  8
1
  6
Continuous
100
AcDbLine
 10
153.4691735376079
 20
318.3139978068467
 30
0.0
 11
153.4691735376079
 21
316.0139978068467
 31
0.0
  0
CIRCLE
  5
5E4
330
18
100
AcDbEntity
  8
1
  6
Continuous
100
AcDbCircle
 10
161.6691735376081
 20
317.5054978068467
 30
0.0
 40
3.25
  0
LINE
  5
5E5
330
18
100
AcDbEntity
  8
4
  6
CENTER
100
AcDbLine
 10
161.6691735376081
 20
311.2554978068467
 30
0.0
 11
161.6691735376081
 21
323.7554978068467
 31
0.0
  0
LINE
  5
5E6
330
18
100
AcDbEntity
  8
1
  6
Continuous
100
AcDbLine
 10
152.419248537608
 20
314.2554978068465
 30
0.0
 11
152.419248537608
 21
314.7554978068465
 31
0.0
  0
LINE
  5
5E7
330
18
100
AcDbEntity
  8
1
  6
Continuous
100
AcDbLine
 10
153.4691735376079
 20
316.0139978068467
 30
0.0
 11
153.6691735376081
 21
316.0139978068467
 31
0.0
  0
LINE
  5
5E8
330
18
100
AcDbEntity
  8
1
  6
Continuous
100
AcDbLine
 10
152.419248537608
 20
314.7554978068465
 30
0.0
 11
153.6691735376081
 21
314.7554978068465
 31
0.0
  0
LINE
  5
5E9
330
18
100
AcDbEntity
  8
1
  6
Continuous
100
AcDbLine
 10
151.1692485376079
 20
314.2554978068465
 30
0.0
 11
153.6691735376081
 21
314.2554978068465
 31
0.0
  0
ARC
  5
5EC
330
18
100
AcDbEntity
  8
1
  6
Continuous
100
AcDbCircle
 10
160.6691735376081
 20
319.5054978068467
 30
0.0
 40
7.0
100
AcDbArc
 50
90.0
 51
180.0
  0
LINE
  5
5ED
330
18
100
AcDbEntity
  8
4
  6
CENTER
100
AcDbLine
 10
167.9191735376081
 20
317.5054978068467
 30
0.0
 11
155.4191735376081
 21
317.5054978068467
 31
0.0
  0
LINE
  5
5EE
330
18
100
AcDbEntity
  8
1
  6
Continuous
100
AcDbLine
 10
153.4691735376079
 20
318.3139978068467
 30
0.0
 11
153.6691735376081
 21
318.3139978068467
 31
0.0
  0
CIRCLE
  5
5EF
330
18
100
AcDbEntity
  8
1
  6
Continuous
100
AcDbCircle
 10
188.6691735376079
 20
299.5054978068466
 30
0.0
 40
11.9
  0
LINE
  5
5F0
330
18
100
AcDbEntity
  8
1
  6
Continuous
100
AcDbLine
 10
223.6691735376081
 20
279.5054978068465
 30
0.0
 11
223.6691735376081
 21
319.5054978068467
 31
0.0
  0
LINE
  5
5F1
330
18
100
AcDbEntity
  8
4
  6
CENTER
100
AcDbLine
 10
221.9191735376081
 20
281.5054978068465
 30
0.0
 11
209.419173537608
 21
281.5054978068465
 31
0.0
  0
CIRCLE
  5
5F2
330
18
100
AcDbEntity
  8
1
  6
Continuous
100
AcDbCircle
 10
215.6691735376081
 20
281.5054978068465
 30
0.0
 40
3.25
  0
CIRCLE
  5
5F3
330
18
100
AcDbEntity
  8
1
  6
Continuous
100
AcDbCircle
 10
215.6691735376081
 20
317.5054978068467
 30
0.0
 40
3.25
  0
LINE
  5
5F4
330
18
100
AcDbEntity
  8
4
  6
CENTER
100
AcDbLine
 10
215.6691735376081
 20
311.2554978068467
 30
0.0
 11
215.6691735376081
 21
323.7554978068467
 31
0.0
  0
LINE
  5
5F5
330
18
100
AcDbEntity
  8
4
  6
CENTER
100
AcDbLine
 10
221.9191735376081
 20
317.5054978068467
 30
0.0
 11
209.419173537608
 21
317.5054978068467
 31
0.0
  0
ARC
  5
5F6
330
18
100
AcDbEntity
  8
1
  6
Continuous
100
AcDbCircle
 10
216.6691735376081
 20
319.5054978068467
 30
0.0
 40
7.0
100
AcDbArc
 50
0.0
 51
90.0
  0
LINE
  5
5F7
330
18
100
AcDbEntity
  8
1
  6
Continuous
100
AcDbLine
 10
277.903377537608
 20
161.7334898068466
 30
0.0
 11
277.903377537608
 21
195.7334898068467
 31
0.0
  0
LINE
  5
5F8
330
18
100
AcDbEntity
  8
1
  6
Continuous
100
AcDbLine
 10
275.653377537608
 20
191.2334898068466
 30
0.0
 11
275.653377537608
 21
166.2334898068466
 31
0.0
  0
LINE
  5
5F9
330
18
100
AcDbEntity
  8
1
  6
Continuous
100
AcDbLine
 10
302.9033775376078
 20
195.7334898068467
 30
0.0
 11
302.9033775376078
 21
161.7334898068466
 31
0.0
  0
LINE
  5
5FA
330
18
100
AcDbEntity
  8
1
  6
Continuous
100
AcDbLine
 10
305.1533775376079
 20
191.2334898068466
 30
0.0
 11
305.1533775376079
 21
166.2334898068466
 31
0.0
  0
LINE
  5
5FB
330
18
100
AcDbEntity
  8
1
  6
Continuous
100
AcDbLine
 10
301.903377537608
 20
143.5945268068466
 30
0.0
 11
301.903377537608
 21
213.8724518068467
 31
0.0
  0
LINE
  5
5FC
330
18
100
AcDbEntity
  8
1
  6
Continuous
100
AcDbLine
 10
278.903377537608
 20
213.8724518068467
 30
0.0
 11
278.903377537608
 21
143.5945268068466
 31
0.0
  0
LINE
  5
5FD
330
18
100
AcDbEntity
  8
1
  6
Continuous
100
AcDbLine
 10
305.6533775376079
 20
167.4834898068467
 30
0.0
 11
305.6533775376079
 21
189.9834898068466
 31
0.0
  0
LINE
  5
5FE
330
18
100
AcDbEntity
  8
1
  6
Continuous
100
AcDbLine
 10
275.153377537608
 20
189.9834898068466
 30
0.0
 11
275.153377537608
 21
167.4834898068467
 31
0.0
  0
ARC
  5
5FF
330
18
100
AcDbEntity
  8
1
  6
Continuous
100
AcDbCircle
 10
417.1375055376079
 20
178.7334898068466
 30
0.0
 40
11.25
100
AcDbArc
 50
199.02727
 51
230.3040269999999
  0
ARC
  5
600
330
18
100
AcDbEntity
  8
1
  6
Continuous
100
AcDbCircle
 10
417.1375055376079
 20
178.7334898068466
 30
0.0
 40
17.0
100
AcDbArc
 50
161.201094
 51
61.16239799999998
  0
ARC
  5
601
330
18
100
AcDbEntity
  8
1
  6
Continuous
100
AcDbCircle
 10
417.1375055376079
 20
178.7334898068466
 30
0.0
 40
15.37132
100
AcDbArc
 50
166.586056
 51
56.35425300000001
  0
ARC
  5
602
330
18
100
AcDbEntity
  8
1
  6
Continuous
100
AcDbCircle
 10
417.1375055376079
 20
178.7334898068466
 30
0.0
 40
19.0
100
AcDbArc
 50
156.248538
 51
65.650227
  0
ARC
  5
603
330
18
100
AcDbEntity
  8
1
  6
Continuous
100
AcDbCircle
 10
417.1375055376079
 20
178.7334898068466
 30
0.0
 40
27.0
100
AcDbArc
 50
144.8971719999998
 51
76.096745
  0
ARC
  5
604
330
18
100
AcDbEntity
  8
1
  6
Continuous
100
AcDbCircle
 10
417.1375055376079
 20
178.7334898068466
 30
0.0
 40
28.0
100
AcDbArc
 50
143.9862819999999
 51
76.94200499999998
  0
ARC
  5
605
330
18
100
AcDbEntity
  8
1
  6
Continuous
100
AcDbCircle
 10
417.1375055376079
 20
178.7334898068466
 30
0.0
 40
37.5
100
AcDbArc
 50
137.903804
 51
82.60460999999997
  0
ARC
  5
606
330
18
100
AcDbEntity
  8
1
  6
Continuous
100
AcDbCircle
 10
319.211877537608
 20
167.6249588068466
 30
0.0
 40
10.0
100
AcDbArc
 50
153.0359779999997
 51
180.0
  0
ARC
  5
607
330
18
100
AcDbEntity
  8
1
  6
Continuous
100
AcDbCircle
 10
319.211877537608
 20
167.0895418068466
 30
0.0
 40
12.3
100
AcDbArc
 50
153.677111
 51
179.329451
  0
LINE
  5
608
330
18
100
AcDbEntity
  8
1
  6
Continuous
100
AcDbLine
 10
273.8948775376079
 20
167.2334898068466
 30
0.0
 11
273.8948775376079
 21
212.8298828068465
 31
0.0
  0
ARC
  5
609
330
18
100
AcDbEntity
  8
1
  6
Continuous
100
AcDbCircle
 10
261.5948775376081
 20
167.0895418068466
 30
0.0
 40
12.3
100
AcDbArc
 50
0.6705490000000001
 51
26.322889
  0
ARC
  5
60A
330
18
100
AcDbEntity
  8
1
  6
Continuous
100
AcDbCircle
 10
261.5948775376081
 20
167.6331338068467
 30
0.0
 40
10.0
100
AcDbArc
 50
0.0
 51
26.87780499999999
  0
LINE
  5
60B
330
18
100
AcDbEntity
  8
4
  6
CENTER
100
AcDbLine
 10
417.1375055376079
 20
136.2334898068467
 30
0.0
 11
417.1375055376079
 21
219.2334898068467
 31
0.0
  0
ARC
  5
60C
330
18
100
AcDbEntity
  8
1
  6
Continuous
100
AcDbCircle
 10
417.1375055376079
 20
177.7334898068466
 30
0.0
 40
10.5
100
AcDbArc
 50
211.136199
 51
9.004619999999997
  0
LINE
  5
60D
330
18
100
AcDbEntity
  8
1
  6
Continuous
100
AcDbLine
 10
306.9118775376079
 20
167.2334898068466
 30
0.0
 11
306.9118775376079
 21
212.8298828068465
 31
0.0
  0
LINE
  5
60E
330
18
100
AcDbEntity
  8
4
  6
CENTER
100
AcDbLine
 10
290.4033775376078
 20
239.2334898068466
 30
0.0
 11
290.4033775376078
 21
136.2334898068467
 31
0.0
  0
ARC
  5
60F
330
18
100
AcDbEntity
  8
1
  6
Continuous
100
AcDbCircle
 10
290.4033775376078
 20
201.2334898068466
 30
0.0
 40
60.0
100
AcDbArc
 50
260.157513
 51
279.842487
  0
ARC
  5
610
330
18
100
AcDbEntity
  8
1
  6
Continuous
100
AcDbCircle
 10
280.403377537608
 20
143.5945268068466
 30
0.0
 40
1.5
100
AcDbArc
 50
180.0
 51
260.157513
  0
LINE
  5
611
330
18
100
AcDbEntity
  8
1
  6
Continuous
100
AcDbLine
 10
276.0927175376081
 20
165.1728298068467
 30
0.0
 11
277.903377537608
 21
163.3621688068467
 31
0.0
  0
LINE
  5
612
330
18
100
AcDbEntity
  8
1
  6
Continuous
100
AcDbLine
 10
273.8948775376079
 20
167.2334898068466
 30
0.0
 11
271.5948775376079
 21
167.2334898068466
 31
0.0
  0
LINE
  5
613
330
18
100
AcDbEntity
  8
1
  6
Continuous
100
AcDbLine
 10
271.5948775376079
 20
167.2334898068466
 30
0.0
 11
271.5948775376079
 21
167.6331338068467
 31
0.0
  0
ARC
  5
614
330
18
100
AcDbEntity
  8
1
  6
Continuous
100
AcDbCircle
 10
277.153377537608
 20
166.2334898068466
 30
0.0
 40
1.5
100
AcDbArc
 50
180.0
 51
225.0
  0
LINE
  5
615
330
18
100
AcDbEntity
  8
1
  6
Continuous
100
AcDbLine
 10
275.153377537608
 20
167.4834898068467
 30
0.0
 11
275.653377537608
 21
167.4834898068467
 31
0.0
  0
LINE
  5
616
330
18
100
AcDbEntity
  8
1
  6
Continuous
100
AcDbLine
 10
277.903377537608
 20
161.7334898068466
 30
0.0
 11
278.903377537608
 21
160.7334898068465
 31
0.0
  0
ARC
  5
617
330
18
100
AcDbEntity
  8
1
  6
Continuous
100
AcDbCircle
 10
300.4033775376079
 20
143.5945268068466
 30
0.0
 40
1.5
100
AcDbArc
 50
279.842487
 51
0.0
  0
LINE
  5
618
330
18
100
AcDbEntity
  8
1
  6
Continuous
100
AcDbLine
 10
305.6533775376079
 20
167.4834898068467
 30
0.0
 11
305.1533775376079
 21
167.4834898068467
 31
0.0
  0
LINE
  5
619
330
18
100
AcDbEntity
  8
1
  6
Continuous
100
AcDbLine
 10
304.714037537608
 20
165.1728298068467
 30
0.0
 11
302.9033775376078
 21
163.3621688068467
 31
0.0
  0
LINE
  5
61A
330
18
100
AcDbEntity
  8
1
  6
Continuous
100
AcDbLine
 10
302.9033775376078
 20
161.7334898068466
 30
0.0
 11
301.903377537608
 21
160.7334898068465
 31
0.0
  0
ARC
  5
61B
330
18
100
AcDbEntity
  8
1
  6
Continuous
100
AcDbCircle
 10
303.6533775376079
 20
166.2334898068466
 30
0.0
 40
1.5
100
AcDbArc
 50
315.0
 51
0.0
  0
LINE
  5
61C
330
18
100
AcDbEntity
  8
1
  6
Continuous
100
AcDbLine
 10
309.211877537608
 20
167.2334898068466
 30
0.0
 11
309.211877537608
 21
167.6249588068466
 31
0.0
  0
LINE
  5
61D
330
18
100
AcDbEntity
  8
1
  6
Continuous
100
AcDbLine
 10
306.9118775376079
 20
167.2334898068466
 30
0.0
 11
309.211877537608
 21
167.2334898068466
 31
0.0
  0
LINE
  5
61E
330
18
100
AcDbEntity
  8
1
  6
Continuous
100
AcDbLine
 10
306.9118775376079
 20
169.2893078068467
 30
0.0
 11
306.9118775376079
 21
167.2334898068466
 31
0.0
  0
LINE
  5
61F
330
18
100
AcDbEntity
  8
1
  6
Continuous
100
AcDbLine
 10
402.2477875376079
 20
226.6584898068467
 30
0.0
 11
400.622787537608
 21
225.5334898068467
 31
0.0
  0
LINE
  5
620
330
18
100
AcDbEntity
  8
1
  6
Continuous
100
AcDbLine
 10
401.826214537608
 20
226.6584898068467
 30
0.0
 11
403.4512145376081
 21
225.5334898068467
 31
0.0
  0
LINE
  5
621
330
18
100
AcDbEntity
  8
1
  6
Continuous
100
AcDbLine
 10
403.6620005376081
 20
226.6584898068467
 30
0.0
 11
402.0370005376078
 21
225.5334898068467
 31
0.0
  0
LINE
  5
622
330
18
100
AcDbEntity
  8
1
  6
Continuous
100
AcDbLine
 10
357.1375055376079
 20
234.2334898068466
 30
0.0
 11
427.1375055376078
 21
234.2334898068466
 31
0.0
  0
LINE
  5
623
330
18
100
AcDbEntity
  8
1
  6
Continuous
100
AcDbLine
 10
357.1375055376079
 20
231.9334898068465
 30
0.0
 11
427.1375055376078
 21
231.9334898068465
 31
0.0
  0
LINE
  5
624
330
18
100
AcDbEntity
  8
1
  6
Continuous
100
AcDbLine
 10
369.3453085376079
 20
229.8334898068466
 30
0.0
 11
414.9297025376078
 21
229.8334898068466
 31
0.0
  0
LINE
  5
625
330
18
100
AcDbEntity
  8
1
  6
Continuous
100
AcDbLine
 10
369.0875055376081
 20
228.9584898068466
 30
0.0
 11
415.1875055376081
 21
228.9584898068466
 31
0.0
  0
LINE
  5
626
330
18
100
AcDbEntity
  8
1
  6
Continuous
100
AcDbLine
 10
369.137505537608
 20
226.6584898068467
 30
0.0
 11
415.1375055376078
 21
226.6584898068467
 31
0.0
  0
LINE
  5
627
330
18
100
AcDbEntity
  8
1
  6
Continuous
100
AcDbLine
 10
369.137505537608
 20
225.5334898068467
 30
0.0
 11
415.1375055376078
 21
225.5334898068467
 31
0.0
  0
LINE
  5
628
330
18
100
AcDbEntity
  8
4
  6
CENTER
100
AcDbLine
 10
374.6375055376079
 20
178.7334898068466
 30
0.0
 11
459.6375055376078
 21
178.7334898068466
 31
0.0
  0
LINE
  5
629
330
18
100
AcDbEntity
  8
1
  6
Continuous
100
AcDbLine
 10
383.8028115376081
 20
213.1042318068467
 30
0.0
 11
408.1501295376081
 21
172.3042098068467
 31
0.0
  0
ARC
  5
62A
330
18
100
AcDbEntity
  8
1
  6
Continuous
100
AcDbCircle
 10
269.074377537608
 20
222.1124898068466
 30
0.0
 40
3.420999999999998
100
AcDbArc
 50
90.0
 51
180.0
  0
ARC
  5
62B
330
18
100
AcDbEntity
  8
1
  6
Continuous
100
AcDbCircle
 10
311.732377537608
 20
222.1124898068466
 30
0.0
 40
3.420999999999998
100
AcDbArc
 50
0.0
 51
90.0
  0
LINE
  5
62C
330
18
100
AcDbEntity
  8
1
  6
Continuous
100
AcDbLine
 10
278.9177345376081
 20
215.6951468068467
 30
0.0
 11
301.9254345376079
 21
215.6740118068467
 31
0.0
  0
LINE
  5
62D
330
18
100
AcDbEntity
  8
1
  6
Continuous
100
AcDbLine
 10
302.0968225376079
 20
217.9334898068465
 30
0.0
 11
278.777883537608
 21
217.9334898068465
 31
0.0
  0
LINE
  5
62E
330
18
100
AcDbEntity
  8
4
  6
CENTER
100
AcDbLine
 10
258.194877537608
 20
178.7334898068466
 30
0.0
 11
319.211877537608
 21
178.7334898068466
 31
0.0
  0
ARC
  5
62F
330
18
100
AcDbEntity
  8
1
  6
Continuous
100
AcDbCircle
 10
285.653377537608
 20
194.1619308068467
 30
0.0
 40
20.0
100
AcDbArc
 50
162.887731
 51
180.0
  0
ARC
  5
630
330
18
100
AcDbEntity
  8
1
  6
Continuous
100
AcDbCircle
 10
297.8371475376081
 20
191.7707638068466
 30
0.0
 40
30.135401
100
AcDbArc
 50
161.778377
 51
169.500698
  0
LINE
  5
631
330
18
100
AcDbEntity
  8
1
  6
Continuous
100
AcDbLine
 10
265.653377537608
 20
222.1124898068466
 30
0.0
 11
265.653377537608
 21
192.4980408068467
 31
0.0
  0
LINE
  5
632
330
18
100
AcDbEntity
  8
1
  6
Continuous
100
AcDbLine
 10
266.8481175376081
 20
182.1975908068466
 30
0.0
 11
265.130775537608
 21
182.1975908068466
 31
0.0
  0
LINE
  5
633
330
18
100
AcDbEntity
  8
1
  6
Continuous
100
AcDbLine
 10
269.0589785376081
 20
171.8052858068467
 30
0.0
 11
265.130775537608
 21
171.8052858068467
 31
0.0
  0
LINE
  5
634
330
18
100
AcDbEntity
  8
1
  6
Continuous
100
AcDbLine
 10
269.0589785376081
 20
175.2693878068465
 30
0.0
 11
265.130775537608
 21
175.2693878068465
 31
0.0
  0
ARC
  5
635
330
18
100
AcDbEntity
  8
1
  6
Continuous
100
AcDbCircle
 10
310.653377537608
 20
192.4980408068467
 30
0.0
 40
45.0
100
AcDbArc
 50
180.0
 51
206.877805
  0
ARC
  5
636
330
18
100
AcDbEntity
  8
1
  6
Continuous
100
AcDbCircle
 10
312.9534035376078
 20
192.4980408068467
 30
0.0
 40
45.0
100
AcDbArc
 50
173.922767
 51
206.3228889999999
  0
ARC
  5
637
330
18
100
AcDbEntity
  8
1
  6
Continuous
100
AcDbCircle
 10
267.661864537608
 20
183.9296418068467
 30
0.0
 40
3.066986999999998
100
AcDbArc
 50
154.3842469999999
 51
214.384247
  0
LINE
  5
638
330
18
100
AcDbEntity
  8
1
  6
Continuous
100
AcDbLine
 10
264.5948775376081
 20
184.7334898068466
 30
0.0
 11
264.5948775376081
 21
172.7334898068466
 31
0.0
  0
LINE
  5
639
330
18
100
AcDbEntity
  8
1
  6
Continuous
100
AcDbLine
 10
263.194877537608
 20
175.3334898068466
 30
0.0
 11
263.194877537608
 21
182.1334898068467
 31
0.0
  0
LINE
  5
63A
330
18
100
AcDbEntity
  8
1
  6
Continuous
100
AcDbLine
 10
263.794877537608
 20
174.7334898068467
 30
0.0
 11
263.794877537608
 21
182.7334898068466
 31
0.0
  0
ARC
  5
63B
330
18
100
AcDbEntity
  8
1
  6
Continuous
100
AcDbCircle
 10
276.0589785376081
 20
178.7334898068466
 30
0.0
 40
11.464102
100
AcDbArc
 50
162.412046
 51
197.5879539999999
  0
LINE
  5
63C
330
18
100
AcDbEntity
  8
1
  6
Continuous
100
AcDbLine
 10
263.194877537608
 20
175.3334898068466
 30
0.0
 11
263.794877537608
 21
174.7334898068467
 31
0.0
  0
LINE
  5
63D
330
18
100
AcDbEntity
  8
1
  6
Continuous
100
AcDbLine
 10
264.5948775376081
 20
174.7334898068467
 30
0.0
 11
263.794877537608
 21
174.7334898068467
 31
0.0
  0
LINE
  5
63E
330
18
100
AcDbEntity
  8
2
  6
Continuous
100
AcDbLine
 10
264.5948775376081
 20
175.4099898068465
 30
0.0
 11
263.194877537608
 21
175.4099898068465
 31
0.0
  0
LINE
  5
63F
330
18
100
AcDbEntity
  8
1
  6
Continuous
100
AcDbLine
 10
265.130775537608
 20
171.8052858068467
 30
0.0
 11
264.5948775376081
 21
172.7334898068466
 31
0.0
  0
ARC
  5
640
330
18
100
AcDbEntity
  8
1
  6
Continuous
100
AcDbCircle
 10
267.661864537608
 20
173.5373368068467
 30
0.0
 40
3.066986999999998
100
AcDbArc
 50
145.615753
 51
205.615753
  0
LINE
  5
641
330
18
100
AcDbEntity
  8
1
  6
Continuous
100
AcDbLine
 10
263.794877537608
 20
182.7334898068466
 30
0.0
 11
263.194877537608
 21
182.1334898068467
 31
0.0
  0
LINE
  5
642
330
18
100
AcDbEntity
  8
1
  6
Continuous
100
AcDbLine
 10
264.5948775376081
 20
182.7334898068466
 30
0.0
 11
263.794877537608
 21
182.7334898068466
 31
0.0
  0
LINE
  5
643
330
18
100
AcDbEntity
  8
2
  6
Continuous
100
AcDbLine
 10
264.5948775376081
 20
182.0569898068466
 30
0.0
 11
263.194877537608
 21
182.0569898068466
 31
0.0
  0
LINE
  5
644
330
18
100
AcDbEntity
  8
1
  6
Continuous
100
AcDbLine
 10
266.175693537608
 20
185.6616928068466
 30
0.0
 11
265.130775537608
 21
185.6616928068466
 31
0.0
  0
LINE
  5
645
330
18
100
AcDbEntity
  8
1
  6
Continuous
100
AcDbLine
 10
265.130775537608
 20
185.6616928068466
 30
0.0
 11
264.5948775376081
 21
184.7334898068466
 31
0.0
  0
LINE
  5
646
330
18
100
AcDbEntity
  8
1
  6
Continuous
100
AcDbLine
 10
269.0589785376081
 20
171.8052858068467
 30
0.0
 11
269.5948775376079
 21
172.7334898068466
 31
0.0
  0
ARC
  5
647
330
18
100
AcDbEntity
  8
1
  6
Continuous
100
AcDbCircle
 10
266.5278895376079
 20
173.5373368068467
 30
0.0
 40
3.066986999999998
100
AcDbArc
 50
334.384247
 51
34.38424699999997
  0
LINE
  5
648
330
18
100
AcDbEntity
  8
1
  6
Continuous
100
AcDbLine
 10
270.9990025376078
 20
171.0334898068467
 30
0.0
 11
269.5948775376079
 21
171.0334898068467
 31
0.0
  0
LINE
  5
649
330
18
100
AcDbEntity
  8
1
  6
Continuous
100
AcDbLine
 10
269.5948775376079
 20
171.0334898068467
 30
0.0
 11
269.5948775376079
 21
174.0806688068467
 31
0.0
  0
ARC
  5
64A
330
18
100
AcDbEntity
  8
1
  6
Continuous
100
AcDbCircle
 10
258.130775537608
 20
178.7334898068466
 30
0.0
 40
11.464102
100
AcDbArc
 50
342.4120459999998
 51
342.577958
  0
LINE
  5
64B
330
18
100
AcDbEntity
  8
1
  6
Continuous
100
AcDbLine
 10
275.153377537608
 20
173.2334898068466
 30
0.0
 11
273.8948775376079
 21
173.2334898068466
 31
0.0
  0
LINE
  5
64C
330
18
100
AcDbEntity
  8
1
  6
Continuous
100
AcDbLine
 10
276.0927175376081
 20
192.2941498068467
 30
0.0
 11
277.903377537608
 21
194.1048098068466
 31
0.0
  0
LINE
  5
64D
330
18
100
AcDbEntity
  8
1
  6
Continuous
100
AcDbLine
 10
275.153377537608
 20
184.2334898068466
 30
0.0
 11
273.8948775376079
 21
184.2334898068466
 31
0.0
  0
LINE
  5
64E
330
18
100
AcDbEntity
  8
1
  6
Continuous
100
AcDbLine
 10
275.653377537608
 20
189.9834898068466
 30
0.0
 11
275.153377537608
 21
189.9834898068466
 31
0.0
  0
ARC
  5
64F
330
18
100
AcDbEntity
  8
1
  6
Continuous
100
AcDbCircle
 10
277.153377537608
 20
191.2334898068466
 30
0.0
 40
1.5
100
AcDbArc
 50
135.0
 51
180.0
  0
LINE
  5
650
330
18
100
AcDbEntity
  8
1
  6
Continuous
100
AcDbLine
 10
277.903377537608
 20
195.7334898068467
 30
0.0
 11
278.903377537608
 21
196.7334898068466
 31
0.0
  0
ARC
  5
651
330
18
100
AcDbEntity
  8
1
  6
Continuous
100
AcDbCircle
 10
361.6019055376079
 20
170.7793098068467
 30
0.0
 40
99.466508
100
AcDbArc
 50
154.2684
 51
162.887731
  0
ARC
  5
652
330
18
100
AcDbEntity
  8
1
  6
Continuous
100
AcDbCircle
 10
361.6019055376079
 20
170.7793098068467
 30
0.0
 40
97.26650800000001
100
AcDbArc
 50
151.2652759999998
 51
161.778377
  0
ARC
  5
653
330
18
100
AcDbEntity
  8
1
  6
Continuous
100
AcDbCircle
 10
279.4968765376079
 20
223.1601108068467
 30
0.0
 40
7.487396
100
AcDbArc
 50
240.6184049999999
 51
265.563802
  0
ARC
  5
654
330
18
100
AcDbEntity
  8
1
  6
Continuous
100
AcDbCircle
 10
278.743906537608
 20
210.2186618068466
 30
0.0
 40
7.714902
100
AcDbArc
 50
89.74766999999998
 51
150.9629099999999
  0
ARC
  5
655
330
18
100
AcDbEntity
  8
1
  6
Continuous
100
AcDbCircle
 10
290.4033775376078
 20
156.2334898068466
 30
0.0
 40
60.0
100
AcDbArc
 50
97.70354500000001
 51
99.84248700000001
  0
ARC
  5
656
330
18
100
AcDbEntity
  8
1
  6
Continuous
100
AcDbCircle
 10
280.403377537608
 20
213.8724518068467
 30
0.0
 40
1.5
100
AcDbArc
 50
99.84248700000001
 51
180.0
  0
ARC
  5
657
330
18
100
AcDbEntity
  8
1
  6
Continuous
100
AcDbCircle
 10
295.1533775376079
 20
194.1619308068467
 30
0.0
 40
20.0
100
AcDbArc
 50
0.0
 51
17.112269
  0
LINE
  5
658
330
18
100
AcDbEntity
  8
1
  6
Continuous
100
AcDbLine
 10
315.1533775376079
 20
222.1124898068466
 30
0.0
 11
315.1533775376079
 21
192.4980408068467
 31
0.0
  0
ARC
  5
659
330
18
100
AcDbEntity
  8
1
  6
Continuous
100
AcDbCircle
 10
282.9696065376079
 20
191.7707638068466
 30
0.0
 40
30.135401
100
AcDbArc
 50
10.499302
 51
18.221623
  0
LINE
  5
65A
330
18
100
AcDbEntity
  8
1
  6
Continuous
100
AcDbLine
 10
305.1533775376079
 20
189.9834898068466
 30
0.0
 11
305.6533775376079
 21
189.9834898068466
 31
0.0
  0
LINE
  5
65B
330
18
100
AcDbEntity
  8
1
  6
Continuous
100
AcDbLine
 10
302.9033775376078
 20
195.7334898068467
 30
0.0
 11
301.903377537608
 21
196.7334898068466
 31
0.0
  0
ARC
  5
65C
330
18
100
AcDbEntity
  8
1
  6
Continuous
100
AcDbCircle
 10
303.6533775376079
 20
191.2334898068466
 30
0.0
 40
1.5
100
AcDbArc
 50
0.0
 51
45.0
  0
LINE
  5
65D
330
18
100
AcDbEntity
  8
1
  6
Continuous
100
AcDbLine
 10
304.714037537608
 20
192.2941498068467
 30
0.0
 11
302.9033775376078
 21
194.1048098068466
 31
0.0
  0
ARC
  5
65E
330
18
100
AcDbEntity
  8
1
  6
Continuous
100
AcDbCircle
 10
270.153377537608
 20
192.4980408068467
 30
0.0
 40
45.0
100
AcDbArc
 50
333.1221949999999
 51
0.0
  0
ARC
  5
65F
330
18
100
AcDbEntity
  8
1
  6
Continuous
100
AcDbCircle
 10
267.853350537608
 20
192.4980408068467
 30
0.0
 40
45.0
100
AcDbArc
 50
333.6771109999999
 51
6.077233000000001
  0
LINE
  5
661
330
18
100
AcDbEntity
  8
1
  6
Continuous
100
AcDbLine
 10
311.7118775376078
 20
171.7334898068466
 30
0.0
 11
310.0948615376079
 21
171.7334898068466
 31
0.0
  0
LINE
  5
662
330
18
100
AcDbEntity
  8
1
  6
Continuous
100
AcDbLine
 10
306.9118775376079
 20
173.2334898068466
 30
0.0
 11
305.6533775376079
 21
173.2334898068466
 31
0.0
  0
ARC
  5
663
330
18
100
AcDbEntity
  8
1
  6
Continuous
100
AcDbCircle
 10
302.711877537608
 20
178.7334898068466
 30
0.0
 40
11.40175399999999
100
AcDbArc
 50
322.125016
 51
13.87894281983615
  0
LINE
  5
664
330
18
100
AcDbEntity
  8
1
  6
Continuous
100
AcDbLine
 10
311.7118775376078
 20
171.7334898068466
 30
0.0
 11
311.7118775376078
 21
175.2385188068467
 31
0.0
  0
LINE
  5
665
330
18
100
AcDbEntity
  8
1
  6
Continuous
100
AcDbLine
 10
306.9118775376079
 20
184.2334898068466
 30
0.0
 11
305.6533775376079
 21
184.2334898068466
 31
0.0
  0
ARC
  5
666
330
18
100
AcDbEntity
  8
1
  6
Continuous
100
AcDbCircle
 10
302.0628465376079
 20
210.2186618068466
 30
0.0
 40
7.714902
100
AcDbArc
 50
29.03709
 51
90.25232999999998
  0
ARC
  5
667
330
18
100
AcDbEntity
  8
1
  6
Continuous
100
AcDbCircle
 10
219.204849537608
 20
170.7793098068467
 30
0.0
 40
97.26650800000001
100
AcDbArc
 50
18.221623
 51
28.73472400000001
  0
ARC
  5
668
330
18
100
AcDbEntity
  8
1
  6
Continuous
100
AcDbCircle
 10
300.4033775376079
 20
213.8724518068467
 30
0.0
 40
1.5
100
AcDbArc
 50
0.0
 51
80.15751300000003
  0
ARC
  5
669
330
18
100
AcDbEntity
  8
1
  6
Continuous
100
AcDbCircle
 10
290.4033775376078
 20
156.2334898068466
 30
0.0
 40
60.0
100
AcDbArc
 50
80.15751300000003
 51
82.191193
  0
ARC
  5
66A
330
18
100
AcDbEntity
  8
1
  6
Continuous
100
AcDbCircle
 10
301.799944537608
 20
223.5215238068467
 30
0.0
 40
7.848514999999999
100
AcDbArc
 50
270.9161379999998
 51
294.920656
  0
ARC
  5
66B
330
18
100
AcDbEntity
  8
1
  6
Continuous
100
AcDbCircle
 10
219.204849537608
 20
170.7793098068467
 30
0.0
 40
99.466508
100
AcDbArc
 50
17.112269
 51
25.73159999999998
  0
LINE
  5
66C
330
18
100
AcDbEntity
  8
1
  6
Continuous
100
AcDbLine
 10
287.7857365376079
 20
226.6584898068467
 30
0.0
 11
286.1607365376079
 21
225.5334898068467
 31
0.0
  0
LINE
  5
66D
330
18
100
AcDbEntity
  8
1
  6
Continuous
100
AcDbLine
 10
286.3715225376079
 20
226.6584898068467
 30
0.0
 11
284.7465225376079
 21
225.5334898068467
 31
0.0
  0
LINE
  5
66E
330
18
100
AcDbEntity
  8
1
  6
Continuous
100
AcDbLine
 10
285.9499505376081
 20
226.6584898068467
 30
0.0
 11
287.5749505376081
 21
225.5334898068467
 31
0.0
  0
LINE
  5
66F
330
18
100
AcDbEntity
  8
1
  6
Continuous
100
AcDbLine
 10
313.4033775376078
 20
225.5334898068467
 30
0.0
 11
267.403377537608
 21
225.5334898068467
 31
0.0
  0
LINE
  5
670
330
18
100
AcDbEntity
  8
1
  6
Continuous
100
AcDbLine
 10
313.4033775376078
 20
226.6584898068467
 30
0.0
 11
267.403377537608
 21
226.6584898068467
 31
0.0
  0
LINE
  5
671
330
18
100
AcDbEntity
  8
1
  6
Continuous
100
AcDbLine
 10
313.453377537608
 20
228.9584898068466
 30
0.0
 11
267.353377537608
 21
228.9584898068466
 31
0.0
  0
LINE
  5
672
330
18
100
AcDbEntity
  8
1
  6
Continuous
100
AcDbLine
 10
313.1955745376081
 20
229.8334898068466
 30
0.0
 11
267.6111805376079
 21
229.8334898068466
 31
0.0
  0
LINE
  5
673
330
18
100
AcDbEntity
  8
1
  6
Continuous
100
AcDbLine
 10
263.403377537608
 20
234.2334898068466
 30
0.0
 11
317.4033775376079
 21
234.2334898068466
 31
0.0
  0
LINE
  5
674
330
18
100
AcDbEntity
  8
1
  6
Continuous
100
AcDbLine
 10
263.403377537608
 20
231.9334898068465
 30
0.0
 11
317.4033775376079
 21
231.9334898068465
 31
0.0
  0
ARC
  5
675
330
18
100
AcDbEntity
  8
1
  6
Continuous
100
AcDbCircle
 10
267.6111805376079
 20
233.3334898068467
 30
0.0
 40
3.5
100
AcDbArc
 50
203.578178
 51
270.0
  0
LINE
  5
676
330
18
100
AcDbEntity
  8
1
  6
Continuous
100
AcDbLine
 10
263.403377537608
 20
234.2334898068466
 30
0.0
 11
263.403377537608
 21
231.9334898068465
 31
0.0
  0
LINE
  5
677
330
18
100
AcDbEntity
  8
4
  6
CENTER
100
AcDbLine
 10
272.403377537608
 20
239.2334898068466
 30
0.0
 11
272.403377537608
 21
226.9334898068467
 31
0.0
  0
LINE
  5
678
330
18
100
AcDbEntity
  8
1
  6
Continuous
100
AcDbLine
 10
277.8862415376079
 20
226.6584898068467
 30
0.0
 11
276.261241537608
 21
225.5334898068467
 31
0.0
  0
LINE
  5
679
330
18
100
AcDbEntity
  8
1
  6
Continuous
100
AcDbLine
 10
276.050455537608
 20
226.6584898068467
 30
0.0
 11
277.6754555376081
 21
225.5334898068467
 31
0.0
  0
LINE
  5
67A
330
18
100
AcDbEntity
  8
1
  6
Continuous
100
AcDbLine
 10
272.229387537608
 20
226.6584898068467
 30
0.0
 11
270.604387537608
 21
225.5334898068467
 31
0.0
  0
LINE
  5
67B
330
18
100
AcDbEntity
  8
1
  6
Continuous
100
AcDbLine
 10
270.3936005376081
 20
226.6584898068467
 30
0.0
 11
272.0186005376081
 21
225.5334898068467
 31
0.0
  0
ARC
  5
67C
330
18
100
AcDbEntity
  8
1
  6
Continuous
100
AcDbCircle
 10
273.653377537608
 20
224.4839898068465
 30
0.0
 40
6.974499999999999
100
AcDbArc
 50
129.9139999999999
 51
140.0924019999999
  0
LINE
  5
67D
330
18
100
AcDbEntity
  8
1
  6
Continuous
100
AcDbLine
 10
270.8151735376081
 20
226.6584898068467
 30
0.0
 11
269.1901735376081
 21
225.5334898068467
 31
0.0
  0
LINE
  5
67E
330
18
100
AcDbEntity
  8
1
  6
Continuous
100
AcDbLine
 10
269.4009605376079
 20
226.6584898068467
 30
0.0
 11
267.775960537608
 21
225.5334898068467
 31
0.0
  0
LINE
  5
67F
330
18
100
AcDbEntity
  8
1
  6
Continuous
100
AcDbLine
 10
268.979387537608
 20
226.6584898068467
 30
0.0
 11
270.604387537608
 21
225.5334898068467
 31
0.0
  0
LINE
  5
680
330
18
100
AcDbEntity
  8
1
  6
Continuous
100
AcDbLine
 10
267.5651735376082
 20
226.6584898068467
 30
0.0
 11
269.1901735376081
 21
225.5334898068467
 31
0.0
  0
LINE
  5
681
330
18
100
AcDbEntity
  8
1
  6
Continuous
100
AcDbLine
 10
267.403377537608
 20
226.6584898068467
 30
0.0
 11
267.403377537608
 21
225.5334898068467
 31
0.0
  0
LINE
  5
682
330
18
100
AcDbEntity
  8
1
  6
Continuous
100
AcDbLine
 10
267.7533775376081
 20
226.6584898068467
 30
0.0
 11
266.8533775376079
 21
228.1584898068466
 31
0.0
  0
LINE
  5
683
330
18
100
AcDbEntity
  8
1
  6
Continuous
100
AcDbLine
 10
267.403377537608
 20
226.5751208068466
 30
0.0
 11
267.986746537608
 21
226.6584898068467
 31
0.0
  0
LINE
  5
684
330
18
100
AcDbEntity
  8
1
  6
Continuous
100
AcDbLine
 10
267.403377537608
 20
225.9060728068466
 30
0.0
 11
267.775960537608
 21
225.5334898068467
 31
0.0
  0
LINE
  5
685
330
18
100
AcDbEntity
  8
1
  6
Continuous
100
AcDbLine
 10
266.8533775376079
 20
228.1584898068466
 30
0.0
 11
267.353377537608
 21
228.9584898068466
 31
0.0
  0
LINE
  5
686
330
18
100
AcDbEntity
  8
1
  6
Continuous
100
AcDbLine
 10
275.0578145376081
 20
226.6584898068467
 30
0.0
 11
273.4328145376081
 21
225.5334898068467
 31
0.0
  0
LINE
  5
687
330
18
100
AcDbEntity
  8
1
  6
Continuous
100
AcDbLine
 10
273.643600537608
 20
226.6584898068467
 30
0.0
 11
272.0186005376081
 21
225.5334898068467
 31
0.0
  0
LINE
  5
688
330
18
100
AcDbEntity
  8
1
  6
Continuous
100
AcDbLine
 10
273.222027537608
 20
226.6584898068467
 30
0.0
 11
274.847027537608
 21
225.5334898068467
 31
0.0
  0
LINE
  5
689
330
18
100
AcDbEntity
  8
1
  6
Continuous
100
AcDbLine
 10
271.8078145376081
 20
226.6584898068467
 30
0.0
 11
273.4328145376081
 21
225.5334898068467
 31
0.0
  0
LINE
  5
68A
330
18
100
AcDbEntity
  8
1
  6
Continuous
100
AcDbLine
 10
276.472027537608
 20
226.6584898068467
 30
0.0
 11
274.847027537608
 21
225.5334898068467
 31
0.0
  0
LINE
  5
68B
330
18
100
AcDbEntity
  8
1
  6
Continuous
100
AcDbLine
 10
274.6362415376079
 20
226.6584898068467
 30
0.0
 11
276.261241537608
 21
225.5334898068467
 31
0.0
  0
LINE
  5
68C
330
18
100
AcDbEntity
  8
1
  6
Continuous
100
AcDbLine
 10
282.128882537608
 20
226.6584898068467
 30
0.0
 11
280.503882537608
 21
225.5334898068467
 31
0.0
  0
LINE
  5
68D
330
18
100
AcDbEntity
  8
1
  6
Continuous
100
AcDbLine
 10
280.293095537608
 20
226.6584898068467
 30
0.0
 11
281.9180955376079
 21
225.5334898068467
 31
0.0
  0
LINE
  5
68E
330
18
100
AcDbEntity
  8
1
  6
Continuous
100
AcDbLine
 10
279.3004555376081
 20
226.6584898068467
 30
0.0
 11
277.6754555376081
 21
225.5334898068467
 31
0.0
  0
LINE
  5
68F
330
18
100
AcDbEntity
  8
1
  6
Continuous
100
AcDbLine
 10
277.4646685376081
 20
226.6584898068467
 30
0.0
 11
279.0896685376081
 21
225.5334898068467
 31
0.0
  0
LINE
  5
690
330
18
100
AcDbEntity
  8
1
  6
Continuous
100
AcDbLine
 10
280.7146685376082
 20
226.6584898068467
 30
0.0
 11
279.0896685376081
 21
225.5334898068467
 31
0.0
  0
LINE
  5
691
330
18
100
AcDbEntity
  8
1
  6
Continuous
100
AcDbLine
 10
278.878882537608
 20
226.6584898068467
 30
0.0
 11
280.503882537608
 21
225.5334898068467
 31
0.0
  0
LINE
  5
692
330
18
100
AcDbEntity
  8
1
  6
Continuous
100
AcDbLine
 10
284.535736537608
 20
226.6584898068467
 30
0.0
 11
286.1607365376079
 21
225.5334898068467
 31
0.0
  0
LINE
  5
693
330
18
100
AcDbEntity
  8
1
  6
Continuous
100
AcDbLine
 10
283.5430955376081
 20
226.6584898068467
 30
0.0
 11
281.9180955376079
 21
225.5334898068467
 31
0.0
  0
LINE
  5
694
330
18
100
AcDbEntity
  8
1
  6
Continuous
100
AcDbLine
 10
281.7073095376081
 20
226.6584898068467
 30
0.0
 11
283.332309537608
 21
225.5334898068467
 31
0.0
  0
LINE
  5
695
330
18
100
AcDbEntity
  8
1
  6
Continuous
100
AcDbLine
 10
284.9573095376081
 20
226.6584898068467
 30
0.0
 11
283.332309537608
 21
225.5334898068467
 31
0.0
  0
LINE
  5
696
330
18
100
AcDbEntity
  8
1
  6
Continuous
100
AcDbLine
 10
283.1215225376078
 20
226.6584898068467
 30
0.0
 11
284.7465225376079
 21
225.5334898068467
 31
0.0
  0
LINE
  5
697
330
18
100
AcDbEntity
  8
1
  6
Continuous
100
AcDbLine
 10
306.1705125376079
 20
226.6584898068467
 30
0.0
 11
304.5455125376079
 21
225.5334898068467
 31
0.0
  0
LINE
  5
698
330
18
100
AcDbEntity
  8
1
  6
Continuous
100
AcDbLine
 10
304.334726537608
 20
226.6584898068467
 30
0.0
 11
305.9597265376079
 21
225.5334898068467
 31
0.0
  0
LINE
  5
699
330
18
100
AcDbEntity
  8
1
  6
Continuous
100
AcDbLine
 10
294.4352315376079
 20
226.6584898068467
 30
0.0
 11
296.060231537608
 21
225.5334898068467
 31
0.0
  0
LINE
  5
69A
330
18
100
AcDbEntity
  8
1
  6
Continuous
100
AcDbLine
 10
296.2710175376079
 20
226.6584898068467
 30
0.0
 11
294.6460175376079
 21
225.5334898068467
 31
0.0
  0
LINE
  5
69B
330
18
100
AcDbEntity
  8
1
  6
Continuous
100
AcDbLine
 10
292.0283775376079
 20
226.6584898068467
 30
0.0
 11
290.4033775376078
 21
225.5334898068467
 31
0.0
  0
LINE
  5
69C
330
18
100
AcDbEntity
  8
1
  6
Continuous
100
AcDbLine
 10
290.1925905376081
 20
226.6584898068467
 30
0.0
 11
291.8175905376081
 21
225.5334898068467
 31
0.0
  0
LINE
  5
69D
330
18
100
AcDbEntity
  8
1
  6
Continuous
100
AcDbLine
 10
290.6141635376081
 20
226.6584898068467
 30
0.0
 11
288.9891635376081
 21
225.5334898068467
 31
0.0
  0
LINE
  5
69E
330
18
100
AcDbEntity
  8
1
  6
Continuous
100
AcDbLine
 10
288.778377537608
 20
226.6584898068467
 30
0.0
 11
290.4033775376078
 21
225.5334898068467
 31
0.0
  0
LINE
  5
69F
330
18
100
AcDbEntity
  8
1
  6
Continuous
100
AcDbLine
 10
289.199950537608
 20
226.6584898068467
 30
0.0
 11
287.5749505376081
 21
225.5334898068467
 31
0.0
  0
LINE
  5
6A0
330
18
100
AcDbEntity
  8
1
  6
Continuous
100
AcDbLine
 10
287.3641635376081
 20
226.6584898068467
 30
0.0
 11
288.9891635376081
 21
225.5334898068467
 31
0.0
  0
LINE
  5
6A1
330
18
100
AcDbEntity
  8
1
  6
Continuous
100
AcDbLine
 10
294.8568045376079
 20
226.6584898068467
 30
0.0
 11
293.2318045376078
 21
225.5334898068467
 31
0.0
  0
LINE
  5
6A2
330
18
100
AcDbEntity
  8
1
  6
Continuous
100
AcDbLine
 10
293.0210175376079
 20
226.6584898068467
 30
0.0
 11
294.6460175376079
 21
225.5334898068467
 31
0.0
  0
LINE
  5
6A3
330
18
100
AcDbEntity
  8
1
  6
Continuous
100
AcDbLine
 10
293.4425905376079
 20
226.6584898068467
 30
0.0
 11
291.8175905376081
 21
225.5334898068467
 31
0.0
  0
LINE
  5
6A4
330
18
100
AcDbEntity
  8
1
  6
Continuous
100
AcDbLine
 10
291.606804537608
 20
226.6584898068467
 30
0.0
 11
293.2318045376078
 21
225.5334898068467
 31
0.0
  0
LINE
  5
6A5
330
18
100
AcDbEntity
  8
1
  6
Continuous
100
AcDbLine
 10
301.927872537608
 20
226.6584898068467
 30
0.0
 11
300.3028725376079
 21
225.5334898068467
 31
0.0
  0
LINE
  5
6A6
330
18
100
AcDbEntity
  8
1
  6
Continuous
100
AcDbLine
 10
300.0920855376081
 20
226.6584898068467
 30
0.0
 11
301.7170855376079
 21
225.5334898068467
 31
0.0
  0
LINE
  5
6A7
330
18
100
AcDbEntity
  8
1
  6
Continuous
100
AcDbLine
 10
299.0994445376081
 20
226.6584898068467
 30
0.0
 11
297.4744445376081
 21
225.5334898068467
 31
0.0
  0
LINE
  5
6A8
330
18
100
AcDbEntity
  8
1
  6
Continuous
100
AcDbLine
 10
297.263658537608
 20
226.6584898068467
 30
0.0
 11
298.8886585376079
 21
225.5334898068467
 31
0.0
  0
LINE
  5
6A9
330
18
100
AcDbEntity
  8
1
  6
Continuous
100
AcDbLine
 10
298.6778725376079
 20
226.6584898068467
 30
0.0
 11
300.3028725376079
 21
225.5334898068467
 31
0.0
  0
LINE
  5
6AA
330
18
100
AcDbEntity
  8
1
  6
Continuous
100
AcDbLine
 10
300.513658537608
 20
226.6584898068467
 30
0.0
 11
298.8886585376079
 21
225.5334898068467
 31
0.0
  0
LINE
  5
6AB
330
18
100
AcDbEntity
  8
1
  6
Continuous
100
AcDbLine
 10
297.6852315376081
 20
226.6584898068467
 30
0.0
 11
296.060231537608
 21
225.5334898068467
 31
0.0
  0
LINE
  5
6AC
330
18
100
AcDbEntity
  8
1
  6
Continuous
100
AcDbLine
 10
295.8494445376081
 20
226.6584898068467
 30
0.0
 11
297.4744445376081
 21
225.5334898068467
 31
0.0
  0
LINE
  5
6AD
330
18
100
AcDbEntity
  8
1
  6
Continuous
100
AcDbLine
 10
303.3420855376081
 20
226.6584898068467
 30
0.0
 11
301.7170855376079
 21
225.5334898068467
 31
0.0
  0
LINE
  5
6AE
330
18
100
AcDbEntity
  8
1
  6
Continuous
100
AcDbLine
 10
301.5062995376081
 20
226.6584898068467
 30
0.0
 11
303.1312995376081
 21
225.5334898068467
 31
0.0
  0
LINE
  5
6AF
330
18
100
AcDbEntity
  8
1
  6
Continuous
100
AcDbLine
 10
304.7562995376081
 20
226.6584898068467
 30
0.0
 11
303.1312995376081
 21
225.5334898068467
 31
0.0
  0
LINE
  5
6B0
330
18
100
AcDbEntity
  8
1
  6
Continuous
100
AcDbLine
 10
302.9205125376078
 20
226.6584898068467
 30
0.0
 11
304.5455125376079
 21
225.5334898068467
 31
0.0
  0
LINE
  5
6B1
330
18
100
AcDbEntity
  8
4
  6
CENTER
100
AcDbLine
 10
308.403377537608
 20
239.2334898068466
 30
0.0
 11
308.403377537608
 21
226.9334898068467
 31
0.0
  0
ARC
  5
6B2
330
18
100
AcDbEntity
  8
1
  6
Continuous
100
AcDbCircle
 10
313.1955745376081
 20
233.3334898068467
 30
0.0
 40
3.5
100
AcDbArc
 50
270.0
 51
336.421822
  0
LINE
  5
6B3
330
18
100
AcDbEntity
  8
1
  6
Continuous
100
AcDbLine
 10
310.4131535376082
 20
226.6584898068467
 30
0.0
 11
308.7881535376081
 21
225.5334898068467
 31
0.0
  0
LINE
  5
6B4
330
18
100
AcDbEntity
  8
1
  6
Continuous
100
AcDbLine
 10
311.8273675376079
 20
226.6584898068467
 30
0.0
 11
310.2023675376079
 21
225.5334898068467
 31
0.0
  0
LINE
  5
6B5
330
18
100
AcDbEntity
  8
1
  6
Continuous
100
AcDbLine
 10
309.9915805376081
 20
226.6584898068467
 30
0.0
 11
311.6165805376081
 21
225.5334898068467
 31
0.0
  0
LINE
  5
6B6
330
18
100
AcDbEntity
  8
1
  6
Continuous
100
AcDbLine
 10
308.5773675376081
 20
226.6584898068467
 30
0.0
 11
310.2023675376079
 21
225.5334898068467
 31
0.0
  0
LINE
  5
6B7
330
18
100
AcDbEntity
  8
1
  6
Continuous
100
AcDbLine
 10
307.5847265376079
 20
226.6584898068467
 30
0.0
 11
305.9597265376079
 21
225.5334898068467
 31
0.0
  0
LINE
  5
6B8
330
18
100
AcDbEntity
  8
1
  6
Continuous
100
AcDbLine
 10
305.7489395376081
 20
226.6584898068467
 30
0.0
 11
307.3739395376081
 21
225.5334898068467
 31
0.0
  0
LINE
  5
6B9
330
18
100
AcDbEntity
  8
1
  6
Continuous
100
AcDbLine
 10
308.9989395376081
 20
226.6584898068467
 30
0.0
 11
307.3739395376081
 21
225.5334898068467
 31
0.0
  0
LINE
  5
6BA
330
18
100
AcDbEntity
  8
1
  6
Continuous
100
AcDbLine
 10
307.1631535376081
 20
226.6584898068467
 30
0.0
 11
308.7881535376081
 21
225.5334898068467
 31
0.0
  0
LINE
  5
6BB
330
18
100
AcDbEntity
  8
1
  6
Continuous
100
AcDbLine
 10
313.053377537608
 20
226.6584898068467
 30
0.0
 11
313.9533775376079
 21
228.1584898068466
 31
0.0
  0
LINE
  5
6BC
330
18
100
AcDbEntity
  8
1
  6
Continuous
100
AcDbLine
 10
313.4033775376078
 20
226.6584898068467
 30
0.0
 11
313.4033775376078
 21
225.5334898068467
 31
0.0
  0
LINE
  5
6BD
330
18
100
AcDbEntity
  8
1
  6
Continuous
100
AcDbLine
 10
313.4033775376078
 20
225.9060728068466
 30
0.0
 11
313.0307945376082
 21
225.5334898068467
 31
0.0
  0
LINE
  5
6BE
330
18
100
AcDbEntity
  8
1
  6
Continuous
100
AcDbLine
 10
312.8200075376079
 20
226.6584898068467
 30
0.0
 11
313.4033775376078
 21
226.5751208068466
 31
0.0
  0
LINE
  5
6BF
330
18
100
AcDbEntity
  8
1
  6
Continuous
100
AcDbLine
 10
313.9533775376079
 20
228.1584898068466
 30
0.0
 11
313.453377537608
 21
228.9584898068466
 31
0.0
  0
ARC
  5
6C0
330
18
100
AcDbEntity
  8
1
  6
Continuous
100
AcDbCircle
 10
307.1533775376078
 20
224.4839898068465
 30
0.0
 40
6.974499999999999
100
AcDbArc
 50
39.907598
 51
50.08600000000002
  0
LINE
  5
6C1
330
18
100
AcDbEntity
  8
1
  6
Continuous
100
AcDbLine
 10
313.2415805376081
 20
226.6584898068467
 30
0.0
 11
311.6165805376081
 21
225.5334898068467
 31
0.0
  0
LINE
  5
6C2
330
18
100
AcDbEntity
  8
1
  6
Continuous
100
AcDbLine
 10
311.4057945376081
 20
226.6584898068467
 30
0.0
 11
313.0307945376082
 21
225.5334898068467
 31
0.0
  0
LINE
  5
6C3
330
18
100
AcDbEntity
  8
1
  6
Continuous
100
AcDbLine
 10
317.4033775376079
 20
234.2334898068466
 30
0.0
 11
317.4033775376079
 21
231.9334898068465
 31
0.0
  0
ARC
  5
6C4
330
18
100
AcDbEntity
  8
1
  6
Continuous
100
AcDbCircle
 10
370.8189295376079
 20
222.0718268068467
 30
0.0
 40
3.462340999999999
100
AcDbArc
 50
88.86512399999999
 51
172.3374649999999
  0
LINE
  5
6C5
330
18
100
AcDbEntity
  8
4
  6
CENTER
100
AcDbLine
 10
392.137505537608
 20
239.2334898068466
 30
0.0
 11
392.137505537608
 21
206.4256018068467
 31
0.0
  0
ARC
  5
6C6
330
18
100
AcDbEntity
  8
1
  6
Continuous
100
AcDbCircle
 10
375.2434065376081
 20
207.9334898068465
 30
0.0
 40
10.0
100
AcDbArc
 50
31.136199
 51
90.0
  0
LINE
  5
6C7
330
18
100
AcDbEntity
  8
1
  6
Continuous
100
AcDbLine
 10
367.3875055376079
 20
217.9334898068465
 30
0.0
 11
375.2434065376081
 21
217.9334898068465
 31
0.0
  0
LINE
  5
6C8
330
18
100
AcDbEntity
  8
1
  6
Continuous
100
AcDbLine
 10
367.3875055376079
 20
222.5334898068467
 30
0.0
 11
367.3875055376079
 21
217.9334898068465
 31
0.0
  0
LINE
  5
6C9
330
18
100
AcDbEntity
  8
1
  6
Continuous
100
AcDbLine
 10
375.6951095376081
 20
217.9232828068467
 30
0.0
 11
376.7375055376081
 21
217.1709898068467
 31
0.0
  0
ARC
  5
6CA
330
18
100
AcDbEntity
  8
1
  6
Continuous
100
AcDbCircle
 10
381.2310045376079
 20
223.1601108068467
 30
0.0
 40
7.487396
100
AcDbArc
 50
233.119947
 51
265.563802
  0
LINE
  5
6CB
330
18
100
AcDbEntity
  8
1
  6
Continuous
100
AcDbLine
 10
380.6518625376079
 20
215.6951468068467
 30
0.0
 11
381.5486955376079
 21
215.6951468068467
 31
0.0
  0
LINE
  5
6CC
330
18
100
AcDbEntity
  8
1
  6
Continuous
100
AcDbLine
 10
357.1375055376079
 20
234.2334898068466
 30
0.0
 11
357.1375055376079
 21
231.9334898068465
 31
0.0
  0
LINE
  5
6CD
330
18
100
AcDbEntity
  8
1
  6
Continuous
100
AcDbLine
 10
382.0272245376081
 20
226.6584898068467
 30
0.0
 11
383.6522245376079
 21
225.5334898068467
 31
0.0
  0
LINE
  5
6CE
330
18
100
AcDbEntity
  8
1
  6
Continuous
100
AcDbLine
 10
383.8630105376079
 20
226.6584898068467
 30
0.0
 11
382.2380105376079
 21
225.5334898068467
 31
0.0
  0
LINE
  5
6CF
330
18
100
AcDbEntity
  8
4
  6
CENTER
100
AcDbLine
 10
365.137505537608
 20
239.2334898068466
 30
0.0
 11
365.137505537608
 21
226.9334898068467
 31
0.0
  0
LINE
  5
6D0
330
18
100
AcDbEntity
  8
1
  6
Continuous
100
AcDbLine
 10
373.9635165376079
 20
226.6584898068467
 30
0.0
 11
372.3385165376078
 21
225.5334898068467
 31
0.0
  0
LINE
  5
6D1
330
18
100
AcDbEntity
  8
1
  6
Continuous
100
AcDbLine
 10
372.1277295376079
 20
226.6584898068467
 30
0.0
 11
373.752729537608
 21
225.5334898068467
 31
0.0
  0
ARC
  5
6D2
330
18
100
AcDbEntity
  8
1
  6
Continuous
100
AcDbCircle
 10
369.3453085376079
 20
233.3334898068467
 30
0.0
 40
3.5
100
AcDbArc
 50
203.578178
 51
270.0
  0
LINE
  5
6D3
330
18
100
AcDbEntity
  8
1
  6
Continuous
100
AcDbLine
 10
368.5875055376081
 20
228.1584898068466
 30
0.0
 11
369.0875055376081
 21
228.9584898068466
 31
0.0
  0
LINE
  5
6D4
330
18
100
AcDbEntity
  8
1
  6
Continuous
100
AcDbLine
 10
369.7208755376079
 20
226.6584898068467
 30
0.0
 11
369.137505537608
 21
226.0751208068467
 31
0.0
  0
LINE
  5
6D5
330
18
100
AcDbEntity
  8
1
  6
Continuous
100
AcDbLine
 10
369.4875055376079
 20
226.6584898068467
 30
0.0
 11
368.5875055376081
 21
228.1584898068466
 31
0.0
  0
ARC
  5
6D6
330
18
100
AcDbEntity
  8
1
  6
Continuous
100
AcDbCircle
 10
375.387505537608
 20
224.4839898068465
 30
0.0
 40
6.974499999999999
100
AcDbArc
 50
129.9139999999999
 51
140.0924019999999
  0
LINE
  5
6D7
330
18
100
AcDbEntity
  8
1
  6
Continuous
100
AcDbLine
 10
369.137505537608
 20
226.6584898068467
 30
0.0
 11
369.137505537608
 21
225.5334898068467
 31
0.0
  0
LINE
  5
6D8
330
18
100
AcDbEntity
  8
1
  6
Continuous
100
AcDbLine
 10
369.137505537608
 20
225.4060728068466
 30
0.0
 11
369.5100885376081
 21
225.5334898068467
 31
0.0
  0
LINE
  5
6D9
330
18
100
AcDbEntity
  8
1
  6
Continuous
100
AcDbLine
 10
370.713516537608
 20
226.6584898068467
 30
0.0
 11
372.3385165376078
 21
225.5334898068467
 31
0.0
  0
LINE
  5
6DA
330
18
100
AcDbEntity
  8
1
  6
Continuous
100
AcDbLine
 10
372.5493025376079
 20
226.6584898068467
 30
0.0
 11
370.9243025376079
 21
225.5334898068467
 31
0.0
  0
LINE
  5
6DB
330
18
100
AcDbEntity
  8
1
  6
Continuous
100
AcDbLine
 10
369.2993025376079
 20
226.6584898068467
 30
0.0
 11
370.9243025376079
 21
225.5334898068467
 31
0.0
  0
LINE
  5
6DC
330
18
100
AcDbEntity
  8
1
  6
Continuous
100
AcDbLine
 10
371.1350885376079
 20
226.6584898068467
 30
0.0
 11
369.5100885376081
 21
225.5334898068467
 31
0.0
  0
LINE
  5
6DD
330
18
100
AcDbEntity
  8
1
  6
Continuous
100
AcDbLine
 10
378.2061565376078
 20
226.6584898068467
 30
0.0
 11
376.5811565376079
 21
225.5334898068467
 31
0.0
  0
LINE
  5
6DE
330
18
100
AcDbEntity
  8
1
  6
Continuous
100
AcDbLine
 10
377.7845835376081
 20
226.6584898068467
 30
0.0
 11
379.4095835376079
 21
225.5334898068467
 31
0.0
  0
LINE
  5
6DF
330
18
100
AcDbEntity
  8
1
  6
Continuous
100
AcDbLine
 10
379.620370537608
 20
226.6584898068467
 30
0.0
 11
377.995370537608
 21
225.5334898068467
 31
0.0
  0
LINE
  5
6E0
330
18
100
AcDbEntity
  8
1
  6
Continuous
100
AcDbLine
 10
373.5419435376079
 20
226.6584898068467
 30
0.0
 11
375.1669435376081
 21
225.5334898068467
 31
0.0
  0
LINE
  5
6E1
330
18
100
AcDbEntity
  8
1
  6
Continuous
100
AcDbLine
 10
375.3777295376079
 20
226.6584898068467
 30
0.0
 11
373.752729537608
 21
225.5334898068467
 31
0.0
  0
LINE
  5
6E2
330
18
100
AcDbEntity
  8
1
  6
Continuous
100
AcDbLine
 10
376.3703705376079
 20
226.6584898068467
 30
0.0
 11
377.995370537608
 21
225.5334898068467
 31
0.0
  0
LINE
  5
6E3
330
18
100
AcDbEntity
  8
1
  6
Continuous
100
AcDbLine
 10
374.9561565376079
 20
226.6584898068467
 30
0.0
 11
376.5811565376079
 21
225.5334898068467
 31
0.0
  0
LINE
  5
6E4
330
18
100
AcDbEntity
  8
1
  6
Continuous
100
AcDbLine
 10
376.7919435376081
 20
226.6584898068467
 30
0.0
 11
375.1669435376081
 21
225.5334898068467
 31
0.0
  0
LINE
  5
6E5
330
18
100
AcDbEntity
  8
1
  6
Continuous
100
AcDbLine
 10
380.6130105376078
 20
226.6584898068467
 30
0.0
 11
382.2380105376079
 21
225.5334898068467
 31
0.0
  0
LINE
  5
6E6
330
18
100
AcDbEntity
  8
1
  6
Continuous
100
AcDbLine
 10
379.1987975376081
 20
226.6584898068467
 30
0.0
 11
380.8237975376079
 21
225.5334898068467
 31
0.0
  0
LINE
  5
6E7
330
18
100
AcDbEntity
  8
1
  6
Continuous
100
AcDbLine
 10
381.0345835376081
 20
226.6584898068467
 30
0.0
 11
379.4095835376079
 21
225.5334898068467
 31
0.0
  0
LINE
  5
6E8
330
18
100
AcDbEntity
  8
1
  6
Continuous
100
AcDbLine
 10
382.4487975376081
 20
226.6584898068467
 30
0.0
 11
380.8237975376079
 21
225.5334898068467
 31
0.0
  0
LINE
  5
6E9
330
18
100
AcDbEntity
  8
1
  6
Continuous
100
AcDbLine
 10
391.9267195376079
 20
226.6584898068467
 30
0.0
 11
393.551719537608
 21
225.5334898068467
 31
0.0
  0
LINE
  5
6EA
330
18
100
AcDbEntity
  8
1
  6
Continuous
100
AcDbLine
 10
393.7625055376079
 20
226.6584898068467
 30
0.0
 11
392.137505537608
 21
225.5334898068467
 31
0.0
  0
LINE
  5
6EB
330
18
100
AcDbEntity
  8
1
  6
Continuous
100
AcDbLine
 10
387.6840785376081
 20
226.6584898068467
 30
0.0
 11
389.3090785376081
 21
225.5334898068467
 31
0.0
  0
LINE
  5
6EC
330
18
100
AcDbEntity
  8
1
  6
Continuous
100
AcDbLine
 10
386.269865537608
 20
226.6584898068467
 30
0.0
 11
387.8948655376079
 21
225.5334898068467
 31
0.0
  0
LINE
  5
6ED
330
18
100
AcDbEntity
  8
1
  6
Continuous
100
AcDbLine
 10
388.1056515376081
 20
226.6584898068467
 30
0.0
 11
386.4806515376081
 21
225.5334898068467
 31
0.0
  0
LINE
  5
6EE
330
18
100
AcDbEntity
  8
1
  6
Continuous
100
AcDbLine
 10
383.4414385376081
 20
226.6584898068467
 30
0.0
 11
385.0664385376081
 21
225.5334898068467
 31
0.0
  0
LINE
  5
6EF
330
18
100
AcDbEntity
  8
1
  6
Continuous
100
AcDbLine
 10
384.8556515376081
 20
226.6584898068467
 30
0.0
 11
386.4806515376081
 21
225.5334898068467
 31
0.0
  0
LINE
  5
6F0
330
18
100
AcDbEntity
  8
1
  6
Continuous
100
AcDbLine
 10
386.6914385376081
 20
226.6584898068467
 30
0.0
 11
385.0664385376081
 21
225.5334898068467
 31
0.0
  0
LINE
  5
6F1
330
18
100
AcDbEntity
  8
1
  6
Continuous
100
AcDbLine
 10
385.2772245376079
 20
226.6584898068467
 30
0.0
 11
383.6522245376079
 21
225.5334898068467
 31
0.0
  0
LINE
  5
6F2
330
18
100
AcDbEntity
  8
1
  6
Continuous
100
AcDbLine
 10
390.5125055376079
 20
226.6584898068467
 30
0.0
 11
392.137505537608
 21
225.5334898068467
 31
0.0
  0
LINE
  5
6F3
330
18
100
AcDbEntity
  8
1
  6
Continuous
100
AcDbLine
 10
392.3482925376081
 20
226.6584898068467
 30
0.0
 11
390.7232925376082
 21
225.5334898068467
 31
0.0
  0
LINE
  5
6F4
330
18
100
AcDbEntity
  8
1
  6
Continuous
100
AcDbLine
 10
389.0982925376081
 20
226.6584898068467
 30
0.0
 11
390.7232925376082
 21
225.5334898068467
 31
0.0
  0
LINE
  5
6F5
330
18
100
AcDbEntity
  8
1
  6
Continuous
100
AcDbLine
 10
390.9340785376081
 20
226.6584898068467
 30
0.0
 11
389.3090785376081
 21
225.5334898068467
 31
0.0
  0
LINE
  5
6F6
330
18
100
AcDbEntity
  8
1
  6
Continuous
100
AcDbLine
 10
389.5198655376079
 20
226.6584898068467
 30
0.0
 11
387.8948655376079
 21
225.5334898068467
 31
0.0
  0
LINE
  5
6F7
330
18
100
AcDbEntity
  8
1
  6
Continuous
100
AcDbLine
 10
396.1693605376079
 20
226.6584898068467
 30
0.0
 11
397.7943605376081
 21
225.5334898068467
 31
0.0
  0
LINE
  5
6F8
330
18
100
AcDbEntity
  8
1
  6
Continuous
100
AcDbLine
 10
398.0051465376081
 20
226.6584898068467
 30
0.0
 11
396.3801465376081
 21
225.5334898068467
 31
0.0
  0
LINE
  5
6F9
330
18
100
AcDbEntity
  8
1
  6
Continuous
100
AcDbLine
 10
393.3409325376081
 20
226.6584898068467
 30
0.0
 11
394.9659325376081
 21
225.5334898068467
 31
0.0
  0
LINE
  5
6FA
330
18
100
AcDbEntity
  8
1
  6
Continuous
100
AcDbLine
 10
395.1767195376081
 20
226.6584898068467
 30
0.0
 11
393.551719537608
 21
225.5334898068467
 31
0.0
  0
LINE
  5
6FB
330
18
100
AcDbEntity
  8
1
  6
Continuous
100
AcDbLine
 10
394.7551465376081
 20
226.6584898068467
 30
0.0
 11
396.3801465376081
 21
225.5334898068467
 31
0.0
  0
LINE
  5
6FC
330
18
100
AcDbEntity
  8
1
  6
Continuous
100
AcDbLine
 10
396.5909325376081
 20
226.6584898068467
 30
0.0
 11
394.9659325376081
 21
225.5334898068467
 31
0.0
  0
LINE
  5
6FD
330
18
100
AcDbEntity
  8
1
  6
Continuous
100
AcDbLine
 10
398.9977875376079
 20
226.6584898068467
 30
0.0
 11
400.622787537608
 21
225.5334898068467
 31
0.0
  0
LINE
  5
6FE
330
18
100
AcDbEntity
  8
1
  6
Continuous
100
AcDbLine
 10
400.8335735376078
 20
226.6584898068467
 30
0.0
 11
399.2085735376081
 21
225.5334898068467
 31
0.0
  0
LINE
  5
6FF
330
18
100
AcDbEntity
  8
1
  6
Continuous
100
AcDbLine
 10
400.4120005376078
 20
226.6584898068467
 30
0.0
 11
402.0370005376078
 21
225.5334898068467
 31
0.0
  0
LINE
  5
700
330
18
100
AcDbEntity
  8
1
  6
Continuous
100
AcDbLine
 10
397.5835735376081
 20
226.6584898068467
 30
0.0
 11
399.2085735376081
 21
225.5334898068467
 31
0.0
  0
LINE
  5
701
330
18
100
AcDbEntity
  8
1
  6
Continuous
100
AcDbLine
 10
399.419360537608
 20
226.6584898068467
 30
0.0
 11
397.7943605376081
 21
225.5334898068467
 31
0.0
  0
ARC
  5
702
330
18
100
AcDbEntity
  8
1
  6
Continuous
100
AcDbCircle
 10
413.470315537608
 20
222.5334898068467
 30
0.0
 40
3.0
100
AcDbArc
 50
13.49339899999998
 51
90.0
  0
LINE
  5
703
330
18
100
AcDbEntity
  8
1
  6
Continuous
100
AcDbLine
 10
420.8582715376079
 20
223.2334898068467
 30
0.0
 11
427.5897775376078
 21
178.7334898068466
 31
0.0
  0
CIRCLE
  5
704
330
18
100
AcDbEntity
  8
1
  6
Continuous
100
AcDbCircle
 10
417.1375055376079
 20
178.7334898068466
 30
0.0
 40
7.0
  0
LINE
  5
707
330
18
100
AcDbEntity
  8
1
  6
Continuous
100
AcDbLine
 10
410.1375055376078
 20
223.2334898068467
 30
0.0
 11
424.137505537608
 21
223.2334898068467
 31
0.0
  0
LINE
  5
708
330
18
100
AcDbEntity
  8
1
  6
Continuous
100
AcDbLine
 10
421.206192537608
 20
220.9334898068466
 30
0.0
 11
424.137505537608
 21
220.9334898068466
 31
0.0
  0
LINE
  5
709
330
18
100
AcDbEntity
  8
1
  6
Continuous
100
AcDbLine
 10
424.137505537608
 20
223.2334898068467
 30
0.0
 11
424.137505537608
 21
220.9334898068466
 31
0.0
  0
LINE
  5
70A
330
18
100
AcDbEntity
  8
4
  6
CENTER
100
AcDbLine
 10
419.1375055376078
 20
239.2334898068466
 30
0.0
 11
419.1375055376078
 21
226.9334898068467
 31
0.0
  0
LINE
  5
70B
330
18
100
AcDbEntity
  8
1
  6
Continuous
100
AcDbLine
 10
411.7257095376078
 20
226.6584898068467
 30
0.0
 11
413.3507095376081
 21
225.5334898068467
 31
0.0
  0
LINE
  5
70C
330
18
100
AcDbEntity
  8
1
  6
Continuous
100
AcDbLine
 10
410.3114955376081
 20
226.6584898068467
 30
0.0
 11
411.9364955376078
 21
225.5334898068467
 31
0.0
  0
LINE
  5
70D
330
18
100
AcDbEntity
  8
1
  6
Continuous
100
AcDbLine
 10
412.1472825376081
 20
226.6584898068467
 30
0.0
 11
410.5222825376078
 21
225.5334898068467
 31
0.0
  0
LINE
  5
70E
330
18
100
AcDbEntity
  8
1
  6
Continuous
100
AcDbLine
 10
406.068855537608
 20
226.6584898068467
 30
0.0
 11
407.6938555376078
 21
225.5334898068467
 31
0.0
  0
LINE
  5
70F
330
18
100
AcDbEntity
  8
1
  6
Continuous
100
AcDbLine
 10
407.9046415376081
 20
226.6584898068467
 30
0.0
 11
406.2796415376078
 21
225.5334898068467
 31
0.0
  0
LINE
  5
710
330
18
100
AcDbEntity
  8
1
  6
Continuous
100
AcDbLine
 10
405.0762145376078
 20
226.6584898068467
 30
0.0
 11
403.4512145376081
 21
225.5334898068467
 31
0.0
  0
LINE
  5
711
330
18
100
AcDbEntity
  8
1
  6
Continuous
100
AcDbLine
 10
403.2404275376078
 20
226.6584898068467
 30
0.0
 11
404.8654275376079
 21
225.5334898068467
 31
0.0
  0
LINE
  5
712
330
18
100
AcDbEntity
  8
1
  6
Continuous
100
AcDbLine
 10
404.6546415376078
 20
226.6584898068467
 30
0.0
 11
406.2796415376078
 21
225.5334898068467
 31
0.0
  0
LINE
  5
713
330
18
100
AcDbEntity
  8
1
  6
Continuous
100
AcDbLine
 10
406.4904275376078
 20
226.6584898068467
 30
0.0
 11
404.8654275376079
 21
225.5334898068467
 31
0.0
  0
LINE
  5
714
330
18
100
AcDbEntity
  8
1
  6
Continuous
100
AcDbLine
 10
408.8972825376081
 20
226.6584898068467
 30
0.0
 11
410.5222825376078
 21
225.5334898068467
 31
0.0
  0
LINE
  5
715
330
18
100
AcDbEntity
  8
1
  6
Continuous
100
AcDbLine
 10
409.3188555376078
 20
226.6584898068467
 30
0.0
 11
407.6938555376078
 21
225.5334898068467
 31
0.0
  0
LINE
  5
716
330
18
100
AcDbEntity
  8
1
  6
Continuous
100
AcDbLine
 10
410.7330685376081
 20
226.6584898068467
 30
0.0
 11
409.1080685376081
 21
225.5334898068467
 31
0.0
  0
LINE
  5
717
330
18
100
AcDbEntity
  8
1
  6
Continuous
100
AcDbLine
 10
407.4830685376078
 20
226.6584898068467
 30
0.0
 11
409.1080685376081
 21
225.5334898068467
 31
0.0
  0
ARC
  5
718
330
18
100
AcDbEntity
  8
1
  6
Continuous
100
AcDbCircle
 10
414.9297025376078
 20
233.3334898068467
 30
0.0
 40
3.5
100
AcDbArc
 50
270.0
 51
336.421822
  0
LINE
  5
719
330
18
100
AcDbEntity
  8
1
  6
Continuous
100
AcDbLine
 10
415.687505537608
 20
228.1584898068466
 30
0.0
 11
415.1875055376081
 21
228.9584898068466
 31
0.0
  0
LINE
  5
71A
330
18
100
AcDbEntity
  8
1
  6
Continuous
100
AcDbLine
 10
414.7875055376081
 20
226.6584898068467
 30
0.0
 11
415.687505537608
 21
228.1584898068466
 31
0.0
  0
LINE
  5
71B
330
18
100
AcDbEntity
  8
1
  6
Continuous
100
AcDbLine
 10
413.5614955376079
 20
226.6584898068467
 30
0.0
 11
411.9364955376078
 21
225.5334898068467
 31
0.0
  0
LINE
  5
71C
330
18
100
AcDbEntity
  8
1
  6
Continuous
100
AcDbLine
 10
415.1375055376078
 20
226.0751208068467
 30
0.0
 11
414.5541365376081
 21
226.6584898068467
 31
0.0
  0
LINE
  5
71D
330
18
100
AcDbEntity
  8
1
  6
Continuous
100
AcDbLine
 10
415.1375055376078
 20
226.6584898068467
 30
0.0
 11
415.1375055376078
 21
225.5334898068467
 31
0.0
  0
ARC
  5
71E
330
18
100
AcDbEntity
  8
1
  6
Continuous
100
AcDbCircle
 10
408.8875055376078
 20
224.4839898068465
 30
0.0
 40
6.974499999999999
100
AcDbArc
 50
39.907598
 51
50.08600000000002
  0
LINE
  5
71F
330
18
100
AcDbEntity
  8
1
  6
Continuous
100
AcDbLine
 10
413.1399225376081
 20
226.6584898068467
 30
0.0
 11
414.7649225376079
 21
225.5334898068467
 31
0.0
  0
LINE
  5
720
330
18
100
AcDbEntity
  8
1
  6
Continuous
100
AcDbLine
 10
414.9757095376078
 20
226.6584898068467
 30
0.0
 11
413.3507095376081
 21
225.5334898068467
 31
0.0
  0
LINE
  5
721
330
18
100
AcDbEntity
  8
1
  6
Continuous
100
AcDbLine
 10
427.1375055376078
 20
234.2334898068466
 30
0.0
 11
427.1375055376078
 21
231.9334898068465
 31
0.0
  0
ENDSEC
  0
SECTION
  2
OBJECTS
  0
DICTIONARY
  5
C
330
0
100
AcDbDictionary
281
     1
  3
ACAD_CIP_PREVIOUS_PRODUCT_INFO
350
7B5
  3
ACAD_COLOR
350
798
  3
ACAD_DETAILVIEWSTYLE
350
7B1
  3
ACAD_GROUP
350
D
  3
ACAD_LAYOUT
350
94
  3
ACAD_MATERIAL
350
766
  3
ACAD_MLEADERSTYLE
350
7AD
  3
ACAD_MLINESTYLE
350
1B
  3
ACAD_PLOTSETTINGS
350
95
  3
ACAD_PLOTSTYLENAME
350
764
  3
ACAD_SCALELIST
350
79B
  3
ACAD_SECTIONVIEWSTYLE
350
7AF
  3
ACAD_TABLESTYLE
350
799
  3
ACAD_VISUALSTYLE
350
77F
  3
ACDB_RECOMPOSE_DATA
350
7D3
  3
AcDbVariableDictionary
350
7C6
  3
CONTENTDICTIONARY
350
3D
  3
DWGPROPS
350
7D4
  0
DICTIONARY
  5
7B6
330
E
100
AcDbDictionary
280
     1
281
     1
  3
ADSK_XREC_LAYER_RECONCILED
360
7B7
  0
DICTIONARY
  5
7B8
330
4E
100
AcDbDictionary
280
     1
281
     1
  3
ADSK_XREC_LAYER_RECONCILED
360
7B9
  0
DICTIONARY
  5
7BA
330
4F
100
AcDbDictionary
280
     1
281
     1
  3
ADSK_XREC_LAYER_RECONCILED
360
7BB
  0
DICTIONARY
  5
7BC
330
50
100
AcDbDictionary
280
     1
281
     1
  3
ADSK_XREC_LAYER_RECONCILED
360
7BD
  0
DICTIONARY
  5
7BE
330
51
100
AcDbDictionary
280
     1
281
     1
  3
ADSK_XREC_LAYER_RECONCILED
360
7BF
  0
DICTIONARY
  5
7C0
330
52
100
AcDbDictionary
280
     1
281
     1
  3
ADSK_XREC_LAYER_RECONCILED
360
7C1
  0
DICTIONARY
  5
7C2
330
53
100
AcDbDictionary
280
     1
281
     1
  3
ADSK_XREC_LAYER_RECONCILED
360
7C3
  0
DICTIONARY
  5
7C4
330
54
100
AcDbDictionary
280
     1
281
     1
  3
ADSK_XREC_LAYER_RECONCILED
360
7C5
  0
DICTIONARY
  5
75F
330
18
100
AcDbDictionary
281
     1
  3
ACAD_LAYOUTSELFREF
350
760
  0
DICTIONARY
  5
75D
330
15
100
AcDbDictionary
281
     1
  3
ACAD_LAYOUTSELFREF
350
75E
  0
XRECORD
  5
7B5
102
{ACAD_REACTORS
330
C
102
}
330
C
100
AcDbXrecord
280
     1
300
ACDLT
300
2014
300
ACDLT_F_S
  0
DICTIONARY
  5
798
102
{ACAD_REACTORS
330
C
102
}
330
C
100
AcDbDictionary
281
     1
  0
DICTIONARY
  5
7B1
102
{ACAD_REACTORS
330
C
102
}
330
C
100
AcDbDictionary
281
     1
  3
Imperial24
350
7B2
  0
DICTIONARY
  5
D
102
{ACAD_REACTORS
330
C
102
}
330
C
100
AcDbDictionary
281
     1
  0
DICTIONARY
  5
94
102
{ACAD_REACTORS
330
C
102
}
330
C
100
AcDbDictionary
281
     1
  3
Model
350
7B3
  3
レイアウト1
350
7B4
  0
DICTIONARY
  5
766
102
{ACAD_REACTORS
330
C
102
}
330
C
100
AcDbDictionary
281
     1
  3
ByBlock
350
76F
  3
ByLayer
350
767
  3
Global
350
777
  0
DICTIONARY
  5
7AD
102
{ACAD_REACTORS
330
C
102
}
330
C
100
AcDbDictionary
281
     1
  3
Standard
350
7AE
  0
DICTIONARY
  5
1B
102
{ACAD_REACTORS
330
C
102
}
330
C
100
AcDbDictionary
281
     1
  3
STANDARD
350
1C
  0
DICTIONARY
  5
95
102
{ACAD_REACTORS
330
C
102
}
330
C
100
AcDbDictionary
281
     1
  0
ACDBDICTIONARYWDFLT
  5
764
102
{ACAD_REACTORS
330
C
102
}
330
C
100
AcDbDictionary
281
     1
  3
Normal
350
765
100
AcDbDictionaryWithDefault
340
765
  0
DICTIONARY
  5
79B
102
{ACAD_REACTORS
330
C
102
}
330
C
100
AcDbDictionary
281
     1
  3
A0
350
79C
  3
A1
350
79D
  3
A2
350
79E
  3
A3
350
79F
  3
A4
350
7A0
  3
A5
350
7A1
  3
A6
350
7A2
  3
A7
350
7A3
  3
A8
350
7A4
  3
A9
350
7A5
  3
B0
350
7A6
  3
B1
350
7A7
  3
B2
350
7A8
  3
B3
350
7A9
  3
B4
350
7AA
  3
B5
350
7AB
  3
B6
350
7AC
  0
DICTIONARY
  5
7AF
102
{ACAD_REACTORS
330
C
102
}
330
C
100
AcDbDictionary
281
     1
  3
Imperial24
350
7B0
  0
DICTIONARY
  5
799
102
{ACAD_REACTORS
330
C
102
}
330
C
100
AcDbDictionary
281
     1
  3
Standard
350
79A
  0
DICTIONARY
  5
77F
102
{ACAD_REACTORS
330
C
102
}
330
C
100
AcDbDictionary
281
     1
  3
2dWireframe
350
785
  3
Basic
350
784
  3
Brighten
350
78B
  3
ColorChange
350
78F
  3
Conceptual
350
788
  3
Dim
350
78A
  3
EdgeColorOff
350
797
  3
Facepattern
350
78E
  3
Flat
350
780
  3
FlatWithEdges
350
781
  3
Gouraud
350
782
  3
GouraudWithEdges
350
783
  3
Hidden
350
787
  3
JitterOff
350
795
  3
Linepattern
350
78D
  3
OverhangOff
350
796
  3
Realistic
350
789
  3
Shaded
350
794
  3
Shaded with edges
350
793
  3
Shades of Gray
350
790
  3
Sketchy
350
791
  3
Thicken
350
78C
  3
Wireframe
350
786
  3
X-Ray
350
792
  0
XRECORD
  5
7D3
102
{ACAD_REACTORS
330
C
102
}
330
C
100
AcDbXrecord
280
     1
 90
        1
330
79A
  0
DICTIONARY
  5
7C6
102
{ACAD_REACTORS
330
C
102
}
330
C
100
AcDbDictionary
281
     1
  3
CANNOSCALE
350
7CB
  3
CMLEADERSTYLE
350
7C8
  3
CTABLESTYLE
350
7C7
  3
CVIEWDETAILSTYLE
350
7C9
  3
CVIEWSECTIONSTYLE
350
7CA
  3
DIMASSOC
350
7CE
  3
INDEXCTL
350
7CD
  3
SORTENTS
350
7CC
  3
XCLIPFRAME
350
7CF
  0
DICTIONARY
  5
3D
102
{ACAD_REACTORS
330
C
102
}
330
C
100
AcDbDictionary
281
     1
  0
XRECORD
  5
7D4
102
{ACAD_REACTORS
330
C
102
}
330
C
100
AcDbXrecord
280
     1
  1
DWGPROPS COOKIE
  2

  3

  4

  6

  7

  8
Yoshitsune
  9

300
=
301
=
302
=
303
=
304
=
305
=
306
=
307
=
308
=
309
=
 40
0.0051086574074074
 41
2454875.565629618
 42
2457192.687043577
  1

 90
        0
  0
XRECORD
  5
7B7
102
{ACAD_REACTORS
330
7B6
102
}
330
7B6
100
AcDbXrecord
280
     1
290
     1
  0
XRECORD
  5
7B9
102
{ACAD_REACTORS
330
7B8
102
}
330
7B8
100
AcDbXrecord
280
     1
290
     1
  0
XRECORD
  5
7BB
102
{ACAD_REACTORS
330
7BA
102
}
330
7BA
100
AcDbXrecord
280
     1
290
     1
  0
XRECORD
  5
7BD
102
{ACAD_REACTORS
330
7BC
102
}
330
7BC
100
AcDbXrecord
280
     1
290
     1
  0
XRECORD
  5
7BF
102
{ACAD_REACTORS
330
7BE
102
}
330
7BE
100
AcDbXrecord
280
     1
290
     1
  0
XRECORD
  5
7C1
102
{ACAD_REACTORS
330
7C0
102
}
330
7C0
100
AcDbXrecord
280
     1
290
     1
  0
XRECORD
  5
7C3
102
{ACAD_REACTORS
330
7C2
102
}
330
7C2
100
AcDbXrecord
280
     1
290
     1
  0
XRECORD
  5
7C5
102
{ACAD_REACTORS
330
7C4
102
}
330
7C4
100
AcDbXrecord
280
     1
290
     1
  0
XRECORD
  5
760
102
{ACAD_REACTORS
330
75F
102
}
330
75F
100
AcDbXrecord
280
     1
340
18
  0
XRECORD
  5
75E
102
{ACAD_REACTORS
330
75D
102
}
330
75D
100
AcDbXrecord
280
     1
340
15
  0
ACDBDETAILVIEWSTYLE
  5
7B2
102
{ACAD_XDICTIONARY
360
80C
102
}
102
{ACAD_REACTORS
330
7B1
102
}
330
7B1
100
AcDbModelDocViewStyle
 70
     0
  3
Imperial24
290
     0
100
AcDbDetailViewStyle
 70
     0
 71
     0
 90
        3
 71
     1
340
F
 40
0.24
340
0
 40
0.24
300

 40
0.36
280
     3
 71
     2
340
14
 90
       25
 71
     3
340
F
 40
0.24
 90
        1
 40
0.75
 90
        1
300
%<\AcVar ViewType \f "%tc1">% %<\AcVar ViewDetailId>%\PSCALE %<\AcVar ViewScale \f "%sn">%
 71
     4
340
14
 90
       25
340
14
 90
       25
280
     0
  0
LAYOUT
  5
7B3
102
{ACAD_XDICTIONARY
360
80E
102
}
102
{ACAD_REACTORS
330
94
102
}
330
94
100
AcDbPlotSettings
  1

  2
Canon LBP9100C
  4

  6

 40
0.0
 41
0.0
 42
0.0
 43
0.0
 44
0.0
 45
0.0
 46
0.0
 47
0.0
 48
0.0
 49
0.0
140
0.0
141
0.0
142
1.0
143
1.0
 70
  1712
 72
     0
 73
     0
 74
     0
  7

 75
     0
147
1.0
148
0.0
149
0.0
100
AcDbLayout
  1
Model
 70
     1
 71
     0
 10
0.0
 20
0.0
 11
12.0
 21
9.0
 12
0.0
 22
0.0
 32
0.0
 14
0.0
 24
0.0
 34
0.0
 15
0.0
 25
0.0
 35
0.0
146
0.0
 13
0.0
 23
0.0
 33
0.0
 16
1.0
 26
0.0
 36
0.0
 17
0.0
 27
1.0
 37
0.0
 76
     0
330
18
331
75C
  0
LAYOUT
  5
7B4
102
{ACAD_XDICTIONARY
360
810
102
}
102
{ACAD_REACTORS
330
94
102
}
330
94
100
AcDbPlotSettings
  1

  2
Canon LBP9100C
  4

  6

 40
0.0
 41
0.0
 42
0.0
 43
0.0
 44
0.0
 45
0.0
 46
0.0
 47
0.0
 48
0.0
 49
0.0
140
0.0
141
0.0
142
1.0
143
1.0
 70
   688
 72
     0
 73
     0
 74
     5
  7

 75
    16
147
1.0
148
0.0
149
0.0
100
AcDbLayout
  1
レイアウト1
 70
     1
 71
     1
 10
0.0
 20
0.0
 11
420.0
 21
297.0
 12
0.0
 22
0.0
 32
0.0
 14
1.000000000000000E+20
 24
1.000000000000000E+20
 34
1.000000000000000E+20
 15
-1.000000000000000E+20
 25
-1.000000000000000E+20
 35
-1.000000000000000E+20
146
0.0
 13
0.0
 23
0.0
 33
0.0
 16
1.0
 26
0.0
 36
0.0
 17
0.0
 27
1.0
 37
0.0
 76
     0
330
15
  0
MATERIAL
  5
76F
102
{ACAD_XDICTIONARY
360
770
102
}
102
{ACAD_REACTORS
330
766
102
}
330
766
100
AcDbMaterial
  1
ByBlock
 72
     0
 43
0.0208333333333333
 43
0.0
 43
0.0
 43
0.0
 43
0.0
 43
0.0208333333333333
 43
0.0
 43
0.0
 43
0.0
 43
0.0
 43
1.0
 43
0.0
 43
0.0
 43
0.0
 43
0.0
 43
1.0
 77
     0
 47
0.0208333333333333
 47
0.0
 47
0.0
 47
0.0
 47
0.0
 47
0.0208333333333333
 47
0.0
 47
0.0
 47
0.0
 47
0.0
 47
1.0
 47
0.0
 47
0.0
 47
0.0
 47
0.0
 47
1.0
171
     0
 49
0.0208333333333333
 49
0.0
 49
0.0
 49
0.0
 49
0.0
 49
0.0208333333333333
 49
0.0
 49
0.0
 49
0.0
 49
0.0
 49
1.0
 49
0.0
 49
0.0
 49
0.0
 49
0.0
 49
1.0
175
     0
142
0.0208333333333333
142
0.0
142
0.0
142
0.0
142
0.0
142
0.0208333333333333
142
0.0
142
0.0
142
0.0
142
0.0
142
1.0
142
0.0
142
0.0
142
0.0
142
0.0
142
1.0
179
     0
144
0.0208333333333333
144
0.0
144
0.0
144
0.0
144
0.0
144
0.0208333333333333
144
0.0
144
0.0
144
0.0
144
0.0
144
1.0
144
0.0
144
0.0
144
0.0
144
0.0
144
1.0
147
0.0208333333333333
147
0.0
147
0.0
147
0.0
147
0.0
147
0.0208333333333333
147
0.0
147
0.0
147
0.0
147
0.0
147
1.0
147
0.0
147
0.0
147
0.0
147
0.0
147
1.0
  0
MATERIAL
  5
767
102
{ACAD_XDICTIONARY
360
768
102
}
102
{ACAD_REACTORS
330
766
102
}
330
766
100
AcDbMaterial
  1
ByLayer
 72
     0
 43
0.0208333333333333
 43
0.0
 43
0.0
 43
0.0
 43
0.0
 43
0.0208333333333333
 43
0.0
 43
0.0
 43
0.0
 43
0.0
 43
1.0
 43
0.0
 43
0.0
 43
0.0
 43
0.0
 43
1.0
 77
     0
 47
0.0208333333333333
 47
0.0
 47
0.0
 47
0.0
 47
0.0
 47
0.0208333333333333
 47
0.0
 47
0.0
 47
0.0
 47
0.0
 47
1.0
 47
0.0
 47
0.0
 47
0.0
 47
0.0
 47
1.0
171
     0
 49
0.0208333333333333
 49
0.0
 49
0.0
 49
0.0
 49
0.0
 49
0.0208333333333333
 49
0.0
 49
0.0
 49
0.0
 49
0.0
 49
1.0
 49
0.0
 49
0.0
 49
0.0
 49
0.0
 49
1.0
175
     0
142
0.0208333333333333
142
0.0
142
0.0
142
0.0
142
0.0
142
0.0208333333333333
142
0.0
142
0.0
142
0.0
142
0.0
142
1.0
142
0.0
142
0.0
142
0.0
142
0.0
142
1.0
179
     0
144
0.0208333333333333
144
0.0
144
0.0
144
0.0
144
0.0
144
0.0208333333333333
144
0.0
144
0.0
144
0.0
144
0.0
144
1.0
144
0.0
144
0.0
144
0.0
144
0.0
144
1.0
147
0.0208333333333333
147
0.0
147
0.0
147
0.0
147
0.0
147
0.0208333333333333
147
0.0
147
0.0
147
0.0
147
0.0
147
1.0
147
0.0
147
0.0
147
0.0
147
0.0
147
1.0
  0
MATERIAL
  5
777
102
{ACAD_XDICTIONARY
360
778
102
}
102
{ACAD_REACTORS
330
766
102
}
330
766
100
AcDbMaterial
  1
Global
 72
     0
 43
0.0208333333333333
 43
0.0
 43
0.0
 43
0.0
 43
0.0
 43
0.0208333333333333
 43
0.0
 43
0.0
 43
0.0
 43
0.0
 43
1.0
 43
0.0
 43
0.0
 43
0.0
 43
0.0
 43
1.0
 77
     0
 47
0.0208333333333333
 47
0.0
 47
0.0
 47
0.0
 47
0.0
 47
0.0208333333333333
 47
0.0
 47
0.0
 47
0.0
 47
0.0
 47
1.0
 47
0.0
 47
0.0
 47
0.0
 47
0.0
 47
1.0
171
     0
 49
0.0208333333333333
 49
0.0
 49
0.0
 49
0.0
 49
0.0
 49
0.0208333333333333
 49
0.0
 49
0.0
 49
0.0
 49
0.0
 49
1.0
 49
0.0
 49
0.0
 49
0.0
 49
0.0
 49
1.0
175
     0
142
0.0208333333333333
142
0.0
142
0.0
142
0.0
142
0.0
142
0.0208333333333333
142
0.0
142
0.0
142
0.0
142
0.0
142
1.0
142
0.0
142
0.0
142
0.0
142
0.0
142
1.0
179
     0
144
0.0208333333333333
144
0.0
144
0.0
144
0.0
144
0.0
144
0.0208333333333333
144
0.0
144
0.0
144
0.0
144
0.0
144
1.0
144
0.0
144
0.0
144
0.0
144
0.0
144
1.0
147
0.0208333333333333
147
0.0
147
0.0
147
0.0
147
0.0
147
0.0208333333333333
147
0.0
147
0.0
147
0.0
147
0.0
147
1.0
147
0.0
147
0.0
147
0.0
147
0.0
147
1.0
  0
MLEADERSTYLE
  5
7AE
102
{ACAD_REACTORS
330
7AD
102
}
330
7AD
100
AcDbMLeaderStyle
170
     2
171
     1
172
     0
 90
        2
 40
0.0
 41
0.0
173
     1
 91
-1056964608
340
12
 92
       -2
290
     1
 42
0.09
291
     1
 43
0.36
  3
Standard
 44
0.18
300

342
F
174
     1
178
     6
175
     1
176
     0
 93
-1056964608
 45
0.18
292
     0
297
     0
 46
0.18
 94
-1056964608
 47
1.0
 49
1.0
140
1.0
293
     1
141
0.0
294
     1
177
     0
142
1.0
295
     0
296
     0
143
0.125
1001
ACAD_MLEADERVER
1070
     2
  0
MLINESTYLE
  5
1C
102
{ACAD_REACTORS
330
1B
102
}
330
1B
100
AcDbMlineStyle
  2
STANDARD
 70
     0
  3

 62
   256
 51
90.0
 52
90.0
 71
     2
 49
0.5
 62
   256
  6
BYLAYER
 49
-0.5
 62
   256
  6
BYLAYER
  0
ACDBPLACEHOLDER
  5
765
102
{ACAD_REACTORS
330
764
102
}
330
764
  0
SCALE
  5
79C
102
{ACAD_REACTORS
330
79B
102
}
330
79B
100
AcDbScale
 70
     0
300
1:1
140
1.0
141
1.0
290
     1
  0
SCALE
  5
79D
102
{ACAD_REACTORS
330
79B
102
}
330
79B
100
AcDbScale
 70
     0
300
1/128" = 1'-0"
140
0.0078125
141
12.0
290
     0
  0
SCALE
  5
79E
102
{ACAD_REACTORS
330
79B
102
}
330
79B
100
AcDbScale
 70
     0
300
1/64" = 1'-0"
140
0.015625
141
12.0
290
     0
  0
SCALE
  5
79F
102
{ACAD_REACTORS
330
79B
102
}
330
79B
100
AcDbScale
 70
     0
300
1/32" = 1'-0"
140
0.03125
141
12.0
290
     0
  0
SCALE
  5
7A0
102
{ACAD_REACTORS
330
79B
102
}
330
79B
100
AcDbScale
 70
     0
300
1/16" = 1'-0"
140
0.0625
141
12.0
290
     0
  0
SCALE
  5
7A1
102
{ACAD_REACTORS
330
79B
102
}
330
79B
100
AcDbScale
 70
     0
300
3/32" = 1'-0"
140
0.09375
141
12.0
290
     0
  0
SCALE
  5
7A2
102
{ACAD_REACTORS
330
79B
102
}
330
79B
100
AcDbScale
 70
     0
300
1/8" = 1'-0"
140
0.125
141
12.0
290
     0
  0
SCALE
  5
7A3
102
{ACAD_REACTORS
330
79B
102
}
330
79B
100
AcDbScale
 70
     0
300
3/16" = 1'-0"
140
0.1875
141
12.0
290
     0
  0
SCALE
  5
7A4
102
{ACAD_REACTORS
330
79B
102
}
330
79B
100
AcDbScale
 70
     0
300
1/4" = 1'-0"
140
0.25
141
12.0
290
     0
  0
SCALE
  5
7A5
102
{ACAD_REACTORS
330
79B
102
}
330
79B
100
AcDbScale
 70
     0
300
3/8" = 1'-0"
140
0.375
141
12.0
290
     0
  0
SCALE
  5
7A6
102
{ACAD_REACTORS
330
79B
102
}
330
79B
100
AcDbScale
 70
     0
300
1/2" = 1'-0"
140
0.5
141
12.0
290
     0
  0
SCALE
  5
7A7
102
{ACAD_REACTORS
330
79B
102
}
330
79B
100
AcDbScale
 70
     0
300
3/4" = 1'-0"
140
0.75
141
12.0
290
     0
  0
SCALE
  5
7A8
102
{ACAD_REACTORS
330
79B
102
}
330
79B
100
AcDbScale
 70
     0
300
1" = 1'-0"
140
1.0
141
12.0
290
     0
  0
SCALE
  5
7A9
102
{ACAD_REACTORS
330
79B
102
}
330
79B
100
AcDbScale
 70
     0
300
1-1/2" = 1'-0"
140
1.5
141
12.0
290
     0
  0
SCALE
  5
7AA
102
{ACAD_REACTORS
330
79B
102
}
330
79B
100
AcDbScale
 70
     0
300
3" = 1'-0"
140
3.0
141
12.0
290
     0
  0
SCALE
  5
7AB
102
{ACAD_REACTORS
330
79B
102
}
330
79B
100
AcDbScale
 70
     0
300
6" = 1'-0"
140
6.0
141
12.0
290
     0
  0
SCALE
  5
7AC
102
{ACAD_REACTORS
330
79B
102
}
330
79B
100
AcDbScale
 70
     0
300
1'-0" = 1'-0"
140
12.0
141
12.0
290
     0
  0
ACDBSECTIONVIEWSTYLE
  5
7B0
102
{ACAD_XDICTIONARY
360
80A
102
}
102
{ACAD_REACTORS
330
7AF
102
}
330
7AF
100
AcDbModelDocViewStyle
 70
     0
  3
Imperial24
290
     0
100
AcDbSectionViewStyle
 70
     0
 71
     0
 90
       78
 71
     1
340
F
 40
0.24
340
0
340
0
 40
0.24
300
I, O, Q, S, X, Z
 40
0.48
 90
        3
 40
0.18
 90
        1
 71
     2
340
14
 90
       25
340
14
 90
       50
 40
0.24
 40
0.0
 40
0.24
 71
     3
340
F
 40
0.24
 90
        1
 40
0.75
 90
        1
300
%<\AcVar ViewType \f "%tc1">% %<\AcVar ViewSectionStartId>%-%<\AcVar ViewSectionEndId>%\PSCALE %<\AcVar ViewScale \f "%sn">%
 71
     4
300
ANSI31
 40
1.0
 90
        0
290
     0
290
     0
 90
        6
 40
0.0
 40
1.570796326794896
 40
0.2617993877991494
 40
1.308996938995747
 40
-0.2617993877991494
 40
1.832595714594046
  0
TABLESTYLE
  5
79A
102
{ACAD_XDICTIONARY
360
7D1
102
}
102
{ACAD_REACTORS
330
799
102
}
330
799
100
AcDbTableStyle
  3
Standard
 70
     0
 71
     0
 40
0.06
 41
0.06
280
     0
281
     0
  7
STANDARD
140
0.18
170
     2
 62
     0
 63
     7
283
     0
274
    -2
284
     1
 64
     0
275
    -2
285
     1
 65
     0
276
    -2
286
     1
 66
     0
277
    -2
287
     1
 67
     0
278
    -2
288
     1
 68
     0
279
    -2
289
     1
 69
     0
  7
STANDARD
140
0.25
170
     5
 62
     0
 63
     7
283
     0
274
    -2
284
     1
 64
     0
275
    -2
285
     1
 65
     0
276
    -2
286
     1
 66
     0
277
    -2
287
     1
 67
     0
278
    -2
288
     1
 68
     0
279
    -2
289
     1
 69
     0
  7
STANDARD
140
0.18
170
     5
 62
     0
 63
     7
283
     0
274
    -2
284
     1
 64
     0
275
    -2
285
     1
 65
     0
276
    -2
286
     1
 66
     0
277
    -2
287
     1
 67
     0
278
    -2
288
     1
 68
     0
279
    -2
289
     1
 69
     0
  0
VISUALSTYLE
  5
785
102
{ACAD_XDICTIONARY
360
7E2
102
}
102
{ACAD_REACTORS
330
77F
102
}
330
77F
100
AcDbVisualStyle
  2
2dWireframe
 70
     4
 71
     0
 72
     2
 73
     0
 90
        0
 40
-0.6
 41
-30.0
 62
     5
 63
     7
 74
     1
 91
        4
 64
     7
 65
   257
 75
     1
175
     1
 42
1.0
 92
        0
 66
   257
 43
1.0
 76
     1
 77
     6
 78
     2
 67
     7
 79
     5
170
     0
171
     0
290
     0
174
     0
 93
        1
 44
0.0
173
     0
291
     0
 45
0.0
1001
ACAD
1000
AcDbSavedByObjectVersion
1070
     0
  0
VISUALSTYLE
  5
784
102
{ACAD_XDICTIONARY
360
7E0
102
}
102
{ACAD_REACTORS
330
77F
102
}
330
77F
100
AcDbVisualStyle
  2
Basic
 70
     7
 71
     1
 72
     0
 73
     1
 90
        0
 40
-0.6
 41
-30.0
 62
     5
 63
     7
 74
     0
 91
        4
 64
     7
 65
   257
 75
     1
175
     1
 42
1.0
 92
        8
 66
     7
 43
1.0
 76
     1
 77
     6
 78
     2
 67
     7
 79
     5
170
     0
171
     0
290
     0
174
     0
 93
        1
 44
0.0
173
     0
291
     1
 45
0.0
1001
ACAD
1000
AcDbSavedByObjectVersion
1070
     0
  0
VISUALSTYLE
  5
78B
102
{ACAD_XDICTIONARY
360
7EE
102
}
102
{ACAD_REACTORS
330
77F
102
}
330
77F
100
AcDbVisualStyle
  2
Brighten
 70
    12
 71
     2
 72
     2
 73
     0
 90
        0
 40
-0.6
 41
-30.0
 62
     5
 63
     7
 74
     1
 91
        4
 64
     7
 65
   257
 75
     1
175
     1
 42
1.0
 92
        8
 66
     7
 43
1.0
 76
     1
 77
     6
 78
     2
 67
     7
 79
     5
170
     0
171
     0
290
     0
174
     0
 93
        1
 44
50.0
173
     0
291
     1
 45
0.0
1001
ACAD
1000
AcDbSavedByObjectVersion
1070
     0
  0
VISUALSTYLE
  5
78F
102
{ACAD_XDICTIONARY
360
7F6
102
}
102
{ACAD_REACTORS
330
77F
102
}
330
77F
100
AcDbVisualStyle
  2
ColorChange
 70
    16
 71
     2
 72
     2
 73
     3
 90
        0
 40
-0.6
 41
-30.0
 62
     5
 63
     8
 74
     1
 91
        4
 64
     7
 65
   257
 75
     1
175
     1
 42
1.0
 92
        8
 66
     8
 43
1.0
 76
     1
 77
     6
 78
     2
 67
     7
 79
     5
170
     0
171
     0
290
     0
174
     0
 93
        1
 44
0.0
173
     0
291
     1
 45
0.0
1001
ACAD
1000
AcDbSavedByObjectVersion
1070
     0
  0
VISUALSTYLE
  5
788
102
{ACAD_XDICTIONARY
360
7E8
102
}
102
{ACAD_REACTORS
330
77F
102
}
330
77F
100
AcDbVisualStyle
  2
Conceptual
 70
     9
 71
     3
 72
     2
 73
     0
 90
        0
 40
-0.6
 41
-30.0
 62
     5
 63
     7
 74
     2
 91
        2
 64
     7
 65
   257
 75
     1
175
     1
 42
179.0
 92
        8
 66
     7
 43
1.0
 76
     1
 77
     6
 78
     2
 67
     7
 79
     3
170
     0
171
     0
290
     0
174
     0
 93
        1
 44
0.0
173
     0
291
     0
 45
0.0
1001
ACAD
1000
AcDbSavedByObjectVersion
1070
     0
  0
VISUALSTYLE
  5
78A
102
{ACAD_XDICTIONARY
360
7EC
102
}
102
{ACAD_REACTORS
330
77F
102
}
330
77F
100
AcDbVisualStyle
  2
Dim
 70
    11
 71
     2
 72
     2
 73
     0
 90
        0
 40
-0.6
 41
-30.0
 62
     5
 63
     7
 74
     1
 91
        4
 64
     7
 65
   257
 75
     1
175
     1
 42
1.0
 92
        8
 66
     7
 43
1.0
 76
     1
 77
     6
 78
     2
 67
     7
 79
     5
170
     0
171
     0
290
     0
174
     0
 93
        1
 44
-50.0
173
     0
291
     1
 45
0.0
1001
ACAD
1000
AcDbSavedByObjectVersion
1070
     0
  0
VISUALSTYLE
  5
797
102
{ACAD_XDICTIONARY
360
806
102
}
102
{ACAD_REACTORS
330
77F
102
}
330
77F
100
AcDbVisualStyle
  2
EdgeColorOff
 70
    22
 71
     2
 72
     2
 73
     0
 90
        0
 40
-0.6
 41
-30.0
 62
     5
 63
     7
 74
     1
 91
        4
 64
     7
 65
   257
 75
     1
175
     1
 42
1.0
 92
        8
 66
     7
 43
1.0
 76
     1
 77
     6
 78
     2
 67
     7
 79
     5
170
     0
171
     0
290
     0
174
     0
 93
        1
 44
0.0
173
     0
291
     1
 45
0.0
1001
ACAD
1000
AcDbSavedByObjectVersion
1070
     0
  0
VISUALSTYLE
  5
78E
102
{ACAD_XDICTIONARY
360
7F4
102
}
102
{ACAD_REACTORS
330
77F
102
}
330
77F
100
AcDbVisualStyle
  2
Facepattern
 70
    15
 71
     2
 72
     2
 73
     0
 90
        0
 40
-0.6
 41
-30.0
 62
     5
 63
     7
 74
     1
 91
        4
 64
     7
 65
   257
 75
     1
175
     1
 42
1.0
 92
        8
 66
     7
 43
1.0
 76
     1
 77
     6
 78
     2
 67
     7
 79
     5
170
     0
171
     0
290
     0
174
     0
 93
        1
 44
0.0
173
     0
291
     1
 45
0.0
1001
ACAD
1000
AcDbSavedByObjectVersion
1070
     0
  0
VISUALSTYLE
  5
780
102
{ACAD_XDICTIONARY
360
7D8
102
}
102
{ACAD_REACTORS
330
77F
102
}
330
77F
100
AcDbVisualStyle
  2
Flat
 70
     0
 71
     2
 72
     1
 73
     1
 90
        2
 40
-0.6
 41
30.0
 62
     5
 63
     7
 74
     0
 91
        0
 64
     7
 65
   257
 75
     1
175
     1
 42
1.0
 92
        8
 66
     7
 43
1.0
 76
     1
 77
     6
 78
     2
 67
     7
 79
     5
170
     0
171
     0
290
     0
174
     0
 93
       13
 44
0.0
173
     0
291
     1
 45
0.0
1001
ACAD
1000
AcDbSavedByObjectVersion
1070
     0
  0
VISUALSTYLE
  5
781
102
{ACAD_XDICTIONARY
360
7DA
102
}
102
{ACAD_REACTORS
330
77F
102
}
330
77F
100
AcDbVisualStyle
  2
FlatWithEdges
 70
     1
 71
     2
 72
     1
 73
     1
 90
        2
 40
-0.6
 41
30.0
 62
     5
 63
     7
 74
     1
 91
        0
 64
     7
 65
   257
 75
     1
175
     1
 42
1.0
 92
        0
 66
   257
 43
1.0
 76
     1
 77
     6
 78
     2
 67
     7
 79
     5
170
     0
171
     0
290
     0
174
     0
 93
       13
 44
0.0
173
     0
291
     1
 45
0.0
1001
ACAD
1000
AcDbSavedByObjectVersion
1070
     0
  0
VISUALSTYLE
  5
782
102
{ACAD_XDICTIONARY
360
7DC
102
}
102
{ACAD_REACTORS
330
77F
102
}
330
77F
100
AcDbVisualStyle
  2
Gouraud
 70
     2
 71
     2
 72
     2
 73
     1
 90
        2
 40
-0.6
 41
30.0
 62
     5
 63
     7
 74
     0
 91
        0
 64
     7
 65
   257
 75
     1
175
     1
 42
1.0
 92
        0
 66
     7
 43
1.0
 76
     1
 77
     6
 78
     2
 67
     7
 79
     5
170
     0
171
     0
290
     0
174
     0
 93
       13
 44
0.0
173
     0
291
     1
 45
0.0
1001
ACAD
1000
AcDbSavedByObjectVersion
1070
     0
  0
VISUALSTYLE
  5
783
102
{ACAD_XDICTIONARY
360
7DE
102
}
102
{ACAD_REACTORS
330
77F
102
}
330
77F
100
AcDbVisualStyle
  2
GouraudWithEdges
 70
     3
 71
     2
 72
     2
 73
     1
 90
        2
 40
-0.6
 41
30.0
 62
     5
 63
     7
 74
     1
 91
        0
 64
     7
 65
   257
 75
     1
175
     1
 42
1.0
 92
        0
 66
   257
 43
1.0
 76
     1
 77
     6
 78
     2
 67
     7
 79
     5
170
     0
171
     0
290
     0
174
     0
 93
       13
 44
0.0
173
     0
291
     1
 45
0.0
1001
ACAD
1000
AcDbSavedByObjectVersion
1070
     0
  0
VISUALSTYLE
  5
787
102
{ACAD_XDICTIONARY
360
7E6
102
}
102
{ACAD_REACTORS
330
77F
102
}
330
77F
100
AcDbVisualStyle
  2
Hidden
 70
     6
 71
     1
 72
     2
 73
     2
 90
        0
 40
-0.6
 41
-30.0
 62
     5
 63
     7
 74
     2
 91
        2
 64
     7
 65
   257
 75
     2
175
     1
 42
40.0
 92
        0
 66
   257
 43
1.0
 76
     1
 77
     6
 78
     2
 67
     7
 79
     3
170
     0
171
     0
290
     0
174
     0
 93
        1
 44
0.0
173
     0
291
     0
 45
0.0
1001
ACAD
1000
AcDbSavedByObjectVersion
1070
     0
  0
VISUALSTYLE
  5
795
102
{ACAD_XDICTIONARY
360
802
102
}
102
{ACAD_REACTORS
330
77F
102
}
330
77F
100
AcDbVisualStyle
  2
JitterOff
 70
    20
 71
     2
 72
     2
 73
     0
 90
        0
 40
-0.6
 41
-30.0
 62
     5
 63
     7
 74
     1
 91
        4
 64
     7
 65
   257
 75
     1
175
     1
 42
1.0
 92
       10
 66
     7
 43
1.0
 76
     1
 77
     6
 78
     2
 67
     7
 79
     5
170
     0
171
     0
290
     0
174
     0
 93
        1
 44
0.0
173
     0
291
     1
 45
0.0
1001
ACAD
1000
AcDbSavedByObjectVersion
1070
     0
  0
VISUALSTYLE
  5
78D
102
{ACAD_XDICTIONARY
360
7F2
102
}
102
{ACAD_REACTORS
330
77F
102
}
330
77F
100
AcDbVisualStyle
  2
Linepattern
 70
    14
 71
     2
 72
     2
 73
     0
 90
        0
 40
-0.6
 41
-30.0
 62
     5
 63
     7
 74
     1
 91
        4
 64
     7
 65
   257
 75
     7
175
     7
 42
1.0
 92
        8
 66
     7
 43
1.0
 76
     1
 77
     6
 78
     2
 67
     7
 79
     5
170
     0
171
     0
290
     0
174
     0
 93
        1
 44
0.0
173
     0
291
     1
 45
0.0
1001
ACAD
1000
AcDbSavedByObjectVersion
1070
     0
  0
VISUALSTYLE
  5
796
102
{ACAD_XDICTIONARY
360
804
102
}
102
{ACAD_REACTORS
330
77F
102
}
330
77F
100
AcDbVisualStyle
  2
OverhangOff
 70
    21
 71
     2
 72
     2
 73
     0
 90
        0
 40
-0.6
 41
-30.0
 62
     5
 63
     7
 74
     1
 91
        4
 64
     7
 65
   257
 75
     1
175
     1
 42
1.0
 92
        9
 66
     7
 43
1.0
 76
     1
 77
     6
 78
     2
 67
     7
 79
     5
170
     0
171
     0
290
     0
174
     0
 93
        1
 44
0.0
173
     0
291
     1
 45
0.0
1001
ACAD
1000
AcDbSavedByObjectVersion
1070
     0
  0
VISUALSTYLE
  5
789
102
{ACAD_XDICTIONARY
360
7EA
102
}
102
{ACAD_REACTORS
330
77F
102
}
330
77F
100
AcDbVisualStyle
  2
Realistic
 70
     8
 71
     2
 72
     3
 73
     0
 90
        2
 40
-0.6
 41
30.0
 62
     5
 63
     7
 74
     0
 91
        0
 64
     7
 65
   257
 75
     1
175
     1
 42
1.0
 92
        8
 66
   257
 43
1.0
 76
     1
 77
     6
 78
     2
 67
     7
 79
     3
170
     0
171
     0
290
     0
174
     0
 93
       13
 44
0.0
173
     0
291
     0
 45
0.0
1001
ACAD
1000
AcDbSavedByObjectVersion
1070
     0
  0
VISUALSTYLE
  5
794
102
{ACAD_XDICTIONARY
360
800
102
}
102
{ACAD_REACTORS
330
77F
102
}
330
77F
100
AcDbVisualStyle
  2
Shaded
 70
    27
 71
     2
 72
     2
 73
     1
 90
        2
 40
-0.6
 41
30.0
 62
     5
 63
     7
 74
     0
 91
        4
 64
     7
 65
   257
 75
     1
175
     1
 42
1.0
 92
        8
 66
   257
 43
1.0
 76
     1
 77
     6
 78
     2
 67
     8
 79
     3
170
     0
171
     0
290
     0
174
     0
 93
        5
 44
0.0
173
     0
291
     0
 45
0.0
1001
ACAD
1000
AcDbSavedByObjectVersion
1070
     0
  0
VISUALSTYLE
  5
793
102
{ACAD_XDICTIONARY
360
7FE
102
}
102
{ACAD_REACTORS
330
77F
102
}
330
77F
100
AcDbVisualStyle
  2
Shaded with edges
 70
    26
 71
     2
 72
     2
 73
     1
 90
        2
 40
-0.6
 41
30.0
 62
     5
 63
     7
 74
     1
 91
       10
 64
     7
 65
   257
 75
     2
175
     1
 42
1.0
 92
        8
 66
   257
 43
1.0
 76
     1
 77
     6
 78
     2
 67
     7
 79
     3
170
     0
171
     0
290
     0
174
     0
 93
        5
 44
0.0
173
     0
291
     0
 45
0.0
1001
ACAD
1000
AcDbSavedByObjectVersion
1070
     0
  0
VISUALSTYLE
  5
790
102
{ACAD_XDICTIONARY
360
7F8
102
}
102
{ACAD_REACTORS
330
77F
102
}
330
77F
100
AcDbVisualStyle
  2
Shades of Gray
 70
    23
 71
     2
 72
     2
 73
     3
 90
        0
 40
-0.6
 41
-30.0
 62
     5
 63
     7
 74
     2
 91
        2
 64
     7
 65
     7
 75
     1
175
     1
 42
40.0
 92
        8
 66
     7
 43
1.0
 76
     1
 77
     6
 78
     2
 67
     7
 79
     3
170
     0
171
     0
290
     0
174
     0
 93
        1
 44
0.0
173
     0
291
     0
 45
0.0
1001
ACAD
1000
AcDbSavedByObjectVersion
1070
     0
  0
VISUALSTYLE
  5
791
102
{ACAD_XDICTIONARY
360
7FA
102
}
102
{ACAD_REACTORS
330
77F
102
}
330
77F
100
AcDbVisualStyle
  2
Sketchy
 70
    24
 71
     1
 72
     2
 73
     2
 90
        0
 40
-0.6
 41
-30.0
 62
     5
 63
     7
 74
     2
 91
        2
 64
     7
 65
     7
 75
     1
175
     1
 42
40.0
 92
       11
 66
     7
 43
1.0
 76
     1
 77
     6
 78
     2
 67
     7
 79
     6
170
     0
171
     0
290
     0
174
     0
 93
        1
 44
0.0
173
     0
291
     0
 45
0.0
1001
ACAD
1000
AcDbSavedByObjectVersion
1070
     0
  0
VISUALSTYLE
  5
78C
102
{ACAD_XDICTIONARY
360
7F0
102
}
102
{ACAD_REACTORS
330
77F
102
}
330
77F
100
AcDbVisualStyle
  2
Thicken
 70
    13
 71
     2
 72
     2
 73
     0
 90
        0
 40
-0.6
 41
-30.0
 62
     5
 63
     7
 74
     1
 91
        4
 64
     7
 65
   257
 75
     1
175
     1
 42
1.0
 92
       12
 66
     7
 43
1.0
 76
     1
 77
     6
 78
     2
 67
     7
 79
     5
170
     0
171
     0
290
     0
174
     0
 93
        1
 44
0.0
173
     0
291
     1
 45
0.0
1001
ACAD
1000
AcDbSavedByObjectVersion
1070
     0
  0
VISUALSTYLE
  5
786
102
{ACAD_XDICTIONARY
360
7E4
102
}
102
{ACAD_REACTORS
330
77F
102
}
330
77F
100
AcDbVisualStyle
  2
Wireframe
 70
     5
 71
     0
 72
     2
 73
     0
 90
        0
 40
-0.6
 41
-30.0
 62
     5
 63
     7
 74
     1
 91
        4
 64
     7
 65
   257
 75
     1
175
     1
 42
1.0
 92
        0
 66
   257
 43
1.0
 76
     1
 77
     6
 78
     2
 67
     7
 79
     3
170
     0
171
     0
290
     0
174
     0
 93
        1
 44
0.0
173
     0
291
     0
 45
0.0
1001
ACAD
1000
AcDbSavedByObjectVersion
1070
     0
  0
VISUALSTYLE
  5
792
102
{ACAD_XDICTIONARY
360
7FC
102
}
102
{ACAD_REACTORS
330
77F
102
}
330
77F
100
AcDbVisualStyle
  2
X-Ray
 70
    25
 71
     2
 72
     2
 73
     1
 90
        1
 40
0.5
 41
-30.0
 62
     5
 63
     7
 74
     1
 91
        0
 64
     7
 65
   257
 75
     1
175
     1
 42
1.0
 92
        8
 66
     7
 43
1.0
 76
     1
 77
     6
 78
     2
 67
     7
 79
     3
170
     0
171
     0
290
     0
174
     0
 93
       13
 44
0.0
173
     0
291
     0
 45
0.0
1001
ACAD
1000
AcDbSavedByObjectVersion
1070
     0
  0
DICTIONARYVAR
  5
7CB
102
{ACAD_REACTORS
330
7C6
102
}
330
7C6
100
DictionaryVariables
280
     0
  1
1:1
  0
DICTIONARYVAR
  5
7C8
102
{ACAD_REACTORS
330
7C6
102
}
330
7C6
100
DictionaryVariables
280
     0
  1
STANDARD
  0
DICTIONARYVAR
  5
7C7
102
{ACAD_REACTORS
330
7C6
102
}
330
7C6
100
DictionaryVariables
280
     0
  1
STANDARD
  0
DICTIONARYVAR
  5
7C9
102
{ACAD_REACTORS
330
7C6
102
}
330
7C6
100
DictionaryVariables
280
     0
  1
Imperial24
  0
DICTIONARYVAR
  5
7CA
102
{ACAD_REACTORS
330
7C6
102
}
330
7C6
100
DictionaryVariables
280
     0
  1
Imperial24
  0
DICTIONARYVAR
  5
7CE
102
{ACAD_REACTORS
330
7C6
102
}
330
7C6
100
DictionaryVariables
280
     0
  1
1
  0
DICTIONARYVAR
  5
7CD
102
{ACAD_REACTORS
330
7C6
102
}
330
7C6
100
DictionaryVariables
280
     0
  1
0
  0
DICTIONARYVAR
  5
7CC
102
{ACAD_REACTORS
330
7C6
102
}
330
7C6
100
DictionaryVariables
280
     0
  1
127
  0
DICTIONARYVAR
  5
7CF
102
{ACAD_REACTORS
330
7C6
102
}
330
7C6
100
DictionaryVariables
280
     0
  1
2
  0
DICTIONARY
  5
80C
330
7B2
100
AcDbDictionary
280
     1
281
     1
  3
ACAD_XREC_ROUNDTRIP
360
80D
  0
DICTIONARY
  5
80E
330
7B3
100
AcDbDictionary
280
     1
281
     1
  3
ACAD_XREC_ROUNDTRIP
360
80F
  0
DICTIONARY
  5
810
330
7B4
100
AcDbDictionary
280
     1
281
     1
  3
ACAD_XREC_ROUNDTRIP
360
811
  0
DICTIONARY
  5
770
330
76F
100
AcDbDictionary
280
     1
281
     1
  3
ACAD_XREC_ROUNDTRIP
360
7D6
  3
BUMPTILE
360
772
  3
DIFFUSETILE
360
771
  3
OPACITYTILE
360
775
  3
REFLECTIONTILE
360
774
  3
REFRACTIONTILE
360
776
  3
SPECULARTILE
360
773
  0
DICTIONARY
  5
768
330
767
100
AcDbDictionary
280
     1
281
     1
  3
ACAD_XREC_ROUNDTRIP
360
7D5
  3
BUMPTILE
360
76A
  3
DIFFUSETILE
360
769
  3
OPACITYTILE
360
76D
  3
REFLECTIONTILE
360
76C
  3
REFRACTIONTILE
360
76E
  3
SPECULARTILE
360
76B
  0
DICTIONARY
  5
778
330
777
100
AcDbDictionary
280
     1
281
     1
  3
ACAD_XREC_ROUNDTRIP
360
7D7
  3
BUMPTILE
360
77A
  3
DIFFUSETILE
360
779
  3
OPACITYTILE
360
77D
  3
REFLECTIONTILE
360
77C
  3
REFRACTIONTILE
360
77E
  3
SPECULARTILE
360
77B
  0
DICTIONARY
  5
80A
330
7B0
100
AcDbDictionary
280
     1
281
     1
  3
ACAD_XREC_ROUNDTRIP
360
80B
  0
DICTIONARY
  5
7D1
330
79A
100
AcDbDictionary
280
     1
281
     1
  3
ACAD_ROUNDTRIP_2008_TABLESTYLE_CELLSTYLEMAP
360
7D2
  3
ACAD_XREC_ROUNDTRIP
360
808
  0
DICTIONARY
  5
7E2
330
785
100
AcDbDictionary
280
     1
281
     1
  3
ACAD_XREC_ROUNDTRIP
360
7E3
  0
DICTIONARY
  5
7E0
330
784
100
AcDbDictionary
280
     1
281
     1
  3
ACAD_XREC_ROUNDTRIP
360
7E1
  0
DICTIONARY
  5
7EE
330
78B
100
AcDbDictionary
280
     1
281
     1
  3
ACAD_XREC_ROUNDTRIP
360
7EF
  0
DICTIONARY
  5
7F6
330
78F
100
AcDbDictionary
280
     1
281
     1
  3
ACAD_XREC_ROUNDTRIP
360
7F7
  0
DICTIONARY
  5
7E8
330
788
100
AcDbDictionary
280
     1
281
     1
  3
ACAD_XREC_ROUNDTRIP
360
7E9
  0
DICTIONARY
  5
7EC
330
78A
100
AcDbDictionary
280
     1
281
     1
  3
ACAD_XREC_ROUNDTRIP
360
7ED
  0
DICTIONARY
  5
806
330
797
100
AcDbDictionary
280
     1
281
     1
  3
ACAD_XREC_ROUNDTRIP
360
807
  0
DICTIONARY
  5
7F4
330
78E
100
AcDbDictionary
280
     1
281
     1
  3
ACAD_XREC_ROUNDTRIP
360
7F5
  0
DICTIONARY
  5
7D8
330
780
100
AcDbDictionary
280
     1
281
     1
  3
ACAD_XREC_ROUNDTRIP
360
7D9
  0
DICTIONARY
  5
7DA
330
781
100
AcDbDictionary
280
     1
281
     1
  3
ACAD_XREC_ROUNDTRIP
360
7DB
  0
DICTIONARY
  5
7DC
330
782
100
AcDbDictionary
280
     1
281
     1
  3
ACAD_XREC_ROUNDTRIP
360
7DD
  0
DICTIONARY
  5
7DE
330
783
100
AcDbDictionary
280
     1
281
     1
  3
ACAD_XREC_ROUNDTRIP
360
7DF
  0
DICTIONARY
  5
7E6
330
787
100
AcDbDictionary
280
     1
281
     1
  3
ACAD_XREC_ROUNDTRIP
360
7E7
  0
DICTIONARY
  5
802
330
795
100
AcDbDictionary
280
     1
281
     1
  3
ACAD_XREC_ROUNDTRIP
360
803
  0
DICTIONARY
  5
7F2
330
78D
100
AcDbDictionary
280
     1
281
     1
  3
ACAD_XREC_ROUNDTRIP
360
7F3
  0
DICTIONARY
  5
804
330
796
100
AcDbDictionary
280
     1
281
     1
  3
ACAD_XREC_ROUNDTRIP
360
805
  0
DICTIONARY
  5
7EA
330
789
100
AcDbDictionary
280
     1
281
     1
  3
ACAD_XREC_ROUNDTRIP
360
7EB
  0
DICTIONARY
  5
800
330
794
100
AcDbDictionary
280
     1
281
     1
  3
ACAD_XREC_ROUNDTRIP
360
801
  0
DICTIONARY
  5
7FE
330
793
100
AcDbDictionary
280
     1
281
     1
  3
ACAD_XREC_ROUNDTRIP
360
7FF
  0
DICTIONARY
  5
7F8
330
790
100
AcDbDictionary
280
     1
281
     1
  3
ACAD_XREC_ROUNDTRIP
360
7F9
  0
DICTIONARY
  5
7FA
330
791
100
AcDbDictionary
280
     1
281
     1
  3
ACAD_XREC_ROUNDTRIP
360
7FB
  0
DICTIONARY
  5
7F0
330
78C
100
AcDbDictionary
280
     1
281
     1
  3
ACAD_XREC_ROUNDTRIP
360
7F1
  0
DICTIONARY
  5
7E4
330
786
100
AcDbDictionary
280
     1
281
     1
  3
ACAD_XREC_ROUNDTRIP
360
7E5
  0
DICTIONARY
  5
7FC
330
792
100
AcDbDictionary
280
     1
281
     1
  3
ACAD_XREC_ROUNDTRIP
360
7FD
  0
XRECORD
  5
80D
102
{ACAD_REACTORS
330
80C
102
}
330
80C
100
AcDbXrecord
280
     1
102
DISPLAYNAME
  1
Imperial24
102
FLAGS
 90
        0
  0
XRECORD
  5
80F
102
{ACAD_REACTORS
330
80E
102
}
330
80E
100
AcDbXrecord
280
     1
102
SHADEPLOT
 70
     0
102
SHADEPLOTRESLEVEL
 70
     2
102
SHADEPLOTCUSTOMDPI
 70
   300
  0
XRECORD
  5
811
102
{ACAD_REACTORS
330
810
102
}
330
810
100
AcDbXrecord
280
     1
102
SHADEPLOT
 70
     0
102
SHADEPLOTRESLEVEL
 70
     2
102
SHADEPLOTCUSTOMDPI
 70
   300
  0
XRECORD
  5
7D6
102
{ACAD_REACTORS
330
770
102
}
330
770
100
AcDbXrecord
280
     1
102
MATERIAL
148
0.0
149
0.0
149
0.0
 93
        0
 94
      127
282
     0
 72
     0
 77
     0
171
     0
175
     0
179
     0
273
     0
  0
XRECORD
  5
772
102
{ACAD_REACTORS
330
770
102
}
330
770
100
AcDbXrecord
280
     1
270
     1
271
     1
  0
XRECORD
  5
771
102
{ACAD_REACTORS
330
770
102
}
330
770
100
AcDbXrecord
280
     1
270
     1
271
     1
  0
XRECORD
  5
775
102
{ACAD_REACTORS
330
770
102
}
330
770
100
AcDbXrecord
280
     1
270
     1
271
     1
  0
XRECORD
  5
774
102
{ACAD_REACTORS
330
770
102
}
330
770
100
AcDbXrecord
280
     1
270
     1
271
     1
  0
XRECORD
  5
776
102
{ACAD_REACTORS
330
770
102
}
330
770
100
AcDbXrecord
280
     1
270
     1
271
     1
  0
XRECORD
  5
773
102
{ACAD_REACTORS
330
770
102
}
330
770
100
AcDbXrecord
280
     1
270
     1
271
     1
  0
XRECORD
  5
7D5
102
{ACAD_REACTORS
330
768
102
}
330
768
100
AcDbXrecord
280
     1
102
MATERIAL
148
0.0
149
0.0
149
0.0
 93
        0
 94
      127
282
     0
 72
     0
 77
     0
171
     0
175
     0
179
     0
273
     0
  0
XRECORD
  5
76A
102
{ACAD_REACTORS
330
768
102
}
330
768
100
AcDbXrecord
280
     1
270
     1
271
     1
  0
XRECORD
  5
769
102
{ACAD_REACTORS
330
768
102
}
330
768
100
AcDbXrecord
280
     1
270
     1
271
     1
  0
XRECORD
  5
76D
102
{ACAD_REACTORS
330
768
102
}
330
768
100
AcDbXrecord
280
     1
270
     1
271
     1
  0
XRECORD
  5
76C
102
{ACAD_REACTORS
330
768
102
}
330
768
100
AcDbXrecord
280
     1
270
     1
271
     1
  0
XRECORD
  5
76E
102
{ACAD_REACTORS
330
768
102
}
330
768
100
AcDbXrecord
280
     1
270
     1
271
     1
  0
XRECORD
  5
76B
102
{ACAD_REACTORS
330
768
102
}
330
768
100
AcDbXrecord
280
     1
270
     1
271
     1
  0
XRECORD
  5
7D7
102
{ACAD_REACTORS
330
778
102
}
330
778
100
AcDbXrecord
280
     1
102
MATERIAL
148
0.0
149
0.0
149
0.0
 93
        0
 94
      127
282
     0
 72
     0
 77
     0
171
     0
175
     0
179
     0
273
     0
  0
XRECORD
  5
77A
102
{ACAD_REACTORS
330
778
102
}
330
778
100
AcDbXrecord
280
     1
270
     1
271
     1
  0
XRECORD
  5
779
102
{ACAD_REACTORS
330
778
102
}
330
778
100
AcDbXrecord
280
     1
270
     1
271
     1
  0
XRECORD
  5
77D
102
{ACAD_REACTORS
330
778
102
}
330
778
100
AcDbXrecord
280
     1
270
     1
271
     1
  0
XRECORD
  5
77C
102
{ACAD_REACTORS
330
778
102
}
330
778
100
AcDbXrecord
280
     1
270
     1
271
     1
  0
XRECORD
  5
77E
102
{ACAD_REACTORS
330
778
102
}
330
778
100
AcDbXrecord
280
     1
270
     1
271
     1
  0
XRECORD
  5
77B
102
{ACAD_REACTORS
330
778
102
}
330
778
100
AcDbXrecord
280
     1
270
     1
271
     1
  0
XRECORD
  5
80B
102
{ACAD_REACTORS
330
80A
102
}
330
80A
100
AcDbXrecord
280
     1
102
DISPLAYNAME
  1
Imperial24
102
FLAGS
 90
        0
  0
CELLSTYLEMAP
  5
7D2
102
{ACAD_REACTORS
330
7D1
102
}
330
7D1
100
AcDbCellStyleMap
 90
        3
300
CELLSTYLE
  1
TABLEFORMAT_BEGIN
 90
        5
170
     1
 91
        0
 92
    32768
 62
   257
 93
        1
300
CONTENTFORMAT
  1
CONTENTFORMAT_BEGIN
 90
        0
 91
        0
 92
      512
 93
        0
300

 40
0.0
140
1.0
 94
        5
 62
     0
340
F
144
0.25
309
CONTENTFORMAT_END
171
     0
 94
        0
309
TABLEFORMAT_END
  1
CELLSTYLE_BEGIN
 90
        1
 91
        1
300
_TITLE
309
CELLSTYLE_END
300
CELLSTYLE
  1
TABLEFORMAT_BEGIN
 90
        5
170
     1
 91
        0
 92
        0
 62
   257
 93
        1
300
CONTENTFORMAT
  1
CONTENTFORMAT_BEGIN
 90
        0
 91
        0
 92
      512
 93
        0
300

 40
0.0
140
1.0
 94
        5
 62
     0
340
F
144
0.18
309
CONTENTFORMAT_END
171
     0
 94
        0
309
TABLEFORMAT_END
  1
CELLSTYLE_BEGIN
 90
        2
 91
        1
300
_HEADER
309
CELLSTYLE_END
300
CELLSTYLE
  1
TABLEFORMAT_BEGIN
 90
        5
170
     1
 91
        0
 92
        0
 62
   257
 93
        1
300
CONTENTFORMAT
  1
CONTENTFORMAT_BEGIN
 90
        0
 91
        0
 92
      512
 93
        0
300

 40
0.0
140
1.0
 94
        2
 62
     0
340
F
144
0.18
309
CONTENTFORMAT_END
171
     0
 94
        0
309
TABLEFORMAT_END
  1
CELLSTYLE_BEGIN
 90
        3
 91
        2
300
_DATA
309
CELLSTYLE_END
  0
XRECORD
  5
808
102
{ACAD_REACTORS
330
7D1
102
}
330
7D1
100
AcDbXrecord
280
     1
102
ACAD_ROUNDTRIP_PRE2007_TABLESTYLE
 90
      512
 91
        0
  1

 92
      512
 93
        0
  2

 94
      512
 95
        0
  3

  0
XRECORD
  5
7E3
102
{ACAD_REACTORS
330
7E2
102
}
330
7E2
100
AcDbXrecord
280
     1
102
RTVSPost2010Prop28
280
     1
102
RTVSPost2010PropOp28
 70
     1
102
RTVSPost2010Prop29
280
     1
102
RTVSPost2010PropOp29
 70
     1
102
RTVSPost2010Prop30
280
     0
102
RTVSPost2010PropOp30
 70
     1
102
RTVSPost2010Prop31
280
     0
102
RTVSPost2010PropOp31
 70
     1
102
RTVSPost2010Prop32
280
     0
102
RTVSPost2010PropOp32
 70
     1
102
RTVSPost2010Prop33
280
     0
102
RTVSPost2010PropOp33
 70
     1
102
RTVSPost2010Prop34
280
     0
102
RTVSPost2010PropOp34
 70
     1
102
RTVSPost2010Prop35
280
     0
102
RTVSPost2010PropOp35
 70
     1
102
RTVSPost2010Prop36
280
     0
102
RTVSPost2010PropOp36
 70
     1
102
RTVSPost2010Prop37
 90
       50
102
RTVSPost2010PropOp37
 70
     1
102
RTVSPost2010Prop38
140
0.0
102
RTVSPost2010PropOp38
 70
     1
102
RTVSPost2010Prop39
140
1.0
102
RTVSPost2010PropOp39
 70
     1
102
RTVSPost2010Prop40
 90
        0
102
RTVSPost2010PropOp40
 70
     1
102
RTVSPost2010Prop41ColorIndex
 90
       18
102
RTVSPost2010Prop41ColorRGB
 90
        0
102
RTVSPost2010PropOp41
 70
     1
102
RTVSPost2010Prop42
 90
       50
102
RTVSPost2010PropOp42
 70
     1
102
RTVSPost2010Prop43
 90
        3
102
RTVSPost2010PropOp43
 70
     1
102
RTVSPost2010Prop44ColorIndex
 90
        5
102
RTVSPost2010Prop44ColorRGB
 90
      255
102
RTVSPost2010PropOp44
 70
     1
102
RTVSPost2010Prop45
280
     0
102
RTVSPost2010PropOp45
 70
     1
102
RTVSPost2010Prop46
 90
       50
102
RTVSPost2010PropOp46
 70
     1
102
RTVSPost2010Prop47
 90
       50
102
RTVSPost2010PropOp47
 70
     1
102
RTVSPost2010Prop48
 90
       50
102
RTVSPost2010PropOp48
 70
     1
102
RTVSPost2010Prop49
280
     0
102
RTVSPost2010PropOp49
 70
     1
102
RTVSPost2010Prop50
 90
       50
102
RTVSPost2010PropOp50
 70
     1
102
RTVSPost2010Prop51ColorIndex
 90
      256
102
RTVSPost2010Prop51ColorRGB
 90
-16777216
102
RTVSPost2010PropOp51
 70
     0
102
RTVSPost2010Prop52
140
1.0
102
RTVSPost2010PropOp52
 70
     0
102
RTVSPost2010Prop53
 90
        2
102
RTVSPost2010PropOp53
 70
     1
102
RTVSPost2010Prop54
  1
strokes_ogs.tif
102
RTVSPost2010PropOp54
 70
     1
102
RTVSPost2010Prop55
280
     0
102
RTVSPost2010PropOp55
 70
     1
102
RTVSPost2010Prop56
140
1.0
102
RTVSPost2010PropOp56
 70
     1
102
RTVSPost2010Prop57
140
1.0
102
RTVSPost2010PropOp57
 70
     1
102
RTVSPropertyOp0
 70
     1
102
RTVSPropertyOp1
 70
     1
102
RTVSPropertyOp2
 70
     1
102
RTVSPropertyOp3
 70
     1
102
RTVSPropertyOp4
 70
     1
102
RTVSPropertyOp5
 70
     1
102
RTVSPropertyOp6
 70
     1
102
RTVSPropertyOp7
 70
     1
102
RTVSPropertyOp8
 70
     1
102
RTVSPropertyOp9
 70
     1
102
RTVSPropertyOp10
 70
     1
102
RTVSPropertyOp11
 70
     1
102
RTVSPropertyOp12
 70
     1
102
RTVSPropertyOp13
 70
     1
102
RTVSPropertyOp14
 70
     1
102
RTVSPropertyOp15
 70
     1
102
RTVSPropertyOp16
 70
     1
102
RTVSPropertyOp17
 70
     1
102
RTVSPropertyOp18
 70
     1
102
RTVSPropertyOp19
 70
     1
102
RTVSPropertyOp20
 70
     1
102
RTVSPropertyOp21
 70
     1
102
RTVSPropertyOp22
 70
     1
102
RTVSPropertyOp23
 70
     1
102
RTVSPropertyOp24
 70
     1
102
RTVSPropertyOp25
 70
     1
102
RTVSPropertyOp26
 70
     1
102
RTVSPropertyOp27
 70
     1
102
RTVSPropertyOp28
 70
     1
102
RTVSPropertyOp29
 70
     1
102
RTVSPropertyOp30
 70
     1
102
RTVSPropertyOp31
 70
     1
102
RTVSPropertyOp32
 70
     1
102
RTVSPropertyOp33
 70
     1
102
RTVSPropertyOp34
 70
     1
102
RTVSPropertyOp35
 70
     1
102
RTVSPropertyOp36
 70
     1
102
RTVSPropertyOp37
 70
     1
102
RTVSPropertyOp38
 70
     1
102
RTVSPropertyOp39
 70
     1
102
RTVSPropertyOp40
 70
     1
102
RTVSPropertyOp41
 70
     1
102
RTVSPropertyOp42
 70
     1
102
RTVSPropertyOp43
 70
     1
102
RTVSPropertyOp44
 70
     1
102
RTVSPropertyOp45
 70
     1
102
RTVSPropertyOp46
 70
     1
102
RTVSPropertyOp47
 70
     1
102
RTVSPropertyOp48
 70
     1
102
RTVSPropertyOp49
 70
     1
102
RTVSPropertyOp50
 70
     1
102
RTVSPropertyOp51
 70
     0
102
RTVSPropertyOp52
 70
     0
102
RTVSPropertyOp53
 70
     1
102
RTVSPropertyOp54
 70
     1
102
RTVSPropertyOp55
 70
     1
102
RTVSPropertyOp56
 70
     1
102
RTVSPropertyOp57
 70
     1
102
RTVSPropertyOp58
 70
     1
102
RTVSPropertyOp59
 70
     1
102
RTVSPropertyOp60
 70
     1
102
RTVSPropertyOp61
 70
     1
102
RTVSPropertyOp62
 70
     1
  0
XRECORD
  5
7E1
102
{ACAD_REACTORS
330
7E0
102
}
330
7E0
100
AcDbXrecord
280
     1
102
RTVSPost2010Prop28
280
     0
102
RTVSPost2010PropOp28
 70
     1
102
RTVSPost2010Prop29
280
     1
102
RTVSPost2010PropOp29
 70
     1
102
RTVSPost2010Prop30
280
     1
102
RTVSPost2010PropOp30
 70
     1
102
RTVSPost2010Prop31
280
     0
102
RTVSPost2010PropOp31
 70
     1
102
RTVSPost2010Prop32
280
     0
102
RTVSPost2010PropOp32
 70
     1
102
RTVSPost2010Prop33
280
     0
102
RTVSPost2010PropOp33
 70
     1
102
RTVSPost2010Prop34
280
     0
102
RTVSPost2010PropOp34
 70
     1
102
RTVSPost2010Prop35
280
     0
102
RTVSPost2010PropOp35
 70
     1
102
RTVSPost2010Prop36
280
     0
102
RTVSPost2010PropOp36
 70
     1
102
RTVSPost2010Prop37
 90
       50
102
RTVSPost2010PropOp37
 70
     1
102
RTVSPost2010Prop38
140
0.0
102
RTVSPost2010PropOp38
 70
     1
102
RTVSPost2010Prop39
140
1.0
102
RTVSPost2010PropOp39
 70
     1
102
RTVSPost2010Prop40
 90
        0
102
RTVSPost2010PropOp40
 70
     1
102
RTVSPost2010Prop41ColorIndex
 90
       18
102
RTVSPost2010Prop41ColorRGB
 90
        0
102
RTVSPost2010PropOp41
 70
     1
102
RTVSPost2010Prop42
 90
       50
102
RTVSPost2010PropOp42
 70
     1
102
RTVSPost2010Prop43
 90
        3
102
RTVSPost2010PropOp43
 70
     1
102
RTVSPost2010Prop44ColorIndex
 90
        5
102
RTVSPost2010Prop44ColorRGB
 90
      255
102
RTVSPost2010PropOp44
 70
     1
102
RTVSPost2010Prop45
280
     0
102
RTVSPost2010PropOp45
 70
     1
102
RTVSPost2010Prop46
 90
       50
102
RTVSPost2010PropOp46
 70
     1
102
RTVSPost2010Prop47
 90
       50
102
RTVSPost2010PropOp47
 70
     1
102
RTVSPost2010Prop48
 90
       50
102
RTVSPost2010PropOp48
 70
     1
102
RTVSPost2010Prop49
280
     0
102
RTVSPost2010PropOp49
 70
     1
102
RTVSPost2010Prop50
 90
       50
102
RTVSPost2010PropOp50
 70
     1
102
RTVSPost2010Prop51ColorIndex
 90
      256
102
RTVSPost2010Prop51ColorRGB
 90
-16777216
102
RTVSPost2010PropOp51
 70
     0
102
RTVSPost2010Prop52
140
1.0
102
RTVSPost2010PropOp52
 70
     0
102
RTVSPost2010Prop53
 90
        2
102
RTVSPost2010PropOp53
 70
     1
102
RTVSPost2010Prop54
  1
strokes_ogs.tif
102
RTVSPost2010PropOp54
 70
     1
102
RTVSPost2010Prop55
280
     0
102
RTVSPost2010PropOp55
 70
     1
102
RTVSPost2010Prop56
140
1.0
102
RTVSPost2010PropOp56
 70
     1
102
RTVSPost2010Prop57
140
1.0
102
RTVSPost2010PropOp57
 70
     1
102
RTVSPropertyOp0
 70
     1
102
RTVSPropertyOp1
 70
     1
102
RTVSPropertyOp2
 70
     1
102
RTVSPropertyOp3
 70
     1
102
RTVSPropertyOp4
 70
     1
102
RTVSPropertyOp5
 70
     1
102
RTVSPropertyOp6
 70
     1
102
RTVSPropertyOp7
 70
     1
102
RTVSPropertyOp8
 70
     1
102
RTVSPropertyOp9
 70
     1
102
RTVSPropertyOp10
 70
     1
102
RTVSPropertyOp11
 70
     1
102
RTVSPropertyOp12
 70
     1
102
RTVSPropertyOp13
 70
     1
102
RTVSPropertyOp14
 70
     1
102
RTVSPropertyOp15
 70
     1
102
RTVSPropertyOp16
 70
     1
102
RTVSPropertyOp17
 70
     1
102
RTVSPropertyOp18
 70
     1
102
RTVSPropertyOp19
 70
     1
102
RTVSPropertyOp20
 70
     1
102
RTVSPropertyOp21
 70
     1
102
RTVSPropertyOp22
 70
     1
102
RTVSPropertyOp23
 70
     1
102
RTVSPropertyOp24
 70
     1
102
RTVSPropertyOp25
 70
     1
102
RTVSPropertyOp26
 70
     1
102
RTVSPropertyOp27
 70
     1
102
RTVSPropertyOp28
 70
     1
102
RTVSPropertyOp29
 70
     1
102
RTVSPropertyOp30
 70
     1
102
RTVSPropertyOp31
 70
     1
102
RTVSPropertyOp32
 70
     1
102
RTVSPropertyOp33
 70
     1
102
RTVSPropertyOp34
 70
     1
102
RTVSPropertyOp35
 70
     1
102
RTVSPropertyOp36
 70
     1
102
RTVSPropertyOp37
 70
     1
102
RTVSPropertyOp38
 70
     1
102
RTVSPropertyOp39
 70
     1
102
RTVSPropertyOp40
 70
     1
102
RTVSPropertyOp41
 70
     1
102
RTVSPropertyOp42
 70
     1
102
RTVSPropertyOp43
 70
     1
102
RTVSPropertyOp44
 70
     1
102
RTVSPropertyOp45
 70
     1
102
RTVSPropertyOp46
 70
     1
102
RTVSPropertyOp47
 70
     1
102
RTVSPropertyOp48
 70
     1
102
RTVSPropertyOp49
 70
     1
102
RTVSPropertyOp50
 70
     1
102
RTVSPropertyOp51
 70
     0
102
RTVSPropertyOp52
 70
     0
102
RTVSPropertyOp53
 70
     1
102
RTVSPropertyOp54
 70
     1
102
RTVSPropertyOp55
 70
     1
102
RTVSPropertyOp56
 70
     1
102
RTVSPropertyOp57
 70
     1
102
RTVSPropertyOp58
 70
     1
102
RTVSPropertyOp59
 70
     1
102
RTVSPropertyOp60
 70
     1
102
RTVSPropertyOp61
 70
     1
102
RTVSPropertyOp62
 70
     1
  0
XRECORD
  5
7EF
102
{ACAD_REACTORS
330
7EE
102
}
330
7EE
100
AcDbXrecord
280
     1
102
RTVSPost2010Prop28
280
     0
102
RTVSPost2010PropOp28
 70
     1
102
RTVSPost2010Prop29
280
     1
102
RTVSPost2010PropOp29
 70
     1
102
RTVSPost2010Prop30
280
     1
102
RTVSPost2010PropOp30
 70
     1
102
RTVSPost2010Prop31
280
     0
102
RTVSPost2010PropOp31
 70
     1
102
RTVSPost2010Prop32
280
     0
102
RTVSPost2010PropOp32
 70
     1
102
RTVSPost2010Prop33
280
     0
102
RTVSPost2010PropOp33
 70
     1
102
RTVSPost2010Prop34
280
     0
102
RTVSPost2010PropOp34
 70
     1
102
RTVSPost2010Prop35
280
     0
102
RTVSPost2010PropOp35
 70
     1
102
RTVSPost2010Prop36
280
     0
102
RTVSPost2010PropOp36
 70
     1
102
RTVSPost2010Prop37
 90
       50
102
RTVSPost2010PropOp37
 70
     1
102
RTVSPost2010Prop38
140
0.0
102
RTVSPost2010PropOp38
 70
     1
102
RTVSPost2010Prop39
140
1.0
102
RTVSPost2010PropOp39
 70
     1
102
RTVSPost2010Prop40
 90
        0
102
RTVSPost2010PropOp40
 70
     1
102
RTVSPost2010Prop41ColorIndex
 90
       18
102
RTVSPost2010Prop41ColorRGB
 90
        0
102
RTVSPost2010PropOp41
 70
     1
102
RTVSPost2010Prop42
 90
       50
102
RTVSPost2010PropOp42
 70
     1
102
RTVSPost2010Prop43
 90
        3
102
RTVSPost2010PropOp43
 70
     1
102
RTVSPost2010Prop44ColorIndex
 90
        5
102
RTVSPost2010Prop44ColorRGB
 90
      255
102
RTVSPost2010PropOp44
 70
     1
102
RTVSPost2010Prop45
280
     0
102
RTVSPost2010PropOp45
 70
     1
102
RTVSPost2010Prop46
 90
       50
102
RTVSPost2010PropOp46
 70
     1
102
RTVSPost2010Prop47
 90
       50
102
RTVSPost2010PropOp47
 70
     1
102
RTVSPost2010Prop48
 90
       50
102
RTVSPost2010PropOp48
 70
     1
102
RTVSPost2010Prop49
280
     0
102
RTVSPost2010PropOp49
 70
     1
102
RTVSPost2010Prop50
 90
       50
102
RTVSPost2010PropOp50
 70
     1
102
RTVSPost2010Prop51ColorIndex
 90
      256
102
RTVSPost2010Prop51ColorRGB
 90
-16777216
102
RTVSPost2010PropOp51
 70
     0
102
RTVSPost2010Prop52
140
1.0
102
RTVSPost2010PropOp52
 70
     0
102
RTVSPost2010Prop53
 90
        2
102
RTVSPost2010PropOp53
 70
     1
102
RTVSPost2010Prop54
  1
strokes_ogs.tif
102
RTVSPost2010PropOp54
 70
     1
102
RTVSPost2010Prop55
280
     0
102
RTVSPost2010PropOp55
 70
     1
102
RTVSPost2010Prop56
140
1.0
102
RTVSPost2010PropOp56
 70
     1
102
RTVSPost2010Prop57
140
1.0
102
RTVSPost2010PropOp57
 70
     1
102
RTVSPropertyOp0
 70
     1
102
RTVSPropertyOp1
 70
     1
102
RTVSPropertyOp2
 70
     1
102
RTVSPropertyOp3
 70
     1
102
RTVSPropertyOp4
 70
     1
102
RTVSPropertyOp5
 70
     1
102
RTVSPropertyOp6
 70
     1
102
RTVSPropertyOp7
 70
     1
102
RTVSPropertyOp8
 70
     1
102
RTVSPropertyOp9
 70
     1
102
RTVSPropertyOp10
 70
     1
102
RTVSPropertyOp11
 70
     1
102
RTVSPropertyOp12
 70
     1
102
RTVSPropertyOp13
 70
     1
102
RTVSPropertyOp14
 70
     1
102
RTVSPropertyOp15
 70
     1
102
RTVSPropertyOp16
 70
     1
102
RTVSPropertyOp17
 70
     1
102
RTVSPropertyOp18
 70
     1
102
RTVSPropertyOp19
 70
     1
102
RTVSPropertyOp20
 70
     1
102
RTVSPropertyOp21
 70
     1
102
RTVSPropertyOp22
 70
     1
102
RTVSPropertyOp23
 70
     1
102
RTVSPropertyOp24
 70
     1
102
RTVSPropertyOp25
 70
     1
102
RTVSPropertyOp26
 70
     1
102
RTVSPropertyOp27
 70
     1
102
RTVSPropertyOp28
 70
     1
102
RTVSPropertyOp29
 70
     1
102
RTVSPropertyOp30
 70
     1
102
RTVSPropertyOp31
 70
     1
102
RTVSPropertyOp32
 70
     1
102
RTVSPropertyOp33
 70
     1
102
RTVSPropertyOp34
 70
     1
102
RTVSPropertyOp35
 70
     1
102
RTVSPropertyOp36
 70
     1
102
RTVSPropertyOp37
 70
     1
102
RTVSPropertyOp38
 70
     1
102
RTVSPropertyOp39
 70
     1
102
RTVSPropertyOp40
 70
     1
102
RTVSPropertyOp41
 70
     1
102
RTVSPropertyOp42
 70
     1
102
RTVSPropertyOp43
 70
     1
102
RTVSPropertyOp44
 70
     1
102
RTVSPropertyOp45
 70
     1
102
RTVSPropertyOp46
 70
     1
102
RTVSPropertyOp47
 70
     1
102
RTVSPropertyOp48
 70
     1
102
RTVSPropertyOp49
 70
     1
102
RTVSPropertyOp50
 70
     1
102
RTVSPropertyOp51
 70
     0
102
RTVSPropertyOp52
 70
     0
102
RTVSPropertyOp53
 70
     1
102
RTVSPropertyOp54
 70
     1
102
RTVSPropertyOp55
 70
     1
102
RTVSPropertyOp56
 70
     1
102
RTVSPropertyOp57
 70
     1
102
RTVSPropertyOp58
 70
     1
102
RTVSPropertyOp59
 70
     1
102
RTVSPropertyOp60
 70
     1
102
RTVSPropertyOp61
 70
     1
102
RTVSPropertyOp62
 70
     1
  0
XRECORD
  5
7F7
102
{ACAD_REACTORS
330
7F6
102
}
330
7F6
100
AcDbXrecord
280
     1
102
RTVSPost2010Prop28
280
     0
102
RTVSPost2010PropOp28
 70
     1
102
RTVSPost2010Prop29
280
     1
102
RTVSPost2010PropOp29
 70
     1
102
RTVSPost2010Prop30
280
     1
102
RTVSPost2010PropOp30
 70
     1
102
RTVSPost2010Prop31
280
     0
102
RTVSPost2010PropOp31
 70
     1
102
RTVSPost2010Prop32
280
     0
102
RTVSPost2010PropOp32
 70
     1
102
RTVSPost2010Prop33
280
     0
102
RTVSPost2010PropOp33
 70
     1
102
RTVSPost2010Prop34
280
     0
102
RTVSPost2010PropOp34
 70
     1
102
RTVSPost2010Prop35
280
     0
102
RTVSPost2010PropOp35
 70
     1
102
RTVSPost2010Prop36
280
     0
102
RTVSPost2010PropOp36
 70
     1
102
RTVSPost2010Prop37
 90
       50
102
RTVSPost2010PropOp37
 70
     1
102
RTVSPost2010Prop38
140
0.0
102
RTVSPost2010PropOp38
 70
     1
102
RTVSPost2010Prop39
140
1.0
102
RTVSPost2010PropOp39
 70
     1
102
RTVSPost2010Prop40
 90
        0
102
RTVSPost2010PropOp40
 70
     1
102
RTVSPost2010Prop41ColorIndex
 90
       18
102
RTVSPost2010Prop41ColorRGB
 90
        0
102
RTVSPost2010PropOp41
 70
     1
102
RTVSPost2010Prop42
 90
       50
102
RTVSPost2010PropOp42
 70
     1
102
RTVSPost2010Prop43
 90
        3
102
RTVSPost2010PropOp43
 70
     1
102
RTVSPost2010Prop44ColorIndex
 90
        5
102
RTVSPost2010Prop44ColorRGB
 90
      255
102
RTVSPost2010PropOp44
 70
     1
102
RTVSPost2010Prop45
280
     0
102
RTVSPost2010PropOp45
 70
     1
102
RTVSPost2010Prop46
 90
       50
102
RTVSPost2010PropOp46
 70
     1
102
RTVSPost2010Prop47
 90
       50
102
RTVSPost2010PropOp47
 70
     1
102
RTVSPost2010Prop48
 90
       50
102
RTVSPost2010PropOp48
 70
     1
102
RTVSPost2010Prop49
280
     0
102
RTVSPost2010PropOp49
 70
     1
102
RTVSPost2010Prop50
 90
       50
102
RTVSPost2010PropOp50
 70
     1
102
RTVSPost2010Prop51ColorIndex
 90
      256
102
RTVSPost2010Prop51ColorRGB
 90
-16777216
102
RTVSPost2010PropOp51
 70
     0
102
RTVSPost2010Prop52
140
1.0
102
RTVSPost2010PropOp52
 70
     0
102
RTVSPost2010Prop53
 90
        2
102
RTVSPost2010PropOp53
 70
     1
102
RTVSPost2010Prop54
  1
strokes_ogs.tif
102
RTVSPost2010PropOp54
 70
     1
102
RTVSPost2010Prop55
280
     0
102
RTVSPost2010PropOp55
 70
     1
102
RTVSPost2010Prop56
140
1.0
102
RTVSPost2010PropOp56
 70
     1
102
RTVSPost2010Prop57
140
1.0
102
RTVSPost2010PropOp57
 70
     1
102
RTVSPropertyOp0
 70
     1
102
RTVSPropertyOp1
 70
     1
102
RTVSPropertyOp2
 70
     1
102
RTVSPropertyOp3
 70
     1
102
RTVSPropertyOp4
 70
     1
102
RTVSPropertyOp5
 70
     1
102
RTVSPropertyOp6
 70
     1
102
RTVSPropertyOp7
 70
     1
102
RTVSPropertyOp8
 70
     1
102
RTVSPropertyOp9
 70
     1
102
RTVSPropertyOp10
 70
     1
102
RTVSPropertyOp11
 70
     1
102
RTVSPropertyOp12
 70
     1
102
RTVSPropertyOp13
 70
     1
102
RTVSPropertyOp14
 70
     1
102
RTVSPropertyOp15
 70
     1
102
RTVSPropertyOp16
 70
     1
102
RTVSPropertyOp17
 70
     1
102
RTVSPropertyOp18
 70
     1
102
RTVSPropertyOp19
 70
     1
102
RTVSPropertyOp20
 70
     1
102
RTVSPropertyOp21
 70
     1
102
RTVSPropertyOp22
 70
     1
102
RTVSPropertyOp23
 70
     1
102
RTVSPropertyOp24
 70
     1
102
RTVSPropertyOp25
 70
     1
102
RTVSPropertyOp26
 70
     1
102
RTVSPropertyOp27
 70
     1
102
RTVSPropertyOp28
 70
     1
102
RTVSPropertyOp29
 70
     1
102
RTVSPropertyOp30
 70
     1
102
RTVSPropertyOp31
 70
     1
102
RTVSPropertyOp32
 70
     1
102
RTVSPropertyOp33
 70
     1
102
RTVSPropertyOp34
 70
     1
102
RTVSPropertyOp35
 70
     1
102
RTVSPropertyOp36
 70
     1
102
RTVSPropertyOp37
 70
     1
102
RTVSPropertyOp38
 70
     1
102
RTVSPropertyOp39
 70
     1
102
RTVSPropertyOp40
 70
     1
102
RTVSPropertyOp41
 70
     1
102
RTVSPropertyOp42
 70
     1
102
RTVSPropertyOp43
 70
     1
102
RTVSPropertyOp44
 70
     1
102
RTVSPropertyOp45
 70
     1
102
RTVSPropertyOp46
 70
     1
102
RTVSPropertyOp47
 70
     1
102
RTVSPropertyOp48
 70
     1
102
RTVSPropertyOp49
 70
     1
102
RTVSPropertyOp50
 70
     1
102
RTVSPropertyOp51
 70
     0
102
RTVSPropertyOp52
 70
     0
102
RTVSPropertyOp53
 70
     1
102
RTVSPropertyOp54
 70
     1
102
RTVSPropertyOp55
 70
     1
102
RTVSPropertyOp56
 70
     1
102
RTVSPropertyOp57
 70
     1
102
RTVSPropertyOp58
 70
     1
102
RTVSPropertyOp59
 70
     1
102
RTVSPropertyOp60
 70
     1
102
RTVSPropertyOp61
 70
     1
102
RTVSPropertyOp62
 70
     1
  0
XRECORD
  5
7E9
102
{ACAD_REACTORS
330
7E8
102
}
330
7E8
100
AcDbXrecord
280
     1
102
RTVSPost2010Prop28
280
     0
102
RTVSPost2010PropOp28
 70
     1
102
RTVSPost2010Prop29
280
     1
102
RTVSPost2010PropOp29
 70
     1
102
RTVSPost2010Prop30
280
     1
102
RTVSPost2010PropOp30
 70
     1
102
RTVSPost2010Prop31
280
     0
102
RTVSPost2010PropOp31
 70
     1
102
RTVSPost2010Prop32
280
     0
102
RTVSPost2010PropOp32
 70
     1
102
RTVSPost2010Prop33
280
     0
102
RTVSPost2010PropOp33
 70
     1
102
RTVSPost2010Prop34
280
     0
102
RTVSPost2010PropOp34
 70
     1
102
RTVSPost2010Prop35
280
     0
102
RTVSPost2010PropOp35
 70
     1
102
RTVSPost2010Prop36
280
     0
102
RTVSPost2010PropOp36
 70
     1
102
RTVSPost2010Prop37
 90
       50
102
RTVSPost2010PropOp37
 70
     1
102
RTVSPost2010Prop38
140
0.0
102
RTVSPost2010PropOp38
 70
     1
102
RTVSPost2010Prop39
140
1.0
102
RTVSPost2010PropOp39
 70
     1
102
RTVSPost2010Prop40
 90
        0
102
RTVSPost2010PropOp40
 70
     1
102
RTVSPost2010Prop41ColorIndex
 90
       18
102
RTVSPost2010Prop41ColorRGB
 90
        0
102
RTVSPost2010PropOp41
 70
     1
102
RTVSPost2010Prop42
 90
       50
102
RTVSPost2010PropOp42
 70
     1
102
RTVSPost2010Prop43
 90
        3
102
RTVSPost2010PropOp43
 70
     1
102
RTVSPost2010Prop44ColorIndex
 90
        5
102
RTVSPost2010Prop44ColorRGB
 90
      255
102
RTVSPost2010PropOp44
 70
     1
102
RTVSPost2010Prop45
280
     0
102
RTVSPost2010PropOp45
 70
     1
102
RTVSPost2010Prop46
 90
       50
102
RTVSPost2010PropOp46
 70
     1
102
RTVSPost2010Prop47
 90
       50
102
RTVSPost2010PropOp47
 70
     1
102
RTVSPost2010Prop48
 90
       50
102
RTVSPost2010PropOp48
 70
     1
102
RTVSPost2010Prop49
280
     0
102
RTVSPost2010PropOp49
 70
     1
102
RTVSPost2010Prop50
 90
       50
102
RTVSPost2010PropOp50
 70
     1
102
RTVSPost2010Prop51ColorIndex
 90
      256
102
RTVSPost2010Prop51ColorRGB
 90
-16777216
102
RTVSPost2010PropOp51
 70
     0
102
RTVSPost2010Prop52
140
1.0
102
RTVSPost2010PropOp52
 70
     0
102
RTVSPost2010Prop53
 90
        2
102
RTVSPost2010PropOp53
 70
     1
102
RTVSPost2010Prop54
  1
strokes_ogs.tif
102
RTVSPost2010PropOp54
 70
     1
102
RTVSPost2010Prop55
280
     0
102
RTVSPost2010PropOp55
 70
     1
102
RTVSPost2010Prop56
140
1.0
102
RTVSPost2010PropOp56
 70
     1
102
RTVSPost2010Prop57
140
1.0
102
RTVSPost2010PropOp57
 70
     1
102
RTVSPropertyOp0
 70
     1
102
RTVSPropertyOp1
 70
     1
102
RTVSPropertyOp2
 70
     1
102
RTVSPropertyOp3
 70
     1
102
RTVSPropertyOp4
 70
     1
102
RTVSPropertyOp5
 70
     1
102
RTVSPropertyOp6
 70
     1
102
RTVSPropertyOp7
 70
     1
102
RTVSPropertyOp8
 70
     1
102
RTVSPropertyOp9
 70
     1
102
RTVSPropertyOp10
 70
     1
102
RTVSPropertyOp11
 70
     1
102
RTVSPropertyOp12
 70
     1
102
RTVSPropertyOp13
 70
     1
102
RTVSPropertyOp14
 70
     1
102
RTVSPropertyOp15
 70
     1
102
RTVSPropertyOp16
 70
     1
102
RTVSPropertyOp17
 70
     1
102
RTVSPropertyOp18
 70
     1
102
RTVSPropertyOp19
 70
     1
102
RTVSPropertyOp20
 70
     1
102
RTVSPropertyOp21
 70
     1
102
RTVSPropertyOp22
 70
     1
102
RTVSPropertyOp23
 70
     1
102
RTVSPropertyOp24
 70
     1
102
RTVSPropertyOp25
 70
     1
102
RTVSPropertyOp26
 70
     1
102
RTVSPropertyOp27
 70
     1
102
RTVSPropertyOp28
 70
     1
102
RTVSPropertyOp29
 70
     1
102
RTVSPropertyOp30
 70
     1
102
RTVSPropertyOp31
 70
     1
102
RTVSPropertyOp32
 70
     1
102
RTVSPropertyOp33
 70
     1
102
RTVSPropertyOp34
 70
     1
102
RTVSPropertyOp35
 70
     1
102
RTVSPropertyOp36
 70
     1
102
RTVSPropertyOp37
 70
     1
102
RTVSPropertyOp38
 70
     1
102
RTVSPropertyOp39
 70
     1
102
RTVSPropertyOp40
 70
     1
102
RTVSPropertyOp41
 70
     1
102
RTVSPropertyOp42
 70
     1
102
RTVSPropertyOp43
 70
     1
102
RTVSPropertyOp44
 70
     1
102
RTVSPropertyOp45
 70
     1
102
RTVSPropertyOp46
 70
     1
102
RTVSPropertyOp47
 70
     1
102
RTVSPropertyOp48
 70
     1
102
RTVSPropertyOp49
 70
     1
102
RTVSPropertyOp50
 70
     1
102
RTVSPropertyOp51
 70
     0
102
RTVSPropertyOp52
 70
     0
102
RTVSPropertyOp53
 70
     1
102
RTVSPropertyOp54
 70
     1
102
RTVSPropertyOp55
 70
     1
102
RTVSPropertyOp56
 70
     1
102
RTVSPropertyOp57
 70
     1
102
RTVSPropertyOp58
 70
     1
102
RTVSPropertyOp59
 70
     1
102
RTVSPropertyOp60
 70
     1
102
RTVSPropertyOp61
 70
     1
102
RTVSPropertyOp62
 70
     1
  0
XRECORD
  5
7ED
102
{ACAD_REACTORS
330
7EC
102
}
330
7EC
100
AcDbXrecord
280
     1
102
RTVSPost2010Prop28
280
     0
102
RTVSPost2010PropOp28
 70
     1
102
RTVSPost2010Prop29
280
     1
102
RTVSPost2010PropOp29
 70
     1
102
RTVSPost2010Prop30
280
     1
102
RTVSPost2010PropOp30
 70
     1
102
RTVSPost2010Prop31
280
     0
102
RTVSPost2010PropOp31
 70
     1
102
RTVSPost2010Prop32
280
     0
102
RTVSPost2010PropOp32
 70
     1
102
RTVSPost2010Prop33
280
     0
102
RTVSPost2010PropOp33
 70
     1
102
RTVSPost2010Prop34
280
     0
102
RTVSPost2010PropOp34
 70
     1
102
RTVSPost2010Prop35
280
     0
102
RTVSPost2010PropOp35
 70
     1
102
RTVSPost2010Prop36
280
     0
102
RTVSPost2010PropOp36
 70
     1
102
RTVSPost2010Prop37
 90
       50
102
RTVSPost2010PropOp37
 70
     1
102
RTVSPost2010Prop38
140
0.0
102
RTVSPost2010PropOp38
 70
     1
102
RTVSPost2010Prop39
140
1.0
102
RTVSPost2010PropOp39
 70
     1
102
RTVSPost2010Prop40
 90
        0
102
RTVSPost2010PropOp40
 70
     1
102
RTVSPost2010Prop41ColorIndex
 90
       18
102
RTVSPost2010Prop41ColorRGB
 90
        0
102
RTVSPost2010PropOp41
 70
     1
102
RTVSPost2010Prop42
 90
       50
102
RTVSPost2010PropOp42
 70
     1
102
RTVSPost2010Prop43
 90
        3
102
RTVSPost2010PropOp43
 70
     1
102
RTVSPost2010Prop44ColorIndex
 90
        5
102
RTVSPost2010Prop44ColorRGB
 90
      255
102
RTVSPost2010PropOp44
 70
     1
102
RTVSPost2010Prop45
280
     0
102
RTVSPost2010PropOp45
 70
     1
102
RTVSPost2010Prop46
 90
       50
102
RTVSPost2010PropOp46
 70
     1
102
RTVSPost2010Prop47
 90
       50
102
RTVSPost2010PropOp47
 70
     1
102
RTVSPost2010Prop48
 90
       50
102
RTVSPost2010PropOp48
 70
     1
102
RTVSPost2010Prop49
280
     0
102
RTVSPost2010PropOp49
 70
     1
102
RTVSPost2010Prop50
 90
       50
102
RTVSPost2010PropOp50
 70
     1
102
RTVSPost2010Prop51ColorIndex
 90
      256
102
RTVSPost2010Prop51ColorRGB
 90
-16777216
102
RTVSPost2010PropOp51
 70
     0
102
RTVSPost2010Prop52
140
1.0
102
RTVSPost2010PropOp52
 70
     0
102
RTVSPost2010Prop53
 90
        2
102
RTVSPost2010PropOp53
 70
     1
102
RTVSPost2010Prop54
  1
strokes_ogs.tif
102
RTVSPost2010PropOp54
 70
     1
102
RTVSPost2010Prop55
280
     0
102
RTVSPost2010PropOp55
 70
     1
102
RTVSPost2010Prop56
140
1.0
102
RTVSPost2010PropOp56
 70
     1
102
RTVSPost2010Prop57
140
1.0
102
RTVSPost2010PropOp57
 70
     1
102
RTVSPropertyOp0
 70
     1
102
RTVSPropertyOp1
 70
     1
102
RTVSPropertyOp2
 70
     1
102
RTVSPropertyOp3
 70
     1
102
RTVSPropertyOp4
 70
     1
102
RTVSPropertyOp5
 70
     1
102
RTVSPropertyOp6
 70
     1
102
RTVSPropertyOp7
 70
     1
102
RTVSPropertyOp8
 70
     1
102
RTVSPropertyOp9
 70
     1
102
RTVSPropertyOp10
 70
     1
102
RTVSPropertyOp11
 70
     1
102
RTVSPropertyOp12
 70
     1
102
RTVSPropertyOp13
 70
     1
102
RTVSPropertyOp14
 70
     1
102
RTVSPropertyOp15
 70
     1
102
RTVSPropertyOp16
 70
     1
102
RTVSPropertyOp17
 70
     1
102
RTVSPropertyOp18
 70
     1
102
RTVSPropertyOp19
 70
     1
102
RTVSPropertyOp20
 70
     1
102
RTVSPropertyOp21
 70
     1
102
RTVSPropertyOp22
 70
     1
102
RTVSPropertyOp23
 70
     1
102
RTVSPropertyOp24
 70
     1
102
RTVSPropertyOp25
 70
     1
102
RTVSPropertyOp26
 70
     1
102
RTVSPropertyOp27
 70
     1
102
RTVSPropertyOp28
 70
     1
102
RTVSPropertyOp29
 70
     1
102
RTVSPropertyOp30
 70
     1
102
RTVSPropertyOp31
 70
     1
102
RTVSPropertyOp32
 70
     1
102
RTVSPropertyOp33
 70
     1
102
RTVSPropertyOp34
 70
     1
102
RTVSPropertyOp35
 70
     1
102
RTVSPropertyOp36
 70
     1
102
RTVSPropertyOp37
 70
     1
102
RTVSPropertyOp38
 70
     1
102
RTVSPropertyOp39
 70
     1
102
RTVSPropertyOp40
 70
     1
102
RTVSPropertyOp41
 70
     1
102
RTVSPropertyOp42
 70
     1
102
RTVSPropertyOp43
 70
     1
102
RTVSPropertyOp44
 70
     1
102
RTVSPropertyOp45
 70
     1
102
RTVSPropertyOp46
 70
     1
102
RTVSPropertyOp47
 70
     1
102
RTVSPropertyOp48
 70
     1
102
RTVSPropertyOp49
 70
     1
102
RTVSPropertyOp50
 70
     1
102
RTVSPropertyOp51
 70
     0
102
RTVSPropertyOp52
 70
     0
102
RTVSPropertyOp53
 70
     1
102
RTVSPropertyOp54
 70
     1
102
RTVSPropertyOp55
 70
     1
102
RTVSPropertyOp56
 70
     1
102
RTVSPropertyOp57
 70
     1
102
RTVSPropertyOp58
 70
     1
102
RTVSPropertyOp59
 70
     1
102
RTVSPropertyOp60
 70
     1
102
RTVSPropertyOp61
 70
     1
102
RTVSPropertyOp62
 70
     1
  0
XRECORD
  5
807
102
{ACAD_REACTORS
330
806
102
}
330
806
100
AcDbXrecord
280
     1
102
RTVSPost2010Prop28
280
     0
102
RTVSPost2010PropOp28
 70
     1
102
RTVSPost2010Prop29
280
     1
102
RTVSPost2010PropOp29
 70
     1
102
RTVSPost2010Prop30
280
     1
102
RTVSPost2010PropOp30
 70
     1
102
RTVSPost2010Prop31
280
     0
102
RTVSPost2010PropOp31
 70
     1
102
RTVSPost2010Prop32
280
     0
102
RTVSPost2010PropOp32
 70
     1
102
RTVSPost2010Prop33
280
     0
102
RTVSPost2010PropOp33
 70
     1
102
RTVSPost2010Prop34
280
     0
102
RTVSPost2010PropOp34
 70
     1
102
RTVSPost2010Prop35
280
     0
102
RTVSPost2010PropOp35
 70
     1
102
RTVSPost2010Prop36
280
     0
102
RTVSPost2010PropOp36
 70
     1
102
RTVSPost2010Prop37
 90
       50
102
RTVSPost2010PropOp37
 70
     0
102
RTVSPost2010Prop38
140
0.0
102
RTVSPost2010PropOp38
 70
     0
102
RTVSPost2010Prop39
140
1.0
102
RTVSPost2010PropOp39
 70
     0
102
RTVSPost2010Prop40
 90
        0
102
RTVSPost2010PropOp40
 70
     0
102
RTVSPost2010Prop41ColorIndex
 90
       18
102
RTVSPost2010Prop41ColorRGB
 90
        0
102
RTVSPost2010PropOp41
 70
     0
102
RTVSPost2010Prop42
 90
       50
102
RTVSPost2010PropOp42
 70
     0
102
RTVSPost2010Prop43
 90
        3
102
RTVSPost2010PropOp43
 70
     0
102
RTVSPost2010Prop44ColorIndex
 90
        5
102
RTVSPost2010Prop44ColorRGB
 90
      255
102
RTVSPost2010PropOp44
 70
     0
102
RTVSPost2010Prop45
280
     0
102
RTVSPost2010PropOp45
 70
     1
102
RTVSPost2010Prop46
 90
       50
102
RTVSPost2010PropOp46
 70
     0
102
RTVSPost2010Prop47
 90
       50
102
RTVSPost2010PropOp47
 70
     0
102
RTVSPost2010Prop48
 90
       50
102
RTVSPost2010PropOp48
 70
     0
102
RTVSPost2010Prop49
280
     0
102
RTVSPost2010PropOp49
 70
     1
102
RTVSPost2010Prop50
 90
       50
102
RTVSPost2010PropOp50
 70
     0
102
RTVSPost2010Prop51ColorIndex
 90
      256
102
RTVSPost2010Prop51ColorRGB
 90
-16777216
102
RTVSPost2010PropOp51
 70
     0
102
RTVSPost2010Prop52
140
1.0
102
RTVSPost2010PropOp52
 70
     0
102
RTVSPost2010Prop53
 90
        2
102
RTVSPost2010PropOp53
 70
     0
102
RTVSPost2010Prop54
  1
strokes_ogs.tif
102
RTVSPost2010PropOp54
 70
     0
102
RTVSPost2010Prop55
280
     0
102
RTVSPost2010PropOp55
 70
     1
102
RTVSPost2010Prop56
140
1.0
102
RTVSPost2010PropOp56
 70
     0
102
RTVSPost2010Prop57
140
1.0
102
RTVSPost2010PropOp57
 70
     0
102
RTVSPropertyOp0
 70
     0
102
RTVSPropertyOp1
 70
     0
102
RTVSPropertyOp2
 70
     0
102
RTVSPropertyOp3
 70
     0
102
RTVSPropertyOp4
 70
     0
102
RTVSPropertyOp5
 70
     0
102
RTVSPropertyOp6
 70
     0
102
RTVSPropertyOp7
 70
     0
102
RTVSPropertyOp8
 70
     0
102
RTVSPropertyOp9
 70
     0
102
RTVSPropertyOp10
 70
     0
102
RTVSPropertyOp11
 70
     0
102
RTVSPropertyOp12
 70
     0
102
RTVSPropertyOp13
 70
     0
102
RTVSPropertyOp14
 70
     2
102
RTVSPropertyOp15
 70
     0
102
RTVSPropertyOp16
 70
     0
102
RTVSPropertyOp17
 70
     0
102
RTVSPropertyOp18
 70
     0
102
RTVSPropertyOp19
 70
     0
102
RTVSPropertyOp20
 70
     0
102
RTVSPropertyOp21
 70
     0
102
RTVSPropertyOp22
 70
     0
102
RTVSPropertyOp23
 70
     0
102
RTVSPropertyOp24
 70
     0
102
RTVSPropertyOp25
 70
     0
102
RTVSPropertyOp26
 70
     0
102
RTVSPropertyOp27
 70
     0
102
RTVSPropertyOp28
 70
     1
102
RTVSPropertyOp29
 70
     1
102
RTVSPropertyOp30
 70
     1
102
RTVSPropertyOp31
 70
     1
102
RTVSPropertyOp32
 70
     1
102
RTVSPropertyOp33
 70
     1
102
RTVSPropertyOp34
 70
     1
102
RTVSPropertyOp35
 70
     1
102
RTVSPropertyOp36
 70
     1
102
RTVSPropertyOp37
 70
     0
102
RTVSPropertyOp38
 70
     0
102
RTVSPropertyOp39
 70
     0
102
RTVSPropertyOp40
 70
     0
102
RTVSPropertyOp41
 70
     0
102
RTVSPropertyOp42
 70
     0
102
RTVSPropertyOp43
 70
     0
102
RTVSPropertyOp44
 70
     0
102
RTVSPropertyOp45
 70
     1
102
RTVSPropertyOp46
 70
     0
102
RTVSPropertyOp47
 70
     0
102
RTVSPropertyOp48
 70
     0
102
RTVSPropertyOp49
 70
     1
102
RTVSPropertyOp50
 70
     0
102
RTVSPropertyOp51
 70
     0
102
RTVSPropertyOp52
 70
     0
102
RTVSPropertyOp53
 70
     0
102
RTVSPropertyOp54
 70
     0
102
RTVSPropertyOp55
 70
     1
102
RTVSPropertyOp56
 70
     0
102
RTVSPropertyOp57
 70
     0
102
RTVSPropertyOp58
 70
     0
102
RTVSPropertyOp59
 70
     0
102
RTVSPropertyOp60
 70
     0
102
RTVSPropertyOp61
 70
     0
102
RTVSPropertyOp62
 70
     0
  0
XRECORD
  5
7F5
102
{ACAD_REACTORS
330
7F4
102
}
330
7F4
100
AcDbXrecord
280
     1
102
RTVSPost2010Prop28
280
     0
102
RTVSPost2010PropOp28
 70
     1
102
RTVSPost2010Prop29
280
     1
102
RTVSPost2010PropOp29
 70
     1
102
RTVSPost2010Prop30
280
     1
102
RTVSPost2010PropOp30
 70
     1
102
RTVSPost2010Prop31
280
     0
102
RTVSPost2010PropOp31
 70
     1
102
RTVSPost2010Prop32
280
     0
102
RTVSPost2010PropOp32
 70
     1
102
RTVSPost2010Prop33
280
     0
102
RTVSPost2010PropOp33
 70
     1
102
RTVSPost2010Prop34
280
     0
102
RTVSPost2010PropOp34
 70
     1
102
RTVSPost2010Prop35
280
     0
102
RTVSPost2010PropOp35
 70
     1
102
RTVSPost2010Prop36
280
     0
102
RTVSPost2010PropOp36
 70
     1
102
RTVSPost2010Prop37
 90
       50
102
RTVSPost2010PropOp37
 70
     1
102
RTVSPost2010Prop38
140
0.0
102
RTVSPost2010PropOp38
 70
     1
102
RTVSPost2010Prop39
140
1.0
102
RTVSPost2010PropOp39
 70
     1
102
RTVSPost2010Prop40
 90
        0
102
RTVSPost2010PropOp40
 70
     1
102
RTVSPost2010Prop41ColorIndex
 90
       18
102
RTVSPost2010Prop41ColorRGB
 90
        0
102
RTVSPost2010PropOp41
 70
     1
102
RTVSPost2010Prop42
 90
       50
102
RTVSPost2010PropOp42
 70
     1
102
RTVSPost2010Prop43
 90
        3
102
RTVSPost2010PropOp43
 70
     1
102
RTVSPost2010Prop44ColorIndex
 90
        5
102
RTVSPost2010Prop44ColorRGB
 90
      255
102
RTVSPost2010PropOp44
 70
     1
102
RTVSPost2010Prop45
280
     0
102
RTVSPost2010PropOp45
 70
     1
102
RTVSPost2010Prop46
 90
       50
102
RTVSPost2010PropOp46
 70
     1
102
RTVSPost2010Prop47
 90
       50
102
RTVSPost2010PropOp47
 70
     1
102
RTVSPost2010Prop48
 90
       50
102
RTVSPost2010PropOp48
 70
     1
102
RTVSPost2010Prop49
280
     0
102
RTVSPost2010PropOp49
 70
     1
102
RTVSPost2010Prop50
 90
       50
102
RTVSPost2010PropOp50
 70
     1
102
RTVSPost2010Prop51ColorIndex
 90
      256
102
RTVSPost2010Prop51ColorRGB
 90
-16777216
102
RTVSPost2010PropOp51
 70
     0
102
RTVSPost2010Prop52
140
1.0
102
RTVSPost2010PropOp52
 70
     0
102
RTVSPost2010Prop53
 90
        2
102
RTVSPost2010PropOp53
 70
     1
102
RTVSPost2010Prop54
  1
strokes_ogs.tif
102
RTVSPost2010PropOp54
 70
     1
102
RTVSPost2010Prop55
280
     0
102
RTVSPost2010PropOp55
 70
     1
102
RTVSPost2010Prop56
140
1.0
102
RTVSPost2010PropOp56
 70
     1
102
RTVSPost2010Prop57
140
1.0
102
RTVSPost2010PropOp57
 70
     1
102
RTVSPropertyOp0
 70
     1
102
RTVSPropertyOp1
 70
     1
102
RTVSPropertyOp2
 70
     1
102
RTVSPropertyOp3
 70
     1
102
RTVSPropertyOp4
 70
     1
102
RTVSPropertyOp5
 70
     1
102
RTVSPropertyOp6
 70
     1
102
RTVSPropertyOp7
 70
     1
102
RTVSPropertyOp8
 70
     1
102
RTVSPropertyOp9
 70
     1
102
RTVSPropertyOp10
 70
     1
102
RTVSPropertyOp11
 70
     1
102
RTVSPropertyOp12
 70
     1
102
RTVSPropertyOp13
 70
     1
102
RTVSPropertyOp14
 70
     1
102
RTVSPropertyOp15
 70
     1
102
RTVSPropertyOp16
 70
     1
102
RTVSPropertyOp17
 70
     1
102
RTVSPropertyOp18
 70
     1
102
RTVSPropertyOp19
 70
     1
102
RTVSPropertyOp20
 70
     1
102
RTVSPropertyOp21
 70
     1
102
RTVSPropertyOp22
 70
     1
102
RTVSPropertyOp23
 70
     1
102
RTVSPropertyOp24
 70
     1
102
RTVSPropertyOp25
 70
     1
102
RTVSPropertyOp26
 70
     1
102
RTVSPropertyOp27
 70
     1
102
RTVSPropertyOp28
 70
     1
102
RTVSPropertyOp29
 70
     1
102
RTVSPropertyOp30
 70
     1
102
RTVSPropertyOp31
 70
     1
102
RTVSPropertyOp32
 70
     1
102
RTVSPropertyOp33
 70
     1
102
RTVSPropertyOp34
 70
     1
102
RTVSPropertyOp35
 70
     1
102
RTVSPropertyOp36
 70
     1
102
RTVSPropertyOp37
 70
     1
102
RTVSPropertyOp38
 70
     1
102
RTVSPropertyOp39
 70
     1
102
RTVSPropertyOp40
 70
     1
102
RTVSPropertyOp41
 70
     1
102
RTVSPropertyOp42
 70
     1
102
RTVSPropertyOp43
 70
     1
102
RTVSPropertyOp44
 70
     1
102
RTVSPropertyOp45
 70
     1
102
RTVSPropertyOp46
 70
     1
102
RTVSPropertyOp47
 70
     1
102
RTVSPropertyOp48
 70
     1
102
RTVSPropertyOp49
 70
     1
102
RTVSPropertyOp50
 70
     1
102
RTVSPropertyOp51
 70
     0
102
RTVSPropertyOp52
 70
     0
102
RTVSPropertyOp53
 70
     1
102
RTVSPropertyOp54
 70
     1
102
RTVSPropertyOp55
 70
     1
102
RTVSPropertyOp56
 70
     1
102
RTVSPropertyOp57
 70
     1
102
RTVSPropertyOp58
 70
     1
102
RTVSPropertyOp59
 70
     1
102
RTVSPropertyOp60
 70
     1
102
RTVSPropertyOp61
 70
     1
102
RTVSPropertyOp62
 70
     1
  0
XRECORD
  5
7D9
102
{ACAD_REACTORS
330
7D8
102
}
330
7D8
100
AcDbXrecord
280
     1
102
RTVSPost2010Prop28
280
     0
102
RTVSPost2010PropOp28
 70
     1
102
RTVSPost2010Prop29
280
     1
102
RTVSPost2010PropOp29
 70
     1
102
RTVSPost2010Prop30
280
     1
102
RTVSPost2010PropOp30
 70
     1
102
RTVSPost2010Prop31
280
     0
102
RTVSPost2010PropOp31
 70
     1
102
RTVSPost2010Prop32
280
     0
102
RTVSPost2010PropOp32
 70
     1
102
RTVSPost2010Prop33
280
     0
102
RTVSPost2010PropOp33
 70
     1
102
RTVSPost2010Prop34
280
     0
102
RTVSPost2010PropOp34
 70
     1
102
RTVSPost2010Prop35
280
     0
102
RTVSPost2010PropOp35
 70
     1
102
RTVSPost2010Prop36
280
     0
102
RTVSPost2010PropOp36
 70
     1
102
RTVSPost2010Prop37
 90
       50
102
RTVSPost2010PropOp37
 70
     1
102
RTVSPost2010Prop38
140
0.0
102
RTVSPost2010PropOp38
 70
     1
102
RTVSPost2010Prop39
140
1.0
102
RTVSPost2010PropOp39
 70
     1
102
RTVSPost2010Prop40
 90
        0
102
RTVSPost2010PropOp40
 70
     1
102
RTVSPost2010Prop41ColorIndex
 90
       18
102
RTVSPost2010Prop41ColorRGB
 90
        0
102
RTVSPost2010PropOp41
 70
     1
102
RTVSPost2010Prop42
 90
       50
102
RTVSPost2010PropOp42
 70
     1
102
RTVSPost2010Prop43
 90
        3
102
RTVSPost2010PropOp43
 70
     1
102
RTVSPost2010Prop44ColorIndex
 90
        5
102
RTVSPost2010Prop44ColorRGB
 90
      255
102
RTVSPost2010PropOp44
 70
     1
102
RTVSPost2010Prop45
280
     0
102
RTVSPost2010PropOp45
 70
     1
102
RTVSPost2010Prop46
 90
       50
102
RTVSPost2010PropOp46
 70
     1
102
RTVSPost2010Prop47
 90
       50
102
RTVSPost2010PropOp47
 70
     1
102
RTVSPost2010Prop48
 90
       50
102
RTVSPost2010PropOp48
 70
     1
102
RTVSPost2010Prop49
280
     0
102
RTVSPost2010PropOp49
 70
     1
102
RTVSPost2010Prop50
 90
       50
102
RTVSPost2010PropOp50
 70
     1
102
RTVSPost2010Prop51ColorIndex
 90
      256
102
RTVSPost2010Prop51ColorRGB
 90
-16777216
102
RTVSPost2010PropOp51
 70
     0
102
RTVSPost2010Prop52
140
1.0
102
RTVSPost2010PropOp52
 70
     0
102
RTVSPost2010Prop53
 90
        2
102
RTVSPost2010PropOp53
 70
     1
102
RTVSPost2010Prop54
  1
strokes_ogs.tif
102
RTVSPost2010PropOp54
 70
     1
102
RTVSPost2010Prop55
280
     0
102
RTVSPost2010PropOp55
 70
     1
102
RTVSPost2010Prop56
140
1.0
102
RTVSPost2010PropOp56
 70
     1
102
RTVSPost2010Prop57
140
1.0
102
RTVSPost2010PropOp57
 70
     1
102
RTVSPropertyOp0
 70
     1
102
RTVSPropertyOp1
 70
     1
102
RTVSPropertyOp2
 70
     1
102
RTVSPropertyOp3
 70
     1
102
RTVSPropertyOp4
 70
     1
102
RTVSPropertyOp5
 70
     1
102
RTVSPropertyOp6
 70
     1
102
RTVSPropertyOp7
 70
     1
102
RTVSPropertyOp8
 70
     1
102
RTVSPropertyOp9
 70
     1
102
RTVSPropertyOp10
 70
     1
102
RTVSPropertyOp11
 70
     1
102
RTVSPropertyOp12
 70
     1
102
RTVSPropertyOp13
 70
     1
102
RTVSPropertyOp14
 70
     1
102
RTVSPropertyOp15
 70
     1
102
RTVSPropertyOp16
 70
     1
102
RTVSPropertyOp17
 70
     1
102
RTVSPropertyOp18
 70
     1
102
RTVSPropertyOp19
 70
     1
102
RTVSPropertyOp20
 70
     1
102
RTVSPropertyOp21
 70
     1
102
RTVSPropertyOp22
 70
     1
102
RTVSPropertyOp23
 70
     1
102
RTVSPropertyOp24
 70
     1
102
RTVSPropertyOp25
 70
     1
102
RTVSPropertyOp26
 70
     1
102
RTVSPropertyOp27
 70
     1
102
RTVSPropertyOp28
 70
     1
102
RTVSPropertyOp29
 70
     1
102
RTVSPropertyOp30
 70
     1
102
RTVSPropertyOp31
 70
     1
102
RTVSPropertyOp32
 70
     1
102
RTVSPropertyOp33
 70
     1
102
RTVSPropertyOp34
 70
     1
102
RTVSPropertyOp35
 70
     1
102
RTVSPropertyOp36
 70
     1
102
RTVSPropertyOp37
 70
     1
102
RTVSPropertyOp38
 70
     1
102
RTVSPropertyOp39
 70
     1
102
RTVSPropertyOp40
 70
     1
102
RTVSPropertyOp41
 70
     1
102
RTVSPropertyOp42
 70
     1
102
RTVSPropertyOp43
 70
     1
102
RTVSPropertyOp44
 70
     1
102
RTVSPropertyOp45
 70
     1
102
RTVSPropertyOp46
 70
     1
102
RTVSPropertyOp47
 70
     1
102
RTVSPropertyOp48
 70
     1
102
RTVSPropertyOp49
 70
     1
102
RTVSPropertyOp50
 70
     1
102
RTVSPropertyOp51
 70
     0
102
RTVSPropertyOp52
 70
     0
102
RTVSPropertyOp53
 70
     1
102
RTVSPropertyOp54
 70
     1
102
RTVSPropertyOp55
 70
     1
102
RTVSPropertyOp56
 70
     1
102
RTVSPropertyOp57
 70
     1
102
RTVSPropertyOp58
 70
     1
102
RTVSPropertyOp59
 70
     1
102
RTVSPropertyOp60
 70
     1
102
RTVSPropertyOp61
 70
     1
102
RTVSPropertyOp62
 70
     1
  0
XRECORD
  5
7DB
102
{ACAD_REACTORS
330
7DA
102
}
330
7DA
100
AcDbXrecord
280
     1
102
RTVSPost2010Prop28
280
     0
102
RTVSPost2010PropOp28
 70
     1
102
RTVSPost2010Prop29
280
     1
102
RTVSPost2010PropOp29
 70
     1
102
RTVSPost2010Prop30
280
     1
102
RTVSPost2010PropOp30
 70
     1
102
RTVSPost2010Prop31
280
     0
102
RTVSPost2010PropOp31
 70
     1
102
RTVSPost2010Prop32
280
     0
102
RTVSPost2010PropOp32
 70
     1
102
RTVSPost2010Prop33
280
     0
102
RTVSPost2010PropOp33
 70
     1
102
RTVSPost2010Prop34
280
     0
102
RTVSPost2010PropOp34
 70
     1
102
RTVSPost2010Prop35
280
     0
102
RTVSPost2010PropOp35
 70
     1
102
RTVSPost2010Prop36
280
     0
102
RTVSPost2010PropOp36
 70
     1
102
RTVSPost2010Prop37
 90
       50
102
RTVSPost2010PropOp37
 70
     1
102
RTVSPost2010Prop38
140
0.0
102
RTVSPost2010PropOp38
 70
     1
102
RTVSPost2010Prop39
140
1.0
102
RTVSPost2010PropOp39
 70
     1
102
RTVSPost2010Prop40
 90
        0
102
RTVSPost2010PropOp40
 70
     1
102
RTVSPost2010Prop41ColorIndex
 90
       18
102
RTVSPost2010Prop41ColorRGB
 90
        0
102
RTVSPost2010PropOp41
 70
     1
102
RTVSPost2010Prop42
 90
       50
102
RTVSPost2010PropOp42
 70
     1
102
RTVSPost2010Prop43
 90
        3
102
RTVSPost2010PropOp43
 70
     1
102
RTVSPost2010Prop44ColorIndex
 90
        5
102
RTVSPost2010Prop44ColorRGB
 90
      255
102
RTVSPost2010PropOp44
 70
     1
102
RTVSPost2010Prop45
280
     0
102
RTVSPost2010PropOp45
 70
     1
102
RTVSPost2010Prop46
 90
       50
102
RTVSPost2010PropOp46
 70
     1
102
RTVSPost2010Prop47
 90
       50
102
RTVSPost2010PropOp47
 70
     1
102
RTVSPost2010Prop48
 90
       50
102
RTVSPost2010PropOp48
 70
     1
102
RTVSPost2010Prop49
280
     0
102
RTVSPost2010PropOp49
 70
     1
102
RTVSPost2010Prop50
 90
       50
102
RTVSPost2010PropOp50
 70
     1
102
RTVSPost2010Prop51ColorIndex
 90
      256
102
RTVSPost2010Prop51ColorRGB
 90
-16777216
102
RTVSPost2010PropOp51
 70
     0
102
RTVSPost2010Prop52
140
1.0
102
RTVSPost2010PropOp52
 70
     0
102
RTVSPost2010Prop53
 90
        2
102
RTVSPost2010PropOp53
 70
     1
102
RTVSPost2010Prop54
  1
strokes_ogs.tif
102
RTVSPost2010PropOp54
 70
     1
102
RTVSPost2010Prop55
280
     0
102
RTVSPost2010PropOp55
 70
     1
102
RTVSPost2010Prop56
140
1.0
102
RTVSPost2010PropOp56
 70
     1
102
RTVSPost2010Prop57
140
1.0
102
RTVSPost2010PropOp57
 70
     1
102
RTVSPropertyOp0
 70
     1
102
RTVSPropertyOp1
 70
     1
102
RTVSPropertyOp2
 70
     1
102
RTVSPropertyOp3
 70
     1
102
RTVSPropertyOp4
 70
     1
102
RTVSPropertyOp5
 70
     1
102
RTVSPropertyOp6
 70
     1
102
RTVSPropertyOp7
 70
     1
102
RTVSPropertyOp8
 70
     1
102
RTVSPropertyOp9
 70
     1
102
RTVSPropertyOp10
 70
     1
102
RTVSPropertyOp11
 70
     1
102
RTVSPropertyOp12
 70
     1
102
RTVSPropertyOp13
 70
     1
102
RTVSPropertyOp14
 70
     1
102
RTVSPropertyOp15
 70
     1
102
RTVSPropertyOp16
 70
     1
102
RTVSPropertyOp17
 70
     1
102
RTVSPropertyOp18
 70
     1
102
RTVSPropertyOp19
 70
     1
102
RTVSPropertyOp20
 70
     1
102
RTVSPropertyOp21
 70
     1
102
RTVSPropertyOp22
 70
     1
102
RTVSPropertyOp23
 70
     1
102
RTVSPropertyOp24
 70
     1
102
RTVSPropertyOp25
 70
     1
102
RTVSPropertyOp26
 70
     1
102
RTVSPropertyOp27
 70
     1
102
RTVSPropertyOp28
 70
     1
102
RTVSPropertyOp29
 70
     1
102
RTVSPropertyOp30
 70
     1
102
RTVSPropertyOp31
 70
     1
102
RTVSPropertyOp32
 70
     1
102
RTVSPropertyOp33
 70
     1
102
RTVSPropertyOp34
 70
     1
102
RTVSPropertyOp35
 70
     1
102
RTVSPropertyOp36
 70
     1
102
RTVSPropertyOp37
 70
     1
102
RTVSPropertyOp38
 70
     1
102
RTVSPropertyOp39
 70
     1
102
RTVSPropertyOp40
 70
     1
102
RTVSPropertyOp41
 70
     1
102
RTVSPropertyOp42
 70
     1
102
RTVSPropertyOp43
 70
     1
102
RTVSPropertyOp44
 70
     1
102
RTVSPropertyOp45
 70
     1
102
RTVSPropertyOp46
 70
     1
102
RTVSPropertyOp47
 70
     1
102
RTVSPropertyOp48
 70
     1
102
RTVSPropertyOp49
 70
     1
102
RTVSPropertyOp50
 70
     1
102
RTVSPropertyOp51
 70
     0
102
RTVSPropertyOp52
 70
     0
102
RTVSPropertyOp53
 70
     1
102
RTVSPropertyOp54
 70
     1
102
RTVSPropertyOp55
 70
     1
102
RTVSPropertyOp56
 70
     1
102
RTVSPropertyOp57
 70
     1
102
RTVSPropertyOp58
 70
     1
102
RTVSPropertyOp59
 70
     1
102
RTVSPropertyOp60
 70
     1
102
RTVSPropertyOp61
 70
     1
102
RTVSPropertyOp62
 70
     1
  0
XRECORD
  5
7DD
102
{ACAD_REACTORS
330
7DC
102
}
330
7DC
100
AcDbXrecord
280
     1
102
RTVSPost2010Prop28
280
     0
102
RTVSPost2010PropOp28
 70
     1
102
RTVSPost2010Prop29
280
     1
102
RTVSPost2010PropOp29
 70
     1
102
RTVSPost2010Prop30
280
     1
102
RTVSPost2010PropOp30
 70
     1
102
RTVSPost2010Prop31
280
     0
102
RTVSPost2010PropOp31
 70
     1
102
RTVSPost2010Prop32
280
     0
102
RTVSPost2010PropOp32
 70
     1
102
RTVSPost2010Prop33
280
     0
102
RTVSPost2010PropOp33
 70
     1
102
RTVSPost2010Prop34
280
     0
102
RTVSPost2010PropOp34
 70
     1
102
RTVSPost2010Prop35
280
     0
102
RTVSPost2010PropOp35
 70
     1
102
RTVSPost2010Prop36
280
     0
102
RTVSPost2010PropOp36
 70
     1
102
RTVSPost2010Prop37
 90
       50
102
RTVSPost2010PropOp37
 70
     1
102
RTVSPost2010Prop38
140
0.0
102
RTVSPost2010PropOp38
 70
     1
102
RTVSPost2010Prop39
140
1.0
102
RTVSPost2010PropOp39
 70
     1
102
RTVSPost2010Prop40
 90
        0
102
RTVSPost2010PropOp40
 70
     1
102
RTVSPost2010Prop41ColorIndex
 90
       18
102
RTVSPost2010Prop41ColorRGB
 90
        0
102
RTVSPost2010PropOp41
 70
     1
102
RTVSPost2010Prop42
 90
       50
102
RTVSPost2010PropOp42
 70
     1
102
RTVSPost2010Prop43
 90
        3
102
RTVSPost2010PropOp43
 70
     1
102
RTVSPost2010Prop44ColorIndex
 90
        5
102
RTVSPost2010Prop44ColorRGB
 90
      255
102
RTVSPost2010PropOp44
 70
     1
102
RTVSPost2010Prop45
280
     0
102
RTVSPost2010PropOp45
 70
     1
102
RTVSPost2010Prop46
 90
       50
102
RTVSPost2010PropOp46
 70
     1
102
RTVSPost2010Prop47
 90
       50
102
RTVSPost2010PropOp47
 70
     1
102
RTVSPost2010Prop48
 90
       50
102
RTVSPost2010PropOp48
 70
     1
102
RTVSPost2010Prop49
280
     0
102
RTVSPost2010PropOp49
 70
     1
102
RTVSPost2010Prop50
 90
       50
102
RTVSPost2010PropOp50
 70
     1
102
RTVSPost2010Prop51ColorIndex
 90
      256
102
RTVSPost2010Prop51ColorRGB
 90
-16777216
102
RTVSPost2010PropOp51
 70
     0
102
RTVSPost2010Prop52
140
1.0
102
RTVSPost2010PropOp52
 70
     0
102
RTVSPost2010Prop53
 90
        2
102
RTVSPost2010PropOp53
 70
     1
102
RTVSPost2010Prop54
  1
strokes_ogs.tif
102
RTVSPost2010PropOp54
 70
     1
102
RTVSPost2010Prop55
280
     0
102
RTVSPost2010PropOp55
 70
     1
102
RTVSPost2010Prop56
140
1.0
102
RTVSPost2010PropOp56
 70
     1
102
RTVSPost2010Prop57
140
1.0
102
RTVSPost2010PropOp57
 70
     1
102
RTVSPropertyOp0
 70
     1
102
RTVSPropertyOp1
 70
     1
102
RTVSPropertyOp2
 70
     1
102
RTVSPropertyOp3
 70
     1
102
RTVSPropertyOp4
 70
     1
102
RTVSPropertyOp5
 70
     1
102
RTVSPropertyOp6
 70
     1
102
RTVSPropertyOp7
 70
     1
102
RTVSPropertyOp8
 70
     1
102
RTVSPropertyOp9
 70
     1
102
RTVSPropertyOp10
 70
     1
102
RTVSPropertyOp11
 70
     1
102
RTVSPropertyOp12
 70
     1
102
RTVSPropertyOp13
 70
     1
102
RTVSPropertyOp14
 70
     1
102
RTVSPropertyOp15
 70
     1
102
RTVSPropertyOp16
 70
     1
102
RTVSPropertyOp17
 70
     1
102
RTVSPropertyOp18
 70
     1
102
RTVSPropertyOp19
 70
     1
102
RTVSPropertyOp20
 70
     1
102
RTVSPropertyOp21
 70
     1
102
RTVSPropertyOp22
 70
     1
102
RTVSPropertyOp23
 70
     1
102
RTVSPropertyOp24
 70
     1
102
RTVSPropertyOp25
 70
     1
102
RTVSPropertyOp26
 70
     1
102
RTVSPropertyOp27
 70
     1
102
RTVSPropertyOp28
 70
     1
102
RTVSPropertyOp29
 70
     1
102
RTVSPropertyOp30
 70
     1
102
RTVSPropertyOp31
 70
     1
102
RTVSPropertyOp32
 70
     1
102
RTVSPropertyOp33
 70
     1
102
RTVSPropertyOp34
 70
     1
102
RTVSPropertyOp35
 70
     1
102
RTVSPropertyOp36
 70
     1
102
RTVSPropertyOp37
 70
     1
102
RTVSPropertyOp38
 70
     1
102
RTVSPropertyOp39
 70
     1
102
RTVSPropertyOp40
 70
     1
102
RTVSPropertyOp41
 70
     1
102
RTVSPropertyOp42
 70
     1
102
RTVSPropertyOp43
 70
     1
102
RTVSPropertyOp44
 70
     1
102
RTVSPropertyOp45
 70
     1
102
RTVSPropertyOp46
 70
     1
102
RTVSPropertyOp47
 70
     1
102
RTVSPropertyOp48
 70
     1
102
RTVSPropertyOp49
 70
     1
102
RTVSPropertyOp50
 70
     1
102
RTVSPropertyOp51
 70
     0
102
RTVSPropertyOp52
 70
     0
102
RTVSPropertyOp53
 70
     1
102
RTVSPropertyOp54
 70
     1
102
RTVSPropertyOp55
 70
     1
102
RTVSPropertyOp56
 70
     1
102
RTVSPropertyOp57
 70
     1
102
RTVSPropertyOp58
 70
     1
102
RTVSPropertyOp59
 70
     1
102
RTVSPropertyOp60
 70
     1
102
RTVSPropertyOp61
 70
     1
102
RTVSPropertyOp62
 70
     1
  0
XRECORD
  5
7DF
102
{ACAD_REACTORS
330
7DE
102
}
330
7DE
100
AcDbXrecord
280
     1
102
RTVSPost2010Prop28
280
     0
102
RTVSPost2010PropOp28
 70
     1
102
RTVSPost2010Prop29
280
     1
102
RTVSPost2010PropOp29
 70
     1
102
RTVSPost2010Prop30
280
     1
102
RTVSPost2010PropOp30
 70
     1
102
RTVSPost2010Prop31
280
     0
102
RTVSPost2010PropOp31
 70
     1
102
RTVSPost2010Prop32
280
     0
102
RTVSPost2010PropOp32
 70
     1
102
RTVSPost2010Prop33
280
     0
102
RTVSPost2010PropOp33
 70
     1
102
RTVSPost2010Prop34
280
     0
102
RTVSPost2010PropOp34
 70
     1
102
RTVSPost2010Prop35
280
     0
102
RTVSPost2010PropOp35
 70
     1
102
RTVSPost2010Prop36
280
     0
102
RTVSPost2010PropOp36
 70
     1
102
RTVSPost2010Prop37
 90
       50
102
RTVSPost2010PropOp37
 70
     1
102
RTVSPost2010Prop38
140
0.0
102
RTVSPost2010PropOp38
 70
     1
102
RTVSPost2010Prop39
140
1.0
102
RTVSPost2010PropOp39
 70
     1
102
RTVSPost2010Prop40
 90
        0
102
RTVSPost2010PropOp40
 70
     1
102
RTVSPost2010Prop41ColorIndex
 90
       18
102
RTVSPost2010Prop41ColorRGB
 90
        0
102
RTVSPost2010PropOp41
 70
     1
102
RTVSPost2010Prop42
 90
       50
102
RTVSPost2010PropOp42
 70
     1
102
RTVSPost2010Prop43
 90
        3
102
RTVSPost2010PropOp43
 70
     1
102
RTVSPost2010Prop44ColorIndex
 90
        5
102
RTVSPost2010Prop44ColorRGB
 90
      255
102
RTVSPost2010PropOp44
 70
     1
102
RTVSPost2010Prop45
280
     0
102
RTVSPost2010PropOp45
 70
     1
102
RTVSPost2010Prop46
 90
       50
102
RTVSPost2010PropOp46
 70
     1
102
RTVSPost2010Prop47
 90
       50
102
RTVSPost2010PropOp47
 70
     1
102
RTVSPost2010Prop48
 90
       50
102
RTVSPost2010PropOp48
 70
     1
102
RTVSPost2010Prop49
280
     0
102
RTVSPost2010PropOp49
 70
     1
102
RTVSPost2010Prop50
 90
       50
102
RTVSPost2010PropOp50
 70
     1
102
RTVSPost2010Prop51ColorIndex
 90
      256
102
RTVSPost2010Prop51ColorRGB
 90
-16777216
102
RTVSPost2010PropOp51
 70
     0
102
RTVSPost2010Prop52
140
1.0
102
RTVSPost2010PropOp52
 70
     0
102
RTVSPost2010Prop53
 90
        2
102
RTVSPost2010PropOp53
 70
     1
102
RTVSPost2010Prop54
  1
strokes_ogs.tif
102
RTVSPost2010PropOp54
 70
     1
102
RTVSPost2010Prop55
280
     0
102
RTVSPost2010PropOp55
 70
     1
102
RTVSPost2010Prop56
140
1.0
102
RTVSPost2010PropOp56
 70
     1
102
RTVSPost2010Prop57
140
1.0
102
RTVSPost2010PropOp57
 70
     1
102
RTVSPropertyOp0
 70
     1
102
RTVSPropertyOp1
 70
     1
102
RTVSPropertyOp2
 70
     1
102
RTVSPropertyOp3
 70
     1
102
RTVSPropertyOp4
 70
     1
102
RTVSPropertyOp5
 70
     1
102
RTVSPropertyOp6
 70
     1
102
RTVSPropertyOp7
 70
     1
102
RTVSPropertyOp8
 70
     1
102
RTVSPropertyOp9
 70
     1
102
RTVSPropertyOp10
 70
     1
102
RTVSPropertyOp11
 70
     1
102
RTVSPropertyOp12
 70
     1
102
RTVSPropertyOp13
 70
     1
102
RTVSPropertyOp14
 70
     1
102
RTVSPropertyOp15
 70
     1
102
RTVSPropertyOp16
 70
     1
102
RTVSPropertyOp17
 70
     1
102
RTVSPropertyOp18
 70
     1
102
RTVSPropertyOp19
 70
     1
102
RTVSPropertyOp20
 70
     1
102
RTVSPropertyOp21
 70
     1
102
RTVSPropertyOp22
 70
     1
102
RTVSPropertyOp23
 70
     1
102
RTVSPropertyOp24
 70
     1
102
RTVSPropertyOp25
 70
     1
102
RTVSPropertyOp26
 70
     1
102
RTVSPropertyOp27
 70
     1
102
RTVSPropertyOp28
 70
     1
102
RTVSPropertyOp29
 70
     1
102
RTVSPropertyOp30
 70
     1
102
RTVSPropertyOp31
 70
     1
102
RTVSPropertyOp32
 70
     1
102
RTVSPropertyOp33
 70
     1
102
RTVSPropertyOp34
 70
     1
102
RTVSPropertyOp35
 70
     1
102
RTVSPropertyOp36
 70
     1
102
RTVSPropertyOp37
 70
     1
102
RTVSPropertyOp38
 70
     1
102
RTVSPropertyOp39
 70
     1
102
RTVSPropertyOp40
 70
     1
102
RTVSPropertyOp41
 70
     1
102
RTVSPropertyOp42
 70
     1
102
RTVSPropertyOp43
 70
     1
102
RTVSPropertyOp44
 70
     1
102
RTVSPropertyOp45
 70
     1
102
RTVSPropertyOp46
 70
     1
102
RTVSPropertyOp47
 70
     1
102
RTVSPropertyOp48
 70
     1
102
RTVSPropertyOp49
 70
     1
102
RTVSPropertyOp50
 70
     1
102
RTVSPropertyOp51
 70
     0
102
RTVSPropertyOp52
 70
     0
102
RTVSPropertyOp53
 70
     1
102
RTVSPropertyOp54
 70
     1
102
RTVSPropertyOp55
 70
     1
102
RTVSPropertyOp56
 70
     1
102
RTVSPropertyOp57
 70
     1
102
RTVSPropertyOp58
 70
     1
102
RTVSPropertyOp59
 70
     1
102
RTVSPropertyOp60
 70
     1
102
RTVSPropertyOp61
 70
     1
102
RTVSPropertyOp62
 70
     1
  0
XRECORD
  5
7E7
102
{ACAD_REACTORS
330
7E6
102
}
330
7E6
100
AcDbXrecord
280
     1
102
RTVSPost2010Prop28
280
     0
102
RTVSPost2010PropOp28
 70
     1
102
RTVSPost2010Prop29
280
     1
102
RTVSPost2010PropOp29
 70
     1
102
RTVSPost2010Prop30
280
     1
102
RTVSPost2010PropOp30
 70
     1
102
RTVSPost2010Prop31
280
     0
102
RTVSPost2010PropOp31
 70
     1
102
RTVSPost2010Prop32
280
     0
102
RTVSPost2010PropOp32
 70
     1
102
RTVSPost2010Prop33
280
     0
102
RTVSPost2010PropOp33
 70
     1
102
RTVSPost2010Prop34
280
     0
102
RTVSPost2010PropOp34
 70
     1
102
RTVSPost2010Prop35
280
     0
102
RTVSPost2010PropOp35
 70
     1
102
RTVSPost2010Prop36
280
     0
102
RTVSPost2010PropOp36
 70
     1
102
RTVSPost2010Prop37
 90
       50
102
RTVSPost2010PropOp37
 70
     1
102
RTVSPost2010Prop38
140
0.0
102
RTVSPost2010PropOp38
 70
     1
102
RTVSPost2010Prop39
140
1.0
102
RTVSPost2010PropOp39
 70
     1
102
RTVSPost2010Prop40
 90
        0
102
RTVSPost2010PropOp40
 70
     1
102
RTVSPost2010Prop41ColorIndex
 90
       18
102
RTVSPost2010Prop41ColorRGB
 90
        0
102
RTVSPost2010PropOp41
 70
     1
102
RTVSPost2010Prop42
 90
       50
102
RTVSPost2010PropOp42
 70
     1
102
RTVSPost2010Prop43
 90
        3
102
RTVSPost2010PropOp43
 70
     1
102
RTVSPost2010Prop44ColorIndex
 90
        5
102
RTVSPost2010Prop44ColorRGB
 90
      255
102
RTVSPost2010PropOp44
 70
     1
102
RTVSPost2010Prop45
280
     0
102
RTVSPost2010PropOp45
 70
     1
102
RTVSPost2010Prop46
 90
       50
102
RTVSPost2010PropOp46
 70
     1
102
RTVSPost2010Prop47
 90
       50
102
RTVSPost2010PropOp47
 70
     1
102
RTVSPost2010Prop48
 90
       50
102
RTVSPost2010PropOp48
 70
     1
102
RTVSPost2010Prop49
280
     0
102
RTVSPost2010PropOp49
 70
     1
102
RTVSPost2010Prop50
 90
       50
102
RTVSPost2010PropOp50
 70
     1
102
RTVSPost2010Prop51ColorIndex
 90
      256
102
RTVSPost2010Prop51ColorRGB
 90
-16777216
102
RTVSPost2010PropOp51
 70
     0
102
RTVSPost2010Prop52
140
1.0
102
RTVSPost2010PropOp52
 70
     0
102
RTVSPost2010Prop53
 90
        2
102
RTVSPost2010PropOp53
 70
     1
102
RTVSPost2010Prop54
  1
strokes_ogs.tif
102
RTVSPost2010PropOp54
 70
     1
102
RTVSPost2010Prop55
280
     0
102
RTVSPost2010PropOp55
 70
     1
102
RTVSPost2010Prop56
140
1.0
102
RTVSPost2010PropOp56
 70
     1
102
RTVSPost2010Prop57
140
1.0
102
RTVSPost2010PropOp57
 70
     1
102
RTVSPropertyOp0
 70
     1
102
RTVSPropertyOp1
 70
     1
102
RTVSPropertyOp2
 70
     1
102
RTVSPropertyOp3
 70
     1
102
RTVSPropertyOp4
 70
     1
102
RTVSPropertyOp5
 70
     1
102
RTVSPropertyOp6
 70
     1
102
RTVSPropertyOp7
 70
     1
102
RTVSPropertyOp8
 70
     1
102
RTVSPropertyOp9
 70
     1
102
RTVSPropertyOp10
 70
     1
102
RTVSPropertyOp11
 70
     1
102
RTVSPropertyOp12
 70
     1
102
RTVSPropertyOp13
 70
     1
102
RTVSPropertyOp14
 70
     1
102
RTVSPropertyOp15
 70
     1
102
RTVSPropertyOp16
 70
     1
102
RTVSPropertyOp17
 70
     1
102
RTVSPropertyOp18
 70
     1
102
RTVSPropertyOp19
 70
     1
102
RTVSPropertyOp20
 70
     1
102
RTVSPropertyOp21
 70
     1
102
RTVSPropertyOp22
 70
     1
102
RTVSPropertyOp23
 70
     1
102
RTVSPropertyOp24
 70
     1
102
RTVSPropertyOp25
 70
     1
102
RTVSPropertyOp26
 70
     1
102
RTVSPropertyOp27
 70
     1
102
RTVSPropertyOp28
 70
     1
102
RTVSPropertyOp29
 70
     1
102
RTVSPropertyOp30
 70
     1
102
RTVSPropertyOp31
 70
     1
102
RTVSPropertyOp32
 70
     1
102
RTVSPropertyOp33
 70
     1
102
RTVSPropertyOp34
 70
     1
102
RTVSPropertyOp35
 70
     1
102
RTVSPropertyOp36
 70
     1
102
RTVSPropertyOp37
 70
     1
102
RTVSPropertyOp38
 70
     1
102
RTVSPropertyOp39
 70
     1
102
RTVSPropertyOp40
 70
     1
102
RTVSPropertyOp41
 70
     1
102
RTVSPropertyOp42
 70
     1
102
RTVSPropertyOp43
 70
     1
102
RTVSPropertyOp44
 70
     1
102
RTVSPropertyOp45
 70
     1
102
RTVSPropertyOp46
 70
     1
102
RTVSPropertyOp47
 70
     1
102
RTVSPropertyOp48
 70
     1
102
RTVSPropertyOp49
 70
     1
102
RTVSPropertyOp50
 70
     1
102
RTVSPropertyOp51
 70
     0
102
RTVSPropertyOp52
 70
     0
102
RTVSPropertyOp53
 70
     1
102
RTVSPropertyOp54
 70
     1
102
RTVSPropertyOp55
 70
     1
102
RTVSPropertyOp56
 70
     1
102
RTVSPropertyOp57
 70
     1
102
RTVSPropertyOp58
 70
     1
102
RTVSPropertyOp59
 70
     1
102
RTVSPropertyOp60
 70
     1
102
RTVSPropertyOp61
 70
     1
102
RTVSPropertyOp62
 70
     1
  0
XRECORD
  5
803
102
{ACAD_REACTORS
330
802
102
}
330
802
100
AcDbXrecord
280
     1
102
RTVSPost2010Prop28
280
     0
102
RTVSPost2010PropOp28
 70
     1
102
RTVSPost2010Prop29
280
     1
102
RTVSPost2010PropOp29
 70
     1
102
RTVSPost2010Prop30
280
     1
102
RTVSPost2010PropOp30
 70
     1
102
RTVSPost2010Prop31
280
     0
102
RTVSPost2010PropOp31
 70
     1
102
RTVSPost2010Prop32
280
     0
102
RTVSPost2010PropOp32
 70
     1
102
RTVSPost2010Prop33
280
     0
102
RTVSPost2010PropOp33
 70
     1
102
RTVSPost2010Prop34
280
     0
102
RTVSPost2010PropOp34
 70
     1
102
RTVSPost2010Prop35
280
     0
102
RTVSPost2010PropOp35
 70
     1
102
RTVSPost2010Prop36
280
     0
102
RTVSPost2010PropOp36
 70
     1
102
RTVSPost2010Prop37
 90
       50
102
RTVSPost2010PropOp37
 70
     0
102
RTVSPost2010Prop38
140
0.0
102
RTVSPost2010PropOp38
 70
     0
102
RTVSPost2010Prop39
140
1.0
102
RTVSPost2010PropOp39
 70
     0
102
RTVSPost2010Prop40
 90
        0
102
RTVSPost2010PropOp40
 70
     0
102
RTVSPost2010Prop41ColorIndex
 90
       18
102
RTVSPost2010Prop41ColorRGB
 90
        0
102
RTVSPost2010PropOp41
 70
     0
102
RTVSPost2010Prop42
 90
       50
102
RTVSPost2010PropOp42
 70
     0
102
RTVSPost2010Prop43
 90
        3
102
RTVSPost2010PropOp43
 70
     0
102
RTVSPost2010Prop44ColorIndex
 90
        5
102
RTVSPost2010Prop44ColorRGB
 90
      255
102
RTVSPost2010PropOp44
 70
     0
102
RTVSPost2010Prop45
280
     0
102
RTVSPost2010PropOp45
 70
     1
102
RTVSPost2010Prop46
 90
       50
102
RTVSPost2010PropOp46
 70
     0
102
RTVSPost2010Prop47
 90
       50
102
RTVSPost2010PropOp47
 70
     0
102
RTVSPost2010Prop48
 90
       50
102
RTVSPost2010PropOp48
 70
     0
102
RTVSPost2010Prop49
280
     0
102
RTVSPost2010PropOp49
 70
     1
102
RTVSPost2010Prop50
 90
       50
102
RTVSPost2010PropOp50
 70
     0
102
RTVSPost2010Prop51ColorIndex
 90
      256
102
RTVSPost2010Prop51ColorRGB
 90
-16777216
102
RTVSPost2010PropOp51
 70
     0
102
RTVSPost2010Prop52
140
1.0
102
RTVSPost2010PropOp52
 70
     0
102
RTVSPost2010Prop53
 90
        2
102
RTVSPost2010PropOp53
 70
     0
102
RTVSPost2010Prop54
  1
strokes_ogs.tif
102
RTVSPost2010PropOp54
 70
     0
102
RTVSPost2010Prop55
280
     0
102
RTVSPost2010PropOp55
 70
     1
102
RTVSPost2010Prop56
140
1.0
102
RTVSPost2010PropOp56
 70
     0
102
RTVSPost2010Prop57
140
1.0
102
RTVSPost2010PropOp57
 70
     0
102
RTVSPropertyOp0
 70
     0
102
RTVSPropertyOp1
 70
     0
102
RTVSPropertyOp2
 70
     0
102
RTVSPropertyOp3
 70
     0
102
RTVSPropertyOp4
 70
     0
102
RTVSPropertyOp5
 70
     0
102
RTVSPropertyOp6
 70
     0
102
RTVSPropertyOp7
 70
     0
102
RTVSPropertyOp8
 70
     0
102
RTVSPropertyOp9
 70
     0
102
RTVSPropertyOp10
 70
     0
102
RTVSPropertyOp11
 70
     0
102
RTVSPropertyOp12
 70
     0
102
RTVSPropertyOp13
 70
     0
102
RTVSPropertyOp14
 70
     2
102
RTVSPropertyOp15
 70
     0
102
RTVSPropertyOp16
 70
     0
102
RTVSPropertyOp17
 70
     0
102
RTVSPropertyOp18
 70
     0
102
RTVSPropertyOp19
 70
     0
102
RTVSPropertyOp20
 70
     0
102
RTVSPropertyOp21
 70
     0
102
RTVSPropertyOp22
 70
     0
102
RTVSPropertyOp23
 70
     0
102
RTVSPropertyOp24
 70
     0
102
RTVSPropertyOp25
 70
     0
102
RTVSPropertyOp26
 70
     0
102
RTVSPropertyOp27
 70
     0
102
RTVSPropertyOp28
 70
     1
102
RTVSPropertyOp29
 70
     1
102
RTVSPropertyOp30
 70
     1
102
RTVSPropertyOp31
 70
     1
102
RTVSPropertyOp32
 70
     1
102
RTVSPropertyOp33
 70
     1
102
RTVSPropertyOp34
 70
     1
102
RTVSPropertyOp35
 70
     1
102
RTVSPropertyOp36
 70
     1
102
RTVSPropertyOp37
 70
     0
102
RTVSPropertyOp38
 70
     0
102
RTVSPropertyOp39
 70
     0
102
RTVSPropertyOp40
 70
     0
102
RTVSPropertyOp41
 70
     0
102
RTVSPropertyOp42
 70
     0
102
RTVSPropertyOp43
 70
     0
102
RTVSPropertyOp44
 70
     0
102
RTVSPropertyOp45
 70
     1
102
RTVSPropertyOp46
 70
     0
102
RTVSPropertyOp47
 70
     0
102
RTVSPropertyOp48
 70
     0
102
RTVSPropertyOp49
 70
     1
102
RTVSPropertyOp50
 70
     0
102
RTVSPropertyOp51
 70
     0
102
RTVSPropertyOp52
 70
     0
102
RTVSPropertyOp53
 70
     0
102
RTVSPropertyOp54
 70
     0
102
RTVSPropertyOp55
 70
     1
102
RTVSPropertyOp56
 70
     0
102
RTVSPropertyOp57
 70
     0
102
RTVSPropertyOp58
 70
     0
102
RTVSPropertyOp59
 70
     0
102
RTVSPropertyOp60
 70
     0
102
RTVSPropertyOp61
 70
     0
102
RTVSPropertyOp62
 70
     0
  0
XRECORD
  5
7F3
102
{ACAD_REACTORS
330
7F2
102
}
330
7F2
100
AcDbXrecord
280
     1
102
RTVSPost2010Prop28
280
     0
102
RTVSPost2010PropOp28
 70
     1
102
RTVSPost2010Prop29
280
     1
102
RTVSPost2010PropOp29
 70
     1
102
RTVSPost2010Prop30
280
     1
102
RTVSPost2010PropOp30
 70
     1
102
RTVSPost2010Prop31
280
     0
102
RTVSPost2010PropOp31
 70
     1
102
RTVSPost2010Prop32
280
     0
102
RTVSPost2010PropOp32
 70
     1
102
RTVSPost2010Prop33
280
     0
102
RTVSPost2010PropOp33
 70
     1
102
RTVSPost2010Prop34
280
     0
102
RTVSPost2010PropOp34
 70
     1
102
RTVSPost2010Prop35
280
     0
102
RTVSPost2010PropOp35
 70
     1
102
RTVSPost2010Prop36
280
     0
102
RTVSPost2010PropOp36
 70
     1
102
RTVSPost2010Prop37
 90
       50
102
RTVSPost2010PropOp37
 70
     1
102
RTVSPost2010Prop38
140
0.0
102
RTVSPost2010PropOp38
 70
     1
102
RTVSPost2010Prop39
140
1.0
102
RTVSPost2010PropOp39
 70
     1
102
RTVSPost2010Prop40
 90
        0
102
RTVSPost2010PropOp40
 70
     1
102
RTVSPost2010Prop41ColorIndex
 90
       18
102
RTVSPost2010Prop41ColorRGB
 90
        0
102
RTVSPost2010PropOp41
 70
     1
102
RTVSPost2010Prop42
 90
       50
102
RTVSPost2010PropOp42
 70
     1
102
RTVSPost2010Prop43
 90
        3
102
RTVSPost2010PropOp43
 70
     1
102
RTVSPost2010Prop44ColorIndex
 90
        5
102
RTVSPost2010Prop44ColorRGB
 90
      255
102
RTVSPost2010PropOp44
 70
     1
102
RTVSPost2010Prop45
280
     0
102
RTVSPost2010PropOp45
 70
     1
102
RTVSPost2010Prop46
 90
       50
102
RTVSPost2010PropOp46
 70
     1
102
RTVSPost2010Prop47
 90
       50
102
RTVSPost2010PropOp47
 70
     1
102
RTVSPost2010Prop48
 90
       50
102
RTVSPost2010PropOp48
 70
     1
102
RTVSPost2010Prop49
280
     0
102
RTVSPost2010PropOp49
 70
     1
102
RTVSPost2010Prop50
 90
       50
102
RTVSPost2010PropOp50
 70
     1
102
RTVSPost2010Prop51ColorIndex
 90
      256
102
RTVSPost2010Prop51ColorRGB
 90
-16777216
102
RTVSPost2010PropOp51
 70
     0
102
RTVSPost2010Prop52
140
1.0
102
RTVSPost2010PropOp52
 70
     0
102
RTVSPost2010Prop53
 90
        2
102
RTVSPost2010PropOp53
 70
     1
102
RTVSPost2010Prop54
  1
strokes_ogs.tif
102
RTVSPost2010PropOp54
 70
     1
102
RTVSPost2010Prop55
280
     0
102
RTVSPost2010PropOp55
 70
     1
102
RTVSPost2010Prop56
140
1.0
102
RTVSPost2010PropOp56
 70
     1
102
RTVSPost2010Prop57
140
1.0
102
RTVSPost2010PropOp57
 70
     1
102
RTVSPropertyOp0
 70
     1
102
RTVSPropertyOp1
 70
     1
102
RTVSPropertyOp2
 70
     1
102
RTVSPropertyOp3
 70
     1
102
RTVSPropertyOp4
 70
     1
102
RTVSPropertyOp5
 70
     1
102
RTVSPropertyOp6
 70
     1
102
RTVSPropertyOp7
 70
     1
102
RTVSPropertyOp8
 70
     1
102
RTVSPropertyOp9
 70
     1
102
RTVSPropertyOp10
 70
     1
102
RTVSPropertyOp11
 70
     1
102
RTVSPropertyOp12
 70
     1
102
RTVSPropertyOp13
 70
     1
102
RTVSPropertyOp14
 70
     1
102
RTVSPropertyOp15
 70
     1
102
RTVSPropertyOp16
 70
     1
102
RTVSPropertyOp17
 70
     1
102
RTVSPropertyOp18
 70
     1
102
RTVSPropertyOp19
 70
     1
102
RTVSPropertyOp20
 70
     1
102
RTVSPropertyOp21
 70
     1
102
RTVSPropertyOp22
 70
     1
102
RTVSPropertyOp23
 70
     1
102
RTVSPropertyOp24
 70
     1
102
RTVSPropertyOp25
 70
     1
102
RTVSPropertyOp26
 70
     1
102
RTVSPropertyOp27
 70
     1
102
RTVSPropertyOp28
 70
     1
102
RTVSPropertyOp29
 70
     1
102
RTVSPropertyOp30
 70
     1
102
RTVSPropertyOp31
 70
     1
102
RTVSPropertyOp32
 70
     1
102
RTVSPropertyOp33
 70
     1
102
RTVSPropertyOp34
 70
     1
102
RTVSPropertyOp35
 70
     1
102
RTVSPropertyOp36
 70
     1
102
RTVSPropertyOp37
 70
     1
102
RTVSPropertyOp38
 70
     1
102
RTVSPropertyOp39
 70
     1
102
RTVSPropertyOp40
 70
     1
102
RTVSPropertyOp41
 70
     1
102
RTVSPropertyOp42
 70
     1
102
RTVSPropertyOp43
 70
     1
102
RTVSPropertyOp44
 70
     1
102
RTVSPropertyOp45
 70
     1
102
RTVSPropertyOp46
 70
     1
102
RTVSPropertyOp47
 70
     1
102
RTVSPropertyOp48
 70
     1
102
RTVSPropertyOp49
 70
     1
102
RTVSPropertyOp50
 70
     1
102
RTVSPropertyOp51
 70
     0
102
RTVSPropertyOp52
 70
     0
102
RTVSPropertyOp53
 70
     1
102
RTVSPropertyOp54
 70
     1
102
RTVSPropertyOp55
 70
     1
102
RTVSPropertyOp56
 70
     1
102
RTVSPropertyOp57
 70
     1
102
RTVSPropertyOp58
 70
     1
102
RTVSPropertyOp59
 70
     1
102
RTVSPropertyOp60
 70
     1
102
RTVSPropertyOp61
 70
     1
102
RTVSPropertyOp62
 70
     1
  0
XRECORD
  5
805
102
{ACAD_REACTORS
330
804
102
}
330
804
100
AcDbXrecord
280
     1
102
RTVSPost2010Prop28
280
     0
102
RTVSPost2010PropOp28
 70
     1
102
RTVSPost2010Prop29
280
     1
102
RTVSPost2010PropOp29
 70
     1
102
RTVSPost2010Prop30
280
     1
102
RTVSPost2010PropOp30
 70
     1
102
RTVSPost2010Prop31
280
     0
102
RTVSPost2010PropOp31
 70
     1
102
RTVSPost2010Prop32
280
     0
102
RTVSPost2010PropOp32
 70
     1
102
RTVSPost2010Prop33
280
     0
102
RTVSPost2010PropOp33
 70
     1
102
RTVSPost2010Prop34
280
     0
102
RTVSPost2010PropOp34
 70
     1
102
RTVSPost2010Prop35
280
     0
102
RTVSPost2010PropOp35
 70
     1
102
RTVSPost2010Prop36
280
     0
102
RTVSPost2010PropOp36
 70
     1
102
RTVSPost2010Prop37
 90
       50
102
RTVSPost2010PropOp37
 70
     0
102
RTVSPost2010Prop38
140
0.0
102
RTVSPost2010PropOp38
 70
     0
102
RTVSPost2010Prop39
140
1.0
102
RTVSPost2010PropOp39
 70
     0
102
RTVSPost2010Prop40
 90
        0
102
RTVSPost2010PropOp40
 70
     0
102
RTVSPost2010Prop41ColorIndex
 90
       18
102
RTVSPost2010Prop41ColorRGB
 90
        0
102
RTVSPost2010PropOp41
 70
     0
102
RTVSPost2010Prop42
 90
       50
102
RTVSPost2010PropOp42
 70
     0
102
RTVSPost2010Prop43
 90
        3
102
RTVSPost2010PropOp43
 70
     0
102
RTVSPost2010Prop44ColorIndex
 90
        5
102
RTVSPost2010Prop44ColorRGB
 90
      255
102
RTVSPost2010PropOp44
 70
     0
102
RTVSPost2010Prop45
280
     0
102
RTVSPost2010PropOp45
 70
     1
102
RTVSPost2010Prop46
 90
       50
102
RTVSPost2010PropOp46
 70
     0
102
RTVSPost2010Prop47
 90
       50
102
RTVSPost2010PropOp47
 70
     0
102
RTVSPost2010Prop48
 90
       50
102
RTVSPost2010PropOp48
 70
     0
102
RTVSPost2010Prop49
280
     0
102
RTVSPost2010PropOp49
 70
     1
102
RTVSPost2010Prop50
 90
       50
102
RTVSPost2010PropOp50
 70
     0
102
RTVSPost2010Prop51ColorIndex
 90
      256
102
RTVSPost2010Prop51ColorRGB
 90
-16777216
102
RTVSPost2010PropOp51
 70
     0
102
RTVSPost2010Prop52
140
1.0
102
RTVSPost2010PropOp52
 70
     0
102
RTVSPost2010Prop53
 90
        2
102
RTVSPost2010PropOp53
 70
     0
102
RTVSPost2010Prop54
  1
strokes_ogs.tif
102
RTVSPost2010PropOp54
 70
     0
102
RTVSPost2010Prop55
280
     0
102
RTVSPost2010PropOp55
 70
     1
102
RTVSPost2010Prop56
140
1.0
102
RTVSPost2010PropOp56
 70
     0
102
RTVSPost2010Prop57
140
1.0
102
RTVSPost2010PropOp57
 70
     0
102
RTVSPropertyOp0
 70
     0
102
RTVSPropertyOp1
 70
     0
102
RTVSPropertyOp2
 70
     0
102
RTVSPropertyOp3
 70
     0
102
RTVSPropertyOp4
 70
     0
102
RTVSPropertyOp5
 70
     0
102
RTVSPropertyOp6
 70
     0
102
RTVSPropertyOp7
 70
     0
102
RTVSPropertyOp8
 70
     0
102
RTVSPropertyOp9
 70
     0
102
RTVSPropertyOp10
 70
     0
102
RTVSPropertyOp11
 70
     0
102
RTVSPropertyOp12
 70
     0
102
RTVSPropertyOp13
 70
     0
102
RTVSPropertyOp14
 70
     2
102
RTVSPropertyOp15
 70
     0
102
RTVSPropertyOp16
 70
     0
102
RTVSPropertyOp17
 70
     0
102
RTVSPropertyOp18
 70
     0
102
RTVSPropertyOp19
 70
     0
102
RTVSPropertyOp20
 70
     0
102
RTVSPropertyOp21
 70
     0
102
RTVSPropertyOp22
 70
     0
102
RTVSPropertyOp23
 70
     0
102
RTVSPropertyOp24
 70
     0
102
RTVSPropertyOp25
 70
     0
102
RTVSPropertyOp26
 70
     0
102
RTVSPropertyOp27
 70
     0
102
RTVSPropertyOp28
 70
     1
102
RTVSPropertyOp29
 70
     1
102
RTVSPropertyOp30
 70
     1
102
RTVSPropertyOp31
 70
     1
102
RTVSPropertyOp32
 70
     1
102
RTVSPropertyOp33
 70
     1
102
RTVSPropertyOp34
 70
     1
102
RTVSPropertyOp35
 70
     1
102
RTVSPropertyOp36
 70
     1
102
RTVSPropertyOp37
 70
     0
102
RTVSPropertyOp38
 70
     0
102
RTVSPropertyOp39
 70
     0
102
RTVSPropertyOp40
 70
     0
102
RTVSPropertyOp41
 70
     0
102
RTVSPropertyOp42
 70
     0
102
RTVSPropertyOp43
 70
     0
102
RTVSPropertyOp44
 70
     0
102
RTVSPropertyOp45
 70
     1
102
RTVSPropertyOp46
 70
     0
102
RTVSPropertyOp47
 70
     0
102
RTVSPropertyOp48
 70
     0
102
RTVSPropertyOp49
 70
     1
102
RTVSPropertyOp50
 70
     0
102
RTVSPropertyOp51
 70
     0
102
RTVSPropertyOp52
 70
     0
102
RTVSPropertyOp53
 70
     0
102
RTVSPropertyOp54
 70
     0
102
RTVSPropertyOp55
 70
     1
102
RTVSPropertyOp56
 70
     0
102
RTVSPropertyOp57
 70
     0
102
RTVSPropertyOp58
 70
     0
102
RTVSPropertyOp59
 70
     0
102
RTVSPropertyOp60
 70
     0
102
RTVSPropertyOp61
 70
     0
102
RTVSPropertyOp62
 70
     0
  0
XRECORD
  5
7EB
102
{ACAD_REACTORS
330
7EA
102
}
330
7EA
100
AcDbXrecord
280
     1
102
RTVSPost2010Prop28
280
     0
102
RTVSPost2010PropOp28
 70
     1
102
RTVSPost2010Prop29
280
     1
102
RTVSPost2010PropOp29
 70
     1
102
RTVSPost2010Prop30
280
     1
102
RTVSPost2010PropOp30
 70
     1
102
RTVSPost2010Prop31
280
     0
102
RTVSPost2010PropOp31
 70
     1
102
RTVSPost2010Prop32
280
     0
102
RTVSPost2010PropOp32
 70
     1
102
RTVSPost2010Prop33
280
     0
102
RTVSPost2010PropOp33
 70
     1
102
RTVSPost2010Prop34
280
     0
102
RTVSPost2010PropOp34
 70
     1
102
RTVSPost2010Prop35
280
     0
102
RTVSPost2010PropOp35
 70
     1
102
RTVSPost2010Prop36
280
     0
102
RTVSPost2010PropOp36
 70
     1
102
RTVSPost2010Prop37
 90
       50
102
RTVSPost2010PropOp37
 70
     1
102
RTVSPost2010Prop38
140
0.0
102
RTVSPost2010PropOp38
 70
     1
102
RTVSPost2010Prop39
140
1.0
102
RTVSPost2010PropOp39
 70
     1
102
RTVSPost2010Prop40
 90
        0
102
RTVSPost2010PropOp40
 70
     1
102
RTVSPost2010Prop41ColorIndex
 90
       18
102
RTVSPost2010Prop41ColorRGB
 90
        0
102
RTVSPost2010PropOp41
 70
     1
102
RTVSPost2010Prop42
 90
       50
102
RTVSPost2010PropOp42
 70
     1
102
RTVSPost2010Prop43
 90
        3
102
RTVSPost2010PropOp43
 70
     1
102
RTVSPost2010Prop44ColorIndex
 90
        5
102
RTVSPost2010Prop44ColorRGB
 90
      255
102
RTVSPost2010PropOp44
 70
     1
102
RTVSPost2010Prop45
280
     0
102
RTVSPost2010PropOp45
 70
     1
102
RTVSPost2010Prop46
 90
       50
102
RTVSPost2010PropOp46
 70
     1
102
RTVSPost2010Prop47
 90
       50
102
RTVSPost2010PropOp47
 70
     1
102
RTVSPost2010Prop48
 90
       50
102
RTVSPost2010PropOp48
 70
     1
102
RTVSPost2010Prop49
280
     0
102
RTVSPost2010PropOp49
 70
     1
102
RTVSPost2010Prop50
 90
       50
102
RTVSPost2010PropOp50
 70
     1
102
RTVSPost2010Prop51ColorIndex
 90
      256
102
RTVSPost2010Prop51ColorRGB
 90
-16777216
102
RTVSPost2010PropOp51
 70
     0
102
RTVSPost2010Prop52
140
1.0
102
RTVSPost2010PropOp52
 70
     0
102
RTVSPost2010Prop53
 90
        2
102
RTVSPost2010PropOp53
 70
     1
102
RTVSPost2010Prop54
  1
strokes_ogs.tif
102
RTVSPost2010PropOp54
 70
     1
102
RTVSPost2010Prop55
280
     0
102
RTVSPost2010PropOp55
 70
     1
102
RTVSPost2010Prop56
140
1.0
102
RTVSPost2010PropOp56
 70
     1
102
RTVSPost2010Prop57
140
1.0
102
RTVSPost2010PropOp57
 70
     1
102
RTVSPropertyOp0
 70
     1
102
RTVSPropertyOp1
 70
     1
102
RTVSPropertyOp2
 70
     1
102
RTVSPropertyOp3
 70
     1
102
RTVSPropertyOp4
 70
     1
102
RTVSPropertyOp5
 70
     1
102
RTVSPropertyOp6
 70
     1
102
RTVSPropertyOp7
 70
     1
102
RTVSPropertyOp8
 70
     1
102
RTVSPropertyOp9
 70
     1
102
RTVSPropertyOp10
 70
     1
102
RTVSPropertyOp11
 70
     1
102
RTVSPropertyOp12
 70
     1
102
RTVSPropertyOp13
 70
     1
102
RTVSPropertyOp14
 70
     1
102
RTVSPropertyOp15
 70
     1
102
RTVSPropertyOp16
 70
     1
102
RTVSPropertyOp17
 70
     1
102
RTVSPropertyOp18
 70
     1
102
RTVSPropertyOp19
 70
     1
102
RTVSPropertyOp20
 70
     1
102
RTVSPropertyOp21
 70
     1
102
RTVSPropertyOp22
 70
     1
102
RTVSPropertyOp23
 70
     1
102
RTVSPropertyOp24
 70
     1
102
RTVSPropertyOp25
 70
     1
102
RTVSPropertyOp26
 70
     1
102
RTVSPropertyOp27
 70
     1
102
RTVSPropertyOp28
 70
     1
102
RTVSPropertyOp29
 70
     1
102
RTVSPropertyOp30
 70
     1
102
RTVSPropertyOp31
 70
     1
102
RTVSPropertyOp32
 70
     1
102
RTVSPropertyOp33
 70
     1
102
RTVSPropertyOp34
 70
     1
102
RTVSPropertyOp35
 70
     1
102
RTVSPropertyOp36
 70
     1
102
RTVSPropertyOp37
 70
     1
102
RTVSPropertyOp38
 70
     1
102
RTVSPropertyOp39
 70
     1
102
RTVSPropertyOp40
 70
     1
102
RTVSPropertyOp41
 70
     1
102
RTVSPropertyOp42
 70
     1
102
RTVSPropertyOp43
 70
     1
102
RTVSPropertyOp44
 70
     1
102
RTVSPropertyOp45
 70
     1
102
RTVSPropertyOp46
 70
     1
102
RTVSPropertyOp47
 70
     1
102
RTVSPropertyOp48
 70
     1
102
RTVSPropertyOp49
 70
     1
102
RTVSPropertyOp50
 70
     1
102
RTVSPropertyOp51
 70
     0
102
RTVSPropertyOp52
 70
     0
102
RTVSPropertyOp53
 70
     1
102
RTVSPropertyOp54
 70
     1
102
RTVSPropertyOp55
 70
     1
102
RTVSPropertyOp56
 70
     1
102
RTVSPropertyOp57
 70
     1
102
RTVSPropertyOp58
 70
     1
102
RTVSPropertyOp59
 70
     1
102
RTVSPropertyOp60
 70
     1
102
RTVSPropertyOp61
 70
     1
102
RTVSPropertyOp62
 70
     1
  0
XRECORD
  5
801
102
{ACAD_REACTORS
330
800
102
}
330
800
100
AcDbXrecord
280
     1
102
RTVSPost2010Prop28
280
     0
102
RTVSPost2010PropOp28
 70
     1
102
RTVSPost2010Prop29
280
     1
102
RTVSPost2010PropOp29
 70
     1
102
RTVSPost2010Prop30
280
     1
102
RTVSPost2010PropOp30
 70
     1
102
RTVSPost2010Prop31
280
     0
102
RTVSPost2010PropOp31
 70
     1
102
RTVSPost2010Prop32
280
     0
102
RTVSPost2010PropOp32
 70
     1
102
RTVSPost2010Prop33
280
     0
102
RTVSPost2010PropOp33
 70
     1
102
RTVSPost2010Prop34
280
     0
102
RTVSPost2010PropOp34
 70
     1
102
RTVSPost2010Prop35
280
     0
102
RTVSPost2010PropOp35
 70
     1
102
RTVSPost2010Prop36
280
     0
102
RTVSPost2010PropOp36
 70
     1
102
RTVSPost2010Prop37
 90
       50
102
RTVSPost2010PropOp37
 70
     1
102
RTVSPost2010Prop38
140
0.0
102
RTVSPost2010PropOp38
 70
     1
102
RTVSPost2010Prop39
140
1.0
102
RTVSPost2010PropOp39
 70
     1
102
RTVSPost2010Prop40
 90
        0
102
RTVSPost2010PropOp40
 70
     1
102
RTVSPost2010Prop41ColorIndex
 90
       18
102
RTVSPost2010Prop41ColorRGB
 90
        0
102
RTVSPost2010PropOp41
 70
     1
102
RTVSPost2010Prop42
 90
       50
102
RTVSPost2010PropOp42
 70
     1
102
RTVSPost2010Prop43
 90
        3
102
RTVSPost2010PropOp43
 70
     1
102
RTVSPost2010Prop44ColorIndex
 90
        5
102
RTVSPost2010Prop44ColorRGB
 90
      255
102
RTVSPost2010PropOp44
 70
     1
102
RTVSPost2010Prop45
280
     0
102
RTVSPost2010PropOp45
 70
     1
102
RTVSPost2010Prop46
 90
       50
102
RTVSPost2010PropOp46
 70
     1
102
RTVSPost2010Prop47
 90
       50
102
RTVSPost2010PropOp47
 70
     1
102
RTVSPost2010Prop48
 90
       50
102
RTVSPost2010PropOp48
 70
     1
102
RTVSPost2010Prop49
280
     0
102
RTVSPost2010PropOp49
 70
     1
102
RTVSPost2010Prop50
 90
       50
102
RTVSPost2010PropOp50
 70
     1
102
RTVSPost2010Prop51ColorIndex
 90
      256
102
RTVSPost2010Prop51ColorRGB
 90
-16777216
102
RTVSPost2010PropOp51
 70
     0
102
RTVSPost2010Prop52
140
1.0
102
RTVSPost2010PropOp52
 70
     0
102
RTVSPost2010Prop53
 90
        2
102
RTVSPost2010PropOp53
 70
     1
102
RTVSPost2010Prop54
  1
strokes_ogs.tif
102
RTVSPost2010PropOp54
 70
     1
102
RTVSPost2010Prop55
280
     0
102
RTVSPost2010PropOp55
 70
     1
102
RTVSPost2010Prop56
140
1.0
102
RTVSPost2010PropOp56
 70
     1
102
RTVSPost2010Prop57
140
1.0
102
RTVSPost2010PropOp57
 70
     1
102
RTVSPropertyOp0
 70
     1
102
RTVSPropertyOp1
 70
     1
102
RTVSPropertyOp2
 70
     1
102
RTVSPropertyOp3
 70
     1
102
RTVSPropertyOp4
 70
     1
102
RTVSPropertyOp5
 70
     1
102
RTVSPropertyOp6
 70
     1
102
RTVSPropertyOp7
 70
     1
102
RTVSPropertyOp8
 70
     1
102
RTVSPropertyOp9
 70
     1
102
RTVSPropertyOp10
 70
     1
102
RTVSPropertyOp11
 70
     1
102
RTVSPropertyOp12
 70
     1
102
RTVSPropertyOp13
 70
     1
102
RTVSPropertyOp14
 70
     1
102
RTVSPropertyOp15
 70
     1
102
RTVSPropertyOp16
 70
     1
102
RTVSPropertyOp17
 70
     1
102
RTVSPropertyOp18
 70
     1
102
RTVSPropertyOp19
 70
     1
102
RTVSPropertyOp20
 70
     1
102
RTVSPropertyOp21
 70
     1
102
RTVSPropertyOp22
 70
     1
102
RTVSPropertyOp23
 70
     1
102
RTVSPropertyOp24
 70
     1
102
RTVSPropertyOp25
 70
     1
102
RTVSPropertyOp26
 70
     1
102
RTVSPropertyOp27
 70
     1
102
RTVSPropertyOp28
 70
     1
102
RTVSPropertyOp29
 70
     1
102
RTVSPropertyOp30
 70
     1
102
RTVSPropertyOp31
 70
     1
102
RTVSPropertyOp32
 70
     1
102
RTVSPropertyOp33
 70
     1
102
RTVSPropertyOp34
 70
     1
102
RTVSPropertyOp35
 70
     1
102
RTVSPropertyOp36
 70
     1
102
RTVSPropertyOp37
 70
     1
102
RTVSPropertyOp38
 70
     1
102
RTVSPropertyOp39
 70
     1
102
RTVSPropertyOp40
 70
     1
102
RTVSPropertyOp41
 70
     1
102
RTVSPropertyOp42
 70
     1
102
RTVSPropertyOp43
 70
     1
102
RTVSPropertyOp44
 70
     1
102
RTVSPropertyOp45
 70
     1
102
RTVSPropertyOp46
 70
     1
102
RTVSPropertyOp47
 70
     1
102
RTVSPropertyOp48
 70
     1
102
RTVSPropertyOp49
 70
     1
102
RTVSPropertyOp50
 70
     1
102
RTVSPropertyOp51
 70
     0
102
RTVSPropertyOp52
 70
     0
102
RTVSPropertyOp53
 70
     1
102
RTVSPropertyOp54
 70
     1
102
RTVSPropertyOp55
 70
     1
102
RTVSPropertyOp56
 70
     1
102
RTVSPropertyOp57
 70
     1
102
RTVSPropertyOp58
 70
     1
102
RTVSPropertyOp59
 70
     1
102
RTVSPropertyOp60
 70
     1
102
RTVSPropertyOp61
 70
     1
102
RTVSPropertyOp62
 70
     1
  0
XRECORD
  5
7FF
102
{ACAD_REACTORS
330
7FE
102
}
330
7FE
100
AcDbXrecord
280
     1
102
RTVSPost2010Prop28
280
     0
102
RTVSPost2010PropOp28
 70
     1
102
RTVSPost2010Prop29
280
     1
102
RTVSPost2010PropOp29
 70
     1
102
RTVSPost2010Prop30
280
     1
102
RTVSPost2010PropOp30
 70
     1
102
RTVSPost2010Prop31
280
     0
102
RTVSPost2010PropOp31
 70
     1
102
RTVSPost2010Prop32
280
     0
102
RTVSPost2010PropOp32
 70
     1
102
RTVSPost2010Prop33
280
     0
102
RTVSPost2010PropOp33
 70
     1
102
RTVSPost2010Prop34
280
     0
102
RTVSPost2010PropOp34
 70
     1
102
RTVSPost2010Prop35
280
     0
102
RTVSPost2010PropOp35
 70
     1
102
RTVSPost2010Prop36
280
     0
102
RTVSPost2010PropOp36
 70
     1
102
RTVSPost2010Prop37
 90
       50
102
RTVSPost2010PropOp37
 70
     1
102
RTVSPost2010Prop38
140
0.0
102
RTVSPost2010PropOp38
 70
     1
102
RTVSPost2010Prop39
140
1.0
102
RTVSPost2010PropOp39
 70
     1
102
RTVSPost2010Prop40
 90
        0
102
RTVSPost2010PropOp40
 70
     1
102
RTVSPost2010Prop41ColorIndex
 90
       18
102
RTVSPost2010Prop41ColorRGB
 90
        0
102
RTVSPost2010PropOp41
 70
     1
102
RTVSPost2010Prop42
 90
       50
102
RTVSPost2010PropOp42
 70
     1
102
RTVSPost2010Prop43
 90
        3
102
RTVSPost2010PropOp43
 70
     1
102
RTVSPost2010Prop44ColorIndex
 90
        5
102
RTVSPost2010Prop44ColorRGB
 90
      255
102
RTVSPost2010PropOp44
 70
     1
102
RTVSPost2010Prop45
280
     0
102
RTVSPost2010PropOp45
 70
     1
102
RTVSPost2010Prop46
 90
       50
102
RTVSPost2010PropOp46
 70
     1
102
RTVSPost2010Prop47
 90
       50
102
RTVSPost2010PropOp47
 70
     1
102
RTVSPost2010Prop48
 90
       50
102
RTVSPost2010PropOp48
 70
     1
102
RTVSPost2010Prop49
280
     0
102
RTVSPost2010PropOp49
 70
     1
102
RTVSPost2010Prop50
 90
       50
102
RTVSPost2010PropOp50
 70
     1
102
RTVSPost2010Prop51ColorIndex
 90
      256
102
RTVSPost2010Prop51ColorRGB
 90
-16777216
102
RTVSPost2010PropOp51
 70
     0
102
RTVSPost2010Prop52
140
1.0
102
RTVSPost2010PropOp52
 70
     0
102
RTVSPost2010Prop53
 90
        2
102
RTVSPost2010PropOp53
 70
     1
102
RTVSPost2010Prop54
  1
strokes_ogs.tif
102
RTVSPost2010PropOp54
 70
     1
102
RTVSPost2010Prop55
280
     0
102
RTVSPost2010PropOp55
 70
     1
102
RTVSPost2010Prop56
140
1.0
102
RTVSPost2010PropOp56
 70
     1
102
RTVSPost2010Prop57
140
1.0
102
RTVSPost2010PropOp57
 70
     1
102
RTVSPropertyOp0
 70
     1
102
RTVSPropertyOp1
 70
     1
102
RTVSPropertyOp2
 70
     1
102
RTVSPropertyOp3
 70
     1
102
RTVSPropertyOp4
 70
     1
102
RTVSPropertyOp5
 70
     1
102
RTVSPropertyOp6
 70
     1
102
RTVSPropertyOp7
 70
     1
102
RTVSPropertyOp8
 70
     1
102
RTVSPropertyOp9
 70
     1
102
RTVSPropertyOp10
 70
     1
102
RTVSPropertyOp11
 70
     1
102
RTVSPropertyOp12
 70
     1
102
RTVSPropertyOp13
 70
     1
102
RTVSPropertyOp14
 70
     1
102
RTVSPropertyOp15
 70
     1
102
RTVSPropertyOp16
 70
     1
102
RTVSPropertyOp17
 70
     1
102
RTVSPropertyOp18
 70
     1
102
RTVSPropertyOp19
 70
     1
102
RTVSPropertyOp20
 70
     1
102
RTVSPropertyOp21
 70
     1
102
RTVSPropertyOp22
 70
     1
102
RTVSPropertyOp23
 70
     1
102
RTVSPropertyOp24
 70
     1
102
RTVSPropertyOp25
 70
     1
102
RTVSPropertyOp26
 70
     1
102
RTVSPropertyOp27
 70
     1
102
RTVSPropertyOp28
 70
     1
102
RTVSPropertyOp29
 70
     1
102
RTVSPropertyOp30
 70
     1
102
RTVSPropertyOp31
 70
     1
102
RTVSPropertyOp32
 70
     1
102
RTVSPropertyOp33
 70
     1
102
RTVSPropertyOp34
 70
     1
102
RTVSPropertyOp35
 70
     1
102
RTVSPropertyOp36
 70
     1
102
RTVSPropertyOp37
 70
     1
102
RTVSPropertyOp38
 70
     1
102
RTVSPropertyOp39
 70
     1
102
RTVSPropertyOp40
 70
     1
102
RTVSPropertyOp41
 70
     1
102
RTVSPropertyOp42
 70
     1
102
RTVSPropertyOp43
 70
     1
102
RTVSPropertyOp44
 70
     1
102
RTVSPropertyOp45
 70
     1
102
RTVSPropertyOp46
 70
     1
102
RTVSPropertyOp47
 70
     1
102
RTVSPropertyOp48
 70
     1
102
RTVSPropertyOp49
 70
     1
102
RTVSPropertyOp50
 70
     1
102
RTVSPropertyOp51
 70
     0
102
RTVSPropertyOp52
 70
     0
102
RTVSPropertyOp53
 70
     1
102
RTVSPropertyOp54
 70
     1
102
RTVSPropertyOp55
 70
     1
102
RTVSPropertyOp56
 70
     1
102
RTVSPropertyOp57
 70
     1
102
RTVSPropertyOp58
 70
     1
102
RTVSPropertyOp59
 70
     1
102
RTVSPropertyOp60
 70
     1
102
RTVSPropertyOp61
 70
     1
102
RTVSPropertyOp62
 70
     1
  0
XRECORD
  5
7F9
102
{ACAD_REACTORS
330
7F8
102
}
330
7F8
100
AcDbXrecord
280
     1
102
RTVSPost2010Prop28
280
     0
102
RTVSPost2010PropOp28
 70
     1
102
RTVSPost2010Prop29
280
     1
102
RTVSPost2010PropOp29
 70
     1
102
RTVSPost2010Prop30
280
     1
102
RTVSPost2010PropOp30
 70
     1
102
RTVSPost2010Prop31
280
     0
102
RTVSPost2010PropOp31
 70
     1
102
RTVSPost2010Prop32
280
     0
102
RTVSPost2010PropOp32
 70
     1
102
RTVSPost2010Prop33
280
     0
102
RTVSPost2010PropOp33
 70
     1
102
RTVSPost2010Prop34
280
     0
102
RTVSPost2010PropOp34
 70
     1
102
RTVSPost2010Prop35
280
     0
102
RTVSPost2010PropOp35
 70
     1
102
RTVSPost2010Prop36
280
     0
102
RTVSPost2010PropOp36
 70
     1
102
RTVSPost2010Prop37
 90
       50
102
RTVSPost2010PropOp37
 70
     1
102
RTVSPost2010Prop38
140
0.0
102
RTVSPost2010PropOp38
 70
     1
102
RTVSPost2010Prop39
140
1.0
102
RTVSPost2010PropOp39
 70
     1
102
RTVSPost2010Prop40
 90
        0
102
RTVSPost2010PropOp40
 70
     1
102
RTVSPost2010Prop41ColorIndex
 90
       18
102
RTVSPost2010Prop41ColorRGB
 90
        0
102
RTVSPost2010PropOp41
 70
     1
102
RTVSPost2010Prop42
 90
       50
102
RTVSPost2010PropOp42
 70
     1
102
RTVSPost2010Prop43
 90
        3
102
RTVSPost2010PropOp43
 70
     1
102
RTVSPost2010Prop44ColorIndex
 90
        5
102
RTVSPost2010Prop44ColorRGB
 90
      255
102
RTVSPost2010PropOp44
 70
     1
102
RTVSPost2010Prop45
280
     0
102
RTVSPost2010PropOp45
 70
     1
102
RTVSPost2010Prop46
 90
       50
102
RTVSPost2010PropOp46
 70
     1
102
RTVSPost2010Prop47
 90
       50
102
RTVSPost2010PropOp47
 70
     1
102
RTVSPost2010Prop48
 90
       50
102
RTVSPost2010PropOp48
 70
     1
102
RTVSPost2010Prop49
280
     0
102
RTVSPost2010PropOp49
 70
     1
102
RTVSPost2010Prop50
 90
       50
102
RTVSPost2010PropOp50
 70
     1
102
RTVSPost2010Prop51ColorIndex
 90
      256
102
RTVSPost2010Prop51ColorRGB
 90
-16777216
102
RTVSPost2010PropOp51
 70
     0
102
RTVSPost2010Prop52
140
1.0
102
RTVSPost2010PropOp52
 70
     0
102
RTVSPost2010Prop53
 90
        2
102
RTVSPost2010PropOp53
 70
     1
102
RTVSPost2010Prop54
  1
strokes_ogs.tif
102
RTVSPost2010PropOp54
 70
     1
102
RTVSPost2010Prop55
280
     0
102
RTVSPost2010PropOp55
 70
     1
102
RTVSPost2010Prop56
140
1.0
102
RTVSPost2010PropOp56
 70
     1
102
RTVSPost2010Prop57
140
1.0
102
RTVSPost2010PropOp57
 70
     1
102
RTVSPropertyOp0
 70
     1
102
RTVSPropertyOp1
 70
     1
102
RTVSPropertyOp2
 70
     1
102
RTVSPropertyOp3
 70
     1
102
RTVSPropertyOp4
 70
     1
102
RTVSPropertyOp5
 70
     1
102
RTVSPropertyOp6
 70
     1
102
RTVSPropertyOp7
 70
     1
102
RTVSPropertyOp8
 70
     1
102
RTVSPropertyOp9
 70
     1
102
RTVSPropertyOp10
 70
     1
102
RTVSPropertyOp11
 70
     1
102
RTVSPropertyOp12
 70
     1
102
RTVSPropertyOp13
 70
     1
102
RTVSPropertyOp14
 70
     1
102
RTVSPropertyOp15
 70
     1
102
RTVSPropertyOp16
 70
     1
102
RTVSPropertyOp17
 70
     1
102
RTVSPropertyOp18
 70
     1
102
RTVSPropertyOp19
 70
     1
102
RTVSPropertyOp20
 70
     1
102
RTVSPropertyOp21
 70
     1
102
RTVSPropertyOp22
 70
     1
102
RTVSPropertyOp23
 70
     1
102
RTVSPropertyOp24
 70
     1
102
RTVSPropertyOp25
 70
     1
102
RTVSPropertyOp26
 70
     1
102
RTVSPropertyOp27
 70
     1
102
RTVSPropertyOp28
 70
     1
102
RTVSPropertyOp29
 70
     1
102
RTVSPropertyOp30
 70
     1
102
RTVSPropertyOp31
 70
     1
102
RTVSPropertyOp32
 70
     1
102
RTVSPropertyOp33
 70
     1
102
RTVSPropertyOp34
 70
     1
102
RTVSPropertyOp35
 70
     1
102
RTVSPropertyOp36
 70
     1
102
RTVSPropertyOp37
 70
     1
102
RTVSPropertyOp38
 70
     1
102
RTVSPropertyOp39
 70
     1
102
RTVSPropertyOp40
 70
     1
102
RTVSPropertyOp41
 70
     1
102
RTVSPropertyOp42
 70
     1
102
RTVSPropertyOp43
 70
     1
102
RTVSPropertyOp44
 70
     1
102
RTVSPropertyOp45
 70
     1
102
RTVSPropertyOp46
 70
     1
102
RTVSPropertyOp47
 70
     1
102
RTVSPropertyOp48
 70
     1
102
RTVSPropertyOp49
 70
     1
102
RTVSPropertyOp50
 70
     1
102
RTVSPropertyOp51
 70
     0
102
RTVSPropertyOp52
 70
     0
102
RTVSPropertyOp53
 70
     1
102
RTVSPropertyOp54
 70
     1
102
RTVSPropertyOp55
 70
     1
102
RTVSPropertyOp56
 70
     1
102
RTVSPropertyOp57
 70
     1
102
RTVSPropertyOp58
 70
     1
102
RTVSPropertyOp59
 70
     1
102
RTVSPropertyOp60
 70
     1
102
RTVSPropertyOp61
 70
     1
102
RTVSPropertyOp62
 70
     1
  0
XRECORD
  5
7FB
102
{ACAD_REACTORS
330
7FA
102
}
330
7FA
100
AcDbXrecord
280
     1
102
RTVSPost2010Prop28
280
     0
102
RTVSPost2010PropOp28
 70
     1
102
RTVSPost2010Prop29
280
     1
102
RTVSPost2010PropOp29
 70
     1
102
RTVSPost2010Prop30
280
     1
102
RTVSPost2010PropOp30
 70
     1
102
RTVSPost2010Prop31
280
     0
102
RTVSPost2010PropOp31
 70
     1
102
RTVSPost2010Prop32
280
     0
102
RTVSPost2010PropOp32
 70
     1
102
RTVSPost2010Prop33
280
     0
102
RTVSPost2010PropOp33
 70
     1
102
RTVSPost2010Prop34
280
     0
102
RTVSPost2010PropOp34
 70
     1
102
RTVSPost2010Prop35
280
     0
102
RTVSPost2010PropOp35
 70
     1
102
RTVSPost2010Prop36
280
     0
102
RTVSPost2010PropOp36
 70
     1
102
RTVSPost2010Prop37
 90
       50
102
RTVSPost2010PropOp37
 70
     1
102
RTVSPost2010Prop38
140
0.0
102
RTVSPost2010PropOp38
 70
     1
102
RTVSPost2010Prop39
140
1.0
102
RTVSPost2010PropOp39
 70
     1
102
RTVSPost2010Prop40
 90
        0
102
RTVSPost2010PropOp40
 70
     1
102
RTVSPost2010Prop41ColorIndex
 90
       18
102
RTVSPost2010Prop41ColorRGB
 90
        0
102
RTVSPost2010PropOp41
 70
     1
102
RTVSPost2010Prop42
 90
       50
102
RTVSPost2010PropOp42
 70
     1
102
RTVSPost2010Prop43
 90
        3
102
RTVSPost2010PropOp43
 70
     1
102
RTVSPost2010Prop44ColorIndex
 90
        5
102
RTVSPost2010Prop44ColorRGB
 90
      255
102
RTVSPost2010PropOp44
 70
     1
102
RTVSPost2010Prop45
280
     0
102
RTVSPost2010PropOp45
 70
     1
102
RTVSPost2010Prop46
 90
       50
102
RTVSPost2010PropOp46
 70
     1
102
RTVSPost2010Prop47
 90
       50
102
RTVSPost2010PropOp47
 70
     1
102
RTVSPost2010Prop48
 90
       50
102
RTVSPost2010PropOp48
 70
     1
102
RTVSPost2010Prop49
280
     0
102
RTVSPost2010PropOp49
 70
     1
102
RTVSPost2010Prop50
 90
       50
102
RTVSPost2010PropOp50
 70
     1
102
RTVSPost2010Prop51ColorIndex
 90
      256
102
RTVSPost2010Prop51ColorRGB
 90
-16777216
102
RTVSPost2010PropOp51
 70
     0
102
RTVSPost2010Prop52
140
1.0
102
RTVSPost2010PropOp52
 70
     0
102
RTVSPost2010Prop53
 90
        2
102
RTVSPost2010PropOp53
 70
     1
102
RTVSPost2010Prop54
  1
strokes_ogs.tif
102
RTVSPost2010PropOp54
 70
     1
102
RTVSPost2010Prop55
280
     0
102
RTVSPost2010PropOp55
 70
     1
102
RTVSPost2010Prop56
140
1.0
102
RTVSPost2010PropOp56
 70
     1
102
RTVSPost2010Prop57
140
1.0
102
RTVSPost2010PropOp57
 70
     1
102
RTVSPropertyOp0
 70
     1
102
RTVSPropertyOp1
 70
     1
102
RTVSPropertyOp2
 70
     1
102
RTVSPropertyOp3
 70
     1
102
RTVSPropertyOp4
 70
     1
102
RTVSPropertyOp5
 70
     1
102
RTVSPropertyOp6
 70
     1
102
RTVSPropertyOp7
 70
     1
102
RTVSPropertyOp8
 70
     1
102
RTVSPropertyOp9
 70
     1
102
RTVSPropertyOp10
 70
     1
102
RTVSPropertyOp11
 70
     1
102
RTVSPropertyOp12
 70
     1
102
RTVSPropertyOp13
 70
     1
102
RTVSPropertyOp14
 70
     1
102
RTVSPropertyOp15
 70
     1
102
RTVSPropertyOp16
 70
     1
102
RTVSPropertyOp17
 70
     1
102
RTVSPropertyOp18
 70
     1
102
RTVSPropertyOp19
 70
     1
102
RTVSPropertyOp20
 70
     1
102
RTVSPropertyOp21
 70
     1
102
RTVSPropertyOp22
 70
     1
102
RTVSPropertyOp23
 70
     1
102
RTVSPropertyOp24
 70
     1
102
RTVSPropertyOp25
 70
     1
102
RTVSPropertyOp26
 70
     1
102
RTVSPropertyOp27
 70
     1
102
RTVSPropertyOp28
 70
     1
102
RTVSPropertyOp29
 70
     1
102
RTVSPropertyOp30
 70
     1
102
RTVSPropertyOp31
 70
     1
102
RTVSPropertyOp32
 70
     1
102
RTVSPropertyOp33
 70
     1
102
RTVSPropertyOp34
 70
     1
102
RTVSPropertyOp35
 70
     1
102
RTVSPropertyOp36
 70
     1
102
RTVSPropertyOp37
 70
     1
102
RTVSPropertyOp38
 70
     1
102
RTVSPropertyOp39
 70
     1
102
RTVSPropertyOp40
 70
     1
102
RTVSPropertyOp41
 70
     1
102
RTVSPropertyOp42
 70
     1
102
RTVSPropertyOp43
 70
     1
102
RTVSPropertyOp44
 70
     1
102
RTVSPropertyOp45
 70
     1
102
RTVSPropertyOp46
 70
     1
102
RTVSPropertyOp47
 70
     1
102
RTVSPropertyOp48
 70
     1
102
RTVSPropertyOp49
 70
     1
102
RTVSPropertyOp50
 70
     1
102
RTVSPropertyOp51
 70
     0
102
RTVSPropertyOp52
 70
     0
102
RTVSPropertyOp53
 70
     1
102
RTVSPropertyOp54
 70
     1
102
RTVSPropertyOp55
 70
     1
102
RTVSPropertyOp56
 70
     1
102
RTVSPropertyOp57
 70
     1
102
RTVSPropertyOp58
 70
     1
102
RTVSPropertyOp59
 70
     1
102
RTVSPropertyOp60
 70
     1
102
RTVSPropertyOp61
 70
     1
102
RTVSPropertyOp62
 70
     1
  0
XRECORD
  5
7F1
102
{ACAD_REACTORS
330
7F0
102
}
330
7F0
100
AcDbXrecord
280
     1
102
RTVSPost2010Prop28
280
     0
102
RTVSPost2010PropOp28
 70
     1
102
RTVSPost2010Prop29
280
     1
102
RTVSPost2010PropOp29
 70
     1
102
RTVSPost2010Prop30
280
     1
102
RTVSPost2010PropOp30
 70
     1
102
RTVSPost2010Prop31
280
     0
102
RTVSPost2010PropOp31
 70
     1
102
RTVSPost2010Prop32
280
     0
102
RTVSPost2010PropOp32
 70
     1
102
RTVSPost2010Prop33
280
     0
102
RTVSPost2010PropOp33
 70
     1
102
RTVSPost2010Prop34
280
     0
102
RTVSPost2010PropOp34
 70
     1
102
RTVSPost2010Prop35
280
     0
102
RTVSPost2010PropOp35
 70
     1
102
RTVSPost2010Prop36
280
     0
102
RTVSPost2010PropOp36
 70
     1
102
RTVSPost2010Prop37
 90
       50
102
RTVSPost2010PropOp37
 70
     1
102
RTVSPost2010Prop38
140
0.0
102
RTVSPost2010PropOp38
 70
     1
102
RTVSPost2010Prop39
140
1.0
102
RTVSPost2010PropOp39
 70
     1
102
RTVSPost2010Prop40
 90
        0
102
RTVSPost2010PropOp40
 70
     1
102
RTVSPost2010Prop41ColorIndex
 90
       18
102
RTVSPost2010Prop41ColorRGB
 90
        0
102
RTVSPost2010PropOp41
 70
     1
102
RTVSPost2010Prop42
 90
       50
102
RTVSPost2010PropOp42
 70
     1
102
RTVSPost2010Prop43
 90
        3
102
RTVSPost2010PropOp43
 70
     1
102
RTVSPost2010Prop44ColorIndex
 90
        5
102
RTVSPost2010Prop44ColorRGB
 90
      255
102
RTVSPost2010PropOp44
 70
     1
102
RTVSPost2010Prop45
280
     0
102
RTVSPost2010PropOp45
 70
     1
102
RTVSPost2010Prop46
 90
       50
102
RTVSPost2010PropOp46
 70
     1
102
RTVSPost2010Prop47
 90
       50
102
RTVSPost2010PropOp47
 70
     1
102
RTVSPost2010Prop48
 90
       50
102
RTVSPost2010PropOp48
 70
     1
102
RTVSPost2010Prop49
280
     0
102
RTVSPost2010PropOp49
 70
     1
102
RTVSPost2010Prop50
 90
       50
102
RTVSPost2010PropOp50
 70
     1
102
RTVSPost2010Prop51ColorIndex
 90
      256
102
RTVSPost2010Prop51ColorRGB
 90
-16777216
102
RTVSPost2010PropOp51
 70
     0
102
RTVSPost2010Prop52
140
1.0
102
RTVSPost2010PropOp52
 70
     0
102
RTVSPost2010Prop53
 90
        2
102
RTVSPost2010PropOp53
 70
     1
102
RTVSPost2010Prop54
  1
strokes_ogs.tif
102
RTVSPost2010PropOp54
 70
     1
102
RTVSPost2010Prop55
280
     0
102
RTVSPost2010PropOp55
 70
     1
102
RTVSPost2010Prop56
140
1.0
102
RTVSPost2010PropOp56
 70
     1
102
RTVSPost2010Prop57
140
1.0
102
RTVSPost2010PropOp57
 70
     1
102
RTVSPropertyOp0
 70
     1
102
RTVSPropertyOp1
 70
     1
102
RTVSPropertyOp2
 70
     1
102
RTVSPropertyOp3
 70
     1
102
RTVSPropertyOp4
 70
     1
102
RTVSPropertyOp5
 70
     1
102
RTVSPropertyOp6
 70
     1
102
RTVSPropertyOp7
 70
     1
102
RTVSPropertyOp8
 70
     1
102
RTVSPropertyOp9
 70
     1
102
RTVSPropertyOp10
 70
     1
102
RTVSPropertyOp11
 70
     1
102
RTVSPropertyOp12
 70
     1
102
RTVSPropertyOp13
 70
     1
102
RTVSPropertyOp14
 70
     1
102
RTVSPropertyOp15
 70
     1
102
RTVSPropertyOp16
 70
     1
102
RTVSPropertyOp17
 70
     1
102
RTVSPropertyOp18
 70
     1
102
RTVSPropertyOp19
 70
     1
102
RTVSPropertyOp20
 70
     1
102
RTVSPropertyOp21
 70
     1
102
RTVSPropertyOp22
 70
     1
102
RTVSPropertyOp23
 70
     1
102
RTVSPropertyOp24
 70
     1
102
RTVSPropertyOp25
 70
     1
102
RTVSPropertyOp26
 70
     1
102
RTVSPropertyOp27
 70
     1
102
RTVSPropertyOp28
 70
     1
102
RTVSPropertyOp29
 70
     1
102
RTVSPropertyOp30
 70
     1
102
RTVSPropertyOp31
 70
     1
102
RTVSPropertyOp32
 70
     1
102
RTVSPropertyOp33
 70
     1
102
RTVSPropertyOp34
 70
     1
102
RTVSPropertyOp35
 70
     1
102
RTVSPropertyOp36
 70
     1
102
RTVSPropertyOp37
 70
     1
102
RTVSPropertyOp38
 70
     1
102
RTVSPropertyOp39
 70
     1
102
RTVSPropertyOp40
 70
     1
102
RTVSPropertyOp41
 70
     1
102
RTVSPropertyOp42
 70
     1
102
RTVSPropertyOp43
 70
     1
102
RTVSPropertyOp44
 70
     1
102
RTVSPropertyOp45
 70
     1
102
RTVSPropertyOp46
 70
     1
102
RTVSPropertyOp47
 70
     1
102
RTVSPropertyOp48
 70
     1
102
RTVSPropertyOp49
 70
     1
102
RTVSPropertyOp50
 70
     1
102
RTVSPropertyOp51
 70
     0
102
RTVSPropertyOp52
 70
     0
102
RTVSPropertyOp53
 70
     1
102
RTVSPropertyOp54
 70
     1
102
RTVSPropertyOp55
 70
     1
102
RTVSPropertyOp56
 70
     1
102
RTVSPropertyOp57
 70
     1
102
RTVSPropertyOp58
 70
     1
102
RTVSPropertyOp59
 70
     1
102
RTVSPropertyOp60
 70
     1
102
RTVSPropertyOp61
 70
     1
102
RTVSPropertyOp62
 70
     1
  0
XRECORD
  5
7E5
102
{ACAD_REACTORS
330
7E4
102
}
330
7E4
100
AcDbXrecord
280
     1
102
RTVSPost2010Prop28
280
     0
102
RTVSPost2010PropOp28
 70
     1
102
RTVSPost2010Prop29
280
     1
102
RTVSPost2010PropOp29
 70
     1
102
RTVSPost2010Prop30
280
     1
102
RTVSPost2010PropOp30
 70
     1
102
RTVSPost2010Prop31
280
     0
102
RTVSPost2010PropOp31
 70
     1
102
RTVSPost2010Prop32
280
     0
102
RTVSPost2010PropOp32
 70
     1
102
RTVSPost2010Prop33
280
     0
102
RTVSPost2010PropOp33
 70
     1
102
RTVSPost2010Prop34
280
     0
102
RTVSPost2010PropOp34
 70
     1
102
RTVSPost2010Prop35
280
     0
102
RTVSPost2010PropOp35
 70
     1
102
RTVSPost2010Prop36
280
     0
102
RTVSPost2010PropOp36
 70
     1
102
RTVSPost2010Prop37
 90
       50
102
RTVSPost2010PropOp37
 70
     1
102
RTVSPost2010Prop38
140
0.0
102
RTVSPost2010PropOp38
 70
     1
102
RTVSPost2010Prop39
140
1.0
102
RTVSPost2010PropOp39
 70
     1
102
RTVSPost2010Prop40
 90
        0
102
RTVSPost2010PropOp40
 70
     1
102
RTVSPost2010Prop41ColorIndex
 90
       18
102
RTVSPost2010Prop41ColorRGB
 90
        0
102
RTVSPost2010PropOp41
 70
     1
102
RTVSPost2010Prop42
 90
       50
102
RTVSPost2010PropOp42
 70
     1
102
RTVSPost2010Prop43
 90
        3
102
RTVSPost2010PropOp43
 70
     1
102
RTVSPost2010Prop44ColorIndex
 90
        5
102
RTVSPost2010Prop44ColorRGB
 90
      255
102
RTVSPost2010PropOp44
 70
     1
102
RTVSPost2010Prop45
280
     0
102
RTVSPost2010PropOp45
 70
     1
102
RTVSPost2010Prop46
 90
       50
102
RTVSPost2010PropOp46
 70
     1
102
RTVSPost2010Prop47
 90
       50
102
RTVSPost2010PropOp47
 70
     1
102
RTVSPost2010Prop48
 90
       50
102
RTVSPost2010PropOp48
 70
     1
102
RTVSPost2010Prop49
280
     0
102
RTVSPost2010PropOp49
 70
     1
102
RTVSPost2010Prop50
 90
       50
102
RTVSPost2010PropOp50
 70
     1
102
RTVSPost2010Prop51ColorIndex
 90
      256
102
RTVSPost2010Prop51ColorRGB
 90
-16777216
102
RTVSPost2010PropOp51
 70
     0
102
RTVSPost2010Prop52
140
1.0
102
RTVSPost2010PropOp52
 70
     0
102
RTVSPost2010Prop53
 90
        2
102
RTVSPost2010PropOp53
 70
     1
102
RTVSPost2010Prop54
  1
strokes_ogs.tif
102
RTVSPost2010PropOp54
 70
     1
102
RTVSPost2010Prop55
280
     0
102
RTVSPost2010PropOp55
 70
     1
102
RTVSPost2010Prop56
140
1.0
102
RTVSPost2010PropOp56
 70
     1
102
RTVSPost2010Prop57
140
1.0
102
RTVSPost2010PropOp57
 70
     1
102
RTVSPropertyOp0
 70
     1
102
RTVSPropertyOp1
 70
     1
102
RTVSPropertyOp2
 70
     1
102
RTVSPropertyOp3
 70
     1
102
RTVSPropertyOp4
 70
     1
102
RTVSPropertyOp5
 70
     1
102
RTVSPropertyOp6
 70
     1
102
RTVSPropertyOp7
 70
     1
102
RTVSPropertyOp8
 70
     1
102
RTVSPropertyOp9
 70
     1
102
RTVSPropertyOp10
 70
     1
102
RTVSPropertyOp11
 70
     1
102
RTVSPropertyOp12
 70
     1
102
RTVSPropertyOp13
 70
     1
102
RTVSPropertyOp14
 70
     1
102
RTVSPropertyOp15
 70
     1
102
RTVSPropertyOp16
 70
     1
102
RTVSPropertyOp17
 70
     1
102
RTVSPropertyOp18
 70
     1
102
RTVSPropertyOp19
 70
     1
102
RTVSPropertyOp20
 70
     1
102
RTVSPropertyOp21
 70
     1
102
RTVSPropertyOp22
 70
     1
102
RTVSPropertyOp23
 70
     1
102
RTVSPropertyOp24
 70
     1
102
RTVSPropertyOp25
 70
     1
102
RTVSPropertyOp26
 70
     1
102
RTVSPropertyOp27
 70
     1
102
RTVSPropertyOp28
 70
     1
102
RTVSPropertyOp29
 70
     1
102
RTVSPropertyOp30
 70
     1
102
RTVSPropertyOp31
 70
     1
102
RTVSPropertyOp32
 70
     1
102
RTVSPropertyOp33
 70
     1
102
RTVSPropertyOp34
 70
     1
102
RTVSPropertyOp35
 70
     1
102
RTVSPropertyOp36
 70
     1
102
RTVSPropertyOp37
 70
     1
102
RTVSPropertyOp38
 70
     1
102
RTVSPropertyOp39
 70
     1
102
RTVSPropertyOp40
 70
     1
102
RTVSPropertyOp41
 70
     1
102
RTVSPropertyOp42
 70
     1
102
RTVSPropertyOp43
 70
     1
102
RTVSPropertyOp44
 70
     1
102
RTVSPropertyOp45
 70
     1
102
RTVSPropertyOp46
 70
     1
102
RTVSPropertyOp47
 70
     1
102
RTVSPropertyOp48
 70
     1
102
RTVSPropertyOp49
 70
     1
102
RTVSPropertyOp50
 70
     1
102
RTVSPropertyOp51
 70
     0
102
RTVSPropertyOp52
 70
     0
102
RTVSPropertyOp53
 70
     1
102
RTVSPropertyOp54
 70
     1
102
RTVSPropertyOp55
 70
     1
102
RTVSPropertyOp56
 70
     1
102
RTVSPropertyOp57
 70
     1
102
RTVSPropertyOp58
 70
     1
102
RTVSPropertyOp59
 70
     1
102
RTVSPropertyOp60
 70
     1
102
RTVSPropertyOp61
 70
     1
102
RTVSPropertyOp62
 70
     1
  0
XRECORD
  5
7FD
102
{ACAD_REACTORS
330
7FC
102
}
330
7FC
100
AcDbXrecord
280
     1
102
RTVSPost2010Prop28
280
     0
102
RTVSPost2010PropOp28
 70
     1
102
RTVSPost2010Prop29
280
     1
102
RTVSPost2010PropOp29
 70
     1
102
RTVSPost2010Prop30
280
     1
102
RTVSPost2010PropOp30
 70
     1
102
RTVSPost2010Prop31
280
     0
102
RTVSPost2010PropOp31
 70
     1
102
RTVSPost2010Prop32
280
     0
102
RTVSPost2010PropOp32
 70
     1
102
RTVSPost2010Prop33
280
     0
102
RTVSPost2010PropOp33
 70
     1
102
RTVSPost2010Prop34
280
     0
102
RTVSPost2010PropOp34
 70
     1
102
RTVSPost2010Prop35
280
     0
102
RTVSPost2010PropOp35
 70
     1
102
RTVSPost2010Prop36
280
     0
102
RTVSPost2010PropOp36
 70
     1
102
RTVSPost2010Prop37
 90
       50
102
RTVSPost2010PropOp37
 70
     1
102
RTVSPost2010Prop38
140
0.0
102
RTVSPost2010PropOp38
 70
     1
102
RTVSPost2010Prop39
140
1.0
102
RTVSPost2010PropOp39
 70
     1
102
RTVSPost2010Prop40
 90
        0
102
RTVSPost2010PropOp40
 70
     1
102
RTVSPost2010Prop41ColorIndex
 90
       18
102
RTVSPost2010Prop41ColorRGB
 90
        0
102
RTVSPost2010PropOp41
 70
     1
102
RTVSPost2010Prop42
 90
       50
102
RTVSPost2010PropOp42
 70
     1
102
RTVSPost2010Prop43
 90
        3
102
RTVSPost2010PropOp43
 70
     1
102
RTVSPost2010Prop44ColorIndex
 90
        5
102
RTVSPost2010Prop44ColorRGB
 90
      255
102
RTVSPost2010PropOp44
 70
     1
102
RTVSPost2010Prop45
280
     0
102
RTVSPost2010PropOp45
 70
     1
102
RTVSPost2010Prop46
 90
       50
102
RTVSPost2010PropOp46
 70
     1
102
RTVSPost2010Prop47
 90
       50
102
RTVSPost2010PropOp47
 70
     1
102
RTVSPost2010Prop48
 90
       50
102
RTVSPost2010PropOp48
 70
     1
102
RTVSPost2010Prop49
280
     0
102
RTVSPost2010PropOp49
 70
     1
102
RTVSPost2010Prop50
 90
       50
102
RTVSPost2010PropOp50
 70
     1
102
RTVSPost2010Prop51ColorIndex
 90
      256
102
RTVSPost2010Prop51ColorRGB
 90
-16777216
102
RTVSPost2010PropOp51
 70
     0
102
RTVSPost2010Prop52
140
1.0
102
RTVSPost2010PropOp52
 70
     0
102
RTVSPost2010Prop53
 90
        2
102
RTVSPost2010PropOp53
 70
     1
102
RTVSPost2010Prop54
  1
strokes_ogs.tif
102
RTVSPost2010PropOp54
 70
     1
102
RTVSPost2010Prop55
280
     0
102
RTVSPost2010PropOp55
 70
     1
102
RTVSPost2010Prop56
140
1.0
102
RTVSPost2010PropOp56
 70
     1
102
RTVSPost2010Prop57
140
1.0
102
RTVSPost2010PropOp57
 70
     1
102
RTVSPropertyOp0
 70
     1
102
RTVSPropertyOp1
 70
     1
102
RTVSPropertyOp2
 70
     1
102
RTVSPropertyOp3
 70
     1
102
RTVSPropertyOp4
 70
     1
102
RTVSPropertyOp5
 70
     1
102
RTVSPropertyOp6
 70
     1
102
RTVSPropertyOp7
 70
     1
102
RTVSPropertyOp8
 70
     1
102
RTVSPropertyOp9
 70
     1
102
RTVSPropertyOp10
 70
     1
102
RTVSPropertyOp11
 70
     1
102
RTVSPropertyOp12
 70
     1
102
RTVSPropertyOp13
 70
     1
102
RTVSPropertyOp14
 70
     1
102
RTVSPropertyOp15
 70
     1
102
RTVSPropertyOp16
 70
     1
102
RTVSPropertyOp17
 70
     1
102
RTVSPropertyOp18
 70
     1
102
RTVSPropertyOp19
 70
     1
102
RTVSPropertyOp20
 70
     1
102
RTVSPropertyOp21
 70
     1
102
RTVSPropertyOp22
 70
     1
102
RTVSPropertyOp23
 70
     1
102
RTVSPropertyOp24
 70
     1
102
RTVSPropertyOp25
 70
     1
102
RTVSPropertyOp26
 70
     1
102
RTVSPropertyOp27
 70
     1
102
RTVSPropertyOp28
 70
     1
102
RTVSPropertyOp29
 70
     1
102
RTVSPropertyOp30
 70
     1
102
RTVSPropertyOp31
 70
     1
102
RTVSPropertyOp32
 70
     1
102
RTVSPropertyOp33
 70
     1
102
RTVSPropertyOp34
 70
     1
102
RTVSPropertyOp35
 70
     1
102
RTVSPropertyOp36
 70
     1
102
RTVSPropertyOp37
 70
     1
102
RTVSPropertyOp38
 70
     1
102
RTVSPropertyOp39
 70
     1
102
RTVSPropertyOp40
 70
     1
102
RTVSPropertyOp41
 70
     1
102
RTVSPropertyOp42
 70
     1
102
RTVSPropertyOp43
 70
     1
102
RTVSPropertyOp44
 70
     1
102
RTVSPropertyOp45
 70
     1
102
RTVSPropertyOp46
 70
     1
102
RTVSPropertyOp47
 70
     1
102
RTVSPropertyOp48
 70
     1
102
RTVSPropertyOp49
 70
     1
102
RTVSPropertyOp50
 70
     1
102
RTVSPropertyOp51
 70
     0
102
RTVSPropertyOp52
 70
     0
102
RTVSPropertyOp53
 70
     1
102
RTVSPropertyOp54
 70
     1
102
RTVSPropertyOp55
 70
     1
102
RTVSPropertyOp56
 70
     1
102
RTVSPropertyOp57
 70
     1
102
RTVSPropertyOp58
 70
     1
102
RTVSPropertyOp59
 70
     1
102
RTVSPropertyOp60
 70
     1
102
RTVSPropertyOp61
 70
     1
102
RTVSPropertyOp62
 70
     1
  0
ENDSEC
  0
EOF
