  0
SECTION
  2
HEADER
  9
$ACADVER
  1
AC1015
  9
$ACADMAINTVER
 70
    20
  9
$DWGCODEPAGE
  3
ANSI_932
  9
$INSBASE
 10
0.0
 20
0.0
 30
0.0
  9
$EXTMIN
 10
10.0
 20
9.999999999999998
 30
0.0
  9
$EXTMAX
 10
488.384338
 20
330.4774479999999
 30
0.0
  9
$LIMMIN
 10
0.0
 20
0.0
  9
$LIMMAX
 10
495.0
 20
341.25
  9
$ORTHOMODE
 70
     0
  9
$REGENMODE
 70
     1
  9
$FILLMODE
 70
     1
  9
$QTEXTMODE
 70
     0
  9
$MIRRTEXT
 70
     1
  9
$LTSCALE
 40
20.0
  9
$ATTMODE
 70
     1
  9
$TEXTSIZE
 40
5.0
  9
$TRACEWID
 40
1.0
  9
$TEXTSTYLE
  7
STANDARD
  9
$CLAYER
  8
0
  9
$CELTYPE
  6
BYLAYER
  9
$CECOLOR
 62
   256
  9
$CELTSCALE
 40
1.0
  9
$DISPSILH
 70
     0
  9
$DIMSCALE
 40
1.0
  9
$DIMASZ
 40
3.0
  9
$DIMEXO
 40
1.0
  9
$DIMDLI
 40
10.0
  9
$DIMRND
 40
0.0
  9
$DIMDLE
 40
0.0
  9
$DIMEXE
 40
1.0
  9
$DIMTP
 40
0.0
  9
$DIMTM
 40
0.0
  9
$DIMTXT
 40
3.2
  9
$DIMCEN
 40
0.0
  9
$DIMTSZ
 40
0.0
  9
$DIMTOL
 70
     0
  9
$DIMLIM
 70
     0
  9
$DIMTIH
 70
     0
  9
$DIMTOH
 70
     0
  9
$DIMSE1
 70
     0
  9
$DIMSE2
 70
     0
  9
$DIMTAD
 70
     3
  9
$DIMZIN
 70
     8
  9
$DIMBLK
  1

  9
$DIMASO
 70
     1
  9
$DIMSHO
 70
     1
  9
$DIMPOST
  1

  9
$DIMAPOST
  1

  9
$DIMALT
 70
     0
  9
$DIMALTD
 70
     2
  9
$DIMALTF
 40
25.4
  9
$DIMLFAC
 40
1.0
  9
$DIMTOFL
 70
     1
  9
$DIMTVP
 40
0.0
  9
$DIMTIX
 70
     0
  9
$DIMSOXD
 70
     0
  9
$DIMSAH
 70
     1
  9
$DIMBLK1
  1
OPEN
  9
$DIMBLK2
  1
OPEN
  9
$DIMSTYLE
  2
STANDARD
  9
$DIMCLRD
 70
     0
  9
$DIMCLRE
 70
     0
  9
$DIMCLRT
 70
     0
  9
$DIMTFAC
 40
1.0
  9
$DIMGAP
 40
1.0
  9
$DIMJUST
 70
     0
  9
$DIMSD1
 70
     0
  9
$DIMSD2
 70
     0
  9
$DIMTOLJ
 70
     1
  9
$DIMTZIN
 70
     0
  9
$DIMALTZ
 70
     0
  9
$DIMALTTZ
 70
     0
  9
$DIMUPT
 70
     0
  9
$DIMDEC
 70
     4
  9
$DIMTDEC
 70
     4
  9
$DIMALTU
 70
     2
  9
$DIMALTTD
 70
     2
  9
$DIMTXSTY
  7
STANDARD
  9
$DIMAUNIT
 70
     0
  9
$DIMADEC
 70
     0
  9
$DIMALTRND
 40
0.0
  9
$DIMAZIN
 70
     0
  9
$DIMDSEP
 70
    46
  9
$DIMATFIT
 70
     3
  9
$DIMFRAC
 70
     0
  9
$DIMLDRBLK
  1
OPEN
  9
$DIMLUNIT
 70
     2
  9
$DIMLWD
 70
    -2
  9
$DIMLWE
 70
    -2
  9
$DIMTMOVE
 70
     0
  9
$LUNITS
 70
     2
  9
$LUPREC
 70
     4
  9
$SKETCHINC
 40
1.0
  9
$FILLETRAD
 40
7.7
  9
$AUNITS
 70
     0
  9
$AUPREC
 70
     2
  9
$MENU
  1
.
  9
$ELEVATION
 40
0.0
  9
$PELEVATION
 40
0.0
  9
$THICKNESS
 40
0.0
  9
$LIMCHECK
 70
     0
  9
$CHAMFERA
 40
10.0
  9
$CHAMFERB
 40
10.0
  9
$CHAMFERC
 40
0.0
  9
$CHAMFERD
 40
0.0
  9
$SKPOLY
 70
     0
  9
$TDCREATE
 40
2451301.699160764
  9
$TDUCREATE
 40
2451301.324160764
  9
$TDUPDATE
 40
2457192.687061123
  9
$TDUUPDATE
 40
2457192.312061123
  9
$TDINDWG
 40
0.0000104051
  9
$TDUSRTIMER
 40
0.0000099190
  9
$USRTIMER
 70
     1
  9
$ANGBASE
 50
0.0
  9
$ANGDIR
 70
     0
  9
$PDMODE
 70
     0
  9
$PDSIZE
 40
0.0
  9
$PLINEWID
 40
0.0
  9
$SPLFRAME
 70
     0
  9
$SPLINETYPE
 70
     6
  9
$SPLINESEGS
 70
     8
  9
$HANDSEED
  5
9FC9
  9
$SURFTAB1
 70
     6
  9
$SURFTAB2
 70
     6
  9
$SURFTYPE
 70
     6
  9
$SURFU
 70
     6
  9
$SURFV
 70
     6
  9
$UCSBASE
  2

  9
$UCSNAME
  2

  9
$UCSORG
 10
0.0
 20
0.0
 30
0.0
  9
$UCSXDIR
 10
1.0
 20
0.0
 30
0.0
  9
$UCSYDIR
 10
0.0
 20
1.0
 30
0.0
  9
$UCSORTHOREF
  2

  9
$UCSORTHOVIEW
 70
     0
  9
$UCSORGTOP
 10
0.0
 20
0.0
 30
0.0
  9
$UCSORGBOTTOM
 10
0.0
 20
0.0
 30
0.0
  9
$UCSORGLEFT
 10
0.0
 20
0.0
 30
0.0
  9
$UCSORGRIGHT
 10
0.0
 20
0.0
 30
0.0
  9
$UCSORGFRONT
 10
0.0
 20
0.0
 30
0.0
  9
$UCSORGBACK
 10
0.0
 20
0.0
 30
0.0
  9
$PUCSBASE
  2

  9
$PUCSNAME
  2

  9
$PUCSORG
 10
0.0
 20
0.0
 30
0.0
  9
$PUCSXDIR
 10
1.0
 20
0.0
 30
0.0
  9
$PUCSYDIR
 10
0.0
 20
1.0
 30
0.0
  9
$PUCSORTHOREF
  2

  9
$PUCSORTHOVIEW
 70
     0
  9
$PUCSORGTOP
 10
0.0
 20
0.0
 30
0.0
  9
$PUCSORGBOTTOM
 10
0.0
 20
0.0
 30
0.0
  9
$PUCSORGLEFT
 10
0.0
 20
0.0
 30
0.0
  9
$PUCSORGRIGHT
 10
0.0
 20
0.0
 30
0.0
  9
$PUCSORGFRONT
 10
0.0
 20
0.0
 30
0.0
  9
$PUCSORGBACK
 10
0.0
 20
0.0
 30
0.0
  9
$USERI1
 70
     0
  9
$USERI2
 70
     0
  9
$USERI3
 70
     0
  9
$USERI4
 70
     0
  9
$USERI5
 70
     0
  9
$USERR1
 40
0.0
  9
$USERR2
 40
0.0
  9
$USERR3
 40
0.0
  9
$USERR4
 40
0.0
  9
$USERR5
 40
0.0
  9
$WORLDVIEW
 70
     1
  9
$SHADEDGE
 70
     3
  9
$SHADEDIF
 70
    70
  9
$TILEMODE
 70
     1
  9
$MAXACTVP
 70
    16
  9
$PINSBASE
 10
0.0
 20
0.0
 30
0.0
  9
$PLIMCHECK
 70
     0
  9
$PEXTMIN
 10
1.000000000000000E+20
 20
1.000000000000000E+20
 30
1.000000000000000E+20
  9
$PEXTMAX
 10
-1.000000000000000E+20
 20
-1.000000000000000E+20
 30
-1.000000000000000E+20
  9
$PLIMMIN
 10
0.0
 20
0.0
  9
$PLIMMAX
 10
420.0
 20
297.0
  9
$UNITMODE
 70
     0
  9
$VISRETAIN
 70
     0
  9
$PLINEGEN
 70
     0
  9
$PSLTSCALE
 70
     0
  9
$TREEDEPTH
 70
  3020
  9
$CMLSTYLE
  2
STANDARD
  9
$CMLJUST
 70
     0
  9
$CMLSCALE
 40
1.0
  9
$PROXYGRAPHICS
 70
     1
  9
$MEASUREMENT
 70
     0
  9
$CELWEIGHT
370
    -1
  9
$ENDCAPS
280
     0
  9
$JOINSTYLE
280
     0
  9
$LWDISPLAY
290
     0
  9
$INSUNITS
 70
     0
  9
$HYPERLINKBASE
  1

  9
$STYLESHEET
  1

  9
$XEDIT
290
     1
  9
$CEPSNTYPE
380
     0
  9
$PSTYLEMODE
290
     1
  9
$FINGERPRINTGUID
  2
{6EDCA57E-E2B5-4400-8035-F2008E8E7E65}
  9
$VERSIONGUID
  2
{FE871852-4634-40BE-AD4C-5FF666B87F39}
  9
$EXTNAMES
290
     1
  9
$PSVPSCALE
 40
0.0
  9
$OLESTARTUP
290
     0
  0
ENDSEC
  0
SECTION
  2
CLASSES
  0
CLASS
  1
ACDBDICTIONARYWDFLT
  2
AcDbDictionaryWithDefault
  3
ObjectDBX Classes
 90
        0
280
     0
281
     0
  0
CLASS
  1
ACDBPLACEHOLDER
  2
AcDbPlaceHolder
  3
ObjectDBX Classes
 90
        0
280
     0
281
     0
  0
CLASS
  1
LAYOUT
  2
AcDbLayout
  3
ObjectDBX Classes
 90
        0
280
     0
281
     0
  0
CLASS
  1
DICTIONARYVAR
  2
AcDbDictionaryVar
  3
ObjectDBX Classes
 90
        0
280
     0
281
     0
  0
CLASS
  1
MATERIAL
  2
AcDbMaterial
  3
ObjectDBX Classes
 90
     1153
280
     0
281
     0
  0
CLASS
  1
VISUALSTYLE
  2
AcDbVisualStyle
  3
ObjectDBX Classes
 90
     4095
280
     0
281
     0
  0
CLASS
  1
TABLESTYLE
  2
AcDbTableStyle
  3
ObjectDBX Classes
 90
     4095
280
     0
281
     0
  0
CLASS
  1
SCALE
  2
AcDbScale
  3
ObjectDBX Classes
 90
     1153
280
     0
281
     0
  0
CLASS
  1
MLEADERSTYLE
  2
AcDbMLeaderStyle
  3
ACDB_MLEADERSTYLE_CLASS
 90
     4095
280
     0
281
     0
  0
CLASS
  1
ACDBSECTIONVIEWSTYLE
  2
AcDbSectionViewStyle
  3
ObjectDBX Classes
 90
     1025
280
     0
281
     0
  0
CLASS
  1
ACDBDETAILVIEWSTYLE
  2
AcDbDetailViewStyle
  3
ObjectDBX Classes
 90
     1025
280
     0
281
     0
  0
CLASS
  1
CELLSTYLEMAP
  2
AcDbCellStyleMap
  3
ObjectDBX Classes
 90
     1152
280
     0
281
     0
  0
ENDSEC
  0
SECTION
  2
TABLES
  0
TABLE
  2
VPORT
  5
9CA7
330
0
100
AcDbSymbolTable
 70
     1
  0
VPORT
  5
9F12
330
9CA7
100
AcDbSymbolTableRecord
100
AcDbViewportTableRecord
  2
*ACTIVE
 70
     0
 10
0.0
 20
0.0
 11
1.0
 21
1.0
 12
346.2714957365909
 22
170.2344711615115
 13
0.0
 23
0.0
 14
10.0
 24
10.0
 15
10.0
 25
10.0
 16
0.0
 26
0.0
 36
1.0
 17
0.0
 27
0.0
 37
0.0
 40
324.0360291378984
 41
2.35006605019815
 42
50.0
 43
0.0
 44
0.0
 50
0.0
 51
0.0
 71
     0
 72
   100
 73
     1
 74
     0
 75
     0
 76
     0
 77
     0
 78
     0
281
     0
 65
     1
110
0.0
120
0.0
130
0.0
111
1.0
121
0.0
131
0.0
112
0.0
122
1.0
132
0.0
 79
     0
146
0.0
1001
ACAD_NAV_VCDISPLAY
1070
     3
  0
ENDTAB
  0
TABLE
  2
LTYPE
  5
9CA4
330
0
100
AcDbSymbolTable
 70
     4
  0
LTYPE
  5
9CB2
330
9CA4
100
AcDbSymbolTableRecord
100
AcDbLinetypeTableRecord
  2
BYBLOCK
 70
     0
  3

 72
    65
 73
     0
 40
0.0
  0
LTYPE
  5
9CB3
330
9CA4
100
AcDbSymbolTableRecord
100
AcDbLinetypeTableRecord
  2
BYLAYER
 70
     0
  3

 72
    65
 73
     0
 40
0.0
  0
LTYPE
  5
9CB4
330
9CA4
100
AcDbSymbolTableRecord
100
AcDbLinetypeTableRecord
  2
CONTINUOUS
 70
     0
  3
Solid line
 72
    65
 73
     0
 40
0.0
  0
LTYPE
  5
9CC2
330
9CA4
100
AcDbSymbolTableRecord
100
AcDbLinetypeTableRecord
  2
DASHED
 70
     0
  3
__ __ __ __ __ __ __ __ __ __ __ __ __ __ __ __
 72
    65
 73
     2
 40
0.75
 49
0.5
 74
     0
 49
-0.25
 74
     0
  0
LTYPE
  5
9CC3
330
9CA4
100
AcDbSymbolTableRecord
100
AcDbLinetypeTableRecord
  2
CENTER
 70
     0
  3
____ _ ____ _ ____ _ ____ _ ____ _ ____ _ ____ 
 72
    65
 73
     4
 40
2.0
 49
1.25
 74
     0
 49
-0.25
 74
     0
 49
0.25
 74
     0
 49
-0.25
 74
     0
  0
LTYPE
  5
9CC4
330
9CA4
100
AcDbSymbolTableRecord
100
AcDbLinetypeTableRecord
  2
PHANTOM
 70
     0
  3
______  __  __  ______  __  __  ______  __  __ 
 72
    65
 73
     6
 40
2.5
 49
1.25
 74
     0
 49
-0.25
 74
     0
 49
0.25
 74
     0
 49
-0.25
 74
     0
 49
0.25
 74
     0
 49
-0.25
 74
     0
  0
ENDTAB
  0
TABLE
  2
LAYER
  5
9CA1
330
0
100
AcDbSymbolTable
 70
     8
  0
LAYER
  5
9CAF
102
{ACAD_XDICTIONARY
360
9F6D
102
}
330
9CA1
100
AcDbSymbolTableRecord
100
AcDbLayerTableRecord
  2
0
 70
     0
 62
     7
  6
CONTINUOUS
370
    -3
390
9F1B
  0
LAYER
  5
9CC5
102
{ACAD_XDICTIONARY
360
9F6F
102
}
330
9CA1
100
AcDbSymbolTableRecord
100
AcDbLayerTableRecord
  2
4
 70
     0
 62
     1
  6
CENTER
370
    -3
390
9F1B
  0
LAYER
  5
9CC6
102
{ACAD_XDICTIONARY
360
9F71
102
}
330
9CA1
100
AcDbSymbolTableRecord
100
AcDbLayerTableRecord
  2
5
 70
     0
 62
     6
  6
PHANTOM
370
    -3
390
9F1B
  0
LAYER
  5
9CC7
102
{ACAD_XDICTIONARY
360
9F73
102
}
330
9CA1
100
AcDbSymbolTableRecord
100
AcDbLayerTableRecord
  2
1
 70
     0
 62
     7
  6
CONTINUOUS
370
    -3
390
9F1B
  0
LAYER
  5
9CC8
102
{ACAD_XDICTIONARY
360
9F75
102
}
330
9CA1
100
AcDbSymbolTableRecord
100
AcDbLayerTableRecord
  2
2
 70
     0
 62
     4
  6
CONTINUOUS
370
    -3
390
9F1B
  0
LAYER
  5
9CC9
102
{ACAD_XDICTIONARY
360
9F77
102
}
330
9CA1
100
AcDbSymbolTableRecord
100
AcDbLayerTableRecord
  2
3
 70
     0
 62
     2
  6
DASHED
370
    -3
390
9F1B
  0
LAYER
  5
9CCA
102
{ACAD_XDICTIONARY
360
9F79
102
}
330
9CA1
100
AcDbSymbolTableRecord
100
AcDbLayerTableRecord
  2
6
 70
     0
 62
     5
  6
CONTINUOUS
370
    -3
390
9F1B
  0
LAYER
  5
9CCB
102
{ACAD_XDICTIONARY
360
9F7B
102
}
330
9CA1
100
AcDbSymbolTableRecord
100
AcDbLayerTableRecord
  2
7
 70
     0
 62
     3
  6
CONTINUOUS
370
    -3
390
9F1B
  0
ENDTAB
  0
TABLE
  2
STYLE
  5
9CA2
330
0
100
AcDbSymbolTable
 70
     1
  0
STYLE
  5
9CB0
330
9CA2
100
AcDbSymbolTableRecord
100
AcDbTextStyleTableRecord
  2
STANDARD
 70
     0
 40
0.0
 41
1.0
 50
0.0
 71
     0
 42
5.0
  3
txt
  4

  0
ENDTAB
  0
TABLE
  2
VIEW
  5
9CA5
330
0
100
AcDbSymbolTable
 70
     0
  0
ENDTAB
  0
TABLE
  2
UCS
  5
9CA6
330
0
100
AcDbSymbolTable
 70
     0
  0
ENDTAB
  0
TABLE
  2
APPID
  5
9CA8
330
0
100
AcDbSymbolTable
 70
     3
  0
APPID
  5
9CB1
330
9CA8
100
AcDbSymbolTableRecord
100
AcDbRegAppTableRecord
  2
ACAD
 70
     0
  0
APPID
  5
9F87
330
9CA8
100
AcDbSymbolTableRecord
100
AcDbRegAppTableRecord
  2
ACAD_NAV_VCDISPLAY
 70
     0
  0
APPID
  5
9FC0
330
9CA8
100
AcDbSymbolTableRecord
100
AcDbRegAppTableRecord
  2
ACAD_MLEADERVER
 70
     0
  0
ENDTAB
  0
TABLE
  2
DIMSTYLE
  5
9CA9
330
0
100
AcDbSymbolTable
 70
     1
100
AcDbDimStyleTable
 71
     0
  0
DIMSTYLE
105
9CCD
330
9CA9
100
AcDbSymbolTableRecord
100
AcDbDimStyleTableRecord
  2
STANDARD
 70
     0
 41
3.0
 42
1.0
 43
10.0
 44
1.0
 73
     0
 74
     0
 77
     3
 78
     8
140
3.2
141
0.0
147
1.0
172
     1
173
     1
284
     8
285
     8
286
     8
340
9CB0
  0
ENDTAB
  0
TABLE
  2
BLOCK_RECORD
  5
9CA0
330
0
100
AcDbSymbolTable
 70
     1
  0
BLOCK_RECORD
  5
9CBD
102
{ACAD_XDICTIONARY
360
9F15
102
}
330
9CA0
100
AcDbSymbolTableRecord
100
AcDbBlockTableRecord
  2
*MODEL_SPACE
340
9F69
  0
BLOCK_RECORD
  5
9CB9
102
{ACAD_XDICTIONARY
360
9F13
102
}
330
9CA0
100
AcDbSymbolTableRecord
100
AcDbBlockTableRecord
  2
*PAPER_SPACE
340
9F6A
  0
BLOCK_RECORD
  5
9CD5
330
9CA0
100
AcDbSymbolTableRecord
100
AcDbBlockTableRecord
  2
_OPEN
340
0
  0
ENDTAB
  0
ENDSEC
  0
SECTION
  2
BLOCKS
  0
BLOCK
  5
9CBE
330
9CBD
100
AcDbEntity
  8
0
100
AcDbBlockBegin
  2
*MODEL_SPACE
 70
     0
 10
0.0
 20
0.0
 30
0.0
  3
*MODEL_SPACE
  1

  0
ENDBLK
  5
9CBF
330
9CBD
100
AcDbEntity
  8
0
100
AcDbBlockEnd
  0
BLOCK
  5
9CBA
330
9CB9
100
AcDbEntity
 67
     1
  8
0
100
AcDbBlockBegin
  2
*PAPER_SPACE
 70
     0
 10
0.0
 20
0.0
 30
0.0
  3
*PAPER_SPACE
  1

  0
ENDBLK
  5
9CBB
330
9CB9
100
AcDbEntity
 67
     1
  8
0
100
AcDbBlockEnd
  0
BLOCK
  5
9CD6
330
9CD5
100
AcDbEntity
  8
0
100
AcDbBlockBegin
  2
_OPEN
 70
     0
 10
0.0
 20
0.0
 30
0.0
  3
_OPEN
  1

  0
LINE
  5
9CD7
330
9CD5
100
AcDbEntity
  8
0
  6
ByBlock
 62
     0
100
AcDbLine
 10
-1.0
 20
0.166667
 30
0.0
 11
0.0
 21
0.0
 31
0.0
  0
LINE
  5
9CD8
330
9CD5
100
AcDbEntity
  8
0
  6
ByBlock
 62
     0
100
AcDbLine
 10
0.0
 20
0.0
 30
0.0
 11
-1.0
 21
-0.166667
 31
0.0
  0
LINE
  5
9CD9
330
9CD5
100
AcDbEntity
  8
0
  6
ByBlock
 62
     0
100
AcDbLine
 10
0.0
 20
0.0
 30
0.0
 11
-1.0
 21
0.0
 31
0.0
  0
ENDBLK
  5
9CDA
330
9CD5
100
AcDbEntity
  8
0
100
AcDbBlockEnd
  0
ENDSEC
  0
SECTION
  2
ENTITIES
  0
TEXT
  5
9CDB
330
9CBD
100
AcDbEntity
  8
7
  6
Continuous
100
AcDbText
 10
10.0
 20
18.0
 30
0.0
 40
3.0
  1
TYPE No.106FH-P
100
AcDbText
  0
TEXT
  5
9CDC
330
9CBD
100
AcDbEntity
  8
7
  6
Continuous
100
AcDbText
 10
10.0
 20
26.0
 30
0.0
 40
3.0
  1
CODE No.9087
100
AcDbText
  0
TEXT
  5
9CDD
330
9CBD
100
AcDbEntity
  8
1
  6
Continuous
100
AcDbText
 10
10.0
 20
10.0
 30
0.0
 40
1.399999999999999
  1
LAYER
100
AcDbText
  0
TEXT
  5
9CDE
330
9CBD
100
AcDbEntity
  8
1
  6
Continuous
100
AcDbText
 10
17.97951099999998
 20
10.04873699999998
 30
0.0
 40
1.399999999999999
  1
1
100
AcDbText
  0
TEXT
  5
9CDF
330
9CBD
100
AcDbEntity
  8
7
  6
Continuous
100
AcDbText
 10
29.97951099999999
 20
10.04873699999998
 30
0.0
 40
1.399999999999999
  1
7
100
AcDbText
  0
TEXT
  5
9CE0
330
9CBD
100
AcDbEntity
  8
4
  6
CENTER
100
AcDbText
 10
23.97951099999999
 20
10.04873699999998
 30
0.0
 40
1.399999999999999
  1
4
100
AcDbText
  0
TEXT
  5
9CE1
330
9CBD
100
AcDbEntity
  8
3
  6
DASHED
100
AcDbText
 10
21.979511
 20
10.04873699999998
 30
0.0
 40
1.399999999999999
  1
3
100
AcDbText
  0
TEXT
  5
9CE2
330
9CBD
100
AcDbEntity
  8
2
  6
Continuous
100
AcDbText
 10
19.97951099999999
 20
10.04873699999998
 30
0.0
 40
1.399999999999999
  1
2
100
AcDbText
  0
TEXT
  5
9CE3
330
9CBD
100
AcDbEntity
  8
6
  6
Continuous
100
AcDbText
 10
27.979511
 20
10.04873699999998
 30
0.0
 40
1.399999999999999
  1
6
100
AcDbText
  0
TEXT
  5
9CE4
330
9CBD
100
AcDbEntity
  8
5
  6
PHANTOM
100
AcDbText
 10
25.97951099999999
 20
10.04873699999998
 30
0.0
 40
1.399999999999999
  1
5
100
AcDbText
  0
LINE
  5
9CE5
330
9CBD
100
AcDbEntity
  8
4
  6
CENTER
100
AcDbLine
 10
163.8843379999999
 20
131.849283
 30
0.0
 11
163.8843379999999
 21
216.849283
 31
0.0
  0
LINE
  5
9CE6
330
9CBD
100
AcDbEntity
  8
4
  6
CENTER
100
AcDbLine
 10
206.3843379999999
 20
174.349283
 30
0.0
 11
121.3843379999999
 21
174.349283
 31
0.0
  0
LINE
  5
9CE7
330
9CBD
100
AcDbEntity
  8
1
  6
Continuous
100
AcDbLine
 10
188.5411919999999
 20
221.849283
 30
0.0
 11
190.5411919999998
 21
223.849283
 31
0.0
  0
LINE
  5
9CE8
330
9CBD
100
AcDbEntity
  8
1
  6
Continuous
100
AcDbLine
 10
191.1269779999998
 20
221.849283
 30
0.0
 11
189.126978
 21
223.849283
 31
0.0
  0
ARC
  5
9CE9
330
9CBD
100
AcDbEntity
  8
1
  6
Continuous
100
AcDbCircle
 10
151.8140739999998
 20
216.608595
 30
0.0
 40
54.883341
100
AcDbArc
 50
285.8957939999999
 51
351.301038
  0
LINE
  5
9CEA
330
9CBD
100
AcDbEntity
  8
1
  6
Continuous
100
AcDbLine
 10
207.384338
 20
225.849283
 30
0.0
 11
162.3843379999998
 21
225.849283
 31
0.0
  0
LINE
  5
9CEB
330
9CBD
100
AcDbEntity
  8
1
  6
Continuous
100
AcDbLine
 10
207.384338
 20
223.849283
 30
0.0
 11
162.3843379999998
 21
223.849283
 31
0.0
  0
LINE
  5
9CEC
330
9CBD
100
AcDbEntity
  8
1
  6
Continuous
100
AcDbLine
 10
207.384338
 20
221.849283
 30
0.0
 11
162.3843379999998
 21
221.849283
 31
0.0
  0
LINE
  5
9CED
330
9CBD
100
AcDbEntity
  8
1
  6
Continuous
100
AcDbLine
 10
216.8843379999999
 20
228.5492829999999
 30
0.0
 11
152.8843379999998
 21
228.5492829999999
 31
0.0
  0
LINE
  5
9CEE
330
9CBD
100
AcDbEntity
  8
1
  6
Continuous
100
AcDbLine
 10
216.8843379999999
 20
230.849283
 30
0.0
 11
152.8843379999998
 21
230.849283
 31
0.0
  0
ARC
  5
9CEF
330
9CBD
100
AcDbEntity
  8
1
  6
Continuous
100
AcDbCircle
 10
218.3843379999999
 20
206.184132
 30
0.0
 40
12.5
100
AcDbArc
 50
132.8436429999999
 51
170.2180129999999
  0
LINE
  5
9CF0
330
9CBD
100
AcDbEntity
  8
1
  6
Continuous
100
AcDbLine
 10
209.8843379999999
 20
218.849283
 30
0.0
 11
209.8843379999999
 21
215.349283
 31
0.0
  0
LINE
  5
9CF1
330
9CBD
100
AcDbEntity
  8
1
  6
Continuous
100
AcDbLine
 10
207.384338
 20
223.7218659999999
 30
0.0
 11
205.5117549999999
 21
221.849283
 31
0.0
  0
LINE
  5
9CF2
330
9CBD
100
AcDbEntity
  8
1
  6
Continuous
100
AcDbLine
 10
207.384338
 20
222.562487
 30
0.0
 11
206.0975409999998
 21
223.849283
 31
0.0
  0
LINE
  5
9CF3
330
9CBD
100
AcDbEntity
  8
1
  6
Continuous
100
AcDbLine
 10
206.6833279999999
 20
221.849283
 30
0.0
 11
204.6833279999999
 21
223.849283
 31
0.0
  0
LINE
  5
9CF4
330
9CBD
100
AcDbEntity
  8
4
  6
CENTER
100
AcDbLine
 10
209.8843379999999
 20
233.849283
 30
0.0
 11
209.8843379999999
 21
225.549283
 31
0.0
  0
ARC
  5
9CF5
330
9CBD
100
AcDbEntity
  8
1
  6
Continuous
100
AcDbCircle
 10
207.384338
 20
230.9492829999999
 30
0.0
 40
5.099999999999997
100
AcDbArc
 50
270.0
 51
331.9275129999998
  0
ARC
  5
9CF6
330
9CBD
100
AcDbEntity
  8
1
  6
Continuous
100
AcDbCircle
 10
206.8843379999999
 20
218.849283
 30
0.0
 40
3.0
100
AcDbArc
 50
0.0
 51
90.0
  0
LINE
  5
9CF7
330
9CBD
100
AcDbEntity
  8
1
  6
Continuous
100
AcDbLine
 10
207.384338
 20
222.3076529999999
 30
0.0
 11
206.925968
 21
221.849283
 31
0.0
  0
LINE
  5
9CF8
330
9CBD
100
AcDbEntity
  8
1
  6
Continuous
100
AcDbLine
 10
207.384338
 20
225.849283
 30
0.0
 11
207.384338
 21
221.849283
 31
0.0
  0
LINE
  5
9CF9
330
9CBD
100
AcDbEntity
  8
1
  6
Continuous
100
AcDbLine
 10
216.8843379999999
 20
228.5492829999999
 30
0.0
 11
216.8843379999999
 21
230.849283
 31
0.0
  0
LINE
  5
9CFA
330
9CBD
100
AcDbEntity
  8
1
  6
Continuous
100
AcDbLine
 10
197.026473
 20
221.849283
 30
0.0
 11
199.0264729999999
 21
223.849283
 31
0.0
  0
LINE
  5
9CFB
330
9CBD
100
AcDbEntity
  8
1
  6
Continuous
100
AcDbLine
 10
199.6122599999999
 20
221.849283
 30
0.0
 11
197.61226
 21
223.849283
 31
0.0
  0
LINE
  5
9CFC
330
9CBD
100
AcDbEntity
  8
1
  6
Continuous
100
AcDbLine
 10
198.198046
 20
221.849283
 30
0.0
 11
196.198046
 21
223.849283
 31
0.0
  0
LINE
  5
9CFD
330
9CBD
100
AcDbEntity
  8
1
  6
Continuous
100
AcDbLine
 10
201.269114
 20
221.849283
 30
0.0
 11
203.2691139999998
 21
223.849283
 31
0.0
  0
LINE
  5
9CFE
330
9CBD
100
AcDbEntity
  8
1
  6
Continuous
100
AcDbLine
 10
203.854901
 20
221.849283
 30
0.0
 11
201.854901
 21
223.849283
 31
0.0
  0
LINE
  5
9CFF
330
9CBD
100
AcDbEntity
  8
1
  6
Continuous
100
AcDbLine
 10
202.440687
 20
221.849283
 30
0.0
 11
200.440687
 21
223.849283
 31
0.0
  0
LINE
  5
9D00
330
9CBD
100
AcDbEntity
  8
1
  6
Continuous
100
AcDbLine
 10
204.0975409999998
 20
221.849283
 30
0.0
 11
206.0975409999998
 21
223.849283
 31
0.0
  0
LINE
  5
9D01
330
9CBD
100
AcDbEntity
  8
1
  6
Continuous
100
AcDbLine
 10
202.6833279999999
 20
221.849283
 30
0.0
 11
204.6833279999999
 21
223.849283
 31
0.0
  0
LINE
  5
9D02
330
9CBD
100
AcDbEntity
  8
1
  6
Continuous
100
AcDbLine
 10
205.2691139999998
 20
221.849283
 30
0.0
 11
203.2691139999998
 21
223.849283
 31
0.0
  0
LINE
  5
9D03
330
9CBD
100
AcDbEntity
  8
1
  6
Continuous
100
AcDbLine
 10
199.8549009999999
 20
221.849283
 30
0.0
 11
201.854901
 21
223.849283
 31
0.0
  0
LINE
  5
9D04
330
9CBD
100
AcDbEntity
  8
1
  6
Continuous
100
AcDbLine
 10
198.440687
 20
221.849283
 30
0.0
 11
200.440687
 21
223.849283
 31
0.0
  0
LINE
  5
9D05
330
9CBD
100
AcDbEntity
  8
1
  6
Continuous
100
AcDbLine
 10
201.026473
 20
221.849283
 30
0.0
 11
199.0264729999999
 21
223.849283
 31
0.0
  0
LINE
  5
9D06
330
9CBD
100
AcDbEntity
  8
1
  6
Continuous
100
AcDbLine
 10
192.7838329999999
 20
221.849283
 30
0.0
 11
194.7838329999999
 21
223.849283
 31
0.0
  0
LINE
  5
9D07
330
9CBD
100
AcDbEntity
  8
1
  6
Continuous
100
AcDbLine
 10
195.369619
 20
221.849283
 30
0.0
 11
193.369619
 21
223.849283
 31
0.0
  0
LINE
  5
9D08
330
9CBD
100
AcDbEntity
  8
1
  6
Continuous
100
AcDbLine
 10
193.955406
 20
221.849283
 30
0.0
 11
191.955406
 21
223.849283
 31
0.0
  0
LINE
  5
9D09
330
9CBD
100
AcDbEntity
  8
1
  6
Continuous
100
AcDbLine
 10
195.61226
 20
221.849283
 30
0.0
 11
197.61226
 21
223.849283
 31
0.0
  0
LINE
  5
9D0A
330
9CBD
100
AcDbEntity
  8
1
  6
Continuous
100
AcDbLine
 10
194.198046
 20
221.849283
 30
0.0
 11
196.198046
 21
223.849283
 31
0.0
  0
LINE
  5
9D0B
330
9CBD
100
AcDbEntity
  8
1
  6
Continuous
100
AcDbLine
 10
196.783833
 20
221.849283
 30
0.0
 11
194.7838329999999
 21
223.849283
 31
0.0
  0
LINE
  5
9D0C
330
9CBD
100
AcDbEntity
  8
1
  6
Continuous
100
AcDbLine
 10
191.3696189999998
 20
221.849283
 30
0.0
 11
193.369619
 21
223.849283
 31
0.0
  0
LINE
  5
9D0D
330
9CBD
100
AcDbEntity
  8
1
  6
Continuous
100
AcDbLine
 10
189.9554059999999
 20
221.849283
 30
0.0
 11
191.955406
 21
223.849283
 31
0.0
  0
LINE
  5
9D0E
330
9CBD
100
AcDbEntity
  8
1
  6
Continuous
100
AcDbLine
 10
192.5411919999999
 20
221.849283
 30
0.0
 11
190.5411919999998
 21
223.849283
 31
0.0
  0
LINE
  5
9D0F
330
9CBD
100
AcDbEntity
  8
4
  6
CENTER
100
AcDbLine
 10
184.8843379999999
 20
233.849283
 30
0.0
 11
184.8843379999999
 21
167.859822
 31
0.0
  0
LINE
  5
9D10
330
9CBD
100
AcDbEntity
  8
1
  6
Continuous
100
AcDbLine
 10
168.3843379999999
 20
216.849283
 30
0.0
 11
174.721866
 21
169.7454779999999
 31
0.0
  0
ARC
  5
9D11
330
9CBD
100
AcDbEntity
  8
1
  6
Continuous
100
AcDbCircle
 10
103.4875619999999
 20
217.276825
 30
0.0
 40
63.597172
100
AcDbArc
 50
325.7594259999998
 51
355.297968
  0
ARC
  5
9D12
330
9CBD
100
AcDbEntity
  8
1
  6
Continuous
100
AcDbCircle
 10
164.6343379999999
 20
174.599283
 30
0.0
 40
11.0
100
AcDbArc
 50
141.195012
 51
281.598944
  0
ARC
  5
9D13
330
9CBD
100
AcDbEntity
  8
1
  6
Continuous
100
AcDbCircle
 10
163.8843379999999
 20
212.3492829999999
 30
0.0
 40
3.0
100
AcDbArc
 50
354.53402
 51
90.0
  0
LINE
  5
9D14
330
9CBD
100
AcDbEntity
  8
1
  6
Continuous
100
AcDbLine
 10
159.8843379999999
 20
218.849283
 30
0.0
 11
159.8843379999999
 21
215.349283
 31
0.0
  0
LINE
  5
9D15
330
9CBD
100
AcDbEntity
  8
1
  6
Continuous
100
AcDbLine
 10
163.8843379999999
 20
215.349283
 30
0.0
 11
159.8843379999999
 21
215.349283
 31
0.0
  0
LINE
  5
9D16
330
9CBD
100
AcDbEntity
  8
1
  6
Continuous
100
AcDbLine
 10
171.5706289999999
 20
221.849283
 30
0.0
 11
173.5706289999999
 21
223.849283
 31
0.0
  0
LINE
  5
9D17
330
9CBD
100
AcDbEntity
  8
1
  6
Continuous
100
AcDbLine
 10
172.9848429999999
 20
221.849283
 30
0.0
 11
174.9848429999999
 21
223.849283
 31
0.0
  0
LINE
  5
9D18
330
9CBD
100
AcDbEntity
  8
1
  6
Continuous
100
AcDbLine
 10
174.1564159999998
 20
221.849283
 30
0.0
 11
172.1564159999998
 21
223.849283
 31
0.0
  0
LINE
  5
9D19
330
9CBD
100
AcDbEntity
  8
1
  6
Continuous
100
AcDbLine
 10
180.055911
 20
221.849283
 30
0.0
 11
182.0559109999999
 21
223.849283
 31
0.0
  0
LINE
  5
9D1A
330
9CBD
100
AcDbEntity
  8
1
  6
Continuous
100
AcDbLine
 10
181.4701239999999
 20
221.849283
 30
0.0
 11
183.470124
 21
223.849283
 31
0.0
  0
LINE
  5
9D1B
330
9CBD
100
AcDbEntity
  8
1
  6
Continuous
100
AcDbLine
 10
182.641697
 20
221.849283
 30
0.0
 11
180.6416969999999
 21
223.849283
 31
0.0
  0
LINE
  5
9D1C
330
9CBD
100
AcDbEntity
  8
1
  6
Continuous
100
AcDbLine
 10
184.298551
 20
221.849283
 30
0.0
 11
186.298551
 21
223.849283
 31
0.0
  0
LINE
  5
9D1D
330
9CBD
100
AcDbEntity
  8
1
  6
Continuous
100
AcDbLine
 10
186.8843379999999
 20
221.849283
 30
0.0
 11
184.8843379999999
 21
223.849283
 31
0.0
  0
LINE
  5
9D1E
330
9CBD
100
AcDbEntity
  8
1
  6
Continuous
100
AcDbLine
 10
187.126978
 20
221.849283
 30
0.0
 11
189.126978
 21
223.849283
 31
0.0
  0
LINE
  5
9D1F
330
9CBD
100
AcDbEntity
  8
1
  6
Continuous
100
AcDbLine
 10
185.7127649999999
 20
221.849283
 30
0.0
 11
187.712765
 21
223.849283
 31
0.0
  0
LINE
  5
9D20
330
9CBD
100
AcDbEntity
  8
1
  6
Continuous
100
AcDbLine
 10
189.7127649999999
 20
221.849283
 30
0.0
 11
187.712765
 21
223.849283
 31
0.0
  0
LINE
  5
9D21
330
9CBD
100
AcDbEntity
  8
1
  6
Continuous
100
AcDbLine
 10
188.298551
 20
221.849283
 30
0.0
 11
186.298551
 21
223.849283
 31
0.0
  0
LINE
  5
9D22
330
9CBD
100
AcDbEntity
  8
1
  6
Continuous
100
AcDbLine
 10
182.8843379999999
 20
221.849283
 30
0.0
 11
184.8843379999999
 21
223.849283
 31
0.0
  0
LINE
  5
9D23
330
9CBD
100
AcDbEntity
  8
1
  6
Continuous
100
AcDbLine
 10
184.055911
 20
221.849283
 30
0.0
 11
182.0559109999999
 21
223.849283
 31
0.0
  0
LINE
  5
9D24
330
9CBD
100
AcDbEntity
  8
1
  6
Continuous
100
AcDbLine
 10
185.4701239999999
 20
221.849283
 30
0.0
 11
183.470124
 21
223.849283
 31
0.0
  0
LINE
  5
9D25
330
9CBD
100
AcDbEntity
  8
1
  6
Continuous
100
AcDbLine
 10
175.8132699999999
 20
221.849283
 30
0.0
 11
177.81327
 21
223.849283
 31
0.0
  0
LINE
  5
9D26
330
9CBD
100
AcDbEntity
  8
1
  6
Continuous
100
AcDbLine
 10
177.227484
 20
221.849283
 30
0.0
 11
179.227484
 21
223.849283
 31
0.0
  0
LINE
  5
9D27
330
9CBD
100
AcDbEntity
  8
1
  6
Continuous
100
AcDbLine
 10
178.399056
 20
221.849283
 30
0.0
 11
176.399056
 21
223.849283
 31
0.0
  0
LINE
  5
9D28
330
9CBD
100
AcDbEntity
  8
1
  6
Continuous
100
AcDbLine
 10
178.6416969999999
 20
221.849283
 30
0.0
 11
180.6416969999999
 21
223.849283
 31
0.0
  0
LINE
  5
9D29
330
9CBD
100
AcDbEntity
  8
1
  6
Continuous
100
AcDbLine
 10
179.81327
 20
221.849283
 30
0.0
 11
177.81327
 21
223.849283
 31
0.0
  0
LINE
  5
9D2A
330
9CBD
100
AcDbEntity
  8
1
  6
Continuous
100
AcDbLine
 10
181.227484
 20
221.849283
 30
0.0
 11
179.227484
 21
223.849283
 31
0.0
  0
LINE
  5
9D2B
330
9CBD
100
AcDbEntity
  8
1
  6
Continuous
100
AcDbLine
 10
174.399056
 20
221.849283
 30
0.0
 11
176.399056
 21
223.849283
 31
0.0
  0
LINE
  5
9D2C
330
9CBD
100
AcDbEntity
  8
1
  6
Continuous
100
AcDbLine
 10
175.570629
 20
221.849283
 30
0.0
 11
173.5706289999999
 21
223.849283
 31
0.0
  0
LINE
  5
9D2D
330
9CBD
100
AcDbEntity
  8
1
  6
Continuous
100
AcDbLine
 10
176.9848429999999
 20
221.849283
 30
0.0
 11
174.9848429999999
 21
223.849283
 31
0.0
  0
LINE
  5
9D2E
330
9CBD
100
AcDbEntity
  8
4
  6
CENTER
100
AcDbLine
 10
159.8843379999999
 20
233.849283
 30
0.0
 11
159.8843379999999
 21
225.549283
 31
0.0
  0
ARC
  5
9D2F
330
9CBD
100
AcDbEntity
  8
1
  6
Continuous
100
AcDbCircle
 10
162.3843379999998
 20
230.9492829999999
 30
0.0
 40
5.099999999999997
100
AcDbArc
 50
208.072487
 51
270.0
  0
LINE
  5
9D30
330
9CBD
100
AcDbEntity
  8
1
  6
Continuous
100
AcDbLine
 10
164.499561
 20
221.849283
 30
0.0
 11
166.499561
 21
223.849283
 31
0.0
  0
LINE
  5
9D31
330
9CBD
100
AcDbEntity
  8
1
  6
Continuous
100
AcDbLine
 10
165.671134
 20
221.849283
 30
0.0
 11
163.6711339999999
 21
223.849283
 31
0.0
  0
LINE
  5
9D32
330
9CBD
100
AcDbEntity
  8
1
  6
Continuous
100
AcDbLine
 10
167.085348
 20
221.849283
 30
0.0
 11
165.085348
 21
223.849283
 31
0.0
  0
LINE
  5
9D33
330
9CBD
100
AcDbEntity
  8
1
  6
Continuous
100
AcDbLine
 10
167.327989
 20
221.849283
 30
0.0
 11
169.327989
 21
223.849283
 31
0.0
  0
LINE
  5
9D34
330
9CBD
100
AcDbEntity
  8
1
  6
Continuous
100
AcDbLine
 10
168.7422019999999
 20
221.849283
 30
0.0
 11
170.7422019999999
 21
223.849283
 31
0.0
  0
LINE
  5
9D35
330
9CBD
100
AcDbEntity
  8
1
  6
Continuous
100
AcDbLine
 10
169.913775
 20
221.849283
 30
0.0
 11
167.9137749999999
 21
223.849283
 31
0.0
  0
LINE
  5
9D36
330
9CBD
100
AcDbEntity
  8
1
  6
Continuous
100
AcDbLine
 10
170.1564159999998
 20
221.849283
 30
0.0
 11
172.1564159999998
 21
223.849283
 31
0.0
  0
LINE
  5
9D37
330
9CBD
100
AcDbEntity
  8
1
  6
Continuous
100
AcDbLine
 10
171.327989
 20
221.849283
 30
0.0
 11
169.327989
 21
223.849283
 31
0.0
  0
LINE
  5
9D38
330
9CBD
100
AcDbEntity
  8
1
  6
Continuous
100
AcDbLine
 10
172.7422019999999
 20
221.849283
 30
0.0
 11
170.7422019999999
 21
223.849283
 31
0.0
  0
LINE
  5
9D39
330
9CBD
100
AcDbEntity
  8
1
  6
Continuous
100
AcDbLine
 10
165.913775
 20
221.849283
 30
0.0
 11
167.9137749999999
 21
223.849283
 31
0.0
  0
LINE
  5
9D3A
330
9CBD
100
AcDbEntity
  8
1
  6
Continuous
100
AcDbLine
 10
168.499561
 20
221.849283
 30
0.0
 11
166.499561
 21
223.849283
 31
0.0
  0
ARC
  5
9D3B
330
9CBD
100
AcDbEntity
  8
1
  6
Continuous
100
AcDbCircle
 10
162.8843379999999
 20
218.849283
 30
0.0
 40
3.0
100
AcDbArc
 50
90.0
 51
180.0
  0
LINE
  5
9D3C
330
9CBD
100
AcDbEntity
  8
1
  6
Continuous
100
AcDbLine
 10
162.3843379999998
 20
222.562487
 30
0.0
 11
163.6711339999999
 21
223.849283
 31
0.0
  0
LINE
  5
9D3D
330
9CBD
100
AcDbEntity
  8
1
  6
Continuous
100
AcDbLine
 10
163.085348
 20
221.849283
 30
0.0
 11
165.085348
 21
223.849283
 31
0.0
  0
LINE
  5
9D3E
330
9CBD
100
AcDbEntity
  8
1
  6
Continuous
100
AcDbLine
 10
162.8427069999999
 20
221.849283
 30
0.0
 11
162.3843379999998
 21
222.3076529999999
 31
0.0
  0
LINE
  5
9D3F
330
9CBD
100
AcDbEntity
  8
1
  6
Continuous
100
AcDbLine
 10
164.256921
 20
221.849283
 30
0.0
 11
162.3843379999998
 21
223.7218659999999
 31
0.0
  0
LINE
  5
9D40
330
9CBD
100
AcDbEntity
  8
1
  6
Continuous
100
AcDbLine
 10
162.3843379999998
 20
225.849283
 30
0.0
 11
162.3843379999998
 21
221.849283
 31
0.0
  0
LINE
  5
9D41
330
9CBD
100
AcDbEntity
  8
1
  6
Continuous
100
AcDbLine
 10
152.8843379999998
 20
228.5492829999999
 30
0.0
 11
152.8843379999998
 21
230.849283
 31
0.0
  0
LINE
  5
9D42
330
9CBD
100
AcDbEntity
  8
4
  6
CENTER
100
AcDbLine
 10
219.884338
 20
295.4774479999999
 30
0.0
 11
121.3843379999999
 21
295.4774479999999
 31
0.0
  0
CIRCLE
  5
9D43
330
9CBD
100
AcDbEntity
  8
1
  6
Continuous
100
AcDbCircle
 10
184.8843379999999
 20
295.4774479999999
 30
0.0
 40
12.5
  0
CIRCLE
  5
9D44
330
9CBD
100
AcDbEntity
  8
1
  6
Continuous
100
AcDbCircle
 10
184.8843379999999
 20
295.4774479999999
 30
0.0
 40
20.75
  0
CIRCLE
  5
9D45
330
9CBD
100
AcDbEntity
  8
1
  6
Continuous
100
AcDbCircle
 10
184.8843379999999
 20
295.4774479999999
 30
0.0
 40
23.5
  0
LINE
  5
9D46
330
9CBD
100
AcDbEntity
  8
1
  6
Continuous
100
AcDbLine
 10
158.8843379999999
 20
263.4774479999999
 30
0.0
 11
210.8843379999999
 21
263.4774479999999
 31
0.0
  0
LINE
  5
9D47
330
9CBD
100
AcDbEntity
  8
1
  6
Continuous
100
AcDbLine
 10
210.8843379999999
 20
327.477448
 30
0.0
 11
158.8843379999999
 21
327.477448
 31
0.0
  0
LINE
  5
9D48
330
9CBD
100
AcDbEntity
  8
1
  6
Continuous
100
AcDbLine
 10
216.8843379999999
 20
269.4774479999999
 30
0.0
 11
216.8843379999999
 21
321.4774479999999
 31
0.0
  0
LINE
  5
9D49
330
9CBD
100
AcDbEntity
  8
4
  6
CENTER
100
AcDbLine
 10
209.8843379999999
 20
264.2274479999999
 30
0.0
 11
209.8843379999999
 21
276.7274479999999
 31
0.0
  0
ARC
  5
9D4A
330
9CBD
100
AcDbEntity
  8
1
  6
Continuous
100
AcDbCircle
 10
210.8843379999999
 20
269.4774479999999
 30
0.0
 40
6.0
100
AcDbArc
 50
270.0
 51
0.0
  0
LINE
  5
9D4B
330
9CBD
100
AcDbEntity
  8
4
  6
CENTER
100
AcDbLine
 10
216.1343379999999
 20
270.4774479999999
 30
0.0
 11
203.6343379999999
 21
270.4774479999999
 31
0.0
  0
CIRCLE
  5
9D4C
330
9CBD
100
AcDbEntity
  8
1
  6
Continuous
100
AcDbCircle
 10
209.8843379999999
 20
270.4774479999999
 30
0.0
 40
3.25
  0
LINE
  5
9D4D
330
9CBD
100
AcDbEntity
  8
4
  6
CENTER
100
AcDbLine
 10
216.1343379999999
 20
320.4774479999999
 30
0.0
 11
203.6343379999999
 21
320.4774479999999
 31
0.0
  0
LINE
  5
9D4E
330
9CBD
100
AcDbEntity
  8
4
  6
CENTER
100
AcDbLine
 10
209.8843379999999
 20
314.2274479999999
 30
0.0
 11
209.8843379999999
 21
326.7274479999999
 31
0.0
  0
CIRCLE
  5
9D4F
330
9CBD
100
AcDbEntity
  8
1
  6
Continuous
100
AcDbCircle
 10
209.8843379999999
 20
320.4774479999999
 30
0.0
 40
3.25
  0
ARC
  5
9D50
330
9CBD
100
AcDbEntity
  8
1
  6
Continuous
100
AcDbCircle
 10
210.8843379999999
 20
321.4774479999999
 30
0.0
 40
6.0
100
AcDbArc
 50
0.0
 51
90.0
  0
LINE
  5
9D51
330
9CBD
100
AcDbEntity
  8
4
  6
CENTER
100
AcDbLine
 10
184.8843379999999
 20
330.4774479999999
 30
0.0
 11
184.8843379999999
 21
260.4774479999999
 31
0.0
  0
LINE
  5
9D52
330
9CBD
100
AcDbEntity
  8
1
  6
Continuous
100
AcDbLine
 10
152.8843379999998
 20
321.4774479999999
 30
0.0
 11
152.8843379999998
 21
269.4774479999999
 31
0.0
  0
LINE
  5
9D53
330
9CBD
100
AcDbEntity
  8
4
  6
CENTER
100
AcDbLine
 10
166.1343379999999
 20
270.4774479999999
 30
0.0
 11
153.6343379999999
 21
270.4774479999999
 31
0.0
  0
CIRCLE
  5
9D54
330
9CBD
100
AcDbEntity
  8
1
  6
Continuous
100
AcDbCircle
 10
159.8843379999999
 20
270.4774479999999
 30
0.0
 40
3.25
  0
ARC
  5
9D55
330
9CBD
100
AcDbEntity
  8
1
  6
Continuous
100
AcDbCircle
 10
158.8843379999999
 20
269.4774479999999
 30
0.0
 40
6.0
100
AcDbArc
 50
180.0
 51
270.0
  0
LINE
  5
9D56
330
9CBD
100
AcDbEntity
  8
4
  6
CENTER
100
AcDbLine
 10
159.8843379999999
 20
264.2274479999999
 30
0.0
 11
159.8843379999999
 21
276.7274479999999
 31
0.0
  0
LINE
  5
9D57
330
9CBD
100
AcDbEntity
  8
4
  6
CENTER
100
AcDbLine
 10
166.1343379999999
 20
320.4774479999999
 30
0.0
 11
153.6343379999999
 21
320.4774479999999
 31
0.0
  0
CIRCLE
  5
9D58
330
9CBD
100
AcDbEntity
  8
1
  6
Continuous
100
AcDbCircle
 10
159.8843379999999
 20
320.4774479999999
 30
0.0
 40
3.25
  0
ARC
  5
9D59
330
9CBD
100
AcDbEntity
  8
1
  6
Continuous
100
AcDbCircle
 10
158.8843379999999
 20
321.4774479999999
 30
0.0
 40
6.0
100
AcDbArc
 50
90.0
 51
180.0
  0
LINE
  5
9D5A
330
9CBD
100
AcDbEntity
  8
4
  6
CENTER
100
AcDbLine
 10
159.8843379999999
 20
314.2274479999999
 30
0.0
 11
159.8843379999999
 21
326.7274479999999
 31
0.0
  0
LINE
  5
9D5B
330
9CBD
100
AcDbEntity
  8
4
  6
CENTER
100
AcDbLine
 10
59.884338
 20
233.849283
 30
0.0
 11
59.884338
 21
131.849283
 31
0.0
  0
ARC
  5
9D5C
330
9CBD
100
AcDbEntity
  8
1
  6
Continuous
100
AcDbCircle
 10
59.884338
 20
286.849283
 30
0.0
 40
150.0
100
AcDbArc
 50
266.2946289999998
 51
273.705371
  0
LINE
  5
9D5D
330
9CBD
100
AcDbEntity
  8
4
  6
CENTER
100
AcDbLine
 10
34.834338
 20
174.349283
 30
0.0
 11
82.93433799999998
 21
174.349283
 31
0.0
  0
LINE
  5
9D5E
330
9CBD
100
AcDbEntity
  8
1
  6
Continuous
100
AcDbLine
 10
63.298552
 20
221.849283
 30
0.0
 11
61.298552
 21
223.849283
 31
0.0
  0
LINE
  5
9D5F
330
9CBD
100
AcDbEntity
  8
1
  6
Continuous
100
AcDbLine
 10
61.884338
 20
221.849283
 30
0.0
 11
59.884338
 21
223.849283
 31
0.0
  0
LINE
  5
9D60
330
9CBD
100
AcDbEntity
  8
1
  6
Continuous
100
AcDbLine
 10
60.71276499999999
 20
221.849283
 30
0.0
 11
62.71276499999999
 21
223.849283
 31
0.0
  0
LINE
  5
9D61
330
9CBD
100
AcDbEntity
  8
1
  6
Continuous
100
AcDbLine
 10
47.834338
 20
215.349283
 30
0.0
 11
71.934338
 21
215.349283
 31
0.0
  0
LINE
  5
9D62
330
9CBD
100
AcDbEntity
  8
1
  6
Continuous
100
AcDbLine
 10
37.384338
 20
225.849283
 30
0.0
 11
82.38433800000001
 21
225.849283
 31
0.0
  0
LINE
  5
9D63
330
9CBD
100
AcDbEntity
  8
1
  6
Continuous
100
AcDbLine
 10
37.384338
 20
223.849283
 30
0.0
 11
82.38433800000001
 21
223.849283
 31
0.0
  0
LINE
  5
9D64
330
9CBD
100
AcDbEntity
  8
1
  6
Continuous
100
AcDbLine
 10
37.384338
 20
221.849283
 30
0.0
 11
82.38433800000001
 21
221.849283
 31
0.0
  0
LINE
  5
9D65
330
9CBD
100
AcDbEntity
  8
1
  6
Continuous
100
AcDbLine
 10
27.88433799999999
 20
228.5492829999999
 30
0.0
 11
91.884338
 21
228.5492829999999
 31
0.0
  0
LINE
  5
9D66
330
9CBD
100
AcDbEntity
  8
1
  6
Continuous
100
AcDbLine
 10
27.88433799999999
 20
230.849283
 30
0.0
 11
91.884338
 21
230.849283
 31
0.0
  0
LINE
  5
9D67
330
9CBD
100
AcDbEntity
  8
1
  6
Continuous
100
AcDbLine
 10
47.384338
 20
208.5419889999998
 30
0.0
 11
47.384338
 21
140.1565769999999
 31
0.0
  0
LINE
  5
9D68
330
9CBD
100
AcDbEntity
  8
1
  6
Continuous
100
AcDbLine
 10
41.834338
 20
209.349283
 30
0.0
 11
41.834338
 21
163.599283
 31
0.0
  0
LINE
  5
9D69
330
9CBD
100
AcDbEntity
  8
1
  6
Continuous
100
AcDbLine
 10
44.13433799999999
 20
211.349283
 30
0.0
 11
44.13433799999999
 21
163.599283
 31
0.0
  0
LINE
  5
9D6A
330
9CBD
100
AcDbEntity
  8
1
  6
Continuous
100
AcDbLine
 10
34.884338
 20
218.849283
 30
0.0
 11
34.884338
 21
179.8083469999999
 31
0.0
  0
ARC
  5
9D6B
330
9CBD
100
AcDbEntity
  8
1
  6
Continuous
100
AcDbCircle
 10
46.28433799999998
 20
165.349283
 30
0.0
 40
1.5
100
AcDbArc
 50
180.0
 51
270.0
  0
ARC
  5
9D6C
330
9CBD
100
AcDbEntity
  8
1
  6
Continuous
100
AcDbCircle
 10
52.88433799999999
 20
179.8083469999999
 30
0.0
 40
18.0
100
AcDbArc
 50
180.0
 51
232.128771
  0
LINE
  5
9D6D
330
9CBD
100
AcDbEntity
  8
1
  6
Continuous
100
AcDbLine
 10
41.834338
 20
163.599283
 30
0.0
 11
44.13433799999999
 21
163.599283
 31
0.0
  0
ARC
  5
9D6E
330
9CBD
100
AcDbEntity
  8
1
  6
Continuous
100
AcDbCircle
 10
50.38433799999999
 20
140.1565769999999
 30
0.0
 40
3.0
100
AcDbArc
 50
180.0
 51
266.2946289999998
  0
LINE
  5
9D6F
330
9CBD
100
AcDbEntity
  8
1
  6
Continuous
100
AcDbLine
 10
46.28433799999998
 20
163.849283
 30
0.0
 11
47.384338
 21
163.849283
 31
0.0
  0
ARC
  5
9D70
330
9CBD
100
AcDbEntity
  8
1
  6
Continuous
100
AcDbCircle
 10
46.28433799999998
 20
183.349283
 30
0.0
 40
1.5
100
AcDbArc
 50
90.0
 51
180.0
  0
LINE
  5
9D71
330
9CBD
100
AcDbEntity
  8
1
  6
Continuous
100
AcDbLine
 10
44.784338
 20
165.349283
 30
0.0
 11
44.784338
 21
183.349283
 31
0.0
  0
LINE
  5
9D72
330
9CBD
100
AcDbEntity
  8
1
  6
Continuous
100
AcDbLine
 10
40.272189
 20
180.099283
 30
0.0
 11
40.272189
 21
168.599283
 31
0.0
  0
ARC
  5
9D73
330
9CBD
100
AcDbEntity
  8
1
  6
Continuous
100
AcDbCircle
 10
45.834338
 20
174.349283
 30
0.0
 40
8.0
100
AcDbArc
 50
134.048626
 51
225.9513739999999
  0
LINE
  5
9D74
330
9CBD
100
AcDbEntity
  8
1
  6
Continuous
100
AcDbLine
 10
40.272189
 20
168.599283
 30
0.0
 11
41.834338
 21
168.599283
 31
0.0
  0
LINE
  5
9D75
330
9CBD
100
AcDbEntity
  8
1
  6
Continuous
100
AcDbLine
 10
44.13433799999999
 20
170.349283
 30
0.0
 11
44.784338
 21
170.349283
 31
0.0
  0
LINE
  5
9D76
330
9CBD
100
AcDbEntity
  8
1
  6
Continuous
100
AcDbLine
 10
40.272189
 20
180.099283
 30
0.0
 11
41.834338
 21
180.099283
 31
0.0
  0
LINE
  5
9D77
330
9CBD
100
AcDbEntity
  8
1
  6
Continuous
100
AcDbLine
 10
44.13433799999999
 20
178.349283
 30
0.0
 11
44.784338
 21
178.349283
 31
0.0
  0
LINE
  5
9D78
330
9CBD
100
AcDbEntity
  8
1
  6
Continuous
100
AcDbLine
 10
46.28433799999998
 20
184.8492829999999
 30
0.0
 11
47.384338
 21
184.8492829999999
 31
0.0
  0
LINE
  5
9D79
330
9CBD
100
AcDbEntity
  8
1
  6
Continuous
100
AcDbLine
 10
27.88433799999999
 20
228.5492829999999
 30
0.0
 11
27.88433799999999
 21
230.849283
 31
0.0
  0
ARC
  5
9D7A
330
9CBD
100
AcDbEntity
  8
1
  6
Continuous
100
AcDbCircle
 10
48.134338
 20
211.349283
 30
0.0
 40
4.0
100
AcDbArc
 50
90.0
 51
180.0
  0
ARC
  5
9D7B
330
9CBD
100
AcDbEntity
  8
1
  6
Continuous
100
AcDbCircle
 10
47.834338
 20
209.349283
 30
0.0
 40
6.0
100
AcDbArc
 50
90.0
 51
180.0
  0
LINE
  5
9D7C
330
9CBD
100
AcDbEntity
  8
1
  6
Continuous
100
AcDbLine
 10
44.913775
 20
221.849283
 30
0.0
 11
42.913775
 21
223.849283
 31
0.0
  0
LINE
  5
9D7D
330
9CBD
100
AcDbEntity
  8
1
  6
Continuous
100
AcDbLine
 10
46.327989
 20
221.849283
 30
0.0
 11
44.327989
 21
223.849283
 31
0.0
  0
LINE
  5
9D7E
330
9CBD
100
AcDbEntity
  8
1
  6
Continuous
100
AcDbLine
 10
43.742203
 20
221.849283
 30
0.0
 11
45.742203
 21
223.849283
 31
0.0
  0
LINE
  5
9D7F
330
9CBD
100
AcDbEntity
  8
4
  6
CENTER
100
AcDbLine
 10
34.884338
 20
233.849283
 30
0.0
 11
34.884338
 21
225.549283
 31
0.0
  0
ARC
  5
9D80
330
9CBD
100
AcDbEntity
  8
1
  6
Continuous
100
AcDbCircle
 10
37.384338
 20
230.9492829999999
 30
0.0
 40
5.099999999999997
100
AcDbArc
 50
208.072487
 51
270.0
  0
ARC
  5
9D81
330
9CBD
100
AcDbEntity
  8
1
  6
Continuous
100
AcDbCircle
 10
37.88433799999999
 20
218.849283
 30
0.0
 40
3.0
100
AcDbArc
 50
90.0
 51
180.0
  0
LINE
  5
9D82
330
9CBD
100
AcDbEntity
  8
1
  6
Continuous
100
AcDbLine
 10
42.08534799999998
 20
221.849283
 30
0.0
 11
40.08534799999997
 21
223.849283
 31
0.0
  0
LINE
  5
9D83
330
9CBD
100
AcDbEntity
  8
1
  6
Continuous
100
AcDbLine
 10
39.49956199999999
 20
221.849283
 30
0.0
 11
41.499562
 21
223.849283
 31
0.0
  0
LINE
  5
9D84
330
9CBD
100
AcDbEntity
  8
1
  6
Continuous
100
AcDbLine
 10
37.384338
 20
222.3076529999999
 30
0.0
 11
37.842708
 21
221.849283
 31
0.0
  0
LINE
  5
9D85
330
9CBD
100
AcDbEntity
  8
1
  6
Continuous
100
AcDbLine
 10
37.384338
 20
223.7218659999999
 30
0.0
 11
39.25692100000001
 21
221.849283
 31
0.0
  0
LINE
  5
9D86
330
9CBD
100
AcDbEntity
  8
1
  6
Continuous
100
AcDbLine
 10
40.671135
 20
221.849283
 30
0.0
 11
38.671135
 21
223.849283
 31
0.0
  0
LINE
  5
9D87
330
9CBD
100
AcDbEntity
  8
1
  6
Continuous
100
AcDbLine
 10
37.384338
 20
222.562487
 30
0.0
 11
38.671135
 21
223.849283
 31
0.0
  0
LINE
  5
9D88
330
9CBD
100
AcDbEntity
  8
1
  6
Continuous
100
AcDbLine
 10
38.08534799999998
 20
221.849283
 30
0.0
 11
40.08534799999997
 21
223.849283
 31
0.0
  0
LINE
  5
9D89
330
9CBD
100
AcDbEntity
  8
1
  6
Continuous
100
AcDbLine
 10
37.384338
 20
225.849283
 30
0.0
 11
37.384338
 21
221.849283
 31
0.0
  0
LINE
  5
9D8A
330
9CBD
100
AcDbEntity
  8
1
  6
Continuous
100
AcDbLine
 10
43.499562
 20
221.849283
 30
0.0
 11
41.499562
 21
223.849283
 31
0.0
  0
LINE
  5
9D8B
330
9CBD
100
AcDbEntity
  8
1
  6
Continuous
100
AcDbLine
 10
40.913775
 20
221.849283
 30
0.0
 11
42.913775
 21
223.849283
 31
0.0
  0
LINE
  5
9D8C
330
9CBD
100
AcDbEntity
  8
1
  6
Continuous
100
AcDbLine
 10
42.327989
 20
221.849283
 30
0.0
 11
44.327989
 21
223.849283
 31
0.0
  0
LINE
  5
9D8D
330
9CBD
100
AcDbEntity
  8
1
  6
Continuous
100
AcDbLine
 10
53.39905699999999
 20
221.849283
 30
0.0
 11
51.39905699999999
 21
223.849283
 31
0.0
  0
LINE
  5
9D8E
330
9CBD
100
AcDbEntity
  8
1
  6
Continuous
100
AcDbLine
 10
54.81327
 20
221.849283
 30
0.0
 11
52.81327
 21
223.849283
 31
0.0
  0
LINE
  5
9D8F
330
9CBD
100
AcDbEntity
  8
1
  6
Continuous
100
AcDbLine
 10
52.227484
 20
221.849283
 30
0.0
 11
54.22748399999999
 21
223.849283
 31
0.0
  0
LINE
  5
9D90
330
9CBD
100
AcDbEntity
  8
1
  6
Continuous
100
AcDbLine
 10
49.156416
 20
221.849283
 30
0.0
 11
47.156416
 21
223.849283
 31
0.0
  0
LINE
  5
9D91
330
9CBD
100
AcDbEntity
  8
1
  6
Continuous
100
AcDbLine
 10
50.57063
 20
221.849283
 30
0.0
 11
48.57063
 21
223.849283
 31
0.0
  0
LINE
  5
9D92
330
9CBD
100
AcDbEntity
  8
1
  6
Continuous
100
AcDbLine
 10
47.984843
 20
221.849283
 30
0.0
 11
49.984843
 21
223.849283
 31
0.0
  0
LINE
  5
9D93
330
9CBD
100
AcDbEntity
  8
1
  6
Continuous
100
AcDbLine
 10
47.742203
 20
221.849283
 30
0.0
 11
45.742203
 21
223.849283
 31
0.0
  0
LINE
  5
9D94
330
9CBD
100
AcDbEntity
  8
1
  6
Continuous
100
AcDbLine
 10
45.156416
 20
221.849283
 30
0.0
 11
47.156416
 21
223.849283
 31
0.0
  0
LINE
  5
9D95
330
9CBD
100
AcDbEntity
  8
1
  6
Continuous
100
AcDbLine
 10
46.57062999999999
 20
221.849283
 30
0.0
 11
48.57063
 21
223.849283
 31
0.0
  0
LINE
  5
9D96
330
9CBD
100
AcDbEntity
  8
1
  6
Continuous
100
AcDbLine
 10
51.984843
 20
221.849283
 30
0.0
 11
49.984843
 21
223.849283
 31
0.0
  0
LINE
  5
9D97
330
9CBD
100
AcDbEntity
  8
1
  6
Continuous
100
AcDbLine
 10
49.399057
 20
221.849283
 30
0.0
 11
51.39905699999999
 21
223.849283
 31
0.0
  0
LINE
  5
9D98
330
9CBD
100
AcDbEntity
  8
1
  6
Continuous
100
AcDbLine
 10
50.81327
 20
221.849283
 30
0.0
 11
52.81327
 21
223.849283
 31
0.0
  0
LINE
  5
9D99
330
9CBD
100
AcDbEntity
  8
1
  6
Continuous
100
AcDbLine
 10
57.641698
 20
221.849283
 30
0.0
 11
55.641698
 21
223.849283
 31
0.0
  0
LINE
  5
9D9A
330
9CBD
100
AcDbEntity
  8
1
  6
Continuous
100
AcDbLine
 10
59.055911
 20
221.849283
 30
0.0
 11
57.055911
 21
223.849283
 31
0.0
  0
LINE
  5
9D9B
330
9CBD
100
AcDbEntity
  8
1
  6
Continuous
100
AcDbLine
 10
56.470125
 20
221.849283
 30
0.0
 11
58.470125
 21
223.849283
 31
0.0
  0
LINE
  5
9D9C
330
9CBD
100
AcDbEntity
  8
1
  6
Continuous
100
AcDbLine
 10
56.22748399999998
 20
221.849283
 30
0.0
 11
54.22748399999999
 21
223.849283
 31
0.0
  0
LINE
  5
9D9D
330
9CBD
100
AcDbEntity
  8
1
  6
Continuous
100
AcDbLine
 10
53.64169799999999
 20
221.849283
 30
0.0
 11
55.641698
 21
223.849283
 31
0.0
  0
LINE
  5
9D9E
330
9CBD
100
AcDbEntity
  8
1
  6
Continuous
100
AcDbLine
 10
55.055911
 20
221.849283
 30
0.0
 11
57.055911
 21
223.849283
 31
0.0
  0
LINE
  5
9D9F
330
9CBD
100
AcDbEntity
  8
1
  6
Continuous
100
AcDbLine
 10
60.47012500000001
 20
221.849283
 30
0.0
 11
58.470125
 21
223.849283
 31
0.0
  0
LINE
  5
9DA0
330
9CBD
100
AcDbEntity
  8
1
  6
Continuous
100
AcDbLine
 10
59.298552
 20
221.849283
 30
0.0
 11
61.298552
 21
223.849283
 31
0.0
  0
LINE
  5
9DA1
330
9CBD
100
AcDbEntity
  8
1
  6
Continuous
100
AcDbLine
 10
57.88433799999999
 20
221.849283
 30
0.0
 11
59.884338
 21
223.849283
 31
0.0
  0
LINE
  5
9DA2
330
9CBD
100
AcDbEntity
  8
1
  6
Continuous
100
AcDbLine
 10
72.384338
 20
208.5419889999998
 30
0.0
 11
72.384338
 21
140.1565769999999
 31
0.0
  0
LINE
  5
9DA3
330
9CBD
100
AcDbEntity
  8
1
  6
Continuous
100
AcDbLine
 10
77.93433799999998
 20
209.349283
 30
0.0
 11
77.93433799999998
 21
163.599283
 31
0.0
  0
LINE
  5
9DA4
330
9CBD
100
AcDbEntity
  8
1
  6
Continuous
100
AcDbLine
 10
75.634338
 20
211.349283
 30
0.0
 11
75.634338
 21
163.599283
 31
0.0
  0
LINE
  5
9DA5
330
9CBD
100
AcDbEntity
  8
1
  6
Continuous
100
AcDbLine
 10
84.88433800000001
 20
218.849283
 30
0.0
 11
84.88433800000001
 21
179.8083469999999
 31
0.0
  0
ARC
  5
9DA6
330
9CBD
100
AcDbEntity
  8
1
  6
Continuous
100
AcDbCircle
 10
73.48433799999998
 20
165.349283
 30
0.0
 40
1.5
100
AcDbArc
 50
270.0
 51
0.0
  0
ARC
  5
9DA7
330
9CBD
100
AcDbEntity
  8
1
  6
Continuous
100
AcDbCircle
 10
66.884338
 20
179.8083469999999
 30
0.0
 40
18.0
100
AcDbArc
 50
307.871229
 51
0.0
  0
LINE
  5
9DA8
330
9CBD
100
AcDbEntity
  8
1
  6
Continuous
100
AcDbLine
 10
75.634338
 20
163.599283
 30
0.0
 11
77.93433799999998
 21
163.599283
 31
0.0
  0
ARC
  5
9DA9
330
9CBD
100
AcDbEntity
  8
1
  6
Continuous
100
AcDbCircle
 10
69.384338
 20
140.1565769999999
 30
0.0
 40
3.0
100
AcDbArc
 50
273.705371
 51
0.0
  0
LINE
  5
9DAA
330
9CBD
100
AcDbEntity
  8
1
  6
Continuous
100
AcDbLine
 10
72.384338
 20
163.849283
 30
0.0
 11
73.48433799999998
 21
163.849283
 31
0.0
  0
LINE
  5
9DAB
330
9CBD
100
AcDbEntity
  8
1
  6
Continuous
100
AcDbLine
 10
74.98433799999998
 20
165.349283
 30
0.0
 11
74.98433799999998
 21
183.349283
 31
0.0
  0
LINE
  5
9DAC
330
9CBD
100
AcDbEntity
  8
1
  6
Continuous
100
AcDbLine
 10
74.98433799999998
 20
170.349283
 30
0.0
 11
75.634338
 21
170.349283
 31
0.0
  0
LINE
  5
9DAD
330
9CBD
100
AcDbEntity
  8
1
  6
Continuous
100
AcDbLine
 10
74.98433799999998
 20
178.349283
 30
0.0
 11
75.634338
 21
178.349283
 31
0.0
  0
ARC
  5
9DAE
330
9CBD
100
AcDbEntity
  8
1
  6
Continuous
100
AcDbCircle
 10
73.48433799999998
 20
183.349283
 30
0.0
 40
1.5
100
AcDbArc
 50
0.0
 51
90.0
  0
LINE
  5
9DAF
330
9CBD
100
AcDbEntity
  8
1
  6
Continuous
100
AcDbLine
 10
72.384338
 20
184.8492829999999
 30
0.0
 11
73.48433799999998
 21
184.8492829999999
 31
0.0
  0
ARC
  5
9DB0
330
9CBD
100
AcDbEntity
  8
1
  6
Continuous
100
AcDbCircle
 10
66.934338
 20
174.349283
 30
0.0
 40
13.0
100
AcDbArc
 50
337.3801349999999
 51
22.619865
  0
LINE
  5
9DB1
330
9CBD
100
AcDbEntity
  8
1
  6
Continuous
100
AcDbLine
 10
78.93433799999998
 20
179.349283
 30
0.0
 11
78.93433799999998
 21
169.349283
 31
0.0
  0
LINE
  5
9DB2
330
9CBD
100
AcDbEntity
  8
1
  6
Continuous
100
AcDbLine
 10
77.93433799999998
 20
169.349283
 30
0.0
 11
78.93433799999998
 21
169.349283
 31
0.0
  0
LINE
  5
9DB3
330
9CBD
100
AcDbEntity
  8
1
  6
Continuous
100
AcDbLine
 10
77.93433799999998
 20
179.349283
 30
0.0
 11
78.93433799999998
 21
179.349283
 31
0.0
  0
ARC
  5
9DB4
330
9CBD
100
AcDbEntity
  8
1
  6
Continuous
100
AcDbCircle
 10
71.63433799999999
 20
211.349283
 30
0.0
 40
4.0
100
AcDbArc
 50
0.0
 51
90.0
  0
ARC
  5
9DB5
330
9CBD
100
AcDbEntity
  8
1
  6
Continuous
100
AcDbCircle
 10
71.934338
 20
209.349283
 30
0.0
 40
6.0
100
AcDbArc
 50
0.0
 51
90.0
  0
LINE
  5
9DB6
330
9CBD
100
AcDbEntity
  8
1
  6
Continuous
100
AcDbLine
 10
78.854901
 20
221.849283
 30
0.0
 11
76.85490099999999
 21
223.849283
 31
0.0
  0
LINE
  5
9DB7
330
9CBD
100
AcDbEntity
  8
1
  6
Continuous
100
AcDbLine
 10
77.683328
 20
221.849283
 30
0.0
 11
79.683328
 21
223.849283
 31
0.0
  0
LINE
  5
9DB8
330
9CBD
100
AcDbEntity
  8
1
  6
Continuous
100
AcDbLine
 10
76.269115
 20
221.849283
 30
0.0
 11
78.269115
 21
223.849283
 31
0.0
  0
LINE
  5
9DB9
330
9CBD
100
AcDbEntity
  8
1
  6
Continuous
100
AcDbLine
 10
70.36961999999999
 20
221.849283
 30
0.0
 11
68.36961999999998
 21
223.849283
 31
0.0
  0
LINE
  5
9DBA
330
9CBD
100
AcDbEntity
  8
1
  6
Continuous
100
AcDbLine
 10
69.198047
 20
221.849283
 30
0.0
 11
71.198047
 21
223.849283
 31
0.0
  0
LINE
  5
9DBB
330
9CBD
100
AcDbEntity
  8
1
  6
Continuous
100
AcDbLine
 10
67.783833
 20
221.849283
 30
0.0
 11
69.783833
 21
223.849283
 31
0.0
  0
LINE
  5
9DBC
330
9CBD
100
AcDbEntity
  8
1
  6
Continuous
100
AcDbLine
 10
66.126979
 20
221.849283
 30
0.0
 11
64.12697900000001
 21
223.849283
 31
0.0
  0
LINE
  5
9DBD
330
9CBD
100
AcDbEntity
  8
1
  6
Continuous
100
AcDbLine
 10
64.95540600000001
 20
221.849283
 30
0.0
 11
66.95540600000001
 21
223.849283
 31
0.0
  0
LINE
  5
9DBE
330
9CBD
100
AcDbEntity
  8
1
  6
Continuous
100
AcDbLine
 10
63.541192
 20
221.849283
 30
0.0
 11
65.54119200000001
 21
223.849283
 31
0.0
  0
LINE
  5
9DBF
330
9CBD
100
AcDbEntity
  8
1
  6
Continuous
100
AcDbLine
 10
64.712765
 20
221.849283
 30
0.0
 11
62.71276499999999
 21
223.849283
 31
0.0
  0
LINE
  5
9DC0
330
9CBD
100
AcDbEntity
  8
1
  6
Continuous
100
AcDbLine
 10
62.12697900000001
 20
221.849283
 30
0.0
 11
64.12697900000001
 21
223.849283
 31
0.0
  0
LINE
  5
9DC1
330
9CBD
100
AcDbEntity
  8
1
  6
Continuous
100
AcDbLine
 10
68.95540600000001
 20
221.849283
 30
0.0
 11
66.95540600000001
 21
223.849283
 31
0.0
  0
LINE
  5
9DC2
330
9CBD
100
AcDbEntity
  8
1
  6
Continuous
100
AcDbLine
 10
67.54119200000001
 20
221.849283
 30
0.0
 11
65.54119200000001
 21
223.849283
 31
0.0
  0
LINE
  5
9DC3
330
9CBD
100
AcDbEntity
  8
1
  6
Continuous
100
AcDbLine
 10
66.36962
 20
221.849283
 30
0.0
 11
68.36961999999998
 21
223.849283
 31
0.0
  0
LINE
  5
9DC4
330
9CBD
100
AcDbEntity
  8
1
  6
Continuous
100
AcDbLine
 10
74.61225999999998
 20
221.849283
 30
0.0
 11
72.61225999999997
 21
223.849283
 31
0.0
  0
LINE
  5
9DC5
330
9CBD
100
AcDbEntity
  8
1
  6
Continuous
100
AcDbLine
 10
73.44068699999998
 20
221.849283
 30
0.0
 11
75.44068699999998
 21
223.849283
 31
0.0
  0
LINE
  5
9DC6
330
9CBD
100
AcDbEntity
  8
1
  6
Continuous
100
AcDbLine
 10
72.02647399999998
 20
221.849283
 30
0.0
 11
74.02647399999998
 21
223.849283
 31
0.0
  0
LINE
  5
9DC7
330
9CBD
100
AcDbEntity
  8
1
  6
Continuous
100
AcDbLine
 10
73.198047
 20
221.849283
 30
0.0
 11
71.198047
 21
223.849283
 31
0.0
  0
LINE
  5
9DC8
330
9CBD
100
AcDbEntity
  8
1
  6
Continuous
100
AcDbLine
 10
71.783833
 20
221.849283
 30
0.0
 11
69.783833
 21
223.849283
 31
0.0
  0
LINE
  5
9DC9
330
9CBD
100
AcDbEntity
  8
1
  6
Continuous
100
AcDbLine
 10
70.61225999999997
 20
221.849283
 30
0.0
 11
72.61225999999997
 21
223.849283
 31
0.0
  0
LINE
  5
9DCA
330
9CBD
100
AcDbEntity
  8
1
  6
Continuous
100
AcDbLine
 10
77.44068699999998
 20
221.849283
 30
0.0
 11
75.44068699999998
 21
223.849283
 31
0.0
  0
LINE
  5
9DCB
330
9CBD
100
AcDbEntity
  8
1
  6
Continuous
100
AcDbLine
 10
76.02647399999998
 20
221.849283
 30
0.0
 11
74.02647399999998
 21
223.849283
 31
0.0
  0
LINE
  5
9DCC
330
9CBD
100
AcDbEntity
  8
1
  6
Continuous
100
AcDbLine
 10
74.85490099999998
 20
221.849283
 30
0.0
 11
76.85490099999999
 21
223.849283
 31
0.0
  0
LINE
  5
9DCD
330
9CBD
100
AcDbEntity
  8
4
  6
CENTER
100
AcDbLine
 10
84.88433800000001
 20
233.849283
 30
0.0
 11
84.88433800000001
 21
225.549283
 31
0.0
  0
ARC
  5
9DCE
330
9CBD
100
AcDbEntity
  8
1
  6
Continuous
100
AcDbCircle
 10
82.38433800000001
 20
230.9492829999999
 30
0.0
 40
5.099999999999997
100
AcDbArc
 50
270.0
 51
331.9275129999998
  0
ARC
  5
9DCF
330
9CBD
100
AcDbEntity
  8
1
  6
Continuous
100
AcDbCircle
 10
81.884338
 20
218.849283
 30
0.0
 40
3.0
100
AcDbArc
 50
0.0
 51
90.0
  0
LINE
  5
9DD0
330
9CBD
100
AcDbEntity
  8
1
  6
Continuous
100
AcDbLine
 10
82.38433800000001
 20
222.562487
 30
0.0
 11
81.09754200000002
 21
223.849283
 31
0.0
  0
LINE
  5
9DD1
330
9CBD
100
AcDbEntity
  8
1
  6
Continuous
100
AcDbLine
 10
80.51175499999997
 20
221.849283
 30
0.0
 11
82.38433800000001
 21
223.7218659999999
 31
0.0
  0
LINE
  5
9DD2
330
9CBD
100
AcDbEntity
  8
1
  6
Continuous
100
AcDbLine
 10
81.68332799999998
 20
221.849283
 30
0.0
 11
79.683328
 21
223.849283
 31
0.0
  0
LINE
  5
9DD3
330
9CBD
100
AcDbEntity
  8
1
  6
Continuous
100
AcDbLine
 10
80.269115
 20
221.849283
 30
0.0
 11
78.269115
 21
223.849283
 31
0.0
  0
LINE
  5
9DD4
330
9CBD
100
AcDbEntity
  8
1
  6
Continuous
100
AcDbLine
 10
79.097542
 20
221.849283
 30
0.0
 11
81.09754200000002
 21
223.849283
 31
0.0
  0
LINE
  5
9DD5
330
9CBD
100
AcDbEntity
  8
1
  6
Continuous
100
AcDbLine
 10
81.92596899999998
 20
221.849283
 30
0.0
 11
82.38433800000001
 21
222.3076529999999
 31
0.0
  0
LINE
  5
9DD6
330
9CBD
100
AcDbEntity
  8
1
  6
Continuous
100
AcDbLine
 10
82.38433800000001
 20
225.849283
 30
0.0
 11
82.38433800000001
 21
221.849283
 31
0.0
  0
LINE
  5
9DD7
330
9CBD
100
AcDbEntity
  8
1
  6
Continuous
100
AcDbLine
 10
91.884338
 20
228.5492829999999
 30
0.0
 11
91.884338
 21
230.849283
 31
0.0
  0
CIRCLE
  5
9DD8
330
9CBD
100
AcDbEntity
  8
1
  6
Continuous
100
AcDbCircle
 10
163.8843379999999
 20
174.349283
 30
0.0
 40
5.0
  0
ARC
  5
9DD9
330
9CBD
100
AcDbEntity
  8
1
  6
Continuous
100
AcDbCircle
 10
287.384338
 20
230.9492829999999
 30
0.0
 40
5.099999999999997
100
AcDbArc
 50
208.072487
 51
270.0
  0
LINE
  5
9DDA
330
9CBD
100
AcDbEntity
  8
1
  6
Continuous
100
AcDbLine
 10
341.884338
 20
230.849283
 30
0.0
 11
277.884338
 21
230.849283
 31
0.0
  0
LINE
  5
9DDB
330
9CBD
100
AcDbEntity
  8
1
  6
Continuous
100
AcDbLine
 10
341.884338
 20
228.5492829999999
 30
0.0
 11
277.884338
 21
228.5492829999999
 31
0.0
  0
LINE
  5
9DDC
330
9CBD
100
AcDbEntity
  8
4
  6
CENTER
100
AcDbLine
 10
309.884338
 20
233.849283
 30
0.0
 11
309.884338
 21
131.849283
 31
0.0
  0
LINE
  5
9DDD
330
9CBD
100
AcDbEntity
  8
1
  6
Continuous
100
AcDbLine
 10
284.884338
 20
218.849283
 30
0.0
 11
284.884338
 21
179.8083469999999
 31
0.0
  0
LINE
  5
9DDE
330
9CBD
100
AcDbEntity
  8
1
  6
Continuous
100
AcDbLine
 10
294.134338
 20
199.8696379999999
 30
0.0
 11
294.134338
 21
163.599283
 31
0.0
  0
LINE
  5
9DDF
330
9CBD
100
AcDbEntity
  8
1
  6
Continuous
100
AcDbLine
 10
291.8343379999999
 20
165.599283
 30
0.0
 11
291.8343379999999
 21
163.599283
 31
0.0
  0
LINE
  5
9DE0
330
9CBD
100
AcDbEntity
  8
1
  6
Continuous
100
AcDbLine
 10
334.884338
 20
218.849283
 30
0.0
 11
334.884338
 21
179.8083469999999
 31
0.0
  0
LINE
  5
9DE1
330
9CBD
100
AcDbEntity
  8
1
  6
Continuous
100
AcDbLine
 10
325.634338
 20
163.599283
 30
0.0
 11
325.634338
 21
199.8696379999999
 31
0.0
  0
LINE
  5
9DE2
330
9CBD
100
AcDbEntity
  8
1
  6
Continuous
100
AcDbLine
 10
327.9343379999999
 20
165.599283
 30
0.0
 11
327.9343379999999
 21
163.599283
 31
0.0
  0
LINE
  5
9DE3
330
9CBD
100
AcDbEntity
  8
4
  6
CENTER
100
AcDbLine
 10
334.9343379999999
 20
174.349283
 30
0.0
 11
286.834338
 21
174.349283
 31
0.0
  0
LINE
  5
9DE4
330
9CBD
100
AcDbEntity
  8
1
  6
Continuous
100
AcDbLine
 10
324.9843379999999
 20
165.349283
 30
0.0
 11
324.9843379999999
 21
183.349283
 31
0.0
  0
ARC
  5
9DE5
330
9CBD
100
AcDbEntity
  8
1
  6
Continuous
100
AcDbCircle
 10
316.884338
 20
179.8083469999999
 30
0.0
 40
18.0
100
AcDbArc
 50
307.871229
 51
0.0
  0
LINE
  5
9DE6
330
9CBD
100
AcDbEntity
  8
1
  6
Continuous
100
AcDbLine
 10
325.634338
 20
170.349283
 30
0.0
 11
324.9843379999999
 21
170.349283
 31
0.0
  0
ARC
  5
9DE7
330
9CBD
100
AcDbEntity
  8
1
  6
Continuous
100
AcDbCircle
 10
323.484338
 20
165.349283
 30
0.0
 40
1.5
100
AcDbArc
 50
270.0
 51
0.0
  0
LINE
  5
9DE8
330
9CBD
100
AcDbEntity
  8
1
  6
Continuous
100
AcDbLine
 10
327.9343379999999
 20
163.599283
 30
0.0
 11
325.634338
 21
163.599283
 31
0.0
  0
LINE
  5
9DE9
330
9CBD
100
AcDbEntity
  8
1
  6
Continuous
100
AcDbLine
 10
323.484338
 20
163.849283
 30
0.0
 11
322.384338
 21
163.849283
 31
0.0
  0
LINE
  5
9DEA
330
9CBD
100
AcDbEntity
  8
1
  6
Continuous
100
AcDbLine
 10
325.634338
 20
178.349283
 30
0.0
 11
324.9843379999999
 21
178.349283
 31
0.0
  0
ARC
  5
9DEB
330
9CBD
100
AcDbEntity
  8
1
  6
Continuous
100
AcDbCircle
 10
323.484338
 20
183.349283
 30
0.0
 40
1.5
100
AcDbArc
 50
0.0
 51
90.0
  0
LINE
  5
9DEC
330
9CBD
100
AcDbEntity
  8
1
  6
Continuous
100
AcDbLine
 10
323.484338
 20
184.8492829999999
 30
0.0
 11
322.384338
 21
184.8492829999999
 31
0.0
  0
LINE
  5
9DED
330
9CBD
100
AcDbEntity
  8
1
  6
Continuous
100
AcDbLine
 10
294.784338
 20
165.349283
 30
0.0
 11
294.784338
 21
183.349283
 31
0.0
  0
ARC
  5
9DEE
330
9CBD
100
AcDbEntity
  8
1
  6
Continuous
100
AcDbCircle
 10
302.884338
 20
179.8083469999999
 30
0.0
 40
18.0
100
AcDbArc
 50
180.0
 51
232.128771
  0
LINE
  5
9DEF
330
9CBD
100
AcDbEntity
  8
1
  6
Continuous
100
AcDbLine
 10
294.134338
 20
163.599283
 30
0.0
 11
291.8343379999999
 21
163.599283
 31
0.0
  0
LINE
  5
9DF0
330
9CBD
100
AcDbEntity
  8
1
  6
Continuous
100
AcDbLine
 10
294.784338
 20
170.349283
 30
0.0
 11
294.134338
 21
170.349283
 31
0.0
  0
LINE
  5
9DF1
330
9CBD
100
AcDbEntity
  8
1
  6
Continuous
100
AcDbLine
 10
297.384338
 20
163.849283
 30
0.0
 11
296.2843379999998
 21
163.849283
 31
0.0
  0
ARC
  5
9DF2
330
9CBD
100
AcDbEntity
  8
1
  6
Continuous
100
AcDbCircle
 10
296.2843379999998
 20
165.349283
 30
0.0
 40
1.5
100
AcDbArc
 50
180.0
 51
270.0
  0
LINE
  5
9DF3
330
9CBD
100
AcDbEntity
  8
1
  6
Continuous
100
AcDbLine
 10
297.384338
 20
184.8492829999999
 30
0.0
 11
296.2843379999998
 21
184.8492829999999
 31
0.0
  0
ARC
  5
9DF4
330
9CBD
100
AcDbEntity
  8
1
  6
Continuous
100
AcDbCircle
 10
296.2843379999998
 20
183.349283
 30
0.0
 40
1.5
100
AcDbArc
 50
90.0
 51
180.0
  0
LINE
  5
9DF5
330
9CBD
100
AcDbEntity
  8
1
  6
Continuous
100
AcDbLine
 10
294.784338
 20
178.349283
 30
0.0
 11
294.134338
 21
178.349283
 31
0.0
  0
LINE
  5
9DF6
330
9CBD
100
AcDbEntity
  8
1
  6
Continuous
100
AcDbLine
 10
314.7127649999998
 20
221.849283
 30
0.0
 11
312.7127649999998
 21
223.849283
 31
0.0
  0
LINE
  5
9DF7
330
9CBD
100
AcDbEntity
  8
1
  6
Continuous
100
AcDbLine
 10
316.1269779999999
 20
221.849283
 30
0.0
 11
314.1269779999999
 21
223.849283
 31
0.0
  0
LINE
  5
9DF8
330
9CBD
100
AcDbEntity
  8
1
  6
Continuous
100
AcDbLine
 10
313.5411919999999
 20
221.849283
 30
0.0
 11
315.5411919999999
 21
223.849283
 31
0.0
  0
LINE
  5
9DF9
330
9CBD
100
AcDbEntity
  8
1
  6
Continuous
100
AcDbLine
 10
332.384338
 20
221.849283
 30
0.0
 11
287.384338
 21
221.849283
 31
0.0
  0
LINE
  5
9DFA
330
9CBD
100
AcDbEntity
  8
1
  6
Continuous
100
AcDbLine
 10
332.384338
 20
223.849283
 30
0.0
 11
287.384338
 21
223.849283
 31
0.0
  0
LINE
  5
9DFB
330
9CBD
100
AcDbEntity
  8
1
  6
Continuous
100
AcDbLine
 10
332.384338
 20
225.849283
 30
0.0
 11
287.384338
 21
225.849283
 31
0.0
  0
LINE
  5
9DFC
330
9CBD
100
AcDbEntity
  8
1
  6
Continuous
100
AcDbLine
 10
331.6833279999999
 20
221.849283
 30
0.0
 11
329.6833279999999
 21
223.849283
 31
0.0
  0
LINE
  5
9DFD
330
9CBD
100
AcDbEntity
  8
1
  6
Continuous
100
AcDbLine
 10
329.0975409999999
 20
221.849283
 30
0.0
 11
331.0975409999999
 21
223.849283
 31
0.0
  0
LINE
  5
9DFE
330
9CBD
100
AcDbEntity
  8
1
  6
Continuous
100
AcDbLine
 10
341.884338
 20
228.5492829999999
 30
0.0
 11
341.884338
 21
230.849283
 31
0.0
  0
LINE
  5
9DFF
330
9CBD
100
AcDbEntity
  8
1
  6
Continuous
100
AcDbLine
 10
332.384338
 20
225.849283
 30
0.0
 11
332.384338
 21
221.849283
 31
0.0
  0
LINE
  5
9E00
330
9CBD
100
AcDbEntity
  8
1
  6
Continuous
100
AcDbLine
 10
332.384338
 20
222.562487
 30
0.0
 11
331.0975409999999
 21
223.849283
 31
0.0
  0
LINE
  5
9E01
330
9CBD
100
AcDbEntity
  8
1
  6
Continuous
100
AcDbLine
 10
332.384338
 20
223.7218659999999
 30
0.0
 11
330.5117549999998
 21
221.849283
 31
0.0
  0
LINE
  5
9E02
330
9CBD
100
AcDbEntity
  8
1
  6
Continuous
100
AcDbLine
 10
332.384338
 20
222.3076529999999
 30
0.0
 11
331.925968
 21
221.849283
 31
0.0
  0
ARC
  5
9E03
330
9CBD
100
AcDbEntity
  8
1
  6
Continuous
100
AcDbCircle
 10
331.884338
 20
218.849283
 30
0.0
 40
3.0
100
AcDbArc
 50
0.0
 51
90.0
  0
LINE
  5
9E04
330
9CBD
100
AcDbEntity
  8
4
  6
CENTER
100
AcDbLine
 10
334.884338
 20
233.849283
 30
0.0
 11
334.884338
 21
225.549283
 31
0.0
  0
ARC
  5
9E05
330
9CBD
100
AcDbEntity
  8
1
  6
Continuous
100
AcDbCircle
 10
332.384338
 20
230.9492829999999
 30
0.0
 40
5.099999999999997
100
AcDbArc
 50
270.0
 51
331.9275129999998
  0
LINE
  5
9E06
330
9CBD
100
AcDbEntity
  8
1
  6
Continuous
100
AcDbLine
 10
326.026473
 20
221.849283
 30
0.0
 11
324.026473
 21
223.849283
 31
0.0
  0
LINE
  5
9E07
330
9CBD
100
AcDbEntity
  8
1
  6
Continuous
100
AcDbLine
 10
323.440687
 20
221.849283
 30
0.0
 11
325.440687
 21
223.849283
 31
0.0
  0
LINE
  5
9E08
330
9CBD
100
AcDbEntity
  8
1
  6
Continuous
100
AcDbLine
 10
324.854901
 20
221.849283
 30
0.0
 11
326.854901
 21
223.849283
 31
0.0
  0
LINE
  5
9E09
330
9CBD
100
AcDbEntity
  8
1
  6
Continuous
100
AcDbLine
 10
327.440687
 20
221.849283
 30
0.0
 11
325.440687
 21
223.849283
 31
0.0
  0
LINE
  5
9E0A
330
9CBD
100
AcDbEntity
  8
1
  6
Continuous
100
AcDbLine
 10
328.854901
 20
221.849283
 30
0.0
 11
326.854901
 21
223.849283
 31
0.0
  0
LINE
  5
9E0B
330
9CBD
100
AcDbEntity
  8
1
  6
Continuous
100
AcDbLine
 10
326.269114
 20
221.849283
 30
0.0
 11
328.269114
 21
223.849283
 31
0.0
  0
LINE
  5
9E0C
330
9CBD
100
AcDbEntity
  8
1
  6
Continuous
100
AcDbLine
 10
330.269114
 20
221.849283
 30
0.0
 11
328.269114
 21
223.849283
 31
0.0
  0
LINE
  5
9E0D
330
9CBD
100
AcDbEntity
  8
1
  6
Continuous
100
AcDbLine
 10
327.6833279999999
 20
221.849283
 30
0.0
 11
329.6833279999999
 21
223.849283
 31
0.0
  0
LINE
  5
9E0E
330
9CBD
100
AcDbEntity
  8
1
  6
Continuous
100
AcDbLine
 10
324.61226
 20
221.849283
 30
0.0
 11
322.61226
 21
223.849283
 31
0.0
  0
LINE
  5
9E0F
330
9CBD
100
AcDbEntity
  8
1
  6
Continuous
100
AcDbLine
 10
322.026473
 20
221.849283
 30
0.0
 11
324.026473
 21
223.849283
 31
0.0
  0
LINE
  5
9E10
330
9CBD
100
AcDbEntity
  8
1
  6
Continuous
100
AcDbLine
 10
318.9554059999999
 20
221.849283
 30
0.0
 11
316.9554059999999
 21
223.849283
 31
0.0
  0
LINE
  5
9E11
330
9CBD
100
AcDbEntity
  8
1
  6
Continuous
100
AcDbLine
 10
320.369619
 20
221.849283
 30
0.0
 11
318.369619
 21
223.849283
 31
0.0
  0
LINE
  5
9E12
330
9CBD
100
AcDbEntity
  8
1
  6
Continuous
100
AcDbLine
 10
317.783833
 20
221.849283
 30
0.0
 11
319.783833
 21
223.849283
 31
0.0
  0
LINE
  5
9E13
330
9CBD
100
AcDbEntity
  8
1
  6
Continuous
100
AcDbLine
 10
319.1980459999999
 20
221.849283
 30
0.0
 11
321.1980459999999
 21
223.849283
 31
0.0
  0
LINE
  5
9E14
330
9CBD
100
AcDbEntity
  8
1
  6
Continuous
100
AcDbLine
 10
317.5411919999999
 20
221.849283
 30
0.0
 11
315.5411919999999
 21
223.849283
 31
0.0
  0
LINE
  5
9E15
330
9CBD
100
AcDbEntity
  8
1
  6
Continuous
100
AcDbLine
 10
314.9554059999999
 20
221.849283
 30
0.0
 11
316.9554059999999
 21
223.849283
 31
0.0
  0
LINE
  5
9E16
330
9CBD
100
AcDbEntity
  8
1
  6
Continuous
100
AcDbLine
 10
316.369619
 20
221.849283
 30
0.0
 11
318.369619
 21
223.849283
 31
0.0
  0
LINE
  5
9E17
330
9CBD
100
AcDbEntity
  8
1
  6
Continuous
100
AcDbLine
 10
323.1980459999999
 20
221.849283
 30
0.0
 11
321.1980459999999
 21
223.849283
 31
0.0
  0
LINE
  5
9E18
330
9CBD
100
AcDbEntity
  8
1
  6
Continuous
100
AcDbLine
 10
321.783833
 20
221.849283
 30
0.0
 11
319.783833
 21
223.849283
 31
0.0
  0
LINE
  5
9E19
330
9CBD
100
AcDbEntity
  8
1
  6
Continuous
100
AcDbLine
 10
320.61226
 20
221.849283
 30
0.0
 11
322.61226
 21
223.849283
 31
0.0
  0
LINE
  5
9E1A
330
9CBD
100
AcDbEntity
  8
1
  6
Continuous
100
AcDbLine
 10
299.1564159999999
 20
221.849283
 30
0.0
 11
297.1564159999999
 21
223.849283
 31
0.0
  0
LINE
  5
9E1B
330
9CBD
100
AcDbEntity
  8
1
  6
Continuous
100
AcDbLine
 10
297.984843
 20
221.849283
 30
0.0
 11
299.984843
 21
223.849283
 31
0.0
  0
LINE
  5
9E1C
330
9CBD
100
AcDbEntity
  8
1
  6
Continuous
100
AcDbLine
 10
296.5706289999999
 20
221.849283
 30
0.0
 11
298.5706289999999
 21
223.849283
 31
0.0
  0
LINE
  5
9E1D
330
9CBD
100
AcDbEntity
  8
1
  6
Continuous
100
AcDbLine
 10
310.470124
 20
221.849283
 30
0.0
 11
308.470124
 21
223.849283
 31
0.0
  0
LINE
  5
9E1E
330
9CBD
100
AcDbEntity
  8
1
  6
Continuous
100
AcDbLine
 10
307.884338
 20
221.849283
 30
0.0
 11
309.884338
 21
223.849283
 31
0.0
  0
LINE
  5
9E1F
330
9CBD
100
AcDbEntity
  8
1
  6
Continuous
100
AcDbLine
 10
311.884338
 20
221.849283
 30
0.0
 11
309.884338
 21
223.849283
 31
0.0
  0
LINE
  5
9E20
330
9CBD
100
AcDbEntity
  8
1
  6
Continuous
100
AcDbLine
 10
309.2985509999999
 20
221.849283
 30
0.0
 11
311.2985509999999
 21
223.849283
 31
0.0
  0
LINE
  5
9E21
330
9CBD
100
AcDbEntity
  8
1
  6
Continuous
100
AcDbLine
 10
313.2985509999999
 20
221.849283
 30
0.0
 11
311.2985509999999
 21
223.849283
 31
0.0
  0
LINE
  5
9E22
330
9CBD
100
AcDbEntity
  8
1
  6
Continuous
100
AcDbLine
 10
310.7127649999998
 20
221.849283
 30
0.0
 11
312.7127649999998
 21
223.849283
 31
0.0
  0
LINE
  5
9E23
330
9CBD
100
AcDbEntity
  8
1
  6
Continuous
100
AcDbLine
 10
312.1269779999999
 20
221.849283
 30
0.0
 11
314.1269779999999
 21
223.849283
 31
0.0
  0
LINE
  5
9E24
330
9CBD
100
AcDbEntity
  8
1
  6
Continuous
100
AcDbLine
 10
307.641697
 20
221.849283
 30
0.0
 11
305.641697
 21
223.849283
 31
0.0
  0
LINE
  5
9E25
330
9CBD
100
AcDbEntity
  8
1
  6
Continuous
100
AcDbLine
 10
309.055911
 20
221.849283
 30
0.0
 11
307.055911
 21
223.849283
 31
0.0
  0
LINE
  5
9E26
330
9CBD
100
AcDbEntity
  8
1
  6
Continuous
100
AcDbLine
 10
306.470124
 20
221.849283
 30
0.0
 11
308.470124
 21
223.849283
 31
0.0
  0
LINE
  5
9E27
330
9CBD
100
AcDbEntity
  8
1
  6
Continuous
100
AcDbLine
 10
303.3990559999999
 20
221.849283
 30
0.0
 11
301.3990559999998
 21
223.849283
 31
0.0
  0
LINE
  5
9E28
330
9CBD
100
AcDbEntity
  8
1
  6
Continuous
100
AcDbLine
 10
302.227484
 20
221.849283
 30
0.0
 11
304.227484
 21
223.849283
 31
0.0
  0
LINE
  5
9E29
330
9CBD
100
AcDbEntity
  8
1
  6
Continuous
100
AcDbLine
 10
300.8132699999999
 20
221.849283
 30
0.0
 11
302.81327
 21
223.849283
 31
0.0
  0
LINE
  5
9E2A
330
9CBD
100
AcDbEntity
  8
1
  6
Continuous
100
AcDbLine
 10
304.81327
 20
221.849283
 30
0.0
 11
302.81327
 21
223.849283
 31
0.0
  0
LINE
  5
9E2B
330
9CBD
100
AcDbEntity
  8
1
  6
Continuous
100
AcDbLine
 10
301.984843
 20
221.849283
 30
0.0
 11
299.984843
 21
223.849283
 31
0.0
  0
LINE
  5
9E2C
330
9CBD
100
AcDbEntity
  8
1
  6
Continuous
100
AcDbLine
 10
300.570629
 20
221.849283
 30
0.0
 11
298.5706289999999
 21
223.849283
 31
0.0
  0
LINE
  5
9E2D
330
9CBD
100
AcDbEntity
  8
1
  6
Continuous
100
AcDbLine
 10
299.3990559999998
 20
221.849283
 30
0.0
 11
301.3990559999998
 21
223.849283
 31
0.0
  0
LINE
  5
9E2E
330
9CBD
100
AcDbEntity
  8
1
  6
Continuous
100
AcDbLine
 10
305.055911
 20
221.849283
 30
0.0
 11
307.055911
 21
223.849283
 31
0.0
  0
LINE
  5
9E2F
330
9CBD
100
AcDbEntity
  8
1
  6
Continuous
100
AcDbLine
 10
306.227484
 20
221.849283
 30
0.0
 11
304.227484
 21
223.849283
 31
0.0
  0
LINE
  5
9E30
330
9CBD
100
AcDbEntity
  8
1
  6
Continuous
100
AcDbLine
 10
303.641697
 20
221.849283
 30
0.0
 11
305.641697
 21
223.849283
 31
0.0
  0
LINE
  5
9E31
330
9CBD
100
AcDbEntity
  8
1
  6
Continuous
100
AcDbLine
 10
294.9137749999998
 20
221.849283
 30
0.0
 11
292.9137749999998
 21
223.849283
 31
0.0
  0
LINE
  5
9E32
330
9CBD
100
AcDbEntity
  8
1
  6
Continuous
100
AcDbLine
 10
292.3279889999998
 20
221.849283
 30
0.0
 11
294.3279889999999
 21
223.849283
 31
0.0
  0
LINE
  5
9E33
330
9CBD
100
AcDbEntity
  8
1
  6
Continuous
100
AcDbLine
 10
293.4995609999999
 20
221.849283
 30
0.0
 11
291.4995609999999
 21
223.849283
 31
0.0
  0
LINE
  5
9E34
330
9CBD
100
AcDbEntity
  8
1
  6
Continuous
100
AcDbLine
 10
293.7422019999999
 20
221.849283
 30
0.0
 11
295.742202
 21
223.849283
 31
0.0
  0
LINE
  5
9E35
330
9CBD
100
AcDbEntity
  8
1
  6
Continuous
100
AcDbLine
 10
297.742202
 20
221.849283
 30
0.0
 11
295.742202
 21
223.849283
 31
0.0
  0
LINE
  5
9E36
330
9CBD
100
AcDbEntity
  8
1
  6
Continuous
100
AcDbLine
 10
296.3279889999999
 20
221.849283
 30
0.0
 11
294.3279889999999
 21
223.849283
 31
0.0
  0
LINE
  5
9E37
330
9CBD
100
AcDbEntity
  8
1
  6
Continuous
100
AcDbLine
 10
295.1564159999999
 20
221.849283
 30
0.0
 11
297.1564159999999
 21
223.849283
 31
0.0
  0
LINE
  5
9E38
330
9CBD
100
AcDbEntity
  8
1
  6
Continuous
100
AcDbLine
 10
289.4995609999999
 20
221.849283
 30
0.0
 11
291.4995609999999
 21
223.849283
 31
0.0
  0
LINE
  5
9E39
330
9CBD
100
AcDbEntity
  8
1
  6
Continuous
100
AcDbLine
 10
292.085348
 20
221.849283
 30
0.0
 11
290.085348
 21
223.849283
 31
0.0
  0
LINE
  5
9E3A
330
9CBD
100
AcDbEntity
  8
1
  6
Continuous
100
AcDbLine
 10
290.9137749999998
 20
221.849283
 30
0.0
 11
292.9137749999998
 21
223.849283
 31
0.0
  0
LINE
  5
9E3B
330
9CBD
100
AcDbEntity
  8
1
  6
Continuous
100
AcDbLine
 10
287.384338
 20
225.849283
 30
0.0
 11
287.384338
 21
221.849283
 31
0.0
  0
LINE
  5
9E3C
330
9CBD
100
AcDbEntity
  8
1
  6
Continuous
100
AcDbLine
 10
287.8427069999998
 20
221.849283
 30
0.0
 11
287.384338
 21
222.3076529999999
 31
0.0
  0
LINE
  5
9E3D
330
9CBD
100
AcDbEntity
  8
1
  6
Continuous
100
AcDbLine
 10
289.2569209999999
 20
221.849283
 30
0.0
 11
287.384338
 21
223.7218659999999
 31
0.0
  0
LINE
  5
9E3E
330
9CBD
100
AcDbEntity
  8
1
  6
Continuous
100
AcDbLine
 10
287.384338
 20
222.562487
 30
0.0
 11
288.671134
 21
223.849283
 31
0.0
  0
ARC
  5
9E3F
330
9CBD
100
AcDbEntity
  8
1
  6
Continuous
100
AcDbCircle
 10
287.884338
 20
218.849283
 30
0.0
 40
3.0
100
AcDbArc
 50
90.0
 51
180.0
  0
LINE
  5
9E40
330
9CBD
100
AcDbEntity
  8
4
  6
CENTER
100
AcDbLine
 10
284.884338
 20
233.849283
 30
0.0
 11
284.884338
 21
225.549283
 31
0.0
  0
LINE
  5
9E41
330
9CBD
100
AcDbEntity
  8
1
  6
Continuous
100
AcDbLine
 10
290.671134
 20
221.849283
 30
0.0
 11
288.671134
 21
223.849283
 31
0.0
  0
LINE
  5
9E42
330
9CBD
100
AcDbEntity
  8
1
  6
Continuous
100
AcDbLine
 10
288.085348
 20
221.849283
 30
0.0
 11
290.085348
 21
223.849283
 31
0.0
  0
LINE
  5
9E43
330
9CBD
100
AcDbEntity
  8
1
  6
Continuous
100
AcDbLine
 10
277.884338
 20
228.5492829999999
 30
0.0
 11
277.884338
 21
230.849283
 31
0.0
  0
LINE
  5
9E44
330
9CBD
100
AcDbEntity
  8
4
  6
CENTER
100
AcDbLine
 10
216.1343379999999
 20
52.221118
 30
0.0
 11
203.6343379999999
 21
52.221118
 31
0.0
  0
ARC
  5
9E45
330
9CBD
100
AcDbEntity
  8
1
  6
Continuous
100
AcDbCircle
 10
210.8843379999999
 20
51.22111799999998
 30
0.0
 40
6.0
100
AcDbArc
 50
270.0
 51
0.0
  0
LINE
  5
9E46
330
9CBD
100
AcDbEntity
  8
4
  6
CENTER
100
AcDbLine
 10
216.1343379999999
 20
102.2211179999999
 30
0.0
 11
203.6343379999999
 21
102.2211179999999
 31
0.0
  0
ARC
  5
9E47
330
9CBD
100
AcDbEntity
  8
1
  6
Continuous
100
AcDbCircle
 10
210.8843379999999
 20
103.221118
 30
0.0
 40
6.0
100
AcDbArc
 50
0.0
 51
90.0
  0
LINE
  5
9E48
330
9CBD
100
AcDbEntity
  8
4
  6
CENTER
100
AcDbLine
 10
219.884338
 20
77.221118
 30
0.0
 11
121.3843379999999
 21
77.221118
 31
0.0
  0
LINE
  5
9E49
330
9CBD
100
AcDbEntity
  8
1
  6
Continuous
100
AcDbLine
 10
152.8843379999998
 20
51.22111799999998
 30
0.0
 11
152.8843379999998
 21
64.721118
 31
0.0
  0
LINE
  5
9E4A
330
9CBD
100
AcDbEntity
  8
4
  6
CENTER
100
AcDbLine
 10
184.8843379999999
 20
42.22111799999999
 30
0.0
 11
184.8843379999999
 21
112.2211179999998
 31
0.0
  0
LINE
  5
9E4B
330
9CBD
100
AcDbEntity
  8
1
  6
Continuous
100
AcDbLine
 10
158.8843379999999
 20
109.2211179999999
 30
0.0
 11
210.8843379999999
 21
109.2211179999999
 31
0.0
  0
LINE
  5
9E4C
330
9CBD
100
AcDbEntity
  8
4
  6
CENTER
100
AcDbLine
 10
159.8843379999999
 20
108.471118
 30
0.0
 11
159.8843379999999
 21
95.971118
 31
0.0
  0
ARC
  5
9E4D
330
9CBD
100
AcDbEntity
  8
1
  6
Continuous
100
AcDbCircle
 10
158.8843379999999
 20
103.221118
 30
0.0
 40
6.0
100
AcDbArc
 50
90.0
 51
180.0
  0
CIRCLE
  5
9E4E
330
9CBD
100
AcDbEntity
  8
1
  6
Continuous
100
AcDbCircle
 10
159.8843379999999
 20
102.2211179999999
 30
0.0
 40
3.25
  0
LINE
  5
9E4F
330
9CBD
100
AcDbEntity
  8
4
  6
CENTER
100
AcDbLine
 10
166.1343379999999
 20
102.2211179999999
 30
0.0
 11
153.6343379999999
 21
102.2211179999999
 31
0.0
  0
LINE
  5
9E50
330
9CBD
100
AcDbEntity
  8
4
  6
CENTER
100
AcDbLine
 10
209.8843379999999
 20
108.471118
 30
0.0
 11
209.8843379999999
 21
95.971118
 31
0.0
  0
CIRCLE
  5
9E51
330
9CBD
100
AcDbEntity
  8
1
  6
Continuous
100
AcDbCircle
 10
209.8843379999999
 20
102.2211179999999
 30
0.0
 40
3.25
  0
LINE
  5
9E52
330
9CBD
100
AcDbEntity
  8
1
  6
Continuous
100
AcDbLine
 10
210.8843379999999
 20
45.221118
 30
0.0
 11
158.8843379999999
 21
45.221118
 31
0.0
  0
CIRCLE
  5
9E53
330
9CBD
100
AcDbEntity
  8
1
  6
Continuous
100
AcDbCircle
 10
159.8843379999999
 20
52.221118
 30
0.0
 40
3.25
  0
LINE
  5
9E54
330
9CBD
100
AcDbEntity
  8
4
  6
CENTER
100
AcDbLine
 10
159.8843379999999
 20
58.471118
 30
0.0
 11
159.8843379999999
 21
45.97111799999999
 31
0.0
  0
LINE
  5
9E55
330
9CBD
100
AcDbEntity
  8
4
  6
CENTER
100
AcDbLine
 10
166.1343379999999
 20
52.221118
 30
0.0
 11
153.6343379999999
 21
52.221118
 31
0.0
  0
ARC
  5
9E56
330
9CBD
100
AcDbEntity
  8
1
  6
Continuous
100
AcDbCircle
 10
158.8843379999999
 20
51.22111799999998
 30
0.0
 40
6.0
100
AcDbArc
 50
180.0
 51
270.0
  0
LINE
  5
9E57
330
9CBD
100
AcDbEntity
  8
4
  6
CENTER
100
AcDbLine
 10
209.8843379999999
 20
58.471118
 30
0.0
 11
209.8843379999999
 21
45.97111799999999
 31
0.0
  0
CIRCLE
  5
9E58
330
9CBD
100
AcDbEntity
  8
1
  6
Continuous
100
AcDbCircle
 10
209.8843379999999
 20
52.221118
 30
0.0
 40
3.25
  0
LINE
  5
9E59
330
9CBD
100
AcDbEntity
  8
1
  6
Continuous
100
AcDbLine
 10
216.8843379999999
 20
103.221118
 30
0.0
 11
216.8843379999999
 21
51.22111799999998
 31
0.0
  0
ARC
  5
9E5A
330
9CBD
100
AcDbEntity
  8
1
  6
Continuous
100
AcDbCircle
 10
131.226479
 20
110.692097
 30
0.0
 40
214.9566249999999
100
AcDbArc
 50
19.38271699999998
 51
27.860715
  0
ARC
  5
9E5B
330
9CBD
100
AcDbEntity
  8
1
  6
Continuous
100
AcDbCircle
 10
488.542197
 20
110.692097
 30
0.0
 40
214.9566249999999
100
AcDbArc
 50
152.1392849999998
 51
160.617283
  0
ARC
  5
9E5C
330
9CBD
100
AcDbEntity
  8
1
  6
Continuous
100
AcDbCircle
 10
329.9343379999999
 20
163.9986189999999
 30
0.0
 40
4.299999999999998
100
AcDbArc
 50
129.5376679999999
 51
180.0
  0
ARC
  5
9E5D
330
9CBD
100
AcDbEntity
  8
1
  6
Continuous
100
AcDbCircle
 10
313.0715169999998
 20
182.4858199999999
 30
0.0
 40
20.728954
100
AcDbArc
 50
311.781926
 51
340.101046
  0
ARC
  5
9E5E
330
9CBD
100
AcDbEntity
  8
1
  6
Continuous
100
AcDbCircle
 10
324.73478
 20
178.268683
 30
0.0
 40
10.0
100
AcDbArc
 50
348.9037369999999
 51
22.10150399999999
  0
ARC
  5
9E5F
330
9CBD
100
AcDbEntity
  8
1
  6
Continuous
100
AcDbCircle
 10
306.697159
 20
182.4858199999999
 30
0.0
 40
20.728954
100
AcDbArc
 50
200.3067139999998
 51
228.218074
  0
ARC
  5
9E60
330
9CBD
100
AcDbEntity
  8
1
  6
Continuous
100
AcDbCircle
 10
289.834338
 20
163.9986189999999
 30
0.0
 40
4.299999999999998
100
AcDbArc
 50
0.0
 51
50.462332
  0
ARC
  5
9E61
330
9CBD
100
AcDbEntity
  8
1
  6
Continuous
100
AcDbCircle
 10
184.8843379999999
 20
77.221118
 30
0.0
 40
25.0
100
AcDbArc
 50
233.2667379999999
 51
126.7332619999999
  0
LINE
  5
9E62
330
9CBD
100
AcDbEntity
  8
1
  6
Continuous
100
AcDbLine
 10
153.3843379999999
 20
89.721118
 30
0.0
 11
153.3843379999999
 21
90.82111799999998
 31
0.0
  0
ARC
  5
9E63
330
9CBD
100
AcDbEntity
  8
1
  6
Continuous
100
AcDbCircle
 10
154.8843379999999
 20
90.82111799999998
 30
0.0
 40
1.5
100
AcDbArc
 50
90.0
 51
180.0
  0
LINE
  5
9E64
330
9CBD
100
AcDbEntity
  8
1
  6
Continuous
100
AcDbLine
 10
172.8843379999999
 20
92.321118
 30
0.0
 11
154.8843379999999
 21
92.321118
 31
0.0
  0
LINE
  5
9E65
330
9CBD
100
AcDbEntity
  8
1
  6
Continuous
100
AcDbLine
 10
159.8843379999999
 20
92.321118
 30
0.0
 11
159.8843379999999
 21
92.97111800000001
 31
0.0
  0
LINE
  5
9E66
330
9CBD
100
AcDbEntity
  8
1
  6
Continuous
100
AcDbLine
 10
167.8843379999999
 20
92.321118
 30
0.0
 11
167.8843379999999
 21
93.61692600000001
 31
0.0
  0
LINE
  5
9E67
330
9CBD
100
AcDbEntity
  8
1
  6
Continuous
100
AcDbLine
 10
174.3843379999999
 20
89.721118
 30
0.0
 11
174.3843379999999
 21
90.82111799999998
 31
0.0
  0
ARC
  5
9E68
330
9CBD
100
AcDbEntity
  8
1
  6
Continuous
100
AcDbCircle
 10
172.8843379999999
 20
90.82111799999998
 30
0.0
 40
1.5
100
AcDbArc
 50
0.0
 51
90.0
  0
LINE
  5
9E69
330
9CBD
100
AcDbEntity
  8
1
  6
Continuous
100
AcDbLine
 10
158.8843379999999
 20
96.27111800000001
 30
0.0
 11
168.310069
 21
96.27111800000001
 31
0.0
  0
ARC
  5
9E6A
330
9CBD
100
AcDbEntity
  8
1
  6
Continuous
100
AcDbCircle
 10
163.8843379999999
 20
84.271118
 30
0.0
 40
13.0
100
AcDbArc
 50
68.895971
 51
112.6198649999998
  0
LINE
  5
9E6B
330
9CBD
100
AcDbEntity
  8
1
  6
Continuous
100
AcDbLine
 10
158.8843379999999
 20
95.271118
 30
0.0
 11
158.8843379999999
 21
96.27111800000001
 31
0.0
  0
LINE
  5
9E6C
330
9CBD
100
AcDbEntity
  8
4
  6
CENTER
100
AcDbLine
 10
163.8843379999999
 20
42.22111799999999
 30
0.0
 11
163.8843379999999
 21
112.2211179999998
 31
0.0
  0
LINE
  5
9E6D
330
9CBD
100
AcDbEntity
  8
1
  6
Continuous
100
AcDbLine
 10
163.9511699999999
 20
92.97111800000001
 30
0.0
 11
153.637179
 21
92.97111800000001
 31
0.0
  0
LINE
  5
9E6E
330
9CBD
100
AcDbEntity
  8
1
  6
Continuous
100
AcDbLine
 10
163.9511699999999
 20
95.271118
 30
0.0
 11
153.637179
 21
95.271118
 31
0.0
  0
LINE
  5
9E6F
330
9CBD
100
AcDbEntity
  8
1
  6
Continuous
100
AcDbLine
 10
153.637179
 20
95.271118
 30
0.0
 11
153.637179
 21
92.97111800000001
 31
0.0
  0
ARC
  5
9E70
330
9CBD
100
AcDbEntity
  8
1
  6
Continuous
100
AcDbCircle
 10
163.9511699999999
 20
105.2711179999999
 30
0.0
 40
10.0
100
AcDbArc
 50
270.0
 51
306.733262
  0
ARC
  5
9E71
330
9CBD
100
AcDbEntity
  8
1
  6
Continuous
100
AcDbCircle
 10
163.9511699999999
 20
105.2711179999999
 30
0.0
 40
12.3
100
AcDbArc
 50
270.0
 51
306.733262
  0
ARC
  5
9E72
330
9CBD
100
AcDbEntity
  8
1
  6
Continuous
100
AcDbCircle
 10
184.8843379999999
 20
77.221118
 30
0.0
 40
22.7
100
AcDbArc
 50
233.2667379999999
 51
126.7332619999999
  0
LINE
  5
9E73
330
9CBD
100
AcDbEntity
  8
1
  6
Continuous
100
AcDbLine
 10
172.8843379999999
 20
62.121118
 30
0.0
 11
154.8843379999999
 21
62.121118
 31
0.0
  0
LINE
  5
9E74
330
9CBD
100
AcDbEntity
  8
1
  6
Continuous
100
AcDbLine
 10
167.8843379999999
 20
60.82530999999999
 30
0.0
 11
167.8843379999999
 21
62.121118
 31
0.0
  0
ARC
  5
9E75
330
9CBD
100
AcDbEntity
  8
1
  6
Continuous
100
AcDbCircle
 10
172.8843379999999
 20
63.621118
 30
0.0
 40
1.5
100
AcDbArc
 50
270.0
 51
0.0
  0
LINE
  5
9E76
330
9CBD
100
AcDbEntity
  8
1
  6
Continuous
100
AcDbLine
 10
174.3843379999999
 20
63.621118
 30
0.0
 11
174.3843379999999
 21
64.721118
 31
0.0
  0
LINE
  5
9E77
330
9CBD
100
AcDbEntity
  8
1
  6
Continuous
100
AcDbLine
 10
159.8843379999999
 20
61.47111800000001
 30
0.0
 11
159.8843379999999
 21
62.121118
 31
0.0
  0
ARC
  5
9E78
330
9CBD
100
AcDbEntity
  8
1
  6
Continuous
100
AcDbCircle
 10
154.8843379999999
 20
63.621118
 30
0.0
 40
1.5
100
AcDbArc
 50
180.0
 51
270.0
  0
LINE
  5
9E79
330
9CBD
100
AcDbEntity
  8
1
  6
Continuous
100
AcDbLine
 10
153.3843379999999
 20
63.621118
 30
0.0
 11
153.3843379999999
 21
64.721118
 31
0.0
  0
ARC
  5
9E7A
330
9CBD
100
AcDbEntity
  8
1
  6
Continuous
100
AcDbCircle
 10
163.8843379999999
 20
63.17111800000001
 30
0.0
 40
8.0
100
AcDbArc
 50
224.0486259999999
 51
314.687856
  0
LINE
  5
9E7B
330
9CBD
100
AcDbEntity
  8
1
  6
Continuous
100
AcDbLine
 10
158.1343379999998
 20
57.60896899999998
 30
0.0
 11
169.317982
 21
57.60896899999998
 31
0.0
  0
LINE
  5
9E7C
330
9CBD
100
AcDbEntity
  8
1
  6
Continuous
100
AcDbLine
 10
158.1343379999998
 20
57.60896899999998
 30
0.0
 11
158.1343379999998
 21
59.171118
 31
0.0
  0
ARC
  5
9E7D
330
9CBD
100
AcDbEntity
  8
1
  6
Continuous
100
AcDbCircle
 10
163.9511699999999
 20
49.171118
 30
0.0
 40
12.3
100
AcDbArc
 50
53.26673800000001
 51
90.0
  0
ARC
  5
9E7E
330
9CBD
100
AcDbEntity
  8
1
  6
Continuous
100
AcDbCircle
 10
163.9511699999999
 20
49.171118
 30
0.0
 40
10.0
100
AcDbArc
 50
53.26673800000001
 51
90.0
  0
LINE
  5
9E7F
330
9CBD
100
AcDbEntity
  8
1
  6
Continuous
100
AcDbLine
 10
163.9511699999999
 20
61.47111800000001
 30
0.0
 11
153.637179
 21
61.47111800000001
 31
0.0
  0
LINE
  5
9E80
330
9CBD
100
AcDbEntity
  8
1
  6
Continuous
100
AcDbLine
 10
163.9511699999999
 20
59.171118
 30
0.0
 11
153.637179
 21
59.171118
 31
0.0
  0
LINE
  5
9E81
330
9CBD
100
AcDbEntity
  8
1
  6
Continuous
100
AcDbLine
 10
153.637179
 20
59.171118
 30
0.0
 11
153.637179
 21
61.47111800000001
 31
0.0
  0
ARC
  5
9E82
330
9CBD
100
AcDbEntity
  8
1
  6
Continuous
100
AcDbCircle
 10
309.884338
 20
195.541435
 30
0.0
 40
19.807848
100
AcDbArc
 50
61.23054299999999
 51
118.769457
  0
ARC
  5
9E83
330
9CBD
100
AcDbEntity
  8
1
  6
Continuous
100
AcDbCircle
 10
302.757521
 20
208.521452
 30
0.0
 40
5.0
100
AcDbArc
 50
118.769457
 51
148.3320289999998
  0
ARC
  5
9E84
330
9CBD
100
AcDbEntity
  8
1
  6
Continuous
100
AcDbCircle
 10
317.0111549999999
 20
208.521452
 30
0.0
 40
5.0
100
AcDbArc
 50
31.667971
 51
61.23054299999999
  0
LINE
  5
9E85
330
9CBD
100
AcDbEntity
  8
4
  6
CENTER
100
AcDbLine
 10
163.8843379999999
 20
330.4774479999999
 30
0.0
 11
163.8843379999999
 21
260.4774479999999
 31
0.0
  0
CIRCLE
  5
9E86
330
9CBD
100
AcDbEntity
  8
1
  6
Continuous
100
AcDbCircle
 10
445.884338
 20
174.349283
 30
0.0
 40
5.75
  0
ARC
  5
9E87
330
9CBD
100
AcDbEntity
  8
1
  6
Continuous
100
AcDbCircle
 10
295.0338959999999
 20
178.268683
 30
0.0
 40
10.0
100
AcDbArc
 50
157.8984959999999
 51
191.096263
  0
ARC
  5
9E88
330
9CBD
100
AcDbEntity
  8
1
  6
Continuous
100
AcDbCircle
 10
162.544682
 20
130.085307
 30
0.0
 40
177.392471
100
AcDbArc
 50
16.514066
 51
27.831217
  0
ARC
  5
9E89
330
9CBD
100
AcDbEntity
  8
1
  6
Continuous
100
AcDbCircle
 10
325.3225679999999
 20
178.051254
 30
0.0
 40
7.7
100
AcDbArc
 50
340.101046
 51
18.61574799999998
  0
ARC
  5
9E8A
330
9CBD
100
AcDbEntity
  8
1
  6
Continuous
100
AcDbCircle
 10
457.2239940000002
 20
130.085307
 30
0.0
 40
177.392471
100
AcDbArc
 50
152.1687829999999
 51
163.485934
  0
ARC
  5
9E8B
330
9CBD
100
AcDbEntity
  8
1
  6
Continuous
100
AcDbCircle
 10
294.446107
 20
178.051254
 30
0.0
 40
7.7
100
AcDbArc
 50
161.384252
 51
199.8989539999998
  0
ARC
  5
9E8C
330
9CBD
100
AcDbEntity
  8
1
  6
Continuous
100
AcDbCircle
 10
184.8843379999999
 20
77.221118
 30
0.0
 40
20.69999999999998
100
AcDbArc
 50
226.8418629999999
 51
133.158137
  0
ARC
  5
9E8D
330
9CBD
100
AcDbEntity
  8
1
  6
Continuous
100
AcDbCircle
 10
184.8843379999999
 20
77.221118
 30
0.0
 40
14.69999999999999
100
AcDbArc
 50
238.2486839999998
 51
301.751316
  0
ARC
  5
9E8E
330
9CBD
100
AcDbEntity
  8
1
  6
Continuous
100
AcDbCircle
 10
184.8843379999999
 20
77.221118
 30
0.0
 40
14.69999999999999
100
AcDbArc
 50
58.248684
 51
121.7513159999998
  0
ARC
  5
9E8F
330
9CBD
100
AcDbEntity
  8
1
  6
Continuous
100
AcDbCircle
 10
163.8843379999999
 20
174.349283
 30
0.0
 40
37.5
100
AcDbArc
 50
85.47541899999997
 51
21.60972000000001
  0
ARC
  5
9E90
330
9CBD
100
AcDbEntity
  8
1
  6
Continuous
100
AcDbCircle
 10
445.884338
 20
174.349283
 30
0.0
 40
37.5
100
AcDbArc
 50
158.3902799999999
 51
94.52458099999999
  0
LINE
  5
9E91
330
9CBD
100
AcDbEntity
  8
1
  6
Continuous
100
AcDbLine
 10
441.384338
 20
216.849283
 30
0.0
 11
435.0468099999998
 21
169.7454779999999
 31
0.0
  0
ARC
  5
9E92
330
9CBD
100
AcDbEntity
  8
1
  6
Continuous
100
AcDbCircle
 10
445.1343379999998
 20
174.599283
 30
0.0
 40
11.0
100
AcDbArc
 50
258.4010559999999
 51
38.804988
  0
LINE
  5
9E93
330
9CBD
100
AcDbEntity
  8
4
  6
CENTER
100
AcDbLine
 10
445.884338
 20
131.849283
 30
0.0
 11
445.884338
 21
216.849283
 31
0.0
  0
ARC
  5
9E94
330
9CBD
100
AcDbEntity
  8
1
  6
Continuous
100
AcDbCircle
 10
457.9546019999998
 20
216.608595
 30
0.0
 40
54.883341
100
AcDbArc
 50
188.698962
 51
254.104206
  0
LINE
  5
9E95
330
9CBD
100
AcDbEntity
  8
4
  6
CENTER
100
AcDbLine
 10
424.884338
 20
233.849283
 30
0.0
 11
424.884338
 21
167.859822
 31
0.0
  0
LINE
  5
9E96
330
9CBD
100
AcDbEntity
  8
1
  6
Continuous
100
AcDbLine
 10
402.384338
 20
225.849283
 30
0.0
 11
447.3843379999998
 21
225.849283
 31
0.0
  0
LINE
  5
9E97
330
9CBD
100
AcDbEntity
  8
1
  6
Continuous
100
AcDbLine
 10
402.384338
 20
223.849283
 30
0.0
 11
447.3843379999998
 21
223.849283
 31
0.0
  0
LINE
  5
9E98
330
9CBD
100
AcDbEntity
  8
1
  6
Continuous
100
AcDbLine
 10
402.384338
 20
221.849283
 30
0.0
 11
447.3843379999998
 21
221.849283
 31
0.0
  0
LINE
  5
9E99
330
9CBD
100
AcDbEntity
  8
1
  6
Continuous
100
AcDbLine
 10
392.884338
 20
228.5492829999999
 30
0.0
 11
456.884338
 21
228.5492829999999
 31
0.0
  0
LINE
  5
9E9A
330
9CBD
100
AcDbEntity
  8
1
  6
Continuous
100
AcDbLine
 10
392.884338
 20
230.849283
 30
0.0
 11
456.884338
 21
230.849283
 31
0.0
  0
LINE
  5
9E9B
330
9CBD
100
AcDbEntity
  8
1
  6
Continuous
100
AcDbLine
 10
418.3990569999998
 20
221.849283
 30
0.0
 11
416.399057
 21
223.849283
 31
0.0
  0
LINE
  5
9E9C
330
9CBD
100
AcDbEntity
  8
1
  6
Continuous
100
AcDbLine
 10
419.81327
 20
221.849283
 30
0.0
 11
417.8132699999999
 21
223.849283
 31
0.0
  0
LINE
  5
9E9D
330
9CBD
100
AcDbEntity
  8
1
  6
Continuous
100
AcDbLine
 10
417.227484
 20
221.849283
 30
0.0
 11
419.227484
 21
223.849283
 31
0.0
  0
LINE
  5
9E9E
330
9CBD
100
AcDbEntity
  8
1
  6
Continuous
100
AcDbLine
 10
449.884338
 20
218.849283
 30
0.0
 11
449.884338
 21
215.349283
 31
0.0
  0
ARC
  5
9E9F
330
9CBD
100
AcDbEntity
  8
1
  6
Continuous
100
AcDbCircle
 10
506.281113
 20
217.276825
 30
0.0
 40
63.597172
100
AcDbArc
 50
184.702032
 51
214.240574
  0
ARC
  5
9EA0
330
9CBD
100
AcDbEntity
  8
1
  6
Continuous
100
AcDbCircle
 10
445.884338
 20
212.3492829999999
 30
0.0
 40
3.0
100
AcDbArc
 50
90.0
 51
185.4659799999998
  0
LINE
  5
9EA1
330
9CBD
100
AcDbEntity
  8
1
  6
Continuous
100
AcDbLine
 10
445.884338
 20
215.349283
 30
0.0
 11
449.884338
 21
215.349283
 31
0.0
  0
ARC
  5
9EA2
330
9CBD
100
AcDbEntity
  8
1
  6
Continuous
100
AcDbCircle
 10
447.3843379999998
 20
230.9492829999999
 30
0.0
 40
5.099999999999997
100
AcDbArc
 50
270.0
 51
331.9275129999998
  0
ARC
  5
9EA3
330
9CBD
100
AcDbEntity
  8
1
  6
Continuous
100
AcDbCircle
 10
446.884338
 20
218.849283
 30
0.0
 40
3.0
100
AcDbArc
 50
0.0
 51
90.0
  0
LINE
  5
9EA4
330
9CBD
100
AcDbEntity
  8
1
  6
Continuous
100
AcDbLine
 10
456.884338
 20
228.5492829999999
 30
0.0
 11
456.884338
 21
230.849283
 31
0.0
  0
LINE
  5
9EA5
330
9CBD
100
AcDbEntity
  8
1
  6
Continuous
100
AcDbLine
 10
435.3696199999998
 20
221.849283
 30
0.0
 11
433.36962
 21
223.849283
 31
0.0
  0
LINE
  5
9EA6
330
9CBD
100
AcDbEntity
  8
1
  6
Continuous
100
AcDbLine
 10
434.198047
 20
221.849283
 30
0.0
 11
436.1980469999998
 21
223.849283
 31
0.0
  0
LINE
  5
9EA7
330
9CBD
100
AcDbEntity
  8
1
  6
Continuous
100
AcDbLine
 10
432.783833
 20
221.849283
 30
0.0
 11
434.783833
 21
223.849283
 31
0.0
  0
LINE
  5
9EA8
330
9CBD
100
AcDbEntity
  8
4
  6
CENTER
100
AcDbLine
 10
449.884338
 20
233.849283
 30
0.0
 11
449.884338
 21
225.549283
 31
0.0
  0
LINE
  5
9EA9
330
9CBD
100
AcDbEntity
  8
1
  6
Continuous
100
AcDbLine
 10
447.3843379999998
 20
222.562487
 30
0.0
 11
446.0975419999998
 21
223.849283
 31
0.0
  0
LINE
  5
9EAA
330
9CBD
100
AcDbEntity
  8
1
  6
Continuous
100
AcDbLine
 10
438.198047
 20
221.849283
 30
0.0
 11
436.1980469999998
 21
223.849283
 31
0.0
  0
LINE
  5
9EAB
330
9CBD
100
AcDbEntity
  8
1
  6
Continuous
100
AcDbLine
 10
436.783833
 20
221.849283
 30
0.0
 11
434.783833
 21
223.849283
 31
0.0
  0
LINE
  5
9EAC
330
9CBD
100
AcDbEntity
  8
1
  6
Continuous
100
AcDbLine
 10
435.6122599999998
 20
221.849283
 30
0.0
 11
437.6122599999998
 21
223.849283
 31
0.0
  0
LINE
  5
9EAD
330
9CBD
100
AcDbEntity
  8
1
  6
Continuous
100
AcDbLine
 10
445.269115
 20
221.849283
 30
0.0
 11
443.2691150000001
 21
223.849283
 31
0.0
  0
LINE
  5
9EAE
330
9CBD
100
AcDbEntity
  8
1
  6
Continuous
100
AcDbLine
 10
444.097542
 20
221.849283
 30
0.0
 11
446.0975419999998
 21
223.849283
 31
0.0
  0
LINE
  5
9EAF
330
9CBD
100
AcDbEntity
  8
1
  6
Continuous
100
AcDbLine
 10
442.683328
 20
221.849283
 30
0.0
 11
444.6833279999999
 21
223.849283
 31
0.0
  0
LINE
  5
9EB0
330
9CBD
100
AcDbEntity
  8
1
  6
Continuous
100
AcDbLine
 10
442.440687
 20
221.849283
 30
0.0
 11
440.440687
 21
223.849283
 31
0.0
  0
LINE
  5
9EB1
330
9CBD
100
AcDbEntity
  8
1
  6
Continuous
100
AcDbLine
 10
441.026474
 20
221.849283
 30
0.0
 11
439.026474
 21
223.849283
 31
0.0
  0
LINE
  5
9EB2
330
9CBD
100
AcDbEntity
  8
1
  6
Continuous
100
AcDbLine
 10
439.8549009999999
 20
221.849283
 30
0.0
 11
441.8549009999998
 21
223.849283
 31
0.0
  0
LINE
  5
9EB3
330
9CBD
100
AcDbEntity
  8
1
  6
Continuous
100
AcDbLine
 10
439.6122599999998
 20
221.849283
 30
0.0
 11
437.6122599999998
 21
223.849283
 31
0.0
  0
LINE
  5
9EB4
330
9CBD
100
AcDbEntity
  8
1
  6
Continuous
100
AcDbLine
 10
438.440687
 20
221.849283
 30
0.0
 11
440.440687
 21
223.849283
 31
0.0
  0
LINE
  5
9EB5
330
9CBD
100
AcDbEntity
  8
1
  6
Continuous
100
AcDbLine
 10
437.026474
 20
221.849283
 30
0.0
 11
439.026474
 21
223.849283
 31
0.0
  0
LINE
  5
9EB6
330
9CBD
100
AcDbEntity
  8
1
  6
Continuous
100
AcDbLine
 10
443.854901
 20
221.849283
 30
0.0
 11
441.8549009999998
 21
223.849283
 31
0.0
  0
LINE
  5
9EB7
330
9CBD
100
AcDbEntity
  8
1
  6
Continuous
100
AcDbLine
 10
441.269115
 20
221.849283
 30
0.0
 11
443.2691150000001
 21
223.849283
 31
0.0
  0
LINE
  5
9EB8
330
9CBD
100
AcDbEntity
  8
1
  6
Continuous
100
AcDbLine
 10
446.683328
 20
221.849283
 30
0.0
 11
444.6833279999999
 21
223.849283
 31
0.0
  0
LINE
  5
9EB9
330
9CBD
100
AcDbEntity
  8
1
  6
Continuous
100
AcDbLine
 10
446.925969
 20
221.849283
 30
0.0
 11
447.3843379999998
 21
222.3076529999999
 31
0.0
  0
LINE
  5
9EBA
330
9CBD
100
AcDbEntity
  8
1
  6
Continuous
100
AcDbLine
 10
445.5117549999997
 20
221.849283
 30
0.0
 11
447.3843379999998
 21
223.7218659999999
 31
0.0
  0
LINE
  5
9EBB
330
9CBD
100
AcDbEntity
  8
1
  6
Continuous
100
AcDbLine
 10
447.3843379999998
 20
225.849283
 30
0.0
 11
447.3843379999998
 21
221.849283
 31
0.0
  0
LINE
  5
9EBC
330
9CBD
100
AcDbEntity
  8
1
  6
Continuous
100
AcDbLine
 10
421.227484
 20
221.849283
 30
0.0
 11
419.227484
 21
223.849283
 31
0.0
  0
LINE
  5
9EBD
330
9CBD
100
AcDbEntity
  8
1
  6
Continuous
100
AcDbLine
 10
418.641698
 20
221.849283
 30
0.0
 11
420.641698
 21
223.849283
 31
0.0
  0
LINE
  5
9EBE
330
9CBD
100
AcDbEntity
  8
1
  6
Continuous
100
AcDbLine
 10
429.712765
 20
221.849283
 30
0.0
 11
427.7127649999997
 21
223.849283
 31
0.0
  0
LINE
  5
9EBF
330
9CBD
100
AcDbEntity
  8
1
  6
Continuous
100
AcDbLine
 10
428.2985519999998
 20
221.849283
 30
0.0
 11
426.2985519999999
 21
223.849283
 31
0.0
  0
LINE
  5
9EC0
330
9CBD
100
AcDbEntity
  8
1
  6
Continuous
100
AcDbLine
 10
427.1269789999998
 20
221.849283
 30
0.0
 11
429.126979
 21
223.849283
 31
0.0
  0
LINE
  5
9EC1
330
9CBD
100
AcDbEntity
  8
1
  6
Continuous
100
AcDbLine
 10
425.470125
 20
221.849283
 30
0.0
 11
423.4701249999998
 21
223.849283
 31
0.0
  0
LINE
  5
9EC2
330
9CBD
100
AcDbEntity
  8
1
  6
Continuous
100
AcDbLine
 10
422.8843379999998
 20
221.849283
 30
0.0
 11
424.884338
 21
223.849283
 31
0.0
  0
LINE
  5
9EC3
330
9CBD
100
AcDbEntity
  8
1
  6
Continuous
100
AcDbLine
 10
422.641698
 20
221.849283
 30
0.0
 11
420.641698
 21
223.849283
 31
0.0
  0
LINE
  5
9EC4
330
9CBD
100
AcDbEntity
  8
1
  6
Continuous
100
AcDbLine
 10
424.0559109999998
 20
221.849283
 30
0.0
 11
422.0559109999999
 21
223.849283
 31
0.0
  0
LINE
  5
9EC5
330
9CBD
100
AcDbEntity
  8
1
  6
Continuous
100
AcDbLine
 10
420.0559109999998
 20
221.849283
 30
0.0
 11
422.0559109999999
 21
223.849283
 31
0.0
  0
LINE
  5
9EC6
330
9CBD
100
AcDbEntity
  8
1
  6
Continuous
100
AcDbLine
 10
421.470125
 20
221.849283
 30
0.0
 11
423.4701249999998
 21
223.849283
 31
0.0
  0
LINE
  5
9EC7
330
9CBD
100
AcDbEntity
  8
1
  6
Continuous
100
AcDbLine
 10
426.8843379999998
 20
221.849283
 30
0.0
 11
424.884338
 21
223.849283
 31
0.0
  0
LINE
  5
9EC8
330
9CBD
100
AcDbEntity
  8
1
  6
Continuous
100
AcDbLine
 10
425.712765
 20
221.849283
 30
0.0
 11
427.7127649999997
 21
223.849283
 31
0.0
  0
LINE
  5
9EC9
330
9CBD
100
AcDbEntity
  8
1
  6
Continuous
100
AcDbLine
 10
424.2985519999998
 20
221.849283
 30
0.0
 11
426.2985519999999
 21
223.849283
 31
0.0
  0
LINE
  5
9ECA
330
9CBD
100
AcDbEntity
  8
1
  6
Continuous
100
AcDbLine
 10
433.955406
 20
221.849283
 30
0.0
 11
431.9554059999998
 21
223.849283
 31
0.0
  0
LINE
  5
9ECB
330
9CBD
100
AcDbEntity
  8
1
  6
Continuous
100
AcDbLine
 10
432.5411919999998
 20
221.849283
 30
0.0
 11
430.541192
 21
223.849283
 31
0.0
  0
LINE
  5
9ECC
330
9CBD
100
AcDbEntity
  8
1
  6
Continuous
100
AcDbLine
 10
431.3696199999998
 20
221.849283
 30
0.0
 11
433.36962
 21
223.849283
 31
0.0
  0
LINE
  5
9ECD
330
9CBD
100
AcDbEntity
  8
1
  6
Continuous
100
AcDbLine
 10
431.1269789999998
 20
221.849283
 30
0.0
 11
429.126979
 21
223.849283
 31
0.0
  0
LINE
  5
9ECE
330
9CBD
100
AcDbEntity
  8
1
  6
Continuous
100
AcDbLine
 10
429.955406
 20
221.849283
 30
0.0
 11
431.9554059999998
 21
223.849283
 31
0.0
  0
LINE
  5
9ECF
330
9CBD
100
AcDbEntity
  8
1
  6
Continuous
100
AcDbLine
 10
428.5411919999998
 20
221.849283
 30
0.0
 11
430.541192
 21
223.849283
 31
0.0
  0
LINE
  5
9ED0
330
9CBD
100
AcDbEntity
  8
1
  6
Continuous
100
AcDbLine
 10
399.884338
 20
218.849283
 30
0.0
 11
399.884338
 21
215.349283
 31
0.0
  0
ARC
  5
9ED1
330
9CBD
100
AcDbEntity
  8
1
  6
Continuous
100
AcDbCircle
 10
391.384338
 20
206.184132
 30
0.0
 40
12.5
100
AcDbArc
 50
9.781986999999999
 51
47.15635699999999
  0
ARC
  5
9ED2
330
9CBD
100
AcDbEntity
  8
1
  6
Continuous
100
AcDbCircle
 10
402.384338
 20
230.9492829999999
 30
0.0
 40
5.099999999999997
100
AcDbArc
 50
208.072487
 51
270.0
  0
ARC
  5
9ED3
330
9CBD
100
AcDbEntity
  8
1
  6
Continuous
100
AcDbCircle
 10
402.884338
 20
218.849283
 30
0.0
 40
3.0
100
AcDbArc
 50
90.0
 51
180.0
  0
LINE
  5
9ED4
330
9CBD
100
AcDbEntity
  8
1
  6
Continuous
100
AcDbLine
 10
402.384338
 20
222.562487
 30
0.0
 11
403.671135
 21
223.849283
 31
0.0
  0
LINE
  5
9ED5
330
9CBD
100
AcDbEntity
  8
1
  6
Continuous
100
AcDbLine
 10
402.384338
 20
223.7218659999999
 30
0.0
 11
404.2569209999999
 21
221.849283
 31
0.0
  0
LINE
  5
9ED6
330
9CBD
100
AcDbEntity
  8
1
  6
Continuous
100
AcDbLine
 10
403.085348
 20
221.849283
 30
0.0
 11
405.0853479999998
 21
223.849283
 31
0.0
  0
LINE
  5
9ED7
330
9CBD
100
AcDbEntity
  8
1
  6
Continuous
100
AcDbLine
 10
402.384338
 20
222.3076529999999
 30
0.0
 11
402.842708
 21
221.849283
 31
0.0
  0
LINE
  5
9ED8
330
9CBD
100
AcDbEntity
  8
1
  6
Continuous
100
AcDbLine
 10
402.384338
 20
225.849283
 30
0.0
 11
402.384338
 21
221.849283
 31
0.0
  0
LINE
  5
9ED9
330
9CBD
100
AcDbEntity
  8
1
  6
Continuous
100
AcDbLine
 10
412.7422029999998
 20
221.849283
 30
0.0
 11
410.7422029999998
 21
223.849283
 31
0.0
  0
LINE
  5
9EDA
330
9CBD
100
AcDbEntity
  8
1
  6
Continuous
100
AcDbLine
 10
410.1564159999998
 20
221.849283
 30
0.0
 11
412.156416
 21
223.849283
 31
0.0
  0
LINE
  5
9EDB
330
9CBD
100
AcDbEntity
  8
1
  6
Continuous
100
AcDbLine
 10
411.57063
 20
221.849283
 30
0.0
 11
413.5706299999998
 21
223.849283
 31
0.0
  0
LINE
  5
9EDC
330
9CBD
100
AcDbEntity
  8
1
  6
Continuous
100
AcDbLine
 10
408.4995619999999
 20
221.849283
 30
0.0
 11
406.499562
 21
223.849283
 31
0.0
  0
LINE
  5
9EDD
330
9CBD
100
AcDbEntity
  8
1
  6
Continuous
100
AcDbLine
 10
405.9137749999998
 20
221.849283
 30
0.0
 11
407.913775
 21
223.849283
 31
0.0
  0
LINE
  5
9EDE
330
9CBD
100
AcDbEntity
  8
1
  6
Continuous
100
AcDbLine
 10
407.327989
 20
221.849283
 30
0.0
 11
409.3279889999998
 21
223.849283
 31
0.0
  0
LINE
  5
9EDF
330
9CBD
100
AcDbEntity
  8
1
  6
Continuous
100
AcDbLine
 10
405.6711349999998
 20
221.849283
 30
0.0
 11
403.671135
 21
223.849283
 31
0.0
  0
LINE
  5
9EE0
330
9CBD
100
AcDbEntity
  8
1
  6
Continuous
100
AcDbLine
 10
407.085348
 20
221.849283
 30
0.0
 11
405.0853479999998
 21
223.849283
 31
0.0
  0
LINE
  5
9EE1
330
9CBD
100
AcDbEntity
  8
1
  6
Continuous
100
AcDbLine
 10
404.4995619999999
 20
221.849283
 30
0.0
 11
406.499562
 21
223.849283
 31
0.0
  0
LINE
  5
9EE2
330
9CBD
100
AcDbEntity
  8
1
  6
Continuous
100
AcDbLine
 10
409.9137749999998
 20
221.849283
 30
0.0
 11
407.913775
 21
223.849283
 31
0.0
  0
LINE
  5
9EE3
330
9CBD
100
AcDbEntity
  8
1
  6
Continuous
100
AcDbLine
 10
411.327989
 20
221.849283
 30
0.0
 11
409.3279889999998
 21
223.849283
 31
0.0
  0
LINE
  5
9EE4
330
9CBD
100
AcDbEntity
  8
1
  6
Continuous
100
AcDbLine
 10
408.7422029999998
 20
221.849283
 30
0.0
 11
410.7422029999998
 21
223.849283
 31
0.0
  0
LINE
  5
9EE5
330
9CBD
100
AcDbEntity
  8
1
  6
Continuous
100
AcDbLine
 10
416.984843
 20
221.849283
 30
0.0
 11
414.984843
 21
223.849283
 31
0.0
  0
LINE
  5
9EE6
330
9CBD
100
AcDbEntity
  8
1
  6
Continuous
100
AcDbLine
 10
414.3990569999998
 20
221.849283
 30
0.0
 11
416.399057
 21
223.849283
 31
0.0
  0
LINE
  5
9EE7
330
9CBD
100
AcDbEntity
  8
1
  6
Continuous
100
AcDbLine
 10
415.81327
 20
221.849283
 30
0.0
 11
417.8132699999999
 21
223.849283
 31
0.0
  0
LINE
  5
9EE8
330
9CBD
100
AcDbEntity
  8
1
  6
Continuous
100
AcDbLine
 10
414.1564159999998
 20
221.849283
 30
0.0
 11
412.156416
 21
223.849283
 31
0.0
  0
LINE
  5
9EE9
330
9CBD
100
AcDbEntity
  8
1
  6
Continuous
100
AcDbLine
 10
415.57063
 20
221.849283
 30
0.0
 11
413.5706299999998
 21
223.849283
 31
0.0
  0
LINE
  5
9EEA
330
9CBD
100
AcDbEntity
  8
1
  6
Continuous
100
AcDbLine
 10
412.984843
 20
221.849283
 30
0.0
 11
414.984843
 21
223.849283
 31
0.0
  0
LINE
  5
9EEB
330
9CBD
100
AcDbEntity
  8
4
  6
CENTER
100
AcDbLine
 10
399.884338
 20
233.849283
 30
0.0
 11
399.884338
 21
225.549283
 31
0.0
  0
LINE
  5
9EEC
330
9CBD
100
AcDbEntity
  8
1
  6
Continuous
100
AcDbLine
 10
392.884338
 20
228.5492829999999
 30
0.0
 11
392.884338
 21
230.849283
 31
0.0
  0
ARC
  5
9EED
330
9CBD
100
AcDbEntity
  8
1
  6
Continuous
100
AcDbCircle
 10
50.38433799999999
 20
208.5419889999998
 30
0.0
 40
3.0
100
AcDbArc
 50
93.70537099999998
 51
180.0
  0
ARC
  5
9EEE
330
9CBD
100
AcDbEntity
  8
1
  6
Continuous
100
AcDbCircle
 10
59.884338
 20
61.84928299999999
 30
0.0
 40
150.0
100
AcDbArc
 50
86.294629
 51
93.70537099999998
  0
ARC
  5
9EEF
330
9CBD
100
AcDbEntity
  8
1
  6
Continuous
100
AcDbCircle
 10
69.384338
 20
208.5419889999998
 30
0.0
 40
3.0
100
AcDbArc
 50
0.0
 51
86.294629
  0
LINE
  5
9EF0
330
9CBD
100
AcDbEntity
  8
1
  6
Continuous
100
AcDbLine
 10
322.384338
 20
207.02277
 30
0.0
 11
322.384338
 21
140.1565769999999
 31
0.0
  0
ARC
  5
9EF1
330
9CBD
100
AcDbEntity
  8
1
  6
Continuous
100
AcDbCircle
 10
309.884338
 20
61.84928299999999
 30
0.0
 40
150.0
100
AcDbArc
 50
86.294629
 51
93.70537099999998
  0
ARC
  5
9EF2
330
9CBD
100
AcDbEntity
  8
1
  6
Continuous
100
AcDbCircle
 10
319.384338
 20
208.5419889999998
 30
0.0
 40
3.0
100
AcDbArc
 50
74.510327
 51
86.294629
  0
ARC
  5
9EF3
330
9CBD
100
AcDbEntity
  8
1
  6
Continuous
100
AcDbCircle
 10
300.384338
 20
208.5419889999998
 30
0.0
 40
3.0
100
AcDbArc
 50
93.70537099999998
 51
105.489673
  0
LINE
  5
9EF4
330
9CBD
100
AcDbEntity
  8
1
  6
Continuous
100
AcDbLine
 10
297.384338
 20
207.02277
 30
0.0
 11
297.384338
 21
140.1565769999999
 31
0.0
  0
ARC
  5
9EF5
330
9CBD
100
AcDbEntity
  8
1
  6
Continuous
100
AcDbCircle
 10
309.884338
 20
286.849283
 30
0.0
 40
150.0
100
AcDbArc
 50
266.2946289999998
 51
273.705371
  0
ARC
  5
9EF6
330
9CBD
100
AcDbEntity
  8
1
  6
Continuous
100
AcDbCircle
 10
300.384338
 20
140.1565769999999
 30
0.0
 40
3.0
100
AcDbArc
 50
180.0
 51
266.2946289999998
  0
ARC
  5
9EF7
330
9CBD
100
AcDbEntity
  8
1
  6
Continuous
100
AcDbCircle
 10
319.384338
 20
140.1565769999999
 30
0.0
 40
3.0
100
AcDbArc
 50
273.705371
 51
0.0
  0
LINE
  5
9EF8
330
9CBD
100
AcDbEntity
  8
1
  6
Continuous
100
AcDbLine
 10
152.8843379999998
 20
89.721118
 30
0.0
 11
152.8843379999998
 21
103.221118
 31
0.0
  0
LINE
  5
9EF9
330
9CBD
100
AcDbEntity
  8
1
  6
Continuous
100
AcDbLine
 10
129.691632
 20
307.9774479999999
 30
0.0
 11
152.8843379999998
 21
307.9774479999999
 31
0.0
  0
LINE
  5
9EFA
330
9CBD
100
AcDbEntity
  8
1
  6
Continuous
100
AcDbLine
 10
129.691632
 20
282.9774479999999
 30
0.0
 11
152.8843379999998
 21
282.9774479999999
 31
0.0
  0
ARC
  5
9EFB
330
9CBD
100
AcDbEntity
  8
1
  6
Continuous
100
AcDbCircle
 10
276.384338
 20
295.4774479999999
 30
0.0
 40
150.0
100
AcDbArc
 50
176.2946289999999
 51
183.7053709999999
  0
ARC
  5
9EFC
330
9CBD
100
AcDbEntity
  8
1
  6
Continuous
100
AcDbCircle
 10
129.691632
 20
285.977448
 30
0.0
 40
3.0
100
AcDbArc
 50
183.7053709999999
 51
270.0
  0
ARC
  5
9EFD
330
9CBD
100
AcDbEntity
  8
1
  6
Continuous
100
AcDbCircle
 10
129.691632
 20
304.9774479999999
 30
0.0
 40
3.0
100
AcDbArc
 50
90.0
 51
176.2946289999999
  0
ARC
  5
9EFE
330
9CBD
100
AcDbEntity
  8
1
  6
Continuous
100
AcDbCircle
 10
276.384338
 20
77.221118
 30
0.0
 40
150.0
100
AcDbArc
 50
176.2946289999999
 51
183.7053709999999
  0
ARC
  5
9EFF
330
9CBD
100
AcDbEntity
  8
1
  6
Continuous
100
AcDbCircle
 10
51.384338
 20
77.221118
 30
0.0
 40
150.0
100
AcDbArc
 50
356.2946289999999
 51
3.705370999999998
  0
LINE
  5
9F00
330
9CBD
100
AcDbEntity
  8
1
  6
Continuous
100
AcDbLine
 10
129.691632
 20
64.721118
 30
0.0
 11
198.077044
 21
64.721118
 31
0.0
  0
ARC
  5
9F01
330
9CBD
100
AcDbEntity
  8
1
  6
Continuous
100
AcDbCircle
 10
129.691632
 20
67.72111800000001
 30
0.0
 40
3.0
100
AcDbArc
 50
183.7053709999999
 51
270.0
  0
ARC
  5
9F02
330
9CBD
100
AcDbEntity
  8
1
  6
Continuous
100
AcDbCircle
 10
198.077044
 20
67.72111800000001
 30
0.0
 40
3.0
100
AcDbArc
 50
270.0
 51
356.2946289999999
  0
LINE
  5
9F03
330
9CBD
100
AcDbEntity
  8
1
  6
Continuous
100
AcDbLine
 10
129.691632
 20
89.721118
 30
0.0
 11
198.077044
 21
89.721118
 31
0.0
  0
ARC
  5
9F04
330
9CBD
100
AcDbEntity
  8
1
  6
Continuous
100
AcDbCircle
 10
129.691632
 20
86.72111800000001
 30
0.0
 40
3.0
100
AcDbArc
 50
90.0
 51
176.2946289999999
  0
ARC
  5
9F05
330
9CBD
100
AcDbEntity
  8
1
  6
Continuous
100
AcDbCircle
 10
198.077044
 20
86.72111800000001
 30
0.0
 40
3.0
100
AcDbArc
 50
3.705370999999998
 51
90.0
  0
LINE
  5
9F06
330
9CBD
100
AcDbEntity
  8
4
  6
CENTER
100
AcDbLine
 10
488.384338
 20
174.349283
 30
0.0
 11
403.384338
 21
174.349283
 31
0.0
  0
ARC
  5
9F07
330
9CBD
100
AcDbEntity
  8
1
  6
Continuous
100
AcDbCircle
 10
163.8843379999999
 20
174.349283
 30
0.0
 40
27.5
100
AcDbArc
 50
87.304671
 51
8.228224
  0
ARC
  5
9F08
330
9CBD
100
AcDbEntity
  8
1
  6
Continuous
100
AcDbCircle
 10
163.8843379999999
 20
174.349283
 30
0.0
 40
22.5
100
AcDbArc
 50
90.432374
 51
359.0568499999998
  0
ARC
  5
9F09
330
9CBD
100
AcDbEntity
  8
1
  6
Continuous
100
AcDbCircle
 10
445.884338
 20
174.349283
 30
0.0
 40
22.5
100
AcDbArc
 50
180.94315
 51
89.56762600000002
  0
ARC
  5
9F0A
330
9CBD
100
AcDbEntity
  8
1
  6
Continuous
100
AcDbCircle
 10
445.884338
 20
174.349283
 30
0.0
 40
27.5
100
AcDbArc
 50
171.771776
 51
92.69532899999999
  0
ENDSEC
  0
SECTION
  2
OBJECTS
  0
DICTIONARY
  5
9CAB
330
0
100
AcDbDictionary
281
     1
  3
ACAD_CIP_PREVIOUS_PRODUCT_INFO
350
9F6C
  3
ACAD_COLOR
350
9F4E
  3
ACAD_DETAILVIEWSTYLE
350
9F67
  3
ACAD_GROUP
350
9CAC
  3
ACAD_LAYOUT
350
9CB8
  3
ACAD_MATERIAL
350
9F1C
  3
ACAD_MLEADERSTYLE
350
9F63
  3
ACAD_MLINESTYLE
350
9CB5
  3
ACAD_PLOTSETTINGS
350
9CB7
  3
ACAD_PLOTSTYLENAME
350
9F1A
  3
ACAD_SCALELIST
350
9F51
  3
ACAD_SECTIONVIEWSTYLE
350
9F65
  3
ACAD_TABLESTYLE
350
9F4F
  3
ACAD_VISUALSTYLE
350
9F35
  3
ACDB_RECOMPOSE_DATA
350
9F8A
  3
AcDbVariableDictionary
350
9F7D
  3
DWGPROPS
350
9F8B
  0
DICTIONARY
  5
9F6D
330
9CAF
100
AcDbDictionary
280
     1
281
     1
  3
ADSK_XREC_LAYER_RECONCILED
360
9F6E
  0
DICTIONARY
  5
9F6F
330
9CC5
100
AcDbDictionary
280
     1
281
     1
  3
ADSK_XREC_LAYER_RECONCILED
360
9F70
  0
DICTIONARY
  5
9F71
330
9CC6
100
AcDbDictionary
280
     1
281
     1
  3
ADSK_XREC_LAYER_RECONCILED
360
9F72
  0
DICTIONARY
  5
9F73
330
9CC7
100
AcDbDictionary
280
     1
281
     1
  3
ADSK_XREC_LAYER_RECONCILED
360
9F74
  0
DICTIONARY
  5
9F75
330
9CC8
100
AcDbDictionary
280
     1
281
     1
  3
ADSK_XREC_LAYER_RECONCILED
360
9F76
  0
DICTIONARY
  5
9F77
330
9CC9
100
AcDbDictionary
280
     1
281
     1
  3
ADSK_XREC_LAYER_RECONCILED
360
9F78
  0
DICTIONARY
  5
9F79
330
9CCA
100
AcDbDictionary
280
     1
281
     1
  3
ADSK_XREC_LAYER_RECONCILED
360
9F7A
  0
DICTIONARY
  5
9F7B
330
9CCB
100
AcDbDictionary
280
     1
281
     1
  3
ADSK_XREC_LAYER_RECONCILED
360
9F7C
  0
DICTIONARY
  5
9F15
330
9CBD
100
AcDbDictionary
281
     1
  3
ACAD_LAYOUTSELFREF
350
9F16
  0
DICTIONARY
  5
9F13
330
9CB9
100
AcDbDictionary
281
     1
  3
ACAD_LAYOUTSELFREF
350
9F14
  0
XRECORD
  5
9F6C
102
{ACAD_REACTORS
330
9CAB
102
}
330
9CAB
100
AcDbXrecord
280
     1
300
ACDLT
300
2014
300
ACDLT_F_S
  0
DICTIONARY
  5
9F4E
102
{ACAD_REACTORS
330
9CAB
102
}
330
9CAB
100
AcDbDictionary
281
     1
  0
DICTIONARY
  5
9F67
102
{ACAD_REACTORS
330
9CAB
102
}
330
9CAB
100
AcDbDictionary
281
     1
  3
Imperial24
350
9F68
  0
DICTIONARY
  5
9CAC
102
{ACAD_REACTORS
330
9CAB
102
}
330
9CAB
100
AcDbDictionary
281
     1
  0
DICTIONARY
  5
9CB8
102
{ACAD_REACTORS
330
9CAB
102
}
330
9CAB
100
AcDbDictionary
281
     1
  3
Model
350
9F69
  3
レイアウト1
350
9F6A
  0
DICTIONARY
  5
9F1C
102
{ACAD_REACTORS
330
9CAB
102
}
330
9CAB
100
AcDbDictionary
281
     1
  3
ByBlock
350
9F25
  3
ByLayer
350
9F1D
  3
Global
350
9F2D
  0
DICTIONARY
  5
9F63
102
{ACAD_REACTORS
330
9CAB
102
}
330
9CAB
100
AcDbDictionary
281
     1
  3
Standard
350
9F64
  0
DICTIONARY
  5
9CB5
102
{ACAD_REACTORS
330
9CAB
102
}
330
9CAB
100
AcDbDictionary
281
     1
  3
STANDARD
350
9CB6
  0
DICTIONARY
  5
9CB7
102
{ACAD_REACTORS
330
9CAB
102
}
330
9CAB
100
AcDbDictionary
281
     1
  0
ACDBDICTIONARYWDFLT
  5
9F1A
102
{ACAD_REACTORS
330
9CAB
102
}
330
9CAB
100
AcDbDictionary
281
     1
  3
Normal
350
9F1B
100
AcDbDictionaryWithDefault
340
9F1B
  0
DICTIONARY
  5
9F51
102
{ACAD_REACTORS
330
9CAB
102
}
330
9CAB
100
AcDbDictionary
281
     1
  3
A0
350
9F52
  3
A1
350
9F53
  3
A2
350
9F54
  3
A3
350
9F55
  3
A4
350
9F56
  3
A5
350
9F57
  3
A6
350
9F58
  3
A7
350
9F59
  3
A8
350
9F5A
  3
A9
350
9F5B
  3
B0
350
9F5C
  3
B1
350
9F5D
  3
B2
350
9F5E
  3
B3
350
9F5F
  3
B4
350
9F60
  3
B5
350
9F61
  3
B6
350
9F62
  0
DICTIONARY
  5
9F65
102
{ACAD_REACTORS
330
9CAB
102
}
330
9CAB
100
AcDbDictionary
281
     1
  3
Imperial24
350
9F66
  0
DICTIONARY
  5
9F4F
102
{ACAD_REACTORS
330
9CAB
102
}
330
9CAB
100
AcDbDictionary
281
     1
  3
Standard
350
9F50
  0
DICTIONARY
  5
9F35
102
{ACAD_REACTORS
330
9CAB
102
}
330
9CAB
100
AcDbDictionary
281
     1
  3
2dWireframe
350
9F3B
  3
Basic
350
9F3A
  3
Brighten
350
9F41
  3
ColorChange
350
9F45
  3
Conceptual
350
9F3E
  3
Dim
350
9F40
  3
EdgeColorOff
350
9F4D
  3
Facepattern
350
9F44
  3
Flat
350
9F36
  3
FlatWithEdges
350
9F37
  3
Gouraud
350
9F38
  3
GouraudWithEdges
350
9F39
  3
Hidden
350
9F3D
  3
JitterOff
350
9F4B
  3
Linepattern
350
9F43
  3
OverhangOff
350
9F4C
  3
Realistic
350
9F3F
  3
Shaded
350
9F4A
  3
Shaded with edges
350
9F49
  3
Shades of Gray
350
9F46
  3
Sketchy
350
9F47
  3
Thicken
350
9F42
  3
Wireframe
350
9F3C
  3
X-Ray
350
9F48
  0
XRECORD
  5
9F8A
102
{ACAD_REACTORS
330
9CAB
102
}
330
9CAB
100
AcDbXrecord
280
     1
 90
        1
330
9F50
  0
DICTIONARY
  5
9F7D
102
{ACAD_REACTORS
330
9CAB
102
}
330
9CAB
100
AcDbDictionary
281
     1
  3
CANNOSCALE
350
9F82
  3
CMLEADERSTYLE
350
9F7F
  3
CTABLESTYLE
350
9F7E
  3
CVIEWDETAILSTYLE
350
9F80
  3
CVIEWSECTIONSTYLE
350
9F81
  3
DIMASSOC
350
9F85
  3
INDEXCTL
350
9F84
  3
SORTENTS
350
9F83
  3
XCLIPFRAME
350
9F86
  0
XRECORD
  5
9F8B
102
{ACAD_REACTORS
330
9CAB
102
}
330
9CAB
100
AcDbXrecord
280
     1
  1
DWGPROPS COOKIE
  2

  3

  4

  6

  7

  8
Yoshitsune
  9

300
=
301
=
302
=
303
=
304
=
305
=
306
=
307
=
308
=
309
=
 40
0.0000097337962963
 41
2451301.699160764
 42
2457192.687061123
  1

 90
        0
  0
XRECORD
  5
9F6E
102
{ACAD_REACTORS
330
9F6D
102
}
330
9F6D
100
AcDbXrecord
280
     1
290
     1
  0
XRECORD
  5
9F70
102
{ACAD_REACTORS
330
9F6F
102
}
330
9F6F
100
AcDbXrecord
280
     1
290
     1
  0
XRECORD
  5
9F72
102
{ACAD_REACTORS
330
9F71
102
}
330
9F71
100
AcDbXrecord
280
     1
290
     1
  0
XRECORD
  5
9F74
102
{ACAD_REACTORS
330
9F73
102
}
330
9F73
100
AcDbXrecord
280
     1
290
     1
  0
XRECORD
  5
9F76
102
{ACAD_REACTORS
330
9F75
102
}
330
9F75
100
AcDbXrecord
280
     1
290
     1
  0
XRECORD
  5
9F78
102
{ACAD_REACTORS
330
9F77
102
}
330
9F77
100
AcDbXrecord
280
     1
290
     1
  0
XRECORD
  5
9F7A
102
{ACAD_REACTORS
330
9F79
102
}
330
9F79
100
AcDbXrecord
280
     1
290
     1
  0
XRECORD
  5
9F7C
102
{ACAD_REACTORS
330
9F7B
102
}
330
9F7B
100
AcDbXrecord
280
     1
290
     1
  0
XRECORD
  5
9F16
102
{ACAD_REACTORS
330
9F15
102
}
330
9F15
100
AcDbXrecord
280
     1
340
9CBD
  0
XRECORD
  5
9F14
102
{ACAD_REACTORS
330
9F13
102
}
330
9F13
100
AcDbXrecord
280
     1
340
9CB9
  0
ACDBDETAILVIEWSTYLE
  5
9F68
102
{ACAD_XDICTIONARY
360
9FC3
102
}
102
{ACAD_REACTORS
330
9F67
102
}
330
9F67
100
AcDbModelDocViewStyle
 70
     0
  3
Imperial24
290
     0
100
AcDbDetailViewStyle
 70
     0
 71
     0
 90
        3
 71
     1
340
9CB0
 40
0.24
340
0
 40
0.24
300

 40
0.36
280
     3
 71
     2
340
9CB4
 90
       25
 71
     3
340
9CB0
 40
0.24
 90
        1
 40
0.75
 90
        1
300
%<\AcVar ViewType \f "%tc1">% %<\AcVar ViewDetailId>%\PSCALE %<\AcVar ViewScale \f "%sn">%
 71
     4
340
9CB4
 90
       25
340
9CB4
 90
       25
280
     0
  0
LAYOUT
  5
9F69
102
{ACAD_XDICTIONARY
360
9FC5
102
}
102
{ACAD_REACTORS
330
9CB8
102
}
330
9CB8
100
AcDbPlotSettings
  1

  2
Canon LBP9100C
  4

  6

 40
0.0
 41
0.0
 42
0.0
 43
0.0
 44
0.0
 45
0.0
 46
0.0
 47
0.0
 48
0.0
 49
0.0
140
0.0
141
0.0
142
1.0
143
1.0
 70
  1712
 72
     0
 73
     0
 74
     0
  7

 75
     0
147
1.0
148
0.0
149
0.0
100
AcDbLayout
  1
Model
 70
     1
 71
     0
 10
0.0
 20
0.0
 11
12.0
 21
9.0
 12
0.0
 22
0.0
 32
0.0
 14
0.0
 24
0.0
 34
0.0
 15
0.0
 25
0.0
 35
0.0
146
0.0
 13
0.0
 23
0.0
 33
0.0
 16
1.0
 26
0.0
 36
0.0
 17
0.0
 27
1.0
 37
0.0
 76
     0
330
9CBD
331
9F12
  0
LAYOUT
  5
9F6A
102
{ACAD_XDICTIONARY
360
9FC7
102
}
102
{ACAD_REACTORS
330
9CB8
102
}
330
9CB8
100
AcDbPlotSettings
  1

  2
Canon LBP9100C
  4

  6

 40
0.0
 41
0.0
 42
0.0
 43
0.0
 44
0.0
 45
0.0
 46
0.0
 47
0.0
 48
0.0
 49
0.0
140
0.0
141
0.0
142
1.0
143
1.0
 70
   688
 72
     0
 73
     0
 74
     5
  7

 75
    16
147
1.0
148
0.0
149
0.0
100
AcDbLayout
  1
レイアウト1
 70
     0
 71
     1
 10
0.0
 20
0.0
 11
420.0
 21
297.0
 12
0.0
 22
0.0
 32
0.0
 14
1.000000000000000E+20
 24
1.000000000000000E+20
 34
1.000000000000000E+20
 15
-1.000000000000000E+20
 25
-1.000000000000000E+20
 35
-1.000000000000000E+20
146
0.0
 13
0.0
 23
0.0
 33
0.0
 16
1.0
 26
0.0
 36
0.0
 17
0.0
 27
1.0
 37
0.0
 76
     0
330
9CB9
  0
MATERIAL
  5
9F25
102
{ACAD_XDICTIONARY
360
9F26
102
}
102
{ACAD_REACTORS
330
9F1C
102
}
330
9F1C
100
AcDbMaterial
  1
ByBlock
 72
     0
 43
0.0208333333333333
 43
0.0
 43
0.0
 43
0.0
 43
0.0
 43
0.0208333333333333
 43
0.0
 43
0.0
 43
0.0
 43
0.0
 43
1.0
 43
0.0
 43
0.0
 43
0.0
 43
0.0
 43
1.0
 77
     0
 47
0.0208333333333333
 47
0.0
 47
0.0
 47
0.0
 47
0.0
 47
0.0208333333333333
 47
0.0
 47
0.0
 47
0.0
 47
0.0
 47
1.0
 47
0.0
 47
0.0
 47
0.0
 47
0.0
 47
1.0
171
     0
 49
0.0208333333333333
 49
0.0
 49
0.0
 49
0.0
 49
0.0
 49
0.0208333333333333
 49
0.0
 49
0.0
 49
0.0
 49
0.0
 49
1.0
 49
0.0
 49
0.0
 49
0.0
 49
0.0
 49
1.0
175
     0
142
0.0208333333333333
142
0.0
142
0.0
142
0.0
142
0.0
142
0.0208333333333333
142
0.0
142
0.0
142
0.0
142
0.0
142
1.0
142
0.0
142
0.0
142
0.0
142
0.0
142
1.0
179
     0
144
0.0208333333333333
144
0.0
144
0.0
144
0.0
144
0.0
144
0.0208333333333333
144
0.0
144
0.0
144
0.0
144
0.0
144
1.0
144
0.0
144
0.0
144
0.0
144
0.0
144
1.0
147
0.0208333333333333
147
0.0
147
0.0
147
0.0
147
0.0
147
0.0208333333333333
147
0.0
147
0.0
147
0.0
147
0.0
147
1.0
147
0.0
147
0.0
147
0.0
147
0.0
147
1.0
  0
MATERIAL
  5
9F1D
102
{ACAD_XDICTIONARY
360
9F1E
102
}
102
{ACAD_REACTORS
330
9F1C
102
}
330
9F1C
100
AcDbMaterial
  1
ByLayer
 72
     0
 43
0.0208333333333333
 43
0.0
 43
0.0
 43
0.0
 43
0.0
 43
0.0208333333333333
 43
0.0
 43
0.0
 43
0.0
 43
0.0
 43
1.0
 43
0.0
 43
0.0
 43
0.0
 43
0.0
 43
1.0
 77
     0
 47
0.0208333333333333
 47
0.0
 47
0.0
 47
0.0
 47
0.0
 47
0.0208333333333333
 47
0.0
 47
0.0
 47
0.0
 47
0.0
 47
1.0
 47
0.0
 47
0.0
 47
0.0
 47
0.0
 47
1.0
171
     0
 49
0.0208333333333333
 49
0.0
 49
0.0
 49
0.0
 49
0.0
 49
0.0208333333333333
 49
0.0
 49
0.0
 49
0.0
 49
0.0
 49
1.0
 49
0.0
 49
0.0
 49
0.0
 49
0.0
 49
1.0
175
     0
142
0.0208333333333333
142
0.0
142
0.0
142
0.0
142
0.0
142
0.0208333333333333
142
0.0
142
0.0
142
0.0
142
0.0
142
1.0
142
0.0
142
0.0
142
0.0
142
0.0
142
1.0
179
     0
144
0.0208333333333333
144
0.0
144
0.0
144
0.0
144
0.0
144
0.0208333333333333
144
0.0
144
0.0
144
0.0
144
0.0
144
1.0
144
0.0
144
0.0
144
0.0
144
0.0
144
1.0
147
0.0208333333333333
147
0.0
147
0.0
147
0.0
147
0.0
147
0.0208333333333333
147
0.0
147
0.0
147
0.0
147
0.0
147
1.0
147
0.0
147
0.0
147
0.0
147
0.0
147
1.0
  0
MATERIAL
  5
9F2D
102
{ACAD_XDICTIONARY
360
9F2E
102
}
102
{ACAD_REACTORS
330
9F1C
102
}
330
9F1C
100
AcDbMaterial
  1
Global
 72
     0
 43
0.0208333333333333
 43
0.0
 43
0.0
 43
0.0
 43
0.0
 43
0.0208333333333333
 43
0.0
 43
0.0
 43
0.0
 43
0.0
 43
1.0
 43
0.0
 43
0.0
 43
0.0
 43
0.0
 43
1.0
 77
     0
 47
0.0208333333333333
 47
0.0
 47
0.0
 47
0.0
 47
0.0
 47
0.0208333333333333
 47
0.0
 47
0.0
 47
0.0
 47
0.0
 47
1.0
 47
0.0
 47
0.0
 47
0.0
 47
0.0
 47
1.0
171
     0
 49
0.0208333333333333
 49
0.0
 49
0.0
 49
0.0
 49
0.0
 49
0.0208333333333333
 49
0.0
 49
0.0
 49
0.0
 49
0.0
 49
1.0
 49
0.0
 49
0.0
 49
0.0
 49
0.0
 49
1.0
175
     0
142
0.0208333333333333
142
0.0
142
0.0
142
0.0
142
0.0
142
0.0208333333333333
142
0.0
142
0.0
142
0.0
142
0.0
142
1.0
142
0.0
142
0.0
142
0.0
142
0.0
142
1.0
179
     0
144
0.0208333333333333
144
0.0
144
0.0
144
0.0
144
0.0
144
0.0208333333333333
144
0.0
144
0.0
144
0.0
144
0.0
144
1.0
144
0.0
144
0.0
144
0.0
144
0.0
144
1.0
147
0.0208333333333333
147
0.0
147
0.0
147
0.0
147
0.0
147
0.0208333333333333
147
0.0
147
0.0
147
0.0
147
0.0
147
1.0
147
0.0
147
0.0
147
0.0
147
0.0
147
1.0
  0
MLEADERSTYLE
  5
9F64
102
{ACAD_REACTORS
330
9F63
102
}
330
9F63
100
AcDbMLeaderStyle
170
     2
171
     1
172
     0
 90
        2
 40
0.0
 41
0.0
173
     1
 91
-1056964608
340
9CB2
 92
       -2
290
     1
 42
0.09
291
     1
 43
0.36
  3
Standard
 44
0.18
300

342
9CB0
174
     1
178
     6
175
     1
176
     0
 93
-1056964608
 45
0.18
292
     0
297
     0
 46
0.18
 94
-1056964608
 47
1.0
 49
1.0
140
1.0
293
     1
141
0.0
294
     1
177
     0
142
1.0
295
     0
296
     0
143
0.125
1001
ACAD_MLEADERVER
1070
     2
  0
MLINESTYLE
  5
9CB6
102
{ACAD_REACTORS
330
9CB5
102
}
330
9CB5
100
AcDbMlineStyle
  2
STANDARD
 70
     0
  3

 62
   256
 51
90.0
 52
90.0
 71
     2
 49
0.5
 62
   256
  6
BYLAYER
 49
-0.5
 62
   256
  6
BYLAYER
  0
ACDBPLACEHOLDER
  5
9F1B
102
{ACAD_REACTORS
330
9F1A
102
}
330
9F1A
  0
SCALE
  5
9F52
102
{ACAD_REACTORS
330
9F51
102
}
330
9F51
100
AcDbScale
 70
     0
300
1:1
140
1.0
141
1.0
290
     1
  0
SCALE
  5
9F53
102
{ACAD_REACTORS
330
9F51
102
}
330
9F51
100
AcDbScale
 70
     0
300
1/128" = 1'-0"
140
0.0078125
141
12.0
290
     0
  0
SCALE
  5
9F54
102
{ACAD_REACTORS
330
9F51
102
}
330
9F51
100
AcDbScale
 70
     0
300
1/64" = 1'-0"
140
0.015625
141
12.0
290
     0
  0
SCALE
  5
9F55
102
{ACAD_REACTORS
330
9F51
102
}
330
9F51
100
AcDbScale
 70
     0
300
1/32" = 1'-0"
140
0.03125
141
12.0
290
     0
  0
SCALE
  5
9F56
102
{ACAD_REACTORS
330
9F51
102
}
330
9F51
100
AcDbScale
 70
     0
300
1/16" = 1'-0"
140
0.0625
141
12.0
290
     0
  0
SCALE
  5
9F57
102
{ACAD_REACTORS
330
9F51
102
}
330
9F51
100
AcDbScale
 70
     0
300
3/32" = 1'-0"
140
0.09375
141
12.0
290
     0
  0
SCALE
  5
9F58
102
{ACAD_REACTORS
330
9F51
102
}
330
9F51
100
AcDbScale
 70
     0
300
1/8" = 1'-0"
140
0.125
141
12.0
290
     0
  0
SCALE
  5
9F59
102
{ACAD_REACTORS
330
9F51
102
}
330
9F51
100
AcDbScale
 70
     0
300
3/16" = 1'-0"
140
0.1875
141
12.0
290
     0
  0
SCALE
  5
9F5A
102
{ACAD_REACTORS
330
9F51
102
}
330
9F51
100
AcDbScale
 70
     0
300
1/4" = 1'-0"
140
0.25
141
12.0
290
     0
  0
SCALE
  5
9F5B
102
{ACAD_REACTORS
330
9F51
102
}
330
9F51
100
AcDbScale
 70
     0
300
3/8" = 1'-0"
140
0.375
141
12.0
290
     0
  0
SCALE
  5
9F5C
102
{ACAD_REACTORS
330
9F51
102
}
330
9F51
100
AcDbScale
 70
     0
300
1/2" = 1'-0"
140
0.5
141
12.0
290
     0
  0
SCALE
  5
9F5D
102
{ACAD_REACTORS
330
9F51
102
}
330
9F51
100
AcDbScale
 70
     0
300
3/4" = 1'-0"
140
0.75
141
12.0
290
     0
  0
SCALE
  5
9F5E
102
{ACAD_REACTORS
330
9F51
102
}
330
9F51
100
AcDbScale
 70
     0
300
1" = 1'-0"
140
1.0
141
12.0
290
     0
  0
SCALE
  5
9F5F
102
{ACAD_REACTORS
330
9F51
102
}
330
9F51
100
AcDbScale
 70
     0
300
1-1/2" = 1'-0"
140
1.5
141
12.0
290
     0
  0
SCALE
  5
9F60
102
{ACAD_REACTORS
330
9F51
102
}
330
9F51
100
AcDbScale
 70
     0
300
3" = 1'-0"
140
3.0
141
12.0
290
     0
  0
SCALE
  5
9F61
102
{ACAD_REACTORS
330
9F51
102
}
330
9F51
100
AcDbScale
 70
     0
300
6" = 1'-0"
140
6.0
141
12.0
290
     0
  0
SCALE
  5
9F62
102
{ACAD_REACTORS
330
9F51
102
}
330
9F51
100
AcDbScale
 70
     0
300
1'-0" = 1'-0"
140
12.0
141
12.0
290
     0
  0
ACDBSECTIONVIEWSTYLE
  5
9F66
102
{ACAD_XDICTIONARY
360
9FC1
102
}
102
{ACAD_REACTORS
330
9F65
102
}
330
9F65
100
AcDbModelDocViewStyle
 70
     0
  3
Imperial24
290
     0
100
AcDbSectionViewStyle
 70
     0
 71
     0
 90
       78
 71
     1
340
9CB0
 40
0.24
340
0
340
0
 40
0.24
300
I, O, Q, S, X, Z
 40
0.48
 90
        3
 40
0.18
 90
        1
 71
     2
340
9CB4
 90
       25
340
9CB4
 90
       50
 40
0.24
 40
0.0
 40
0.24
 71
     3
340
9CB0
 40
0.24
 90
        1
 40
0.75
 90
        1
300
%<\AcVar ViewType \f "%tc1">% %<\AcVar ViewSectionStartId>%-%<\AcVar ViewSectionEndId>%\PSCALE %<\AcVar ViewScale \f "%sn">%
 71
     4
300
ANSI31
 40
1.0
 90
        0
290
     0
290
     0
 90
        6
 40
0.0
 40
1.570796326794896
 40
0.2617993877991494
 40
1.308996938995747
 40
-0.2617993877991494
 40
1.832595714594046
  0
TABLESTYLE
  5
9F50
102
{ACAD_XDICTIONARY
360
9F88
102
}
102
{ACAD_REACTORS
330
9F4F
102
}
330
9F4F
100
AcDbTableStyle
  3
Standard
 70
     0
 71
     0
 40
0.06
 41
0.06
280
     0
281
     0
  7
STANDARD
140
0.18
170
     2
 62
     0
 63
     7
283
     0
274
    -2
284
     1
 64
     0
275
    -2
285
     1
 65
     0
276
    -2
286
     1
 66
     0
277
    -2
287
     1
 67
     0
278
    -2
288
     1
 68
     0
279
    -2
289
     1
 69
     0
  7
STANDARD
140
0.25
170
     5
 62
     0
 63
     7
283
     0
274
    -2
284
     1
 64
     0
275
    -2
285
     1
 65
     0
276
    -2
286
     1
 66
     0
277
    -2
287
     1
 67
     0
278
    -2
288
     1
 68
     0
279
    -2
289
     1
 69
     0
  7
STANDARD
140
0.18
170
     5
 62
     0
 63
     7
283
     0
274
    -2
284
     1
 64
     0
275
    -2
285
     1
 65
     0
276
    -2
286
     1
 66
     0
277
    -2
287
     1
 67
     0
278
    -2
288
     1
 68
     0
279
    -2
289
     1
 69
     0
  0
VISUALSTYLE
  5
9F3B
102
{ACAD_XDICTIONARY
360
9F99
102
}
102
{ACAD_REACTORS
330
9F35
102
}
330
9F35
100
AcDbVisualStyle
  2
2dWireframe
 70
     4
 71
     0
 72
     2
 73
     0
 90
        0
 40
-0.6
 41
-30.0
 62
     5
 63
     7
 74
     1
 91
        4
 64
     7
 65
   257
 75
     1
175
     1
 42
1.0
 92
        0
 66
   257
 43
1.0
 76
     1
 77
     6
 78
     2
 67
     7
 79
     5
170
     0
171
     0
290
     0
174
     0
 93
        1
 44
0.0
173
     0
291
     0
 45
0.0
1001
ACAD
1000
AcDbSavedByObjectVersion
1070
     0
  0
VISUALSTYLE
  5
9F3A
102
{ACAD_XDICTIONARY
360
9F97
102
}
102
{ACAD_REACTORS
330
9F35
102
}
330
9F35
100
AcDbVisualStyle
  2
Basic
 70
     7
 71
     1
 72
     0
 73
     1
 90
        0
 40
-0.6
 41
-30.0
 62
     5
 63
     7
 74
     0
 91
        4
 64
     7
 65
   257
 75
     1
175
     1
 42
1.0
 92
        8
 66
     7
 43
1.0
 76
     1
 77
     6
 78
     2
 67
     7
 79
     5
170
     0
171
     0
290
     0
174
     0
 93
        1
 44
0.0
173
     0
291
     1
 45
0.0
1001
ACAD
1000
AcDbSavedByObjectVersion
1070
     0
  0
VISUALSTYLE
  5
9F41
102
{ACAD_XDICTIONARY
360
9FA5
102
}
102
{ACAD_REACTORS
330
9F35
102
}
330
9F35
100
AcDbVisualStyle
  2
Brighten
 70
    12
 71
     2
 72
     2
 73
     0
 90
        0
 40
-0.6
 41
-30.0
 62
     5
 63
     7
 74
     1
 91
        4
 64
     7
 65
   257
 75
     1
175
     1
 42
1.0
 92
        8
 66
     7
 43
1.0
 76
     1
 77
     6
 78
     2
 67
     7
 79
     5
170
     0
171
     0
290
     0
174
     0
 93
        1
 44
50.0
173
     0
291
     1
 45
0.0
1001
ACAD
1000
AcDbSavedByObjectVersion
1070
     0
  0
VISUALSTYLE
  5
9F45
102
{ACAD_XDICTIONARY
360
9FAD
102
}
102
{ACAD_REACTORS
330
9F35
102
}
330
9F35
100
AcDbVisualStyle
  2
ColorChange
 70
    16
 71
     2
 72
     2
 73
     3
 90
        0
 40
-0.6
 41
-30.0
 62
     5
 63
     8
 74
     1
 91
        4
 64
     7
 65
   257
 75
     1
175
     1
 42
1.0
 92
        8
 66
     8
 43
1.0
 76
     1
 77
     6
 78
     2
 67
     7
 79
     5
170
     0
171
     0
290
     0
174
     0
 93
        1
 44
0.0
173
     0
291
     1
 45
0.0
1001
ACAD
1000
AcDbSavedByObjectVersion
1070
     0
  0
VISUALSTYLE
  5
9F3E
102
{ACAD_XDICTIONARY
360
9F9F
102
}
102
{ACAD_REACTORS
330
9F35
102
}
330
9F35
100
AcDbVisualStyle
  2
Conceptual
 70
     9
 71
     3
 72
     2
 73
     0
 90
        0
 40
-0.6
 41
-30.0
 62
     5
 63
     7
 74
     2
 91
        2
 64
     7
 65
   257
 75
     1
175
     1
 42
179.0
 92
        8
 66
     7
 43
1.0
 76
     1
 77
     6
 78
     2
 67
     7
 79
     3
170
     0
171
     0
290
     0
174
     0
 93
        1
 44
0.0
173
     0
291
     0
 45
0.0
1001
ACAD
1000
AcDbSavedByObjectVersion
1070
     0
  0
VISUALSTYLE
  5
9F40
102
{ACAD_XDICTIONARY
360
9FA3
102
}
102
{ACAD_REACTORS
330
9F35
102
}
330
9F35
100
AcDbVisualStyle
  2
Dim
 70
    11
 71
     2
 72
     2
 73
     0
 90
        0
 40
-0.6
 41
-30.0
 62
     5
 63
     7
 74
     1
 91
        4
 64
     7
 65
   257
 75
     1
175
     1
 42
1.0
 92
        8
 66
     7
 43
1.0
 76
     1
 77
     6
 78
     2
 67
     7
 79
     5
170
     0
171
     0
290
     0
174
     0
 93
        1
 44
-50.0
173
     0
291
     1
 45
0.0
1001
ACAD
1000
AcDbSavedByObjectVersion
1070
     0
  0
VISUALSTYLE
  5
9F4D
102
{ACAD_XDICTIONARY
360
9FBD
102
}
102
{ACAD_REACTORS
330
9F35
102
}
330
9F35
100
AcDbVisualStyle
  2
EdgeColorOff
 70
    22
 71
     2
 72
     2
 73
     0
 90
        0
 40
-0.6
 41
-30.0
 62
     5
 63
     7
 74
     1
 91
        4
 64
     7
 65
   257
 75
     1
175
     1
 42
1.0
 92
        8
 66
     7
 43
1.0
 76
     1
 77
     6
 78
     2
 67
     7
 79
     5
170
     0
171
     0
290
     0
174
     0
 93
        1
 44
0.0
173
     0
291
     1
 45
0.0
1001
ACAD
1000
AcDbSavedByObjectVersion
1070
     0
  0
VISUALSTYLE
  5
9F44
102
{ACAD_XDICTIONARY
360
9FAB
102
}
102
{ACAD_REACTORS
330
9F35
102
}
330
9F35
100
AcDbVisualStyle
  2
Facepattern
 70
    15
 71
     2
 72
     2
 73
     0
 90
        0
 40
-0.6
 41
-30.0
 62
     5
 63
     7
 74
     1
 91
        4
 64
     7
 65
   257
 75
     1
175
     1
 42
1.0
 92
        8
 66
     7
 43
1.0
 76
     1
 77
     6
 78
     2
 67
     7
 79
     5
170
     0
171
     0
290
     0
174
     0
 93
        1
 44
0.0
173
     0
291
     1
 45
0.0
1001
ACAD
1000
AcDbSavedByObjectVersion
1070
     0
  0
VISUALSTYLE
  5
9F36
102
{ACAD_XDICTIONARY
360
9F8F
102
}
102
{ACAD_REACTORS
330
9F35
102
}
330
9F35
100
AcDbVisualStyle
  2
Flat
 70
     0
 71
     2
 72
     1
 73
     1
 90
        2
 40
-0.6
 41
30.0
 62
     5
 63
     7
 74
     0
 91
        0
 64
     7
 65
   257
 75
     1
175
     1
 42
1.0
 92
        8
 66
     7
 43
1.0
 76
     1
 77
     6
 78
     2
 67
     7
 79
     5
170
     0
171
     0
290
     0
174
     0
 93
       13
 44
0.0
173
     0
291
     1
 45
0.0
1001
ACAD
1000
AcDbSavedByObjectVersion
1070
     0
  0
VISUALSTYLE
  5
9F37
102
{ACAD_XDICTIONARY
360
9F91
102
}
102
{ACAD_REACTORS
330
9F35
102
}
330
9F35
100
AcDbVisualStyle
  2
FlatWithEdges
 70
     1
 71
     2
 72
     1
 73
     1
 90
        2
 40
-0.6
 41
30.0
 62
     5
 63
     7
 74
     1
 91
        0
 64
     7
 65
   257
 75
     1
175
     1
 42
1.0
 92
        0
 66
   257
 43
1.0
 76
     1
 77
     6
 78
     2
 67
     7
 79
     5
170
     0
171
     0
290
     0
174
     0
 93
       13
 44
0.0
173
     0
291
     1
 45
0.0
1001
ACAD
1000
AcDbSavedByObjectVersion
1070
     0
  0
VISUALSTYLE
  5
9F38
102
{ACAD_XDICTIONARY
360
9F93
102
}
102
{ACAD_REACTORS
330
9F35
102
}
330
9F35
100
AcDbVisualStyle
  2
Gouraud
 70
     2
 71
     2
 72
     2
 73
     1
 90
        2
 40
-0.6
 41
30.0
 62
     5
 63
     7
 74
     0
 91
        0
 64
     7
 65
   257
 75
     1
175
     1
 42
1.0
 92
        0
 66
     7
 43
1.0
 76
     1
 77
     6
 78
     2
 67
     7
 79
     5
170
     0
171
     0
290
     0
174
     0
 93
       13
 44
0.0
173
     0
291
     1
 45
0.0
1001
ACAD
1000
AcDbSavedByObjectVersion
1070
     0
  0
VISUALSTYLE
  5
9F39
102
{ACAD_XDICTIONARY
360
9F95
102
}
102
{ACAD_REACTORS
330
9F35
102
}
330
9F35
100
AcDbVisualStyle
  2
GouraudWithEdges
 70
     3
 71
     2
 72
     2
 73
     1
 90
        2
 40
-0.6
 41
30.0
 62
     5
 63
     7
 74
     1
 91
        0
 64
     7
 65
   257
 75
     1
175
     1
 42
1.0
 92
        0
 66
   257
 43
1.0
 76
     1
 77
     6
 78
     2
 67
     7
 79
     5
170
     0
171
     0
290
     0
174
     0
 93
       13
 44
0.0
173
     0
291
     1
 45
0.0
1001
ACAD
1000
AcDbSavedByObjectVersion
1070
     0
  0
VISUALSTYLE
  5
9F3D
102
{ACAD_XDICTIONARY
360
9F9D
102
}
102
{ACAD_REACTORS
330
9F35
102
}
330
9F35
100
AcDbVisualStyle
  2
Hidden
 70
     6
 71
     1
 72
     2
 73
     2
 90
        0
 40
-0.6
 41
-30.0
 62
     5
 63
     7
 74
     2
 91
        2
 64
     7
 65
   257
 75
     2
175
     1
 42
40.0
 92
        0
 66
   257
 43
1.0
 76
     1
 77
     6
 78
     2
 67
     7
 79
     3
170
     0
171
     0
290
     0
174
     0
 93
        1
 44
0.0
173
     0
291
     0
 45
0.0
1001
ACAD
1000
AcDbSavedByObjectVersion
1070
     0
  0
VISUALSTYLE
  5
9F4B
102
{ACAD_XDICTIONARY
360
9FB9
102
}
102
{ACAD_REACTORS
330
9F35
102
}
330
9F35
100
AcDbVisualStyle
  2
JitterOff
 70
    20
 71
     2
 72
     2
 73
     0
 90
        0
 40
-0.6
 41
-30.0
 62
     5
 63
     7
 74
     1
 91
        4
 64
     7
 65
   257
 75
     1
175
     1
 42
1.0
 92
       10
 66
     7
 43
1.0
 76
     1
 77
     6
 78
     2
 67
     7
 79
     5
170
     0
171
     0
290
     0
174
     0
 93
        1
 44
0.0
173
     0
291
     1
 45
0.0
1001
ACAD
1000
AcDbSavedByObjectVersion
1070
     0
  0
VISUALSTYLE
  5
9F43
102
{ACAD_XDICTIONARY
360
9FA9
102
}
102
{ACAD_REACTORS
330
9F35
102
}
330
9F35
100
AcDbVisualStyle
  2
Linepattern
 70
    14
 71
     2
 72
     2
 73
     0
 90
        0
 40
-0.6
 41
-30.0
 62
     5
 63
     7
 74
     1
 91
        4
 64
     7
 65
   257
 75
     7
175
     7
 42
1.0
 92
        8
 66
     7
 43
1.0
 76
     1
 77
     6
 78
     2
 67
     7
 79
     5
170
     0
171
     0
290
     0
174
     0
 93
        1
 44
0.0
173
     0
291
     1
 45
0.0
1001
ACAD
1000
AcDbSavedByObjectVersion
1070
     0
  0
VISUALSTYLE
  5
9F4C
102
{ACAD_XDICTIONARY
360
9FBB
102
}
102
{ACAD_REACTORS
330
9F35
102
}
330
9F35
100
AcDbVisualStyle
  2
OverhangOff
 70
    21
 71
     2
 72
     2
 73
     0
 90
        0
 40
-0.6
 41
-30.0
 62
     5
 63
     7
 74
     1
 91
        4
 64
     7
 65
   257
 75
     1
175
     1
 42
1.0
 92
        9
 66
     7
 43
1.0
 76
     1
 77
     6
 78
     2
 67
     7
 79
     5
170
     0
171
     0
290
     0
174
     0
 93
        1
 44
0.0
173
     0
291
     1
 45
0.0
1001
ACAD
1000
AcDbSavedByObjectVersion
1070
     0
  0
VISUALSTYLE
  5
9F3F
102
{ACAD_XDICTIONARY
360
9FA1
102
}
102
{ACAD_REACTORS
330
9F35
102
}
330
9F35
100
AcDbVisualStyle
  2
Realistic
 70
     8
 71
     2
 72
     3
 73
     0
 90
        2
 40
-0.6
 41
30.0
 62
     5
 63
     7
 74
     0
 91
        0
 64
     7
 65
   257
 75
     1
175
     1
 42
1.0
 92
        8
 66
   257
 43
1.0
 76
     1
 77
     6
 78
     2
 67
     7
 79
     3
170
     0
171
     0
290
     0
174
     0
 93
       13
 44
0.0
173
     0
291
     0
 45
0.0
1001
ACAD
1000
AcDbSavedByObjectVersion
1070
     0
  0
VISUALSTYLE
  5
9F4A
102
{ACAD_XDICTIONARY
360
9FB7
102
}
102
{ACAD_REACTORS
330
9F35
102
}
330
9F35
100
AcDbVisualStyle
  2
Shaded
 70
    27
 71
     2
 72
     2
 73
     1
 90
        2
 40
-0.6
 41
30.0
 62
     5
 63
     7
 74
     0
 91
        4
 64
     7
 65
   257
 75
     1
175
     1
 42
1.0
 92
        8
 66
   257
 43
1.0
 76
     1
 77
     6
 78
     2
 67
     8
 79
     3
170
     0
171
     0
290
     0
174
     0
 93
        5
 44
0.0
173
     0
291
     0
 45
0.0
1001
ACAD
1000
AcDbSavedByObjectVersion
1070
     0
  0
VISUALSTYLE
  5
9F49
102
{ACAD_XDICTIONARY
360
9FB5
102
}
102
{ACAD_REACTORS
330
9F35
102
}
330
9F35
100
AcDbVisualStyle
  2
Shaded with edges
 70
    26
 71
     2
 72
     2
 73
     1
 90
        2
 40
-0.6
 41
30.0
 62
     5
 63
     7
 74
     1
 91
       10
 64
     7
 65
   257
 75
     2
175
     1
 42
1.0
 92
        8
 66
   257
 43
1.0
 76
     1
 77
     6
 78
     2
 67
     7
 79
     3
170
     0
171
     0
290
     0
174
     0
 93
        5
 44
0.0
173
     0
291
     0
 45
0.0
1001
ACAD
1000
AcDbSavedByObjectVersion
1070
     0
  0
VISUALSTYLE
  5
9F46
102
{ACAD_XDICTIONARY
360
9FAF
102
}
102
{ACAD_REACTORS
330
9F35
102
}
330
9F35
100
AcDbVisualStyle
  2
Shades of Gray
 70
    23
 71
     2
 72
     2
 73
     3
 90
        0
 40
-0.6
 41
-30.0
 62
     5
 63
     7
 74
     2
 91
        2
 64
     7
 65
     7
 75
     1
175
     1
 42
40.0
 92
        8
 66
     7
 43
1.0
 76
     1
 77
     6
 78
     2
 67
     7
 79
     3
170
     0
171
     0
290
     0
174
     0
 93
        1
 44
0.0
173
     0
291
     0
 45
0.0
1001
ACAD
1000
AcDbSavedByObjectVersion
1070
     0
  0
VISUALSTYLE
  5
9F47
102
{ACAD_XDICTIONARY
360
9FB1
102
}
102
{ACAD_REACTORS
330
9F35
102
}
330
9F35
100
AcDbVisualStyle
  2
Sketchy
 70
    24
 71
     1
 72
     2
 73
     2
 90
        0
 40
-0.6
 41
-30.0
 62
     5
 63
     7
 74
     2
 91
        2
 64
     7
 65
     7
 75
     1
175
     1
 42
40.0
 92
       11
 66
     7
 43
1.0
 76
     1
 77
     6
 78
     2
 67
     7
 79
     6
170
     0
171
     0
290
     0
174
     0
 93
        1
 44
0.0
173
     0
291
     0
 45
0.0
1001
ACAD
1000
AcDbSavedByObjectVersion
1070
     0
  0
VISUALSTYLE
  5
9F42
102
{ACAD_XDICTIONARY
360
9FA7
102
}
102
{ACAD_REACTORS
330
9F35
102
}
330
9F35
100
AcDbVisualStyle
  2
Thicken
 70
    13
 71
     2
 72
     2
 73
     0
 90
        0
 40
-0.6
 41
-30.0
 62
     5
 63
     7
 74
     1
 91
        4
 64
     7
 65
   257
 75
     1
175
     1
 42
1.0
 92
       12
 66
     7
 43
1.0
 76
     1
 77
     6
 78
     2
 67
     7
 79
     5
170
     0
171
     0
290
     0
174
     0
 93
        1
 44
0.0
173
     0
291
     1
 45
0.0
1001
ACAD
1000
AcDbSavedByObjectVersion
1070
     0
  0
VISUALSTYLE
  5
9F3C
102
{ACAD_XDICTIONARY
360
9F9B
102
}
102
{ACAD_REACTORS
330
9F35
102
}
330
9F35
100
AcDbVisualStyle
  2
Wireframe
 70
     5
 71
     0
 72
     2
 73
     0
 90
        0
 40
-0.6
 41
-30.0
 62
     5
 63
     7
 74
     1
 91
        4
 64
     7
 65
   257
 75
     1
175
     1
 42
1.0
 92
        0
 66
   257
 43
1.0
 76
     1
 77
     6
 78
     2
 67
     7
 79
     3
170
     0
171
     0
290
     0
174
     0
 93
        1
 44
0.0
173
     0
291
     0
 45
0.0
1001
ACAD
1000
AcDbSavedByObjectVersion
1070
     0
  0
VISUALSTYLE
  5
9F48
102
{ACAD_XDICTIONARY
360
9FB3
102
}
102
{ACAD_REACTORS
330
9F35
102
}
330
9F35
100
AcDbVisualStyle
  2
X-Ray
 70
    25
 71
     2
 72
     2
 73
     1
 90
        1
 40
0.5
 41
-30.0
 62
     5
 63
     7
 74
     1
 91
        0
 64
     7
 65
   257
 75
     1
175
     1
 42
1.0
 92
        8
 66
     7
 43
1.0
 76
     1
 77
     6
 78
     2
 67
     7
 79
     3
170
     0
171
     0
290
     0
174
     0
 93
       13
 44
0.0
173
     0
291
     0
 45
0.0
1001
ACAD
1000
AcDbSavedByObjectVersion
1070
     0
  0
DICTIONARYVAR
  5
9F82
102
{ACAD_REACTORS
330
9F7D
102
}
330
9F7D
100
DictionaryVariables
280
     0
  1
1:1
  0
DICTIONARYVAR
  5
9F7F
102
{ACAD_REACTORS
330
9F7D
102
}
330
9F7D
100
DictionaryVariables
280
     0
  1
STANDARD
  0
DICTIONARYVAR
  5
9F7E
102
{ACAD_REACTORS
330
9F7D
102
}
330
9F7D
100
DictionaryVariables
280
     0
  1
STANDARD
  0
DICTIONARYVAR
  5
9F80
102
{ACAD_REACTORS
330
9F7D
102
}
330
9F7D
100
DictionaryVariables
280
     0
  1
Imperial24
  0
DICTIONARYVAR
  5
9F81
102
{ACAD_REACTORS
330
9F7D
102
}
330
9F7D
100
DictionaryVariables
280
     0
  1
Imperial24
  0
DICTIONARYVAR
  5
9F85
102
{ACAD_REACTORS
330
9F7D
102
}
330
9F7D
100
DictionaryVariables
280
     0
  1
1
  0
DICTIONARYVAR
  5
9F84
102
{ACAD_REACTORS
330
9F7D
102
}
330
9F7D
100
DictionaryVariables
280
     0
  1
0
  0
DICTIONARYVAR
  5
9F83
102
{ACAD_REACTORS
330
9F7D
102
}
330
9F7D
100
DictionaryVariables
280
     0
  1
127
  0
DICTIONARYVAR
  5
9F86
102
{ACAD_REACTORS
330
9F7D
102
}
330
9F7D
100
DictionaryVariables
280
     0
  1
2
  0
DICTIONARY
  5
9FC3
330
9F68
100
AcDbDictionary
280
     1
281
     1
  3
ACAD_XREC_ROUNDTRIP
360
9FC4
  0
DICTIONARY
  5
9FC5
330
9F69
100
AcDbDictionary
280
     1
281
     1
  3
ACAD_XREC_ROUNDTRIP
360
9FC6
  0
DICTIONARY
  5
9FC7
330
9F6A
100
AcDbDictionary
280
     1
281
     1
  3
ACAD_XREC_ROUNDTRIP
360
9FC8
  0
DICTIONARY
  5
9F26
330
9F25
100
AcDbDictionary
280
     1
281
     1
  3
ACAD_XREC_ROUNDTRIP
360
9F8D
  3
BUMPTILE
360
9F28
  3
DIFFUSETILE
360
9F27
  3
OPACITYTILE
360
9F2B
  3
REFLECTIONTILE
360
9F2A
  3
REFRACTIONTILE
360
9F2C
  3
SPECULARTILE
360
9F29
  0
DICTIONARY
  5
9F1E
330
9F1D
100
AcDbDictionary
280
     1
281
     1
  3
ACAD_XREC_ROUNDTRIP
360
9F8C
  3
BUMPTILE
360
9F20
  3
DIFFUSETILE
360
9F1F
  3
OPACITYTILE
360
9F23
  3
REFLECTIONTILE
360
9F22
  3
REFRACTIONTILE
360
9F24
  3
SPECULARTILE
360
9F21
  0
DICTIONARY
  5
9F2E
330
9F2D
100
AcDbDictionary
280
     1
281
     1
  3
ACAD_XREC_ROUNDTRIP
360
9F8E
  3
BUMPTILE
360
9F30
  3
DIFFUSETILE
360
9F2F
  3
OPACITYTILE
360
9F33
  3
REFLECTIONTILE
360
9F32
  3
REFRACTIONTILE
360
9F34
  3
SPECULARTILE
360
9F31
  0
DICTIONARY
  5
9FC1
330
9F66
100
AcDbDictionary
280
     1
281
     1
  3
ACAD_XREC_ROUNDTRIP
360
9FC2
  0
DICTIONARY
  5
9F88
330
9F50
100
AcDbDictionary
280
     1
281
     1
  3
ACAD_ROUNDTRIP_2008_TABLESTYLE_CELLSTYLEMAP
360
9F89
  3
ACAD_XREC_ROUNDTRIP
360
9FBF
  0
DICTIONARY
  5
9F99
330
9F3B
100
AcDbDictionary
280
     1
281
     1
  3
ACAD_XREC_ROUNDTRIP
360
9F9A
  0
DICTIONARY
  5
9F97
330
9F3A
100
AcDbDictionary
280
     1
281
     1
  3
ACAD_XREC_ROUNDTRIP
360
9F98
  0
DICTIONARY
  5
9FA5
330
9F41
100
AcDbDictionary
280
     1
281
     1
  3
ACAD_XREC_ROUNDTRIP
360
9FA6
  0
DICTIONARY
  5
9FAD
330
9F45
100
AcDbDictionary
280
     1
281
     1
  3
ACAD_XREC_ROUNDTRIP
360
9FAE
  0
DICTIONARY
  5
9F9F
330
9F3E
100
AcDbDictionary
280
     1
281
     1
  3
ACAD_XREC_ROUNDTRIP
360
9FA0
  0
DICTIONARY
  5
9FA3
330
9F40
100
AcDbDictionary
280
     1
281
     1
  3
ACAD_XREC_ROUNDTRIP
360
9FA4
  0
DICTIONARY
  5
9FBD
330
9F4D
100
AcDbDictionary
280
     1
281
     1
  3
ACAD_XREC_ROUNDTRIP
360
9FBE
  0
DICTIONARY
  5
9FAB
330
9F44
100
AcDbDictionary
280
     1
281
     1
  3
ACAD_XREC_ROUNDTRIP
360
9FAC
  0
DICTIONARY
  5
9F8F
330
9F36
100
AcDbDictionary
280
     1
281
     1
  3
ACAD_XREC_ROUNDTRIP
360
9F90
  0
DICTIONARY
  5
9F91
330
9F37
100
AcDbDictionary
280
     1
281
     1
  3
ACAD_XREC_ROUNDTRIP
360
9F92
  0
DICTIONARY
  5
9F93
330
9F38
100
AcDbDictionary
280
     1
281
     1
  3
ACAD_XREC_ROUNDTRIP
360
9F94
  0
DICTIONARY
  5
9F95
330
9F39
100
AcDbDictionary
280
     1
281
     1
  3
ACAD_XREC_ROUNDTRIP
360
9F96
  0
DICTIONARY
  5
9F9D
330
9F3D
100
AcDbDictionary
280
     1
281
     1
  3
ACAD_XREC_ROUNDTRIP
360
9F9E
  0
DICTIONARY
  5
9FB9
330
9F4B
100
AcDbDictionary
280
     1
281
     1
  3
ACAD_XREC_ROUNDTRIP
360
9FBA
  0
DICTIONARY
  5
9FA9
330
9F43
100
AcDbDictionary
280
     1
281
     1
  3
ACAD_XREC_ROUNDTRIP
360
9FAA
  0
DICTIONARY
  5
9FBB
330
9F4C
100
AcDbDictionary
280
     1
281
     1
  3
ACAD_XREC_ROUNDTRIP
360
9FBC
  0
DICTIONARY
  5
9FA1
330
9F3F
100
AcDbDictionary
280
     1
281
     1
  3
ACAD_XREC_ROUNDTRIP
360
9FA2
  0
DICTIONARY
  5
9FB7
330
9F4A
100
AcDbDictionary
280
     1
281
     1
  3
ACAD_XREC_ROUNDTRIP
360
9FB8
  0
DICTIONARY
  5
9FB5
330
9F49
100
AcDbDictionary
280
     1
281
     1
  3
ACAD_XREC_ROUNDTRIP
360
9FB6
  0
DICTIONARY
  5
9FAF
330
9F46
100
AcDbDictionary
280
     1
281
     1
  3
ACAD_XREC_ROUNDTRIP
360
9FB0
  0
DICTIONARY
  5
9FB1
330
9F47
100
AcDbDictionary
280
     1
281
     1
  3
ACAD_XREC_ROUNDTRIP
360
9FB2
  0
DICTIONARY
  5
9FA7
330
9F42
100
AcDbDictionary
280
     1
281
     1
  3
ACAD_XREC_ROUNDTRIP
360
9FA8
  0
DICTIONARY
  5
9F9B
330
9F3C
100
AcDbDictionary
280
     1
281
     1
  3
ACAD_XREC_ROUNDTRIP
360
9F9C
  0
DICTIONARY
  5
9FB3
330
9F48
100
AcDbDictionary
280
     1
281
     1
  3
ACAD_XREC_ROUNDTRIP
360
9FB4
  0
XRECORD
  5
9FC4
102
{ACAD_REACTORS
330
9FC3
102
}
330
9FC3
100
AcDbXrecord
280
     1
102
DISPLAYNAME
  1
Imperial24
102
FLAGS
 90
        0
  0
XRECORD
  5
9FC6
102
{ACAD_REACTORS
330
9FC5
102
}
330
9FC5
100
AcDbXrecord
280
     1
102
SHADEPLOT
 70
     0
102
SHADEPLOTRESLEVEL
 70
     2
102
SHADEPLOTCUSTOMDPI
 70
   300
  0
XRECORD
  5
9FC8
102
{ACAD_REACTORS
330
9FC7
102
}
330
9FC7
100
AcDbXrecord
280
     1
102
SHADEPLOT
 70
     0
102
SHADEPLOTRESLEVEL
 70
     2
102
SHADEPLOTCUSTOMDPI
 70
   300
  0
XRECORD
  5
9F8D
102
{ACAD_REACTORS
330
9F26
102
}
330
9F26
100
AcDbXrecord
280
     1
102
MATERIAL
148
0.0
149
0.0
149
0.0
 93
        0
 94
      127
282
     0
 72
     0
 77
     0
171
     0
175
     0
179
     0
273
     0
  0
XRECORD
  5
9F28
102
{ACAD_REACTORS
330
9F26
102
}
330
9F26
100
AcDbXrecord
280
     1
270
     1
271
     1
  0
XRECORD
  5
9F27
102
{ACAD_REACTORS
330
9F26
102
}
330
9F26
100
AcDbXrecord
280
     1
270
     1
271
     1
  0
XRECORD
  5
9F2B
102
{ACAD_REACTORS
330
9F26
102
}
330
9F26
100
AcDbXrecord
280
     1
270
     1
271
     1
  0
XRECORD
  5
9F2A
102
{ACAD_REACTORS
330
9F26
102
}
330
9F26
100
AcDbXrecord
280
     1
270
     1
271
     1
  0
XRECORD
  5
9F2C
102
{ACAD_REACTORS
330
9F26
102
}
330
9F26
100
AcDbXrecord
280
     1
270
     1
271
     1
  0
XRECORD
  5
9F29
102
{ACAD_REACTORS
330
9F26
102
}
330
9F26
100
AcDbXrecord
280
     1
270
     1
271
     1
  0
XRECORD
  5
9F8C
102
{ACAD_REACTORS
330
9F1E
102
}
330
9F1E
100
AcDbXrecord
280
     1
102
MATERIAL
148
0.0
149
0.0
149
0.0
 93
        0
 94
      127
282
     0
 72
     0
 77
     0
171
     0
175
     0
179
     0
273
     0
  0
XRECORD
  5
9F20
102
{ACAD_REACTORS
330
9F1E
102
}
330
9F1E
100
AcDbXrecord
280
     1
270
     1
271
     1
  0
XRECORD
  5
9F1F
102
{ACAD_REACTORS
330
9F1E
102
}
330
9F1E
100
AcDbXrecord
280
     1
270
     1
271
     1
  0
XRECORD
  5
9F23
102
{ACAD_REACTORS
330
9F1E
102
}
330
9F1E
100
AcDbXrecord
280
     1
270
     1
271
     1
  0
XRECORD
  5
9F22
102
{ACAD_REACTORS
330
9F1E
102
}
330
9F1E
100
AcDbXrecord
280
     1
270
     1
271
     1
  0
XRECORD
  5
9F24
102
{ACAD_REACTORS
330
9F1E
102
}
330
9F1E
100
AcDbXrecord
280
     1
270
     1
271
     1
  0
XRECORD
  5
9F21
102
{ACAD_REACTORS
330
9F1E
102
}
330
9F1E
100
AcDbXrecord
280
     1
270
     1
271
     1
  0
XRECORD
  5
9F8E
102
{ACAD_REACTORS
330
9F2E
102
}
330
9F2E
100
AcDbXrecord
280
     1
102
MATERIAL
148
0.0
149
0.0
149
0.0
 93
        0
 94
      127
282
     0
 72
     0
 77
     0
171
     0
175
     0
179
     0
273
     0
  0
XRECORD
  5
9F30
102
{ACAD_REACTORS
330
9F2E
102
}
330
9F2E
100
AcDbXrecord
280
     1
270
     1
271
     1
  0
XRECORD
  5
9F2F
102
{ACAD_REACTORS
330
9F2E
102
}
330
9F2E
100
AcDbXrecord
280
     1
270
     1
271
     1
  0
XRECORD
  5
9F33
102
{ACAD_REACTORS
330
9F2E
102
}
330
9F2E
100
AcDbXrecord
280
     1
270
     1
271
     1
  0
XRECORD
  5
9F32
102
{ACAD_REACTORS
330
9F2E
102
}
330
9F2E
100
AcDbXrecord
280
     1
270
     1
271
     1
  0
XRECORD
  5
9F34
102
{ACAD_REACTORS
330
9F2E
102
}
330
9F2E
100
AcDbXrecord
280
     1
270
     1
271
     1
  0
XRECORD
  5
9F31
102
{ACAD_REACTORS
330
9F2E
102
}
330
9F2E
100
AcDbXrecord
280
     1
270
     1
271
     1
  0
XRECORD
  5
9FC2
102
{ACAD_REACTORS
330
9FC1
102
}
330
9FC1
100
AcDbXrecord
280
     1
102
DISPLAYNAME
  1
Imperial24
102
FLAGS
 90
        0
  0
CELLSTYLEMAP
  5
9F89
102
{ACAD_REACTORS
330
9F88
102
}
330
9F88
100
AcDbCellStyleMap
 90
        3
300
CELLSTYLE
  1
TABLEFORMAT_BEGIN
 90
        5
170
     1
 91
        0
 92
    32768
 62
   257
 93
        1
300
CONTENTFORMAT
  1
CONTENTFORMAT_BEGIN
 90
        0
 91
        0
 92
      512
 93
        0
300

 40
0.0
140
1.0
 94
        5
 62
     0
340
9CB0
144
0.25
309
CONTENTFORMAT_END
171
     0
 94
        0
309
TABLEFORMAT_END
  1
CELLSTYLE_BEGIN
 90
        1
 91
        1
300
_TITLE
309
CELLSTYLE_END
300
CELLSTYLE
  1
TABLEFORMAT_BEGIN
 90
        5
170
     1
 91
        0
 92
        0
 62
   257
 93
        1
300
CONTENTFORMAT
  1
CONTENTFORMAT_BEGIN
 90
        0
 91
        0
 92
      512
 93
        0
300

 40
0.0
140
1.0
 94
        5
 62
     0
340
9CB0
144
0.18
309
CONTENTFORMAT_END
171
     0
 94
        0
309
TABLEFORMAT_END
  1
CELLSTYLE_BEGIN
 90
        2
 91
        1
300
_HEADER
309
CELLSTYLE_END
300
CELLSTYLE
  1
TABLEFORMAT_BEGIN
 90
        5
170
     1
 91
        0
 92
        0
 62
   257
 93
        1
300
CONTENTFORMAT
  1
CONTENTFORMAT_BEGIN
 90
        0
 91
        0
 92
      512
 93
        0
300

 40
0.0
140
1.0
 94
        2
 62
     0
340
9CB0
144
0.18
309
CONTENTFORMAT_END
171
     0
 94
        0
309
TABLEFORMAT_END
  1
CELLSTYLE_BEGIN
 90
        3
 91
        2
300
_DATA
309
CELLSTYLE_END
  0
XRECORD
  5
9FBF
102
{ACAD_REACTORS
330
9F88
102
}
330
9F88
100
AcDbXrecord
280
     1
102
ACAD_ROUNDTRIP_PRE2007_TABLESTYLE
 90
      512
 91
        0
  1

 92
      512
 93
        0
  2

 94
      512
 95
        0
  3

  0
XRECORD
  5
9F9A
102
{ACAD_REACTORS
330
9F99
102
}
330
9F99
100
AcDbXrecord
280
     1
102
RTVSPost2010Prop28
280
     1
102
RTVSPost2010PropOp28
 70
     1
102
RTVSPost2010Prop29
280
     1
102
RTVSPost2010PropOp29
 70
     1
102
RTVSPost2010Prop30
280
     0
102
RTVSPost2010PropOp30
 70
     1
102
RTVSPost2010Prop31
280
     0
102
RTVSPost2010PropOp31
 70
     1
102
RTVSPost2010Prop32
280
     0
102
RTVSPost2010PropOp32
 70
     1
102
RTVSPost2010Prop33
280
     0
102
RTVSPost2010PropOp33
 70
     1
102
RTVSPost2010Prop34
280
     0
102
RTVSPost2010PropOp34
 70
     1
102
RTVSPost2010Prop35
280
     0
102
RTVSPost2010PropOp35
 70
     1
102
RTVSPost2010Prop36
280
     0
102
RTVSPost2010PropOp36
 70
     1
102
RTVSPost2010Prop37
 90
       50
102
RTVSPost2010PropOp37
 70
     1
102
RTVSPost2010Prop38
140
0.0
102
RTVSPost2010PropOp38
 70
     1
102
RTVSPost2010Prop39
140
1.0
102
RTVSPost2010PropOp39
 70
     1
102
RTVSPost2010Prop40
 90
        0
102
RTVSPost2010PropOp40
 70
     1
102
RTVSPost2010Prop41ColorIndex
 90
       18
102
RTVSPost2010Prop41ColorRGB
 90
        0
102
RTVSPost2010PropOp41
 70
     1
102
RTVSPost2010Prop42
 90
       50
102
RTVSPost2010PropOp42
 70
     1
102
RTVSPost2010Prop43
 90
        3
102
RTVSPost2010PropOp43
 70
     1
102
RTVSPost2010Prop44ColorIndex
 90
        5
102
RTVSPost2010Prop44ColorRGB
 90
      255
102
RTVSPost2010PropOp44
 70
     1
102
RTVSPost2010Prop45
280
     0
102
RTVSPost2010PropOp45
 70
     1
102
RTVSPost2010Prop46
 90
       50
102
RTVSPost2010PropOp46
 70
     1
102
RTVSPost2010Prop47
 90
       50
102
RTVSPost2010PropOp47
 70
     1
102
RTVSPost2010Prop48
 90
       50
102
RTVSPost2010PropOp48
 70
     1
102
RTVSPost2010Prop49
280
     0
102
RTVSPost2010PropOp49
 70
     1
102
RTVSPost2010Prop50
 90
       50
102
RTVSPost2010PropOp50
 70
     1
102
RTVSPost2010Prop51ColorIndex
 90
      256
102
RTVSPost2010Prop51ColorRGB
 90
-16777216
102
RTVSPost2010PropOp51
 70
     0
102
RTVSPost2010Prop52
140
1.0
102
RTVSPost2010PropOp52
 70
     0
102
RTVSPost2010Prop53
 90
        2
102
RTVSPost2010PropOp53
 70
     1
102
RTVSPost2010Prop54
  1
strokes_ogs.tif
102
RTVSPost2010PropOp54
 70
     1
102
RTVSPost2010Prop55
280
     0
102
RTVSPost2010PropOp55
 70
     1
102
RTVSPost2010Prop56
140
1.0
102
RTVSPost2010PropOp56
 70
     1
102
RTVSPost2010Prop57
140
1.0
102
RTVSPost2010PropOp57
 70
     1
102
RTVSPropertyOp0
 70
     1
102
RTVSPropertyOp1
 70
     1
102
RTVSPropertyOp2
 70
     1
102
RTVSPropertyOp3
 70
     1
102
RTVSPropertyOp4
 70
     1
102
RTVSPropertyOp5
 70
     1
102
RTVSPropertyOp6
 70
     1
102
RTVSPropertyOp7
 70
     1
102
RTVSPropertyOp8
 70
     1
102
RTVSPropertyOp9
 70
     1
102
RTVSPropertyOp10
 70
     1
102
RTVSPropertyOp11
 70
     1
102
RTVSPropertyOp12
 70
     1
102
RTVSPropertyOp13
 70
     1
102
RTVSPropertyOp14
 70
     1
102
RTVSPropertyOp15
 70
     1
102
RTVSPropertyOp16
 70
     1
102
RTVSPropertyOp17
 70
     1
102
RTVSPropertyOp18
 70
     1
102
RTVSPropertyOp19
 70
     1
102
RTVSPropertyOp20
 70
     1
102
RTVSPropertyOp21
 70
     1
102
RTVSPropertyOp22
 70
     1
102
RTVSPropertyOp23
 70
     1
102
RTVSPropertyOp24
 70
     1
102
RTVSPropertyOp25
 70
     1
102
RTVSPropertyOp26
 70
     1
102
RTVSPropertyOp27
 70
     1
102
RTVSPropertyOp28
 70
     1
102
RTVSPropertyOp29
 70
     1
102
RTVSPropertyOp30
 70
     1
102
RTVSPropertyOp31
 70
     1
102
RTVSPropertyOp32
 70
     1
102
RTVSPropertyOp33
 70
     1
102
RTVSPropertyOp34
 70
     1
102
RTVSPropertyOp35
 70
     1
102
RTVSPropertyOp36
 70
     1
102
RTVSPropertyOp37
 70
     1
102
RTVSPropertyOp38
 70
     1
102
RTVSPropertyOp39
 70
     1
102
RTVSPropertyOp40
 70
     1
102
RTVSPropertyOp41
 70
     1
102
RTVSPropertyOp42
 70
     1
102
RTVSPropertyOp43
 70
     1
102
RTVSPropertyOp44
 70
     1
102
RTVSPropertyOp45
 70
     1
102
RTVSPropertyOp46
 70
     1
102
RTVSPropertyOp47
 70
     1
102
RTVSPropertyOp48
 70
     1
102
RTVSPropertyOp49
 70
     1
102
RTVSPropertyOp50
 70
     1
102
RTVSPropertyOp51
 70
     0
102
RTVSPropertyOp52
 70
     0
102
RTVSPropertyOp53
 70
     1
102
RTVSPropertyOp54
 70
     1
102
RTVSPropertyOp55
 70
     1
102
RTVSPropertyOp56
 70
     1
102
RTVSPropertyOp57
 70
     1
102
RTVSPropertyOp58
 70
     1
102
RTVSPropertyOp59
 70
     1
102
RTVSPropertyOp60
 70
     1
102
RTVSPropertyOp61
 70
     1
102
RTVSPropertyOp62
 70
     1
  0
XRECORD
  5
9F98
102
{ACAD_REACTORS
330
9F97
102
}
330
9F97
100
AcDbXrecord
280
     1
102
RTVSPost2010Prop28
280
     0
102
RTVSPost2010PropOp28
 70
     1
102
RTVSPost2010Prop29
280
     1
102
RTVSPost2010PropOp29
 70
     1
102
RTVSPost2010Prop30
280
     1
102
RTVSPost2010PropOp30
 70
     1
102
RTVSPost2010Prop31
280
     0
102
RTVSPost2010PropOp31
 70
     1
102
RTVSPost2010Prop32
280
     0
102
RTVSPost2010PropOp32
 70
     1
102
RTVSPost2010Prop33
280
     0
102
RTVSPost2010PropOp33
 70
     1
102
RTVSPost2010Prop34
280
     0
102
RTVSPost2010PropOp34
 70
     1
102
RTVSPost2010Prop35
280
     0
102
RTVSPost2010PropOp35
 70
     1
102
RTVSPost2010Prop36
280
     0
102
RTVSPost2010PropOp36
 70
     1
102
RTVSPost2010Prop37
 90
       50
102
RTVSPost2010PropOp37
 70
     1
102
RTVSPost2010Prop38
140
0.0
102
RTVSPost2010PropOp38
 70
     1
102
RTVSPost2010Prop39
140
1.0
102
RTVSPost2010PropOp39
 70
     1
102
RTVSPost2010Prop40
 90
        0
102
RTVSPost2010PropOp40
 70
     1
102
RTVSPost2010Prop41ColorIndex
 90
       18
102
RTVSPost2010Prop41ColorRGB
 90
        0
102
RTVSPost2010PropOp41
 70
     1
102
RTVSPost2010Prop42
 90
       50
102
RTVSPost2010PropOp42
 70
     1
102
RTVSPost2010Prop43
 90
        3
102
RTVSPost2010PropOp43
 70
     1
102
RTVSPost2010Prop44ColorIndex
 90
        5
102
RTVSPost2010Prop44ColorRGB
 90
      255
102
RTVSPost2010PropOp44
 70
     1
102
RTVSPost2010Prop45
280
     0
102
RTVSPost2010PropOp45
 70
     1
102
RTVSPost2010Prop46
 90
       50
102
RTVSPost2010PropOp46
 70
     1
102
RTVSPost2010Prop47
 90
       50
102
RTVSPost2010PropOp47
 70
     1
102
RTVSPost2010Prop48
 90
       50
102
RTVSPost2010PropOp48
 70
     1
102
RTVSPost2010Prop49
280
     0
102
RTVSPost2010PropOp49
 70
     1
102
RTVSPost2010Prop50
 90
       50
102
RTVSPost2010PropOp50
 70
     1
102
RTVSPost2010Prop51ColorIndex
 90
      256
102
RTVSPost2010Prop51ColorRGB
 90
-16777216
102
RTVSPost2010PropOp51
 70
     0
102
RTVSPost2010Prop52
140
1.0
102
RTVSPost2010PropOp52
 70
     0
102
RTVSPost2010Prop53
 90
        2
102
RTVSPost2010PropOp53
 70
     1
102
RTVSPost2010Prop54
  1
strokes_ogs.tif
102
RTVSPost2010PropOp54
 70
     1
102
RTVSPost2010Prop55
280
     0
102
RTVSPost2010PropOp55
 70
     1
102
RTVSPost2010Prop56
140
1.0
102
RTVSPost2010PropOp56
 70
     1
102
RTVSPost2010Prop57
140
1.0
102
RTVSPost2010PropOp57
 70
     1
102
RTVSPropertyOp0
 70
     1
102
RTVSPropertyOp1
 70
     1
102
RTVSPropertyOp2
 70
     1
102
RTVSPropertyOp3
 70
     1
102
RTVSPropertyOp4
 70
     1
102
RTVSPropertyOp5
 70
     1
102
RTVSPropertyOp6
 70
     1
102
RTVSPropertyOp7
 70
     1
102
RTVSPropertyOp8
 70
     1
102
RTVSPropertyOp9
 70
     1
102
RTVSPropertyOp10
 70
     1
102
RTVSPropertyOp11
 70
     1
102
RTVSPropertyOp12
 70
     1
102
RTVSPropertyOp13
 70
     1
102
RTVSPropertyOp14
 70
     1
102
RTVSPropertyOp15
 70
     1
102
RTVSPropertyOp16
 70
     1
102
RTVSPropertyOp17
 70
     1
102
RTVSPropertyOp18
 70
     1
102
RTVSPropertyOp19
 70
     1
102
RTVSPropertyOp20
 70
     1
102
RTVSPropertyOp21
 70
     1
102
RTVSPropertyOp22
 70
     1
102
RTVSPropertyOp23
 70
     1
102
RTVSPropertyOp24
 70
     1
102
RTVSPropertyOp25
 70
     1
102
RTVSPropertyOp26
 70
     1
102
RTVSPropertyOp27
 70
     1
102
RTVSPropertyOp28
 70
     1
102
RTVSPropertyOp29
 70
     1
102
RTVSPropertyOp30
 70
     1
102
RTVSPropertyOp31
 70
     1
102
RTVSPropertyOp32
 70
     1
102
RTVSPropertyOp33
 70
     1
102
RTVSPropertyOp34
 70
     1
102
RTVSPropertyOp35
 70
     1
102
RTVSPropertyOp36
 70
     1
102
RTVSPropertyOp37
 70
     1
102
RTVSPropertyOp38
 70
     1
102
RTVSPropertyOp39
 70
     1
102
RTVSPropertyOp40
 70
     1
102
RTVSPropertyOp41
 70
     1
102
RTVSPropertyOp42
 70
     1
102
RTVSPropertyOp43
 70
     1
102
RTVSPropertyOp44
 70
     1
102
RTVSPropertyOp45
 70
     1
102
RTVSPropertyOp46
 70
     1
102
RTVSPropertyOp47
 70
     1
102
RTVSPropertyOp48
 70
     1
102
RTVSPropertyOp49
 70
     1
102
RTVSPropertyOp50
 70
     1
102
RTVSPropertyOp51
 70
     0
102
RTVSPropertyOp52
 70
     0
102
RTVSPropertyOp53
 70
     1
102
RTVSPropertyOp54
 70
     1
102
RTVSPropertyOp55
 70
     1
102
RTVSPropertyOp56
 70
     1
102
RTVSPropertyOp57
 70
     1
102
RTVSPropertyOp58
 70
     1
102
RTVSPropertyOp59
 70
     1
102
RTVSPropertyOp60
 70
     1
102
RTVSPropertyOp61
 70
     1
102
RTVSPropertyOp62
 70
     1
  0
XRECORD
  5
9FA6
102
{ACAD_REACTORS
330
9FA5
102
}
330
9FA5
100
AcDbXrecord
280
     1
102
RTVSPost2010Prop28
280
     0
102
RTVSPost2010PropOp28
 70
     1
102
RTVSPost2010Prop29
280
     1
102
RTVSPost2010PropOp29
 70
     1
102
RTVSPost2010Prop30
280
     1
102
RTVSPost2010PropOp30
 70
     1
102
RTVSPost2010Prop31
280
     0
102
RTVSPost2010PropOp31
 70
     1
102
RTVSPost2010Prop32
280
     0
102
RTVSPost2010PropOp32
 70
     1
102
RTVSPost2010Prop33
280
     0
102
RTVSPost2010PropOp33
 70
     1
102
RTVSPost2010Prop34
280
     0
102
RTVSPost2010PropOp34
 70
     1
102
RTVSPost2010Prop35
280
     0
102
RTVSPost2010PropOp35
 70
     1
102
RTVSPost2010Prop36
280
     0
102
RTVSPost2010PropOp36
 70
     1
102
RTVSPost2010Prop37
 90
       50
102
RTVSPost2010PropOp37
 70
     1
102
RTVSPost2010Prop38
140
0.0
102
RTVSPost2010PropOp38
 70
     1
102
RTVSPost2010Prop39
140
1.0
102
RTVSPost2010PropOp39
 70
     1
102
RTVSPost2010Prop40
 90
        0
102
RTVSPost2010PropOp40
 70
     1
102
RTVSPost2010Prop41ColorIndex
 90
       18
102
RTVSPost2010Prop41ColorRGB
 90
        0
102
RTVSPost2010PropOp41
 70
     1
102
RTVSPost2010Prop42
 90
       50
102
RTVSPost2010PropOp42
 70
     1
102
RTVSPost2010Prop43
 90
        3
102
RTVSPost2010PropOp43
 70
     1
102
RTVSPost2010Prop44ColorIndex
 90
        5
102
RTVSPost2010Prop44ColorRGB
 90
      255
102
RTVSPost2010PropOp44
 70
     1
102
RTVSPost2010Prop45
280
     0
102
RTVSPost2010PropOp45
 70
     1
102
RTVSPost2010Prop46
 90
       50
102
RTVSPost2010PropOp46
 70
     1
102
RTVSPost2010Prop47
 90
       50
102
RTVSPost2010PropOp47
 70
     1
102
RTVSPost2010Prop48
 90
       50
102
RTVSPost2010PropOp48
 70
     1
102
RTVSPost2010Prop49
280
     0
102
RTVSPost2010PropOp49
 70
     1
102
RTVSPost2010Prop50
 90
       50
102
RTVSPost2010PropOp50
 70
     1
102
RTVSPost2010Prop51ColorIndex
 90
      256
102
RTVSPost2010Prop51ColorRGB
 90
-16777216
102
RTVSPost2010PropOp51
 70
     0
102
RTVSPost2010Prop52
140
1.0
102
RTVSPost2010PropOp52
 70
     0
102
RTVSPost2010Prop53
 90
        2
102
RTVSPost2010PropOp53
 70
     1
102
RTVSPost2010Prop54
  1
strokes_ogs.tif
102
RTVSPost2010PropOp54
 70
     1
102
RTVSPost2010Prop55
280
     0
102
RTVSPost2010PropOp55
 70
     1
102
RTVSPost2010Prop56
140
1.0
102
RTVSPost2010PropOp56
 70
     1
102
RTVSPost2010Prop57
140
1.0
102
RTVSPost2010PropOp57
 70
     1
102
RTVSPropertyOp0
 70
     1
102
RTVSPropertyOp1
 70
     1
102
RTVSPropertyOp2
 70
     1
102
RTVSPropertyOp3
 70
     1
102
RTVSPropertyOp4
 70
     1
102
RTVSPropertyOp5
 70
     1
102
RTVSPropertyOp6
 70
     1
102
RTVSPropertyOp7
 70
     1
102
RTVSPropertyOp8
 70
     1
102
RTVSPropertyOp9
 70
     1
102
RTVSPropertyOp10
 70
     1
102
RTVSPropertyOp11
 70
     1
102
RTVSPropertyOp12
 70
     1
102
RTVSPropertyOp13
 70
     1
102
RTVSPropertyOp14
 70
     1
102
RTVSPropertyOp15
 70
     1
102
RTVSPropertyOp16
 70
     1
102
RTVSPropertyOp17
 70
     1
102
RTVSPropertyOp18
 70
     1
102
RTVSPropertyOp19
 70
     1
102
RTVSPropertyOp20
 70
     1
102
RTVSPropertyOp21
 70
     1
102
RTVSPropertyOp22
 70
     1
102
RTVSPropertyOp23
 70
     1
102
RTVSPropertyOp24
 70
     1
102
RTVSPropertyOp25
 70
     1
102
RTVSPropertyOp26
 70
     1
102
RTVSPropertyOp27
 70
     1
102
RTVSPropertyOp28
 70
     1
102
RTVSPropertyOp29
 70
     1
102
RTVSPropertyOp30
 70
     1
102
RTVSPropertyOp31
 70
     1
102
RTVSPropertyOp32
 70
     1
102
RTVSPropertyOp33
 70
     1
102
RTVSPropertyOp34
 70
     1
102
RTVSPropertyOp35
 70
     1
102
RTVSPropertyOp36
 70
     1
102
RTVSPropertyOp37
 70
     1
102
RTVSPropertyOp38
 70
     1
102
RTVSPropertyOp39
 70
     1
102
RTVSPropertyOp40
 70
     1
102
RTVSPropertyOp41
 70
     1
102
RTVSPropertyOp42
 70
     1
102
RTVSPropertyOp43
 70
     1
102
RTVSPropertyOp44
 70
     1
102
RTVSPropertyOp45
 70
     1
102
RTVSPropertyOp46
 70
     1
102
RTVSPropertyOp47
 70
     1
102
RTVSPropertyOp48
 70
     1
102
RTVSPropertyOp49
 70
     1
102
RTVSPropertyOp50
 70
     1
102
RTVSPropertyOp51
 70
     0
102
RTVSPropertyOp52
 70
     0
102
RTVSPropertyOp53
 70
     1
102
RTVSPropertyOp54
 70
     1
102
RTVSPropertyOp55
 70
     1
102
RTVSPropertyOp56
 70
     1
102
RTVSPropertyOp57
 70
     1
102
RTVSPropertyOp58
 70
     1
102
RTVSPropertyOp59
 70
     1
102
RTVSPropertyOp60
 70
     1
102
RTVSPropertyOp61
 70
     1
102
RTVSPropertyOp62
 70
     1
  0
XRECORD
  5
9FAE
102
{ACAD_REACTORS
330
9FAD
102
}
330
9FAD
100
AcDbXrecord
280
     1
102
RTVSPost2010Prop28
280
     0
102
RTVSPost2010PropOp28
 70
     1
102
RTVSPost2010Prop29
280
     1
102
RTVSPost2010PropOp29
 70
     1
102
RTVSPost2010Prop30
280
     1
102
RTVSPost2010PropOp30
 70
     1
102
RTVSPost2010Prop31
280
     0
102
RTVSPost2010PropOp31
 70
     1
102
RTVSPost2010Prop32
280
     0
102
RTVSPost2010PropOp32
 70
     1
102
RTVSPost2010Prop33
280
     0
102
RTVSPost2010PropOp33
 70
     1
102
RTVSPost2010Prop34
280
     0
102
RTVSPost2010PropOp34
 70
     1
102
RTVSPost2010Prop35
280
     0
102
RTVSPost2010PropOp35
 70
     1
102
RTVSPost2010Prop36
280
     0
102
RTVSPost2010PropOp36
 70
     1
102
RTVSPost2010Prop37
 90
       50
102
RTVSPost2010PropOp37
 70
     1
102
RTVSPost2010Prop38
140
0.0
102
RTVSPost2010PropOp38
 70
     1
102
RTVSPost2010Prop39
140
1.0
102
RTVSPost2010PropOp39
 70
     1
102
RTVSPost2010Prop40
 90
        0
102
RTVSPost2010PropOp40
 70
     1
102
RTVSPost2010Prop41ColorIndex
 90
       18
102
RTVSPost2010Prop41ColorRGB
 90
        0
102
RTVSPost2010PropOp41
 70
     1
102
RTVSPost2010Prop42
 90
       50
102
RTVSPost2010PropOp42
 70
     1
102
RTVSPost2010Prop43
 90
        3
102
RTVSPost2010PropOp43
 70
     1
102
RTVSPost2010Prop44ColorIndex
 90
        5
102
RTVSPost2010Prop44ColorRGB
 90
      255
102
RTVSPost2010PropOp44
 70
     1
102
RTVSPost2010Prop45
280
     0
102
RTVSPost2010PropOp45
 70
     1
102
RTVSPost2010Prop46
 90
       50
102
RTVSPost2010PropOp46
 70
     1
102
RTVSPost2010Prop47
 90
       50
102
RTVSPost2010PropOp47
 70
     1
102
RTVSPost2010Prop48
 90
       50
102
RTVSPost2010PropOp48
 70
     1
102
RTVSPost2010Prop49
280
     0
102
RTVSPost2010PropOp49
 70
     1
102
RTVSPost2010Prop50
 90
       50
102
RTVSPost2010PropOp50
 70
     1
102
RTVSPost2010Prop51ColorIndex
 90
      256
102
RTVSPost2010Prop51ColorRGB
 90
-16777216
102
RTVSPost2010PropOp51
 70
     0
102
RTVSPost2010Prop52
140
1.0
102
RTVSPost2010PropOp52
 70
     0
102
RTVSPost2010Prop53
 90
        2
102
RTVSPost2010PropOp53
 70
     1
102
RTVSPost2010Prop54
  1
strokes_ogs.tif
102
RTVSPost2010PropOp54
 70
     1
102
RTVSPost2010Prop55
280
     0
102
RTVSPost2010PropOp55
 70
     1
102
RTVSPost2010Prop56
140
1.0
102
RTVSPost2010PropOp56
 70
     1
102
RTVSPost2010Prop57
140
1.0
102
RTVSPost2010PropOp57
 70
     1
102
RTVSPropertyOp0
 70
     1
102
RTVSPropertyOp1
 70
     1
102
RTVSPropertyOp2
 70
     1
102
RTVSPropertyOp3
 70
     1
102
RTVSPropertyOp4
 70
     1
102
RTVSPropertyOp5
 70
     1
102
RTVSPropertyOp6
 70
     1
102
RTVSPropertyOp7
 70
     1
102
RTVSPropertyOp8
 70
     1
102
RTVSPropertyOp9
 70
     1
102
RTVSPropertyOp10
 70
     1
102
RTVSPropertyOp11
 70
     1
102
RTVSPropertyOp12
 70
     1
102
RTVSPropertyOp13
 70
     1
102
RTVSPropertyOp14
 70
     1
102
RTVSPropertyOp15
 70
     1
102
RTVSPropertyOp16
 70
     1
102
RTVSPropertyOp17
 70
     1
102
RTVSPropertyOp18
 70
     1
102
RTVSPropertyOp19
 70
     1
102
RTVSPropertyOp20
 70
     1
102
RTVSPropertyOp21
 70
     1
102
RTVSPropertyOp22
 70
     1
102
RTVSPropertyOp23
 70
     1
102
RTVSPropertyOp24
 70
     1
102
RTVSPropertyOp25
 70
     1
102
RTVSPropertyOp26
 70
     1
102
RTVSPropertyOp27
 70
     1
102
RTVSPropertyOp28
 70
     1
102
RTVSPropertyOp29
 70
     1
102
RTVSPropertyOp30
 70
     1
102
RTVSPropertyOp31
 70
     1
102
RTVSPropertyOp32
 70
     1
102
RTVSPropertyOp33
 70
     1
102
RTVSPropertyOp34
 70
     1
102
RTVSPropertyOp35
 70
     1
102
RTVSPropertyOp36
 70
     1
102
RTVSPropertyOp37
 70
     1
102
RTVSPropertyOp38
 70
     1
102
RTVSPropertyOp39
 70
     1
102
RTVSPropertyOp40
 70
     1
102
RTVSPropertyOp41
 70
     1
102
RTVSPropertyOp42
 70
     1
102
RTVSPropertyOp43
 70
     1
102
RTVSPropertyOp44
 70
     1
102
RTVSPropertyOp45
 70
     1
102
RTVSPropertyOp46
 70
     1
102
RTVSPropertyOp47
 70
     1
102
RTVSPropertyOp48
 70
     1
102
RTVSPropertyOp49
 70
     1
102
RTVSPropertyOp50
 70
     1
102
RTVSPropertyOp51
 70
     0
102
RTVSPropertyOp52
 70
     0
102
RTVSPropertyOp53
 70
     1
102
RTVSPropertyOp54
 70
     1
102
RTVSPropertyOp55
 70
     1
102
RTVSPropertyOp56
 70
     1
102
RTVSPropertyOp57
 70
     1
102
RTVSPropertyOp58
 70
     1
102
RTVSPropertyOp59
 70
     1
102
RTVSPropertyOp60
 70
     1
102
RTVSPropertyOp61
 70
     1
102
RTVSPropertyOp62
 70
     1
  0
XRECORD
  5
9FA0
102
{ACAD_REACTORS
330
9F9F
102
}
330
9F9F
100
AcDbXrecord
280
     1
102
RTVSPost2010Prop28
280
     0
102
RTVSPost2010PropOp28
 70
     1
102
RTVSPost2010Prop29
280
     1
102
RTVSPost2010PropOp29
 70
     1
102
RTVSPost2010Prop30
280
     1
102
RTVSPost2010PropOp30
 70
     1
102
RTVSPost2010Prop31
280
     0
102
RTVSPost2010PropOp31
 70
     1
102
RTVSPost2010Prop32
280
     0
102
RTVSPost2010PropOp32
 70
     1
102
RTVSPost2010Prop33
280
     0
102
RTVSPost2010PropOp33
 70
     1
102
RTVSPost2010Prop34
280
     0
102
RTVSPost2010PropOp34
 70
     1
102
RTVSPost2010Prop35
280
     0
102
RTVSPost2010PropOp35
 70
     1
102
RTVSPost2010Prop36
280
     0
102
RTVSPost2010PropOp36
 70
     1
102
RTVSPost2010Prop37
 90
       50
102
RTVSPost2010PropOp37
 70
     1
102
RTVSPost2010Prop38
140
0.0
102
RTVSPost2010PropOp38
 70
     1
102
RTVSPost2010Prop39
140
1.0
102
RTVSPost2010PropOp39
 70
     1
102
RTVSPost2010Prop40
 90
        0
102
RTVSPost2010PropOp40
 70
     1
102
RTVSPost2010Prop41ColorIndex
 90
       18
102
RTVSPost2010Prop41ColorRGB
 90
        0
102
RTVSPost2010PropOp41
 70
     1
102
RTVSPost2010Prop42
 90
       50
102
RTVSPost2010PropOp42
 70
     1
102
RTVSPost2010Prop43
 90
        3
102
RTVSPost2010PropOp43
 70
     1
102
RTVSPost2010Prop44ColorIndex
 90
        5
102
RTVSPost2010Prop44ColorRGB
 90
      255
102
RTVSPost2010PropOp44
 70
     1
102
RTVSPost2010Prop45
280
     0
102
RTVSPost2010PropOp45
 70
     1
102
RTVSPost2010Prop46
 90
       50
102
RTVSPost2010PropOp46
 70
     1
102
RTVSPost2010Prop47
 90
       50
102
RTVSPost2010PropOp47
 70
     1
102
RTVSPost2010Prop48
 90
       50
102
RTVSPost2010PropOp48
 70
     1
102
RTVSPost2010Prop49
280
     0
102
RTVSPost2010PropOp49
 70
     1
102
RTVSPost2010Prop50
 90
       50
102
RTVSPost2010PropOp50
 70
     1
102
RTVSPost2010Prop51ColorIndex
 90
      256
102
RTVSPost2010Prop51ColorRGB
 90
-16777216
102
RTVSPost2010PropOp51
 70
     0
102
RTVSPost2010Prop52
140
1.0
102
RTVSPost2010PropOp52
 70
     0
102
RTVSPost2010Prop53
 90
        2
102
RTVSPost2010PropOp53
 70
     1
102
RTVSPost2010Prop54
  1
strokes_ogs.tif
102
RTVSPost2010PropOp54
 70
     1
102
RTVSPost2010Prop55
280
     0
102
RTVSPost2010PropOp55
 70
     1
102
RTVSPost2010Prop56
140
1.0
102
RTVSPost2010PropOp56
 70
     1
102
RTVSPost2010Prop57
140
1.0
102
RTVSPost2010PropOp57
 70
     1
102
RTVSPropertyOp0
 70
     1
102
RTVSPropertyOp1
 70
     1
102
RTVSPropertyOp2
 70
     1
102
RTVSPropertyOp3
 70
     1
102
RTVSPropertyOp4
 70
     1
102
RTVSPropertyOp5
 70
     1
102
RTVSPropertyOp6
 70
     1
102
RTVSPropertyOp7
 70
     1
102
RTVSPropertyOp8
 70
     1
102
RTVSPropertyOp9
 70
     1
102
RTVSPropertyOp10
 70
     1
102
RTVSPropertyOp11
 70
     1
102
RTVSPropertyOp12
 70
     1
102
RTVSPropertyOp13
 70
     1
102
RTVSPropertyOp14
 70
     1
102
RTVSPropertyOp15
 70
     1
102
RTVSPropertyOp16
 70
     1
102
RTVSPropertyOp17
 70
     1
102
RTVSPropertyOp18
 70
     1
102
RTVSPropertyOp19
 70
     1
102
RTVSPropertyOp20
 70
     1
102
RTVSPropertyOp21
 70
     1
102
RTVSPropertyOp22
 70
     1
102
RTVSPropertyOp23
 70
     1
102
RTVSPropertyOp24
 70
     1
102
RTVSPropertyOp25
 70
     1
102
RTVSPropertyOp26
 70
     1
102
RTVSPropertyOp27
 70
     1
102
RTVSPropertyOp28
 70
     1
102
RTVSPropertyOp29
 70
     1
102
RTVSPropertyOp30
 70
     1
102
RTVSPropertyOp31
 70
     1
102
RTVSPropertyOp32
 70
     1
102
RTVSPropertyOp33
 70
     1
102
RTVSPropertyOp34
 70
     1
102
RTVSPropertyOp35
 70
     1
102
RTVSPropertyOp36
 70
     1
102
RTVSPropertyOp37
 70
     1
102
RTVSPropertyOp38
 70
     1
102
RTVSPropertyOp39
 70
     1
102
RTVSPropertyOp40
 70
     1
102
RTVSPropertyOp41
 70
     1
102
RTVSPropertyOp42
 70
     1
102
RTVSPropertyOp43
 70
     1
102
RTVSPropertyOp44
 70
     1
102
RTVSPropertyOp45
 70
     1
102
RTVSPropertyOp46
 70
     1
102
RTVSPropertyOp47
 70
     1
102
RTVSPropertyOp48
 70
     1
102
RTVSPropertyOp49
 70
     1
102
RTVSPropertyOp50
 70
     1
102
RTVSPropertyOp51
 70
     0
102
RTVSPropertyOp52
 70
     0
102
RTVSPropertyOp53
 70
     1
102
RTVSPropertyOp54
 70
     1
102
RTVSPropertyOp55
 70
     1
102
RTVSPropertyOp56
 70
     1
102
RTVSPropertyOp57
 70
     1
102
RTVSPropertyOp58
 70
     1
102
RTVSPropertyOp59
 70
     1
102
RTVSPropertyOp60
 70
     1
102
RTVSPropertyOp61
 70
     1
102
RTVSPropertyOp62
 70
     1
  0
XRECORD
  5
9FA4
102
{ACAD_REACTORS
330
9FA3
102
}
330
9FA3
100
AcDbXrecord
280
     1
102
RTVSPost2010Prop28
280
     0
102
RTVSPost2010PropOp28
 70
     1
102
RTVSPost2010Prop29
280
     1
102
RTVSPost2010PropOp29
 70
     1
102
RTVSPost2010Prop30
280
     1
102
RTVSPost2010PropOp30
 70
     1
102
RTVSPost2010Prop31
280
     0
102
RTVSPost2010PropOp31
 70
     1
102
RTVSPost2010Prop32
280
     0
102
RTVSPost2010PropOp32
 70
     1
102
RTVSPost2010Prop33
280
     0
102
RTVSPost2010PropOp33
 70
     1
102
RTVSPost2010Prop34
280
     0
102
RTVSPost2010PropOp34
 70
     1
102
RTVSPost2010Prop35
280
     0
102
RTVSPost2010PropOp35
 70
     1
102
RTVSPost2010Prop36
280
     0
102
RTVSPost2010PropOp36
 70
     1
102
RTVSPost2010Prop37
 90
       50
102
RTVSPost2010PropOp37
 70
     1
102
RTVSPost2010Prop38
140
0.0
102
RTVSPost2010PropOp38
 70
     1
102
RTVSPost2010Prop39
140
1.0
102
RTVSPost2010PropOp39
 70
     1
102
RTVSPost2010Prop40
 90
        0
102
RTVSPost2010PropOp40
 70
     1
102
RTVSPost2010Prop41ColorIndex
 90
       18
102
RTVSPost2010Prop41ColorRGB
 90
        0
102
RTVSPost2010PropOp41
 70
     1
102
RTVSPost2010Prop42
 90
       50
102
RTVSPost2010PropOp42
 70
     1
102
RTVSPost2010Prop43
 90
        3
102
RTVSPost2010PropOp43
 70
     1
102
RTVSPost2010Prop44ColorIndex
 90
        5
102
RTVSPost2010Prop44ColorRGB
 90
      255
102
RTVSPost2010PropOp44
 70
     1
102
RTVSPost2010Prop45
280
     0
102
RTVSPost2010PropOp45
 70
     1
102
RTVSPost2010Prop46
 90
       50
102
RTVSPost2010PropOp46
 70
     1
102
RTVSPost2010Prop47
 90
       50
102
RTVSPost2010PropOp47
 70
     1
102
RTVSPost2010Prop48
 90
       50
102
RTVSPost2010PropOp48
 70
     1
102
RTVSPost2010Prop49
280
     0
102
RTVSPost2010PropOp49
 70
     1
102
RTVSPost2010Prop50
 90
       50
102
RTVSPost2010PropOp50
 70
     1
102
RTVSPost2010Prop51ColorIndex
 90
      256
102
RTVSPost2010Prop51ColorRGB
 90
-16777216
102
RTVSPost2010PropOp51
 70
     0
102
RTVSPost2010Prop52
140
1.0
102
RTVSPost2010PropOp52
 70
     0
102
RTVSPost2010Prop53
 90
        2
102
RTVSPost2010PropOp53
 70
     1
102
RTVSPost2010Prop54
  1
strokes_ogs.tif
102
RTVSPost2010PropOp54
 70
     1
102
RTVSPost2010Prop55
280
     0
102
RTVSPost2010PropOp55
 70
     1
102
RTVSPost2010Prop56
140
1.0
102
RTVSPost2010PropOp56
 70
     1
102
RTVSPost2010Prop57
140
1.0
102
RTVSPost2010PropOp57
 70
     1
102
RTVSPropertyOp0
 70
     1
102
RTVSPropertyOp1
 70
     1
102
RTVSPropertyOp2
 70
     1
102
RTVSPropertyOp3
 70
     1
102
RTVSPropertyOp4
 70
     1
102
RTVSPropertyOp5
 70
     1
102
RTVSPropertyOp6
 70
     1
102
RTVSPropertyOp7
 70
     1
102
RTVSPropertyOp8
 70
     1
102
RTVSPropertyOp9
 70
     1
102
RTVSPropertyOp10
 70
     1
102
RTVSPropertyOp11
 70
     1
102
RTVSPropertyOp12
 70
     1
102
RTVSPropertyOp13
 70
     1
102
RTVSPropertyOp14
 70
     1
102
RTVSPropertyOp15
 70
     1
102
RTVSPropertyOp16
 70
     1
102
RTVSPropertyOp17
 70
     1
102
RTVSPropertyOp18
 70
     1
102
RTVSPropertyOp19
 70
     1
102
RTVSPropertyOp20
 70
     1
102
RTVSPropertyOp21
 70
     1
102
RTVSPropertyOp22
 70
     1
102
RTVSPropertyOp23
 70
     1
102
RTVSPropertyOp24
 70
     1
102
RTVSPropertyOp25
 70
     1
102
RTVSPropertyOp26
 70
     1
102
RTVSPropertyOp27
 70
     1
102
RTVSPropertyOp28
 70
     1
102
RTVSPropertyOp29
 70
     1
102
RTVSPropertyOp30
 70
     1
102
RTVSPropertyOp31
 70
     1
102
RTVSPropertyOp32
 70
     1
102
RTVSPropertyOp33
 70
     1
102
RTVSPropertyOp34
 70
     1
102
RTVSPropertyOp35
 70
     1
102
RTVSPropertyOp36
 70
     1
102
RTVSPropertyOp37
 70
     1
102
RTVSPropertyOp38
 70
     1
102
RTVSPropertyOp39
 70
     1
102
RTVSPropertyOp40
 70
     1
102
RTVSPropertyOp41
 70
     1
102
RTVSPropertyOp42
 70
     1
102
RTVSPropertyOp43
 70
     1
102
RTVSPropertyOp44
 70
     1
102
RTVSPropertyOp45
 70
     1
102
RTVSPropertyOp46
 70
     1
102
RTVSPropertyOp47
 70
     1
102
RTVSPropertyOp48
 70
     1
102
RTVSPropertyOp49
 70
     1
102
RTVSPropertyOp50
 70
     1
102
RTVSPropertyOp51
 70
     0
102
RTVSPropertyOp52
 70
     0
102
RTVSPropertyOp53
 70
     1
102
RTVSPropertyOp54
 70
     1
102
RTVSPropertyOp55
 70
     1
102
RTVSPropertyOp56
 70
     1
102
RTVSPropertyOp57
 70
     1
102
RTVSPropertyOp58
 70
     1
102
RTVSPropertyOp59
 70
     1
102
RTVSPropertyOp60
 70
     1
102
RTVSPropertyOp61
 70
     1
102
RTVSPropertyOp62
 70
     1
  0
XRECORD
  5
9FBE
102
{ACAD_REACTORS
330
9FBD
102
}
330
9FBD
100
AcDbXrecord
280
     1
102
RTVSPost2010Prop28
280
     0
102
RTVSPost2010PropOp28
 70
     1
102
RTVSPost2010Prop29
280
     1
102
RTVSPost2010PropOp29
 70
     1
102
RTVSPost2010Prop30
280
     1
102
RTVSPost2010PropOp30
 70
     1
102
RTVSPost2010Prop31
280
     0
102
RTVSPost2010PropOp31
 70
     1
102
RTVSPost2010Prop32
280
     0
102
RTVSPost2010PropOp32
 70
     1
102
RTVSPost2010Prop33
280
     0
102
RTVSPost2010PropOp33
 70
     1
102
RTVSPost2010Prop34
280
     0
102
RTVSPost2010PropOp34
 70
     1
102
RTVSPost2010Prop35
280
     0
102
RTVSPost2010PropOp35
 70
     1
102
RTVSPost2010Prop36
280
     0
102
RTVSPost2010PropOp36
 70
     1
102
RTVSPost2010Prop37
 90
       50
102
RTVSPost2010PropOp37
 70
     0
102
RTVSPost2010Prop38
140
0.0
102
RTVSPost2010PropOp38
 70
     0
102
RTVSPost2010Prop39
140
1.0
102
RTVSPost2010PropOp39
 70
     0
102
RTVSPost2010Prop40
 90
        0
102
RTVSPost2010PropOp40
 70
     0
102
RTVSPost2010Prop41ColorIndex
 90
       18
102
RTVSPost2010Prop41ColorRGB
 90
        0
102
RTVSPost2010PropOp41
 70
     0
102
RTVSPost2010Prop42
 90
       50
102
RTVSPost2010PropOp42
 70
     0
102
RTVSPost2010Prop43
 90
        3
102
RTVSPost2010PropOp43
 70
     0
102
RTVSPost2010Prop44ColorIndex
 90
        5
102
RTVSPost2010Prop44ColorRGB
 90
      255
102
RTVSPost2010PropOp44
 70
     0
102
RTVSPost2010Prop45
280
     0
102
RTVSPost2010PropOp45
 70
     1
102
RTVSPost2010Prop46
 90
       50
102
RTVSPost2010PropOp46
 70
     0
102
RTVSPost2010Prop47
 90
       50
102
RTVSPost2010PropOp47
 70
     0
102
RTVSPost2010Prop48
 90
       50
102
RTVSPost2010PropOp48
 70
     0
102
RTVSPost2010Prop49
280
     0
102
RTVSPost2010PropOp49
 70
     1
102
RTVSPost2010Prop50
 90
       50
102
RTVSPost2010PropOp50
 70
     0
102
RTVSPost2010Prop51ColorIndex
 90
      256
102
RTVSPost2010Prop51ColorRGB
 90
-16777216
102
RTVSPost2010PropOp51
 70
     0
102
RTVSPost2010Prop52
140
1.0
102
RTVSPost2010PropOp52
 70
     0
102
RTVSPost2010Prop53
 90
        2
102
RTVSPost2010PropOp53
 70
     0
102
RTVSPost2010Prop54
  1
strokes_ogs.tif
102
RTVSPost2010PropOp54
 70
     0
102
RTVSPost2010Prop55
280
     0
102
RTVSPost2010PropOp55
 70
     1
102
RTVSPost2010Prop56
140
1.0
102
RTVSPost2010PropOp56
 70
     0
102
RTVSPost2010Prop57
140
1.0
102
RTVSPost2010PropOp57
 70
     0
102
RTVSPropertyOp0
 70
     0
102
RTVSPropertyOp1
 70
     0
102
RTVSPropertyOp2
 70
     0
102
RTVSPropertyOp3
 70
     0
102
RTVSPropertyOp4
 70
     0
102
RTVSPropertyOp5
 70
     0
102
RTVSPropertyOp6
 70
     0
102
RTVSPropertyOp7
 70
     0
102
RTVSPropertyOp8
 70
     0
102
RTVSPropertyOp9
 70
     0
102
RTVSPropertyOp10
 70
     0
102
RTVSPropertyOp11
 70
     0
102
RTVSPropertyOp12
 70
     0
102
RTVSPropertyOp13
 70
     0
102
RTVSPropertyOp14
 70
     2
102
RTVSPropertyOp15
 70
     0
102
RTVSPropertyOp16
 70
     0
102
RTVSPropertyOp17
 70
     0
102
RTVSPropertyOp18
 70
     0
102
RTVSPropertyOp19
 70
     0
102
RTVSPropertyOp20
 70
     0
102
RTVSPropertyOp21
 70
     0
102
RTVSPropertyOp22
 70
     0
102
RTVSPropertyOp23
 70
     0
102
RTVSPropertyOp24
 70
     0
102
RTVSPropertyOp25
 70
     0
102
RTVSPropertyOp26
 70
     0
102
RTVSPropertyOp27
 70
     0
102
RTVSPropertyOp28
 70
     1
102
RTVSPropertyOp29
 70
     1
102
RTVSPropertyOp30
 70
     1
102
RTVSPropertyOp31
 70
     1
102
RTVSPropertyOp32
 70
     1
102
RTVSPropertyOp33
 70
     1
102
RTVSPropertyOp34
 70
     1
102
RTVSPropertyOp35
 70
     1
102
RTVSPropertyOp36
 70
     1
102
RTVSPropertyOp37
 70
     0
102
RTVSPropertyOp38
 70
     0
102
RTVSPropertyOp39
 70
     0
102
RTVSPropertyOp40
 70
     0
102
RTVSPropertyOp41
 70
     0
102
RTVSPropertyOp42
 70
     0
102
RTVSPropertyOp43
 70
     0
102
RTVSPropertyOp44
 70
     0
102
RTVSPropertyOp45
 70
     1
102
RTVSPropertyOp46
 70
     0
102
RTVSPropertyOp47
 70
     0
102
RTVSPropertyOp48
 70
     0
102
RTVSPropertyOp49
 70
     1
102
RTVSPropertyOp50
 70
     0
102
RTVSPropertyOp51
 70
     0
102
RTVSPropertyOp52
 70
     0
102
RTVSPropertyOp53
 70
     0
102
RTVSPropertyOp54
 70
     0
102
RTVSPropertyOp55
 70
     1
102
RTVSPropertyOp56
 70
     0
102
RTVSPropertyOp57
 70
     0
102
RTVSPropertyOp58
 70
     0
102
RTVSPropertyOp59
 70
     0
102
RTVSPropertyOp60
 70
     0
102
RTVSPropertyOp61
 70
     0
102
RTVSPropertyOp62
 70
     0
  0
XRECORD
  5
9FAC
102
{ACAD_REACTORS
330
9FAB
102
}
330
9FAB
100
AcDbXrecord
280
     1
102
RTVSPost2010Prop28
280
     0
102
RTVSPost2010PropOp28
 70
     1
102
RTVSPost2010Prop29
280
     1
102
RTVSPost2010PropOp29
 70
     1
102
RTVSPost2010Prop30
280
     1
102
RTVSPost2010PropOp30
 70
     1
102
RTVSPost2010Prop31
280
     0
102
RTVSPost2010PropOp31
 70
     1
102
RTVSPost2010Prop32
280
     0
102
RTVSPost2010PropOp32
 70
     1
102
RTVSPost2010Prop33
280
     0
102
RTVSPost2010PropOp33
 70
     1
102
RTVSPost2010Prop34
280
     0
102
RTVSPost2010PropOp34
 70
     1
102
RTVSPost2010Prop35
280
     0
102
RTVSPost2010PropOp35
 70
     1
102
RTVSPost2010Prop36
280
     0
102
RTVSPost2010PropOp36
 70
     1
102
RTVSPost2010Prop37
 90
       50
102
RTVSPost2010PropOp37
 70
     1
102
RTVSPost2010Prop38
140
0.0
102
RTVSPost2010PropOp38
 70
     1
102
RTVSPost2010Prop39
140
1.0
102
RTVSPost2010PropOp39
 70
     1
102
RTVSPost2010Prop40
 90
        0
102
RTVSPost2010PropOp40
 70
     1
102
RTVSPost2010Prop41ColorIndex
 90
       18
102
RTVSPost2010Prop41ColorRGB
 90
        0
102
RTVSPost2010PropOp41
 70
     1
102
RTVSPost2010Prop42
 90
       50
102
RTVSPost2010PropOp42
 70
     1
102
RTVSPost2010Prop43
 90
        3
102
RTVSPost2010PropOp43
 70
     1
102
RTVSPost2010Prop44ColorIndex
 90
        5
102
RTVSPost2010Prop44ColorRGB
 90
      255
102
RTVSPost2010PropOp44
 70
     1
102
RTVSPost2010Prop45
280
     0
102
RTVSPost2010PropOp45
 70
     1
102
RTVSPost2010Prop46
 90
       50
102
RTVSPost2010PropOp46
 70
     1
102
RTVSPost2010Prop47
 90
       50
102
RTVSPost2010PropOp47
 70
     1
102
RTVSPost2010Prop48
 90
       50
102
RTVSPost2010PropOp48
 70
     1
102
RTVSPost2010Prop49
280
     0
102
RTVSPost2010PropOp49
 70
     1
102
RTVSPost2010Prop50
 90
       50
102
RTVSPost2010PropOp50
 70
     1
102
RTVSPost2010Prop51ColorIndex
 90
      256
102
RTVSPost2010Prop51ColorRGB
 90
-16777216
102
RTVSPost2010PropOp51
 70
     0
102
RTVSPost2010Prop52
140
1.0
102
RTVSPost2010PropOp52
 70
     0
102
RTVSPost2010Prop53
 90
        2
102
RTVSPost2010PropOp53
 70
     1
102
RTVSPost2010Prop54
  1
strokes_ogs.tif
102
RTVSPost2010PropOp54
 70
     1
102
RTVSPost2010Prop55
280
     0
102
RTVSPost2010PropOp55
 70
     1
102
RTVSPost2010Prop56
140
1.0
102
RTVSPost2010PropOp56
 70
     1
102
RTVSPost2010Prop57
140
1.0
102
RTVSPost2010PropOp57
 70
     1
102
RTVSPropertyOp0
 70
     1
102
RTVSPropertyOp1
 70
     1
102
RTVSPropertyOp2
 70
     1
102
RTVSPropertyOp3
 70
     1
102
RTVSPropertyOp4
 70
     1
102
RTVSPropertyOp5
 70
     1
102
RTVSPropertyOp6
 70
     1
102
RTVSPropertyOp7
 70
     1
102
RTVSPropertyOp8
 70
     1
102
RTVSPropertyOp9
 70
     1
102
RTVSPropertyOp10
 70
     1
102
RTVSPropertyOp11
 70
     1
102
RTVSPropertyOp12
 70
     1
102
RTVSPropertyOp13
 70
     1
102
RTVSPropertyOp14
 70
     1
102
RTVSPropertyOp15
 70
     1
102
RTVSPropertyOp16
 70
     1
102
RTVSPropertyOp17
 70
     1
102
RTVSPropertyOp18
 70
     1
102
RTVSPropertyOp19
 70
     1
102
RTVSPropertyOp20
 70
     1
102
RTVSPropertyOp21
 70
     1
102
RTVSPropertyOp22
 70
     1
102
RTVSPropertyOp23
 70
     1
102
RTVSPropertyOp24
 70
     1
102
RTVSPropertyOp25
 70
     1
102
RTVSPropertyOp26
 70
     1
102
RTVSPropertyOp27
 70
     1
102
RTVSPropertyOp28
 70
     1
102
RTVSPropertyOp29
 70
     1
102
RTVSPropertyOp30
 70
     1
102
RTVSPropertyOp31
 70
     1
102
RTVSPropertyOp32
 70
     1
102
RTVSPropertyOp33
 70
     1
102
RTVSPropertyOp34
 70
     1
102
RTVSPropertyOp35
 70
     1
102
RTVSPropertyOp36
 70
     1
102
RTVSPropertyOp37
 70
     1
102
RTVSPropertyOp38
 70
     1
102
RTVSPropertyOp39
 70
     1
102
RTVSPropertyOp40
 70
     1
102
RTVSPropertyOp41
 70
     1
102
RTVSPropertyOp42
 70
     1
102
RTVSPropertyOp43
 70
     1
102
RTVSPropertyOp44
 70
     1
102
RTVSPropertyOp45
 70
     1
102
RTVSPropertyOp46
 70
     1
102
RTVSPropertyOp47
 70
     1
102
RTVSPropertyOp48
 70
     1
102
RTVSPropertyOp49
 70
     1
102
RTVSPropertyOp50
 70
     1
102
RTVSPropertyOp51
 70
     0
102
RTVSPropertyOp52
 70
     0
102
RTVSPropertyOp53
 70
     1
102
RTVSPropertyOp54
 70
     1
102
RTVSPropertyOp55
 70
     1
102
RTVSPropertyOp56
 70
     1
102
RTVSPropertyOp57
 70
     1
102
RTVSPropertyOp58
 70
     1
102
RTVSPropertyOp59
 70
     1
102
RTVSPropertyOp60
 70
     1
102
RTVSPropertyOp61
 70
     1
102
RTVSPropertyOp62
 70
     1
  0
XRECORD
  5
9F90
102
{ACAD_REACTORS
330
9F8F
102
}
330
9F8F
100
AcDbXrecord
280
     1
102
RTVSPost2010Prop28
280
     0
102
RTVSPost2010PropOp28
 70
     1
102
RTVSPost2010Prop29
280
     1
102
RTVSPost2010PropOp29
 70
     1
102
RTVSPost2010Prop30
280
     1
102
RTVSPost2010PropOp30
 70
     1
102
RTVSPost2010Prop31
280
     0
102
RTVSPost2010PropOp31
 70
     1
102
RTVSPost2010Prop32
280
     0
102
RTVSPost2010PropOp32
 70
     1
102
RTVSPost2010Prop33
280
     0
102
RTVSPost2010PropOp33
 70
     1
102
RTVSPost2010Prop34
280
     0
102
RTVSPost2010PropOp34
 70
     1
102
RTVSPost2010Prop35
280
     0
102
RTVSPost2010PropOp35
 70
     1
102
RTVSPost2010Prop36
280
     0
102
RTVSPost2010PropOp36
 70
     1
102
RTVSPost2010Prop37
 90
       50
102
RTVSPost2010PropOp37
 70
     1
102
RTVSPost2010Prop38
140
0.0
102
RTVSPost2010PropOp38
 70
     1
102
RTVSPost2010Prop39
140
1.0
102
RTVSPost2010PropOp39
 70
     1
102
RTVSPost2010Prop40
 90
        0
102
RTVSPost2010PropOp40
 70
     1
102
RTVSPost2010Prop41ColorIndex
 90
       18
102
RTVSPost2010Prop41ColorRGB
 90
        0
102
RTVSPost2010PropOp41
 70
     1
102
RTVSPost2010Prop42
 90
       50
102
RTVSPost2010PropOp42
 70
     1
102
RTVSPost2010Prop43
 90
        3
102
RTVSPost2010PropOp43
 70
     1
102
RTVSPost2010Prop44ColorIndex
 90
        5
102
RTVSPost2010Prop44ColorRGB
 90
      255
102
RTVSPost2010PropOp44
 70
     1
102
RTVSPost2010Prop45
280
     0
102
RTVSPost2010PropOp45
 70
     1
102
RTVSPost2010Prop46
 90
       50
102
RTVSPost2010PropOp46
 70
     1
102
RTVSPost2010Prop47
 90
       50
102
RTVSPost2010PropOp47
 70
     1
102
RTVSPost2010Prop48
 90
       50
102
RTVSPost2010PropOp48
 70
     1
102
RTVSPost2010Prop49
280
     0
102
RTVSPost2010PropOp49
 70
     1
102
RTVSPost2010Prop50
 90
       50
102
RTVSPost2010PropOp50
 70
     1
102
RTVSPost2010Prop51ColorIndex
 90
      256
102
RTVSPost2010Prop51ColorRGB
 90
-16777216
102
RTVSPost2010PropOp51
 70
     0
102
RTVSPost2010Prop52
140
1.0
102
RTVSPost2010PropOp52
 70
     0
102
RTVSPost2010Prop53
 90
        2
102
RTVSPost2010PropOp53
 70
     1
102
RTVSPost2010Prop54
  1
strokes_ogs.tif
102
RTVSPost2010PropOp54
 70
     1
102
RTVSPost2010Prop55
280
     0
102
RTVSPost2010PropOp55
 70
     1
102
RTVSPost2010Prop56
140
1.0
102
RTVSPost2010PropOp56
 70
     1
102
RTVSPost2010Prop57
140
1.0
102
RTVSPost2010PropOp57
 70
     1
102
RTVSPropertyOp0
 70
     1
102
RTVSPropertyOp1
 70
     1
102
RTVSPropertyOp2
 70
     1
102
RTVSPropertyOp3
 70
     1
102
RTVSPropertyOp4
 70
     1
102
RTVSPropertyOp5
 70
     1
102
RTVSPropertyOp6
 70
     1
102
RTVSPropertyOp7
 70
     1
102
RTVSPropertyOp8
 70
     1
102
RTVSPropertyOp9
 70
     1
102
RTVSPropertyOp10
 70
     1
102
RTVSPropertyOp11
 70
     1
102
RTVSPropertyOp12
 70
     1
102
RTVSPropertyOp13
 70
     1
102
RTVSPropertyOp14
 70
     1
102
RTVSPropertyOp15
 70
     1
102
RTVSPropertyOp16
 70
     1
102
RTVSPropertyOp17
 70
     1
102
RTVSPropertyOp18
 70
     1
102
RTVSPropertyOp19
 70
     1
102
RTVSPropertyOp20
 70
     1
102
RTVSPropertyOp21
 70
     1
102
RTVSPropertyOp22
 70
     1
102
RTVSPropertyOp23
 70
     1
102
RTVSPropertyOp24
 70
     1
102
RTVSPropertyOp25
 70
     1
102
RTVSPropertyOp26
 70
     1
102
RTVSPropertyOp27
 70
     1
102
RTVSPropertyOp28
 70
     1
102
RTVSPropertyOp29
 70
     1
102
RTVSPropertyOp30
 70
     1
102
RTVSPropertyOp31
 70
     1
102
RTVSPropertyOp32
 70
     1
102
RTVSPropertyOp33
 70
     1
102
RTVSPropertyOp34
 70
     1
102
RTVSPropertyOp35
 70
     1
102
RTVSPropertyOp36
 70
     1
102
RTVSPropertyOp37
 70
     1
102
RTVSPropertyOp38
 70
     1
102
RTVSPropertyOp39
 70
     1
102
RTVSPropertyOp40
 70
     1
102
RTVSPropertyOp41
 70
     1
102
RTVSPropertyOp42
 70
     1
102
RTVSPropertyOp43
 70
     1
102
RTVSPropertyOp44
 70
     1
102
RTVSPropertyOp45
 70
     1
102
RTVSPropertyOp46
 70
     1
102
RTVSPropertyOp47
 70
     1
102
RTVSPropertyOp48
 70
     1
102
RTVSPropertyOp49
 70
     1
102
RTVSPropertyOp50
 70
     1
102
RTVSPropertyOp51
 70
     0
102
RTVSPropertyOp52
 70
     0
102
RTVSPropertyOp53
 70
     1
102
RTVSPropertyOp54
 70
     1
102
RTVSPropertyOp55
 70
     1
102
RTVSPropertyOp56
 70
     1
102
RTVSPropertyOp57
 70
     1
102
RTVSPropertyOp58
 70
     1
102
RTVSPropertyOp59
 70
     1
102
RTVSPropertyOp60
 70
     1
102
RTVSPropertyOp61
 70
     1
102
RTVSPropertyOp62
 70
     1
  0
XRECORD
  5
9F92
102
{ACAD_REACTORS
330
9F91
102
}
330
9F91
100
AcDbXrecord
280
     1
102
RTVSPost2010Prop28
280
     0
102
RTVSPost2010PropOp28
 70
     1
102
RTVSPost2010Prop29
280
     1
102
RTVSPost2010PropOp29
 70
     1
102
RTVSPost2010Prop30
280
     1
102
RTVSPost2010PropOp30
 70
     1
102
RTVSPost2010Prop31
280
     0
102
RTVSPost2010PropOp31
 70
     1
102
RTVSPost2010Prop32
280
     0
102
RTVSPost2010PropOp32
 70
     1
102
RTVSPost2010Prop33
280
     0
102
RTVSPost2010PropOp33
 70
     1
102
RTVSPost2010Prop34
280
     0
102
RTVSPost2010PropOp34
 70
     1
102
RTVSPost2010Prop35
280
     0
102
RTVSPost2010PropOp35
 70
     1
102
RTVSPost2010Prop36
280
     0
102
RTVSPost2010PropOp36
 70
     1
102
RTVSPost2010Prop37
 90
       50
102
RTVSPost2010PropOp37
 70
     1
102
RTVSPost2010Prop38
140
0.0
102
RTVSPost2010PropOp38
 70
     1
102
RTVSPost2010Prop39
140
1.0
102
RTVSPost2010PropOp39
 70
     1
102
RTVSPost2010Prop40
 90
        0
102
RTVSPost2010PropOp40
 70
     1
102
RTVSPost2010Prop41ColorIndex
 90
       18
102
RTVSPost2010Prop41ColorRGB
 90
        0
102
RTVSPost2010PropOp41
 70
     1
102
RTVSPost2010Prop42
 90
       50
102
RTVSPost2010PropOp42
 70
     1
102
RTVSPost2010Prop43
 90
        3
102
RTVSPost2010PropOp43
 70
     1
102
RTVSPost2010Prop44ColorIndex
 90
        5
102
RTVSPost2010Prop44ColorRGB
 90
      255
102
RTVSPost2010PropOp44
 70
     1
102
RTVSPost2010Prop45
280
     0
102
RTVSPost2010PropOp45
 70
     1
102
RTVSPost2010Prop46
 90
       50
102
RTVSPost2010PropOp46
 70
     1
102
RTVSPost2010Prop47
 90
       50
102
RTVSPost2010PropOp47
 70
     1
102
RTVSPost2010Prop48
 90
       50
102
RTVSPost2010PropOp48
 70
     1
102
RTVSPost2010Prop49
280
     0
102
RTVSPost2010PropOp49
 70
     1
102
RTVSPost2010Prop50
 90
       50
102
RTVSPost2010PropOp50
 70
     1
102
RTVSPost2010Prop51ColorIndex
 90
      256
102
RTVSPost2010Prop51ColorRGB
 90
-16777216
102
RTVSPost2010PropOp51
 70
     0
102
RTVSPost2010Prop52
140
1.0
102
RTVSPost2010PropOp52
 70
     0
102
RTVSPost2010Prop53
 90
        2
102
RTVSPost2010PropOp53
 70
     1
102
RTVSPost2010Prop54
  1
strokes_ogs.tif
102
RTVSPost2010PropOp54
 70
     1
102
RTVSPost2010Prop55
280
     0
102
RTVSPost2010PropOp55
 70
     1
102
RTVSPost2010Prop56
140
1.0
102
RTVSPost2010PropOp56
 70
     1
102
RTVSPost2010Prop57
140
1.0
102
RTVSPost2010PropOp57
 70
     1
102
RTVSPropertyOp0
 70
     1
102
RTVSPropertyOp1
 70
     1
102
RTVSPropertyOp2
 70
     1
102
RTVSPropertyOp3
 70
     1
102
RTVSPropertyOp4
 70
     1
102
RTVSPropertyOp5
 70
     1
102
RTVSPropertyOp6
 70
     1
102
RTVSPropertyOp7
 70
     1
102
RTVSPropertyOp8
 70
     1
102
RTVSPropertyOp9
 70
     1
102
RTVSPropertyOp10
 70
     1
102
RTVSPropertyOp11
 70
     1
102
RTVSPropertyOp12
 70
     1
102
RTVSPropertyOp13
 70
     1
102
RTVSPropertyOp14
 70
     1
102
RTVSPropertyOp15
 70
     1
102
RTVSPropertyOp16
 70
     1
102
RTVSPropertyOp17
 70
     1
102
RTVSPropertyOp18
 70
     1
102
RTVSPropertyOp19
 70
     1
102
RTVSPropertyOp20
 70
     1
102
RTVSPropertyOp21
 70
     1
102
RTVSPropertyOp22
 70
     1
102
RTVSPropertyOp23
 70
     1
102
RTVSPropertyOp24
 70
     1
102
RTVSPropertyOp25
 70
     1
102
RTVSPropertyOp26
 70
     1
102
RTVSPropertyOp27
 70
     1
102
RTVSPropertyOp28
 70
     1
102
RTVSPropertyOp29
 70
     1
102
RTVSPropertyOp30
 70
     1
102
RTVSPropertyOp31
 70
     1
102
RTVSPropertyOp32
 70
     1
102
RTVSPropertyOp33
 70
     1
102
RTVSPropertyOp34
 70
     1
102
RTVSPropertyOp35
 70
     1
102
RTVSPropertyOp36
 70
     1
102
RTVSPropertyOp37
 70
     1
102
RTVSPropertyOp38
 70
     1
102
RTVSPropertyOp39
 70
     1
102
RTVSPropertyOp40
 70
     1
102
RTVSPropertyOp41
 70
     1
102
RTVSPropertyOp42
 70
     1
102
RTVSPropertyOp43
 70
     1
102
RTVSPropertyOp44
 70
     1
102
RTVSPropertyOp45
 70
     1
102
RTVSPropertyOp46
 70
     1
102
RTVSPropertyOp47
 70
     1
102
RTVSPropertyOp48
 70
     1
102
RTVSPropertyOp49
 70
     1
102
RTVSPropertyOp50
 70
     1
102
RTVSPropertyOp51
 70
     0
102
RTVSPropertyOp52
 70
     0
102
RTVSPropertyOp53
 70
     1
102
RTVSPropertyOp54
 70
     1
102
RTVSPropertyOp55
 70
     1
102
RTVSPropertyOp56
 70
     1
102
RTVSPropertyOp57
 70
     1
102
RTVSPropertyOp58
 70
     1
102
RTVSPropertyOp59
 70
     1
102
RTVSPropertyOp60
 70
     1
102
RTVSPropertyOp61
 70
     1
102
RTVSPropertyOp62
 70
     1
  0
XRECORD
  5
9F94
102
{ACAD_REACTORS
330
9F93
102
}
330
9F93
100
AcDbXrecord
280
     1
102
RTVSPost2010Prop28
280
     0
102
RTVSPost2010PropOp28
 70
     1
102
RTVSPost2010Prop29
280
     1
102
RTVSPost2010PropOp29
 70
     1
102
RTVSPost2010Prop30
280
     1
102
RTVSPost2010PropOp30
 70
     1
102
RTVSPost2010Prop31
280
     0
102
RTVSPost2010PropOp31
 70
     1
102
RTVSPost2010Prop32
280
     0
102
RTVSPost2010PropOp32
 70
     1
102
RTVSPost2010Prop33
280
     0
102
RTVSPost2010PropOp33
 70
     1
102
RTVSPost2010Prop34
280
     0
102
RTVSPost2010PropOp34
 70
     1
102
RTVSPost2010Prop35
280
     0
102
RTVSPost2010PropOp35
 70
     1
102
RTVSPost2010Prop36
280
     0
102
RTVSPost2010PropOp36
 70
     1
102
RTVSPost2010Prop37
 90
       50
102
RTVSPost2010PropOp37
 70
     1
102
RTVSPost2010Prop38
140
0.0
102
RTVSPost2010PropOp38
 70
     1
102
RTVSPost2010Prop39
140
1.0
102
RTVSPost2010PropOp39
 70
     1
102
RTVSPost2010Prop40
 90
        0
102
RTVSPost2010PropOp40
 70
     1
102
RTVSPost2010Prop41ColorIndex
 90
       18
102
RTVSPost2010Prop41ColorRGB
 90
        0
102
RTVSPost2010PropOp41
 70
     1
102
RTVSPost2010Prop42
 90
       50
102
RTVSPost2010PropOp42
 70
     1
102
RTVSPost2010Prop43
 90
        3
102
RTVSPost2010PropOp43
 70
     1
102
RTVSPost2010Prop44ColorIndex
 90
        5
102
RTVSPost2010Prop44ColorRGB
 90
      255
102
RTVSPost2010PropOp44
 70
     1
102
RTVSPost2010Prop45
280
     0
102
RTVSPost2010PropOp45
 70
     1
102
RTVSPost2010Prop46
 90
       50
102
RTVSPost2010PropOp46
 70
     1
102
RTVSPost2010Prop47
 90
       50
102
RTVSPost2010PropOp47
 70
     1
102
RTVSPost2010Prop48
 90
       50
102
RTVSPost2010PropOp48
 70
     1
102
RTVSPost2010Prop49
280
     0
102
RTVSPost2010PropOp49
 70
     1
102
RTVSPost2010Prop50
 90
       50
102
RTVSPost2010PropOp50
 70
     1
102
RTVSPost2010Prop51ColorIndex
 90
      256
102
RTVSPost2010Prop51ColorRGB
 90
-16777216
102
RTVSPost2010PropOp51
 70
     0
102
RTVSPost2010Prop52
140
1.0
102
RTVSPost2010PropOp52
 70
     0
102
RTVSPost2010Prop53
 90
        2
102
RTVSPost2010PropOp53
 70
     1
102
RTVSPost2010Prop54
  1
strokes_ogs.tif
102
RTVSPost2010PropOp54
 70
     1
102
RTVSPost2010Prop55
280
     0
102
RTVSPost2010PropOp55
 70
     1
102
RTVSPost2010Prop56
140
1.0
102
RTVSPost2010PropOp56
 70
     1
102
RTVSPost2010Prop57
140
1.0
102
RTVSPost2010PropOp57
 70
     1
102
RTVSPropertyOp0
 70
     1
102
RTVSPropertyOp1
 70
     1
102
RTVSPropertyOp2
 70
     1
102
RTVSPropertyOp3
 70
     1
102
RTVSPropertyOp4
 70
     1
102
RTVSPropertyOp5
 70
     1
102
RTVSPropertyOp6
 70
     1
102
RTVSPropertyOp7
 70
     1
102
RTVSPropertyOp8
 70
     1
102
RTVSPropertyOp9
 70
     1
102
RTVSPropertyOp10
 70
     1
102
RTVSPropertyOp11
 70
     1
102
RTVSPropertyOp12
 70
     1
102
RTVSPropertyOp13
 70
     1
102
RTVSPropertyOp14
 70
     1
102
RTVSPropertyOp15
 70
     1
102
RTVSPropertyOp16
 70
     1
102
RTVSPropertyOp17
 70
     1
102
RTVSPropertyOp18
 70
     1
102
RTVSPropertyOp19
 70
     1
102
RTVSPropertyOp20
 70
     1
102
RTVSPropertyOp21
 70
     1
102
RTVSPropertyOp22
 70
     1
102
RTVSPropertyOp23
 70
     1
102
RTVSPropertyOp24
 70
     1
102
RTVSPropertyOp25
 70
     1
102
RTVSPropertyOp26
 70
     1
102
RTVSPropertyOp27
 70
     1
102
RTVSPropertyOp28
 70
     1
102
RTVSPropertyOp29
 70
     1
102
RTVSPropertyOp30
 70
     1
102
RTVSPropertyOp31
 70
     1
102
RTVSPropertyOp32
 70
     1
102
RTVSPropertyOp33
 70
     1
102
RTVSPropertyOp34
 70
     1
102
RTVSPropertyOp35
 70
     1
102
RTVSPropertyOp36
 70
     1
102
RTVSPropertyOp37
 70
     1
102
RTVSPropertyOp38
 70
     1
102
RTVSPropertyOp39
 70
     1
102
RTVSPropertyOp40
 70
     1
102
RTVSPropertyOp41
 70
     1
102
RTVSPropertyOp42
 70
     1
102
RTVSPropertyOp43
 70
     1
102
RTVSPropertyOp44
 70
     1
102
RTVSPropertyOp45
 70
     1
102
RTVSPropertyOp46
 70
     1
102
RTVSPropertyOp47
 70
     1
102
RTVSPropertyOp48
 70
     1
102
RTVSPropertyOp49
 70
     1
102
RTVSPropertyOp50
 70
     1
102
RTVSPropertyOp51
 70
     0
102
RTVSPropertyOp52
 70
     0
102
RTVSPropertyOp53
 70
     1
102
RTVSPropertyOp54
 70
     1
102
RTVSPropertyOp55
 70
     1
102
RTVSPropertyOp56
 70
     1
102
RTVSPropertyOp57
 70
     1
102
RTVSPropertyOp58
 70
     1
102
RTVSPropertyOp59
 70
     1
102
RTVSPropertyOp60
 70
     1
102
RTVSPropertyOp61
 70
     1
102
RTVSPropertyOp62
 70
     1
  0
XRECORD
  5
9F96
102
{ACAD_REACTORS
330
9F95
102
}
330
9F95
100
AcDbXrecord
280
     1
102
RTVSPost2010Prop28
280
     0
102
RTVSPost2010PropOp28
 70
     1
102
RTVSPost2010Prop29
280
     1
102
RTVSPost2010PropOp29
 70
     1
102
RTVSPost2010Prop30
280
     1
102
RTVSPost2010PropOp30
 70
     1
102
RTVSPost2010Prop31
280
     0
102
RTVSPost2010PropOp31
 70
     1
102
RTVSPost2010Prop32
280
     0
102
RTVSPost2010PropOp32
 70
     1
102
RTVSPost2010Prop33
280
     0
102
RTVSPost2010PropOp33
 70
     1
102
RTVSPost2010Prop34
280
     0
102
RTVSPost2010PropOp34
 70
     1
102
RTVSPost2010Prop35
280
     0
102
RTVSPost2010PropOp35
 70
     1
102
RTVSPost2010Prop36
280
     0
102
RTVSPost2010PropOp36
 70
     1
102
RTVSPost2010Prop37
 90
       50
102
RTVSPost2010PropOp37
 70
     1
102
RTVSPost2010Prop38
140
0.0
102
RTVSPost2010PropOp38
 70
     1
102
RTVSPost2010Prop39
140
1.0
102
RTVSPost2010PropOp39
 70
     1
102
RTVSPost2010Prop40
 90
        0
102
RTVSPost2010PropOp40
 70
     1
102
RTVSPost2010Prop41ColorIndex
 90
       18
102
RTVSPost2010Prop41ColorRGB
 90
        0
102
RTVSPost2010PropOp41
 70
     1
102
RTVSPost2010Prop42
 90
       50
102
RTVSPost2010PropOp42
 70
     1
102
RTVSPost2010Prop43
 90
        3
102
RTVSPost2010PropOp43
 70
     1
102
RTVSPost2010Prop44ColorIndex
 90
        5
102
RTVSPost2010Prop44ColorRGB
 90
      255
102
RTVSPost2010PropOp44
 70
     1
102
RTVSPost2010Prop45
280
     0
102
RTVSPost2010PropOp45
 70
     1
102
RTVSPost2010Prop46
 90
       50
102
RTVSPost2010PropOp46
 70
     1
102
RTVSPost2010Prop47
 90
       50
102
RTVSPost2010PropOp47
 70
     1
102
RTVSPost2010Prop48
 90
       50
102
RTVSPost2010PropOp48
 70
     1
102
RTVSPost2010Prop49
280
     0
102
RTVSPost2010PropOp49
 70
     1
102
RTVSPost2010Prop50
 90
       50
102
RTVSPost2010PropOp50
 70
     1
102
RTVSPost2010Prop51ColorIndex
 90
      256
102
RTVSPost2010Prop51ColorRGB
 90
-16777216
102
RTVSPost2010PropOp51
 70
     0
102
RTVSPost2010Prop52
140
1.0
102
RTVSPost2010PropOp52
 70
     0
102
RTVSPost2010Prop53
 90
        2
102
RTVSPost2010PropOp53
 70
     1
102
RTVSPost2010Prop54
  1
strokes_ogs.tif
102
RTVSPost2010PropOp54
 70
     1
102
RTVSPost2010Prop55
280
     0
102
RTVSPost2010PropOp55
 70
     1
102
RTVSPost2010Prop56
140
1.0
102
RTVSPost2010PropOp56
 70
     1
102
RTVSPost2010Prop57
140
1.0
102
RTVSPost2010PropOp57
 70
     1
102
RTVSPropertyOp0
 70
     1
102
RTVSPropertyOp1
 70
     1
102
RTVSPropertyOp2
 70
     1
102
RTVSPropertyOp3
 70
     1
102
RTVSPropertyOp4
 70
     1
102
RTVSPropertyOp5
 70
     1
102
RTVSPropertyOp6
 70
     1
102
RTVSPropertyOp7
 70
     1
102
RTVSPropertyOp8
 70
     1
102
RTVSPropertyOp9
 70
     1
102
RTVSPropertyOp10
 70
     1
102
RTVSPropertyOp11
 70
     1
102
RTVSPropertyOp12
 70
     1
102
RTVSPropertyOp13
 70
     1
102
RTVSPropertyOp14
 70
     1
102
RTVSPropertyOp15
 70
     1
102
RTVSPropertyOp16
 70
     1
102
RTVSPropertyOp17
 70
     1
102
RTVSPropertyOp18
 70
     1
102
RTVSPropertyOp19
 70
     1
102
RTVSPropertyOp20
 70
     1
102
RTVSPropertyOp21
 70
     1
102
RTVSPropertyOp22
 70
     1
102
RTVSPropertyOp23
 70
     1
102
RTVSPropertyOp24
 70
     1
102
RTVSPropertyOp25
 70
     1
102
RTVSPropertyOp26
 70
     1
102
RTVSPropertyOp27
 70
     1
102
RTVSPropertyOp28
 70
     1
102
RTVSPropertyOp29
 70
     1
102
RTVSPropertyOp30
 70
     1
102
RTVSPropertyOp31
 70
     1
102
RTVSPropertyOp32
 70
     1
102
RTVSPropertyOp33
 70
     1
102
RTVSPropertyOp34
 70
     1
102
RTVSPropertyOp35
 70
     1
102
RTVSPropertyOp36
 70
     1
102
RTVSPropertyOp37
 70
     1
102
RTVSPropertyOp38
 70
     1
102
RTVSPropertyOp39
 70
     1
102
RTVSPropertyOp40
 70
     1
102
RTVSPropertyOp41
 70
     1
102
RTVSPropertyOp42
 70
     1
102
RTVSPropertyOp43
 70
     1
102
RTVSPropertyOp44
 70
     1
102
RTVSPropertyOp45
 70
     1
102
RTVSPropertyOp46
 70
     1
102
RTVSPropertyOp47
 70
     1
102
RTVSPropertyOp48
 70
     1
102
RTVSPropertyOp49
 70
     1
102
RTVSPropertyOp50
 70
     1
102
RTVSPropertyOp51
 70
     0
102
RTVSPropertyOp52
 70
     0
102
RTVSPropertyOp53
 70
     1
102
RTVSPropertyOp54
 70
     1
102
RTVSPropertyOp55
 70
     1
102
RTVSPropertyOp56
 70
     1
102
RTVSPropertyOp57
 70
     1
102
RTVSPropertyOp58
 70
     1
102
RTVSPropertyOp59
 70
     1
102
RTVSPropertyOp60
 70
     1
102
RTVSPropertyOp61
 70
     1
102
RTVSPropertyOp62
 70
     1
  0
XRECORD
  5
9F9E
102
{ACAD_REACTORS
330
9F9D
102
}
330
9F9D
100
AcDbXrecord
280
     1
102
RTVSPost2010Prop28
280
     0
102
RTVSPost2010PropOp28
 70
     1
102
RTVSPost2010Prop29
280
     1
102
RTVSPost2010PropOp29
 70
     1
102
RTVSPost2010Prop30
280
     1
102
RTVSPost2010PropOp30
 70
     1
102
RTVSPost2010Prop31
280
     0
102
RTVSPost2010PropOp31
 70
     1
102
RTVSPost2010Prop32
280
     0
102
RTVSPost2010PropOp32
 70
     1
102
RTVSPost2010Prop33
280
     0
102
RTVSPost2010PropOp33
 70
     1
102
RTVSPost2010Prop34
280
     0
102
RTVSPost2010PropOp34
 70
     1
102
RTVSPost2010Prop35
280
     0
102
RTVSPost2010PropOp35
 70
     1
102
RTVSPost2010Prop36
280
     0
102
RTVSPost2010PropOp36
 70
     1
102
RTVSPost2010Prop37
 90
       50
102
RTVSPost2010PropOp37
 70
     1
102
RTVSPost2010Prop38
140
0.0
102
RTVSPost2010PropOp38
 70
     1
102
RTVSPost2010Prop39
140
1.0
102
RTVSPost2010PropOp39
 70
     1
102
RTVSPost2010Prop40
 90
        0
102
RTVSPost2010PropOp40
 70
     1
102
RTVSPost2010Prop41ColorIndex
 90
       18
102
RTVSPost2010Prop41ColorRGB
 90
        0
102
RTVSPost2010PropOp41
 70
     1
102
RTVSPost2010Prop42
 90
       50
102
RTVSPost2010PropOp42
 70
     1
102
RTVSPost2010Prop43
 90
        3
102
RTVSPost2010PropOp43
 70
     1
102
RTVSPost2010Prop44ColorIndex
 90
        5
102
RTVSPost2010Prop44ColorRGB
 90
      255
102
RTVSPost2010PropOp44
 70
     1
102
RTVSPost2010Prop45
280
     0
102
RTVSPost2010PropOp45
 70
     1
102
RTVSPost2010Prop46
 90
       50
102
RTVSPost2010PropOp46
 70
     1
102
RTVSPost2010Prop47
 90
       50
102
RTVSPost2010PropOp47
 70
     1
102
RTVSPost2010Prop48
 90
       50
102
RTVSPost2010PropOp48
 70
     1
102
RTVSPost2010Prop49
280
     0
102
RTVSPost2010PropOp49
 70
     1
102
RTVSPost2010Prop50
 90
       50
102
RTVSPost2010PropOp50
 70
     1
102
RTVSPost2010Prop51ColorIndex
 90
      256
102
RTVSPost2010Prop51ColorRGB
 90
-16777216
102
RTVSPost2010PropOp51
 70
     0
102
RTVSPost2010Prop52
140
1.0
102
RTVSPost2010PropOp52
 70
     0
102
RTVSPost2010Prop53
 90
        2
102
RTVSPost2010PropOp53
 70
     1
102
RTVSPost2010Prop54
  1
strokes_ogs.tif
102
RTVSPost2010PropOp54
 70
     1
102
RTVSPost2010Prop55
280
     0
102
RTVSPost2010PropOp55
 70
     1
102
RTVSPost2010Prop56
140
1.0
102
RTVSPost2010PropOp56
 70
     1
102
RTVSPost2010Prop57
140
1.0
102
RTVSPost2010PropOp57
 70
     1
102
RTVSPropertyOp0
 70
     1
102
RTVSPropertyOp1
 70
     1
102
RTVSPropertyOp2
 70
     1
102
RTVSPropertyOp3
 70
     1
102
RTVSPropertyOp4
 70
     1
102
RTVSPropertyOp5
 70
     1
102
RTVSPropertyOp6
 70
     1
102
RTVSPropertyOp7
 70
     1
102
RTVSPropertyOp8
 70
     1
102
RTVSPropertyOp9
 70
     1
102
RTVSPropertyOp10
 70
     1
102
RTVSPropertyOp11
 70
     1
102
RTVSPropertyOp12
 70
     1
102
RTVSPropertyOp13
 70
     1
102
RTVSPropertyOp14
 70
     1
102
RTVSPropertyOp15
 70
     1
102
RTVSPropertyOp16
 70
     1
102
RTVSPropertyOp17
 70
     1
102
RTVSPropertyOp18
 70
     1
102
RTVSPropertyOp19
 70
     1
102
RTVSPropertyOp20
 70
     1
102
RTVSPropertyOp21
 70
     1
102
RTVSPropertyOp22
 70
     1
102
RTVSPropertyOp23
 70
     1
102
RTVSPropertyOp24
 70
     1
102
RTVSPropertyOp25
 70
     1
102
RTVSPropertyOp26
 70
     1
102
RTVSPropertyOp27
 70
     1
102
RTVSPropertyOp28
 70
     1
102
RTVSPropertyOp29
 70
     1
102
RTVSPropertyOp30
 70
     1
102
RTVSPropertyOp31
 70
     1
102
RTVSPropertyOp32
 70
     1
102
RTVSPropertyOp33
 70
     1
102
RTVSPropertyOp34
 70
     1
102
RTVSPropertyOp35
 70
     1
102
RTVSPropertyOp36
 70
     1
102
RTVSPropertyOp37
 70
     1
102
RTVSPropertyOp38
 70
     1
102
RTVSPropertyOp39
 70
     1
102
RTVSPropertyOp40
 70
     1
102
RTVSPropertyOp41
 70
     1
102
RTVSPropertyOp42
 70
     1
102
RTVSPropertyOp43
 70
     1
102
RTVSPropertyOp44
 70
     1
102
RTVSPropertyOp45
 70
     1
102
RTVSPropertyOp46
 70
     1
102
RTVSPropertyOp47
 70
     1
102
RTVSPropertyOp48
 70
     1
102
RTVSPropertyOp49
 70
     1
102
RTVSPropertyOp50
 70
     1
102
RTVSPropertyOp51
 70
     0
102
RTVSPropertyOp52
 70
     0
102
RTVSPropertyOp53
 70
     1
102
RTVSPropertyOp54
 70
     1
102
RTVSPropertyOp55
 70
     1
102
RTVSPropertyOp56
 70
     1
102
RTVSPropertyOp57
 70
     1
102
RTVSPropertyOp58
 70
     1
102
RTVSPropertyOp59
 70
     1
102
RTVSPropertyOp60
 70
     1
102
RTVSPropertyOp61
 70
     1
102
RTVSPropertyOp62
 70
     1
  0
XRECORD
  5
9FBA
102
{ACAD_REACTORS
330
9FB9
102
}
330
9FB9
100
AcDbXrecord
280
     1
102
RTVSPost2010Prop28
280
     0
102
RTVSPost2010PropOp28
 70
     1
102
RTVSPost2010Prop29
280
     1
102
RTVSPost2010PropOp29
 70
     1
102
RTVSPost2010Prop30
280
     1
102
RTVSPost2010PropOp30
 70
     1
102
RTVSPost2010Prop31
280
     0
102
RTVSPost2010PropOp31
 70
     1
102
RTVSPost2010Prop32
280
     0
102
RTVSPost2010PropOp32
 70
     1
102
RTVSPost2010Prop33
280
     0
102
RTVSPost2010PropOp33
 70
     1
102
RTVSPost2010Prop34
280
     0
102
RTVSPost2010PropOp34
 70
     1
102
RTVSPost2010Prop35
280
     0
102
RTVSPost2010PropOp35
 70
     1
102
RTVSPost2010Prop36
280
     0
102
RTVSPost2010PropOp36
 70
     1
102
RTVSPost2010Prop37
 90
       50
102
RTVSPost2010PropOp37
 70
     0
102
RTVSPost2010Prop38
140
0.0
102
RTVSPost2010PropOp38
 70
     0
102
RTVSPost2010Prop39
140
1.0
102
RTVSPost2010PropOp39
 70
     0
102
RTVSPost2010Prop40
 90
        0
102
RTVSPost2010PropOp40
 70
     0
102
RTVSPost2010Prop41ColorIndex
 90
       18
102
RTVSPost2010Prop41ColorRGB
 90
        0
102
RTVSPost2010PropOp41
 70
     0
102
RTVSPost2010Prop42
 90
       50
102
RTVSPost2010PropOp42
 70
     0
102
RTVSPost2010Prop43
 90
        3
102
RTVSPost2010PropOp43
 70
     0
102
RTVSPost2010Prop44ColorIndex
 90
        5
102
RTVSPost2010Prop44ColorRGB
 90
      255
102
RTVSPost2010PropOp44
 70
     0
102
RTVSPost2010Prop45
280
     0
102
RTVSPost2010PropOp45
 70
     1
102
RTVSPost2010Prop46
 90
       50
102
RTVSPost2010PropOp46
 70
     0
102
RTVSPost2010Prop47
 90
       50
102
RTVSPost2010PropOp47
 70
     0
102
RTVSPost2010Prop48
 90
       50
102
RTVSPost2010PropOp48
 70
     0
102
RTVSPost2010Prop49
280
     0
102
RTVSPost2010PropOp49
 70
     1
102
RTVSPost2010Prop50
 90
       50
102
RTVSPost2010PropOp50
 70
     0
102
RTVSPost2010Prop51ColorIndex
 90
      256
102
RTVSPost2010Prop51ColorRGB
 90
-16777216
102
RTVSPost2010PropOp51
 70
     0
102
RTVSPost2010Prop52
140
1.0
102
RTVSPost2010PropOp52
 70
     0
102
RTVSPost2010Prop53
 90
        2
102
RTVSPost2010PropOp53
 70
     0
102
RTVSPost2010Prop54
  1
strokes_ogs.tif
102
RTVSPost2010PropOp54
 70
     0
102
RTVSPost2010Prop55
280
     0
102
RTVSPost2010PropOp55
 70
     1
102
RTVSPost2010Prop56
140
1.0
102
RTVSPost2010PropOp56
 70
     0
102
RTVSPost2010Prop57
140
1.0
102
RTVSPost2010PropOp57
 70
     0
102
RTVSPropertyOp0
 70
     0
102
RTVSPropertyOp1
 70
     0
102
RTVSPropertyOp2
 70
     0
102
RTVSPropertyOp3
 70
     0
102
RTVSPropertyOp4
 70
     0
102
RTVSPropertyOp5
 70
     0
102
RTVSPropertyOp6
 70
     0
102
RTVSPropertyOp7
 70
     0
102
RTVSPropertyOp8
 70
     0
102
RTVSPropertyOp9
 70
     0
102
RTVSPropertyOp10
 70
     0
102
RTVSPropertyOp11
 70
     0
102
RTVSPropertyOp12
 70
     0
102
RTVSPropertyOp13
 70
     0
102
RTVSPropertyOp14
 70
     2
102
RTVSPropertyOp15
 70
     0
102
RTVSPropertyOp16
 70
     0
102
RTVSPropertyOp17
 70
     0
102
RTVSPropertyOp18
 70
     0
102
RTVSPropertyOp19
 70
     0
102
RTVSPropertyOp20
 70
     0
102
RTVSPropertyOp21
 70
     0
102
RTVSPropertyOp22
 70
     0
102
RTVSPropertyOp23
 70
     0
102
RTVSPropertyOp24
 70
     0
102
RTVSPropertyOp25
 70
     0
102
RTVSPropertyOp26
 70
     0
102
RTVSPropertyOp27
 70
     0
102
RTVSPropertyOp28
 70
     1
102
RTVSPropertyOp29
 70
     1
102
RTVSPropertyOp30
 70
     1
102
RTVSPropertyOp31
 70
     1
102
RTVSPropertyOp32
 70
     1
102
RTVSPropertyOp33
 70
     1
102
RTVSPropertyOp34
 70
     1
102
RTVSPropertyOp35
 70
     1
102
RTVSPropertyOp36
 70
     1
102
RTVSPropertyOp37
 70
     0
102
RTVSPropertyOp38
 70
     0
102
RTVSPropertyOp39
 70
     0
102
RTVSPropertyOp40
 70
     0
102
RTVSPropertyOp41
 70
     0
102
RTVSPropertyOp42
 70
     0
102
RTVSPropertyOp43
 70
     0
102
RTVSPropertyOp44
 70
     0
102
RTVSPropertyOp45
 70
     1
102
RTVSPropertyOp46
 70
     0
102
RTVSPropertyOp47
 70
     0
102
RTVSPropertyOp48
 70
     0
102
RTVSPropertyOp49
 70
     1
102
RTVSPropertyOp50
 70
     0
102
RTVSPropertyOp51
 70
     0
102
RTVSPropertyOp52
 70
     0
102
RTVSPropertyOp53
 70
     0
102
RTVSPropertyOp54
 70
     0
102
RTVSPropertyOp55
 70
     1
102
RTVSPropertyOp56
 70
     0
102
RTVSPropertyOp57
 70
     0
102
RTVSPropertyOp58
 70
     0
102
RTVSPropertyOp59
 70
     0
102
RTVSPropertyOp60
 70
     0
102
RTVSPropertyOp61
 70
     0
102
RTVSPropertyOp62
 70
     0
  0
XRECORD
  5
9FAA
102
{ACAD_REACTORS
330
9FA9
102
}
330
9FA9
100
AcDbXrecord
280
     1
102
RTVSPost2010Prop28
280
     0
102
RTVSPost2010PropOp28
 70
     1
102
RTVSPost2010Prop29
280
     1
102
RTVSPost2010PropOp29
 70
     1
102
RTVSPost2010Prop30
280
     1
102
RTVSPost2010PropOp30
 70
     1
102
RTVSPost2010Prop31
280
     0
102
RTVSPost2010PropOp31
 70
     1
102
RTVSPost2010Prop32
280
     0
102
RTVSPost2010PropOp32
 70
     1
102
RTVSPost2010Prop33
280
     0
102
RTVSPost2010PropOp33
 70
     1
102
RTVSPost2010Prop34
280
     0
102
RTVSPost2010PropOp34
 70
     1
102
RTVSPost2010Prop35
280
     0
102
RTVSPost2010PropOp35
 70
     1
102
RTVSPost2010Prop36
280
     0
102
RTVSPost2010PropOp36
 70
     1
102
RTVSPost2010Prop37
 90
       50
102
RTVSPost2010PropOp37
 70
     1
102
RTVSPost2010Prop38
140
0.0
102
RTVSPost2010PropOp38
 70
     1
102
RTVSPost2010Prop39
140
1.0
102
RTVSPost2010PropOp39
 70
     1
102
RTVSPost2010Prop40
 90
        0
102
RTVSPost2010PropOp40
 70
     1
102
RTVSPost2010Prop41ColorIndex
 90
       18
102
RTVSPost2010Prop41ColorRGB
 90
        0
102
RTVSPost2010PropOp41
 70
     1
102
RTVSPost2010Prop42
 90
       50
102
RTVSPost2010PropOp42
 70
     1
102
RTVSPost2010Prop43
 90
        3
102
RTVSPost2010PropOp43
 70
     1
102
RTVSPost2010Prop44ColorIndex
 90
        5
102
RTVSPost2010Prop44ColorRGB
 90
      255
102
RTVSPost2010PropOp44
 70
     1
102
RTVSPost2010Prop45
280
     0
102
RTVSPost2010PropOp45
 70
     1
102
RTVSPost2010Prop46
 90
       50
102
RTVSPost2010PropOp46
 70
     1
102
RTVSPost2010Prop47
 90
       50
102
RTVSPost2010PropOp47
 70
     1
102
RTVSPost2010Prop48
 90
       50
102
RTVSPost2010PropOp48
 70
     1
102
RTVSPost2010Prop49
280
     0
102
RTVSPost2010PropOp49
 70
     1
102
RTVSPost2010Prop50
 90
       50
102
RTVSPost2010PropOp50
 70
     1
102
RTVSPost2010Prop51ColorIndex
 90
      256
102
RTVSPost2010Prop51ColorRGB
 90
-16777216
102
RTVSPost2010PropOp51
 70
     0
102
RTVSPost2010Prop52
140
1.0
102
RTVSPost2010PropOp52
 70
     0
102
RTVSPost2010Prop53
 90
        2
102
RTVSPost2010PropOp53
 70
     1
102
RTVSPost2010Prop54
  1
strokes_ogs.tif
102
RTVSPost2010PropOp54
 70
     1
102
RTVSPost2010Prop55
280
     0
102
RTVSPost2010PropOp55
 70
     1
102
RTVSPost2010Prop56
140
1.0
102
RTVSPost2010PropOp56
 70
     1
102
RTVSPost2010Prop57
140
1.0
102
RTVSPost2010PropOp57
 70
     1
102
RTVSPropertyOp0
 70
     1
102
RTVSPropertyOp1
 70
     1
102
RTVSPropertyOp2
 70
     1
102
RTVSPropertyOp3
 70
     1
102
RTVSPropertyOp4
 70
     1
102
RTVSPropertyOp5
 70
     1
102
RTVSPropertyOp6
 70
     1
102
RTVSPropertyOp7
 70
     1
102
RTVSPropertyOp8
 70
     1
102
RTVSPropertyOp9
 70
     1
102
RTVSPropertyOp10
 70
     1
102
RTVSPropertyOp11
 70
     1
102
RTVSPropertyOp12
 70
     1
102
RTVSPropertyOp13
 70
     1
102
RTVSPropertyOp14
 70
     1
102
RTVSPropertyOp15
 70
     1
102
RTVSPropertyOp16
 70
     1
102
RTVSPropertyOp17
 70
     1
102
RTVSPropertyOp18
 70
     1
102
RTVSPropertyOp19
 70
     1
102
RTVSPropertyOp20
 70
     1
102
RTVSPropertyOp21
 70
     1
102
RTVSPropertyOp22
 70
     1
102
RTVSPropertyOp23
 70
     1
102
RTVSPropertyOp24
 70
     1
102
RTVSPropertyOp25
 70
     1
102
RTVSPropertyOp26
 70
     1
102
RTVSPropertyOp27
 70
     1
102
RTVSPropertyOp28
 70
     1
102
RTVSPropertyOp29
 70
     1
102
RTVSPropertyOp30
 70
     1
102
RTVSPropertyOp31
 70
     1
102
RTVSPropertyOp32
 70
     1
102
RTVSPropertyOp33
 70
     1
102
RTVSPropertyOp34
 70
     1
102
RTVSPropertyOp35
 70
     1
102
RTVSPropertyOp36
 70
     1
102
RTVSPropertyOp37
 70
     1
102
RTVSPropertyOp38
 70
     1
102
RTVSPropertyOp39
 70
     1
102
RTVSPropertyOp40
 70
     1
102
RTVSPropertyOp41
 70
     1
102
RTVSPropertyOp42
 70
     1
102
RTVSPropertyOp43
 70
     1
102
RTVSPropertyOp44
 70
     1
102
RTVSPropertyOp45
 70
     1
102
RTVSPropertyOp46
 70
     1
102
RTVSPropertyOp47
 70
     1
102
RTVSPropertyOp48
 70
     1
102
RTVSPropertyOp49
 70
     1
102
RTVSPropertyOp50
 70
     1
102
RTVSPropertyOp51
 70
     0
102
RTVSPropertyOp52
 70
     0
102
RTVSPropertyOp53
 70
     1
102
RTVSPropertyOp54
 70
     1
102
RTVSPropertyOp55
 70
     1
102
RTVSPropertyOp56
 70
     1
102
RTVSPropertyOp57
 70
     1
102
RTVSPropertyOp58
 70
     1
102
RTVSPropertyOp59
 70
     1
102
RTVSPropertyOp60
 70
     1
102
RTVSPropertyOp61
 70
     1
102
RTVSPropertyOp62
 70
     1
  0
XRECORD
  5
9FBC
102
{ACAD_REACTORS
330
9FBB
102
}
330
9FBB
100
AcDbXrecord
280
     1
102
RTVSPost2010Prop28
280
     0
102
RTVSPost2010PropOp28
 70
     1
102
RTVSPost2010Prop29
280
     1
102
RTVSPost2010PropOp29
 70
     1
102
RTVSPost2010Prop30
280
     1
102
RTVSPost2010PropOp30
 70
     1
102
RTVSPost2010Prop31
280
     0
102
RTVSPost2010PropOp31
 70
     1
102
RTVSPost2010Prop32
280
     0
102
RTVSPost2010PropOp32
 70
     1
102
RTVSPost2010Prop33
280
     0
102
RTVSPost2010PropOp33
 70
     1
102
RTVSPost2010Prop34
280
     0
102
RTVSPost2010PropOp34
 70
     1
102
RTVSPost2010Prop35
280
     0
102
RTVSPost2010PropOp35
 70
     1
102
RTVSPost2010Prop36
280
     0
102
RTVSPost2010PropOp36
 70
     1
102
RTVSPost2010Prop37
 90
       50
102
RTVSPost2010PropOp37
 70
     0
102
RTVSPost2010Prop38
140
0.0
102
RTVSPost2010PropOp38
 70
     0
102
RTVSPost2010Prop39
140
1.0
102
RTVSPost2010PropOp39
 70
     0
102
RTVSPost2010Prop40
 90
        0
102
RTVSPost2010PropOp40
 70
     0
102
RTVSPost2010Prop41ColorIndex
 90
       18
102
RTVSPost2010Prop41ColorRGB
 90
        0
102
RTVSPost2010PropOp41
 70
     0
102
RTVSPost2010Prop42
 90
       50
102
RTVSPost2010PropOp42
 70
     0
102
RTVSPost2010Prop43
 90
        3
102
RTVSPost2010PropOp43
 70
     0
102
RTVSPost2010Prop44ColorIndex
 90
        5
102
RTVSPost2010Prop44ColorRGB
 90
      255
102
RTVSPost2010PropOp44
 70
     0
102
RTVSPost2010Prop45
280
     0
102
RTVSPost2010PropOp45
 70
     1
102
RTVSPost2010Prop46
 90
       50
102
RTVSPost2010PropOp46
 70
     0
102
RTVSPost2010Prop47
 90
       50
102
RTVSPost2010PropOp47
 70
     0
102
RTVSPost2010Prop48
 90
       50
102
RTVSPost2010PropOp48
 70
     0
102
RTVSPost2010Prop49
280
     0
102
RTVSPost2010PropOp49
 70
     1
102
RTVSPost2010Prop50
 90
       50
102
RTVSPost2010PropOp50
 70
     0
102
RTVSPost2010Prop51ColorIndex
 90
      256
102
RTVSPost2010Prop51ColorRGB
 90
-16777216
102
RTVSPost2010PropOp51
 70
     0
102
RTVSPost2010Prop52
140
1.0
102
RTVSPost2010PropOp52
 70
     0
102
RTVSPost2010Prop53
 90
        2
102
RTVSPost2010PropOp53
 70
     0
102
RTVSPost2010Prop54
  1
strokes_ogs.tif
102
RTVSPost2010PropOp54
 70
     0
102
RTVSPost2010Prop55
280
     0
102
RTVSPost2010PropOp55
 70
     1
102
RTVSPost2010Prop56
140
1.0
102
RTVSPost2010PropOp56
 70
     0
102
RTVSPost2010Prop57
140
1.0
102
RTVSPost2010PropOp57
 70
     0
102
RTVSPropertyOp0
 70
     0
102
RTVSPropertyOp1
 70
     0
102
RTVSPropertyOp2
 70
     0
102
RTVSPropertyOp3
 70
     0
102
RTVSPropertyOp4
 70
     0
102
RTVSPropertyOp5
 70
     0
102
RTVSPropertyOp6
 70
     0
102
RTVSPropertyOp7
 70
     0
102
RTVSPropertyOp8
 70
     0
102
RTVSPropertyOp9
 70
     0
102
RTVSPropertyOp10
 70
     0
102
RTVSPropertyOp11
 70
     0
102
RTVSPropertyOp12
 70
     0
102
RTVSPropertyOp13
 70
     0
102
RTVSPropertyOp14
 70
     2
102
RTVSPropertyOp15
 70
     0
102
RTVSPropertyOp16
 70
     0
102
RTVSPropertyOp17
 70
     0
102
RTVSPropertyOp18
 70
     0
102
RTVSPropertyOp19
 70
     0
102
RTVSPropertyOp20
 70
     0
102
RTVSPropertyOp21
 70
     0
102
RTVSPropertyOp22
 70
     0
102
RTVSPropertyOp23
 70
     0
102
RTVSPropertyOp24
 70
     0
102
RTVSPropertyOp25
 70
     0
102
RTVSPropertyOp26
 70
     0
102
RTVSPropertyOp27
 70
     0
102
RTVSPropertyOp28
 70
     1
102
RTVSPropertyOp29
 70
     1
102
RTVSPropertyOp30
 70
     1
102
RTVSPropertyOp31
 70
     1
102
RTVSPropertyOp32
 70
     1
102
RTVSPropertyOp33
 70
     1
102
RTVSPropertyOp34
 70
     1
102
RTVSPropertyOp35
 70
     1
102
RTVSPropertyOp36
 70
     1
102
RTVSPropertyOp37
 70
     0
102
RTVSPropertyOp38
 70
     0
102
RTVSPropertyOp39
 70
     0
102
RTVSPropertyOp40
 70
     0
102
RTVSPropertyOp41
 70
     0
102
RTVSPropertyOp42
 70
     0
102
RTVSPropertyOp43
 70
     0
102
RTVSPropertyOp44
 70
     0
102
RTVSPropertyOp45
 70
     1
102
RTVSPropertyOp46
 70
     0
102
RTVSPropertyOp47
 70
     0
102
RTVSPropertyOp48
 70
     0
102
RTVSPropertyOp49
 70
     1
102
RTVSPropertyOp50
 70
     0
102
RTVSPropertyOp51
 70
     0
102
RTVSPropertyOp52
 70
     0
102
RTVSPropertyOp53
 70
     0
102
RTVSPropertyOp54
 70
     0
102
RTVSPropertyOp55
 70
     1
102
RTVSPropertyOp56
 70
     0
102
RTVSPropertyOp57
 70
     0
102
RTVSPropertyOp58
 70
     0
102
RTVSPropertyOp59
 70
     0
102
RTVSPropertyOp60
 70
     0
102
RTVSPropertyOp61
 70
     0
102
RTVSPropertyOp62
 70
     0
  0
XRECORD
  5
9FA2
102
{ACAD_REACTORS
330
9FA1
102
}
330
9FA1
100
AcDbXrecord
280
     1
102
RTVSPost2010Prop28
280
     0
102
RTVSPost2010PropOp28
 70
     1
102
RTVSPost2010Prop29
280
     1
102
RTVSPost2010PropOp29
 70
     1
102
RTVSPost2010Prop30
280
     1
102
RTVSPost2010PropOp30
 70
     1
102
RTVSPost2010Prop31
280
     0
102
RTVSPost2010PropOp31
 70
     1
102
RTVSPost2010Prop32
280
     0
102
RTVSPost2010PropOp32
 70
     1
102
RTVSPost2010Prop33
280
     0
102
RTVSPost2010PropOp33
 70
     1
102
RTVSPost2010Prop34
280
     0
102
RTVSPost2010PropOp34
 70
     1
102
RTVSPost2010Prop35
280
     0
102
RTVSPost2010PropOp35
 70
     1
102
RTVSPost2010Prop36
280
     0
102
RTVSPost2010PropOp36
 70
     1
102
RTVSPost2010Prop37
 90
       50
102
RTVSPost2010PropOp37
 70
     1
102
RTVSPost2010Prop38
140
0.0
102
RTVSPost2010PropOp38
 70
     1
102
RTVSPost2010Prop39
140
1.0
102
RTVSPost2010PropOp39
 70
     1
102
RTVSPost2010Prop40
 90
        0
102
RTVSPost2010PropOp40
 70
     1
102
RTVSPost2010Prop41ColorIndex
 90
       18
102
RTVSPost2010Prop41ColorRGB
 90
        0
102
RTVSPost2010PropOp41
 70
     1
102
RTVSPost2010Prop42
 90
       50
102
RTVSPost2010PropOp42
 70
     1
102
RTVSPost2010Prop43
 90
        3
102
RTVSPost2010PropOp43
 70
     1
102
RTVSPost2010Prop44ColorIndex
 90
        5
102
RTVSPost2010Prop44ColorRGB
 90
      255
102
RTVSPost2010PropOp44
 70
     1
102
RTVSPost2010Prop45
280
     0
102
RTVSPost2010PropOp45
 70
     1
102
RTVSPost2010Prop46
 90
       50
102
RTVSPost2010PropOp46
 70
     1
102
RTVSPost2010Prop47
 90
       50
102
RTVSPost2010PropOp47
 70
     1
102
RTVSPost2010Prop48
 90
       50
102
RTVSPost2010PropOp48
 70
     1
102
RTVSPost2010Prop49
280
     0
102
RTVSPost2010PropOp49
 70
     1
102
RTVSPost2010Prop50
 90
       50
102
RTVSPost2010PropOp50
 70
     1
102
RTVSPost2010Prop51ColorIndex
 90
      256
102
RTVSPost2010Prop51ColorRGB
 90
-16777216
102
RTVSPost2010PropOp51
 70
     0
102
RTVSPost2010Prop52
140
1.0
102
RTVSPost2010PropOp52
 70
     0
102
RTVSPost2010Prop53
 90
        2
102
RTVSPost2010PropOp53
 70
     1
102
RTVSPost2010Prop54
  1
strokes_ogs.tif
102
RTVSPost2010PropOp54
 70
     1
102
RTVSPost2010Prop55
280
     0
102
RTVSPost2010PropOp55
 70
     1
102
RTVSPost2010Prop56
140
1.0
102
RTVSPost2010PropOp56
 70
     1
102
RTVSPost2010Prop57
140
1.0
102
RTVSPost2010PropOp57
 70
     1
102
RTVSPropertyOp0
 70
     1
102
RTVSPropertyOp1
 70
     1
102
RTVSPropertyOp2
 70
     1
102
RTVSPropertyOp3
 70
     1
102
RTVSPropertyOp4
 70
     1
102
RTVSPropertyOp5
 70
     1
102
RTVSPropertyOp6
 70
     1
102
RTVSPropertyOp7
 70
     1
102
RTVSPropertyOp8
 70
     1
102
RTVSPropertyOp9
 70
     1
102
RTVSPropertyOp10
 70
     1
102
RTVSPropertyOp11
 70
     1
102
RTVSPropertyOp12
 70
     1
102
RTVSPropertyOp13
 70
     1
102
RTVSPropertyOp14
 70
     1
102
RTVSPropertyOp15
 70
     1
102
RTVSPropertyOp16
 70
     1
102
RTVSPropertyOp17
 70
     1
102
RTVSPropertyOp18
 70
     1
102
RTVSPropertyOp19
 70
     1
102
RTVSPropertyOp20
 70
     1
102
RTVSPropertyOp21
 70
     1
102
RTVSPropertyOp22
 70
     1
102
RTVSPropertyOp23
 70
     1
102
RTVSPropertyOp24
 70
     1
102
RTVSPropertyOp25
 70
     1
102
RTVSPropertyOp26
 70
     1
102
RTVSPropertyOp27
 70
     1
102
RTVSPropertyOp28
 70
     1
102
RTVSPropertyOp29
 70
     1
102
RTVSPropertyOp30
 70
     1
102
RTVSPropertyOp31
 70
     1
102
RTVSPropertyOp32
 70
     1
102
RTVSPropertyOp33
 70
     1
102
RTVSPropertyOp34
 70
     1
102
RTVSPropertyOp35
 70
     1
102
RTVSPropertyOp36
 70
     1
102
RTVSPropertyOp37
 70
     1
102
RTVSPropertyOp38
 70
     1
102
RTVSPropertyOp39
 70
     1
102
RTVSPropertyOp40
 70
     1
102
RTVSPropertyOp41
 70
     1
102
RTVSPropertyOp42
 70
     1
102
RTVSPropertyOp43
 70
     1
102
RTVSPropertyOp44
 70
     1
102
RTVSPropertyOp45
 70
     1
102
RTVSPropertyOp46
 70
     1
102
RTVSPropertyOp47
 70
     1
102
RTVSPropertyOp48
 70
     1
102
RTVSPropertyOp49
 70
     1
102
RTVSPropertyOp50
 70
     1
102
RTVSPropertyOp51
 70
     0
102
RTVSPropertyOp52
 70
     0
102
RTVSPropertyOp53
 70
     1
102
RTVSPropertyOp54
 70
     1
102
RTVSPropertyOp55
 70
     1
102
RTVSPropertyOp56
 70
     1
102
RTVSPropertyOp57
 70
     1
102
RTVSPropertyOp58
 70
     1
102
RTVSPropertyOp59
 70
     1
102
RTVSPropertyOp60
 70
     1
102
RTVSPropertyOp61
 70
     1
102
RTVSPropertyOp62
 70
     1
  0
XRECORD
  5
9FB8
102
{ACAD_REACTORS
330
9FB7
102
}
330
9FB7
100
AcDbXrecord
280
     1
102
RTVSPost2010Prop28
280
     0
102
RTVSPost2010PropOp28
 70
     1
102
RTVSPost2010Prop29
280
     1
102
RTVSPost2010PropOp29
 70
     1
102
RTVSPost2010Prop30
280
     1
102
RTVSPost2010PropOp30
 70
     1
102
RTVSPost2010Prop31
280
     0
102
RTVSPost2010PropOp31
 70
     1
102
RTVSPost2010Prop32
280
     0
102
RTVSPost2010PropOp32
 70
     1
102
RTVSPost2010Prop33
280
     0
102
RTVSPost2010PropOp33
 70
     1
102
RTVSPost2010Prop34
280
     0
102
RTVSPost2010PropOp34
 70
     1
102
RTVSPost2010Prop35
280
     0
102
RTVSPost2010PropOp35
 70
     1
102
RTVSPost2010Prop36
280
     0
102
RTVSPost2010PropOp36
 70
     1
102
RTVSPost2010Prop37
 90
       50
102
RTVSPost2010PropOp37
 70
     1
102
RTVSPost2010Prop38
140
0.0
102
RTVSPost2010PropOp38
 70
     1
102
RTVSPost2010Prop39
140
1.0
102
RTVSPost2010PropOp39
 70
     1
102
RTVSPost2010Prop40
 90
        0
102
RTVSPost2010PropOp40
 70
     1
102
RTVSPost2010Prop41ColorIndex
 90
       18
102
RTVSPost2010Prop41ColorRGB
 90
        0
102
RTVSPost2010PropOp41
 70
     1
102
RTVSPost2010Prop42
 90
       50
102
RTVSPost2010PropOp42
 70
     1
102
RTVSPost2010Prop43
 90
        3
102
RTVSPost2010PropOp43
 70
     1
102
RTVSPost2010Prop44ColorIndex
 90
        5
102
RTVSPost2010Prop44ColorRGB
 90
      255
102
RTVSPost2010PropOp44
 70
     1
102
RTVSPost2010Prop45
280
     0
102
RTVSPost2010PropOp45
 70
     1
102
RTVSPost2010Prop46
 90
       50
102
RTVSPost2010PropOp46
 70
     1
102
RTVSPost2010Prop47
 90
       50
102
RTVSPost2010PropOp47
 70
     1
102
RTVSPost2010Prop48
 90
       50
102
RTVSPost2010PropOp48
 70
     1
102
RTVSPost2010Prop49
280
     0
102
RTVSPost2010PropOp49
 70
     1
102
RTVSPost2010Prop50
 90
       50
102
RTVSPost2010PropOp50
 70
     1
102
RTVSPost2010Prop51ColorIndex
 90
      256
102
RTVSPost2010Prop51ColorRGB
 90
-16777216
102
RTVSPost2010PropOp51
 70
     0
102
RTVSPost2010Prop52
140
1.0
102
RTVSPost2010PropOp52
 70
     0
102
RTVSPost2010Prop53
 90
        2
102
RTVSPost2010PropOp53
 70
     1
102
RTVSPost2010Prop54
  1
strokes_ogs.tif
102
RTVSPost2010PropOp54
 70
     1
102
RTVSPost2010Prop55
280
     0
102
RTVSPost2010PropOp55
 70
     1
102
RTVSPost2010Prop56
140
1.0
102
RTVSPost2010PropOp56
 70
     1
102
RTVSPost2010Prop57
140
1.0
102
RTVSPost2010PropOp57
 70
     1
102
RTVSPropertyOp0
 70
     1
102
RTVSPropertyOp1
 70
     1
102
RTVSPropertyOp2
 70
     1
102
RTVSPropertyOp3
 70
     1
102
RTVSPropertyOp4
 70
     1
102
RTVSPropertyOp5
 70
     1
102
RTVSPropertyOp6
 70
     1
102
RTVSPropertyOp7
 70
     1
102
RTVSPropertyOp8
 70
     1
102
RTVSPropertyOp9
 70
     1
102
RTVSPropertyOp10
 70
     1
102
RTVSPropertyOp11
 70
     1
102
RTVSPropertyOp12
 70
     1
102
RTVSPropertyOp13
 70
     1
102
RTVSPropertyOp14
 70
     1
102
RTVSPropertyOp15
 70
     1
102
RTVSPropertyOp16
 70
     1
102
RTVSPropertyOp17
 70
     1
102
RTVSPropertyOp18
 70
     1
102
RTVSPropertyOp19
 70
     1
102
RTVSPropertyOp20
 70
     1
102
RTVSPropertyOp21
 70
     1
102
RTVSPropertyOp22
 70
     1
102
RTVSPropertyOp23
 70
     1
102
RTVSPropertyOp24
 70
     1
102
RTVSPropertyOp25
 70
     1
102
RTVSPropertyOp26
 70
     1
102
RTVSPropertyOp27
 70
     1
102
RTVSPropertyOp28
 70
     1
102
RTVSPropertyOp29
 70
     1
102
RTVSPropertyOp30
 70
     1
102
RTVSPropertyOp31
 70
     1
102
RTVSPropertyOp32
 70
     1
102
RTVSPropertyOp33
 70
     1
102
RTVSPropertyOp34
 70
     1
102
RTVSPropertyOp35
 70
     1
102
RTVSPropertyOp36
 70
     1
102
RTVSPropertyOp37
 70
     1
102
RTVSPropertyOp38
 70
     1
102
RTVSPropertyOp39
 70
     1
102
RTVSPropertyOp40
 70
     1
102
RTVSPropertyOp41
 70
     1
102
RTVSPropertyOp42
 70
     1
102
RTVSPropertyOp43
 70
     1
102
RTVSPropertyOp44
 70
     1
102
RTVSPropertyOp45
 70
     1
102
RTVSPropertyOp46
 70
     1
102
RTVSPropertyOp47
 70
     1
102
RTVSPropertyOp48
 70
     1
102
RTVSPropertyOp49
 70
     1
102
RTVSPropertyOp50
 70
     1
102
RTVSPropertyOp51
 70
     0
102
RTVSPropertyOp52
 70
     0
102
RTVSPropertyOp53
 70
     1
102
RTVSPropertyOp54
 70
     1
102
RTVSPropertyOp55
 70
     1
102
RTVSPropertyOp56
 70
     1
102
RTVSPropertyOp57
 70
     1
102
RTVSPropertyOp58
 70
     1
102
RTVSPropertyOp59
 70
     1
102
RTVSPropertyOp60
 70
     1
102
RTVSPropertyOp61
 70
     1
102
RTVSPropertyOp62
 70
     1
  0
XRECORD
  5
9FB6
102
{ACAD_REACTORS
330
9FB5
102
}
330
9FB5
100
AcDbXrecord
280
     1
102
RTVSPost2010Prop28
280
     0
102
RTVSPost2010PropOp28
 70
     1
102
RTVSPost2010Prop29
280
     1
102
RTVSPost2010PropOp29
 70
     1
102
RTVSPost2010Prop30
280
     1
102
RTVSPost2010PropOp30
 70
     1
102
RTVSPost2010Prop31
280
     0
102
RTVSPost2010PropOp31
 70
     1
102
RTVSPost2010Prop32
280
     0
102
RTVSPost2010PropOp32
 70
     1
102
RTVSPost2010Prop33
280
     0
102
RTVSPost2010PropOp33
 70
     1
102
RTVSPost2010Prop34
280
     0
102
RTVSPost2010PropOp34
 70
     1
102
RTVSPost2010Prop35
280
     0
102
RTVSPost2010PropOp35
 70
     1
102
RTVSPost2010Prop36
280
     0
102
RTVSPost2010PropOp36
 70
     1
102
RTVSPost2010Prop37
 90
       50
102
RTVSPost2010PropOp37
 70
     1
102
RTVSPost2010Prop38
140
0.0
102
RTVSPost2010PropOp38
 70
     1
102
RTVSPost2010Prop39
140
1.0
102
RTVSPost2010PropOp39
 70
     1
102
RTVSPost2010Prop40
 90
        0
102
RTVSPost2010PropOp40
 70
     1
102
RTVSPost2010Prop41ColorIndex
 90
       18
102
RTVSPost2010Prop41ColorRGB
 90
        0
102
RTVSPost2010PropOp41
 70
     1
102
RTVSPost2010Prop42
 90
       50
102
RTVSPost2010PropOp42
 70
     1
102
RTVSPost2010Prop43
 90
        3
102
RTVSPost2010PropOp43
 70
     1
102
RTVSPost2010Prop44ColorIndex
 90
        5
102
RTVSPost2010Prop44ColorRGB
 90
      255
102
RTVSPost2010PropOp44
 70
     1
102
RTVSPost2010Prop45
280
     0
102
RTVSPost2010PropOp45
 70
     1
102
RTVSPost2010Prop46
 90
       50
102
RTVSPost2010PropOp46
 70
     1
102
RTVSPost2010Prop47
 90
       50
102
RTVSPost2010PropOp47
 70
     1
102
RTVSPost2010Prop48
 90
       50
102
RTVSPost2010PropOp48
 70
     1
102
RTVSPost2010Prop49
280
     0
102
RTVSPost2010PropOp49
 70
     1
102
RTVSPost2010Prop50
 90
       50
102
RTVSPost2010PropOp50
 70
     1
102
RTVSPost2010Prop51ColorIndex
 90
      256
102
RTVSPost2010Prop51ColorRGB
 90
-16777216
102
RTVSPost2010PropOp51
 70
     0
102
RTVSPost2010Prop52
140
1.0
102
RTVSPost2010PropOp52
 70
     0
102
RTVSPost2010Prop53
 90
        2
102
RTVSPost2010PropOp53
 70
     1
102
RTVSPost2010Prop54
  1
strokes_ogs.tif
102
RTVSPost2010PropOp54
 70
     1
102
RTVSPost2010Prop55
280
     0
102
RTVSPost2010PropOp55
 70
     1
102
RTVSPost2010Prop56
140
1.0
102
RTVSPost2010PropOp56
 70
     1
102
RTVSPost2010Prop57
140
1.0
102
RTVSPost2010PropOp57
 70
     1
102
RTVSPropertyOp0
 70
     1
102
RTVSPropertyOp1
 70
     1
102
RTVSPropertyOp2
 70
     1
102
RTVSPropertyOp3
 70
     1
102
RTVSPropertyOp4
 70
     1
102
RTVSPropertyOp5
 70
     1
102
RTVSPropertyOp6
 70
     1
102
RTVSPropertyOp7
 70
     1
102
RTVSPropertyOp8
 70
     1
102
RTVSPropertyOp9
 70
     1
102
RTVSPropertyOp10
 70
     1
102
RTVSPropertyOp11
 70
     1
102
RTVSPropertyOp12
 70
     1
102
RTVSPropertyOp13
 70
     1
102
RTVSPropertyOp14
 70
     1
102
RTVSPropertyOp15
 70
     1
102
RTVSPropertyOp16
 70
     1
102
RTVSPropertyOp17
 70
     1
102
RTVSPropertyOp18
 70
     1
102
RTVSPropertyOp19
 70
     1
102
RTVSPropertyOp20
 70
     1
102
RTVSPropertyOp21
 70
     1
102
RTVSPropertyOp22
 70
     1
102
RTVSPropertyOp23
 70
     1
102
RTVSPropertyOp24
 70
     1
102
RTVSPropertyOp25
 70
     1
102
RTVSPropertyOp26
 70
     1
102
RTVSPropertyOp27
 70
     1
102
RTVSPropertyOp28
 70
     1
102
RTVSPropertyOp29
 70
     1
102
RTVSPropertyOp30
 70
     1
102
RTVSPropertyOp31
 70
     1
102
RTVSPropertyOp32
 70
     1
102
RTVSPropertyOp33
 70
     1
102
RTVSPropertyOp34
 70
     1
102
RTVSPropertyOp35
 70
     1
102
RTVSPropertyOp36
 70
     1
102
RTVSPropertyOp37
 70
     1
102
RTVSPropertyOp38
 70
     1
102
RTVSPropertyOp39
 70
     1
102
RTVSPropertyOp40
 70
     1
102
RTVSPropertyOp41
 70
     1
102
RTVSPropertyOp42
 70
     1
102
RTVSPropertyOp43
 70
     1
102
RTVSPropertyOp44
 70
     1
102
RTVSPropertyOp45
 70
     1
102
RTVSPropertyOp46
 70
     1
102
RTVSPropertyOp47
 70
     1
102
RTVSPropertyOp48
 70
     1
102
RTVSPropertyOp49
 70
     1
102
RTVSPropertyOp50
 70
     1
102
RTVSPropertyOp51
 70
     0
102
RTVSPropertyOp52
 70
     0
102
RTVSPropertyOp53
 70
     1
102
RTVSPropertyOp54
 70
     1
102
RTVSPropertyOp55
 70
     1
102
RTVSPropertyOp56
 70
     1
102
RTVSPropertyOp57
 70
     1
102
RTVSPropertyOp58
 70
     1
102
RTVSPropertyOp59
 70
     1
102
RTVSPropertyOp60
 70
     1
102
RTVSPropertyOp61
 70
     1
102
RTVSPropertyOp62
 70
     1
  0
XRECORD
  5
9FB0
102
{ACAD_REACTORS
330
9FAF
102
}
330
9FAF
100
AcDbXrecord
280
     1
102
RTVSPost2010Prop28
280
     0
102
RTVSPost2010PropOp28
 70
     1
102
RTVSPost2010Prop29
280
     1
102
RTVSPost2010PropOp29
 70
     1
102
RTVSPost2010Prop30
280
     1
102
RTVSPost2010PropOp30
 70
     1
102
RTVSPost2010Prop31
280
     0
102
RTVSPost2010PropOp31
 70
     1
102
RTVSPost2010Prop32
280
     0
102
RTVSPost2010PropOp32
 70
     1
102
RTVSPost2010Prop33
280
     0
102
RTVSPost2010PropOp33
 70
     1
102
RTVSPost2010Prop34
280
     0
102
RTVSPost2010PropOp34
 70
     1
102
RTVSPost2010Prop35
280
     0
102
RTVSPost2010PropOp35
 70
     1
102
RTVSPost2010Prop36
280
     0
102
RTVSPost2010PropOp36
 70
     1
102
RTVSPost2010Prop37
 90
       50
102
RTVSPost2010PropOp37
 70
     1
102
RTVSPost2010Prop38
140
0.0
102
RTVSPost2010PropOp38
 70
     1
102
RTVSPost2010Prop39
140
1.0
102
RTVSPost2010PropOp39
 70
     1
102
RTVSPost2010Prop40
 90
        0
102
RTVSPost2010PropOp40
 70
     1
102
RTVSPost2010Prop41ColorIndex
 90
       18
102
RTVSPost2010Prop41ColorRGB
 90
        0
102
RTVSPost2010PropOp41
 70
     1
102
RTVSPost2010Prop42
 90
       50
102
RTVSPost2010PropOp42
 70
     1
102
RTVSPost2010Prop43
 90
        3
102
RTVSPost2010PropOp43
 70
     1
102
RTVSPost2010Prop44ColorIndex
 90
        5
102
RTVSPost2010Prop44ColorRGB
 90
      255
102
RTVSPost2010PropOp44
 70
     1
102
RTVSPost2010Prop45
280
     0
102
RTVSPost2010PropOp45
 70
     1
102
RTVSPost2010Prop46
 90
       50
102
RTVSPost2010PropOp46
 70
     1
102
RTVSPost2010Prop47
 90
       50
102
RTVSPost2010PropOp47
 70
     1
102
RTVSPost2010Prop48
 90
       50
102
RTVSPost2010PropOp48
 70
     1
102
RTVSPost2010Prop49
280
     0
102
RTVSPost2010PropOp49
 70
     1
102
RTVSPost2010Prop50
 90
       50
102
RTVSPost2010PropOp50
 70
     1
102
RTVSPost2010Prop51ColorIndex
 90
      256
102
RTVSPost2010Prop51ColorRGB
 90
-16777216
102
RTVSPost2010PropOp51
 70
     0
102
RTVSPost2010Prop52
140
1.0
102
RTVSPost2010PropOp52
 70
     0
102
RTVSPost2010Prop53
 90
        2
102
RTVSPost2010PropOp53
 70
     1
102
RTVSPost2010Prop54
  1
strokes_ogs.tif
102
RTVSPost2010PropOp54
 70
     1
102
RTVSPost2010Prop55
280
     0
102
RTVSPost2010PropOp55
 70
     1
102
RTVSPost2010Prop56
140
1.0
102
RTVSPost2010PropOp56
 70
     1
102
RTVSPost2010Prop57
140
1.0
102
RTVSPost2010PropOp57
 70
     1
102
RTVSPropertyOp0
 70
     1
102
RTVSPropertyOp1
 70
     1
102
RTVSPropertyOp2
 70
     1
102
RTVSPropertyOp3
 70
     1
102
RTVSPropertyOp4
 70
     1
102
RTVSPropertyOp5
 70
     1
102
RTVSPropertyOp6
 70
     1
102
RTVSPropertyOp7
 70
     1
102
RTVSPropertyOp8
 70
     1
102
RTVSPropertyOp9
 70
     1
102
RTVSPropertyOp10
 70
     1
102
RTVSPropertyOp11
 70
     1
102
RTVSPropertyOp12
 70
     1
102
RTVSPropertyOp13
 70
     1
102
RTVSPropertyOp14
 70
     1
102
RTVSPropertyOp15
 70
     1
102
RTVSPropertyOp16
 70
     1
102
RTVSPropertyOp17
 70
     1
102
RTVSPropertyOp18
 70
     1
102
RTVSPropertyOp19
 70
     1
102
RTVSPropertyOp20
 70
     1
102
RTVSPropertyOp21
 70
     1
102
RTVSPropertyOp22
 70
     1
102
RTVSPropertyOp23
 70
     1
102
RTVSPropertyOp24
 70
     1
102
RTVSPropertyOp25
 70
     1
102
RTVSPropertyOp26
 70
     1
102
RTVSPropertyOp27
 70
     1
102
RTVSPropertyOp28
 70
     1
102
RTVSPropertyOp29
 70
     1
102
RTVSPropertyOp30
 70
     1
102
RTVSPropertyOp31
 70
     1
102
RTVSPropertyOp32
 70
     1
102
RTVSPropertyOp33
 70
     1
102
RTVSPropertyOp34
 70
     1
102
RTVSPropertyOp35
 70
     1
102
RTVSPropertyOp36
 70
     1
102
RTVSPropertyOp37
 70
     1
102
RTVSPropertyOp38
 70
     1
102
RTVSPropertyOp39
 70
     1
102
RTVSPropertyOp40
 70
     1
102
RTVSPropertyOp41
 70
     1
102
RTVSPropertyOp42
 70
     1
102
RTVSPropertyOp43
 70
     1
102
RTVSPropertyOp44
 70
     1
102
RTVSPropertyOp45
 70
     1
102
RTVSPropertyOp46
 70
     1
102
RTVSPropertyOp47
 70
     1
102
RTVSPropertyOp48
 70
     1
102
RTVSPropertyOp49
 70
     1
102
RTVSPropertyOp50
 70
     1
102
RTVSPropertyOp51
 70
     0
102
RTVSPropertyOp52
 70
     0
102
RTVSPropertyOp53
 70
     1
102
RTVSPropertyOp54
 70
     1
102
RTVSPropertyOp55
 70
     1
102
RTVSPropertyOp56
 70
     1
102
RTVSPropertyOp57
 70
     1
102
RTVSPropertyOp58
 70
     1
102
RTVSPropertyOp59
 70
     1
102
RTVSPropertyOp60
 70
     1
102
RTVSPropertyOp61
 70
     1
102
RTVSPropertyOp62
 70
     1
  0
XRECORD
  5
9FB2
102
{ACAD_REACTORS
330
9FB1
102
}
330
9FB1
100
AcDbXrecord
280
     1
102
RTVSPost2010Prop28
280
     0
102
RTVSPost2010PropOp28
 70
     1
102
RTVSPost2010Prop29
280
     1
102
RTVSPost2010PropOp29
 70
     1
102
RTVSPost2010Prop30
280
     1
102
RTVSPost2010PropOp30
 70
     1
102
RTVSPost2010Prop31
280
     0
102
RTVSPost2010PropOp31
 70
     1
102
RTVSPost2010Prop32
280
     0
102
RTVSPost2010PropOp32
 70
     1
102
RTVSPost2010Prop33
280
     0
102
RTVSPost2010PropOp33
 70
     1
102
RTVSPost2010Prop34
280
     0
102
RTVSPost2010PropOp34
 70
     1
102
RTVSPost2010Prop35
280
     0
102
RTVSPost2010PropOp35
 70
     1
102
RTVSPost2010Prop36
280
     0
102
RTVSPost2010PropOp36
 70
     1
102
RTVSPost2010Prop37
 90
       50
102
RTVSPost2010PropOp37
 70
     1
102
RTVSPost2010Prop38
140
0.0
102
RTVSPost2010PropOp38
 70
     1
102
RTVSPost2010Prop39
140
1.0
102
RTVSPost2010PropOp39
 70
     1
102
RTVSPost2010Prop40
 90
        0
102
RTVSPost2010PropOp40
 70
     1
102
RTVSPost2010Prop41ColorIndex
 90
       18
102
RTVSPost2010Prop41ColorRGB
 90
        0
102
RTVSPost2010PropOp41
 70
     1
102
RTVSPost2010Prop42
 90
       50
102
RTVSPost2010PropOp42
 70
     1
102
RTVSPost2010Prop43
 90
        3
102
RTVSPost2010PropOp43
 70
     1
102
RTVSPost2010Prop44ColorIndex
 90
        5
102
RTVSPost2010Prop44ColorRGB
 90
      255
102
RTVSPost2010PropOp44
 70
     1
102
RTVSPost2010Prop45
280
     0
102
RTVSPost2010PropOp45
 70
     1
102
RTVSPost2010Prop46
 90
       50
102
RTVSPost2010PropOp46
 70
     1
102
RTVSPost2010Prop47
 90
       50
102
RTVSPost2010PropOp47
 70
     1
102
RTVSPost2010Prop48
 90
       50
102
RTVSPost2010PropOp48
 70
     1
102
RTVSPost2010Prop49
280
     0
102
RTVSPost2010PropOp49
 70
     1
102
RTVSPost2010Prop50
 90
       50
102
RTVSPost2010PropOp50
 70
     1
102
RTVSPost2010Prop51ColorIndex
 90
      256
102
RTVSPost2010Prop51ColorRGB
 90
-16777216
102
RTVSPost2010PropOp51
 70
     0
102
RTVSPost2010Prop52
140
1.0
102
RTVSPost2010PropOp52
 70
     0
102
RTVSPost2010Prop53
 90
        2
102
RTVSPost2010PropOp53
 70
     1
102
RTVSPost2010Prop54
  1
strokes_ogs.tif
102
RTVSPost2010PropOp54
 70
     1
102
RTVSPost2010Prop55
280
     0
102
RTVSPost2010PropOp55
 70
     1
102
RTVSPost2010Prop56
140
1.0
102
RTVSPost2010PropOp56
 70
     1
102
RTVSPost2010Prop57
140
1.0
102
RTVSPost2010PropOp57
 70
     1
102
RTVSPropertyOp0
 70
     1
102
RTVSPropertyOp1
 70
     1
102
RTVSPropertyOp2
 70
     1
102
RTVSPropertyOp3
 70
     1
102
RTVSPropertyOp4
 70
     1
102
RTVSPropertyOp5
 70
     1
102
RTVSPropertyOp6
 70
     1
102
RTVSPropertyOp7
 70
     1
102
RTVSPropertyOp8
 70
     1
102
RTVSPropertyOp9
 70
     1
102
RTVSPropertyOp10
 70
     1
102
RTVSPropertyOp11
 70
     1
102
RTVSPropertyOp12
 70
     1
102
RTVSPropertyOp13
 70
     1
102
RTVSPropertyOp14
 70
     1
102
RTVSPropertyOp15
 70
     1
102
RTVSPropertyOp16
 70
     1
102
RTVSPropertyOp17
 70
     1
102
RTVSPropertyOp18
 70
     1
102
RTVSPropertyOp19
 70
     1
102
RTVSPropertyOp20
 70
     1
102
RTVSPropertyOp21
 70
     1
102
RTVSPropertyOp22
 70
     1
102
RTVSPropertyOp23
 70
     1
102
RTVSPropertyOp24
 70
     1
102
RTVSPropertyOp25
 70
     1
102
RTVSPropertyOp26
 70
     1
102
RTVSPropertyOp27
 70
     1
102
RTVSPropertyOp28
 70
     1
102
RTVSPropertyOp29
 70
     1
102
RTVSPropertyOp30
 70
     1
102
RTVSPropertyOp31
 70
     1
102
RTVSPropertyOp32
 70
     1
102
RTVSPropertyOp33
 70
     1
102
RTVSPropertyOp34
 70
     1
102
RTVSPropertyOp35
 70
     1
102
RTVSPropertyOp36
 70
     1
102
RTVSPropertyOp37
 70
     1
102
RTVSPropertyOp38
 70
     1
102
RTVSPropertyOp39
 70
     1
102
RTVSPropertyOp40
 70
     1
102
RTVSPropertyOp41
 70
     1
102
RTVSPropertyOp42
 70
     1
102
RTVSPropertyOp43
 70
     1
102
RTVSPropertyOp44
 70
     1
102
RTVSPropertyOp45
 70
     1
102
RTVSPropertyOp46
 70
     1
102
RTVSPropertyOp47
 70
     1
102
RTVSPropertyOp48
 70
     1
102
RTVSPropertyOp49
 70
     1
102
RTVSPropertyOp50
 70
     1
102
RTVSPropertyOp51
 70
     0
102
RTVSPropertyOp52
 70
     0
102
RTVSPropertyOp53
 70
     1
102
RTVSPropertyOp54
 70
     1
102
RTVSPropertyOp55
 70
     1
102
RTVSPropertyOp56
 70
     1
102
RTVSPropertyOp57
 70
     1
102
RTVSPropertyOp58
 70
     1
102
RTVSPropertyOp59
 70
     1
102
RTVSPropertyOp60
 70
     1
102
RTVSPropertyOp61
 70
     1
102
RTVSPropertyOp62
 70
     1
  0
XRECORD
  5
9FA8
102
{ACAD_REACTORS
330
9FA7
102
}
330
9FA7
100
AcDbXrecord
280
     1
102
RTVSPost2010Prop28
280
     0
102
RTVSPost2010PropOp28
 70
     1
102
RTVSPost2010Prop29
280
     1
102
RTVSPost2010PropOp29
 70
     1
102
RTVSPost2010Prop30
280
     1
102
RTVSPost2010PropOp30
 70
     1
102
RTVSPost2010Prop31
280
     0
102
RTVSPost2010PropOp31
 70
     1
102
RTVSPost2010Prop32
280
     0
102
RTVSPost2010PropOp32
 70
     1
102
RTVSPost2010Prop33
280
     0
102
RTVSPost2010PropOp33
 70
     1
102
RTVSPost2010Prop34
280
     0
102
RTVSPost2010PropOp34
 70
     1
102
RTVSPost2010Prop35
280
     0
102
RTVSPost2010PropOp35
 70
     1
102
RTVSPost2010Prop36
280
     0
102
RTVSPost2010PropOp36
 70
     1
102
RTVSPost2010Prop37
 90
       50
102
RTVSPost2010PropOp37
 70
     1
102
RTVSPost2010Prop38
140
0.0
102
RTVSPost2010PropOp38
 70
     1
102
RTVSPost2010Prop39
140
1.0
102
RTVSPost2010PropOp39
 70
     1
102
RTVSPost2010Prop40
 90
        0
102
RTVSPost2010PropOp40
 70
     1
102
RTVSPost2010Prop41ColorIndex
 90
       18
102
RTVSPost2010Prop41ColorRGB
 90
        0
102
RTVSPost2010PropOp41
 70
     1
102
RTVSPost2010Prop42
 90
       50
102
RTVSPost2010PropOp42
 70
     1
102
RTVSPost2010Prop43
 90
        3
102
RTVSPost2010PropOp43
 70
     1
102
RTVSPost2010Prop44ColorIndex
 90
        5
102
RTVSPost2010Prop44ColorRGB
 90
      255
102
RTVSPost2010PropOp44
 70
     1
102
RTVSPost2010Prop45
280
     0
102
RTVSPost2010PropOp45
 70
     1
102
RTVSPost2010Prop46
 90
       50
102
RTVSPost2010PropOp46
 70
     1
102
RTVSPost2010Prop47
 90
       50
102
RTVSPost2010PropOp47
 70
     1
102
RTVSPost2010Prop48
 90
       50
102
RTVSPost2010PropOp48
 70
     1
102
RTVSPost2010Prop49
280
     0
102
RTVSPost2010PropOp49
 70
     1
102
RTVSPost2010Prop50
 90
       50
102
RTVSPost2010PropOp50
 70
     1
102
RTVSPost2010Prop51ColorIndex
 90
      256
102
RTVSPost2010Prop51ColorRGB
 90
-16777216
102
RTVSPost2010PropOp51
 70
     0
102
RTVSPost2010Prop52
140
1.0
102
RTVSPost2010PropOp52
 70
     0
102
RTVSPost2010Prop53
 90
        2
102
RTVSPost2010PropOp53
 70
     1
102
RTVSPost2010Prop54
  1
strokes_ogs.tif
102
RTVSPost2010PropOp54
 70
     1
102
RTVSPost2010Prop55
280
     0
102
RTVSPost2010PropOp55
 70
     1
102
RTVSPost2010Prop56
140
1.0
102
RTVSPost2010PropOp56
 70
     1
102
RTVSPost2010Prop57
140
1.0
102
RTVSPost2010PropOp57
 70
     1
102
RTVSPropertyOp0
 70
     1
102
RTVSPropertyOp1
 70
     1
102
RTVSPropertyOp2
 70
     1
102
RTVSPropertyOp3
 70
     1
102
RTVSPropertyOp4
 70
     1
102
RTVSPropertyOp5
 70
     1
102
RTVSPropertyOp6
 70
     1
102
RTVSPropertyOp7
 70
     1
102
RTVSPropertyOp8
 70
     1
102
RTVSPropertyOp9
 70
     1
102
RTVSPropertyOp10
 70
     1
102
RTVSPropertyOp11
 70
     1
102
RTVSPropertyOp12
 70
     1
102
RTVSPropertyOp13
 70
     1
102
RTVSPropertyOp14
 70
     1
102
RTVSPropertyOp15
 70
     1
102
RTVSPropertyOp16
 70
     1
102
RTVSPropertyOp17
 70
     1
102
RTVSPropertyOp18
 70
     1
102
RTVSPropertyOp19
 70
     1
102
RTVSPropertyOp20
 70
     1
102
RTVSPropertyOp21
 70
     1
102
RTVSPropertyOp22
 70
     1
102
RTVSPropertyOp23
 70
     1
102
RTVSPropertyOp24
 70
     1
102
RTVSPropertyOp25
 70
     1
102
RTVSPropertyOp26
 70
     1
102
RTVSPropertyOp27
 70
     1
102
RTVSPropertyOp28
 70
     1
102
RTVSPropertyOp29
 70
     1
102
RTVSPropertyOp30
 70
     1
102
RTVSPropertyOp31
 70
     1
102
RTVSPropertyOp32
 70
     1
102
RTVSPropertyOp33
 70
     1
102
RTVSPropertyOp34
 70
     1
102
RTVSPropertyOp35
 70
     1
102
RTVSPropertyOp36
 70
     1
102
RTVSPropertyOp37
 70
     1
102
RTVSPropertyOp38
 70
     1
102
RTVSPropertyOp39
 70
     1
102
RTVSPropertyOp40
 70
     1
102
RTVSPropertyOp41
 70
     1
102
RTVSPropertyOp42
 70
     1
102
RTVSPropertyOp43
 70
     1
102
RTVSPropertyOp44
 70
     1
102
RTVSPropertyOp45
 70
     1
102
RTVSPropertyOp46
 70
     1
102
RTVSPropertyOp47
 70
     1
102
RTVSPropertyOp48
 70
     1
102
RTVSPropertyOp49
 70
     1
102
RTVSPropertyOp50
 70
     1
102
RTVSPropertyOp51
 70
     0
102
RTVSPropertyOp52
 70
     0
102
RTVSPropertyOp53
 70
     1
102
RTVSPropertyOp54
 70
     1
102
RTVSPropertyOp55
 70
     1
102
RTVSPropertyOp56
 70
     1
102
RTVSPropertyOp57
 70
     1
102
RTVSPropertyOp58
 70
     1
102
RTVSPropertyOp59
 70
     1
102
RTVSPropertyOp60
 70
     1
102
RTVSPropertyOp61
 70
     1
102
RTVSPropertyOp62
 70
     1
  0
XRECORD
  5
9F9C
102
{ACAD_REACTORS
330
9F9B
102
}
330
9F9B
100
AcDbXrecord
280
     1
102
RTVSPost2010Prop28
280
     0
102
RTVSPost2010PropOp28
 70
     1
102
RTVSPost2010Prop29
280
     1
102
RTVSPost2010PropOp29
 70
     1
102
RTVSPost2010Prop30
280
     1
102
RTVSPost2010PropOp30
 70
     1
102
RTVSPost2010Prop31
280
     0
102
RTVSPost2010PropOp31
 70
     1
102
RTVSPost2010Prop32
280
     0
102
RTVSPost2010PropOp32
 70
     1
102
RTVSPost2010Prop33
280
     0
102
RTVSPost2010PropOp33
 70
     1
102
RTVSPost2010Prop34
280
     0
102
RTVSPost2010PropOp34
 70
     1
102
RTVSPost2010Prop35
280
     0
102
RTVSPost2010PropOp35
 70
     1
102
RTVSPost2010Prop36
280
     0
102
RTVSPost2010PropOp36
 70
     1
102
RTVSPost2010Prop37
 90
       50
102
RTVSPost2010PropOp37
 70
     1
102
RTVSPost2010Prop38
140
0.0
102
RTVSPost2010PropOp38
 70
     1
102
RTVSPost2010Prop39
140
1.0
102
RTVSPost2010PropOp39
 70
     1
102
RTVSPost2010Prop40
 90
        0
102
RTVSPost2010PropOp40
 70
     1
102
RTVSPost2010Prop41ColorIndex
 90
       18
102
RTVSPost2010Prop41ColorRGB
 90
        0
102
RTVSPost2010PropOp41
 70
     1
102
RTVSPost2010Prop42
 90
       50
102
RTVSPost2010PropOp42
 70
     1
102
RTVSPost2010Prop43
 90
        3
102
RTVSPost2010PropOp43
 70
     1
102
RTVSPost2010Prop44ColorIndex
 90
        5
102
RTVSPost2010Prop44ColorRGB
 90
      255
102
RTVSPost2010PropOp44
 70
     1
102
RTVSPost2010Prop45
280
     0
102
RTVSPost2010PropOp45
 70
     1
102
RTVSPost2010Prop46
 90
       50
102
RTVSPost2010PropOp46
 70
     1
102
RTVSPost2010Prop47
 90
       50
102
RTVSPost2010PropOp47
 70
     1
102
RTVSPost2010Prop48
 90
       50
102
RTVSPost2010PropOp48
 70
     1
102
RTVSPost2010Prop49
280
     0
102
RTVSPost2010PropOp49
 70
     1
102
RTVSPost2010Prop50
 90
       50
102
RTVSPost2010PropOp50
 70
     1
102
RTVSPost2010Prop51ColorIndex
 90
      256
102
RTVSPost2010Prop51ColorRGB
 90
-16777216
102
RTVSPost2010PropOp51
 70
     0
102
RTVSPost2010Prop52
140
1.0
102
RTVSPost2010PropOp52
 70
     0
102
RTVSPost2010Prop53
 90
        2
102
RTVSPost2010PropOp53
 70
     1
102
RTVSPost2010Prop54
  1
strokes_ogs.tif
102
RTVSPost2010PropOp54
 70
     1
102
RTVSPost2010Prop55
280
     0
102
RTVSPost2010PropOp55
 70
     1
102
RTVSPost2010Prop56
140
1.0
102
RTVSPost2010PropOp56
 70
     1
102
RTVSPost2010Prop57
140
1.0
102
RTVSPost2010PropOp57
 70
     1
102
RTVSPropertyOp0
 70
     1
102
RTVSPropertyOp1
 70
     1
102
RTVSPropertyOp2
 70
     1
102
RTVSPropertyOp3
 70
     1
102
RTVSPropertyOp4
 70
     1
102
RTVSPropertyOp5
 70
     1
102
RTVSPropertyOp6
 70
     1
102
RTVSPropertyOp7
 70
     1
102
RTVSPropertyOp8
 70
     1
102
RTVSPropertyOp9
 70
     1
102
RTVSPropertyOp10
 70
     1
102
RTVSPropertyOp11
 70
     1
102
RTVSPropertyOp12
 70
     1
102
RTVSPropertyOp13
 70
     1
102
RTVSPropertyOp14
 70
     1
102
RTVSPropertyOp15
 70
     1
102
RTVSPropertyOp16
 70
     1
102
RTVSPropertyOp17
 70
     1
102
RTVSPropertyOp18
 70
     1
102
RTVSPropertyOp19
 70
     1
102
RTVSPropertyOp20
 70
     1
102
RTVSPropertyOp21
 70
     1
102
RTVSPropertyOp22
 70
     1
102
RTVSPropertyOp23
 70
     1
102
RTVSPropertyOp24
 70
     1
102
RTVSPropertyOp25
 70
     1
102
RTVSPropertyOp26
 70
     1
102
RTVSPropertyOp27
 70
     1
102
RTVSPropertyOp28
 70
     1
102
RTVSPropertyOp29
 70
     1
102
RTVSPropertyOp30
 70
     1
102
RTVSPropertyOp31
 70
     1
102
RTVSPropertyOp32
 70
     1
102
RTVSPropertyOp33
 70
     1
102
RTVSPropertyOp34
 70
     1
102
RTVSPropertyOp35
 70
     1
102
RTVSPropertyOp36
 70
     1
102
RTVSPropertyOp37
 70
     1
102
RTVSPropertyOp38
 70
     1
102
RTVSPropertyOp39
 70
     1
102
RTVSPropertyOp40
 70
     1
102
RTVSPropertyOp41
 70
     1
102
RTVSPropertyOp42
 70
     1
102
RTVSPropertyOp43
 70
     1
102
RTVSPropertyOp44
 70
     1
102
RTVSPropertyOp45
 70
     1
102
RTVSPropertyOp46
 70
     1
102
RTVSPropertyOp47
 70
     1
102
RTVSPropertyOp48
 70
     1
102
RTVSPropertyOp49
 70
     1
102
RTVSPropertyOp50
 70
     1
102
RTVSPropertyOp51
 70
     0
102
RTVSPropertyOp52
 70
     0
102
RTVSPropertyOp53
 70
     1
102
RTVSPropertyOp54
 70
     1
102
RTVSPropertyOp55
 70
     1
102
RTVSPropertyOp56
 70
     1
102
RTVSPropertyOp57
 70
     1
102
RTVSPropertyOp58
 70
     1
102
RTVSPropertyOp59
 70
     1
102
RTVSPropertyOp60
 70
     1
102
RTVSPropertyOp61
 70
     1
102
RTVSPropertyOp62
 70
     1
  0
XRECORD
  5
9FB4
102
{ACAD_REACTORS
330
9FB3
102
}
330
9FB3
100
AcDbXrecord
280
     1
102
RTVSPost2010Prop28
280
     0
102
RTVSPost2010PropOp28
 70
     1
102
RTVSPost2010Prop29
280
     1
102
RTVSPost2010PropOp29
 70
     1
102
RTVSPost2010Prop30
280
     1
102
RTVSPost2010PropOp30
 70
     1
102
RTVSPost2010Prop31
280
     0
102
RTVSPost2010PropOp31
 70
     1
102
RTVSPost2010Prop32
280
     0
102
RTVSPost2010PropOp32
 70
     1
102
RTVSPost2010Prop33
280
     0
102
RTVSPost2010PropOp33
 70
     1
102
RTVSPost2010Prop34
280
     0
102
RTVSPost2010PropOp34
 70
     1
102
RTVSPost2010Prop35
280
     0
102
RTVSPost2010PropOp35
 70
     1
102
RTVSPost2010Prop36
280
     0
102
RTVSPost2010PropOp36
 70
     1
102
RTVSPost2010Prop37
 90
       50
102
RTVSPost2010PropOp37
 70
     1
102
RTVSPost2010Prop38
140
0.0
102
RTVSPost2010PropOp38
 70
     1
102
RTVSPost2010Prop39
140
1.0
102
RTVSPost2010PropOp39
 70
     1
102
RTVSPost2010Prop40
 90
        0
102
RTVSPost2010PropOp40
 70
     1
102
RTVSPost2010Prop41ColorIndex
 90
       18
102
RTVSPost2010Prop41ColorRGB
 90
        0
102
RTVSPost2010PropOp41
 70
     1
102
RTVSPost2010Prop42
 90
       50
102
RTVSPost2010PropOp42
 70
     1
102
RTVSPost2010Prop43
 90
        3
102
RTVSPost2010PropOp43
 70
     1
102
RTVSPost2010Prop44ColorIndex
 90
        5
102
RTVSPost2010Prop44ColorRGB
 90
      255
102
RTVSPost2010PropOp44
 70
     1
102
RTVSPost2010Prop45
280
     0
102
RTVSPost2010PropOp45
 70
     1
102
RTVSPost2010Prop46
 90
       50
102
RTVSPost2010PropOp46
 70
     1
102
RTVSPost2010Prop47
 90
       50
102
RTVSPost2010PropOp47
 70
     1
102
RTVSPost2010Prop48
 90
       50
102
RTVSPost2010PropOp48
 70
     1
102
RTVSPost2010Prop49
280
     0
102
RTVSPost2010PropOp49
 70
     1
102
RTVSPost2010Prop50
 90
       50
102
RTVSPost2010PropOp50
 70
     1
102
RTVSPost2010Prop51ColorIndex
 90
      256
102
RTVSPost2010Prop51ColorRGB
 90
-16777216
102
RTVSPost2010PropOp51
 70
     0
102
RTVSPost2010Prop52
140
1.0
102
RTVSPost2010PropOp52
 70
     0
102
RTVSPost2010Prop53
 90
        2
102
RTVSPost2010PropOp53
 70
     1
102
RTVSPost2010Prop54
  1
strokes_ogs.tif
102
RTVSPost2010PropOp54
 70
     1
102
RTVSPost2010Prop55
280
     0
102
RTVSPost2010PropOp55
 70
     1
102
RTVSPost2010Prop56
140
1.0
102
RTVSPost2010PropOp56
 70
     1
102
RTVSPost2010Prop57
140
1.0
102
RTVSPost2010PropOp57
 70
     1
102
RTVSPropertyOp0
 70
     1
102
RTVSPropertyOp1
 70
     1
102
RTVSPropertyOp2
 70
     1
102
RTVSPropertyOp3
 70
     1
102
RTVSPropertyOp4
 70
     1
102
RTVSPropertyOp5
 70
     1
102
RTVSPropertyOp6
 70
     1
102
RTVSPropertyOp7
 70
     1
102
RTVSPropertyOp8
 70
     1
102
RTVSPropertyOp9
 70
     1
102
RTVSPropertyOp10
 70
     1
102
RTVSPropertyOp11
 70
     1
102
RTVSPropertyOp12
 70
     1
102
RTVSPropertyOp13
 70
     1
102
RTVSPropertyOp14
 70
     1
102
RTVSPropertyOp15
 70
     1
102
RTVSPropertyOp16
 70
     1
102
RTVSPropertyOp17
 70
     1
102
RTVSPropertyOp18
 70
     1
102
RTVSPropertyOp19
 70
     1
102
RTVSPropertyOp20
 70
     1
102
RTVSPropertyOp21
 70
     1
102
RTVSPropertyOp22
 70
     1
102
RTVSPropertyOp23
 70
     1
102
RTVSPropertyOp24
 70
     1
102
RTVSPropertyOp25
 70
     1
102
RTVSPropertyOp26
 70
     1
102
RTVSPropertyOp27
 70
     1
102
RTVSPropertyOp28
 70
     1
102
RTVSPropertyOp29
 70
     1
102
RTVSPropertyOp30
 70
     1
102
RTVSPropertyOp31
 70
     1
102
RTVSPropertyOp32
 70
     1
102
RTVSPropertyOp33
 70
     1
102
RTVSPropertyOp34
 70
     1
102
RTVSPropertyOp35
 70
     1
102
RTVSPropertyOp36
 70
     1
102
RTVSPropertyOp37
 70
     1
102
RTVSPropertyOp38
 70
     1
102
RTVSPropertyOp39
 70
     1
102
RTVSPropertyOp40
 70
     1
102
RTVSPropertyOp41
 70
     1
102
RTVSPropertyOp42
 70
     1
102
RTVSPropertyOp43
 70
     1
102
RTVSPropertyOp44
 70
     1
102
RTVSPropertyOp45
 70
     1
102
RTVSPropertyOp46
 70
     1
102
RTVSPropertyOp47
 70
     1
102
RTVSPropertyOp48
 70
     1
102
RTVSPropertyOp49
 70
     1
102
RTVSPropertyOp50
 70
     1
102
RTVSPropertyOp51
 70
     0
102
RTVSPropertyOp52
 70
     0
102
RTVSPropertyOp53
 70
     1
102
RTVSPropertyOp54
 70
     1
102
RTVSPropertyOp55
 70
     1
102
RTVSPropertyOp56
 70
     1
102
RTVSPropertyOp57
 70
     1
102
RTVSPropertyOp58
 70
     1
102
RTVSPropertyOp59
 70
     1
102
RTVSPropertyOp60
 70
     1
102
RTVSPropertyOp61
 70
     1
102
RTVSPropertyOp62
 70
     1
  0
ENDSEC
  0
EOF
