  0
SECTION
  2
HEADER
  9
$ACADVER
  1
AC1015
  9
$ACADMAINTVER
 70
    20
  9
$DWGCODEPAGE
  3
ANSI_932
  9
$INSBASE
 10
0.0
 20
0.0
 30
0.0
  9
$EXTMIN
 10
10.0
 20
9.999999999999998
 30
0.0
  9
$EXTMAX
 10
485.5
 20
326.25633
 30
0.0
  9
$LIMMIN
 10
0.0
 20
0.0
  9
$LIMMAX
 10
495.0
 20
341.25
  9
$ORTHOMODE
 70
     1
  9
$REGENMODE
 70
     1
  9
$FILLMODE
 70
     1
  9
$QTEXTMODE
 70
     0
  9
$MIRRTEXT
 70
     1
  9
$LTSCALE
 40
20.0
  9
$ATTMODE
 70
     1
  9
$TEXTSIZE
 40
5.0
  9
$TRACEWID
 40
1.0
  9
$TEXTSTYLE
  7
STANDARD
  9
$CLAYER
  8
0
  9
$CELTYPE
  6
BYLAYER
  9
$CECOLOR
 62
   256
  9
$CELTSCALE
 40
1.0
  9
$DISPSILH
 70
     0
  9
$DIMSCALE
 40
1.0
  9
$DIMASZ
 40
3.0
  9
$DIMEXO
 40
1.0
  9
$DIMDLI
 40
10.0
  9
$DIMRND
 40
0.0
  9
$DIMDLE
 40
0.0
  9
$DIMEXE
 40
1.0
  9
$DIMTP
 40
0.0
  9
$DIMTM
 40
0.0
  9
$DIMTXT
 40
3.2
  9
$DIMCEN
 40
0.0
  9
$DIMTSZ
 40
0.0
  9
$DIMTOL
 70
     0
  9
$DIMLIM
 70
     0
  9
$DIMTIH
 70
     0
  9
$DIMTOH
 70
     0
  9
$DIMSE1
 70
     0
  9
$DIMSE2
 70
     0
  9
$DIMTAD
 70
     3
  9
$DIMZIN
 70
     8
  9
$DIMBLK
  1

  9
$DIMASO
 70
     1
  9
$DIMSHO
 70
     1
  9
$DIMPOST
  1

  9
$DIMAPOST
  1

  9
$DIMALT
 70
     0
  9
$DIMALTD
 70
     2
  9
$DIMALTF
 40
25.4
  9
$DIMLFAC
 40
1.0
  9
$DIMTOFL
 70
     1
  9
$DIMTVP
 40
0.0
  9
$DIMTIX
 70
     0
  9
$DIMSOXD
 70
     0
  9
$DIMSAH
 70
     1
  9
$DIMBLK1
  1
OPEN
  9
$DIMBLK2
  1
OPEN
  9
$DIMSTYLE
  2
STANDARD
  9
$DIMCLRD
 70
     0
  9
$DIMCLRE
 70
     0
  9
$DIMCLRT
 70
     0
  9
$DIMTFAC
 40
1.0
  9
$DIMGAP
 40
1.0
  9
$DIMJUST
 70
     0
  9
$DIMSD1
 70
     0
  9
$DIMSD2
 70
     0
  9
$DIMTOLJ
 70
     1
  9
$DIMTZIN
 70
     0
  9
$DIMALTZ
 70
     0
  9
$DIMALTTZ
 70
     0
  9
$DIMUPT
 70
     0
  9
$DIMDEC
 70
     4
  9
$DIMTDEC
 70
     4
  9
$DIMALTU
 70
     2
  9
$DIMALTTD
 70
     2
  9
$DIMTXSTY
  7
STANDARD
  9
$DIMAUNIT
 70
     0
  9
$DIMADEC
 70
     0
  9
$DIMALTRND
 40
0.0
  9
$DIMAZIN
 70
     0
  9
$DIMDSEP
 70
    46
  9
$DIMATFIT
 70
     3
  9
$DIMFRAC
 70
     0
  9
$DIMLDRBLK
  1
OPEN
  9
$DIMLUNIT
 70
     2
  9
$DIMLWD
 70
    -2
  9
$DIMLWE
 70
    -2
  9
$DIMTMOVE
 70
     0
  9
$LUNITS
 70
     2
  9
$LUPREC
 70
     4
  9
$SKETCHINC
 40
1.0
  9
$FILLETRAD
 40
1.0
  9
$AUNITS
 70
     0
  9
$AUPREC
 70
     2
  9
$MENU
  1
.
  9
$ELEVATION
 40
0.0
  9
$PELEVATION
 40
0.0
  9
$THICKNESS
 40
0.0
  9
$LIMCHECK
 70
     0
  9
$CHAMFERA
 40
10.0
  9
$CHAMFERB
 40
10.0
  9
$CHAMFERC
 40
0.0
  9
$CHAMFERD
 40
0.0
  9
$SKPOLY
 70
     0
  9
$TDCREATE
 40
2451303.376488079
  9
$TDUCREATE
 40
2451303.001488079
  9
$TDUPDATE
 40
2457192.687070139
  9
$TDUUPDATE
 40
2457192.312070139
  9
$TDINDWG
 40
0.0000133565
  9
$TDUSRTIMER
 40
0.0000130440
  9
$USRTIMER
 70
     1
  9
$ANGBASE
 50
0.0
  9
$ANGDIR
 70
     0
  9
$PDMODE
 70
    34
  9
$PDSIZE
 40
0.0
  9
$PLINEWID
 40
0.0
  9
$SPLFRAME
 70
     0
  9
$SPLINETYPE
 70
     6
  9
$SPLINESEGS
 70
     8
  9
$HANDSEED
  5
C42A
  9
$SURFTAB1
 70
     6
  9
$SURFTAB2
 70
     6
  9
$SURFTYPE
 70
     6
  9
$SURFU
 70
     6
  9
$SURFV
 70
     6
  9
$UCSBASE
  2

  9
$UCSNAME
  2

  9
$UCSORG
 10
0.0
 20
0.0
 30
0.0
  9
$UCSXDIR
 10
1.0
 20
0.0
 30
0.0
  9
$UCSYDIR
 10
0.0
 20
1.0
 30
0.0
  9
$UCSORTHOREF
  2

  9
$UCSORTHOVIEW
 70
     0
  9
$UCSORGTOP
 10
0.0
 20
0.0
 30
0.0
  9
$UCSORGBOTTOM
 10
0.0
 20
0.0
 30
0.0
  9
$UCSORGLEFT
 10
0.0
 20
0.0
 30
0.0
  9
$UCSORGRIGHT
 10
0.0
 20
0.0
 30
0.0
  9
$UCSORGFRONT
 10
0.0
 20
0.0
 30
0.0
  9
$UCSORGBACK
 10
0.0
 20
0.0
 30
0.0
  9
$PUCSBASE
  2

  9
$PUCSNAME
  2

  9
$PUCSORG
 10
0.0
 20
0.0
 30
0.0
  9
$PUCSXDIR
 10
1.0
 20
0.0
 30
0.0
  9
$PUCSYDIR
 10
0.0
 20
1.0
 30
0.0
  9
$PUCSORTHOREF
  2

  9
$PUCSORTHOVIEW
 70
     0
  9
$PUCSORGTOP
 10
0.0
 20
0.0
 30
0.0
  9
$PUCSORGBOTTOM
 10
0.0
 20
0.0
 30
0.0
  9
$PUCSORGLEFT
 10
0.0
 20
0.0
 30
0.0
  9
$PUCSORGRIGHT
 10
0.0
 20
0.0
 30
0.0
  9
$PUCSORGFRONT
 10
0.0
 20
0.0
 30
0.0
  9
$PUCSORGBACK
 10
0.0
 20
0.0
 30
0.0
  9
$USERI1
 70
     0
  9
$USERI2
 70
     0
  9
$USERI3
 70
     0
  9
$USERI4
 70
     0
  9
$USERI5
 70
     0
  9
$USERR1
 40
0.0
  9
$USERR2
 40
0.0
  9
$USERR3
 40
0.0
  9
$USERR4
 40
0.0
  9
$USERR5
 40
0.0
  9
$WORLDVIEW
 70
     1
  9
$SHADEDGE
 70
     3
  9
$SHADEDIF
 70
    70
  9
$TILEMODE
 70
     1
  9
$MAXACTVP
 70
    16
  9
$PINSBASE
 10
0.0
 20
0.0
 30
0.0
  9
$PLIMCHECK
 70
     0
  9
$PEXTMIN
 10
1.000000000000000E+20
 20
1.000000000000000E+20
 30
1.000000000000000E+20
  9
$PEXTMAX
 10
-1.000000000000000E+20
 20
-1.000000000000000E+20
 30
-1.000000000000000E+20
  9
$PLIMMIN
 10
0.0
 20
0.0
  9
$PLIMMAX
 10
420.0
 20
297.0
  9
$UNITMODE
 70
     0
  9
$VISRETAIN
 70
     0
  9
$PLINEGEN
 70
     0
  9
$PSLTSCALE
 70
     0
  9
$TREEDEPTH
 70
  3020
  9
$CMLSTYLE
  2
STANDARD
  9
$CMLJUST
 70
     0
  9
$CMLSCALE
 40
1.0
  9
$PROXYGRAPHICS
 70
     1
  9
$MEASUREMENT
 70
     0
  9
$CELWEIGHT
370
    -1
  9
$ENDCAPS
280
     0
  9
$JOINSTYLE
280
     0
  9
$LWDISPLAY
290
     0
  9
$INSUNITS
 70
     0
  9
$HYPERLINKBASE
  1

  9
$STYLESHEET
  1

  9
$XEDIT
290
     1
  9
$CEPSNTYPE
380
     0
  9
$PSTYLEMODE
290
     1
  9
$FINGERPRINTGUID
  2
{BF907A1F-D5B7-4A74-8ECB-39A46C7EC42A}
  9
$VERSIONGUID
  2
{98C4AA2B-2686-42EF-B14A-8BCD353E66D9}
  9
$EXTNAMES
290
     1
  9
$PSVPSCALE
 40
0.0
  9
$OLESTARTUP
290
     0
  0
ENDSEC
  0
SECTION
  2
CLASSES
  0
CLASS
  1
ACDBDICTIONARYWDFLT
  2
AcDbDictionaryWithDefault
  3
ObjectDBX Classes
 90
        0
280
     0
281
     0
  0
CLASS
  1
ACDBPLACEHOLDER
  2
AcDbPlaceHolder
  3
ObjectDBX Classes
 90
        0
280
     0
281
     0
  0
CLASS
  1
LAYOUT
  2
AcDbLayout
  3
ObjectDBX Classes
 90
        0
280
     0
281
     0
  0
CLASS
  1
DICTIONARYVAR
  2
AcDbDictionaryVar
  3
ObjectDBX Classes
 90
        0
280
     0
281
     0
  0
CLASS
  1
MATERIAL
  2
AcDbMaterial
  3
ObjectDBX Classes
 90
     1153
280
     0
281
     0
  0
CLASS
  1
VISUALSTYLE
  2
AcDbVisualStyle
  3
ObjectDBX Classes
 90
     4095
280
     0
281
     0
  0
CLASS
  1
TABLESTYLE
  2
AcDbTableStyle
  3
ObjectDBX Classes
 90
     4095
280
     0
281
     0
  0
CLASS
  1
SCALE
  2
AcDbScale
  3
ObjectDBX Classes
 90
     1153
280
     0
281
     0
  0
CLASS
  1
MLEADERSTYLE
  2
AcDbMLeaderStyle
  3
ACDB_MLEADERSTYLE_CLASS
 90
     4095
280
     0
281
     0
  0
CLASS
  1
ACDBSECTIONVIEWSTYLE
  2
AcDbSectionViewStyle
  3
ObjectDBX Classes
 90
     1025
280
     0
281
     0
  0
CLASS
  1
ACDBDETAILVIEWSTYLE
  2
AcDbDetailViewStyle
  3
ObjectDBX Classes
 90
     1025
280
     0
281
     0
  0
CLASS
  1
CELLSTYLEMAP
  2
AcDbCellStyleMap
  3
ObjectDBX Classes
 90
     1152
280
     0
281
     0
  0
ENDSEC
  0
SECTION
  2
TABLES
  0
TABLE
  2
VPORT
  5
BED8
330
0
100
AcDbSymbolTable
 70
     1
  0
VPORT
  5
C373
330
BED8
100
AcDbSymbolTableRecord
100
AcDbViewportTableRecord
  2
*ACTIVE
 70
     0
 10
0.0
 20
0.0
 11
1.0
 21
1.0
 12
343.558935329893
 22
168.1256111431873
 13
0.0
 23
0.0
 14
10.0
 24
10.0
 15
10.0
 25
10.0
 16
0.0
 26
0.0
 36
1.0
 17
0.0
 27
0.0
 37
0.0
 40
319.7717044599612
 41
2.35006605019815
 42
50.0
 43
0.0
 44
0.0
 50
0.0
 51
0.0
 71
     0
 72
   100
 73
     1
 74
     0
 75
     0
 76
     0
 77
     0
 78
     0
281
     0
 65
     1
110
0.0
120
0.0
130
0.0
111
1.0
121
0.0
131
0.0
112
0.0
122
1.0
132
0.0
 79
     0
146
0.0
1001
ACAD_NAV_VCDISPLAY
1070
     3
  0
ENDTAB
  0
TABLE
  2
LTYPE
  5
BED5
330
0
100
AcDbSymbolTable
 70
     4
  0
LTYPE
  5
BEE3
330
BED5
100
AcDbSymbolTableRecord
100
AcDbLinetypeTableRecord
  2
BYBLOCK
 70
     0
  3

 72
    65
 73
     0
 40
0.0
  0
LTYPE
  5
BEE4
330
BED5
100
AcDbSymbolTableRecord
100
AcDbLinetypeTableRecord
  2
BYLAYER
 70
     0
  3

 72
    65
 73
     0
 40
0.0
  0
LTYPE
  5
BEE5
330
BED5
100
AcDbSymbolTableRecord
100
AcDbLinetypeTableRecord
  2
CONTINUOUS
 70
     0
  3
Solid line
 72
    65
 73
     0
 40
0.0
  0
LTYPE
  5
BEF3
330
BED5
100
AcDbSymbolTableRecord
100
AcDbLinetypeTableRecord
  2
DASHED
 70
     0
  3
__ __ __ __ __ __ __ __ __ __ __ __ __ __ __ __
 72
    65
 73
     2
 40
0.75
 49
0.5
 74
     0
 49
-0.25
 74
     0
  0
LTYPE
  5
BEF4
330
BED5
100
AcDbSymbolTableRecord
100
AcDbLinetypeTableRecord
  2
CENTER
 70
     0
  3
____ _ ____ _ ____ _ ____ _ ____ _ ____ _ ____ 
 72
    65
 73
     4
 40
2.0
 49
1.25
 74
     0
 49
-0.25
 74
     0
 49
0.25
 74
     0
 49
-0.25
 74
     0
  0
LTYPE
  5
BEF5
330
BED5
100
AcDbSymbolTableRecord
100
AcDbLinetypeTableRecord
  2
PHANTOM
 70
     0
  3
______  __  __  ______  __  __  ______  __  __ 
 72
    65
 73
     6
 40
2.5
 49
1.25
 74
     0
 49
-0.25
 74
     0
 49
0.25
 74
     0
 49
-0.25
 74
     0
 49
0.25
 74
     0
 49
-0.25
 74
     0
  0
ENDTAB
  0
TABLE
  2
LAYER
  5
BED2
330
0
100
AcDbSymbolTable
 70
     8
  0
LAYER
  5
BEE0
102
{ACAD_XDICTIONARY
360
C3CE
102
}
330
BED2
100
AcDbSymbolTableRecord
100
AcDbLayerTableRecord
  2
0
 70
     0
 62
     7
  6
CONTINUOUS
370
    -3
390
C37C
  0
LAYER
  5
BEF6
102
{ACAD_XDICTIONARY
360
C3D0
102
}
330
BED2
100
AcDbSymbolTableRecord
100
AcDbLayerTableRecord
  2
4
 70
     0
 62
     1
  6
CENTER
370
    -3
390
C37C
  0
LAYER
  5
BEF7
102
{ACAD_XDICTIONARY
360
C3D2
102
}
330
BED2
100
AcDbSymbolTableRecord
100
AcDbLayerTableRecord
  2
5
 70
     0
 62
     6
  6
PHANTOM
370
    -3
390
C37C
  0
LAYER
  5
BEF8
102
{ACAD_XDICTIONARY
360
C3D4
102
}
330
BED2
100
AcDbSymbolTableRecord
100
AcDbLayerTableRecord
  2
1
 70
     0
 62
     7
  6
CONTINUOUS
370
    -3
390
C37C
  0
LAYER
  5
BEF9
102
{ACAD_XDICTIONARY
360
C3D6
102
}
330
BED2
100
AcDbSymbolTableRecord
100
AcDbLayerTableRecord
  2
2
 70
     0
 62
     4
  6
CONTINUOUS
370
    -3
390
C37C
  0
LAYER
  5
BEFA
102
{ACAD_XDICTIONARY
360
C3D8
102
}
330
BED2
100
AcDbSymbolTableRecord
100
AcDbLayerTableRecord
  2
3
 70
     0
 62
     2
  6
DASHED
370
    -3
390
C37C
  0
LAYER
  5
BEFB
102
{ACAD_XDICTIONARY
360
C3DA
102
}
330
BED2
100
AcDbSymbolTableRecord
100
AcDbLayerTableRecord
  2
6
 70
     0
 62
     5
  6
CONTINUOUS
370
    -3
390
C37C
  0
LAYER
  5
BEFC
102
{ACAD_XDICTIONARY
360
C3DC
102
}
330
BED2
100
AcDbSymbolTableRecord
100
AcDbLayerTableRecord
  2
7
 70
     0
 62
     3
  6
CONTINUOUS
370
    -3
390
C37C
  0
ENDTAB
  0
TABLE
  2
STYLE
  5
BED3
330
0
100
AcDbSymbolTable
 70
     1
  0
STYLE
  5
BEE1
330
BED3
100
AcDbSymbolTableRecord
100
AcDbTextStyleTableRecord
  2
STANDARD
 70
     0
 40
0.0
 41
1.0
 50
0.0
 71
     0
 42
5.0
  3
txt
  4

  0
ENDTAB
  0
TABLE
  2
VIEW
  5
BED6
330
0
100
AcDbSymbolTable
 70
     1
  0
VIEW
  5
BEFD
330
BED6
100
AcDbSymbolTableRecord
100
AcDbViewTableRecord
  2
7
 70
     0
 40
337.4844469999999
 10
325.0909509999999
 20
168.742224
 41
650.1819009999998
 11
0.0
 21
0.0
 31
1.0
 12
0.0
 22
0.0
 32
0.0
 42
50.0
 43
0.0
 44
0.0
 50
0.0
 71
     0
281
     0
 72
     0
  0
ENDTAB
  0
TABLE
  2
UCS
  5
BED7
330
0
100
AcDbSymbolTable
 70
     0
  0
ENDTAB
  0
TABLE
  2
APPID
  5
BED9
330
0
100
AcDbSymbolTable
 70
     3
  0
APPID
  5
BEE2
330
BED9
100
AcDbSymbolTableRecord
100
AcDbRegAppTableRecord
  2
ACAD
 70
     0
  0
APPID
  5
C3E8
330
BED9
100
AcDbSymbolTableRecord
100
AcDbRegAppTableRecord
  2
ACAD_NAV_VCDISPLAY
 70
     0
  0
APPID
  5
C421
330
BED9
100
AcDbSymbolTableRecord
100
AcDbRegAppTableRecord
  2
ACAD_MLEADERVER
 70
     0
  0
ENDTAB
  0
TABLE
  2
DIMSTYLE
  5
BEDA
330
0
100
AcDbSymbolTable
 70
     1
100
AcDbDimStyleTable
 71
     0
  0
DIMSTYLE
105
BEFF
330
BEDA
100
AcDbSymbolTableRecord
100
AcDbDimStyleTableRecord
  2
STANDARD
 70
     0
 41
3.0
 42
1.0
 43
10.0
 44
1.0
 73
     0
 74
     0
 77
     3
 78
     8
140
3.2
141
0.0
147
1.0
172
     1
173
     1
284
     8
285
     8
286
     8
340
BEE1
  0
ENDTAB
  0
TABLE
  2
BLOCK_RECORD
  5
BED1
330
0
100
AcDbSymbolTable
 70
     1
  0
BLOCK_RECORD
  5
BEEE
102
{ACAD_XDICTIONARY
360
C376
102
}
330
BED1
100
AcDbSymbolTableRecord
100
AcDbBlockTableRecord
  2
*MODEL_SPACE
340
C3CA
  0
BLOCK_RECORD
  5
BEEA
102
{ACAD_XDICTIONARY
360
C374
102
}
330
BED1
100
AcDbSymbolTableRecord
100
AcDbBlockTableRecord
  2
*PAPER_SPACE
340
C3CB
  0
BLOCK_RECORD
  5
BF07
330
BED1
100
AcDbSymbolTableRecord
100
AcDbBlockTableRecord
  2
_OPEN
340
0
  0
ENDTAB
  0
ENDSEC
  0
SECTION
  2
BLOCKS
  0
BLOCK
  5
BEEF
330
BEEE
100
AcDbEntity
  8
0
100
AcDbBlockBegin
  2
*MODEL_SPACE
 70
     0
 10
0.0
 20
0.0
 30
0.0
  3
*MODEL_SPACE
  1

  0
ENDBLK
  5
BEF0
330
BEEE
100
AcDbEntity
  8
0
100
AcDbBlockEnd
  0
BLOCK
  5
BEEB
330
BEEA
100
AcDbEntity
 67
     1
  8
0
100
AcDbBlockBegin
  2
*PAPER_SPACE
 70
     0
 10
0.0
 20
0.0
 30
0.0
  3
*PAPER_SPACE
  1

  0
ENDBLK
  5
BEEC
330
BEEA
100
AcDbEntity
 67
     1
  8
0
100
AcDbBlockEnd
  0
BLOCK
  5
BF08
330
BF07
100
AcDbEntity
  8
0
100
AcDbBlockBegin
  2
_OPEN
 70
     0
 10
0.0
 20
0.0
 30
0.0
  3
_OPEN
  1

  0
LINE
  5
BF09
330
BF07
100
AcDbEntity
  8
0
  6
ByBlock
 62
     0
100
AcDbLine
 10
-1.0
 20
0.166667
 30
0.0
 11
0.0
 21
0.0
 31
0.0
  0
LINE
  5
BF0A
330
BF07
100
AcDbEntity
  8
0
  6
ByBlock
 62
     0
100
AcDbLine
 10
0.0
 20
0.0
 30
0.0
 11
-1.0
 21
-0.166667
 31
0.0
  0
LINE
  5
BF0B
330
BF07
100
AcDbEntity
  8
0
  6
ByBlock
 62
     0
100
AcDbLine
 10
0.0
 20
0.0
 30
0.0
 11
-1.0
 21
0.0
 31
0.0
  0
ENDBLK
  5
BF0C
330
BF07
100
AcDbEntity
  8
0
100
AcDbBlockEnd
  0
ENDSEC
  0
SECTION
  2
ENTITIES
  0
TEXT
  5
BF0D
330
BEEE
100
AcDbEntity
  8
7
  6
Continuous
100
AcDbText
 10
10.0
 20
18.0
 30
0.0
 40
3.0
  1
TYPE No.106FH-PS
100
AcDbText
  0
TEXT
  5
BF0E
330
BEEE
100
AcDbEntity
  8
7
  6
Continuous
100
AcDbText
 10
10.0
 20
26.0
 30
0.0
 40
3.0
  1
CODE No.9090
100
AcDbText
  0
TEXT
  5
BF0F
330
BEEE
100
AcDbEntity
  8
1
  6
Continuous
100
AcDbText
 10
10.0
 20
10.0
 30
0.0
 40
1.399999999999999
  1
LAYER
100
AcDbText
  0
TEXT
  5
BF10
330
BEEE
100
AcDbEntity
  8
1
  6
Continuous
100
AcDbText
 10
17.97951099999998
 20
10.04873699999998
 30
0.0
 40
1.399999999999999
  1
1
100
AcDbText
  0
TEXT
  5
BF11
330
BEEE
100
AcDbEntity
  8
7
  6
Continuous
100
AcDbText
 10
29.97951099999999
 20
10.04873699999998
 30
0.0
 40
1.399999999999999
  1
7
100
AcDbText
  0
TEXT
  5
BF12
330
BEEE
100
AcDbEntity
  8
4
  6
CENTER
100
AcDbText
 10
23.97951099999999
 20
10.04873699999998
 30
0.0
 40
1.399999999999999
  1
4
100
AcDbText
  0
TEXT
  5
BF13
330
BEEE
100
AcDbEntity
  8
3
  6
DASHED
100
AcDbText
 10
21.979511
 20
10.04873699999998
 30
0.0
 40
1.399999999999999
  1
3
100
AcDbText
  0
TEXT
  5
BF14
330
BEEE
100
AcDbEntity
  8
2
  6
Continuous
100
AcDbText
 10
19.97951099999999
 20
10.04873699999998
 30
0.0
 40
1.399999999999999
  1
2
100
AcDbText
  0
TEXT
  5
BF15
330
BEEE
100
AcDbEntity
  8
6
  6
Continuous
100
AcDbText
 10
27.979511
 20
10.04873699999998
 30
0.0
 40
1.399999999999999
  1
6
100
AcDbText
  0
TEXT
  5
BF16
330
BEEE
100
AcDbEntity
  8
5
  6
PHANTOM
100
AcDbText
 10
25.97951099999999
 20
10.04873699999998
 30
0.0
 40
1.399999999999999
  1
5
100
AcDbText
  0
LINE
  5
BF17
330
BEEE
100
AcDbEntity
  8
4
  6
CENTER
100
AcDbLine
 10
161.0
 20
127.628165
 30
0.0
 11
161.0
 21
212.628165
 31
0.0
  0
LINE
  5
BF18
330
BEEE
100
AcDbEntity
  8
4
  6
CENTER
100
AcDbLine
 10
203.5
 20
170.128165
 30
0.0
 11
118.5
 21
170.128165
 31
0.0
  0
LINE
  5
BF19
330
BEEE
100
AcDbEntity
  8
1
  6
Continuous
100
AcDbLine
 10
185.6568539999999
 20
217.6281649999999
 30
0.0
 11
187.656854
 21
219.6281649999999
 31
0.0
  0
LINE
  5
BF1A
330
BEEE
100
AcDbEntity
  8
1
  6
Continuous
100
AcDbLine
 10
188.2426399999999
 20
217.6281649999999
 30
0.0
 11
186.24264
 21
219.6281649999999
 31
0.0
  0
ARC
  5
BF1B
330
BEEE
100
AcDbEntity
  8
1
  6
Continuous
100
AcDbCircle
 10
148.9297359999999
 20
212.387477
 30
0.0
 40
54.883341
100
AcDbArc
 50
306.3076189999998
 51
351.301038
  0
LINE
  5
BF1C
330
BEEE
100
AcDbEntity
  8
1
  6
Continuous
100
AcDbLine
 10
204.4999999999999
 20
221.6281649999999
 30
0.0
 11
159.4999999999998
 21
221.6281649999999
 31
0.0
  0
LINE
  5
BF1D
330
BEEE
100
AcDbEntity
  8
1
  6
Continuous
100
AcDbLine
 10
204.4999999999999
 20
219.6281649999999
 30
0.0
 11
159.4999999999998
 21
219.6281649999999
 31
0.0
  0
LINE
  5
BF1E
330
BEEE
100
AcDbEntity
  8
1
  6
Continuous
100
AcDbLine
 10
204.4999999999999
 20
217.6281649999999
 30
0.0
 11
159.4999999999998
 21
217.6281649999999
 31
0.0
  0
LINE
  5
BF1F
330
BEEE
100
AcDbEntity
  8
1
  6
Continuous
100
AcDbLine
 10
214.0
 20
224.3281649999999
 30
0.0
 11
150.0
 21
224.3281649999999
 31
0.0
  0
LINE
  5
BF20
330
BEEE
100
AcDbEntity
  8
1
  6
Continuous
100
AcDbLine
 10
214.0
 20
226.6281649999999
 30
0.0
 11
150.0
 21
226.6281649999999
 31
0.0
  0
ARC
  5
BF21
330
BEEE
100
AcDbEntity
  8
1
  6
Continuous
100
AcDbCircle
 10
215.5
 20
201.9630139999999
 30
0.0
 40
12.5
100
AcDbArc
 50
132.8436429999999
 51
170.2180129999999
  0
LINE
  5
BF22
330
BEEE
100
AcDbEntity
  8
1
  6
Continuous
100
AcDbLine
 10
207.0
 20
214.628165
 30
0.0
 11
207.0
 21
211.128165
 31
0.0
  0
LINE
  5
BF23
330
BEEE
100
AcDbEntity
  8
1
  6
Continuous
100
AcDbLine
 10
204.4999999999999
 20
219.500748
 30
0.0
 11
202.6274169999998
 21
217.6281649999999
 31
0.0
  0
LINE
  5
BF24
330
BEEE
100
AcDbEntity
  8
1
  6
Continuous
100
AcDbLine
 10
204.4999999999999
 20
218.341369
 30
0.0
 11
203.213203
 21
219.6281649999999
 31
0.0
  0
LINE
  5
BF25
330
BEEE
100
AcDbEntity
  8
1
  6
Continuous
100
AcDbLine
 10
203.7989899999999
 20
217.6281649999999
 30
0.0
 11
201.7989899999999
 21
219.6281649999999
 31
0.0
  0
LINE
  5
BF26
330
BEEE
100
AcDbEntity
  8
4
  6
CENTER
100
AcDbLine
 10
207.0
 20
229.628165
 30
0.0
 11
207.0
 21
221.3281649999999
 31
0.0
  0
ARC
  5
BF27
330
BEEE
100
AcDbEntity
  8
1
  6
Continuous
100
AcDbCircle
 10
204.4999999999999
 20
226.728165
 30
0.0
 40
5.099999999999997
100
AcDbArc
 50
270.0
 51
331.9275129999998
  0
ARC
  5
BF28
330
BEEE
100
AcDbEntity
  8
1
  6
Continuous
100
AcDbCircle
 10
204.0
 20
214.628165
 30
0.0
 40
3.0
100
AcDbArc
 50
0.0
 51
90.0
  0
LINE
  5
BF29
330
BEEE
100
AcDbEntity
  8
1
  6
Continuous
100
AcDbLine
 10
204.4999999999999
 20
218.0865349999999
 30
0.0
 11
204.0416299999999
 21
217.6281649999999
 31
0.0
  0
LINE
  5
BF2A
330
BEEE
100
AcDbEntity
  8
1
  6
Continuous
100
AcDbLine
 10
204.4999999999999
 20
221.6281649999999
 30
0.0
 11
204.4999999999999
 21
217.6281649999999
 31
0.0
  0
LINE
  5
BF2B
330
BEEE
100
AcDbEntity
  8
1
  6
Continuous
100
AcDbLine
 10
214.0
 20
224.3281649999999
 30
0.0
 11
214.0
 21
226.6281649999999
 31
0.0
  0
LINE
  5
BF2C
330
BEEE
100
AcDbEntity
  8
1
  6
Continuous
100
AcDbLine
 10
194.1421349999999
 20
217.6281649999999
 30
0.0
 11
196.1421349999999
 21
219.6281649999999
 31
0.0
  0
LINE
  5
BF2D
330
BEEE
100
AcDbEntity
  8
1
  6
Continuous
100
AcDbLine
 10
196.727922
 20
217.6281649999999
 30
0.0
 11
194.727922
 21
219.6281649999999
 31
0.0
  0
LINE
  5
BF2E
330
BEEE
100
AcDbEntity
  8
1
  6
Continuous
100
AcDbLine
 10
195.3137079999999
 20
217.6281649999999
 30
0.0
 11
193.313708
 21
219.6281649999999
 31
0.0
  0
LINE
  5
BF2F
330
BEEE
100
AcDbEntity
  8
1
  6
Continuous
100
AcDbLine
 10
198.3847759999999
 20
217.6281649999999
 30
0.0
 11
200.3847759999999
 21
219.6281649999999
 31
0.0
  0
LINE
  5
BF30
330
BEEE
100
AcDbEntity
  8
1
  6
Continuous
100
AcDbLine
 10
200.970563
 20
217.6281649999999
 30
0.0
 11
198.9705629999999
 21
219.6281649999999
 31
0.0
  0
LINE
  5
BF31
330
BEEE
100
AcDbEntity
  8
1
  6
Continuous
100
AcDbLine
 10
199.556349
 20
217.6281649999999
 30
0.0
 11
197.556349
 21
219.6281649999999
 31
0.0
  0
LINE
  5
BF32
330
BEEE
100
AcDbEntity
  8
1
  6
Continuous
100
AcDbLine
 10
201.213203
 20
217.6281649999999
 30
0.0
 11
203.213203
 21
219.6281649999999
 31
0.0
  0
LINE
  5
BF33
330
BEEE
100
AcDbEntity
  8
1
  6
Continuous
100
AcDbLine
 10
199.79899
 20
217.6281649999999
 30
0.0
 11
201.7989899999999
 21
219.6281649999999
 31
0.0
  0
LINE
  5
BF34
330
BEEE
100
AcDbEntity
  8
1
  6
Continuous
100
AcDbLine
 10
202.3847759999999
 20
217.6281649999999
 30
0.0
 11
200.3847759999999
 21
219.6281649999999
 31
0.0
  0
LINE
  5
BF35
330
BEEE
100
AcDbEntity
  8
1
  6
Continuous
100
AcDbLine
 10
196.9705629999999
 20
217.6281649999999
 30
0.0
 11
198.9705629999999
 21
219.6281649999999
 31
0.0
  0
LINE
  5
BF36
330
BEEE
100
AcDbEntity
  8
1
  6
Continuous
100
AcDbLine
 10
195.556349
 20
217.6281649999999
 30
0.0
 11
197.556349
 21
219.6281649999999
 31
0.0
  0
LINE
  5
BF37
330
BEEE
100
AcDbEntity
  8
1
  6
Continuous
100
AcDbLine
 10
198.1421349999999
 20
217.6281649999999
 30
0.0
 11
196.1421349999999
 21
219.6281649999999
 31
0.0
  0
LINE
  5
BF38
330
BEEE
100
AcDbEntity
  8
1
  6
Continuous
100
AcDbLine
 10
189.899495
 20
217.6281649999999
 30
0.0
 11
191.899495
 21
219.6281649999999
 31
0.0
  0
LINE
  5
BF39
330
BEEE
100
AcDbEntity
  8
1
  6
Continuous
100
AcDbLine
 10
192.4852809999999
 20
217.6281649999999
 30
0.0
 11
190.4852809999999
 21
219.6281649999999
 31
0.0
  0
LINE
  5
BF3A
330
BEEE
100
AcDbEntity
  8
1
  6
Continuous
100
AcDbLine
 10
191.071068
 20
217.6281649999999
 30
0.0
 11
189.0710679999999
 21
219.6281649999999
 31
0.0
  0
LINE
  5
BF3B
330
BEEE
100
AcDbEntity
  8
1
  6
Continuous
100
AcDbLine
 10
192.727922
 20
217.6281649999999
 30
0.0
 11
194.727922
 21
219.6281649999999
 31
0.0
  0
LINE
  5
BF3C
330
BEEE
100
AcDbEntity
  8
1
  6
Continuous
100
AcDbLine
 10
191.313708
 20
217.6281649999999
 30
0.0
 11
193.313708
 21
219.6281649999999
 31
0.0
  0
LINE
  5
BF3D
330
BEEE
100
AcDbEntity
  8
1
  6
Continuous
100
AcDbLine
 10
193.899495
 20
217.6281649999999
 30
0.0
 11
191.899495
 21
219.6281649999999
 31
0.0
  0
LINE
  5
BF3E
330
BEEE
100
AcDbEntity
  8
1
  6
Continuous
100
AcDbLine
 10
188.4852809999999
 20
217.6281649999999
 30
0.0
 11
190.4852809999999
 21
219.6281649999999
 31
0.0
  0
LINE
  5
BF3F
330
BEEE
100
AcDbEntity
  8
1
  6
Continuous
100
AcDbLine
 10
187.071068
 20
217.6281649999999
 30
0.0
 11
189.0710679999999
 21
219.6281649999999
 31
0.0
  0
LINE
  5
BF40
330
BEEE
100
AcDbEntity
  8
1
  6
Continuous
100
AcDbLine
 10
189.656854
 20
217.6281649999999
 30
0.0
 11
187.656854
 21
219.6281649999999
 31
0.0
  0
LINE
  5
BF41
330
BEEE
100
AcDbEntity
  8
4
  6
CENTER
100
AcDbLine
 10
182.0
 20
229.628165
 30
0.0
 11
182.0
 21
163.6387039999999
 31
0.0
  0
LINE
  5
BF42
330
BEEE
100
AcDbEntity
  8
1
  6
Continuous
100
AcDbLine
 10
165.5
 20
212.628165
 30
0.0
 11
171.837528
 21
165.52436
 31
0.0
  0
ARC
  5
BF43
330
BEEE
100
AcDbEntity
  8
1
  6
Continuous
100
AcDbCircle
 10
100.6032239999999
 20
213.055707
 30
0.0
 40
63.597172
100
AcDbArc
 50
338.3191269999999
 51
355.297968
  0
ARC
  5
BF44
330
BEEE
100
AcDbEntity
  8
1
  6
Continuous
100
AcDbCircle
 10
161.0
 20
208.128165
 30
0.0
 40
3.0
100
AcDbArc
 50
354.53402
 51
90.0
  0
LINE
  5
BF45
330
BEEE
100
AcDbEntity
  8
1
  6
Continuous
100
AcDbLine
 10
157.0
 20
214.628165
 30
0.0
 11
157.0
 21
211.128165
 31
0.0
  0
LINE
  5
BF46
330
BEEE
100
AcDbEntity
  8
1
  6
Continuous
100
AcDbLine
 10
161.0
 20
211.128165
 30
0.0
 11
157.0
 21
211.128165
 31
0.0
  0
LINE
  5
BF47
330
BEEE
100
AcDbEntity
  8
1
  6
Continuous
100
AcDbLine
 10
168.6862909999998
 20
217.6281649999999
 30
0.0
 11
170.6862909999999
 21
219.6281649999999
 31
0.0
  0
LINE
  5
BF48
330
BEEE
100
AcDbEntity
  8
1
  6
Continuous
100
AcDbLine
 10
170.100505
 20
217.6281649999999
 30
0.0
 11
172.100505
 21
219.6281649999999
 31
0.0
  0
LINE
  5
BF49
330
BEEE
100
AcDbEntity
  8
1
  6
Continuous
100
AcDbLine
 10
171.2720779999999
 20
217.6281649999999
 30
0.0
 11
169.2720779999999
 21
219.6281649999999
 31
0.0
  0
LINE
  5
BF4A
330
BEEE
100
AcDbEntity
  8
1
  6
Continuous
100
AcDbLine
 10
177.1715729999999
 20
217.6281649999999
 30
0.0
 11
179.1715729999999
 21
219.6281649999999
 31
0.0
  0
LINE
  5
BF4B
330
BEEE
100
AcDbEntity
  8
1
  6
Continuous
100
AcDbLine
 10
178.585786
 20
217.6281649999999
 30
0.0
 11
180.585786
 21
219.6281649999999
 31
0.0
  0
LINE
  5
BF4C
330
BEEE
100
AcDbEntity
  8
1
  6
Continuous
100
AcDbLine
 10
179.757359
 20
217.6281649999999
 30
0.0
 11
177.757359
 21
219.6281649999999
 31
0.0
  0
LINE
  5
BF4D
330
BEEE
100
AcDbEntity
  8
1
  6
Continuous
100
AcDbLine
 10
181.414213
 20
217.6281649999999
 30
0.0
 11
183.414213
 21
219.6281649999999
 31
0.0
  0
LINE
  5
BF4E
330
BEEE
100
AcDbEntity
  8
1
  6
Continuous
100
AcDbLine
 10
184.0
 20
217.6281649999999
 30
0.0
 11
182.0
 21
219.6281649999999
 31
0.0
  0
LINE
  5
BF4F
330
BEEE
100
AcDbEntity
  8
1
  6
Continuous
100
AcDbLine
 10
184.2426399999999
 20
217.6281649999999
 30
0.0
 11
186.24264
 21
219.6281649999999
 31
0.0
  0
LINE
  5
BF50
330
BEEE
100
AcDbEntity
  8
1
  6
Continuous
100
AcDbLine
 10
182.828427
 20
217.6281649999999
 30
0.0
 11
184.828427
 21
219.6281649999999
 31
0.0
  0
LINE
  5
BF51
330
BEEE
100
AcDbEntity
  8
1
  6
Continuous
100
AcDbLine
 10
186.828427
 20
217.6281649999999
 30
0.0
 11
184.828427
 21
219.6281649999999
 31
0.0
  0
LINE
  5
BF52
330
BEEE
100
AcDbEntity
  8
1
  6
Continuous
100
AcDbLine
 10
185.4142129999999
 20
217.6281649999999
 30
0.0
 11
183.414213
 21
219.6281649999999
 31
0.0
  0
LINE
  5
BF53
330
BEEE
100
AcDbEntity
  8
1
  6
Continuous
100
AcDbLine
 10
180.0
 20
217.6281649999999
 30
0.0
 11
182.0
 21
219.6281649999999
 31
0.0
  0
LINE
  5
BF54
330
BEEE
100
AcDbEntity
  8
1
  6
Continuous
100
AcDbLine
 10
181.1715729999999
 20
217.6281649999999
 30
0.0
 11
179.1715729999999
 21
219.6281649999999
 31
0.0
  0
LINE
  5
BF55
330
BEEE
100
AcDbEntity
  8
1
  6
Continuous
100
AcDbLine
 10
182.585786
 20
217.6281649999999
 30
0.0
 11
180.585786
 21
219.6281649999999
 31
0.0
  0
LINE
  5
BF56
330
BEEE
100
AcDbEntity
  8
1
  6
Continuous
100
AcDbLine
 10
172.928932
 20
217.6281649999999
 30
0.0
 11
174.928932
 21
219.6281649999999
 31
0.0
  0
LINE
  5
BF57
330
BEEE
100
AcDbEntity
  8
1
  6
Continuous
100
AcDbLine
 10
174.343146
 20
217.6281649999999
 30
0.0
 11
176.3431459999999
 21
219.6281649999999
 31
0.0
  0
LINE
  5
BF58
330
BEEE
100
AcDbEntity
  8
1
  6
Continuous
100
AcDbLine
 10
175.5147179999999
 20
217.6281649999999
 30
0.0
 11
173.514718
 21
219.6281649999999
 31
0.0
  0
LINE
  5
BF59
330
BEEE
100
AcDbEntity
  8
1
  6
Continuous
100
AcDbLine
 10
175.7573589999998
 20
217.6281649999999
 30
0.0
 11
177.757359
 21
219.6281649999999
 31
0.0
  0
LINE
  5
BF5A
330
BEEE
100
AcDbEntity
  8
1
  6
Continuous
100
AcDbLine
 10
176.928932
 20
217.6281649999999
 30
0.0
 11
174.928932
 21
219.6281649999999
 31
0.0
  0
LINE
  5
BF5B
330
BEEE
100
AcDbEntity
  8
1
  6
Continuous
100
AcDbLine
 10
178.3431459999999
 20
217.6281649999999
 30
0.0
 11
176.3431459999999
 21
219.6281649999999
 31
0.0
  0
LINE
  5
BF5C
330
BEEE
100
AcDbEntity
  8
1
  6
Continuous
100
AcDbLine
 10
171.5147179999999
 20
217.6281649999999
 30
0.0
 11
173.514718
 21
219.6281649999999
 31
0.0
  0
LINE
  5
BF5D
330
BEEE
100
AcDbEntity
  8
1
  6
Continuous
100
AcDbLine
 10
172.6862909999999
 20
217.6281649999999
 30
0.0
 11
170.6862909999999
 21
219.6281649999999
 31
0.0
  0
LINE
  5
BF5E
330
BEEE
100
AcDbEntity
  8
1
  6
Continuous
100
AcDbLine
 10
174.100505
 20
217.6281649999999
 30
0.0
 11
172.100505
 21
219.6281649999999
 31
0.0
  0
LINE
  5
BF5F
330
BEEE
100
AcDbEntity
  8
4
  6
CENTER
100
AcDbLine
 10
157.0
 20
229.628165
 30
0.0
 11
157.0
 21
221.3281649999999
 31
0.0
  0
ARC
  5
BF60
330
BEEE
100
AcDbEntity
  8
1
  6
Continuous
100
AcDbCircle
 10
159.4999999999998
 20
226.728165
 30
0.0
 40
5.099999999999997
100
AcDbArc
 50
208.072487
 51
270.0
  0
LINE
  5
BF61
330
BEEE
100
AcDbEntity
  8
1
  6
Continuous
100
AcDbLine
 10
161.6152229999999
 20
217.6281649999999
 30
0.0
 11
163.6152229999999
 21
219.6281649999999
 31
0.0
  0
LINE
  5
BF62
330
BEEE
100
AcDbEntity
  8
1
  6
Continuous
100
AcDbLine
 10
162.786796
 20
217.6281649999999
 30
0.0
 11
160.786796
 21
219.6281649999999
 31
0.0
  0
LINE
  5
BF63
330
BEEE
100
AcDbEntity
  8
1
  6
Continuous
100
AcDbLine
 10
164.20101
 20
217.6281649999999
 30
0.0
 11
162.2010099999999
 21
219.6281649999999
 31
0.0
  0
LINE
  5
BF64
330
BEEE
100
AcDbEntity
  8
1
  6
Continuous
100
AcDbLine
 10
164.443651
 20
217.6281649999999
 30
0.0
 11
166.4436509999999
 21
219.6281649999999
 31
0.0
  0
LINE
  5
BF65
330
BEEE
100
AcDbEntity
  8
1
  6
Continuous
100
AcDbLine
 10
165.8578639999998
 20
217.6281649999999
 30
0.0
 11
167.8578639999998
 21
219.6281649999999
 31
0.0
  0
LINE
  5
BF66
330
BEEE
100
AcDbEntity
  8
1
  6
Continuous
100
AcDbLine
 10
167.029437
 20
217.6281649999999
 30
0.0
 11
165.029437
 21
219.6281649999999
 31
0.0
  0
LINE
  5
BF67
330
BEEE
100
AcDbEntity
  8
1
  6
Continuous
100
AcDbLine
 10
167.2720779999998
 20
217.6281649999999
 30
0.0
 11
169.2720779999999
 21
219.6281649999999
 31
0.0
  0
LINE
  5
BF68
330
BEEE
100
AcDbEntity
  8
1
  6
Continuous
100
AcDbLine
 10
168.4436509999999
 20
217.6281649999999
 30
0.0
 11
166.4436509999999
 21
219.6281649999999
 31
0.0
  0
LINE
  5
BF69
330
BEEE
100
AcDbEntity
  8
1
  6
Continuous
100
AcDbLine
 10
169.8578639999998
 20
217.6281649999999
 30
0.0
 11
167.8578639999998
 21
219.6281649999999
 31
0.0
  0
LINE
  5
BF6A
330
BEEE
100
AcDbEntity
  8
1
  6
Continuous
100
AcDbLine
 10
163.029437
 20
217.6281649999999
 30
0.0
 11
165.029437
 21
219.6281649999999
 31
0.0
  0
LINE
  5
BF6B
330
BEEE
100
AcDbEntity
  8
1
  6
Continuous
100
AcDbLine
 10
165.615223
 20
217.6281649999999
 30
0.0
 11
163.6152229999999
 21
219.6281649999999
 31
0.0
  0
ARC
  5
BF6C
330
BEEE
100
AcDbEntity
  8
1
  6
Continuous
100
AcDbCircle
 10
160.0
 20
214.628165
 30
0.0
 40
3.0
100
AcDbArc
 50
90.0
 51
180.0
  0
LINE
  5
BF6D
330
BEEE
100
AcDbEntity
  8
1
  6
Continuous
100
AcDbLine
 10
159.4999999999998
 20
218.341369
 30
0.0
 11
160.786796
 21
219.6281649999999
 31
0.0
  0
LINE
  5
BF6E
330
BEEE
100
AcDbEntity
  8
1
  6
Continuous
100
AcDbLine
 10
160.20101
 20
217.6281649999999
 30
0.0
 11
162.2010099999999
 21
219.6281649999999
 31
0.0
  0
LINE
  5
BF6F
330
BEEE
100
AcDbEntity
  8
1
  6
Continuous
100
AcDbLine
 10
159.958369
 20
217.6281649999999
 30
0.0
 11
159.4999999999998
 21
218.0865349999999
 31
0.0
  0
LINE
  5
BF70
330
BEEE
100
AcDbEntity
  8
1
  6
Continuous
100
AcDbLine
 10
161.3725829999999
 20
217.6281649999999
 30
0.0
 11
159.4999999999998
 21
219.500748
 31
0.0
  0
LINE
  5
BF71
330
BEEE
100
AcDbEntity
  8
1
  6
Continuous
100
AcDbLine
 10
159.4999999999998
 20
221.6281649999999
 30
0.0
 11
159.4999999999998
 21
217.6281649999999
 31
0.0
  0
LINE
  5
BF72
330
BEEE
100
AcDbEntity
  8
1
  6
Continuous
100
AcDbLine
 10
150.0
 20
224.3281649999999
 30
0.0
 11
150.0
 21
226.6281649999999
 31
0.0
  0
LINE
  5
BF73
330
BEEE
100
AcDbEntity
  8
4
  6
CENTER
100
AcDbLine
 10
217.0
 20
291.25633
 30
0.0
 11
118.5
 21
291.25633
 31
0.0
  0
CIRCLE
  5
BF74
330
BEEE
100
AcDbEntity
  8
1
  6
Continuous
100
AcDbCircle
 10
182.0
 20
291.25633
 30
0.0
 40
12.5
  0
CIRCLE
  5
BF75
330
BEEE
100
AcDbEntity
  8
1
  6
Continuous
100
AcDbCircle
 10
182.0
 20
291.25633
 30
0.0
 40
20.75
  0
CIRCLE
  5
BF76
330
BEEE
100
AcDbEntity
  8
1
  6
Continuous
100
AcDbCircle
 10
182.0
 20
291.25633
 30
0.0
 40
23.5
  0
LINE
  5
BF77
330
BEEE
100
AcDbEntity
  8
1
  6
Continuous
100
AcDbLine
 10
156.0
 20
259.25633
 30
0.0
 11
208.0
 21
259.25633
 31
0.0
  0
LINE
  5
BF78
330
BEEE
100
AcDbEntity
  8
1
  6
Continuous
100
AcDbLine
 10
208.0
 20
323.2563299999998
 30
0.0
 11
156.0
 21
323.2563299999998
 31
0.0
  0
LINE
  5
BF79
330
BEEE
100
AcDbEntity
  8
1
  6
Continuous
100
AcDbLine
 10
214.0
 20
265.25633
 30
0.0
 11
214.0
 21
317.25633
 31
0.0
  0
LINE
  5
BF7A
330
BEEE
100
AcDbEntity
  8
4
  6
CENTER
100
AcDbLine
 10
207.0
 20
260.0063299999998
 30
0.0
 11
207.0
 21
272.5063299999998
 31
0.0
  0
ARC
  5
BF7B
330
BEEE
100
AcDbEntity
  8
1
  6
Continuous
100
AcDbCircle
 10
208.0
 20
265.25633
 30
0.0
 40
6.0
100
AcDbArc
 50
270.0
 51
0.0
  0
LINE
  5
BF7C
330
BEEE
100
AcDbEntity
  8
4
  6
CENTER
100
AcDbLine
 10
213.2499999999998
 20
266.2563299999998
 30
0.0
 11
200.7499999999998
 21
266.2563299999998
 31
0.0
  0
CIRCLE
  5
BF7D
330
BEEE
100
AcDbEntity
  8
1
  6
Continuous
100
AcDbCircle
 10
207.0
 20
266.2563299999998
 30
0.0
 40
3.25
  0
LINE
  5
BF7E
330
BEEE
100
AcDbEntity
  8
4
  6
CENTER
100
AcDbLine
 10
213.2499999999998
 20
316.2563299999998
 30
0.0
 11
200.7499999999998
 21
316.2563299999998
 31
0.0
  0
LINE
  5
BF7F
330
BEEE
100
AcDbEntity
  8
4
  6
CENTER
100
AcDbLine
 10
207.0
 20
310.0063299999998
 30
0.0
 11
207.0
 21
322.5063299999998
 31
0.0
  0
CIRCLE
  5
BF80
330
BEEE
100
AcDbEntity
  8
1
  6
Continuous
100
AcDbCircle
 10
207.0
 20
316.2563299999998
 30
0.0
 40
3.25
  0
ARC
  5
BF81
330
BEEE
100
AcDbEntity
  8
1
  6
Continuous
100
AcDbCircle
 10
208.0
 20
317.25633
 30
0.0
 40
6.0
100
AcDbArc
 50
0.0
 51
90.0
  0
LINE
  5
BF82
330
BEEE
100
AcDbEntity
  8
4
  6
CENTER
100
AcDbLine
 10
182.0
 20
326.25633
 30
0.0
 11
182.0
 21
256.2563299999998
 31
0.0
  0
LINE
  5
BF83
330
BEEE
100
AcDbEntity
  8
1
  6
Continuous
100
AcDbLine
 10
150.0
 20
317.25633
 30
0.0
 11
150.0
 21
265.25633
 31
0.0
  0
LINE
  5
BF84
330
BEEE
100
AcDbEntity
  8
4
  6
CENTER
100
AcDbLine
 10
163.25
 20
266.2563299999998
 30
0.0
 11
150.75
 21
266.2563299999998
 31
0.0
  0
CIRCLE
  5
BF85
330
BEEE
100
AcDbEntity
  8
1
  6
Continuous
100
AcDbCircle
 10
157.0
 20
266.2563299999998
 30
0.0
 40
3.25
  0
ARC
  5
BF86
330
BEEE
100
AcDbEntity
  8
1
  6
Continuous
100
AcDbCircle
 10
156.0
 20
265.25633
 30
0.0
 40
6.0
100
AcDbArc
 50
180.0
 51
270.0
  0
LINE
  5
BF87
330
BEEE
100
AcDbEntity
  8
4
  6
CENTER
100
AcDbLine
 10
157.0
 20
260.0063299999998
 30
0.0
 11
157.0
 21
272.5063299999998
 31
0.0
  0
LINE
  5
BF88
330
BEEE
100
AcDbEntity
  8
4
  6
CENTER
100
AcDbLine
 10
163.25
 20
316.2563299999998
 30
0.0
 11
150.75
 21
316.2563299999998
 31
0.0
  0
CIRCLE
  5
BF89
330
BEEE
100
AcDbEntity
  8
1
  6
Continuous
100
AcDbCircle
 10
157.0
 20
316.2563299999998
 30
0.0
 40
3.25
  0
ARC
  5
BF8A
330
BEEE
100
AcDbEntity
  8
1
  6
Continuous
100
AcDbCircle
 10
156.0
 20
317.25633
 30
0.0
 40
6.0
100
AcDbArc
 50
90.0
 51
180.0
  0
LINE
  5
BF8B
330
BEEE
100
AcDbEntity
  8
4
  6
CENTER
100
AcDbLine
 10
157.0
 20
310.0063299999998
 30
0.0
 11
157.0
 21
322.5063299999998
 31
0.0
  0
LINE
  5
BF8C
330
BEEE
100
AcDbEntity
  8
4
  6
CENTER
100
AcDbLine
 10
57.0
 20
229.628165
 30
0.0
 11
57.0
 21
127.628165
 31
0.0
  0
ARC
  5
BF8D
330
BEEE
100
AcDbEntity
  8
1
  6
Continuous
100
AcDbCircle
 10
57.0
 20
282.6281649999998
 30
0.0
 40
150.0
100
AcDbArc
 50
266.2946289999998
 51
273.705371
  0
LINE
  5
BF8E
330
BEEE
100
AcDbEntity
  8
4
  6
CENTER
100
AcDbLine
 10
26.069976
 20
170.128165
 30
0.0
 11
91.425537
 21
170.128165
 31
0.0
  0
LINE
  5
BF8F
330
BEEE
100
AcDbEntity
  8
1
  6
Continuous
100
AcDbLine
 10
60.414214
 20
217.6281649999999
 30
0.0
 11
58.414214
 21
219.6281649999999
 31
0.0
  0
LINE
  5
BF90
330
BEEE
100
AcDbEntity
  8
1
  6
Continuous
100
AcDbLine
 10
59.0
 20
217.6281649999999
 30
0.0
 11
57.0
 21
219.6281649999999
 31
0.0
  0
LINE
  5
BF91
330
BEEE
100
AcDbEntity
  8
1
  6
Continuous
100
AcDbLine
 10
57.82842699999999
 20
217.6281649999999
 30
0.0
 11
59.82842699999999
 21
219.6281649999999
 31
0.0
  0
LINE
  5
BF92
330
BEEE
100
AcDbEntity
  8
1
  6
Continuous
100
AcDbLine
 10
44.95
 20
211.128165
 30
0.0
 11
69.05
 21
211.128165
 31
0.0
  0
LINE
  5
BF93
330
BEEE
100
AcDbEntity
  8
1
  6
Continuous
100
AcDbLine
 10
34.5
 20
221.6281649999999
 30
0.0
 11
79.5
 21
221.6281649999999
 31
0.0
  0
LINE
  5
BF94
330
BEEE
100
AcDbEntity
  8
1
  6
Continuous
100
AcDbLine
 10
34.5
 20
219.6281649999999
 30
0.0
 11
79.5
 21
219.6281649999999
 31
0.0
  0
LINE
  5
BF95
330
BEEE
100
AcDbEntity
  8
1
  6
Continuous
100
AcDbLine
 10
34.5
 20
217.6281649999999
 30
0.0
 11
79.5
 21
217.6281649999999
 31
0.0
  0
LINE
  5
BF96
330
BEEE
100
AcDbEntity
  8
1
  6
Continuous
100
AcDbLine
 10
25.0
 20
224.3281649999999
 30
0.0
 11
89.0
 21
224.3281649999999
 31
0.0
  0
LINE
  5
BF97
330
BEEE
100
AcDbEntity
  8
1
  6
Continuous
100
AcDbLine
 10
25.0
 20
226.6281649999999
 30
0.0
 11
89.0
 21
226.6281649999999
 31
0.0
  0
LINE
  5
BF98
330
BEEE
100
AcDbEntity
  8
1
  6
Continuous
100
AcDbLine
 10
44.5
 20
204.320871
 30
0.0
 11
44.5
 21
135.935459
 31
0.0
  0
LINE
  5
BF99
330
BEEE
100
AcDbEntity
  8
1
  6
Continuous
100
AcDbLine
 10
38.95
 20
205.1281649999999
 30
0.0
 11
38.95
 21
159.3781649999999
 31
0.0
  0
LINE
  5
BF9A
330
BEEE
100
AcDbEntity
  8
1
  6
Continuous
100
AcDbLine
 10
41.25
 20
207.1281649999999
 30
0.0
 11
41.25
 21
159.3781649999999
 31
0.0
  0
LINE
  5
BF9B
330
BEEE
100
AcDbEntity
  8
1
  6
Continuous
100
AcDbLine
 10
32.0
 20
214.628165
 30
0.0
 11
32.0
 21
175.587229
 31
0.0
  0
ARC
  5
BF9C
330
BEEE
100
AcDbEntity
  8
1
  6
Continuous
100
AcDbCircle
 10
43.39999999999998
 20
161.128165
 30
0.0
 40
1.5
100
AcDbArc
 50
180.0
 51
270.0
  0
ARC
  5
BF9D
330
BEEE
100
AcDbEntity
  8
1
  6
Continuous
100
AcDbCircle
 10
50.0
 20
175.587229
 30
0.0
 40
18.0
100
AcDbArc
 50
180.0
 51
232.128771
  0
LINE
  5
BF9E
330
BEEE
100
AcDbEntity
  8
1
  6
Continuous
100
AcDbLine
 10
38.95
 20
159.3781649999999
 30
0.0
 11
41.25
 21
159.3781649999999
 31
0.0
  0
ARC
  5
BF9F
330
BEEE
100
AcDbEntity
  8
1
  6
Continuous
100
AcDbCircle
 10
47.5
 20
135.935459
 30
0.0
 40
3.0
100
AcDbArc
 50
180.0
 51
266.2946289999998
  0
LINE
  5
BFA0
330
BEEE
100
AcDbEntity
  8
1
  6
Continuous
100
AcDbLine
 10
43.39999999999998
 20
159.6281649999999
 30
0.0
 11
44.5
 21
159.6281649999999
 31
0.0
  0
ARC
  5
BFA1
330
BEEE
100
AcDbEntity
  8
1
  6
Continuous
100
AcDbCircle
 10
43.39999999999998
 20
179.1281649999999
 30
0.0
 40
1.5
100
AcDbArc
 50
90.0
 51
180.0
  0
LINE
  5
BFA2
330
BEEE
100
AcDbEntity
  8
1
  6
Continuous
100
AcDbLine
 10
41.9
 20
161.128165
 30
0.0
 11
41.9
 21
179.1281649999999
 31
0.0
  0
LINE
  5
BFA3
330
BEEE
100
AcDbEntity
  8
1
  6
Continuous
100
AcDbLine
 10
37.38785099999999
 20
175.8781649999999
 30
0.0
 11
37.38785099999999
 21
164.378165
 31
0.0
  0
ARC
  5
BFA4
330
BEEE
100
AcDbEntity
  8
1
  6
Continuous
100
AcDbCircle
 10
42.95
 20
170.128165
 30
0.0
 40
8.0
100
AcDbArc
 50
134.048626
 51
225.9513739999999
  0
LINE
  5
BFA5
330
BEEE
100
AcDbEntity
  8
1
  6
Continuous
100
AcDbLine
 10
37.38785099999999
 20
164.378165
 30
0.0
 11
38.95
 21
164.378165
 31
0.0
  0
LINE
  5
BFA6
330
BEEE
100
AcDbEntity
  8
1
  6
Continuous
100
AcDbLine
 10
41.25
 20
166.128165
 30
0.0
 11
41.9
 21
166.128165
 31
0.0
  0
LINE
  5
BFA7
330
BEEE
100
AcDbEntity
  8
1
  6
Continuous
100
AcDbLine
 10
37.38785099999999
 20
175.8781649999999
 30
0.0
 11
38.95
 21
175.8781649999999
 31
0.0
  0
LINE
  5
BFA8
330
BEEE
100
AcDbEntity
  8
1
  6
Continuous
100
AcDbLine
 10
41.25
 20
174.1281649999999
 30
0.0
 11
41.9
 21
174.1281649999999
 31
0.0
  0
LINE
  5
BFA9
330
BEEE
100
AcDbEntity
  8
1
  6
Continuous
100
AcDbLine
 10
43.39999999999998
 20
180.628165
 30
0.0
 11
44.5
 21
180.628165
 31
0.0
  0
LINE
  5
BFAA
330
BEEE
100
AcDbEntity
  8
1
  6
Continuous
100
AcDbLine
 10
25.0
 20
224.3281649999999
 30
0.0
 11
25.0
 21
226.6281649999999
 31
0.0
  0
ARC
  5
BFAB
330
BEEE
100
AcDbEntity
  8
1
  6
Continuous
100
AcDbCircle
 10
45.25
 20
207.1281649999999
 30
0.0
 40
4.0
100
AcDbArc
 50
90.0
 51
180.0
  0
ARC
  5
BFAC
330
BEEE
100
AcDbEntity
  8
1
  6
Continuous
100
AcDbCircle
 10
44.95
 20
205.1281649999999
 30
0.0
 40
6.0
100
AcDbArc
 50
90.0
 51
180.0
  0
LINE
  5
BFAD
330
BEEE
100
AcDbEntity
  8
1
  6
Continuous
100
AcDbLine
 10
42.029437
 20
217.6281649999999
 30
0.0
 11
40.029437
 21
219.6281649999999
 31
0.0
  0
LINE
  5
BFAE
330
BEEE
100
AcDbEntity
  8
1
  6
Continuous
100
AcDbLine
 10
43.443651
 20
217.6281649999999
 30
0.0
 11
41.443651
 21
219.6281649999999
 31
0.0
  0
LINE
  5
BFAF
330
BEEE
100
AcDbEntity
  8
1
  6
Continuous
100
AcDbLine
 10
40.857865
 20
217.6281649999999
 30
0.0
 11
42.85786499999999
 21
219.6281649999999
 31
0.0
  0
LINE
  5
BFB0
330
BEEE
100
AcDbEntity
  8
4
  6
CENTER
100
AcDbLine
 10
32.0
 20
229.628165
 30
0.0
 11
32.0
 21
221.3281649999999
 31
0.0
  0
ARC
  5
BFB1
330
BEEE
100
AcDbEntity
  8
1
  6
Continuous
100
AcDbCircle
 10
34.5
 20
226.728165
 30
0.0
 40
5.099999999999997
100
AcDbArc
 50
208.072487
 51
270.0
  0
ARC
  5
BFB2
330
BEEE
100
AcDbEntity
  8
1
  6
Continuous
100
AcDbCircle
 10
35.0
 20
214.628165
 30
0.0
 40
3.0
100
AcDbArc
 50
90.0
 51
180.0
  0
LINE
  5
BFB3
330
BEEE
100
AcDbEntity
  8
1
  6
Continuous
100
AcDbLine
 10
39.20100999999998
 20
217.6281649999999
 30
0.0
 11
37.20100999999999
 21
219.6281649999999
 31
0.0
  0
LINE
  5
BFB4
330
BEEE
100
AcDbEntity
  8
1
  6
Continuous
100
AcDbLine
 10
36.61522399999999
 20
217.6281649999999
 30
0.0
 11
38.615224
 21
219.6281649999999
 31
0.0
  0
LINE
  5
BFB5
330
BEEE
100
AcDbEntity
  8
1
  6
Continuous
100
AcDbLine
 10
34.5
 20
218.0865349999999
 30
0.0
 11
34.95837
 21
217.6281649999999
 31
0.0
  0
LINE
  5
BFB6
330
BEEE
100
AcDbEntity
  8
1
  6
Continuous
100
AcDbLine
 10
34.5
 20
219.500748
 30
0.0
 11
36.372583
 21
217.6281649999999
 31
0.0
  0
LINE
  5
BFB7
330
BEEE
100
AcDbEntity
  8
1
  6
Continuous
100
AcDbLine
 10
37.786797
 20
217.6281649999999
 30
0.0
 11
35.786797
 21
219.6281649999999
 31
0.0
  0
LINE
  5
BFB8
330
BEEE
100
AcDbEntity
  8
1
  6
Continuous
100
AcDbLine
 10
34.5
 20
218.341369
 30
0.0
 11
35.786797
 21
219.6281649999999
 31
0.0
  0
LINE
  5
BFB9
330
BEEE
100
AcDbEntity
  8
1
  6
Continuous
100
AcDbLine
 10
35.20100999999999
 20
217.6281649999999
 30
0.0
 11
37.20100999999999
 21
219.6281649999999
 31
0.0
  0
LINE
  5
BFBA
330
BEEE
100
AcDbEntity
  8
1
  6
Continuous
100
AcDbLine
 10
34.5
 20
221.6281649999999
 30
0.0
 11
34.5
 21
217.6281649999999
 31
0.0
  0
LINE
  5
BFBB
330
BEEE
100
AcDbEntity
  8
1
  6
Continuous
100
AcDbLine
 10
40.615224
 20
217.6281649999999
 30
0.0
 11
38.615224
 21
219.6281649999999
 31
0.0
  0
LINE
  5
BFBC
330
BEEE
100
AcDbEntity
  8
1
  6
Continuous
100
AcDbLine
 10
38.029437
 20
217.6281649999999
 30
0.0
 11
40.029437
 21
219.6281649999999
 31
0.0
  0
LINE
  5
BFBD
330
BEEE
100
AcDbEntity
  8
1
  6
Continuous
100
AcDbLine
 10
39.443651
 20
217.6281649999999
 30
0.0
 11
41.443651
 21
219.6281649999999
 31
0.0
  0
LINE
  5
BFBE
330
BEEE
100
AcDbEntity
  8
1
  6
Continuous
100
AcDbLine
 10
50.514719
 20
217.6281649999999
 30
0.0
 11
48.51471899999999
 21
219.6281649999999
 31
0.0
  0
LINE
  5
BFBF
330
BEEE
100
AcDbEntity
  8
1
  6
Continuous
100
AcDbLine
 10
51.928932
 20
217.6281649999999
 30
0.0
 11
49.92893200000001
 21
219.6281649999999
 31
0.0
  0
LINE
  5
BFC0
330
BEEE
100
AcDbEntity
  8
1
  6
Continuous
100
AcDbLine
 10
49.343146
 20
217.6281649999999
 30
0.0
 11
51.34314599999999
 21
219.6281649999999
 31
0.0
  0
LINE
  5
BFC1
330
BEEE
100
AcDbEntity
  8
1
  6
Continuous
100
AcDbLine
 10
46.27207799999999
 20
217.6281649999999
 30
0.0
 11
44.272078
 21
219.6281649999999
 31
0.0
  0
LINE
  5
BFC2
330
BEEE
100
AcDbEntity
  8
1
  6
Continuous
100
AcDbLine
 10
47.686292
 20
217.6281649999999
 30
0.0
 11
45.686292
 21
219.6281649999999
 31
0.0
  0
LINE
  5
BFC3
330
BEEE
100
AcDbEntity
  8
1
  6
Continuous
100
AcDbLine
 10
45.100505
 20
217.6281649999999
 30
0.0
 11
47.100505
 21
219.6281649999999
 31
0.0
  0
LINE
  5
BFC4
330
BEEE
100
AcDbEntity
  8
1
  6
Continuous
100
AcDbLine
 10
44.85786499999998
 20
217.6281649999999
 30
0.0
 11
42.85786499999999
 21
219.6281649999999
 31
0.0
  0
LINE
  5
BFC5
330
BEEE
100
AcDbEntity
  8
1
  6
Continuous
100
AcDbLine
 10
42.272078
 20
217.6281649999999
 30
0.0
 11
44.272078
 21
219.6281649999999
 31
0.0
  0
LINE
  5
BFC6
330
BEEE
100
AcDbEntity
  8
1
  6
Continuous
100
AcDbLine
 10
43.68629199999999
 20
217.6281649999999
 30
0.0
 11
45.686292
 21
219.6281649999999
 31
0.0
  0
LINE
  5
BFC7
330
BEEE
100
AcDbEntity
  8
1
  6
Continuous
100
AcDbLine
 10
49.100505
 20
217.6281649999999
 30
0.0
 11
47.100505
 21
219.6281649999999
 31
0.0
  0
LINE
  5
BFC8
330
BEEE
100
AcDbEntity
  8
1
  6
Continuous
100
AcDbLine
 10
46.51471899999999
 20
217.6281649999999
 30
0.0
 11
48.51471899999999
 21
219.6281649999999
 31
0.0
  0
LINE
  5
BFC9
330
BEEE
100
AcDbEntity
  8
1
  6
Continuous
100
AcDbLine
 10
47.928932
 20
217.6281649999999
 30
0.0
 11
49.92893200000001
 21
219.6281649999999
 31
0.0
  0
LINE
  5
BFCA
330
BEEE
100
AcDbEntity
  8
1
  6
Continuous
100
AcDbLine
 10
54.75736
 20
217.6281649999999
 30
0.0
 11
52.75736
 21
219.6281649999999
 31
0.0
  0
LINE
  5
BFCB
330
BEEE
100
AcDbEntity
  8
1
  6
Continuous
100
AcDbLine
 10
56.17157299999998
 20
217.6281649999999
 30
0.0
 11
54.17157299999999
 21
219.6281649999999
 31
0.0
  0
LINE
  5
BFCC
330
BEEE
100
AcDbEntity
  8
1
  6
Continuous
100
AcDbLine
 10
53.58578699999998
 20
217.6281649999999
 30
0.0
 11
55.58578699999999
 21
219.6281649999999
 31
0.0
  0
LINE
  5
BFCD
330
BEEE
100
AcDbEntity
  8
1
  6
Continuous
100
AcDbLine
 10
53.34314599999999
 20
217.6281649999999
 30
0.0
 11
51.34314599999999
 21
219.6281649999999
 31
0.0
  0
LINE
  5
BFCE
330
BEEE
100
AcDbEntity
  8
1
  6
Continuous
100
AcDbLine
 10
50.75736
 20
217.6281649999999
 30
0.0
 11
52.75736
 21
219.6281649999999
 31
0.0
  0
LINE
  5
BFCF
330
BEEE
100
AcDbEntity
  8
1
  6
Continuous
100
AcDbLine
 10
52.171573
 20
217.6281649999999
 30
0.0
 11
54.17157299999999
 21
219.6281649999999
 31
0.0
  0
LINE
  5
BFD0
330
BEEE
100
AcDbEntity
  8
1
  6
Continuous
100
AcDbLine
 10
57.58578700000001
 20
217.6281649999999
 30
0.0
 11
55.58578699999999
 21
219.6281649999999
 31
0.0
  0
LINE
  5
BFD1
330
BEEE
100
AcDbEntity
  8
1
  6
Continuous
100
AcDbLine
 10
56.414214
 20
217.6281649999999
 30
0.0
 11
58.414214
 21
219.6281649999999
 31
0.0
  0
LINE
  5
BFD2
330
BEEE
100
AcDbEntity
  8
1
  6
Continuous
100
AcDbLine
 10
55.0
 20
217.6281649999999
 30
0.0
 11
57.0
 21
219.6281649999999
 31
0.0
  0
LINE
  5
BFD3
330
BEEE
100
AcDbEntity
  8
1
  6
Continuous
100
AcDbLine
 10
69.5
 20
204.320871
 30
0.0
 11
69.5
 21
135.935459
 31
0.0
  0
LINE
  5
BFD4
330
BEEE
100
AcDbEntity
  8
1
  6
Continuous
100
AcDbLine
 10
75.04999999999999
 20
205.1281649999999
 30
0.0
 11
75.04999999999999
 21
190.060122
 31
0.0
  0
LINE
  5
BFD5
330
BEEE
100
AcDbEntity
  8
1
  6
Continuous
100
AcDbLine
 10
72.75
 20
207.1281649999999
 30
0.0
 11
72.75
 21
159.3781649999999
 31
0.0
  0
LINE
  5
BFD6
330
BEEE
100
AcDbEntity
  8
1
  6
Continuous
100
AcDbLine
 10
82.0
 20
214.628165
 30
0.0
 11
82.0
 21
202.144976
 31
0.0
  0
ARC
  5
BFD7
330
BEEE
100
AcDbEntity
  8
1
  6
Continuous
100
AcDbCircle
 10
70.59999999999998
 20
161.128165
 30
0.0
 40
1.5
100
AcDbArc
 50
270.0
 51
0.0
  0
ARC
  5
BFD8
330
BEEE
100
AcDbEntity
  8
1
  6
Continuous
100
AcDbCircle
 10
64.0
 20
175.587229
 30
0.0
 40
18.0
100
AcDbArc
 50
319.387472
 51
323.010534
  0
LINE
  5
BFD9
330
BEEE
100
AcDbEntity
  8
1
  6
Continuous
100
AcDbLine
 10
72.75
 20
159.3781649999999
 30
0.0
 11
73.40898100000003
 21
159.3781649999999
 31
0.0
  0
ARC
  5
BFDA
330
BEEE
100
AcDbEntity
  8
1
  6
Continuous
100
AcDbCircle
 10
66.5
 20
135.935459
 30
0.0
 40
3.0
100
AcDbArc
 50
273.705371
 51
0.0
  0
LINE
  5
BFDB
330
BEEE
100
AcDbEntity
  8
1
  6
Continuous
100
AcDbLine
 10
69.5
 20
159.6281649999999
 30
0.0
 11
70.59999999999998
 21
159.6281649999999
 31
0.0
  0
LINE
  5
BFDC
330
BEEE
100
AcDbEntity
  8
1
  6
Continuous
100
AcDbLine
 10
72.09999999999998
 20
161.128165
 30
0.0
 11
72.09999999999998
 21
179.1281649999999
 31
0.0
  0
LINE
  5
BFDD
330
BEEE
100
AcDbEntity
  8
1
  6
Continuous
100
AcDbLine
 10
72.09999999999998
 20
166.128165
 30
0.0
 11
72.75
 21
166.128165
 31
0.0
  0
LINE
  5
BFDE
330
BEEE
100
AcDbEntity
  8
1
  6
Continuous
100
AcDbLine
 10
72.09999999999998
 20
174.1281649999999
 30
0.0
 11
72.75
 21
174.1281649999999
 31
0.0
  0
ARC
  5
BFDF
330
BEEE
100
AcDbEntity
  8
1
  6
Continuous
100
AcDbCircle
 10
70.59999999999998
 20
179.1281649999999
 30
0.0
 40
1.5
100
AcDbArc
 50
0.0
 51
90.0
  0
LINE
  5
BFE0
330
BEEE
100
AcDbEntity
  8
1
  6
Continuous
100
AcDbLine
 10
69.5
 20
180.628165
 30
0.0
 11
70.59999999999998
 21
180.628165
 31
0.0
  0
ARC
  5
BFE1
330
BEEE
100
AcDbEntity
  8
1
  6
Continuous
100
AcDbCircle
 10
68.75
 20
207.1281649999999
 30
0.0
 40
4.0
100
AcDbArc
 50
0.0
 51
90.0
  0
ARC
  5
BFE2
330
BEEE
100
AcDbEntity
  8
1
  6
Continuous
100
AcDbCircle
 10
69.05
 20
205.1281649999999
 30
0.0
 40
6.0
100
AcDbArc
 50
0.0
 51
90.0
  0
LINE
  5
BFE3
330
BEEE
100
AcDbEntity
  8
1
  6
Continuous
100
AcDbLine
 10
75.970563
 20
217.6281649999999
 30
0.0
 11
73.970563
 21
219.6281649999999
 31
0.0
  0
LINE
  5
BFE4
330
BEEE
100
AcDbEntity
  8
1
  6
Continuous
100
AcDbLine
 10
74.79899
 20
217.6281649999999
 30
0.0
 11
76.79899
 21
219.6281649999999
 31
0.0
  0
LINE
  5
BFE5
330
BEEE
100
AcDbEntity
  8
1
  6
Continuous
100
AcDbLine
 10
73.384777
 20
217.6281649999999
 30
0.0
 11
75.384777
 21
219.6281649999999
 31
0.0
  0
LINE
  5
BFE6
330
BEEE
100
AcDbEntity
  8
1
  6
Continuous
100
AcDbLine
 10
67.48528199999999
 20
217.6281649999999
 30
0.0
 11
65.48528199999998
 21
219.6281649999999
 31
0.0
  0
LINE
  5
BFE7
330
BEEE
100
AcDbEntity
  8
1
  6
Continuous
100
AcDbLine
 10
66.313709
 20
217.6281649999999
 30
0.0
 11
68.313709
 21
219.6281649999999
 31
0.0
  0
LINE
  5
BFE8
330
BEEE
100
AcDbEntity
  8
1
  6
Continuous
100
AcDbLine
 10
64.899495
 20
217.6281649999999
 30
0.0
 11
66.899495
 21
219.6281649999999
 31
0.0
  0
LINE
  5
BFE9
330
BEEE
100
AcDbEntity
  8
1
  6
Continuous
100
AcDbLine
 10
63.242641
 20
217.6281649999999
 30
0.0
 11
61.24264100000001
 21
219.6281649999999
 31
0.0
  0
LINE
  5
BFEA
330
BEEE
100
AcDbEntity
  8
1
  6
Continuous
100
AcDbLine
 10
62.071068
 20
217.6281649999999
 30
0.0
 11
64.07106800000001
 21
219.6281649999999
 31
0.0
  0
LINE
  5
BFEB
330
BEEE
100
AcDbEntity
  8
1
  6
Continuous
100
AcDbLine
 10
60.656854
 20
217.6281649999999
 30
0.0
 11
62.656854
 21
219.6281649999999
 31
0.0
  0
LINE
  5
BFEC
330
BEEE
100
AcDbEntity
  8
1
  6
Continuous
100
AcDbLine
 10
61.82842700000001
 20
217.6281649999999
 30
0.0
 11
59.82842699999999
 21
219.6281649999999
 31
0.0
  0
LINE
  5
BFED
330
BEEE
100
AcDbEntity
  8
1
  6
Continuous
100
AcDbLine
 10
59.24264100000001
 20
217.6281649999999
 30
0.0
 11
61.24264100000001
 21
219.6281649999999
 31
0.0
  0
LINE
  5
BFEE
330
BEEE
100
AcDbEntity
  8
1
  6
Continuous
100
AcDbLine
 10
66.07106800000001
 20
217.6281649999999
 30
0.0
 11
64.07106800000001
 21
219.6281649999999
 31
0.0
  0
LINE
  5
BFEF
330
BEEE
100
AcDbEntity
  8
1
  6
Continuous
100
AcDbLine
 10
64.65685400000001
 20
217.6281649999999
 30
0.0
 11
62.656854
 21
219.6281649999999
 31
0.0
  0
LINE
  5
BFF0
330
BEEE
100
AcDbEntity
  8
1
  6
Continuous
100
AcDbLine
 10
63.485282
 20
217.6281649999999
 30
0.0
 11
65.48528199999998
 21
219.6281649999999
 31
0.0
  0
LINE
  5
BFF1
330
BEEE
100
AcDbEntity
  8
1
  6
Continuous
100
AcDbLine
 10
71.72792199999998
 20
217.6281649999999
 30
0.0
 11
69.72792199999999
 21
219.6281649999999
 31
0.0
  0
LINE
  5
BFF2
330
BEEE
100
AcDbEntity
  8
1
  6
Continuous
100
AcDbLine
 10
70.556349
 20
217.6281649999999
 30
0.0
 11
72.55634899999998
 21
219.6281649999999
 31
0.0
  0
LINE
  5
BFF3
330
BEEE
100
AcDbEntity
  8
1
  6
Continuous
100
AcDbLine
 10
69.142136
 20
217.6281649999999
 30
0.0
 11
71.14213599999998
 21
219.6281649999999
 31
0.0
  0
LINE
  5
BFF4
330
BEEE
100
AcDbEntity
  8
1
  6
Continuous
100
AcDbLine
 10
70.313709
 20
217.6281649999999
 30
0.0
 11
68.313709
 21
219.6281649999999
 31
0.0
  0
LINE
  5
BFF5
330
BEEE
100
AcDbEntity
  8
1
  6
Continuous
100
AcDbLine
 10
68.899495
 20
217.6281649999999
 30
0.0
 11
66.899495
 21
219.6281649999999
 31
0.0
  0
LINE
  5
BFF6
330
BEEE
100
AcDbEntity
  8
1
  6
Continuous
100
AcDbLine
 10
67.72792199999999
 20
217.6281649999999
 30
0.0
 11
69.72792199999999
 21
219.6281649999999
 31
0.0
  0
LINE
  5
BFF7
330
BEEE
100
AcDbEntity
  8
1
  6
Continuous
100
AcDbLine
 10
74.55634899999998
 20
217.6281649999999
 30
0.0
 11
72.55634899999998
 21
219.6281649999999
 31
0.0
  0
LINE
  5
BFF8
330
BEEE
100
AcDbEntity
  8
1
  6
Continuous
100
AcDbLine
 10
73.14213599999998
 20
217.6281649999999
 30
0.0
 11
71.14213599999998
 21
219.6281649999999
 31
0.0
  0
LINE
  5
BFF9
330
BEEE
100
AcDbEntity
  8
1
  6
Continuous
100
AcDbLine
 10
71.97056299999998
 20
217.6281649999999
 30
0.0
 11
73.970563
 21
219.6281649999999
 31
0.0
  0
LINE
  5
BFFA
330
BEEE
100
AcDbEntity
  8
4
  6
CENTER
100
AcDbLine
 10
82.0
 20
229.628165
 30
0.0
 11
82.0
 21
221.3281649999999
 31
0.0
  0
ARC
  5
BFFB
330
BEEE
100
AcDbEntity
  8
1
  6
Continuous
100
AcDbCircle
 10
79.5
 20
226.728165
 30
0.0
 40
5.099999999999997
100
AcDbArc
 50
270.0
 51
331.9275129999998
  0
ARC
  5
BFFC
330
BEEE
100
AcDbEntity
  8
1
  6
Continuous
100
AcDbCircle
 10
79.0
 20
214.628165
 30
0.0
 40
3.0
100
AcDbArc
 50
0.0
 51
90.0
  0
LINE
  5
BFFD
330
BEEE
100
AcDbEntity
  8
1
  6
Continuous
100
AcDbLine
 10
79.5
 20
218.341369
 30
0.0
 11
78.21320400000002
 21
219.6281649999999
 31
0.0
  0
LINE
  5
BFFE
330
BEEE
100
AcDbEntity
  8
1
  6
Continuous
100
AcDbLine
 10
77.62741699999998
 20
217.6281649999999
 30
0.0
 11
79.5
 21
219.500748
 31
0.0
  0
LINE
  5
BFFF
330
BEEE
100
AcDbEntity
  8
1
  6
Continuous
100
AcDbLine
 10
78.79899
 20
217.6281649999999
 30
0.0
 11
76.79899
 21
219.6281649999999
 31
0.0
  0
LINE
  5
C000
330
BEEE
100
AcDbEntity
  8
1
  6
Continuous
100
AcDbLine
 10
77.384777
 20
217.6281649999999
 30
0.0
 11
75.384777
 21
219.6281649999999
 31
0.0
  0
LINE
  5
C001
330
BEEE
100
AcDbEntity
  8
1
  6
Continuous
100
AcDbLine
 10
76.213204
 20
217.6281649999999
 30
0.0
 11
78.21320400000002
 21
219.6281649999999
 31
0.0
  0
LINE
  5
C002
330
BEEE
100
AcDbEntity
  8
1
  6
Continuous
100
AcDbLine
 10
79.04163100000002
 20
217.6281649999999
 30
0.0
 11
79.5
 21
218.0865349999999
 31
0.0
  0
LINE
  5
C003
330
BEEE
100
AcDbEntity
  8
1
  6
Continuous
100
AcDbLine
 10
79.5
 20
221.6281649999999
 30
0.0
 11
79.5
 21
217.6281649999999
 31
0.0
  0
LINE
  5
C004
330
BEEE
100
AcDbEntity
  8
1
  6
Continuous
100
AcDbLine
 10
89.0
 20
224.3281649999999
 30
0.0
 11
89.0
 21
226.6281649999999
 31
0.0
  0
ARC
  5
C005
330
BEEE
100
AcDbEntity
  8
1
  6
Continuous
100
AcDbCircle
 10
284.5
 20
226.728165
 30
0.0
 40
5.099999999999997
100
AcDbArc
 50
208.072487
 51
270.0
  0
LINE
  5
C006
330
BEEE
100
AcDbEntity
  8
1
  6
Continuous
100
AcDbLine
 10
339.0
 20
226.6281649999999
 30
0.0
 11
275.0
 21
226.6281649999999
 31
0.0
  0
LINE
  5
C007
330
BEEE
100
AcDbEntity
  8
1
  6
Continuous
100
AcDbLine
 10
339.0
 20
224.3281649999999
 30
0.0
 11
275.0
 21
224.3281649999999
 31
0.0
  0
LINE
  5
C008
330
BEEE
100
AcDbEntity
  8
4
  6
CENTER
100
AcDbLine
 10
307.0
 20
229.628165
 30
0.0
 11
307.0
 21
127.628165
 31
0.0
  0
LINE
  5
C009
330
BEEE
100
AcDbEntity
  8
1
  6
Continuous
100
AcDbLine
 10
282.0
 20
214.628165
 30
0.0
 11
282.0
 21
175.587229
 31
0.0
  0
LINE
  5
C00A
330
BEEE
100
AcDbEntity
  8
1
  6
Continuous
100
AcDbLine
 10
291.25
 20
195.6485199999999
 30
0.0
 11
291.25
 21
159.3781649999999
 31
0.0
  0
LINE
  5
C00B
330
BEEE
100
AcDbEntity
  8
1
  6
Continuous
100
AcDbLine
 10
332.0
 20
214.628165
 30
0.0
 11
332.0
 21
175.587229
 31
0.0
  0
LINE
  5
C00C
330
BEEE
100
AcDbEntity
  8
1
  6
Continuous
100
AcDbLine
 10
322.75
 20
159.3781649999999
 30
0.0
 11
322.75
 21
195.6485199999999
 31
0.0
  0
LINE
  5
C00D
330
BEEE
100
AcDbEntity
  8
1
  6
Continuous
100
AcDbLine
 10
325.05
 20
161.3781649999999
 30
0.0
 11
325.05
 21
159.3781649999999
 31
0.0
  0
LINE
  5
C00E
330
BEEE
100
AcDbEntity
  8
4
  6
CENTER
100
AcDbLine
 10
332.05
 20
170.128165
 30
0.0
 11
272.5744629999999
 21
170.128165
 31
0.0
  0
LINE
  5
C00F
330
BEEE
100
AcDbEntity
  8
1
  6
Continuous
100
AcDbLine
 10
322.1
 20
161.128165
 30
0.0
 11
322.1
 21
179.1281649999999
 31
0.0
  0
ARC
  5
C010
330
BEEE
100
AcDbEntity
  8
1
  6
Continuous
100
AcDbCircle
 10
314.0
 20
175.587229
 30
0.0
 40
18.0
100
AcDbArc
 50
307.871229
 51
0.0
  0
LINE
  5
C011
330
BEEE
100
AcDbEntity
  8
1
  6
Continuous
100
AcDbLine
 10
322.75
 20
166.128165
 30
0.0
 11
322.1
 21
166.128165
 31
0.0
  0
ARC
  5
C012
330
BEEE
100
AcDbEntity
  8
1
  6
Continuous
100
AcDbCircle
 10
320.6
 20
161.128165
 30
0.0
 40
1.5
100
AcDbArc
 50
270.0
 51
0.0
  0
LINE
  5
C013
330
BEEE
100
AcDbEntity
  8
1
  6
Continuous
100
AcDbLine
 10
325.05
 20
159.3781649999999
 30
0.0
 11
322.75
 21
159.3781649999999
 31
0.0
  0
LINE
  5
C014
330
BEEE
100
AcDbEntity
  8
1
  6
Continuous
100
AcDbLine
 10
320.6
 20
159.6281649999999
 30
0.0
 11
319.5
 21
159.6281649999999
 31
0.0
  0
LINE
  5
C015
330
BEEE
100
AcDbEntity
  8
1
  6
Continuous
100
AcDbLine
 10
322.75
 20
174.1281649999999
 30
0.0
 11
322.1
 21
174.1281649999999
 31
0.0
  0
ARC
  5
C016
330
BEEE
100
AcDbEntity
  8
1
  6
Continuous
100
AcDbCircle
 10
320.6
 20
179.1281649999999
 30
0.0
 40
1.5
100
AcDbArc
 50
0.0
 51
90.0
  0
LINE
  5
C017
330
BEEE
100
AcDbEntity
  8
1
  6
Continuous
100
AcDbLine
 10
320.6
 20
180.628165
 30
0.0
 11
319.5
 21
180.628165
 31
0.0
  0
LINE
  5
C018
330
BEEE
100
AcDbEntity
  8
1
  6
Continuous
100
AcDbLine
 10
291.9
 20
161.128165
 30
0.0
 11
291.9
 21
179.1281649999999
 31
0.0
  0
ARC
  5
C019
330
BEEE
100
AcDbEntity
  8
1
  6
Continuous
100
AcDbCircle
 10
300.0
 20
175.587229
 30
0.0
 40
18.0
100
AcDbArc
 50
180.0
 51
213.086743
  0
LINE
  5
C01A
330
BEEE
100
AcDbEntity
  8
1
  6
Continuous
100
AcDbLine
 10
291.25
 20
159.3781649999999
 30
0.0
 11
290.591019
 21
159.3781649999999
 31
0.0
  0
LINE
  5
C01B
330
BEEE
100
AcDbEntity
  8
1
  6
Continuous
100
AcDbLine
 10
291.9
 20
166.128165
 30
0.0
 11
291.25
 21
166.128165
 31
0.0
  0
LINE
  5
C01C
330
BEEE
100
AcDbEntity
  8
1
  6
Continuous
100
AcDbLine
 10
294.4999999999998
 20
159.6281649999999
 30
0.0
 11
293.3999999999999
 21
159.6281649999999
 31
0.0
  0
ARC
  5
C01D
330
BEEE
100
AcDbEntity
  8
1
  6
Continuous
100
AcDbCircle
 10
293.3999999999999
 20
161.128165
 30
0.0
 40
1.5
100
AcDbArc
 50
180.0
 51
270.0
  0
LINE
  5
C01E
330
BEEE
100
AcDbEntity
  8
1
  6
Continuous
100
AcDbLine
 10
294.4999999999998
 20
180.628165
 30
0.0
 11
293.3999999999999
 21
180.628165
 31
0.0
  0
ARC
  5
C01F
330
BEEE
100
AcDbEntity
  8
1
  6
Continuous
100
AcDbCircle
 10
293.3999999999999
 20
179.1281649999999
 30
0.0
 40
1.5
100
AcDbArc
 50
90.0
 51
180.0
  0
LINE
  5
C020
330
BEEE
100
AcDbEntity
  8
1
  6
Continuous
100
AcDbLine
 10
291.9
 20
174.1281649999999
 30
0.0
 11
291.25
 21
174.1281649999999
 31
0.0
  0
LINE
  5
C021
330
BEEE
100
AcDbEntity
  8
1
  6
Continuous
100
AcDbLine
 10
311.8284269999999
 20
217.6281649999999
 30
0.0
 11
309.8284269999999
 21
219.6281649999999
 31
0.0
  0
LINE
  5
C022
330
BEEE
100
AcDbEntity
  8
1
  6
Continuous
100
AcDbLine
 10
313.2426399999999
 20
217.6281649999999
 30
0.0
 11
311.2426399999999
 21
219.6281649999999
 31
0.0
  0
LINE
  5
C023
330
BEEE
100
AcDbEntity
  8
1
  6
Continuous
100
AcDbLine
 10
310.656854
 20
217.6281649999999
 30
0.0
 11
312.656854
 21
219.6281649999999
 31
0.0
  0
LINE
  5
C024
330
BEEE
100
AcDbEntity
  8
1
  6
Continuous
100
AcDbLine
 10
329.4999999999999
 20
217.6281649999999
 30
0.0
 11
284.5
 21
217.6281649999999
 31
0.0
  0
LINE
  5
C025
330
BEEE
100
AcDbEntity
  8
1
  6
Continuous
100
AcDbLine
 10
329.4999999999999
 20
219.6281649999999
 30
0.0
 11
284.5
 21
219.6281649999999
 31
0.0
  0
LINE
  5
C026
330
BEEE
100
AcDbEntity
  8
1
  6
Continuous
100
AcDbLine
 10
329.4999999999999
 20
221.6281649999999
 30
0.0
 11
284.5
 21
221.6281649999999
 31
0.0
  0
LINE
  5
C027
330
BEEE
100
AcDbEntity
  8
1
  6
Continuous
100
AcDbLine
 10
328.7989899999999
 20
217.6281649999999
 30
0.0
 11
326.7989899999999
 21
219.6281649999999
 31
0.0
  0
LINE
  5
C028
330
BEEE
100
AcDbEntity
  8
1
  6
Continuous
100
AcDbLine
 10
326.2132029999999
 20
217.6281649999999
 30
0.0
 11
328.2132029999999
 21
219.6281649999999
 31
0.0
  0
LINE
  5
C029
330
BEEE
100
AcDbEntity
  8
1
  6
Continuous
100
AcDbLine
 10
339.0
 20
224.3281649999999
 30
0.0
 11
339.0
 21
226.6281649999999
 31
0.0
  0
LINE
  5
C02A
330
BEEE
100
AcDbEntity
  8
1
  6
Continuous
100
AcDbLine
 10
329.4999999999999
 20
221.6281649999999
 30
0.0
 11
329.4999999999999
 21
217.6281649999999
 31
0.0
  0
LINE
  5
C02B
330
BEEE
100
AcDbEntity
  8
1
  6
Continuous
100
AcDbLine
 10
329.4999999999999
 20
218.341369
 30
0.0
 11
328.2132029999999
 21
219.6281649999999
 31
0.0
  0
LINE
  5
C02C
330
BEEE
100
AcDbEntity
  8
1
  6
Continuous
100
AcDbLine
 10
329.4999999999999
 20
219.500748
 30
0.0
 11
327.6274169999999
 21
217.6281649999999
 31
0.0
  0
LINE
  5
C02D
330
BEEE
100
AcDbEntity
  8
1
  6
Continuous
100
AcDbLine
 10
329.4999999999999
 20
218.0865349999999
 30
0.0
 11
329.0416299999999
 21
217.6281649999999
 31
0.0
  0
ARC
  5
C02E
330
BEEE
100
AcDbEntity
  8
1
  6
Continuous
100
AcDbCircle
 10
329.0
 20
214.628165
 30
0.0
 40
3.0
100
AcDbArc
 50
0.0
 51
90.0
  0
LINE
  5
C02F
330
BEEE
100
AcDbEntity
  8
4
  6
CENTER
100
AcDbLine
 10
332.0
 20
229.628165
 30
0.0
 11
332.0
 21
221.3281649999999
 31
0.0
  0
ARC
  5
C030
330
BEEE
100
AcDbEntity
  8
1
  6
Continuous
100
AcDbCircle
 10
329.4999999999999
 20
226.728165
 30
0.0
 40
5.099999999999997
100
AcDbArc
 50
270.0
 51
331.9275129999998
  0
LINE
  5
C031
330
BEEE
100
AcDbEntity
  8
1
  6
Continuous
100
AcDbLine
 10
323.142135
 20
217.6281649999999
 30
0.0
 11
321.142135
 21
219.6281649999999
 31
0.0
  0
LINE
  5
C032
330
BEEE
100
AcDbEntity
  8
1
  6
Continuous
100
AcDbLine
 10
320.556349
 20
217.6281649999999
 30
0.0
 11
322.556349
 21
219.6281649999999
 31
0.0
  0
LINE
  5
C033
330
BEEE
100
AcDbEntity
  8
1
  6
Continuous
100
AcDbLine
 10
321.9705629999999
 20
217.6281649999999
 30
0.0
 11
323.9705629999999
 21
219.6281649999999
 31
0.0
  0
LINE
  5
C034
330
BEEE
100
AcDbEntity
  8
1
  6
Continuous
100
AcDbLine
 10
324.556349
 20
217.6281649999999
 30
0.0
 11
322.556349
 21
219.6281649999999
 31
0.0
  0
LINE
  5
C035
330
BEEE
100
AcDbEntity
  8
1
  6
Continuous
100
AcDbLine
 10
325.9705629999999
 20
217.6281649999999
 30
0.0
 11
323.9705629999999
 21
219.6281649999999
 31
0.0
  0
LINE
  5
C036
330
BEEE
100
AcDbEntity
  8
1
  6
Continuous
100
AcDbLine
 10
323.3847759999998
 20
217.6281649999999
 30
0.0
 11
325.3847759999998
 21
219.6281649999999
 31
0.0
  0
LINE
  5
C037
330
BEEE
100
AcDbEntity
  8
1
  6
Continuous
100
AcDbLine
 10
327.3847759999998
 20
217.6281649999999
 30
0.0
 11
325.3847759999998
 21
219.6281649999999
 31
0.0
  0
LINE
  5
C038
330
BEEE
100
AcDbEntity
  8
1
  6
Continuous
100
AcDbLine
 10
324.79899
 20
217.6281649999999
 30
0.0
 11
326.7989899999999
 21
219.6281649999999
 31
0.0
  0
LINE
  5
C039
330
BEEE
100
AcDbEntity
  8
1
  6
Continuous
100
AcDbLine
 10
321.7279219999999
 20
217.6281649999999
 30
0.0
 11
319.7279219999999
 21
219.6281649999999
 31
0.0
  0
LINE
  5
C03A
330
BEEE
100
AcDbEntity
  8
1
  6
Continuous
100
AcDbLine
 10
319.142135
 20
217.6281649999999
 30
0.0
 11
321.142135
 21
219.6281649999999
 31
0.0
  0
LINE
  5
C03B
330
BEEE
100
AcDbEntity
  8
1
  6
Continuous
100
AcDbLine
 10
316.0710680000001
 20
217.6281649999999
 30
0.0
 11
314.0710680000001
 21
219.6281649999999
 31
0.0
  0
LINE
  5
C03C
330
BEEE
100
AcDbEntity
  8
1
  6
Continuous
100
AcDbLine
 10
317.4852809999998
 20
217.6281649999999
 30
0.0
 11
315.4852809999998
 21
219.6281649999999
 31
0.0
  0
LINE
  5
C03D
330
BEEE
100
AcDbEntity
  8
1
  6
Continuous
100
AcDbLine
 10
314.899495
 20
217.6281649999999
 30
0.0
 11
316.899495
 21
219.6281649999999
 31
0.0
  0
LINE
  5
C03E
330
BEEE
100
AcDbEntity
  8
1
  6
Continuous
100
AcDbLine
 10
316.313708
 20
217.6281649999999
 30
0.0
 11
318.313708
 21
219.6281649999999
 31
0.0
  0
LINE
  5
C03F
330
BEEE
100
AcDbEntity
  8
1
  6
Continuous
100
AcDbLine
 10
314.656854
 20
217.6281649999999
 30
0.0
 11
312.656854
 21
219.6281649999999
 31
0.0
  0
LINE
  5
C040
330
BEEE
100
AcDbEntity
  8
1
  6
Continuous
100
AcDbLine
 10
312.0710680000001
 20
217.6281649999999
 30
0.0
 11
314.0710680000001
 21
219.6281649999999
 31
0.0
  0
LINE
  5
C041
330
BEEE
100
AcDbEntity
  8
1
  6
Continuous
100
AcDbLine
 10
313.4852809999998
 20
217.6281649999999
 30
0.0
 11
315.4852809999998
 21
219.6281649999999
 31
0.0
  0
LINE
  5
C042
330
BEEE
100
AcDbEntity
  8
1
  6
Continuous
100
AcDbLine
 10
320.313708
 20
217.6281649999999
 30
0.0
 11
318.313708
 21
219.6281649999999
 31
0.0
  0
LINE
  5
C043
330
BEEE
100
AcDbEntity
  8
1
  6
Continuous
100
AcDbLine
 10
318.899495
 20
217.6281649999999
 30
0.0
 11
316.899495
 21
219.6281649999999
 31
0.0
  0
LINE
  5
C044
330
BEEE
100
AcDbEntity
  8
1
  6
Continuous
100
AcDbLine
 10
317.7279219999999
 20
217.6281649999999
 30
0.0
 11
319.7279219999999
 21
219.6281649999999
 31
0.0
  0
LINE
  5
C045
330
BEEE
100
AcDbEntity
  8
1
  6
Continuous
100
AcDbLine
 10
296.2720779999999
 20
217.6281649999999
 30
0.0
 11
294.2720779999999
 21
219.6281649999999
 31
0.0
  0
LINE
  5
C046
330
BEEE
100
AcDbEntity
  8
1
  6
Continuous
100
AcDbLine
 10
295.100505
 20
217.6281649999999
 30
0.0
 11
297.100505
 21
219.6281649999999
 31
0.0
  0
LINE
  5
C047
330
BEEE
100
AcDbEntity
  8
1
  6
Continuous
100
AcDbLine
 10
293.6862909999998
 20
217.6281649999999
 30
0.0
 11
295.6862909999999
 21
219.6281649999999
 31
0.0
  0
LINE
  5
C048
330
BEEE
100
AcDbEntity
  8
1
  6
Continuous
100
AcDbLine
 10
307.5857859999999
 20
217.6281649999999
 30
0.0
 11
305.5857859999999
 21
219.6281649999999
 31
0.0
  0
LINE
  5
C049
330
BEEE
100
AcDbEntity
  8
1
  6
Continuous
100
AcDbLine
 10
305.0
 20
217.6281649999999
 30
0.0
 11
307.0
 21
219.6281649999999
 31
0.0
  0
LINE
  5
C04A
330
BEEE
100
AcDbEntity
  8
1
  6
Continuous
100
AcDbLine
 10
309.0
 20
217.6281649999999
 30
0.0
 11
307.0
 21
219.6281649999999
 31
0.0
  0
LINE
  5
C04B
330
BEEE
100
AcDbEntity
  8
1
  6
Continuous
100
AcDbLine
 10
306.4142129999999
 20
217.6281649999999
 30
0.0
 11
308.4142129999999
 21
219.6281649999999
 31
0.0
  0
LINE
  5
C04C
330
BEEE
100
AcDbEntity
  8
1
  6
Continuous
100
AcDbLine
 10
310.4142129999999
 20
217.6281649999999
 30
0.0
 11
308.4142129999999
 21
219.6281649999999
 31
0.0
  0
LINE
  5
C04D
330
BEEE
100
AcDbEntity
  8
1
  6
Continuous
100
AcDbLine
 10
307.8284269999999
 20
217.6281649999999
 30
0.0
 11
309.8284269999999
 21
219.6281649999999
 31
0.0
  0
LINE
  5
C04E
330
BEEE
100
AcDbEntity
  8
1
  6
Continuous
100
AcDbLine
 10
309.2426399999999
 20
217.6281649999999
 30
0.0
 11
311.2426399999999
 21
219.6281649999999
 31
0.0
  0
LINE
  5
C04F
330
BEEE
100
AcDbEntity
  8
1
  6
Continuous
100
AcDbLine
 10
304.757359
 20
217.6281649999999
 30
0.0
 11
302.757359
 21
219.6281649999999
 31
0.0
  0
LINE
  5
C050
330
BEEE
100
AcDbEntity
  8
1
  6
Continuous
100
AcDbLine
 10
306.171573
 20
217.6281649999999
 30
0.0
 11
304.171573
 21
219.6281649999999
 31
0.0
  0
LINE
  5
C051
330
BEEE
100
AcDbEntity
  8
1
  6
Continuous
100
AcDbLine
 10
303.585786
 20
217.6281649999999
 30
0.0
 11
305.5857859999999
 21
219.6281649999999
 31
0.0
  0
LINE
  5
C052
330
BEEE
100
AcDbEntity
  8
1
  6
Continuous
100
AcDbLine
 10
300.514718
 20
217.6281649999999
 30
0.0
 11
298.514718
 21
219.6281649999999
 31
0.0
  0
LINE
  5
C053
330
BEEE
100
AcDbEntity
  8
1
  6
Continuous
100
AcDbLine
 10
299.343146
 20
217.6281649999999
 30
0.0
 11
301.343146
 21
219.6281649999999
 31
0.0
  0
LINE
  5
C054
330
BEEE
100
AcDbEntity
  8
1
  6
Continuous
100
AcDbLine
 10
297.9289319999999
 20
217.6281649999999
 30
0.0
 11
299.9289319999999
 21
219.6281649999999
 31
0.0
  0
LINE
  5
C055
330
BEEE
100
AcDbEntity
  8
1
  6
Continuous
100
AcDbLine
 10
301.9289319999999
 20
217.6281649999999
 30
0.0
 11
299.9289319999999
 21
219.6281649999999
 31
0.0
  0
LINE
  5
C056
330
BEEE
100
AcDbEntity
  8
1
  6
Continuous
100
AcDbLine
 10
299.100505
 20
217.6281649999999
 30
0.0
 11
297.100505
 21
219.6281649999999
 31
0.0
  0
LINE
  5
C057
330
BEEE
100
AcDbEntity
  8
1
  6
Continuous
100
AcDbLine
 10
297.6862909999999
 20
217.6281649999999
 30
0.0
 11
295.6862909999999
 21
219.6281649999999
 31
0.0
  0
LINE
  5
C058
330
BEEE
100
AcDbEntity
  8
1
  6
Continuous
100
AcDbLine
 10
296.514718
 20
217.6281649999999
 30
0.0
 11
298.514718
 21
219.6281649999999
 31
0.0
  0
LINE
  5
C059
330
BEEE
100
AcDbEntity
  8
1
  6
Continuous
100
AcDbLine
 10
302.171573
 20
217.6281649999999
 30
0.0
 11
304.171573
 21
219.6281649999999
 31
0.0
  0
LINE
  5
C05A
330
BEEE
100
AcDbEntity
  8
1
  6
Continuous
100
AcDbLine
 10
303.343146
 20
217.6281649999999
 30
0.0
 11
301.343146
 21
219.6281649999999
 31
0.0
  0
LINE
  5
C05B
330
BEEE
100
AcDbEntity
  8
1
  6
Continuous
100
AcDbLine
 10
300.757359
 20
217.6281649999999
 30
0.0
 11
302.757359
 21
219.6281649999999
 31
0.0
  0
LINE
  5
C05C
330
BEEE
100
AcDbEntity
  8
1
  6
Continuous
100
AcDbLine
 10
292.0294369999999
 20
217.6281649999999
 30
0.0
 11
290.0294369999999
 21
219.6281649999999
 31
0.0
  0
LINE
  5
C05D
330
BEEE
100
AcDbEntity
  8
1
  6
Continuous
100
AcDbLine
 10
289.4436509999998
 20
217.6281649999999
 30
0.0
 11
291.4436509999998
 21
219.6281649999999
 31
0.0
  0
LINE
  5
C05E
330
BEEE
100
AcDbEntity
  8
1
  6
Continuous
100
AcDbLine
 10
290.615223
 20
217.6281649999999
 30
0.0
 11
288.615223
 21
219.6281649999999
 31
0.0
  0
LINE
  5
C05F
330
BEEE
100
AcDbEntity
  8
1
  6
Continuous
100
AcDbLine
 10
290.8578639999999
 20
217.6281649999999
 30
0.0
 11
292.8578639999999
 21
219.6281649999999
 31
0.0
  0
LINE
  5
C060
330
BEEE
100
AcDbEntity
  8
1
  6
Continuous
100
AcDbLine
 10
294.857864
 20
217.6281649999999
 30
0.0
 11
292.8578639999999
 21
219.6281649999999
 31
0.0
  0
LINE
  5
C061
330
BEEE
100
AcDbEntity
  8
1
  6
Continuous
100
AcDbLine
 10
293.4436509999999
 20
217.6281649999999
 30
0.0
 11
291.4436509999998
 21
219.6281649999999
 31
0.0
  0
LINE
  5
C062
330
BEEE
100
AcDbEntity
  8
1
  6
Continuous
100
AcDbLine
 10
292.2720779999999
 20
217.6281649999999
 30
0.0
 11
294.2720779999999
 21
219.6281649999999
 31
0.0
  0
LINE
  5
C063
330
BEEE
100
AcDbEntity
  8
1
  6
Continuous
100
AcDbLine
 10
286.615223
 20
217.6281649999999
 30
0.0
 11
288.615223
 21
219.6281649999999
 31
0.0
  0
LINE
  5
C064
330
BEEE
100
AcDbEntity
  8
1
  6
Continuous
100
AcDbLine
 10
289.2010099999998
 20
217.6281649999999
 30
0.0
 11
287.20101
 21
219.6281649999999
 31
0.0
  0
LINE
  5
C065
330
BEEE
100
AcDbEntity
  8
1
  6
Continuous
100
AcDbLine
 10
288.0294369999999
 20
217.6281649999999
 30
0.0
 11
290.0294369999999
 21
219.6281649999999
 31
0.0
  0
LINE
  5
C066
330
BEEE
100
AcDbEntity
  8
1
  6
Continuous
100
AcDbLine
 10
284.5
 20
221.6281649999999
 30
0.0
 11
284.5
 21
217.6281649999999
 31
0.0
  0
LINE
  5
C067
330
BEEE
100
AcDbEntity
  8
1
  6
Continuous
100
AcDbLine
 10
284.958369
 20
217.6281649999999
 30
0.0
 11
284.5
 21
218.0865349999999
 31
0.0
  0
LINE
  5
C068
330
BEEE
100
AcDbEntity
  8
1
  6
Continuous
100
AcDbLine
 10
286.372583
 20
217.6281649999999
 30
0.0
 11
284.5
 21
219.500748
 31
0.0
  0
LINE
  5
C069
330
BEEE
100
AcDbEntity
  8
1
  6
Continuous
100
AcDbLine
 10
284.5
 20
218.341369
 30
0.0
 11
285.7867959999999
 21
219.6281649999999
 31
0.0
  0
ARC
  5
C06A
330
BEEE
100
AcDbEntity
  8
1
  6
Continuous
100
AcDbCircle
 10
285.0
 20
214.628165
 30
0.0
 40
3.0
100
AcDbArc
 50
90.0
 51
180.0
  0
LINE
  5
C06B
330
BEEE
100
AcDbEntity
  8
4
  6
CENTER
100
AcDbLine
 10
282.0
 20
229.628165
 30
0.0
 11
282.0
 21
221.3281649999999
 31
0.0
  0
LINE
  5
C06C
330
BEEE
100
AcDbEntity
  8
1
  6
Continuous
100
AcDbLine
 10
287.7867959999999
 20
217.6281649999999
 30
0.0
 11
285.7867959999999
 21
219.6281649999999
 31
0.0
  0
LINE
  5
C06D
330
BEEE
100
AcDbEntity
  8
1
  6
Continuous
100
AcDbLine
 10
285.20101
 20
217.6281649999999
 30
0.0
 11
287.20101
 21
219.6281649999999
 31
0.0
  0
LINE
  5
C06E
330
BEEE
100
AcDbEntity
  8
1
  6
Continuous
100
AcDbLine
 10
275.0
 20
224.3281649999999
 30
0.0
 11
275.0
 21
226.6281649999999
 31
0.0
  0
LINE
  5
C06F
330
BEEE
100
AcDbEntity
  8
4
  6
CENTER
100
AcDbLine
 10
213.2499999999998
 20
48.0
 30
0.0
 11
200.7499999999998
 21
48.0
 31
0.0
  0
ARC
  5
C070
330
BEEE
100
AcDbEntity
  8
1
  6
Continuous
100
AcDbCircle
 10
208.0
 20
47.0
 30
0.0
 40
6.0
100
AcDbArc
 50
270.0
 51
0.0
  0
LINE
  5
C071
330
BEEE
100
AcDbEntity
  8
4
  6
CENTER
100
AcDbLine
 10
213.2499999999998
 20
98.0
 30
0.0
 11
200.7499999999998
 21
98.0
 31
0.0
  0
ARC
  5
C072
330
BEEE
100
AcDbEntity
  8
1
  6
Continuous
100
AcDbCircle
 10
208.0
 20
99.0
 30
0.0
 40
6.0
100
AcDbArc
 50
0.0
 51
90.0
  0
LINE
  5
C073
330
BEEE
100
AcDbEntity
  8
4
  6
CENTER
100
AcDbLine
 10
217.0
 20
73.0
 30
0.0
 11
118.5
 21
73.0
 31
0.0
  0
LINE
  5
C074
330
BEEE
100
AcDbEntity
  8
1
  6
Continuous
100
AcDbLine
 10
150.0
 20
47.0
 30
0.0
 11
150.0
 21
60.5
 31
0.0
  0
LINE
  5
C075
330
BEEE
100
AcDbEntity
  8
4
  6
CENTER
100
AcDbLine
 10
182.0
 20
38.0
 30
0.0
 11
182.0
 21
108.0
 31
0.0
  0
LINE
  5
C076
330
BEEE
100
AcDbEntity
  8
1
  6
Continuous
100
AcDbLine
 10
156.0
 20
105.0
 30
0.0
 11
183.355431
 21
105.0
 31
0.0
  0
LINE
  5
C077
330
BEEE
100
AcDbEntity
  8
4
  6
CENTER
100
AcDbLine
 10
157.0
 20
104.2499999999999
 30
0.0
 11
157.0
 21
91.75
 31
0.0
  0
ARC
  5
C078
330
BEEE
100
AcDbEntity
  8
1
  6
Continuous
100
AcDbCircle
 10
156.0
 20
99.0
 30
0.0
 40
6.0
100
AcDbArc
 50
90.0
 51
180.0
  0
ARC
  5
C079
330
BEEE
100
AcDbEntity
  8
1
  6
Continuous
100
AcDbCircle
 10
157.0
 20
98.0
 30
0.0
 40
3.25
100
AcDbArc
 50
154.287925
 51
188.0966789999999
  0
LINE
  5
C07A
330
BEEE
100
AcDbEntity
  8
4
  6
CENTER
100
AcDbLine
 10
163.25
 20
98.0
 30
0.0
 11
150.75
 21
98.0
 31
0.0
  0
LINE
  5
C07B
330
BEEE
100
AcDbEntity
  8
4
  6
CENTER
100
AcDbLine
 10
207.0
 20
104.2499999999999
 30
0.0
 11
207.0
 21
91.75
 31
0.0
  0
CIRCLE
  5
C07C
330
BEEE
100
AcDbEntity
  8
1
  6
Continuous
100
AcDbCircle
 10
207.0
 20
98.0
 30
0.0
 40
3.25
  0
LINE
  5
C07D
330
BEEE
100
AcDbEntity
  8
1
  6
Continuous
100
AcDbLine
 10
208.0
 20
41.0
 30
0.0
 11
156.0
 21
41.0
 31
0.0
  0
CIRCLE
  5
C07E
330
BEEE
100
AcDbEntity
  8
1
  6
Continuous
100
AcDbCircle
 10
157.0
 20
48.0
 30
0.0
 40
3.25
  0
LINE
  5
C07F
330
BEEE
100
AcDbEntity
  8
4
  6
CENTER
100
AcDbLine
 10
157.0
 20
54.25
 30
0.0
 11
157.0
 21
41.74999999999999
 31
0.0
  0
LINE
  5
C080
330
BEEE
100
AcDbEntity
  8
4
  6
CENTER
100
AcDbLine
 10
163.25
 20
48.0
 30
0.0
 11
150.75
 21
48.0
 31
0.0
  0
ARC
  5
C081
330
BEEE
100
AcDbEntity
  8
1
  6
Continuous
100
AcDbCircle
 10
156.0
 20
47.0
 30
0.0
 40
6.0
100
AcDbArc
 50
180.0
 51
270.0
  0
LINE
  5
C082
330
BEEE
100
AcDbEntity
  8
4
  6
CENTER
100
AcDbLine
 10
207.0
 20
54.25
 30
0.0
 11
207.0
 21
41.74999999999999
 31
0.0
  0
CIRCLE
  5
C083
330
BEEE
100
AcDbEntity
  8
1
  6
Continuous
100
AcDbCircle
 10
207.0
 20
48.0
 30
0.0
 40
3.25
  0
LINE
  5
C084
330
BEEE
100
AcDbEntity
  8
1
  6
Continuous
100
AcDbLine
 10
214.0
 20
99.0
 30
0.0
 11
214.0
 21
47.0
 31
0.0
  0
ARC
  5
C085
330
BEEE
100
AcDbEntity
  8
1
  6
Continuous
100
AcDbCircle
 10
128.342141
 20
106.4709789999999
 30
0.0
 40
214.9566249999999
100
AcDbArc
 50
19.38271699999998
 51
27.860715
  0
ARC
  5
C086
330
BEEE
100
AcDbEntity
  8
1
  6
Continuous
100
AcDbCircle
 10
485.6578589999998
 20
106.4709789999999
 30
0.0
 40
214.9566249999999
100
AcDbArc
 50
152.1392849999998
 51
160.617283
  0
ARC
  5
C087
330
BEEE
100
AcDbEntity
  8
1
  6
Continuous
100
AcDbCircle
 10
327.05
 20
159.777501
 30
0.0
 40
4.299999999999998
100
AcDbArc
 50
129.5376679999999
 51
180.0
  0
ARC
  5
C088
330
BEEE
100
AcDbEntity
  8
1
  6
Continuous
100
AcDbCircle
 10
310.187179
 20
178.2647019999998
 30
0.0
 40
20.728954
100
AcDbArc
 50
311.781926
 51
340.101046
  0
ARC
  5
C089
330
BEEE
100
AcDbEntity
  8
1
  6
Continuous
100
AcDbCircle
 10
321.8504419999998
 20
174.047565
 30
0.0
 40
10.0
100
AcDbArc
 50
348.9037369999999
 51
22.10150399999999
  0
ARC
  5
C08A
330
BEEE
100
AcDbEntity
  8
1
  6
Continuous
100
AcDbCircle
 10
303.8128209999998
 20
178.2647019999998
 30
0.0
 40
20.728954
100
AcDbArc
 50
200.3067139999998
 51
205.795166
  0
ARC
  5
C08B
330
BEEE
100
AcDbEntity
  8
1
  6
Continuous
100
AcDbCircle
 10
286.95
 20
159.777501
 30
0.0
 40
4.299999999999998
100
AcDbArc
 50
0.0
 51
32.140237
  0
ARC
  5
C08C
330
BEEE
100
AcDbEntity
  8
1
  6
Continuous
100
AcDbCircle
 10
182.0
 20
73.0
 30
0.0
 40
25.0
100
AcDbArc
 50
233.2667379999999
 51
61.1349
  0
LINE
  5
C08D
330
BEEE
100
AcDbEntity
  8
1
  6
Continuous
100
AcDbLine
 10
150.5
 20
85.5
 30
0.0
 11
150.5
 21
86.59999999999998
 31
0.0
  0
ARC
  5
C08E
330
BEEE
100
AcDbEntity
  8
1
  6
Continuous
100
AcDbCircle
 10
152.0
 20
86.59999999999998
 30
0.0
 40
1.5
100
AcDbArc
 50
90.0
 51
180.0
  0
LINE
  5
C08F
330
BEEE
100
AcDbEntity
  8
1
  6
Continuous
100
AcDbLine
 10
170.0
 20
88.09999999999998
 30
0.0
 11
152.0
 21
88.09999999999998
 31
0.0
  0
LINE
  5
C090
330
BEEE
100
AcDbEntity
  8
1
  6
Continuous
100
AcDbLine
 10
157.0
 20
88.09999999999998
 30
0.0
 11
157.0
 21
88.75
 31
0.0
  0
LINE
  5
C091
330
BEEE
100
AcDbEntity
  8
1
  6
Continuous
100
AcDbLine
 10
165.0
 20
88.09999999999998
 30
0.0
 11
165.0
 21
89.23751800000003
 31
0.0
  0
LINE
  5
C092
330
BEEE
100
AcDbEntity
  8
1
  6
Continuous
100
AcDbLine
 10
171.5
 20
85.5
 30
0.0
 11
171.5
 21
86.59999999999998
 31
0.0
  0
ARC
  5
C093
330
BEEE
100
AcDbEntity
  8
1
  6
Continuous
100
AcDbCircle
 10
170.0
 20
86.59999999999998
 30
0.0
 40
1.5
100
AcDbArc
 50
0.0
 51
90.0
  0
LINE
  5
C094
330
BEEE
100
AcDbEntity
  8
4
  6
CENTER
100
AcDbLine
 10
161.0
 20
38.0
 30
0.0
 11
161.0
 21
108.0
 31
0.0
  0
LINE
  5
C095
330
BEEE
100
AcDbEntity
  8
1
  6
Continuous
100
AcDbLine
 10
161.066833
 20
88.75
 30
0.0
 11
150.7528409999999
 21
88.75
 31
0.0
  0
LINE
  5
C096
330
BEEE
100
AcDbEntity
  8
1
  6
Continuous
100
AcDbLine
 10
150.7528409999999
 20
89.23751800000003
 30
0.0
 11
150.7528409999999
 21
88.75
 31
0.0
  0
ARC
  5
C097
330
BEEE
100
AcDbEntity
  8
1
  6
Continuous
100
AcDbCircle
 10
161.066833
 20
101.0499999999999
 30
0.0
 40
12.3
100
AcDbArc
 50
270.0
 51
286.1854779999998
  0
ARC
  5
C098
330
BEEE
100
AcDbEntity
  8
1
  6
Continuous
100
AcDbCircle
 10
182.0
 20
73.0
 30
0.0
 40
22.7
100
AcDbArc
 50
233.2667379999999
 51
57.741323
  0
LINE
  5
C099
330
BEEE
100
AcDbEntity
  8
1
  6
Continuous
100
AcDbLine
 10
170.0
 20
57.9
 30
0.0
 11
152.0
 21
57.9
 31
0.0
  0
LINE
  5
C09A
330
BEEE
100
AcDbEntity
  8
1
  6
Continuous
100
AcDbLine
 10
165.0
 20
56.60419199999999
 30
0.0
 11
165.0
 21
57.9
 31
0.0
  0
ARC
  5
C09B
330
BEEE
100
AcDbEntity
  8
1
  6
Continuous
100
AcDbCircle
 10
170.0
 20
59.4
 30
0.0
 40
1.5
100
AcDbArc
 50
270.0
 51
0.0
  0
LINE
  5
C09C
330
BEEE
100
AcDbEntity
  8
1
  6
Continuous
100
AcDbLine
 10
171.5
 20
59.4
 30
0.0
 11
171.5
 21
60.5
 31
0.0
  0
LINE
  5
C09D
330
BEEE
100
AcDbEntity
  8
1
  6
Continuous
100
AcDbLine
 10
157.0
 20
57.25
 30
0.0
 11
157.0
 21
57.9
 31
0.0
  0
ARC
  5
C09E
330
BEEE
100
AcDbEntity
  8
1
  6
Continuous
100
AcDbCircle
 10
152.0
 20
59.4
 30
0.0
 40
1.5
100
AcDbArc
 50
180.0
 51
270.0
  0
LINE
  5
C09F
330
BEEE
100
AcDbEntity
  8
1
  6
Continuous
100
AcDbLine
 10
150.5
 20
59.4
 30
0.0
 11
150.5
 21
60.5
 31
0.0
  0
ARC
  5
C0A0
330
BEEE
100
AcDbEntity
  8
1
  6
Continuous
100
AcDbCircle
 10
161.0
 20
58.95
 30
0.0
 40
8.0
100
AcDbArc
 50
224.0486259999999
 51
314.687856
  0
LINE
  5
C0A1
330
BEEE
100
AcDbEntity
  8
1
  6
Continuous
100
AcDbLine
 10
155.25
 20
53.38785099999999
 30
0.0
 11
166.4336439999999
 21
53.38785099999999
 31
0.0
  0
LINE
  5
C0A2
330
BEEE
100
AcDbEntity
  8
1
  6
Continuous
100
AcDbLine
 10
155.25
 20
53.38785099999999
 30
0.0
 11
155.25
 21
54.95
 31
0.0
  0
ARC
  5
C0A3
330
BEEE
100
AcDbEntity
  8
1
  6
Continuous
100
AcDbCircle
 10
161.066833
 20
44.95
 30
0.0
 40
12.3
100
AcDbArc
 50
53.26673800000001
 51
90.0
  0
ARC
  5
C0A4
330
BEEE
100
AcDbEntity
  8
1
  6
Continuous
100
AcDbCircle
 10
161.066833
 20
44.95
 30
0.0
 40
10.0
100
AcDbArc
 50
53.26673800000001
 51
90.0
  0
LINE
  5
C0A5
330
BEEE
100
AcDbEntity
  8
1
  6
Continuous
100
AcDbLine
 10
161.066833
 20
57.25
 30
0.0
 11
150.7528409999999
 21
57.25
 31
0.0
  0
LINE
  5
C0A6
330
BEEE
100
AcDbEntity
  8
1
  6
Continuous
100
AcDbLine
 10
161.066833
 20
54.95
 30
0.0
 11
150.7528409999999
 21
54.95
 31
0.0
  0
LINE
  5
C0A7
330
BEEE
100
AcDbEntity
  8
1
  6
Continuous
100
AcDbLine
 10
150.7528409999999
 20
54.95
 30
0.0
 11
150.7528409999999
 21
57.25
 31
0.0
  0
ARC
  5
C0A8
330
BEEE
100
AcDbEntity
  8
1
  6
Continuous
100
AcDbCircle
 10
307.0
 20
191.3203169999999
 30
0.0
 40
19.807848
100
AcDbArc
 50
61.23054299999999
 51
118.769457
  0
ARC
  5
C0A9
330
BEEE
100
AcDbEntity
  8
1
  6
Continuous
100
AcDbCircle
 10
299.873183
 20
204.3003339999999
 30
0.0
 40
5.0
100
AcDbArc
 50
118.769457
 51
148.3320289999998
  0
ARC
  5
C0AA
330
BEEE
100
AcDbEntity
  8
1
  6
Continuous
100
AcDbCircle
 10
314.126817
 20
204.3003339999999
 30
0.0
 40
5.0
100
AcDbArc
 50
31.667971
 51
61.23054299999999
  0
LINE
  5
C0AB
330
BEEE
100
AcDbEntity
  8
4
  6
CENTER
100
AcDbLine
 10
161.0
 20
326.25633
 30
0.0
 11
161.0
 21
256.2563299999998
 31
0.0
  0
CIRCLE
  5
C0AC
330
BEEE
100
AcDbEntity
  8
1
  6
Continuous
100
AcDbCircle
 10
443.0
 20
170.128165
 30
0.0
 40
5.75
  0
ARC
  5
C0AD
330
BEEE
100
AcDbEntity
  8
1
  6
Continuous
100
AcDbCircle
 10
292.149558
 20
174.047565
 30
0.0
 40
10.0
100
AcDbArc
 50
157.8984959999999
 51
191.096263
  0
ARC
  5
C0AE
330
BEEE
100
AcDbEntity
  8
1
  6
Continuous
100
AcDbCircle
 10
159.6603439999999
 20
125.864189
 30
0.0
 40
177.392471
100
AcDbArc
 50
16.514066
 51
27.831217
  0
ARC
  5
C0AF
330
BEEE
100
AcDbEntity
  8
1
  6
Continuous
100
AcDbCircle
 10
322.4382299999998
 20
173.830136
 30
0.0
 40
7.7
100
AcDbArc
 50
340.101046
 51
18.61574799999998
  0
ARC
  5
C0B0
330
BEEE
100
AcDbEntity
  8
1
  6
Continuous
100
AcDbCircle
 10
454.3396559999997
 20
125.864189
 30
0.0
 40
177.392471
100
AcDbArc
 50
152.1687829999999
 51
163.485934
  0
ARC
  5
C0B1
330
BEEE
100
AcDbEntity
  8
1
  6
Continuous
100
AcDbCircle
 10
291.56177
 20
173.830136
 30
0.0
 40
7.7
100
AcDbArc
 50
161.384252
 51
199.8989539999998
  0
ARC
  5
C0B2
330
BEEE
100
AcDbEntity
  8
1
  6
Continuous
100
AcDbCircle
 10
182.0
 20
73.0
 30
0.0
 40
20.69999999999998
100
AcDbArc
 50
226.8418629999999
 51
52.91429799999998
  0
ARC
  5
C0B3
330
BEEE
100
AcDbEntity
  8
1
  6
Continuous
100
AcDbCircle
 10
182.0
 20
73.0
 30
0.0
 40
14.69999999999999
100
AcDbArc
 50
238.2486839999998
 51
301.751316
  0
ARC
  5
C0B4
330
BEEE
100
AcDbEntity
  8
1
  6
Continuous
100
AcDbCircle
 10
182.0
 20
73.0
 30
0.0
 40
14.69999999999999
100
AcDbArc
 50
58.248684
 51
121.7513159999998
  0
ARC
  5
C0B5
330
BEEE
100
AcDbEntity
  8
1
  6
Continuous
100
AcDbCircle
 10
161.0
 20
170.128165
 30
0.0
 40
37.5
100
AcDbArc
 50
85.47541899999997
 51
128.081581
  0
ARC
  5
C0B6
330
BEEE
100
AcDbEntity
  8
1
  6
Continuous
100
AcDbCircle
 10
443.0
 20
170.128165
 30
0.0
 40
37.5
100
AcDbArc
 50
158.3902799999999
 51
94.52458099999999
  0
LINE
  5
C0B7
330
BEEE
100
AcDbEntity
  8
1
  6
Continuous
100
AcDbLine
 10
438.4999999999998
 20
212.628165
 30
0.0
 11
432.1624719999999
 21
165.52436
 31
0.0
  0
ARC
  5
C0B8
330
BEEE
100
AcDbEntity
  8
1
  6
Continuous
100
AcDbCircle
 10
442.25
 20
170.3781649999999
 30
0.0
 40
11.0
100
AcDbArc
 50
258.4010559999999
 51
38.804988
  0
LINE
  5
C0B9
330
BEEE
100
AcDbEntity
  8
4
  6
CENTER
100
AcDbLine
 10
443.0
 20
127.628165
 30
0.0
 11
443.0
 21
212.628165
 31
0.0
  0
ARC
  5
C0BA
330
BEEE
100
AcDbEntity
  8
1
  6
Continuous
100
AcDbCircle
 10
455.0702639999998
 20
212.387477
 30
0.0
 40
54.883341
100
AcDbArc
 50
188.698962
 51
254.104206
  0
LINE
  5
C0BB
330
BEEE
100
AcDbEntity
  8
4
  6
CENTER
100
AcDbLine
 10
422.0
 20
229.628165
 30
0.0
 11
422.0
 21
163.6387039999999
 31
0.0
  0
LINE
  5
C0BC
330
BEEE
100
AcDbEntity
  8
1
  6
Continuous
100
AcDbLine
 10
399.5
 20
221.6281649999999
 30
0.0
 11
444.5
 21
221.6281649999999
 31
0.0
  0
LINE
  5
C0BD
330
BEEE
100
AcDbEntity
  8
1
  6
Continuous
100
AcDbLine
 10
399.5
 20
219.6281649999999
 30
0.0
 11
444.5
 21
219.6281649999999
 31
0.0
  0
LINE
  5
C0BE
330
BEEE
100
AcDbEntity
  8
1
  6
Continuous
100
AcDbLine
 10
399.5
 20
217.6281649999999
 30
0.0
 11
444.5
 21
217.6281649999999
 31
0.0
  0
LINE
  5
C0BF
330
BEEE
100
AcDbEntity
  8
1
  6
Continuous
100
AcDbLine
 10
390.0
 20
224.3281649999999
 30
0.0
 11
454.0
 21
224.3281649999999
 31
0.0
  0
LINE
  5
C0C0
330
BEEE
100
AcDbEntity
  8
1
  6
Continuous
100
AcDbLine
 10
390.0
 20
226.6281649999999
 30
0.0
 11
454.0
 21
226.6281649999999
 31
0.0
  0
LINE
  5
C0C1
330
BEEE
100
AcDbEntity
  8
1
  6
Continuous
100
AcDbLine
 10
415.514719
 20
217.6281649999999
 30
0.0
 11
413.514719
 21
219.6281649999999
 31
0.0
  0
LINE
  5
C0C2
330
BEEE
100
AcDbEntity
  8
1
  6
Continuous
100
AcDbLine
 10
416.9289319999998
 20
217.6281649999999
 30
0.0
 11
414.9289319999998
 21
219.6281649999999
 31
0.0
  0
LINE
  5
C0C3
330
BEEE
100
AcDbEntity
  8
1
  6
Continuous
100
AcDbLine
 10
414.343146
 20
217.6281649999999
 30
0.0
 11
416.3431459999998
 21
219.6281649999999
 31
0.0
  0
LINE
  5
C0C4
330
BEEE
100
AcDbEntity
  8
1
  6
Continuous
100
AcDbLine
 10
447.0
 20
214.628165
 30
0.0
 11
447.0
 21
211.128165
 31
0.0
  0
ARC
  5
C0C5
330
BEEE
100
AcDbEntity
  8
1
  6
Continuous
100
AcDbCircle
 10
503.396776
 20
213.055707
 30
0.0
 40
63.597172
100
AcDbArc
 50
184.702032
 51
214.240574
  0
ARC
  5
C0C6
330
BEEE
100
AcDbEntity
  8
1
  6
Continuous
100
AcDbCircle
 10
443.0
 20
208.128165
 30
0.0
 40
3.0
100
AcDbArc
 50
90.0
 51
185.4659799999998
  0
LINE
  5
C0C7
330
BEEE
100
AcDbEntity
  8
1
  6
Continuous
100
AcDbLine
 10
443.0
 20
211.128165
 30
0.0
 11
447.0
 21
211.128165
 31
0.0
  0
ARC
  5
C0C8
330
BEEE
100
AcDbEntity
  8
1
  6
Continuous
100
AcDbCircle
 10
444.5
 20
226.728165
 30
0.0
 40
5.099999999999997
100
AcDbArc
 50
270.0
 51
331.9275129999998
  0
ARC
  5
C0C9
330
BEEE
100
AcDbEntity
  8
1
  6
Continuous
100
AcDbCircle
 10
444.0
 20
214.628165
 30
0.0
 40
3.0
100
AcDbArc
 50
0.0
 51
90.0
  0
LINE
  5
C0CA
330
BEEE
100
AcDbEntity
  8
1
  6
Continuous
100
AcDbLine
 10
454.0
 20
224.3281649999999
 30
0.0
 11
454.0
 21
226.6281649999999
 31
0.0
  0
LINE
  5
C0CB
330
BEEE
100
AcDbEntity
  8
1
  6
Continuous
100
AcDbLine
 10
432.485282
 20
217.6281649999999
 30
0.0
 11
430.4852819999998
 21
219.6281649999999
 31
0.0
  0
LINE
  5
C0CC
330
BEEE
100
AcDbEntity
  8
1
  6
Continuous
100
AcDbLine
 10
431.3137089999998
 20
217.6281649999999
 30
0.0
 11
433.313709
 21
219.6281649999999
 31
0.0
  0
LINE
  5
C0CD
330
BEEE
100
AcDbEntity
  8
1
  6
Continuous
100
AcDbLine
 10
429.8994949999998
 20
217.6281649999999
 30
0.0
 11
431.899495
 21
219.6281649999999
 31
0.0
  0
LINE
  5
C0CE
330
BEEE
100
AcDbEntity
  8
4
  6
CENTER
100
AcDbLine
 10
447.0
 20
229.628165
 30
0.0
 11
447.0
 21
221.3281649999999
 31
0.0
  0
LINE
  5
C0CF
330
BEEE
100
AcDbEntity
  8
1
  6
Continuous
100
AcDbLine
 10
444.5
 20
218.341369
 30
0.0
 11
443.2132039999998
 21
219.6281649999999
 31
0.0
  0
LINE
  5
C0D0
330
BEEE
100
AcDbEntity
  8
1
  6
Continuous
100
AcDbLine
 10
435.3137089999998
 20
217.6281649999999
 30
0.0
 11
433.313709
 21
219.6281649999999
 31
0.0
  0
LINE
  5
C0D1
330
BEEE
100
AcDbEntity
  8
1
  6
Continuous
100
AcDbLine
 10
433.899495
 20
217.6281649999999
 30
0.0
 11
431.899495
 21
219.6281649999999
 31
0.0
  0
LINE
  5
C0D2
330
BEEE
100
AcDbEntity
  8
1
  6
Continuous
100
AcDbLine
 10
432.727922
 20
217.6281649999999
 30
0.0
 11
434.7279219999999
 21
219.6281649999999
 31
0.0
  0
LINE
  5
C0D3
330
BEEE
100
AcDbEntity
  8
1
  6
Continuous
100
AcDbLine
 10
442.3847769999999
 20
217.6281649999999
 30
0.0
 11
440.3847769999998
 21
219.6281649999999
 31
0.0
  0
LINE
  5
C0D4
330
BEEE
100
AcDbEntity
  8
1
  6
Continuous
100
AcDbLine
 10
441.213204
 20
217.6281649999999
 30
0.0
 11
443.2132039999998
 21
219.6281649999999
 31
0.0
  0
LINE
  5
C0D5
330
BEEE
100
AcDbEntity
  8
1
  6
Continuous
100
AcDbLine
 10
439.79899
 20
217.6281649999999
 30
0.0
 11
441.7989900000002
 21
219.6281649999999
 31
0.0
  0
LINE
  5
C0D6
330
BEEE
100
AcDbEntity
  8
1
  6
Continuous
100
AcDbLine
 10
439.5563489999998
 20
217.6281649999999
 30
0.0
 11
437.556349
 21
219.6281649999999
 31
0.0
  0
LINE
  5
C0D7
330
BEEE
100
AcDbEntity
  8
1
  6
Continuous
100
AcDbLine
 10
438.142136
 20
217.6281649999999
 30
0.0
 11
436.142136
 21
219.6281649999999
 31
0.0
  0
LINE
  5
C0D8
330
BEEE
100
AcDbEntity
  8
1
  6
Continuous
100
AcDbLine
 10
436.9705629999998
 20
217.6281649999999
 30
0.0
 11
438.9705629999999
 21
219.6281649999999
 31
0.0
  0
LINE
  5
C0D9
330
BEEE
100
AcDbEntity
  8
1
  6
Continuous
100
AcDbLine
 10
436.7279219999998
 20
217.6281649999999
 30
0.0
 11
434.7279219999999
 21
219.6281649999999
 31
0.0
  0
LINE
  5
C0DA
330
BEEE
100
AcDbEntity
  8
1
  6
Continuous
100
AcDbLine
 10
435.556349
 20
217.6281649999999
 30
0.0
 11
437.556349
 21
219.6281649999999
 31
0.0
  0
LINE
  5
C0DB
330
BEEE
100
AcDbEntity
  8
1
  6
Continuous
100
AcDbLine
 10
434.142136
 20
217.6281649999999
 30
0.0
 11
436.142136
 21
219.6281649999999
 31
0.0
  0
LINE
  5
C0DC
330
BEEE
100
AcDbEntity
  8
1
  6
Continuous
100
AcDbLine
 10
440.9705629999998
 20
217.6281649999999
 30
0.0
 11
438.9705629999999
 21
219.6281649999999
 31
0.0
  0
LINE
  5
C0DD
330
BEEE
100
AcDbEntity
  8
1
  6
Continuous
100
AcDbLine
 10
438.3847769999999
 20
217.6281649999999
 30
0.0
 11
440.3847769999998
 21
219.6281649999999
 31
0.0
  0
LINE
  5
C0DE
330
BEEE
100
AcDbEntity
  8
1
  6
Continuous
100
AcDbLine
 10
443.79899
 20
217.6281649999999
 30
0.0
 11
441.7989900000002
 21
219.6281649999999
 31
0.0
  0
LINE
  5
C0DF
330
BEEE
100
AcDbEntity
  8
1
  6
Continuous
100
AcDbLine
 10
444.0416309999998
 20
217.6281649999999
 30
0.0
 11
444.5
 21
218.0865349999999
 31
0.0
  0
LINE
  5
C0E0
330
BEEE
100
AcDbEntity
  8
1
  6
Continuous
100
AcDbLine
 10
442.627417
 20
217.6281649999999
 30
0.0
 11
444.5
 21
219.500748
 31
0.0
  0
LINE
  5
C0E1
330
BEEE
100
AcDbEntity
  8
1
  6
Continuous
100
AcDbLine
 10
444.5
 20
221.6281649999999
 30
0.0
 11
444.5
 21
217.6281649999999
 31
0.0
  0
LINE
  5
C0E2
330
BEEE
100
AcDbEntity
  8
1
  6
Continuous
100
AcDbLine
 10
418.3431459999998
 20
217.6281649999999
 30
0.0
 11
416.3431459999998
 21
219.6281649999999
 31
0.0
  0
LINE
  5
C0E3
330
BEEE
100
AcDbEntity
  8
1
  6
Continuous
100
AcDbLine
 10
415.75736
 20
217.6281649999999
 30
0.0
 11
417.75736
 21
219.6281649999999
 31
0.0
  0
LINE
  5
C0E4
330
BEEE
100
AcDbEntity
  8
1
  6
Continuous
100
AcDbLine
 10
426.8284269999998
 20
217.6281649999999
 30
0.0
 11
424.828427
 21
219.6281649999999
 31
0.0
  0
LINE
  5
C0E5
330
BEEE
100
AcDbEntity
  8
1
  6
Continuous
100
AcDbLine
 10
425.4142139999998
 20
217.6281649999999
 30
0.0
 11
423.4142139999998
 21
219.6281649999999
 31
0.0
  0
LINE
  5
C0E6
330
BEEE
100
AcDbEntity
  8
1
  6
Continuous
100
AcDbLine
 10
424.242641
 20
217.6281649999999
 30
0.0
 11
426.2426409999998
 21
219.6281649999999
 31
0.0
  0
LINE
  5
C0E7
330
BEEE
100
AcDbEntity
  8
1
  6
Continuous
100
AcDbLine
 10
422.5857869999998
 20
217.6281649999999
 30
0.0
 11
420.5857869999999
 21
219.6281649999999
 31
0.0
  0
LINE
  5
C0E8
330
BEEE
100
AcDbEntity
  8
1
  6
Continuous
100
AcDbLine
 10
420.0
 20
217.6281649999999
 30
0.0
 11
422.0
 21
219.6281649999999
 31
0.0
  0
LINE
  5
C0E9
330
BEEE
100
AcDbEntity
  8
1
  6
Continuous
100
AcDbLine
 10
419.7573599999998
 20
217.6281649999999
 30
0.0
 11
417.75736
 21
219.6281649999999
 31
0.0
  0
LINE
  5
C0EA
330
BEEE
100
AcDbEntity
  8
1
  6
Continuous
100
AcDbLine
 10
421.1715729999998
 20
217.6281649999999
 30
0.0
 11
419.171573
 21
219.6281649999999
 31
0.0
  0
LINE
  5
C0EB
330
BEEE
100
AcDbEntity
  8
1
  6
Continuous
100
AcDbLine
 10
417.171573
 20
217.6281649999999
 30
0.0
 11
419.171573
 21
219.6281649999999
 31
0.0
  0
LINE
  5
C0EC
330
BEEE
100
AcDbEntity
  8
1
  6
Continuous
100
AcDbLine
 10
418.5857869999998
 20
217.6281649999999
 30
0.0
 11
420.5857869999999
 21
219.6281649999999
 31
0.0
  0
LINE
  5
C0ED
330
BEEE
100
AcDbEntity
  8
1
  6
Continuous
100
AcDbLine
 10
424.0
 20
217.6281649999999
 30
0.0
 11
422.0
 21
219.6281649999999
 31
0.0
  0
LINE
  5
C0EE
330
BEEE
100
AcDbEntity
  8
1
  6
Continuous
100
AcDbLine
 10
422.8284269999998
 20
217.6281649999999
 30
0.0
 11
424.828427
 21
219.6281649999999
 31
0.0
  0
LINE
  5
C0EF
330
BEEE
100
AcDbEntity
  8
1
  6
Continuous
100
AcDbLine
 10
421.4142139999998
 20
217.6281649999999
 30
0.0
 11
423.4142139999998
 21
219.6281649999999
 31
0.0
  0
LINE
  5
C0F0
330
BEEE
100
AcDbEntity
  8
1
  6
Continuous
100
AcDbLine
 10
431.0710679999998
 20
217.6281649999999
 30
0.0
 11
429.071068
 21
219.6281649999999
 31
0.0
  0
LINE
  5
C0F1
330
BEEE
100
AcDbEntity
  8
1
  6
Continuous
100
AcDbLine
 10
429.6568539999998
 20
217.6281649999999
 30
0.0
 11
427.656854
 21
219.6281649999999
 31
0.0
  0
LINE
  5
C0F2
330
BEEE
100
AcDbEntity
  8
1
  6
Continuous
100
AcDbLine
 10
428.485282
 20
217.6281649999999
 30
0.0
 11
430.4852819999998
 21
219.6281649999999
 31
0.0
  0
LINE
  5
C0F3
330
BEEE
100
AcDbEntity
  8
1
  6
Continuous
100
AcDbLine
 10
428.242641
 20
217.6281649999999
 30
0.0
 11
426.2426409999998
 21
219.6281649999999
 31
0.0
  0
LINE
  5
C0F4
330
BEEE
100
AcDbEntity
  8
1
  6
Continuous
100
AcDbLine
 10
427.0710679999998
 20
217.6281649999999
 30
0.0
 11
429.071068
 21
219.6281649999999
 31
0.0
  0
LINE
  5
C0F5
330
BEEE
100
AcDbEntity
  8
1
  6
Continuous
100
AcDbLine
 10
425.6568539999998
 20
217.6281649999999
 30
0.0
 11
427.656854
 21
219.6281649999999
 31
0.0
  0
LINE
  5
C0F6
330
BEEE
100
AcDbEntity
  8
1
  6
Continuous
100
AcDbLine
 10
397.0
 20
214.628165
 30
0.0
 11
397.0
 21
211.128165
 31
0.0
  0
ARC
  5
C0F7
330
BEEE
100
AcDbEntity
  8
1
  6
Continuous
100
AcDbCircle
 10
388.5
 20
201.9630139999999
 30
0.0
 40
12.5
100
AcDbArc
 50
9.781986999999999
 51
47.15635699999999
  0
ARC
  5
C0F8
330
BEEE
100
AcDbEntity
  8
1
  6
Continuous
100
AcDbCircle
 10
399.5
 20
226.728165
 30
0.0
 40
5.099999999999997
100
AcDbArc
 50
208.072487
 51
270.0
  0
ARC
  5
C0F9
330
BEEE
100
AcDbEntity
  8
1
  6
Continuous
100
AcDbCircle
 10
400.0
 20
214.628165
 30
0.0
 40
3.0
100
AcDbArc
 50
90.0
 51
180.0
  0
LINE
  5
C0FA
330
BEEE
100
AcDbEntity
  8
1
  6
Continuous
100
AcDbLine
 10
399.5
 20
218.341369
 30
0.0
 11
400.7867969999998
 21
219.6281649999999
 31
0.0
  0
LINE
  5
C0FB
330
BEEE
100
AcDbEntity
  8
1
  6
Continuous
100
AcDbLine
 10
399.5
 20
219.500748
 30
0.0
 11
401.372583
 21
217.6281649999999
 31
0.0
  0
LINE
  5
C0FC
330
BEEE
100
AcDbEntity
  8
1
  6
Continuous
100
AcDbLine
 10
400.2010099999997
 20
217.6281649999999
 30
0.0
 11
402.20101
 21
219.6281649999999
 31
0.0
  0
LINE
  5
C0FD
330
BEEE
100
AcDbEntity
  8
1
  6
Continuous
100
AcDbLine
 10
399.5
 20
218.0865349999999
 30
0.0
 11
399.95837
 21
217.6281649999999
 31
0.0
  0
LINE
  5
C0FE
330
BEEE
100
AcDbEntity
  8
1
  6
Continuous
100
AcDbLine
 10
399.5
 20
221.6281649999999
 30
0.0
 11
399.5
 21
217.6281649999999
 31
0.0
  0
LINE
  5
C0FF
330
BEEE
100
AcDbEntity
  8
1
  6
Continuous
100
AcDbLine
 10
409.857865
 20
217.6281649999999
 30
0.0
 11
407.8578649999998
 21
219.6281649999999
 31
0.0
  0
LINE
  5
C100
330
BEEE
100
AcDbEntity
  8
1
  6
Continuous
100
AcDbLine
 10
407.272078
 20
217.6281649999999
 30
0.0
 11
409.2720779999998
 21
219.6281649999999
 31
0.0
  0
LINE
  5
C101
330
BEEE
100
AcDbEntity
  8
1
  6
Continuous
100
AcDbLine
 10
408.6862919999998
 20
217.6281649999999
 30
0.0
 11
410.686292
 21
219.6281649999999
 31
0.0
  0
LINE
  5
C102
330
BEEE
100
AcDbEntity
  8
1
  6
Continuous
100
AcDbLine
 10
405.615224
 20
217.6281649999999
 30
0.0
 11
403.6152239999998
 21
219.6281649999999
 31
0.0
  0
LINE
  5
C103
330
BEEE
100
AcDbEntity
  8
1
  6
Continuous
100
AcDbLine
 10
403.029437
 20
217.6281649999999
 30
0.0
 11
405.0294369999998
 21
219.6281649999999
 31
0.0
  0
LINE
  5
C104
330
BEEE
100
AcDbEntity
  8
1
  6
Continuous
100
AcDbLine
 10
404.4436509999998
 20
217.6281649999999
 30
0.0
 11
406.443651
 21
219.6281649999999
 31
0.0
  0
LINE
  5
C105
330
BEEE
100
AcDbEntity
  8
1
  6
Continuous
100
AcDbLine
 10
402.7867969999999
 20
217.6281649999999
 30
0.0
 11
400.7867969999998
 21
219.6281649999999
 31
0.0
  0
LINE
  5
C106
330
BEEE
100
AcDbEntity
  8
1
  6
Continuous
100
AcDbLine
 10
404.2010099999997
 20
217.6281649999999
 30
0.0
 11
402.20101
 21
219.6281649999999
 31
0.0
  0
LINE
  5
C107
330
BEEE
100
AcDbEntity
  8
1
  6
Continuous
100
AcDbLine
 10
401.615224
 20
217.6281649999999
 30
0.0
 11
403.6152239999998
 21
219.6281649999999
 31
0.0
  0
LINE
  5
C108
330
BEEE
100
AcDbEntity
  8
1
  6
Continuous
100
AcDbLine
 10
407.029437
 20
217.6281649999999
 30
0.0
 11
405.0294369999998
 21
219.6281649999999
 31
0.0
  0
LINE
  5
C109
330
BEEE
100
AcDbEntity
  8
1
  6
Continuous
100
AcDbLine
 10
408.4436509999998
 20
217.6281649999999
 30
0.0
 11
406.443651
 21
219.6281649999999
 31
0.0
  0
LINE
  5
C10A
330
BEEE
100
AcDbEntity
  8
1
  6
Continuous
100
AcDbLine
 10
405.857865
 20
217.6281649999999
 30
0.0
 11
407.8578649999998
 21
219.6281649999999
 31
0.0
  0
LINE
  5
C10B
330
BEEE
100
AcDbEntity
  8
1
  6
Continuous
100
AcDbLine
 10
414.100505
 20
217.6281649999999
 30
0.0
 11
412.1005049999998
 21
219.6281649999999
 31
0.0
  0
LINE
  5
C10C
330
BEEE
100
AcDbEntity
  8
1
  6
Continuous
100
AcDbLine
 10
411.514719
 20
217.6281649999999
 30
0.0
 11
413.514719
 21
219.6281649999999
 31
0.0
  0
LINE
  5
C10D
330
BEEE
100
AcDbEntity
  8
1
  6
Continuous
100
AcDbLine
 10
412.9289319999998
 20
217.6281649999999
 30
0.0
 11
414.9289319999998
 21
219.6281649999999
 31
0.0
  0
LINE
  5
C10E
330
BEEE
100
AcDbEntity
  8
1
  6
Continuous
100
AcDbLine
 10
411.272078
 20
217.6281649999999
 30
0.0
 11
409.2720779999998
 21
219.6281649999999
 31
0.0
  0
LINE
  5
C10F
330
BEEE
100
AcDbEntity
  8
1
  6
Continuous
100
AcDbLine
 10
412.6862919999998
 20
217.6281649999999
 30
0.0
 11
410.686292
 21
219.6281649999999
 31
0.0
  0
LINE
  5
C110
330
BEEE
100
AcDbEntity
  8
1
  6
Continuous
100
AcDbLine
 10
410.100505
 20
217.6281649999999
 30
0.0
 11
412.1005049999998
 21
219.6281649999999
 31
0.0
  0
LINE
  5
C111
330
BEEE
100
AcDbEntity
  8
4
  6
CENTER
100
AcDbLine
 10
397.0
 20
229.628165
 30
0.0
 11
397.0
 21
221.3281649999999
 31
0.0
  0
LINE
  5
C112
330
BEEE
100
AcDbEntity
  8
1
  6
Continuous
100
AcDbLine
 10
390.0
 20
224.3281649999999
 30
0.0
 11
390.0
 21
226.6281649999999
 31
0.0
  0
ARC
  5
C113
330
BEEE
100
AcDbEntity
  8
1
  6
Continuous
100
AcDbCircle
 10
47.5
 20
204.320871
 30
0.0
 40
3.0
100
AcDbArc
 50
93.70537099999998
 51
180.0
  0
ARC
  5
C114
330
BEEE
100
AcDbEntity
  8
1
  6
Continuous
100
AcDbCircle
 10
57.0
 20
57.628165
 30
0.0
 40
150.0
100
AcDbArc
 50
86.294629
 51
93.70537099999998
  0
ARC
  5
C115
330
BEEE
100
AcDbEntity
  8
1
  6
Continuous
100
AcDbCircle
 10
66.5
 20
204.320871
 30
0.0
 40
3.0
100
AcDbArc
 50
0.0
 51
86.294629
  0
LINE
  5
C116
330
BEEE
100
AcDbEntity
  8
1
  6
Continuous
100
AcDbLine
 10
319.5
 20
202.8016519999999
 30
0.0
 11
319.5
 21
135.935459
 31
0.0
  0
ARC
  5
C117
330
BEEE
100
AcDbEntity
  8
1
  6
Continuous
100
AcDbCircle
 10
307.0
 20
57.628165
 30
0.0
 40
150.0
100
AcDbArc
 50
86.294629
 51
93.70537099999998
  0
ARC
  5
C118
330
BEEE
100
AcDbEntity
  8
1
  6
Continuous
100
AcDbCircle
 10
316.5
 20
204.320871
 30
0.0
 40
3.0
100
AcDbArc
 50
74.510327
 51
86.294629
  0
ARC
  5
C119
330
BEEE
100
AcDbEntity
  8
1
  6
Continuous
100
AcDbCircle
 10
297.5
 20
204.320871
 30
0.0
 40
3.0
100
AcDbArc
 50
93.70537099999998
 51
105.489673
  0
LINE
  5
C11A
330
BEEE
100
AcDbEntity
  8
1
  6
Continuous
100
AcDbLine
 10
294.4999999999998
 20
202.8016519999999
 30
0.0
 11
294.4999999999998
 21
135.935459
 31
0.0
  0
ARC
  5
C11B
330
BEEE
100
AcDbEntity
  8
1
  6
Continuous
100
AcDbCircle
 10
307.0
 20
282.6281649999998
 30
0.0
 40
150.0
100
AcDbArc
 50
266.2946289999998
 51
273.705371
  0
ARC
  5
C11C
330
BEEE
100
AcDbEntity
  8
1
  6
Continuous
100
AcDbCircle
 10
297.5
 20
135.935459
 30
0.0
 40
3.0
100
AcDbArc
 50
180.0
 51
266.2946289999998
  0
ARC
  5
C11D
330
BEEE
100
AcDbEntity
  8
1
  6
Continuous
100
AcDbCircle
 10
316.5
 20
135.935459
 30
0.0
 40
3.0
100
AcDbArc
 50
273.705371
 51
0.0
  0
LINE
  5
C11E
330
BEEE
100
AcDbEntity
  8
1
  6
Continuous
100
AcDbLine
 10
150.0
 20
85.5
 30
0.0
 11
150.0
 21
89.23751800000003
 31
0.0
  0
LINE
  5
C11F
330
BEEE
100
AcDbEntity
  8
1
  6
Continuous
100
AcDbLine
 10
126.8072939999999
 20
303.7563299999998
 30
0.0
 11
150.0
 21
303.7563299999998
 31
0.0
  0
LINE
  5
C120
330
BEEE
100
AcDbEntity
  8
1
  6
Continuous
100
AcDbLine
 10
126.8072939999999
 20
278.7563299999998
 30
0.0
 11
150.0
 21
278.7563299999998
 31
0.0
  0
ARC
  5
C121
330
BEEE
100
AcDbEntity
  8
1
  6
Continuous
100
AcDbCircle
 10
273.4999999999998
 20
291.25633
 30
0.0
 40
150.0
100
AcDbArc
 50
176.2946289999999
 51
183.7053709999999
  0
ARC
  5
C122
330
BEEE
100
AcDbEntity
  8
1
  6
Continuous
100
AcDbCircle
 10
126.8072939999999
 20
281.7563299999998
 30
0.0
 40
3.0
100
AcDbArc
 50
183.7053709999999
 51
270.0
  0
ARC
  5
C123
330
BEEE
100
AcDbEntity
  8
1
  6
Continuous
100
AcDbCircle
 10
126.8072939999999
 20
300.75633
 30
0.0
 40
3.0
100
AcDbArc
 50
90.0
 51
176.2946289999999
  0
ARC
  5
C124
330
BEEE
100
AcDbEntity
  8
1
  6
Continuous
100
AcDbCircle
 10
273.4999999999998
 20
73.0
 30
0.0
 40
150.0
100
AcDbArc
 50
176.2946289999999
 51
183.7053709999999
  0
ARC
  5
C125
330
BEEE
100
AcDbEntity
  8
1
  6
Continuous
100
AcDbCircle
 10
48.5
 20
73.0
 30
0.0
 40
150.0
100
AcDbArc
 50
356.2946289999999
 51
3.705370999999998
  0
LINE
  5
C126
330
BEEE
100
AcDbEntity
  8
1
  6
Continuous
100
AcDbLine
 10
126.8072939999999
 20
60.5
 30
0.0
 11
195.1927059999999
 21
60.5
 31
0.0
  0
ARC
  5
C127
330
BEEE
100
AcDbEntity
  8
1
  6
Continuous
100
AcDbCircle
 10
126.8072939999999
 20
63.5
 30
0.0
 40
3.0
100
AcDbArc
 50
183.7053709999999
 51
270.0
  0
ARC
  5
C128
330
BEEE
100
AcDbEntity
  8
1
  6
Continuous
100
AcDbCircle
 10
195.1927059999999
 20
63.5
 30
0.0
 40
3.0
100
AcDbArc
 50
270.0
 51
356.2946289999999
  0
LINE
  5
C129
330
BEEE
100
AcDbEntity
  8
1
  6
Continuous
100
AcDbLine
 10
126.8072939999999
 20
85.5
 30
0.0
 11
195.1927059999999
 21
85.5
 31
0.0
  0
ARC
  5
C12A
330
BEEE
100
AcDbEntity
  8
1
  6
Continuous
100
AcDbCircle
 10
126.8072939999999
 20
82.5
 30
0.0
 40
3.0
100
AcDbArc
 50
90.0
 51
176.2946289999999
  0
ARC
  5
C12B
330
BEEE
100
AcDbEntity
  8
1
  6
Continuous
100
AcDbCircle
 10
195.1927059999999
 20
82.5
 30
0.0
 40
3.0
100
AcDbArc
 50
3.705370999999998
 51
90.0
  0
LINE
  5
C12C
330
BEEE
100
AcDbEntity
  8
4
  6
CENTER
100
AcDbLine
 10
485.5
 20
170.128165
 30
0.0
 11
400.4999999999998
 21
170.128165
 31
0.0
  0
ARC
  5
C12D
330
BEEE
100
AcDbEntity
  8
1
  6
Continuous
100
AcDbCircle
 10
161.0
 20
170.128165
 30
0.0
 40
27.5
100
AcDbArc
 50
87.304671
 51
120.942556
  0
ARC
  5
C12E
330
BEEE
100
AcDbEntity
  8
1
  6
Continuous
100
AcDbCircle
 10
161.0
 20
170.128165
 30
0.0
 40
22.5
100
AcDbArc
 50
90.432374
 51
102.4488099999999
  0
ARC
  5
C12F
330
BEEE
100
AcDbEntity
  8
1
  6
Continuous
100
AcDbCircle
 10
443.0
 20
170.128165
 30
0.0
 40
22.5
100
AcDbArc
 50
180.94315
 51
89.56762600000002
  0
ARC
  5
C130
330
BEEE
100
AcDbEntity
  8
1
  6
Continuous
100
AcDbCircle
 10
443.0
 20
170.128165
 30
0.0
 40
27.5
100
AcDbArc
 50
171.771776
 51
92.69532899999999
  0
ARC
  5
C131
330
BEEE
100
AcDbEntity
  8
1
  6
Continuous
100
AcDbCircle
 10
141.536987
 20
166.8563599999998
 30
0.0
 40
29.076162
100
AcDbArc
 50
34.854742
 51
51.94479099999998
  0
ARC
  5
C132
330
BEEE
100
AcDbEntity
  8
1
  6
Continuous
100
AcDbCircle
 10
144.9629969999998
 20
136.5575699999999
 30
0.0
 40
48.252899
100
AcDbArc
 50
38.913825
 51
73.93123100000003
  0
ARC
  5
C133
330
BEEE
100
AcDbEntity
  8
1
  6
Continuous
100
AcDbCircle
 10
198.854485
 20
247.091712
 30
0.0
 40
95.98788500000001
100
AcDbArc
 50
220.146904
 51
252.652505
  0
ARC
  5
C134
330
BEEE
100
AcDbEntity
  8
1
  6
Continuous
100
AcDbCircle
 10
174.624458
 20
169.129279
 30
0.0
 40
25.922735
100
AcDbArc
 50
210.860647
 51
241.252039
  0
ARC
  5
C135
330
BEEE
100
AcDbEntity
  8
1
  6
Continuous
100
AcDbCircle
 10
156.642609
 20
250.130796
 30
0.0
 40
17.700001
100
AcDbArc
 50
79.07039199999998
 51
86.68520200000001
  0
LINE
  5
C136
330
BEEE
100
AcDbEntity
  8
1
  6
Continuous
100
AcDbLine
 10
170.164985
 20
103.226013
 30
0.0
 11
153.3820189999999
 21
97.40335100000001
 31
0.0
  0
LINE
  5
C137
330
BEEE
100
AcDbEntity
  8
1
  6
Continuous
100
AcDbLine
 10
155.844278
 20
92.83163499999997
 30
0.0
 11
162.969841
 21
92.83163499999997
 31
0.0
  0
LINE
  5
C138
330
BEEE
100
AcDbEntity
  8
1
  6
Continuous
100
AcDbLine
 10
140.5150989999999
 20
94.125534
 30
0.0
 11
147.580452
 21
94.125534
 31
0.0
  0
LINE
  5
C139
330
BEEE
100
AcDbEntity
  8
1
  6
Continuous
100
AcDbLine
 10
127.8656309999999
 20
89.73751799999998
 30
0.0
 11
165.660088
 21
89.73751799999998
 31
0.0
  0
LINE
  5
C13A
330
BEEE
100
AcDbEntity
  8
1
  6
Continuous
100
AcDbLine
 10
127.8656309999999
 20
89.23751800000003
 30
0.0
 11
165.686584
 21
89.23751800000003
 31
0.0
  0
LINE
  5
C13B
330
BEEE
100
AcDbEntity
  8
1
  6
Continuous
100
AcDbLine
 10
150.4422989999999
 20
91.80000300000001
 30
0.0
 11
162.098343
 21
91.80000300000001
 31
0.0
  0
LINE
  5
C13C
330
BEEE
100
AcDbEntity
  8
1
  6
Continuous
100
AcDbLine
 10
169.9698389999998
 20
100.7238159999999
 30
0.0
 11
154.135897
 21
95.230408
 31
0.0
  0
LINE
  5
C13D
330
BEEE
100
AcDbEntity
  8
1
  6
Continuous
100
AcDbLine
 10
159.809737
 20
264.622966
 30
0.0
 11
153.7823979999998
 21
266.7140819999999
 31
0.0
  0
ARC
  5
C13E
330
BEEE
100
AcDbEntity
  8
1
  6
Continuous
100
AcDbCircle
 10
72.94996600000001
 20
169.587188
 30
0.0
 40
6.111798999999998
100
AcDbArc
 50
284.557494
 51
12.415794
  0
ARC
  5
C13F
330
BEEE
100
AcDbEntity
  8
1
  6
Continuous
100
AcDbCircle
 10
135.4424359999999
 20
169.587188
 30
0.0
 40
6.0
100
AcDbArc
 50
95.66719500000001
 51
5.754662999999997
  0
ARC
  5
C140
330
BEEE
100
AcDbEntity
  8
1
  6
Continuous
100
AcDbCircle
 10
136.4406659999999
 20
170.606887
 30
0.0
 40
8.575032999999997
100
AcDbArc
 50
147.813831
 51
341.7316859999999
  0
LINE
  5
C141
330
BEEE
100
AcDbEntity
  8
1
  6
Continuous
100
AcDbLine
 10
80.425537
 20
173.835227
 30
0.0
 11
80.425537
 21
167.144881
 31
0.0
  0
LINE
  5
C142
330
BEEE
100
AcDbEntity
  8
1
  6
Continuous
100
AcDbLine
 10
73.73751799999998
 20
193.5737409999999
 30
0.0
 11
73.73751799999998
 21
162.0318519999999
 31
0.0
  0
LINE
  5
C143
330
BEEE
100
AcDbEntity
  8
1
  6
Continuous
100
AcDbLine
 10
73.23751800000002
 20
193.5737409999999
 30
0.0
 11
73.23751800000002
 21
162.0318519999999
 31
0.0
  0
LINE
  5
C144
330
BEEE
100
AcDbEntity
  8
1
  6
Continuous
100
AcDbLine
 10
84.01354399999998
 20
177.0563679999999
 30
0.0
 11
81.42552899999998
 21
183.1170179999998
 31
0.0
  0
ARC
  5
C145
330
BEEE
100
AcDbEntity
  8
1
  6
Continuous
100
AcDbCircle
 10
90.425537
 20
167.144881
 30
0.0
 40
10.0
100
AcDbArc
 50
179.9999909999999
 51
220.5254839999998
  0
LINE
  5
C146
330
BEEE
100
AcDbEntity
  8
1
  6
Continuous
100
AcDbLine
 10
77.36431899999998
 20
150.312461
 30
0.0
 11
78.664314
 21
150.312461
 31
0.0
  0
LINE
  5
C147
330
BEEE
100
AcDbEntity
  8
1
  6
Continuous
100
AcDbLine
 10
85.88168299999997
 20
152.656844
 30
0.0
 11
83.56432299999999
 21
152.656844
 31
0.0
  0
LINE
  5
C148
330
BEEE
100
AcDbEntity
  8
1
  6
Continuous
100
AcDbLine
 10
83.359482
 20
157.173183
 30
0.0
 11
80.52436099999999
 21
160.489689
 31
0.0
  0
LINE
  5
C149
330
BEEE
100
AcDbEntity
  8
1
  6
Continuous
100
AcDbLine
 10
86.88961799999999
 20
139.8487079999999
 30
0.0
 11
76.83898899999999
 21
139.8487079999999
 31
0.0
  0
LINE
  5
C14A
330
BEEE
100
AcDbEntity
  8
1
  6
Continuous
100
AcDbLine
 10
77.664322
 20
165.6975939999998
 30
0.0
 11
77.664322
 21
153.656844
 31
0.0
  0
LINE
  5
C14B
330
BEEE
100
AcDbEntity
  8
1
  6
Continuous
100
AcDbLine
 10
75.36431899999998
 20
158.229474
 30
0.0
 11
75.36431899999998
 21
141.096877
 31
0.0
  0
ARC
  5
C14C
330
BEEE
100
AcDbEntity
  8
1
  6
Continuous
100
AcDbCircle
 10
78.664322
 20
153.656844
 30
0.0
 40
1.0
100
AcDbArc
 50
179.9999909999999
 51
270.000001
  0
ARC
  5
C14D
330
BEEE
100
AcDbEntity
  8
1
  6
Continuous
100
AcDbCircle
 10
77.36431899999998
 20
152.312461
 30
0.0
 40
2.0
100
AcDbArc
 50
179.9999909999999
 51
270.000001
  0
ARC
  5
C14E
330
BEEE
100
AcDbEntity
  8
1
  6
Continuous
100
AcDbCircle
 10
74.73751800000002
 20
162.703711
 30
0.0
 40
1.0
100
AcDbArc
 50
104.557492
 51
180.000005
  0
LINE
  5
C14F
330
BEEE
100
AcDbEntity
  8
1
  6
Continuous
100
AcDbLine
 10
73.23751800000002
 20
162.0318519999999
 30
0.0
 11
73.738724
 21
162.0318519999999
 31
0.0
  0
ARC
  5
C150
330
BEEE
100
AcDbEntity
  8
1
  6
Continuous
100
AcDbCircle
 10
88.125534
 20
166.9875549999999
 30
0.0
 40
10.0
100
AcDbArc
 50
183.556229
 51
220.525488
  0
LINE
  5
C151
330
BEEE
100
AcDbEntity
  8
1
  6
Continuous
100
AcDbLine
 10
132.856842
 20
97.42553700000001
 30
0.0
 11
132.856842
 21
102.720673
 31
0.0
  0
LINE
  5
C152
330
BEEE
100
AcDbEntity
  8
1
  6
Continuous
100
AcDbLine
 10
146.6291659999999
 20
96.425537
 30
0.0
 11
146.6291659999999
 21
102.720673
 31
0.0
  0
LINE
  5
C153
330
BEEE
100
AcDbEntity
  8
1
  6
Continuous
100
AcDbLine
 10
147.8549879999999
 20
96.425537
 30
0.0
 11
147.8549879999999
 21
102.720673
 31
0.0
  0
ARC
  5
C154
330
BEEE
100
AcDbEntity
  8
1
  6
Continuous
100
AcDbCircle
 10
128.1531069999997
 20
91.73751800000003
 30
0.0
 40
2.0
100
AcDbArc
 50
269.9999969999999
 51
335.667096
  0
LINE
  5
C155
330
BEEE
100
AcDbEntity
  8
1
  6
Continuous
100
AcDbLine
 10
126.38224
 20
95.96939799999999
 30
0.0
 11
137.9780849999999
 21
95.149384
 31
0.0
  0
LINE
  5
C156
330
BEEE
100
AcDbEntity
  8
1
  6
Continuous
100
AcDbLine
 10
127.002548
 20
97.42553700000001
 30
0.0
 11
138.4366989999997
 21
97.42553700000001
 31
0.0
  0
LINE
  5
C157
330
BEEE
100
AcDbEntity
  8
1
  6
Continuous
100
AcDbLine
 10
126.276352
 20
92.970673
 30
0.0
 11
131.507462
 21
92.970673
 31
0.0
  0
LINE
  5
C158
330
BEEE
100
AcDbEntity
  8
1
  6
Continuous
100
AcDbLine
 10
127.8656309999999
 20
89.23751800000003
 30
0.0
 11
127.8656309999999
 21
89.73751799999998
 31
0.0
  0
ARC
  5
C159
330
BEEE
100
AcDbEntity
  8
1
  6
Continuous
100
AcDbCircle
 10
126.276352
 20
94.471909
 30
0.0
 40
1.501229999999999
100
AcDbArc
 50
85.95499399999999
 51
270.000001
  0
ARC
  5
C15A
330
BEEE
100
AcDbEntity
  8
1
  6
Continuous
100
AcDbCircle
 10
127.002548
 20
95.198105
 30
0.0
 40
2.227427999999997
100
AcDbArc
 50
90.00000300000001
 51
190.323153
  0
LINE
  5
C15B
330
BEEE
100
AcDbEntity
  8
1
  6
Continuous
100
AcDbLine
 10
124.7751159999999
 20
95.198105
 30
0.0
 11
124.7751159999999
 21
94.471909
 31
0.0
  0
LINE
  5
C15C
330
BEEE
100
AcDbEntity
  8
1
  6
Continuous
100
AcDbLine
 10
141.0824429999999
 20
96.425537
 30
0.0
 11
147.580452
 21
96.425537
 31
0.0
  0
ARC
  5
C15D
330
BEEE
100
AcDbEntity
  8
1
  6
Continuous
100
AcDbCircle
 10
135.4424359999999
 20
88.44122299999998
 30
0.0
 40
6.0
100
AcDbArc
 50
24.332904
 51
155.667101
  0
ARC
  5
C15E
330
BEEE
100
AcDbEntity
  8
1
  6
Continuous
100
AcDbCircle
 10
142.7317659999999
 20
91.73751800000003
 30
0.0
 40
2.0
100
AcDbArc
 50
204.332899
 51
269.9999969999999
  0
LINE
  5
C15F
330
BEEE
100
AcDbEntity
  8
1
  6
Continuous
100
AcDbLine
 10
139.377411
 20
92.970673
 30
0.0
 11
142.234726
 21
92.970673
 31
0.0
  0
ARC
  5
C160
330
BEEE
100
AcDbEntity
  8
1
  6
Continuous
100
AcDbCircle
 10
140.5150989999999
 20
96.12553400000001
 30
0.0
 40
2.0
100
AcDbArc
 50
227.969766
 51
269.9999969999999
  0
ARC
  5
C161
330
BEEE
100
AcDbEntity
  8
1
  6
Continuous
100
AcDbCircle
 10
137.8370059999998
 20
93.15437300000001
 30
0.0
 40
2.0
100
AcDbArc
 50
47.96976799999998
 51
85.95499399999999
  0
ARC
  5
C162
330
BEEE
100
AcDbEntity
  8
1
  6
Continuous
100
AcDbCircle
 10
141.0824429999999
 20
98.42553700000001
 30
0.0
 40
2.0
100
AcDbArc
 50
228.5903839999999
 51
269.9999969999999
  0
ARC
  5
C163
330
BEEE
100
AcDbEntity
  8
1
  6
Continuous
100
AcDbCircle
 10
138.4366989999997
 20
95.425537
 30
0.0
 40
2.0
100
AcDbArc
 50
48.590379
 51
90.00000300000001
  0
ARC
  5
C164
330
BEEE
100
AcDbEntity
  8
1
  6
Continuous
100
AcDbCircle
 10
142.234726
 20
95.970673
 30
0.0
 40
3.0
100
AcDbArc
 50
269.9999969999999
 51
306.8698979999999
  0
LINE
  5
C165
330
BEEE
100
AcDbEntity
  8
1
  6
Continuous
100
AcDbLine
 10
144.034725
 20
93.570679
 30
0.0
 11
144.7745319999999
 21
94.125534
 31
0.0
  0
ARC
  5
C166
330
BEEE
100
AcDbEntity
  8
1
  6
Continuous
100
AcDbCircle
 10
147.580452
 20
114.125534
 30
0.0
 40
17.700001
100
AcDbArc
 50
269.9999969999999
 51
289.133645
  0
ARC
  5
C167
330
BEEE
100
AcDbEntity
  8
1
  6
Continuous
100
AcDbCircle
 10
147.580452
 20
114.125534
 30
0.0
 40
20.0
100
AcDbArc
 50
269.9999969999999
 51
289.133645
  0
LINE
  5
C168
330
BEEE
100
AcDbEntity
  8
1
  6
Continuous
100
AcDbLine
 10
151.5016939999999
 20
94.513704
 30
0.0
 11
153.434676
 21
93.450559
 31
0.0
  0
LINE
  5
C169
330
BEEE
100
AcDbEntity
  8
1
  6
Continuous
100
AcDbLine
 10
148.4275669999999
 20
90.06600999999998
 30
0.0
 11
149.701307
 21
91.47152700000004
 31
0.0
  0
ARC
  5
C16A
330
BEEE
100
AcDbEntity
  8
1
  6
Continuous
100
AcDbCircle
 10
147.686577
 20
90.737518
 30
0.0
 40
1.0
100
AcDbArc
 50
269.9999969999999
 51
317.815556
  0
ARC
  5
C16B
330
BEEE
100
AcDbEntity
  8
1
  6
Continuous
100
AcDbCircle
 10
150.4422989999999
 20
90.800003
 30
0.0
 40
1.0
100
AcDbArc
 50
90.00000300000001
 51
137.815555
  0
ARC
  5
C16C
330
BEEE
100
AcDbEntity
  8
1
  6
Continuous
100
AcDbCircle
 10
91.11431899999999
 20
155.222586
 30
0.0
 40
13.60358299999999
100
AcDbArc
 50
61.157357
 51
90.00000300000001
  0
ARC
  5
C16D
330
BEEE
100
AcDbEntity
  8
1
  6
Continuous
100
AcDbCircle
 10
91.11431899999999
 20
153.275855
 30
0.0
 40
13.60358299999999
100
AcDbArc
 50
61.157357
 51
90.00000300000001
  0
ARC
  5
C16E
330
BEEE
100
AcDbEntity
  8
1
  6
Continuous
100
AcDbCircle
 10
91.11431899999999
 20
171.396071
 30
0.0
 40
13.60358299999999
100
AcDbArc
 50
269.9999969999999
 51
298.842643
  0
ARC
  5
C16F
330
BEEE
100
AcDbEntity
  8
1
  6
Continuous
100
AcDbCircle
 10
73.36431899999998
 20
148.6288209999998
 30
0.0
 40
13.149504
100
AcDbArc
 50
17.837903
 51
40.52549299999999
  0
ARC
  5
C170
330
BEEE
100
AcDbEntity
  8
1
  6
Continuous
100
AcDbCircle
 10
73.36431899999998
 20
148.6288209999998
 30
0.0
 40
15.0
100
AcDbArc
 50
10.441013
 51
40.52549299999999
  0
LINE
  5
C171
330
BEEE
100
AcDbEntity
  8
1
  6
Continuous
100
AcDbLine
 10
88.36431899999999
 20
163.799056
 30
0.0
 11
88.36431899999999
 21
141.0969
 31
0.0
  0
ARC
  5
C172
330
BEEE
100
AcDbEntity
  8
1
  6
Continuous
100
AcDbCircle
 10
86.36431899999998
 20
152.312461
 30
0.0
 40
2.0
100
AcDbArc
 50
269.9999969999999
 51
0.0
  0
LINE
  5
C173
330
BEEE
100
AcDbEntity
  8
1
  6
Continuous
100
AcDbLine
 10
91.11431899999999
 20
157.7924869999999
 30
0.0
 11
89.36431899999998
 21
157.7924869999999
 31
0.0
  0
LINE
  5
C174
330
BEEE
100
AcDbEntity
  8
1
  6
Continuous
100
AcDbLine
 10
88.42553700000001
 20
168.8261709999999
 30
0.0
 11
91.11431899999999
 21
168.8261709999999
 31
0.0
  0
LINE
  5
C175
330
BEEE
100
AcDbEntity
  8
1
  6
Continuous
100
AcDbLine
 10
91.11431899999999
 20
166.8794389999999
 30
0.0
 11
88.06431600000001
 21
166.8794389999999
 31
0.0
  0
LINE
  5
C176
330
BEEE
100
AcDbEntity
  8
1
  6
Continuous
100
AcDbLine
 10
84.766075
 20
158.375609
 30
0.0
 11
82.82436399999998
 21
160.647012
 31
0.0
  0
ARC
  5
C177
330
BEEE
100
AcDbEntity
  8
1
  6
Continuous
100
AcDbCircle
 10
89.36431899999998
 20
156.7924869999999
 30
0.0
 40
1.0
100
AcDbArc
 50
90.00000300000001
 51
180.000005
  0
ARC
  5
C178
330
BEEE
100
AcDbEntity
  8
1
  6
Continuous
100
AcDbCircle
 10
73.36431899999998
 20
163.799056
 30
0.0
 40
15.0
100
AcDbArc
 50
0.0
 51
12.06898699999998
  0
ARC
  5
C179
330
BEEE
100
AcDbEntity
  8
1
  6
Continuous
100
AcDbCircle
 10
96.10394300000001
 20
162.3359589999998
 30
0.0
 40
3.260378999999999
100
AcDbArc
 50
298.842643
 51
61.157357
  0
ARC
  5
C17A
330
BEEE
100
AcDbEntity
  8
1
  6
Continuous
100
AcDbCircle
 10
96.10394300000001
 20
164.282691
 30
0.0
 40
3.260378999999999
100
AcDbArc
 50
0.0
 51
61.157357
  0
LINE
  5
C17B
330
BEEE
100
AcDbEntity
  8
1
  6
Continuous
100
AcDbLine
 10
99.364319
 20
162.3359589999998
 30
0.0
 11
99.364319
 21
164.282691
 31
0.0
  0
ARC
  5
C17C
330
BEEE
100
AcDbEntity
  8
1
  6
Continuous
100
AcDbCircle
 10
140.9688109999999
 20
104.860062
 30
0.0
 40
6.110624999999997
100
AcDbArc
 50
39.851241
 51
90.00000300000001
  0
ARC
  5
C17D
330
BEEE
100
AcDbEntity
  8
1
  6
Continuous
100
AcDbCircle
 10
137.1799009999998
 20
102.720673
 30
0.0
 40
9.449244
100
AcDbArc
 50
0.0
 51
39.851241
  0
ARC
  5
C17E
330
BEEE
100
AcDbEntity
  8
1
  6
Continuous
100
AcDbCircle
 10
139.7429959999997
 20
104.860062
 30
0.0
 40
6.110624999999997
100
AcDbArc
 50
39.851241
 51
140.148761
  0
ARC
  5
C17F
330
BEEE
100
AcDbEntity
  8
1
  6
Continuous
100
AcDbCircle
 10
142.3060909999998
 20
102.720673
 30
0.0
 40
9.449244
100
AcDbArc
 50
140.148761
 51
180.000005
  0
ARC
  5
C180
330
BEEE
100
AcDbEntity
  8
1
  6
Continuous
100
AcDbCircle
 10
138.4057239999999
 20
102.720673
 30
0.0
 40
9.449244
100
AcDbArc
 50
0.0
 51
39.851241
  0
ARC
  5
C181
330
BEEE
100
AcDbEntity
  8
1
  6
Continuous
100
AcDbCircle
 10
179.6287309999999
 20
172.1196119999999
 30
0.0
 40
31.752382
100
AcDbArc
 50
192.402553
 51
210.860647
  0
LINE
  5
C182
330
BEEE
100
AcDbEntity
  8
1
  6
Continuous
100
AcDbLine
 10
80.157211
 20
191.111296
 30
0.0
 11
86.720673
 21
191.111296
 31
0.0
  0
LINE
  5
C183
330
BEEE
100
AcDbEntity
  8
1
  6
Continuous
100
AcDbLine
 10
86.720673
 20
202.144976
 30
0.0
 11
78.970673
 21
202.144976
 31
0.0
  0
LINE
  5
C184
330
BEEE
100
AcDbEntity
  8
1
  6
Continuous
100
AcDbLine
 10
86.720673
 20
200.1982449999999
 30
0.0
 11
80.27067599999998
 21
200.1982449999999
 31
0.0
  0
ARC
  5
C185
330
BEEE
100
AcDbEntity
  8
1
  6
Continuous
100
AcDbCircle
 10
78.970673
 20
200.144976
 30
0.0
 40
2.0
100
AcDbArc
 50
90.00000300000001
 51
180.000005
  0
ARC
  5
C186
330
BEEE
100
AcDbEntity
  8
1
  6
Continuous
100
AcDbCircle
 10
67.03250099999999
 20
185.203562
 30
0.0
 40
12.09303
100
AcDbArc
 50
0.0
 51
34.733595
  0
ARC
  5
C187
330
BEEE
100
AcDbEntity
  8
1
  6
Continuous
100
AcDbCircle
 10
67.03250099999999
 20
185.203562
 30
0.0
 40
14.39302999999999
100
AcDbArc
 50
0.0
 51
31.757344
  0
LINE
  5
C188
330
BEEE
100
AcDbEntity
  8
1
  6
Continuous
100
AcDbLine
 10
75.800003
 20
189.091876
 30
0.0
 11
75.800003
 21
176.976724
 31
0.0
  0
LINE
  5
C189
330
BEEE
100
AcDbEntity
  8
1
  6
Continuous
100
AcDbLine
 10
76.970673
 20
200.144976
 30
0.0
 11
76.970673
 21
181.8340479999999
 31
0.0
  0
ARC
  5
C18A
330
BEEE
100
AcDbEntity
  8
1
  6
Continuous
100
AcDbCircle
 10
75.73751800000002
 20
179.900092
 30
0.0
 40
2.0
100
AcDbArc
 50
179.9999909999999
 51
224.849062
  0
ARC
  5
C18B
330
BEEE
100
AcDbEntity
  8
1
  6
Continuous
100
AcDbCircle
 10
85.40911899999997
 20
181.8340479999999
 30
0.0
 40
8.438442999999997
100
AcDbArc
 50
179.9999909999999
 51
221.8719609999999
  0
LINE
  5
C18C
330
BEEE
100
AcDbEntity
  8
1
  6
Continuous
100
AcDbLine
 10
79.125534
 20
185.203562
 30
0.0
 11
79.125534
 21
176.201655
 31
0.0
  0
LINE
  5
C18D
330
BEEE
100
AcDbEntity
  8
1
  6
Continuous
100
AcDbLine
 10
81.425537
 20
185.203562
 30
0.0
 11
81.425537
 21
175.567275
 31
0.0
  0
LINE
  5
C18E
330
BEEE
100
AcDbEntity
  8
1
  6
Continuous
100
AcDbLine
 10
75.3311
 20
177.4727389999999
 30
0.0
 11
74.31959499999997
 21
178.4895969999998
 31
0.0
  0
ARC
  5
C18F
330
BEEE
100
AcDbEntity
  8
1
  6
Continuous
100
AcDbCircle
 10
81.425537
 20
173.835227
 30
0.0
 40
3.299999999999998
100
AcDbArc
 50
134.18438
 51
180.000005
  0
ARC
  5
C190
330
BEEE
100
AcDbEntity
  8
1
  6
Continuous
100
AcDbCircle
 10
65.827591
 20
168.019171
 30
0.0
 40
13.404729
100
AcDbArc
 50
12.41579699999999
 51
44.84906099999999
  0
ARC
  5
C191
330
BEEE
100
AcDbEntity
  8
1
  6
Continuous
100
AcDbCircle
 10
81.425537
 20
173.835227
 30
0.0
 40
1.0
100
AcDbArc
 50
120.0000029999998
 51
180.000005
  0
ARC
  5
C192
330
BEEE
100
AcDbEntity
  8
1
  6
Continuous
100
AcDbCircle
 10
80.425537
 20
175.567275
 30
0.0
 40
1.0
100
AcDbArc
 50
299.999998
 51
0.0
  0
LINE
  5
C193
330
BEEE
100
AcDbEntity
  8
1
  6
Continuous
100
AcDbLine
 10
78.125534
 20
177.5729849999999
 30
0.0
 11
78.125534
 21
173.35279
 31
0.0
  0
LINE
  5
C194
330
BEEE
100
AcDbEntity
  8
1
  6
Continuous
100
AcDbLine
 10
78.125534
 20
173.835227
 30
0.0
 11
78.125534
 21
173.35279
 31
0.0
  0
LINE
  5
C195
330
BEEE
100
AcDbEntity
  8
1
  6
Continuous
100
AcDbLine
 10
75.800003
 20
184.95822
 30
0.0
 11
76.970673
 21
184.95822
 31
0.0
  0
LINE
  5
C196
330
BEEE
100
AcDbEntity
  8
1
  6
Continuous
100
AcDbLine
 10
74.73751800000002
 20
190.091876
 30
0.0
 11
74.800003
 21
190.091876
 31
0.0
  0
LINE
  5
C197
330
BEEE
100
AcDbEntity
  8
1
  6
Continuous
100
AcDbLine
 10
73.23751800000002
 20
193.5737409999999
 30
0.0
 11
73.73751799999998
 21
193.5737409999999
 31
0.0
  0
LINE
  5
C198
330
BEEE
100
AcDbEntity
  8
1
  6
Continuous
100
AcDbLine
 10
79.27067599999998
 20
199.1982449999999
 30
0.0
 11
79.27067599999998
 21
192.778941
 31
0.0
  0
LINE
  5
C199
330
BEEE
100
AcDbEntity
  8
1
  6
Continuous
100
AcDbLine
 10
75.800003
 20
187.2582189999999
 30
0.0
 11
76.970673
 21
187.2582189999999
 31
0.0
  0
ARC
  5
C19A
330
BEEE
100
AcDbEntity
  8
1
  6
Continuous
100
AcDbCircle
 10
80.27067599999998
 20
199.1982449999999
 30
0.0
 40
1.0
100
AcDbArc
 50
90.00000300000001
 51
180.000005
  0
LINE
  5
C19B
330
BEEE
100
AcDbEntity
  8
1
  6
Continuous
100
AcDbLine
 10
132.856842
 20
268.1307959999999
 30
0.0
 11
132.856842
 21
261.5356499999999
 31
0.0
  0
LINE
  5
C19C
330
BEEE
100
AcDbEntity
  8
1
  6
Continuous
100
AcDbLine
 10
134.0826639999999
 20
269.2856569999999
 30
0.0
 11
134.0826639999999
 21
261.5356499999999
 31
0.0
  0
LINE
  5
C19D
330
BEEE
100
AcDbEntity
  8
1
  6
Continuous
100
AcDbLine
 10
147.8549879999999
 20
269.2856569999999
 30
0.0
 11
147.8549879999999
 21
261.5356499999999
 31
0.0
  0
ARC
  5
C19E
330
BEEE
100
AcDbEntity
  8
1
  6
Continuous
100
AcDbCircle
 10
86.720673
 20
188.5413919999998
 30
0.0
 40
13.60358299999999
100
AcDbArc
 50
61.157357
 51
90.00000300000001
  0
ARC
  5
C19F
330
BEEE
100
AcDbEntity
  8
1
  6
Continuous
100
AcDbCircle
 10
86.720673
 20
186.5946609999998
 30
0.0
 40
13.60358299999999
100
AcDbArc
 50
61.157357
 51
90.00000300000001
  0
ARC
  5
C1A0
330
BEEE
100
AcDbEntity
  8
1
  6
Continuous
100
AcDbCircle
 10
86.720673
 20
204.714877
 30
0.0
 40
13.60358299999999
100
AcDbArc
 50
269.9999969999999
 51
298.842643
  0
ARC
  5
C1A1
330
BEEE
100
AcDbEntity
  8
1
  6
Continuous
100
AcDbCircle
 10
91.710297
 20
195.6547689999999
 30
0.0
 40
3.260378999999999
100
AcDbArc
 50
298.842643
 51
61.157357
  0
ARC
  5
C1A2
330
BEEE
100
AcDbEntity
  8
1
  6
Continuous
100
AcDbCircle
 10
91.710297
 20
197.6014999999999
 30
0.0
 40
3.260378999999999
100
AcDbArc
 50
0.0
 51
61.157357
  0
LINE
  5
C1A3
330
BEEE
100
AcDbEntity
  8
1
  6
Continuous
100
AcDbLine
 10
94.97067300000001
 20
195.6547689999999
 30
0.0
 11
94.97067300000001
 21
197.6014999999999
 31
0.0
  0
ARC
  5
C1A4
330
BEEE
100
AcDbEntity
  8
1
  6
Continuous
100
AcDbCircle
 10
137.9078519999999
 20
191.674437
 30
0.0
 40
10.06566899999999
100
AcDbArc
 50
188.0127489999999
 51
222.959604
  0
LINE
  5
C1A5
330
BEEE
100
AcDbEntity
  8
1
  6
Continuous
100
AcDbLine
 10
131.4407939999999
 20
178.7611249999999
 30
0.0
 11
129.1834279999999
 21
175.1745699999999
 31
0.0
  0
LINE
  5
C1A6
330
BEEE
100
AcDbEntity
  8
1
  6
Continuous
100
AcDbLine
 10
125.271057
 20
188.7899769999999
 30
0.0
 11
134.0826419999999
 21
202.144976
 31
0.0
  0
ARC
  5
C1A7
330
BEEE
100
AcDbEntity
  8
1
  6
Continuous
100
AcDbCircle
 10
127.7751159999999
 20
187.1378009999999
 30
0.0
 40
3.0
100
AcDbArc
 50
146.5833039999999
 51
220.1469139999999
  0
LINE
  5
C1A8
330
BEEE
100
AcDbEntity
  8
1
  6
Continuous
100
AcDbLine
 10
147.854984
 20
193.058028
 30
0.0
 11
134.0826419999999
 21
202.144976
 31
0.0
  0
LINE
  5
C1A9
330
BEEE
100
AcDbEntity
  8
1
  6
Continuous
100
AcDbLine
 10
146.5883169999998
 20
191.1382449999999
 30
0.0
 11
132.815975
 21
200.2251919999999
 31
0.0
  0
LINE
  5
C1AA
330
BEEE
100
AcDbEntity
  8
1
  6
Continuous
100
AcDbLine
 10
144.8552489999999
 20
190.457173
 30
0.0
 11
140.0839689999999
 21
174.56728
 31
0.0
  0
LINE
  5
C1AB
330
BEEE
100
AcDbEntity
  8
1
  6
Continuous
100
AcDbLine
 10
130.5414449999998
 20
184.8148549999999
 30
0.0
 11
140.0839649999998
 21
174.567279
 31
0.0
  0
ARC
  5
C1AC
330
BEEE
100
AcDbEntity
  8
1
  6
Continuous
100
AcDbCircle
 10
113.379028
 20
209.1558599999999
 30
0.0
 40
50.0
100
AcDbArc
 50
331.842294
 51
337.5870299999998
  0
LINE
  5
C1AD
330
BEEE
100
AcDbEntity
  8
1
  6
Continuous
100
AcDbLine
 10
156.7924139999998
 20
184.2761559999999
 30
0.0
 11
157.588061
 21
185.8983809999998
 31
0.0
  0
ARC
  5
C1AE
330
BEEE
100
AcDbEntity
  8
1
  6
Continuous
100
AcDbCircle
 10
157.235016
 20
184.0590689999999
 30
0.0
 40
0.492976
100
AcDbArc
 50
153.8735889999998
 51
254.4024709999999
  0
LINE
  5
C1AF
330
BEEE
100
AcDbEntity
  8
1
  6
Continuous
100
AcDbLine
 10
157.102461
 20
183.584248
 30
0.0
 11
158.318959
 21
182.925236
 31
0.0
  0
ARC
  5
C1B0
330
BEEE
100
AcDbEntity
  8
1
  6
Continuous
100
AcDbCircle
 10
149.485779
 20
177.7784179999999
 30
0.0
 40
15.79532099999999
100
AcDbArc
 50
63.921056
 51
97.943055
  0
LINE
  5
C1B1
330
BEEE
100
AcDbEntity
  8
1
  6
Continuous
100
AcDbLine
 10
157.015638
 20
186.9116789999999
 30
0.0
 11
153.0136919999999
 21
187.2582189999999
 31
0.0
  0
LINE
  5
C1B2
330
BEEE
100
AcDbEntity
  8
1
  6
Continuous
100
AcDbLine
 10
152.137169
 20
186.638497
 30
0.0
 11
146.7870969999998
 21
190.1684559999999
 31
0.0
  0
ARC
  5
C1B3
330
BEEE
100
AcDbEntity
  8
1
  6
Continuous
100
AcDbCircle
 10
147.1725999999998
 20
190.7527379999999
 30
0.0
 40
0.7
100
AcDbArc
 50
146.5833039999999
 51
236.5833
  0
LINE
  5
C1B4
330
BEEE
100
AcDbEntity
  8
1
  6
Continuous
100
AcDbLine
 10
146.5883169999998
 20
191.1382449999999
 30
0.0
 11
147.854984
 21
193.058028
 31
0.0
  0
ARC
  5
C1B5
330
BEEE
100
AcDbEntity
  8
1
  6
Continuous
100
AcDbCircle
 10
152.352135
 20
186.9642969999999
 30
0.0
 40
0.390329
100
AcDbArc
 50
236.583304
 51
326.583299
  0
LINE
  5
C1B6
330
BEEE
100
AcDbEntity
  8
1
  6
Continuous
100
AcDbLine
 10
153.013694
 20
187.258221
 30
0.0
 11
152.677933
 21
186.749335
 31
0.0
  0
LINE
  5
C1B7
330
BEEE
100
AcDbEntity
  8
1
  6
Continuous
100
AcDbLine
 10
153.013694
 20
187.258221
 30
0.0
 11
152.677933
 21
186.749335
 31
0.0
  0
ARC
  5
C1B8
330
BEEE
100
AcDbEntity
  8
1
  6
Continuous
100
AcDbCircle
 10
156.9547959999999
 20
186.208976
 30
0.0
 40
0.7053340000000003
100
AcDbArc
 50
333.873591
 51
85.05093599999998
  0
ARC
  5
C1B9
330
BEEE
100
AcDbEntity
  8
1
  6
Continuous
100
AcDbCircle
 10
146.080185
 20
170.820258
 30
0.0
 40
23.5422
100
AcDbArc
 50
54.944784
 51
63.921056
  0
ARC
  5
C1BA
330
BEEE
100
AcDbEntity
  8
1
  6
Continuous
100
AcDbCircle
 10
140.9688339999999
 20
259.396276
 30
0.0
 40
6.110624999999997
100
AcDbArc
 50
219.8512389999999
 51
320.148978
  0
ARC
  5
C1BB
330
BEEE
100
AcDbEntity
  8
1
  6
Continuous
100
AcDbCircle
 10
139.743011
 20
259.396276
 30
0.0
 40
6.110624999999997
100
AcDbArc
 50
215.239372
 51
275.7565829999999
  0
ARC
  5
C1BC
330
BEEE
100
AcDbEntity
  8
1
  6
Continuous
100
AcDbCircle
 10
143.5319289999999
 20
261.5356499999999
 30
0.0
 40
9.449244
100
AcDbArc
 50
179.9999909999999
 51
219.851235
  0
ARC
  5
C1BD
330
BEEE
100
AcDbEntity
  8
1
  6
Continuous
100
AcDbCircle
 10
142.3060909999998
 20
261.5356499999999
 30
0.0
 40
9.449244
100
AcDbArc
 50
179.9999909999999
 51
219.851235
  0
ARC
  5
C1BE
330
BEEE
100
AcDbEntity
  8
1
  6
Continuous
100
AcDbCircle
 10
138.4057239999999
 20
261.5356499999999
 30
0.0
 40
9.449244
100
AcDbArc
 50
320.1487589999999
 51
0.0
  0
ARC
  5
C1BF
330
BEEE
100
AcDbEntity
  8
1
  6
Continuous
100
AcDbCircle
 10
128.1531069999997
 20
272.518812
 30
0.0
 40
2.0
100
AcDbArc
 50
24.332904
 51
90.00000300000001
  0
LINE
  5
C1C0
330
BEEE
100
AcDbEntity
  8
1
  6
Continuous
100
AcDbLine
 10
125.8525389999998
 20
269.1307959999999
 30
0.0
 11
131.856842
 21
269.1307959999999
 31
0.0
  0
LINE
  5
C1C1
330
BEEE
100
AcDbEntity
  8
1
  6
Continuous
100
AcDbLine
 10
127.002548
 20
266.830793
 30
0.0
 11
132.856842
 21
266.830793
 31
0.0
  0
LINE
  5
C1C2
330
BEEE
100
AcDbEntity
  8
1
  6
Continuous
100
AcDbLine
 10
127.8656309999999
 20
274.518812
 30
0.0
 11
150.0
 21
274.518812
 31
0.0
  0
LINE
  5
C1C3
330
BEEE
100
AcDbEntity
  8
1
  6
Continuous
100
AcDbLine
 10
127.8656309999999
 20
275.018812
 30
0.0
 11
150.0
 21
275.018812
 31
0.0
  0
LINE
  5
C1C4
330
BEEE
100
AcDbEntity
  8
1
  6
Continuous
100
AcDbLine
 10
125.8525389999998
 20
271.2856569999999
 30
0.0
 11
145.8549879999999
 21
271.2856569999999
 31
0.0
  0
ARC
  5
C1C5
330
BEEE
100
AcDbEntity
  8
1
  6
Continuous
100
AcDbCircle
 10
125.8525389999998
 20
270.208219
 30
0.0
 40
1.077428
100
AcDbArc
 50
90.00000300000001
 51
270.000001
  0
ARC
  5
C1C6
330
BEEE
100
AcDbEntity
  8
1
  6
Continuous
100
AcDbCircle
 10
127.002548
 20
269.0582249999998
 30
0.0
 40
2.227427999999997
100
AcDbArc
 50
180.000005
 51
270.000001
  0
LINE
  5
C1C7
330
BEEE
100
AcDbEntity
  8
1
  6
Continuous
100
AcDbLine
 10
124.7751159999999
 20
270.208219
 30
0.0
 11
124.7751159999999
 21
269.0582249999998
 31
0.0
  0
LINE
  5
C1C8
330
BEEE
100
AcDbEntity
  8
1
  6
Continuous
100
AcDbLine
 10
127.8656309999999
 20
275.018812
 30
0.0
 11
127.8656309999999
 21
274.518812
 31
0.0
  0
ARC
  5
C1C9
330
BEEE
100
AcDbEntity
  8
1
  6
Continuous
100
AcDbCircle
 10
132.082672
 20
269.2856569999999
 30
0.0
 40
2.0
100
AcDbArc
 50
0.0
 51
90.00000300000001
  0
ARC
  5
C1CA
330
BEEE
100
AcDbEntity
  8
1
  6
Continuous
100
AcDbCircle
 10
131.856842
 20
268.1307959999999
 30
0.0
 40
1.0
100
AcDbArc
 50
0.0
 51
90.00000300000001
  0
ARC
  5
C1CB
330
BEEE
100
AcDbEntity
  8
1
  6
Continuous
100
AcDbCircle
 10
135.4424359999999
 20
275.8151069999998
 30
0.0
 40
6.0
100
AcDbArc
 50
204.332899
 51
229.017462
  0
ARC
  5
C1CC
330
BEEE
100
AcDbEntity
  8
1
  6
Continuous
100
AcDbCircle
 10
142.7317659999999
 20
272.518812
 30
0.0
 40
2.0
100
AcDbArc
 50
90.00000300000001
 51
155.667101
  0
ARC
  5
C1CD
330
BEEE
100
AcDbEntity
  8
1
  6
Continuous
100
AcDbCircle
 10
135.4424359999999
 20
275.8151069999998
 30
0.0
 40
6.0
100
AcDbArc
 50
310.982543
 51
335.667096
  0
ARC
  5
C1CE
330
BEEE
100
AcDbEntity
  8
1
  6
Continuous
100
AcDbCircle
 10
147.580452
 20
250.130796
 30
0.0
 40
17.700001
100
AcDbArc
 50
82.143203
 51
89.11127900000002
  0
LINE
  5
C1CF
330
BEEE
100
AcDbEntity
  8
1
  6
Continuous
100
AcDbLine
 10
154.1568389999999
 20
267.830793
 30
0.0
 11
157.5806959999999
 21
267.830793
 31
0.0
  0
LINE
  5
C1D0
330
BEEE
100
AcDbEntity
  8
1
  6
Continuous
100
AcDbLine
 10
148.427562
 20
274.1903199999999
 30
0.0
 11
149.701307
 21
272.7848029999999
 31
0.0
  0
LINE
  5
C1D1
330
BEEE
100
AcDbEntity
  8
1
  6
Continuous
100
AcDbLine
 10
147.667641
 20
270.1307959999999
 30
0.0
 11
150.0
 21
270.1307959999999
 31
0.0
  0
ARC
  5
C1D2
330
BEEE
100
AcDbEntity
  8
1
  6
Continuous
100
AcDbCircle
 10
145.8549879999999
 20
269.2856569999999
 30
0.0
 40
2.0
100
AcDbArc
 50
0.0
 51
90.00000300000001
  0
ARC
  5
C1D3
330
BEEE
100
AcDbEntity
  8
1
  6
Continuous
100
AcDbCircle
 10
150.4422989999999
 20
273.4563269999998
 30
0.0
 40
1.0
100
AcDbArc
 50
222.184445
 51
243.749348
  0
ARC
  5
C1D4
330
BEEE
100
AcDbEntity
  8
1
  6
Continuous
100
AcDbCircle
 10
147.686577
 20
273.518812
 30
0.0
 40
1.0
100
AcDbArc
 50
42.184444
 51
90.00000300000001
  0
ARC
  5
C1D5
330
BEEE
100
AcDbEntity
  8
1
  6
Continuous
100
AcDbCircle
 10
158.0156399999999
 20
268.7803169999999
 30
0.0
 40
1.0
100
AcDbArc
 50
179.9999909999999
 51
265.7892979999999
  0
LINE
  5
C1D6
330
BEEE
100
AcDbEntity
  8
1
  6
Continuous
100
AcDbLine
 10
157.0156399999999
 20
269.5062919999999
 30
0.0
 11
157.0156399999999
 21
268.7803169999999
 31
0.0
  0
ARC
  5
C1D7
330
BEEE
100
AcDbEntity
  8
1
  6
Continuous
100
AcDbCircle
 10
290.878571
 20
167.1158659999998
 30
0.0
 40
6.111798999999998
100
AcDbArc
 50
112.3236629999999
 51
192.4158
  0
ARC
  5
C1D8
330
BEEE
100
AcDbEntity
  8
1
  6
Continuous
100
AcDbCircle
 10
191.2269359999999
 20
168.8868399999998
 30
0.0
 40
6.0
100
AcDbArc
 50
288.381573
 51
119.78419
  0
ARC
  5
C1D9
330
BEEE
100
AcDbEntity
  8
1
  6
Continuous
100
AcDbCircle
 10
191.2269359999999
 20
168.8868399999998
 30
0.0
 40
8.202799
100
AcDbArc
 50
299.6882959999999
 51
91.91668900000001
  0
LINE
  5
C1DA
330
BEEE
100
AcDbEntity
  8
1
  6
Continuous
100
AcDbLine
 10
290.091019
 20
177.0896399999998
 30
0.0
 11
290.091019
 21
142.361411
 31
0.0
  0
LINE
  5
C1DB
330
BEEE
100
AcDbEntity
  8
1
  6
Continuous
100
AcDbLine
 10
290.591019
 20
177.0896399999998
 30
0.0
 11
290.591019
 21
142.361411
 31
0.0
  0
LINE
  5
C1DC
330
BEEE
100
AcDbEntity
  8
1
  6
Continuous
100
AcDbLine
 10
276.443954
 20
168.760504
 30
0.0
 11
282.0
 21
181.771733
 31
0.0
  0
LINE
  5
C1DD
330
BEEE
100
AcDbEntity
  8
1
  6
Continuous
100
AcDbLine
 10
277.9356839999999
 20
166.5527179999999
 30
0.0
 11
282.0
 21
176.0705989999999
 31
0.0
  0
LINE
  5
C1DE
330
BEEE
100
AcDbEntity
  8
1
  6
Continuous
100
AcDbLine
 10
281.4356769999998
 20
153.444159
 30
0.0
 11
283.335686
 21
153.444159
 31
0.0
  0
LINE
  5
C1DF
330
BEEE
100
AcDbEntity
  8
1
  6
Continuous
100
AcDbLine
 10
277.935677
 20
154.009082
 30
0.0
 11
285.777283
 21
163.1821549999999
 31
0.0
  0
LINE
  5
C1E0
330
BEEE
100
AcDbEntity
  8
1
  6
Continuous
100
AcDbLine
 10
277.1103819999999
 20
139.8487079999999
 30
0.0
 11
287.1610109999998
 21
139.8487079999999
 31
0.0
  0
LINE
  5
C1E1
330
BEEE
100
AcDbEntity
  8
1
  6
Continuous
100
AcDbLine
 10
278.822983
 20
150.312461
 30
0.0
 11
285.448395
 21
150.312461
 31
0.0
  0
LINE
  5
C1E2
330
BEEE
100
AcDbEntity
  8
1
  6
Continuous
100
AcDbLine
 10
279.0794829999999
 20
141.795439
 30
0.0
 11
285.191864
 21
141.795439
 31
0.0
  0
LINE
  5
C1E3
330
BEEE
100
AcDbEntity
  8
1
  6
Continuous
100
AcDbLine
 10
169.969841
 20
93.36431899999999
 30
0.0
 11
169.969841
 21
102.364319
 31
0.0
  0
LINE
  5
C1E4
330
BEEE
100
AcDbEntity
  8
1
  6
Continuous
100
AcDbLine
 10
186.9468689999999
 20
94.66432199999998
 30
0.0
 11
186.9468689999999
 21
101.064316
 31
0.0
  0
LINE
  5
C1E5
330
BEEE
100
AcDbEntity
  8
1
  6
Continuous
100
AcDbLine
 10
185.8289029999999
 20
93.36431899999999
 30
0.0
 11
185.8289029999999
 21
102.364319
 31
0.0
  0
ARC
  5
C1E6
330
BEEE
100
AcDbEntity
  8
1
  6
Continuous
100
AcDbCircle
 10
183.3266529999999
 20
46.85611
 30
0.0
 40
44.008221
100
AcDbArc
 50
75.344274
 51
96.065996
  0
ARC
  5
C1E7
330
BEEE
100
AcDbEntity
  8
1
  6
Continuous
100
AcDbCircle
 10
183.3266529999999
 20
46.85611
 30
0.0
 40
44.50822099999999
100
AcDbArc
 50
75.344274
 51
96.065996
  0
LINE
  5
C1E8
330
BEEE
100
AcDbEntity
  8
1
  6
Continuous
100
AcDbLine
 10
186.9468689999999
 20
95.57955900000001
 30
0.0
 11
193.1194379999998
 21
95.57955900000001
 31
0.0
  0
LINE
  5
C1E9
330
BEEE
100
AcDbEntity
  8
1
  6
Continuous
100
AcDbLine
 10
171.969841
 20
91.36431899999999
 30
0.0
 11
193.5773089999999
 21
91.36431899999999
 31
0.0
  0
LINE
  5
C1EA
330
BEEE
100
AcDbEntity
  8
1
  6
Continuous
100
AcDbLine
 10
187.9468689999999
 20
93.664322
 30
0.0
 11
193.5773089999999
 21
93.664322
 31
0.0
  0
LINE
  5
C1EB
330
BEEE
100
AcDbEntity
  8
1
  6
Continuous
100
AcDbLine
 10
165.686584
 20
89.23751800000003
 30
0.0
 11
178.676136
 21
90.61790499999998
 31
0.0
  0
LINE
  5
C1EC
330
BEEE
100
AcDbEntity
  8
1
  6
Continuous
100
AcDbLine
 10
165.6600889999999
 20
89.73751799999998
 30
0.0
 11
178.623299
 21
91.11509699999999
 31
0.0
  0
ARC
  5
C1ED
330
BEEE
100
AcDbEntity
  8
1
  6
Continuous
100
AcDbCircle
 10
171.969841
 20
93.36431899999999
 30
0.0
 40
2.0
100
AcDbArc
 50
179.9999909999999
 51
270.000001
  0
ARC
  5
C1EE
330
BEEE
100
AcDbEntity
  8
1
  6
Continuous
100
AcDbCircle
 10
187.8289029999999
 20
93.36431899999999
 30
0.0
 40
2.0
100
AcDbArc
 50
179.9999909999999
 51
270.000001
  0
ARC
  5
C1EF
330
BEEE
100
AcDbEntity
  8
1
  6
Continuous
100
AcDbCircle
 10
187.9468689999999
 20
94.66432199999998
 30
0.0
 40
1.0
100
AcDbArc
 50
179.9999909999999
 51
270.000001
  0
LINE
  5
C1F0
330
BEEE
100
AcDbEntity
  8
1
  6
Continuous
100
AcDbLine
 10
194.5876959999999
 20
89.91618299999997
 30
0.0
 11
194.4611929999999
 21
89.43244900000001
 31
0.0
  0
ARC
  5
C1F1
330
BEEE
100
AcDbEntity
  8
1
  6
Continuous
100
AcDbCircle
 10
193.1194379999998
 20
94.57955899999999
 30
0.0
 40
1.0
100
AcDbArc
 50
308.848884
 51
90.00000300000001
  0
ARC
  5
C1F2
330
BEEE
100
AcDbEntity
  8
1
  6
Continuous
100
AcDbCircle
 10
193.1194379999998
 20
92.27955599999999
 30
0.0
 40
1.0
100
AcDbArc
 50
308.848884
 51
0.0
  0
LINE
  5
C1F3
330
BEEE
100
AcDbEntity
  8
1
  6
Continuous
100
AcDbLine
 10
194.1194379999998
 20
92.27955599999999
 30
0.0
 11
194.1194379999998
 21
94.57955899999999
 31
0.0
  0
LINE
  5
C1F4
330
BEEE
100
AcDbEntity
  8
1
  6
Continuous
100
AcDbLine
 10
193.7467159999999
 20
91.500763
 30
0.0
 11
193.577316
 21
91.36431899999999
 31
0.0
  0
LINE
  5
C1F5
330
BEEE
100
AcDbEntity
  8
1
  6
Continuous
100
AcDbLine
 10
193.7467119999998
 20
93.800766
 30
0.0
 11
193.577312
 21
93.664322
 31
0.0
  0
ARC
  5
C1F6
330
BEEE
100
AcDbEntity
  8
1
  6
Continuous
100
AcDbCircle
 10
191.4673999999999
 20
109.253693
 30
0.0
 40
6.110624999999997
100
AcDbArc
 50
39.851241
 51
90.00000300000001
  0
ARC
  5
C1F7
330
BEEE
100
AcDbEntity
  8
1
  6
Continuous
100
AcDbCircle
 10
190.2415849999999
 20
109.253693
 30
0.0
 40
6.110624999999997
100
AcDbArc
 50
39.851241
 51
140.148761
  0
LINE
  5
C1F8
330
BEEE
100
AcDbEntity
  8
1
  6
Continuous
100
AcDbLine
 10
187.9468689999999
 20
102.064316
 30
0.0
 11
196.353569
 21
102.064316
 31
0.0
  0
LINE
  5
C1F9
330
BEEE
100
AcDbEntity
  8
1
  6
Continuous
100
AcDbLine
 10
171.969841
 20
104.364319
 30
0.0
 11
196.127754
 21
104.364319
 31
0.0
  0
ARC
  5
C1FA
330
BEEE
100
AcDbEntity
  8
1
  6
Continuous
100
AcDbCircle
 10
171.969841
 20
102.364319
 30
0.0
 40
2.0
100
AcDbArc
 50
90.00000300000001
 51
180.000005
  0
ARC
  5
C1FB
330
BEEE
100
AcDbEntity
  8
1
  6
Continuous
100
AcDbCircle
 10
192.804672
 20
107.1143189999999
 30
0.0
 40
9.449244
100
AcDbArc
 50
140.148761
 51
180.000005
  0
LINE
  5
C1FC
330
BEEE
100
AcDbEntity
  8
1
  6
Continuous
100
AcDbLine
 10
183.355431
 20
104.364319
 30
0.0
 11
183.355431
 21
107.1143189999999
 31
0.0
  0
ARC
  5
C1FD
330
BEEE
100
AcDbEntity
  8
1
  6
Continuous
100
AcDbCircle
 10
187.9468689999999
 20
101.064316
 30
0.0
 40
1.0
100
AcDbArc
 50
90.00000300000001
 51
180.000005
  0
ARC
  5
C1FE
330
BEEE
100
AcDbEntity
  8
1
  6
Continuous
100
AcDbCircle
 10
187.8289029999999
 20
102.364319
 30
0.0
 40
2.0
100
AcDbArc
 50
90.00000300000001
 51
180.000005
  0
LINE
  5
C1FF
330
BEEE
100
AcDbEntity
  8
1
  6
Continuous
100
AcDbLine
 10
198.353573
 20
104.064316
 30
0.0
 11
198.353573
 21
107.1143189999999
 31
0.0
  0
LINE
  5
C200
330
BEEE
100
AcDbEntity
  8
1
  6
Continuous
100
AcDbLine
 10
197.12775
 20
105.364319
 30
0.0
 11
197.12775
 21
107.1143189999999
 31
0.0
  0
ARC
  5
C201
330
BEEE
100
AcDbEntity
  8
1
  6
Continuous
100
AcDbCircle
 10
196.127754
 20
105.364319
 30
0.0
 40
1.0
100
AcDbArc
 50
269.9999969999999
 51
0.0
  0
ARC
  5
C202
330
BEEE
100
AcDbEntity
  8
1
  6
Continuous
100
AcDbCircle
 10
196.353569
 20
104.064316
 30
0.0
 40
2.0
100
AcDbArc
 50
269.9999969999999
 51
0.0
  0
ARC
  5
C203
330
BEEE
100
AcDbEntity
  8
1
  6
Continuous
100
AcDbCircle
 10
187.6784899999999
 20
107.1143189999999
 30
0.0
 40
9.449244
100
AcDbArc
 50
0.0
 51
39.851241
  0
ARC
  5
C204
330
BEEE
100
AcDbEntity
  8
1
  6
Continuous
100
AcDbCircle
 10
188.904312
 20
107.1143189999999
 30
0.0
 40
9.449244
100
AcDbArc
 50
0.0
 51
39.851241
  0
LINE
  5
C205
330
BEEE
100
AcDbEntity
  8
1
  6
Continuous
100
AcDbLine
 10
198.353573
 20
159.7392179999999
 30
0.0
 11
185.828901
 21
139.848704
 31
0.0
  0
LINE
  5
C206
330
BEEE
100
AcDbEntity
  8
1
  6
Continuous
100
AcDbLine
 10
183.3145659999999
 20
166.9063839999998
 30
0.0
 11
197.12775
 21
157.7924879999999
 31
0.0
  0
LINE
  5
C207
330
BEEE
100
AcDbEntity
  8
1
  6
Continuous
100
AcDbLine
 10
184.581232
 20
168.826168
 30
0.0
 11
198.353573
 21
159.7392209999999
 31
0.0
  0
ARC
  5
C208
330
BEEE
100
AcDbEntity
  8
1
  6
Continuous
100
AcDbCircle
 10
176.098656
 20
160.0042249999999
 30
0.0
 40
17.642815
100
AcDbArc
 50
260.994776
 51
286.0543159999998
  0
LINE
  5
C209
330
BEEE
100
AcDbEntity
  8
1
  6
Continuous
100
AcDbLine
 10
169.9698419999998
 20
150.3124629999998
 30
0.0
 11
185.828901
 21
139.8487059999999
 31
0.0
  0
ARC
  5
C20A
330
BEEE
100
AcDbEntity
  8
1
  6
Continuous
100
AcDbCircle
 10
169.8558959999998
 20
154.259047
 30
0.0
 40
1.268591
100
AcDbArc
 50
326.583299
 51
72.65250999999998
  0
ARC
  5
C20B
330
BEEE
100
AcDbEntity
  8
1
  6
Continuous
100
AcDbCircle
 10
178.7311709999999
 20
176.615458
 30
0.0
 40
34.461349
100
AcDbArc
 50
241.252039
 51
260.994776
  0
ARC
  5
C20C
330
BEEE
100
AcDbEntity
  8
1
  6
Continuous
100
AcDbCircle
 10
170.5205689999999
 20
151.147147
 30
0.0
 40
1.0
100
AcDbArc
 50
146.5833039999999
 51
236.5833
  0
LINE
  5
C20D
330
BEEE
100
AcDbEntity
  8
1
  6
Continuous
100
AcDbLine
 10
169.685879
 20
151.6978749999998
 30
0.0
 11
170.9161039999998
 21
153.5624259999998
 31
0.0
  0
LINE
  5
C20E
330
BEEE
100
AcDbEntity
  8
1
  6
Continuous
100
AcDbLine
 10
184.581232
 20
168.826168
 30
0.0
 11
183.3145659999999
 21
166.9063839999998
 31
0.0
  0
ARC
  5
C20F
330
BEEE
100
AcDbEntity
  8
1
  6
Continuous
100
AcDbCircle
 10
182.8972239999999
 20
167.1817459999998
 30
0.0
 40
0.5
100
AcDbArc
 50
218.913823
 51
326.583299
  0
ARC
  5
C210
330
BEEE
100
AcDbEntity
  8
1
  6
Continuous
100
AcDbCircle
 10
272.8856809999999
 20
171.396071
 30
0.0
 40
13.60358299999999
100
AcDbArc
 50
241.1573589999999
 51
269.9999969999999
  0
ARC
  5
C211
330
BEEE
100
AcDbEntity
  8
1
  6
Continuous
100
AcDbCircle
 10
272.8856809999999
 20
173.3428029999998
 30
0.0
 40
13.60358299999999
100
AcDbArc
 50
241.1573589999999
 51
269.9999969999999
  0
ARC
  5
C212
330
BEEE
100
AcDbEntity
  8
1
  6
Continuous
100
AcDbCircle
 10
272.8856809999999
 20
155.222586
 30
0.0
 40
13.60358299999999
100
AcDbArc
 50
90.00000300000001
 51
118.8426409999999
  0
ARC
  5
C213
330
BEEE
100
AcDbEntity
  8
1
  6
Continuous
100
AcDbCircle
 10
267.896057
 20
162.3359589999998
 30
0.0
 40
3.260378999999999
100
AcDbArc
 50
179.9999909999999
 51
241.1573689999999
  0
ARC
  5
C214
330
BEEE
100
AcDbEntity
  8
1
  6
Continuous
100
AcDbCircle
 10
267.896057
 20
164.282691
 30
0.0
 40
3.260378999999999
100
AcDbArc
 50
118.8426409999999
 51
241.1573689999999
  0
LINE
  5
C215
330
BEEE
100
AcDbEntity
  8
1
  6
Continuous
100
AcDbLine
 10
264.6356809999999
 20
164.282691
 30
0.0
 11
264.6356809999999
 21
162.3359589999998
 31
0.0
  0
LINE
  5
C216
330
BEEE
100
AcDbEntity
  8
1
  6
Continuous
100
AcDbLine
 10
277.935677
 20
166.8261709999999
 30
0.0
 11
277.935677
 21
142.7635559999998
 31
0.0
  0
LINE
  5
C217
330
BEEE
100
AcDbEntity
  8
1
  6
Continuous
100
AcDbLine
 10
275.6356809999999
 20
156.7924869999999
 30
0.0
 11
275.6356809999999
 21
141.0969
 31
0.0
  0
ARC
  5
C218
330
BEEE
100
AcDbEntity
  8
1
  6
Continuous
100
AcDbCircle
 10
281.4356769999998
 20
152.444159
 30
0.0
 40
1.0
100
AcDbArc
 50
90.00000300000001
 51
180.000005
  0
LINE
  5
C219
330
BEEE
100
AcDbEntity
  8
1
  6
Continuous
100
AcDbLine
 10
280.435677
 20
153.444159
 30
0.0
 11
280.435677
 21
150.312461
 31
0.0
  0
LINE
  5
C21A
330
BEEE
100
AcDbEntity
  8
1
  6
Continuous
100
AcDbLine
 10
272.8856809999999
 20
157.7924869999999
 30
0.0
 11
274.6356809999999
 21
157.7924869999999
 31
0.0
  0
LINE
  5
C21B
330
BEEE
100
AcDbEntity
  8
1
  6
Continuous
100
AcDbLine
 10
275.935677
 20
168.8261709999999
 30
0.0
 11
272.8856809999999
 21
168.8261709999999
 31
0.0
  0
LINE
  5
C21C
330
BEEE
100
AcDbEntity
  8
1
  6
Continuous
100
AcDbLine
 10
272.8856809999999
 20
159.7392179999999
 30
0.0
 11
275.935677
 21
159.7392179999999
 31
0.0
  0
ARC
  5
C21D
330
BEEE
100
AcDbEntity
  8
1
  6
Continuous
100
AcDbCircle
 10
275.935677
 20
157.7392179999999
 30
0.0
 40
2.0
100
AcDbArc
 50
0.0
 51
90.00000300000001
  0
ARC
  5
C21E
330
BEEE
100
AcDbEntity
  8
1
  6
Continuous
100
AcDbCircle
 10
274.6356809999999
 20
156.7924869999999
 30
0.0
 40
1.0
100
AcDbArc
 50
0.0
 51
90.00000300000001
  0
ARC
  5
C21F
330
BEEE
100
AcDbEntity
  8
1
  6
Continuous
100
AcDbCircle
 10
275.935677
 20
166.8261709999999
 30
0.0
 40
2.0
100
AcDbArc
 50
0.0
 51
90.00000300000001
  0
ARC
  5
C220
330
BEEE
100
AcDbEntity
  8
1
  6
Continuous
100
AcDbCircle
 10
303.9853669999998
 20
160.743796
 30
0.0
 40
19.62895799999998
100
AcDbArc
 50
179.9999909999999
 51
205.951377
  0
ARC
  5
C221
330
BEEE
100
AcDbEntity
  8
1
  6
Continuous
100
AcDbCircle
 10
303.9853669999998
 20
160.743796
 30
0.0
 40
17.349686
100
AcDbArc
 50
179.9999909999999
 51
207.782401
  0
LINE
  5
C222
330
BEEE
100
AcDbEntity
  8
1
  6
Continuous
100
AcDbLine
 10
288.6356809999999
 20
159.0913229999999
 30
0.0
 11
288.6356809999999
 21
141.096877
 31
0.0
  0
LINE
  5
C223
330
BEEE
100
AcDbEntity
  8
1
  6
Continuous
100
AcDbLine
 10
286.3356779999999
 20
152.153998
 30
0.0
 11
286.3356779999999
 21
142.7635709999998
 31
0.0
  0
ARC
  5
C224
330
BEEE
100
AcDbEntity
  8
1
  6
Continuous
100
AcDbCircle
 10
283.335686
 20
152.444159
 30
0.0
 40
1.0
100
AcDbArc
 50
0.0
 51
90.00000300000001
  0
LINE
  5
C225
330
BEEE
100
AcDbEntity
  8
1
  6
Continuous
100
AcDbLine
 10
284.335686
 20
153.444159
 30
0.0
 11
284.335686
 21
150.312461
 31
0.0
  0
LINE
  5
C226
330
BEEE
100
AcDbEntity
  8
1
  6
Continuous
100
AcDbLine
 10
290.091019
 20
142.361411
 30
0.0
 11
290.591019
 21
142.361411
 31
0.0
  0
ARC
  5
C227
330
BEEE
100
AcDbEntity
  8
1
  6
Continuous
100
AcDbCircle
 10
288.091019
 20
156.802962
 30
0.0
 40
2.0
100
AcDbArc
 50
0.0
 51
44.84906399999998
  0
ARC
  5
C228
330
BEEE
100
AcDbEntity
  8
1
  6
Continuous
100
AcDbCircle
 10
298.000946
 20
168.683882
 30
0.0
 40
13.404729
100
AcDbArc
 50
192.415804
 51
224.8490659999999
  0
LINE
  5
C229
330
BEEE
100
AcDbEntity
  8
1
  6
Continuous
100
AcDbLine
 10
285.356415
 20
161.743796
 30
0.0
 11
286.532639
 21
161.743796
 31
0.0
  0
ARC
  5
C22A
330
BEEE
100
AcDbEntity
  8
1
  6
Continuous
100
AcDbCircle
 10
285.356415
 20
160.743796
 30
0.0
 40
1.0
100
AcDbArc
 50
90.00000300000001
 51
180.000005
  0
ARC
  5
C22B
330
BEEE
100
AcDbEntity
  8
1
  6
Continuous
100
AcDbCircle
 10
287.6356809999998
 20
160.743796
 30
0.0
 40
1.0
100
AcDbArc
 50
145.7614689999998
 51
180.000005
  0
LINE
  5
C22C
330
BEEE
100
AcDbEntity
  8
1
  6
Continuous
100
AcDbLine
 10
288.497437
 20
159.2303
 30
0.0
 11
289.508942
 21
158.2134419999999
 31
0.0
  0
LINE
  5
C22D
330
BEEE
100
AcDbEntity
  8
1
  6
Continuous
100
AcDbLine
 10
282.0
 20
202.144976
 30
0.0
 11
277.2793199999999
 21
202.144976
 31
0.0
  0
LINE
  5
C22E
330
BEEE
100
AcDbEntity
  8
1
  6
Continuous
100
AcDbLine
 10
277.2793199999999
 20
191.111296
 30
0.0
 11
282.0
 21
191.111296
 31
0.0
  0
LINE
  5
C22F
330
BEEE
100
AcDbEntity
  8
1
  6
Continuous
100
AcDbLine
 10
277.2793199999999
 20
193.058028
 30
0.0
 11
282.0
 21
193.058028
 31
0.0
  0
ARC
  5
C230
330
BEEE
100
AcDbEntity
  8
1
  6
Continuous
100
AcDbCircle
 10
122.93158
 20
153.8988789999999
 30
0.0
 40
51.749001
100
AcDbArc
 50
28.752668
 51
34.85473900000001
  0
ARC
  5
C231
330
BEEE
100
AcDbEntity
  8
1
  6
Continuous
100
AcDbCircle
 10
191.467422
 20
255.0026369999999
 30
0.0
 40
6.110624999999997
100
AcDbArc
 50
219.8512389999999
 51
320.1487589999999
  0
ARC
  5
C232
330
BEEE
100
AcDbEntity
  8
1
  6
Continuous
100
AcDbCircle
 10
190.2416
 20
255.0026369999999
 30
0.0
 40
6.110624999999997
100
AcDbArc
 50
219.8512389999999
 51
269.9999969999999
  0
ARC
  5
C233
330
BEEE
100
AcDbEntity
  8
1
  6
Continuous
100
AcDbCircle
 10
194.030518
 20
257.1420109999999
 30
0.0
 40
9.449244
100
AcDbArc
 50
179.9999909999999
 51
219.851235
  0
ARC
  5
C234
330
BEEE
100
AcDbEntity
  8
1
  6
Continuous
100
AcDbCircle
 10
192.804695
 20
257.1420109999999
 30
0.0
 40
9.449244
100
AcDbArc
 50
179.9999909999999
 51
219.851235
  0
LINE
  5
C235
330
BEEE
100
AcDbEntity
  8
1
  6
Continuous
100
AcDbLine
 10
183.355431
 20
258.8920109999999
 30
0.0
 11
183.355431
 21
257.1420109999999
 31
0.0
  0
ARC
  5
C236
330
BEEE
100
AcDbEntity
  8
1
  6
Continuous
100
AcDbCircle
 10
182.355431
 20
258.8920109999999
 30
0.0
 40
1.0
100
AcDbArc
 50
0.0
 51
21.365669
  0
LINE
  5
C237
330
BEEE
100
AcDbEntity
  8
1
  6
Continuous
100
AcDbLine
 10
184.581253
 20
259.25633
 30
0.0
 11
184.581253
 21
257.1420109999999
 31
0.0
  0
LINE
  5
C238
330
BEEE
100
AcDbEntity
  8
1
  6
Continuous
100
AcDbLine
 10
198.353573
 20
259.25633
 30
0.0
 11
198.353573
 21
257.1420109999999
 31
0.0
  0
ARC
  5
C239
330
BEEE
100
AcDbEntity
  8
1
  6
Continuous
100
AcDbCircle
 10
188.9043269999999
 20
257.1420109999999
 30
0.0
 40
9.449244
100
AcDbArc
 50
320.1487589999999
 51
0.0
  0
ARC
  5
C23A
330
BEEE
100
AcDbEntity
  8
1
  6
Continuous
100
AcDbCircle
 10
277.2793199999999
 20
188.5413919999998
 30
0.0
 40
13.60358299999999
100
AcDbArc
 50
90.00000300000001
 51
118.8426409999999
  0
ARC
  5
C23B
330
BEEE
100
AcDbEntity
  8
1
  6
Continuous
100
AcDbCircle
 10
277.2793199999999
 20
206.661608
 30
0.0
 40
13.60358299999999
100
AcDbArc
 50
241.1573589999999
 51
269.9999969999999
  0
ARC
  5
C23C
330
BEEE
100
AcDbEntity
  8
1
  6
Continuous
100
AcDbCircle
 10
277.2793199999999
 20
204.714877
 30
0.0
 40
13.60358299999999
100
AcDbArc
 50
241.1573589999999
 51
269.9999969999999
  0
ARC
  5
C23D
330
BEEE
100
AcDbEntity
  8
1
  6
Continuous
100
AcDbCircle
 10
272.2896959999999
 20
195.6547689999999
 30
0.0
 40
3.260378999999999
100
AcDbArc
 50
179.9999909999999
 51
241.1573689999999
  0
ARC
  5
C23E
330
BEEE
100
AcDbEntity
  8
1
  6
Continuous
100
AcDbCircle
 10
272.2896959999999
 20
197.6014999999999
 30
0.0
 40
3.260378999999999
100
AcDbArc
 50
118.8426409999999
 51
241.1573689999999
  0
LINE
  5
C23F
330
BEEE
100
AcDbEntity
  8
1
  6
Continuous
100
AcDbLine
 10
269.0293199999999
 20
197.6014999999999
 30
0.0
 11
269.0293199999999
 21
195.6547689999999
 31
0.0
  0
ARC
  5
C240
330
BEEE
100
AcDbEntity
  8
1
  6
Continuous
100
AcDbCircle
 10
288.091019
 20
174.740271
 30
0.0
 40
2.0
100
AcDbArc
 50
292.3236719999999
 51
0.0
  0
LINE
  5
C241
330
BEEE
100
AcDbEntity
  8
1
  6
Continuous
100
AcDbLine
 10
288.557068
 20
172.7696039999999
 30
0.0
 11
288.8506929999999
 21
172.8901669999999
 31
0.0
  0
LINE
  5
C242
330
BEEE
100
AcDbEntity
  8
1
  6
Continuous
100
AcDbLine
 10
290.591019
 20
177.0896399999998
 30
0.0
 11
290.091019
 21
177.0896399999998
 31
0.0
  0
LINE
  5
C243
330
BEEE
100
AcDbEntity
  8
1
  6
Continuous
100
AcDbLine
 10
155.0
 20
173.5922669999999
 30
0.0
 11
161.0
 21
177.0563679999999
 31
0.0
  0
LINE
  5
C244
330
BEEE
100
AcDbEntity
  8
1
  6
Continuous
100
AcDbLine
 10
167.0
 20
173.5922669999999
 30
0.0
 11
161.0
 21
177.0563679999999
 31
0.0
  0
LINE
  5
C245
330
BEEE
100
AcDbEntity
  8
1
  6
Continuous
100
AcDbLine
 10
84.88963899999998
 20
177.0563679999999
 30
0.0
 11
85.425537
 21
176.1281649999999
 31
0.0
  0
ARC
  5
C246
330
BEEE
100
AcDbEntity
  8
1
  6
Continuous
100
AcDbCircle
 10
82.35854999999999
 20
175.3243169999999
 30
0.0
 40
3.066986999999998
100
AcDbArc
 50
325.6157529999999
 51
25.615753
  0
ARC
  5
C247
330
BEEE
100
AcDbEntity
  8
1
  6
Continuous
100
AcDbCircle
 10
83.49252400000002
 20
175.3243169999999
 30
0.0
 40
3.066986999999998
100
AcDbArc
 50
198.1855119999999
 51
214.384247
  0
LINE
  5
C248
330
BEEE
100
AcDbEntity
  8
1
  6
Continuous
100
AcDbLine
 10
80.96143499999998
 20
173.5922669999999
 30
0.0
 11
84.88963899999998
 21
173.5922669999999
 31
0.0
  0
LINE
  5
C249
330
BEEE
100
AcDbEntity
  8
1
  6
Continuous
100
AcDbLine
 10
80.96143499999998
 20
166.664063
 30
0.0
 11
84.88963899999998
 21
166.664063
 31
0.0
  0
LINE
  5
C24A
330
BEEE
100
AcDbEntity
  8
1
  6
Continuous
100
AcDbLine
 10
81.23654300000003
 20
163.199962
 30
0.0
 11
84.88963899999998
 21
163.199962
 31
0.0
  0
ARC
  5
C24B
330
BEEE
100
AcDbEntity
  8
1
  6
Continuous
100
AcDbCircle
 10
83.49252400000002
 20
164.9320129999999
 30
0.0
 40
3.066986999999998
100
AcDbArc
 50
145.615753
 51
165.15572
  0
ARC
  5
C24C
330
BEEE
100
AcDbEntity
  8
1
  6
Continuous
100
AcDbCircle
 10
91.889639
 20
170.128165
 30
0.0
 40
11.464102
100
AcDbArc
 50
162.412046
 51
197.5879539999999
  0
ARC
  5
C24D
330
BEEE
100
AcDbEntity
  8
1
  6
Continuous
100
AcDbCircle
 10
82.35854999999999
 20
164.9320129999999
 30
0.0
 40
3.066986999999998
100
AcDbArc
 50
334.384247
 51
34.38424699999998
  0
LINE
  5
C24E
330
BEEE
100
AcDbEntity
  8
1
  6
Continuous
100
AcDbLine
 10
84.88963899999998
 20
163.199962
 30
0.0
 11
85.425537
 21
164.1281649999999
 31
0.0
  0
LINE
  5
C24F
330
BEEE
100
AcDbEntity
  8
1
  6
Continuous
100
AcDbLine
 10
85.425537
 20
176.1281649999999
 30
0.0
 11
85.425537
 21
164.1281649999999
 31
0.0
  0
ARC
  5
C250
330
BEEE
100
AcDbEntity
  8
1
  6
Continuous
100
AcDbCircle
 10
73.96143499999998
 20
170.128165
 30
0.0
 40
11.464102
100
AcDbArc
 50
342.4120459999999
 51
17.587954
  0
LINE
  5
C251
330
BEEE
100
AcDbEntity
  8
1
  6
Continuous
100
AcDbLine
 10
88.42553700000001
 20
167.3281649999998
 30
0.0
 11
87.225537
 21
166.128165
 31
0.0
  0
LINE
  5
C252
330
BEEE
100
AcDbEntity
  8
1
  6
Continuous
100
AcDbLine
 10
88.42553700000001
 20
172.9281649999999
 30
0.0
 11
87.225537
 21
174.1281649999999
 31
0.0
  0
LINE
  5
C253
330
BEEE
100
AcDbEntity
  8
1
  6
Continuous
100
AcDbLine
 10
87.225537
 20
174.1281649999999
 30
0.0
 11
87.225537
 21
166.128165
 31
0.0
  0
LINE
  5
C254
330
BEEE
100
AcDbEntity
  8
2
  6
Continuous
100
AcDbLine
 10
87.90203699999997
 20
166.8046649999998
 30
0.0
 11
85.425537
 21
166.8046649999998
 31
0.0
  0
LINE
  5
C255
330
BEEE
100
AcDbEntity
  8
2
  6
Continuous
100
AcDbLine
 10
87.90203699999997
 20
173.4516649999999
 30
0.0
 11
85.425537
 21
173.4516649999999
 31
0.0
  0
LINE
  5
C256
330
BEEE
100
AcDbEntity
  8
1
  6
Continuous
100
AcDbLine
 10
85.425537
 20
174.1281649999999
 30
0.0
 11
87.225537
 21
174.1281649999999
 31
0.0
  0
LINE
  5
C257
330
BEEE
100
AcDbEntity
  8
1
  6
Continuous
100
AcDbLine
 10
88.42553700000001
 20
172.9281649999999
 30
0.0
 11
88.42553700000001
 21
167.3281649999998
 31
0.0
  0
LINE
  5
C258
330
BEEE
100
AcDbEntity
  8
1
  6
Continuous
100
AcDbLine
 10
85.425537
 20
166.128165
 30
0.0
 11
87.225537
 21
166.128165
 31
0.0
  0
LINE
  5
C259
330
BEEE
100
AcDbEntity
  8
1
  6
Continuous
100
AcDbLine
 10
161.0
 20
163.199962
 30
0.0
 11
155.0
 21
166.664063
 31
0.0
  0
LINE
  5
C25A
330
BEEE
100
AcDbEntity
  8
1
  6
Continuous
100
AcDbLine
 10
161.0
 20
163.199962
 30
0.0
 11
167.0
 21
166.664063
 31
0.0
  0
LINE
  5
C25B
330
BEEE
100
AcDbEntity
  8
1
  6
Continuous
100
AcDbLine
 10
155.0
 20
173.5922669999999
 30
0.0
 11
155.0
 21
166.664063
 31
0.0
  0
LINE
  5
C25C
330
BEEE
100
AcDbEntity
  8
1
  6
Continuous
100
AcDbLine
 10
167.0
 20
173.5922669999999
 30
0.0
 11
167.0
 21
166.664063
 31
0.0
  0
CIRCLE
  5
C25D
330
BEEE
100
AcDbEntity
  8
1
  6
Continuous
100
AcDbCircle
 10
161.0
 20
170.128165
 30
0.0
 40
6.0
  0
CIRCLE
  5
C25E
330
BEEE
100
AcDbEntity
  8
1
  6
Continuous
100
AcDbCircle
 10
161.0
 20
170.128165
 30
0.0
 40
2.799999999999998
  0
CIRCLE
  5
C25F
330
BEEE
100
AcDbEntity
  8
2
  6
Continuous
100
AcDbCircle
 10
161.0
 20
170.128165
 30
0.0
 40
3.3235
  0
CIRCLE
  5
C260
330
BEEE
100
AcDbEntity
  8
1
  6
Continuous
100
AcDbCircle
 10
161.0
 20
170.128165
 30
0.0
 40
4.0
  0
LINE
  5
C261
330
BEEE
100
AcDbEntity
  8
1
  6
Continuous
100
AcDbLine
 10
81.425537
 20
177.0563679999999
 30
0.0
 11
84.88963899999998
 21
177.0563679999999
 31
0.0
  0
CIRCLE
  5
C262
330
BEEE
100
AcDbEntity
  8
1
  6
Continuous
100
AcDbCircle
 10
161.0
 20
170.128165
 30
0.0
 40
7.0
  0
ARC
  5
C263
330
BEEE
100
AcDbEntity
  8
1
  6
Continuous
100
AcDbCircle
 10
155.844278
 20
97.831635
 30
0.0
 40
5.0
100
AcDbArc
 50
241.1891
 51
270.0
  0
ARC
  5
C264
330
BEEE
100
AcDbEntity
  8
1
  6
Continuous
100
AcDbCircle
 10
162.969841
 20
100.8316349999999
 30
0.0
 40
8.0
100
AcDbArc
 50
270.0
 51
331.0449759999999
  0
LINE
  5
C265
330
BEEE
100
AcDbEntity
  8
1
  6
Continuous
100
AcDbLine
 10
83.56432299999999
 20
153.444159
 30
0.0
 11
83.56432299999999
 21
151.312461
 31
0.0
  0
LINE
  5
C266
330
BEEE
100
AcDbEntity
  8
1
  6
Continuous
100
AcDbLine
 10
79.66431400000002
 20
153.444159
 30
0.0
 11
79.66431400000002
 21
151.312461
 31
0.0
  0
ARC
  5
C267
330
BEEE
100
AcDbEntity
  8
1
  6
Continuous
100
AcDbCircle
 10
84.56432300000001
 20
151.312461
 30
0.0
 40
1.0
100
AcDbArc
 50
180.0
 51
270.0
  0
ARC
  5
C268
330
BEEE
100
AcDbEntity
  8
1
  6
Continuous
100
AcDbCircle
 10
78.664314
 20
151.312461
 30
0.0
 40
1.0
100
AcDbArc
 50
270.0
 51
0.0
  0
LINE
  5
C269
330
BEEE
100
AcDbEntity
  8
1
  6
Continuous
100
AcDbLine
 10
79.66431400000002
 20
152.656844
 30
0.0
 11
78.664322
 21
152.656844
 31
0.0
  0
LINE
  5
C26A
330
BEEE
100
AcDbEntity
  8
1
  6
Continuous
100
AcDbLine
 10
84.56432300000001
 20
150.312461
 30
0.0
 11
86.36431899999998
 21
150.312461
 31
0.0
  0
ARC
  5
C26B
330
BEEE
100
AcDbEntity
  8
1
  6
Continuous
100
AcDbCircle
 10
74.73751800000002
 20
191.091876
 30
0.0
 40
1.0
100
AcDbArc
 50
180.0
 51
270.0
  0
ARC
  5
C26C
330
BEEE
100
AcDbEntity
  8
1
  6
Continuous
100
AcDbCircle
 10
74.800003
 20
189.091876
 30
0.0
 40
1.0
100
AcDbArc
 50
0.0
 51
90.0
  0
LINE
  5
C26D
330
BEEE
100
AcDbEntity
  8
1
  6
Continuous
100
AcDbLine
 10
169.4698409999998
 20
91.254273
 30
0.0
 11
169.4698409999998
 21
93.860042
 31
0.0
  0
LINE
  5
C26E
330
BEEE
100
AcDbEntity
  8
1
  6
Continuous
100
AcDbLine
 10
168.764734
 20
94.316036
 30
0.0
 11
164.1494149999998
 21
92.24005699999999
 31
0.0
  0
ARC
  5
C26F
330
BEEE
100
AcDbEntity
  8
1
  6
Continuous
100
AcDbCircle
 10
168.969841
 20
93.860042
 30
0.0
 40
0.5
100
AcDbArc
 50
0.0
 51
114.2183029999999
  0
ARC
  5
C270
330
BEEE
100
AcDbEntity
  8
1
  6
Continuous
100
AcDbCircle
 10
162.098343
 20
96.80000300000001
 30
0.0
 40
5.0
100
AcDbArc
 50
270.0
 51
294.2183029999998
  0
ARC
  5
C271
330
BEEE
100
AcDbEntity
  8
1
  6
Continuous
100
AcDbCircle
 10
170.4698409999998
 20
91.254273
 30
0.0
 40
1.0
100
AcDbArc
 50
180.0
 51
276.0659609999998
  0
LINE
  5
C272
330
BEEE
100
AcDbEntity
  8
1
  6
Continuous
100
AcDbLine
 10
165.0
 20
92.62265199999999
 30
0.0
 11
165.0
 21
93.09351799999999
 31
0.0
  0
LINE
  5
C273
330
BEEE
100
AcDbEntity
  8
1
  6
Continuous
100
AcDbLine
 10
157.0
 20
91.80000300000001
 30
0.0
 11
157.0
 21
92.83163499999997
 31
0.0
  0
LINE
  5
C274
330
BEEE
100
AcDbEntity
  8
1
  6
Continuous
100
AcDbLine
 10
74.237465
 20
157.2082699999999
 30
0.0
 11
75.47152
 21
158.326624
 31
0.0
  0
ARC
  5
C275
330
BEEE
100
AcDbEntity
  8
1
  6
Continuous
100
AcDbCircle
 10
74.800003
 20
159.067614
 30
0.0
 40
1.0
100
AcDbArc
 50
312.1842299999999
 51
0.0
  0
LINE
  5
C276
330
BEEE
100
AcDbEntity
  8
1
  6
Continuous
100
AcDbLine
 10
73.40898100000003
 20
162.0318519999999
 30
0.0
 11
73.40898100000003
 21
142.361411
 31
0.0
  0
LINE
  5
C277
330
BEEE
100
AcDbEntity
  8
1
  6
Continuous
100
AcDbLine
 10
73.90898100000002
 20
163.263646
 30
0.0
 11
73.90898100000002
 21
142.361411
 31
0.0
  0
LINE
  5
C278
330
BEEE
100
AcDbEntity
  8
1
  6
Continuous
100
AcDbLine
 10
73.90898100000002
 20
142.361411
 30
0.0
 11
73.40898100000003
 21
142.361411
 31
0.0
  0
ARC
  5
C279
330
BEEE
100
AcDbEntity
  8
1
  6
Continuous
100
AcDbCircle
 10
161.0
 20
170.128165
 30
0.0
 40
37.5
100
AcDbArc
 50
157.830764
 51
308.564227
  0
ARC
  5
C27A
330
BEEE
100
AcDbEntity
  8
1
  6
Continuous
100
AcDbCircle
 10
161.0
 20
170.128165
 30
0.0
 40
27.5
100
AcDbArc
 50
196.716149
 51
285.962302
  0
ARC
  5
C27B
330
BEEE
100
AcDbEntity
  8
1
  6
Continuous
100
AcDbCircle
 10
161.0
 20
170.128165
 30
0.0
 40
22.5
100
AcDbArc
 50
199.274958
 51
267.7537709999999
  0
ARC
  5
C27C
330
BEEE
100
AcDbEntity
  8
1
  6
Continuous
100
AcDbCircle
 10
161.0
 20
170.128165
 30
0.0
 40
37.5
100
AcDbArc
 50
4.186929
 51
21.60972000000001
  0
ARC
  5
C27D
330
BEEE
100
AcDbEntity
  8
1
  6
Continuous
100
AcDbCircle
 10
161.0
 20
170.128165
 30
0.0
 40
37.5
100
AcDbArc
 50
345.0850179999998
 51
351.109799
  0
ARC
  5
C27E
330
BEEE
100
AcDbEntity
  8
1
  6
Continuous
100
AcDbCircle
 10
161.0
 20
170.128165
 30
0.0
 40
37.5
100
AcDbArc
 50
319.909714
 51
335.694634
  0
ARC
  5
C27F
330
BEEE
100
AcDbEntity
  8
1
  6
Continuous
100
AcDbCircle
 10
412.773064
 20
168.8868399999998
 30
0.0
 40
8.202799
100
AcDbArc
 50
150.9805939999999
 51
213.722679
  0
ARC
  5
C280
330
BEEE
100
AcDbEntity
  8
1
  6
Continuous
100
AcDbCircle
 10
405.1455149999998
 20
247.091712
 30
0.0
 40
95.98788500000001
100
AcDbArc
 50
319.126864
 51
319.8530959999998
  0
LINE
  5
C281
330
BEEE
100
AcDbEntity
  8
4
  6
CENTER
100
AcDbLine
 10
443.0
 20
127.628165
 30
0.0
 11
443.0
 21
212.628165
 31
0.0
  0
LINE
  5
C282
330
BEEE
100
AcDbEntity
  8
1
  6
Continuous
100
AcDbLine
 10
406.7634199999998
 20
160.476209
 30
0.0
 11
405.646427
 21
159.7392209999999
 31
0.0
  0
LINE
  5
C283
330
BEEE
100
AcDbEntity
  8
1
  6
Continuous
100
AcDbLine
 10
405.646427
 20
159.7392179999999
 30
0.0
 11
408.8238229999998
 21
154.6931759999999
 31
0.0
  0
LINE
  5
C284
330
BEEE
100
AcDbEntity
  8
1
  6
Continuous
100
AcDbLine
 10
419.622818
 20
140.8065459999999
 30
0.0
 11
418.171099
 21
139.8487059999999
 31
0.0
  0
LINE
  5
C285
330
BEEE
100
AcDbEntity
  8
1
  6
Continuous
100
AcDbLine
 10
478.7289429999998
 20
188.7899769999999
 30
0.0
 11
469.917358
 21
202.144976
 31
0.0
  0
ARC
  5
C286
330
BEEE
100
AcDbEntity
  8
1
  6
Continuous
100
AcDbCircle
 10
476.2248839999998
 20
187.1378009999999
 30
0.0
 40
3.0
100
AcDbArc
 50
319.8530859999999
 51
33.416696
  0
LINE
  5
C287
330
BEEE
100
AcDbEntity
  8
1
  6
Continuous
100
AcDbLine
 10
466.129357
 20
199.6456649999998
 30
0.0
 11
469.917358
 21
202.144976
 31
0.0
  0
ARC
  5
C288
330
BEEE
100
AcDbEntity
  8
1
  6
Continuous
100
AcDbCircle
 10
74.90898100000002
 20
156.467281
 30
0.0
 40
1.0
100
AcDbArc
 50
132.18423
 51
180.0
  0
LINE
  5
C289
330
BEEE
100
AcDbEntity
  8
1
  6
Continuous
100
AcDbLine
 10
82.0
 20
191.111296
 30
0.0
 11
82.0
 21
181.771715
 31
0.0
  0
LINE
  5
C28A
330
BEEE
100
AcDbEntity
  8
1
  6
Continuous
100
AcDbLine
 10
276.7744629999999
 20
174.1281649999999
 30
0.0
 11
276.7744629999999
 21
169.534493
 31
0.0
  0
LINE
  5
C28B
330
BEEE
100
AcDbEntity
  8
1
  6
Continuous
100
AcDbLine
 10
275.5744629999999
 20
172.9281649999999
 30
0.0
 11
275.5744629999999
 21
168.8261709999999
 31
0.0
  0
LINE
  5
C28C
330
BEEE
100
AcDbEntity
  8
1
  6
Continuous
100
AcDbLine
 10
278.5744629999999
 20
176.1281649999999
 30
0.0
 11
278.5744629999999
 21
173.74976
 31
0.0
  0
ARC
  5
C28D
330
BEEE
100
AcDbEntity
  8
1
  6
Continuous
100
AcDbCircle
 10
275.9356839999999
 20
166.8261709999999
 30
0.0
 40
2.0
100
AcDbArc
 50
74.301142
 51
89.99999700000001
  0
LINE
  5
C28E
330
BEEE
100
AcDbEntity
  8
2
  6
Continuous
100
AcDbLine
 10
276.097963
 20
173.4516649999999
 30
0.0
 11
278.5744629999999
 21
173.4516649999999
 31
0.0
  0
LINE
  5
C28F
330
BEEE
100
AcDbEntity
  8
1
  6
Continuous
100
AcDbLine
 10
278.5744629999999
 20
174.1281649999999
 30
0.0
 11
276.7744629999999
 21
174.1281649999999
 31
0.0
  0
LINE
  5
C290
330
BEEE
100
AcDbEntity
  8
1
  6
Continuous
100
AcDbLine
 10
275.5744629999999
 20
172.9281649999999
 30
0.0
 11
276.7744629999999
 21
174.1281649999999
 31
0.0
  0
LINE
  5
C291
330
BEEE
100
AcDbEntity
  8
1
  6
Continuous
100
AcDbLine
 10
279.1103609999999
 20
177.0563679999999
 30
0.0
 11
278.5744629999999
 21
176.1281649999999
 31
0.0
  0
ARC
  5
C292
330
BEEE
100
AcDbEntity
  8
1
  6
Continuous
100
AcDbCircle
 10
281.64145
 20
175.3243169999999
 30
0.0
 40
3.066986999999998
100
AcDbArc
 50
154.3842469999999
 51
200.9831489999998
  0
LINE
  5
C293
330
BEEE
100
AcDbEntity
  8
1
  6
Continuous
100
AcDbLine
 10
279.986448
 20
177.0563679999999
 30
0.0
 11
279.1103609999999
 21
177.0563679999999
 31
0.0
  0
LINE
  5
C294
330
BEEE
100
AcDbEntity
  8
1
  6
Continuous
100
AcDbLine
 10
75.800003
 20
164.180583
 30
0.0
 11
75.800003
 21
159.067614
 31
0.0
  0
LINE
  5
C295
330
BEEE
100
AcDbEntity
  8
1
  6
Continuous
100
AcDbLine
 10
157.0
 20
103.225537
 30
0.0
 11
165.0
 21
103.225537
 31
0.0
  0
LINE
  5
C296
330
BEEE
100
AcDbEntity
  8
1
  6
Continuous
100
AcDbLine
 10
158.1999999999998
 20
104.425537
 30
0.0
 11
163.8
 21
104.425537
 31
0.0
  0
LINE
  5
C297
330
BEEE
100
AcDbEntity
  8
1
  6
Continuous
100
AcDbLine
 10
155.0
 20
101.425537
 30
0.0
 11
164.975378
 21
101.425537
 31
0.0
  0
ARC
  5
C298
330
BEEE
100
AcDbEntity
  8
1
  6
Continuous
100
AcDbCircle
 10
161.0
 20
89.96143499999998
 30
0.0
 40
11.464102
100
AcDbArc
 50
75.3451
 51
107.587954
  0
LINE
  5
C299
330
BEEE
100
AcDbEntity
  8
1
  6
Continuous
100
AcDbLine
 10
165.0
 20
101.425537
 30
0.0
 11
165.0
 21
103.225537
 31
0.0
  0
LINE
  5
C29A
330
BEEE
100
AcDbEntity
  8
2
  6
Continuous
100
AcDbLine
 10
164.3234999999999
 20
103.902037
 30
0.0
 11
164.3234999999999
 21
101.425537
 31
0.0
  0
LINE
  5
C29B
330
BEEE
100
AcDbEntity
  8
1
  6
Continuous
100
AcDbLine
 10
163.8
 20
104.425537
 30
0.0
 11
165.0
 21
103.225537
 31
0.0
  0
LINE
  5
C29C
330
BEEE
100
AcDbEntity
  8
1
  6
Continuous
100
AcDbLine
 10
154.071797
 20
97.64266200000001
 30
0.0
 11
154.071797
 21
100.889639
 31
0.0
  0
LINE
  5
C29D
330
BEEE
100
AcDbEntity
  8
2
  6
Continuous
100
AcDbLine
 10
157.6764999999998
 20
103.902037
 30
0.0
 11
157.6764999999998
 21
101.425537
 31
0.0
  0
LINE
  5
C29E
330
BEEE
100
AcDbEntity
  8
1
  6
Continuous
100
AcDbLine
 10
157.0
 20
101.425537
 30
0.0
 11
157.0
 21
103.225537
 31
0.0
  0
LINE
  5
C29F
330
BEEE
100
AcDbEntity
  8
1
  6
Continuous
100
AcDbLine
 10
158.1999999999998
 20
104.425537
 30
0.0
 11
157.0
 21
103.225537
 31
0.0
  0
LINE
  5
C2A0
330
BEEE
100
AcDbEntity
  8
1
  6
Continuous
100
AcDbLine
 10
154.071797
 20
100.889639
 30
0.0
 11
155.0
 21
101.425537
 31
0.0
  0
ARC
  5
C2A1
330
BEEE
100
AcDbEntity
  8
1
  6
Continuous
100
AcDbCircle
 10
155.803848
 20
98.35855
 30
0.0
 40
3.066986999999998
100
AcDbArc
 50
55.61575300000001
 51
115.615753
  0
LINE
  5
C2A2
330
BEEE
100
AcDbEntity
  8
1
  6
Continuous
100
AcDbLine
 10
157.535898
 20
98.84449299999999
 30
0.0
 11
157.535898
 21
100.889639
 31
0.0
  0
ARC
  5
C2A3
330
BEEE
100
AcDbEntity
  8
1
  6
Continuous
100
AcDbCircle
 10
155.803848
 20
265.8977799999998
 30
0.0
 40
3.066986999999998
100
AcDbArc
 50
289.7040029999999
 51
304.384247
  0
LINE
  5
C2A4
330
BEEE
100
AcDbEntity
  8
1
  6
Continuous
100
AcDbLine
 10
154.071797
 20
266.613668
 30
0.0
 11
154.071797
 21
264.846321
 31
0.0
  0
LINE
  5
C2A5
330
BEEE
100
AcDbEntity
  8
1
  6
Continuous
100
AcDbLine
 10
157.535898
 20
265.4118369999998
 30
0.0
 11
157.535898
 21
263.366691
 31
0.0
  0
ARC
  5
C2A6
330
BEEE
100
AcDbEntity
  8
1
  6
Continuous
100
AcDbCircle
 10
161.0
 20
274.294895
 30
0.0
 40
11.464102
100
AcDbArc
 50
252.412046
 51
255.392774
  0
LINE
  5
C2A7
330
BEEE
100
AcDbEntity
  8
1
  6
Continuous
100
AcDbLine
 10
150.0
 20
96.591686
 30
0.0
 11
150.0
 21
99.0
 31
0.0
  0
LINE
  5
C2A8
330
BEEE
100
AcDbEntity
  8
1
  6
Continuous
100
AcDbLine
 10
150.0
 20
91.696871
 30
0.0
 11
150.0
 21
94.27242900000001
 31
0.0
  0
ARC
  5
C2A9
330
BEEE
100
AcDbEntity
  8
1
  6
Continuous
100
AcDbCircle
 10
182.0
 20
73.0
 30
0.0
 40
25.0
100
AcDbArc
 50
118.7642209999999
 51
121.3125189999999
  0
ARC
  5
C2AA
330
BEEE
100
AcDbEntity
  8
1
  6
Continuous
100
AcDbCircle
 10
182.0
 20
73.0
 30
0.0
 40
25.0
100
AcDbArc
 50
64.579581
 51
78.587292
  0
ARC
  5
C2AB
330
BEEE
100
AcDbEntity
  8
1
  6
Continuous
100
AcDbCircle
 10
182.0
 20
73.0
 30
0.0
 40
22.7
100
AcDbArc
 50
121.2715759999999
 51
123.5036
  0
ARC
  5
C2AC
330
BEEE
100
AcDbEntity
  8
1
  6
Continuous
100
AcDbCircle
 10
182.0
 20
73.0
 30
0.0
 40
20.69999999999998
100
AcDbArc
 50
117.480844
 51
123.50973
  0
ARC
  5
C2AD
330
BEEE
100
AcDbEntity
  8
1
  6
Continuous
100
AcDbCircle
 10
182.0
 20
73.0
 30
0.0
 40
20.69999999999998
100
AcDbArc
 50
126.3757779999999
 51
133.158137
  0
ARC
  5
C2AE
330
BEEE
100
AcDbEntity
  8
1
  6
Continuous
100
AcDbCircle
 10
182.0
 20
73.0
 30
0.0
 40
20.69999999999998
100
AcDbArc
 50
56.05522099999999
 51
62.519156
  0
LINE
  5
C2AF
330
BEEE
100
AcDbEntity
  8
1
  6
Continuous
100
AcDbLine
 10
198.353573
 20
105.0
 30
0.0
 11
208.0
 21
105.0
 31
0.0
  0
LINE
  5
C2B0
330
BEEE
100
AcDbEntity
  8
1
  6
Continuous
100
AcDbLine
 10
414.3113529999998
 20
145.9783919999999
 30
0.0
 11
418.171099
 21
139.848704
 31
0.0
  0
ARC
  5
C2B1
330
BEEE
100
AcDbEntity
  8
5
  6
PHANTOM
100
AcDbCircle
 10
453.7642149999999
 20
255.2191819999999
 30
0.0
 40
95.98788500000001
100
AcDbArc
 50
285.726864
 51
286.453096
  0
LINE
  5
C2B2
330
BEEE
100
AcDbEntity
  8
5
  6
PHANTOM
100
AcDbLine
 10
483.1012
 20
166.0398439999999
 30
0.0
 11
483.096537
 21
182.0398439999999
 31
0.0
  0
ARC
  5
C2B3
330
BEEE
100
AcDbEntity
  8
5
  6
PHANTOM
100
AcDbCircle
 10
480.1012
 20
166.0389639999999
 30
0.0
 40
3.0
100
AcDbArc
 50
286.4530859999998
 51
0.016696
  0
LINE
  5
C2B4
330
BEEE
100
AcDbEntity
  8
5
  6
PHANTOM
100
AcDbLine
 10
478.5583099999998
 20
182.0385209999998
 30
0.0
 11
483.096537
 21
182.0398439999999
 31
0.0
  0
LINE
  5
C2B5
330
BEEE
100
AcDbEntity
  8
5
  6
PHANTOM
100
AcDbLine
 10
406.096535
 20
182.0173979999999
 30
0.0
 11
405.9714269999998
 21
176.0556239999999
 31
0.0
  0
LINE
  5
C2B6
330
BEEE
100
AcDbEntity
  8
5
  6
PHANTOM
100
AcDbLine
 10
407.4347529999998
 20
182.01779
 30
0.0
 11
406.0965359999998
 21
182.0174
 31
0.0
  0
LINE
  5
C2B7
330
BEEE
100
AcDbEntity
  8
5
  6
PHANTOM
100
AcDbLine
 10
407.3426229999998
 20
158.517762
 30
0.0
 11
405.603386
 21
158.517255
 31
0.0
  0
ARC
  5
C2B8
330
BEEE
100
AcDbEntity
  8
5
  6
PHANTOM
100
AcDbCircle
 10
123.8987999999998
 20
166.0389639999999
 30
0.0
 40
3.0
100
AcDbArc
 50
179.983304
 51
253.546914
  0
LINE
  5
C2B9
330
BEEE
100
AcDbEntity
  8
5
  6
PHANTOM
100
AcDbLine
 10
127.4869999999999
 20
165.6224689999999
 30
0.0
 11
141.0946459999999
 21
162.320276
 31
0.0
  0
LINE
  5
C2BA
330
BEEE
100
AcDbEntity
  8
5
  6
PHANTOM
100
AcDbLine
 10
136.330862
 20
178.21242
 30
0.0
 11
141.094649
 21
162.320279
 31
0.0
  0
ARC
  5
C2BB
330
BEEE
100
AcDbEntity
  8
5
  6
PHANTOM
100
AcDbCircle
 10
129.860762
 20
175.4042419999999
 30
0.0
 40
10.06566899999999
100
AcDbArc
 50
221.412749
 51
256.3596039999998
  0
LINE
  5
C2BC
330
BEEE
100
AcDbEntity
  8
5
  6
PHANTOM
100
AcDbLine
 10
197.9034649999999
 20
182.0173979999999
 30
0.0
 11
198.396615
 21
158.517254
 31
0.0
  0
ARC
  5
C2BD
330
BEEE
100
AcDbEntity
  8
5
  6
PHANTOM
100
AcDbCircle
 10
140.2331659999999
 20
157.008384
 30
0.0
 40
8.575032999999997
100
AcDbArc
 50
181.2138309999999
 51
15.13168599999999
  0
ARC
  5
C2BE
330
BEEE
100
AcDbEntity
  8
5
  6
PHANTOM
100
AcDbCircle
 10
175.455903
 20
182.045478
 30
0.0
 40
31.752382
100
AcDbArc
 50
225.802553
 51
244.260647
  0
ARC
  5
C2BF
330
BEEE
100
AcDbEntity
  8
5
  6
PHANTOM
100
AcDbCircle
 10
150.2357849999999
 20
255.2191819999999
 30
0.0
 40
95.98788500000001
100
AcDbArc
 50
253.5469040000001
 51
286.052505
  0
ARC
  5
C2C0
330
BEEE
100
AcDbEntity
  8
5
  6
PHANTOM
100
AcDbCircle
 10
179.1781139999999
 20
169.9877349999999
 30
0.0
 40
17.642815
100
AcDbArc
 50
294.394776
 51
319.454316
  0
LINE
  5
C2C1
330
BEEE
100
AcDbEntity
  8
5
  6
PHANTOM
100
AcDbLine
 10
179.396616
 20
158.522793
 30
0.0
 11
198.3966139999998
 21
158.517255
 31
0.0
  0
ARC
  5
C2C2
330
BEEE
100
AcDbEntity
  8
5
  6
PHANTOM
100
AcDbCircle
 10
172.2316999999999
 20
185.3047359999999
 30
0.0
 40
34.461349
100
AcDbArc
 50
274.652039
 51
294.394776
  0
ARC
  5
C2C3
330
BEEE
100
AcDbEntity
  8
5
  6
PHANTOM
100
AcDbCircle
 10
177.1289699999999
 20
161.7548659999999
 30
0.0
 40
1.268591
100
AcDbArc
 50
359.9832989999999
 51
106.05251
  0
ARC
  5
C2C4
330
BEEE
100
AcDbEntity
  8
5
  6
PHANTOM
100
AcDbCircle
 10
179.3969109999999
 20
159.5227919999999
 30
0.0
 40
1.0
100
AcDbArc
 50
179.983304
 51
269.9832999999998
  0
LINE
  5
C2C5
330
BEEE
100
AcDbEntity
  8
5
  6
PHANTOM
100
AcDbLine
 10
178.3969069999999
 20
159.523086
 30
0.0
 11
178.397558
 21
161.754491
 31
0.0
  0
ARC
  5
C2C6
330
BEEE
100
AcDbEntity
  8
5
  6
PHANTOM
100
AcDbCircle
 10
172.924217
 20
176.794249
 30
0.0
 40
25.922735
100
AcDbArc
 50
244.260647
 51
274.652039
  0
ARC
  5
C2C7
330
BEEE
100
AcDbEntity
  8
5
  6
PHANTOM
100
AcDbCircle
 10
139.96112
 20
155.607584
 30
0.0
 40
6.0
100
AcDbArc
 50
129.0671949999999
 51
39.154663
  0
LINE
  5
C2C8
330
BEEE
100
AcDbEntity
  8
5
  6
PHANTOM
100
AcDbLine
 10
131.570282
 20
161.0636
 30
0.0
 11
131.660054
 21
156.826735
 31
0.0
  0
ARC
  5
C2C9
330
BEEE
100
AcDbEntity
  8
5
  6
PHANTOM
100
AcDbCircle
 10
138.15257
 20
135.6232479999998
 30
0.0
 40
51.749001
100
AcDbArc
 50
62.15266800000001
 51
68.254739
  0
ARC
  5
C2CA
330
BEEE
100
AcDbEntity
  8
5
  6
PHANTOM
100
AcDbCircle
 10
166.091509
 20
133.273765
 30
0.0
 40
48.252899
100
AcDbArc
 50
72.31382499999998
 51
107.331231
  0
ARC
  5
C2CB
330
BEEE
100
AcDbEntity
  8
5
  6
PHANTOM
100
AcDbCircle
 10
186.918219
 20
185.7311929999999
 30
0.0
 40
8.202799
100
AcDbArc
 50
333.088296
 51
119.9338389999999
  0
ARC
  5
C2CC
330
BEEE
100
AcDbEntity
  8
5
  6
PHANTOM
100
AcDbCircle
 10
186.918219
 20
185.7311929999999
 30
0.0
 40
6.0
100
AcDbArc
 50
321.7815729999998
 51
139.1216229999998
  0
LINE
  5
C2CD
330
BEEE
100
AcDbEntity
  8
5
  6
PHANTOM
100
AcDbLine
 10
181.4027959999999
 20
179.722207
 30
0.0
 11
197.9517279999998
 21
179.7173819999999
 31
0.0
  0
LINE
  5
C2CE
330
BEEE
100
AcDbEntity
  8
5
  6
PHANTOM
100
AcDbLine
 10
181.4034649999999
 20
182.02221
 30
0.0
 11
197.9034639999999
 21
182.0174
 31
0.0
  0
LINE
  5
C2CF
330
BEEE
100
AcDbEntity
  8
5
  6
PHANTOM
100
AcDbLine
 10
181.4034649999999
 20
182.02221
 30
0.0
 11
181.4027959999999
 21
179.722207
 31
0.0
  0
ARC
  5
C2D0
330
BEEE
100
AcDbEntity
  8
5
  6
PHANTOM
100
AcDbCircle
 10
180.9027979999999
 20
179.722354
 30
0.0
 40
0.5
100
AcDbArc
 50
252.313823
 51
359.9832989999999
  0
LINE
  5
C2D1
330
BEEE
100
AcDbEntity
  8
5
  6
PHANTOM
100
AcDbLine
 10
137.4034639999998
 20
182.035034
 30
0.0
 11
120.9034629999998
 21
182.0398439999999
 31
0.0
  0
LINE
  5
C2D2
330
BEEE
100
AcDbEntity
  8
5
  6
PHANTOM
100
AcDbLine
 10
137.402793
 20
179.7350319999999
 30
0.0
 11
120.902794
 21
179.7398409999999
 31
0.0
  0
ARC
  5
C2D3
330
BEEE
100
AcDbEntity
  8
5
  6
PHANTOM
100
AcDbCircle
 10
147.17606
 20
170.1766059999999
 30
0.0
 40
15.79532099999999
100
AcDbArc
 50
97.32105600000002
 51
128.220661
  0
LINE
  5
C2D4
330
BEEE
100
AcDbEntity
  8
5
  6
PHANTOM
100
AcDbLine
 10
144.5122649999998
 20
179.032963
 30
0.0
 11
138.1025939999998
 21
179.0348299999999
 31
0.0
  0
ARC
  5
C2D5
330
BEEE
100
AcDbEntity
  8
5
  6
PHANTOM
100
AcDbCircle
 10
148.16324
 20
162.4928859999999
 30
0.0
 40
23.5422
100
AcDbArc
 50
88.34478400000001
 51
97.32105600000002
  0
LINE
  5
C2D6
330
BEEE
100
AcDbEntity
  8
5
  6
PHANTOM
100
AcDbLine
 10
149.6991089999999
 20
179.62339
 30
0.0
 11
149.4703499999999
 21
181.4156889999999
 31
0.0
  0
ARC
  5
C2D7
330
BEEE
100
AcDbEntity
  8
5
  6
PHANTOM
100
AcDbCircle
 10
150.1881159999998
 20
179.6858
 30
0.0
 40
0.492976
100
AcDbArc
 50
187.273589
 51
287.8024709999999
  0
LINE
  5
C2D8
330
BEEE
100
AcDbEntity
  8
5
  6
PHANTOM
100
AcDbLine
 10
150.3388329999999
 20
179.216427
 30
0.0
 11
151.7171969999999
 21
179.335911
 31
0.0
  0
LINE
  5
C2D9
330
BEEE
100
AcDbEntity
  8
5
  6
PHANTOM
100
AcDbLine
 10
148.434663
 20
181.946531
 30
0.0
 11
144.902883
 21
180.032846
 31
0.0
  0
ARC
  5
C2DA
330
BEEE
100
AcDbEntity
  8
5
  6
PHANTOM
100
AcDbCircle
 10
144.512382
 20
179.4232909999998
 30
0.0
 40
0.390329
100
AcDbArc
 50
269.9833039999999
 51
359.9832989999999
  0
LINE
  5
C2DB
330
BEEE
100
AcDbEntity
  8
5
  6
PHANTOM
100
AcDbLine
 10
144.9028839999998
 20
180.032848
 30
0.0
 11
144.9027059999998
 21
179.423176
 31
0.0
  0
LINE
  5
C2DC
330
BEEE
100
AcDbEntity
  8
5
  6
PHANTOM
100
AcDbLine
 10
144.9028839999998
 20
180.032848
 30
0.0
 11
144.9027059999998
 21
179.423176
 31
0.0
  0
ARC
  5
C2DD
330
BEEE
100
AcDbEntity
  8
5
  6
PHANTOM
100
AcDbCircle
 10
148.7706929999999
 20
181.3263879999998
 30
0.0
 40
0.7053340000000003
100
AcDbArc
 50
7.273590999999998
 51
118.450936
  0
ARC
  5
C2DE
330
BEEE
100
AcDbEntity
  8
5
  6
PHANTOM
100
AcDbCircle
 10
99.75973899999999
 20
176.4959249999998
 30
0.0
 40
50.0
100
AcDbArc
 50
5.242294
 51
10.98703
  0
ARC
  5
C2DF
330
BEEE
100
AcDbEntity
  8
5
  6
PHANTOM
100
AcDbCircle
 10
146.552411
 20
156.682692
 30
0.0
 40
29.076162
100
AcDbArc
 50
68.25474200000001
 51
85.344791
  0
ARC
  5
C2E0
330
BEEE
100
AcDbEntity
  8
5
  6
PHANTOM
100
AcDbCircle
 10
138.1027939999998
 20
179.734828
 30
0.0
 40
0.7
100
AcDbArc
 50
179.983304
 51
269.9832999999998
  0
LINE
  5
C2E1
330
BEEE
100
AcDbEntity
  8
5
  6
PHANTOM
100
AcDbLine
 10
137.402793
 20
179.7350319999999
 30
0.0
 11
137.4034639999998
 21
182.035034
 31
0.0
  0
LINE
  5
C2E2
330
BEEE
100
AcDbEntity
  8
5
  6
PHANTOM
100
AcDbLine
 10
120.8987999999998
 20
166.0398439999999
 30
0.0
 11
120.9034629999998
 21
182.0398439999999
 31
0.0
  0
LINE
  5
C2E3
330
BEEE
100
AcDbEntity
  8
5
  6
PHANTOM
100
AcDbLine
 10
405.755359
 20
165.759327
 30
0.0
 11
405.603385
 21
158.517254
 31
0.0
  0
LINE
  5
C2E4
330
BEEE
100
AcDbEntity
  8
1
  6
Continuous
100
AcDbLine
 10
140.9688109999999
 20
110.970686
 30
0.0
 11
139.7429959999997
 21
110.970686
 31
0.0
  0
LINE
  5
C2E5
330
BEEE
100
AcDbEntity
  8
1
  6
Continuous
100
AcDbLine
 10
191.4673999999999
 20
115.3643169999998
 30
0.0
 11
190.2415849999999
 21
115.3643169999998
 31
0.0
  0
ARC
  5
C2E6
330
BEEE
100
AcDbEntity
  8
1
  6
Continuous
100
AcDbCircle
 10
76.422852
 20
141.096933
 30
0.0
 40
1.058532999999999
100
AcDbArc
 50
180.003047
 51
187.22098
  0
ARC
  5
C2E7
330
BEEE
100
AcDbEntity
  8
1
  6
Continuous
100
AcDbCircle
 10
76.43688899999998
 20
141.09882
 30
0.0
 40
1.072695999999997
100
AcDbArc
 50
187.2267219999999
 51
194.3612169999999
  0
ARC
  5
C2E8
330
BEEE
100
AcDbEntity
  8
1
  6
Continuous
100
AcDbCircle
 10
76.46349999999998
 20
141.105719
 30
0.0
 40
1.100186
100
AcDbArc
 50
194.3655269999999
 51
201.2565579999999
  0
ARC
  5
C2E9
330
BEEE
100
AcDbEntity
  8
1
  6
Continuous
100
AcDbCircle
 10
76.500241
 20
141.120083
 30
0.0
 40
1.139636
100
AcDbArc
 50
201.259887
 51
207.9449649999999
  0
ARC
  5
C2EA
330
BEEE
100
AcDbEntity
  8
1
  6
Continuous
100
AcDbCircle
 10
76.54425399999998
 20
141.1434739999999
 30
0.0
 40
1.189478
100
AcDbArc
 50
207.946822
 51
214.3741079999998
  0
ARC
  5
C2EB
330
BEEE
100
AcDbEntity
  8
1
  6
Continuous
100
AcDbCircle
 10
76.59214
 20
141.1762439999999
 30
0.0
 40
1.247503999999999
100
AcDbArc
 50
214.37461
 51
220.516195
  0
ARC
  5
C2EC
330
BEEE
100
AcDbEntity
  8
1
  6
Continuous
100
AcDbCircle
 10
76.640462
 20
141.2175169999999
 30
0.0
 40
1.311053
100
AcDbArc
 50
220.515483
 51
226.3317499999998
  0
ARC
  5
C2ED
330
BEEE
100
AcDbEntity
  8
1
  6
Continuous
100
AcDbCircle
 10
76.68631600000002
 20
141.2655219999998
 30
0.0
 40
1.377437999999999
100
AcDbArc
 50
226.330829
 51
231.908668
  0
ARC
  5
C2EE
330
BEEE
100
AcDbEntity
  8
1
  6
Continuous
100
AcDbCircle
 10
76.727889
 20
141.3184949999999
 30
0.0
 40
1.444777
100
AcDbArc
 50
231.907136
 51
237.251652
  0
ARC
  5
C2EF
330
BEEE
100
AcDbEntity
  8
1
  6
Continuous
100
AcDbCircle
 10
76.763025
 20
141.373019
 30
0.0
 40
1.509641
100
AcDbArc
 50
237.249515
 51
242.3308979999999
  0
ARC
  5
C2F0
330
BEEE
100
AcDbEntity
  8
1
  6
Continuous
100
AcDbCircle
 10
76.79101199999998
 20
141.426274
 30
0.0
 40
1.569801999999999
100
AcDbArc
 50
242.328806
 51
247.2156689999999
  0
ARC
  5
C2F1
330
BEEE
100
AcDbEntity
  8
1
  6
Continuous
100
AcDbCircle
 10
76.811796
 20
141.475601
 30
0.0
 40
1.623329
100
AcDbArc
 50
247.2135669999999
 51
251.9395739999999
  0
ARC
  5
C2F2
330
BEEE
100
AcDbEntity
  8
1
  6
Continuous
100
AcDbCircle
 10
76.82583699999998
 20
141.518465
 30
0.0
 40
1.668433999999999
100
AcDbArc
 50
251.937506
 51
256.535996
  0
ARC
  5
C2F3
330
BEEE
100
AcDbEntity
  8
1
  6
Continuous
100
AcDbCircle
 10
76.834096
 20
141.5527029999998
 30
0.0
 40
1.703654
100
AcDbArc
 50
256.533976
 51
261.037522
  0
ARC
  5
C2F4
330
BEEE
100
AcDbEntity
  8
1
  6
Continuous
100
AcDbCircle
 10
76.83792699999997
 20
141.5766159999998
 30
0.0
 40
1.727872
100
AcDbArc
 50
261.035547
 51
265.4758729999999
  0
ARC
  5
C2F5
330
BEEE
100
AcDbEntity
  8
1
  6
Continuous
100
AcDbCircle
 10
76.83896999999999
 20
141.589052
 30
0.0
 40
1.740350999999999
100
AcDbArc
 50
265.4739469999999
 51
269.902474
  0
ARC
  5
C2F6
330
BEEE
100
AcDbEntity
  8
1
  6
Continuous
100
AcDbCircle
 10
86.88964699999997
 20
141.589244
 30
0.0
 40
1.740536999999998
100
AcDbArc
 50
269.999036
 51
274.4032899999999
  0
ARC
  5
C2F7
330
BEEE
100
AcDbEntity
  8
1
  6
Continuous
100
AcDbCircle
 10
86.890646
 20
141.577067
 30
0.0
 40
1.728318999999999
100
AcDbArc
 50
274.4012609999999
 51
278.8708839999998
  0
ARC
  5
C2F8
330
BEEE
100
AcDbEntity
  8
1
  6
Continuous
100
AcDbCircle
 10
86.894407
 20
141.553349
 30
0.0
 40
1.704304
100
AcDbArc
 50
278.868939
 51
283.3690589999998
  0
ARC
  5
C2F9
330
BEEE
100
AcDbEntity
  8
1
  6
Continuous
100
AcDbCircle
 10
86.90255299999998
 20
141.519324
 30
0.0
 40
1.669318
100
AcDbArc
 50
283.3670419999999
 51
287.961504
  0
ARC
  5
C2FA
330
BEEE
100
AcDbEntity
  8
1
  6
Continuous
100
AcDbCircle
 10
86.916454
 20
141.4766349999999
 30
0.0
 40
1.624422
100
AcDbArc
 50
287.959436
 51
292.6812709999999
  0
ARC
  5
C2FB
330
BEEE
100
AcDbEntity
  8
1
  6
Continuous
100
AcDbCircle
 10
86.93708199999996
 20
141.4274269999999
 30
0.0
 40
1.571066
100
AcDbArc
 50
292.679167
 51
297.562031
  0
ARC
  5
C2FC
330
BEEE
100
AcDbEntity
  8
1
  6
Continuous
100
AcDbCircle
 10
86.96491399999997
 20
141.3742229999998
 30
0.0
 40
1.511021999999999
100
AcDbArc
 50
297.559932
 51
302.6376649999999
  0
ARC
  5
C2FD
330
BEEE
100
AcDbEntity
  8
1
  6
Continuous
100
AcDbCircle
 10
86.999829
 20
141.3197999999999
 30
0.0
 40
1.446361999999998
100
AcDbArc
 50
302.635654
 51
307.9412899999999
  0
ARC
  5
C2FE
330
BEEE
100
AcDbEntity
  8
1
  6
Continuous
100
AcDbCircle
 10
87.04102799999999
 20
141.267027
 30
0.0
 40
1.379410999999999
100
AcDbArc
 50
307.9395069999999
 51
313.5034989999998
  0
ARC
  5
C2FF
330
BEEE
100
AcDbEntity
  8
1
  6
Continuous
100
AcDbCircle
 10
87.08698000000003
 20
141.2186539999999
 30
0.0
 40
1.312691999999998
100
AcDbArc
 50
313.5021509999999
 51
319.349606
  0
ARC
  5
C300
330
BEEE
100
AcDbEntity
  8
1
  6
Continuous
100
AcDbCircle
 10
87.13543299999995
 20
141.1770699999999
 30
0.0
 40
1.248841
100
AcDbArc
 50
319.348971
 51
325.4957589999999
  0
ARC
  5
C301
330
BEEE
100
AcDbEntity
  8
1
  6
Continuous
100
AcDbCircle
 10
87.183497
 20
141.1440199999999
 30
0.0
 40
1.190509999999998
100
AcDbArc
 50
325.4961609999999
 51
331.944093
  0
ARC
  5
C302
330
BEEE
100
AcDbEntity
  8
1
  6
Continuous
100
AcDbCircle
 10
87.22784299999998
 20
141.1203459999998
 30
0.0
 40
1.140241
100
AcDbArc
 50
331.9458369999999
 51
338.6775749999998
  0
ARC
  5
C303
330
BEEE
100
AcDbEntity
  8
1
  6
Continuous
100
AcDbCircle
 10
87.26501
 20
141.105771
 30
0.0
 40
1.100317999999999
100
AcDbArc
 50
338.6808439999999
 51
345.655934
  0
ARC
  5
C304
330
BEEE
100
AcDbEntity
  8
1
  6
Continuous
100
AcDbCircle
 10
87.29181700000003
 20
141.098825
 30
0.0
 40
1.072626
100
AcDbArc
 50
345.66066
 51
352.814565
  0
ARC
  5
C305
330
BEEE
100
AcDbEntity
  8
1
  6
Continuous
100
AcDbCircle
 10
87.30583100000002
 20
141.0969519999999
 30
0.0
 40
1.058487999999997
100
AcDbArc
 50
352.8203020000002
 51
0.087132
  0
ARC
  5
C306
330
BEEE
100
AcDbEntity
  8
1
  6
Continuous
100
AcDbCircle
 10
287.16104
 20
141.5892
 30
0.0
 40
1.740499999999999
100
AcDbArc
 50
269.9990349999998
 51
274.4033109999999
  0
ARC
  5
C307
330
BEEE
100
AcDbEntity
  8
1
  6
Continuous
100
AcDbCircle
 10
287.1620399999999
 20
141.5770179999998
 30
0.0
 40
1.728277
100
AcDbArc
 50
274.401282
 51
278.870939
  0
ARC
  5
C308
330
BEEE
100
AcDbEntity
  8
1
  6
Continuous
100
AcDbCircle
 10
287.1658
 20
141.5532969999999
 30
0.0
 40
1.704259999999997
100
AcDbArc
 50
278.8689939999998
 51
283.3691559999999
  0
ARC
  5
C309
330
BEEE
100
AcDbEntity
  8
1
  6
Continuous
100
AcDbCircle
 10
287.173948
 20
141.519271
 30
0.0
 40
1.669272
100
AcDbArc
 50
283.367139
 51
287.96165
  0
ARC
  5
C30A
330
BEEE
100
AcDbEntity
  8
1
  6
Continuous
100
AcDbCircle
 10
287.1878479999999
 20
141.476582
 30
0.0
 40
1.624376999999999
100
AcDbArc
 50
287.9595829999999
 51
292.6814719999999
  0
ARC
  5
C30B
330
BEEE
100
AcDbEntity
  8
1
  6
Continuous
100
AcDbCircle
 10
287.2084759999999
 20
141.427375
 30
0.0
 40
1.571021999999999
100
AcDbArc
 50
292.679368
 51
297.562287
  0
ARC
  5
C30C
330
BEEE
100
AcDbEntity
  8
1
  6
Continuous
100
AcDbCircle
 10
287.2363059999999
 20
141.374174
 30
0.0
 40
1.510980999999999
100
AcDbArc
 50
297.5601879999999
 51
302.6379739999999
  0
ARC
  5
C30D
330
BEEE
100
AcDbEntity
  8
1
  6
Continuous
100
AcDbCircle
 10
287.27122
 20
141.3197549999999
 30
0.0
 40
1.446325
100
AcDbArc
 50
302.6359639999999
 51
307.9416469999999
  0
ARC
  5
C30E
330
BEEE
100
AcDbEntity
  8
1
  6
Continuous
100
AcDbCircle
 10
287.3124159999999
 20
141.266986
 30
0.0
 40
1.379378999999999
100
AcDbArc
 50
307.9398639999999
 51
313.503893
  0
ARC
  5
C30F
330
BEEE
100
AcDbEntity
  8
1
  6
Continuous
100
AcDbCircle
 10
287.358364
 20
141.218617
 30
0.0
 40
1.312664999999998
100
AcDbArc
 50
313.502545
 51
319.3500199999999
  0
ARC
  5
C310
330
BEEE
100
AcDbEntity
  8
1
  6
Continuous
100
AcDbCircle
 10
287.4068129999999
 20
141.177037
 30
0.0
 40
1.24882
100
AcDbArc
 50
319.3493849999999
 51
325.496173
  0
ARC
  5
C311
330
BEEE
100
AcDbEntity
  8
1
  6
Continuous
100
AcDbCircle
 10
287.454873
 20
141.143991
 30
0.0
 40
1.190495999999998
100
AcDbArc
 50
325.496575
 51
331.9444799999998
  0
ARC
  5
C312
330
BEEE
100
AcDbEntity
  8
1
  6
Continuous
100
AcDbCircle
 10
287.4992139999998
 20
141.1203199999999
 30
0.0
 40
1.140230999999998
100
AcDbArc
 50
331.946225
 51
338.677905
  0
ARC
  5
C313
330
BEEE
100
AcDbEntity
  8
1
  6
Continuous
100
AcDbCircle
 10
287.536377
 20
141.105747
 30
0.0
 40
1.100314
100
AcDbArc
 50
338.681175
 51
345.656179
  0
ARC
  5
C314
330
BEEE
100
AcDbEntity
  8
1
  6
Continuous
100
AcDbCircle
 10
287.5631809999998
 20
141.098802
 30
0.0
 40
1.072624999999999
100
AcDbArc
 50
345.6609049999999
 51
352.8147
  0
ARC
  5
C315
330
BEEE
100
AcDbEntity
  8
1
  6
Continuous
100
AcDbCircle
 10
287.5771919999999
 20
141.0969289999999
 30
0.0
 40
1.058489
100
AcDbArc
 50
352.8204359999999
 51
0.087138
  0
ARC
  5
C316
330
BEEE
100
AcDbEntity
  8
1
  6
Continuous
100
AcDbCircle
 10
278.7567199999999
 20
142.7635999999999
 30
0.0
 40
0.8210360000000001
100
AcDbArc
 50
180.0030449999999
 51
187.220869
  0
ARC
  5
C317
330
BEEE
100
AcDbEntity
  8
1
  6
Continuous
100
AcDbCircle
 10
278.7675629999998
 20
142.7650559999999
 30
0.0
 40
0.831976
100
AcDbArc
 50
187.2265219999999
 51
194.310457
  0
ARC
  5
C318
330
BEEE
100
AcDbEntity
  8
1
  6
Continuous
100
AcDbCircle
 10
278.788062
 20
142.7703549999999
 30
0.0
 40
0.8531479999999998
100
AcDbArc
 50
194.3150179999999
 51
201.2072439999998
  0
ARC
  5
C319
330
BEEE
100
AcDbEntity
  8
1
  6
Continuous
100
AcDbCircle
 10
278.816506
 20
142.781448
 30
0.0
 40
0.883679
100
AcDbArc
 50
201.210584
 51
207.897347
  0
ARC
  5
C31A
330
BEEE
100
AcDbEntity
  8
1
  6
Continuous
100
AcDbCircle
 10
278.8506089999998
 20
142.7995359999999
 30
0.0
 40
0.922283
100
AcDbArc
 50
207.8992149999999
 51
214.3284969999999
  0
ARC
  5
C31B
330
BEEE
100
AcDbEntity
  8
1
  6
Continuous
100
AcDbCircle
 10
278.8877359999998
 20
142.8249
 30
0.0
 40
0.9672459999999999
100
AcDbArc
 50
214.329009
 51
220.472729
  0
ARC
  5
C31C
330
BEEE
100
AcDbEntity
  8
1
  6
Continuous
100
AcDbCircle
 10
278.9252189999999
 20
142.856866
 30
0.0
 40
1.016509
100
AcDbArc
 50
220.472021
 51
226.290013
  0
ARC
  5
C31D
330
BEEE
100
AcDbEntity
  8
1
  6
Continuous
100
AcDbCircle
 10
278.9608
 20
142.8940619999999
 30
0.0
 40
1.067981999999998
100
AcDbArc
 50
226.289096
 51
231.868293
  0
ARC
  5
C31E
330
BEEE
100
AcDbEntity
  8
1
  6
Continuous
100
AcDbCircle
 10
278.9930739999999
 20
142.9351259999999
 30
0.0
 40
1.120211
100
AcDbArc
 50
231.8667669999999
 51
237.212872
  0
ARC
  5
C31F
330
BEEE
100
AcDbEntity
  8
1
  6
Continuous
100
AcDbCircle
 10
279.0203639999999
 20
142.9774139999999
 30
0.0
 40
1.170539999999999
100
AcDbArc
 50
237.210738
 51
242.2937399999999
  0
ARC
  5
C320
330
BEEE
100
AcDbEntity
  8
1
  6
Continuous
100
AcDbCircle
 10
279.042114
 20
143.0187349999999
 30
0.0
 40
1.217235999999998
100
AcDbArc
 50
242.291648
 51
247.1798729999999
  0
ARC
  5
C321
330
BEEE
100
AcDbEntity
  8
1
  6
Continuous
100
AcDbCircle
 10
279.0582759999999
 20
143.057026
 30
0.0
 40
1.258797999999998
100
AcDbArc
 50
247.177772
 51
251.904881
  0
ARC
  5
C322
330
BEEE
100
AcDbEntity
  8
1
  6
Continuous
100
AcDbCircle
 10
279.069204
 20
143.0903189999999
 30
0.0
 40
1.293838999999998
100
AcDbArc
 50
251.902813
 51
256.5021479999999
  0
ARC
  5
C323
330
BEEE
100
AcDbEntity
  8
1
  6
Continuous
100
AcDbCircle
 10
279.075641
 20
143.1169339999999
 30
0.0
 40
1.321220999999998
100
AcDbArc
 50
256.5001279999999
 51
261.0042659999999
  0
ARC
  5
C324
330
BEEE
100
AcDbEntity
  8
1
  6
Continuous
100
AcDbCircle
 10
279.078639
 20
143.1355849999999
 30
0.0
 40
1.340111
100
AcDbArc
 50
261.002321
 51
265.479104
  0
ARC
  5
C325
330
BEEE
100
AcDbEntity
  8
1
  6
Continuous
100
AcDbCircle
 10
279.079456
 20
143.1453099999999
 30
0.0
 40
1.349869999999999
100
AcDbArc
 50
265.477077
 51
269.905512
  0
ARC
  5
C326
330
BEEE
100
AcDbEntity
  8
1
  6
Continuous
100
AcDbCircle
 10
276.6942379999999
 20
141.096956
 30
0.0
 40
1.058556999999998
100
AcDbArc
 50
180.0030449999999
 51
187.2209019999999
  0
ARC
  5
C327
330
BEEE
100
AcDbEntity
  8
1
  6
Continuous
100
AcDbCircle
 10
276.708272
 20
141.0988419999999
 30
0.0
 40
1.072716
100
AcDbArc
 50
187.2266449999999
 51
194.3610879999999
  0
ARC
  5
C328
330
BEEE
100
AcDbEntity
  8
1
  6
Continuous
100
AcDbCircle
 10
276.7348789999999
 20
141.1057399999999
 30
0.0
 40
1.100203
100
AcDbArc
 50
194.3653979999998
 51
201.256402
  0
ARC
  5
C329
330
BEEE
100
AcDbEntity
  8
1
  6
Continuous
100
AcDbCircle
 10
276.7716179999998
 20
141.1201029999998
 30
0.0
 40
1.13965
100
AcDbArc
 50
201.259731
 51
207.944803
  0
ARC
  5
C32A
330
BEEE
100
AcDbEntity
  8
1
  6
Continuous
100
AcDbCircle
 10
276.8156289999998
 20
141.143493
 30
0.0
 40
1.189489999999999
100
AcDbArc
 50
207.9466609999998
 51
214.373957
  0
ARC
  5
C32B
330
BEEE
100
AcDbEntity
  8
1
  6
Continuous
100
AcDbCircle
 10
276.863513
 20
141.176262
 30
0.0
 40
1.247512999999998
100
AcDbArc
 50
214.3744599999999
 51
220.516068
  0
ARC
  5
C32C
330
BEEE
100
AcDbEntity
  8
1
  6
Continuous
100
AcDbCircle
 10
276.9118339999999
 20
141.217534
 30
0.0
 40
1.311061
100
AcDbArc
 50
220.5153559999998
 51
226.331651
  0
ARC
  5
C32D
330
BEEE
100
AcDbEntity
  8
1
  6
Continuous
100
AcDbCircle
 10
276.9576879999998
 20
141.2655379999999
 30
0.0
 40
1.377445999999999
100
AcDbArc
 50
226.3307289999999
 51
231.908594
  0
ARC
  5
C32E
330
BEEE
100
AcDbEntity
  8
1
  6
Continuous
100
AcDbCircle
 10
276.999261
 20
141.318511
 30
0.0
 40
1.444784
100
AcDbArc
 50
231.907063
 51
237.251608
  0
ARC
  5
C32F
330
BEEE
100
AcDbEntity
  8
1
  6
Continuous
100
AcDbCircle
 10
277.034397
 20
141.373036
 30
0.0
 40
1.509649999999999
100
AcDbArc
 50
237.249471
 51
242.330884
  0
ARC
  5
C330
330
BEEE
100
AcDbEntity
  8
1
  6
Continuous
100
AcDbCircle
 10
277.062385
 20
141.4262929999999
 30
0.0
 40
1.569812999999999
100
AcDbArc
 50
242.3287919999999
 51
247.2156779999999
  0
ARC
  5
C331
330
BEEE
100
AcDbEntity
  8
1
  6
Continuous
100
AcDbCircle
 10
277.08317
 20
141.4756219999999
 30
0.0
 40
1.623342
100
AcDbArc
 50
247.213577
 51
251.9395999999999
  0
ARC
  5
C332
330
BEEE
100
AcDbEntity
  8
1
  6
Continuous
100
AcDbCircle
 10
277.097212
 20
141.5184889999999
 30
0.0
 40
1.668450999999999
100
AcDbArc
 50
251.9375329999999
 51
256.53603
  0
ARC
  5
C333
330
BEEE
100
AcDbEntity
  8
1
  6
Continuous
100
AcDbCircle
 10
277.105472
 20
141.5527319999999
 30
0.0
 40
1.703675
100
AcDbArc
 50
256.53401
 51
261.037553
  0
ARC
  5
C334
330
BEEE
100
AcDbEntity
  8
1
  6
Continuous
100
AcDbCircle
 10
277.109304
 20
141.576649
 30
0.0
 40
1.727897999999999
100
AcDbArc
 50
261.0355779999998
 51
265.47589
  0
ARC
  5
C335
330
BEEE
100
AcDbEntity
  8
1
  6
Continuous
100
AcDbCircle
 10
277.1103469999999
 20
141.5890899999999
 30
0.0
 40
1.740381999999999
100
AcDbArc
 50
265.473964
 51
269.902464
  0
ARC
  5
C336
330
BEEE
100
AcDbEntity
  8
1
  6
Continuous
100
AcDbCircle
 10
278.572584
 20
151.063509
 30
0.0
 40
0.6369
100
AcDbArc
 50
180.002995
 51
187.1486129999999
  0
ARC
  5
C337
330
BEEE
100
AcDbEntity
  8
1
  6
Continuous
100
AcDbCircle
 10
278.5808149999999
 20
151.064603
 30
0.0
 40
0.645203
100
AcDbArc
 50
187.154081
 51
194.178683
  0
ARC
  5
C338
330
BEEE
100
AcDbEntity
  8
1
  6
Continuous
100
AcDbCircle
 10
278.5965529999999
 20
151.068635
 30
0.0
 40
0.661449
100
AcDbArc
 50
194.183355
 51
201.0787939999999
  0
ARC
  5
C339
330
BEEE
100
AcDbEntity
  8
1
  6
Continuous
100
AcDbCircle
 10
278.6185179999999
 20
151.077144
 30
0.0
 40
0.685004
100
AcDbArc
 50
201.08216
 51
207.773348
  0
ARC
  5
C33A
330
BEEE
100
AcDbEntity
  8
1
  6
Continuous
100
AcDbCircle
 10
278.644909
 20
151.091069
 30
0.0
 40
0.7148439999999999
100
AcDbArc
 50
207.7752439999998
 51
214.2097099999999
  0
ARC
  5
C33B
330
BEEE
100
AcDbEntity
  8
1
  6
Continuous
100
AcDbCircle
 10
278.6736839999999
 20
151.110641
 30
0.0
 40
0.7496450000000002
100
AcDbArc
 50
214.2102449999999
 51
220.3594709999999
  0
ARC
  5
C33C
330
BEEE
100
AcDbEntity
  8
1
  6
Continuous
100
AcDbCircle
 10
278.702561
 20
151.135155
 30
0.0
 40
0.787524
100
AcDbArc
 50
220.357993
 51
226.1186579999999
  0
ARC
  5
C33D
330
BEEE
100
AcDbEntity
  8
1
  6
Continuous
100
AcDbCircle
 10
278.730114
 20
151.163792
 30
0.0
 40
0.8272629999999999
100
AcDbArc
 50
226.118018
 51
231.702655
  0
ARC
  5
C33E
330
BEEE
100
AcDbEntity
  8
1
  6
Continuous
100
AcDbCircle
 10
278.755319
 20
151.195678
 30
0.0
 40
0.867908
100
AcDbArc
 50
231.701346
 51
237.1045089999999
  0
ARC
  5
C33F
330
BEEE
100
AcDbEntity
  8
1
  6
Continuous
100
AcDbCircle
 10
278.776722
 20
151.2286879999998
 30
0.0
 40
0.907249
100
AcDbArc
 50
237.101781
 51
242.1892319999999
  0
ARC
  5
C340
330
BEEE
100
AcDbEntity
  8
1
  6
Continuous
100
AcDbCircle
 10
278.7936849999999
 20
151.2607739999999
 30
0.0
 40
0.9435439999999999
100
AcDbArc
 50
242.187141
 51
247.079112
  0
ARC
  5
C341
330
BEEE
100
AcDbEntity
  8
1
  6
Continuous
100
AcDbCircle
 10
278.8063119999999
 20
151.2905439999999
 30
0.0
 40
0.9758799999999999
100
AcDbArc
 50
247.077011
 51
251.807163
  0
ARC
  5
C342
330
BEEE
100
AcDbEntity
  8
1
  6
Continuous
100
AcDbCircle
 10
278.8148699999999
 20
151.3164659999999
 30
0.0
 40
1.003179
100
AcDbArc
 50
251.805094
 51
256.4067799999999
  0
ARC
  5
C343
330
BEEE
100
AcDbEntity
  8
1
  6
Continuous
100
AcDbCircle
 10
278.819928
 20
151.337232
 30
0.0
 40
1.024551999999999
100
AcDbArc
 50
256.4047579999999
 51
260.9105739999999
  0
ARC
  5
C344
330
BEEE
100
AcDbEntity
  8
1
  6
Continuous
100
AcDbCircle
 10
278.822311
 20
151.351921
 30
0.0
 40
1.039433
100
AcDbArc
 50
260.9087629999998
 51
265.4371729999999
  0
ARC
  5
C345
330
BEEE
100
AcDbEntity
  8
1
  6
Continuous
100
AcDbCircle
 10
278.8229609999999
 20
151.35958
 30
0.0
 40
1.04712
100
AcDbArc
 50
265.4350949999999
 51
269.8643979999999
  0
ARC
  5
C346
330
BEEE
100
AcDbEntity
  8
1
  6
Continuous
100
AcDbCircle
 10
285.1918859999999
 20
143.145491
 30
0.0
 40
1.350052
100
AcDbArc
 50
269.99907
 51
274.3638649999999
  0
ARC
  5
C347
330
BEEE
100
AcDbEntity
  8
1
  6
Continuous
100
AcDbCircle
 10
285.192648
 20
143.136133
 30
0.0
 40
1.340662999999999
100
AcDbArc
 50
274.36183
 51
278.8304259999998
  0
ARC
  5
C348
330
BEEE
100
AcDbEntity
  8
1
  6
Continuous
100
AcDbCircle
 10
285.1955399999998
 20
143.1178089999999
 30
0.0
 40
1.322112
100
AcDbArc
 50
278.8284799999999
 51
283.327893
  0
ARC
  5
C349
330
BEEE
100
AcDbEntity
  8
1
  6
Continuous
100
AcDbCircle
 10
285.2018239999999
 20
143.0914809999999
 30
0.0
 40
1.295044
100
AcDbArc
 50
283.325877
 51
287.919353
  0
ARC
  5
C34A
330
BEEE
100
AcDbEntity
  8
1
  6
Continuous
100
AcDbCircle
 10
285.2125629999998
 20
143.05842
 30
0.0
 40
1.260283
100
AcDbArc
 50
287.917287
 51
292.63785
  0
ARC
  5
C34B
330
BEEE
100
AcDbEntity
  8
1
  6
Continuous
100
AcDbCircle
 10
285.228514
 20
143.0202879999999
 30
0.0
 40
1.218949
100
AcDbArc
 50
292.6357469999999
 51
297.517046
  0
ARC
  5
C34C
330
BEEE
100
AcDbEntity
  8
1
  6
Continuous
100
AcDbCircle
 10
285.25005
 20
142.9790389999998
 30
0.0
 40
1.172415999999999
100
AcDbArc
 50
297.514947
 51
302.590822
  0
ARC
  5
C34D
330
BEEE
100
AcDbEntity
  8
1
  6
Continuous
100
AcDbCircle
 10
285.277084
 20
142.936825
 30
0.0
 40
1.122287999999999
100
AcDbArc
 50
302.58881
 51
307.8923029999999
  0
ARC
  5
C34E
330
BEEE
100
AcDbEntity
  8
1
  6
Continuous
100
AcDbCircle
 10
285.3089989999999
 20
142.8958719999999
 30
0.0
 40
1.070367999999998
100
AcDbArc
 50
307.890517
 51
313.45211
  0
ARC
  5
C34F
330
BEEE
100
AcDbEntity
  8
1
  6
Continuous
100
AcDbCircle
 10
285.344613
 20
142.858315
 30
0.0
 40
1.01861
100
AcDbArc
 50
313.450758
 51
319.295615
  0
ARC
  5
C350
330
BEEE
100
AcDbEntity
  8
1
  6
Continuous
100
AcDbCircle
 10
285.382183
 20
142.826008
 30
0.0
 40
0.969059
100
AcDbArc
 50
319.294972
 51
325.4390599999999
  0
ARC
  5
C351
330
BEEE
100
AcDbEntity
  8
1
  6
Continuous
100
AcDbCircle
 10
285.419474
 20
142.800313
 30
0.0
 40
0.9237729999999999
100
AcDbArc
 50
325.439452
 51
331.884721
  0
ARC
  5
C352
330
BEEE
100
AcDbEntity
  8
1
  6
Continuous
100
AcDbCircle
 10
285.453904
 20
142.781887
 30
0.0
 40
0.8847219999999998
100
AcDbArc
 50
331.8864529999999
 51
338.6157509999998
  0
ARC
  5
C353
330
BEEE
100
AcDbEntity
  8
1
  6
Continuous
100
AcDbCircle
 10
285.4827890000001
 20
142.7705239999999
 30
0.0
 40
0.853683
100
AcDbArc
 50
338.619007
 51
345.5920909999999
  0
ARC
  5
C354
330
BEEE
100
AcDbEntity
  8
1
  6
Continuous
100
AcDbCircle
 10
285.5036589999999
 20
142.7650919999998
 30
0.0
 40
0.832118
100
AcDbArc
 50
345.596805
 51
352.749344
  0
ARC
  5
C355
330
BEEE
100
AcDbEntity
  8
1
  6
Continuous
100
AcDbCircle
 10
285.5146159999998
 20
142.7636149999998
 30
0.0
 40
0.821062
100
AcDbArc
 50
352.755083
 51
359.996972
  0
ARC
  5
C356
330
BEEE
100
AcDbEntity
  8
1
  6
Continuous
100
AcDbCircle
 10
285.448412
 20
151.359704
 30
0.0
 40
1.047250999999999
100
AcDbArc
 50
269.999071
 51
274.3639289999999
  0
ARC
  5
C357
330
BEEE
100
AcDbEntity
  8
1
  6
Continuous
100
AcDbCircle
 10
285.449003
 20
151.352448
 30
0.0
 40
1.039970999999998
100
AcDbArc
 50
274.361894
 51
278.830549
  0
ARC
  5
C358
330
BEEE
100
AcDbEntity
  8
1
  6
Continuous
100
AcDbCircle
 10
285.4512459999999
 20
151.338236
 30
0.0
 40
1.025582999999999
100
AcDbArc
 50
278.828603
 51
283.32807
  0
ARC
  5
C359
330
BEEE
100
AcDbEntity
  8
1
  6
Continuous
100
AcDbCircle
 10
285.45612
 20
151.3178149999999
 30
0.0
 40
1.004588999999999
100
AcDbArc
 50
283.3260539999999
 51
287.919573
  0
ARC
  5
C35A
330
BEEE
100
AcDbEntity
  8
1
  6
Continuous
100
AcDbCircle
 10
285.464449
 20
151.292172
 30
0.0
 40
0.977627
100
AcDbArc
 50
287.917506
 51
292.638099
  0
ARC
  5
C35B
330
BEEE
100
AcDbEntity
  8
1
  6
Continuous
100
AcDbCircle
 10
285.476822
 20
151.262595
 30
0.0
 40
0.9455659999999999
100
AcDbArc
 50
292.6359959999999
 51
297.517311
  0
ARC
  5
C35C
330
BEEE
100
AcDbEntity
  8
1
  6
Continuous
100
AcDbCircle
 10
285.493527
 20
151.230599
 30
0.0
 40
0.9094719999999998
100
AcDbArc
 50
297.515212
 51
302.591088
  0
ARC
  5
C35D
330
BEEE
100
AcDbEntity
  8
1
  6
Continuous
100
AcDbCircle
 10
285.5144969999999
 20
151.197856
 30
0.0
 40
0.870589
100
AcDbArc
 50
302.5890769999999
 51
307.892557
  0
ARC
  5
C35E
330
BEEE
100
AcDbEntity
  8
1
  6
Continuous
100
AcDbCircle
 10
285.5392529999999
 20
151.1660889999998
 30
0.0
 40
0.8303149999999998
100
AcDbArc
 50
307.8907709999999
 51
313.452338
  0
ARC
  5
C35F
330
BEEE
100
AcDbEntity
  8
1
  6
Continuous
100
AcDbCircle
 10
285.5668789999999
 20
151.136956
 30
0.0
 40
0.790167
100
AcDbArc
 50
313.450985
 51
319.2958019999999
  0
ARC
  5
C360
330
BEEE
100
AcDbEntity
  8
1
  6
Continuous
100
AcDbCircle
 10
285.5960229999999
 20
151.111896
 30
0.0
 40
0.7517300000000003
100
AcDbArc
 50
319.295159
 51
325.4391969999999
  0
ARC
  5
C361
330
BEEE
100
AcDbEntity
  8
1
  6
Continuous
100
AcDbCircle
 10
285.62495
 20
151.091963
 30
0.0
 40
0.7166000000000003
100
AcDbArc
 50
325.439588
 51
331.8848019999999
  0
ARC
  5
C362
330
BEEE
100
AcDbEntity
  8
1
  6
Continuous
100
AcDbCircle
 10
285.651659
 20
151.0776689999999
 30
0.0
 40
0.6863070000000003
100
AcDbArc
 50
331.8865339999998
 51
338.615778
  0
ARC
  5
C363
330
BEEE
100
AcDbEntity
  8
1
  6
Continuous
100
AcDbCircle
 10
285.6740669999999
 20
151.0688539999999
 30
0.0
 40
0.6622270000000002
100
AcDbArc
 50
338.619033
 51
345.592075
  0
ARC
  5
C364
330
BEEE
100
AcDbEntity
  8
1
  6
Continuous
100
AcDbCircle
 10
285.690299
 20
151.064631
 30
0.0
 40
0.6454550000000002
100
AcDbArc
 50
345.596673
 51
352.825529
  0
ARC
  5
C365
330
BEEE
100
AcDbEntity
  8
1
  6
Continuous
100
AcDbCircle
 10
285.698794
 20
151.063492
 30
0.0
 40
0.6368840000000003
100
AcDbArc
 50
352.831695
 51
359.997106
  0
ARC
  5
C366
330
BEEE
100
AcDbEntity
  8
1
  6
Continuous
100
AcDbCircle
 10
283.335686
 20
153.444159
 30
0.0
 40
1.0
100
AcDbArc
 50
0.0
 51
90.00000300000001
  0
LINE
  5
C367
330
BEEE
100
AcDbEntity
  8
1
  6
Continuous
100
AcDbLine
 10
281.4356769999998
 20
154.444159
 30
0.0
 11
283.335686
 21
154.444159
 31
0.0
  0
ARC
  5
C368
330
BEEE
100
AcDbEntity
  8
1
  6
Continuous
100
AcDbCircle
 10
281.4356769999998
 20
153.444159
 30
0.0
 40
1.0
100
AcDbArc
 50
90.00000300000001
 51
180.000005
  0
ARC
  5
C369
330
BEEE
100
AcDbEntity
  8
1
  6
Continuous
100
AcDbCircle
 10
82.564323
 20
153.444159
 30
0.0
 40
1.0
100
AcDbArc
 50
0.0
 51
90.00000300000001
  0
LINE
  5
C36A
330
BEEE
100
AcDbEntity
  8
1
  6
Continuous
100
AcDbLine
 10
80.664314
 20
154.444159
 30
0.0
 11
82.564323
 21
154.444159
 31
0.0
  0
ARC
  5
C36B
330
BEEE
100
AcDbEntity
  8
1
  6
Continuous
100
AcDbCircle
 10
80.664314
 20
153.444159
 30
0.0
 40
1.0
100
AcDbArc
 50
90.00000300000001
 51
180.000005
  0
ENDSEC
  0
SECTION
  2
OBJECTS
  0
DICTIONARY
  5
BEDC
330
0
100
AcDbDictionary
281
     1
  3
ACAD_CIP_PREVIOUS_PRODUCT_INFO
350
C3CD
  3
ACAD_COLOR
350
C3AF
  3
ACAD_DETAILVIEWSTYLE
350
C3C8
  3
ACAD_GROUP
350
BEDD
  3
ACAD_LAYOUT
350
BEE9
  3
ACAD_MATERIAL
350
C37D
  3
ACAD_MLEADERSTYLE
350
C3C4
  3
ACAD_MLINESTYLE
350
BEE6
  3
ACAD_PLOTSETTINGS
350
BEE8
  3
ACAD_PLOTSTYLENAME
350
C37B
  3
ACAD_SCALELIST
350
C3B2
  3
ACAD_SECTIONVIEWSTYLE
350
C3C6
  3
ACAD_TABLESTYLE
350
C3B0
  3
ACAD_VISUALSTYLE
350
C396
  3
ACDB_RECOMPOSE_DATA
350
C3EB
  3
AcDbVariableDictionary
350
C3DE
  3
DWGPROPS
350
C3EC
  0
DICTIONARY
  5
C3CE
330
BEE0
100
AcDbDictionary
280
     1
281
     1
  3
ADSK_XREC_LAYER_RECONCILED
360
C3CF
  0
DICTIONARY
  5
C3D0
330
BEF6
100
AcDbDictionary
280
     1
281
     1
  3
ADSK_XREC_LAYER_RECONCILED
360
C3D1
  0
DICTIONARY
  5
C3D2
330
BEF7
100
AcDbDictionary
280
     1
281
     1
  3
ADSK_XREC_LAYER_RECONCILED
360
C3D3
  0
DICTIONARY
  5
C3D4
330
BEF8
100
AcDbDictionary
280
     1
281
     1
  3
ADSK_XREC_LAYER_RECONCILED
360
C3D5
  0
DICTIONARY
  5
C3D6
330
BEF9
100
AcDbDictionary
280
     1
281
     1
  3
ADSK_XREC_LAYER_RECONCILED
360
C3D7
  0
DICTIONARY
  5
C3D8
330
BEFA
100
AcDbDictionary
280
     1
281
     1
  3
ADSK_XREC_LAYER_RECONCILED
360
C3D9
  0
DICTIONARY
  5
C3DA
330
BEFB
100
AcDbDictionary
280
     1
281
     1
  3
ADSK_XREC_LAYER_RECONCILED
360
C3DB
  0
DICTIONARY
  5
C3DC
330
BEFC
100
AcDbDictionary
280
     1
281
     1
  3
ADSK_XREC_LAYER_RECONCILED
360
C3DD
  0
DICTIONARY
  5
C376
330
BEEE
100
AcDbDictionary
281
     1
  3
ACAD_LAYOUTSELFREF
350
C377
  0
DICTIONARY
  5
C374
330
BEEA
100
AcDbDictionary
281
     1
  3
ACAD_LAYOUTSELFREF
350
C375
  0
XRECORD
  5
C3CD
102
{ACAD_REACTORS
330
BEDC
102
}
330
BEDC
100
AcDbXrecord
280
     1
300
ACDLT
300
2014
300
ACDLT_F_S
  0
DICTIONARY
  5
C3AF
102
{ACAD_REACTORS
330
BEDC
102
}
330
BEDC
100
AcDbDictionary
281
     1
  0
DICTIONARY
  5
C3C8
102
{ACAD_REACTORS
330
BEDC
102
}
330
BEDC
100
AcDbDictionary
281
     1
  3
Imperial24
350
C3C9
  0
DICTIONARY
  5
BEDD
102
{ACAD_REACTORS
330
BEDC
102
}
330
BEDC
100
AcDbDictionary
281
     1
  0
DICTIONARY
  5
BEE9
102
{ACAD_REACTORS
330
BEDC
102
}
330
BEDC
100
AcDbDictionary
281
     1
  3
Model
350
C3CA
  3
レイアウト1
350
C3CB
  0
DICTIONARY
  5
C37D
102
{ACAD_REACTORS
330
BEDC
102
}
330
BEDC
100
AcDbDictionary
281
     1
  3
ByBlock
350
C386
  3
ByLayer
350
C37E
  3
Global
350
C38E
  0
DICTIONARY
  5
C3C4
102
{ACAD_REACTORS
330
BEDC
102
}
330
BEDC
100
AcDbDictionary
281
     1
  3
Standard
350
C3C5
  0
DICTIONARY
  5
BEE6
102
{ACAD_REACTORS
330
BEDC
102
}
330
BEDC
100
AcDbDictionary
281
     1
  3
STANDARD
350
BEE7
  0
DICTIONARY
  5
BEE8
102
{ACAD_REACTORS
330
BEDC
102
}
330
BEDC
100
AcDbDictionary
281
     1
  0
ACDBDICTIONARYWDFLT
  5
C37B
102
{ACAD_REACTORS
330
BEDC
102
}
330
BEDC
100
AcDbDictionary
281
     1
  3
Normal
350
C37C
100
AcDbDictionaryWithDefault
340
C37C
  0
DICTIONARY
  5
C3B2
102
{ACAD_REACTORS
330
BEDC
102
}
330
BEDC
100
AcDbDictionary
281
     1
  3
A0
350
C3B3
  3
A1
350
C3B4
  3
A2
350
C3B5
  3
A3
350
C3B6
  3
A4
350
C3B7
  3
A5
350
C3B8
  3
A6
350
C3B9
  3
A7
350
C3BA
  3
A8
350
C3BB
  3
A9
350
C3BC
  3
B0
350
C3BD
  3
B1
350
C3BE
  3
B2
350
C3BF
  3
B3
350
C3C0
  3
B4
350
C3C1
  3
B5
350
C3C2
  3
B6
350
C3C3
  0
DICTIONARY
  5
C3C6
102
{ACAD_REACTORS
330
BEDC
102
}
330
BEDC
100
AcDbDictionary
281
     1
  3
Imperial24
350
C3C7
  0
DICTIONARY
  5
C3B0
102
{ACAD_REACTORS
330
BEDC
102
}
330
BEDC
100
AcDbDictionary
281
     1
  3
Standard
350
C3B1
  0
DICTIONARY
  5
C396
102
{ACAD_REACTORS
330
BEDC
102
}
330
BEDC
100
AcDbDictionary
281
     1
  3
2dWireframe
350
C39C
  3
Basic
350
C39B
  3
Brighten
350
C3A2
  3
ColorChange
350
C3A6
  3
Conceptual
350
C39F
  3
Dim
350
C3A1
  3
EdgeColorOff
350
C3AE
  3
Facepattern
350
C3A5
  3
Flat
350
C397
  3
FlatWithEdges
350
C398
  3
Gouraud
350
C399
  3
GouraudWithEdges
350
C39A
  3
Hidden
350
C39E
  3
JitterOff
350
C3AC
  3
Linepattern
350
C3A4
  3
OverhangOff
350
C3AD
  3
Realistic
350
C3A0
  3
Shaded
350
C3AB
  3
Shaded with edges
350
C3AA
  3
Shades of Gray
350
C3A7
  3
Sketchy
350
C3A8
  3
Thicken
350
C3A3
  3
Wireframe
350
C39D
  3
X-Ray
350
C3A9
  0
XRECORD
  5
C3EB
102
{ACAD_REACTORS
330
BEDC
102
}
330
BEDC
100
AcDbXrecord
280
     1
 90
        1
330
C3B1
  0
DICTIONARY
  5
C3DE
102
{ACAD_REACTORS
330
BEDC
102
}
330
BEDC
100
AcDbDictionary
281
     1
  3
CANNOSCALE
350
C3E3
  3
CMLEADERSTYLE
350
C3E0
  3
CTABLESTYLE
350
C3DF
  3
CVIEWDETAILSTYLE
350
C3E1
  3
CVIEWSECTIONSTYLE
350
C3E2
  3
DIMASSOC
350
C3E6
  3
INDEXCTL
350
C3E5
  3
SORTENTS
350
C3E4
  3
XCLIPFRAME
350
C3E7
  0
XRECORD
  5
C3EC
102
{ACAD_REACTORS
330
BEDC
102
}
330
BEDC
100
AcDbXrecord
280
     1
  1
DWGPROPS COOKIE
  2

  3

  4

  6

  7

  8
Yoshitsune
  9

300
=
301
=
302
=
303
=
304
=
305
=
306
=
307
=
308
=
309
=
 40
0.0000126736111111
 41
2451303.376488079
 42
2457192.687070139
  1

 90
        0
  0
XRECORD
  5
C3CF
102
{ACAD_REACTORS
330
C3CE
102
}
330
C3CE
100
AcDbXrecord
280
     1
290
     1
  0
XRECORD
  5
C3D1
102
{ACAD_REACTORS
330
C3D0
102
}
330
C3D0
100
AcDbXrecord
280
     1
290
     1
  0
XRECORD
  5
C3D3
102
{ACAD_REACTORS
330
C3D2
102
}
330
C3D2
100
AcDbXrecord
280
     1
290
     1
  0
XRECORD
  5
C3D5
102
{ACAD_REACTORS
330
C3D4
102
}
330
C3D4
100
AcDbXrecord
280
     1
290
     1
  0
XRECORD
  5
C3D7
102
{ACAD_REACTORS
330
C3D6
102
}
330
C3D6
100
AcDbXrecord
280
     1
290
     1
  0
XRECORD
  5
C3D9
102
{ACAD_REACTORS
330
C3D8
102
}
330
C3D8
100
AcDbXrecord
280
     1
290
     1
  0
XRECORD
  5
C3DB
102
{ACAD_REACTORS
330
C3DA
102
}
330
C3DA
100
AcDbXrecord
280
     1
290
     1
  0
XRECORD
  5
C3DD
102
{ACAD_REACTORS
330
C3DC
102
}
330
C3DC
100
AcDbXrecord
280
     1
290
     1
  0
XRECORD
  5
C377
102
{ACAD_REACTORS
330
C376
102
}
330
C376
100
AcDbXrecord
280
     1
340
BEEE
  0
XRECORD
  5
C375
102
{ACAD_REACTORS
330
C374
102
}
330
C374
100
AcDbXrecord
280
     1
340
BEEA
  0
ACDBDETAILVIEWSTYLE
  5
C3C9
102
{ACAD_XDICTIONARY
360
C424
102
}
102
{ACAD_REACTORS
330
C3C8
102
}
330
C3C8
100
AcDbModelDocViewStyle
 70
     0
  3
Imperial24
290
     0
100
AcDbDetailViewStyle
 70
     0
 71
     0
 90
        3
 71
     1
340
BEE1
 40
0.24
340
0
 40
0.24
300

 40
0.36
280
     3
 71
     2
340
BEE5
 90
       25
 71
     3
340
BEE1
 40
0.24
 90
        1
 40
0.75
 90
        1
300
%<\AcVar ViewType \f "%tc1">% %<\AcVar ViewDetailId>%\PSCALE %<\AcVar ViewScale \f "%sn">%
 71
     4
340
BEE5
 90
       25
340
BEE5
 90
       25
280
     0
  0
LAYOUT
  5
C3CA
102
{ACAD_XDICTIONARY
360
C426
102
}
102
{ACAD_REACTORS
330
BEE9
102
}
330
BEE9
100
AcDbPlotSettings
  1

  2
Canon LBP9100C
  4

  6

 40
0.0
 41
0.0
 42
0.0
 43
0.0
 44
0.0
 45
0.0
 46
0.0
 47
0.0
 48
0.0
 49
0.0
140
0.0
141
0.0
142
1.0
143
1.0
 70
  1712
 72
     0
 73
     0
 74
     0
  7

 75
     0
147
1.0
148
0.0
149
0.0
100
AcDbLayout
  1
Model
 70
     1
 71
     0
 10
0.0
 20
0.0
 11
12.0
 21
9.0
 12
0.0
 22
0.0
 32
0.0
 14
0.0
 24
0.0
 34
0.0
 15
0.0
 25
0.0
 35
0.0
146
0.0
 13
0.0
 23
0.0
 33
0.0
 16
1.0
 26
0.0
 36
0.0
 17
0.0
 27
1.0
 37
0.0
 76
     0
330
BEEE
331
C373
  0
LAYOUT
  5
C3CB
102
{ACAD_XDICTIONARY
360
C428
102
}
102
{ACAD_REACTORS
330
BEE9
102
}
330
BEE9
100
AcDbPlotSettings
  1

  2
Canon LBP9100C
  4

  6

 40
0.0
 41
0.0
 42
0.0
 43
0.0
 44
0.0
 45
0.0
 46
0.0
 47
0.0
 48
0.0
 49
0.0
140
0.0
141
0.0
142
1.0
143
1.0
 70
   688
 72
     0
 73
     0
 74
     5
  7

 75
    16
147
1.0
148
0.0
149
0.0
100
AcDbLayout
  1
レイアウト1
 70
     0
 71
     1
 10
0.0
 20
0.0
 11
420.0
 21
297.0
 12
0.0
 22
0.0
 32
0.0
 14
1.000000000000000E+20
 24
1.000000000000000E+20
 34
1.000000000000000E+20
 15
-1.000000000000000E+20
 25
-1.000000000000000E+20
 35
-1.000000000000000E+20
146
0.0
 13
0.0
 23
0.0
 33
0.0
 16
1.0
 26
0.0
 36
0.0
 17
0.0
 27
1.0
 37
0.0
 76
     0
330
BEEA
  0
MATERIAL
  5
C386
102
{ACAD_XDICTIONARY
360
C387
102
}
102
{ACAD_REACTORS
330
C37D
102
}
330
C37D
100
AcDbMaterial
  1
ByBlock
 72
     0
 43
0.0208333333333333
 43
0.0
 43
0.0
 43
0.0
 43
0.0
 43
0.0208333333333333
 43
0.0
 43
0.0
 43
0.0
 43
0.0
 43
1.0
 43
0.0
 43
0.0
 43
0.0
 43
0.0
 43
1.0
 77
     0
 47
0.0208333333333333
 47
0.0
 47
0.0
 47
0.0
 47
0.0
 47
0.0208333333333333
 47
0.0
 47
0.0
 47
0.0
 47
0.0
 47
1.0
 47
0.0
 47
0.0
 47
0.0
 47
0.0
 47
1.0
171
     0
 49
0.0208333333333333
 49
0.0
 49
0.0
 49
0.0
 49
0.0
 49
0.0208333333333333
 49
0.0
 49
0.0
 49
0.0
 49
0.0
 49
1.0
 49
0.0
 49
0.0
 49
0.0
 49
0.0
 49
1.0
175
     0
142
0.0208333333333333
142
0.0
142
0.0
142
0.0
142
0.0
142
0.0208333333333333
142
0.0
142
0.0
142
0.0
142
0.0
142
1.0
142
0.0
142
0.0
142
0.0
142
0.0
142
1.0
179
     0
144
0.0208333333333333
144
0.0
144
0.0
144
0.0
144
0.0
144
0.0208333333333333
144
0.0
144
0.0
144
0.0
144
0.0
144
1.0
144
0.0
144
0.0
144
0.0
144
0.0
144
1.0
147
0.0208333333333333
147
0.0
147
0.0
147
0.0
147
0.0
147
0.0208333333333333
147
0.0
147
0.0
147
0.0
147
0.0
147
1.0
147
0.0
147
0.0
147
0.0
147
0.0
147
1.0
  0
MATERIAL
  5
C37E
102
{ACAD_XDICTIONARY
360
C37F
102
}
102
{ACAD_REACTORS
330
C37D
102
}
330
C37D
100
AcDbMaterial
  1
ByLayer
 72
     0
 43
0.0208333333333333
 43
0.0
 43
0.0
 43
0.0
 43
0.0
 43
0.0208333333333333
 43
0.0
 43
0.0
 43
0.0
 43
0.0
 43
1.0
 43
0.0
 43
0.0
 43
0.0
 43
0.0
 43
1.0
 77
     0
 47
0.0208333333333333
 47
0.0
 47
0.0
 47
0.0
 47
0.0
 47
0.0208333333333333
 47
0.0
 47
0.0
 47
0.0
 47
0.0
 47
1.0
 47
0.0
 47
0.0
 47
0.0
 47
0.0
 47
1.0
171
     0
 49
0.0208333333333333
 49
0.0
 49
0.0
 49
0.0
 49
0.0
 49
0.0208333333333333
 49
0.0
 49
0.0
 49
0.0
 49
0.0
 49
1.0
 49
0.0
 49
0.0
 49
0.0
 49
0.0
 49
1.0
175
     0
142
0.0208333333333333
142
0.0
142
0.0
142
0.0
142
0.0
142
0.0208333333333333
142
0.0
142
0.0
142
0.0
142
0.0
142
1.0
142
0.0
142
0.0
142
0.0
142
0.0
142
1.0
179
     0
144
0.0208333333333333
144
0.0
144
0.0
144
0.0
144
0.0
144
0.0208333333333333
144
0.0
144
0.0
144
0.0
144
0.0
144
1.0
144
0.0
144
0.0
144
0.0
144
0.0
144
1.0
147
0.0208333333333333
147
0.0
147
0.0
147
0.0
147
0.0
147
0.0208333333333333
147
0.0
147
0.0
147
0.0
147
0.0
147
1.0
147
0.0
147
0.0
147
0.0
147
0.0
147
1.0
  0
MATERIAL
  5
C38E
102
{ACAD_XDICTIONARY
360
C38F
102
}
102
{ACAD_REACTORS
330
C37D
102
}
330
C37D
100
AcDbMaterial
  1
Global
 72
     0
 43
0.0208333333333333
 43
0.0
 43
0.0
 43
0.0
 43
0.0
 43
0.0208333333333333
 43
0.0
 43
0.0
 43
0.0
 43
0.0
 43
1.0
 43
0.0
 43
0.0
 43
0.0
 43
0.0
 43
1.0
 77
     0
 47
0.0208333333333333
 47
0.0
 47
0.0
 47
0.0
 47
0.0
 47
0.0208333333333333
 47
0.0
 47
0.0
 47
0.0
 47
0.0
 47
1.0
 47
0.0
 47
0.0
 47
0.0
 47
0.0
 47
1.0
171
     0
 49
0.0208333333333333
 49
0.0
 49
0.0
 49
0.0
 49
0.0
 49
0.0208333333333333
 49
0.0
 49
0.0
 49
0.0
 49
0.0
 49
1.0
 49
0.0
 49
0.0
 49
0.0
 49
0.0
 49
1.0
175
     0
142
0.0208333333333333
142
0.0
142
0.0
142
0.0
142
0.0
142
0.0208333333333333
142
0.0
142
0.0
142
0.0
142
0.0
142
1.0
142
0.0
142
0.0
142
0.0
142
0.0
142
1.0
179
     0
144
0.0208333333333333
144
0.0
144
0.0
144
0.0
144
0.0
144
0.0208333333333333
144
0.0
144
0.0
144
0.0
144
0.0
144
1.0
144
0.0
144
0.0
144
0.0
144
0.0
144
1.0
147
0.0208333333333333
147
0.0
147
0.0
147
0.0
147
0.0
147
0.0208333333333333
147
0.0
147
0.0
147
0.0
147
0.0
147
1.0
147
0.0
147
0.0
147
0.0
147
0.0
147
1.0
  0
MLEADERSTYLE
  5
C3C5
102
{ACAD_REACTORS
330
C3C4
102
}
330
C3C4
100
AcDbMLeaderStyle
170
     2
171
     1
172
     0
 90
        2
 40
0.0
 41
0.0
173
     1
 91
-1056964608
340
BEE3
 92
       -2
290
     1
 42
0.09
291
     1
 43
0.36
  3
Standard
 44
0.18
300

342
BEE1
174
     1
178
     6
175
     1
176
     0
 93
-1056964608
 45
0.18
292
     0
297
     0
 46
0.18
 94
-1056964608
 47
1.0
 49
1.0
140
1.0
293
     1
141
0.0
294
     1
177
     0
142
1.0
295
     0
296
     0
143
0.125
1001
ACAD_MLEADERVER
1070
     2
  0
MLINESTYLE
  5
BEE7
102
{ACAD_REACTORS
330
BEE6
102
}
330
BEE6
100
AcDbMlineStyle
  2
STANDARD
 70
     0
  3

 62
   256
 51
90.0
 52
90.0
 71
     2
 49
0.5
 62
   256
  6
BYLAYER
 49
-0.5
 62
   256
  6
BYLAYER
  0
ACDBPLACEHOLDER
  5
C37C
102
{ACAD_REACTORS
330
C37B
102
}
330
C37B
  0
SCALE
  5
C3B3
102
{ACAD_REACTORS
330
C3B2
102
}
330
C3B2
100
AcDbScale
 70
     0
300
1:1
140
1.0
141
1.0
290
     1
  0
SCALE
  5
C3B4
102
{ACAD_REACTORS
330
C3B2
102
}
330
C3B2
100
AcDbScale
 70
     0
300
1/128" = 1'-0"
140
0.0078125
141
12.0
290
     0
  0
SCALE
  5
C3B5
102
{ACAD_REACTORS
330
C3B2
102
}
330
C3B2
100
AcDbScale
 70
     0
300
1/64" = 1'-0"
140
0.015625
141
12.0
290
     0
  0
SCALE
  5
C3B6
102
{ACAD_REACTORS
330
C3B2
102
}
330
C3B2
100
AcDbScale
 70
     0
300
1/32" = 1'-0"
140
0.03125
141
12.0
290
     0
  0
SCALE
  5
C3B7
102
{ACAD_REACTORS
330
C3B2
102
}
330
C3B2
100
AcDbScale
 70
     0
300
1/16" = 1'-0"
140
0.0625
141
12.0
290
     0
  0
SCALE
  5
C3B8
102
{ACAD_REACTORS
330
C3B2
102
}
330
C3B2
100
AcDbScale
 70
     0
300
3/32" = 1'-0"
140
0.09375
141
12.0
290
     0
  0
SCALE
  5
C3B9
102
{ACAD_REACTORS
330
C3B2
102
}
330
C3B2
100
AcDbScale
 70
     0
300
1/8" = 1'-0"
140
0.125
141
12.0
290
     0
  0
SCALE
  5
C3BA
102
{ACAD_REACTORS
330
C3B2
102
}
330
C3B2
100
AcDbScale
 70
     0
300
3/16" = 1'-0"
140
0.1875
141
12.0
290
     0
  0
SCALE
  5
C3BB
102
{ACAD_REACTORS
330
C3B2
102
}
330
C3B2
100
AcDbScale
 70
     0
300
1/4" = 1'-0"
140
0.25
141
12.0
290
     0
  0
SCALE
  5
C3BC
102
{ACAD_REACTORS
330
C3B2
102
}
330
C3B2
100
AcDbScale
 70
     0
300
3/8" = 1'-0"
140
0.375
141
12.0
290
     0
  0
SCALE
  5
C3BD
102
{ACAD_REACTORS
330
C3B2
102
}
330
C3B2
100
AcDbScale
 70
     0
300
1/2" = 1'-0"
140
0.5
141
12.0
290
     0
  0
SCALE
  5
C3BE
102
{ACAD_REACTORS
330
C3B2
102
}
330
C3B2
100
AcDbScale
 70
     0
300
3/4" = 1'-0"
140
0.75
141
12.0
290
     0
  0
SCALE
  5
C3BF
102
{ACAD_REACTORS
330
C3B2
102
}
330
C3B2
100
AcDbScale
 70
     0
300
1" = 1'-0"
140
1.0
141
12.0
290
     0
  0
SCALE
  5
C3C0
102
{ACAD_REACTORS
330
C3B2
102
}
330
C3B2
100
AcDbScale
 70
     0
300
1-1/2" = 1'-0"
140
1.5
141
12.0
290
     0
  0
SCALE
  5
C3C1
102
{ACAD_REACTORS
330
C3B2
102
}
330
C3B2
100
AcDbScale
 70
     0
300
3" = 1'-0"
140
3.0
141
12.0
290
     0
  0
SCALE
  5
C3C2
102
{ACAD_REACTORS
330
C3B2
102
}
330
C3B2
100
AcDbScale
 70
     0
300
6" = 1'-0"
140
6.0
141
12.0
290
     0
  0
SCALE
  5
C3C3
102
{ACAD_REACTORS
330
C3B2
102
}
330
C3B2
100
AcDbScale
 70
     0
300
1'-0" = 1'-0"
140
12.0
141
12.0
290
     0
  0
ACDBSECTIONVIEWSTYLE
  5
C3C7
102
{ACAD_XDICTIONARY
360
C422
102
}
102
{ACAD_REACTORS
330
C3C6
102
}
330
C3C6
100
AcDbModelDocViewStyle
 70
     0
  3
Imperial24
290
     0
100
AcDbSectionViewStyle
 70
     0
 71
     0
 90
       78
 71
     1
340
BEE1
 40
0.24
340
0
340
0
 40
0.24
300
I, O, Q, S, X, Z
 40
0.48
 90
        3
 40
0.18
 90
        1
 71
     2
340
BEE5
 90
       25
340
BEE5
 90
       50
 40
0.24
 40
0.0
 40
0.24
 71
     3
340
BEE1
 40
0.24
 90
        1
 40
0.75
 90
        1
300
%<\AcVar ViewType \f "%tc1">% %<\AcVar ViewSectionStartId>%-%<\AcVar ViewSectionEndId>%\PSCALE %<\AcVar ViewScale \f "%sn">%
 71
     4
300
ANSI31
 40
1.0
 90
        0
290
     0
290
     0
 90
        6
 40
0.0
 40
1.570796326794896
 40
0.2617993877991494
 40
1.308996938995747
 40
-0.2617993877991494
 40
1.832595714594046
  0
TABLESTYLE
  5
C3B1
102
{ACAD_XDICTIONARY
360
C3E9
102
}
102
{ACAD_REACTORS
330
C3B0
102
}
330
C3B0
100
AcDbTableStyle
  3
Standard
 70
     0
 71
     0
 40
0.06
 41
0.06
280
     0
281
     0
  7
STANDARD
140
0.18
170
     2
 62
     0
 63
     7
283
     0
274
    -2
284
     1
 64
     0
275
    -2
285
     1
 65
     0
276
    -2
286
     1
 66
     0
277
    -2
287
     1
 67
     0
278
    -2
288
     1
 68
     0
279
    -2
289
     1
 69
     0
  7
STANDARD
140
0.25
170
     5
 62
     0
 63
     7
283
     0
274
    -2
284
     1
 64
     0
275
    -2
285
     1
 65
     0
276
    -2
286
     1
 66
     0
277
    -2
287
     1
 67
     0
278
    -2
288
     1
 68
     0
279
    -2
289
     1
 69
     0
  7
STANDARD
140
0.18
170
     5
 62
     0
 63
     7
283
     0
274
    -2
284
     1
 64
     0
275
    -2
285
     1
 65
     0
276
    -2
286
     1
 66
     0
277
    -2
287
     1
 67
     0
278
    -2
288
     1
 68
     0
279
    -2
289
     1
 69
     0
  0
VISUALSTYLE
  5
C39C
102
{ACAD_XDICTIONARY
360
C3FA
102
}
102
{ACAD_REACTORS
330
C396
102
}
330
C396
100
AcDbVisualStyle
  2
2dWireframe
 70
     4
 71
     0
 72
     2
 73
     0
 90
        0
 40
-0.6
 41
-30.0
 62
     5
 63
     7
 74
     1
 91
        4
 64
     7
 65
   257
 75
     1
175
     1
 42
1.0
 92
        0
 66
   257
 43
1.0
 76
     1
 77
     6
 78
     2
 67
     7
 79
     5
170
     0
171
     0
290
     0
174
     0
 93
        1
 44
0.0
173
     0
291
     0
 45
0.0
1001
ACAD
1000
AcDbSavedByObjectVersion
1070
     0
  0
VISUALSTYLE
  5
C39B
102
{ACAD_XDICTIONARY
360
C3F8
102
}
102
{ACAD_REACTORS
330
C396
102
}
330
C396
100
AcDbVisualStyle
  2
Basic
 70
     7
 71
     1
 72
     0
 73
     1
 90
        0
 40
-0.6
 41
-30.0
 62
     5
 63
     7
 74
     0
 91
        4
 64
     7
 65
   257
 75
     1
175
     1
 42
1.0
 92
        8
 66
     7
 43
1.0
 76
     1
 77
     6
 78
     2
 67
     7
 79
     5
170
     0
171
     0
290
     0
174
     0
 93
        1
 44
0.0
173
     0
291
     1
 45
0.0
1001
ACAD
1000
AcDbSavedByObjectVersion
1070
     0
  0
VISUALSTYLE
  5
C3A2
102
{ACAD_XDICTIONARY
360
C406
102
}
102
{ACAD_REACTORS
330
C396
102
}
330
C396
100
AcDbVisualStyle
  2
Brighten
 70
    12
 71
     2
 72
     2
 73
     0
 90
        0
 40
-0.6
 41
-30.0
 62
     5
 63
     7
 74
     1
 91
        4
 64
     7
 65
   257
 75
     1
175
     1
 42
1.0
 92
        8
 66
     7
 43
1.0
 76
     1
 77
     6
 78
     2
 67
     7
 79
     5
170
     0
171
     0
290
     0
174
     0
 93
        1
 44
50.0
173
     0
291
     1
 45
0.0
1001
ACAD
1000
AcDbSavedByObjectVersion
1070
     0
  0
VISUALSTYLE
  5
C3A6
102
{ACAD_XDICTIONARY
360
C40E
102
}
102
{ACAD_REACTORS
330
C396
102
}
330
C396
100
AcDbVisualStyle
  2
ColorChange
 70
    16
 71
     2
 72
     2
 73
     3
 90
        0
 40
-0.6
 41
-30.0
 62
     5
 63
     8
 74
     1
 91
        4
 64
     7
 65
   257
 75
     1
175
     1
 42
1.0
 92
        8
 66
     8
 43
1.0
 76
     1
 77
     6
 78
     2
 67
     7
 79
     5
170
     0
171
     0
290
     0
174
     0
 93
        1
 44
0.0
173
     0
291
     1
 45
0.0
1001
ACAD
1000
AcDbSavedByObjectVersion
1070
     0
  0
VISUALSTYLE
  5
C39F
102
{ACAD_XDICTIONARY
360
C400
102
}
102
{ACAD_REACTORS
330
C396
102
}
330
C396
100
AcDbVisualStyle
  2
Conceptual
 70
     9
 71
     3
 72
     2
 73
     0
 90
        0
 40
-0.6
 41
-30.0
 62
     5
 63
     7
 74
     2
 91
        2
 64
     7
 65
   257
 75
     1
175
     1
 42
179.0
 92
        8
 66
     7
 43
1.0
 76
     1
 77
     6
 78
     2
 67
     7
 79
     3
170
     0
171
     0
290
     0
174
     0
 93
        1
 44
0.0
173
     0
291
     0
 45
0.0
1001
ACAD
1000
AcDbSavedByObjectVersion
1070
     0
  0
VISUALSTYLE
  5
C3A1
102
{ACAD_XDICTIONARY
360
C404
102
}
102
{ACAD_REACTORS
330
C396
102
}
330
C396
100
AcDbVisualStyle
  2
Dim
 70
    11
 71
     2
 72
     2
 73
     0
 90
        0
 40
-0.6
 41
-30.0
 62
     5
 63
     7
 74
     1
 91
        4
 64
     7
 65
   257
 75
     1
175
     1
 42
1.0
 92
        8
 66
     7
 43
1.0
 76
     1
 77
     6
 78
     2
 67
     7
 79
     5
170
     0
171
     0
290
     0
174
     0
 93
        1
 44
-50.0
173
     0
291
     1
 45
0.0
1001
ACAD
1000
AcDbSavedByObjectVersion
1070
     0
  0
VISUALSTYLE
  5
C3AE
102
{ACAD_XDICTIONARY
360
C41E
102
}
102
{ACAD_REACTORS
330
C396
102
}
330
C396
100
AcDbVisualStyle
  2
EdgeColorOff
 70
    22
 71
     2
 72
     2
 73
     0
 90
        0
 40
-0.6
 41
-30.0
 62
     5
 63
     7
 74
     1
 91
        4
 64
     7
 65
   257
 75
     1
175
     1
 42
1.0
 92
        8
 66
     7
 43
1.0
 76
     1
 77
     6
 78
     2
 67
     7
 79
     5
170
     0
171
     0
290
     0
174
     0
 93
        1
 44
0.0
173
     0
291
     1
 45
0.0
1001
ACAD
1000
AcDbSavedByObjectVersion
1070
     0
  0
VISUALSTYLE
  5
C3A5
102
{ACAD_XDICTIONARY
360
C40C
102
}
102
{ACAD_REACTORS
330
C396
102
}
330
C396
100
AcDbVisualStyle
  2
Facepattern
 70
    15
 71
     2
 72
     2
 73
     0
 90
        0
 40
-0.6
 41
-30.0
 62
     5
 63
     7
 74
     1
 91
        4
 64
     7
 65
   257
 75
     1
175
     1
 42
1.0
 92
        8
 66
     7
 43
1.0
 76
     1
 77
     6
 78
     2
 67
     7
 79
     5
170
     0
171
     0
290
     0
174
     0
 93
        1
 44
0.0
173
     0
291
     1
 45
0.0
1001
ACAD
1000
AcDbSavedByObjectVersion
1070
     0
  0
VISUALSTYLE
  5
C397
102
{ACAD_XDICTIONARY
360
C3F0
102
}
102
{ACAD_REACTORS
330
C396
102
}
330
C396
100
AcDbVisualStyle
  2
Flat
 70
     0
 71
     2
 72
     1
 73
     1
 90
        2
 40
-0.6
 41
30.0
 62
     5
 63
     7
 74
     0
 91
        0
 64
     7
 65
   257
 75
     1
175
     1
 42
1.0
 92
        8
 66
     7
 43
1.0
 76
     1
 77
     6
 78
     2
 67
     7
 79
     5
170
     0
171
     0
290
     0
174
     0
 93
       13
 44
0.0
173
     0
291
     1
 45
0.0
1001
ACAD
1000
AcDbSavedByObjectVersion
1070
     0
  0
VISUALSTYLE
  5
C398
102
{ACAD_XDICTIONARY
360
C3F2
102
}
102
{ACAD_REACTORS
330
C396
102
}
330
C396
100
AcDbVisualStyle
  2
FlatWithEdges
 70
     1
 71
     2
 72
     1
 73
     1
 90
        2
 40
-0.6
 41
30.0
 62
     5
 63
     7
 74
     1
 91
        0
 64
     7
 65
   257
 75
     1
175
     1
 42
1.0
 92
        0
 66
   257
 43
1.0
 76
     1
 77
     6
 78
     2
 67
     7
 79
     5
170
     0
171
     0
290
     0
174
     0
 93
       13
 44
0.0
173
     0
291
     1
 45
0.0
1001
ACAD
1000
AcDbSavedByObjectVersion
1070
     0
  0
VISUALSTYLE
  5
C399
102
{ACAD_XDICTIONARY
360
C3F4
102
}
102
{ACAD_REACTORS
330
C396
102
}
330
C396
100
AcDbVisualStyle
  2
Gouraud
 70
     2
 71
     2
 72
     2
 73
     1
 90
        2
 40
-0.6
 41
30.0
 62
     5
 63
     7
 74
     0
 91
        0
 64
     7
 65
   257
 75
     1
175
     1
 42
1.0
 92
        0
 66
     7
 43
1.0
 76
     1
 77
     6
 78
     2
 67
     7
 79
     5
170
     0
171
     0
290
     0
174
     0
 93
       13
 44
0.0
173
     0
291
     1
 45
0.0
1001
ACAD
1000
AcDbSavedByObjectVersion
1070
     0
  0
VISUALSTYLE
  5
C39A
102
{ACAD_XDICTIONARY
360
C3F6
102
}
102
{ACAD_REACTORS
330
C396
102
}
330
C396
100
AcDbVisualStyle
  2
GouraudWithEdges
 70
     3
 71
     2
 72
     2
 73
     1
 90
        2
 40
-0.6
 41
30.0
 62
     5
 63
     7
 74
     1
 91
        0
 64
     7
 65
   257
 75
     1
175
     1
 42
1.0
 92
        0
 66
   257
 43
1.0
 76
     1
 77
     6
 78
     2
 67
     7
 79
     5
170
     0
171
     0
290
     0
174
     0
 93
       13
 44
0.0
173
     0
291
     1
 45
0.0
1001
ACAD
1000
AcDbSavedByObjectVersion
1070
     0
  0
VISUALSTYLE
  5
C39E
102
{ACAD_XDICTIONARY
360
C3FE
102
}
102
{ACAD_REACTORS
330
C396
102
}
330
C396
100
AcDbVisualStyle
  2
Hidden
 70
     6
 71
     1
 72
     2
 73
     2
 90
        0
 40
-0.6
 41
-30.0
 62
     5
 63
     7
 74
     2
 91
        2
 64
     7
 65
   257
 75
     2
175
     1
 42
40.0
 92
        0
 66
   257
 43
1.0
 76
     1
 77
     6
 78
     2
 67
     7
 79
     3
170
     0
171
     0
290
     0
174
     0
 93
        1
 44
0.0
173
     0
291
     0
 45
0.0
1001
ACAD
1000
AcDbSavedByObjectVersion
1070
     0
  0
VISUALSTYLE
  5
C3AC
102
{ACAD_XDICTIONARY
360
C41A
102
}
102
{ACAD_REACTORS
330
C396
102
}
330
C396
100
AcDbVisualStyle
  2
JitterOff
 70
    20
 71
     2
 72
     2
 73
     0
 90
        0
 40
-0.6
 41
-30.0
 62
     5
 63
     7
 74
     1
 91
        4
 64
     7
 65
   257
 75
     1
175
     1
 42
1.0
 92
       10
 66
     7
 43
1.0
 76
     1
 77
     6
 78
     2
 67
     7
 79
     5
170
     0
171
     0
290
     0
174
     0
 93
        1
 44
0.0
173
     0
291
     1
 45
0.0
1001
ACAD
1000
AcDbSavedByObjectVersion
1070
     0
  0
VISUALSTYLE
  5
C3A4
102
{ACAD_XDICTIONARY
360
C40A
102
}
102
{ACAD_REACTORS
330
C396
102
}
330
C396
100
AcDbVisualStyle
  2
Linepattern
 70
    14
 71
     2
 72
     2
 73
     0
 90
        0
 40
-0.6
 41
-30.0
 62
     5
 63
     7
 74
     1
 91
        4
 64
     7
 65
   257
 75
     7
175
     7
 42
1.0
 92
        8
 66
     7
 43
1.0
 76
     1
 77
     6
 78
     2
 67
     7
 79
     5
170
     0
171
     0
290
     0
174
     0
 93
        1
 44
0.0
173
     0
291
     1
 45
0.0
1001
ACAD
1000
AcDbSavedByObjectVersion
1070
     0
  0
VISUALSTYLE
  5
C3AD
102
{ACAD_XDICTIONARY
360
C41C
102
}
102
{ACAD_REACTORS
330
C396
102
}
330
C396
100
AcDbVisualStyle
  2
OverhangOff
 70
    21
 71
     2
 72
     2
 73
     0
 90
        0
 40
-0.6
 41
-30.0
 62
     5
 63
     7
 74
     1
 91
        4
 64
     7
 65
   257
 75
     1
175
     1
 42
1.0
 92
        9
 66
     7
 43
1.0
 76
     1
 77
     6
 78
     2
 67
     7
 79
     5
170
     0
171
     0
290
     0
174
     0
 93
        1
 44
0.0
173
     0
291
     1
 45
0.0
1001
ACAD
1000
AcDbSavedByObjectVersion
1070
     0
  0
VISUALSTYLE
  5
C3A0
102
{ACAD_XDICTIONARY
360
C402
102
}
102
{ACAD_REACTORS
330
C396
102
}
330
C396
100
AcDbVisualStyle
  2
Realistic
 70
     8
 71
     2
 72
     3
 73
     0
 90
        2
 40
-0.6
 41
30.0
 62
     5
 63
     7
 74
     0
 91
        0
 64
     7
 65
   257
 75
     1
175
     1
 42
1.0
 92
        8
 66
   257
 43
1.0
 76
     1
 77
     6
 78
     2
 67
     7
 79
     3
170
     0
171
     0
290
     0
174
     0
 93
       13
 44
0.0
173
     0
291
     0
 45
0.0
1001
ACAD
1000
AcDbSavedByObjectVersion
1070
     0
  0
VISUALSTYLE
  5
C3AB
102
{ACAD_XDICTIONARY
360
C418
102
}
102
{ACAD_REACTORS
330
C396
102
}
330
C396
100
AcDbVisualStyle
  2
Shaded
 70
    27
 71
     2
 72
     2
 73
     1
 90
        2
 40
-0.6
 41
30.0
 62
     5
 63
     7
 74
     0
 91
        4
 64
     7
 65
   257
 75
     1
175
     1
 42
1.0
 92
        8
 66
   257
 43
1.0
 76
     1
 77
     6
 78
     2
 67
     8
 79
     3
170
     0
171
     0
290
     0
174
     0
 93
        5
 44
0.0
173
     0
291
     0
 45
0.0
1001
ACAD
1000
AcDbSavedByObjectVersion
1070
     0
  0
VISUALSTYLE
  5
C3AA
102
{ACAD_XDICTIONARY
360
C416
102
}
102
{ACAD_REACTORS
330
C396
102
}
330
C396
100
AcDbVisualStyle
  2
Shaded with edges
 70
    26
 71
     2
 72
     2
 73
     1
 90
        2
 40
-0.6
 41
30.0
 62
     5
 63
     7
 74
     1
 91
       10
 64
     7
 65
   257
 75
     2
175
     1
 42
1.0
 92
        8
 66
   257
 43
1.0
 76
     1
 77
     6
 78
     2
 67
     7
 79
     3
170
     0
171
     0
290
     0
174
     0
 93
        5
 44
0.0
173
     0
291
     0
 45
0.0
1001
ACAD
1000
AcDbSavedByObjectVersion
1070
     0
  0
VISUALSTYLE
  5
C3A7
102
{ACAD_XDICTIONARY
360
C410
102
}
102
{ACAD_REACTORS
330
C396
102
}
330
C396
100
AcDbVisualStyle
  2
Shades of Gray
 70
    23
 71
     2
 72
     2
 73
     3
 90
        0
 40
-0.6
 41
-30.0
 62
     5
 63
     7
 74
     2
 91
        2
 64
     7
 65
     7
 75
     1
175
     1
 42
40.0
 92
        8
 66
     7
 43
1.0
 76
     1
 77
     6
 78
     2
 67
     7
 79
     3
170
     0
171
     0
290
     0
174
     0
 93
        1
 44
0.0
173
     0
291
     0
 45
0.0
1001
ACAD
1000
AcDbSavedByObjectVersion
1070
     0
  0
VISUALSTYLE
  5
C3A8
102
{ACAD_XDICTIONARY
360
C412
102
}
102
{ACAD_REACTORS
330
C396
102
}
330
C396
100
AcDbVisualStyle
  2
Sketchy
 70
    24
 71
     1
 72
     2
 73
     2
 90
        0
 40
-0.6
 41
-30.0
 62
     5
 63
     7
 74
     2
 91
        2
 64
     7
 65
     7
 75
     1
175
     1
 42
40.0
 92
       11
 66
     7
 43
1.0
 76
     1
 77
     6
 78
     2
 67
     7
 79
     6
170
     0
171
     0
290
     0
174
     0
 93
        1
 44
0.0
173
     0
291
     0
 45
0.0
1001
ACAD
1000
AcDbSavedByObjectVersion
1070
     0
  0
VISUALSTYLE
  5
C3A3
102
{ACAD_XDICTIONARY
360
C408
102
}
102
{ACAD_REACTORS
330
C396
102
}
330
C396
100
AcDbVisualStyle
  2
Thicken
 70
    13
 71
     2
 72
     2
 73
     0
 90
        0
 40
-0.6
 41
-30.0
 62
     5
 63
     7
 74
     1
 91
        4
 64
     7
 65
   257
 75
     1
175
     1
 42
1.0
 92
       12
 66
     7
 43
1.0
 76
     1
 77
     6
 78
     2
 67
     7
 79
     5
170
     0
171
     0
290
     0
174
     0
 93
        1
 44
0.0
173
     0
291
     1
 45
0.0
1001
ACAD
1000
AcDbSavedByObjectVersion
1070
     0
  0
VISUALSTYLE
  5
C39D
102
{ACAD_XDICTIONARY
360
C3FC
102
}
102
{ACAD_REACTORS
330
C396
102
}
330
C396
100
AcDbVisualStyle
  2
Wireframe
 70
     5
 71
     0
 72
     2
 73
     0
 90
        0
 40
-0.6
 41
-30.0
 62
     5
 63
     7
 74
     1
 91
        4
 64
     7
 65
   257
 75
     1
175
     1
 42
1.0
 92
        0
 66
   257
 43
1.0
 76
     1
 77
     6
 78
     2
 67
     7
 79
     3
170
     0
171
     0
290
     0
174
     0
 93
        1
 44
0.0
173
     0
291
     0
 45
0.0
1001
ACAD
1000
AcDbSavedByObjectVersion
1070
     0
  0
VISUALSTYLE
  5
C3A9
102
{ACAD_XDICTIONARY
360
C414
102
}
102
{ACAD_REACTORS
330
C396
102
}
330
C396
100
AcDbVisualStyle
  2
X-Ray
 70
    25
 71
     2
 72
     2
 73
     1
 90
        1
 40
0.5
 41
-30.0
 62
     5
 63
     7
 74
     1
 91
        0
 64
     7
 65
   257
 75
     1
175
     1
 42
1.0
 92
        8
 66
     7
 43
1.0
 76
     1
 77
     6
 78
     2
 67
     7
 79
     3
170
     0
171
     0
290
     0
174
     0
 93
       13
 44
0.0
173
     0
291
     0
 45
0.0
1001
ACAD
1000
AcDbSavedByObjectVersion
1070
     0
  0
DICTIONARYVAR
  5
C3E3
102
{ACAD_REACTORS
330
C3DE
102
}
330
C3DE
100
DictionaryVariables
280
     0
  1
1:1
  0
DICTIONARYVAR
  5
C3E0
102
{ACAD_REACTORS
330
C3DE
102
}
330
C3DE
100
DictionaryVariables
280
     0
  1
STANDARD
  0
DICTIONARYVAR
  5
C3DF
102
{ACAD_REACTORS
330
C3DE
102
}
330
C3DE
100
DictionaryVariables
280
     0
  1
STANDARD
  0
DICTIONARYVAR
  5
C3E1
102
{ACAD_REACTORS
330
C3DE
102
}
330
C3DE
100
DictionaryVariables
280
     0
  1
Imperial24
  0
DICTIONARYVAR
  5
C3E2
102
{ACAD_REACTORS
330
C3DE
102
}
330
C3DE
100
DictionaryVariables
280
     0
  1
Imperial24
  0
DICTIONARYVAR
  5
C3E6
102
{ACAD_REACTORS
330
C3DE
102
}
330
C3DE
100
DictionaryVariables
280
     0
  1
1
  0
DICTIONARYVAR
  5
C3E5
102
{ACAD_REACTORS
330
C3DE
102
}
330
C3DE
100
DictionaryVariables
280
     0
  1
0
  0
DICTIONARYVAR
  5
C3E4
102
{ACAD_REACTORS
330
C3DE
102
}
330
C3DE
100
DictionaryVariables
280
     0
  1
127
  0
DICTIONARYVAR
  5
C3E7
102
{ACAD_REACTORS
330
C3DE
102
}
330
C3DE
100
DictionaryVariables
280
     0
  1
2
  0
DICTIONARY
  5
C424
330
C3C9
100
AcDbDictionary
280
     1
281
     1
  3
ACAD_XREC_ROUNDTRIP
360
C425
  0
DICTIONARY
  5
C426
330
C3CA
100
AcDbDictionary
280
     1
281
     1
  3
ACAD_XREC_ROUNDTRIP
360
C427
  0
DICTIONARY
  5
C428
330
C3CB
100
AcDbDictionary
280
     1
281
     1
  3
ACAD_XREC_ROUNDTRIP
360
C429
  0
DICTIONARY
  5
C387
330
C386
100
AcDbDictionary
280
     1
281
     1
  3
ACAD_XREC_ROUNDTRIP
360
C3EE
  3
BUMPTILE
360
C389
  3
DIFFUSETILE
360
C388
  3
OPACITYTILE
360
C38C
  3
REFLECTIONTILE
360
C38B
  3
REFRACTIONTILE
360
C38D
  3
SPECULARTILE
360
C38A
  0
DICTIONARY
  5
C37F
330
C37E
100
AcDbDictionary
280
     1
281
     1
  3
ACAD_XREC_ROUNDTRIP
360
C3ED
  3
BUMPTILE
360
C381
  3
DIFFUSETILE
360
C380
  3
OPACITYTILE
360
C384
  3
REFLECTIONTILE
360
C383
  3
REFRACTIONTILE
360
C385
  3
SPECULARTILE
360
C382
  0
DICTIONARY
  5
C38F
330
C38E
100
AcDbDictionary
280
     1
281
     1
  3
ACAD_XREC_ROUNDTRIP
360
C3EF
  3
BUMPTILE
360
C391
  3
DIFFUSETILE
360
C390
  3
OPACITYTILE
360
C394
  3
REFLECTIONTILE
360
C393
  3
REFRACTIONTILE
360
C395
  3
SPECULARTILE
360
C392
  0
DICTIONARY
  5
C422
330
C3C7
100
AcDbDictionary
280
     1
281
     1
  3
ACAD_XREC_ROUNDTRIP
360
C423
  0
DICTIONARY
  5
C3E9
330
C3B1
100
AcDbDictionary
280
     1
281
     1
  3
ACAD_ROUNDTRIP_2008_TABLESTYLE_CELLSTYLEMAP
360
C3EA
  3
ACAD_XREC_ROUNDTRIP
360
C420
  0
DICTIONARY
  5
C3FA
330
C39C
100
AcDbDictionary
280
     1
281
     1
  3
ACAD_XREC_ROUNDTRIP
360
C3FB
  0
DICTIONARY
  5
C3F8
330
C39B
100
AcDbDictionary
280
     1
281
     1
  3
ACAD_XREC_ROUNDTRIP
360
C3F9
  0
DICTIONARY
  5
C406
330
C3A2
100
AcDbDictionary
280
     1
281
     1
  3
ACAD_XREC_ROUNDTRIP
360
C407
  0
DICTIONARY
  5
C40E
330
C3A6
100
AcDbDictionary
280
     1
281
     1
  3
ACAD_XREC_ROUNDTRIP
360
C40F
  0
DICTIONARY
  5
C400
330
C39F
100
AcDbDictionary
280
     1
281
     1
  3
ACAD_XREC_ROUNDTRIP
360
C401
  0
DICTIONARY
  5
C404
330
C3A1
100
AcDbDictionary
280
     1
281
     1
  3
ACAD_XREC_ROUNDTRIP
360
C405
  0
DICTIONARY
  5
C41E
330
C3AE
100
AcDbDictionary
280
     1
281
     1
  3
ACAD_XREC_ROUNDTRIP
360
C41F
  0
DICTIONARY
  5
C40C
330
C3A5
100
AcDbDictionary
280
     1
281
     1
  3
ACAD_XREC_ROUNDTRIP
360
C40D
  0
DICTIONARY
  5
C3F0
330
C397
100
AcDbDictionary
280
     1
281
     1
  3
ACAD_XREC_ROUNDTRIP
360
C3F1
  0
DICTIONARY
  5
C3F2
330
C398
100
AcDbDictionary
280
     1
281
     1
  3
ACAD_XREC_ROUNDTRIP
360
C3F3
  0
DICTIONARY
  5
C3F4
330
C399
100
AcDbDictionary
280
     1
281
     1
  3
ACAD_XREC_ROUNDTRIP
360
C3F5
  0
DICTIONARY
  5
C3F6
330
C39A
100
AcDbDictionary
280
     1
281
     1
  3
ACAD_XREC_ROUNDTRIP
360
C3F7
  0
DICTIONARY
  5
C3FE
330
C39E
100
AcDbDictionary
280
     1
281
     1
  3
ACAD_XREC_ROUNDTRIP
360
C3FF
  0
DICTIONARY
  5
C41A
330
C3AC
100
AcDbDictionary
280
     1
281
     1
  3
ACAD_XREC_ROUNDTRIP
360
C41B
  0
DICTIONARY
  5
C40A
330
C3A4
100
AcDbDictionary
280
     1
281
     1
  3
ACAD_XREC_ROUNDTRIP
360
C40B
  0
DICTIONARY
  5
C41C
330
C3AD
100
AcDbDictionary
280
     1
281
     1
  3
ACAD_XREC_ROUNDTRIP
360
C41D
  0
DICTIONARY
  5
C402
330
C3A0
100
AcDbDictionary
280
     1
281
     1
  3
ACAD_XREC_ROUNDTRIP
360
C403
  0
DICTIONARY
  5
C418
330
C3AB
100
AcDbDictionary
280
     1
281
     1
  3
ACAD_XREC_ROUNDTRIP
360
C419
  0
DICTIONARY
  5
C416
330
C3AA
100
AcDbDictionary
280
     1
281
     1
  3
ACAD_XREC_ROUNDTRIP
360
C417
  0
DICTIONARY
  5
C410
330
C3A7
100
AcDbDictionary
280
     1
281
     1
  3
ACAD_XREC_ROUNDTRIP
360
C411
  0
DICTIONARY
  5
C412
330
C3A8
100
AcDbDictionary
280
     1
281
     1
  3
ACAD_XREC_ROUNDTRIP
360
C413
  0
DICTIONARY
  5
C408
330
C3A3
100
AcDbDictionary
280
     1
281
     1
  3
ACAD_XREC_ROUNDTRIP
360
C409
  0
DICTIONARY
  5
C3FC
330
C39D
100
AcDbDictionary
280
     1
281
     1
  3
ACAD_XREC_ROUNDTRIP
360
C3FD
  0
DICTIONARY
  5
C414
330
C3A9
100
AcDbDictionary
280
     1
281
     1
  3
ACAD_XREC_ROUNDTRIP
360
C415
  0
XRECORD
  5
C425
102
{ACAD_REACTORS
330
C424
102
}
330
C424
100
AcDbXrecord
280
     1
102
DISPLAYNAME
  1
Imperial24
102
FLAGS
 90
        0
  0
XRECORD
  5
C427
102
{ACAD_REACTORS
330
C426
102
}
330
C426
100
AcDbXrecord
280
     1
102
SHADEPLOT
 70
     0
102
SHADEPLOTRESLEVEL
 70
     2
102
SHADEPLOTCUSTOMDPI
 70
   300
  0
XRECORD
  5
C429
102
{ACAD_REACTORS
330
C428
102
}
330
C428
100
AcDbXrecord
280
     1
102
SHADEPLOT
 70
     0
102
SHADEPLOTRESLEVEL
 70
     2
102
SHADEPLOTCUSTOMDPI
 70
   300
  0
XRECORD
  5
C3EE
102
{ACAD_REACTORS
330
C387
102
}
330
C387
100
AcDbXrecord
280
     1
102
MATERIAL
148
0.0
149
0.0
149
0.0
 93
        0
 94
      127
282
     0
 72
     0
 77
     0
171
     0
175
     0
179
     0
273
     0
  0
XRECORD
  5
C389
102
{ACAD_REACTORS
330
C387
102
}
330
C387
100
AcDbXrecord
280
     1
270
     1
271
     1
  0
XRECORD
  5
C388
102
{ACAD_REACTORS
330
C387
102
}
330
C387
100
AcDbXrecord
280
     1
270
     1
271
     1
  0
XRECORD
  5
C38C
102
{ACAD_REACTORS
330
C387
102
}
330
C387
100
AcDbXrecord
280
     1
270
     1
271
     1
  0
XRECORD
  5
C38B
102
{ACAD_REACTORS
330
C387
102
}
330
C387
100
AcDbXrecord
280
     1
270
     1
271
     1
  0
XRECORD
  5
C38D
102
{ACAD_REACTORS
330
C387
102
}
330
C387
100
AcDbXrecord
280
     1
270
     1
271
     1
  0
XRECORD
  5
C38A
102
{ACAD_REACTORS
330
C387
102
}
330
C387
100
AcDbXrecord
280
     1
270
     1
271
     1
  0
XRECORD
  5
C3ED
102
{ACAD_REACTORS
330
C37F
102
}
330
C37F
100
AcDbXrecord
280
     1
102
MATERIAL
148
0.0
149
0.0
149
0.0
 93
        0
 94
      127
282
     0
 72
     0
 77
     0
171
     0
175
     0
179
     0
273
     0
  0
XRECORD
  5
C381
102
{ACAD_REACTORS
330
C37F
102
}
330
C37F
100
AcDbXrecord
280
     1
270
     1
271
     1
  0
XRECORD
  5
C380
102
{ACAD_REACTORS
330
C37F
102
}
330
C37F
100
AcDbXrecord
280
     1
270
     1
271
     1
  0
XRECORD
  5
C384
102
{ACAD_REACTORS
330
C37F
102
}
330
C37F
100
AcDbXrecord
280
     1
270
     1
271
     1
  0
XRECORD
  5
C383
102
{ACAD_REACTORS
330
C37F
102
}
330
C37F
100
AcDbXrecord
280
     1
270
     1
271
     1
  0
XRECORD
  5
C385
102
{ACAD_REACTORS
330
C37F
102
}
330
C37F
100
AcDbXrecord
280
     1
270
     1
271
     1
  0
XRECORD
  5
C382
102
{ACAD_REACTORS
330
C37F
102
}
330
C37F
100
AcDbXrecord
280
     1
270
     1
271
     1
  0
XRECORD
  5
C3EF
102
{ACAD_REACTORS
330
C38F
102
}
330
C38F
100
AcDbXrecord
280
     1
102
MATERIAL
148
0.0
149
0.0
149
0.0
 93
        0
 94
      127
282
     0
 72
     0
 77
     0
171
     0
175
     0
179
     0
273
     0
  0
XRECORD
  5
C391
102
{ACAD_REACTORS
330
C38F
102
}
330
C38F
100
AcDbXrecord
280
     1
270
     1
271
     1
  0
XRECORD
  5
C390
102
{ACAD_REACTORS
330
C38F
102
}
330
C38F
100
AcDbXrecord
280
     1
270
     1
271
     1
  0
XRECORD
  5
C394
102
{ACAD_REACTORS
330
C38F
102
}
330
C38F
100
AcDbXrecord
280
     1
270
     1
271
     1
  0
XRECORD
  5
C393
102
{ACAD_REACTORS
330
C38F
102
}
330
C38F
100
AcDbXrecord
280
     1
270
     1
271
     1
  0
XRECORD
  5
C395
102
{ACAD_REACTORS
330
C38F
102
}
330
C38F
100
AcDbXrecord
280
     1
270
     1
271
     1
  0
XRECORD
  5
C392
102
{ACAD_REACTORS
330
C38F
102
}
330
C38F
100
AcDbXrecord
280
     1
270
     1
271
     1
  0
XRECORD
  5
C423
102
{ACAD_REACTORS
330
C422
102
}
330
C422
100
AcDbXrecord
280
     1
102
DISPLAYNAME
  1
Imperial24
102
FLAGS
 90
        0
  0
CELLSTYLEMAP
  5
C3EA
102
{ACAD_REACTORS
330
C3E9
102
}
330
C3E9
100
AcDbCellStyleMap
 90
        3
300
CELLSTYLE
  1
TABLEFORMAT_BEGIN
 90
        5
170
     1
 91
        0
 92
    32768
 62
   257
 93
        1
300
CONTENTFORMAT
  1
CONTENTFORMAT_BEGIN
 90
        0
 91
        0
 92
      512
 93
        0
300

 40
0.0
140
1.0
 94
        5
 62
     0
340
BEE1
144
0.25
309
CONTENTFORMAT_END
171
     0
 94
        0
309
TABLEFORMAT_END
  1
CELLSTYLE_BEGIN
 90
        1
 91
        1
300
_TITLE
309
CELLSTYLE_END
300
CELLSTYLE
  1
TABLEFORMAT_BEGIN
 90
        5
170
     1
 91
        0
 92
        0
 62
   257
 93
        1
300
CONTENTFORMAT
  1
CONTENTFORMAT_BEGIN
 90
        0
 91
        0
 92
      512
 93
        0
300

 40
0.0
140
1.0
 94
        5
 62
     0
340
BEE1
144
0.18
309
CONTENTFORMAT_END
171
     0
 94
        0
309
TABLEFORMAT_END
  1
CELLSTYLE_BEGIN
 90
        2
 91
        1
300
_HEADER
309
CELLSTYLE_END
300
CELLSTYLE
  1
TABLEFORMAT_BEGIN
 90
        5
170
     1
 91
        0
 92
        0
 62
   257
 93
        1
300
CONTENTFORMAT
  1
CONTENTFORMAT_BEGIN
 90
        0
 91
        0
 92
      512
 93
        0
300

 40
0.0
140
1.0
 94
        2
 62
     0
340
BEE1
144
0.18
309
CONTENTFORMAT_END
171
     0
 94
        0
309
TABLEFORMAT_END
  1
CELLSTYLE_BEGIN
 90
        3
 91
        2
300
_DATA
309
CELLSTYLE_END
  0
XRECORD
  5
C420
102
{ACAD_REACTORS
330
C3E9
102
}
330
C3E9
100
AcDbXrecord
280
     1
102
ACAD_ROUNDTRIP_PRE2007_TABLESTYLE
 90
      512
 91
        0
  1

 92
      512
 93
        0
  2

 94
      512
 95
        0
  3

  0
XRECORD
  5
C3FB
102
{ACAD_REACTORS
330
C3FA
102
}
330
C3FA
100
AcDbXrecord
280
     1
102
RTVSPost2010Prop28
280
     1
102
RTVSPost2010PropOp28
 70
     1
102
RTVSPost2010Prop29
280
     1
102
RTVSPost2010PropOp29
 70
     1
102
RTVSPost2010Prop30
280
     0
102
RTVSPost2010PropOp30
 70
     1
102
RTVSPost2010Prop31
280
     0
102
RTVSPost2010PropOp31
 70
     1
102
RTVSPost2010Prop32
280
     0
102
RTVSPost2010PropOp32
 70
     1
102
RTVSPost2010Prop33
280
     0
102
RTVSPost2010PropOp33
 70
     1
102
RTVSPost2010Prop34
280
     0
102
RTVSPost2010PropOp34
 70
     1
102
RTVSPost2010Prop35
280
     0
102
RTVSPost2010PropOp35
 70
     1
102
RTVSPost2010Prop36
280
     0
102
RTVSPost2010PropOp36
 70
     1
102
RTVSPost2010Prop37
 90
       50
102
RTVSPost2010PropOp37
 70
     1
102
RTVSPost2010Prop38
140
0.0
102
RTVSPost2010PropOp38
 70
     1
102
RTVSPost2010Prop39
140
1.0
102
RTVSPost2010PropOp39
 70
     1
102
RTVSPost2010Prop40
 90
        0
102
RTVSPost2010PropOp40
 70
     1
102
RTVSPost2010Prop41ColorIndex
 90
       18
102
RTVSPost2010Prop41ColorRGB
 90
        0
102
RTVSPost2010PropOp41
 70
     1
102
RTVSPost2010Prop42
 90
       50
102
RTVSPost2010PropOp42
 70
     1
102
RTVSPost2010Prop43
 90
        3
102
RTVSPost2010PropOp43
 70
     1
102
RTVSPost2010Prop44ColorIndex
 90
        5
102
RTVSPost2010Prop44ColorRGB
 90
      255
102
RTVSPost2010PropOp44
 70
     1
102
RTVSPost2010Prop45
280
     0
102
RTVSPost2010PropOp45
 70
     1
102
RTVSPost2010Prop46
 90
       50
102
RTVSPost2010PropOp46
 70
     1
102
RTVSPost2010Prop47
 90
       50
102
RTVSPost2010PropOp47
 70
     1
102
RTVSPost2010Prop48
 90
       50
102
RTVSPost2010PropOp48
 70
     1
102
RTVSPost2010Prop49
280
     0
102
RTVSPost2010PropOp49
 70
     1
102
RTVSPost2010Prop50
 90
       50
102
RTVSPost2010PropOp50
 70
     1
102
RTVSPost2010Prop51ColorIndex
 90
      256
102
RTVSPost2010Prop51ColorRGB
 90
-16777216
102
RTVSPost2010PropOp51
 70
     0
102
RTVSPost2010Prop52
140
1.0
102
RTVSPost2010PropOp52
 70
     0
102
RTVSPost2010Prop53
 90
        2
102
RTVSPost2010PropOp53
 70
     1
102
RTVSPost2010Prop54
  1
strokes_ogs.tif
102
RTVSPost2010PropOp54
 70
     1
102
RTVSPost2010Prop55
280
     0
102
RTVSPost2010PropOp55
 70
     1
102
RTVSPost2010Prop56
140
1.0
102
RTVSPost2010PropOp56
 70
     1
102
RTVSPost2010Prop57
140
1.0
102
RTVSPost2010PropOp57
 70
     1
102
RTVSPropertyOp0
 70
     1
102
RTVSPropertyOp1
 70
     1
102
RTVSPropertyOp2
 70
     1
102
RTVSPropertyOp3
 70
     1
102
RTVSPropertyOp4
 70
     1
102
RTVSPropertyOp5
 70
     1
102
RTVSPropertyOp6
 70
     1
102
RTVSPropertyOp7
 70
     1
102
RTVSPropertyOp8
 70
     1
102
RTVSPropertyOp9
 70
     1
102
RTVSPropertyOp10
 70
     1
102
RTVSPropertyOp11
 70
     1
102
RTVSPropertyOp12
 70
     1
102
RTVSPropertyOp13
 70
     1
102
RTVSPropertyOp14
 70
     1
102
RTVSPropertyOp15
 70
     1
102
RTVSPropertyOp16
 70
     1
102
RTVSPropertyOp17
 70
     1
102
RTVSPropertyOp18
 70
     1
102
RTVSPropertyOp19
 70
     1
102
RTVSPropertyOp20
 70
     1
102
RTVSPropertyOp21
 70
     1
102
RTVSPropertyOp22
 70
     1
102
RTVSPropertyOp23
 70
     1
102
RTVSPropertyOp24
 70
     1
102
RTVSPropertyOp25
 70
     1
102
RTVSPropertyOp26
 70
     1
102
RTVSPropertyOp27
 70
     1
102
RTVSPropertyOp28
 70
     1
102
RTVSPropertyOp29
 70
     1
102
RTVSPropertyOp30
 70
     1
102
RTVSPropertyOp31
 70
     1
102
RTVSPropertyOp32
 70
     1
102
RTVSPropertyOp33
 70
     1
102
RTVSPropertyOp34
 70
     1
102
RTVSPropertyOp35
 70
     1
102
RTVSPropertyOp36
 70
     1
102
RTVSPropertyOp37
 70
     1
102
RTVSPropertyOp38
 70
     1
102
RTVSPropertyOp39
 70
     1
102
RTVSPropertyOp40
 70
     1
102
RTVSPropertyOp41
 70
     1
102
RTVSPropertyOp42
 70
     1
102
RTVSPropertyOp43
 70
     1
102
RTVSPropertyOp44
 70
     1
102
RTVSPropertyOp45
 70
     1
102
RTVSPropertyOp46
 70
     1
102
RTVSPropertyOp47
 70
     1
102
RTVSPropertyOp48
 70
     1
102
RTVSPropertyOp49
 70
     1
102
RTVSPropertyOp50
 70
     1
102
RTVSPropertyOp51
 70
     0
102
RTVSPropertyOp52
 70
     0
102
RTVSPropertyOp53
 70
     1
102
RTVSPropertyOp54
 70
     1
102
RTVSPropertyOp55
 70
     1
102
RTVSPropertyOp56
 70
     1
102
RTVSPropertyOp57
 70
     1
102
RTVSPropertyOp58
 70
     1
102
RTVSPropertyOp59
 70
     1
102
RTVSPropertyOp60
 70
     1
102
RTVSPropertyOp61
 70
     1
102
RTVSPropertyOp62
 70
     1
  0
XRECORD
  5
C3F9
102
{ACAD_REACTORS
330
C3F8
102
}
330
C3F8
100
AcDbXrecord
280
     1
102
RTVSPost2010Prop28
280
     0
102
RTVSPost2010PropOp28
 70
     1
102
RTVSPost2010Prop29
280
     1
102
RTVSPost2010PropOp29
 70
     1
102
RTVSPost2010Prop30
280
     1
102
RTVSPost2010PropOp30
 70
     1
102
RTVSPost2010Prop31
280
     0
102
RTVSPost2010PropOp31
 70
     1
102
RTVSPost2010Prop32
280
     0
102
RTVSPost2010PropOp32
 70
     1
102
RTVSPost2010Prop33
280
     0
102
RTVSPost2010PropOp33
 70
     1
102
RTVSPost2010Prop34
280
     0
102
RTVSPost2010PropOp34
 70
     1
102
RTVSPost2010Prop35
280
     0
102
RTVSPost2010PropOp35
 70
     1
102
RTVSPost2010Prop36
280
     0
102
RTVSPost2010PropOp36
 70
     1
102
RTVSPost2010Prop37
 90
       50
102
RTVSPost2010PropOp37
 70
     1
102
RTVSPost2010Prop38
140
0.0
102
RTVSPost2010PropOp38
 70
     1
102
RTVSPost2010Prop39
140
1.0
102
RTVSPost2010PropOp39
 70
     1
102
RTVSPost2010Prop40
 90
        0
102
RTVSPost2010PropOp40
 70
     1
102
RTVSPost2010Prop41ColorIndex
 90
       18
102
RTVSPost2010Prop41ColorRGB
 90
        0
102
RTVSPost2010PropOp41
 70
     1
102
RTVSPost2010Prop42
 90
       50
102
RTVSPost2010PropOp42
 70
     1
102
RTVSPost2010Prop43
 90
        3
102
RTVSPost2010PropOp43
 70
     1
102
RTVSPost2010Prop44ColorIndex
 90
        5
102
RTVSPost2010Prop44ColorRGB
 90
      255
102
RTVSPost2010PropOp44
 70
     1
102
RTVSPost2010Prop45
280
     0
102
RTVSPost2010PropOp45
 70
     1
102
RTVSPost2010Prop46
 90
       50
102
RTVSPost2010PropOp46
 70
     1
102
RTVSPost2010Prop47
 90
       50
102
RTVSPost2010PropOp47
 70
     1
102
RTVSPost2010Prop48
 90
       50
102
RTVSPost2010PropOp48
 70
     1
102
RTVSPost2010Prop49
280
     0
102
RTVSPost2010PropOp49
 70
     1
102
RTVSPost2010Prop50
 90
       50
102
RTVSPost2010PropOp50
 70
     1
102
RTVSPost2010Prop51ColorIndex
 90
      256
102
RTVSPost2010Prop51ColorRGB
 90
-16777216
102
RTVSPost2010PropOp51
 70
     0
102
RTVSPost2010Prop52
140
1.0
102
RTVSPost2010PropOp52
 70
     0
102
RTVSPost2010Prop53
 90
        2
102
RTVSPost2010PropOp53
 70
     1
102
RTVSPost2010Prop54
  1
strokes_ogs.tif
102
RTVSPost2010PropOp54
 70
     1
102
RTVSPost2010Prop55
280
     0
102
RTVSPost2010PropOp55
 70
     1
102
RTVSPost2010Prop56
140
1.0
102
RTVSPost2010PropOp56
 70
     1
102
RTVSPost2010Prop57
140
1.0
102
RTVSPost2010PropOp57
 70
     1
102
RTVSPropertyOp0
 70
     1
102
RTVSPropertyOp1
 70
     1
102
RTVSPropertyOp2
 70
     1
102
RTVSPropertyOp3
 70
     1
102
RTVSPropertyOp4
 70
     1
102
RTVSPropertyOp5
 70
     1
102
RTVSPropertyOp6
 70
     1
102
RTVSPropertyOp7
 70
     1
102
RTVSPropertyOp8
 70
     1
102
RTVSPropertyOp9
 70
     1
102
RTVSPropertyOp10
 70
     1
102
RTVSPropertyOp11
 70
     1
102
RTVSPropertyOp12
 70
     1
102
RTVSPropertyOp13
 70
     1
102
RTVSPropertyOp14
 70
     1
102
RTVSPropertyOp15
 70
     1
102
RTVSPropertyOp16
 70
     1
102
RTVSPropertyOp17
 70
     1
102
RTVSPropertyOp18
 70
     1
102
RTVSPropertyOp19
 70
     1
102
RTVSPropertyOp20
 70
     1
102
RTVSPropertyOp21
 70
     1
102
RTVSPropertyOp22
 70
     1
102
RTVSPropertyOp23
 70
     1
102
RTVSPropertyOp24
 70
     1
102
RTVSPropertyOp25
 70
     1
102
RTVSPropertyOp26
 70
     1
102
RTVSPropertyOp27
 70
     1
102
RTVSPropertyOp28
 70
     1
102
RTVSPropertyOp29
 70
     1
102
RTVSPropertyOp30
 70
     1
102
RTVSPropertyOp31
 70
     1
102
RTVSPropertyOp32
 70
     1
102
RTVSPropertyOp33
 70
     1
102
RTVSPropertyOp34
 70
     1
102
RTVSPropertyOp35
 70
     1
102
RTVSPropertyOp36
 70
     1
102
RTVSPropertyOp37
 70
     1
102
RTVSPropertyOp38
 70
     1
102
RTVSPropertyOp39
 70
     1
102
RTVSPropertyOp40
 70
     1
102
RTVSPropertyOp41
 70
     1
102
RTVSPropertyOp42
 70
     1
102
RTVSPropertyOp43
 70
     1
102
RTVSPropertyOp44
 70
     1
102
RTVSPropertyOp45
 70
     1
102
RTVSPropertyOp46
 70
     1
102
RTVSPropertyOp47
 70
     1
102
RTVSPropertyOp48
 70
     1
102
RTVSPropertyOp49
 70
     1
102
RTVSPropertyOp50
 70
     1
102
RTVSPropertyOp51
 70
     0
102
RTVSPropertyOp52
 70
     0
102
RTVSPropertyOp53
 70
     1
102
RTVSPropertyOp54
 70
     1
102
RTVSPropertyOp55
 70
     1
102
RTVSPropertyOp56
 70
     1
102
RTVSPropertyOp57
 70
     1
102
RTVSPropertyOp58
 70
     1
102
RTVSPropertyOp59
 70
     1
102
RTVSPropertyOp60
 70
     1
102
RTVSPropertyOp61
 70
     1
102
RTVSPropertyOp62
 70
     1
  0
XRECORD
  5
C407
102
{ACAD_REACTORS
330
C406
102
}
330
C406
100
AcDbXrecord
280
     1
102
RTVSPost2010Prop28
280
     0
102
RTVSPost2010PropOp28
 70
     1
102
RTVSPost2010Prop29
280
     1
102
RTVSPost2010PropOp29
 70
     1
102
RTVSPost2010Prop30
280
     1
102
RTVSPost2010PropOp30
 70
     1
102
RTVSPost2010Prop31
280
     0
102
RTVSPost2010PropOp31
 70
     1
102
RTVSPost2010Prop32
280
     0
102
RTVSPost2010PropOp32
 70
     1
102
RTVSPost2010Prop33
280
     0
102
RTVSPost2010PropOp33
 70
     1
102
RTVSPost2010Prop34
280
     0
102
RTVSPost2010PropOp34
 70
     1
102
RTVSPost2010Prop35
280
     0
102
RTVSPost2010PropOp35
 70
     1
102
RTVSPost2010Prop36
280
     0
102
RTVSPost2010PropOp36
 70
     1
102
RTVSPost2010Prop37
 90
       50
102
RTVSPost2010PropOp37
 70
     1
102
RTVSPost2010Prop38
140
0.0
102
RTVSPost2010PropOp38
 70
     1
102
RTVSPost2010Prop39
140
1.0
102
RTVSPost2010PropOp39
 70
     1
102
RTVSPost2010Prop40
 90
        0
102
RTVSPost2010PropOp40
 70
     1
102
RTVSPost2010Prop41ColorIndex
 90
       18
102
RTVSPost2010Prop41ColorRGB
 90
        0
102
RTVSPost2010PropOp41
 70
     1
102
RTVSPost2010Prop42
 90
       50
102
RTVSPost2010PropOp42
 70
     1
102
RTVSPost2010Prop43
 90
        3
102
RTVSPost2010PropOp43
 70
     1
102
RTVSPost2010Prop44ColorIndex
 90
        5
102
RTVSPost2010Prop44ColorRGB
 90
      255
102
RTVSPost2010PropOp44
 70
     1
102
RTVSPost2010Prop45
280
     0
102
RTVSPost2010PropOp45
 70
     1
102
RTVSPost2010Prop46
 90
       50
102
RTVSPost2010PropOp46
 70
     1
102
RTVSPost2010Prop47
 90
       50
102
RTVSPost2010PropOp47
 70
     1
102
RTVSPost2010Prop48
 90
       50
102
RTVSPost2010PropOp48
 70
     1
102
RTVSPost2010Prop49
280
     0
102
RTVSPost2010PropOp49
 70
     1
102
RTVSPost2010Prop50
 90
       50
102
RTVSPost2010PropOp50
 70
     1
102
RTVSPost2010Prop51ColorIndex
 90
      256
102
RTVSPost2010Prop51ColorRGB
 90
-16777216
102
RTVSPost2010PropOp51
 70
     0
102
RTVSPost2010Prop52
140
1.0
102
RTVSPost2010PropOp52
 70
     0
102
RTVSPost2010Prop53
 90
        2
102
RTVSPost2010PropOp53
 70
     1
102
RTVSPost2010Prop54
  1
strokes_ogs.tif
102
RTVSPost2010PropOp54
 70
     1
102
RTVSPost2010Prop55
280
     0
102
RTVSPost2010PropOp55
 70
     1
102
RTVSPost2010Prop56
140
1.0
102
RTVSPost2010PropOp56
 70
     1
102
RTVSPost2010Prop57
140
1.0
102
RTVSPost2010PropOp57
 70
     1
102
RTVSPropertyOp0
 70
     1
102
RTVSPropertyOp1
 70
     1
102
RTVSPropertyOp2
 70
     1
102
RTVSPropertyOp3
 70
     1
102
RTVSPropertyOp4
 70
     1
102
RTVSPropertyOp5
 70
     1
102
RTVSPropertyOp6
 70
     1
102
RTVSPropertyOp7
 70
     1
102
RTVSPropertyOp8
 70
     1
102
RTVSPropertyOp9
 70
     1
102
RTVSPropertyOp10
 70
     1
102
RTVSPropertyOp11
 70
     1
102
RTVSPropertyOp12
 70
     1
102
RTVSPropertyOp13
 70
     1
102
RTVSPropertyOp14
 70
     1
102
RTVSPropertyOp15
 70
     1
102
RTVSPropertyOp16
 70
     1
102
RTVSPropertyOp17
 70
     1
102
RTVSPropertyOp18
 70
     1
102
RTVSPropertyOp19
 70
     1
102
RTVSPropertyOp20
 70
     1
102
RTVSPropertyOp21
 70
     1
102
RTVSPropertyOp22
 70
     1
102
RTVSPropertyOp23
 70
     1
102
RTVSPropertyOp24
 70
     1
102
RTVSPropertyOp25
 70
     1
102
RTVSPropertyOp26
 70
     1
102
RTVSPropertyOp27
 70
     1
102
RTVSPropertyOp28
 70
     1
102
RTVSPropertyOp29
 70
     1
102
RTVSPropertyOp30
 70
     1
102
RTVSPropertyOp31
 70
     1
102
RTVSPropertyOp32
 70
     1
102
RTVSPropertyOp33
 70
     1
102
RTVSPropertyOp34
 70
     1
102
RTVSPropertyOp35
 70
     1
102
RTVSPropertyOp36
 70
     1
102
RTVSPropertyOp37
 70
     1
102
RTVSPropertyOp38
 70
     1
102
RTVSPropertyOp39
 70
     1
102
RTVSPropertyOp40
 70
     1
102
RTVSPropertyOp41
 70
     1
102
RTVSPropertyOp42
 70
     1
102
RTVSPropertyOp43
 70
     1
102
RTVSPropertyOp44
 70
     1
102
RTVSPropertyOp45
 70
     1
102
RTVSPropertyOp46
 70
     1
102
RTVSPropertyOp47
 70
     1
102
RTVSPropertyOp48
 70
     1
102
RTVSPropertyOp49
 70
     1
102
RTVSPropertyOp50
 70
     1
102
RTVSPropertyOp51
 70
     0
102
RTVSPropertyOp52
 70
     0
102
RTVSPropertyOp53
 70
     1
102
RTVSPropertyOp54
 70
     1
102
RTVSPropertyOp55
 70
     1
102
RTVSPropertyOp56
 70
     1
102
RTVSPropertyOp57
 70
     1
102
RTVSPropertyOp58
 70
     1
102
RTVSPropertyOp59
 70
     1
102
RTVSPropertyOp60
 70
     1
102
RTVSPropertyOp61
 70
     1
102
RTVSPropertyOp62
 70
     1
  0
XRECORD
  5
C40F
102
{ACAD_REACTORS
330
C40E
102
}
330
C40E
100
AcDbXrecord
280
     1
102
RTVSPost2010Prop28
280
     0
102
RTVSPost2010PropOp28
 70
     1
102
RTVSPost2010Prop29
280
     1
102
RTVSPost2010PropOp29
 70
     1
102
RTVSPost2010Prop30
280
     1
102
RTVSPost2010PropOp30
 70
     1
102
RTVSPost2010Prop31
280
     0
102
RTVSPost2010PropOp31
 70
     1
102
RTVSPost2010Prop32
280
     0
102
RTVSPost2010PropOp32
 70
     1
102
RTVSPost2010Prop33
280
     0
102
RTVSPost2010PropOp33
 70
     1
102
RTVSPost2010Prop34
280
     0
102
RTVSPost2010PropOp34
 70
     1
102
RTVSPost2010Prop35
280
     0
102
RTVSPost2010PropOp35
 70
     1
102
RTVSPost2010Prop36
280
     0
102
RTVSPost2010PropOp36
 70
     1
102
RTVSPost2010Prop37
 90
       50
102
RTVSPost2010PropOp37
 70
     1
102
RTVSPost2010Prop38
140
0.0
102
RTVSPost2010PropOp38
 70
     1
102
RTVSPost2010Prop39
140
1.0
102
RTVSPost2010PropOp39
 70
     1
102
RTVSPost2010Prop40
 90
        0
102
RTVSPost2010PropOp40
 70
     1
102
RTVSPost2010Prop41ColorIndex
 90
       18
102
RTVSPost2010Prop41ColorRGB
 90
        0
102
RTVSPost2010PropOp41
 70
     1
102
RTVSPost2010Prop42
 90
       50
102
RTVSPost2010PropOp42
 70
     1
102
RTVSPost2010Prop43
 90
        3
102
RTVSPost2010PropOp43
 70
     1
102
RTVSPost2010Prop44ColorIndex
 90
        5
102
RTVSPost2010Prop44ColorRGB
 90
      255
102
RTVSPost2010PropOp44
 70
     1
102
RTVSPost2010Prop45
280
     0
102
RTVSPost2010PropOp45
 70
     1
102
RTVSPost2010Prop46
 90
       50
102
RTVSPost2010PropOp46
 70
     1
102
RTVSPost2010Prop47
 90
       50
102
RTVSPost2010PropOp47
 70
     1
102
RTVSPost2010Prop48
 90
       50
102
RTVSPost2010PropOp48
 70
     1
102
RTVSPost2010Prop49
280
     0
102
RTVSPost2010PropOp49
 70
     1
102
RTVSPost2010Prop50
 90
       50
102
RTVSPost2010PropOp50
 70
     1
102
RTVSPost2010Prop51ColorIndex
 90
      256
102
RTVSPost2010Prop51ColorRGB
 90
-16777216
102
RTVSPost2010PropOp51
 70
     0
102
RTVSPost2010Prop52
140
1.0
102
RTVSPost2010PropOp52
 70
     0
102
RTVSPost2010Prop53
 90
        2
102
RTVSPost2010PropOp53
 70
     1
102
RTVSPost2010Prop54
  1
strokes_ogs.tif
102
RTVSPost2010PropOp54
 70
     1
102
RTVSPost2010Prop55
280
     0
102
RTVSPost2010PropOp55
 70
     1
102
RTVSPost2010Prop56
140
1.0
102
RTVSPost2010PropOp56
 70
     1
102
RTVSPost2010Prop57
140
1.0
102
RTVSPost2010PropOp57
 70
     1
102
RTVSPropertyOp0
 70
     1
102
RTVSPropertyOp1
 70
     1
102
RTVSPropertyOp2
 70
     1
102
RTVSPropertyOp3
 70
     1
102
RTVSPropertyOp4
 70
     1
102
RTVSPropertyOp5
 70
     1
102
RTVSPropertyOp6
 70
     1
102
RTVSPropertyOp7
 70
     1
102
RTVSPropertyOp8
 70
     1
102
RTVSPropertyOp9
 70
     1
102
RTVSPropertyOp10
 70
     1
102
RTVSPropertyOp11
 70
     1
102
RTVSPropertyOp12
 70
     1
102
RTVSPropertyOp13
 70
     1
102
RTVSPropertyOp14
 70
     1
102
RTVSPropertyOp15
 70
     1
102
RTVSPropertyOp16
 70
     1
102
RTVSPropertyOp17
 70
     1
102
RTVSPropertyOp18
 70
     1
102
RTVSPropertyOp19
 70
     1
102
RTVSPropertyOp20
 70
     1
102
RTVSPropertyOp21
 70
     1
102
RTVSPropertyOp22
 70
     1
102
RTVSPropertyOp23
 70
     1
102
RTVSPropertyOp24
 70
     1
102
RTVSPropertyOp25
 70
     1
102
RTVSPropertyOp26
 70
     1
102
RTVSPropertyOp27
 70
     1
102
RTVSPropertyOp28
 70
     1
102
RTVSPropertyOp29
 70
     1
102
RTVSPropertyOp30
 70
     1
102
RTVSPropertyOp31
 70
     1
102
RTVSPropertyOp32
 70
     1
102
RTVSPropertyOp33
 70
     1
102
RTVSPropertyOp34
 70
     1
102
RTVSPropertyOp35
 70
     1
102
RTVSPropertyOp36
 70
     1
102
RTVSPropertyOp37
 70
     1
102
RTVSPropertyOp38
 70
     1
102
RTVSPropertyOp39
 70
     1
102
RTVSPropertyOp40
 70
     1
102
RTVSPropertyOp41
 70
     1
102
RTVSPropertyOp42
 70
     1
102
RTVSPropertyOp43
 70
     1
102
RTVSPropertyOp44
 70
     1
102
RTVSPropertyOp45
 70
     1
102
RTVSPropertyOp46
 70
     1
102
RTVSPropertyOp47
 70
     1
102
RTVSPropertyOp48
 70
     1
102
RTVSPropertyOp49
 70
     1
102
RTVSPropertyOp50
 70
     1
102
RTVSPropertyOp51
 70
     0
102
RTVSPropertyOp52
 70
     0
102
RTVSPropertyOp53
 70
     1
102
RTVSPropertyOp54
 70
     1
102
RTVSPropertyOp55
 70
     1
102
RTVSPropertyOp56
 70
     1
102
RTVSPropertyOp57
 70
     1
102
RTVSPropertyOp58
 70
     1
102
RTVSPropertyOp59
 70
     1
102
RTVSPropertyOp60
 70
     1
102
RTVSPropertyOp61
 70
     1
102
RTVSPropertyOp62
 70
     1
  0
XRECORD
  5
C401
102
{ACAD_REACTORS
330
C400
102
}
330
C400
100
AcDbXrecord
280
     1
102
RTVSPost2010Prop28
280
     0
102
RTVSPost2010PropOp28
 70
     1
102
RTVSPost2010Prop29
280
     1
102
RTVSPost2010PropOp29
 70
     1
102
RTVSPost2010Prop30
280
     1
102
RTVSPost2010PropOp30
 70
     1
102
RTVSPost2010Prop31
280
     0
102
RTVSPost2010PropOp31
 70
     1
102
RTVSPost2010Prop32
280
     0
102
RTVSPost2010PropOp32
 70
     1
102
RTVSPost2010Prop33
280
     0
102
RTVSPost2010PropOp33
 70
     1
102
RTVSPost2010Prop34
280
     0
102
RTVSPost2010PropOp34
 70
     1
102
RTVSPost2010Prop35
280
     0
102
RTVSPost2010PropOp35
 70
     1
102
RTVSPost2010Prop36
280
     0
102
RTVSPost2010PropOp36
 70
     1
102
RTVSPost2010Prop37
 90
       50
102
RTVSPost2010PropOp37
 70
     1
102
RTVSPost2010Prop38
140
0.0
102
RTVSPost2010PropOp38
 70
     1
102
RTVSPost2010Prop39
140
1.0
102
RTVSPost2010PropOp39
 70
     1
102
RTVSPost2010Prop40
 90
        0
102
RTVSPost2010PropOp40
 70
     1
102
RTVSPost2010Prop41ColorIndex
 90
       18
102
RTVSPost2010Prop41ColorRGB
 90
        0
102
RTVSPost2010PropOp41
 70
     1
102
RTVSPost2010Prop42
 90
       50
102
RTVSPost2010PropOp42
 70
     1
102
RTVSPost2010Prop43
 90
        3
102
RTVSPost2010PropOp43
 70
     1
102
RTVSPost2010Prop44ColorIndex
 90
        5
102
RTVSPost2010Prop44ColorRGB
 90
      255
102
RTVSPost2010PropOp44
 70
     1
102
RTVSPost2010Prop45
280
     0
102
RTVSPost2010PropOp45
 70
     1
102
RTVSPost2010Prop46
 90
       50
102
RTVSPost2010PropOp46
 70
     1
102
RTVSPost2010Prop47
 90
       50
102
RTVSPost2010PropOp47
 70
     1
102
RTVSPost2010Prop48
 90
       50
102
RTVSPost2010PropOp48
 70
     1
102
RTVSPost2010Prop49
280
     0
102
RTVSPost2010PropOp49
 70
     1
102
RTVSPost2010Prop50
 90
       50
102
RTVSPost2010PropOp50
 70
     1
102
RTVSPost2010Prop51ColorIndex
 90
      256
102
RTVSPost2010Prop51ColorRGB
 90
-16777216
102
RTVSPost2010PropOp51
 70
     0
102
RTVSPost2010Prop52
140
1.0
102
RTVSPost2010PropOp52
 70
     0
102
RTVSPost2010Prop53
 90
        2
102
RTVSPost2010PropOp53
 70
     1
102
RTVSPost2010Prop54
  1
strokes_ogs.tif
102
RTVSPost2010PropOp54
 70
     1
102
RTVSPost2010Prop55
280
     0
102
RTVSPost2010PropOp55
 70
     1
102
RTVSPost2010Prop56
140
1.0
102
RTVSPost2010PropOp56
 70
     1
102
RTVSPost2010Prop57
140
1.0
102
RTVSPost2010PropOp57
 70
     1
102
RTVSPropertyOp0
 70
     1
102
RTVSPropertyOp1
 70
     1
102
RTVSPropertyOp2
 70
     1
102
RTVSPropertyOp3
 70
     1
102
RTVSPropertyOp4
 70
     1
102
RTVSPropertyOp5
 70
     1
102
RTVSPropertyOp6
 70
     1
102
RTVSPropertyOp7
 70
     1
102
RTVSPropertyOp8
 70
     1
102
RTVSPropertyOp9
 70
     1
102
RTVSPropertyOp10
 70
     1
102
RTVSPropertyOp11
 70
     1
102
RTVSPropertyOp12
 70
     1
102
RTVSPropertyOp13
 70
     1
102
RTVSPropertyOp14
 70
     1
102
RTVSPropertyOp15
 70
     1
102
RTVSPropertyOp16
 70
     1
102
RTVSPropertyOp17
 70
     1
102
RTVSPropertyOp18
 70
     1
102
RTVSPropertyOp19
 70
     1
102
RTVSPropertyOp20
 70
     1
102
RTVSPropertyOp21
 70
     1
102
RTVSPropertyOp22
 70
     1
102
RTVSPropertyOp23
 70
     1
102
RTVSPropertyOp24
 70
     1
102
RTVSPropertyOp25
 70
     1
102
RTVSPropertyOp26
 70
     1
102
RTVSPropertyOp27
 70
     1
102
RTVSPropertyOp28
 70
     1
102
RTVSPropertyOp29
 70
     1
102
RTVSPropertyOp30
 70
     1
102
RTVSPropertyOp31
 70
     1
102
RTVSPropertyOp32
 70
     1
102
RTVSPropertyOp33
 70
     1
102
RTVSPropertyOp34
 70
     1
102
RTVSPropertyOp35
 70
     1
102
RTVSPropertyOp36
 70
     1
102
RTVSPropertyOp37
 70
     1
102
RTVSPropertyOp38
 70
     1
102
RTVSPropertyOp39
 70
     1
102
RTVSPropertyOp40
 70
     1
102
RTVSPropertyOp41
 70
     1
102
RTVSPropertyOp42
 70
     1
102
RTVSPropertyOp43
 70
     1
102
RTVSPropertyOp44
 70
     1
102
RTVSPropertyOp45
 70
     1
102
RTVSPropertyOp46
 70
     1
102
RTVSPropertyOp47
 70
     1
102
RTVSPropertyOp48
 70
     1
102
RTVSPropertyOp49
 70
     1
102
RTVSPropertyOp50
 70
     1
102
RTVSPropertyOp51
 70
     0
102
RTVSPropertyOp52
 70
     0
102
RTVSPropertyOp53
 70
     1
102
RTVSPropertyOp54
 70
     1
102
RTVSPropertyOp55
 70
     1
102
RTVSPropertyOp56
 70
     1
102
RTVSPropertyOp57
 70
     1
102
RTVSPropertyOp58
 70
     1
102
RTVSPropertyOp59
 70
     1
102
RTVSPropertyOp60
 70
     1
102
RTVSPropertyOp61
 70
     1
102
RTVSPropertyOp62
 70
     1
  0
XRECORD
  5
C405
102
{ACAD_REACTORS
330
C404
102
}
330
C404
100
AcDbXrecord
280
     1
102
RTVSPost2010Prop28
280
     0
102
RTVSPost2010PropOp28
 70
     1
102
RTVSPost2010Prop29
280
     1
102
RTVSPost2010PropOp29
 70
     1
102
RTVSPost2010Prop30
280
     1
102
RTVSPost2010PropOp30
 70
     1
102
RTVSPost2010Prop31
280
     0
102
RTVSPost2010PropOp31
 70
     1
102
RTVSPost2010Prop32
280
     0
102
RTVSPost2010PropOp32
 70
     1
102
RTVSPost2010Prop33
280
     0
102
RTVSPost2010PropOp33
 70
     1
102
RTVSPost2010Prop34
280
     0
102
RTVSPost2010PropOp34
 70
     1
102
RTVSPost2010Prop35
280
     0
102
RTVSPost2010PropOp35
 70
     1
102
RTVSPost2010Prop36
280
     0
102
RTVSPost2010PropOp36
 70
     1
102
RTVSPost2010Prop37
 90
       50
102
RTVSPost2010PropOp37
 70
     1
102
RTVSPost2010Prop38
140
0.0
102
RTVSPost2010PropOp38
 70
     1
102
RTVSPost2010Prop39
140
1.0
102
RTVSPost2010PropOp39
 70
     1
102
RTVSPost2010Prop40
 90
        0
102
RTVSPost2010PropOp40
 70
     1
102
RTVSPost2010Prop41ColorIndex
 90
       18
102
RTVSPost2010Prop41ColorRGB
 90
        0
102
RTVSPost2010PropOp41
 70
     1
102
RTVSPost2010Prop42
 90
       50
102
RTVSPost2010PropOp42
 70
     1
102
RTVSPost2010Prop43
 90
        3
102
RTVSPost2010PropOp43
 70
     1
102
RTVSPost2010Prop44ColorIndex
 90
        5
102
RTVSPost2010Prop44ColorRGB
 90
      255
102
RTVSPost2010PropOp44
 70
     1
102
RTVSPost2010Prop45
280
     0
102
RTVSPost2010PropOp45
 70
     1
102
RTVSPost2010Prop46
 90
       50
102
RTVSPost2010PropOp46
 70
     1
102
RTVSPost2010Prop47
 90
       50
102
RTVSPost2010PropOp47
 70
     1
102
RTVSPost2010Prop48
 90
       50
102
RTVSPost2010PropOp48
 70
     1
102
RTVSPost2010Prop49
280
     0
102
RTVSPost2010PropOp49
 70
     1
102
RTVSPost2010Prop50
 90
       50
102
RTVSPost2010PropOp50
 70
     1
102
RTVSPost2010Prop51ColorIndex
 90
      256
102
RTVSPost2010Prop51ColorRGB
 90
-16777216
102
RTVSPost2010PropOp51
 70
     0
102
RTVSPost2010Prop52
140
1.0
102
RTVSPost2010PropOp52
 70
     0
102
RTVSPost2010Prop53
 90
        2
102
RTVSPost2010PropOp53
 70
     1
102
RTVSPost2010Prop54
  1
strokes_ogs.tif
102
RTVSPost2010PropOp54
 70
     1
102
RTVSPost2010Prop55
280
     0
102
RTVSPost2010PropOp55
 70
     1
102
RTVSPost2010Prop56
140
1.0
102
RTVSPost2010PropOp56
 70
     1
102
RTVSPost2010Prop57
140
1.0
102
RTVSPost2010PropOp57
 70
     1
102
RTVSPropertyOp0
 70
     1
102
RTVSPropertyOp1
 70
     1
102
RTVSPropertyOp2
 70
     1
102
RTVSPropertyOp3
 70
     1
102
RTVSPropertyOp4
 70
     1
102
RTVSPropertyOp5
 70
     1
102
RTVSPropertyOp6
 70
     1
102
RTVSPropertyOp7
 70
     1
102
RTVSPropertyOp8
 70
     1
102
RTVSPropertyOp9
 70
     1
102
RTVSPropertyOp10
 70
     1
102
RTVSPropertyOp11
 70
     1
102
RTVSPropertyOp12
 70
     1
102
RTVSPropertyOp13
 70
     1
102
RTVSPropertyOp14
 70
     1
102
RTVSPropertyOp15
 70
     1
102
RTVSPropertyOp16
 70
     1
102
RTVSPropertyOp17
 70
     1
102
RTVSPropertyOp18
 70
     1
102
RTVSPropertyOp19
 70
     1
102
RTVSPropertyOp20
 70
     1
102
RTVSPropertyOp21
 70
     1
102
RTVSPropertyOp22
 70
     1
102
RTVSPropertyOp23
 70
     1
102
RTVSPropertyOp24
 70
     1
102
RTVSPropertyOp25
 70
     1
102
RTVSPropertyOp26
 70
     1
102
RTVSPropertyOp27
 70
     1
102
RTVSPropertyOp28
 70
     1
102
RTVSPropertyOp29
 70
     1
102
RTVSPropertyOp30
 70
     1
102
RTVSPropertyOp31
 70
     1
102
RTVSPropertyOp32
 70
     1
102
RTVSPropertyOp33
 70
     1
102
RTVSPropertyOp34
 70
     1
102
RTVSPropertyOp35
 70
     1
102
RTVSPropertyOp36
 70
     1
102
RTVSPropertyOp37
 70
     1
102
RTVSPropertyOp38
 70
     1
102
RTVSPropertyOp39
 70
     1
102
RTVSPropertyOp40
 70
     1
102
RTVSPropertyOp41
 70
     1
102
RTVSPropertyOp42
 70
     1
102
RTVSPropertyOp43
 70
     1
102
RTVSPropertyOp44
 70
     1
102
RTVSPropertyOp45
 70
     1
102
RTVSPropertyOp46
 70
     1
102
RTVSPropertyOp47
 70
     1
102
RTVSPropertyOp48
 70
     1
102
RTVSPropertyOp49
 70
     1
102
RTVSPropertyOp50
 70
     1
102
RTVSPropertyOp51
 70
     0
102
RTVSPropertyOp52
 70
     0
102
RTVSPropertyOp53
 70
     1
102
RTVSPropertyOp54
 70
     1
102
RTVSPropertyOp55
 70
     1
102
RTVSPropertyOp56
 70
     1
102
RTVSPropertyOp57
 70
     1
102
RTVSPropertyOp58
 70
     1
102
RTVSPropertyOp59
 70
     1
102
RTVSPropertyOp60
 70
     1
102
RTVSPropertyOp61
 70
     1
102
RTVSPropertyOp62
 70
     1
  0
XRECORD
  5
C41F
102
{ACAD_REACTORS
330
C41E
102
}
330
C41E
100
AcDbXrecord
280
     1
102
RTVSPost2010Prop28
280
     0
102
RTVSPost2010PropOp28
 70
     1
102
RTVSPost2010Prop29
280
     1
102
RTVSPost2010PropOp29
 70
     1
102
RTVSPost2010Prop30
280
     1
102
RTVSPost2010PropOp30
 70
     1
102
RTVSPost2010Prop31
280
     0
102
RTVSPost2010PropOp31
 70
     1
102
RTVSPost2010Prop32
280
     0
102
RTVSPost2010PropOp32
 70
     1
102
RTVSPost2010Prop33
280
     0
102
RTVSPost2010PropOp33
 70
     1
102
RTVSPost2010Prop34
280
     0
102
RTVSPost2010PropOp34
 70
     1
102
RTVSPost2010Prop35
280
     0
102
RTVSPost2010PropOp35
 70
     1
102
RTVSPost2010Prop36
280
     0
102
RTVSPost2010PropOp36
 70
     1
102
RTVSPost2010Prop37
 90
       50
102
RTVSPost2010PropOp37
 70
     0
102
RTVSPost2010Prop38
140
0.0
102
RTVSPost2010PropOp38
 70
     0
102
RTVSPost2010Prop39
140
1.0
102
RTVSPost2010PropOp39
 70
     0
102
RTVSPost2010Prop40
 90
        0
102
RTVSPost2010PropOp40
 70
     0
102
RTVSPost2010Prop41ColorIndex
 90
       18
102
RTVSPost2010Prop41ColorRGB
 90
        0
102
RTVSPost2010PropOp41
 70
     0
102
RTVSPost2010Prop42
 90
       50
102
RTVSPost2010PropOp42
 70
     0
102
RTVSPost2010Prop43
 90
        3
102
RTVSPost2010PropOp43
 70
     0
102
RTVSPost2010Prop44ColorIndex
 90
        5
102
RTVSPost2010Prop44ColorRGB
 90
      255
102
RTVSPost2010PropOp44
 70
     0
102
RTVSPost2010Prop45
280
     0
102
RTVSPost2010PropOp45
 70
     1
102
RTVSPost2010Prop46
 90
       50
102
RTVSPost2010PropOp46
 70
     0
102
RTVSPost2010Prop47
 90
       50
102
RTVSPost2010PropOp47
 70
     0
102
RTVSPost2010Prop48
 90
       50
102
RTVSPost2010PropOp48
 70
     0
102
RTVSPost2010Prop49
280
     0
102
RTVSPost2010PropOp49
 70
     1
102
RTVSPost2010Prop50
 90
       50
102
RTVSPost2010PropOp50
 70
     0
102
RTVSPost2010Prop51ColorIndex
 90
      256
102
RTVSPost2010Prop51ColorRGB
 90
-16777216
102
RTVSPost2010PropOp51
 70
     0
102
RTVSPost2010Prop52
140
1.0
102
RTVSPost2010PropOp52
 70
     0
102
RTVSPost2010Prop53
 90
        2
102
RTVSPost2010PropOp53
 70
     0
102
RTVSPost2010Prop54
  1
strokes_ogs.tif
102
RTVSPost2010PropOp54
 70
     0
102
RTVSPost2010Prop55
280
     0
102
RTVSPost2010PropOp55
 70
     1
102
RTVSPost2010Prop56
140
1.0
102
RTVSPost2010PropOp56
 70
     0
102
RTVSPost2010Prop57
140
1.0
102
RTVSPost2010PropOp57
 70
     0
102
RTVSPropertyOp0
 70
     0
102
RTVSPropertyOp1
 70
     0
102
RTVSPropertyOp2
 70
     0
102
RTVSPropertyOp3
 70
     0
102
RTVSPropertyOp4
 70
     0
102
RTVSPropertyOp5
 70
     0
102
RTVSPropertyOp6
 70
     0
102
RTVSPropertyOp7
 70
     0
102
RTVSPropertyOp8
 70
     0
102
RTVSPropertyOp9
 70
     0
102
RTVSPropertyOp10
 70
     0
102
RTVSPropertyOp11
 70
     0
102
RTVSPropertyOp12
 70
     0
102
RTVSPropertyOp13
 70
     0
102
RTVSPropertyOp14
 70
     2
102
RTVSPropertyOp15
 70
     0
102
RTVSPropertyOp16
 70
     0
102
RTVSPropertyOp17
 70
     0
102
RTVSPropertyOp18
 70
     0
102
RTVSPropertyOp19
 70
     0
102
RTVSPropertyOp20
 70
     0
102
RTVSPropertyOp21
 70
     0
102
RTVSPropertyOp22
 70
     0
102
RTVSPropertyOp23
 70
     0
102
RTVSPropertyOp24
 70
     0
102
RTVSPropertyOp25
 70
     0
102
RTVSPropertyOp26
 70
     0
102
RTVSPropertyOp27
 70
     0
102
RTVSPropertyOp28
 70
     1
102
RTVSPropertyOp29
 70
     1
102
RTVSPropertyOp30
 70
     1
102
RTVSPropertyOp31
 70
     1
102
RTVSPropertyOp32
 70
     1
102
RTVSPropertyOp33
 70
     1
102
RTVSPropertyOp34
 70
     1
102
RTVSPropertyOp35
 70
     1
102
RTVSPropertyOp36
 70
     1
102
RTVSPropertyOp37
 70
     0
102
RTVSPropertyOp38
 70
     0
102
RTVSPropertyOp39
 70
     0
102
RTVSPropertyOp40
 70
     0
102
RTVSPropertyOp41
 70
     0
102
RTVSPropertyOp42
 70
     0
102
RTVSPropertyOp43
 70
     0
102
RTVSPropertyOp44
 70
     0
102
RTVSPropertyOp45
 70
     1
102
RTVSPropertyOp46
 70
     0
102
RTVSPropertyOp47
 70
     0
102
RTVSPropertyOp48
 70
     0
102
RTVSPropertyOp49
 70
     1
102
RTVSPropertyOp50
 70
     0
102
RTVSPropertyOp51
 70
     0
102
RTVSPropertyOp52
 70
     0
102
RTVSPropertyOp53
 70
     0
102
RTVSPropertyOp54
 70
     0
102
RTVSPropertyOp55
 70
     1
102
RTVSPropertyOp56
 70
     0
102
RTVSPropertyOp57
 70
     0
102
RTVSPropertyOp58
 70
     0
102
RTVSPropertyOp59
 70
     0
102
RTVSPropertyOp60
 70
     0
102
RTVSPropertyOp61
 70
     0
102
RTVSPropertyOp62
 70
     0
  0
XRECORD
  5
C40D
102
{ACAD_REACTORS
330
C40C
102
}
330
C40C
100
AcDbXrecord
280
     1
102
RTVSPost2010Prop28
280
     0
102
RTVSPost2010PropOp28
 70
     1
102
RTVSPost2010Prop29
280
     1
102
RTVSPost2010PropOp29
 70
     1
102
RTVSPost2010Prop30
280
     1
102
RTVSPost2010PropOp30
 70
     1
102
RTVSPost2010Prop31
280
     0
102
RTVSPost2010PropOp31
 70
     1
102
RTVSPost2010Prop32
280
     0
102
RTVSPost2010PropOp32
 70
     1
102
RTVSPost2010Prop33
280
     0
102
RTVSPost2010PropOp33
 70
     1
102
RTVSPost2010Prop34
280
     0
102
RTVSPost2010PropOp34
 70
     1
102
RTVSPost2010Prop35
280
     0
102
RTVSPost2010PropOp35
 70
     1
102
RTVSPost2010Prop36
280
     0
102
RTVSPost2010PropOp36
 70
     1
102
RTVSPost2010Prop37
 90
       50
102
RTVSPost2010PropOp37
 70
     1
102
RTVSPost2010Prop38
140
0.0
102
RTVSPost2010PropOp38
 70
     1
102
RTVSPost2010Prop39
140
1.0
102
RTVSPost2010PropOp39
 70
     1
102
RTVSPost2010Prop40
 90
        0
102
RTVSPost2010PropOp40
 70
     1
102
RTVSPost2010Prop41ColorIndex
 90
       18
102
RTVSPost2010Prop41ColorRGB
 90
        0
102
RTVSPost2010PropOp41
 70
     1
102
RTVSPost2010Prop42
 90
       50
102
RTVSPost2010PropOp42
 70
     1
102
RTVSPost2010Prop43
 90
        3
102
RTVSPost2010PropOp43
 70
     1
102
RTVSPost2010Prop44ColorIndex
 90
        5
102
RTVSPost2010Prop44ColorRGB
 90
      255
102
RTVSPost2010PropOp44
 70
     1
102
RTVSPost2010Prop45
280
     0
102
RTVSPost2010PropOp45
 70
     1
102
RTVSPost2010Prop46
 90
       50
102
RTVSPost2010PropOp46
 70
     1
102
RTVSPost2010Prop47
 90
       50
102
RTVSPost2010PropOp47
 70
     1
102
RTVSPost2010Prop48
 90
       50
102
RTVSPost2010PropOp48
 70
     1
102
RTVSPost2010Prop49
280
     0
102
RTVSPost2010PropOp49
 70
     1
102
RTVSPost2010Prop50
 90
       50
102
RTVSPost2010PropOp50
 70
     1
102
RTVSPost2010Prop51ColorIndex
 90
      256
102
RTVSPost2010Prop51ColorRGB
 90
-16777216
102
RTVSPost2010PropOp51
 70
     0
102
RTVSPost2010Prop52
140
1.0
102
RTVSPost2010PropOp52
 70
     0
102
RTVSPost2010Prop53
 90
        2
102
RTVSPost2010PropOp53
 70
     1
102
RTVSPost2010Prop54
  1
strokes_ogs.tif
102
RTVSPost2010PropOp54
 70
     1
102
RTVSPost2010Prop55
280
     0
102
RTVSPost2010PropOp55
 70
     1
102
RTVSPost2010Prop56
140
1.0
102
RTVSPost2010PropOp56
 70
     1
102
RTVSPost2010Prop57
140
1.0
102
RTVSPost2010PropOp57
 70
     1
102
RTVSPropertyOp0
 70
     1
102
RTVSPropertyOp1
 70
     1
102
RTVSPropertyOp2
 70
     1
102
RTVSPropertyOp3
 70
     1
102
RTVSPropertyOp4
 70
     1
102
RTVSPropertyOp5
 70
     1
102
RTVSPropertyOp6
 70
     1
102
RTVSPropertyOp7
 70
     1
102
RTVSPropertyOp8
 70
     1
102
RTVSPropertyOp9
 70
     1
102
RTVSPropertyOp10
 70
     1
102
RTVSPropertyOp11
 70
     1
102
RTVSPropertyOp12
 70
     1
102
RTVSPropertyOp13
 70
     1
102
RTVSPropertyOp14
 70
     1
102
RTVSPropertyOp15
 70
     1
102
RTVSPropertyOp16
 70
     1
102
RTVSPropertyOp17
 70
     1
102
RTVSPropertyOp18
 70
     1
102
RTVSPropertyOp19
 70
     1
102
RTVSPropertyOp20
 70
     1
102
RTVSPropertyOp21
 70
     1
102
RTVSPropertyOp22
 70
     1
102
RTVSPropertyOp23
 70
     1
102
RTVSPropertyOp24
 70
     1
102
RTVSPropertyOp25
 70
     1
102
RTVSPropertyOp26
 70
     1
102
RTVSPropertyOp27
 70
     1
102
RTVSPropertyOp28
 70
     1
102
RTVSPropertyOp29
 70
     1
102
RTVSPropertyOp30
 70
     1
102
RTVSPropertyOp31
 70
     1
102
RTVSPropertyOp32
 70
     1
102
RTVSPropertyOp33
 70
     1
102
RTVSPropertyOp34
 70
     1
102
RTVSPropertyOp35
 70
     1
102
RTVSPropertyOp36
 70
     1
102
RTVSPropertyOp37
 70
     1
102
RTVSPropertyOp38
 70
     1
102
RTVSPropertyOp39
 70
     1
102
RTVSPropertyOp40
 70
     1
102
RTVSPropertyOp41
 70
     1
102
RTVSPropertyOp42
 70
     1
102
RTVSPropertyOp43
 70
     1
102
RTVSPropertyOp44
 70
     1
102
RTVSPropertyOp45
 70
     1
102
RTVSPropertyOp46
 70
     1
102
RTVSPropertyOp47
 70
     1
102
RTVSPropertyOp48
 70
     1
102
RTVSPropertyOp49
 70
     1
102
RTVSPropertyOp50
 70
     1
102
RTVSPropertyOp51
 70
     0
102
RTVSPropertyOp52
 70
     0
102
RTVSPropertyOp53
 70
     1
102
RTVSPropertyOp54
 70
     1
102
RTVSPropertyOp55
 70
     1
102
RTVSPropertyOp56
 70
     1
102
RTVSPropertyOp57
 70
     1
102
RTVSPropertyOp58
 70
     1
102
RTVSPropertyOp59
 70
     1
102
RTVSPropertyOp60
 70
     1
102
RTVSPropertyOp61
 70
     1
102
RTVSPropertyOp62
 70
     1
  0
XRECORD
  5
C3F1
102
{ACAD_REACTORS
330
C3F0
102
}
330
C3F0
100
AcDbXrecord
280
     1
102
RTVSPost2010Prop28
280
     0
102
RTVSPost2010PropOp28
 70
     1
102
RTVSPost2010Prop29
280
     1
102
RTVSPost2010PropOp29
 70
     1
102
RTVSPost2010Prop30
280
     1
102
RTVSPost2010PropOp30
 70
     1
102
RTVSPost2010Prop31
280
     0
102
RTVSPost2010PropOp31
 70
     1
102
RTVSPost2010Prop32
280
     0
102
RTVSPost2010PropOp32
 70
     1
102
RTVSPost2010Prop33
280
     0
102
RTVSPost2010PropOp33
 70
     1
102
RTVSPost2010Prop34
280
     0
102
RTVSPost2010PropOp34
 70
     1
102
RTVSPost2010Prop35
280
     0
102
RTVSPost2010PropOp35
 70
     1
102
RTVSPost2010Prop36
280
     0
102
RTVSPost2010PropOp36
 70
     1
102
RTVSPost2010Prop37
 90
       50
102
RTVSPost2010PropOp37
 70
     1
102
RTVSPost2010Prop38
140
0.0
102
RTVSPost2010PropOp38
 70
     1
102
RTVSPost2010Prop39
140
1.0
102
RTVSPost2010PropOp39
 70
     1
102
RTVSPost2010Prop40
 90
        0
102
RTVSPost2010PropOp40
 70
     1
102
RTVSPost2010Prop41ColorIndex
 90
       18
102
RTVSPost2010Prop41ColorRGB
 90
        0
102
RTVSPost2010PropOp41
 70
     1
102
RTVSPost2010Prop42
 90
       50
102
RTVSPost2010PropOp42
 70
     1
102
RTVSPost2010Prop43
 90
        3
102
RTVSPost2010PropOp43
 70
     1
102
RTVSPost2010Prop44ColorIndex
 90
        5
102
RTVSPost2010Prop44ColorRGB
 90
      255
102
RTVSPost2010PropOp44
 70
     1
102
RTVSPost2010Prop45
280
     0
102
RTVSPost2010PropOp45
 70
     1
102
RTVSPost2010Prop46
 90
       50
102
RTVSPost2010PropOp46
 70
     1
102
RTVSPost2010Prop47
 90
       50
102
RTVSPost2010PropOp47
 70
     1
102
RTVSPost2010Prop48
 90
       50
102
RTVSPost2010PropOp48
 70
     1
102
RTVSPost2010Prop49
280
     0
102
RTVSPost2010PropOp49
 70
     1
102
RTVSPost2010Prop50
 90
       50
102
RTVSPost2010PropOp50
 70
     1
102
RTVSPost2010Prop51ColorIndex
 90
      256
102
RTVSPost2010Prop51ColorRGB
 90
-16777216
102
RTVSPost2010PropOp51
 70
     0
102
RTVSPost2010Prop52
140
1.0
102
RTVSPost2010PropOp52
 70
     0
102
RTVSPost2010Prop53
 90
        2
102
RTVSPost2010PropOp53
 70
     1
102
RTVSPost2010Prop54
  1
strokes_ogs.tif
102
RTVSPost2010PropOp54
 70
     1
102
RTVSPost2010Prop55
280
     0
102
RTVSPost2010PropOp55
 70
     1
102
RTVSPost2010Prop56
140
1.0
102
RTVSPost2010PropOp56
 70
     1
102
RTVSPost2010Prop57
140
1.0
102
RTVSPost2010PropOp57
 70
     1
102
RTVSPropertyOp0
 70
     1
102
RTVSPropertyOp1
 70
     1
102
RTVSPropertyOp2
 70
     1
102
RTVSPropertyOp3
 70
     1
102
RTVSPropertyOp4
 70
     1
102
RTVSPropertyOp5
 70
     1
102
RTVSPropertyOp6
 70
     1
102
RTVSPropertyOp7
 70
     1
102
RTVSPropertyOp8
 70
     1
102
RTVSPropertyOp9
 70
     1
102
RTVSPropertyOp10
 70
     1
102
RTVSPropertyOp11
 70
     1
102
RTVSPropertyOp12
 70
     1
102
RTVSPropertyOp13
 70
     1
102
RTVSPropertyOp14
 70
     1
102
RTVSPropertyOp15
 70
     1
102
RTVSPropertyOp16
 70
     1
102
RTVSPropertyOp17
 70
     1
102
RTVSPropertyOp18
 70
     1
102
RTVSPropertyOp19
 70
     1
102
RTVSPropertyOp20
 70
     1
102
RTVSPropertyOp21
 70
     1
102
RTVSPropertyOp22
 70
     1
102
RTVSPropertyOp23
 70
     1
102
RTVSPropertyOp24
 70
     1
102
RTVSPropertyOp25
 70
     1
102
RTVSPropertyOp26
 70
     1
102
RTVSPropertyOp27
 70
     1
102
RTVSPropertyOp28
 70
     1
102
RTVSPropertyOp29
 70
     1
102
RTVSPropertyOp30
 70
     1
102
RTVSPropertyOp31
 70
     1
102
RTVSPropertyOp32
 70
     1
102
RTVSPropertyOp33
 70
     1
102
RTVSPropertyOp34
 70
     1
102
RTVSPropertyOp35
 70
     1
102
RTVSPropertyOp36
 70
     1
102
RTVSPropertyOp37
 70
     1
102
RTVSPropertyOp38
 70
     1
102
RTVSPropertyOp39
 70
     1
102
RTVSPropertyOp40
 70
     1
102
RTVSPropertyOp41
 70
     1
102
RTVSPropertyOp42
 70
     1
102
RTVSPropertyOp43
 70
     1
102
RTVSPropertyOp44
 70
     1
102
RTVSPropertyOp45
 70
     1
102
RTVSPropertyOp46
 70
     1
102
RTVSPropertyOp47
 70
     1
102
RTVSPropertyOp48
 70
     1
102
RTVSPropertyOp49
 70
     1
102
RTVSPropertyOp50
 70
     1
102
RTVSPropertyOp51
 70
     0
102
RTVSPropertyOp52
 70
     0
102
RTVSPropertyOp53
 70
     1
102
RTVSPropertyOp54
 70
     1
102
RTVSPropertyOp55
 70
     1
102
RTVSPropertyOp56
 70
     1
102
RTVSPropertyOp57
 70
     1
102
RTVSPropertyOp58
 70
     1
102
RTVSPropertyOp59
 70
     1
102
RTVSPropertyOp60
 70
     1
102
RTVSPropertyOp61
 70
     1
102
RTVSPropertyOp62
 70
     1
  0
XRECORD
  5
C3F3
102
{ACAD_REACTORS
330
C3F2
102
}
330
C3F2
100
AcDbXrecord
280
     1
102
RTVSPost2010Prop28
280
     0
102
RTVSPost2010PropOp28
 70
     1
102
RTVSPost2010Prop29
280
     1
102
RTVSPost2010PropOp29
 70
     1
102
RTVSPost2010Prop30
280
     1
102
RTVSPost2010PropOp30
 70
     1
102
RTVSPost2010Prop31
280
     0
102
RTVSPost2010PropOp31
 70
     1
102
RTVSPost2010Prop32
280
     0
102
RTVSPost2010PropOp32
 70
     1
102
RTVSPost2010Prop33
280
     0
102
RTVSPost2010PropOp33
 70
     1
102
RTVSPost2010Prop34
280
     0
102
RTVSPost2010PropOp34
 70
     1
102
RTVSPost2010Prop35
280
     0
102
RTVSPost2010PropOp35
 70
     1
102
RTVSPost2010Prop36
280
     0
102
RTVSPost2010PropOp36
 70
     1
102
RTVSPost2010Prop37
 90
       50
102
RTVSPost2010PropOp37
 70
     1
102
RTVSPost2010Prop38
140
0.0
102
RTVSPost2010PropOp38
 70
     1
102
RTVSPost2010Prop39
140
1.0
102
RTVSPost2010PropOp39
 70
     1
102
RTVSPost2010Prop40
 90
        0
102
RTVSPost2010PropOp40
 70
     1
102
RTVSPost2010Prop41ColorIndex
 90
       18
102
RTVSPost2010Prop41ColorRGB
 90
        0
102
RTVSPost2010PropOp41
 70
     1
102
RTVSPost2010Prop42
 90
       50
102
RTVSPost2010PropOp42
 70
     1
102
RTVSPost2010Prop43
 90
        3
102
RTVSPost2010PropOp43
 70
     1
102
RTVSPost2010Prop44ColorIndex
 90
        5
102
RTVSPost2010Prop44ColorRGB
 90
      255
102
RTVSPost2010PropOp44
 70
     1
102
RTVSPost2010Prop45
280
     0
102
RTVSPost2010PropOp45
 70
     1
102
RTVSPost2010Prop46
 90
       50
102
RTVSPost2010PropOp46
 70
     1
102
RTVSPost2010Prop47
 90
       50
102
RTVSPost2010PropOp47
 70
     1
102
RTVSPost2010Prop48
 90
       50
102
RTVSPost2010PropOp48
 70
     1
102
RTVSPost2010Prop49
280
     0
102
RTVSPost2010PropOp49
 70
     1
102
RTVSPost2010Prop50
 90
       50
102
RTVSPost2010PropOp50
 70
     1
102
RTVSPost2010Prop51ColorIndex
 90
      256
102
RTVSPost2010Prop51ColorRGB
 90
-16777216
102
RTVSPost2010PropOp51
 70
     0
102
RTVSPost2010Prop52
140
1.0
102
RTVSPost2010PropOp52
 70
     0
102
RTVSPost2010Prop53
 90
        2
102
RTVSPost2010PropOp53
 70
     1
102
RTVSPost2010Prop54
  1
strokes_ogs.tif
102
RTVSPost2010PropOp54
 70
     1
102
RTVSPost2010Prop55
280
     0
102
RTVSPost2010PropOp55
 70
     1
102
RTVSPost2010Prop56
140
1.0
102
RTVSPost2010PropOp56
 70
     1
102
RTVSPost2010Prop57
140
1.0
102
RTVSPost2010PropOp57
 70
     1
102
RTVSPropertyOp0
 70
     1
102
RTVSPropertyOp1
 70
     1
102
RTVSPropertyOp2
 70
     1
102
RTVSPropertyOp3
 70
     1
102
RTVSPropertyOp4
 70
     1
102
RTVSPropertyOp5
 70
     1
102
RTVSPropertyOp6
 70
     1
102
RTVSPropertyOp7
 70
     1
102
RTVSPropertyOp8
 70
     1
102
RTVSPropertyOp9
 70
     1
102
RTVSPropertyOp10
 70
     1
102
RTVSPropertyOp11
 70
     1
102
RTVSPropertyOp12
 70
     1
102
RTVSPropertyOp13
 70
     1
102
RTVSPropertyOp14
 70
     1
102
RTVSPropertyOp15
 70
     1
102
RTVSPropertyOp16
 70
     1
102
RTVSPropertyOp17
 70
     1
102
RTVSPropertyOp18
 70
     1
102
RTVSPropertyOp19
 70
     1
102
RTVSPropertyOp20
 70
     1
102
RTVSPropertyOp21
 70
     1
102
RTVSPropertyOp22
 70
     1
102
RTVSPropertyOp23
 70
     1
102
RTVSPropertyOp24
 70
     1
102
RTVSPropertyOp25
 70
     1
102
RTVSPropertyOp26
 70
     1
102
RTVSPropertyOp27
 70
     1
102
RTVSPropertyOp28
 70
     1
102
RTVSPropertyOp29
 70
     1
102
RTVSPropertyOp30
 70
     1
102
RTVSPropertyOp31
 70
     1
102
RTVSPropertyOp32
 70
     1
102
RTVSPropertyOp33
 70
     1
102
RTVSPropertyOp34
 70
     1
102
RTVSPropertyOp35
 70
     1
102
RTVSPropertyOp36
 70
     1
102
RTVSPropertyOp37
 70
     1
102
RTVSPropertyOp38
 70
     1
102
RTVSPropertyOp39
 70
     1
102
RTVSPropertyOp40
 70
     1
102
RTVSPropertyOp41
 70
     1
102
RTVSPropertyOp42
 70
     1
102
RTVSPropertyOp43
 70
     1
102
RTVSPropertyOp44
 70
     1
102
RTVSPropertyOp45
 70
     1
102
RTVSPropertyOp46
 70
     1
102
RTVSPropertyOp47
 70
     1
102
RTVSPropertyOp48
 70
     1
102
RTVSPropertyOp49
 70
     1
102
RTVSPropertyOp50
 70
     1
102
RTVSPropertyOp51
 70
     0
102
RTVSPropertyOp52
 70
     0
102
RTVSPropertyOp53
 70
     1
102
RTVSPropertyOp54
 70
     1
102
RTVSPropertyOp55
 70
     1
102
RTVSPropertyOp56
 70
     1
102
RTVSPropertyOp57
 70
     1
102
RTVSPropertyOp58
 70
     1
102
RTVSPropertyOp59
 70
     1
102
RTVSPropertyOp60
 70
     1
102
RTVSPropertyOp61
 70
     1
102
RTVSPropertyOp62
 70
     1
  0
XRECORD
  5
C3F5
102
{ACAD_REACTORS
330
C3F4
102
}
330
C3F4
100
AcDbXrecord
280
     1
102
RTVSPost2010Prop28
280
     0
102
RTVSPost2010PropOp28
 70
     1
102
RTVSPost2010Prop29
280
     1
102
RTVSPost2010PropOp29
 70
     1
102
RTVSPost2010Prop30
280
     1
102
RTVSPost2010PropOp30
 70
     1
102
RTVSPost2010Prop31
280
     0
102
RTVSPost2010PropOp31
 70
     1
102
RTVSPost2010Prop32
280
     0
102
RTVSPost2010PropOp32
 70
     1
102
RTVSPost2010Prop33
280
     0
102
RTVSPost2010PropOp33
 70
     1
102
RTVSPost2010Prop34
280
     0
102
RTVSPost2010PropOp34
 70
     1
102
RTVSPost2010Prop35
280
     0
102
RTVSPost2010PropOp35
 70
     1
102
RTVSPost2010Prop36
280
     0
102
RTVSPost2010PropOp36
 70
     1
102
RTVSPost2010Prop37
 90
       50
102
RTVSPost2010PropOp37
 70
     1
102
RTVSPost2010Prop38
140
0.0
102
RTVSPost2010PropOp38
 70
     1
102
RTVSPost2010Prop39
140
1.0
102
RTVSPost2010PropOp39
 70
     1
102
RTVSPost2010Prop40
 90
        0
102
RTVSPost2010PropOp40
 70
     1
102
RTVSPost2010Prop41ColorIndex
 90
       18
102
RTVSPost2010Prop41ColorRGB
 90
        0
102
RTVSPost2010PropOp41
 70
     1
102
RTVSPost2010Prop42
 90
       50
102
RTVSPost2010PropOp42
 70
     1
102
RTVSPost2010Prop43
 90
        3
102
RTVSPost2010PropOp43
 70
     1
102
RTVSPost2010Prop44ColorIndex
 90
        5
102
RTVSPost2010Prop44ColorRGB
 90
      255
102
RTVSPost2010PropOp44
 70
     1
102
RTVSPost2010Prop45
280
     0
102
RTVSPost2010PropOp45
 70
     1
102
RTVSPost2010Prop46
 90
       50
102
RTVSPost2010PropOp46
 70
     1
102
RTVSPost2010Prop47
 90
       50
102
RTVSPost2010PropOp47
 70
     1
102
RTVSPost2010Prop48
 90
       50
102
RTVSPost2010PropOp48
 70
     1
102
RTVSPost2010Prop49
280
     0
102
RTVSPost2010PropOp49
 70
     1
102
RTVSPost2010Prop50
 90
       50
102
RTVSPost2010PropOp50
 70
     1
102
RTVSPost2010Prop51ColorIndex
 90
      256
102
RTVSPost2010Prop51ColorRGB
 90
-16777216
102
RTVSPost2010PropOp51
 70
     0
102
RTVSPost2010Prop52
140
1.0
102
RTVSPost2010PropOp52
 70
     0
102
RTVSPost2010Prop53
 90
        2
102
RTVSPost2010PropOp53
 70
     1
102
RTVSPost2010Prop54
  1
strokes_ogs.tif
102
RTVSPost2010PropOp54
 70
     1
102
RTVSPost2010Prop55
280
     0
102
RTVSPost2010PropOp55
 70
     1
102
RTVSPost2010Prop56
140
1.0
102
RTVSPost2010PropOp56
 70
     1
102
RTVSPost2010Prop57
140
1.0
102
RTVSPost2010PropOp57
 70
     1
102
RTVSPropertyOp0
 70
     1
102
RTVSPropertyOp1
 70
     1
102
RTVSPropertyOp2
 70
     1
102
RTVSPropertyOp3
 70
     1
102
RTVSPropertyOp4
 70
     1
102
RTVSPropertyOp5
 70
     1
102
RTVSPropertyOp6
 70
     1
102
RTVSPropertyOp7
 70
     1
102
RTVSPropertyOp8
 70
     1
102
RTVSPropertyOp9
 70
     1
102
RTVSPropertyOp10
 70
     1
102
RTVSPropertyOp11
 70
     1
102
RTVSPropertyOp12
 70
     1
102
RTVSPropertyOp13
 70
     1
102
RTVSPropertyOp14
 70
     1
102
RTVSPropertyOp15
 70
     1
102
RTVSPropertyOp16
 70
     1
102
RTVSPropertyOp17
 70
     1
102
RTVSPropertyOp18
 70
     1
102
RTVSPropertyOp19
 70
     1
102
RTVSPropertyOp20
 70
     1
102
RTVSPropertyOp21
 70
     1
102
RTVSPropertyOp22
 70
     1
102
RTVSPropertyOp23
 70
     1
102
RTVSPropertyOp24
 70
     1
102
RTVSPropertyOp25
 70
     1
102
RTVSPropertyOp26
 70
     1
102
RTVSPropertyOp27
 70
     1
102
RTVSPropertyOp28
 70
     1
102
RTVSPropertyOp29
 70
     1
102
RTVSPropertyOp30
 70
     1
102
RTVSPropertyOp31
 70
     1
102
RTVSPropertyOp32
 70
     1
102
RTVSPropertyOp33
 70
     1
102
RTVSPropertyOp34
 70
     1
102
RTVSPropertyOp35
 70
     1
102
RTVSPropertyOp36
 70
     1
102
RTVSPropertyOp37
 70
     1
102
RTVSPropertyOp38
 70
     1
102
RTVSPropertyOp39
 70
     1
102
RTVSPropertyOp40
 70
     1
102
RTVSPropertyOp41
 70
     1
102
RTVSPropertyOp42
 70
     1
102
RTVSPropertyOp43
 70
     1
102
RTVSPropertyOp44
 70
     1
102
RTVSPropertyOp45
 70
     1
102
RTVSPropertyOp46
 70
     1
102
RTVSPropertyOp47
 70
     1
102
RTVSPropertyOp48
 70
     1
102
RTVSPropertyOp49
 70
     1
102
RTVSPropertyOp50
 70
     1
102
RTVSPropertyOp51
 70
     0
102
RTVSPropertyOp52
 70
     0
102
RTVSPropertyOp53
 70
     1
102
RTVSPropertyOp54
 70
     1
102
RTVSPropertyOp55
 70
     1
102
RTVSPropertyOp56
 70
     1
102
RTVSPropertyOp57
 70
     1
102
RTVSPropertyOp58
 70
     1
102
RTVSPropertyOp59
 70
     1
102
RTVSPropertyOp60
 70
     1
102
RTVSPropertyOp61
 70
     1
102
RTVSPropertyOp62
 70
     1
  0
XRECORD
  5
C3F7
102
{ACAD_REACTORS
330
C3F6
102
}
330
C3F6
100
AcDbXrecord
280
     1
102
RTVSPost2010Prop28
280
     0
102
RTVSPost2010PropOp28
 70
     1
102
RTVSPost2010Prop29
280
     1
102
RTVSPost2010PropOp29
 70
     1
102
RTVSPost2010Prop30
280
     1
102
RTVSPost2010PropOp30
 70
     1
102
RTVSPost2010Prop31
280
     0
102
RTVSPost2010PropOp31
 70
     1
102
RTVSPost2010Prop32
280
     0
102
RTVSPost2010PropOp32
 70
     1
102
RTVSPost2010Prop33
280
     0
102
RTVSPost2010PropOp33
 70
     1
102
RTVSPost2010Prop34
280
     0
102
RTVSPost2010PropOp34
 70
     1
102
RTVSPost2010Prop35
280
     0
102
RTVSPost2010PropOp35
 70
     1
102
RTVSPost2010Prop36
280
     0
102
RTVSPost2010PropOp36
 70
     1
102
RTVSPost2010Prop37
 90
       50
102
RTVSPost2010PropOp37
 70
     1
102
RTVSPost2010Prop38
140
0.0
102
RTVSPost2010PropOp38
 70
     1
102
RTVSPost2010Prop39
140
1.0
102
RTVSPost2010PropOp39
 70
     1
102
RTVSPost2010Prop40
 90
        0
102
RTVSPost2010PropOp40
 70
     1
102
RTVSPost2010Prop41ColorIndex
 90
       18
102
RTVSPost2010Prop41ColorRGB
 90
        0
102
RTVSPost2010PropOp41
 70
     1
102
RTVSPost2010Prop42
 90
       50
102
RTVSPost2010PropOp42
 70
     1
102
RTVSPost2010Prop43
 90
        3
102
RTVSPost2010PropOp43
 70
     1
102
RTVSPost2010Prop44ColorIndex
 90
        5
102
RTVSPost2010Prop44ColorRGB
 90
      255
102
RTVSPost2010PropOp44
 70
     1
102
RTVSPost2010Prop45
280
     0
102
RTVSPost2010PropOp45
 70
     1
102
RTVSPost2010Prop46
 90
       50
102
RTVSPost2010PropOp46
 70
     1
102
RTVSPost2010Prop47
 90
       50
102
RTVSPost2010PropOp47
 70
     1
102
RTVSPost2010Prop48
 90
       50
102
RTVSPost2010PropOp48
 70
     1
102
RTVSPost2010Prop49
280
     0
102
RTVSPost2010PropOp49
 70
     1
102
RTVSPost2010Prop50
 90
       50
102
RTVSPost2010PropOp50
 70
     1
102
RTVSPost2010Prop51ColorIndex
 90
      256
102
RTVSPost2010Prop51ColorRGB
 90
-16777216
102
RTVSPost2010PropOp51
 70
     0
102
RTVSPost2010Prop52
140
1.0
102
RTVSPost2010PropOp52
 70
     0
102
RTVSPost2010Prop53
 90
        2
102
RTVSPost2010PropOp53
 70
     1
102
RTVSPost2010Prop54
  1
strokes_ogs.tif
102
RTVSPost2010PropOp54
 70
     1
102
RTVSPost2010Prop55
280
     0
102
RTVSPost2010PropOp55
 70
     1
102
RTVSPost2010Prop56
140
1.0
102
RTVSPost2010PropOp56
 70
     1
102
RTVSPost2010Prop57
140
1.0
102
RTVSPost2010PropOp57
 70
     1
102
RTVSPropertyOp0
 70
     1
102
RTVSPropertyOp1
 70
     1
102
RTVSPropertyOp2
 70
     1
102
RTVSPropertyOp3
 70
     1
102
RTVSPropertyOp4
 70
     1
102
RTVSPropertyOp5
 70
     1
102
RTVSPropertyOp6
 70
     1
102
RTVSPropertyOp7
 70
     1
102
RTVSPropertyOp8
 70
     1
102
RTVSPropertyOp9
 70
     1
102
RTVSPropertyOp10
 70
     1
102
RTVSPropertyOp11
 70
     1
102
RTVSPropertyOp12
 70
     1
102
RTVSPropertyOp13
 70
     1
102
RTVSPropertyOp14
 70
     1
102
RTVSPropertyOp15
 70
     1
102
RTVSPropertyOp16
 70
     1
102
RTVSPropertyOp17
 70
     1
102
RTVSPropertyOp18
 70
     1
102
RTVSPropertyOp19
 70
     1
102
RTVSPropertyOp20
 70
     1
102
RTVSPropertyOp21
 70
     1
102
RTVSPropertyOp22
 70
     1
102
RTVSPropertyOp23
 70
     1
102
RTVSPropertyOp24
 70
     1
102
RTVSPropertyOp25
 70
     1
102
RTVSPropertyOp26
 70
     1
102
RTVSPropertyOp27
 70
     1
102
RTVSPropertyOp28
 70
     1
102
RTVSPropertyOp29
 70
     1
102
RTVSPropertyOp30
 70
     1
102
RTVSPropertyOp31
 70
     1
102
RTVSPropertyOp32
 70
     1
102
RTVSPropertyOp33
 70
     1
102
RTVSPropertyOp34
 70
     1
102
RTVSPropertyOp35
 70
     1
102
RTVSPropertyOp36
 70
     1
102
RTVSPropertyOp37
 70
     1
102
RTVSPropertyOp38
 70
     1
102
RTVSPropertyOp39
 70
     1
102
RTVSPropertyOp40
 70
     1
102
RTVSPropertyOp41
 70
     1
102
RTVSPropertyOp42
 70
     1
102
RTVSPropertyOp43
 70
     1
102
RTVSPropertyOp44
 70
     1
102
RTVSPropertyOp45
 70
     1
102
RTVSPropertyOp46
 70
     1
102
RTVSPropertyOp47
 70
     1
102
RTVSPropertyOp48
 70
     1
102
RTVSPropertyOp49
 70
     1
102
RTVSPropertyOp50
 70
     1
102
RTVSPropertyOp51
 70
     0
102
RTVSPropertyOp52
 70
     0
102
RTVSPropertyOp53
 70
     1
102
RTVSPropertyOp54
 70
     1
102
RTVSPropertyOp55
 70
     1
102
RTVSPropertyOp56
 70
     1
102
RTVSPropertyOp57
 70
     1
102
RTVSPropertyOp58
 70
     1
102
RTVSPropertyOp59
 70
     1
102
RTVSPropertyOp60
 70
     1
102
RTVSPropertyOp61
 70
     1
102
RTVSPropertyOp62
 70
     1
  0
XRECORD
  5
C3FF
102
{ACAD_REACTORS
330
C3FE
102
}
330
C3FE
100
AcDbXrecord
280
     1
102
RTVSPost2010Prop28
280
     0
102
RTVSPost2010PropOp28
 70
     1
102
RTVSPost2010Prop29
280
     1
102
RTVSPost2010PropOp29
 70
     1
102
RTVSPost2010Prop30
280
     1
102
RTVSPost2010PropOp30
 70
     1
102
RTVSPost2010Prop31
280
     0
102
RTVSPost2010PropOp31
 70
     1
102
RTVSPost2010Prop32
280
     0
102
RTVSPost2010PropOp32
 70
     1
102
RTVSPost2010Prop33
280
     0
102
RTVSPost2010PropOp33
 70
     1
102
RTVSPost2010Prop34
280
     0
102
RTVSPost2010PropOp34
 70
     1
102
RTVSPost2010Prop35
280
     0
102
RTVSPost2010PropOp35
 70
     1
102
RTVSPost2010Prop36
280
     0
102
RTVSPost2010PropOp36
 70
     1
102
RTVSPost2010Prop37
 90
       50
102
RTVSPost2010PropOp37
 70
     1
102
RTVSPost2010Prop38
140
0.0
102
RTVSPost2010PropOp38
 70
     1
102
RTVSPost2010Prop39
140
1.0
102
RTVSPost2010PropOp39
 70
     1
102
RTVSPost2010Prop40
 90
        0
102
RTVSPost2010PropOp40
 70
     1
102
RTVSPost2010Prop41ColorIndex
 90
       18
102
RTVSPost2010Prop41ColorRGB
 90
        0
102
RTVSPost2010PropOp41
 70
     1
102
RTVSPost2010Prop42
 90
       50
102
RTVSPost2010PropOp42
 70
     1
102
RTVSPost2010Prop43
 90
        3
102
RTVSPost2010PropOp43
 70
     1
102
RTVSPost2010Prop44ColorIndex
 90
        5
102
RTVSPost2010Prop44ColorRGB
 90
      255
102
RTVSPost2010PropOp44
 70
     1
102
RTVSPost2010Prop45
280
     0
102
RTVSPost2010PropOp45
 70
     1
102
RTVSPost2010Prop46
 90
       50
102
RTVSPost2010PropOp46
 70
     1
102
RTVSPost2010Prop47
 90
       50
102
RTVSPost2010PropOp47
 70
     1
102
RTVSPost2010Prop48
 90
       50
102
RTVSPost2010PropOp48
 70
     1
102
RTVSPost2010Prop49
280
     0
102
RTVSPost2010PropOp49
 70
     1
102
RTVSPost2010Prop50
 90
       50
102
RTVSPost2010PropOp50
 70
     1
102
RTVSPost2010Prop51ColorIndex
 90
      256
102
RTVSPost2010Prop51ColorRGB
 90
-16777216
102
RTVSPost2010PropOp51
 70
     0
102
RTVSPost2010Prop52
140
1.0
102
RTVSPost2010PropOp52
 70
     0
102
RTVSPost2010Prop53
 90
        2
102
RTVSPost2010PropOp53
 70
     1
102
RTVSPost2010Prop54
  1
strokes_ogs.tif
102
RTVSPost2010PropOp54
 70
     1
102
RTVSPost2010Prop55
280
     0
102
RTVSPost2010PropOp55
 70
     1
102
RTVSPost2010Prop56
140
1.0
102
RTVSPost2010PropOp56
 70
     1
102
RTVSPost2010Prop57
140
1.0
102
RTVSPost2010PropOp57
 70
     1
102
RTVSPropertyOp0
 70
     1
102
RTVSPropertyOp1
 70
     1
102
RTVSPropertyOp2
 70
     1
102
RTVSPropertyOp3
 70
     1
102
RTVSPropertyOp4
 70
     1
102
RTVSPropertyOp5
 70
     1
102
RTVSPropertyOp6
 70
     1
102
RTVSPropertyOp7
 70
     1
102
RTVSPropertyOp8
 70
     1
102
RTVSPropertyOp9
 70
     1
102
RTVSPropertyOp10
 70
     1
102
RTVSPropertyOp11
 70
     1
102
RTVSPropertyOp12
 70
     1
102
RTVSPropertyOp13
 70
     1
102
RTVSPropertyOp14
 70
     1
102
RTVSPropertyOp15
 70
     1
102
RTVSPropertyOp16
 70
     1
102
RTVSPropertyOp17
 70
     1
102
RTVSPropertyOp18
 70
     1
102
RTVSPropertyOp19
 70
     1
102
RTVSPropertyOp20
 70
     1
102
RTVSPropertyOp21
 70
     1
102
RTVSPropertyOp22
 70
     1
102
RTVSPropertyOp23
 70
     1
102
RTVSPropertyOp24
 70
     1
102
RTVSPropertyOp25
 70
     1
102
RTVSPropertyOp26
 70
     1
102
RTVSPropertyOp27
 70
     1
102
RTVSPropertyOp28
 70
     1
102
RTVSPropertyOp29
 70
     1
102
RTVSPropertyOp30
 70
     1
102
RTVSPropertyOp31
 70
     1
102
RTVSPropertyOp32
 70
     1
102
RTVSPropertyOp33
 70
     1
102
RTVSPropertyOp34
 70
     1
102
RTVSPropertyOp35
 70
     1
102
RTVSPropertyOp36
 70
     1
102
RTVSPropertyOp37
 70
     1
102
RTVSPropertyOp38
 70
     1
102
RTVSPropertyOp39
 70
     1
102
RTVSPropertyOp40
 70
     1
102
RTVSPropertyOp41
 70
     1
102
RTVSPropertyOp42
 70
     1
102
RTVSPropertyOp43
 70
     1
102
RTVSPropertyOp44
 70
     1
102
RTVSPropertyOp45
 70
     1
102
RTVSPropertyOp46
 70
     1
102
RTVSPropertyOp47
 70
     1
102
RTVSPropertyOp48
 70
     1
102
RTVSPropertyOp49
 70
     1
102
RTVSPropertyOp50
 70
     1
102
RTVSPropertyOp51
 70
     0
102
RTVSPropertyOp52
 70
     0
102
RTVSPropertyOp53
 70
     1
102
RTVSPropertyOp54
 70
     1
102
RTVSPropertyOp55
 70
     1
102
RTVSPropertyOp56
 70
     1
102
RTVSPropertyOp57
 70
     1
102
RTVSPropertyOp58
 70
     1
102
RTVSPropertyOp59
 70
     1
102
RTVSPropertyOp60
 70
     1
102
RTVSPropertyOp61
 70
     1
102
RTVSPropertyOp62
 70
     1
  0
XRECORD
  5
C41B
102
{ACAD_REACTORS
330
C41A
102
}
330
C41A
100
AcDbXrecord
280
     1
102
RTVSPost2010Prop28
280
     0
102
RTVSPost2010PropOp28
 70
     1
102
RTVSPost2010Prop29
280
     1
102
RTVSPost2010PropOp29
 70
     1
102
RTVSPost2010Prop30
280
     1
102
RTVSPost2010PropOp30
 70
     1
102
RTVSPost2010Prop31
280
     0
102
RTVSPost2010PropOp31
 70
     1
102
RTVSPost2010Prop32
280
     0
102
RTVSPost2010PropOp32
 70
     1
102
RTVSPost2010Prop33
280
     0
102
RTVSPost2010PropOp33
 70
     1
102
RTVSPost2010Prop34
280
     0
102
RTVSPost2010PropOp34
 70
     1
102
RTVSPost2010Prop35
280
     0
102
RTVSPost2010PropOp35
 70
     1
102
RTVSPost2010Prop36
280
     0
102
RTVSPost2010PropOp36
 70
     1
102
RTVSPost2010Prop37
 90
       50
102
RTVSPost2010PropOp37
 70
     0
102
RTVSPost2010Prop38
140
0.0
102
RTVSPost2010PropOp38
 70
     0
102
RTVSPost2010Prop39
140
1.0
102
RTVSPost2010PropOp39
 70
     0
102
RTVSPost2010Prop40
 90
        0
102
RTVSPost2010PropOp40
 70
     0
102
RTVSPost2010Prop41ColorIndex
 90
       18
102
RTVSPost2010Prop41ColorRGB
 90
        0
102
RTVSPost2010PropOp41
 70
     0
102
RTVSPost2010Prop42
 90
       50
102
RTVSPost2010PropOp42
 70
     0
102
RTVSPost2010Prop43
 90
        3
102
RTVSPost2010PropOp43
 70
     0
102
RTVSPost2010Prop44ColorIndex
 90
        5
102
RTVSPost2010Prop44ColorRGB
 90
      255
102
RTVSPost2010PropOp44
 70
     0
102
RTVSPost2010Prop45
280
     0
102
RTVSPost2010PropOp45
 70
     1
102
RTVSPost2010Prop46
 90
       50
102
RTVSPost2010PropOp46
 70
     0
102
RTVSPost2010Prop47
 90
       50
102
RTVSPost2010PropOp47
 70
     0
102
RTVSPost2010Prop48
 90
       50
102
RTVSPost2010PropOp48
 70
     0
102
RTVSPost2010Prop49
280
     0
102
RTVSPost2010PropOp49
 70
     1
102
RTVSPost2010Prop50
 90
       50
102
RTVSPost2010PropOp50
 70
     0
102
RTVSPost2010Prop51ColorIndex
 90
      256
102
RTVSPost2010Prop51ColorRGB
 90
-16777216
102
RTVSPost2010PropOp51
 70
     0
102
RTVSPost2010Prop52
140
1.0
102
RTVSPost2010PropOp52
 70
     0
102
RTVSPost2010Prop53
 90
        2
102
RTVSPost2010PropOp53
 70
     0
102
RTVSPost2010Prop54
  1
strokes_ogs.tif
102
RTVSPost2010PropOp54
 70
     0
102
RTVSPost2010Prop55
280
     0
102
RTVSPost2010PropOp55
 70
     1
102
RTVSPost2010Prop56
140
1.0
102
RTVSPost2010PropOp56
 70
     0
102
RTVSPost2010Prop57
140
1.0
102
RTVSPost2010PropOp57
 70
     0
102
RTVSPropertyOp0
 70
     0
102
RTVSPropertyOp1
 70
     0
102
RTVSPropertyOp2
 70
     0
102
RTVSPropertyOp3
 70
     0
102
RTVSPropertyOp4
 70
     0
102
RTVSPropertyOp5
 70
     0
102
RTVSPropertyOp6
 70
     0
102
RTVSPropertyOp7
 70
     0
102
RTVSPropertyOp8
 70
     0
102
RTVSPropertyOp9
 70
     0
102
RTVSPropertyOp10
 70
     0
102
RTVSPropertyOp11
 70
     0
102
RTVSPropertyOp12
 70
     0
102
RTVSPropertyOp13
 70
     0
102
RTVSPropertyOp14
 70
     2
102
RTVSPropertyOp15
 70
     0
102
RTVSPropertyOp16
 70
     0
102
RTVSPropertyOp17
 70
     0
102
RTVSPropertyOp18
 70
     0
102
RTVSPropertyOp19
 70
     0
102
RTVSPropertyOp20
 70
     0
102
RTVSPropertyOp21
 70
     0
102
RTVSPropertyOp22
 70
     0
102
RTVSPropertyOp23
 70
     0
102
RTVSPropertyOp24
 70
     0
102
RTVSPropertyOp25
 70
     0
102
RTVSPropertyOp26
 70
     0
102
RTVSPropertyOp27
 70
     0
102
RTVSPropertyOp28
 70
     1
102
RTVSPropertyOp29
 70
     1
102
RTVSPropertyOp30
 70
     1
102
RTVSPropertyOp31
 70
     1
102
RTVSPropertyOp32
 70
     1
102
RTVSPropertyOp33
 70
     1
102
RTVSPropertyOp34
 70
     1
102
RTVSPropertyOp35
 70
     1
102
RTVSPropertyOp36
 70
     1
102
RTVSPropertyOp37
 70
     0
102
RTVSPropertyOp38
 70
     0
102
RTVSPropertyOp39
 70
     0
102
RTVSPropertyOp40
 70
     0
102
RTVSPropertyOp41
 70
     0
102
RTVSPropertyOp42
 70
     0
102
RTVSPropertyOp43
 70
     0
102
RTVSPropertyOp44
 70
     0
102
RTVSPropertyOp45
 70
     1
102
RTVSPropertyOp46
 70
     0
102
RTVSPropertyOp47
 70
     0
102
RTVSPropertyOp48
 70
     0
102
RTVSPropertyOp49
 70
     1
102
RTVSPropertyOp50
 70
     0
102
RTVSPropertyOp51
 70
     0
102
RTVSPropertyOp52
 70
     0
102
RTVSPropertyOp53
 70
     0
102
RTVSPropertyOp54
 70
     0
102
RTVSPropertyOp55
 70
     1
102
RTVSPropertyOp56
 70
     0
102
RTVSPropertyOp57
 70
     0
102
RTVSPropertyOp58
 70
     0
102
RTVSPropertyOp59
 70
     0
102
RTVSPropertyOp60
 70
     0
102
RTVSPropertyOp61
 70
     0
102
RTVSPropertyOp62
 70
     0
  0
XRECORD
  5
C40B
102
{ACAD_REACTORS
330
C40A
102
}
330
C40A
100
AcDbXrecord
280
     1
102
RTVSPost2010Prop28
280
     0
102
RTVSPost2010PropOp28
 70
     1
102
RTVSPost2010Prop29
280
     1
102
RTVSPost2010PropOp29
 70
     1
102
RTVSPost2010Prop30
280
     1
102
RTVSPost2010PropOp30
 70
     1
102
RTVSPost2010Prop31
280
     0
102
RTVSPost2010PropOp31
 70
     1
102
RTVSPost2010Prop32
280
     0
102
RTVSPost2010PropOp32
 70
     1
102
RTVSPost2010Prop33
280
     0
102
RTVSPost2010PropOp33
 70
     1
102
RTVSPost2010Prop34
280
     0
102
RTVSPost2010PropOp34
 70
     1
102
RTVSPost2010Prop35
280
     0
102
RTVSPost2010PropOp35
 70
     1
102
RTVSPost2010Prop36
280
     0
102
RTVSPost2010PropOp36
 70
     1
102
RTVSPost2010Prop37
 90
       50
102
RTVSPost2010PropOp37
 70
     1
102
RTVSPost2010Prop38
140
0.0
102
RTVSPost2010PropOp38
 70
     1
102
RTVSPost2010Prop39
140
1.0
102
RTVSPost2010PropOp39
 70
     1
102
RTVSPost2010Prop40
 90
        0
102
RTVSPost2010PropOp40
 70
     1
102
RTVSPost2010Prop41ColorIndex
 90
       18
102
RTVSPost2010Prop41ColorRGB
 90
        0
102
RTVSPost2010PropOp41
 70
     1
102
RTVSPost2010Prop42
 90
       50
102
RTVSPost2010PropOp42
 70
     1
102
RTVSPost2010Prop43
 90
        3
102
RTVSPost2010PropOp43
 70
     1
102
RTVSPost2010Prop44ColorIndex
 90
        5
102
RTVSPost2010Prop44ColorRGB
 90
      255
102
RTVSPost2010PropOp44
 70
     1
102
RTVSPost2010Prop45
280
     0
102
RTVSPost2010PropOp45
 70
     1
102
RTVSPost2010Prop46
 90
       50
102
RTVSPost2010PropOp46
 70
     1
102
RTVSPost2010Prop47
 90
       50
102
RTVSPost2010PropOp47
 70
     1
102
RTVSPost2010Prop48
 90
       50
102
RTVSPost2010PropOp48
 70
     1
102
RTVSPost2010Prop49
280
     0
102
RTVSPost2010PropOp49
 70
     1
102
RTVSPost2010Prop50
 90
       50
102
RTVSPost2010PropOp50
 70
     1
102
RTVSPost2010Prop51ColorIndex
 90
      256
102
RTVSPost2010Prop51ColorRGB
 90
-16777216
102
RTVSPost2010PropOp51
 70
     0
102
RTVSPost2010Prop52
140
1.0
102
RTVSPost2010PropOp52
 70
     0
102
RTVSPost2010Prop53
 90
        2
102
RTVSPost2010PropOp53
 70
     1
102
RTVSPost2010Prop54
  1
strokes_ogs.tif
102
RTVSPost2010PropOp54
 70
     1
102
RTVSPost2010Prop55
280
     0
102
RTVSPost2010PropOp55
 70
     1
102
RTVSPost2010Prop56
140
1.0
102
RTVSPost2010PropOp56
 70
     1
102
RTVSPost2010Prop57
140
1.0
102
RTVSPost2010PropOp57
 70
     1
102
RTVSPropertyOp0
 70
     1
102
RTVSPropertyOp1
 70
     1
102
RTVSPropertyOp2
 70
     1
102
RTVSPropertyOp3
 70
     1
102
RTVSPropertyOp4
 70
     1
102
RTVSPropertyOp5
 70
     1
102
RTVSPropertyOp6
 70
     1
102
RTVSPropertyOp7
 70
     1
102
RTVSPropertyOp8
 70
     1
102
RTVSPropertyOp9
 70
     1
102
RTVSPropertyOp10
 70
     1
102
RTVSPropertyOp11
 70
     1
102
RTVSPropertyOp12
 70
     1
102
RTVSPropertyOp13
 70
     1
102
RTVSPropertyOp14
 70
     1
102
RTVSPropertyOp15
 70
     1
102
RTVSPropertyOp16
 70
     1
102
RTVSPropertyOp17
 70
     1
102
RTVSPropertyOp18
 70
     1
102
RTVSPropertyOp19
 70
     1
102
RTVSPropertyOp20
 70
     1
102
RTVSPropertyOp21
 70
     1
102
RTVSPropertyOp22
 70
     1
102
RTVSPropertyOp23
 70
     1
102
RTVSPropertyOp24
 70
     1
102
RTVSPropertyOp25
 70
     1
102
RTVSPropertyOp26
 70
     1
102
RTVSPropertyOp27
 70
     1
102
RTVSPropertyOp28
 70
     1
102
RTVSPropertyOp29
 70
     1
102
RTVSPropertyOp30
 70
     1
102
RTVSPropertyOp31
 70
     1
102
RTVSPropertyOp32
 70
     1
102
RTVSPropertyOp33
 70
     1
102
RTVSPropertyOp34
 70
     1
102
RTVSPropertyOp35
 70
     1
102
RTVSPropertyOp36
 70
     1
102
RTVSPropertyOp37
 70
     1
102
RTVSPropertyOp38
 70
     1
102
RTVSPropertyOp39
 70
     1
102
RTVSPropertyOp40
 70
     1
102
RTVSPropertyOp41
 70
     1
102
RTVSPropertyOp42
 70
     1
102
RTVSPropertyOp43
 70
     1
102
RTVSPropertyOp44
 70
     1
102
RTVSPropertyOp45
 70
     1
102
RTVSPropertyOp46
 70
     1
102
RTVSPropertyOp47
 70
     1
102
RTVSPropertyOp48
 70
     1
102
RTVSPropertyOp49
 70
     1
102
RTVSPropertyOp50
 70
     1
102
RTVSPropertyOp51
 70
     0
102
RTVSPropertyOp52
 70
     0
102
RTVSPropertyOp53
 70
     1
102
RTVSPropertyOp54
 70
     1
102
RTVSPropertyOp55
 70
     1
102
RTVSPropertyOp56
 70
     1
102
RTVSPropertyOp57
 70
     1
102
RTVSPropertyOp58
 70
     1
102
RTVSPropertyOp59
 70
     1
102
RTVSPropertyOp60
 70
     1
102
RTVSPropertyOp61
 70
     1
102
RTVSPropertyOp62
 70
     1
  0
XRECORD
  5
C41D
102
{ACAD_REACTORS
330
C41C
102
}
330
C41C
100
AcDbXrecord
280
     1
102
RTVSPost2010Prop28
280
     0
102
RTVSPost2010PropOp28
 70
     1
102
RTVSPost2010Prop29
280
     1
102
RTVSPost2010PropOp29
 70
     1
102
RTVSPost2010Prop30
280
     1
102
RTVSPost2010PropOp30
 70
     1
102
RTVSPost2010Prop31
280
     0
102
RTVSPost2010PropOp31
 70
     1
102
RTVSPost2010Prop32
280
     0
102
RTVSPost2010PropOp32
 70
     1
102
RTVSPost2010Prop33
280
     0
102
RTVSPost2010PropOp33
 70
     1
102
RTVSPost2010Prop34
280
     0
102
RTVSPost2010PropOp34
 70
     1
102
RTVSPost2010Prop35
280
     0
102
RTVSPost2010PropOp35
 70
     1
102
RTVSPost2010Prop36
280
     0
102
RTVSPost2010PropOp36
 70
     1
102
RTVSPost2010Prop37
 90
       50
102
RTVSPost2010PropOp37
 70
     0
102
RTVSPost2010Prop38
140
0.0
102
RTVSPost2010PropOp38
 70
     0
102
RTVSPost2010Prop39
140
1.0
102
RTVSPost2010PropOp39
 70
     0
102
RTVSPost2010Prop40
 90
        0
102
RTVSPost2010PropOp40
 70
     0
102
RTVSPost2010Prop41ColorIndex
 90
       18
102
RTVSPost2010Prop41ColorRGB
 90
        0
102
RTVSPost2010PropOp41
 70
     0
102
RTVSPost2010Prop42
 90
       50
102
RTVSPost2010PropOp42
 70
     0
102
RTVSPost2010Prop43
 90
        3
102
RTVSPost2010PropOp43
 70
     0
102
RTVSPost2010Prop44ColorIndex
 90
        5
102
RTVSPost2010Prop44ColorRGB
 90
      255
102
RTVSPost2010PropOp44
 70
     0
102
RTVSPost2010Prop45
280
     0
102
RTVSPost2010PropOp45
 70
     1
102
RTVSPost2010Prop46
 90
       50
102
RTVSPost2010PropOp46
 70
     0
102
RTVSPost2010Prop47
 90
       50
102
RTVSPost2010PropOp47
 70
     0
102
RTVSPost2010Prop48
 90
       50
102
RTVSPost2010PropOp48
 70
     0
102
RTVSPost2010Prop49
280
     0
102
RTVSPost2010PropOp49
 70
     1
102
RTVSPost2010Prop50
 90
       50
102
RTVSPost2010PropOp50
 70
     0
102
RTVSPost2010Prop51ColorIndex
 90
      256
102
RTVSPost2010Prop51ColorRGB
 90
-16777216
102
RTVSPost2010PropOp51
 70
     0
102
RTVSPost2010Prop52
140
1.0
102
RTVSPost2010PropOp52
 70
     0
102
RTVSPost2010Prop53
 90
        2
102
RTVSPost2010PropOp53
 70
     0
102
RTVSPost2010Prop54
  1
strokes_ogs.tif
102
RTVSPost2010PropOp54
 70
     0
102
RTVSPost2010Prop55
280
     0
102
RTVSPost2010PropOp55
 70
     1
102
RTVSPost2010Prop56
140
1.0
102
RTVSPost2010PropOp56
 70
     0
102
RTVSPost2010Prop57
140
1.0
102
RTVSPost2010PropOp57
 70
     0
102
RTVSPropertyOp0
 70
     0
102
RTVSPropertyOp1
 70
     0
102
RTVSPropertyOp2
 70
     0
102
RTVSPropertyOp3
 70
     0
102
RTVSPropertyOp4
 70
     0
102
RTVSPropertyOp5
 70
     0
102
RTVSPropertyOp6
 70
     0
102
RTVSPropertyOp7
 70
     0
102
RTVSPropertyOp8
 70
     0
102
RTVSPropertyOp9
 70
     0
102
RTVSPropertyOp10
 70
     0
102
RTVSPropertyOp11
 70
     0
102
RTVSPropertyOp12
 70
     0
102
RTVSPropertyOp13
 70
     0
102
RTVSPropertyOp14
 70
     2
102
RTVSPropertyOp15
 70
     0
102
RTVSPropertyOp16
 70
     0
102
RTVSPropertyOp17
 70
     0
102
RTVSPropertyOp18
 70
     0
102
RTVSPropertyOp19
 70
     0
102
RTVSPropertyOp20
 70
     0
102
RTVSPropertyOp21
 70
     0
102
RTVSPropertyOp22
 70
     0
102
RTVSPropertyOp23
 70
     0
102
RTVSPropertyOp24
 70
     0
102
RTVSPropertyOp25
 70
     0
102
RTVSPropertyOp26
 70
     0
102
RTVSPropertyOp27
 70
     0
102
RTVSPropertyOp28
 70
     1
102
RTVSPropertyOp29
 70
     1
102
RTVSPropertyOp30
 70
     1
102
RTVSPropertyOp31
 70
     1
102
RTVSPropertyOp32
 70
     1
102
RTVSPropertyOp33
 70
     1
102
RTVSPropertyOp34
 70
     1
102
RTVSPropertyOp35
 70
     1
102
RTVSPropertyOp36
 70
     1
102
RTVSPropertyOp37
 70
     0
102
RTVSPropertyOp38
 70
     0
102
RTVSPropertyOp39
 70
     0
102
RTVSPropertyOp40
 70
     0
102
RTVSPropertyOp41
 70
     0
102
RTVSPropertyOp42
 70
     0
102
RTVSPropertyOp43
 70
     0
102
RTVSPropertyOp44
 70
     0
102
RTVSPropertyOp45
 70
     1
102
RTVSPropertyOp46
 70
     0
102
RTVSPropertyOp47
 70
     0
102
RTVSPropertyOp48
 70
     0
102
RTVSPropertyOp49
 70
     1
102
RTVSPropertyOp50
 70
     0
102
RTVSPropertyOp51
 70
     0
102
RTVSPropertyOp52
 70
     0
102
RTVSPropertyOp53
 70
     0
102
RTVSPropertyOp54
 70
     0
102
RTVSPropertyOp55
 70
     1
102
RTVSPropertyOp56
 70
     0
102
RTVSPropertyOp57
 70
     0
102
RTVSPropertyOp58
 70
     0
102
RTVSPropertyOp59
 70
     0
102
RTVSPropertyOp60
 70
     0
102
RTVSPropertyOp61
 70
     0
102
RTVSPropertyOp62
 70
     0
  0
XRECORD
  5
C403
102
{ACAD_REACTORS
330
C402
102
}
330
C402
100
AcDbXrecord
280
     1
102
RTVSPost2010Prop28
280
     0
102
RTVSPost2010PropOp28
 70
     1
102
RTVSPost2010Prop29
280
     1
102
RTVSPost2010PropOp29
 70
     1
102
RTVSPost2010Prop30
280
     1
102
RTVSPost2010PropOp30
 70
     1
102
RTVSPost2010Prop31
280
     0
102
RTVSPost2010PropOp31
 70
     1
102
RTVSPost2010Prop32
280
     0
102
RTVSPost2010PropOp32
 70
     1
102
RTVSPost2010Prop33
280
     0
102
RTVSPost2010PropOp33
 70
     1
102
RTVSPost2010Prop34
280
     0
102
RTVSPost2010PropOp34
 70
     1
102
RTVSPost2010Prop35
280
     0
102
RTVSPost2010PropOp35
 70
     1
102
RTVSPost2010Prop36
280
     0
102
RTVSPost2010PropOp36
 70
     1
102
RTVSPost2010Prop37
 90
       50
102
RTVSPost2010PropOp37
 70
     1
102
RTVSPost2010Prop38
140
0.0
102
RTVSPost2010PropOp38
 70
     1
102
RTVSPost2010Prop39
140
1.0
102
RTVSPost2010PropOp39
 70
     1
102
RTVSPost2010Prop40
 90
        0
102
RTVSPost2010PropOp40
 70
     1
102
RTVSPost2010Prop41ColorIndex
 90
       18
102
RTVSPost2010Prop41ColorRGB
 90
        0
102
RTVSPost2010PropOp41
 70
     1
102
RTVSPost2010Prop42
 90
       50
102
RTVSPost2010PropOp42
 70
     1
102
RTVSPost2010Prop43
 90
        3
102
RTVSPost2010PropOp43
 70
     1
102
RTVSPost2010Prop44ColorIndex
 90
        5
102
RTVSPost2010Prop44ColorRGB
 90
      255
102
RTVSPost2010PropOp44
 70
     1
102
RTVSPost2010Prop45
280
     0
102
RTVSPost2010PropOp45
 70
     1
102
RTVSPost2010Prop46
 90
       50
102
RTVSPost2010PropOp46
 70
     1
102
RTVSPost2010Prop47
 90
       50
102
RTVSPost2010PropOp47
 70
     1
102
RTVSPost2010Prop48
 90
       50
102
RTVSPost2010PropOp48
 70
     1
102
RTVSPost2010Prop49
280
     0
102
RTVSPost2010PropOp49
 70
     1
102
RTVSPost2010Prop50
 90
       50
102
RTVSPost2010PropOp50
 70
     1
102
RTVSPost2010Prop51ColorIndex
 90
      256
102
RTVSPost2010Prop51ColorRGB
 90
-16777216
102
RTVSPost2010PropOp51
 70
     0
102
RTVSPost2010Prop52
140
1.0
102
RTVSPost2010PropOp52
 70
     0
102
RTVSPost2010Prop53
 90
        2
102
RTVSPost2010PropOp53
 70
     1
102
RTVSPost2010Prop54
  1
strokes_ogs.tif
102
RTVSPost2010PropOp54
 70
     1
102
RTVSPost2010Prop55
280
     0
102
RTVSPost2010PropOp55
 70
     1
102
RTVSPost2010Prop56
140
1.0
102
RTVSPost2010PropOp56
 70
     1
102
RTVSPost2010Prop57
140
1.0
102
RTVSPost2010PropOp57
 70
     1
102
RTVSPropertyOp0
 70
     1
102
RTVSPropertyOp1
 70
     1
102
RTVSPropertyOp2
 70
     1
102
RTVSPropertyOp3
 70
     1
102
RTVSPropertyOp4
 70
     1
102
RTVSPropertyOp5
 70
     1
102
RTVSPropertyOp6
 70
     1
102
RTVSPropertyOp7
 70
     1
102
RTVSPropertyOp8
 70
     1
102
RTVSPropertyOp9
 70
     1
102
RTVSPropertyOp10
 70
     1
102
RTVSPropertyOp11
 70
     1
102
RTVSPropertyOp12
 70
     1
102
RTVSPropertyOp13
 70
     1
102
RTVSPropertyOp14
 70
     1
102
RTVSPropertyOp15
 70
     1
102
RTVSPropertyOp16
 70
     1
102
RTVSPropertyOp17
 70
     1
102
RTVSPropertyOp18
 70
     1
102
RTVSPropertyOp19
 70
     1
102
RTVSPropertyOp20
 70
     1
102
RTVSPropertyOp21
 70
     1
102
RTVSPropertyOp22
 70
     1
102
RTVSPropertyOp23
 70
     1
102
RTVSPropertyOp24
 70
     1
102
RTVSPropertyOp25
 70
     1
102
RTVSPropertyOp26
 70
     1
102
RTVSPropertyOp27
 70
     1
102
RTVSPropertyOp28
 70
     1
102
RTVSPropertyOp29
 70
     1
102
RTVSPropertyOp30
 70
     1
102
RTVSPropertyOp31
 70
     1
102
RTVSPropertyOp32
 70
     1
102
RTVSPropertyOp33
 70
     1
102
RTVSPropertyOp34
 70
     1
102
RTVSPropertyOp35
 70
     1
102
RTVSPropertyOp36
 70
     1
102
RTVSPropertyOp37
 70
     1
102
RTVSPropertyOp38
 70
     1
102
RTVSPropertyOp39
 70
     1
102
RTVSPropertyOp40
 70
     1
102
RTVSPropertyOp41
 70
     1
102
RTVSPropertyOp42
 70
     1
102
RTVSPropertyOp43
 70
     1
102
RTVSPropertyOp44
 70
     1
102
RTVSPropertyOp45
 70
     1
102
RTVSPropertyOp46
 70
     1
102
RTVSPropertyOp47
 70
     1
102
RTVSPropertyOp48
 70
     1
102
RTVSPropertyOp49
 70
     1
102
RTVSPropertyOp50
 70
     1
102
RTVSPropertyOp51
 70
     0
102
RTVSPropertyOp52
 70
     0
102
RTVSPropertyOp53
 70
     1
102
RTVSPropertyOp54
 70
     1
102
RTVSPropertyOp55
 70
     1
102
RTVSPropertyOp56
 70
     1
102
RTVSPropertyOp57
 70
     1
102
RTVSPropertyOp58
 70
     1
102
RTVSPropertyOp59
 70
     1
102
RTVSPropertyOp60
 70
     1
102
RTVSPropertyOp61
 70
     1
102
RTVSPropertyOp62
 70
     1
  0
XRECORD
  5
C419
102
{ACAD_REACTORS
330
C418
102
}
330
C418
100
AcDbXrecord
280
     1
102
RTVSPost2010Prop28
280
     0
102
RTVSPost2010PropOp28
 70
     1
102
RTVSPost2010Prop29
280
     1
102
RTVSPost2010PropOp29
 70
     1
102
RTVSPost2010Prop30
280
     1
102
RTVSPost2010PropOp30
 70
     1
102
RTVSPost2010Prop31
280
     0
102
RTVSPost2010PropOp31
 70
     1
102
RTVSPost2010Prop32
280
     0
102
RTVSPost2010PropOp32
 70
     1
102
RTVSPost2010Prop33
280
     0
102
RTVSPost2010PropOp33
 70
     1
102
RTVSPost2010Prop34
280
     0
102
RTVSPost2010PropOp34
 70
     1
102
RTVSPost2010Prop35
280
     0
102
RTVSPost2010PropOp35
 70
     1
102
RTVSPost2010Prop36
280
     0
102
RTVSPost2010PropOp36
 70
     1
102
RTVSPost2010Prop37
 90
       50
102
RTVSPost2010PropOp37
 70
     1
102
RTVSPost2010Prop38
140
0.0
102
RTVSPost2010PropOp38
 70
     1
102
RTVSPost2010Prop39
140
1.0
102
RTVSPost2010PropOp39
 70
     1
102
RTVSPost2010Prop40
 90
        0
102
RTVSPost2010PropOp40
 70
     1
102
RTVSPost2010Prop41ColorIndex
 90
       18
102
RTVSPost2010Prop41ColorRGB
 90
        0
102
RTVSPost2010PropOp41
 70
     1
102
RTVSPost2010Prop42
 90
       50
102
RTVSPost2010PropOp42
 70
     1
102
RTVSPost2010Prop43
 90
        3
102
RTVSPost2010PropOp43
 70
     1
102
RTVSPost2010Prop44ColorIndex
 90
        5
102
RTVSPost2010Prop44ColorRGB
 90
      255
102
RTVSPost2010PropOp44
 70
     1
102
RTVSPost2010Prop45
280
     0
102
RTVSPost2010PropOp45
 70
     1
102
RTVSPost2010Prop46
 90
       50
102
RTVSPost2010PropOp46
 70
     1
102
RTVSPost2010Prop47
 90
       50
102
RTVSPost2010PropOp47
 70
     1
102
RTVSPost2010Prop48
 90
       50
102
RTVSPost2010PropOp48
 70
     1
102
RTVSPost2010Prop49
280
     0
102
RTVSPost2010PropOp49
 70
     1
102
RTVSPost2010Prop50
 90
       50
102
RTVSPost2010PropOp50
 70
     1
102
RTVSPost2010Prop51ColorIndex
 90
      256
102
RTVSPost2010Prop51ColorRGB
 90
-16777216
102
RTVSPost2010PropOp51
 70
     0
102
RTVSPost2010Prop52
140
1.0
102
RTVSPost2010PropOp52
 70
     0
102
RTVSPost2010Prop53
 90
        2
102
RTVSPost2010PropOp53
 70
     1
102
RTVSPost2010Prop54
  1
strokes_ogs.tif
102
RTVSPost2010PropOp54
 70
     1
102
RTVSPost2010Prop55
280
     0
102
RTVSPost2010PropOp55
 70
     1
102
RTVSPost2010Prop56
140
1.0
102
RTVSPost2010PropOp56
 70
     1
102
RTVSPost2010Prop57
140
1.0
102
RTVSPost2010PropOp57
 70
     1
102
RTVSPropertyOp0
 70
     1
102
RTVSPropertyOp1
 70
     1
102
RTVSPropertyOp2
 70
     1
102
RTVSPropertyOp3
 70
     1
102
RTVSPropertyOp4
 70
     1
102
RTVSPropertyOp5
 70
     1
102
RTVSPropertyOp6
 70
     1
102
RTVSPropertyOp7
 70
     1
102
RTVSPropertyOp8
 70
     1
102
RTVSPropertyOp9
 70
     1
102
RTVSPropertyOp10
 70
     1
102
RTVSPropertyOp11
 70
     1
102
RTVSPropertyOp12
 70
     1
102
RTVSPropertyOp13
 70
     1
102
RTVSPropertyOp14
 70
     1
102
RTVSPropertyOp15
 70
     1
102
RTVSPropertyOp16
 70
     1
102
RTVSPropertyOp17
 70
     1
102
RTVSPropertyOp18
 70
     1
102
RTVSPropertyOp19
 70
     1
102
RTVSPropertyOp20
 70
     1
102
RTVSPropertyOp21
 70
     1
102
RTVSPropertyOp22
 70
     1
102
RTVSPropertyOp23
 70
     1
102
RTVSPropertyOp24
 70
     1
102
RTVSPropertyOp25
 70
     1
102
RTVSPropertyOp26
 70
     1
102
RTVSPropertyOp27
 70
     1
102
RTVSPropertyOp28
 70
     1
102
RTVSPropertyOp29
 70
     1
102
RTVSPropertyOp30
 70
     1
102
RTVSPropertyOp31
 70
     1
102
RTVSPropertyOp32
 70
     1
102
RTVSPropertyOp33
 70
     1
102
RTVSPropertyOp34
 70
     1
102
RTVSPropertyOp35
 70
     1
102
RTVSPropertyOp36
 70
     1
102
RTVSPropertyOp37
 70
     1
102
RTVSPropertyOp38
 70
     1
102
RTVSPropertyOp39
 70
     1
102
RTVSPropertyOp40
 70
     1
102
RTVSPropertyOp41
 70
     1
102
RTVSPropertyOp42
 70
     1
102
RTVSPropertyOp43
 70
     1
102
RTVSPropertyOp44
 70
     1
102
RTVSPropertyOp45
 70
     1
102
RTVSPropertyOp46
 70
     1
102
RTVSPropertyOp47
 70
     1
102
RTVSPropertyOp48
 70
     1
102
RTVSPropertyOp49
 70
     1
102
RTVSPropertyOp50
 70
     1
102
RTVSPropertyOp51
 70
     0
102
RTVSPropertyOp52
 70
     0
102
RTVSPropertyOp53
 70
     1
102
RTVSPropertyOp54
 70
     1
102
RTVSPropertyOp55
 70
     1
102
RTVSPropertyOp56
 70
     1
102
RTVSPropertyOp57
 70
     1
102
RTVSPropertyOp58
 70
     1
102
RTVSPropertyOp59
 70
     1
102
RTVSPropertyOp60
 70
     1
102
RTVSPropertyOp61
 70
     1
102
RTVSPropertyOp62
 70
     1
  0
XRECORD
  5
C417
102
{ACAD_REACTORS
330
C416
102
}
330
C416
100
AcDbXrecord
280
     1
102
RTVSPost2010Prop28
280
     0
102
RTVSPost2010PropOp28
 70
     1
102
RTVSPost2010Prop29
280
     1
102
RTVSPost2010PropOp29
 70
     1
102
RTVSPost2010Prop30
280
     1
102
RTVSPost2010PropOp30
 70
     1
102
RTVSPost2010Prop31
280
     0
102
RTVSPost2010PropOp31
 70
     1
102
RTVSPost2010Prop32
280
     0
102
RTVSPost2010PropOp32
 70
     1
102
RTVSPost2010Prop33
280
     0
102
RTVSPost2010PropOp33
 70
     1
102
RTVSPost2010Prop34
280
     0
102
RTVSPost2010PropOp34
 70
     1
102
RTVSPost2010Prop35
280
     0
102
RTVSPost2010PropOp35
 70
     1
102
RTVSPost2010Prop36
280
     0
102
RTVSPost2010PropOp36
 70
     1
102
RTVSPost2010Prop37
 90
       50
102
RTVSPost2010PropOp37
 70
     1
102
RTVSPost2010Prop38
140
0.0
102
RTVSPost2010PropOp38
 70
     1
102
RTVSPost2010Prop39
140
1.0
102
RTVSPost2010PropOp39
 70
     1
102
RTVSPost2010Prop40
 90
        0
102
RTVSPost2010PropOp40
 70
     1
102
RTVSPost2010Prop41ColorIndex
 90
       18
102
RTVSPost2010Prop41ColorRGB
 90
        0
102
RTVSPost2010PropOp41
 70
     1
102
RTVSPost2010Prop42
 90
       50
102
RTVSPost2010PropOp42
 70
     1
102
RTVSPost2010Prop43
 90
        3
102
RTVSPost2010PropOp43
 70
     1
102
RTVSPost2010Prop44ColorIndex
 90
        5
102
RTVSPost2010Prop44ColorRGB
 90
      255
102
RTVSPost2010PropOp44
 70
     1
102
RTVSPost2010Prop45
280
     0
102
RTVSPost2010PropOp45
 70
     1
102
RTVSPost2010Prop46
 90
       50
102
RTVSPost2010PropOp46
 70
     1
102
RTVSPost2010Prop47
 90
       50
102
RTVSPost2010PropOp47
 70
     1
102
RTVSPost2010Prop48
 90
       50
102
RTVSPost2010PropOp48
 70
     1
102
RTVSPost2010Prop49
280
     0
102
RTVSPost2010PropOp49
 70
     1
102
RTVSPost2010Prop50
 90
       50
102
RTVSPost2010PropOp50
 70
     1
102
RTVSPost2010Prop51ColorIndex
 90
      256
102
RTVSPost2010Prop51ColorRGB
 90
-16777216
102
RTVSPost2010PropOp51
 70
     0
102
RTVSPost2010Prop52
140
1.0
102
RTVSPost2010PropOp52
 70
     0
102
RTVSPost2010Prop53
 90
        2
102
RTVSPost2010PropOp53
 70
     1
102
RTVSPost2010Prop54
  1
strokes_ogs.tif
102
RTVSPost2010PropOp54
 70
     1
102
RTVSPost2010Prop55
280
     0
102
RTVSPost2010PropOp55
 70
     1
102
RTVSPost2010Prop56
140
1.0
102
RTVSPost2010PropOp56
 70
     1
102
RTVSPost2010Prop57
140
1.0
102
RTVSPost2010PropOp57
 70
     1
102
RTVSPropertyOp0
 70
     1
102
RTVSPropertyOp1
 70
     1
102
RTVSPropertyOp2
 70
     1
102
RTVSPropertyOp3
 70
     1
102
RTVSPropertyOp4
 70
     1
102
RTVSPropertyOp5
 70
     1
102
RTVSPropertyOp6
 70
     1
102
RTVSPropertyOp7
 70
     1
102
RTVSPropertyOp8
 70
     1
102
RTVSPropertyOp9
 70
     1
102
RTVSPropertyOp10
 70
     1
102
RTVSPropertyOp11
 70
     1
102
RTVSPropertyOp12
 70
     1
102
RTVSPropertyOp13
 70
     1
102
RTVSPropertyOp14
 70
     1
102
RTVSPropertyOp15
 70
     1
102
RTVSPropertyOp16
 70
     1
102
RTVSPropertyOp17
 70
     1
102
RTVSPropertyOp18
 70
     1
102
RTVSPropertyOp19
 70
     1
102
RTVSPropertyOp20
 70
     1
102
RTVSPropertyOp21
 70
     1
102
RTVSPropertyOp22
 70
     1
102
RTVSPropertyOp23
 70
     1
102
RTVSPropertyOp24
 70
     1
102
RTVSPropertyOp25
 70
     1
102
RTVSPropertyOp26
 70
     1
102
RTVSPropertyOp27
 70
     1
102
RTVSPropertyOp28
 70
     1
102
RTVSPropertyOp29
 70
     1
102
RTVSPropertyOp30
 70
     1
102
RTVSPropertyOp31
 70
     1
102
RTVSPropertyOp32
 70
     1
102
RTVSPropertyOp33
 70
     1
102
RTVSPropertyOp34
 70
     1
102
RTVSPropertyOp35
 70
     1
102
RTVSPropertyOp36
 70
     1
102
RTVSPropertyOp37
 70
     1
102
RTVSPropertyOp38
 70
     1
102
RTVSPropertyOp39
 70
     1
102
RTVSPropertyOp40
 70
     1
102
RTVSPropertyOp41
 70
     1
102
RTVSPropertyOp42
 70
     1
102
RTVSPropertyOp43
 70
     1
102
RTVSPropertyOp44
 70
     1
102
RTVSPropertyOp45
 70
     1
102
RTVSPropertyOp46
 70
     1
102
RTVSPropertyOp47
 70
     1
102
RTVSPropertyOp48
 70
     1
102
RTVSPropertyOp49
 70
     1
102
RTVSPropertyOp50
 70
     1
102
RTVSPropertyOp51
 70
     0
102
RTVSPropertyOp52
 70
     0
102
RTVSPropertyOp53
 70
     1
102
RTVSPropertyOp54
 70
     1
102
RTVSPropertyOp55
 70
     1
102
RTVSPropertyOp56
 70
     1
102
RTVSPropertyOp57
 70
     1
102
RTVSPropertyOp58
 70
     1
102
RTVSPropertyOp59
 70
     1
102
RTVSPropertyOp60
 70
     1
102
RTVSPropertyOp61
 70
     1
102
RTVSPropertyOp62
 70
     1
  0
XRECORD
  5
C411
102
{ACAD_REACTORS
330
C410
102
}
330
C410
100
AcDbXrecord
280
     1
102
RTVSPost2010Prop28
280
     0
102
RTVSPost2010PropOp28
 70
     1
102
RTVSPost2010Prop29
280
     1
102
RTVSPost2010PropOp29
 70
     1
102
RTVSPost2010Prop30
280
     1
102
RTVSPost2010PropOp30
 70
     1
102
RTVSPost2010Prop31
280
     0
102
RTVSPost2010PropOp31
 70
     1
102
RTVSPost2010Prop32
280
     0
102
RTVSPost2010PropOp32
 70
     1
102
RTVSPost2010Prop33
280
     0
102
RTVSPost2010PropOp33
 70
     1
102
RTVSPost2010Prop34
280
     0
102
RTVSPost2010PropOp34
 70
     1
102
RTVSPost2010Prop35
280
     0
102
RTVSPost2010PropOp35
 70
     1
102
RTVSPost2010Prop36
280
     0
102
RTVSPost2010PropOp36
 70
     1
102
RTVSPost2010Prop37
 90
       50
102
RTVSPost2010PropOp37
 70
     1
102
RTVSPost2010Prop38
140
0.0
102
RTVSPost2010PropOp38
 70
     1
102
RTVSPost2010Prop39
140
1.0
102
RTVSPost2010PropOp39
 70
     1
102
RTVSPost2010Prop40
 90
        0
102
RTVSPost2010PropOp40
 70
     1
102
RTVSPost2010Prop41ColorIndex
 90
       18
102
RTVSPost2010Prop41ColorRGB
 90
        0
102
RTVSPost2010PropOp41
 70
     1
102
RTVSPost2010Prop42
 90
       50
102
RTVSPost2010PropOp42
 70
     1
102
RTVSPost2010Prop43
 90
        3
102
RTVSPost2010PropOp43
 70
     1
102
RTVSPost2010Prop44ColorIndex
 90
        5
102
RTVSPost2010Prop44ColorRGB
 90
      255
102
RTVSPost2010PropOp44
 70
     1
102
RTVSPost2010Prop45
280
     0
102
RTVSPost2010PropOp45
 70
     1
102
RTVSPost2010Prop46
 90
       50
102
RTVSPost2010PropOp46
 70
     1
102
RTVSPost2010Prop47
 90
       50
102
RTVSPost2010PropOp47
 70
     1
102
RTVSPost2010Prop48
 90
       50
102
RTVSPost2010PropOp48
 70
     1
102
RTVSPost2010Prop49
280
     0
102
RTVSPost2010PropOp49
 70
     1
102
RTVSPost2010Prop50
 90
       50
102
RTVSPost2010PropOp50
 70
     1
102
RTVSPost2010Prop51ColorIndex
 90
      256
102
RTVSPost2010Prop51ColorRGB
 90
-16777216
102
RTVSPost2010PropOp51
 70
     0
102
RTVSPost2010Prop52
140
1.0
102
RTVSPost2010PropOp52
 70
     0
102
RTVSPost2010Prop53
 90
        2
102
RTVSPost2010PropOp53
 70
     1
102
RTVSPost2010Prop54
  1
strokes_ogs.tif
102
RTVSPost2010PropOp54
 70
     1
102
RTVSPost2010Prop55
280
     0
102
RTVSPost2010PropOp55
 70
     1
102
RTVSPost2010Prop56
140
1.0
102
RTVSPost2010PropOp56
 70
     1
102
RTVSPost2010Prop57
140
1.0
102
RTVSPost2010PropOp57
 70
     1
102
RTVSPropertyOp0
 70
     1
102
RTVSPropertyOp1
 70
     1
102
RTVSPropertyOp2
 70
     1
102
RTVSPropertyOp3
 70
     1
102
RTVSPropertyOp4
 70
     1
102
RTVSPropertyOp5
 70
     1
102
RTVSPropertyOp6
 70
     1
102
RTVSPropertyOp7
 70
     1
102
RTVSPropertyOp8
 70
     1
102
RTVSPropertyOp9
 70
     1
102
RTVSPropertyOp10
 70
     1
102
RTVSPropertyOp11
 70
     1
102
RTVSPropertyOp12
 70
     1
102
RTVSPropertyOp13
 70
     1
102
RTVSPropertyOp14
 70
     1
102
RTVSPropertyOp15
 70
     1
102
RTVSPropertyOp16
 70
     1
102
RTVSPropertyOp17
 70
     1
102
RTVSPropertyOp18
 70
     1
102
RTVSPropertyOp19
 70
     1
102
RTVSPropertyOp20
 70
     1
102
RTVSPropertyOp21
 70
     1
102
RTVSPropertyOp22
 70
     1
102
RTVSPropertyOp23
 70
     1
102
RTVSPropertyOp24
 70
     1
102
RTVSPropertyOp25
 70
     1
102
RTVSPropertyOp26
 70
     1
102
RTVSPropertyOp27
 70
     1
102
RTVSPropertyOp28
 70
     1
102
RTVSPropertyOp29
 70
     1
102
RTVSPropertyOp30
 70
     1
102
RTVSPropertyOp31
 70
     1
102
RTVSPropertyOp32
 70
     1
102
RTVSPropertyOp33
 70
     1
102
RTVSPropertyOp34
 70
     1
102
RTVSPropertyOp35
 70
     1
102
RTVSPropertyOp36
 70
     1
102
RTVSPropertyOp37
 70
     1
102
RTVSPropertyOp38
 70
     1
102
RTVSPropertyOp39
 70
     1
102
RTVSPropertyOp40
 70
     1
102
RTVSPropertyOp41
 70
     1
102
RTVSPropertyOp42
 70
     1
102
RTVSPropertyOp43
 70
     1
102
RTVSPropertyOp44
 70
     1
102
RTVSPropertyOp45
 70
     1
102
RTVSPropertyOp46
 70
     1
102
RTVSPropertyOp47
 70
     1
102
RTVSPropertyOp48
 70
     1
102
RTVSPropertyOp49
 70
     1
102
RTVSPropertyOp50
 70
     1
102
RTVSPropertyOp51
 70
     0
102
RTVSPropertyOp52
 70
     0
102
RTVSPropertyOp53
 70
     1
102
RTVSPropertyOp54
 70
     1
102
RTVSPropertyOp55
 70
     1
102
RTVSPropertyOp56
 70
     1
102
RTVSPropertyOp57
 70
     1
102
RTVSPropertyOp58
 70
     1
102
RTVSPropertyOp59
 70
     1
102
RTVSPropertyOp60
 70
     1
102
RTVSPropertyOp61
 70
     1
102
RTVSPropertyOp62
 70
     1
  0
XRECORD
  5
C413
102
{ACAD_REACTORS
330
C412
102
}
330
C412
100
AcDbXrecord
280
     1
102
RTVSPost2010Prop28
280
     0
102
RTVSPost2010PropOp28
 70
     1
102
RTVSPost2010Prop29
280
     1
102
RTVSPost2010PropOp29
 70
     1
102
RTVSPost2010Prop30
280
     1
102
RTVSPost2010PropOp30
 70
     1
102
RTVSPost2010Prop31
280
     0
102
RTVSPost2010PropOp31
 70
     1
102
RTVSPost2010Prop32
280
     0
102
RTVSPost2010PropOp32
 70
     1
102
RTVSPost2010Prop33
280
     0
102
RTVSPost2010PropOp33
 70
     1
102
RTVSPost2010Prop34
280
     0
102
RTVSPost2010PropOp34
 70
     1
102
RTVSPost2010Prop35
280
     0
102
RTVSPost2010PropOp35
 70
     1
102
RTVSPost2010Prop36
280
     0
102
RTVSPost2010PropOp36
 70
     1
102
RTVSPost2010Prop37
 90
       50
102
RTVSPost2010PropOp37
 70
     1
102
RTVSPost2010Prop38
140
0.0
102
RTVSPost2010PropOp38
 70
     1
102
RTVSPost2010Prop39
140
1.0
102
RTVSPost2010PropOp39
 70
     1
102
RTVSPost2010Prop40
 90
        0
102
RTVSPost2010PropOp40
 70
     1
102
RTVSPost2010Prop41ColorIndex
 90
       18
102
RTVSPost2010Prop41ColorRGB
 90
        0
102
RTVSPost2010PropOp41
 70
     1
102
RTVSPost2010Prop42
 90
       50
102
RTVSPost2010PropOp42
 70
     1
102
RTVSPost2010Prop43
 90
        3
102
RTVSPost2010PropOp43
 70
     1
102
RTVSPost2010Prop44ColorIndex
 90
        5
102
RTVSPost2010Prop44ColorRGB
 90
      255
102
RTVSPost2010PropOp44
 70
     1
102
RTVSPost2010Prop45
280
     0
102
RTVSPost2010PropOp45
 70
     1
102
RTVSPost2010Prop46
 90
       50
102
RTVSPost2010PropOp46
 70
     1
102
RTVSPost2010Prop47
 90
       50
102
RTVSPost2010PropOp47
 70
     1
102
RTVSPost2010Prop48
 90
       50
102
RTVSPost2010PropOp48
 70
     1
102
RTVSPost2010Prop49
280
     0
102
RTVSPost2010PropOp49
 70
     1
102
RTVSPost2010Prop50
 90
       50
102
RTVSPost2010PropOp50
 70
     1
102
RTVSPost2010Prop51ColorIndex
 90
      256
102
RTVSPost2010Prop51ColorRGB
 90
-16777216
102
RTVSPost2010PropOp51
 70
     0
102
RTVSPost2010Prop52
140
1.0
102
RTVSPost2010PropOp52
 70
     0
102
RTVSPost2010Prop53
 90
        2
102
RTVSPost2010PropOp53
 70
     1
102
RTVSPost2010Prop54
  1
strokes_ogs.tif
102
RTVSPost2010PropOp54
 70
     1
102
RTVSPost2010Prop55
280
     0
102
RTVSPost2010PropOp55
 70
     1
102
RTVSPost2010Prop56
140
1.0
102
RTVSPost2010PropOp56
 70
     1
102
RTVSPost2010Prop57
140
1.0
102
RTVSPost2010PropOp57
 70
     1
102
RTVSPropertyOp0
 70
     1
102
RTVSPropertyOp1
 70
     1
102
RTVSPropertyOp2
 70
     1
102
RTVSPropertyOp3
 70
     1
102
RTVSPropertyOp4
 70
     1
102
RTVSPropertyOp5
 70
     1
102
RTVSPropertyOp6
 70
     1
102
RTVSPropertyOp7
 70
     1
102
RTVSPropertyOp8
 70
     1
102
RTVSPropertyOp9
 70
     1
102
RTVSPropertyOp10
 70
     1
102
RTVSPropertyOp11
 70
     1
102
RTVSPropertyOp12
 70
     1
102
RTVSPropertyOp13
 70
     1
102
RTVSPropertyOp14
 70
     1
102
RTVSPropertyOp15
 70
     1
102
RTVSPropertyOp16
 70
     1
102
RTVSPropertyOp17
 70
     1
102
RTVSPropertyOp18
 70
     1
102
RTVSPropertyOp19
 70
     1
102
RTVSPropertyOp20
 70
     1
102
RTVSPropertyOp21
 70
     1
102
RTVSPropertyOp22
 70
     1
102
RTVSPropertyOp23
 70
     1
102
RTVSPropertyOp24
 70
     1
102
RTVSPropertyOp25
 70
     1
102
RTVSPropertyOp26
 70
     1
102
RTVSPropertyOp27
 70
     1
102
RTVSPropertyOp28
 70
     1
102
RTVSPropertyOp29
 70
     1
102
RTVSPropertyOp30
 70
     1
102
RTVSPropertyOp31
 70
     1
102
RTVSPropertyOp32
 70
     1
102
RTVSPropertyOp33
 70
     1
102
RTVSPropertyOp34
 70
     1
102
RTVSPropertyOp35
 70
     1
102
RTVSPropertyOp36
 70
     1
102
RTVSPropertyOp37
 70
     1
102
RTVSPropertyOp38
 70
     1
102
RTVSPropertyOp39
 70
     1
102
RTVSPropertyOp40
 70
     1
102
RTVSPropertyOp41
 70
     1
102
RTVSPropertyOp42
 70
     1
102
RTVSPropertyOp43
 70
     1
102
RTVSPropertyOp44
 70
     1
102
RTVSPropertyOp45
 70
     1
102
RTVSPropertyOp46
 70
     1
102
RTVSPropertyOp47
 70
     1
102
RTVSPropertyOp48
 70
     1
102
RTVSPropertyOp49
 70
     1
102
RTVSPropertyOp50
 70
     1
102
RTVSPropertyOp51
 70
     0
102
RTVSPropertyOp52
 70
     0
102
RTVSPropertyOp53
 70
     1
102
RTVSPropertyOp54
 70
     1
102
RTVSPropertyOp55
 70
     1
102
RTVSPropertyOp56
 70
     1
102
RTVSPropertyOp57
 70
     1
102
RTVSPropertyOp58
 70
     1
102
RTVSPropertyOp59
 70
     1
102
RTVSPropertyOp60
 70
     1
102
RTVSPropertyOp61
 70
     1
102
RTVSPropertyOp62
 70
     1
  0
XRECORD
  5
C409
102
{ACAD_REACTORS
330
C408
102
}
330
C408
100
AcDbXrecord
280
     1
102
RTVSPost2010Prop28
280
     0
102
RTVSPost2010PropOp28
 70
     1
102
RTVSPost2010Prop29
280
     1
102
RTVSPost2010PropOp29
 70
     1
102
RTVSPost2010Prop30
280
     1
102
RTVSPost2010PropOp30
 70
     1
102
RTVSPost2010Prop31
280
     0
102
RTVSPost2010PropOp31
 70
     1
102
RTVSPost2010Prop32
280
     0
102
RTVSPost2010PropOp32
 70
     1
102
RTVSPost2010Prop33
280
     0
102
RTVSPost2010PropOp33
 70
     1
102
RTVSPost2010Prop34
280
     0
102
RTVSPost2010PropOp34
 70
     1
102
RTVSPost2010Prop35
280
     0
102
RTVSPost2010PropOp35
 70
     1
102
RTVSPost2010Prop36
280
     0
102
RTVSPost2010PropOp36
 70
     1
102
RTVSPost2010Prop37
 90
       50
102
RTVSPost2010PropOp37
 70
     1
102
RTVSPost2010Prop38
140
0.0
102
RTVSPost2010PropOp38
 70
     1
102
RTVSPost2010Prop39
140
1.0
102
RTVSPost2010PropOp39
 70
     1
102
RTVSPost2010Prop40
 90
        0
102
RTVSPost2010PropOp40
 70
     1
102
RTVSPost2010Prop41ColorIndex
 90
       18
102
RTVSPost2010Prop41ColorRGB
 90
        0
102
RTVSPost2010PropOp41
 70
     1
102
RTVSPost2010Prop42
 90
       50
102
RTVSPost2010PropOp42
 70
     1
102
RTVSPost2010Prop43
 90
        3
102
RTVSPost2010PropOp43
 70
     1
102
RTVSPost2010Prop44ColorIndex
 90
        5
102
RTVSPost2010Prop44ColorRGB
 90
      255
102
RTVSPost2010PropOp44
 70
     1
102
RTVSPost2010Prop45
280
     0
102
RTVSPost2010PropOp45
 70
     1
102
RTVSPost2010Prop46
 90
       50
102
RTVSPost2010PropOp46
 70
     1
102
RTVSPost2010Prop47
 90
       50
102
RTVSPost2010PropOp47
 70
     1
102
RTVSPost2010Prop48
 90
       50
102
RTVSPost2010PropOp48
 70
     1
102
RTVSPost2010Prop49
280
     0
102
RTVSPost2010PropOp49
 70
     1
102
RTVSPost2010Prop50
 90
       50
102
RTVSPost2010PropOp50
 70
     1
102
RTVSPost2010Prop51ColorIndex
 90
      256
102
RTVSPost2010Prop51ColorRGB
 90
-16777216
102
RTVSPost2010PropOp51
 70
     0
102
RTVSPost2010Prop52
140
1.0
102
RTVSPost2010PropOp52
 70
     0
102
RTVSPost2010Prop53
 90
        2
102
RTVSPost2010PropOp53
 70
     1
102
RTVSPost2010Prop54
  1
strokes_ogs.tif
102
RTVSPost2010PropOp54
 70
     1
102
RTVSPost2010Prop55
280
     0
102
RTVSPost2010PropOp55
 70
     1
102
RTVSPost2010Prop56
140
1.0
102
RTVSPost2010PropOp56
 70
     1
102
RTVSPost2010Prop57
140
1.0
102
RTVSPost2010PropOp57
 70
     1
102
RTVSPropertyOp0
 70
     1
102
RTVSPropertyOp1
 70
     1
102
RTVSPropertyOp2
 70
     1
102
RTVSPropertyOp3
 70
     1
102
RTVSPropertyOp4
 70
     1
102
RTVSPropertyOp5
 70
     1
102
RTVSPropertyOp6
 70
     1
102
RTVSPropertyOp7
 70
     1
102
RTVSPropertyOp8
 70
     1
102
RTVSPropertyOp9
 70
     1
102
RTVSPropertyOp10
 70
     1
102
RTVSPropertyOp11
 70
     1
102
RTVSPropertyOp12
 70
     1
102
RTVSPropertyOp13
 70
     1
102
RTVSPropertyOp14
 70
     1
102
RTVSPropertyOp15
 70
     1
102
RTVSPropertyOp16
 70
     1
102
RTVSPropertyOp17
 70
     1
102
RTVSPropertyOp18
 70
     1
102
RTVSPropertyOp19
 70
     1
102
RTVSPropertyOp20
 70
     1
102
RTVSPropertyOp21
 70
     1
102
RTVSPropertyOp22
 70
     1
102
RTVSPropertyOp23
 70
     1
102
RTVSPropertyOp24
 70
     1
102
RTVSPropertyOp25
 70
     1
102
RTVSPropertyOp26
 70
     1
102
RTVSPropertyOp27
 70
     1
102
RTVSPropertyOp28
 70
     1
102
RTVSPropertyOp29
 70
     1
102
RTVSPropertyOp30
 70
     1
102
RTVSPropertyOp31
 70
     1
102
RTVSPropertyOp32
 70
     1
102
RTVSPropertyOp33
 70
     1
102
RTVSPropertyOp34
 70
     1
102
RTVSPropertyOp35
 70
     1
102
RTVSPropertyOp36
 70
     1
102
RTVSPropertyOp37
 70
     1
102
RTVSPropertyOp38
 70
     1
102
RTVSPropertyOp39
 70
     1
102
RTVSPropertyOp40
 70
     1
102
RTVSPropertyOp41
 70
     1
102
RTVSPropertyOp42
 70
     1
102
RTVSPropertyOp43
 70
     1
102
RTVSPropertyOp44
 70
     1
102
RTVSPropertyOp45
 70
     1
102
RTVSPropertyOp46
 70
     1
102
RTVSPropertyOp47
 70
     1
102
RTVSPropertyOp48
 70
     1
102
RTVSPropertyOp49
 70
     1
102
RTVSPropertyOp50
 70
     1
102
RTVSPropertyOp51
 70
     0
102
RTVSPropertyOp52
 70
     0
102
RTVSPropertyOp53
 70
     1
102
RTVSPropertyOp54
 70
     1
102
RTVSPropertyOp55
 70
     1
102
RTVSPropertyOp56
 70
     1
102
RTVSPropertyOp57
 70
     1
102
RTVSPropertyOp58
 70
     1
102
RTVSPropertyOp59
 70
     1
102
RTVSPropertyOp60
 70
     1
102
RTVSPropertyOp61
 70
     1
102
RTVSPropertyOp62
 70
     1
  0
XRECORD
  5
C3FD
102
{ACAD_REACTORS
330
C3FC
102
}
330
C3FC
100
AcDbXrecord
280
     1
102
RTVSPost2010Prop28
280
     0
102
RTVSPost2010PropOp28
 70
     1
102
RTVSPost2010Prop29
280
     1
102
RTVSPost2010PropOp29
 70
     1
102
RTVSPost2010Prop30
280
     1
102
RTVSPost2010PropOp30
 70
     1
102
RTVSPost2010Prop31
280
     0
102
RTVSPost2010PropOp31
 70
     1
102
RTVSPost2010Prop32
280
     0
102
RTVSPost2010PropOp32
 70
     1
102
RTVSPost2010Prop33
280
     0
102
RTVSPost2010PropOp33
 70
     1
102
RTVSPost2010Prop34
280
     0
102
RTVSPost2010PropOp34
 70
     1
102
RTVSPost2010Prop35
280
     0
102
RTVSPost2010PropOp35
 70
     1
102
RTVSPost2010Prop36
280
     0
102
RTVSPost2010PropOp36
 70
     1
102
RTVSPost2010Prop37
 90
       50
102
RTVSPost2010PropOp37
 70
     1
102
RTVSPost2010Prop38
140
0.0
102
RTVSPost2010PropOp38
 70
     1
102
RTVSPost2010Prop39
140
1.0
102
RTVSPost2010PropOp39
 70
     1
102
RTVSPost2010Prop40
 90
        0
102
RTVSPost2010PropOp40
 70
     1
102
RTVSPost2010Prop41ColorIndex
 90
       18
102
RTVSPost2010Prop41ColorRGB
 90
        0
102
RTVSPost2010PropOp41
 70
     1
102
RTVSPost2010Prop42
 90
       50
102
RTVSPost2010PropOp42
 70
     1
102
RTVSPost2010Prop43
 90
        3
102
RTVSPost2010PropOp43
 70
     1
102
RTVSPost2010Prop44ColorIndex
 90
        5
102
RTVSPost2010Prop44ColorRGB
 90
      255
102
RTVSPost2010PropOp44
 70
     1
102
RTVSPost2010Prop45
280
     0
102
RTVSPost2010PropOp45
 70
     1
102
RTVSPost2010Prop46
 90
       50
102
RTVSPost2010PropOp46
 70
     1
102
RTVSPost2010Prop47
 90
       50
102
RTVSPost2010PropOp47
 70
     1
102
RTVSPost2010Prop48
 90
       50
102
RTVSPost2010PropOp48
 70
     1
102
RTVSPost2010Prop49
280
     0
102
RTVSPost2010PropOp49
 70
     1
102
RTVSPost2010Prop50
 90
       50
102
RTVSPost2010PropOp50
 70
     1
102
RTVSPost2010Prop51ColorIndex
 90
      256
102
RTVSPost2010Prop51ColorRGB
 90
-16777216
102
RTVSPost2010PropOp51
 70
     0
102
RTVSPost2010Prop52
140
1.0
102
RTVSPost2010PropOp52
 70
     0
102
RTVSPost2010Prop53
 90
        2
102
RTVSPost2010PropOp53
 70
     1
102
RTVSPost2010Prop54
  1
strokes_ogs.tif
102
RTVSPost2010PropOp54
 70
     1
102
RTVSPost2010Prop55
280
     0
102
RTVSPost2010PropOp55
 70
     1
102
RTVSPost2010Prop56
140
1.0
102
RTVSPost2010PropOp56
 70
     1
102
RTVSPost2010Prop57
140
1.0
102
RTVSPost2010PropOp57
 70
     1
102
RTVSPropertyOp0
 70
     1
102
RTVSPropertyOp1
 70
     1
102
RTVSPropertyOp2
 70
     1
102
RTVSPropertyOp3
 70
     1
102
RTVSPropertyOp4
 70
     1
102
RTVSPropertyOp5
 70
     1
102
RTVSPropertyOp6
 70
     1
102
RTVSPropertyOp7
 70
     1
102
RTVSPropertyOp8
 70
     1
102
RTVSPropertyOp9
 70
     1
102
RTVSPropertyOp10
 70
     1
102
RTVSPropertyOp11
 70
     1
102
RTVSPropertyOp12
 70
     1
102
RTVSPropertyOp13
 70
     1
102
RTVSPropertyOp14
 70
     1
102
RTVSPropertyOp15
 70
     1
102
RTVSPropertyOp16
 70
     1
102
RTVSPropertyOp17
 70
     1
102
RTVSPropertyOp18
 70
     1
102
RTVSPropertyOp19
 70
     1
102
RTVSPropertyOp20
 70
     1
102
RTVSPropertyOp21
 70
     1
102
RTVSPropertyOp22
 70
     1
102
RTVSPropertyOp23
 70
     1
102
RTVSPropertyOp24
 70
     1
102
RTVSPropertyOp25
 70
     1
102
RTVSPropertyOp26
 70
     1
102
RTVSPropertyOp27
 70
     1
102
RTVSPropertyOp28
 70
     1
102
RTVSPropertyOp29
 70
     1
102
RTVSPropertyOp30
 70
     1
102
RTVSPropertyOp31
 70
     1
102
RTVSPropertyOp32
 70
     1
102
RTVSPropertyOp33
 70
     1
102
RTVSPropertyOp34
 70
     1
102
RTVSPropertyOp35
 70
     1
102
RTVSPropertyOp36
 70
     1
102
RTVSPropertyOp37
 70
     1
102
RTVSPropertyOp38
 70
     1
102
RTVSPropertyOp39
 70
     1
102
RTVSPropertyOp40
 70
     1
102
RTVSPropertyOp41
 70
     1
102
RTVSPropertyOp42
 70
     1
102
RTVSPropertyOp43
 70
     1
102
RTVSPropertyOp44
 70
     1
102
RTVSPropertyOp45
 70
     1
102
RTVSPropertyOp46
 70
     1
102
RTVSPropertyOp47
 70
     1
102
RTVSPropertyOp48
 70
     1
102
RTVSPropertyOp49
 70
     1
102
RTVSPropertyOp50
 70
     1
102
RTVSPropertyOp51
 70
     0
102
RTVSPropertyOp52
 70
     0
102
RTVSPropertyOp53
 70
     1
102
RTVSPropertyOp54
 70
     1
102
RTVSPropertyOp55
 70
     1
102
RTVSPropertyOp56
 70
     1
102
RTVSPropertyOp57
 70
     1
102
RTVSPropertyOp58
 70
     1
102
RTVSPropertyOp59
 70
     1
102
RTVSPropertyOp60
 70
     1
102
RTVSPropertyOp61
 70
     1
102
RTVSPropertyOp62
 70
     1
  0
XRECORD
  5
C415
102
{ACAD_REACTORS
330
C414
102
}
330
C414
100
AcDbXrecord
280
     1
102
RTVSPost2010Prop28
280
     0
102
RTVSPost2010PropOp28
 70
     1
102
RTVSPost2010Prop29
280
     1
102
RTVSPost2010PropOp29
 70
     1
102
RTVSPost2010Prop30
280
     1
102
RTVSPost2010PropOp30
 70
     1
102
RTVSPost2010Prop31
280
     0
102
RTVSPost2010PropOp31
 70
     1
102
RTVSPost2010Prop32
280
     0
102
RTVSPost2010PropOp32
 70
     1
102
RTVSPost2010Prop33
280
     0
102
RTVSPost2010PropOp33
 70
     1
102
RTVSPost2010Prop34
280
     0
102
RTVSPost2010PropOp34
 70
     1
102
RTVSPost2010Prop35
280
     0
102
RTVSPost2010PropOp35
 70
     1
102
RTVSPost2010Prop36
280
     0
102
RTVSPost2010PropOp36
 70
     1
102
RTVSPost2010Prop37
 90
       50
102
RTVSPost2010PropOp37
 70
     1
102
RTVSPost2010Prop38
140
0.0
102
RTVSPost2010PropOp38
 70
     1
102
RTVSPost2010Prop39
140
1.0
102
RTVSPost2010PropOp39
 70
     1
102
RTVSPost2010Prop40
 90
        0
102
RTVSPost2010PropOp40
 70
     1
102
RTVSPost2010Prop41ColorIndex
 90
       18
102
RTVSPost2010Prop41ColorRGB
 90
        0
102
RTVSPost2010PropOp41
 70
     1
102
RTVSPost2010Prop42
 90
       50
102
RTVSPost2010PropOp42
 70
     1
102
RTVSPost2010Prop43
 90
        3
102
RTVSPost2010PropOp43
 70
     1
102
RTVSPost2010Prop44ColorIndex
 90
        5
102
RTVSPost2010Prop44ColorRGB
 90
      255
102
RTVSPost2010PropOp44
 70
     1
102
RTVSPost2010Prop45
280
     0
102
RTVSPost2010PropOp45
 70
     1
102
RTVSPost2010Prop46
 90
       50
102
RTVSPost2010PropOp46
 70
     1
102
RTVSPost2010Prop47
 90
       50
102
RTVSPost2010PropOp47
 70
     1
102
RTVSPost2010Prop48
 90
       50
102
RTVSPost2010PropOp48
 70
     1
102
RTVSPost2010Prop49
280
     0
102
RTVSPost2010PropOp49
 70
     1
102
RTVSPost2010Prop50
 90
       50
102
RTVSPost2010PropOp50
 70
     1
102
RTVSPost2010Prop51ColorIndex
 90
      256
102
RTVSPost2010Prop51ColorRGB
 90
-16777216
102
RTVSPost2010PropOp51
 70
     0
102
RTVSPost2010Prop52
140
1.0
102
RTVSPost2010PropOp52
 70
     0
102
RTVSPost2010Prop53
 90
        2
102
RTVSPost2010PropOp53
 70
     1
102
RTVSPost2010Prop54
  1
strokes_ogs.tif
102
RTVSPost2010PropOp54
 70
     1
102
RTVSPost2010Prop55
280
     0
102
RTVSPost2010PropOp55
 70
     1
102
RTVSPost2010Prop56
140
1.0
102
RTVSPost2010PropOp56
 70
     1
102
RTVSPost2010Prop57
140
1.0
102
RTVSPost2010PropOp57
 70
     1
102
RTVSPropertyOp0
 70
     1
102
RTVSPropertyOp1
 70
     1
102
RTVSPropertyOp2
 70
     1
102
RTVSPropertyOp3
 70
     1
102
RTVSPropertyOp4
 70
     1
102
RTVSPropertyOp5
 70
     1
102
RTVSPropertyOp6
 70
     1
102
RTVSPropertyOp7
 70
     1
102
RTVSPropertyOp8
 70
     1
102
RTVSPropertyOp9
 70
     1
102
RTVSPropertyOp10
 70
     1
102
RTVSPropertyOp11
 70
     1
102
RTVSPropertyOp12
 70
     1
102
RTVSPropertyOp13
 70
     1
102
RTVSPropertyOp14
 70
     1
102
RTVSPropertyOp15
 70
     1
102
RTVSPropertyOp16
 70
     1
102
RTVSPropertyOp17
 70
     1
102
RTVSPropertyOp18
 70
     1
102
RTVSPropertyOp19
 70
     1
102
RTVSPropertyOp20
 70
     1
102
RTVSPropertyOp21
 70
     1
102
RTVSPropertyOp22
 70
     1
102
RTVSPropertyOp23
 70
     1
102
RTVSPropertyOp24
 70
     1
102
RTVSPropertyOp25
 70
     1
102
RTVSPropertyOp26
 70
     1
102
RTVSPropertyOp27
 70
     1
102
RTVSPropertyOp28
 70
     1
102
RTVSPropertyOp29
 70
     1
102
RTVSPropertyOp30
 70
     1
102
RTVSPropertyOp31
 70
     1
102
RTVSPropertyOp32
 70
     1
102
RTVSPropertyOp33
 70
     1
102
RTVSPropertyOp34
 70
     1
102
RTVSPropertyOp35
 70
     1
102
RTVSPropertyOp36
 70
     1
102
RTVSPropertyOp37
 70
     1
102
RTVSPropertyOp38
 70
     1
102
RTVSPropertyOp39
 70
     1
102
RTVSPropertyOp40
 70
     1
102
RTVSPropertyOp41
 70
     1
102
RTVSPropertyOp42
 70
     1
102
RTVSPropertyOp43
 70
     1
102
RTVSPropertyOp44
 70
     1
102
RTVSPropertyOp45
 70
     1
102
RTVSPropertyOp46
 70
     1
102
RTVSPropertyOp47
 70
     1
102
RTVSPropertyOp48
 70
     1
102
RTVSPropertyOp49
 70
     1
102
RTVSPropertyOp50
 70
     1
102
RTVSPropertyOp51
 70
     0
102
RTVSPropertyOp52
 70
     0
102
RTVSPropertyOp53
 70
     1
102
RTVSPropertyOp54
 70
     1
102
RTVSPropertyOp55
 70
     1
102
RTVSPropertyOp56
 70
     1
102
RTVSPropertyOp57
 70
     1
102
RTVSPropertyOp58
 70
     1
102
RTVSPropertyOp59
 70
     1
102
RTVSPropertyOp60
 70
     1
102
RTVSPropertyOp61
 70
     1
102
RTVSPropertyOp62
 70
     1
  0
ENDSEC
  0
EOF
