  0
SECTION
  2
HEADER
  9
$ACADVER
  1
AC1015
  9
$ACADMAINTVER
 70
    20
  9
$DWGCODEPAGE
  3
ANSI_932
  9
$INSBASE
 10
0.0
 20
0.0
 30
0.0
  9
$EXTMIN
 10
10.0
 20
9.999999999999998
 30
0.0
  9
$EXTMAX
 10
459.6375039999998
 20
331.5054979999998
 30
0.0
  9
$LIMMIN
 10
0.0
 20
0.0
  9
$LIMMAX
 10
495.0
 20
341.25
  9
$ORTHOMODE
 70
     0
  9
$REGENMODE
 70
     1
  9
$FILLMODE
 70
     1
  9
$QTEXTMODE
 70
     0
  9
$MIRRTEXT
 70
     1
  9
$LTSCALE
 40
20.0
  9
$ATTMODE
 70
     1
  9
$TEXTSIZE
 40
5.0
  9
$TRACEWID
 40
1.0
  9
$TEXTSTYLE
  7
STANDARD
  9
$CLAYER
  8
0
  9
$CELTYPE
  6
BYLAYER
  9
$CECOLOR
 62
   256
  9
$CELTSCALE
 40
1.0
  9
$DISPSILH
 70
     0
  9
$DIMSCALE
 40
1.0
  9
$DIMASZ
 40
3.0
  9
$DIMEXO
 40
1.0
  9
$DIMDLI
 40
10.0
  9
$DIMRND
 40
0.0
  9
$DIMDLE
 40
0.0
  9
$DIMEXE
 40
1.0
  9
$DIMTP
 40
0.0
  9
$DIMTM
 40
0.0
  9
$DIMTXT
 40
3.2
  9
$DIMCEN
 40
0.0
  9
$DIMTSZ
 40
0.0
  9
$DIMTOL
 70
     0
  9
$DIMLIM
 70
     0
  9
$DIMTIH
 70
     0
  9
$DIMTOH
 70
     0
  9
$DIMSE1
 70
     0
  9
$DIMSE2
 70
     0
  9
$DIMTAD
 70
     3
  9
$DIMZIN
 70
     8
  9
$DIMBLK
  1

  9
$DIMASO
 70
     1
  9
$DIMSHO
 70
     1
  9
$DIMPOST
  1

  9
$DIMAPOST
  1

  9
$DIMALT
 70
     0
  9
$DIMALTD
 70
     2
  9
$DIMALTF
 40
25.4
  9
$DIMLFAC
 40
1.0
  9
$DIMTOFL
 70
     1
  9
$DIMTVP
 40
0.0
  9
$DIMTIX
 70
     0
  9
$DIMSOXD
 70
     0
  9
$DIMSAH
 70
     1
  9
$DIMBLK1
  1
OPEN
  9
$DIMBLK2
  1
OPEN
  9
$DIMSTYLE
  2
STANDARD
  9
$DIMCLRD
 70
     0
  9
$DIMCLRE
 70
     0
  9
$DIMCLRT
 70
     0
  9
$DIMTFAC
 40
1.0
  9
$DIMGAP
 40
1.0
  9
$DIMJUST
 70
     0
  9
$DIMSD1
 70
     0
  9
$DIMSD2
 70
     0
  9
$DIMTOLJ
 70
     1
  9
$DIMTZIN
 70
     0
  9
$DIMALTZ
 70
     0
  9
$DIMALTTZ
 70
     0
  9
$DIMUPT
 70
     0
  9
$DIMDEC
 70
     4
  9
$DIMTDEC
 70
     4
  9
$DIMALTU
 70
     2
  9
$DIMALTTD
 70
     2
  9
$DIMTXSTY
  7
STANDARD
  9
$DIMAUNIT
 70
     0
  9
$DIMADEC
 70
     0
  9
$DIMALTRND
 40
0.0
  9
$DIMAZIN
 70
     0
  9
$DIMDSEP
 70
    46
  9
$DIMATFIT
 70
     3
  9
$DIMFRAC
 70
     0
  9
$DIMLDRBLK
  1
OPEN
  9
$DIMLUNIT
 70
     2
  9
$DIMLWD
 70
    -2
  9
$DIMLWE
 70
    -2
  9
$DIMTMOVE
 70
     0
  9
$LUNITS
 70
     2
  9
$LUPREC
 70
     4
  9
$SKETCHINC
 40
1.0
  9
$FILLETRAD
 40
10.0
  9
$AUNITS
 70
     0
  9
$AUPREC
 70
     2
  9
$MENU
  1
.
  9
$ELEVATION
 40
0.0
  9
$PELEVATION
 40
0.0
  9
$THICKNESS
 40
0.0
  9
$LIMCHECK
 70
     0
  9
$CHAMFERA
 40
10.0
  9
$CHAMFERB
 40
10.0
  9
$CHAMFERC
 40
0.0
  9
$CHAMFERD
 40
0.0
  9
$SKPOLY
 70
     0
  9
$TDCREATE
 40
2451302.679923495
  9
$TDUCREATE
 40
2451302.304923495
  9
$TDUPDATE
 40
2457192.687237755
  9
$TDUUPDATE
 40
2457192.312237755
  9
$TDINDWG
 40
0.0000106481
  9
$TDUSRTIMER
 40
0.0000103356
  9
$USRTIMER
 70
     1
  9
$ANGBASE
 50
0.0
  9
$ANGDIR
 70
     0
  9
$PDMODE
 70
     0
  9
$PDSIZE
 40
0.0
  9
$PLINEWID
 40
0.0
  9
$SPLFRAME
 70
     0
  9
$SPLINETYPE
 70
     6
  9
$SPLINESEGS
 70
     8
  9
$HANDSEED
  5
A29E
  9
$SURFTAB1
 70
     6
  9
$SURFTAB2
 70
     6
  9
$SURFTYPE
 70
     6
  9
$SURFU
 70
     6
  9
$SURFV
 70
     6
  9
$UCSBASE
  2

  9
$UCSNAME
  2

  9
$UCSORG
 10
0.0
 20
0.0
 30
0.0
  9
$UCSXDIR
 10
1.0
 20
0.0
 30
0.0
  9
$UCSYDIR
 10
0.0
 20
1.0
 30
0.0
  9
$UCSORTHOREF
  2

  9
$UCSORTHOVIEW
 70
     0
  9
$UCSORGTOP
 10
0.0
 20
0.0
 30
0.0
  9
$UCSORGBOTTOM
 10
0.0
 20
0.0
 30
0.0
  9
$UCSORGLEFT
 10
0.0
 20
0.0
 30
0.0
  9
$UCSORGRIGHT
 10
0.0
 20
0.0
 30
0.0
  9
$UCSORGFRONT
 10
0.0
 20
0.0
 30
0.0
  9
$UCSORGBACK
 10
0.0
 20
0.0
 30
0.0
  9
$PUCSBASE
  2

  9
$PUCSNAME
  2

  9
$PUCSORG
 10
0.0
 20
0.0
 30
0.0
  9
$PUCSXDIR
 10
1.0
 20
0.0
 30
0.0
  9
$PUCSYDIR
 10
0.0
 20
1.0
 30
0.0
  9
$PUCSORTHOREF
  2

  9
$PUCSORTHOVIEW
 70
     0
  9
$PUCSORGTOP
 10
0.0
 20
0.0
 30
0.0
  9
$PUCSORGBOTTOM
 10
0.0
 20
0.0
 30
0.0
  9
$PUCSORGLEFT
 10
0.0
 20
0.0
 30
0.0
  9
$PUCSORGRIGHT
 10
0.0
 20
0.0
 30
0.0
  9
$PUCSORGFRONT
 10
0.0
 20
0.0
 30
0.0
  9
$PUCSORGBACK
 10
0.0
 20
0.0
 30
0.0
  9
$USERI1
 70
     0
  9
$USERI2
 70
     0
  9
$USERI3
 70
     0
  9
$USERI4
 70
     0
  9
$USERI5
 70
     0
  9
$USERR1
 40
0.0
  9
$USERR2
 40
0.0
  9
$USERR3
 40
0.0
  9
$USERR4
 40
0.0
  9
$USERR5
 40
0.0
  9
$WORLDVIEW
 70
     1
  9
$SHADEDGE
 70
     3
  9
$SHADEDIF
 70
    70
  9
$TILEMODE
 70
     1
  9
$MAXACTVP
 70
    16
  9
$PINSBASE
 10
0.0
 20
0.0
 30
0.0
  9
$PLIMCHECK
 70
     0
  9
$PEXTMIN
 10
1.000000000000000E+20
 20
1.000000000000000E+20
 30
1.000000000000000E+20
  9
$PEXTMAX
 10
-1.000000000000000E+20
 20
-1.000000000000000E+20
 30
-1.000000000000000E+20
  9
$PLIMMIN
 10
0.0
 20
0.0
  9
$PLIMMAX
 10
420.0
 20
297.0
  9
$UNITMODE
 70
     0
  9
$VISRETAIN
 70
     0
  9
$PLINEGEN
 70
     0
  9
$PSLTSCALE
 70
     0
  9
$TREEDEPTH
 70
  3020
  9
$CMLSTYLE
  2
STANDARD
  9
$CMLJUST
 70
     0
  9
$CMLSCALE
 40
1.0
  9
$PROXYGRAPHICS
 70
     1
  9
$MEASUREMENT
 70
     0
  9
$CELWEIGHT
370
    -1
  9
$ENDCAPS
280
     0
  9
$JOINSTYLE
280
     0
  9
$LWDISPLAY
290
     0
  9
$INSUNITS
 70
     0
  9
$HYPERLINKBASE
  1

  9
$STYLESHEET
  1

  9
$XEDIT
290
     1
  9
$CEPSNTYPE
380
     0
  9
$PSTYLEMODE
290
     1
  9
$FINGERPRINTGUID
  2
{ACB36686-FF48-41D9-8F3F-806B72CDF958}
  9
$VERSIONGUID
  2
{B64F2810-C9DF-4EDF-A251-99E8C9369810}
  9
$EXTNAMES
290
     1
  9
$PSVPSCALE
 40
0.0
  9
$OLESTARTUP
290
     0
  0
ENDSEC
  0
SECTION
  2
CLASSES
  0
CLASS
  1
ACDBDICTIONARYWDFLT
  2
AcDbDictionaryWithDefault
  3
ObjectDBX Classes
 90
        0
280
     0
281
     0
  0
CLASS
  1
ACDBPLACEHOLDER
  2
AcDbPlaceHolder
  3
ObjectDBX Classes
 90
        0
280
     0
281
     0
  0
CLASS
  1
LAYOUT
  2
AcDbLayout
  3
ObjectDBX Classes
 90
        0
280
     0
281
     0
  0
CLASS
  1
DICTIONARYVAR
  2
AcDbDictionaryVar
  3
ObjectDBX Classes
 90
        0
280
     0
281
     0
  0
CLASS
  1
MATERIAL
  2
AcDbMaterial
  3
ObjectDBX Classes
 90
     1153
280
     0
281
     0
  0
CLASS
  1
VISUALSTYLE
  2
AcDbVisualStyle
  3
ObjectDBX Classes
 90
     4095
280
     0
281
     0
  0
CLASS
  1
TABLESTYLE
  2
AcDbTableStyle
  3
ObjectDBX Classes
 90
     4095
280
     0
281
     0
  0
CLASS
  1
SCALE
  2
AcDbScale
  3
ObjectDBX Classes
 90
     1153
280
     0
281
     0
  0
CLASS
  1
MLEADERSTYLE
  2
AcDbMLeaderStyle
  3
ACDB_MLEADERSTYLE_CLASS
 90
     4095
280
     0
281
     0
  0
CLASS
  1
ACDBSECTIONVIEWSTYLE
  2
AcDbSectionViewStyle
  3
ObjectDBX Classes
 90
     1025
280
     0
281
     0
  0
CLASS
  1
ACDBDETAILVIEWSTYLE
  2
AcDbDetailViewStyle
  3
ObjectDBX Classes
 90
     1025
280
     0
281
     0
  0
CLASS
  1
CELLSTYLEMAP
  2
AcDbCellStyleMap
  3
ObjectDBX Classes
 90
     1152
280
     0
281
     0
  0
ENDSEC
  0
SECTION
  2
TABLES
  0
TABLE
  2
VPORT
  5
9F00
330
0
100
AcDbSymbolTable
 70
     1
  0
VPORT
  5
A1E7
330
9F00
100
AcDbSymbolTableRecord
100
AcDbViewportTableRecord
  2
*ACTIVE
 70
     0
 10
0.0
 20
0.0
 11
1.0
 21
1.0
 12
332.2171468659061
 22
170.7551773388754
 13
0.0
 23
0.0
 14
10.0
 24
10.0
 15
10.0
 25
10.0
 16
0.0
 26
0.0
 36
1.0
 17
0.0
 27
0.0
 37
0.0
 40
325.0889488114631
 41
2.35006605019815
 42
50.0
 43
0.0
 44
0.0
 50
0.0
 51
0.0
 71
     0
 72
   100
 73
     1
 74
     0
 75
     0
 76
     0
 77
     0
 78
     0
281
     0
 65
     1
110
0.0
120
0.0
130
0.0
111
1.0
121
0.0
131
0.0
112
0.0
122
1.0
132
0.0
 79
     0
146
0.0
1001
ACAD_NAV_VCDISPLAY
1070
     3
  0
ENDTAB
  0
TABLE
  2
LTYPE
  5
9EFD
330
0
100
AcDbSymbolTable
 70
     4
  0
LTYPE
  5
9F0B
330
9EFD
100
AcDbSymbolTableRecord
100
AcDbLinetypeTableRecord
  2
BYBLOCK
 70
     0
  3

 72
    65
 73
     0
 40
0.0
  0
LTYPE
  5
9F0C
330
9EFD
100
AcDbSymbolTableRecord
100
AcDbLinetypeTableRecord
  2
BYLAYER
 70
     0
  3

 72
    65
 73
     0
 40
0.0
  0
LTYPE
  5
9F0D
330
9EFD
100
AcDbSymbolTableRecord
100
AcDbLinetypeTableRecord
  2
CONTINUOUS
 70
     0
  3
Solid line
 72
    65
 73
     0
 40
0.0
  0
LTYPE
  5
9F1B
330
9EFD
100
AcDbSymbolTableRecord
100
AcDbLinetypeTableRecord
  2
DASHED
 70
     0
  3
__ __ __ __ __ __ __ __ __ __ __ __ __ __ __ __
 72
    65
 73
     2
 40
0.75
 49
0.5
 74
     0
 49
-0.25
 74
     0
  0
LTYPE
  5
9F1C
330
9EFD
100
AcDbSymbolTableRecord
100
AcDbLinetypeTableRecord
  2
CENTER
 70
     0
  3
____ _ ____ _ ____ _ ____ _ ____ _ ____ _ ____ 
 72
    65
 73
     4
 40
2.0
 49
1.25
 74
     0
 49
-0.25
 74
     0
 49
0.25
 74
     0
 49
-0.25
 74
     0
  0
LTYPE
  5
9F1D
330
9EFD
100
AcDbSymbolTableRecord
100
AcDbLinetypeTableRecord
  2
PHANTOM
 70
     0
  3
______  __  __  ______  __  __  ______  __  __ 
 72
    65
 73
     6
 40
2.5
 49
1.25
 74
     0
 49
-0.25
 74
     0
 49
0.25
 74
     0
 49
-0.25
 74
     0
 49
0.25
 74
     0
 49
-0.25
 74
     0
  0
ENDTAB
  0
TABLE
  2
LAYER
  5
9EFA
330
0
100
AcDbSymbolTable
 70
     8
  0
LAYER
  5
9F08
102
{ACAD_XDICTIONARY
360
A242
102
}
330
9EFA
100
AcDbSymbolTableRecord
100
AcDbLayerTableRecord
  2
0
 70
     0
 62
     7
  6
CONTINUOUS
370
    -3
390
A1F0
  0
LAYER
  5
9F1E
102
{ACAD_XDICTIONARY
360
A244
102
}
330
9EFA
100
AcDbSymbolTableRecord
100
AcDbLayerTableRecord
  2
4
 70
     0
 62
     1
  6
CENTER
370
    -3
390
A1F0
  0
LAYER
  5
9F1F
102
{ACAD_XDICTIONARY
360
A246
102
}
330
9EFA
100
AcDbSymbolTableRecord
100
AcDbLayerTableRecord
  2
5
 70
     0
 62
     6
  6
PHANTOM
370
    -3
390
A1F0
  0
LAYER
  5
9F20
102
{ACAD_XDICTIONARY
360
A248
102
}
330
9EFA
100
AcDbSymbolTableRecord
100
AcDbLayerTableRecord
  2
1
 70
     0
 62
     7
  6
CONTINUOUS
370
    -3
390
A1F0
  0
LAYER
  5
9F21
102
{ACAD_XDICTIONARY
360
A24A
102
}
330
9EFA
100
AcDbSymbolTableRecord
100
AcDbLayerTableRecord
  2
2
 70
     0
 62
     4
  6
CONTINUOUS
370
    -3
390
A1F0
  0
LAYER
  5
9F22
102
{ACAD_XDICTIONARY
360
A24C
102
}
330
9EFA
100
AcDbSymbolTableRecord
100
AcDbLayerTableRecord
  2
3
 70
     0
 62
     2
  6
DASHED
370
    -3
390
A1F0
  0
LAYER
  5
9F23
102
{ACAD_XDICTIONARY
360
A24E
102
}
330
9EFA
100
AcDbSymbolTableRecord
100
AcDbLayerTableRecord
  2
6
 70
     0
 62
     5
  6
CONTINUOUS
370
    -3
390
A1F0
  0
LAYER
  5
9F24
102
{ACAD_XDICTIONARY
360
A250
102
}
330
9EFA
100
AcDbSymbolTableRecord
100
AcDbLayerTableRecord
  2
7
 70
     0
 62
     3
  6
CONTINUOUS
370
    -3
390
A1F0
  0
ENDTAB
  0
TABLE
  2
STYLE
  5
9EFB
330
0
100
AcDbSymbolTable
 70
     1
  0
STYLE
  5
9F09
330
9EFB
100
AcDbSymbolTableRecord
100
AcDbTextStyleTableRecord
  2
STANDARD
 70
     0
 40
0.0
 41
1.0
 50
0.0
 71
     0
 42
5.0
  3
txt
  4

  0
ENDTAB
  0
TABLE
  2
VIEW
  5
9EFE
330
0
100
AcDbSymbolTable
 70
     0
  0
ENDTAB
  0
TABLE
  2
UCS
  5
9EFF
330
0
100
AcDbSymbolTable
 70
     0
  0
ENDTAB
  0
TABLE
  2
APPID
  5
9F01
330
0
100
AcDbSymbolTable
 70
     3
  0
APPID
  5
9F0A
330
9F01
100
AcDbSymbolTableRecord
100
AcDbRegAppTableRecord
  2
ACAD
 70
     0
  0
APPID
  5
A25C
330
9F01
100
AcDbSymbolTableRecord
100
AcDbRegAppTableRecord
  2
ACAD_NAV_VCDISPLAY
 70
     0
  0
APPID
  5
A295
330
9F01
100
AcDbSymbolTableRecord
100
AcDbRegAppTableRecord
  2
ACAD_MLEADERVER
 70
     0
  0
ENDTAB
  0
TABLE
  2
DIMSTYLE
  5
9F02
330
0
100
AcDbSymbolTable
 70
     1
100
AcDbDimStyleTable
 71
     0
  0
DIMSTYLE
105
9F26
330
9F02
100
AcDbSymbolTableRecord
100
AcDbDimStyleTableRecord
  2
STANDARD
 70
     0
 41
3.0
 42
1.0
 43
10.0
 44
1.0
 73
     0
 74
     0
 77
     3
 78
     8
140
3.2
141
0.0
147
1.0
172
     1
173
     1
284
     8
285
     8
286
     8
340
9F09
  0
ENDTAB
  0
TABLE
  2
BLOCK_RECORD
  5
9EF9
330
0
100
AcDbSymbolTable
 70
     1
  0
BLOCK_RECORD
  5
9F16
102
{ACAD_XDICTIONARY
360
A1EA
102
}
330
9EF9
100
AcDbSymbolTableRecord
100
AcDbBlockTableRecord
  2
*MODEL_SPACE
340
A23E
  0
BLOCK_RECORD
  5
9F12
102
{ACAD_XDICTIONARY
360
A1E8
102
}
330
9EF9
100
AcDbSymbolTableRecord
100
AcDbBlockTableRecord
  2
*PAPER_SPACE
340
A23F
  0
BLOCK_RECORD
  5
9F2E
330
9EF9
100
AcDbSymbolTableRecord
100
AcDbBlockTableRecord
  2
_OPEN
340
0
  0
ENDTAB
  0
ENDSEC
  0
SECTION
  2
BLOCKS
  0
BLOCK
  5
9F17
330
9F16
100
AcDbEntity
  8
0
100
AcDbBlockBegin
  2
*MODEL_SPACE
 70
     0
 10
0.0
 20
0.0
 30
0.0
  3
*MODEL_SPACE
  1

  0
ENDBLK
  5
9F18
330
9F16
100
AcDbEntity
  8
0
100
AcDbBlockEnd
  0
BLOCK
  5
9F13
330
9F12
100
AcDbEntity
 67
     1
  8
0
100
AcDbBlockBegin
  2
*PAPER_SPACE
 70
     0
 10
0.0
 20
0.0
 30
0.0
  3
*PAPER_SPACE
  1

  0
ENDBLK
  5
9F14
330
9F12
100
AcDbEntity
 67
     1
  8
0
100
AcDbBlockEnd
  0
BLOCK
  5
9F2F
330
9F2E
100
AcDbEntity
  8
0
100
AcDbBlockBegin
  2
_OPEN
 70
     0
 10
0.0
 20
0.0
 30
0.0
  3
_OPEN
  1

  0
LINE
  5
9F30
330
9F2E
100
AcDbEntity
  8
0
  6
ByBlock
 62
     0
100
AcDbLine
 10
-1.0
 20
0.166667
 30
0.0
 11
0.0
 21
0.0
 31
0.0
  0
LINE
  5
9F31
330
9F2E
100
AcDbEntity
  8
0
  6
ByBlock
 62
     0
100
AcDbLine
 10
0.0
 20
0.0
 30
0.0
 11
-1.0
 21
-0.166667
 31
0.0
  0
LINE
  5
9F32
330
9F2E
100
AcDbEntity
  8
0
  6
ByBlock
 62
     0
100
AcDbLine
 10
0.0
 20
0.0
 30
0.0
 11
-1.0
 21
0.0
 31
0.0
  0
ENDBLK
  5
9F33
330
9F2E
100
AcDbEntity
  8
0
100
AcDbBlockEnd
  0
ENDSEC
  0
SECTION
  2
ENTITIES
  0
TEXT
  5
9F34
330
9F16
100
AcDbEntity
  8
7
  6
Continuous
100
AcDbText
 10
10.0
 20
18.0
 30
0.0
 40
3.0
  1
TYPE No.106-N
100
AcDbText
  0
TEXT
  5
9F35
330
9F16
100
AcDbEntity
  8
7
  6
Continuous
100
AcDbText
 10
10.0
 20
26.0
 30
0.0
 40
3.0
  1
CODE No.9651
100
AcDbText
  0
TEXT
  5
9F36
330
9F16
100
AcDbEntity
  8
1
  6
Continuous
100
AcDbText
 10
10.0
 20
10.0
 30
0.0
 40
1.399999999999999
  1
LAYER
100
AcDbText
  0
TEXT
  5
9F37
330
9F16
100
AcDbEntity
  8
1
  6
Continuous
100
AcDbText
 10
17.97951099999998
 20
10.04873699999998
 30
0.0
 40
1.399999999999999
  1
1
100
AcDbText
  0
TEXT
  5
9F38
330
9F16
100
AcDbEntity
  8
7
  6
Continuous
100
AcDbText
 10
29.97951099999999
 20
10.04873699999998
 30
0.0
 40
1.399999999999999
  1
7
100
AcDbText
  0
TEXT
  5
9F39
330
9F16
100
AcDbEntity
  8
4
  6
CENTER
100
AcDbText
 10
23.97951099999999
 20
10.04873699999998
 30
0.0
 40
1.399999999999999
  1
4
100
AcDbText
  0
TEXT
  5
9F3A
330
9F16
100
AcDbEntity
  8
3
  6
DASHED
100
AcDbText
 10
21.979511
 20
10.04873699999998
 30
0.0
 40
1.399999999999999
  1
3
100
AcDbText
  0
TEXT
  5
9F3B
330
9F16
100
AcDbEntity
  8
2
  6
Continuous
100
AcDbText
 10
19.97951099999999
 20
10.04873699999998
 30
0.0
 40
1.399999999999999
  1
2
100
AcDbText
  0
TEXT
  5
9F3C
330
9F16
100
AcDbEntity
  8
6
  6
Continuous
100
AcDbText
 10
27.979511
 20
10.04873699999998
 30
0.0
 40
1.399999999999999
  1
6
100
AcDbText
  0
TEXT
  5
9F3D
330
9F16
100
AcDbEntity
  8
5
  6
PHANTOM
100
AcDbText
 10
25.97951099999999
 20
10.04873699999998
 30
0.0
 40
1.399999999999999
  1
5
100
AcDbText
  0
LINE
  5
9F3E
330
9F16
100
AcDbEntity
  8
4
  6
CENTER
100
AcDbLine
 10
206.1692469999999
 20
178.7334899999999
 30
0.0
 11
121.169247
 21
178.7334899999999
 31
0.0
  0
ARC
  5
9F3F
330
9F16
100
AcDbEntity
  8
1
  6
Continuous
100
AcDbCircle
 10
163.6692469999998
 20
178.7334899999999
 30
0.0
 40
37.5
100
AcDbArc
 50
97.39539
 51
42.09619599999999
  0
LINE
  5
9F40
330
9F16
100
AcDbEntity
  8
4
  6
CENTER
100
AcDbLine
 10
163.6692469999998
 20
136.23349
 30
0.0
 11
163.6692469999998
 21
219.23349
 31
0.0
  0
LINE
  5
9F41
330
9F16
100
AcDbEntity
  8
1
  6
Continuous
100
AcDbLine
 10
188.45846
 20
226.65849
 30
0.0
 11
190.0834599999998
 21
225.53349
 31
0.0
  0
LINE
  5
9F42
330
9F16
100
AcDbEntity
  8
1
  6
Continuous
100
AcDbLine
 10
190.2942469999999
 20
226.65849
 30
0.0
 11
188.6692469999999
 21
225.53349
 31
0.0
  0
LINE
  5
9F43
330
9F16
100
AcDbEntity
  8
1
  6
Continuous
100
AcDbLine
 10
211.4614439999999
 20
229.8334899999999
 30
0.0
 11
165.8770499999999
 21
229.8334899999999
 31
0.0
  0
LINE
  5
9F44
330
9F16
100
AcDbEntity
  8
1
  6
Continuous
100
AcDbLine
 10
211.719247
 20
228.9584899999999
 30
0.0
 11
165.619247
 21
228.9584899999999
 31
0.0
  0
LINE
  5
9F45
330
9F16
100
AcDbEntity
  8
1
  6
Continuous
100
AcDbLine
 10
211.669247
 20
226.65849
 30
0.0
 11
165.6692469999998
 21
226.65849
 31
0.0
  0
LINE
  5
9F46
330
9F16
100
AcDbEntity
  8
1
  6
Continuous
100
AcDbLine
 10
223.669247
 20
234.2334899999999
 30
0.0
 11
153.669247
 21
234.2334899999999
 31
0.0
  0
LINE
  5
9F47
330
9F16
100
AcDbEntity
  8
1
  6
Continuous
100
AcDbLine
 10
223.669247
 20
231.9334899999998
 30
0.0
 11
153.669247
 21
231.9334899999998
 31
0.0
  0
LINE
  5
9F48
330
9F16
100
AcDbEntity
  8
1
  6
Continuous
100
AcDbLine
 10
211.669247
 20
225.53349
 30
0.0
 11
165.6692469999998
 21
225.53349
 31
0.0
  0
ARC
  5
9F49
330
9F16
100
AcDbEntity
  8
1
  6
Continuous
100
AcDbCircle
 10
163.6692469999998
 20
178.7334899999999
 30
0.0
 40
30.0
100
AcDbArc
 50
101.5487589999999
 51
37.638044
  0
LINE
  5
9F4A
330
9F16
100
AcDbEntity
  8
1
  6
Continuous
100
AcDbLine
 10
159.8047719999998
 20
220.9334899999999
 30
0.0
 11
156.6692469999999
 21
220.9334899999999
 31
0.0
  0
LINE
  5
9F4B
330
9F16
100
AcDbEntity
  8
1
  6
Continuous
100
AcDbLine
 10
170.6692469999999
 20
223.23349
 30
0.0
 11
156.6692469999999
 21
223.23349
 31
0.0
  0
LINE
  5
9F4C
330
9F16
100
AcDbEntity
  8
1
  6
Continuous
100
AcDbLine
 10
156.6692469999999
 20
223.23349
 30
0.0
 11
156.6692469999999
 21
220.9334899999999
 31
0.0
  0
LINE
  5
9F4D
330
9F16
100
AcDbEntity
  8
1
  6
Continuous
100
AcDbLine
 10
153.669247
 20
234.2334899999999
 30
0.0
 11
153.669247
 21
231.9334899999998
 31
0.0
  0
LINE
  5
9F4E
330
9F16
100
AcDbEntity
  8
4
  6
CENTER
100
AcDbLine
 10
188.6692469999999
 20
239.2334899999999
 30
0.0
 11
188.6692469999999
 21
206.425602
 31
0.0
  0
LINE
  5
9F4F
330
9F16
100
AcDbEntity
  8
1
  6
Continuous
100
AcDbLine
 10
172.9021109999999
 20
226.65849
 30
0.0
 11
174.527111
 21
225.53349
 31
0.0
  0
LINE
  5
9F50
330
9F16
100
AcDbEntity
  8
1
  6
Continuous
100
AcDbLine
 10
173.323684
 20
226.65849
 30
0.0
 11
171.6986839999999
 21
225.53349
 31
0.0
  0
LINE
  5
9F51
330
9F16
100
AcDbEntity
  8
1
  6
Continuous
100
AcDbLine
 10
174.7378969999998
 20
226.65849
 30
0.0
 11
173.112897
 21
225.53349
 31
0.0
  0
ARC
  5
9F52
330
9F16
100
AcDbEntity
  8
1
  6
Continuous
100
AcDbCircle
 10
167.3364369999999
 20
222.53349
 30
0.0
 40
3.0
100
AcDbArc
 50
90.0
 51
166.5066009999998
  0
ARC
  5
9F53
330
9F16
100
AcDbEntity
  8
1
  6
Continuous
100
AcDbCircle
 10
165.8770499999999
 20
233.33349
 30
0.0
 40
3.5
100
AcDbArc
 50
203.578178
 51
270.0
  0
LINE
  5
9F54
330
9F16
100
AcDbEntity
  8
1
  6
Continuous
100
AcDbLine
 10
165.1192469999998
 20
228.1584899999999
 30
0.0
 11
165.619247
 21
228.9584899999999
 31
0.0
  0
LINE
  5
9F55
330
9F16
100
AcDbEntity
  8
1
  6
Continuous
100
AcDbLine
 10
168.65947
 20
226.65849
 30
0.0
 11
170.2844699999999
 21
225.53349
 31
0.0
  0
LINE
  5
9F56
330
9F16
100
AcDbEntity
  8
1
  6
Continuous
100
AcDbLine
 10
170.495257
 20
226.65849
 30
0.0
 11
168.870257
 21
225.53349
 31
0.0
  0
LINE
  5
9F57
330
9F16
100
AcDbEntity
  8
1
  6
Continuous
100
AcDbLine
 10
165.831043
 20
226.65849
 30
0.0
 11
167.4560429999999
 21
225.53349
 31
0.0
  0
LINE
  5
9F58
330
9F16
100
AcDbEntity
  8
1
  6
Continuous
100
AcDbLine
 10
167.245257
 20
226.65849
 30
0.0
 11
168.870257
 21
225.53349
 31
0.0
  0
LINE
  5
9F59
330
9F16
100
AcDbEntity
  8
1
  6
Continuous
100
AcDbLine
 10
165.6692469999998
 20
226.075121
 30
0.0
 11
166.2526159999998
 21
226.65849
 31
0.0
  0
LINE
  5
9F5A
330
9F16
100
AcDbEntity
  8
1
  6
Continuous
100
AcDbLine
 10
167.66683
 20
226.65849
 30
0.0
 11
166.04183
 21
225.53349
 31
0.0
  0
LINE
  5
9F5B
330
9F16
100
AcDbEntity
  8
1
  6
Continuous
100
AcDbLine
 10
169.0810429999999
 20
226.65849
 30
0.0
 11
167.4560429999999
 21
225.53349
 31
0.0
  0
LINE
  5
9F5C
330
9F16
100
AcDbEntity
  8
1
  6
Continuous
100
AcDbLine
 10
165.6692469999998
 20
226.65849
 30
0.0
 11
165.6692469999998
 21
225.53349
 31
0.0
  0
LINE
  5
9F5D
330
9F16
100
AcDbEntity
  8
1
  6
Continuous
100
AcDbLine
 10
166.019247
 20
226.65849
 30
0.0
 11
165.1192469999998
 21
228.1584899999999
 31
0.0
  0
LINE
  5
9F5E
330
9F16
100
AcDbEntity
  8
1
  6
Continuous
100
AcDbLine
 10
170.0736839999999
 20
226.65849
 30
0.0
 11
171.6986839999999
 21
225.53349
 31
0.0
  0
LINE
  5
9F5F
330
9F16
100
AcDbEntity
  8
1
  6
Continuous
100
AcDbLine
 10
171.487897
 20
226.65849
 30
0.0
 11
173.112897
 21
225.53349
 31
0.0
  0
LINE
  5
9F60
330
9F16
100
AcDbEntity
  8
1
  6
Continuous
100
AcDbLine
 10
171.90947
 20
226.65849
 30
0.0
 11
170.2844699999999
 21
225.53349
 31
0.0
  0
ARC
  5
9F61
330
9F16
100
AcDbEntity
  8
1
  6
Continuous
100
AcDbCircle
 10
171.9192469999999
 20
224.4839899999998
 30
0.0
 40
6.974499999999999
100
AcDbArc
 50
129.9139999999999
 51
140.0924019999999
  0
LINE
  5
9F62
330
9F16
100
AcDbEntity
  8
1
  6
Continuous
100
AcDbLine
 10
179.9731789999999
 20
226.65849
 30
0.0
 11
181.598179
 21
225.53349
 31
0.0
  0
LINE
  5
9F63
330
9F16
100
AcDbEntity
  8
1
  6
Continuous
100
AcDbLine
 10
181.3873919999998
 20
226.65849
 30
0.0
 11
183.012392
 21
225.53349
 31
0.0
  0
LINE
  5
9F64
330
9F16
100
AcDbEntity
  8
1
  6
Continuous
100
AcDbLine
 10
181.808965
 20
226.65849
 30
0.0
 11
180.1839649999998
 21
225.53349
 31
0.0
  0
LINE
  5
9F65
330
9F16
100
AcDbEntity
  8
1
  6
Continuous
100
AcDbLine
 10
177.144752
 20
226.65849
 30
0.0
 11
178.769752
 21
225.53349
 31
0.0
  0
LINE
  5
9F66
330
9F16
100
AcDbEntity
  8
1
  6
Continuous
100
AcDbLine
 10
177.566325
 20
226.65849
 30
0.0
 11
175.941325
 21
225.53349
 31
0.0
  0
LINE
  5
9F67
330
9F16
100
AcDbEntity
  8
1
  6
Continuous
100
AcDbLine
 10
178.9805379999999
 20
226.65849
 30
0.0
 11
177.3555379999999
 21
225.53349
 31
0.0
  0
LINE
  5
9F68
330
9F16
100
AcDbEntity
  8
1
  6
Continuous
100
AcDbLine
 10
174.316325
 20
226.65849
 30
0.0
 11
175.941325
 21
225.53349
 31
0.0
  0
LINE
  5
9F69
330
9F16
100
AcDbEntity
  8
1
  6
Continuous
100
AcDbLine
 10
175.730538
 20
226.65849
 30
0.0
 11
177.3555379999999
 21
225.53349
 31
0.0
  0
LINE
  5
9F6A
330
9F16
100
AcDbEntity
  8
1
  6
Continuous
100
AcDbLine
 10
176.1521109999999
 20
226.65849
 30
0.0
 11
174.527111
 21
225.53349
 31
0.0
  0
LINE
  5
9F6B
330
9F16
100
AcDbEntity
  8
1
  6
Continuous
100
AcDbLine
 10
178.558965
 20
226.65849
 30
0.0
 11
180.1839649999998
 21
225.53349
 31
0.0
  0
LINE
  5
9F6C
330
9F16
100
AcDbEntity
  8
1
  6
Continuous
100
AcDbLine
 10
180.394752
 20
226.65849
 30
0.0
 11
178.769752
 21
225.53349
 31
0.0
  0
LINE
  5
9F6D
330
9F16
100
AcDbEntity
  8
1
  6
Continuous
100
AcDbLine
 10
184.21582
 20
226.65849
 30
0.0
 11
185.84082
 21
225.53349
 31
0.0
  0
LINE
  5
9F6E
330
9F16
100
AcDbEntity
  8
1
  6
Continuous
100
AcDbLine
 10
186.0516059999999
 20
226.65849
 30
0.0
 11
184.4266059999999
 21
225.53349
 31
0.0
  0
LINE
  5
9F6F
330
9F16
100
AcDbEntity
  8
1
  6
Continuous
100
AcDbLine
 10
182.8016059999999
 20
226.65849
 30
0.0
 11
184.4266059999999
 21
225.53349
 31
0.0
  0
LINE
  5
9F70
330
9F16
100
AcDbEntity
  8
1
  6
Continuous
100
AcDbLine
 10
183.2231789999999
 20
226.65849
 30
0.0
 11
181.598179
 21
225.53349
 31
0.0
  0
LINE
  5
9F71
330
9F16
100
AcDbEntity
  8
1
  6
Continuous
100
AcDbLine
 10
184.6373919999998
 20
226.65849
 30
0.0
 11
183.012392
 21
225.53349
 31
0.0
  0
LINE
  5
9F72
330
9F16
100
AcDbEntity
  8
1
  6
Continuous
100
AcDbLine
 10
185.630033
 20
226.65849
 30
0.0
 11
187.2550329999999
 21
225.53349
 31
0.0
  0
LINE
  5
9F73
330
9F16
100
AcDbEntity
  8
1
  6
Continuous
100
AcDbLine
 10
187.044247
 20
226.65849
 30
0.0
 11
188.6692469999999
 21
225.53349
 31
0.0
  0
LINE
  5
9F74
330
9F16
100
AcDbEntity
  8
1
  6
Continuous
100
AcDbLine
 10
187.46582
 20
226.65849
 30
0.0
 11
185.84082
 21
225.53349
 31
0.0
  0
LINE
  5
9F75
330
9F16
100
AcDbEntity
  8
1
  6
Continuous
100
AcDbLine
 10
188.880033
 20
226.65849
 30
0.0
 11
187.2550329999999
 21
225.53349
 31
0.0
  0
ARC
  5
9F76
330
9F16
100
AcDbEntity
  8
1
  6
Continuous
100
AcDbCircle
 10
209.9878229999999
 20
222.071827
 30
0.0
 40
3.462340999999999
100
AcDbArc
 50
7.662535
 51
91.134876
  0
LINE
  5
9F77
330
9F16
100
AcDbEntity
  8
1
  6
Continuous
100
AcDbLine
 10
213.419247
 20
217.9334899999998
 30
0.0
 11
205.563346
 21
217.9334899999998
 31
0.0
  0
LINE
  5
9F78
330
9F16
100
AcDbEntity
  8
1
  6
Continuous
100
AcDbLine
 10
203.613618
 20
217.7419839999998
 30
0.0
 11
203.5692469999999
 21
217.67099
 31
0.0
  0
LINE
  5
9F79
330
9F16
100
AcDbEntity
  8
1
  6
Continuous
100
AcDbLine
 10
213.419247
 20
222.53349
 30
0.0
 11
213.419247
 21
217.9334899999998
 31
0.0
  0
LINE
  5
9F7A
330
9F16
100
AcDbEntity
  8
1
  6
Continuous
100
AcDbLine
 10
205.4290229999998
 20
226.65849
 30
0.0
 11
207.054023
 21
225.53349
 31
0.0
  0
LINE
  5
9F7B
330
9F16
100
AcDbEntity
  8
1
  6
Continuous
100
AcDbLine
 10
207.264809
 20
226.65849
 30
0.0
 11
205.639809
 21
225.53349
 31
0.0
  0
LINE
  5
9F7C
330
9F16
100
AcDbEntity
  8
1
  6
Continuous
100
AcDbLine
 10
196.943742
 20
226.65849
 30
0.0
 11
198.5687419999999
 21
225.53349
 31
0.0
  0
LINE
  5
9F7D
330
9F16
100
AcDbEntity
  8
1
  6
Continuous
100
AcDbLine
 10
198.779528
 20
226.65849
 30
0.0
 11
197.1545279999999
 21
225.53349
 31
0.0
  0
LINE
  5
9F7E
330
9F16
100
AcDbEntity
  8
1
  6
Continuous
100
AcDbLine
 10
192.701101
 20
226.65849
 30
0.0
 11
194.326101
 21
225.53349
 31
0.0
  0
LINE
  5
9F7F
330
9F16
100
AcDbEntity
  8
1
  6
Continuous
100
AcDbLine
 10
194.536887
 20
226.65849
 30
0.0
 11
192.911887
 21
225.53349
 31
0.0
  0
LINE
  5
9F80
330
9F16
100
AcDbEntity
  8
1
  6
Continuous
100
AcDbLine
 10
191.286887
 20
226.65849
 30
0.0
 11
192.911887
 21
225.53349
 31
0.0
  0
LINE
  5
9F81
330
9F16
100
AcDbEntity
  8
1
  6
Continuous
100
AcDbLine
 10
189.8726739999999
 20
226.65849
 30
0.0
 11
191.4976739999999
 21
225.53349
 31
0.0
  0
LINE
  5
9F82
330
9F16
100
AcDbEntity
  8
1
  6
Continuous
100
AcDbLine
 10
193.1226739999999
 20
226.65849
 30
0.0
 11
191.4976739999999
 21
225.53349
 31
0.0
  0
LINE
  5
9F83
330
9F16
100
AcDbEntity
  8
1
  6
Continuous
100
AcDbLine
 10
191.70846
 20
226.65849
 30
0.0
 11
190.0834599999998
 21
225.53349
 31
0.0
  0
LINE
  5
9F84
330
9F16
100
AcDbEntity
  8
1
  6
Continuous
100
AcDbLine
 10
195.5295279999999
 20
226.65849
 30
0.0
 11
197.1545279999999
 21
225.53349
 31
0.0
  0
LINE
  5
9F85
330
9F16
100
AcDbEntity
  8
1
  6
Continuous
100
AcDbLine
 10
194.1153139999999
 20
226.65849
 30
0.0
 11
195.7403139999999
 21
225.53349
 31
0.0
  0
LINE
  5
9F86
330
9F16
100
AcDbEntity
  8
1
  6
Continuous
100
AcDbLine
 10
197.3653139999999
 20
226.65849
 30
0.0
 11
195.7403139999999
 21
225.53349
 31
0.0
  0
LINE
  5
9F87
330
9F16
100
AcDbEntity
  8
1
  6
Continuous
100
AcDbLine
 10
195.9511009999999
 20
226.65849
 30
0.0
 11
194.326101
 21
225.53349
 31
0.0
  0
LINE
  5
9F88
330
9F16
100
AcDbEntity
  8
1
  6
Continuous
100
AcDbLine
 10
201.186382
 20
226.65849
 30
0.0
 11
202.811382
 21
225.53349
 31
0.0
  0
LINE
  5
9F89
330
9F16
100
AcDbEntity
  8
1
  6
Continuous
100
AcDbLine
 10
203.0221689999999
 20
226.65849
 30
0.0
 11
201.3971689999999
 21
225.53349
 31
0.0
  0
LINE
  5
9F8A
330
9F16
100
AcDbEntity
  8
1
  6
Continuous
100
AcDbLine
 10
199.7721689999999
 20
226.65849
 30
0.0
 11
201.3971689999999
 21
225.53349
 31
0.0
  0
LINE
  5
9F8B
330
9F16
100
AcDbEntity
  8
1
  6
Continuous
100
AcDbLine
 10
198.357955
 20
226.65849
 30
0.0
 11
199.982955
 21
225.53349
 31
0.0
  0
LINE
  5
9F8C
330
9F16
100
AcDbEntity
  8
1
  6
Continuous
100
AcDbLine
 10
201.607955
 20
226.65849
 30
0.0
 11
199.982955
 21
225.53349
 31
0.0
  0
LINE
  5
9F8D
330
9F16
100
AcDbEntity
  8
1
  6
Continuous
100
AcDbLine
 10
200.1937419999999
 20
226.65849
 30
0.0
 11
198.5687419999999
 21
225.53349
 31
0.0
  0
LINE
  5
9F8E
330
9F16
100
AcDbEntity
  8
1
  6
Continuous
100
AcDbLine
 10
204.014809
 20
226.65849
 30
0.0
 11
205.639809
 21
225.53349
 31
0.0
  0
LINE
  5
9F8F
330
9F16
100
AcDbEntity
  8
1
  6
Continuous
100
AcDbLine
 10
202.6005959999999
 20
226.65849
 30
0.0
 11
204.2255959999998
 21
225.53349
 31
0.0
  0
LINE
  5
9F90
330
9F16
100
AcDbEntity
  8
1
  6
Continuous
100
AcDbLine
 10
205.850596
 20
226.65849
 30
0.0
 11
204.2255959999998
 21
225.53349
 31
0.0
  0
LINE
  5
9F91
330
9F16
100
AcDbEntity
  8
1
  6
Continuous
100
AcDbLine
 10
204.436382
 20
226.65849
 30
0.0
 11
202.811382
 21
225.53349
 31
0.0
  0
ARC
  5
9F92
330
9F16
100
AcDbEntity
  8
1
  6
Continuous
100
AcDbCircle
 10
211.4614439999999
 20
233.33349
 30
0.0
 40
3.5
100
AcDbArc
 50
270.0
 51
336.421822
  0
LINE
  5
9F93
330
9F16
100
AcDbEntity
  8
1
  6
Continuous
100
AcDbLine
 10
212.219247
 20
228.1584899999999
 30
0.0
 11
211.719247
 21
228.9584899999999
 31
0.0
  0
LINE
  5
9F94
330
9F16
100
AcDbEntity
  8
1
  6
Continuous
100
AcDbLine
 10
209.6716639999999
 20
226.65849
 30
0.0
 11
211.2966639999999
 21
225.53349
 31
0.0
  0
LINE
  5
9F95
330
9F16
100
AcDbEntity
  8
1
  6
Continuous
100
AcDbLine
 10
211.5074499999999
 20
226.65849
 30
0.0
 11
209.88245
 21
225.53349
 31
0.0
  0
LINE
  5
9F96
330
9F16
100
AcDbEntity
  8
1
  6
Continuous
100
AcDbLine
 10
208.25745
 20
226.65849
 30
0.0
 11
209.88245
 21
225.53349
 31
0.0
  0
LINE
  5
9F97
330
9F16
100
AcDbEntity
  8
1
  6
Continuous
100
AcDbLine
 10
206.843236
 20
226.65849
 30
0.0
 11
208.4682359999999
 21
225.53349
 31
0.0
  0
LINE
  5
9F98
330
9F16
100
AcDbEntity
  8
1
  6
Continuous
100
AcDbLine
 10
210.0932359999999
 20
226.65849
 30
0.0
 11
208.4682359999999
 21
225.53349
 31
0.0
  0
LINE
  5
9F99
330
9F16
100
AcDbEntity
  8
1
  6
Continuous
100
AcDbLine
 10
208.679023
 20
226.65849
 30
0.0
 11
207.054023
 21
225.53349
 31
0.0
  0
LINE
  5
9F9A
330
9F16
100
AcDbEntity
  8
1
  6
Continuous
100
AcDbLine
 10
211.085877
 20
226.65849
 30
0.0
 11
211.669247
 21
226.075121
 31
0.0
  0
LINE
  5
9F9B
330
9F16
100
AcDbEntity
  8
1
  6
Continuous
100
AcDbLine
 10
211.669247
 20
225.4060729999999
 30
0.0
 11
211.2966639999999
 21
225.53349
 31
0.0
  0
LINE
  5
9F9C
330
9F16
100
AcDbEntity
  8
1
  6
Continuous
100
AcDbLine
 10
211.669247
 20
226.65849
 30
0.0
 11
211.669247
 21
225.53349
 31
0.0
  0
LINE
  5
9F9D
330
9F16
100
AcDbEntity
  8
1
  6
Continuous
100
AcDbLine
 10
211.3192469999999
 20
226.65849
 30
0.0
 11
212.219247
 21
228.1584899999999
 31
0.0
  0
ARC
  5
9F9E
330
9F16
100
AcDbEntity
  8
1
  6
Continuous
100
AcDbCircle
 10
205.4192469999999
 20
224.4839899999998
 30
0.0
 40
6.974499999999999
100
AcDbArc
 50
39.907598
 51
50.08600000000002
  0
LINE
  5
9F9F
330
9F16
100
AcDbEntity
  8
1
  6
Continuous
100
AcDbLine
 10
223.669247
 20
234.2334899999999
 30
0.0
 11
223.669247
 21
231.9334899999998
 31
0.0
  0
LINE
  5
9FA0
330
9F16
100
AcDbEntity
  8
4
  6
CENTER
100
AcDbLine
 10
228.9691719999999
 20
299.5054979999999
 30
0.0
 11
121.1692379999998
 21
299.5054979999999
 31
0.0
  0
CIRCLE
  5
9FA1
330
9F16
100
AcDbEntity
  8
1
  6
Continuous
100
AcDbCircle
 10
188.6691719999998
 20
299.5054979999999
 30
0.0
 40
20.89999999999999
  0
CIRCLE
  5
9FA2
330
9F16
100
AcDbEntity
  8
1
  6
Continuous
100
AcDbCircle
 10
188.6691719999998
 20
299.5054979999999
 30
0.0
 40
23.5
  0
CIRCLE
  5
9FA3
330
9F16
100
AcDbEntity
  8
1
  6
Continuous
100
AcDbCircle
 10
188.6691719999998
 20
299.5054979999999
 30
0.0
 40
11.9
  0
LINE
  5
9FA4
330
9F16
100
AcDbEntity
  8
1
  6
Continuous
100
AcDbLine
 10
216.669172
 20
272.5054979999999
 30
0.0
 11
160.669172
 21
272.5054979999999
 31
0.0
  0
LINE
  5
9FA5
330
9F16
100
AcDbEntity
  8
1
  6
Continuous
100
AcDbLine
 10
216.669172
 20
326.5054979999998
 30
0.0
 11
160.669172
 21
326.5054979999998
 31
0.0
  0
LINE
  5
9FA6
330
9F16
100
AcDbEntity
  8
4
  6
CENTER
100
AcDbLine
 10
188.6691719999998
 20
267.505498
 30
0.0
 11
188.6691719999998
 21
331.5054979999998
 31
0.0
  0
LINE
  5
9FA7
330
9F16
100
AcDbEntity
  8
1
  6
Continuous
100
AcDbLine
 10
153.669172
 20
279.5054979999998
 30
0.0
 11
153.669172
 21
319.505498
 31
0.0
  0
LINE
  5
9FA8
330
9F16
100
AcDbEntity
  8
4
  6
CENTER
100
AcDbLine
 10
167.919172
 20
281.5054979999998
 30
0.0
 11
155.419172
 21
281.5054979999998
 31
0.0
  0
ARC
  5
9FA9
330
9F16
100
AcDbEntity
  8
1
  6
Continuous
100
AcDbCircle
 10
160.669172
 20
279.5054979999998
 30
0.0
 40
7.0
100
AcDbArc
 50
180.0
 51
270.0
  0
LINE
  5
9FAA
330
9F16
100
AcDbEntity
  8
4
  6
CENTER
100
AcDbLine
 10
161.669172
 20
275.2554979999998
 30
0.0
 11
161.669172
 21
287.7554979999998
 31
0.0
  0
CIRCLE
  5
9FAB
330
9F16
100
AcDbEntity
  8
1
  6
Continuous
100
AcDbCircle
 10
161.669172
 20
281.5054979999998
 30
0.0
 40
3.25
  0
LINE
  5
9FAC
330
9F16
100
AcDbEntity
  8
4
  6
CENTER
100
AcDbLine
 10
167.919172
 20
317.505498
 30
0.0
 11
155.419172
 21
317.505498
 31
0.0
  0
ARC
  5
9FAD
330
9F16
100
AcDbEntity
  8
1
  6
Continuous
100
AcDbCircle
 10
160.669172
 20
319.505498
 30
0.0
 40
7.0
100
AcDbArc
 50
90.0
 51
180.0
  0
LINE
  5
9FAE
330
9F16
100
AcDbEntity
  8
4
  6
CENTER
100
AcDbLine
 10
161.669172
 20
311.255498
 30
0.0
 11
161.669172
 21
323.755498
 31
0.0
  0
CIRCLE
  5
9FAF
330
9F16
100
AcDbEntity
  8
1
  6
Continuous
100
AcDbCircle
 10
161.669172
 20
317.505498
 30
0.0
 40
3.25
  0
LINE
  5
9FB0
330
9F16
100
AcDbEntity
  8
1
  6
Continuous
100
AcDbLine
 10
223.669172
 20
279.5054979999998
 30
0.0
 11
223.669172
 21
319.505498
 31
0.0
  0
ARC
  5
9FB1
330
9F16
100
AcDbEntity
  8
1
  6
Continuous
100
AcDbCircle
 10
216.669172
 20
279.5054979999998
 30
0.0
 40
7.0
100
AcDbArc
 50
270.0
 51
0.0
  0
LINE
  5
9FB2
330
9F16
100
AcDbEntity
  8
4
  6
CENTER
100
AcDbLine
 10
215.669172
 20
275.2554979999998
 30
0.0
 11
215.669172
 21
287.7554979999998
 31
0.0
  0
CIRCLE
  5
9FB3
330
9F16
100
AcDbEntity
  8
1
  6
Continuous
100
AcDbCircle
 10
215.669172
 20
281.5054979999998
 30
0.0
 40
3.25
  0
LINE
  5
9FB4
330
9F16
100
AcDbEntity
  8
4
  6
CENTER
100
AcDbLine
 10
221.919172
 20
281.5054979999998
 30
0.0
 11
209.4191719999999
 21
281.5054979999998
 31
0.0
  0
ARC
  5
9FB5
330
9F16
100
AcDbEntity
  8
1
  6
Continuous
100
AcDbCircle
 10
216.669172
 20
319.505498
 30
0.0
 40
7.0
100
AcDbArc
 50
0.0
 51
90.0
  0
LINE
  5
9FB6
330
9F16
100
AcDbEntity
  8
4
  6
CENTER
100
AcDbLine
 10
215.669172
 20
311.255498
 30
0.0
 11
215.669172
 21
323.755498
 31
0.0
  0
LINE
  5
9FB7
330
9F16
100
AcDbEntity
  8
4
  6
CENTER
100
AcDbLine
 10
221.919172
 20
317.505498
 30
0.0
 11
209.4191719999999
 21
317.505498
 31
0.0
  0
CIRCLE
  5
9FB8
330
9F16
100
AcDbEntity
  8
1
  6
Continuous
100
AcDbCircle
 10
215.669172
 20
317.505498
 30
0.0
 40
3.25
  0
LINE
  5
9FB9
330
9F16
100
AcDbEntity
  8
4
  6
CENTER
100
AcDbLine
 10
290.4033759999999
 20
239.2334899999999
 30
0.0
 11
290.4033759999999
 21
136.23349
 31
0.0
  0
LINE
  5
9FBA
330
9F16
100
AcDbEntity
  8
1
  6
Continuous
100
AcDbLine
 10
302.9033759999999
 20
213.954885
 30
0.0
 11
302.9033759999999
 21
143.5120949999999
 31
0.0
  0
LINE
  5
9FBB
330
9F16
100
AcDbEntity
  8
1
  6
Continuous
100
AcDbLine
 10
277.9033759999999
 20
213.954885
 30
0.0
 11
277.9033759999999
 21
143.5120949999999
 31
0.0
  0
ARC
  5
9FBC
330
9F16
100
AcDbEntity
  8
1
  6
Continuous
100
AcDbCircle
 10
279.9033759999999
 20
143.5120949999999
 30
0.0
 40
2.0
100
AcDbArc
 50
180.0
 51
266.960162
  0
ARC
  5
9FBD
330
9F16
100
AcDbEntity
  8
1
  6
Continuous
100
AcDbCircle
 10
290.4033759999999
 20
341.23349
 30
0.0
 40
200.0
100
AcDbArc
 50
266.960162
 51
273.039838
  0
ARC
  5
9FBE
330
9F16
100
AcDbEntity
  8
1
  6
Continuous
100
AcDbCircle
 10
300.9033759999999
 20
143.5120949999999
 30
0.0
 40
2.0
100
AcDbArc
 50
273.039838
 51
0.0
  0
LINE
  5
9FBF
330
9F16
100
AcDbEntity
  8
4
  6
CENTER
100
AcDbLine
 10
262.585329
 20
178.7334899999999
 30
0.0
 11
319.2118759999999
 21
178.7334899999999
 31
0.0
  0
LINE
  5
9FC0
330
9F16
100
AcDbEntity
  8
1
  6
Continuous
100
AcDbLine
 10
311.405793
 20
226.65849
 30
0.0
 11
313.030793
 21
225.53349
 31
0.0
  0
LINE
  5
9FC1
330
9F16
100
AcDbEntity
  8
1
  6
Continuous
100
AcDbLine
 10
313.241579
 20
226.65849
 30
0.0
 11
311.616579
 21
225.53349
 31
0.0
  0
ARC
  5
9FC2
330
9F16
100
AcDbEntity
  8
1
  6
Continuous
100
AcDbCircle
 10
300.9618759999999
 20
178.7334899999999
 30
0.0
 40
13.25
100
AcDbArc
 50
328.109208
 51
13.279281
  0
LINE
  5
9FC3
330
9F16
100
AcDbEntity
  8
1
  6
Continuous
100
AcDbLine
 10
263.4033759999999
 20
231.9334899999998
 30
0.0
 11
317.4033759999999
 21
231.9334899999998
 31
0.0
  0
LINE
  5
9FC4
330
9F16
100
AcDbEntity
  8
1
  6
Continuous
100
AcDbLine
 10
263.4033759999999
 20
234.2334899999999
 30
0.0
 11
317.4033759999999
 21
234.2334899999999
 31
0.0
  0
LINE
  5
9FC5
330
9F16
100
AcDbEntity
  8
1
  6
Continuous
100
AcDbLine
 10
313.195573
 20
229.8334899999999
 30
0.0
 11
267.6111789999998
 21
229.8334899999999
 31
0.0
  0
LINE
  5
9FC6
330
9F16
100
AcDbEntity
  8
1
  6
Continuous
100
AcDbLine
 10
313.453376
 20
228.9584899999999
 30
0.0
 11
267.3533759999999
 21
228.9584899999999
 31
0.0
  0
LINE
  5
9FC7
330
9F16
100
AcDbEntity
  8
1
  6
Continuous
100
AcDbLine
 10
313.4033759999999
 20
226.65849
 30
0.0
 11
267.4033759999999
 21
226.65849
 31
0.0
  0
LINE
  5
9FC8
330
9F16
100
AcDbEntity
  8
1
  6
Continuous
100
AcDbLine
 10
313.4033759999999
 20
225.53349
 30
0.0
 11
267.4033759999999
 21
225.53349
 31
0.0
  0
LINE
  5
9FC9
330
9F16
100
AcDbEntity
  8
1
  6
Continuous
100
AcDbLine
 10
306.9118759999998
 20
167.2334899999999
 30
0.0
 11
306.9118759999998
 21
212.8298829999998
 31
0.0
  0
LINE
  5
9FCA
330
9F16
100
AcDbEntity
  8
1
  6
Continuous
100
AcDbLine
 10
275.153376
 20
186.4748409999999
 30
0.0
 11
275.153376
 21
170.9921399999998
 31
0.0
  0
ARC
  5
9FCB
330
9F16
100
AcDbEntity
  8
1
  6
Continuous
100
AcDbCircle
 10
276.6533759999999
 20
170.9921399999998
 30
0.0
 40
1.5
100
AcDbArc
 50
180.0
 51
260.0
  0
LINE
  5
9FCC
330
9F16
100
AcDbEntity
  8
1
  6
Continuous
100
AcDbLine
 10
276.3929029999999
 20
169.514928
 30
0.0
 11
277.9033759999999
 21
169.248591
 31
0.0
  0
LINE
  5
9FCD
330
9F16
100
AcDbEntity
  8
1
  6
Continuous
100
AcDbLine
 10
273.8948759999999
 20
174.73349
 30
0.0
 11
275.153376
 21
174.73349
 31
0.0
  0
LINE
  5
9FCE
330
9F16
100
AcDbEntity
  8
1
  6
Continuous
100
AcDbLine
 10
276.3929029999999
 20
187.952053
 30
0.0
 11
277.9033759999999
 21
188.21839
 31
0.0
  0
LINE
  5
9FCF
330
9F16
100
AcDbEntity
  8
1
  6
Continuous
100
AcDbLine
 10
275.153376
 20
182.7334899999999
 30
0.0
 11
273.8948759999999
 21
182.7334899999999
 31
0.0
  0
ARC
  5
9FD0
330
9F16
100
AcDbEntity
  8
1
  6
Continuous
100
AcDbCircle
 10
276.6533759999999
 20
186.4748409999999
 30
0.0
 40
1.5
100
AcDbArc
 50
100.0
 51
180.0
  0
LINE
  5
9FD1
330
9F16
100
AcDbEntity
  8
1
  6
Continuous
100
AcDbLine
 10
312.2118759999999
 20
176.49546
 30
0.0
 11
312.2118759999999
 21
171.7334899999999
 31
0.0
  0
LINE
  5
9FD2
330
9F16
100
AcDbEntity
  8
1
  6
Continuous
100
AcDbLine
 10
306.9118759999998
 20
169.289308
 30
0.0
 11
306.9118759999998
 21
167.2334899999999
 31
0.0
  0
LINE
  5
9FD3
330
9F16
100
AcDbEntity
  8
1
  6
Continuous
100
AcDbLine
 10
304.4138479999999
 20
169.514928
 30
0.0
 11
302.9033759999999
 21
169.248591
 31
0.0
  0
ARC
  5
9FD4
330
9F16
100
AcDbEntity
  8
1
  6
Continuous
100
AcDbCircle
 10
304.153376
 20
170.9921399999998
 30
0.0
 40
1.5
100
AcDbArc
 50
280.0
 51
0.0
  0
LINE
  5
9FD5
330
9F16
100
AcDbEntity
  8
1
  6
Continuous
100
AcDbLine
 10
306.9118759999998
 20
167.2334899999999
 30
0.0
 11
309.2118759999999
 21
167.2334899999999
 31
0.0
  0
LINE
  5
9FD6
330
9F16
100
AcDbEntity
  8
1
  6
Continuous
100
AcDbLine
 10
309.2118759999999
 20
167.2334899999999
 30
0.0
 11
309.2118759999999
 21
167.6249589999999
 31
0.0
  0
LINE
  5
9FD7
330
9F16
100
AcDbEntity
  8
1
  6
Continuous
100
AcDbLine
 10
310.0762189999999
 20
171.7334899999999
 30
0.0
 11
312.2118759999999
 21
171.7334899999999
 31
0.0
  0
LINE
  5
9FD8
330
9F16
100
AcDbEntity
  8
1
  6
Continuous
100
AcDbLine
 10
304.4138479999999
 20
187.952053
 30
0.0
 11
302.9033759999999
 21
188.21839
 31
0.0
  0
ARC
  5
9FD9
330
9F16
100
AcDbEntity
  8
1
  6
Continuous
100
AcDbCircle
 10
304.153376
 20
186.4748409999999
 30
0.0
 40
1.5
100
AcDbArc
 50
0.0
 51
80.0
  0
LINE
  5
9FDA
330
9F16
100
AcDbEntity
  8
1
  6
Continuous
100
AcDbLine
 10
278.8788809999999
 20
226.65849
 30
0.0
 11
280.5038809999999
 21
225.53349
 31
0.0
  0
LINE
  5
9FDB
330
9F16
100
AcDbEntity
  8
1
  6
Continuous
100
AcDbLine
 10
280.714667
 20
226.65849
 30
0.0
 11
279.089667
 21
225.53349
 31
0.0
  0
ARC
  5
9FDC
330
9F16
100
AcDbEntity
  8
1
  6
Continuous
100
AcDbCircle
 10
279.9033759999999
 20
213.954885
 30
0.0
 40
2.0
100
AcDbArc
 50
119.526135
 51
180.0
  0
LINE
  5
9FDD
330
9F16
100
AcDbEntity
  8
1
  6
Continuous
100
AcDbLine
 10
302.0968209999999
 20
217.9334899999998
 30
0.0
 11
278.7778819999999
 21
217.9334899999998
 31
0.0
  0
ARC
  5
9FDE
330
9F16
100
AcDbEntity
  8
1
  6
Continuous
100
AcDbCircle
 10
278.7439049999999
 20
210.2186619999999
 30
0.0
 40
7.714902
100
AcDbArc
 50
89.74766999999998
 51
150.9629099999999
  0
LINE
  5
9FDF
330
9F16
100
AcDbEntity
  8
1
  6
Continuous
100
AcDbLine
 10
263.4033759999999
 20
234.2334899999999
 30
0.0
 11
263.4033759999999
 21
231.9334899999998
 31
0.0
  0
LINE
  5
9FE0
330
9F16
100
AcDbEntity
  8
1
  6
Continuous
100
AcDbLine
 10
270.393599
 20
226.65849
 30
0.0
 11
272.018599
 21
225.53349
 31
0.0
  0
LINE
  5
9FE1
330
9F16
100
AcDbEntity
  8
1
  6
Continuous
100
AcDbLine
 10
272.2293859999999
 20
226.65849
 30
0.0
 11
270.6043859999999
 21
225.53349
 31
0.0
  0
LINE
  5
9FE2
330
9F16
100
AcDbEntity
  8
1
  6
Continuous
100
AcDbLine
 10
266.8533759999998
 20
228.1584899999999
 30
0.0
 11
267.3533759999999
 21
228.9584899999999
 31
0.0
  0
LINE
  5
9FE3
330
9F16
100
AcDbEntity
  8
1
  6
Continuous
100
AcDbLine
 10
267.4033759999999
 20
225.9060729999999
 30
0.0
 11
267.7759589999999
 21
225.53349
 31
0.0
  0
LINE
  5
9FE4
330
9F16
100
AcDbEntity
  8
1
  6
Continuous
100
AcDbLine
 10
267.4033759999999
 20
226.5751209999999
 30
0.0
 11
267.9867449999999
 21
226.65849
 31
0.0
  0
LINE
  5
9FE5
330
9F16
100
AcDbEntity
  8
1
  6
Continuous
100
AcDbLine
 10
267.753376
 20
226.65849
 30
0.0
 11
266.8533759999998
 21
228.1584899999999
 31
0.0
  0
LINE
  5
9FE6
330
9F16
100
AcDbEntity
  8
1
  6
Continuous
100
AcDbLine
 10
267.4033759999999
 20
226.65849
 30
0.0
 11
267.4033759999999
 21
225.53349
 31
0.0
  0
LINE
  5
9FE7
330
9F16
100
AcDbEntity
  8
1
  6
Continuous
100
AcDbLine
 10
267.565172
 20
226.65849
 30
0.0
 11
269.190172
 21
225.53349
 31
0.0
  0
LINE
  5
9FE8
330
9F16
100
AcDbEntity
  8
1
  6
Continuous
100
AcDbLine
 10
268.9793859999999
 20
226.65849
 30
0.0
 11
270.6043859999999
 21
225.53349
 31
0.0
  0
LINE
  5
9FE9
330
9F16
100
AcDbEntity
  8
1
  6
Continuous
100
AcDbLine
 10
269.4009589999998
 20
226.65849
 30
0.0
 11
267.7759589999999
 21
225.53349
 31
0.0
  0
LINE
  5
9FEA
330
9F16
100
AcDbEntity
  8
1
  6
Continuous
100
AcDbLine
 10
270.815172
 20
226.65849
 30
0.0
 11
269.190172
 21
225.53349
 31
0.0
  0
ARC
  5
9FEB
330
9F16
100
AcDbEntity
  8
1
  6
Continuous
100
AcDbCircle
 10
267.6111789999998
 20
233.33349
 30
0.0
 40
3.5
100
AcDbArc
 50
203.578178
 51
270.0
  0
ARC
  5
9FEC
330
9F16
100
AcDbEntity
  8
1
  6
Continuous
100
AcDbCircle
 10
273.6533759999999
 20
224.4839899999998
 30
0.0
 40
6.974499999999999
100
AcDbArc
 50
129.9139999999999
 51
140.0924019999999
  0
LINE
  5
9FED
330
9F16
100
AcDbEntity
  8
1
  6
Continuous
100
AcDbLine
 10
274.6362399999998
 20
226.65849
 30
0.0
 11
276.26124
 21
225.53349
 31
0.0
  0
LINE
  5
9FEE
330
9F16
100
AcDbEntity
  8
1
  6
Continuous
100
AcDbLine
 10
276.4720259999999
 20
226.65849
 30
0.0
 11
274.8470259999999
 21
225.53349
 31
0.0
  0
LINE
  5
9FEF
330
9F16
100
AcDbEntity
  8
1
  6
Continuous
100
AcDbLine
 10
271.807813
 20
226.65849
 30
0.0
 11
273.432813
 21
225.53349
 31
0.0
  0
LINE
  5
9FF0
330
9F16
100
AcDbEntity
  8
1
  6
Continuous
100
AcDbLine
 10
273.2220259999999
 20
226.65849
 30
0.0
 11
274.8470259999999
 21
225.53349
 31
0.0
  0
LINE
  5
9FF1
330
9F16
100
AcDbEntity
  8
1
  6
Continuous
100
AcDbLine
 10
273.6435989999999
 20
226.65849
 30
0.0
 11
272.018599
 21
225.53349
 31
0.0
  0
LINE
  5
9FF2
330
9F16
100
AcDbEntity
  8
1
  6
Continuous
100
AcDbLine
 10
275.057813
 20
226.65849
 30
0.0
 11
273.432813
 21
225.53349
 31
0.0
  0
LINE
  5
9FF3
330
9F16
100
AcDbEntity
  8
1
  6
Continuous
100
AcDbLine
 10
276.0504539999999
 20
226.65849
 30
0.0
 11
277.675454
 21
225.53349
 31
0.0
  0
LINE
  5
9FF4
330
9F16
100
AcDbEntity
  8
1
  6
Continuous
100
AcDbLine
 10
277.464667
 20
226.65849
 30
0.0
 11
279.089667
 21
225.53349
 31
0.0
  0
LINE
  5
9FF5
330
9F16
100
AcDbEntity
  8
1
  6
Continuous
100
AcDbLine
 10
277.8862399999998
 20
226.65849
 30
0.0
 11
276.26124
 21
225.53349
 31
0.0
  0
LINE
  5
9FF6
330
9F16
100
AcDbEntity
  8
1
  6
Continuous
100
AcDbLine
 10
279.300454
 20
226.65849
 30
0.0
 11
277.675454
 21
225.53349
 31
0.0
  0
ARC
  5
9FF7
330
9F16
100
AcDbEntity
  8
1
  6
Continuous
100
AcDbCircle
 10
219.2048479999999
 20
170.77931
 30
0.0
 40
97.26650800000001
100
AcDbArc
 50
18.221623
 51
28.73472400000001
  0
ARC
  5
9FF8
330
9F16
100
AcDbEntity
  8
1
  6
Continuous
100
AcDbCircle
 10
302.0628449999999
 20
210.2186619999999
 30
0.0
 40
7.714902
100
AcDbArc
 50
29.03709
 51
90.25233
  0
ARC
  5
9FF9
330
9F16
100
AcDbEntity
  8
1
  6
Continuous
100
AcDbCircle
 10
300.9033759999999
 20
213.954885
 30
0.0
 40
2.0
100
AcDbArc
 50
0.0
 51
59.267629
  0
LINE
  5
9FFA
330
9F16
100
AcDbEntity
  8
1
  6
Continuous
100
AcDbLine
 10
295.849443
 20
226.65849
 30
0.0
 11
297.474443
 21
225.53349
 31
0.0
  0
LINE
  5
9FFB
330
9F16
100
AcDbEntity
  8
1
  6
Continuous
100
AcDbLine
 10
297.68523
 20
226.65849
 30
0.0
 11
296.06023
 21
225.53349
 31
0.0
  0
LINE
  5
9FFC
330
9F16
100
AcDbEntity
  8
1
  6
Continuous
100
AcDbLine
 10
296.2710159999998
 20
226.65849
 30
0.0
 11
294.6460159999999
 21
225.53349
 31
0.0
  0
LINE
  5
9FFD
330
9F16
100
AcDbEntity
  8
1
  6
Continuous
100
AcDbLine
 10
287.364162
 20
226.65849
 30
0.0
 11
288.989162
 21
225.53349
 31
0.0
  0
LINE
  5
9FFE
330
9F16
100
AcDbEntity
  8
1
  6
Continuous
100
AcDbLine
 10
289.1999489999999
 20
226.65849
 30
0.0
 11
287.574949
 21
225.53349
 31
0.0
  0
LINE
  5
9FFF
330
9F16
100
AcDbEntity
  8
1
  6
Continuous
100
AcDbLine
 10
283.1215209999998
 20
226.65849
 30
0.0
 11
284.7465209999999
 21
225.53349
 31
0.0
  0
LINE
  5
A000
330
9F16
100
AcDbEntity
  8
1
  6
Continuous
100
AcDbLine
 10
284.957308
 20
226.65849
 30
0.0
 11
283.3323079999999
 21
225.53349
 31
0.0
  0
LINE
  5
A001
330
9F16
100
AcDbEntity
  8
1
  6
Continuous
100
AcDbLine
 10
280.2930939999999
 20
226.65849
 30
0.0
 11
281.9180939999998
 21
225.53349
 31
0.0
  0
LINE
  5
A002
330
9F16
100
AcDbEntity
  8
1
  6
Continuous
100
AcDbLine
 10
281.707308
 20
226.65849
 30
0.0
 11
283.3323079999999
 21
225.53349
 31
0.0
  0
LINE
  5
A003
330
9F16
100
AcDbEntity
  8
1
  6
Continuous
100
AcDbLine
 10
282.128881
 20
226.65849
 30
0.0
 11
280.5038809999999
 21
225.53349
 31
0.0
  0
LINE
  5
A004
330
9F16
100
AcDbEntity
  8
1
  6
Continuous
100
AcDbLine
 10
283.543094
 20
226.65849
 30
0.0
 11
281.9180939999998
 21
225.53349
 31
0.0
  0
LINE
  5
A005
330
9F16
100
AcDbEntity
  8
1
  6
Continuous
100
AcDbLine
 10
284.535735
 20
226.65849
 30
0.0
 11
286.1607349999998
 21
225.53349
 31
0.0
  0
LINE
  5
A006
330
9F16
100
AcDbEntity
  8
1
  6
Continuous
100
AcDbLine
 10
285.949949
 20
226.65849
 30
0.0
 11
287.574949
 21
225.53349
 31
0.0
  0
LINE
  5
A007
330
9F16
100
AcDbEntity
  8
1
  6
Continuous
100
AcDbLine
 10
286.3715209999999
 20
226.65849
 30
0.0
 11
284.7465209999999
 21
225.53349
 31
0.0
  0
LINE
  5
A008
330
9F16
100
AcDbEntity
  8
1
  6
Continuous
100
AcDbLine
 10
287.7857349999998
 20
226.65849
 30
0.0
 11
286.1607349999998
 21
225.53349
 31
0.0
  0
LINE
  5
A009
330
9F16
100
AcDbEntity
  8
1
  6
Continuous
100
AcDbLine
 10
291.6068029999999
 20
226.65849
 30
0.0
 11
293.2318029999998
 21
225.53349
 31
0.0
  0
LINE
  5
A00A
330
9F16
100
AcDbEntity
  8
1
  6
Continuous
100
AcDbLine
 10
293.4425889999999
 20
226.65849
 30
0.0
 11
291.817589
 21
225.53349
 31
0.0
  0
LINE
  5
A00B
330
9F16
100
AcDbEntity
  8
1
  6
Continuous
100
AcDbLine
 10
290.192589
 20
226.65849
 30
0.0
 11
291.817589
 21
225.53349
 31
0.0
  0
LINE
  5
A00C
330
9F16
100
AcDbEntity
  8
1
  6
Continuous
100
AcDbLine
 10
288.7783759999999
 20
226.65849
 30
0.0
 11
290.4033759999999
 21
225.53349
 31
0.0
  0
LINE
  5
A00D
330
9F16
100
AcDbEntity
  8
1
  6
Continuous
100
AcDbLine
 10
290.614162
 20
226.65849
 30
0.0
 11
288.989162
 21
225.53349
 31
0.0
  0
LINE
  5
A00E
330
9F16
100
AcDbEntity
  8
1
  6
Continuous
100
AcDbLine
 10
292.0283759999999
 20
226.65849
 30
0.0
 11
290.4033759999999
 21
225.53349
 31
0.0
  0
LINE
  5
A00F
330
9F16
100
AcDbEntity
  8
1
  6
Continuous
100
AcDbLine
 10
294.4352299999998
 20
226.65849
 30
0.0
 11
296.06023
 21
225.53349
 31
0.0
  0
LINE
  5
A010
330
9F16
100
AcDbEntity
  8
1
  6
Continuous
100
AcDbLine
 10
293.0210159999999
 20
226.65849
 30
0.0
 11
294.6460159999999
 21
225.53349
 31
0.0
  0
LINE
  5
A011
330
9F16
100
AcDbEntity
  8
1
  6
Continuous
100
AcDbLine
 10
294.8568029999999
 20
226.65849
 30
0.0
 11
293.2318029999998
 21
225.53349
 31
0.0
  0
LINE
  5
A012
330
9F16
100
AcDbEntity
  8
1
  6
Continuous
100
AcDbLine
 10
304.334725
 20
226.65849
 30
0.0
 11
305.9597249999999
 21
225.53349
 31
0.0
  0
LINE
  5
A013
330
9F16
100
AcDbEntity
  8
1
  6
Continuous
100
AcDbLine
 10
302.9205109999999
 20
226.65849
 30
0.0
 11
304.5455109999999
 21
225.53349
 31
0.0
  0
LINE
  5
A014
330
9F16
100
AcDbEntity
  8
1
  6
Continuous
100
AcDbLine
 10
304.756298
 20
226.65849
 30
0.0
 11
303.131298
 21
225.53349
 31
0.0
  0
LINE
  5
A015
330
9F16
100
AcDbEntity
  8
1
  6
Continuous
100
AcDbLine
 10
300.092084
 20
226.65849
 30
0.0
 11
301.7170839999999
 21
225.53349
 31
0.0
  0
LINE
  5
A016
330
9F16
100
AcDbEntity
  8
1
  6
Continuous
100
AcDbLine
 10
301.927871
 20
226.65849
 30
0.0
 11
300.3028709999999
 21
225.53349
 31
0.0
  0
LINE
  5
A017
330
9F16
100
AcDbEntity
  8
1
  6
Continuous
100
AcDbLine
 10
300.5136569999999
 20
226.65849
 30
0.0
 11
298.8886569999999
 21
225.53349
 31
0.0
  0
LINE
  5
A018
330
9F16
100
AcDbEntity
  8
1
  6
Continuous
100
AcDbLine
 10
298.6778709999999
 20
226.65849
 30
0.0
 11
300.3028709999999
 21
225.53349
 31
0.0
  0
LINE
  5
A019
330
9F16
100
AcDbEntity
  8
1
  6
Continuous
100
AcDbLine
 10
297.2636569999999
 20
226.65849
 30
0.0
 11
298.8886569999999
 21
225.53349
 31
0.0
  0
LINE
  5
A01A
330
9F16
100
AcDbEntity
  8
1
  6
Continuous
100
AcDbLine
 10
299.099443
 20
226.65849
 30
0.0
 11
297.474443
 21
225.53349
 31
0.0
  0
LINE
  5
A01B
330
9F16
100
AcDbEntity
  8
1
  6
Continuous
100
AcDbLine
 10
301.506298
 20
226.65849
 30
0.0
 11
303.131298
 21
225.53349
 31
0.0
  0
LINE
  5
A01C
330
9F16
100
AcDbEntity
  8
1
  6
Continuous
100
AcDbLine
 10
303.342084
 20
226.65849
 30
0.0
 11
301.7170839999999
 21
225.53349
 31
0.0
  0
LINE
  5
A01D
330
9F16
100
AcDbEntity
  8
1
  6
Continuous
100
AcDbLine
 10
307.163152
 20
226.65849
 30
0.0
 11
308.788152
 21
225.53349
 31
0.0
  0
LINE
  5
A01E
330
9F16
100
AcDbEntity
  8
1
  6
Continuous
100
AcDbLine
 10
308.998938
 20
226.65849
 30
0.0
 11
307.373938
 21
225.53349
 31
0.0
  0
LINE
  5
A01F
330
9F16
100
AcDbEntity
  8
1
  6
Continuous
100
AcDbLine
 10
305.748938
 20
226.65849
 30
0.0
 11
307.373938
 21
225.53349
 31
0.0
  0
LINE
  5
A020
330
9F16
100
AcDbEntity
  8
1
  6
Continuous
100
AcDbLine
 10
307.5847249999998
 20
226.65849
 30
0.0
 11
305.9597249999999
 21
225.53349
 31
0.0
  0
LINE
  5
A021
330
9F16
100
AcDbEntity
  8
1
  6
Continuous
100
AcDbLine
 10
306.1705109999999
 20
226.65849
 30
0.0
 11
304.5455109999999
 21
225.53349
 31
0.0
  0
LINE
  5
A022
330
9F16
100
AcDbEntity
  8
1
  6
Continuous
100
AcDbLine
 10
309.991579
 20
226.65849
 30
0.0
 11
311.616579
 21
225.53349
 31
0.0
  0
LINE
  5
A023
330
9F16
100
AcDbEntity
  8
1
  6
Continuous
100
AcDbLine
 10
308.577366
 20
226.65849
 30
0.0
 11
310.2023659999999
 21
225.53349
 31
0.0
  0
LINE
  5
A024
330
9F16
100
AcDbEntity
  8
1
  6
Continuous
100
AcDbLine
 10
311.8273659999999
 20
226.65849
 30
0.0
 11
310.2023659999999
 21
225.53349
 31
0.0
  0
LINE
  5
A025
330
9F16
100
AcDbEntity
  8
1
  6
Continuous
100
AcDbLine
 10
310.4131520000001
 20
226.65849
 30
0.0
 11
308.788152
 21
225.53349
 31
0.0
  0
ARC
  5
A026
330
9F16
100
AcDbEntity
  8
1
  6
Continuous
100
AcDbCircle
 10
307.1533759999999
 20
224.4839899999998
 30
0.0
 40
6.974499999999999
100
AcDbArc
 50
39.907598
 51
50.08600000000002
  0
LINE
  5
A027
330
9F16
100
AcDbEntity
  8
1
  6
Continuous
100
AcDbLine
 10
317.4033759999999
 20
234.2334899999999
 30
0.0
 11
317.4033759999999
 21
231.9334899999998
 31
0.0
  0
LINE
  5
A028
330
9F16
100
AcDbEntity
  8
1
  6
Continuous
100
AcDbLine
 10
313.9533759999999
 20
228.1584899999999
 30
0.0
 11
313.453376
 21
228.9584899999999
 31
0.0
  0
LINE
  5
A029
330
9F16
100
AcDbEntity
  8
1
  6
Continuous
100
AcDbLine
 10
312.8200059999999
 20
226.65849
 30
0.0
 11
313.4033759999999
 21
226.5751209999999
 31
0.0
  0
LINE
  5
A02A
330
9F16
100
AcDbEntity
  8
1
  6
Continuous
100
AcDbLine
 10
313.4033759999999
 20
225.9060729999999
 30
0.0
 11
313.030793
 21
225.53349
 31
0.0
  0
LINE
  5
A02B
330
9F16
100
AcDbEntity
  8
1
  6
Continuous
100
AcDbLine
 10
313.4033759999999
 20
226.65849
 30
0.0
 11
313.4033759999999
 21
225.53349
 31
0.0
  0
LINE
  5
A02C
330
9F16
100
AcDbEntity
  8
1
  6
Continuous
100
AcDbLine
 10
313.0533759999999
 20
226.65849
 30
0.0
 11
313.9533759999999
 21
228.1584899999999
 31
0.0
  0
ARC
  5
A02D
330
9F16
100
AcDbEntity
  8
1
  6
Continuous
100
AcDbCircle
 10
313.195573
 20
233.33349
 30
0.0
 40
3.5
100
AcDbArc
 50
270.0
 51
336.421822
  0
LINE
  5
A02E
330
9F16
100
AcDbEntity
  8
4
  6
CENTER
100
AcDbLine
 10
161.6692469999998
 20
239.2334899999999
 30
0.0
 11
161.6692469999998
 21
226.93349
 31
0.0
  0
LINE
  5
A02F
330
9F16
100
AcDbEntity
  8
4
  6
CENTER
100
AcDbLine
 10
215.669247
 20
239.2334899999999
 30
0.0
 11
215.669247
 21
226.93349
 31
0.0
  0
LINE
  5
A030
330
9F16
100
AcDbEntity
  8
4
  6
CENTER
100
AcDbLine
 10
272.4033759999999
 20
239.2334899999999
 30
0.0
 11
272.4033759999999
 21
226.93349
 31
0.0
  0
LINE
  5
A031
330
9F16
100
AcDbEntity
  8
4
  6
CENTER
100
AcDbLine
 10
308.403376
 20
239.2334899999999
 30
0.0
 11
308.403376
 21
226.93349
 31
0.0
  0
LINE
  5
A032
330
9F16
100
AcDbEntity
  8
1
  6
Continuous
100
AcDbLine
 10
305.6533759999999
 20
186.4748409999999
 30
0.0
 11
305.6533759999999
 21
170.9921399999998
 31
0.0
  0
LINE
  5
A033
330
9F16
100
AcDbEntity
  8
1
  6
Continuous
100
AcDbLine
 10
273.8948759999999
 20
167.2334899999999
 30
0.0
 11
271.5948759999998
 21
167.2334899999999
 31
0.0
  0
LINE
  5
A034
330
9F16
100
AcDbEntity
  8
1
  6
Continuous
100
AcDbLine
 10
271.5948759999998
 20
167.2334899999999
 30
0.0
 11
271.5948759999998
 21
167.633134
 31
0.0
  0
LINE
  5
A035
330
9F16
100
AcDbEntity
  8
1
  6
Continuous
100
AcDbLine
 10
306.9118759999998
 20
182.7334899999999
 30
0.0
 11
305.6533759999999
 21
182.7334899999999
 31
0.0
  0
LINE
  5
A036
330
9F16
100
AcDbEntity
  8
1
  6
Continuous
100
AcDbLine
 10
305.6533759999999
 20
174.73349
 30
0.0
 11
306.9118759999998
 21
174.73349
 31
0.0
  0
LINE
  5
A037
330
9F16
100
AcDbEntity
  8
4
  6
CENTER
100
AcDbLine
 10
59.204661
 20
239.2335349999999
 30
0.0
 11
59.204661
 21
136.2335349999999
 31
0.0
  0
LINE
  5
A038
330
9F16
100
AcDbEntity
  8
1
  6
Continuous
100
AcDbLine
 10
71.704661
 20
143.5121409999998
 30
0.0
 11
71.704661
 21
213.95493
 31
0.0
  0
LINE
  5
A039
330
9F16
100
AcDbEntity
  8
1
  6
Continuous
100
AcDbLine
 10
46.704661
 20
213.95493
 30
0.0
 11
46.704661
 21
143.5121409999998
 31
0.0
  0
ARC
  5
A03A
330
9F16
100
AcDbEntity
  8
1
  6
Continuous
100
AcDbCircle
 10
59.204661
 20
341.233535
 30
0.0
 40
200.0
100
AcDbArc
 50
266.960162
 51
273.039838
  0
ARC
  5
A03B
330
9F16
100
AcDbEntity
  8
1
  6
Continuous
100
AcDbCircle
 10
48.704661
 20
143.5121409999998
 30
0.0
 40
2.0
100
AcDbArc
 50
180.0
 51
266.960162
  0
ARC
  5
A03C
330
9F16
100
AcDbEntity
  8
1
  6
Continuous
100
AcDbCircle
 10
69.704661
 20
143.5121409999998
 30
0.0
 40
2.0
100
AcDbArc
 50
273.039838
 51
0.0
  0
LINE
  5
A03D
330
9F16
100
AcDbEntity
  8
1
  6
Continuous
100
AcDbLine
 10
78.01316099999998
 20
218.9335349999999
 30
0.0
 11
78.01316099999998
 21
167.2335349999999
 31
0.0
  0
LINE
  5
A03E
330
9F16
100
AcDbEntity
  8
1
  6
Continuous
100
AcDbLine
 10
40.39616099999999
 20
218.9335349999999
 30
0.0
 11
40.39616099999999
 21
167.2335349999999
 31
0.0
  0
LINE
  5
A03F
330
9F16
100
AcDbEntity
  8
1
  6
Continuous
100
AcDbLine
 10
75.713161
 20
218.9335349999999
 30
0.0
 11
75.713161
 21
167.2335349999999
 31
0.0
  0
LINE
  5
A040
330
9F16
100
AcDbEntity
  8
1
  6
Continuous
100
AcDbLine
 10
42.69616099999999
 20
218.9335349999999
 30
0.0
 11
42.69616099999999
 21
167.2335349999999
 31
0.0
  0
LINE
  5
A041
330
9F16
100
AcDbEntity
  8
4
  6
CENTER
100
AcDbLine
 10
30.39616099999999
 20
178.733535
 30
0.0
 11
85.51291999999998
 21
178.733535
 31
0.0
  0
LINE
  5
A042
330
9F16
100
AcDbEntity
  8
1
  6
Continuous
100
AcDbLine
 10
38.06992299999999
 20
185.7335349999999
 30
0.0
 11
38.06992299999999
 21
171.7335349999999
 31
0.0
  0
ARC
  5
A043
330
9F16
100
AcDbEntity
  8
1
  6
Continuous
100
AcDbCircle
 10
45.89616099999999
 20
178.733535
 30
0.0
 40
10.5
100
AcDbArc
 50
138.189686
 51
221.810315
  0
LINE
  5
A044
330
9F16
100
AcDbEntity
  8
1
  6
Continuous
100
AcDbLine
 10
44.204661
 20
186.4748859999999
 30
0.0
 11
44.204661
 21
170.992185
 31
0.0
  0
LINE
  5
A045
330
9F16
100
AcDbEntity
  8
1
  6
Continuous
100
AcDbLine
 10
45.444189
 20
169.5149729999999
 30
0.0
 11
46.704661
 21
169.2927179999998
 31
0.0
  0
ARC
  5
A046
330
9F16
100
AcDbEntity
  8
1
  6
Continuous
100
AcDbCircle
 10
45.70466099999999
 20
170.992185
 30
0.0
 40
1.5
100
AcDbArc
 50
180.0
 51
260.0
  0
LINE
  5
A047
330
9F16
100
AcDbEntity
  8
1
  6
Continuous
100
AcDbLine
 10
40.39616099999999
 20
167.2335349999999
 30
0.0
 11
42.69616099999999
 21
167.2335349999999
 31
0.0
  0
LINE
  5
A048
330
9F16
100
AcDbEntity
  8
1
  6
Continuous
100
AcDbLine
 10
38.06992299999999
 20
171.7335349999999
 30
0.0
 11
40.39616099999999
 21
171.7335349999999
 31
0.0
  0
LINE
  5
A049
330
9F16
100
AcDbEntity
  8
1
  6
Continuous
100
AcDbLine
 10
42.69616099999999
 20
174.7335349999999
 30
0.0
 11
44.204661
 21
174.7335349999999
 31
0.0
  0
LINE
  5
A04A
330
9F16
100
AcDbEntity
  8
1
  6
Continuous
100
AcDbLine
 10
45.444189
 20
187.952098
 30
0.0
 11
46.704661
 21
188.1743529999999
 31
0.0
  0
ARC
  5
A04B
330
9F16
100
AcDbEntity
  8
1
  6
Continuous
100
AcDbCircle
 10
79.454661
 20
192.4980859999998
 30
0.0
 40
45.0
100
AcDbArc
 50
180.0
 51
194.017084
  0
ARC
  5
A04C
330
9F16
100
AcDbEntity
  8
1
  6
Continuous
100
AcDbCircle
 10
45.70466099999999
 20
186.4748859999999
 30
0.0
 40
1.5
100
AcDbArc
 50
100.0
 51
180.0
  0
LINE
  5
A04D
330
9F16
100
AcDbEntity
  8
1
  6
Continuous
100
AcDbLine
 10
38.06992299999999
 20
185.7335349999999
 30
0.0
 11
40.39616099999999
 21
185.7335349999999
 31
0.0
  0
LINE
  5
A04E
330
9F16
100
AcDbEntity
  8
1
  6
Continuous
100
AcDbLine
 10
42.69616099999999
 20
182.733535
 30
0.0
 11
44.204661
 21
182.733535
 31
0.0
  0
LINE
  5
A04F
330
9F16
100
AcDbEntity
  8
1
  6
Continuous
100
AcDbLine
 10
79.51291999999998
 20
173.7335349999999
 30
0.0
 11
79.51291999999998
 21
183.733535
 31
0.0
  0
ARC
  5
A050
330
9F16
100
AcDbEntity
  8
1
  6
Continuous
100
AcDbCircle
 10
67.51291999999999
 20
178.733535
 30
0.0
 40
13.0
100
AcDbArc
 50
337.3801349999999
 51
22.619865
  0
ARC
  5
A051
330
9F16
100
AcDbEntity
  8
1
  6
Continuous
100
AcDbCircle
 10
38.954661
 20
192.4980859999998
 30
0.0
 40
45.0
100
AcDbArc
 50
330.223206
 51
0.0
  0
LINE
  5
A052
330
9F16
100
AcDbEntity
  8
1
  6
Continuous
100
AcDbLine
 10
74.204661
 20
170.992185
 30
0.0
 11
74.204661
 21
186.4748859999999
 31
0.0
  0
LINE
  5
A053
330
9F16
100
AcDbEntity
  8
1
  6
Continuous
100
AcDbLine
 10
79.51291999999998
 20
173.7335349999999
 30
0.0
 11
78.01316099999998
 21
173.7335349999999
 31
0.0
  0
ARC
  5
A054
330
9F16
100
AcDbEntity
  8
1
  6
Continuous
100
AcDbCircle
 10
72.704661
 20
170.992185
 30
0.0
 40
1.5
100
AcDbArc
 50
280.0
 51
0.0
  0
LINE
  5
A055
330
9F16
100
AcDbEntity
  8
1
  6
Continuous
100
AcDbLine
 10
72.96513399999998
 20
169.5149729999999
 30
0.0
 11
71.704661
 21
169.2927179999998
 31
0.0
  0
LINE
  5
A056
330
9F16
100
AcDbEntity
  8
1
  6
Continuous
100
AcDbLine
 10
75.713161
 20
167.2335349999999
 30
0.0
 11
78.01316099999998
 21
167.2335349999999
 31
0.0
  0
LINE
  5
A057
330
9F16
100
AcDbEntity
  8
1
  6
Continuous
100
AcDbLine
 10
74.204661
 20
174.7335349999999
 30
0.0
 11
75.713161
 21
174.7335349999999
 31
0.0
  0
LINE
  5
A058
330
9F16
100
AcDbEntity
  8
1
  6
Continuous
100
AcDbLine
 10
79.51291999999998
 20
183.733535
 30
0.0
 11
78.01316099999998
 21
183.733535
 31
0.0
  0
ARC
  5
A059
330
9F16
100
AcDbEntity
  8
1
  6
Continuous
100
AcDbCircle
 10
72.704661
 20
186.4748859999999
 30
0.0
 40
1.5
100
AcDbArc
 50
0.0
 51
80.0
  0
LINE
  5
A05A
330
9F16
100
AcDbEntity
  8
1
  6
Continuous
100
AcDbLine
 10
72.96513399999998
 20
187.952098
 30
0.0
 11
71.704661
 21
188.1743529999999
 31
0.0
  0
LINE
  5
A05B
330
9F16
100
AcDbEntity
  8
1
  6
Continuous
100
AcDbLine
 10
74.204661
 20
182.733535
 30
0.0
 11
75.713161
 21
182.733535
 31
0.0
  0
LINE
  5
A05C
330
9F16
100
AcDbEntity
  8
1
  6
Continuous
100
AcDbLine
 10
61.070588
 20
219.471035
 30
0.0
 11
62.243874
 21
220.9334899999999
 31
0.0
  0
LINE
  5
A05D
330
9F16
100
AcDbEntity
  8
1
  6
Continuous
100
AcDbLine
 10
62.454661
 20
225.53349
 30
0.0
 11
60.618875
 21
226.658535
 31
0.0
  0
LINE
  5
A05E
330
9F16
100
AcDbEntity
  8
1
  6
Continuous
100
AcDbLine
 10
62.033088
 20
225.53349
 30
0.0
 11
63.447302
 21
226.658535
 31
0.0
  0
LINE
  5
A05F
330
9F16
100
AcDbEntity
  8
1
  6
Continuous
100
AcDbLine
 10
60.61887399999999
 20
225.53349
 30
0.0
 11
62.033088
 21
226.658535
 31
0.0
  0
LINE
  5
A060
330
9F16
100
AcDbEntity
  8
1
  6
Continuous
100
AcDbLine
 10
42.69616099999999
 20
217.971035
 30
0.0
 11
75.713161
 21
217.971035
 31
0.0
  0
LINE
  5
A061
330
9F16
100
AcDbEntity
  8
1
  6
Continuous
100
AcDbLine
 10
36.41246399999999
 20
229.833535
 30
0.0
 11
81.99685800000002
 21
229.833535
 31
0.0
  0
LINE
  5
A062
330
9F16
100
AcDbEntity
  8
1
  6
Continuous
100
AcDbLine
 10
36.15466099999999
 20
228.958535
 30
0.0
 11
82.254661
 21
228.958535
 31
0.0
  0
LINE
  5
A063
330
9F16
100
AcDbEntity
  8
1
  6
Continuous
100
AcDbLine
 10
36.204661
 20
226.658535
 30
0.0
 11
82.20466100000001
 21
226.658535
 31
0.0
  0
LINE
  5
A064
330
9F16
100
AcDbEntity
  8
1
  6
Continuous
100
AcDbLine
 10
32.204661
 20
234.2335349999999
 30
0.0
 11
86.20466099999999
 21
234.2335349999999
 31
0.0
  0
LINE
  5
A065
330
9F16
100
AcDbEntity
  8
1
  6
Continuous
100
AcDbLine
 10
32.204661
 20
231.933535
 30
0.0
 11
86.20466099999999
 21
231.933535
 31
0.0
  0
LINE
  5
A066
330
9F16
100
AcDbEntity
  8
1
  6
Continuous
100
AcDbLine
 10
36.415447
 20
225.53349
 30
0.0
 11
82.415447
 21
225.53349
 31
0.0
  0
LINE
  5
A067
330
9F16
100
AcDbEntity
  8
1
  6
Continuous
100
AcDbLine
 10
42.924457
 20
219.471035
 30
0.0
 11
75.570701
 21
219.471035
 31
0.0
  0
ARC
  5
A068
330
9F16
100
AcDbEntity
  8
1
  6
Continuous
100
AcDbCircle
 10
59.204661
 20
16.233535
 30
0.0
 40
200.0
100
AcDbArc
 50
86.96016199999998
 51
93.03983800000002
  0
LINE
  5
A069
330
9F16
100
AcDbEntity
  8
1
  6
Continuous
100
AcDbLine
 10
45.01544699999999
 20
220.9334899999999
 30
0.0
 11
73.81544699999998
 21
220.9334899999999
 31
0.0
  0
LINE
  5
A06A
330
9F16
100
AcDbEntity
  8
1
  6
Continuous
100
AcDbLine
 10
45.01544699999999
 20
223.23349
 30
0.0
 11
73.81544699999998
 21
223.23349
 31
0.0
  0
ARC
  5
A06B
330
9F16
100
AcDbEntity
  8
1
  6
Continuous
100
AcDbCircle
 10
45.374331
 20
218.21681
 30
0.0
 40
5.029499999999998
100
AcDbArc
 50
94.09185900000002
 51
171.807218
  0
LINE
  5
A06C
330
9F16
100
AcDbEntity
  8
1
  6
Continuous
100
AcDbLine
 10
44.790304
 20
220.916498
 30
0.0
 11
45.52502599999999
 21
219.471035
 31
0.0
  0
ARC
  5
A06D
330
9F16
100
AcDbEntity
  8
1
  6
Continuous
100
AcDbCircle
 10
48.298161
 20
223.1601569999999
 30
0.0
 40
7.487396
100
AcDbArc
 50
233.119947
 51
265.563802
  0
LINE
  5
A06E
330
9F16
100
AcDbEntity
  8
1
  6
Continuous
100
AcDbLine
 10
43.668711
 20
219.9131359999999
 30
0.0
 11
44.110812
 21
219.471035
 31
0.0
  0
LINE
  5
A06F
330
9F16
100
AcDbEntity
  8
1
  6
Continuous
100
AcDbLine
 10
44.749558
 20
220.909737
 30
0.0
 11
42.991526
 21
219.471035
 31
0.0
  0
LINE
  5
A070
330
9F16
100
AcDbEntity
  8
1
  6
Continuous
100
AcDbLine
 10
42.69616099999999
 20
217.971035
 30
0.0
 11
43.80466099999998
 21
217.171035
 31
0.0
  0
LINE
  5
A071
330
9F16
100
AcDbEntity
  8
1
  6
Continuous
100
AcDbLine
 10
43.904661
 20
219.471035
 30
0.0
 11
42.69616099999999
 21
217.971035
 31
0.0
  0
ARC
  5
A072
330
9F16
100
AcDbEntity
  8
1
  6
Continuous
100
AcDbCircle
 10
45.45498099999998
 20
218.0789959999999
 30
0.0
 40
2.888134999999998
100
AcDbArc
 50
98.75362899999997
 51
162.789725
  0
LINE
  5
A073
330
9F16
100
AcDbEntity
  8
1
  6
Continuous
100
AcDbLine
 10
54.510307
 20
219.471035
 30
0.0
 11
53.75859300000001
 21
220.9334899999999
 31
0.0
  0
ARC
  5
A074
330
9F16
100
AcDbEntity
  8
1
  6
Continuous
100
AcDbCircle
 10
48.704661
 20
213.95493
 30
0.0
 40
2.0
100
AcDbArc
 50
93.03983800000002
 51
180.0
  0
LINE
  5
A075
330
9F16
100
AcDbEntity
  8
1
  6
Continuous
100
AcDbLine
 10
50.267666
 20
219.471035
 30
0.0
 11
49.51595199999999
 21
220.9334899999999
 31
0.0
  0
LINE
  5
A076
330
9F16
100
AcDbEntity
  8
1
  6
Continuous
100
AcDbLine
 10
47.439239
 20
219.471035
 30
0.0
 11
46.687525
 21
220.9334899999999
 31
0.0
  0
LINE
  5
A077
330
9F16
100
AcDbEntity
  8
1
  6
Continuous
100
AcDbLine
 10
48.853453
 20
219.471035
 30
0.0
 11
48.101739
 21
220.9334899999999
 31
0.0
  0
LINE
  5
A078
330
9F16
100
AcDbEntity
  8
1
  6
Continuous
100
AcDbLine
 10
45.014239
 20
219.471035
 30
0.0
 11
46.687525
 21
220.9334899999999
 31
0.0
  0
LINE
  5
A079
330
9F16
100
AcDbEntity
  8
1
  6
Continuous
100
AcDbLine
 10
46.928453
 20
219.471035
 30
0.0
 11
48.101739
 21
220.9334899999999
 31
0.0
  0
LINE
  5
A07A
330
9F16
100
AcDbEntity
  8
1
  6
Continuous
100
AcDbLine
 10
48.34266599999999
 20
219.471035
 30
0.0
 11
49.51595199999999
 21
220.9334899999999
 31
0.0
  0
LINE
  5
A07B
330
9F16
100
AcDbEntity
  8
1
  6
Continuous
100
AcDbLine
 10
51.68188
 20
219.471035
 30
0.0
 11
50.930166
 21
220.9334899999999
 31
0.0
  0
LINE
  5
A07C
330
9F16
100
AcDbEntity
  8
1
  6
Continuous
100
AcDbLine
 10
53.09609399999999
 20
219.471035
 30
0.0
 11
52.34438
 21
220.9334899999999
 31
0.0
  0
LINE
  5
A07D
330
9F16
100
AcDbEntity
  8
1
  6
Continuous
100
AcDbLine
 10
49.75687999999999
 20
219.471035
 30
0.0
 11
50.930166
 21
220.9334899999999
 31
0.0
  0
LINE
  5
A07E
330
9F16
100
AcDbEntity
  8
1
  6
Continuous
100
AcDbLine
 10
51.171094
 20
219.471035
 30
0.0
 11
52.34438
 21
220.9334899999999
 31
0.0
  0
LINE
  5
A07F
330
9F16
100
AcDbEntity
  8
1
  6
Continuous
100
AcDbLine
 10
52.58530699999999
 20
219.471035
 30
0.0
 11
53.75859300000001
 21
220.9334899999999
 31
0.0
  0
LINE
  5
A080
330
9F16
100
AcDbEntity
  8
1
  6
Continuous
100
AcDbLine
 10
56.82794799999999
 20
219.471035
 30
0.0
 11
58.001234
 21
220.9334899999999
 31
0.0
  0
LINE
  5
A081
330
9F16
100
AcDbEntity
  8
1
  6
Continuous
100
AcDbLine
 10
55.924521
 20
219.471035
 30
0.0
 11
55.17280699999999
 21
220.9334899999999
 31
0.0
  0
LINE
  5
A082
330
9F16
100
AcDbEntity
  8
1
  6
Continuous
100
AcDbLine
 10
57.338734
 20
219.471035
 30
0.0
 11
56.58701999999999
 21
220.9334899999999
 31
0.0
  0
LINE
  5
A083
330
9F16
100
AcDbEntity
  8
1
  6
Continuous
100
AcDbLine
 10
53.999521
 20
219.471035
 30
0.0
 11
55.17280699999999
 21
220.9334899999999
 31
0.0
  0
LINE
  5
A084
330
9F16
100
AcDbEntity
  8
1
  6
Continuous
100
AcDbLine
 10
55.413734
 20
219.471035
 30
0.0
 11
56.58701999999999
 21
220.9334899999999
 31
0.0
  0
LINE
  5
A085
330
9F16
100
AcDbEntity
  8
1
  6
Continuous
100
AcDbLine
 10
61.581375
 20
219.471035
 30
0.0
 11
60.829661
 21
220.9334899999999
 31
0.0
  0
LINE
  5
A086
330
9F16
100
AcDbEntity
  8
1
  6
Continuous
100
AcDbLine
 10
58.75294799999998
 20
219.471035
 30
0.0
 11
58.001234
 21
220.9334899999999
 31
0.0
  0
LINE
  5
A087
330
9F16
100
AcDbEntity
  8
1
  6
Continuous
100
AcDbLine
 10
60.167161
 20
219.471035
 30
0.0
 11
59.415447
 21
220.9334899999999
 31
0.0
  0
LINE
  5
A088
330
9F16
100
AcDbEntity
  8
1
  6
Continuous
100
AcDbLine
 10
59.65637499999999
 20
219.471035
 30
0.0
 11
60.829661
 21
220.9334899999999
 31
0.0
  0
LINE
  5
A089
330
9F16
100
AcDbEntity
  8
1
  6
Continuous
100
AcDbLine
 10
58.24216100000001
 20
219.471035
 30
0.0
 11
59.415447
 21
220.9334899999999
 31
0.0
  0
LINE
  5
A08A
330
9F16
100
AcDbEntity
  8
1
  6
Continuous
100
AcDbLine
 10
46.89831199999999
 20
225.53349
 30
0.0
 11
45.06252599999998
 21
226.658535
 31
0.0
  0
LINE
  5
A08B
330
9F16
100
AcDbEntity
  8
1
  6
Continuous
100
AcDbLine
 10
45.062525
 20
225.53349
 30
0.0
 11
46.476739
 21
226.658535
 31
0.0
  0
LINE
  5
A08C
330
9F16
100
AcDbEntity
  8
1
  6
Continuous
100
AcDbLine
 10
38.41302999999999
 20
225.53349
 30
0.0
 11
36.577244
 21
226.658535
 31
0.0
  0
LINE
  5
A08D
330
9F16
100
AcDbEntity
  8
1
  6
Continuous
100
AcDbLine
 10
36.577244
 20
225.53349
 30
0.0
 11
37.991458
 21
226.658535
 31
0.0
  0
ARC
  5
A08E
330
9F16
100
AcDbEntity
  8
1
  6
Continuous
100
AcDbCircle
 10
42.454661
 20
224.484035
 30
0.0
 40
6.974499999999999
100
AcDbArc
 50
129.9139999999999
 51
140.0924019999999
  0
LINE
  5
A08F
330
9F16
100
AcDbEntity
  8
1
  6
Continuous
100
AcDbLine
 10
35.654661
 20
228.1585349999998
 30
0.0
 11
36.15466099999999
 21
228.958535
 31
0.0
  0
LINE
  5
A090
330
9F16
100
AcDbEntity
  8
1
  6
Continuous
100
AcDbLine
 10
36.415447
 20
226.1168599999999
 30
0.0
 11
36.99881699999997
 21
225.53349
 31
0.0
  0
LINE
  5
A091
330
9F16
100
AcDbEntity
  8
1
  6
Continuous
100
AcDbLine
 10
36.263453
 20
226.3447439999999
 30
0.0
 11
36.577244
 21
226.658535
 31
0.0
  0
LINE
  5
A092
330
9F16
100
AcDbEntity
  8
1
  6
Continuous
100
AcDbLine
 10
36.204661
 20
226.658535
 30
0.0
 11
36.415447
 21
225.53349
 31
0.0
  0
LINE
  5
A093
330
9F16
100
AcDbEntity
  8
1
  6
Continuous
100
AcDbLine
 10
36.55466099999999
 20
226.658535
 30
0.0
 11
35.654661
 21
228.1585349999998
 31
0.0
  0
ARC
  5
A094
330
9F16
100
AcDbEntity
  8
1
  6
Continuous
100
AcDbCircle
 10
36.41246399999999
 20
233.333535
 30
0.0
 40
3.5
100
AcDbArc
 50
203.578178
 51
270.0
  0
LINE
  5
A095
330
9F16
100
AcDbEntity
  8
1
  6
Continuous
100
AcDbLine
 10
32.204661
 20
234.2335349999999
 30
0.0
 11
32.204661
 21
231.933535
 31
0.0
  0
LINE
  5
A096
330
9F16
100
AcDbEntity
  8
1
  6
Continuous
100
AcDbLine
 10
42.65567100000001
 20
225.53349
 30
0.0
 11
40.819885
 21
226.658535
 31
0.0
  0
LINE
  5
A097
330
9F16
100
AcDbEntity
  8
1
  6
Continuous
100
AcDbLine
 10
40.819885
 20
225.53349
 30
0.0
 11
42.234099
 21
226.658535
 31
0.0
  0
LINE
  5
A098
330
9F16
100
AcDbEntity
  8
1
  6
Continuous
100
AcDbLine
 10
39.827244
 20
225.53349
 30
0.0
 11
37.991458
 21
226.658535
 31
0.0
  0
LINE
  5
A099
330
9F16
100
AcDbEntity
  8
1
  6
Continuous
100
AcDbLine
 10
41.24145699999998
 20
225.53349
 30
0.0
 11
39.40567099999999
 21
226.658535
 31
0.0
  0
LINE
  5
A09A
330
9F16
100
AcDbEntity
  8
1
  6
Continuous
100
AcDbLine
 10
37.99145699999999
 20
225.53349
 30
0.0
 11
39.40567099999999
 21
226.658535
 31
0.0
  0
LINE
  5
A09B
330
9F16
100
AcDbEntity
  8
1
  6
Continuous
100
AcDbLine
 10
39.40567099999999
 20
225.53349
 30
0.0
 11
40.819885
 21
226.658535
 31
0.0
  0
LINE
  5
A09C
330
9F16
100
AcDbEntity
  8
1
  6
Continuous
100
AcDbLine
 10
44.06988499999999
 20
225.53349
 30
0.0
 11
42.234099
 21
226.658535
 31
0.0
  0
LINE
  5
A09D
330
9F16
100
AcDbEntity
  8
1
  6
Continuous
100
AcDbLine
 10
45.48409799999999
 20
225.53349
 30
0.0
 11
43.648312
 21
226.658535
 31
0.0
  0
LINE
  5
A09E
330
9F16
100
AcDbEntity
  8
1
  6
Continuous
100
AcDbLine
 10
42.23409799999997
 20
225.53349
 30
0.0
 11
43.648312
 21
226.658535
 31
0.0
  0
LINE
  5
A09F
330
9F16
100
AcDbEntity
  8
1
  6
Continuous
100
AcDbLine
 10
43.648312
 20
225.53349
 30
0.0
 11
45.06252599999998
 21
226.658535
 31
0.0
  0
LINE
  5
A0A0
330
9F16
100
AcDbEntity
  8
1
  6
Continuous
100
AcDbLine
 10
53.96938000000001
 20
225.53349
 30
0.0
 11
52.133594
 21
226.658535
 31
0.0
  0
LINE
  5
A0A1
330
9F16
100
AcDbEntity
  8
1
  6
Continuous
100
AcDbLine
 10
55.38359299999999
 20
225.53349
 30
0.0
 11
53.54780699999999
 21
226.658535
 31
0.0
  0
LINE
  5
A0A2
330
9F16
100
AcDbEntity
  8
1
  6
Continuous
100
AcDbLine
 10
53.54780699999999
 20
225.53349
 30
0.0
 11
54.96202099999999
 21
226.658535
 31
0.0
  0
LINE
  5
A0A3
330
9F16
100
AcDbEntity
  8
1
  6
Continuous
100
AcDbLine
 10
51.140952
 20
225.53349
 30
0.0
 11
49.305166
 21
226.658535
 31
0.0
  0
LINE
  5
A0A4
330
9F16
100
AcDbEntity
  8
1
  6
Continuous
100
AcDbLine
 10
49.305166
 20
225.53349
 30
0.0
 11
50.71938
 21
226.658535
 31
0.0
  0
LINE
  5
A0A5
330
9F16
100
AcDbEntity
  8
1
  6
Continuous
100
AcDbLine
 10
48.312525
 20
225.53349
 30
0.0
 11
46.476739
 21
226.658535
 31
0.0
  0
LINE
  5
A0A6
330
9F16
100
AcDbEntity
  8
1
  6
Continuous
100
AcDbLine
 10
49.726739
 20
225.53349
 30
0.0
 11
47.890953
 21
226.658535
 31
0.0
  0
LINE
  5
A0A7
330
9F16
100
AcDbEntity
  8
1
  6
Continuous
100
AcDbLine
 10
46.476739
 20
225.53349
 30
0.0
 11
47.890953
 21
226.658535
 31
0.0
  0
LINE
  5
A0A8
330
9F16
100
AcDbEntity
  8
1
  6
Continuous
100
AcDbLine
 10
47.890952
 20
225.53349
 30
0.0
 11
49.305166
 21
226.658535
 31
0.0
  0
LINE
  5
A0A9
330
9F16
100
AcDbEntity
  8
1
  6
Continuous
100
AcDbLine
 10
52.55516599999999
 20
225.53349
 30
0.0
 11
50.71938
 21
226.658535
 31
0.0
  0
LINE
  5
A0AA
330
9F16
100
AcDbEntity
  8
1
  6
Continuous
100
AcDbLine
 10
50.71938
 20
225.53349
 30
0.0
 11
52.133594
 21
226.658535
 31
0.0
  0
LINE
  5
A0AB
330
9F16
100
AcDbEntity
  8
1
  6
Continuous
100
AcDbLine
 10
52.133593
 20
225.53349
 30
0.0
 11
53.54780699999999
 21
226.658535
 31
0.0
  0
LINE
  5
A0AC
330
9F16
100
AcDbEntity
  8
1
  6
Continuous
100
AcDbLine
 10
58.21201999999999
 20
225.53349
 30
0.0
 11
56.37623399999998
 21
226.658535
 31
0.0
  0
LINE
  5
A0AD
330
9F16
100
AcDbEntity
  8
1
  6
Continuous
100
AcDbLine
 10
56.37623399999998
 20
225.53349
 30
0.0
 11
57.790448
 21
226.658535
 31
0.0
  0
LINE
  5
A0AE
330
9F16
100
AcDbEntity
  8
1
  6
Continuous
100
AcDbLine
 10
57.790447
 20
225.53349
 30
0.0
 11
59.204661
 21
226.658535
 31
0.0
  0
LINE
  5
A0AF
330
9F16
100
AcDbEntity
  8
1
  6
Continuous
100
AcDbLine
 10
56.79780699999999
 20
225.53349
 30
0.0
 11
54.96202099999999
 21
226.658535
 31
0.0
  0
LINE
  5
A0B0
330
9F16
100
AcDbEntity
  8
1
  6
Continuous
100
AcDbLine
 10
54.96202
 20
225.53349
 30
0.0
 11
56.37623399999998
 21
226.658535
 31
0.0
  0
LINE
  5
A0B1
330
9F16
100
AcDbEntity
  8
1
  6
Continuous
100
AcDbLine
 10
59.626234
 20
225.53349
 30
0.0
 11
57.790448
 21
226.658535
 31
0.0
  0
LINE
  5
A0B2
330
9F16
100
AcDbEntity
  8
1
  6
Continuous
100
AcDbLine
 10
61.040447
 20
225.53349
 30
0.0
 11
59.204661
 21
226.658535
 31
0.0
  0
LINE
  5
A0B3
330
9F16
100
AcDbEntity
  8
1
  6
Continuous
100
AcDbLine
 10
59.204661
 20
225.53349
 30
0.0
 11
60.618875
 21
226.658535
 31
0.0
  0
ARC
  5
A0B4
330
9F16
100
AcDbEntity
  8
1
  6
Continuous
100
AcDbCircle
 10
73.410515
 20
218.6392559999999
 30
0.0
 40
4.612044999999998
100
AcDbArc
 50
3.658345999999998
 51
84.96300599999997
  0
LINE
  5
A0B5
330
9F16
100
AcDbEntity
  8
1
  6
Continuous
100
AcDbLine
 10
69.55587
 20
219.471035
 30
0.0
 11
71.229156
 21
220.9334899999999
 31
0.0
  0
ARC
  5
A0B6
330
9F16
100
AcDbEntity
  8
1
  6
Continuous
100
AcDbCircle
 10
69.704661
 20
213.95493
 30
0.0
 40
2.0
100
AcDbArc
 50
0.0
 51
86.96016199999998
  0
LINE
  5
A0B7
330
9F16
100
AcDbEntity
  8
1
  6
Continuous
100
AcDbLine
 10
65.31322900000001
 20
219.471035
 30
0.0
 11
66.48651499999998
 21
220.9334899999999
 31
0.0
  0
LINE
  5
A0B8
330
9F16
100
AcDbEntity
  8
1
  6
Continuous
100
AcDbLine
 10
65.824016
 20
219.471035
 30
0.0
 11
65.07230200000001
 21
220.9334899999999
 31
0.0
  0
LINE
  5
A0B9
330
9F16
100
AcDbEntity
  8
1
  6
Continuous
100
AcDbLine
 10
64.409802
 20
219.471035
 30
0.0
 11
63.65808799999999
 21
220.9334899999999
 31
0.0
  0
LINE
  5
A0BA
330
9F16
100
AcDbEntity
  8
1
  6
Continuous
100
AcDbLine
 10
62.99558799999999
 20
219.471035
 30
0.0
 11
62.243874
 21
220.9334899999999
 31
0.0
  0
LINE
  5
A0BB
330
9F16
100
AcDbEntity
  8
1
  6
Continuous
100
AcDbLine
 10
63.899016
 20
219.471035
 30
0.0
 11
65.07230200000001
 21
220.9334899999999
 31
0.0
  0
LINE
  5
A0BC
330
9F16
100
AcDbEntity
  8
1
  6
Continuous
100
AcDbLine
 10
62.484802
 20
219.471035
 30
0.0
 11
63.65808799999999
 21
220.9334899999999
 31
0.0
  0
LINE
  5
A0BD
330
9F16
100
AcDbEntity
  8
1
  6
Continuous
100
AcDbLine
 10
70.56665600000002
 20
219.471035
 30
0.0
 11
69.314942
 21
220.9334899999999
 31
0.0
  0
LINE
  5
A0BE
330
9F16
100
AcDbEntity
  8
1
  6
Continuous
100
AcDbLine
 10
68.652443
 20
219.471035
 30
0.0
 11
67.900729
 21
220.9334899999999
 31
0.0
  0
LINE
  5
A0BF
330
9F16
100
AcDbEntity
  8
1
  6
Continuous
100
AcDbLine
 10
67.238229
 20
219.471035
 30
0.0
 11
66.48651499999998
 21
220.9334899999999
 31
0.0
  0
LINE
  5
A0C0
330
9F16
100
AcDbEntity
  8
1
  6
Continuous
100
AcDbLine
 10
68.14165600000001
 20
219.471035
 30
0.0
 11
69.314942
 21
220.9334899999999
 31
0.0
  0
LINE
  5
A0C1
330
9F16
100
AcDbEntity
  8
1
  6
Continuous
100
AcDbLine
 10
66.72744300000001
 20
219.471035
 30
0.0
 11
67.900729
 21
220.9334899999999
 31
0.0
  0
ARC
  5
A0C2
330
9F16
100
AcDbEntity
  8
1
  6
Continuous
100
AcDbCircle
 10
70.601229
 20
223.52157
 30
0.0
 40
7.848514999999999
100
AcDbArc
 50
270.9161379999998
 51
305.988185
  0
LINE
  5
A0C3
330
9F16
100
AcDbEntity
  8
1
  6
Continuous
100
AcDbLine
 10
75.41779699999998
 20
219.471035
 30
0.0
 11
74.14171500000001
 21
220.84474
 31
0.0
  0
LINE
  5
A0C4
330
9F16
100
AcDbEntity
  8
1
  6
Continuous
100
AcDbLine
 10
74.298511
 20
219.471035
 30
0.0
 11
75.34200799999998
 21
219.910147
 31
0.0
  0
LINE
  5
A0C5
330
9F16
100
AcDbEntity
  8
1
  6
Continuous
100
AcDbLine
 10
75.713161
 20
217.971035
 30
0.0
 11
75.21316099999999
 21
217.171035
 31
0.0
  0
LINE
  5
A0C6
330
9F16
100
AcDbEntity
  8
1
  6
Continuous
100
AcDbLine
 10
74.50466099999998
 20
219.471035
 30
0.0
 11
75.713161
 21
217.971035
 31
0.0
  0
ARC
  5
A0C7
330
9F16
100
AcDbEntity
  8
1
  6
Continuous
100
AcDbCircle
 10
73.35485
 20
218.596111
 30
0.0
 40
2.382327999999998
100
AcDbArc
 50
8.142542999999998
 51
78.852283
  0
LINE
  5
A0C8
330
9F16
100
AcDbEntity
  8
1
  6
Continuous
100
AcDbLine
 10
73.395083
 20
219.471035
 30
0.0
 11
72.64336899999998
 21
220.9334899999999
 31
0.0
  0
LINE
  5
A0C9
330
9F16
100
AcDbEntity
  8
1
  6
Continuous
100
AcDbLine
 10
71.98087
 20
219.471035
 30
0.0
 11
71.229156
 21
220.9334899999999
 31
0.0
  0
LINE
  5
A0CA
330
9F16
100
AcDbEntity
  8
1
  6
Continuous
100
AcDbLine
 10
72.884297
 20
219.471035
 30
0.0
 11
74.015416
 21
220.8850279999999
 31
0.0
  0
LINE
  5
A0CB
330
9F16
100
AcDbEntity
  8
1
  6
Continuous
100
AcDbLine
 10
71.470083
 20
219.471035
 30
0.0
 11
72.64336899999998
 21
220.9334899999999
 31
0.0
  0
LINE
  5
A0CC
330
9F16
100
AcDbEntity
  8
1
  6
Continuous
100
AcDbLine
 10
79.425224
 20
225.53349
 30
0.0
 11
77.589438
 21
226.658535
 31
0.0
  0
LINE
  5
A0CD
330
9F16
100
AcDbEntity
  8
1
  6
Continuous
100
AcDbLine
 10
77.589437
 20
225.53349
 30
0.0
 11
79.00365100000001
 21
226.658535
 31
0.0
  0
LINE
  5
A0CE
330
9F16
100
AcDbEntity
  8
1
  6
Continuous
100
AcDbLine
 10
70.939942
 20
225.53349
 30
0.0
 11
69.104156
 21
226.658535
 31
0.0
  0
LINE
  5
A0CF
330
9F16
100
AcDbEntity
  8
1
  6
Continuous
100
AcDbLine
 10
69.104156
 20
225.53349
 30
0.0
 11
70.51836999999998
 21
226.658535
 31
0.0
  0
LINE
  5
A0D0
330
9F16
100
AcDbEntity
  8
1
  6
Continuous
100
AcDbLine
 10
66.697302
 20
225.53349
 30
0.0
 11
64.86151600000001
 21
226.658535
 31
0.0
  0
LINE
  5
A0D1
330
9F16
100
AcDbEntity
  8
1
  6
Continuous
100
AcDbLine
 10
64.861515
 20
225.53349
 30
0.0
 11
66.275729
 21
226.658535
 31
0.0
  0
LINE
  5
A0D2
330
9F16
100
AcDbEntity
  8
1
  6
Continuous
100
AcDbLine
 10
65.28308800000001
 20
225.53349
 30
0.0
 11
63.447302
 21
226.658535
 31
0.0
  0
LINE
  5
A0D3
330
9F16
100
AcDbEntity
  8
1
  6
Continuous
100
AcDbLine
 10
63.86887399999999
 20
225.53349
 30
0.0
 11
62.033088
 21
226.658535
 31
0.0
  0
LINE
  5
A0D4
330
9F16
100
AcDbEntity
  8
1
  6
Continuous
100
AcDbLine
 10
63.447302
 20
225.53349
 30
0.0
 11
64.86151600000001
 21
226.658535
 31
0.0
  0
LINE
  5
A0D5
330
9F16
100
AcDbEntity
  8
1
  6
Continuous
100
AcDbLine
 10
69.52572899999998
 20
225.53349
 30
0.0
 11
67.689943
 21
226.658535
 31
0.0
  0
LINE
  5
A0D6
330
9F16
100
AcDbEntity
  8
1
  6
Continuous
100
AcDbLine
 10
68.111515
 20
225.53349
 30
0.0
 11
66.275729
 21
226.658535
 31
0.0
  0
LINE
  5
A0D7
330
9F16
100
AcDbEntity
  8
1
  6
Continuous
100
AcDbLine
 10
67.689942
 20
225.53349
 30
0.0
 11
69.104156
 21
226.658535
 31
0.0
  0
LINE
  5
A0D8
330
9F16
100
AcDbEntity
  8
1
  6
Continuous
100
AcDbLine
 10
66.275729
 20
225.53349
 30
0.0
 11
67.689943
 21
226.658535
 31
0.0
  0
LINE
  5
A0D9
330
9F16
100
AcDbEntity
  8
1
  6
Continuous
100
AcDbLine
 10
75.18258299999998
 20
225.53349
 30
0.0
 11
73.34679699999998
 21
226.658535
 31
0.0
  0
LINE
  5
A0DA
330
9F16
100
AcDbEntity
  8
1
  6
Continuous
100
AcDbLine
 10
73.34679699999998
 20
225.53349
 30
0.0
 11
74.76101099999998
 21
226.658535
 31
0.0
  0
LINE
  5
A0DB
330
9F16
100
AcDbEntity
  8
1
  6
Continuous
100
AcDbLine
 10
73.76836899999998
 20
225.53349
 30
0.0
 11
71.932583
 21
226.658535
 31
0.0
  0
LINE
  5
A0DC
330
9F16
100
AcDbEntity
  8
1
  6
Continuous
100
AcDbLine
 10
72.354156
 20
225.53349
 30
0.0
 11
70.51836999999998
 21
226.658535
 31
0.0
  0
LINE
  5
A0DD
330
9F16
100
AcDbEntity
  8
1
  6
Continuous
100
AcDbLine
 10
71.932583
 20
225.53349
 30
0.0
 11
73.34679699999998
 21
226.658535
 31
0.0
  0
LINE
  5
A0DE
330
9F16
100
AcDbEntity
  8
1
  6
Continuous
100
AcDbLine
 10
70.51836899999996
 20
225.53349
 30
0.0
 11
71.932583
 21
226.658535
 31
0.0
  0
LINE
  5
A0DF
330
9F16
100
AcDbEntity
  8
1
  6
Continuous
100
AcDbLine
 10
78.01101
 20
225.53349
 30
0.0
 11
76.175224
 21
226.658535
 31
0.0
  0
LINE
  5
A0E0
330
9F16
100
AcDbEntity
  8
1
  6
Continuous
100
AcDbLine
 10
76.59679699999998
 20
225.53349
 30
0.0
 11
74.76101099999998
 21
226.658535
 31
0.0
  0
LINE
  5
A0E1
330
9F16
100
AcDbEntity
  8
1
  6
Continuous
100
AcDbLine
 10
76.175224
 20
225.53349
 30
0.0
 11
77.589438
 21
226.658535
 31
0.0
  0
LINE
  5
A0E2
330
9F16
100
AcDbEntity
  8
1
  6
Continuous
100
AcDbLine
 10
74.76100999999998
 20
225.53349
 30
0.0
 11
76.175224
 21
226.658535
 31
0.0
  0
LINE
  5
A0E3
330
9F16
100
AcDbEntity
  8
1
  6
Continuous
100
AcDbLine
 10
82.754661
 20
228.1585349999998
 30
0.0
 11
82.254661
 21
228.958535
 31
0.0
  0
LINE
  5
A0E4
330
9F16
100
AcDbEntity
  8
1
  6
Continuous
100
AcDbLine
 10
81.85466099999997
 20
226.658535
 30
0.0
 11
82.754661
 21
228.1585349999998
 31
0.0
  0
LINE
  5
A0E5
330
9F16
100
AcDbEntity
  8
1
  6
Continuous
100
AcDbLine
 10
82.20466100000001
 20
226.285952
 30
0.0
 11
81.83207800000003
 21
226.658535
 31
0.0
  0
LINE
  5
A0E6
330
9F16
100
AcDbEntity
  8
1
  6
Continuous
100
AcDbLine
 10
82.25365100000002
 20
225.53349
 30
0.0
 11
80.417865
 21
226.658535
 31
0.0
  0
LINE
  5
A0E7
330
9F16
100
AcDbEntity
  8
1
  6
Continuous
100
AcDbLine
 10
80.839437
 20
225.53349
 30
0.0
 11
79.00365100000001
 21
226.658535
 31
0.0
  0
LINE
  5
A0E8
330
9F16
100
AcDbEntity
  8
1
  6
Continuous
100
AcDbLine
 10
81.83207800000003
 20
225.53349
 30
0.0
 11
82.323395
 21
226.0248069999999
 31
0.0
  0
LINE
  5
A0E9
330
9F16
100
AcDbEntity
  8
1
  6
Continuous
100
AcDbLine
 10
80.41786399999997
 20
225.53349
 30
0.0
 11
81.83207800000003
 21
226.658535
 31
0.0
  0
LINE
  5
A0EA
330
9F16
100
AcDbEntity
  8
1
  6
Continuous
100
AcDbLine
 10
79.00365100000001
 20
225.53349
 30
0.0
 11
80.417865
 21
226.658535
 31
0.0
  0
LINE
  5
A0EB
330
9F16
100
AcDbEntity
  8
1
  6
Continuous
100
AcDbLine
 10
82.20466100000001
 20
226.658535
 30
0.0
 11
82.415447
 21
225.53349
 31
0.0
  0
ARC
  5
A0EC
330
9F16
100
AcDbEntity
  8
1
  6
Continuous
100
AcDbCircle
 10
81.99685800000002
 20
233.333535
 30
0.0
 40
3.5
100
AcDbArc
 50
270.0
 51
336.421822
  0
ARC
  5
A0ED
330
9F16
100
AcDbEntity
  8
1
  6
Continuous
100
AcDbCircle
 10
75.954661
 20
224.484035
 30
0.0
 40
6.974499999999999
100
AcDbArc
 50
39.907598
 51
50.08600000000002
  0
LINE
  5
A0EE
330
9F16
100
AcDbEntity
  8
1
  6
Continuous
100
AcDbLine
 10
86.20466099999999
 20
234.2335349999999
 30
0.0
 11
86.20466099999999
 21
231.933535
 31
0.0
  0
LINE
  5
A0EF
330
9F16
100
AcDbEntity
  8
1
  6
Continuous
100
AcDbLine
 10
265.6533759999999
 20
222.1124899999999
 30
0.0
 11
265.6533759999999
 21
192.498041
 31
0.0
  0
ARC
  5
A0F0
330
9F16
100
AcDbEntity
  8
1
  6
Continuous
100
AcDbCircle
 10
311.732376
 20
222.1124899999999
 30
0.0
 40
3.420999999999998
100
AcDbArc
 50
0.0
 51
90.0
  0
ARC
  5
A0F1
330
9F16
100
AcDbEntity
  8
1
  6
Continuous
100
AcDbCircle
 10
269.0743759999999
 20
222.1124899999999
 30
0.0
 40
3.420999999999998
100
AcDbArc
 50
90.0
 51
180.0
  0
ARC
  5
A0F2
330
9F16
100
AcDbEntity
  8
1
  6
Continuous
100
AcDbCircle
 10
163.6692469999998
 20
177.7334899999999
 30
0.0
 40
10.5
100
AcDbArc
 50
170.99538
 51
328.8638009999999
  0
ARC
  5
A0F3
330
9F16
100
AcDbEntity
  8
1
  6
Continuous
100
AcDbCircle
 10
205.563346
 20
207.9334899999998
 30
0.0
 40
10.0
100
AcDbArc
 50
90.0
 51
148.863801
  0
LINE
  5
A0F4
330
9F16
100
AcDbEntity
  8
4
  6
CENTER
100
AcDbLine
 10
41.204661
 20
239.2335349999999
 30
0.0
 11
41.204661
 21
226.9335349999999
 31
0.0
  0
LINE
  5
A0F5
330
9F16
100
AcDbEntity
  8
4
  6
CENTER
100
AcDbLine
 10
77.204661
 20
239.2335349999999
 30
0.0
 11
77.204661
 21
226.9335349999999
 31
0.0
  0
CIRCLE
  5
A0F6
330
9F16
100
AcDbEntity
  8
1
  6
Continuous
100
AcDbCircle
 10
163.6692469999998
 20
178.7334899999999
 30
0.0
 40
5.0
  0
LINE
  5
A0F7
330
9F16
100
AcDbEntity
  8
1
  6
Continuous
100
AcDbLine
 10
197.003941
 20
213.104232
 30
0.0
 11
172.6566229999999
 21
172.30421
 31
0.0
  0
LINE
  5
A0F8
330
9F16
100
AcDbEntity
  8
1
  6
Continuous
100
AcDbLine
 10
159.9484809999999
 20
223.23349
 30
0.0
 11
153.2169749999999
 21
178.7334899999999
 31
0.0
  0
LINE
  5
A0F9
330
9F16
100
AcDbEntity
  8
1
  6
Continuous
100
AcDbLine
 10
83.954661
 20
222.0714899999999
 30
0.0
 11
83.954661
 21
192.4980859999998
 31
0.0
  0
LINE
  5
A0FA
330
9F16
100
AcDbEntity
  8
1
  6
Continuous
100
AcDbLine
 10
34.454661
 20
222.0714899999999
 30
0.0
 11
34.454661
 21
192.4980859999998
 31
0.0
  0
ARC
  5
A0FB
330
9F16
100
AcDbEntity
  8
1
  6
Continuous
100
AcDbCircle
 10
37.916661
 20
222.0714899999999
 30
0.0
 40
3.461999999999998
100
AcDbArc
 50
90.0
 51
180.0
  0
ARC
  5
A0FC
330
9F16
100
AcDbEntity
  8
1
  6
Continuous
100
AcDbCircle
 10
80.492661
 20
222.0714899999999
 30
0.0
 40
3.461999999999998
100
AcDbArc
 50
0.0
 51
90.0
  0
ARC
  5
A0FD
330
9F16
100
AcDbEntity
  8
1
  6
Continuous
100
AcDbCircle
 10
79.454661
 20
192.4980859999998
 30
0.0
 40
45.0
100
AcDbArc
 50
207.47971
 51
209.776794
  0
LINE
  5
A0FE
330
9F16
100
AcDbEntity
  8
4
  6
CENTER
100
AcDbLine
 10
188.6691719999998
 20
106.601209
 30
0.0
 11
188.6691719999998
 21
42.60120899999999
 31
0.0
  0
LINE
  5
A0FF
330
9F16
100
AcDbEntity
  8
1
  6
Continuous
100
AcDbLine
 10
216.669172
 20
47.60120899999999
 30
0.0
 11
160.669172
 21
47.60120899999999
 31
0.0
  0
LINE
  5
A100
330
9F16
100
AcDbEntity
  8
1
  6
Continuous
100
AcDbLine
 10
216.669172
 20
101.601209
 30
0.0
 11
160.669172
 21
101.601209
 31
0.0
  0
LINE
  5
A101
330
9F16
100
AcDbEntity
  8
4
  6
CENTER
100
AcDbLine
 10
167.919172
 20
92.601209
 30
0.0
 11
155.419172
 21
92.601209
 31
0.0
  0
LINE
  5
A102
330
9F16
100
AcDbEntity
  8
4
  6
CENTER
100
AcDbLine
 10
167.919172
 20
56.60120899999999
 30
0.0
 11
155.419172
 21
56.60120899999999
 31
0.0
  0
LINE
  5
A103
330
9F16
100
AcDbEntity
  8
4
  6
CENTER
100
AcDbLine
 10
228.9691719999999
 20
74.60120899999998
 30
0.0
 11
121.1692379999998
 21
74.60120899999998
 31
0.0
  0
LINE
  5
A104
330
9F16
100
AcDbEntity
  8
4
  6
CENTER
100
AcDbLine
 10
161.669172
 20
98.851209
 30
0.0
 11
161.669172
 21
86.35120899999998
 31
0.0
  0
LINE
  5
A105
330
9F16
100
AcDbEntity
  8
1
  6
Continuous
100
AcDbLine
 10
153.669172
 20
94.60120899999997
 30
0.0
 11
153.669172
 21
93.409709
 31
0.0
  0
LINE
  5
A106
330
9F16
100
AcDbEntity
  8
1
  6
Continuous
100
AcDbLine
 10
153.4691719999998
 20
93.409709
 30
0.0
 11
153.4691719999998
 21
91.10970899999999
 31
0.0
  0
ARC
  5
A107
330
9F16
100
AcDbEntity
  8
1
  6
Continuous
100
AcDbCircle
 10
160.669172
 20
94.60120899999997
 30
0.0
 40
7.0
100
AcDbArc
 50
90.0
 51
180.0
  0
ARC
  5
A108
330
9F16
100
AcDbEntity
  8
1
  6
Continuous
100
AcDbCircle
 10
161.669172
 20
92.601209
 30
0.0
 40
3.25
100
AcDbArc
 50
81.82451699999999
 51
121.496245
  0
LINE
  5
A109
330
9F16
100
AcDbEntity
  8
4
  6
CENTER
100
AcDbLine
 10
161.669172
 20
62.85120899999999
 30
0.0
 11
161.669172
 21
50.35120899999999
 31
0.0
  0
LINE
  5
A10A
330
9F16
100
AcDbEntity
  8
1
  6
Continuous
100
AcDbLine
 10
153.4691719999998
 20
58.092709
 30
0.0
 11
153.4691719999998
 21
55.792709
 31
0.0
  0
ARC
  5
A10B
330
9F16
100
AcDbEntity
  8
1
  6
Continuous
100
AcDbCircle
 10
160.669172
 20
54.60120899999999
 30
0.0
 40
7.0
100
AcDbArc
 50
180.0
 51
270.0
  0
ARC
  5
A10C
330
9F16
100
AcDbEntity
  8
1
  6
Continuous
100
AcDbCircle
 10
161.669172
 20
56.60120899999999
 30
0.0
 40
3.25
100
AcDbArc
 50
143.8042269999999
 51
152.6823629999999
  0
LINE
  5
A10D
330
9F16
100
AcDbEntity
  8
1
  6
Continuous
100
AcDbLine
 10
223.669172
 20
94.60120899999997
 30
0.0
 11
223.669172
 21
54.60120899999999
 31
0.0
  0
LINE
  5
A10E
330
9F16
100
AcDbEntity
  8
4
  6
CENTER
100
AcDbLine
 10
215.669172
 20
98.851209
 30
0.0
 11
215.669172
 21
86.35120899999998
 31
0.0
  0
CIRCLE
  5
A10F
330
9F16
100
AcDbEntity
  8
1
  6
Continuous
100
AcDbCircle
 10
215.669172
 20
92.601209
 30
0.0
 40
3.25
  0
LINE
  5
A110
330
9F16
100
AcDbEntity
  8
4
  6
CENTER
100
AcDbLine
 10
221.919172
 20
92.601209
 30
0.0
 11
209.4191719999999
 21
92.601209
 31
0.0
  0
ARC
  5
A111
330
9F16
100
AcDbEntity
  8
1
  6
Continuous
100
AcDbCircle
 10
216.669172
 20
94.60120899999997
 30
0.0
 40
7.0
100
AcDbArc
 50
0.0
 51
90.0
  0
LINE
  5
A112
330
9F16
100
AcDbEntity
  8
4
  6
CENTER
100
AcDbLine
 10
221.919172
 20
56.60120899999999
 30
0.0
 11
209.4191719999999
 21
56.60120899999999
 31
0.0
  0
CIRCLE
  5
A113
330
9F16
100
AcDbEntity
  8
1
  6
Continuous
100
AcDbCircle
 10
215.669172
 20
56.60120899999999
 30
0.0
 40
3.25
  0
LINE
  5
A114
330
9F16
100
AcDbEntity
  8
4
  6
CENTER
100
AcDbLine
 10
215.669172
 20
62.85120899999999
 30
0.0
 11
215.669172
 21
50.35120899999999
 31
0.0
  0
ARC
  5
A115
330
9F16
100
AcDbEntity
  8
1
  6
Continuous
100
AcDbCircle
 10
216.669172
 20
54.60120899999999
 30
0.0
 40
7.0
100
AcDbArc
 50
270.0
 51
0.0
  0
LINE
  5
A116
330
9F16
100
AcDbEntity
  8
1
  6
Continuous
100
AcDbLine
 10
383.80281
 20
213.104232
 30
0.0
 11
408.150128
 21
172.30421
 31
0.0
  0
ARC
  5
A117
330
9F16
100
AcDbEntity
  8
1
  6
Continuous
100
AcDbCircle
 10
417.137504
 20
177.7334899999999
 30
0.0
 40
10.5
100
AcDbArc
 50
211.136199
 51
9.004619999999997
  0
LINE
  5
A118
330
9F16
100
AcDbEntity
  8
4
  6
CENTER
100
AcDbLine
 10
417.137504
 20
136.23349
 30
0.0
 11
417.137504
 21
219.23349
 31
0.0
  0
ARC
  5
A119
330
9F16
100
AcDbEntity
  8
1
  6
Continuous
100
AcDbCircle
 10
417.137504
 20
178.7334899999999
 30
0.0
 40
30.0
100
AcDbArc
 50
142.3619559999998
 51
78.45124100000003
  0
ARC
  5
A11A
330
9F16
100
AcDbEntity
  8
1
  6
Continuous
100
AcDbCircle
 10
417.137504
 20
178.7334899999999
 30
0.0
 40
37.5
100
AcDbArc
 50
137.903804
 51
82.60460999999997
  0
LINE
  5
A11B
330
9F16
100
AcDbEntity
  8
4
  6
CENTER
100
AcDbLine
 10
374.6375039999999
 20
178.7334899999999
 30
0.0
 11
459.6375039999998
 21
178.7334899999999
 31
0.0
  0
LINE
  5
A11C
330
9F16
100
AcDbEntity
  8
1
  6
Continuous
100
AcDbLine
 10
389.5198639999999
 20
226.65849
 30
0.0
 11
387.8948639999999
 21
225.53349
 31
0.0
  0
LINE
  5
A11D
330
9F16
100
AcDbEntity
  8
1
  6
Continuous
100
AcDbLine
 10
390.934077
 20
226.65849
 30
0.0
 11
389.309077
 21
225.53349
 31
0.0
  0
LINE
  5
A11E
330
9F16
100
AcDbEntity
  8
1
  6
Continuous
100
AcDbLine
 10
389.098291
 20
226.65849
 30
0.0
 11
390.723291
 21
225.53349
 31
0.0
  0
LINE
  5
A11F
330
9F16
100
AcDbEntity
  8
1
  6
Continuous
100
AcDbLine
 10
369.137504
 20
225.53349
 30
0.0
 11
415.1375039999998
 21
225.53349
 31
0.0
  0
LINE
  5
A120
330
9F16
100
AcDbEntity
  8
1
  6
Continuous
100
AcDbLine
 10
369.137504
 20
226.65849
 30
0.0
 11
415.1375039999998
 21
226.65849
 31
0.0
  0
LINE
  5
A121
330
9F16
100
AcDbEntity
  8
1
  6
Continuous
100
AcDbLine
 10
369.087504
 20
228.9584899999999
 30
0.0
 11
415.187504
 21
228.9584899999999
 31
0.0
  0
LINE
  5
A122
330
9F16
100
AcDbEntity
  8
1
  6
Continuous
100
AcDbLine
 10
369.3453069999998
 20
229.8334899999999
 30
0.0
 11
414.9297009999998
 21
229.8334899999999
 31
0.0
  0
LINE
  5
A123
330
9F16
100
AcDbEntity
  8
1
  6
Continuous
100
AcDbLine
 10
357.1375039999999
 20
231.9334899999998
 30
0.0
 11
427.1375039999998
 21
231.9334899999998
 31
0.0
  0
LINE
  5
A124
330
9F16
100
AcDbEntity
  8
1
  6
Continuous
100
AcDbLine
 10
357.1375039999999
 20
234.2334899999999
 30
0.0
 11
427.1375039999998
 21
234.2334899999999
 31
0.0
  0
LINE
  5
A125
330
9F16
100
AcDbEntity
  8
4
  6
CENTER
100
AcDbLine
 10
392.137504
 20
239.2334899999999
 30
0.0
 11
392.137504
 21
206.425602
 31
0.0
  0
LINE
  5
A126
330
9F16
100
AcDbEntity
  8
1
  6
Continuous
100
AcDbLine
 10
420.85827
 20
223.23349
 30
0.0
 11
427.5897759999998
 21
178.7334899999999
 31
0.0
  0
LINE
  5
A127
330
9F16
100
AcDbEntity
  8
1
  6
Continuous
100
AcDbLine
 10
421.206191
 20
220.9334899999999
 30
0.0
 11
424.1375039999998
 21
220.9334899999999
 31
0.0
  0
LINE
  5
A128
330
9F16
100
AcDbEntity
  8
1
  6
Continuous
100
AcDbLine
 10
410.1375039999998
 20
223.23349
 30
0.0
 11
424.1375039999998
 21
223.23349
 31
0.0
  0
LINE
  5
A129
330
9F16
100
AcDbEntity
  8
1
  6
Continuous
100
AcDbLine
 10
424.1375039999998
 20
223.23349
 30
0.0
 11
424.1375039999998
 21
220.9334899999999
 31
0.0
  0
LINE
  5
A12A
330
9F16
100
AcDbEntity
  8
1
  6
Continuous
100
AcDbLine
 10
427.1375039999998
 20
234.2334899999999
 30
0.0
 11
427.1375039999998
 21
231.9334899999998
 31
0.0
  0
LINE
  5
A12B
330
9F16
100
AcDbEntity
  8
1
  6
Continuous
100
AcDbLine
 10
406.4904259999998
 20
226.65849
 30
0.0
 11
404.8654259999998
 21
225.53349
 31
0.0
  0
LINE
  5
A12C
330
9F16
100
AcDbEntity
  8
1
  6
Continuous
100
AcDbLine
 10
404.6546399999998
 20
226.65849
 30
0.0
 11
406.2796399999998
 21
225.53349
 31
0.0
  0
LINE
  5
A12D
330
9F16
100
AcDbEntity
  8
1
  6
Continuous
100
AcDbLine
 10
414.9757079999998
 20
226.65849
 30
0.0
 11
413.350708
 21
225.53349
 31
0.0
  0
LINE
  5
A12E
330
9F16
100
AcDbEntity
  8
1
  6
Continuous
100
AcDbLine
 10
413.139921
 20
226.65849
 30
0.0
 11
414.7649209999998
 21
225.53349
 31
0.0
  0
ARC
  5
A12F
330
9F16
100
AcDbEntity
  8
1
  6
Continuous
100
AcDbCircle
 10
408.8875039999998
 20
224.4839899999998
 30
0.0
 40
6.974499999999999
100
AcDbArc
 50
39.907598
 51
50.08600000000002
  0
LINE
  5
A130
330
9F16
100
AcDbEntity
  8
1
  6
Continuous
100
AcDbLine
 10
415.1375039999998
 20
226.65849
 30
0.0
 11
415.1375039999998
 21
225.53349
 31
0.0
  0
LINE
  5
A131
330
9F16
100
AcDbEntity
  8
1
  6
Continuous
100
AcDbLine
 10
415.1375039999998
 20
226.075121
 30
0.0
 11
414.554135
 21
226.65849
 31
0.0
  0
LINE
  5
A132
330
9F16
100
AcDbEntity
  8
1
  6
Continuous
100
AcDbLine
 10
407.90464
 20
226.65849
 30
0.0
 11
406.2796399999998
 21
225.53349
 31
0.0
  0
LINE
  5
A133
330
9F16
100
AcDbEntity
  8
1
  6
Continuous
100
AcDbLine
 10
407.4830669999998
 20
226.65849
 30
0.0
 11
409.108067
 21
225.53349
 31
0.0
  0
LINE
  5
A134
330
9F16
100
AcDbEntity
  8
1
  6
Continuous
100
AcDbLine
 10
406.068854
 20
226.65849
 30
0.0
 11
407.6938539999998
 21
225.53349
 31
0.0
  0
LINE
  5
A135
330
9F16
100
AcDbEntity
  8
1
  6
Continuous
100
AcDbLine
 10
412.147281
 20
226.65849
 30
0.0
 11
410.5222809999999
 21
225.53349
 31
0.0
  0
LINE
  5
A136
330
9F16
100
AcDbEntity
  8
1
  6
Continuous
100
AcDbLine
 10
410.311494
 20
226.65849
 30
0.0
 11
411.9364939999998
 21
225.53349
 31
0.0
  0
LINE
  5
A137
330
9F16
100
AcDbEntity
  8
1
  6
Continuous
100
AcDbLine
 10
413.5614939999999
 20
226.65849
 30
0.0
 11
411.9364939999998
 21
225.53349
 31
0.0
  0
LINE
  5
A138
330
9F16
100
AcDbEntity
  8
1
  6
Continuous
100
AcDbLine
 10
411.7257079999998
 20
226.65849
 30
0.0
 11
413.350708
 21
225.53349
 31
0.0
  0
LINE
  5
A139
330
9F16
100
AcDbEntity
  8
1
  6
Continuous
100
AcDbLine
 10
410.733067
 20
226.65849
 30
0.0
 11
409.108067
 21
225.53349
 31
0.0
  0
LINE
  5
A13A
330
9F16
100
AcDbEntity
  8
1
  6
Continuous
100
AcDbLine
 10
409.3188539999998
 20
226.65849
 30
0.0
 11
407.6938539999998
 21
225.53349
 31
0.0
  0
LINE
  5
A13B
330
9F16
100
AcDbEntity
  8
1
  6
Continuous
100
AcDbLine
 10
408.897281
 20
226.65849
 30
0.0
 11
410.5222809999999
 21
225.53349
 31
0.0
  0
LINE
  5
A13C
330
9F16
100
AcDbEntity
  8
4
  6
CENTER
100
AcDbLine
 10
419.1375039999998
 20
239.2334899999999
 30
0.0
 11
419.1375039999998
 21
226.93349
 31
0.0
  0
ARC
  5
A13D
330
9F16
100
AcDbEntity
  8
1
  6
Continuous
100
AcDbCircle
 10
413.470314
 20
222.53349
 30
0.0
 40
3.0
100
AcDbArc
 50
13.49339899999998
 51
90.0
  0
LINE
  5
A13E
330
9F16
100
AcDbEntity
  8
1
  6
Continuous
100
AcDbLine
 10
414.787504
 20
226.65849
 30
0.0
 11
415.687504
 21
228.1584899999999
 31
0.0
  0
LINE
  5
A13F
330
9F16
100
AcDbEntity
  8
1
  6
Continuous
100
AcDbLine
 10
415.687504
 20
228.1584899999999
 30
0.0
 11
415.187504
 21
228.9584899999999
 31
0.0
  0
ARC
  5
A140
330
9F16
100
AcDbEntity
  8
1
  6
Continuous
100
AcDbCircle
 10
414.9297009999998
 20
233.33349
 30
0.0
 40
3.5
100
AcDbArc
 50
270.0
 51
336.421822
  0
LINE
  5
A141
330
9F16
100
AcDbEntity
  8
1
  6
Continuous
100
AcDbLine
 10
399.419359
 20
226.65849
 30
0.0
 11
397.7943589999999
 21
225.53349
 31
0.0
  0
LINE
  5
A142
330
9F16
100
AcDbEntity
  8
1
  6
Continuous
100
AcDbLine
 10
397.583572
 20
226.65849
 30
0.0
 11
399.208572
 21
225.53349
 31
0.0
  0
LINE
  5
A143
330
9F16
100
AcDbEntity
  8
1
  6
Continuous
100
AcDbLine
 10
392.348291
 20
226.65849
 30
0.0
 11
390.723291
 21
225.53349
 31
0.0
  0
LINE
  5
A144
330
9F16
100
AcDbEntity
  8
1
  6
Continuous
100
AcDbLine
 10
390.5125039999999
 20
226.65849
 30
0.0
 11
392.137504
 21
225.53349
 31
0.0
  0
LINE
  5
A145
330
9F16
100
AcDbEntity
  8
1
  6
Continuous
100
AcDbLine
 10
396.590931
 20
226.65849
 30
0.0
 11
394.965931
 21
225.53349
 31
0.0
  0
LINE
  5
A146
330
9F16
100
AcDbEntity
  8
1
  6
Continuous
100
AcDbLine
 10
394.755145
 20
226.65849
 30
0.0
 11
396.380145
 21
225.53349
 31
0.0
  0
LINE
  5
A147
330
9F16
100
AcDbEntity
  8
1
  6
Continuous
100
AcDbLine
 10
398.005145
 20
226.65849
 30
0.0
 11
396.380145
 21
225.53349
 31
0.0
  0
LINE
  5
A148
330
9F16
100
AcDbEntity
  8
1
  6
Continuous
100
AcDbLine
 10
396.1693589999999
 20
226.65849
 30
0.0
 11
397.7943589999999
 21
225.53349
 31
0.0
  0
LINE
  5
A149
330
9F16
100
AcDbEntity
  8
1
  6
Continuous
100
AcDbLine
 10
395.176718
 20
226.65849
 30
0.0
 11
393.551718
 21
225.53349
 31
0.0
  0
LINE
  5
A14A
330
9F16
100
AcDbEntity
  8
1
  6
Continuous
100
AcDbLine
 10
393.7625039999998
 20
226.65849
 30
0.0
 11
392.137504
 21
225.53349
 31
0.0
  0
LINE
  5
A14B
330
9F16
100
AcDbEntity
  8
1
  6
Continuous
100
AcDbLine
 10
393.340931
 20
226.65849
 30
0.0
 11
394.965931
 21
225.53349
 31
0.0
  0
LINE
  5
A14C
330
9F16
100
AcDbEntity
  8
1
  6
Continuous
100
AcDbLine
 10
391.9267179999998
 20
226.65849
 30
0.0
 11
393.551718
 21
225.53349
 31
0.0
  0
LINE
  5
A14D
330
9F16
100
AcDbEntity
  8
1
  6
Continuous
100
AcDbLine
 10
403.661999
 20
226.65849
 30
0.0
 11
402.0369989999998
 21
225.53349
 31
0.0
  0
LINE
  5
A14E
330
9F16
100
AcDbEntity
  8
1
  6
Continuous
100
AcDbLine
 10
403.2404259999998
 20
226.65849
 30
0.0
 11
404.8654259999998
 21
225.53349
 31
0.0
  0
LINE
  5
A14F
330
9F16
100
AcDbEntity
  8
1
  6
Continuous
100
AcDbLine
 10
401.826213
 20
226.65849
 30
0.0
 11
403.451213
 21
225.53349
 31
0.0
  0
LINE
  5
A150
330
9F16
100
AcDbEntity
  8
1
  6
Continuous
100
AcDbLine
 10
405.0762129999998
 20
226.65849
 30
0.0
 11
403.451213
 21
225.53349
 31
0.0
  0
LINE
  5
A151
330
9F16
100
AcDbEntity
  8
1
  6
Continuous
100
AcDbLine
 10
402.2477859999998
 20
226.65849
 30
0.0
 11
400.622786
 21
225.53349
 31
0.0
  0
LINE
  5
A152
330
9F16
100
AcDbEntity
  8
1
  6
Continuous
100
AcDbLine
 10
400.4119989999998
 20
226.65849
 30
0.0
 11
402.0369989999998
 21
225.53349
 31
0.0
  0
LINE
  5
A153
330
9F16
100
AcDbEntity
  8
1
  6
Continuous
100
AcDbLine
 10
400.8335719999998
 20
226.65849
 30
0.0
 11
399.208572
 21
225.53349
 31
0.0
  0
LINE
  5
A154
330
9F16
100
AcDbEntity
  8
1
  6
Continuous
100
AcDbLine
 10
398.9977859999998
 20
226.65849
 30
0.0
 11
400.622786
 21
225.53349
 31
0.0
  0
LINE
  5
A155
330
9F16
100
AcDbEntity
  8
1
  6
Continuous
100
AcDbLine
 10
367.3875039999999
 20
222.53349
 30
0.0
 11
367.3875039999999
 21
217.9334899999998
 31
0.0
  0
LINE
  5
A156
330
9F16
100
AcDbEntity
  8
1
  6
Continuous
100
AcDbLine
 10
367.3875039999999
 20
217.9334899999998
 30
0.0
 11
375.243405
 21
217.9334899999998
 31
0.0
  0
ARC
  5
A157
330
9F16
100
AcDbEntity
  8
1
  6
Continuous
100
AcDbCircle
 10
375.243405
 20
207.9334899999998
 30
0.0
 40
10.0
100
AcDbArc
 50
31.136199
 51
90.0
  0
LINE
  5
A158
330
9F16
100
AcDbEntity
  8
1
  6
Continuous
100
AcDbLine
 10
372.1277279999998
 20
226.65849
 30
0.0
 11
373.752728
 21
225.53349
 31
0.0
  0
LINE
  5
A159
330
9F16
100
AcDbEntity
  8
1
  6
Continuous
100
AcDbLine
 10
373.9635149999998
 20
226.65849
 30
0.0
 11
372.3385149999999
 21
225.53349
 31
0.0
  0
LINE
  5
A15A
330
9F16
100
AcDbEntity
  8
1
  6
Continuous
100
AcDbLine
 10
382.448796
 20
226.65849
 30
0.0
 11
380.8237959999999
 21
225.53349
 31
0.0
  0
LINE
  5
A15B
330
9F16
100
AcDbEntity
  8
1
  6
Continuous
100
AcDbLine
 10
379.620369
 20
226.65849
 30
0.0
 11
377.9953689999999
 21
225.53349
 31
0.0
  0
LINE
  5
A15C
330
9F16
100
AcDbEntity
  8
1
  6
Continuous
100
AcDbLine
 10
377.784582
 20
226.65849
 30
0.0
 11
379.4095819999999
 21
225.53349
 31
0.0
  0
LINE
  5
A15D
330
9F16
100
AcDbEntity
  8
1
  6
Continuous
100
AcDbLine
 10
381.034582
 20
226.65849
 30
0.0
 11
379.4095819999999
 21
225.53349
 31
0.0
  0
LINE
  5
A15E
330
9F16
100
AcDbEntity
  8
1
  6
Continuous
100
AcDbLine
 10
379.198796
 20
226.65849
 30
0.0
 11
380.8237959999999
 21
225.53349
 31
0.0
  0
LINE
  5
A15F
330
9F16
100
AcDbEntity
  8
1
  6
Continuous
100
AcDbLine
 10
380.6130089999999
 20
226.65849
 30
0.0
 11
382.2380089999999
 21
225.53349
 31
0.0
  0
LINE
  5
A160
330
9F16
100
AcDbEntity
  8
1
  6
Continuous
100
AcDbLine
 10
376.791942
 20
226.65849
 30
0.0
 11
375.166942
 21
225.53349
 31
0.0
  0
LINE
  5
A161
330
9F16
100
AcDbEntity
  8
1
  6
Continuous
100
AcDbLine
 10
378.2061549999998
 20
226.65849
 30
0.0
 11
376.5811549999999
 21
225.53349
 31
0.0
  0
LINE
  5
A162
330
9F16
100
AcDbEntity
  8
1
  6
Continuous
100
AcDbLine
 10
374.9561549999999
 20
226.65849
 30
0.0
 11
376.5811549999999
 21
225.53349
 31
0.0
  0
LINE
  5
A163
330
9F16
100
AcDbEntity
  8
1
  6
Continuous
100
AcDbLine
 10
376.3703689999999
 20
226.65849
 30
0.0
 11
377.9953689999999
 21
225.53349
 31
0.0
  0
LINE
  5
A164
330
9F16
100
AcDbEntity
  8
1
  6
Continuous
100
AcDbLine
 10
375.3777279999998
 20
226.65849
 30
0.0
 11
373.752728
 21
225.53349
 31
0.0
  0
LINE
  5
A165
330
9F16
100
AcDbEntity
  8
1
  6
Continuous
100
AcDbLine
 10
373.5419419999999
 20
226.65849
 30
0.0
 11
375.166942
 21
225.53349
 31
0.0
  0
LINE
  5
A166
330
9F16
100
AcDbEntity
  8
1
  6
Continuous
100
AcDbLine
 10
388.10565
 20
226.65849
 30
0.0
 11
386.48065
 21
225.53349
 31
0.0
  0
LINE
  5
A167
330
9F16
100
AcDbEntity
  8
1
  6
Continuous
100
AcDbLine
 10
386.2698639999999
 20
226.65849
 30
0.0
 11
387.8948639999999
 21
225.53349
 31
0.0
  0
LINE
  5
A168
330
9F16
100
AcDbEntity
  8
1
  6
Continuous
100
AcDbLine
 10
387.684077
 20
226.65849
 30
0.0
 11
389.309077
 21
225.53349
 31
0.0
  0
LINE
  5
A169
330
9F16
100
AcDbEntity
  8
1
  6
Continuous
100
AcDbLine
 10
385.2772229999998
 20
226.65849
 30
0.0
 11
383.6522229999998
 21
225.53349
 31
0.0
  0
LINE
  5
A16A
330
9F16
100
AcDbEntity
  8
1
  6
Continuous
100
AcDbLine
 10
386.691437
 20
226.65849
 30
0.0
 11
385.066437
 21
225.53349
 31
0.0
  0
LINE
  5
A16B
330
9F16
100
AcDbEntity
  8
1
  6
Continuous
100
AcDbLine
 10
384.85565
 20
226.65849
 30
0.0
 11
386.48065
 21
225.53349
 31
0.0
  0
LINE
  5
A16C
330
9F16
100
AcDbEntity
  8
1
  6
Continuous
100
AcDbLine
 10
383.8630089999999
 20
226.65849
 30
0.0
 11
382.2380089999999
 21
225.53349
 31
0.0
  0
LINE
  5
A16D
330
9F16
100
AcDbEntity
  8
1
  6
Continuous
100
AcDbLine
 10
382.027223
 20
226.65849
 30
0.0
 11
383.6522229999998
 21
225.53349
 31
0.0
  0
LINE
  5
A16E
330
9F16
100
AcDbEntity
  8
1
  6
Continuous
100
AcDbLine
 10
383.441437
 20
226.65849
 30
0.0
 11
385.066437
 21
225.53349
 31
0.0
  0
LINE
  5
A16F
330
9F16
100
AcDbEntity
  8
4
  6
CENTER
100
AcDbLine
 10
365.137504
 20
239.2334899999999
 30
0.0
 11
365.137504
 21
226.93349
 31
0.0
  0
LINE
  5
A170
330
9F16
100
AcDbEntity
  8
1
  6
Continuous
100
AcDbLine
 10
371.1350869999998
 20
226.65849
 30
0.0
 11
369.510087
 21
225.53349
 31
0.0
  0
LINE
  5
A171
330
9F16
100
AcDbEntity
  8
1
  6
Continuous
100
AcDbLine
 10
369.2993009999999
 20
226.65849
 30
0.0
 11
370.9243009999998
 21
225.53349
 31
0.0
  0
LINE
  5
A172
330
9F16
100
AcDbEntity
  8
1
  6
Continuous
100
AcDbLine
 10
372.5493009999998
 20
226.65849
 30
0.0
 11
370.9243009999998
 21
225.53349
 31
0.0
  0
LINE
  5
A173
330
9F16
100
AcDbEntity
  8
1
  6
Continuous
100
AcDbLine
 10
370.7135149999999
 20
226.65849
 30
0.0
 11
372.3385149999999
 21
225.53349
 31
0.0
  0
LINE
  5
A174
330
9F16
100
AcDbEntity
  8
1
  6
Continuous
100
AcDbLine
 10
369.137504
 20
225.4060729999999
 30
0.0
 11
369.510087
 21
225.53349
 31
0.0
  0
LINE
  5
A175
330
9F16
100
AcDbEntity
  8
1
  6
Continuous
100
AcDbLine
 10
369.137504
 20
226.65849
 30
0.0
 11
369.137504
 21
225.53349
 31
0.0
  0
ARC
  5
A176
330
9F16
100
AcDbEntity
  8
1
  6
Continuous
100
AcDbCircle
 10
375.387504
 20
224.4839899999998
 30
0.0
 40
6.974499999999999
100
AcDbArc
 50
129.9139999999999
 51
140.0924019999999
  0
LINE
  5
A177
330
9F16
100
AcDbEntity
  8
1
  6
Continuous
100
AcDbLine
 10
369.4875039999999
 20
226.65849
 30
0.0
 11
368.587504
 21
228.1584899999999
 31
0.0
  0
LINE
  5
A178
330
9F16
100
AcDbEntity
  8
1
  6
Continuous
100
AcDbLine
 10
369.7208739999999
 20
226.65849
 30
0.0
 11
369.137504
 21
226.075121
 31
0.0
  0
LINE
  5
A179
330
9F16
100
AcDbEntity
  8
1
  6
Continuous
100
AcDbLine
 10
368.587504
 20
228.1584899999999
 30
0.0
 11
369.087504
 21
228.9584899999999
 31
0.0
  0
ARC
  5
A17A
330
9F16
100
AcDbEntity
  8
1
  6
Continuous
100
AcDbCircle
 10
370.8189279999999
 20
222.071827
 30
0.0
 40
3.462340999999999
100
AcDbArc
 50
88.86512399999999
 51
172.3374649999999
  0
ARC
  5
A17B
330
9F16
100
AcDbEntity
  8
1
  6
Continuous
100
AcDbCircle
 10
369.3453069999998
 20
233.33349
 30
0.0
 40
3.5
100
AcDbArc
 50
203.578178
 51
270.0
  0
LINE
  5
A17C
330
9F16
100
AcDbEntity
  8
1
  6
Continuous
100
AcDbLine
 10
357.1375039999999
 20
234.2334899999999
 30
0.0
 11
357.1375039999999
 21
231.9334899999998
 31
0.0
  0
CIRCLE
  5
A17D
330
9F16
100
AcDbEntity
  8
1
  6
Continuous
100
AcDbCircle
 10
417.137504
 20
178.7334899999999
 30
0.0
 40
7.0
  0
LINE
  5
A17E
330
9F16
100
AcDbEntity
  8
4
  6
CENTER
100
AcDbLine
 10
163.6692469999998
 20
106.601209
 30
0.0
 11
163.6692469999998
 21
42.60120899999999
 31
0.0
  0
LINE
  5
A17F
330
9F16
100
AcDbEntity
  8
1
  6
Continuous
100
AcDbLine
 10
128.447852
 20
62.10120899999999
 30
0.0
 11
198.890641
 21
62.10120899999999
 31
0.0
  0
ARC
  5
A180
330
9F16
100
AcDbEntity
  8
1
  6
Continuous
100
AcDbCircle
 10
326.1692469999999
 20
74.60120899999998
 30
0.0
 40
200.0
100
AcDbArc
 50
176.960162
 51
183.0398379999999
  0
LINE
  5
A181
330
9F16
100
AcDbEntity
  8
1
  6
Continuous
100
AcDbLine
 10
198.890641
 20
87.10120899999997
 30
0.0
 11
128.447852
 21
87.10120899999997
 31
0.0
  0
ARC
  5
A182
330
9F16
100
AcDbEntity
  8
1
  6
Continuous
100
AcDbCircle
 10
1.169246999999999
 20
74.60120899999998
 30
0.0
 40
200.0
100
AcDbArc
 50
356.960162
 51
3.039838
  0
ARC
  5
A183
330
9F16
100
AcDbEntity
  8
1
  6
Continuous
100
AcDbCircle
 10
198.890641
 20
85.10120899999998
 30
0.0
 40
2.0
100
AcDbArc
 50
3.039838
 51
90.0
  0
ARC
  5
A184
330
9F16
100
AcDbEntity
  8
1
  6
Continuous
100
AcDbCircle
 10
198.890641
 20
64.10120899999999
 30
0.0
 40
2.0
100
AcDbArc
 50
270.0
 51
356.960162
  0
LINE
  5
A185
330
9F16
100
AcDbEntity
  8
1
  6
Continuous
100
AcDbLine
 10
155.927896
 20
59.60120899999999
 30
0.0
 11
171.410597
 21
59.60120899999999
 31
0.0
  0
LINE
  5
A186
330
9F16
100
AcDbEntity
  8
1
  6
Continuous
100
AcDbLine
 10
156.6692469999999
 20
53.466471
 30
0.0
 11
170.6692469999999
 21
53.466471
 31
0.0
  0
ARC
  5
A187
330
9F16
100
AcDbEntity
  8
1
  6
Continuous
100
AcDbCircle
 10
163.6692469999998
 20
61.29270899999998
 30
0.0
 40
10.5
100
AcDbArc
 50
228.1896859999999
 51
311.810315
  0
ARC
  5
A188
330
9F16
100
AcDbEntity
  8
1
  6
Continuous
100
AcDbCircle
 10
171.410597
 20
61.101209
 30
0.0
 40
1.5
100
AcDbArc
 50
270.0
 51
350.0
  0
LINE
  5
A189
330
9F16
100
AcDbEntity
  8
1
  6
Continuous
100
AcDbLine
 10
172.887809
 20
60.840737
 30
0.0
 11
173.110064
 21
62.10120899999999
 31
0.0
  0
LINE
  5
A18A
330
9F16
100
AcDbEntity
  8
1
  6
Continuous
100
AcDbLine
 10
167.6692469999998
 20
58.092709
 30
0.0
 11
167.6692469999998
 21
59.60120899999999
 31
0.0
  0
LINE
  5
A18B
330
9F16
100
AcDbEntity
  8
1
  6
Continuous
100
AcDbLine
 10
170.6692469999999
 20
53.466471
 30
0.0
 11
170.6692469999999
 21
55.751452
 31
0.0
  0
LINE
  5
A18C
330
9F16
100
AcDbEntity
  8
1
  6
Continuous
100
AcDbLine
 10
154.4506839999999
 20
60.840737
 30
0.0
 11
154.228429
 21
62.10120899999999
 31
0.0
  0
ARC
  5
A18D
330
9F16
100
AcDbEntity
  8
1
  6
Continuous
100
AcDbCircle
 10
155.927896
 20
61.101209
 30
0.0
 40
1.5
100
AcDbArc
 50
190.0
 51
270.0
  0
LINE
  5
A18E
330
9F16
100
AcDbEntity
  8
1
  6
Continuous
100
AcDbLine
 10
159.6692469999998
 20
58.092709
 30
0.0
 11
159.6692469999998
 21
59.60120899999999
 31
0.0
  0
LINE
  5
A18F
330
9F16
100
AcDbEntity
  8
1
  6
Continuous
100
AcDbLine
 10
156.6692469999999
 20
53.466471
 30
0.0
 11
156.6692469999999
 21
55.792709
 31
0.0
  0
LINE
  5
A190
330
9F16
100
AcDbEntity
  8
1
  6
Continuous
100
AcDbLine
 10
171.410597
 20
89.60120899999997
 30
0.0
 11
155.927896
 21
89.60120899999997
 31
0.0
  0
ARC
  5
A191
330
9F16
100
AcDbEntity
  8
1
  6
Continuous
100
AcDbCircle
 10
163.6692469999998
 20
82.909468
 30
0.0
 40
13.0
100
AcDbArc
 50
67.380135
 51
112.6198649999998
  0
LINE
  5
A192
330
9F16
100
AcDbEntity
  8
1
  6
Continuous
100
AcDbLine
 10
168.6692469999998
 20
94.90946800000001
 30
0.0
 11
158.6692469999999
 21
94.90946800000001
 31
0.0
  0
ARC
  5
A193
330
9F16
100
AcDbEntity
  8
1
  6
Continuous
100
AcDbCircle
 10
171.410597
 20
88.10120899999999
 30
0.0
 40
1.5
100
AcDbArc
 50
10.0
 51
90.0
  0
LINE
  5
A194
330
9F16
100
AcDbEntity
  8
1
  6
Continuous
100
AcDbLine
 10
172.887809
 20
88.36168200000001
 30
0.0
 11
173.110064
 21
87.10120899999997
 31
0.0
  0
LINE
  5
A195
330
9F16
100
AcDbEntity
  8
1
  6
Continuous
100
AcDbLine
 10
167.6692469999998
 20
89.60120899999997
 30
0.0
 11
167.6692469999998
 21
91.10970899999999
 31
0.0
  0
LINE
  5
A196
330
9F16
100
AcDbEntity
  8
1
  6
Continuous
100
AcDbLine
 10
168.6692469999998
 20
94.90946800000001
 30
0.0
 11
168.6692469999998
 21
93.409709
 31
0.0
  0
ARC
  5
A197
330
9F16
100
AcDbEntity
  8
1
  6
Continuous
100
AcDbCircle
 10
155.927896
 20
88.10120899999999
 30
0.0
 40
1.5
100
AcDbArc
 50
90.0
 51
170.0
  0
LINE
  5
A198
330
9F16
100
AcDbEntity
  8
1
  6
Continuous
100
AcDbLine
 10
154.4506839999999
 20
88.36168200000001
 30
0.0
 11
154.228429
 21
87.10120899999997
 31
0.0
  0
LINE
  5
A199
330
9F16
100
AcDbEntity
  8
1
  6
Continuous
100
AcDbLine
 10
159.6692469999998
 20
89.60120899999997
 30
0.0
 11
159.6692469999998
 21
91.10970899999999
 31
0.0
  0
LINE
  5
A19A
330
9F16
100
AcDbEntity
  8
1
  6
Continuous
100
AcDbLine
 10
158.6692469999999
 20
94.90946800000001
 30
0.0
 11
158.6692469999999
 21
93.409709
 31
0.0
  0
LINE
  5
A19B
330
9F16
100
AcDbEntity
  8
1
  6
Continuous
100
AcDbLine
 10
153.4691719999998
 20
93.409709
 30
0.0
 11
169.8578239999999
 21
93.409709
 31
0.0
  0
LINE
  5
A19C
330
9F16
100
AcDbEntity
  8
1
  6
Continuous
100
AcDbLine
 10
153.4691719999998
 20
91.10970899999999
 30
0.0
 11
169.8578239999999
 21
91.10970899999999
 31
0.0
  0
LINE
  5
A19D
330
9F16
100
AcDbEntity
  8
1
  6
Continuous
100
AcDbLine
 10
153.4691719999998
 20
55.792709
 30
0.0
 11
169.8578239999999
 21
55.792709
 31
0.0
  0
LINE
  5
A19E
330
9F16
100
AcDbEntity
  8
1
  6
Continuous
100
AcDbLine
 10
153.4691719999998
 20
58.092709
 30
0.0
 11
169.8578239999999
 21
58.092709
 31
0.0
  0
ARC
  5
A19F
330
9F16
100
AcDbEntity
  8
1
  6
Continuous
100
AcDbCircle
 10
128.447853
 20
64.10120899999999
 30
0.0
 40
2.0
100
AcDbArc
 50
183.0398379999999
 51
270.0
  0
ARC
  5
A1A0
330
9F16
100
AcDbEntity
  8
1
  6
Continuous
100
AcDbCircle
 10
128.447853
 20
85.10120899999998
 30
0.0
 40
2.0
100
AcDbArc
 50
90.0
 51
176.960162
  0
ARC
  5
A1A1
330
9F16
100
AcDbEntity
  8
1
  6
Continuous
100
AcDbCircle
 10
161.669172
 20
92.601209
 30
0.0
 40
3.25
100
AcDbArc
 50
207.317637
 51
216.195773
  0
ARC
  5
A1A2
330
9F16
100
AcDbEntity
  8
1
  6
Continuous
100
AcDbCircle
 10
161.669172
 20
92.601209
 30
0.0
 40
3.25
100
AcDbArc
 50
157.376698
 51
165.5953059999999
  0
LINE
  5
A1A3
330
9F16
100
AcDbEntity
  8
1
  6
Continuous
100
AcDbLine
 10
153.669172
 20
62.10120899999999
 30
0.0
 11
153.669172
 21
58.092709
 31
0.0
  0
LINE
  5
A1A4
330
9F16
100
AcDbEntity
  8
1
  6
Continuous
100
AcDbLine
 10
153.669172
 20
91.10970899999999
 30
0.0
 11
153.669172
 21
87.10120899999997
 31
0.0
  0
LINE
  5
A1A5
330
9F16
100
AcDbEntity
  8
1
  6
Continuous
100
AcDbLine
 10
153.669172
 20
55.792709
 30
0.0
 11
153.669172
 21
54.60120899999999
 31
0.0
  0
ARC
  5
A1A6
330
9F16
100
AcDbEntity
  8
1
  6
Continuous
100
AcDbCircle
 10
188.6691719999998
 20
74.60120899999998
 30
0.0
 40
24.75
100
AcDbArc
 50
234.9429129999998
 51
125.057087
  0
ARC
  5
A1A7
330
9F16
100
AcDbEntity
  8
1
  6
Continuous
100
AcDbCircle
 10
188.6691719999998
 20
74.60120899999998
 30
0.0
 40
22.45
100
AcDbArc
 50
234.9429129999998
 51
125.057087
  0
ARC
  5
A1A8
330
9F16
100
AcDbEntity
  8
1
  6
Continuous
100
AcDbCircle
 10
169.8578239999999
 20
101.4097089999999
 30
0.0
 40
8.0
100
AcDbArc
 50
270.0
 51
305.057087
  0
ARC
  5
A1A9
330
9F16
100
AcDbEntity
  8
1
  6
Continuous
100
AcDbCircle
 10
169.8578239999999
 20
101.4097089999999
 30
0.0
 40
10.3
100
AcDbArc
 50
270.0
 51
305.057087
  0
ARC
  5
A1AA
330
9F16
100
AcDbEntity
  8
1
  6
Continuous
100
AcDbCircle
 10
169.8578239999999
 20
47.792709
 30
0.0
 40
10.3
100
AcDbArc
 50
54.942913
 51
90.0
  0
ARC
  5
A1AB
330
9F16
100
AcDbEntity
  8
1
  6
Continuous
100
AcDbCircle
 10
169.8578239999999
 20
47.792709
 30
0.0
 40
8.0
100
AcDbArc
 50
54.942913
 51
90.0
  0
ARC
  5
A1AC
330
9F16
100
AcDbEntity
  8
1
  6
Continuous
100
AcDbCircle
 10
188.6691719999998
 20
74.60120899999998
 30
0.0
 40
26.000075
100
AcDbArc
 50
226.504025
 51
133.4959749999999
  0
ARC
  5
A1AD
330
9F16
100
AcDbEntity
  8
1
  6
Continuous
100
AcDbCircle
 10
188.6691719999998
 20
74.60120899999998
 30
0.0
 40
18.44999999999998
100
AcDbArc
 50
222.64912
 51
137.3508799999999
  0
ARC
  5
A1AE
330
9F16
100
AcDbEntity
  8
1
  6
Continuous
100
AcDbCircle
 10
188.6691719999998
 20
74.60120899999998
 30
0.0
 40
20.44999999999999
100
AcDbArc
 50
219.9739499999998
 51
140.0260499999999
  0
ARC
  5
A1AF
330
9F16
100
AcDbEntity
  8
1
  6
Continuous
100
AcDbCircle
 10
212.2482479999999
 20
74.60120899999998
 30
0.0
 40
55.579
100
AcDbArc
 50
162.720836
 51
164.3425099999998
  0
ARC
  5
A1B0
330
9F16
100
AcDbEntity
  8
1
  6
Continuous
100
AcDbCircle
 10
212.2482479999999
 20
74.60120899999998
 30
0.0
 40
55.579
100
AcDbArc
 50
195.6574899999999
 51
197.279164
  0
ARC
  5
A1B1
330
9F16
100
AcDbEntity
  8
1
  6
Continuous
100
AcDbCircle
 10
267.8533489999999
 20
192.498041
 30
0.0
 40
45.0
100
AcDbArc
 50
333.6771109999999
 51
6.077233000000001
  0
ARC
  5
A1B2
330
9F16
100
AcDbEntity
  8
1
  6
Continuous
100
AcDbCircle
 10
282.9696049999999
 20
191.7707639999999
 30
0.0
 40
30.135401
100
AcDbArc
 50
10.499302
 51
18.221623
  0
ARC
  5
A1B3
330
9F16
100
AcDbEntity
  8
1
  6
Continuous
100
AcDbCircle
 10
361.6019039999998
 20
170.77931
 30
0.0
 40
97.26650800000001
100
AcDbArc
 50
151.2652759999998
 51
161.778377
  0
ARC
  5
A1B4
330
9F16
100
AcDbEntity
  8
1
  6
Continuous
100
AcDbCircle
 10
361.6019039999998
 20
170.77931
 30
0.0
 40
99.466508
100
AcDbArc
 50
154.2684
 51
162.887731
  0
ARC
  5
A1B5
330
9F16
100
AcDbEntity
  8
1
  6
Continuous
100
AcDbCircle
 10
297.837146
 20
191.7707639999999
 30
0.0
 40
30.135401
100
AcDbArc
 50
161.778377
 51
169.500698
  0
ARC
  5
A1B6
330
9F16
100
AcDbEntity
  8
1
  6
Continuous
100
AcDbCircle
 10
312.9534019999999
 20
192.498041
 30
0.0
 40
45.0
100
AcDbArc
 50
173.922767
 51
206.322889
  0
ARC
  5
A1B7
330
9F16
100
AcDbEntity
  8
1
  6
Continuous
100
AcDbCircle
 10
279.4968749999998
 20
223.160111
 30
0.0
 40
7.487396
100
AcDbArc
 50
240.6184049999999
 51
265.563802
  0
ARC
  5
A1B8
330
9F16
100
AcDbEntity
  8
1
  6
Continuous
100
AcDbCircle
 10
301.7999429999999
 20
223.521524
 30
0.0
 40
7.848514999999999
100
AcDbArc
 50
270.9161379999998
 51
294.920656
  0
ARC
  5
A1B9
330
9F16
100
AcDbEntity
  8
1
  6
Continuous
100
AcDbCircle
 10
310.653376
 20
192.498041
 30
0.0
 40
45.0
100
AcDbArc
 50
180.0
 51
206.877805
  0
ARC
  5
A1BA
330
9F16
100
AcDbEntity
  8
1
  6
Continuous
100
AcDbCircle
 10
285.6533759999999
 20
194.161931
 30
0.0
 40
20.0
100
AcDbArc
 50
162.887731
 51
180.0
  0
ARC
  5
A1BB
330
9F16
100
AcDbEntity
  8
1
  6
Continuous
100
AcDbCircle
 10
261.594876
 20
167.633134
 30
0.0
 40
10.0
100
AcDbArc
 50
0.0
 51
26.87780499999999
  0
ARC
  5
A1BC
330
9F16
100
AcDbEntity
  8
1
  6
Continuous
100
AcDbCircle
 10
261.594876
 20
167.0895419999999
 30
0.0
 40
12.3
100
AcDbArc
 50
0.670549
 51
26.322889
  0
LINE
  5
A1BD
330
9F16
100
AcDbEntity
  8
1
  6
Continuous
100
AcDbLine
 10
273.8948759999999
 20
167.2334899999999
 30
0.0
 11
273.8948759999999
 21
212.8298829999998
 31
0.0
  0
ARC
  5
A1BE
330
9F16
100
AcDbEntity
  8
1
  6
Continuous
100
AcDbCircle
 10
219.2048479999999
 20
170.77931
 30
0.0
 40
99.466508
100
AcDbArc
 50
17.112269
 51
25.73159999999998
  0
ARC
  5
A1BF
330
9F16
100
AcDbEntity
  8
1
  6
Continuous
100
AcDbCircle
 10
319.2118759999999
 20
167.0895419999999
 30
0.0
 40
12.3
100
AcDbArc
 50
153.677111
 51
179.329451
  0
ARC
  5
A1C0
330
9F16
100
AcDbEntity
  8
1
  6
Continuous
100
AcDbCircle
 10
319.2118759999999
 20
167.6249589999999
 30
0.0
 40
10.0
100
AcDbArc
 50
153.0359779999998
 51
180.0
  0
LINE
  5
A1C1
330
9F16
100
AcDbEntity
  8
1
  6
Continuous
100
AcDbLine
 10
315.1533759999999
 20
222.1124899999999
 30
0.0
 11
315.1533759999999
 21
192.498041
 31
0.0
  0
ARC
  5
A1C2
330
9F16
100
AcDbEntity
  8
1
  6
Continuous
100
AcDbCircle
 10
270.1533759999999
 20
192.498041
 30
0.0
 40
45.0
100
AcDbArc
 50
333.1221949999999
 51
0.0
  0
ARC
  5
A1C3
330
9F16
100
AcDbEntity
  8
1
  6
Continuous
100
AcDbCircle
 10
295.1533759999999
 20
194.161931
 30
0.0
 40
20.0
100
AcDbArc
 50
0.0
 51
17.112269
  0
LINE
  5
A1C4
330
9F16
100
AcDbEntity
  8
1
  6
Continuous
100
AcDbLine
 10
278.917733
 20
215.695147
 30
0.0
 11
301.9254329999998
 21
215.674012
 31
0.0
  0
ARC
  5
A1C5
330
9F16
100
AcDbEntity
  8
1
  6
Continuous
100
AcDbCircle
 10
200.065815
 20
223.521524
 30
0.0
 40
7.848514999999999
100
AcDbArc
 50
270.9161379999998
 51
314.603254
  0
LINE
  5
A1C6
330
9F16
100
AcDbEntity
  8
1
  6
Continuous
100
AcDbLine
 10
200.191305
 20
215.674012
 30
0.0
 11
199.2321289999999
 21
215.674012
 31
0.0
  0
ARC
  5
A1C7
330
9F16
100
AcDbEntity
  8
1
  6
Continuous
100
AcDbCircle
 10
381.2310029999999
 20
223.160111
 30
0.0
 40
7.487396
100
AcDbArc
 50
233.119947
 51
265.563802
  0
LINE
  5
A1C8
330
9F16
100
AcDbEntity
  8
1
  6
Continuous
100
AcDbLine
 10
375.695108
 20
217.923283
 30
0.0
 11
376.737504
 21
217.1709899999999
 31
0.0
  0
LINE
  5
A1C9
330
9F16
100
AcDbEntity
  8
1
  6
Continuous
100
AcDbLine
 10
380.6518609999998
 20
215.695147
 30
0.0
 11
381.5486939999999
 21
215.695147
 31
0.0
  0
ARC
  5
A1CA
330
9F16
100
AcDbEntity
  8
1
  6
Continuous
100
AcDbCircle
 10
128.447853
 20
310.0054979999999
 30
0.0
 40
2.0
100
AcDbArc
 50
90.0
 51
176.960162
  0
ARC
  5
A1CB
330
9F16
100
AcDbEntity
  8
1
  6
Continuous
100
AcDbCircle
 10
128.447853
 20
289.005498
 30
0.0
 40
2.0
100
AcDbArc
 50
183.0398379999999
 51
270.0
  0
ARC
  5
A1CC
330
9F16
100
AcDbEntity
  8
1
  6
Continuous
100
AcDbCircle
 10
326.1692469999999
 20
299.5054979999999
 30
0.0
 40
200.0
100
AcDbArc
 50
176.960162
 51
183.0398379999999
  0
LINE
  5
A1CD
330
9F16
100
AcDbEntity
  8
1
  6
Continuous
100
AcDbLine
 10
153.669172
 20
312.0054979999999
 30
0.0
 11
128.447852
 21
312.0054979999999
 31
0.0
  0
LINE
  5
A1CE
330
9F16
100
AcDbEntity
  8
1
  6
Continuous
100
AcDbLine
 10
128.447852
 20
287.0054979999998
 30
0.0
 11
153.669172
 21
287.0054979999998
 31
0.0
  0
LINE
  5
A1CF
330
9F16
100
AcDbEntity
  8
1
  6
Continuous
100
AcDbLine
 10
153.4691719999998
 20
282.996998
 30
0.0
 11
153.669172
 21
282.996998
 31
0.0
  0
LINE
  5
A1D0
330
9F16
100
AcDbEntity
  8
1
  6
Continuous
100
AcDbLine
 10
153.4691719999998
 20
280.696998
 30
0.0
 11
153.669172
 21
280.696998
 31
0.0
  0
LINE
  5
A1D1
330
9F16
100
AcDbEntity
  8
1
  6
Continuous
100
AcDbLine
 10
160.811316
 20
320.6402359999998
 30
0.0
 11
162.527029
 21
320.6402359999998
 31
0.0
  0
ARC
  5
A1D2
330
9F16
100
AcDbEntity
  8
1
  6
Continuous
100
AcDbCircle
 10
212.2482479999999
 20
299.5054979999999
 30
0.0
 40
55.579
100
AcDbArc
 50
196.8179049999999
 51
199.7800439999998
  0
LINE
  5
A1D3
330
9F16
100
AcDbEntity
  8
1
  6
Continuous
100
AcDbLine
 10
153.4691719999998
 20
282.996998
 30
0.0
 11
153.4691719999998
 21
280.696998
 31
0.0
  0
LINE
  5
A1D4
330
9F16
100
AcDbEntity
  8
1
  6
Continuous
100
AcDbLine
 10
153.4691719999998
 20
316.013998
 30
0.0
 11
153.669172
 21
316.013998
 31
0.0
  0
LINE
  5
A1D5
330
9F16
100
AcDbEntity
  8
1
  6
Continuous
100
AcDbLine
 10
153.4691719999998
 20
318.313998
 30
0.0
 11
153.669172
 21
318.313998
 31
0.0
  0
LINE
  5
A1D6
330
9F16
100
AcDbEntity
  8
1
  6
Continuous
100
AcDbLine
 10
163.957062
 20
279.197239
 30
0.0
 11
159.381282
 21
279.197239
 31
0.0
  0
ARC
  5
A1D7
330
9F16
100
AcDbEntity
  8
1
  6
Continuous
100
AcDbCircle
 10
163.6692469999998
 20
291.197239
 30
0.0
 40
13.0
100
AcDbArc
 50
253.473272
 51
263.2059659999999
  0
ARC
  5
A1D8
330
9F16
100
AcDbEntity
  8
1
  6
Continuous
100
AcDbCircle
 10
212.2482479999999
 20
299.5054979999999
 30
0.0
 40
55.579
100
AcDbArc
 50
160.219956
 51
163.182095
  0
LINE
  5
A1D9
330
9F16
100
AcDbEntity
  8
1
  6
Continuous
100
AcDbLine
 10
158.6692469999999
 20
280.2553179999998
 30
0.0
 11
158.6692469999999
 21
280.696998
 31
0.0
  0
LINE
  5
A1DA
330
9F16
100
AcDbEntity
  8
1
  6
Continuous
100
AcDbLine
 10
153.4691719999998
 20
318.313998
 30
0.0
 11
153.4691719999998
 21
316.013998
 31
0.0
  0
LINE
  5
A1DB
330
9F16
100
AcDbEntity
  8
1
  6
Continuous
100
AcDbLine
 10
158.521343
 20
318.313998
 30
0.0
 11
164.817001
 21
318.313998
 31
0.0
  0
LINE
  5
A1DC
330
9F16
100
AcDbEntity
  8
1
  6
Continuous
100
AcDbLine
 10
158.7816249999999
 20
316.013998
 30
0.0
 11
159.1775899999998
 21
316.013998
 31
0.0
  0
LINE
  5
A1DD
330
9F16
100
AcDbEntity
  8
1
  6
Continuous
100
AcDbLine
 10
158.7816249999999
 20
282.996998
 30
0.0
 11
159.1775899999998
 21
282.996998
 31
0.0
  0
LINE
  5
A1DE
330
9F16
100
AcDbEntity
  8
1
  6
Continuous
100
AcDbLine
 10
158.521343
 20
280.696998
 30
0.0
 11
164.817001
 21
280.696998
 31
0.0
  0
LINE
  5
A1DF
330
9F16
100
AcDbEntity
  8
4
  6
CENTER
100
AcDbLine
 10
163.6691719999998
 20
267.505498
 30
0.0
 11
163.6691719999998
 21
331.5054979999998
 31
0.0
  0
ENDSEC
  0
SECTION
  2
OBJECTS
  0
DICTIONARY
  5
9F04
330
0
100
AcDbDictionary
281
     1
  3
ACAD_CIP_PREVIOUS_PRODUCT_INFO
350
A241
  3
ACAD_COLOR
350
A223
  3
ACAD_DETAILVIEWSTYLE
350
A23C
  3
ACAD_GROUP
350
9F05
  3
ACAD_LAYOUT
350
9F11
  3
ACAD_MATERIAL
350
A1F1
  3
ACAD_MLEADERSTYLE
350
A238
  3
ACAD_MLINESTYLE
350
9F0E
  3
ACAD_PLOTSETTINGS
350
9F10
  3
ACAD_PLOTSTYLENAME
350
A1EF
  3
ACAD_SCALELIST
350
A226
  3
ACAD_SECTIONVIEWSTYLE
350
A23A
  3
ACAD_TABLESTYLE
350
A224
  3
ACAD_VISUALSTYLE
350
A20A
  3
ACDB_RECOMPOSE_DATA
350
A25F
  3
AcDbVariableDictionary
350
A252
  3
DWGPROPS
350
A260
  0
DICTIONARY
  5
A242
330
9F08
100
AcDbDictionary
280
     1
281
     1
  3
ADSK_XREC_LAYER_RECONCILED
360
A243
  0
DICTIONARY
  5
A244
330
9F1E
100
AcDbDictionary
280
     1
281
     1
  3
ADSK_XREC_LAYER_RECONCILED
360
A245
  0
DICTIONARY
  5
A246
330
9F1F
100
AcDbDictionary
280
     1
281
     1
  3
ADSK_XREC_LAYER_RECONCILED
360
A247
  0
DICTIONARY
  5
A248
330
9F20
100
AcDbDictionary
280
     1
281
     1
  3
ADSK_XREC_LAYER_RECONCILED
360
A249
  0
DICTIONARY
  5
A24A
330
9F21
100
AcDbDictionary
280
     1
281
     1
  3
ADSK_XREC_LAYER_RECONCILED
360
A24B
  0
DICTIONARY
  5
A24C
330
9F22
100
AcDbDictionary
280
     1
281
     1
  3
ADSK_XREC_LAYER_RECONCILED
360
A24D
  0
DICTIONARY
  5
A24E
330
9F23
100
AcDbDictionary
280
     1
281
     1
  3
ADSK_XREC_LAYER_RECONCILED
360
A24F
  0
DICTIONARY
  5
A250
330
9F24
100
AcDbDictionary
280
     1
281
     1
  3
ADSK_XREC_LAYER_RECONCILED
360
A251
  0
DICTIONARY
  5
A1EA
330
9F16
100
AcDbDictionary
281
     1
  3
ACAD_LAYOUTSELFREF
350
A1EB
  0
DICTIONARY
  5
A1E8
330
9F12
100
AcDbDictionary
281
     1
  3
ACAD_LAYOUTSELFREF
350
A1E9
  0
XRECORD
  5
A241
102
{ACAD_REACTORS
330
9F04
102
}
330
9F04
100
AcDbXrecord
280
     1
300
ACDLT
300
2014
300
ACDLT_F_S
  0
DICTIONARY
  5
A223
102
{ACAD_REACTORS
330
9F04
102
}
330
9F04
100
AcDbDictionary
281
     1
  0
DICTIONARY
  5
A23C
102
{ACAD_REACTORS
330
9F04
102
}
330
9F04
100
AcDbDictionary
281
     1
  3
Imperial24
350
A23D
  0
DICTIONARY
  5
9F05
102
{ACAD_REACTORS
330
9F04
102
}
330
9F04
100
AcDbDictionary
281
     1
  0
DICTIONARY
  5
9F11
102
{ACAD_REACTORS
330
9F04
102
}
330
9F04
100
AcDbDictionary
281
     1
  3
Model
350
A23E
  3
レイアウト1
350
A23F
  0
DICTIONARY
  5
A1F1
102
{ACAD_REACTORS
330
9F04
102
}
330
9F04
100
AcDbDictionary
281
     1
  3
ByBlock
350
A1FA
  3
ByLayer
350
A1F2
  3
Global
350
A202
  0
DICTIONARY
  5
A238
102
{ACAD_REACTORS
330
9F04
102
}
330
9F04
100
AcDbDictionary
281
     1
  3
Standard
350
A239
  0
DICTIONARY
  5
9F0E
102
{ACAD_REACTORS
330
9F04
102
}
330
9F04
100
AcDbDictionary
281
     1
  3
STANDARD
350
9F0F
  0
DICTIONARY
  5
9F10
102
{ACAD_REACTORS
330
9F04
102
}
330
9F04
100
AcDbDictionary
281
     1
  0
ACDBDICTIONARYWDFLT
  5
A1EF
102
{ACAD_REACTORS
330
9F04
102
}
330
9F04
100
AcDbDictionary
281
     1
  3
Normal
350
A1F0
100
AcDbDictionaryWithDefault
340
A1F0
  0
DICTIONARY
  5
A226
102
{ACAD_REACTORS
330
9F04
102
}
330
9F04
100
AcDbDictionary
281
     1
  3
A0
350
A227
  3
A1
350
A228
  3
A2
350
A229
  3
A3
350
A22A
  3
A4
350
A22B
  3
A5
350
A22C
  3
A6
350
A22D
  3
A7
350
A22E
  3
A8
350
A22F
  3
A9
350
A230
  3
B0
350
A231
  3
B1
350
A232
  3
B2
350
A233
  3
B3
350
A234
  3
B4
350
A235
  3
B5
350
A236
  3
B6
350
A237
  0
DICTIONARY
  5
A23A
102
{ACAD_REACTORS
330
9F04
102
}
330
9F04
100
AcDbDictionary
281
     1
  3
Imperial24
350
A23B
  0
DICTIONARY
  5
A224
102
{ACAD_REACTORS
330
9F04
102
}
330
9F04
100
AcDbDictionary
281
     1
  3
Standard
350
A225
  0
DICTIONARY
  5
A20A
102
{ACAD_REACTORS
330
9F04
102
}
330
9F04
100
AcDbDictionary
281
     1
  3
2dWireframe
350
A210
  3
Basic
350
A20F
  3
Brighten
350
A216
  3
ColorChange
350
A21A
  3
Conceptual
350
A213
  3
Dim
350
A215
  3
EdgeColorOff
350
A222
  3
Facepattern
350
A219
  3
Flat
350
A20B
  3
FlatWithEdges
350
A20C
  3
Gouraud
350
A20D
  3
GouraudWithEdges
350
A20E
  3
Hidden
350
A212
  3
JitterOff
350
A220
  3
Linepattern
350
A218
  3
OverhangOff
350
A221
  3
Realistic
350
A214
  3
Shaded
350
A21F
  3
Shaded with edges
350
A21E
  3
Shades of Gray
350
A21B
  3
Sketchy
350
A21C
  3
Thicken
350
A217
  3
Wireframe
350
A211
  3
X-Ray
350
A21D
  0
XRECORD
  5
A25F
102
{ACAD_REACTORS
330
9F04
102
}
330
9F04
100
AcDbXrecord
280
     1
 90
        1
330
A225
  0
DICTIONARY
  5
A252
102
{ACAD_REACTORS
330
9F04
102
}
330
9F04
100
AcDbDictionary
281
     1
  3
CANNOSCALE
350
A257
  3
CMLEADERSTYLE
350
A254
  3
CTABLESTYLE
350
A253
  3
CVIEWDETAILSTYLE
350
A255
  3
CVIEWSECTIONSTYLE
350
A256
  3
DIMASSOC
350
A25A
  3
INDEXCTL
350
A259
  3
SORTENTS
350
A258
  3
XCLIPFRAME
350
A25B
  0
XRECORD
  5
A260
102
{ACAD_REACTORS
330
9F04
102
}
330
9F04
100
AcDbXrecord
280
     1
  1
DWGPROPS COOKIE
  2

  3

  4

  6

  7

  8
Yoshitsune
  9

300
=
301
=
302
=
303
=
304
=
305
=
306
=
307
=
308
=
309
=
 40
0.0000099768518519
 41
2451302.679923495
 42
2457192.687237755
  1

 90
        0
  0
XRECORD
  5
A243
102
{ACAD_REACTORS
330
A242
102
}
330
A242
100
AcDbXrecord
280
     1
290
     1
  0
XRECORD
  5
A245
102
{ACAD_REACTORS
330
A244
102
}
330
A244
100
AcDbXrecord
280
     1
290
     1
  0
XRECORD
  5
A247
102
{ACAD_REACTORS
330
A246
102
}
330
A246
100
AcDbXrecord
280
     1
290
     1
  0
XRECORD
  5
A249
102
{ACAD_REACTORS
330
A248
102
}
330
A248
100
AcDbXrecord
280
     1
290
     1
  0
XRECORD
  5
A24B
102
{ACAD_REACTORS
330
A24A
102
}
330
A24A
100
AcDbXrecord
280
     1
290
     1
  0
XRECORD
  5
A24D
102
{ACAD_REACTORS
330
A24C
102
}
330
A24C
100
AcDbXrecord
280
     1
290
     1
  0
XRECORD
  5
A24F
102
{ACAD_REACTORS
330
A24E
102
}
330
A24E
100
AcDbXrecord
280
     1
290
     1
  0
XRECORD
  5
A251
102
{ACAD_REACTORS
330
A250
102
}
330
A250
100
AcDbXrecord
280
     1
290
     1
  0
XRECORD
  5
A1EB
102
{ACAD_REACTORS
330
A1EA
102
}
330
A1EA
100
AcDbXrecord
280
     1
340
9F16
  0
XRECORD
  5
A1E9
102
{ACAD_REACTORS
330
A1E8
102
}
330
A1E8
100
AcDbXrecord
280
     1
340
9F12
  0
ACDBDETAILVIEWSTYLE
  5
A23D
102
{ACAD_XDICTIONARY
360
A298
102
}
102
{ACAD_REACTORS
330
A23C
102
}
330
A23C
100
AcDbModelDocViewStyle
 70
     0
  3
Imperial24
290
     0
100
AcDbDetailViewStyle
 70
     0
 71
     0
 90
        3
 71
     1
340
9F09
 40
0.24
340
0
 40
0.24
300

 40
0.36
280
     3
 71
     2
340
9F0D
 90
       25
 71
     3
340
9F09
 40
0.24
 90
        1
 40
0.75
 90
        1
300
%<\AcVar ViewType \f "%tc1">% %<\AcVar ViewDetailId>%\PSCALE %<\AcVar ViewScale \f "%sn">%
 71
     4
340
9F0D
 90
       25
340
9F0D
 90
       25
280
     0
  0
LAYOUT
  5
A23E
102
{ACAD_XDICTIONARY
360
A29A
102
}
102
{ACAD_REACTORS
330
9F11
102
}
330
9F11
100
AcDbPlotSettings
  1

  2
Canon LBP9100C
  4

  6

 40
0.0
 41
0.0
 42
0.0
 43
0.0
 44
0.0
 45
0.0
 46
0.0
 47
0.0
 48
0.0
 49
0.0
140
0.0
141
0.0
142
1.0
143
1.0
 70
  1712
 72
     0
 73
     0
 74
     0
  7

 75
     0
147
1.0
148
0.0
149
0.0
100
AcDbLayout
  1
Model
 70
     1
 71
     0
 10
0.0
 20
0.0
 11
12.0
 21
9.0
 12
0.0
 22
0.0
 32
0.0
 14
0.0
 24
0.0
 34
0.0
 15
0.0
 25
0.0
 35
0.0
146
0.0
 13
0.0
 23
0.0
 33
0.0
 16
1.0
 26
0.0
 36
0.0
 17
0.0
 27
1.0
 37
0.0
 76
     0
330
9F16
331
A1E7
  0
LAYOUT
  5
A23F
102
{ACAD_XDICTIONARY
360
A29C
102
}
102
{ACAD_REACTORS
330
9F11
102
}
330
9F11
100
AcDbPlotSettings
  1

  2
Canon LBP9100C
  4

  6

 40
0.0
 41
0.0
 42
0.0
 43
0.0
 44
0.0
 45
0.0
 46
0.0
 47
0.0
 48
0.0
 49
0.0
140
0.0
141
0.0
142
1.0
143
1.0
 70
   688
 72
     0
 73
     0
 74
     5
  7

 75
    16
147
1.0
148
0.0
149
0.0
100
AcDbLayout
  1
レイアウト1
 70
     0
 71
     1
 10
0.0
 20
0.0
 11
420.0
 21
297.0
 12
0.0
 22
0.0
 32
0.0
 14
1.000000000000000E+20
 24
1.000000000000000E+20
 34
1.000000000000000E+20
 15
-1.000000000000000E+20
 25
-1.000000000000000E+20
 35
-1.000000000000000E+20
146
0.0
 13
0.0
 23
0.0
 33
0.0
 16
1.0
 26
0.0
 36
0.0
 17
0.0
 27
1.0
 37
0.0
 76
     0
330
9F12
  0
MATERIAL
  5
A1FA
102
{ACAD_XDICTIONARY
360
A1FB
102
}
102
{ACAD_REACTORS
330
A1F1
102
}
330
A1F1
100
AcDbMaterial
  1
ByBlock
 72
     0
 43
0.0208333333333333
 43
0.0
 43
0.0
 43
0.0
 43
0.0
 43
0.0208333333333333
 43
0.0
 43
0.0
 43
0.0
 43
0.0
 43
1.0
 43
0.0
 43
0.0
 43
0.0
 43
0.0
 43
1.0
 77
     0
 47
0.0208333333333333
 47
0.0
 47
0.0
 47
0.0
 47
0.0
 47
0.0208333333333333
 47
0.0
 47
0.0
 47
0.0
 47
0.0
 47
1.0
 47
0.0
 47
0.0
 47
0.0
 47
0.0
 47
1.0
171
     0
 49
0.0208333333333333
 49
0.0
 49
0.0
 49
0.0
 49
0.0
 49
0.0208333333333333
 49
0.0
 49
0.0
 49
0.0
 49
0.0
 49
1.0
 49
0.0
 49
0.0
 49
0.0
 49
0.0
 49
1.0
175
     0
142
0.0208333333333333
142
0.0
142
0.0
142
0.0
142
0.0
142
0.0208333333333333
142
0.0
142
0.0
142
0.0
142
0.0
142
1.0
142
0.0
142
0.0
142
0.0
142
0.0
142
1.0
179
     0
144
0.0208333333333333
144
0.0
144
0.0
144
0.0
144
0.0
144
0.0208333333333333
144
0.0
144
0.0
144
0.0
144
0.0
144
1.0
144
0.0
144
0.0
144
0.0
144
0.0
144
1.0
147
0.0208333333333333
147
0.0
147
0.0
147
0.0
147
0.0
147
0.0208333333333333
147
0.0
147
0.0
147
0.0
147
0.0
147
1.0
147
0.0
147
0.0
147
0.0
147
0.0
147
1.0
  0
MATERIAL
  5
A1F2
102
{ACAD_XDICTIONARY
360
A1F3
102
}
102
{ACAD_REACTORS
330
A1F1
102
}
330
A1F1
100
AcDbMaterial
  1
ByLayer
 72
     0
 43
0.0208333333333333
 43
0.0
 43
0.0
 43
0.0
 43
0.0
 43
0.0208333333333333
 43
0.0
 43
0.0
 43
0.0
 43
0.0
 43
1.0
 43
0.0
 43
0.0
 43
0.0
 43
0.0
 43
1.0
 77
     0
 47
0.0208333333333333
 47
0.0
 47
0.0
 47
0.0
 47
0.0
 47
0.0208333333333333
 47
0.0
 47
0.0
 47
0.0
 47
0.0
 47
1.0
 47
0.0
 47
0.0
 47
0.0
 47
0.0
 47
1.0
171
     0
 49
0.0208333333333333
 49
0.0
 49
0.0
 49
0.0
 49
0.0
 49
0.0208333333333333
 49
0.0
 49
0.0
 49
0.0
 49
0.0
 49
1.0
 49
0.0
 49
0.0
 49
0.0
 49
0.0
 49
1.0
175
     0
142
0.0208333333333333
142
0.0
142
0.0
142
0.0
142
0.0
142
0.0208333333333333
142
0.0
142
0.0
142
0.0
142
0.0
142
1.0
142
0.0
142
0.0
142
0.0
142
0.0
142
1.0
179
     0
144
0.0208333333333333
144
0.0
144
0.0
144
0.0
144
0.0
144
0.0208333333333333
144
0.0
144
0.0
144
0.0
144
0.0
144
1.0
144
0.0
144
0.0
144
0.0
144
0.0
144
1.0
147
0.0208333333333333
147
0.0
147
0.0
147
0.0
147
0.0
147
0.0208333333333333
147
0.0
147
0.0
147
0.0
147
0.0
147
1.0
147
0.0
147
0.0
147
0.0
147
0.0
147
1.0
  0
MATERIAL
  5
A202
102
{ACAD_XDICTIONARY
360
A203
102
}
102
{ACAD_REACTORS
330
A1F1
102
}
330
A1F1
100
AcDbMaterial
  1
Global
 72
     0
 43
0.0208333333333333
 43
0.0
 43
0.0
 43
0.0
 43
0.0
 43
0.0208333333333333
 43
0.0
 43
0.0
 43
0.0
 43
0.0
 43
1.0
 43
0.0
 43
0.0
 43
0.0
 43
0.0
 43
1.0
 77
     0
 47
0.0208333333333333
 47
0.0
 47
0.0
 47
0.0
 47
0.0
 47
0.0208333333333333
 47
0.0
 47
0.0
 47
0.0
 47
0.0
 47
1.0
 47
0.0
 47
0.0
 47
0.0
 47
0.0
 47
1.0
171
     0
 49
0.0208333333333333
 49
0.0
 49
0.0
 49
0.0
 49
0.0
 49
0.0208333333333333
 49
0.0
 49
0.0
 49
0.0
 49
0.0
 49
1.0
 49
0.0
 49
0.0
 49
0.0
 49
0.0
 49
1.0
175
     0
142
0.0208333333333333
142
0.0
142
0.0
142
0.0
142
0.0
142
0.0208333333333333
142
0.0
142
0.0
142
0.0
142
0.0
142
1.0
142
0.0
142
0.0
142
0.0
142
0.0
142
1.0
179
     0
144
0.0208333333333333
144
0.0
144
0.0
144
0.0
144
0.0
144
0.0208333333333333
144
0.0
144
0.0
144
0.0
144
0.0
144
1.0
144
0.0
144
0.0
144
0.0
144
0.0
144
1.0
147
0.0208333333333333
147
0.0
147
0.0
147
0.0
147
0.0
147
0.0208333333333333
147
0.0
147
0.0
147
0.0
147
0.0
147
1.0
147
0.0
147
0.0
147
0.0
147
0.0
147
1.0
  0
MLEADERSTYLE
  5
A239
102
{ACAD_REACTORS
330
A238
102
}
330
A238
100
AcDbMLeaderStyle
170
     2
171
     1
172
     0
 90
        2
 40
0.0
 41
0.0
173
     1
 91
-1056964608
340
9F0B
 92
       -2
290
     1
 42
0.09
291
     1
 43
0.36
  3
Standard
 44
0.18
300

342
9F09
174
     1
178
     6
175
     1
176
     0
 93
-1056964608
 45
0.18
292
     0
297
     0
 46
0.18
 94
-1056964608
 47
1.0
 49
1.0
140
1.0
293
     1
141
0.0
294
     1
177
     0
142
1.0
295
     0
296
     0
143
0.125
1001
ACAD_MLEADERVER
1070
     2
  0
MLINESTYLE
  5
9F0F
102
{ACAD_REACTORS
330
9F0E
102
}
330
9F0E
100
AcDbMlineStyle
  2
STANDARD
 70
     0
  3

 62
   256
 51
90.0
 52
90.0
 71
     2
 49
0.5
 62
   256
  6
BYLAYER
 49
-0.5
 62
   256
  6
BYLAYER
  0
ACDBPLACEHOLDER
  5
A1F0
102
{ACAD_REACTORS
330
A1EF
102
}
330
A1EF
  0
SCALE
  5
A227
102
{ACAD_REACTORS
330
A226
102
}
330
A226
100
AcDbScale
 70
     0
300
1:1
140
1.0
141
1.0
290
     1
  0
SCALE
  5
A228
102
{ACAD_REACTORS
330
A226
102
}
330
A226
100
AcDbScale
 70
     0
300
1/128" = 1'-0"
140
0.0078125
141
12.0
290
     0
  0
SCALE
  5
A229
102
{ACAD_REACTORS
330
A226
102
}
330
A226
100
AcDbScale
 70
     0
300
1/64" = 1'-0"
140
0.015625
141
12.0
290
     0
  0
SCALE
  5
A22A
102
{ACAD_REACTORS
330
A226
102
}
330
A226
100
AcDbScale
 70
     0
300
1/32" = 1'-0"
140
0.03125
141
12.0
290
     0
  0
SCALE
  5
A22B
102
{ACAD_REACTORS
330
A226
102
}
330
A226
100
AcDbScale
 70
     0
300
1/16" = 1'-0"
140
0.0625
141
12.0
290
     0
  0
SCALE
  5
A22C
102
{ACAD_REACTORS
330
A226
102
}
330
A226
100
AcDbScale
 70
     0
300
3/32" = 1'-0"
140
0.09375
141
12.0
290
     0
  0
SCALE
  5
A22D
102
{ACAD_REACTORS
330
A226
102
}
330
A226
100
AcDbScale
 70
     0
300
1/8" = 1'-0"
140
0.125
141
12.0
290
     0
  0
SCALE
  5
A22E
102
{ACAD_REACTORS
330
A226
102
}
330
A226
100
AcDbScale
 70
     0
300
3/16" = 1'-0"
140
0.1875
141
12.0
290
     0
  0
SCALE
  5
A22F
102
{ACAD_REACTORS
330
A226
102
}
330
A226
100
AcDbScale
 70
     0
300
1/4" = 1'-0"
140
0.25
141
12.0
290
     0
  0
SCALE
  5
A230
102
{ACAD_REACTORS
330
A226
102
}
330
A226
100
AcDbScale
 70
     0
300
3/8" = 1'-0"
140
0.375
141
12.0
290
     0
  0
SCALE
  5
A231
102
{ACAD_REACTORS
330
A226
102
}
330
A226
100
AcDbScale
 70
     0
300
1/2" = 1'-0"
140
0.5
141
12.0
290
     0
  0
SCALE
  5
A232
102
{ACAD_REACTORS
330
A226
102
}
330
A226
100
AcDbScale
 70
     0
300
3/4" = 1'-0"
140
0.75
141
12.0
290
     0
  0
SCALE
  5
A233
102
{ACAD_REACTORS
330
A226
102
}
330
A226
100
AcDbScale
 70
     0
300
1" = 1'-0"
140
1.0
141
12.0
290
     0
  0
SCALE
  5
A234
102
{ACAD_REACTORS
330
A226
102
}
330
A226
100
AcDbScale
 70
     0
300
1-1/2" = 1'-0"
140
1.5
141
12.0
290
     0
  0
SCALE
  5
A235
102
{ACAD_REACTORS
330
A226
102
}
330
A226
100
AcDbScale
 70
     0
300
3" = 1'-0"
140
3.0
141
12.0
290
     0
  0
SCALE
  5
A236
102
{ACAD_REACTORS
330
A226
102
}
330
A226
100
AcDbScale
 70
     0
300
6" = 1'-0"
140
6.0
141
12.0
290
     0
  0
SCALE
  5
A237
102
{ACAD_REACTORS
330
A226
102
}
330
A226
100
AcDbScale
 70
     0
300
1'-0" = 1'-0"
140
12.0
141
12.0
290
     0
  0
ACDBSECTIONVIEWSTYLE
  5
A23B
102
{ACAD_XDICTIONARY
360
A296
102
}
102
{ACAD_REACTORS
330
A23A
102
}
330
A23A
100
AcDbModelDocViewStyle
 70
     0
  3
Imperial24
290
     0
100
AcDbSectionViewStyle
 70
     0
 71
     0
 90
       78
 71
     1
340
9F09
 40
0.24
340
0
340
0
 40
0.24
300
I, O, Q, S, X, Z
 40
0.48
 90
        3
 40
0.18
 90
        1
 71
     2
340
9F0D
 90
       25
340
9F0D
 90
       50
 40
0.24
 40
0.0
 40
0.24
 71
     3
340
9F09
 40
0.24
 90
        1
 40
0.75
 90
        1
300
%<\AcVar ViewType \f "%tc1">% %<\AcVar ViewSectionStartId>%-%<\AcVar ViewSectionEndId>%\PSCALE %<\AcVar ViewScale \f "%sn">%
 71
     4
300
ANSI31
 40
1.0
 90
        0
290
     0
290
     0
 90
        6
 40
0.0
 40
1.570796326794896
 40
0.2617993877991494
 40
1.308996938995747
 40
-0.2617993877991494
 40
1.832595714594046
  0
TABLESTYLE
  5
A225
102
{ACAD_XDICTIONARY
360
A25D
102
}
102
{ACAD_REACTORS
330
A224
102
}
330
A224
100
AcDbTableStyle
  3
Standard
 70
     0
 71
     0
 40
0.06
 41
0.06
280
     0
281
     0
  7
STANDARD
140
0.18
170
     2
 62
     0
 63
     7
283
     0
274
    -2
284
     1
 64
     0
275
    -2
285
     1
 65
     0
276
    -2
286
     1
 66
     0
277
    -2
287
     1
 67
     0
278
    -2
288
     1
 68
     0
279
    -2
289
     1
 69
     0
  7
STANDARD
140
0.25
170
     5
 62
     0
 63
     7
283
     0
274
    -2
284
     1
 64
     0
275
    -2
285
     1
 65
     0
276
    -2
286
     1
 66
     0
277
    -2
287
     1
 67
     0
278
    -2
288
     1
 68
     0
279
    -2
289
     1
 69
     0
  7
STANDARD
140
0.18
170
     5
 62
     0
 63
     7
283
     0
274
    -2
284
     1
 64
     0
275
    -2
285
     1
 65
     0
276
    -2
286
     1
 66
     0
277
    -2
287
     1
 67
     0
278
    -2
288
     1
 68
     0
279
    -2
289
     1
 69
     0
  0
VISUALSTYLE
  5
A210
102
{ACAD_XDICTIONARY
360
A26E
102
}
102
{ACAD_REACTORS
330
A20A
102
}
330
A20A
100
AcDbVisualStyle
  2
2dWireframe
 70
     4
 71
     0
 72
     2
 73
     0
 90
        0
 40
-0.6
 41
-30.0
 62
     5
 63
     7
 74
     1
 91
        4
 64
     7
 65
   257
 75
     1
175
     1
 42
1.0
 92
        0
 66
   257
 43
1.0
 76
     1
 77
     6
 78
     2
 67
     7
 79
     5
170
     0
171
     0
290
     0
174
     0
 93
        1
 44
0.0
173
     0
291
     0
 45
0.0
1001
ACAD
1000
AcDbSavedByObjectVersion
1070
     0
  0
VISUALSTYLE
  5
A20F
102
{ACAD_XDICTIONARY
360
A26C
102
}
102
{ACAD_REACTORS
330
A20A
102
}
330
A20A
100
AcDbVisualStyle
  2
Basic
 70
     7
 71
     1
 72
     0
 73
     1
 90
        0
 40
-0.6
 41
-30.0
 62
     5
 63
     7
 74
     0
 91
        4
 64
     7
 65
   257
 75
     1
175
     1
 42
1.0
 92
        8
 66
     7
 43
1.0
 76
     1
 77
     6
 78
     2
 67
     7
 79
     5
170
     0
171
     0
290
     0
174
     0
 93
        1
 44
0.0
173
     0
291
     1
 45
0.0
1001
ACAD
1000
AcDbSavedByObjectVersion
1070
     0
  0
VISUALSTYLE
  5
A216
102
{ACAD_XDICTIONARY
360
A27A
102
}
102
{ACAD_REACTORS
330
A20A
102
}
330
A20A
100
AcDbVisualStyle
  2
Brighten
 70
    12
 71
     2
 72
     2
 73
     0
 90
        0
 40
-0.6
 41
-30.0
 62
     5
 63
     7
 74
     1
 91
        4
 64
     7
 65
   257
 75
     1
175
     1
 42
1.0
 92
        8
 66
     7
 43
1.0
 76
     1
 77
     6
 78
     2
 67
     7
 79
     5
170
     0
171
     0
290
     0
174
     0
 93
        1
 44
50.0
173
     0
291
     1
 45
0.0
1001
ACAD
1000
AcDbSavedByObjectVersion
1070
     0
  0
VISUALSTYLE
  5
A21A
102
{ACAD_XDICTIONARY
360
A282
102
}
102
{ACAD_REACTORS
330
A20A
102
}
330
A20A
100
AcDbVisualStyle
  2
ColorChange
 70
    16
 71
     2
 72
     2
 73
     3
 90
        0
 40
-0.6
 41
-30.0
 62
     5
 63
     8
 74
     1
 91
        4
 64
     7
 65
   257
 75
     1
175
     1
 42
1.0
 92
        8
 66
     8
 43
1.0
 76
     1
 77
     6
 78
     2
 67
     7
 79
     5
170
     0
171
     0
290
     0
174
     0
 93
        1
 44
0.0
173
     0
291
     1
 45
0.0
1001
ACAD
1000
AcDbSavedByObjectVersion
1070
     0
  0
VISUALSTYLE
  5
A213
102
{ACAD_XDICTIONARY
360
A274
102
}
102
{ACAD_REACTORS
330
A20A
102
}
330
A20A
100
AcDbVisualStyle
  2
Conceptual
 70
     9
 71
     3
 72
     2
 73
     0
 90
        0
 40
-0.6
 41
-30.0
 62
     5
 63
     7
 74
     2
 91
        2
 64
     7
 65
   257
 75
     1
175
     1
 42
179.0
 92
        8
 66
     7
 43
1.0
 76
     1
 77
     6
 78
     2
 67
     7
 79
     3
170
     0
171
     0
290
     0
174
     0
 93
        1
 44
0.0
173
     0
291
     0
 45
0.0
1001
ACAD
1000
AcDbSavedByObjectVersion
1070
     0
  0
VISUALSTYLE
  5
A215
102
{ACAD_XDICTIONARY
360
A278
102
}
102
{ACAD_REACTORS
330
A20A
102
}
330
A20A
100
AcDbVisualStyle
  2
Dim
 70
    11
 71
     2
 72
     2
 73
     0
 90
        0
 40
-0.6
 41
-30.0
 62
     5
 63
     7
 74
     1
 91
        4
 64
     7
 65
   257
 75
     1
175
     1
 42
1.0
 92
        8
 66
     7
 43
1.0
 76
     1
 77
     6
 78
     2
 67
     7
 79
     5
170
     0
171
     0
290
     0
174
     0
 93
        1
 44
-50.0
173
     0
291
     1
 45
0.0
1001
ACAD
1000
AcDbSavedByObjectVersion
1070
     0
  0
VISUALSTYLE
  5
A222
102
{ACAD_XDICTIONARY
360
A292
102
}
102
{ACAD_REACTORS
330
A20A
102
}
330
A20A
100
AcDbVisualStyle
  2
EdgeColorOff
 70
    22
 71
     2
 72
     2
 73
     0
 90
        0
 40
-0.6
 41
-30.0
 62
     5
 63
     7
 74
     1
 91
        4
 64
     7
 65
   257
 75
     1
175
     1
 42
1.0
 92
        8
 66
     7
 43
1.0
 76
     1
 77
     6
 78
     2
 67
     7
 79
     5
170
     0
171
     0
290
     0
174
     0
 93
        1
 44
0.0
173
     0
291
     1
 45
0.0
1001
ACAD
1000
AcDbSavedByObjectVersion
1070
     0
  0
VISUALSTYLE
  5
A219
102
{ACAD_XDICTIONARY
360
A280
102
}
102
{ACAD_REACTORS
330
A20A
102
}
330
A20A
100
AcDbVisualStyle
  2
Facepattern
 70
    15
 71
     2
 72
     2
 73
     0
 90
        0
 40
-0.6
 41
-30.0
 62
     5
 63
     7
 74
     1
 91
        4
 64
     7
 65
   257
 75
     1
175
     1
 42
1.0
 92
        8
 66
     7
 43
1.0
 76
     1
 77
     6
 78
     2
 67
     7
 79
     5
170
     0
171
     0
290
     0
174
     0
 93
        1
 44
0.0
173
     0
291
     1
 45
0.0
1001
ACAD
1000
AcDbSavedByObjectVersion
1070
     0
  0
VISUALSTYLE
  5
A20B
102
{ACAD_XDICTIONARY
360
A264
102
}
102
{ACAD_REACTORS
330
A20A
102
}
330
A20A
100
AcDbVisualStyle
  2
Flat
 70
     0
 71
     2
 72
     1
 73
     1
 90
        2
 40
-0.6
 41
30.0
 62
     5
 63
     7
 74
     0
 91
        0
 64
     7
 65
   257
 75
     1
175
     1
 42
1.0
 92
        8
 66
     7
 43
1.0
 76
     1
 77
     6
 78
     2
 67
     7
 79
     5
170
     0
171
     0
290
     0
174
     0
 93
       13
 44
0.0
173
     0
291
     1
 45
0.0
1001
ACAD
1000
AcDbSavedByObjectVersion
1070
     0
  0
VISUALSTYLE
  5
A20C
102
{ACAD_XDICTIONARY
360
A266
102
}
102
{ACAD_REACTORS
330
A20A
102
}
330
A20A
100
AcDbVisualStyle
  2
FlatWithEdges
 70
     1
 71
     2
 72
     1
 73
     1
 90
        2
 40
-0.6
 41
30.0
 62
     5
 63
     7
 74
     1
 91
        0
 64
     7
 65
   257
 75
     1
175
     1
 42
1.0
 92
        0
 66
   257
 43
1.0
 76
     1
 77
     6
 78
     2
 67
     7
 79
     5
170
     0
171
     0
290
     0
174
     0
 93
       13
 44
0.0
173
     0
291
     1
 45
0.0
1001
ACAD
1000
AcDbSavedByObjectVersion
1070
     0
  0
VISUALSTYLE
  5
A20D
102
{ACAD_XDICTIONARY
360
A268
102
}
102
{ACAD_REACTORS
330
A20A
102
}
330
A20A
100
AcDbVisualStyle
  2
Gouraud
 70
     2
 71
     2
 72
     2
 73
     1
 90
        2
 40
-0.6
 41
30.0
 62
     5
 63
     7
 74
     0
 91
        0
 64
     7
 65
   257
 75
     1
175
     1
 42
1.0
 92
        0
 66
     7
 43
1.0
 76
     1
 77
     6
 78
     2
 67
     7
 79
     5
170
     0
171
     0
290
     0
174
     0
 93
       13
 44
0.0
173
     0
291
     1
 45
0.0
1001
ACAD
1000
AcDbSavedByObjectVersion
1070
     0
  0
VISUALSTYLE
  5
A20E
102
{ACAD_XDICTIONARY
360
A26A
102
}
102
{ACAD_REACTORS
330
A20A
102
}
330
A20A
100
AcDbVisualStyle
  2
GouraudWithEdges
 70
     3
 71
     2
 72
     2
 73
     1
 90
        2
 40
-0.6
 41
30.0
 62
     5
 63
     7
 74
     1
 91
        0
 64
     7
 65
   257
 75
     1
175
     1
 42
1.0
 92
        0
 66
   257
 43
1.0
 76
     1
 77
     6
 78
     2
 67
     7
 79
     5
170
     0
171
     0
290
     0
174
     0
 93
       13
 44
0.0
173
     0
291
     1
 45
0.0
1001
ACAD
1000
AcDbSavedByObjectVersion
1070
     0
  0
VISUALSTYLE
  5
A212
102
{ACAD_XDICTIONARY
360
A272
102
}
102
{ACAD_REACTORS
330
A20A
102
}
330
A20A
100
AcDbVisualStyle
  2
Hidden
 70
     6
 71
     1
 72
     2
 73
     2
 90
        0
 40
-0.6
 41
-30.0
 62
     5
 63
     7
 74
     2
 91
        2
 64
     7
 65
   257
 75
     2
175
     1
 42
40.0
 92
        0
 66
   257
 43
1.0
 76
     1
 77
     6
 78
     2
 67
     7
 79
     3
170
     0
171
     0
290
     0
174
     0
 93
        1
 44
0.0
173
     0
291
     0
 45
0.0
1001
ACAD
1000
AcDbSavedByObjectVersion
1070
     0
  0
VISUALSTYLE
  5
A220
102
{ACAD_XDICTIONARY
360
A28E
102
}
102
{ACAD_REACTORS
330
A20A
102
}
330
A20A
100
AcDbVisualStyle
  2
JitterOff
 70
    20
 71
     2
 72
     2
 73
     0
 90
        0
 40
-0.6
 41
-30.0
 62
     5
 63
     7
 74
     1
 91
        4
 64
     7
 65
   257
 75
     1
175
     1
 42
1.0
 92
       10
 66
     7
 43
1.0
 76
     1
 77
     6
 78
     2
 67
     7
 79
     5
170
     0
171
     0
290
     0
174
     0
 93
        1
 44
0.0
173
     0
291
     1
 45
0.0
1001
ACAD
1000
AcDbSavedByObjectVersion
1070
     0
  0
VISUALSTYLE
  5
A218
102
{ACAD_XDICTIONARY
360
A27E
102
}
102
{ACAD_REACTORS
330
A20A
102
}
330
A20A
100
AcDbVisualStyle
  2
Linepattern
 70
    14
 71
     2
 72
     2
 73
     0
 90
        0
 40
-0.6
 41
-30.0
 62
     5
 63
     7
 74
     1
 91
        4
 64
     7
 65
   257
 75
     7
175
     7
 42
1.0
 92
        8
 66
     7
 43
1.0
 76
     1
 77
     6
 78
     2
 67
     7
 79
     5
170
     0
171
     0
290
     0
174
     0
 93
        1
 44
0.0
173
     0
291
     1
 45
0.0
1001
ACAD
1000
AcDbSavedByObjectVersion
1070
     0
  0
VISUALSTYLE
  5
A221
102
{ACAD_XDICTIONARY
360
A290
102
}
102
{ACAD_REACTORS
330
A20A
102
}
330
A20A
100
AcDbVisualStyle
  2
OverhangOff
 70
    21
 71
     2
 72
     2
 73
     0
 90
        0
 40
-0.6
 41
-30.0
 62
     5
 63
     7
 74
     1
 91
        4
 64
     7
 65
   257
 75
     1
175
     1
 42
1.0
 92
        9
 66
     7
 43
1.0
 76
     1
 77
     6
 78
     2
 67
     7
 79
     5
170
     0
171
     0
290
     0
174
     0
 93
        1
 44
0.0
173
     0
291
     1
 45
0.0
1001
ACAD
1000
AcDbSavedByObjectVersion
1070
     0
  0
VISUALSTYLE
  5
A214
102
{ACAD_XDICTIONARY
360
A276
102
}
102
{ACAD_REACTORS
330
A20A
102
}
330
A20A
100
AcDbVisualStyle
  2
Realistic
 70
     8
 71
     2
 72
     3
 73
     0
 90
        2
 40
-0.6
 41
30.0
 62
     5
 63
     7
 74
     0
 91
        0
 64
     7
 65
   257
 75
     1
175
     1
 42
1.0
 92
        8
 66
   257
 43
1.0
 76
     1
 77
     6
 78
     2
 67
     7
 79
     3
170
     0
171
     0
290
     0
174
     0
 93
       13
 44
0.0
173
     0
291
     0
 45
0.0
1001
ACAD
1000
AcDbSavedByObjectVersion
1070
     0
  0
VISUALSTYLE
  5
A21F
102
{ACAD_XDICTIONARY
360
A28C
102
}
102
{ACAD_REACTORS
330
A20A
102
}
330
A20A
100
AcDbVisualStyle
  2
Shaded
 70
    27
 71
     2
 72
     2
 73
     1
 90
        2
 40
-0.6
 41
30.0
 62
     5
 63
     7
 74
     0
 91
        4
 64
     7
 65
   257
 75
     1
175
     1
 42
1.0
 92
        8
 66
   257
 43
1.0
 76
     1
 77
     6
 78
     2
 67
     8
 79
     3
170
     0
171
     0
290
     0
174
     0
 93
        5
 44
0.0
173
     0
291
     0
 45
0.0
1001
ACAD
1000
AcDbSavedByObjectVersion
1070
     0
  0
VISUALSTYLE
  5
A21E
102
{ACAD_XDICTIONARY
360
A28A
102
}
102
{ACAD_REACTORS
330
A20A
102
}
330
A20A
100
AcDbVisualStyle
  2
Shaded with edges
 70
    26
 71
     2
 72
     2
 73
     1
 90
        2
 40
-0.6
 41
30.0
 62
     5
 63
     7
 74
     1
 91
       10
 64
     7
 65
   257
 75
     2
175
     1
 42
1.0
 92
        8
 66
   257
 43
1.0
 76
     1
 77
     6
 78
     2
 67
     7
 79
     3
170
     0
171
     0
290
     0
174
     0
 93
        5
 44
0.0
173
     0
291
     0
 45
0.0
1001
ACAD
1000
AcDbSavedByObjectVersion
1070
     0
  0
VISUALSTYLE
  5
A21B
102
{ACAD_XDICTIONARY
360
A284
102
}
102
{ACAD_REACTORS
330
A20A
102
}
330
A20A
100
AcDbVisualStyle
  2
Shades of Gray
 70
    23
 71
     2
 72
     2
 73
     3
 90
        0
 40
-0.6
 41
-30.0
 62
     5
 63
     7
 74
     2
 91
        2
 64
     7
 65
     7
 75
     1
175
     1
 42
40.0
 92
        8
 66
     7
 43
1.0
 76
     1
 77
     6
 78
     2
 67
     7
 79
     3
170
     0
171
     0
290
     0
174
     0
 93
        1
 44
0.0
173
     0
291
     0
 45
0.0
1001
ACAD
1000
AcDbSavedByObjectVersion
1070
     0
  0
VISUALSTYLE
  5
A21C
102
{ACAD_XDICTIONARY
360
A286
102
}
102
{ACAD_REACTORS
330
A20A
102
}
330
A20A
100
AcDbVisualStyle
  2
Sketchy
 70
    24
 71
     1
 72
     2
 73
     2
 90
        0
 40
-0.6
 41
-30.0
 62
     5
 63
     7
 74
     2
 91
        2
 64
     7
 65
     7
 75
     1
175
     1
 42
40.0
 92
       11
 66
     7
 43
1.0
 76
     1
 77
     6
 78
     2
 67
     7
 79
     6
170
     0
171
     0
290
     0
174
     0
 93
        1
 44
0.0
173
     0
291
     0
 45
0.0
1001
ACAD
1000
AcDbSavedByObjectVersion
1070
     0
  0
VISUALSTYLE
  5
A217
102
{ACAD_XDICTIONARY
360
A27C
102
}
102
{ACAD_REACTORS
330
A20A
102
}
330
A20A
100
AcDbVisualStyle
  2
Thicken
 70
    13
 71
     2
 72
     2
 73
     0
 90
        0
 40
-0.6
 41
-30.0
 62
     5
 63
     7
 74
     1
 91
        4
 64
     7
 65
   257
 75
     1
175
     1
 42
1.0
 92
       12
 66
     7
 43
1.0
 76
     1
 77
     6
 78
     2
 67
     7
 79
     5
170
     0
171
     0
290
     0
174
     0
 93
        1
 44
0.0
173
     0
291
     1
 45
0.0
1001
ACAD
1000
AcDbSavedByObjectVersion
1070
     0
  0
VISUALSTYLE
  5
A211
102
{ACAD_XDICTIONARY
360
A270
102
}
102
{ACAD_REACTORS
330
A20A
102
}
330
A20A
100
AcDbVisualStyle
  2
Wireframe
 70
     5
 71
     0
 72
     2
 73
     0
 90
        0
 40
-0.6
 41
-30.0
 62
     5
 63
     7
 74
     1
 91
        4
 64
     7
 65
   257
 75
     1
175
     1
 42
1.0
 92
        0
 66
   257
 43
1.0
 76
     1
 77
     6
 78
     2
 67
     7
 79
     3
170
     0
171
     0
290
     0
174
     0
 93
        1
 44
0.0
173
     0
291
     0
 45
0.0
1001
ACAD
1000
AcDbSavedByObjectVersion
1070
     0
  0
VISUALSTYLE
  5
A21D
102
{ACAD_XDICTIONARY
360
A288
102
}
102
{ACAD_REACTORS
330
A20A
102
}
330
A20A
100
AcDbVisualStyle
  2
X-Ray
 70
    25
 71
     2
 72
     2
 73
     1
 90
        1
 40
0.5
 41
-30.0
 62
     5
 63
     7
 74
     1
 91
        0
 64
     7
 65
   257
 75
     1
175
     1
 42
1.0
 92
        8
 66
     7
 43
1.0
 76
     1
 77
     6
 78
     2
 67
     7
 79
     3
170
     0
171
     0
290
     0
174
     0
 93
       13
 44
0.0
173
     0
291
     0
 45
0.0
1001
ACAD
1000
AcDbSavedByObjectVersion
1070
     0
  0
DICTIONARYVAR
  5
A257
102
{ACAD_REACTORS
330
A252
102
}
330
A252
100
DictionaryVariables
280
     0
  1
1:1
  0
DICTIONARYVAR
  5
A254
102
{ACAD_REACTORS
330
A252
102
}
330
A252
100
DictionaryVariables
280
     0
  1
STANDARD
  0
DICTIONARYVAR
  5
A253
102
{ACAD_REACTORS
330
A252
102
}
330
A252
100
DictionaryVariables
280
     0
  1
STANDARD
  0
DICTIONARYVAR
  5
A255
102
{ACAD_REACTORS
330
A252
102
}
330
A252
100
DictionaryVariables
280
     0
  1
Imperial24
  0
DICTIONARYVAR
  5
A256
102
{ACAD_REACTORS
330
A252
102
}
330
A252
100
DictionaryVariables
280
     0
  1
Imperial24
  0
DICTIONARYVAR
  5
A25A
102
{ACAD_REACTORS
330
A252
102
}
330
A252
100
DictionaryVariables
280
     0
  1
1
  0
DICTIONARYVAR
  5
A259
102
{ACAD_REACTORS
330
A252
102
}
330
A252
100
DictionaryVariables
280
     0
  1
0
  0
DICTIONARYVAR
  5
A258
102
{ACAD_REACTORS
330
A252
102
}
330
A252
100
DictionaryVariables
280
     0
  1
127
  0
DICTIONARYVAR
  5
A25B
102
{ACAD_REACTORS
330
A252
102
}
330
A252
100
DictionaryVariables
280
     0
  1
2
  0
DICTIONARY
  5
A298
330
A23D
100
AcDbDictionary
280
     1
281
     1
  3
ACAD_XREC_ROUNDTRIP
360
A299
  0
DICTIONARY
  5
A29A
330
A23E
100
AcDbDictionary
280
     1
281
     1
  3
ACAD_XREC_ROUNDTRIP
360
A29B
  0
DICTIONARY
  5
A29C
330
A23F
100
AcDbDictionary
280
     1
281
     1
  3
ACAD_XREC_ROUNDTRIP
360
A29D
  0
DICTIONARY
  5
A1FB
330
A1FA
100
AcDbDictionary
280
     1
281
     1
  3
ACAD_XREC_ROUNDTRIP
360
A262
  3
BUMPTILE
360
A1FD
  3
DIFFUSETILE
360
A1FC
  3
OPACITYTILE
360
A200
  3
REFLECTIONTILE
360
A1FF
  3
REFRACTIONTILE
360
A201
  3
SPECULARTILE
360
A1FE
  0
DICTIONARY
  5
A1F3
330
A1F2
100
AcDbDictionary
280
     1
281
     1
  3
ACAD_XREC_ROUNDTRIP
360
A261
  3
BUMPTILE
360
A1F5
  3
DIFFUSETILE
360
A1F4
  3
OPACITYTILE
360
A1F8
  3
REFLECTIONTILE
360
A1F7
  3
REFRACTIONTILE
360
A1F9
  3
SPECULARTILE
360
A1F6
  0
DICTIONARY
  5
A203
330
A202
100
AcDbDictionary
280
     1
281
     1
  3
ACAD_XREC_ROUNDTRIP
360
A263
  3
BUMPTILE
360
A205
  3
DIFFUSETILE
360
A204
  3
OPACITYTILE
360
A208
  3
REFLECTIONTILE
360
A207
  3
REFRACTIONTILE
360
A209
  3
SPECULARTILE
360
A206
  0
DICTIONARY
  5
A296
330
A23B
100
AcDbDictionary
280
     1
281
     1
  3
ACAD_XREC_ROUNDTRIP
360
A297
  0
DICTIONARY
  5
A25D
330
A225
100
AcDbDictionary
280
     1
281
     1
  3
ACAD_ROUNDTRIP_2008_TABLESTYLE_CELLSTYLEMAP
360
A25E
  3
ACAD_XREC_ROUNDTRIP
360
A294
  0
DICTIONARY
  5
A26E
330
A210
100
AcDbDictionary
280
     1
281
     1
  3
ACAD_XREC_ROUNDTRIP
360
A26F
  0
DICTIONARY
  5
A26C
330
A20F
100
AcDbDictionary
280
     1
281
     1
  3
ACAD_XREC_ROUNDTRIP
360
A26D
  0
DICTIONARY
  5
A27A
330
A216
100
AcDbDictionary
280
     1
281
     1
  3
ACAD_XREC_ROUNDTRIP
360
A27B
  0
DICTIONARY
  5
A282
330
A21A
100
AcDbDictionary
280
     1
281
     1
  3
ACAD_XREC_ROUNDTRIP
360
A283
  0
DICTIONARY
  5
A274
330
A213
100
AcDbDictionary
280
     1
281
     1
  3
ACAD_XREC_ROUNDTRIP
360
A275
  0
DICTIONARY
  5
A278
330
A215
100
AcDbDictionary
280
     1
281
     1
  3
ACAD_XREC_ROUNDTRIP
360
A279
  0
DICTIONARY
  5
A292
330
A222
100
AcDbDictionary
280
     1
281
     1
  3
ACAD_XREC_ROUNDTRIP
360
A293
  0
DICTIONARY
  5
A280
330
A219
100
AcDbDictionary
280
     1
281
     1
  3
ACAD_XREC_ROUNDTRIP
360
A281
  0
DICTIONARY
  5
A264
330
A20B
100
AcDbDictionary
280
     1
281
     1
  3
ACAD_XREC_ROUNDTRIP
360
A265
  0
DICTIONARY
  5
A266
330
A20C
100
AcDbDictionary
280
     1
281
     1
  3
ACAD_XREC_ROUNDTRIP
360
A267
  0
DICTIONARY
  5
A268
330
A20D
100
AcDbDictionary
280
     1
281
     1
  3
ACAD_XREC_ROUNDTRIP
360
A269
  0
DICTIONARY
  5
A26A
330
A20E
100
AcDbDictionary
280
     1
281
     1
  3
ACAD_XREC_ROUNDTRIP
360
A26B
  0
DICTIONARY
  5
A272
330
A212
100
AcDbDictionary
280
     1
281
     1
  3
ACAD_XREC_ROUNDTRIP
360
A273
  0
DICTIONARY
  5
A28E
330
A220
100
AcDbDictionary
280
     1
281
     1
  3
ACAD_XREC_ROUNDTRIP
360
A28F
  0
DICTIONARY
  5
A27E
330
A218
100
AcDbDictionary
280
     1
281
     1
  3
ACAD_XREC_ROUNDTRIP
360
A27F
  0
DICTIONARY
  5
A290
330
A221
100
AcDbDictionary
280
     1
281
     1
  3
ACAD_XREC_ROUNDTRIP
360
A291
  0
DICTIONARY
  5
A276
330
A214
100
AcDbDictionary
280
     1
281
     1
  3
ACAD_XREC_ROUNDTRIP
360
A277
  0
DICTIONARY
  5
A28C
330
A21F
100
AcDbDictionary
280
     1
281
     1
  3
ACAD_XREC_ROUNDTRIP
360
A28D
  0
DICTIONARY
  5
A28A
330
A21E
100
AcDbDictionary
280
     1
281
     1
  3
ACAD_XREC_ROUNDTRIP
360
A28B
  0
DICTIONARY
  5
A284
330
A21B
100
AcDbDictionary
280
     1
281
     1
  3
ACAD_XREC_ROUNDTRIP
360
A285
  0
DICTIONARY
  5
A286
330
A21C
100
AcDbDictionary
280
     1
281
     1
  3
ACAD_XREC_ROUNDTRIP
360
A287
  0
DICTIONARY
  5
A27C
330
A217
100
AcDbDictionary
280
     1
281
     1
  3
ACAD_XREC_ROUNDTRIP
360
A27D
  0
DICTIONARY
  5
A270
330
A211
100
AcDbDictionary
280
     1
281
     1
  3
ACAD_XREC_ROUNDTRIP
360
A271
  0
DICTIONARY
  5
A288
330
A21D
100
AcDbDictionary
280
     1
281
     1
  3
ACAD_XREC_ROUNDTRIP
360
A289
  0
XRECORD
  5
A299
102
{ACAD_REACTORS
330
A298
102
}
330
A298
100
AcDbXrecord
280
     1
102
DISPLAYNAME
  1
Imperial24
102
FLAGS
 90
        0
  0
XRECORD
  5
A29B
102
{ACAD_REACTORS
330
A29A
102
}
330
A29A
100
AcDbXrecord
280
     1
102
SHADEPLOT
 70
     0
102
SHADEPLOTRESLEVEL
 70
     2
102
SHADEPLOTCUSTOMDPI
 70
   300
  0
XRECORD
  5
A29D
102
{ACAD_REACTORS
330
A29C
102
}
330
A29C
100
AcDbXrecord
280
     1
102
SHADEPLOT
 70
     0
102
SHADEPLOTRESLEVEL
 70
     2
102
SHADEPLOTCUSTOMDPI
 70
   300
  0
XRECORD
  5
A262
102
{ACAD_REACTORS
330
A1FB
102
}
330
A1FB
100
AcDbXrecord
280
     1
102
MATERIAL
148
0.0
149
0.0
149
0.0
 93
        0
 94
      127
282
     0
 72
     0
 77
     0
171
     0
175
     0
179
     0
273
     0
  0
XRECORD
  5
A1FD
102
{ACAD_REACTORS
330
A1FB
102
}
330
A1FB
100
AcDbXrecord
280
     1
270
     1
271
     1
  0
XRECORD
  5
A1FC
102
{ACAD_REACTORS
330
A1FB
102
}
330
A1FB
100
AcDbXrecord
280
     1
270
     1
271
     1
  0
XRECORD
  5
A200
102
{ACAD_REACTORS
330
A1FB
102
}
330
A1FB
100
AcDbXrecord
280
     1
270
     1
271
     1
  0
XRECORD
  5
A1FF
102
{ACAD_REACTORS
330
A1FB
102
}
330
A1FB
100
AcDbXrecord
280
     1
270
     1
271
     1
  0
XRECORD
  5
A201
102
{ACAD_REACTORS
330
A1FB
102
}
330
A1FB
100
AcDbXrecord
280
     1
270
     1
271
     1
  0
XRECORD
  5
A1FE
102
{ACAD_REACTORS
330
A1FB
102
}
330
A1FB
100
AcDbXrecord
280
     1
270
     1
271
     1
  0
XRECORD
  5
A261
102
{ACAD_REACTORS
330
A1F3
102
}
330
A1F3
100
AcDbXrecord
280
     1
102
MATERIAL
148
0.0
149
0.0
149
0.0
 93
        0
 94
      127
282
     0
 72
     0
 77
     0
171
     0
175
     0
179
     0
273
     0
  0
XRECORD
  5
A1F5
102
{ACAD_REACTORS
330
A1F3
102
}
330
A1F3
100
AcDbXrecord
280
     1
270
     1
271
     1
  0
XRECORD
  5
A1F4
102
{ACAD_REACTORS
330
A1F3
102
}
330
A1F3
100
AcDbXrecord
280
     1
270
     1
271
     1
  0
XRECORD
  5
A1F8
102
{ACAD_REACTORS
330
A1F3
102
}
330
A1F3
100
AcDbXrecord
280
     1
270
     1
271
     1
  0
XRECORD
  5
A1F7
102
{ACAD_REACTORS
330
A1F3
102
}
330
A1F3
100
AcDbXrecord
280
     1
270
     1
271
     1
  0
XRECORD
  5
A1F9
102
{ACAD_REACTORS
330
A1F3
102
}
330
A1F3
100
AcDbXrecord
280
     1
270
     1
271
     1
  0
XRECORD
  5
A1F6
102
{ACAD_REACTORS
330
A1F3
102
}
330
A1F3
100
AcDbXrecord
280
     1
270
     1
271
     1
  0
XRECORD
  5
A263
102
{ACAD_REACTORS
330
A203
102
}
330
A203
100
AcDbXrecord
280
     1
102
MATERIAL
148
0.0
149
0.0
149
0.0
 93
        0
 94
      127
282
     0
 72
     0
 77
     0
171
     0
175
     0
179
     0
273
     0
  0
XRECORD
  5
A205
102
{ACAD_REACTORS
330
A203
102
}
330
A203
100
AcDbXrecord
280
     1
270
     1
271
     1
  0
XRECORD
  5
A204
102
{ACAD_REACTORS
330
A203
102
}
330
A203
100
AcDbXrecord
280
     1
270
     1
271
     1
  0
XRECORD
  5
A208
102
{ACAD_REACTORS
330
A203
102
}
330
A203
100
AcDbXrecord
280
     1
270
     1
271
     1
  0
XRECORD
  5
A207
102
{ACAD_REACTORS
330
A203
102
}
330
A203
100
AcDbXrecord
280
     1
270
     1
271
     1
  0
XRECORD
  5
A209
102
{ACAD_REACTORS
330
A203
102
}
330
A203
100
AcDbXrecord
280
     1
270
     1
271
     1
  0
XRECORD
  5
A206
102
{ACAD_REACTORS
330
A203
102
}
330
A203
100
AcDbXrecord
280
     1
270
     1
271
     1
  0
XRECORD
  5
A297
102
{ACAD_REACTORS
330
A296
102
}
330
A296
100
AcDbXrecord
280
     1
102
DISPLAYNAME
  1
Imperial24
102
FLAGS
 90
        0
  0
CELLSTYLEMAP
  5
A25E
102
{ACAD_REACTORS
330
A25D
102
}
330
A25D
100
AcDbCellStyleMap
 90
        3
300
CELLSTYLE
  1
TABLEFORMAT_BEGIN
 90
        5
170
     1
 91
        0
 92
    32768
 62
   257
 93
        1
300
CONTENTFORMAT
  1
CONTENTFORMAT_BEGIN
 90
        0
 91
        0
 92
      512
 93
        0
300

 40
0.0
140
1.0
 94
        5
 62
     0
340
9F09
144
0.25
309
CONTENTFORMAT_END
171
     0
 94
        0
309
TABLEFORMAT_END
  1
CELLSTYLE_BEGIN
 90
        1
 91
        1
300
_TITLE
309
CELLSTYLE_END
300
CELLSTYLE
  1
TABLEFORMAT_BEGIN
 90
        5
170
     1
 91
        0
 92
        0
 62
   257
 93
        1
300
CONTENTFORMAT
  1
CONTENTFORMAT_BEGIN
 90
        0
 91
        0
 92
      512
 93
        0
300

 40
0.0
140
1.0
 94
        5
 62
     0
340
9F09
144
0.18
309
CONTENTFORMAT_END
171
     0
 94
        0
309
TABLEFORMAT_END
  1
CELLSTYLE_BEGIN
 90
        2
 91
        1
300
_HEADER
309
CELLSTYLE_END
300
CELLSTYLE
  1
TABLEFORMAT_BEGIN
 90
        5
170
     1
 91
        0
 92
        0
 62
   257
 93
        1
300
CONTENTFORMAT
  1
CONTENTFORMAT_BEGIN
 90
        0
 91
        0
 92
      512
 93
        0
300

 40
0.0
140
1.0
 94
        2
 62
     0
340
9F09
144
0.18
309
CONTENTFORMAT_END
171
     0
 94
        0
309
TABLEFORMAT_END
  1
CELLSTYLE_BEGIN
 90
        3
 91
        2
300
_DATA
309
CELLSTYLE_END
  0
XRECORD
  5
A294
102
{ACAD_REACTORS
330
A25D
102
}
330
A25D
100
AcDbXrecord
280
     1
102
ACAD_ROUNDTRIP_PRE2007_TABLESTYLE
 90
      512
 91
        0
  1

 92
      512
 93
        0
  2

 94
      512
 95
        0
  3

  0
XRECORD
  5
A26F
102
{ACAD_REACTORS
330
A26E
102
}
330
A26E
100
AcDbXrecord
280
     1
102
RTVSPost2010Prop28
280
     1
102
RTVSPost2010PropOp28
 70
     1
102
RTVSPost2010Prop29
280
     1
102
RTVSPost2010PropOp29
 70
     1
102
RTVSPost2010Prop30
280
     0
102
RTVSPost2010PropOp30
 70
     1
102
RTVSPost2010Prop31
280
     0
102
RTVSPost2010PropOp31
 70
     1
102
RTVSPost2010Prop32
280
     0
102
RTVSPost2010PropOp32
 70
     1
102
RTVSPost2010Prop33
280
     0
102
RTVSPost2010PropOp33
 70
     1
102
RTVSPost2010Prop34
280
     0
102
RTVSPost2010PropOp34
 70
     1
102
RTVSPost2010Prop35
280
     0
102
RTVSPost2010PropOp35
 70
     1
102
RTVSPost2010Prop36
280
     0
102
RTVSPost2010PropOp36
 70
     1
102
RTVSPost2010Prop37
 90
       50
102
RTVSPost2010PropOp37
 70
     1
102
RTVSPost2010Prop38
140
0.0
102
RTVSPost2010PropOp38
 70
     1
102
RTVSPost2010Prop39
140
1.0
102
RTVSPost2010PropOp39
 70
     1
102
RTVSPost2010Prop40
 90
        0
102
RTVSPost2010PropOp40
 70
     1
102
RTVSPost2010Prop41ColorIndex
 90
       18
102
RTVSPost2010Prop41ColorRGB
 90
        0
102
RTVSPost2010PropOp41
 70
     1
102
RTVSPost2010Prop42
 90
       50
102
RTVSPost2010PropOp42
 70
     1
102
RTVSPost2010Prop43
 90
        3
102
RTVSPost2010PropOp43
 70
     1
102
RTVSPost2010Prop44ColorIndex
 90
        5
102
RTVSPost2010Prop44ColorRGB
 90
      255
102
RTVSPost2010PropOp44
 70
     1
102
RTVSPost2010Prop45
280
     0
102
RTVSPost2010PropOp45
 70
     1
102
RTVSPost2010Prop46
 90
       50
102
RTVSPost2010PropOp46
 70
     1
102
RTVSPost2010Prop47
 90
       50
102
RTVSPost2010PropOp47
 70
     1
102
RTVSPost2010Prop48
 90
       50
102
RTVSPost2010PropOp48
 70
     1
102
RTVSPost2010Prop49
280
     0
102
RTVSPost2010PropOp49
 70
     1
102
RTVSPost2010Prop50
 90
       50
102
RTVSPost2010PropOp50
 70
     1
102
RTVSPost2010Prop51ColorIndex
 90
      256
102
RTVSPost2010Prop51ColorRGB
 90
-16777216
102
RTVSPost2010PropOp51
 70
     0
102
RTVSPost2010Prop52
140
1.0
102
RTVSPost2010PropOp52
 70
     0
102
RTVSPost2010Prop53
 90
        2
102
RTVSPost2010PropOp53
 70
     1
102
RTVSPost2010Prop54
  1
strokes_ogs.tif
102
RTVSPost2010PropOp54
 70
     1
102
RTVSPost2010Prop55
280
     0
102
RTVSPost2010PropOp55
 70
     1
102
RTVSPost2010Prop56
140
1.0
102
RTVSPost2010PropOp56
 70
     1
102
RTVSPost2010Prop57
140
1.0
102
RTVSPost2010PropOp57
 70
     1
102
RTVSPropertyOp0
 70
     1
102
RTVSPropertyOp1
 70
     1
102
RTVSPropertyOp2
 70
     1
102
RTVSPropertyOp3
 70
     1
102
RTVSPropertyOp4
 70
     1
102
RTVSPropertyOp5
 70
     1
102
RTVSPropertyOp6
 70
     1
102
RTVSPropertyOp7
 70
     1
102
RTVSPropertyOp8
 70
     1
102
RTVSPropertyOp9
 70
     1
102
RTVSPropertyOp10
 70
     1
102
RTVSPropertyOp11
 70
     1
102
RTVSPropertyOp12
 70
     1
102
RTVSPropertyOp13
 70
     1
102
RTVSPropertyOp14
 70
     1
102
RTVSPropertyOp15
 70
     1
102
RTVSPropertyOp16
 70
     1
102
RTVSPropertyOp17
 70
     1
102
RTVSPropertyOp18
 70
     1
102
RTVSPropertyOp19
 70
     1
102
RTVSPropertyOp20
 70
     1
102
RTVSPropertyOp21
 70
     1
102
RTVSPropertyOp22
 70
     1
102
RTVSPropertyOp23
 70
     1
102
RTVSPropertyOp24
 70
     1
102
RTVSPropertyOp25
 70
     1
102
RTVSPropertyOp26
 70
     1
102
RTVSPropertyOp27
 70
     1
102
RTVSPropertyOp28
 70
     1
102
RTVSPropertyOp29
 70
     1
102
RTVSPropertyOp30
 70
     1
102
RTVSPropertyOp31
 70
     1
102
RTVSPropertyOp32
 70
     1
102
RTVSPropertyOp33
 70
     1
102
RTVSPropertyOp34
 70
     1
102
RTVSPropertyOp35
 70
     1
102
RTVSPropertyOp36
 70
     1
102
RTVSPropertyOp37
 70
     1
102
RTVSPropertyOp38
 70
     1
102
RTVSPropertyOp39
 70
     1
102
RTVSPropertyOp40
 70
     1
102
RTVSPropertyOp41
 70
     1
102
RTVSPropertyOp42
 70
     1
102
RTVSPropertyOp43
 70
     1
102
RTVSPropertyOp44
 70
     1
102
RTVSPropertyOp45
 70
     1
102
RTVSPropertyOp46
 70
     1
102
RTVSPropertyOp47
 70
     1
102
RTVSPropertyOp48
 70
     1
102
RTVSPropertyOp49
 70
     1
102
RTVSPropertyOp50
 70
     1
102
RTVSPropertyOp51
 70
     0
102
RTVSPropertyOp52
 70
     0
102
RTVSPropertyOp53
 70
     1
102
RTVSPropertyOp54
 70
     1
102
RTVSPropertyOp55
 70
     1
102
RTVSPropertyOp56
 70
     1
102
RTVSPropertyOp57
 70
     1
102
RTVSPropertyOp58
 70
     1
102
RTVSPropertyOp59
 70
     1
102
RTVSPropertyOp60
 70
     1
102
RTVSPropertyOp61
 70
     1
102
RTVSPropertyOp62
 70
     1
  0
XRECORD
  5
A26D
102
{ACAD_REACTORS
330
A26C
102
}
330
A26C
100
AcDbXrecord
280
     1
102
RTVSPost2010Prop28
280
     0
102
RTVSPost2010PropOp28
 70
     1
102
RTVSPost2010Prop29
280
     1
102
RTVSPost2010PropOp29
 70
     1
102
RTVSPost2010Prop30
280
     1
102
RTVSPost2010PropOp30
 70
     1
102
RTVSPost2010Prop31
280
     0
102
RTVSPost2010PropOp31
 70
     1
102
RTVSPost2010Prop32
280
     0
102
RTVSPost2010PropOp32
 70
     1
102
RTVSPost2010Prop33
280
     0
102
RTVSPost2010PropOp33
 70
     1
102
RTVSPost2010Prop34
280
     0
102
RTVSPost2010PropOp34
 70
     1
102
RTVSPost2010Prop35
280
     0
102
RTVSPost2010PropOp35
 70
     1
102
RTVSPost2010Prop36
280
     0
102
RTVSPost2010PropOp36
 70
     1
102
RTVSPost2010Prop37
 90
       50
102
RTVSPost2010PropOp37
 70
     1
102
RTVSPost2010Prop38
140
0.0
102
RTVSPost2010PropOp38
 70
     1
102
RTVSPost2010Prop39
140
1.0
102
RTVSPost2010PropOp39
 70
     1
102
RTVSPost2010Prop40
 90
        0
102
RTVSPost2010PropOp40
 70
     1
102
RTVSPost2010Prop41ColorIndex
 90
       18
102
RTVSPost2010Prop41ColorRGB
 90
        0
102
RTVSPost2010PropOp41
 70
     1
102
RTVSPost2010Prop42
 90
       50
102
RTVSPost2010PropOp42
 70
     1
102
RTVSPost2010Prop43
 90
        3
102
RTVSPost2010PropOp43
 70
     1
102
RTVSPost2010Prop44ColorIndex
 90
        5
102
RTVSPost2010Prop44ColorRGB
 90
      255
102
RTVSPost2010PropOp44
 70
     1
102
RTVSPost2010Prop45
280
     0
102
RTVSPost2010PropOp45
 70
     1
102
RTVSPost2010Prop46
 90
       50
102
RTVSPost2010PropOp46
 70
     1
102
RTVSPost2010Prop47
 90
       50
102
RTVSPost2010PropOp47
 70
     1
102
RTVSPost2010Prop48
 90
       50
102
RTVSPost2010PropOp48
 70
     1
102
RTVSPost2010Prop49
280
     0
102
RTVSPost2010PropOp49
 70
     1
102
RTVSPost2010Prop50
 90
       50
102
RTVSPost2010PropOp50
 70
     1
102
RTVSPost2010Prop51ColorIndex
 90
      256
102
RTVSPost2010Prop51ColorRGB
 90
-16777216
102
RTVSPost2010PropOp51
 70
     0
102
RTVSPost2010Prop52
140
1.0
102
RTVSPost2010PropOp52
 70
     0
102
RTVSPost2010Prop53
 90
        2
102
RTVSPost2010PropOp53
 70
     1
102
RTVSPost2010Prop54
  1
strokes_ogs.tif
102
RTVSPost2010PropOp54
 70
     1
102
RTVSPost2010Prop55
280
     0
102
RTVSPost2010PropOp55
 70
     1
102
RTVSPost2010Prop56
140
1.0
102
RTVSPost2010PropOp56
 70
     1
102
RTVSPost2010Prop57
140
1.0
102
RTVSPost2010PropOp57
 70
     1
102
RTVSPropertyOp0
 70
     1
102
RTVSPropertyOp1
 70
     1
102
RTVSPropertyOp2
 70
     1
102
RTVSPropertyOp3
 70
     1
102
RTVSPropertyOp4
 70
     1
102
RTVSPropertyOp5
 70
     1
102
RTVSPropertyOp6
 70
     1
102
RTVSPropertyOp7
 70
     1
102
RTVSPropertyOp8
 70
     1
102
RTVSPropertyOp9
 70
     1
102
RTVSPropertyOp10
 70
     1
102
RTVSPropertyOp11
 70
     1
102
RTVSPropertyOp12
 70
     1
102
RTVSPropertyOp13
 70
     1
102
RTVSPropertyOp14
 70
     1
102
RTVSPropertyOp15
 70
     1
102
RTVSPropertyOp16
 70
     1
102
RTVSPropertyOp17
 70
     1
102
RTVSPropertyOp18
 70
     1
102
RTVSPropertyOp19
 70
     1
102
RTVSPropertyOp20
 70
     1
102
RTVSPropertyOp21
 70
     1
102
RTVSPropertyOp22
 70
     1
102
RTVSPropertyOp23
 70
     1
102
RTVSPropertyOp24
 70
     1
102
RTVSPropertyOp25
 70
     1
102
RTVSPropertyOp26
 70
     1
102
RTVSPropertyOp27
 70
     1
102
RTVSPropertyOp28
 70
     1
102
RTVSPropertyOp29
 70
     1
102
RTVSPropertyOp30
 70
     1
102
RTVSPropertyOp31
 70
     1
102
RTVSPropertyOp32
 70
     1
102
RTVSPropertyOp33
 70
     1
102
RTVSPropertyOp34
 70
     1
102
RTVSPropertyOp35
 70
     1
102
RTVSPropertyOp36
 70
     1
102
RTVSPropertyOp37
 70
     1
102
RTVSPropertyOp38
 70
     1
102
RTVSPropertyOp39
 70
     1
102
RTVSPropertyOp40
 70
     1
102
RTVSPropertyOp41
 70
     1
102
RTVSPropertyOp42
 70
     1
102
RTVSPropertyOp43
 70
     1
102
RTVSPropertyOp44
 70
     1
102
RTVSPropertyOp45
 70
     1
102
RTVSPropertyOp46
 70
     1
102
RTVSPropertyOp47
 70
     1
102
RTVSPropertyOp48
 70
     1
102
RTVSPropertyOp49
 70
     1
102
RTVSPropertyOp50
 70
     1
102
RTVSPropertyOp51
 70
     0
102
RTVSPropertyOp52
 70
     0
102
RTVSPropertyOp53
 70
     1
102
RTVSPropertyOp54
 70
     1
102
RTVSPropertyOp55
 70
     1
102
RTVSPropertyOp56
 70
     1
102
RTVSPropertyOp57
 70
     1
102
RTVSPropertyOp58
 70
     1
102
RTVSPropertyOp59
 70
     1
102
RTVSPropertyOp60
 70
     1
102
RTVSPropertyOp61
 70
     1
102
RTVSPropertyOp62
 70
     1
  0
XRECORD
  5
A27B
102
{ACAD_REACTORS
330
A27A
102
}
330
A27A
100
AcDbXrecord
280
     1
102
RTVSPost2010Prop28
280
     0
102
RTVSPost2010PropOp28
 70
     1
102
RTVSPost2010Prop29
280
     1
102
RTVSPost2010PropOp29
 70
     1
102
RTVSPost2010Prop30
280
     1
102
RTVSPost2010PropOp30
 70
     1
102
RTVSPost2010Prop31
280
     0
102
RTVSPost2010PropOp31
 70
     1
102
RTVSPost2010Prop32
280
     0
102
RTVSPost2010PropOp32
 70
     1
102
RTVSPost2010Prop33
280
     0
102
RTVSPost2010PropOp33
 70
     1
102
RTVSPost2010Prop34
280
     0
102
RTVSPost2010PropOp34
 70
     1
102
RTVSPost2010Prop35
280
     0
102
RTVSPost2010PropOp35
 70
     1
102
RTVSPost2010Prop36
280
     0
102
RTVSPost2010PropOp36
 70
     1
102
RTVSPost2010Prop37
 90
       50
102
RTVSPost2010PropOp37
 70
     1
102
RTVSPost2010Prop38
140
0.0
102
RTVSPost2010PropOp38
 70
     1
102
RTVSPost2010Prop39
140
1.0
102
RTVSPost2010PropOp39
 70
     1
102
RTVSPost2010Prop40
 90
        0
102
RTVSPost2010PropOp40
 70
     1
102
RTVSPost2010Prop41ColorIndex
 90
       18
102
RTVSPost2010Prop41ColorRGB
 90
        0
102
RTVSPost2010PropOp41
 70
     1
102
RTVSPost2010Prop42
 90
       50
102
RTVSPost2010PropOp42
 70
     1
102
RTVSPost2010Prop43
 90
        3
102
RTVSPost2010PropOp43
 70
     1
102
RTVSPost2010Prop44ColorIndex
 90
        5
102
RTVSPost2010Prop44ColorRGB
 90
      255
102
RTVSPost2010PropOp44
 70
     1
102
RTVSPost2010Prop45
280
     0
102
RTVSPost2010PropOp45
 70
     1
102
RTVSPost2010Prop46
 90
       50
102
RTVSPost2010PropOp46
 70
     1
102
RTVSPost2010Prop47
 90
       50
102
RTVSPost2010PropOp47
 70
     1
102
RTVSPost2010Prop48
 90
       50
102
RTVSPost2010PropOp48
 70
     1
102
RTVSPost2010Prop49
280
     0
102
RTVSPost2010PropOp49
 70
     1
102
RTVSPost2010Prop50
 90
       50
102
RTVSPost2010PropOp50
 70
     1
102
RTVSPost2010Prop51ColorIndex
 90
      256
102
RTVSPost2010Prop51ColorRGB
 90
-16777216
102
RTVSPost2010PropOp51
 70
     0
102
RTVSPost2010Prop52
140
1.0
102
RTVSPost2010PropOp52
 70
     0
102
RTVSPost2010Prop53
 90
        2
102
RTVSPost2010PropOp53
 70
     1
102
RTVSPost2010Prop54
  1
strokes_ogs.tif
102
RTVSPost2010PropOp54
 70
     1
102
RTVSPost2010Prop55
280
     0
102
RTVSPost2010PropOp55
 70
     1
102
RTVSPost2010Prop56
140
1.0
102
RTVSPost2010PropOp56
 70
     1
102
RTVSPost2010Prop57
140
1.0
102
RTVSPost2010PropOp57
 70
     1
102
RTVSPropertyOp0
 70
     1
102
RTVSPropertyOp1
 70
     1
102
RTVSPropertyOp2
 70
     1
102
RTVSPropertyOp3
 70
     1
102
RTVSPropertyOp4
 70
     1
102
RTVSPropertyOp5
 70
     1
102
RTVSPropertyOp6
 70
     1
102
RTVSPropertyOp7
 70
     1
102
RTVSPropertyOp8
 70
     1
102
RTVSPropertyOp9
 70
     1
102
RTVSPropertyOp10
 70
     1
102
RTVSPropertyOp11
 70
     1
102
RTVSPropertyOp12
 70
     1
102
RTVSPropertyOp13
 70
     1
102
RTVSPropertyOp14
 70
     1
102
RTVSPropertyOp15
 70
     1
102
RTVSPropertyOp16
 70
     1
102
RTVSPropertyOp17
 70
     1
102
RTVSPropertyOp18
 70
     1
102
RTVSPropertyOp19
 70
     1
102
RTVSPropertyOp20
 70
     1
102
RTVSPropertyOp21
 70
     1
102
RTVSPropertyOp22
 70
     1
102
RTVSPropertyOp23
 70
     1
102
RTVSPropertyOp24
 70
     1
102
RTVSPropertyOp25
 70
     1
102
RTVSPropertyOp26
 70
     1
102
RTVSPropertyOp27
 70
     1
102
RTVSPropertyOp28
 70
     1
102
RTVSPropertyOp29
 70
     1
102
RTVSPropertyOp30
 70
     1
102
RTVSPropertyOp31
 70
     1
102
RTVSPropertyOp32
 70
     1
102
RTVSPropertyOp33
 70
     1
102
RTVSPropertyOp34
 70
     1
102
RTVSPropertyOp35
 70
     1
102
RTVSPropertyOp36
 70
     1
102
RTVSPropertyOp37
 70
     1
102
RTVSPropertyOp38
 70
     1
102
RTVSPropertyOp39
 70
     1
102
RTVSPropertyOp40
 70
     1
102
RTVSPropertyOp41
 70
     1
102
RTVSPropertyOp42
 70
     1
102
RTVSPropertyOp43
 70
     1
102
RTVSPropertyOp44
 70
     1
102
RTVSPropertyOp45
 70
     1
102
RTVSPropertyOp46
 70
     1
102
RTVSPropertyOp47
 70
     1
102
RTVSPropertyOp48
 70
     1
102
RTVSPropertyOp49
 70
     1
102
RTVSPropertyOp50
 70
     1
102
RTVSPropertyOp51
 70
     0
102
RTVSPropertyOp52
 70
     0
102
RTVSPropertyOp53
 70
     1
102
RTVSPropertyOp54
 70
     1
102
RTVSPropertyOp55
 70
     1
102
RTVSPropertyOp56
 70
     1
102
RTVSPropertyOp57
 70
     1
102
RTVSPropertyOp58
 70
     1
102
RTVSPropertyOp59
 70
     1
102
RTVSPropertyOp60
 70
     1
102
RTVSPropertyOp61
 70
     1
102
RTVSPropertyOp62
 70
     1
  0
XRECORD
  5
A283
102
{ACAD_REACTORS
330
A282
102
}
330
A282
100
AcDbXrecord
280
     1
102
RTVSPost2010Prop28
280
     0
102
RTVSPost2010PropOp28
 70
     1
102
RTVSPost2010Prop29
280
     1
102
RTVSPost2010PropOp29
 70
     1
102
RTVSPost2010Prop30
280
     1
102
RTVSPost2010PropOp30
 70
     1
102
RTVSPost2010Prop31
280
     0
102
RTVSPost2010PropOp31
 70
     1
102
RTVSPost2010Prop32
280
     0
102
RTVSPost2010PropOp32
 70
     1
102
RTVSPost2010Prop33
280
     0
102
RTVSPost2010PropOp33
 70
     1
102
RTVSPost2010Prop34
280
     0
102
RTVSPost2010PropOp34
 70
     1
102
RTVSPost2010Prop35
280
     0
102
RTVSPost2010PropOp35
 70
     1
102
RTVSPost2010Prop36
280
     0
102
RTVSPost2010PropOp36
 70
     1
102
RTVSPost2010Prop37
 90
       50
102
RTVSPost2010PropOp37
 70
     1
102
RTVSPost2010Prop38
140
0.0
102
RTVSPost2010PropOp38
 70
     1
102
RTVSPost2010Prop39
140
1.0
102
RTVSPost2010PropOp39
 70
     1
102
RTVSPost2010Prop40
 90
        0
102
RTVSPost2010PropOp40
 70
     1
102
RTVSPost2010Prop41ColorIndex
 90
       18
102
RTVSPost2010Prop41ColorRGB
 90
        0
102
RTVSPost2010PropOp41
 70
     1
102
RTVSPost2010Prop42
 90
       50
102
RTVSPost2010PropOp42
 70
     1
102
RTVSPost2010Prop43
 90
        3
102
RTVSPost2010PropOp43
 70
     1
102
RTVSPost2010Prop44ColorIndex
 90
        5
102
RTVSPost2010Prop44ColorRGB
 90
      255
102
RTVSPost2010PropOp44
 70
     1
102
RTVSPost2010Prop45
280
     0
102
RTVSPost2010PropOp45
 70
     1
102
RTVSPost2010Prop46
 90
       50
102
RTVSPost2010PropOp46
 70
     1
102
RTVSPost2010Prop47
 90
       50
102
RTVSPost2010PropOp47
 70
     1
102
RTVSPost2010Prop48
 90
       50
102
RTVSPost2010PropOp48
 70
     1
102
RTVSPost2010Prop49
280
     0
102
RTVSPost2010PropOp49
 70
     1
102
RTVSPost2010Prop50
 90
       50
102
RTVSPost2010PropOp50
 70
     1
102
RTVSPost2010Prop51ColorIndex
 90
      256
102
RTVSPost2010Prop51ColorRGB
 90
-16777216
102
RTVSPost2010PropOp51
 70
     0
102
RTVSPost2010Prop52
140
1.0
102
RTVSPost2010PropOp52
 70
     0
102
RTVSPost2010Prop53
 90
        2
102
RTVSPost2010PropOp53
 70
     1
102
RTVSPost2010Prop54
  1
strokes_ogs.tif
102
RTVSPost2010PropOp54
 70
     1
102
RTVSPost2010Prop55
280
     0
102
RTVSPost2010PropOp55
 70
     1
102
RTVSPost2010Prop56
140
1.0
102
RTVSPost2010PropOp56
 70
     1
102
RTVSPost2010Prop57
140
1.0
102
RTVSPost2010PropOp57
 70
     1
102
RTVSPropertyOp0
 70
     1
102
RTVSPropertyOp1
 70
     1
102
RTVSPropertyOp2
 70
     1
102
RTVSPropertyOp3
 70
     1
102
RTVSPropertyOp4
 70
     1
102
RTVSPropertyOp5
 70
     1
102
RTVSPropertyOp6
 70
     1
102
RTVSPropertyOp7
 70
     1
102
RTVSPropertyOp8
 70
     1
102
RTVSPropertyOp9
 70
     1
102
RTVSPropertyOp10
 70
     1
102
RTVSPropertyOp11
 70
     1
102
RTVSPropertyOp12
 70
     1
102
RTVSPropertyOp13
 70
     1
102
RTVSPropertyOp14
 70
     1
102
RTVSPropertyOp15
 70
     1
102
RTVSPropertyOp16
 70
     1
102
RTVSPropertyOp17
 70
     1
102
RTVSPropertyOp18
 70
     1
102
RTVSPropertyOp19
 70
     1
102
RTVSPropertyOp20
 70
     1
102
RTVSPropertyOp21
 70
     1
102
RTVSPropertyOp22
 70
     1
102
RTVSPropertyOp23
 70
     1
102
RTVSPropertyOp24
 70
     1
102
RTVSPropertyOp25
 70
     1
102
RTVSPropertyOp26
 70
     1
102
RTVSPropertyOp27
 70
     1
102
RTVSPropertyOp28
 70
     1
102
RTVSPropertyOp29
 70
     1
102
RTVSPropertyOp30
 70
     1
102
RTVSPropertyOp31
 70
     1
102
RTVSPropertyOp32
 70
     1
102
RTVSPropertyOp33
 70
     1
102
RTVSPropertyOp34
 70
     1
102
RTVSPropertyOp35
 70
     1
102
RTVSPropertyOp36
 70
     1
102
RTVSPropertyOp37
 70
     1
102
RTVSPropertyOp38
 70
     1
102
RTVSPropertyOp39
 70
     1
102
RTVSPropertyOp40
 70
     1
102
RTVSPropertyOp41
 70
     1
102
RTVSPropertyOp42
 70
     1
102
RTVSPropertyOp43
 70
     1
102
RTVSPropertyOp44
 70
     1
102
RTVSPropertyOp45
 70
     1
102
RTVSPropertyOp46
 70
     1
102
RTVSPropertyOp47
 70
     1
102
RTVSPropertyOp48
 70
     1
102
RTVSPropertyOp49
 70
     1
102
RTVSPropertyOp50
 70
     1
102
RTVSPropertyOp51
 70
     0
102
RTVSPropertyOp52
 70
     0
102
RTVSPropertyOp53
 70
     1
102
RTVSPropertyOp54
 70
     1
102
RTVSPropertyOp55
 70
     1
102
RTVSPropertyOp56
 70
     1
102
RTVSPropertyOp57
 70
     1
102
RTVSPropertyOp58
 70
     1
102
RTVSPropertyOp59
 70
     1
102
RTVSPropertyOp60
 70
     1
102
RTVSPropertyOp61
 70
     1
102
RTVSPropertyOp62
 70
     1
  0
XRECORD
  5
A275
102
{ACAD_REACTORS
330
A274
102
}
330
A274
100
AcDbXrecord
280
     1
102
RTVSPost2010Prop28
280
     0
102
RTVSPost2010PropOp28
 70
     1
102
RTVSPost2010Prop29
280
     1
102
RTVSPost2010PropOp29
 70
     1
102
RTVSPost2010Prop30
280
     1
102
RTVSPost2010PropOp30
 70
     1
102
RTVSPost2010Prop31
280
     0
102
RTVSPost2010PropOp31
 70
     1
102
RTVSPost2010Prop32
280
     0
102
RTVSPost2010PropOp32
 70
     1
102
RTVSPost2010Prop33
280
     0
102
RTVSPost2010PropOp33
 70
     1
102
RTVSPost2010Prop34
280
     0
102
RTVSPost2010PropOp34
 70
     1
102
RTVSPost2010Prop35
280
     0
102
RTVSPost2010PropOp35
 70
     1
102
RTVSPost2010Prop36
280
     0
102
RTVSPost2010PropOp36
 70
     1
102
RTVSPost2010Prop37
 90
       50
102
RTVSPost2010PropOp37
 70
     1
102
RTVSPost2010Prop38
140
0.0
102
RTVSPost2010PropOp38
 70
     1
102
RTVSPost2010Prop39
140
1.0
102
RTVSPost2010PropOp39
 70
     1
102
RTVSPost2010Prop40
 90
        0
102
RTVSPost2010PropOp40
 70
     1
102
RTVSPost2010Prop41ColorIndex
 90
       18
102
RTVSPost2010Prop41ColorRGB
 90
        0
102
RTVSPost2010PropOp41
 70
     1
102
RTVSPost2010Prop42
 90
       50
102
RTVSPost2010PropOp42
 70
     1
102
RTVSPost2010Prop43
 90
        3
102
RTVSPost2010PropOp43
 70
     1
102
RTVSPost2010Prop44ColorIndex
 90
        5
102
RTVSPost2010Prop44ColorRGB
 90
      255
102
RTVSPost2010PropOp44
 70
     1
102
RTVSPost2010Prop45
280
     0
102
RTVSPost2010PropOp45
 70
     1
102
RTVSPost2010Prop46
 90
       50
102
RTVSPost2010PropOp46
 70
     1
102
RTVSPost2010Prop47
 90
       50
102
RTVSPost2010PropOp47
 70
     1
102
RTVSPost2010Prop48
 90
       50
102
RTVSPost2010PropOp48
 70
     1
102
RTVSPost2010Prop49
280
     0
102
RTVSPost2010PropOp49
 70
     1
102
RTVSPost2010Prop50
 90
       50
102
RTVSPost2010PropOp50
 70
     1
102
RTVSPost2010Prop51ColorIndex
 90
      256
102
RTVSPost2010Prop51ColorRGB
 90
-16777216
102
RTVSPost2010PropOp51
 70
     0
102
RTVSPost2010Prop52
140
1.0
102
RTVSPost2010PropOp52
 70
     0
102
RTVSPost2010Prop53
 90
        2
102
RTVSPost2010PropOp53
 70
     1
102
RTVSPost2010Prop54
  1
strokes_ogs.tif
102
RTVSPost2010PropOp54
 70
     1
102
RTVSPost2010Prop55
280
     0
102
RTVSPost2010PropOp55
 70
     1
102
RTVSPost2010Prop56
140
1.0
102
RTVSPost2010PropOp56
 70
     1
102
RTVSPost2010Prop57
140
1.0
102
RTVSPost2010PropOp57
 70
     1
102
RTVSPropertyOp0
 70
     1
102
RTVSPropertyOp1
 70
     1
102
RTVSPropertyOp2
 70
     1
102
RTVSPropertyOp3
 70
     1
102
RTVSPropertyOp4
 70
     1
102
RTVSPropertyOp5
 70
     1
102
RTVSPropertyOp6
 70
     1
102
RTVSPropertyOp7
 70
     1
102
RTVSPropertyOp8
 70
     1
102
RTVSPropertyOp9
 70
     1
102
RTVSPropertyOp10
 70
     1
102
RTVSPropertyOp11
 70
     1
102
RTVSPropertyOp12
 70
     1
102
RTVSPropertyOp13
 70
     1
102
RTVSPropertyOp14
 70
     1
102
RTVSPropertyOp15
 70
     1
102
RTVSPropertyOp16
 70
     1
102
RTVSPropertyOp17
 70
     1
102
RTVSPropertyOp18
 70
     1
102
RTVSPropertyOp19
 70
     1
102
RTVSPropertyOp20
 70
     1
102
RTVSPropertyOp21
 70
     1
102
RTVSPropertyOp22
 70
     1
102
RTVSPropertyOp23
 70
     1
102
RTVSPropertyOp24
 70
     1
102
RTVSPropertyOp25
 70
     1
102
RTVSPropertyOp26
 70
     1
102
RTVSPropertyOp27
 70
     1
102
RTVSPropertyOp28
 70
     1
102
RTVSPropertyOp29
 70
     1
102
RTVSPropertyOp30
 70
     1
102
RTVSPropertyOp31
 70
     1
102
RTVSPropertyOp32
 70
     1
102
RTVSPropertyOp33
 70
     1
102
RTVSPropertyOp34
 70
     1
102
RTVSPropertyOp35
 70
     1
102
RTVSPropertyOp36
 70
     1
102
RTVSPropertyOp37
 70
     1
102
RTVSPropertyOp38
 70
     1
102
RTVSPropertyOp39
 70
     1
102
RTVSPropertyOp40
 70
     1
102
RTVSPropertyOp41
 70
     1
102
RTVSPropertyOp42
 70
     1
102
RTVSPropertyOp43
 70
     1
102
RTVSPropertyOp44
 70
     1
102
RTVSPropertyOp45
 70
     1
102
RTVSPropertyOp46
 70
     1
102
RTVSPropertyOp47
 70
     1
102
RTVSPropertyOp48
 70
     1
102
RTVSPropertyOp49
 70
     1
102
RTVSPropertyOp50
 70
     1
102
RTVSPropertyOp51
 70
     0
102
RTVSPropertyOp52
 70
     0
102
RTVSPropertyOp53
 70
     1
102
RTVSPropertyOp54
 70
     1
102
RTVSPropertyOp55
 70
     1
102
RTVSPropertyOp56
 70
     1
102
RTVSPropertyOp57
 70
     1
102
RTVSPropertyOp58
 70
     1
102
RTVSPropertyOp59
 70
     1
102
RTVSPropertyOp60
 70
     1
102
RTVSPropertyOp61
 70
     1
102
RTVSPropertyOp62
 70
     1
  0
XRECORD
  5
A279
102
{ACAD_REACTORS
330
A278
102
}
330
A278
100
AcDbXrecord
280
     1
102
RTVSPost2010Prop28
280
     0
102
RTVSPost2010PropOp28
 70
     1
102
RTVSPost2010Prop29
280
     1
102
RTVSPost2010PropOp29
 70
     1
102
RTVSPost2010Prop30
280
     1
102
RTVSPost2010PropOp30
 70
     1
102
RTVSPost2010Prop31
280
     0
102
RTVSPost2010PropOp31
 70
     1
102
RTVSPost2010Prop32
280
     0
102
RTVSPost2010PropOp32
 70
     1
102
RTVSPost2010Prop33
280
     0
102
RTVSPost2010PropOp33
 70
     1
102
RTVSPost2010Prop34
280
     0
102
RTVSPost2010PropOp34
 70
     1
102
RTVSPost2010Prop35
280
     0
102
RTVSPost2010PropOp35
 70
     1
102
RTVSPost2010Prop36
280
     0
102
RTVSPost2010PropOp36
 70
     1
102
RTVSPost2010Prop37
 90
       50
102
RTVSPost2010PropOp37
 70
     1
102
RTVSPost2010Prop38
140
0.0
102
RTVSPost2010PropOp38
 70
     1
102
RTVSPost2010Prop39
140
1.0
102
RTVSPost2010PropOp39
 70
     1
102
RTVSPost2010Prop40
 90
        0
102
RTVSPost2010PropOp40
 70
     1
102
RTVSPost2010Prop41ColorIndex
 90
       18
102
RTVSPost2010Prop41ColorRGB
 90
        0
102
RTVSPost2010PropOp41
 70
     1
102
RTVSPost2010Prop42
 90
       50
102
RTVSPost2010PropOp42
 70
     1
102
RTVSPost2010Prop43
 90
        3
102
RTVSPost2010PropOp43
 70
     1
102
RTVSPost2010Prop44ColorIndex
 90
        5
102
RTVSPost2010Prop44ColorRGB
 90
      255
102
RTVSPost2010PropOp44
 70
     1
102
RTVSPost2010Prop45
280
     0
102
RTVSPost2010PropOp45
 70
     1
102
RTVSPost2010Prop46
 90
       50
102
RTVSPost2010PropOp46
 70
     1
102
RTVSPost2010Prop47
 90
       50
102
RTVSPost2010PropOp47
 70
     1
102
RTVSPost2010Prop48
 90
       50
102
RTVSPost2010PropOp48
 70
     1
102
RTVSPost2010Prop49
280
     0
102
RTVSPost2010PropOp49
 70
     1
102
RTVSPost2010Prop50
 90
       50
102
RTVSPost2010PropOp50
 70
     1
102
RTVSPost2010Prop51ColorIndex
 90
      256
102
RTVSPost2010Prop51ColorRGB
 90
-16777216
102
RTVSPost2010PropOp51
 70
     0
102
RTVSPost2010Prop52
140
1.0
102
RTVSPost2010PropOp52
 70
     0
102
RTVSPost2010Prop53
 90
        2
102
RTVSPost2010PropOp53
 70
     1
102
RTVSPost2010Prop54
  1
strokes_ogs.tif
102
RTVSPost2010PropOp54
 70
     1
102
RTVSPost2010Prop55
280
     0
102
RTVSPost2010PropOp55
 70
     1
102
RTVSPost2010Prop56
140
1.0
102
RTVSPost2010PropOp56
 70
     1
102
RTVSPost2010Prop57
140
1.0
102
RTVSPost2010PropOp57
 70
     1
102
RTVSPropertyOp0
 70
     1
102
RTVSPropertyOp1
 70
     1
102
RTVSPropertyOp2
 70
     1
102
RTVSPropertyOp3
 70
     1
102
RTVSPropertyOp4
 70
     1
102
RTVSPropertyOp5
 70
     1
102
RTVSPropertyOp6
 70
     1
102
RTVSPropertyOp7
 70
     1
102
RTVSPropertyOp8
 70
     1
102
RTVSPropertyOp9
 70
     1
102
RTVSPropertyOp10
 70
     1
102
RTVSPropertyOp11
 70
     1
102
RTVSPropertyOp12
 70
     1
102
RTVSPropertyOp13
 70
     1
102
RTVSPropertyOp14
 70
     1
102
RTVSPropertyOp15
 70
     1
102
RTVSPropertyOp16
 70
     1
102
RTVSPropertyOp17
 70
     1
102
RTVSPropertyOp18
 70
     1
102
RTVSPropertyOp19
 70
     1
102
RTVSPropertyOp20
 70
     1
102
RTVSPropertyOp21
 70
     1
102
RTVSPropertyOp22
 70
     1
102
RTVSPropertyOp23
 70
     1
102
RTVSPropertyOp24
 70
     1
102
RTVSPropertyOp25
 70
     1
102
RTVSPropertyOp26
 70
     1
102
RTVSPropertyOp27
 70
     1
102
RTVSPropertyOp28
 70
     1
102
RTVSPropertyOp29
 70
     1
102
RTVSPropertyOp30
 70
     1
102
RTVSPropertyOp31
 70
     1
102
RTVSPropertyOp32
 70
     1
102
RTVSPropertyOp33
 70
     1
102
RTVSPropertyOp34
 70
     1
102
RTVSPropertyOp35
 70
     1
102
RTVSPropertyOp36
 70
     1
102
RTVSPropertyOp37
 70
     1
102
RTVSPropertyOp38
 70
     1
102
RTVSPropertyOp39
 70
     1
102
RTVSPropertyOp40
 70
     1
102
RTVSPropertyOp41
 70
     1
102
RTVSPropertyOp42
 70
     1
102
RTVSPropertyOp43
 70
     1
102
RTVSPropertyOp44
 70
     1
102
RTVSPropertyOp45
 70
     1
102
RTVSPropertyOp46
 70
     1
102
RTVSPropertyOp47
 70
     1
102
RTVSPropertyOp48
 70
     1
102
RTVSPropertyOp49
 70
     1
102
RTVSPropertyOp50
 70
     1
102
RTVSPropertyOp51
 70
     0
102
RTVSPropertyOp52
 70
     0
102
RTVSPropertyOp53
 70
     1
102
RTVSPropertyOp54
 70
     1
102
RTVSPropertyOp55
 70
     1
102
RTVSPropertyOp56
 70
     1
102
RTVSPropertyOp57
 70
     1
102
RTVSPropertyOp58
 70
     1
102
RTVSPropertyOp59
 70
     1
102
RTVSPropertyOp60
 70
     1
102
RTVSPropertyOp61
 70
     1
102
RTVSPropertyOp62
 70
     1
  0
XRECORD
  5
A293
102
{ACAD_REACTORS
330
A292
102
}
330
A292
100
AcDbXrecord
280
     1
102
RTVSPost2010Prop28
280
     0
102
RTVSPost2010PropOp28
 70
     1
102
RTVSPost2010Prop29
280
     1
102
RTVSPost2010PropOp29
 70
     1
102
RTVSPost2010Prop30
280
     1
102
RTVSPost2010PropOp30
 70
     1
102
RTVSPost2010Prop31
280
     0
102
RTVSPost2010PropOp31
 70
     1
102
RTVSPost2010Prop32
280
     0
102
RTVSPost2010PropOp32
 70
     1
102
RTVSPost2010Prop33
280
     0
102
RTVSPost2010PropOp33
 70
     1
102
RTVSPost2010Prop34
280
     0
102
RTVSPost2010PropOp34
 70
     1
102
RTVSPost2010Prop35
280
     0
102
RTVSPost2010PropOp35
 70
     1
102
RTVSPost2010Prop36
280
     0
102
RTVSPost2010PropOp36
 70
     1
102
RTVSPost2010Prop37
 90
       50
102
RTVSPost2010PropOp37
 70
     0
102
RTVSPost2010Prop38
140
0.0
102
RTVSPost2010PropOp38
 70
     0
102
RTVSPost2010Prop39
140
1.0
102
RTVSPost2010PropOp39
 70
     0
102
RTVSPost2010Prop40
 90
        0
102
RTVSPost2010PropOp40
 70
     0
102
RTVSPost2010Prop41ColorIndex
 90
       18
102
RTVSPost2010Prop41ColorRGB
 90
        0
102
RTVSPost2010PropOp41
 70
     0
102
RTVSPost2010Prop42
 90
       50
102
RTVSPost2010PropOp42
 70
     0
102
RTVSPost2010Prop43
 90
        3
102
RTVSPost2010PropOp43
 70
     0
102
RTVSPost2010Prop44ColorIndex
 90
        5
102
RTVSPost2010Prop44ColorRGB
 90
      255
102
RTVSPost2010PropOp44
 70
     0
102
RTVSPost2010Prop45
280
     0
102
RTVSPost2010PropOp45
 70
     1
102
RTVSPost2010Prop46
 90
       50
102
RTVSPost2010PropOp46
 70
     0
102
RTVSPost2010Prop47
 90
       50
102
RTVSPost2010PropOp47
 70
     0
102
RTVSPost2010Prop48
 90
       50
102
RTVSPost2010PropOp48
 70
     0
102
RTVSPost2010Prop49
280
     0
102
RTVSPost2010PropOp49
 70
     1
102
RTVSPost2010Prop50
 90
       50
102
RTVSPost2010PropOp50
 70
     0
102
RTVSPost2010Prop51ColorIndex
 90
      256
102
RTVSPost2010Prop51ColorRGB
 90
-16777216
102
RTVSPost2010PropOp51
 70
     0
102
RTVSPost2010Prop52
140
1.0
102
RTVSPost2010PropOp52
 70
     0
102
RTVSPost2010Prop53
 90
        2
102
RTVSPost2010PropOp53
 70
     0
102
RTVSPost2010Prop54
  1
strokes_ogs.tif
102
RTVSPost2010PropOp54
 70
     0
102
RTVSPost2010Prop55
280
     0
102
RTVSPost2010PropOp55
 70
     1
102
RTVSPost2010Prop56
140
1.0
102
RTVSPost2010PropOp56
 70
     0
102
RTVSPost2010Prop57
140
1.0
102
RTVSPost2010PropOp57
 70
     0
102
RTVSPropertyOp0
 70
     0
102
RTVSPropertyOp1
 70
     0
102
RTVSPropertyOp2
 70
     0
102
RTVSPropertyOp3
 70
     0
102
RTVSPropertyOp4
 70
     0
102
RTVSPropertyOp5
 70
     0
102
RTVSPropertyOp6
 70
     0
102
RTVSPropertyOp7
 70
     0
102
RTVSPropertyOp8
 70
     0
102
RTVSPropertyOp9
 70
     0
102
RTVSPropertyOp10
 70
     0
102
RTVSPropertyOp11
 70
     0
102
RTVSPropertyOp12
 70
     0
102
RTVSPropertyOp13
 70
     0
102
RTVSPropertyOp14
 70
     2
102
RTVSPropertyOp15
 70
     0
102
RTVSPropertyOp16
 70
     0
102
RTVSPropertyOp17
 70
     0
102
RTVSPropertyOp18
 70
     0
102
RTVSPropertyOp19
 70
     0
102
RTVSPropertyOp20
 70
     0
102
RTVSPropertyOp21
 70
     0
102
RTVSPropertyOp22
 70
     0
102
RTVSPropertyOp23
 70
     0
102
RTVSPropertyOp24
 70
     0
102
RTVSPropertyOp25
 70
     0
102
RTVSPropertyOp26
 70
     0
102
RTVSPropertyOp27
 70
     0
102
RTVSPropertyOp28
 70
     1
102
RTVSPropertyOp29
 70
     1
102
RTVSPropertyOp30
 70
     1
102
RTVSPropertyOp31
 70
     1
102
RTVSPropertyOp32
 70
     1
102
RTVSPropertyOp33
 70
     1
102
RTVSPropertyOp34
 70
     1
102
RTVSPropertyOp35
 70
     1
102
RTVSPropertyOp36
 70
     1
102
RTVSPropertyOp37
 70
     0
102
RTVSPropertyOp38
 70
     0
102
RTVSPropertyOp39
 70
     0
102
RTVSPropertyOp40
 70
     0
102
RTVSPropertyOp41
 70
     0
102
RTVSPropertyOp42
 70
     0
102
RTVSPropertyOp43
 70
     0
102
RTVSPropertyOp44
 70
     0
102
RTVSPropertyOp45
 70
     1
102
RTVSPropertyOp46
 70
     0
102
RTVSPropertyOp47
 70
     0
102
RTVSPropertyOp48
 70
     0
102
RTVSPropertyOp49
 70
     1
102
RTVSPropertyOp50
 70
     0
102
RTVSPropertyOp51
 70
     0
102
RTVSPropertyOp52
 70
     0
102
RTVSPropertyOp53
 70
     0
102
RTVSPropertyOp54
 70
     0
102
RTVSPropertyOp55
 70
     1
102
RTVSPropertyOp56
 70
     0
102
RTVSPropertyOp57
 70
     0
102
RTVSPropertyOp58
 70
     0
102
RTVSPropertyOp59
 70
     0
102
RTVSPropertyOp60
 70
     0
102
RTVSPropertyOp61
 70
     0
102
RTVSPropertyOp62
 70
     0
  0
XRECORD
  5
A281
102
{ACAD_REACTORS
330
A280
102
}
330
A280
100
AcDbXrecord
280
     1
102
RTVSPost2010Prop28
280
     0
102
RTVSPost2010PropOp28
 70
     1
102
RTVSPost2010Prop29
280
     1
102
RTVSPost2010PropOp29
 70
     1
102
RTVSPost2010Prop30
280
     1
102
RTVSPost2010PropOp30
 70
     1
102
RTVSPost2010Prop31
280
     0
102
RTVSPost2010PropOp31
 70
     1
102
RTVSPost2010Prop32
280
     0
102
RTVSPost2010PropOp32
 70
     1
102
RTVSPost2010Prop33
280
     0
102
RTVSPost2010PropOp33
 70
     1
102
RTVSPost2010Prop34
280
     0
102
RTVSPost2010PropOp34
 70
     1
102
RTVSPost2010Prop35
280
     0
102
RTVSPost2010PropOp35
 70
     1
102
RTVSPost2010Prop36
280
     0
102
RTVSPost2010PropOp36
 70
     1
102
RTVSPost2010Prop37
 90
       50
102
RTVSPost2010PropOp37
 70
     1
102
RTVSPost2010Prop38
140
0.0
102
RTVSPost2010PropOp38
 70
     1
102
RTVSPost2010Prop39
140
1.0
102
RTVSPost2010PropOp39
 70
     1
102
RTVSPost2010Prop40
 90
        0
102
RTVSPost2010PropOp40
 70
     1
102
RTVSPost2010Prop41ColorIndex
 90
       18
102
RTVSPost2010Prop41ColorRGB
 90
        0
102
RTVSPost2010PropOp41
 70
     1
102
RTVSPost2010Prop42
 90
       50
102
RTVSPost2010PropOp42
 70
     1
102
RTVSPost2010Prop43
 90
        3
102
RTVSPost2010PropOp43
 70
     1
102
RTVSPost2010Prop44ColorIndex
 90
        5
102
RTVSPost2010Prop44ColorRGB
 90
      255
102
RTVSPost2010PropOp44
 70
     1
102
RTVSPost2010Prop45
280
     0
102
RTVSPost2010PropOp45
 70
     1
102
RTVSPost2010Prop46
 90
       50
102
RTVSPost2010PropOp46
 70
     1
102
RTVSPost2010Prop47
 90
       50
102
RTVSPost2010PropOp47
 70
     1
102
RTVSPost2010Prop48
 90
       50
102
RTVSPost2010PropOp48
 70
     1
102
RTVSPost2010Prop49
280
     0
102
RTVSPost2010PropOp49
 70
     1
102
RTVSPost2010Prop50
 90
       50
102
RTVSPost2010PropOp50
 70
     1
102
RTVSPost2010Prop51ColorIndex
 90
      256
102
RTVSPost2010Prop51ColorRGB
 90
-16777216
102
RTVSPost2010PropOp51
 70
     0
102
RTVSPost2010Prop52
140
1.0
102
RTVSPost2010PropOp52
 70
     0
102
RTVSPost2010Prop53
 90
        2
102
RTVSPost2010PropOp53
 70
     1
102
RTVSPost2010Prop54
  1
strokes_ogs.tif
102
RTVSPost2010PropOp54
 70
     1
102
RTVSPost2010Prop55
280
     0
102
RTVSPost2010PropOp55
 70
     1
102
RTVSPost2010Prop56
140
1.0
102
RTVSPost2010PropOp56
 70
     1
102
RTVSPost2010Prop57
140
1.0
102
RTVSPost2010PropOp57
 70
     1
102
RTVSPropertyOp0
 70
     1
102
RTVSPropertyOp1
 70
     1
102
RTVSPropertyOp2
 70
     1
102
RTVSPropertyOp3
 70
     1
102
RTVSPropertyOp4
 70
     1
102
RTVSPropertyOp5
 70
     1
102
RTVSPropertyOp6
 70
     1
102
RTVSPropertyOp7
 70
     1
102
RTVSPropertyOp8
 70
     1
102
RTVSPropertyOp9
 70
     1
102
RTVSPropertyOp10
 70
     1
102
RTVSPropertyOp11
 70
     1
102
RTVSPropertyOp12
 70
     1
102
RTVSPropertyOp13
 70
     1
102
RTVSPropertyOp14
 70
     1
102
RTVSPropertyOp15
 70
     1
102
RTVSPropertyOp16
 70
     1
102
RTVSPropertyOp17
 70
     1
102
RTVSPropertyOp18
 70
     1
102
RTVSPropertyOp19
 70
     1
102
RTVSPropertyOp20
 70
     1
102
RTVSPropertyOp21
 70
     1
102
RTVSPropertyOp22
 70
     1
102
RTVSPropertyOp23
 70
     1
102
RTVSPropertyOp24
 70
     1
102
RTVSPropertyOp25
 70
     1
102
RTVSPropertyOp26
 70
     1
102
RTVSPropertyOp27
 70
     1
102
RTVSPropertyOp28
 70
     1
102
RTVSPropertyOp29
 70
     1
102
RTVSPropertyOp30
 70
     1
102
RTVSPropertyOp31
 70
     1
102
RTVSPropertyOp32
 70
     1
102
RTVSPropertyOp33
 70
     1
102
RTVSPropertyOp34
 70
     1
102
RTVSPropertyOp35
 70
     1
102
RTVSPropertyOp36
 70
     1
102
RTVSPropertyOp37
 70
     1
102
RTVSPropertyOp38
 70
     1
102
RTVSPropertyOp39
 70
     1
102
RTVSPropertyOp40
 70
     1
102
RTVSPropertyOp41
 70
     1
102
RTVSPropertyOp42
 70
     1
102
RTVSPropertyOp43
 70
     1
102
RTVSPropertyOp44
 70
     1
102
RTVSPropertyOp45
 70
     1
102
RTVSPropertyOp46
 70
     1
102
RTVSPropertyOp47
 70
     1
102
RTVSPropertyOp48
 70
     1
102
RTVSPropertyOp49
 70
     1
102
RTVSPropertyOp50
 70
     1
102
RTVSPropertyOp51
 70
     0
102
RTVSPropertyOp52
 70
     0
102
RTVSPropertyOp53
 70
     1
102
RTVSPropertyOp54
 70
     1
102
RTVSPropertyOp55
 70
     1
102
RTVSPropertyOp56
 70
     1
102
RTVSPropertyOp57
 70
     1
102
RTVSPropertyOp58
 70
     1
102
RTVSPropertyOp59
 70
     1
102
RTVSPropertyOp60
 70
     1
102
RTVSPropertyOp61
 70
     1
102
RTVSPropertyOp62
 70
     1
  0
XRECORD
  5
A265
102
{ACAD_REACTORS
330
A264
102
}
330
A264
100
AcDbXrecord
280
     1
102
RTVSPost2010Prop28
280
     0
102
RTVSPost2010PropOp28
 70
     1
102
RTVSPost2010Prop29
280
     1
102
RTVSPost2010PropOp29
 70
     1
102
RTVSPost2010Prop30
280
     1
102
RTVSPost2010PropOp30
 70
     1
102
RTVSPost2010Prop31
280
     0
102
RTVSPost2010PropOp31
 70
     1
102
RTVSPost2010Prop32
280
     0
102
RTVSPost2010PropOp32
 70
     1
102
RTVSPost2010Prop33
280
     0
102
RTVSPost2010PropOp33
 70
     1
102
RTVSPost2010Prop34
280
     0
102
RTVSPost2010PropOp34
 70
     1
102
RTVSPost2010Prop35
280
     0
102
RTVSPost2010PropOp35
 70
     1
102
RTVSPost2010Prop36
280
     0
102
RTVSPost2010PropOp36
 70
     1
102
RTVSPost2010Prop37
 90
       50
102
RTVSPost2010PropOp37
 70
     1
102
RTVSPost2010Prop38
140
0.0
102
RTVSPost2010PropOp38
 70
     1
102
RTVSPost2010Prop39
140
1.0
102
RTVSPost2010PropOp39
 70
     1
102
RTVSPost2010Prop40
 90
        0
102
RTVSPost2010PropOp40
 70
     1
102
RTVSPost2010Prop41ColorIndex
 90
       18
102
RTVSPost2010Prop41ColorRGB
 90
        0
102
RTVSPost2010PropOp41
 70
     1
102
RTVSPost2010Prop42
 90
       50
102
RTVSPost2010PropOp42
 70
     1
102
RTVSPost2010Prop43
 90
        3
102
RTVSPost2010PropOp43
 70
     1
102
RTVSPost2010Prop44ColorIndex
 90
        5
102
RTVSPost2010Prop44ColorRGB
 90
      255
102
RTVSPost2010PropOp44
 70
     1
102
RTVSPost2010Prop45
280
     0
102
RTVSPost2010PropOp45
 70
     1
102
RTVSPost2010Prop46
 90
       50
102
RTVSPost2010PropOp46
 70
     1
102
RTVSPost2010Prop47
 90
       50
102
RTVSPost2010PropOp47
 70
     1
102
RTVSPost2010Prop48
 90
       50
102
RTVSPost2010PropOp48
 70
     1
102
RTVSPost2010Prop49
280
     0
102
RTVSPost2010PropOp49
 70
     1
102
RTVSPost2010Prop50
 90
       50
102
RTVSPost2010PropOp50
 70
     1
102
RTVSPost2010Prop51ColorIndex
 90
      256
102
RTVSPost2010Prop51ColorRGB
 90
-16777216
102
RTVSPost2010PropOp51
 70
     0
102
RTVSPost2010Prop52
140
1.0
102
RTVSPost2010PropOp52
 70
     0
102
RTVSPost2010Prop53
 90
        2
102
RTVSPost2010PropOp53
 70
     1
102
RTVSPost2010Prop54
  1
strokes_ogs.tif
102
RTVSPost2010PropOp54
 70
     1
102
RTVSPost2010Prop55
280
     0
102
RTVSPost2010PropOp55
 70
     1
102
RTVSPost2010Prop56
140
1.0
102
RTVSPost2010PropOp56
 70
     1
102
RTVSPost2010Prop57
140
1.0
102
RTVSPost2010PropOp57
 70
     1
102
RTVSPropertyOp0
 70
     1
102
RTVSPropertyOp1
 70
     1
102
RTVSPropertyOp2
 70
     1
102
RTVSPropertyOp3
 70
     1
102
RTVSPropertyOp4
 70
     1
102
RTVSPropertyOp5
 70
     1
102
RTVSPropertyOp6
 70
     1
102
RTVSPropertyOp7
 70
     1
102
RTVSPropertyOp8
 70
     1
102
RTVSPropertyOp9
 70
     1
102
RTVSPropertyOp10
 70
     1
102
RTVSPropertyOp11
 70
     1
102
RTVSPropertyOp12
 70
     1
102
RTVSPropertyOp13
 70
     1
102
RTVSPropertyOp14
 70
     1
102
RTVSPropertyOp15
 70
     1
102
RTVSPropertyOp16
 70
     1
102
RTVSPropertyOp17
 70
     1
102
RTVSPropertyOp18
 70
     1
102
RTVSPropertyOp19
 70
     1
102
RTVSPropertyOp20
 70
     1
102
RTVSPropertyOp21
 70
     1
102
RTVSPropertyOp22
 70
     1
102
RTVSPropertyOp23
 70
     1
102
RTVSPropertyOp24
 70
     1
102
RTVSPropertyOp25
 70
     1
102
RTVSPropertyOp26
 70
     1
102
RTVSPropertyOp27
 70
     1
102
RTVSPropertyOp28
 70
     1
102
RTVSPropertyOp29
 70
     1
102
RTVSPropertyOp30
 70
     1
102
RTVSPropertyOp31
 70
     1
102
RTVSPropertyOp32
 70
     1
102
RTVSPropertyOp33
 70
     1
102
RTVSPropertyOp34
 70
     1
102
RTVSPropertyOp35
 70
     1
102
RTVSPropertyOp36
 70
     1
102
RTVSPropertyOp37
 70
     1
102
RTVSPropertyOp38
 70
     1
102
RTVSPropertyOp39
 70
     1
102
RTVSPropertyOp40
 70
     1
102
RTVSPropertyOp41
 70
     1
102
RTVSPropertyOp42
 70
     1
102
RTVSPropertyOp43
 70
     1
102
RTVSPropertyOp44
 70
     1
102
RTVSPropertyOp45
 70
     1
102
RTVSPropertyOp46
 70
     1
102
RTVSPropertyOp47
 70
     1
102
RTVSPropertyOp48
 70
     1
102
RTVSPropertyOp49
 70
     1
102
RTVSPropertyOp50
 70
     1
102
RTVSPropertyOp51
 70
     0
102
RTVSPropertyOp52
 70
     0
102
RTVSPropertyOp53
 70
     1
102
RTVSPropertyOp54
 70
     1
102
RTVSPropertyOp55
 70
     1
102
RTVSPropertyOp56
 70
     1
102
RTVSPropertyOp57
 70
     1
102
RTVSPropertyOp58
 70
     1
102
RTVSPropertyOp59
 70
     1
102
RTVSPropertyOp60
 70
     1
102
RTVSPropertyOp61
 70
     1
102
RTVSPropertyOp62
 70
     1
  0
XRECORD
  5
A267
102
{ACAD_REACTORS
330
A266
102
}
330
A266
100
AcDbXrecord
280
     1
102
RTVSPost2010Prop28
280
     0
102
RTVSPost2010PropOp28
 70
     1
102
RTVSPost2010Prop29
280
     1
102
RTVSPost2010PropOp29
 70
     1
102
RTVSPost2010Prop30
280
     1
102
RTVSPost2010PropOp30
 70
     1
102
RTVSPost2010Prop31
280
     0
102
RTVSPost2010PropOp31
 70
     1
102
RTVSPost2010Prop32
280
     0
102
RTVSPost2010PropOp32
 70
     1
102
RTVSPost2010Prop33
280
     0
102
RTVSPost2010PropOp33
 70
     1
102
RTVSPost2010Prop34
280
     0
102
RTVSPost2010PropOp34
 70
     1
102
RTVSPost2010Prop35
280
     0
102
RTVSPost2010PropOp35
 70
     1
102
RTVSPost2010Prop36
280
     0
102
RTVSPost2010PropOp36
 70
     1
102
RTVSPost2010Prop37
 90
       50
102
RTVSPost2010PropOp37
 70
     1
102
RTVSPost2010Prop38
140
0.0
102
RTVSPost2010PropOp38
 70
     1
102
RTVSPost2010Prop39
140
1.0
102
RTVSPost2010PropOp39
 70
     1
102
RTVSPost2010Prop40
 90
        0
102
RTVSPost2010PropOp40
 70
     1
102
RTVSPost2010Prop41ColorIndex
 90
       18
102
RTVSPost2010Prop41ColorRGB
 90
        0
102
RTVSPost2010PropOp41
 70
     1
102
RTVSPost2010Prop42
 90
       50
102
RTVSPost2010PropOp42
 70
     1
102
RTVSPost2010Prop43
 90
        3
102
RTVSPost2010PropOp43
 70
     1
102
RTVSPost2010Prop44ColorIndex
 90
        5
102
RTVSPost2010Prop44ColorRGB
 90
      255
102
RTVSPost2010PropOp44
 70
     1
102
RTVSPost2010Prop45
280
     0
102
RTVSPost2010PropOp45
 70
     1
102
RTVSPost2010Prop46
 90
       50
102
RTVSPost2010PropOp46
 70
     1
102
RTVSPost2010Prop47
 90
       50
102
RTVSPost2010PropOp47
 70
     1
102
RTVSPost2010Prop48
 90
       50
102
RTVSPost2010PropOp48
 70
     1
102
RTVSPost2010Prop49
280
     0
102
RTVSPost2010PropOp49
 70
     1
102
RTVSPost2010Prop50
 90
       50
102
RTVSPost2010PropOp50
 70
     1
102
RTVSPost2010Prop51ColorIndex
 90
      256
102
RTVSPost2010Prop51ColorRGB
 90
-16777216
102
RTVSPost2010PropOp51
 70
     0
102
RTVSPost2010Prop52
140
1.0
102
RTVSPost2010PropOp52
 70
     0
102
RTVSPost2010Prop53
 90
        2
102
RTVSPost2010PropOp53
 70
     1
102
RTVSPost2010Prop54
  1
strokes_ogs.tif
102
RTVSPost2010PropOp54
 70
     1
102
RTVSPost2010Prop55
280
     0
102
RTVSPost2010PropOp55
 70
     1
102
RTVSPost2010Prop56
140
1.0
102
RTVSPost2010PropOp56
 70
     1
102
RTVSPost2010Prop57
140
1.0
102
RTVSPost2010PropOp57
 70
     1
102
RTVSPropertyOp0
 70
     1
102
RTVSPropertyOp1
 70
     1
102
RTVSPropertyOp2
 70
     1
102
RTVSPropertyOp3
 70
     1
102
RTVSPropertyOp4
 70
     1
102
RTVSPropertyOp5
 70
     1
102
RTVSPropertyOp6
 70
     1
102
RTVSPropertyOp7
 70
     1
102
RTVSPropertyOp8
 70
     1
102
RTVSPropertyOp9
 70
     1
102
RTVSPropertyOp10
 70
     1
102
RTVSPropertyOp11
 70
     1
102
RTVSPropertyOp12
 70
     1
102
RTVSPropertyOp13
 70
     1
102
RTVSPropertyOp14
 70
     1
102
RTVSPropertyOp15
 70
     1
102
RTVSPropertyOp16
 70
     1
102
RTVSPropertyOp17
 70
     1
102
RTVSPropertyOp18
 70
     1
102
RTVSPropertyOp19
 70
     1
102
RTVSPropertyOp20
 70
     1
102
RTVSPropertyOp21
 70
     1
102
RTVSPropertyOp22
 70
     1
102
RTVSPropertyOp23
 70
     1
102
RTVSPropertyOp24
 70
     1
102
RTVSPropertyOp25
 70
     1
102
RTVSPropertyOp26
 70
     1
102
RTVSPropertyOp27
 70
     1
102
RTVSPropertyOp28
 70
     1
102
RTVSPropertyOp29
 70
     1
102
RTVSPropertyOp30
 70
     1
102
RTVSPropertyOp31
 70
     1
102
RTVSPropertyOp32
 70
     1
102
RTVSPropertyOp33
 70
     1
102
RTVSPropertyOp34
 70
     1
102
RTVSPropertyOp35
 70
     1
102
RTVSPropertyOp36
 70
     1
102
RTVSPropertyOp37
 70
     1
102
RTVSPropertyOp38
 70
     1
102
RTVSPropertyOp39
 70
     1
102
RTVSPropertyOp40
 70
     1
102
RTVSPropertyOp41
 70
     1
102
RTVSPropertyOp42
 70
     1
102
RTVSPropertyOp43
 70
     1
102
RTVSPropertyOp44
 70
     1
102
RTVSPropertyOp45
 70
     1
102
RTVSPropertyOp46
 70
     1
102
RTVSPropertyOp47
 70
     1
102
RTVSPropertyOp48
 70
     1
102
RTVSPropertyOp49
 70
     1
102
RTVSPropertyOp50
 70
     1
102
RTVSPropertyOp51
 70
     0
102
RTVSPropertyOp52
 70
     0
102
RTVSPropertyOp53
 70
     1
102
RTVSPropertyOp54
 70
     1
102
RTVSPropertyOp55
 70
     1
102
RTVSPropertyOp56
 70
     1
102
RTVSPropertyOp57
 70
     1
102
RTVSPropertyOp58
 70
     1
102
RTVSPropertyOp59
 70
     1
102
RTVSPropertyOp60
 70
     1
102
RTVSPropertyOp61
 70
     1
102
RTVSPropertyOp62
 70
     1
  0
XRECORD
  5
A269
102
{ACAD_REACTORS
330
A268
102
}
330
A268
100
AcDbXrecord
280
     1
102
RTVSPost2010Prop28
280
     0
102
RTVSPost2010PropOp28
 70
     1
102
RTVSPost2010Prop29
280
     1
102
RTVSPost2010PropOp29
 70
     1
102
RTVSPost2010Prop30
280
     1
102
RTVSPost2010PropOp30
 70
     1
102
RTVSPost2010Prop31
280
     0
102
RTVSPost2010PropOp31
 70
     1
102
RTVSPost2010Prop32
280
     0
102
RTVSPost2010PropOp32
 70
     1
102
RTVSPost2010Prop33
280
     0
102
RTVSPost2010PropOp33
 70
     1
102
RTVSPost2010Prop34
280
     0
102
RTVSPost2010PropOp34
 70
     1
102
RTVSPost2010Prop35
280
     0
102
RTVSPost2010PropOp35
 70
     1
102
RTVSPost2010Prop36
280
     0
102
RTVSPost2010PropOp36
 70
     1
102
RTVSPost2010Prop37
 90
       50
102
RTVSPost2010PropOp37
 70
     1
102
RTVSPost2010Prop38
140
0.0
102
RTVSPost2010PropOp38
 70
     1
102
RTVSPost2010Prop39
140
1.0
102
RTVSPost2010PropOp39
 70
     1
102
RTVSPost2010Prop40
 90
        0
102
RTVSPost2010PropOp40
 70
     1
102
RTVSPost2010Prop41ColorIndex
 90
       18
102
RTVSPost2010Prop41ColorRGB
 90
        0
102
RTVSPost2010PropOp41
 70
     1
102
RTVSPost2010Prop42
 90
       50
102
RTVSPost2010PropOp42
 70
     1
102
RTVSPost2010Prop43
 90
        3
102
RTVSPost2010PropOp43
 70
     1
102
RTVSPost2010Prop44ColorIndex
 90
        5
102
RTVSPost2010Prop44ColorRGB
 90
      255
102
RTVSPost2010PropOp44
 70
     1
102
RTVSPost2010Prop45
280
     0
102
RTVSPost2010PropOp45
 70
     1
102
RTVSPost2010Prop46
 90
       50
102
RTVSPost2010PropOp46
 70
     1
102
RTVSPost2010Prop47
 90
       50
102
RTVSPost2010PropOp47
 70
     1
102
RTVSPost2010Prop48
 90
       50
102
RTVSPost2010PropOp48
 70
     1
102
RTVSPost2010Prop49
280
     0
102
RTVSPost2010PropOp49
 70
     1
102
RTVSPost2010Prop50
 90
       50
102
RTVSPost2010PropOp50
 70
     1
102
RTVSPost2010Prop51ColorIndex
 90
      256
102
RTVSPost2010Prop51ColorRGB
 90
-16777216
102
RTVSPost2010PropOp51
 70
     0
102
RTVSPost2010Prop52
140
1.0
102
RTVSPost2010PropOp52
 70
     0
102
RTVSPost2010Prop53
 90
        2
102
RTVSPost2010PropOp53
 70
     1
102
RTVSPost2010Prop54
  1
strokes_ogs.tif
102
RTVSPost2010PropOp54
 70
     1
102
RTVSPost2010Prop55
280
     0
102
RTVSPost2010PropOp55
 70
     1
102
RTVSPost2010Prop56
140
1.0
102
RTVSPost2010PropOp56
 70
     1
102
RTVSPost2010Prop57
140
1.0
102
RTVSPost2010PropOp57
 70
     1
102
RTVSPropertyOp0
 70
     1
102
RTVSPropertyOp1
 70
     1
102
RTVSPropertyOp2
 70
     1
102
RTVSPropertyOp3
 70
     1
102
RTVSPropertyOp4
 70
     1
102
RTVSPropertyOp5
 70
     1
102
RTVSPropertyOp6
 70
     1
102
RTVSPropertyOp7
 70
     1
102
RTVSPropertyOp8
 70
     1
102
RTVSPropertyOp9
 70
     1
102
RTVSPropertyOp10
 70
     1
102
RTVSPropertyOp11
 70
     1
102
RTVSPropertyOp12
 70
     1
102
RTVSPropertyOp13
 70
     1
102
RTVSPropertyOp14
 70
     1
102
RTVSPropertyOp15
 70
     1
102
RTVSPropertyOp16
 70
     1
102
RTVSPropertyOp17
 70
     1
102
RTVSPropertyOp18
 70
     1
102
RTVSPropertyOp19
 70
     1
102
RTVSPropertyOp20
 70
     1
102
RTVSPropertyOp21
 70
     1
102
RTVSPropertyOp22
 70
     1
102
RTVSPropertyOp23
 70
     1
102
RTVSPropertyOp24
 70
     1
102
RTVSPropertyOp25
 70
     1
102
RTVSPropertyOp26
 70
     1
102
RTVSPropertyOp27
 70
     1
102
RTVSPropertyOp28
 70
     1
102
RTVSPropertyOp29
 70
     1
102
RTVSPropertyOp30
 70
     1
102
RTVSPropertyOp31
 70
     1
102
RTVSPropertyOp32
 70
     1
102
RTVSPropertyOp33
 70
     1
102
RTVSPropertyOp34
 70
     1
102
RTVSPropertyOp35
 70
     1
102
RTVSPropertyOp36
 70
     1
102
RTVSPropertyOp37
 70
     1
102
RTVSPropertyOp38
 70
     1
102
RTVSPropertyOp39
 70
     1
102
RTVSPropertyOp40
 70
     1
102
RTVSPropertyOp41
 70
     1
102
RTVSPropertyOp42
 70
     1
102
RTVSPropertyOp43
 70
     1
102
RTVSPropertyOp44
 70
     1
102
RTVSPropertyOp45
 70
     1
102
RTVSPropertyOp46
 70
     1
102
RTVSPropertyOp47
 70
     1
102
RTVSPropertyOp48
 70
     1
102
RTVSPropertyOp49
 70
     1
102
RTVSPropertyOp50
 70
     1
102
RTVSPropertyOp51
 70
     0
102
RTVSPropertyOp52
 70
     0
102
RTVSPropertyOp53
 70
     1
102
RTVSPropertyOp54
 70
     1
102
RTVSPropertyOp55
 70
     1
102
RTVSPropertyOp56
 70
     1
102
RTVSPropertyOp57
 70
     1
102
RTVSPropertyOp58
 70
     1
102
RTVSPropertyOp59
 70
     1
102
RTVSPropertyOp60
 70
     1
102
RTVSPropertyOp61
 70
     1
102
RTVSPropertyOp62
 70
     1
  0
XRECORD
  5
A26B
102
{ACAD_REACTORS
330
A26A
102
}
330
A26A
100
AcDbXrecord
280
     1
102
RTVSPost2010Prop28
280
     0
102
RTVSPost2010PropOp28
 70
     1
102
RTVSPost2010Prop29
280
     1
102
RTVSPost2010PropOp29
 70
     1
102
RTVSPost2010Prop30
280
     1
102
RTVSPost2010PropOp30
 70
     1
102
RTVSPost2010Prop31
280
     0
102
RTVSPost2010PropOp31
 70
     1
102
RTVSPost2010Prop32
280
     0
102
RTVSPost2010PropOp32
 70
     1
102
RTVSPost2010Prop33
280
     0
102
RTVSPost2010PropOp33
 70
     1
102
RTVSPost2010Prop34
280
     0
102
RTVSPost2010PropOp34
 70
     1
102
RTVSPost2010Prop35
280
     0
102
RTVSPost2010PropOp35
 70
     1
102
RTVSPost2010Prop36
280
     0
102
RTVSPost2010PropOp36
 70
     1
102
RTVSPost2010Prop37
 90
       50
102
RTVSPost2010PropOp37
 70
     1
102
RTVSPost2010Prop38
140
0.0
102
RTVSPost2010PropOp38
 70
     1
102
RTVSPost2010Prop39
140
1.0
102
RTVSPost2010PropOp39
 70
     1
102
RTVSPost2010Prop40
 90
        0
102
RTVSPost2010PropOp40
 70
     1
102
RTVSPost2010Prop41ColorIndex
 90
       18
102
RTVSPost2010Prop41ColorRGB
 90
        0
102
RTVSPost2010PropOp41
 70
     1
102
RTVSPost2010Prop42
 90
       50
102
RTVSPost2010PropOp42
 70
     1
102
RTVSPost2010Prop43
 90
        3
102
RTVSPost2010PropOp43
 70
     1
102
RTVSPost2010Prop44ColorIndex
 90
        5
102
RTVSPost2010Prop44ColorRGB
 90
      255
102
RTVSPost2010PropOp44
 70
     1
102
RTVSPost2010Prop45
280
     0
102
RTVSPost2010PropOp45
 70
     1
102
RTVSPost2010Prop46
 90
       50
102
RTVSPost2010PropOp46
 70
     1
102
RTVSPost2010Prop47
 90
       50
102
RTVSPost2010PropOp47
 70
     1
102
RTVSPost2010Prop48
 90
       50
102
RTVSPost2010PropOp48
 70
     1
102
RTVSPost2010Prop49
280
     0
102
RTVSPost2010PropOp49
 70
     1
102
RTVSPost2010Prop50
 90
       50
102
RTVSPost2010PropOp50
 70
     1
102
RTVSPost2010Prop51ColorIndex
 90
      256
102
RTVSPost2010Prop51ColorRGB
 90
-16777216
102
RTVSPost2010PropOp51
 70
     0
102
RTVSPost2010Prop52
140
1.0
102
RTVSPost2010PropOp52
 70
     0
102
RTVSPost2010Prop53
 90
        2
102
RTVSPost2010PropOp53
 70
     1
102
RTVSPost2010Prop54
  1
strokes_ogs.tif
102
RTVSPost2010PropOp54
 70
     1
102
RTVSPost2010Prop55
280
     0
102
RTVSPost2010PropOp55
 70
     1
102
RTVSPost2010Prop56
140
1.0
102
RTVSPost2010PropOp56
 70
     1
102
RTVSPost2010Prop57
140
1.0
102
RTVSPost2010PropOp57
 70
     1
102
RTVSPropertyOp0
 70
     1
102
RTVSPropertyOp1
 70
     1
102
RTVSPropertyOp2
 70
     1
102
RTVSPropertyOp3
 70
     1
102
RTVSPropertyOp4
 70
     1
102
RTVSPropertyOp5
 70
     1
102
RTVSPropertyOp6
 70
     1
102
RTVSPropertyOp7
 70
     1
102
RTVSPropertyOp8
 70
     1
102
RTVSPropertyOp9
 70
     1
102
RTVSPropertyOp10
 70
     1
102
RTVSPropertyOp11
 70
     1
102
RTVSPropertyOp12
 70
     1
102
RTVSPropertyOp13
 70
     1
102
RTVSPropertyOp14
 70
     1
102
RTVSPropertyOp15
 70
     1
102
RTVSPropertyOp16
 70
     1
102
RTVSPropertyOp17
 70
     1
102
RTVSPropertyOp18
 70
     1
102
RTVSPropertyOp19
 70
     1
102
RTVSPropertyOp20
 70
     1
102
RTVSPropertyOp21
 70
     1
102
RTVSPropertyOp22
 70
     1
102
RTVSPropertyOp23
 70
     1
102
RTVSPropertyOp24
 70
     1
102
RTVSPropertyOp25
 70
     1
102
RTVSPropertyOp26
 70
     1
102
RTVSPropertyOp27
 70
     1
102
RTVSPropertyOp28
 70
     1
102
RTVSPropertyOp29
 70
     1
102
RTVSPropertyOp30
 70
     1
102
RTVSPropertyOp31
 70
     1
102
RTVSPropertyOp32
 70
     1
102
RTVSPropertyOp33
 70
     1
102
RTVSPropertyOp34
 70
     1
102
RTVSPropertyOp35
 70
     1
102
RTVSPropertyOp36
 70
     1
102
RTVSPropertyOp37
 70
     1
102
RTVSPropertyOp38
 70
     1
102
RTVSPropertyOp39
 70
     1
102
RTVSPropertyOp40
 70
     1
102
RTVSPropertyOp41
 70
     1
102
RTVSPropertyOp42
 70
     1
102
RTVSPropertyOp43
 70
     1
102
RTVSPropertyOp44
 70
     1
102
RTVSPropertyOp45
 70
     1
102
RTVSPropertyOp46
 70
     1
102
RTVSPropertyOp47
 70
     1
102
RTVSPropertyOp48
 70
     1
102
RTVSPropertyOp49
 70
     1
102
RTVSPropertyOp50
 70
     1
102
RTVSPropertyOp51
 70
     0
102
RTVSPropertyOp52
 70
     0
102
RTVSPropertyOp53
 70
     1
102
RTVSPropertyOp54
 70
     1
102
RTVSPropertyOp55
 70
     1
102
RTVSPropertyOp56
 70
     1
102
RTVSPropertyOp57
 70
     1
102
RTVSPropertyOp58
 70
     1
102
RTVSPropertyOp59
 70
     1
102
RTVSPropertyOp60
 70
     1
102
RTVSPropertyOp61
 70
     1
102
RTVSPropertyOp62
 70
     1
  0
XRECORD
  5
A273
102
{ACAD_REACTORS
330
A272
102
}
330
A272
100
AcDbXrecord
280
     1
102
RTVSPost2010Prop28
280
     0
102
RTVSPost2010PropOp28
 70
     1
102
RTVSPost2010Prop29
280
     1
102
RTVSPost2010PropOp29
 70
     1
102
RTVSPost2010Prop30
280
     1
102
RTVSPost2010PropOp30
 70
     1
102
RTVSPost2010Prop31
280
     0
102
RTVSPost2010PropOp31
 70
     1
102
RTVSPost2010Prop32
280
     0
102
RTVSPost2010PropOp32
 70
     1
102
RTVSPost2010Prop33
280
     0
102
RTVSPost2010PropOp33
 70
     1
102
RTVSPost2010Prop34
280
     0
102
RTVSPost2010PropOp34
 70
     1
102
RTVSPost2010Prop35
280
     0
102
RTVSPost2010PropOp35
 70
     1
102
RTVSPost2010Prop36
280
     0
102
RTVSPost2010PropOp36
 70
     1
102
RTVSPost2010Prop37
 90
       50
102
RTVSPost2010PropOp37
 70
     1
102
RTVSPost2010Prop38
140
0.0
102
RTVSPost2010PropOp38
 70
     1
102
RTVSPost2010Prop39
140
1.0
102
RTVSPost2010PropOp39
 70
     1
102
RTVSPost2010Prop40
 90
        0
102
RTVSPost2010PropOp40
 70
     1
102
RTVSPost2010Prop41ColorIndex
 90
       18
102
RTVSPost2010Prop41ColorRGB
 90
        0
102
RTVSPost2010PropOp41
 70
     1
102
RTVSPost2010Prop42
 90
       50
102
RTVSPost2010PropOp42
 70
     1
102
RTVSPost2010Prop43
 90
        3
102
RTVSPost2010PropOp43
 70
     1
102
RTVSPost2010Prop44ColorIndex
 90
        5
102
RTVSPost2010Prop44ColorRGB
 90
      255
102
RTVSPost2010PropOp44
 70
     1
102
RTVSPost2010Prop45
280
     0
102
RTVSPost2010PropOp45
 70
     1
102
RTVSPost2010Prop46
 90
       50
102
RTVSPost2010PropOp46
 70
     1
102
RTVSPost2010Prop47
 90
       50
102
RTVSPost2010PropOp47
 70
     1
102
RTVSPost2010Prop48
 90
       50
102
RTVSPost2010PropOp48
 70
     1
102
RTVSPost2010Prop49
280
     0
102
RTVSPost2010PropOp49
 70
     1
102
RTVSPost2010Prop50
 90
       50
102
RTVSPost2010PropOp50
 70
     1
102
RTVSPost2010Prop51ColorIndex
 90
      256
102
RTVSPost2010Prop51ColorRGB
 90
-16777216
102
RTVSPost2010PropOp51
 70
     0
102
RTVSPost2010Prop52
140
1.0
102
RTVSPost2010PropOp52
 70
     0
102
RTVSPost2010Prop53
 90
        2
102
RTVSPost2010PropOp53
 70
     1
102
RTVSPost2010Prop54
  1
strokes_ogs.tif
102
RTVSPost2010PropOp54
 70
     1
102
RTVSPost2010Prop55
280
     0
102
RTVSPost2010PropOp55
 70
     1
102
RTVSPost2010Prop56
140
1.0
102
RTVSPost2010PropOp56
 70
     1
102
RTVSPost2010Prop57
140
1.0
102
RTVSPost2010PropOp57
 70
     1
102
RTVSPropertyOp0
 70
     1
102
RTVSPropertyOp1
 70
     1
102
RTVSPropertyOp2
 70
     1
102
RTVSPropertyOp3
 70
     1
102
RTVSPropertyOp4
 70
     1
102
RTVSPropertyOp5
 70
     1
102
RTVSPropertyOp6
 70
     1
102
RTVSPropertyOp7
 70
     1
102
RTVSPropertyOp8
 70
     1
102
RTVSPropertyOp9
 70
     1
102
RTVSPropertyOp10
 70
     1
102
RTVSPropertyOp11
 70
     1
102
RTVSPropertyOp12
 70
     1
102
RTVSPropertyOp13
 70
     1
102
RTVSPropertyOp14
 70
     1
102
RTVSPropertyOp15
 70
     1
102
RTVSPropertyOp16
 70
     1
102
RTVSPropertyOp17
 70
     1
102
RTVSPropertyOp18
 70
     1
102
RTVSPropertyOp19
 70
     1
102
RTVSPropertyOp20
 70
     1
102
RTVSPropertyOp21
 70
     1
102
RTVSPropertyOp22
 70
     1
102
RTVSPropertyOp23
 70
     1
102
RTVSPropertyOp24
 70
     1
102
RTVSPropertyOp25
 70
     1
102
RTVSPropertyOp26
 70
     1
102
RTVSPropertyOp27
 70
     1
102
RTVSPropertyOp28
 70
     1
102
RTVSPropertyOp29
 70
     1
102
RTVSPropertyOp30
 70
     1
102
RTVSPropertyOp31
 70
     1
102
RTVSPropertyOp32
 70
     1
102
RTVSPropertyOp33
 70
     1
102
RTVSPropertyOp34
 70
     1
102
RTVSPropertyOp35
 70
     1
102
RTVSPropertyOp36
 70
     1
102
RTVSPropertyOp37
 70
     1
102
RTVSPropertyOp38
 70
     1
102
RTVSPropertyOp39
 70
     1
102
RTVSPropertyOp40
 70
     1
102
RTVSPropertyOp41
 70
     1
102
RTVSPropertyOp42
 70
     1
102
RTVSPropertyOp43
 70
     1
102
RTVSPropertyOp44
 70
     1
102
RTVSPropertyOp45
 70
     1
102
RTVSPropertyOp46
 70
     1
102
RTVSPropertyOp47
 70
     1
102
RTVSPropertyOp48
 70
     1
102
RTVSPropertyOp49
 70
     1
102
RTVSPropertyOp50
 70
     1
102
RTVSPropertyOp51
 70
     0
102
RTVSPropertyOp52
 70
     0
102
RTVSPropertyOp53
 70
     1
102
RTVSPropertyOp54
 70
     1
102
RTVSPropertyOp55
 70
     1
102
RTVSPropertyOp56
 70
     1
102
RTVSPropertyOp57
 70
     1
102
RTVSPropertyOp58
 70
     1
102
RTVSPropertyOp59
 70
     1
102
RTVSPropertyOp60
 70
     1
102
RTVSPropertyOp61
 70
     1
102
RTVSPropertyOp62
 70
     1
  0
XRECORD
  5
A28F
102
{ACAD_REACTORS
330
A28E
102
}
330
A28E
100
AcDbXrecord
280
     1
102
RTVSPost2010Prop28
280
     0
102
RTVSPost2010PropOp28
 70
     1
102
RTVSPost2010Prop29
280
     1
102
RTVSPost2010PropOp29
 70
     1
102
RTVSPost2010Prop30
280
     1
102
RTVSPost2010PropOp30
 70
     1
102
RTVSPost2010Prop31
280
     0
102
RTVSPost2010PropOp31
 70
     1
102
RTVSPost2010Prop32
280
     0
102
RTVSPost2010PropOp32
 70
     1
102
RTVSPost2010Prop33
280
     0
102
RTVSPost2010PropOp33
 70
     1
102
RTVSPost2010Prop34
280
     0
102
RTVSPost2010PropOp34
 70
     1
102
RTVSPost2010Prop35
280
     0
102
RTVSPost2010PropOp35
 70
     1
102
RTVSPost2010Prop36
280
     0
102
RTVSPost2010PropOp36
 70
     1
102
RTVSPost2010Prop37
 90
       50
102
RTVSPost2010PropOp37
 70
     0
102
RTVSPost2010Prop38
140
0.0
102
RTVSPost2010PropOp38
 70
     0
102
RTVSPost2010Prop39
140
1.0
102
RTVSPost2010PropOp39
 70
     0
102
RTVSPost2010Prop40
 90
        0
102
RTVSPost2010PropOp40
 70
     0
102
RTVSPost2010Prop41ColorIndex
 90
       18
102
RTVSPost2010Prop41ColorRGB
 90
        0
102
RTVSPost2010PropOp41
 70
     0
102
RTVSPost2010Prop42
 90
       50
102
RTVSPost2010PropOp42
 70
     0
102
RTVSPost2010Prop43
 90
        3
102
RTVSPost2010PropOp43
 70
     0
102
RTVSPost2010Prop44ColorIndex
 90
        5
102
RTVSPost2010Prop44ColorRGB
 90
      255
102
RTVSPost2010PropOp44
 70
     0
102
RTVSPost2010Prop45
280
     0
102
RTVSPost2010PropOp45
 70
     1
102
RTVSPost2010Prop46
 90
       50
102
RTVSPost2010PropOp46
 70
     0
102
RTVSPost2010Prop47
 90
       50
102
RTVSPost2010PropOp47
 70
     0
102
RTVSPost2010Prop48
 90
       50
102
RTVSPost2010PropOp48
 70
     0
102
RTVSPost2010Prop49
280
     0
102
RTVSPost2010PropOp49
 70
     1
102
RTVSPost2010Prop50
 90
       50
102
RTVSPost2010PropOp50
 70
     0
102
RTVSPost2010Prop51ColorIndex
 90
      256
102
RTVSPost2010Prop51ColorRGB
 90
-16777216
102
RTVSPost2010PropOp51
 70
     0
102
RTVSPost2010Prop52
140
1.0
102
RTVSPost2010PropOp52
 70
     0
102
RTVSPost2010Prop53
 90
        2
102
RTVSPost2010PropOp53
 70
     0
102
RTVSPost2010Prop54
  1
strokes_ogs.tif
102
RTVSPost2010PropOp54
 70
     0
102
RTVSPost2010Prop55
280
     0
102
RTVSPost2010PropOp55
 70
     1
102
RTVSPost2010Prop56
140
1.0
102
RTVSPost2010PropOp56
 70
     0
102
RTVSPost2010Prop57
140
1.0
102
RTVSPost2010PropOp57
 70
     0
102
RTVSPropertyOp0
 70
     0
102
RTVSPropertyOp1
 70
     0
102
RTVSPropertyOp2
 70
     0
102
RTVSPropertyOp3
 70
     0
102
RTVSPropertyOp4
 70
     0
102
RTVSPropertyOp5
 70
     0
102
RTVSPropertyOp6
 70
     0
102
RTVSPropertyOp7
 70
     0
102
RTVSPropertyOp8
 70
     0
102
RTVSPropertyOp9
 70
     0
102
RTVSPropertyOp10
 70
     0
102
RTVSPropertyOp11
 70
     0
102
RTVSPropertyOp12
 70
     0
102
RTVSPropertyOp13
 70
     0
102
RTVSPropertyOp14
 70
     2
102
RTVSPropertyOp15
 70
     0
102
RTVSPropertyOp16
 70
     0
102
RTVSPropertyOp17
 70
     0
102
RTVSPropertyOp18
 70
     0
102
RTVSPropertyOp19
 70
     0
102
RTVSPropertyOp20
 70
     0
102
RTVSPropertyOp21
 70
     0
102
RTVSPropertyOp22
 70
     0
102
RTVSPropertyOp23
 70
     0
102
RTVSPropertyOp24
 70
     0
102
RTVSPropertyOp25
 70
     0
102
RTVSPropertyOp26
 70
     0
102
RTVSPropertyOp27
 70
     0
102
RTVSPropertyOp28
 70
     1
102
RTVSPropertyOp29
 70
     1
102
RTVSPropertyOp30
 70
     1
102
RTVSPropertyOp31
 70
     1
102
RTVSPropertyOp32
 70
     1
102
RTVSPropertyOp33
 70
     1
102
RTVSPropertyOp34
 70
     1
102
RTVSPropertyOp35
 70
     1
102
RTVSPropertyOp36
 70
     1
102
RTVSPropertyOp37
 70
     0
102
RTVSPropertyOp38
 70
     0
102
RTVSPropertyOp39
 70
     0
102
RTVSPropertyOp40
 70
     0
102
RTVSPropertyOp41
 70
     0
102
RTVSPropertyOp42
 70
     0
102
RTVSPropertyOp43
 70
     0
102
RTVSPropertyOp44
 70
     0
102
RTVSPropertyOp45
 70
     1
102
RTVSPropertyOp46
 70
     0
102
RTVSPropertyOp47
 70
     0
102
RTVSPropertyOp48
 70
     0
102
RTVSPropertyOp49
 70
     1
102
RTVSPropertyOp50
 70
     0
102
RTVSPropertyOp51
 70
     0
102
RTVSPropertyOp52
 70
     0
102
RTVSPropertyOp53
 70
     0
102
RTVSPropertyOp54
 70
     0
102
RTVSPropertyOp55
 70
     1
102
RTVSPropertyOp56
 70
     0
102
RTVSPropertyOp57
 70
     0
102
RTVSPropertyOp58
 70
     0
102
RTVSPropertyOp59
 70
     0
102
RTVSPropertyOp60
 70
     0
102
RTVSPropertyOp61
 70
     0
102
RTVSPropertyOp62
 70
     0
  0
XRECORD
  5
A27F
102
{ACAD_REACTORS
330
A27E
102
}
330
A27E
100
AcDbXrecord
280
     1
102
RTVSPost2010Prop28
280
     0
102
RTVSPost2010PropOp28
 70
     1
102
RTVSPost2010Prop29
280
     1
102
RTVSPost2010PropOp29
 70
     1
102
RTVSPost2010Prop30
280
     1
102
RTVSPost2010PropOp30
 70
     1
102
RTVSPost2010Prop31
280
     0
102
RTVSPost2010PropOp31
 70
     1
102
RTVSPost2010Prop32
280
     0
102
RTVSPost2010PropOp32
 70
     1
102
RTVSPost2010Prop33
280
     0
102
RTVSPost2010PropOp33
 70
     1
102
RTVSPost2010Prop34
280
     0
102
RTVSPost2010PropOp34
 70
     1
102
RTVSPost2010Prop35
280
     0
102
RTVSPost2010PropOp35
 70
     1
102
RTVSPost2010Prop36
280
     0
102
RTVSPost2010PropOp36
 70
     1
102
RTVSPost2010Prop37
 90
       50
102
RTVSPost2010PropOp37
 70
     1
102
RTVSPost2010Prop38
140
0.0
102
RTVSPost2010PropOp38
 70
     1
102
RTVSPost2010Prop39
140
1.0
102
RTVSPost2010PropOp39
 70
     1
102
RTVSPost2010Prop40
 90
        0
102
RTVSPost2010PropOp40
 70
     1
102
RTVSPost2010Prop41ColorIndex
 90
       18
102
RTVSPost2010Prop41ColorRGB
 90
        0
102
RTVSPost2010PropOp41
 70
     1
102
RTVSPost2010Prop42
 90
       50
102
RTVSPost2010PropOp42
 70
     1
102
RTVSPost2010Prop43
 90
        3
102
RTVSPost2010PropOp43
 70
     1
102
RTVSPost2010Prop44ColorIndex
 90
        5
102
RTVSPost2010Prop44ColorRGB
 90
      255
102
RTVSPost2010PropOp44
 70
     1
102
RTVSPost2010Prop45
280
     0
102
RTVSPost2010PropOp45
 70
     1
102
RTVSPost2010Prop46
 90
       50
102
RTVSPost2010PropOp46
 70
     1
102
RTVSPost2010Prop47
 90
       50
102
RTVSPost2010PropOp47
 70
     1
102
RTVSPost2010Prop48
 90
       50
102
RTVSPost2010PropOp48
 70
     1
102
RTVSPost2010Prop49
280
     0
102
RTVSPost2010PropOp49
 70
     1
102
RTVSPost2010Prop50
 90
       50
102
RTVSPost2010PropOp50
 70
     1
102
RTVSPost2010Prop51ColorIndex
 90
      256
102
RTVSPost2010Prop51ColorRGB
 90
-16777216
102
RTVSPost2010PropOp51
 70
     0
102
RTVSPost2010Prop52
140
1.0
102
RTVSPost2010PropOp52
 70
     0
102
RTVSPost2010Prop53
 90
        2
102
RTVSPost2010PropOp53
 70
     1
102
RTVSPost2010Prop54
  1
strokes_ogs.tif
102
RTVSPost2010PropOp54
 70
     1
102
RTVSPost2010Prop55
280
     0
102
RTVSPost2010PropOp55
 70
     1
102
RTVSPost2010Prop56
140
1.0
102
RTVSPost2010PropOp56
 70
     1
102
RTVSPost2010Prop57
140
1.0
102
RTVSPost2010PropOp57
 70
     1
102
RTVSPropertyOp0
 70
     1
102
RTVSPropertyOp1
 70
     1
102
RTVSPropertyOp2
 70
     1
102
RTVSPropertyOp3
 70
     1
102
RTVSPropertyOp4
 70
     1
102
RTVSPropertyOp5
 70
     1
102
RTVSPropertyOp6
 70
     1
102
RTVSPropertyOp7
 70
     1
102
RTVSPropertyOp8
 70
     1
102
RTVSPropertyOp9
 70
     1
102
RTVSPropertyOp10
 70
     1
102
RTVSPropertyOp11
 70
     1
102
RTVSPropertyOp12
 70
     1
102
RTVSPropertyOp13
 70
     1
102
RTVSPropertyOp14
 70
     1
102
RTVSPropertyOp15
 70
     1
102
RTVSPropertyOp16
 70
     1
102
RTVSPropertyOp17
 70
     1
102
RTVSPropertyOp18
 70
     1
102
RTVSPropertyOp19
 70
     1
102
RTVSPropertyOp20
 70
     1
102
RTVSPropertyOp21
 70
     1
102
RTVSPropertyOp22
 70
     1
102
RTVSPropertyOp23
 70
     1
102
RTVSPropertyOp24
 70
     1
102
RTVSPropertyOp25
 70
     1
102
RTVSPropertyOp26
 70
     1
102
RTVSPropertyOp27
 70
     1
102
RTVSPropertyOp28
 70
     1
102
RTVSPropertyOp29
 70
     1
102
RTVSPropertyOp30
 70
     1
102
RTVSPropertyOp31
 70
     1
102
RTVSPropertyOp32
 70
     1
102
RTVSPropertyOp33
 70
     1
102
RTVSPropertyOp34
 70
     1
102
RTVSPropertyOp35
 70
     1
102
RTVSPropertyOp36
 70
     1
102
RTVSPropertyOp37
 70
     1
102
RTVSPropertyOp38
 70
     1
102
RTVSPropertyOp39
 70
     1
102
RTVSPropertyOp40
 70
     1
102
RTVSPropertyOp41
 70
     1
102
RTVSPropertyOp42
 70
     1
102
RTVSPropertyOp43
 70
     1
102
RTVSPropertyOp44
 70
     1
102
RTVSPropertyOp45
 70
     1
102
RTVSPropertyOp46
 70
     1
102
RTVSPropertyOp47
 70
     1
102
RTVSPropertyOp48
 70
     1
102
RTVSPropertyOp49
 70
     1
102
RTVSPropertyOp50
 70
     1
102
RTVSPropertyOp51
 70
     0
102
RTVSPropertyOp52
 70
     0
102
RTVSPropertyOp53
 70
     1
102
RTVSPropertyOp54
 70
     1
102
RTVSPropertyOp55
 70
     1
102
RTVSPropertyOp56
 70
     1
102
RTVSPropertyOp57
 70
     1
102
RTVSPropertyOp58
 70
     1
102
RTVSPropertyOp59
 70
     1
102
RTVSPropertyOp60
 70
     1
102
RTVSPropertyOp61
 70
     1
102
RTVSPropertyOp62
 70
     1
  0
XRECORD
  5
A291
102
{ACAD_REACTORS
330
A290
102
}
330
A290
100
AcDbXrecord
280
     1
102
RTVSPost2010Prop28
280
     0
102
RTVSPost2010PropOp28
 70
     1
102
RTVSPost2010Prop29
280
     1
102
RTVSPost2010PropOp29
 70
     1
102
RTVSPost2010Prop30
280
     1
102
RTVSPost2010PropOp30
 70
     1
102
RTVSPost2010Prop31
280
     0
102
RTVSPost2010PropOp31
 70
     1
102
RTVSPost2010Prop32
280
     0
102
RTVSPost2010PropOp32
 70
     1
102
RTVSPost2010Prop33
280
     0
102
RTVSPost2010PropOp33
 70
     1
102
RTVSPost2010Prop34
280
     0
102
RTVSPost2010PropOp34
 70
     1
102
RTVSPost2010Prop35
280
     0
102
RTVSPost2010PropOp35
 70
     1
102
RTVSPost2010Prop36
280
     0
102
RTVSPost2010PropOp36
 70
     1
102
RTVSPost2010Prop37
 90
       50
102
RTVSPost2010PropOp37
 70
     0
102
RTVSPost2010Prop38
140
0.0
102
RTVSPost2010PropOp38
 70
     0
102
RTVSPost2010Prop39
140
1.0
102
RTVSPost2010PropOp39
 70
     0
102
RTVSPost2010Prop40
 90
        0
102
RTVSPost2010PropOp40
 70
     0
102
RTVSPost2010Prop41ColorIndex
 90
       18
102
RTVSPost2010Prop41ColorRGB
 90
        0
102
RTVSPost2010PropOp41
 70
     0
102
RTVSPost2010Prop42
 90
       50
102
RTVSPost2010PropOp42
 70
     0
102
RTVSPost2010Prop43
 90
        3
102
RTVSPost2010PropOp43
 70
     0
102
RTVSPost2010Prop44ColorIndex
 90
        5
102
RTVSPost2010Prop44ColorRGB
 90
      255
102
RTVSPost2010PropOp44
 70
     0
102
RTVSPost2010Prop45
280
     0
102
RTVSPost2010PropOp45
 70
     1
102
RTVSPost2010Prop46
 90
       50
102
RTVSPost2010PropOp46
 70
     0
102
RTVSPost2010Prop47
 90
       50
102
RTVSPost2010PropOp47
 70
     0
102
RTVSPost2010Prop48
 90
       50
102
RTVSPost2010PropOp48
 70
     0
102
RTVSPost2010Prop49
280
     0
102
RTVSPost2010PropOp49
 70
     1
102
RTVSPost2010Prop50
 90
       50
102
RTVSPost2010PropOp50
 70
     0
102
RTVSPost2010Prop51ColorIndex
 90
      256
102
RTVSPost2010Prop51ColorRGB
 90
-16777216
102
RTVSPost2010PropOp51
 70
     0
102
RTVSPost2010Prop52
140
1.0
102
RTVSPost2010PropOp52
 70
     0
102
RTVSPost2010Prop53
 90
        2
102
RTVSPost2010PropOp53
 70
     0
102
RTVSPost2010Prop54
  1
strokes_ogs.tif
102
RTVSPost2010PropOp54
 70
     0
102
RTVSPost2010Prop55
280
     0
102
RTVSPost2010PropOp55
 70
     1
102
RTVSPost2010Prop56
140
1.0
102
RTVSPost2010PropOp56
 70
     0
102
RTVSPost2010Prop57
140
1.0
102
RTVSPost2010PropOp57
 70
     0
102
RTVSPropertyOp0
 70
     0
102
RTVSPropertyOp1
 70
     0
102
RTVSPropertyOp2
 70
     0
102
RTVSPropertyOp3
 70
     0
102
RTVSPropertyOp4
 70
     0
102
RTVSPropertyOp5
 70
     0
102
RTVSPropertyOp6
 70
     0
102
RTVSPropertyOp7
 70
     0
102
RTVSPropertyOp8
 70
     0
102
RTVSPropertyOp9
 70
     0
102
RTVSPropertyOp10
 70
     0
102
RTVSPropertyOp11
 70
     0
102
RTVSPropertyOp12
 70
     0
102
RTVSPropertyOp13
 70
     0
102
RTVSPropertyOp14
 70
     2
102
RTVSPropertyOp15
 70
     0
102
RTVSPropertyOp16
 70
     0
102
RTVSPropertyOp17
 70
     0
102
RTVSPropertyOp18
 70
     0
102
RTVSPropertyOp19
 70
     0
102
RTVSPropertyOp20
 70
     0
102
RTVSPropertyOp21
 70
     0
102
RTVSPropertyOp22
 70
     0
102
RTVSPropertyOp23
 70
     0
102
RTVSPropertyOp24
 70
     0
102
RTVSPropertyOp25
 70
     0
102
RTVSPropertyOp26
 70
     0
102
RTVSPropertyOp27
 70
     0
102
RTVSPropertyOp28
 70
     1
102
RTVSPropertyOp29
 70
     1
102
RTVSPropertyOp30
 70
     1
102
RTVSPropertyOp31
 70
     1
102
RTVSPropertyOp32
 70
     1
102
RTVSPropertyOp33
 70
     1
102
RTVSPropertyOp34
 70
     1
102
RTVSPropertyOp35
 70
     1
102
RTVSPropertyOp36
 70
     1
102
RTVSPropertyOp37
 70
     0
102
RTVSPropertyOp38
 70
     0
102
RTVSPropertyOp39
 70
     0
102
RTVSPropertyOp40
 70
     0
102
RTVSPropertyOp41
 70
     0
102
RTVSPropertyOp42
 70
     0
102
RTVSPropertyOp43
 70
     0
102
RTVSPropertyOp44
 70
     0
102
RTVSPropertyOp45
 70
     1
102
RTVSPropertyOp46
 70
     0
102
RTVSPropertyOp47
 70
     0
102
RTVSPropertyOp48
 70
     0
102
RTVSPropertyOp49
 70
     1
102
RTVSPropertyOp50
 70
     0
102
RTVSPropertyOp51
 70
     0
102
RTVSPropertyOp52
 70
     0
102
RTVSPropertyOp53
 70
     0
102
RTVSPropertyOp54
 70
     0
102
RTVSPropertyOp55
 70
     1
102
RTVSPropertyOp56
 70
     0
102
RTVSPropertyOp57
 70
     0
102
RTVSPropertyOp58
 70
     0
102
RTVSPropertyOp59
 70
     0
102
RTVSPropertyOp60
 70
     0
102
RTVSPropertyOp61
 70
     0
102
RTVSPropertyOp62
 70
     0
  0
XRECORD
  5
A277
102
{ACAD_REACTORS
330
A276
102
}
330
A276
100
AcDbXrecord
280
     1
102
RTVSPost2010Prop28
280
     0
102
RTVSPost2010PropOp28
 70
     1
102
RTVSPost2010Prop29
280
     1
102
RTVSPost2010PropOp29
 70
     1
102
RTVSPost2010Prop30
280
     1
102
RTVSPost2010PropOp30
 70
     1
102
RTVSPost2010Prop31
280
     0
102
RTVSPost2010PropOp31
 70
     1
102
RTVSPost2010Prop32
280
     0
102
RTVSPost2010PropOp32
 70
     1
102
RTVSPost2010Prop33
280
     0
102
RTVSPost2010PropOp33
 70
     1
102
RTVSPost2010Prop34
280
     0
102
RTVSPost2010PropOp34
 70
     1
102
RTVSPost2010Prop35
280
     0
102
RTVSPost2010PropOp35
 70
     1
102
RTVSPost2010Prop36
280
     0
102
RTVSPost2010PropOp36
 70
     1
102
RTVSPost2010Prop37
 90
       50
102
RTVSPost2010PropOp37
 70
     1
102
RTVSPost2010Prop38
140
0.0
102
RTVSPost2010PropOp38
 70
     1
102
RTVSPost2010Prop39
140
1.0
102
RTVSPost2010PropOp39
 70
     1
102
RTVSPost2010Prop40
 90
        0
102
RTVSPost2010PropOp40
 70
     1
102
RTVSPost2010Prop41ColorIndex
 90
       18
102
RTVSPost2010Prop41ColorRGB
 90
        0
102
RTVSPost2010PropOp41
 70
     1
102
RTVSPost2010Prop42
 90
       50
102
RTVSPost2010PropOp42
 70
     1
102
RTVSPost2010Prop43
 90
        3
102
RTVSPost2010PropOp43
 70
     1
102
RTVSPost2010Prop44ColorIndex
 90
        5
102
RTVSPost2010Prop44ColorRGB
 90
      255
102
RTVSPost2010PropOp44
 70
     1
102
RTVSPost2010Prop45
280
     0
102
RTVSPost2010PropOp45
 70
     1
102
RTVSPost2010Prop46
 90
       50
102
RTVSPost2010PropOp46
 70
     1
102
RTVSPost2010Prop47
 90
       50
102
RTVSPost2010PropOp47
 70
     1
102
RTVSPost2010Prop48
 90
       50
102
RTVSPost2010PropOp48
 70
     1
102
RTVSPost2010Prop49
280
     0
102
RTVSPost2010PropOp49
 70
     1
102
RTVSPost2010Prop50
 90
       50
102
RTVSPost2010PropOp50
 70
     1
102
RTVSPost2010Prop51ColorIndex
 90
      256
102
RTVSPost2010Prop51ColorRGB
 90
-16777216
102
RTVSPost2010PropOp51
 70
     0
102
RTVSPost2010Prop52
140
1.0
102
RTVSPost2010PropOp52
 70
     0
102
RTVSPost2010Prop53
 90
        2
102
RTVSPost2010PropOp53
 70
     1
102
RTVSPost2010Prop54
  1
strokes_ogs.tif
102
RTVSPost2010PropOp54
 70
     1
102
RTVSPost2010Prop55
280
     0
102
RTVSPost2010PropOp55
 70
     1
102
RTVSPost2010Prop56
140
1.0
102
RTVSPost2010PropOp56
 70
     1
102
RTVSPost2010Prop57
140
1.0
102
RTVSPost2010PropOp57
 70
     1
102
RTVSPropertyOp0
 70
     1
102
RTVSPropertyOp1
 70
     1
102
RTVSPropertyOp2
 70
     1
102
RTVSPropertyOp3
 70
     1
102
RTVSPropertyOp4
 70
     1
102
RTVSPropertyOp5
 70
     1
102
RTVSPropertyOp6
 70
     1
102
RTVSPropertyOp7
 70
     1
102
RTVSPropertyOp8
 70
     1
102
RTVSPropertyOp9
 70
     1
102
RTVSPropertyOp10
 70
     1
102
RTVSPropertyOp11
 70
     1
102
RTVSPropertyOp12
 70
     1
102
RTVSPropertyOp13
 70
     1
102
RTVSPropertyOp14
 70
     1
102
RTVSPropertyOp15
 70
     1
102
RTVSPropertyOp16
 70
     1
102
RTVSPropertyOp17
 70
     1
102
RTVSPropertyOp18
 70
     1
102
RTVSPropertyOp19
 70
     1
102
RTVSPropertyOp20
 70
     1
102
RTVSPropertyOp21
 70
     1
102
RTVSPropertyOp22
 70
     1
102
RTVSPropertyOp23
 70
     1
102
RTVSPropertyOp24
 70
     1
102
RTVSPropertyOp25
 70
     1
102
RTVSPropertyOp26
 70
     1
102
RTVSPropertyOp27
 70
     1
102
RTVSPropertyOp28
 70
     1
102
RTVSPropertyOp29
 70
     1
102
RTVSPropertyOp30
 70
     1
102
RTVSPropertyOp31
 70
     1
102
RTVSPropertyOp32
 70
     1
102
RTVSPropertyOp33
 70
     1
102
RTVSPropertyOp34
 70
     1
102
RTVSPropertyOp35
 70
     1
102
RTVSPropertyOp36
 70
     1
102
RTVSPropertyOp37
 70
     1
102
RTVSPropertyOp38
 70
     1
102
RTVSPropertyOp39
 70
     1
102
RTVSPropertyOp40
 70
     1
102
RTVSPropertyOp41
 70
     1
102
RTVSPropertyOp42
 70
     1
102
RTVSPropertyOp43
 70
     1
102
RTVSPropertyOp44
 70
     1
102
RTVSPropertyOp45
 70
     1
102
RTVSPropertyOp46
 70
     1
102
RTVSPropertyOp47
 70
     1
102
RTVSPropertyOp48
 70
     1
102
RTVSPropertyOp49
 70
     1
102
RTVSPropertyOp50
 70
     1
102
RTVSPropertyOp51
 70
     0
102
RTVSPropertyOp52
 70
     0
102
RTVSPropertyOp53
 70
     1
102
RTVSPropertyOp54
 70
     1
102
RTVSPropertyOp55
 70
     1
102
RTVSPropertyOp56
 70
     1
102
RTVSPropertyOp57
 70
     1
102
RTVSPropertyOp58
 70
     1
102
RTVSPropertyOp59
 70
     1
102
RTVSPropertyOp60
 70
     1
102
RTVSPropertyOp61
 70
     1
102
RTVSPropertyOp62
 70
     1
  0
XRECORD
  5
A28D
102
{ACAD_REACTORS
330
A28C
102
}
330
A28C
100
AcDbXrecord
280
     1
102
RTVSPost2010Prop28
280
     0
102
RTVSPost2010PropOp28
 70
     1
102
RTVSPost2010Prop29
280
     1
102
RTVSPost2010PropOp29
 70
     1
102
RTVSPost2010Prop30
280
     1
102
RTVSPost2010PropOp30
 70
     1
102
RTVSPost2010Prop31
280
     0
102
RTVSPost2010PropOp31
 70
     1
102
RTVSPost2010Prop32
280
     0
102
RTVSPost2010PropOp32
 70
     1
102
RTVSPost2010Prop33
280
     0
102
RTVSPost2010PropOp33
 70
     1
102
RTVSPost2010Prop34
280
     0
102
RTVSPost2010PropOp34
 70
     1
102
RTVSPost2010Prop35
280
     0
102
RTVSPost2010PropOp35
 70
     1
102
RTVSPost2010Prop36
280
     0
102
RTVSPost2010PropOp36
 70
     1
102
RTVSPost2010Prop37
 90
       50
102
RTVSPost2010PropOp37
 70
     1
102
RTVSPost2010Prop38
140
0.0
102
RTVSPost2010PropOp38
 70
     1
102
RTVSPost2010Prop39
140
1.0
102
RTVSPost2010PropOp39
 70
     1
102
RTVSPost2010Prop40
 90
        0
102
RTVSPost2010PropOp40
 70
     1
102
RTVSPost2010Prop41ColorIndex
 90
       18
102
RTVSPost2010Prop41ColorRGB
 90
        0
102
RTVSPost2010PropOp41
 70
     1
102
RTVSPost2010Prop42
 90
       50
102
RTVSPost2010PropOp42
 70
     1
102
RTVSPost2010Prop43
 90
        3
102
RTVSPost2010PropOp43
 70
     1
102
RTVSPost2010Prop44ColorIndex
 90
        5
102
RTVSPost2010Prop44ColorRGB
 90
      255
102
RTVSPost2010PropOp44
 70
     1
102
RTVSPost2010Prop45
280
     0
102
RTVSPost2010PropOp45
 70
     1
102
RTVSPost2010Prop46
 90
       50
102
RTVSPost2010PropOp46
 70
     1
102
RTVSPost2010Prop47
 90
       50
102
RTVSPost2010PropOp47
 70
     1
102
RTVSPost2010Prop48
 90
       50
102
RTVSPost2010PropOp48
 70
     1
102
RTVSPost2010Prop49
280
     0
102
RTVSPost2010PropOp49
 70
     1
102
RTVSPost2010Prop50
 90
       50
102
RTVSPost2010PropOp50
 70
     1
102
RTVSPost2010Prop51ColorIndex
 90
      256
102
RTVSPost2010Prop51ColorRGB
 90
-16777216
102
RTVSPost2010PropOp51
 70
     0
102
RTVSPost2010Prop52
140
1.0
102
RTVSPost2010PropOp52
 70
     0
102
RTVSPost2010Prop53
 90
        2
102
RTVSPost2010PropOp53
 70
     1
102
RTVSPost2010Prop54
  1
strokes_ogs.tif
102
RTVSPost2010PropOp54
 70
     1
102
RTVSPost2010Prop55
280
     0
102
RTVSPost2010PropOp55
 70
     1
102
RTVSPost2010Prop56
140
1.0
102
RTVSPost2010PropOp56
 70
     1
102
RTVSPost2010Prop57
140
1.0
102
RTVSPost2010PropOp57
 70
     1
102
RTVSPropertyOp0
 70
     1
102
RTVSPropertyOp1
 70
     1
102
RTVSPropertyOp2
 70
     1
102
RTVSPropertyOp3
 70
     1
102
RTVSPropertyOp4
 70
     1
102
RTVSPropertyOp5
 70
     1
102
RTVSPropertyOp6
 70
     1
102
RTVSPropertyOp7
 70
     1
102
RTVSPropertyOp8
 70
     1
102
RTVSPropertyOp9
 70
     1
102
RTVSPropertyOp10
 70
     1
102
RTVSPropertyOp11
 70
     1
102
RTVSPropertyOp12
 70
     1
102
RTVSPropertyOp13
 70
     1
102
RTVSPropertyOp14
 70
     1
102
RTVSPropertyOp15
 70
     1
102
RTVSPropertyOp16
 70
     1
102
RTVSPropertyOp17
 70
     1
102
RTVSPropertyOp18
 70
     1
102
RTVSPropertyOp19
 70
     1
102
RTVSPropertyOp20
 70
     1
102
RTVSPropertyOp21
 70
     1
102
RTVSPropertyOp22
 70
     1
102
RTVSPropertyOp23
 70
     1
102
RTVSPropertyOp24
 70
     1
102
RTVSPropertyOp25
 70
     1
102
RTVSPropertyOp26
 70
     1
102
RTVSPropertyOp27
 70
     1
102
RTVSPropertyOp28
 70
     1
102
RTVSPropertyOp29
 70
     1
102
RTVSPropertyOp30
 70
     1
102
RTVSPropertyOp31
 70
     1
102
RTVSPropertyOp32
 70
     1
102
RTVSPropertyOp33
 70
     1
102
RTVSPropertyOp34
 70
     1
102
RTVSPropertyOp35
 70
     1
102
RTVSPropertyOp36
 70
     1
102
RTVSPropertyOp37
 70
     1
102
RTVSPropertyOp38
 70
     1
102
RTVSPropertyOp39
 70
     1
102
RTVSPropertyOp40
 70
     1
102
RTVSPropertyOp41
 70
     1
102
RTVSPropertyOp42
 70
     1
102
RTVSPropertyOp43
 70
     1
102
RTVSPropertyOp44
 70
     1
102
RTVSPropertyOp45
 70
     1
102
RTVSPropertyOp46
 70
     1
102
RTVSPropertyOp47
 70
     1
102
RTVSPropertyOp48
 70
     1
102
RTVSPropertyOp49
 70
     1
102
RTVSPropertyOp50
 70
     1
102
RTVSPropertyOp51
 70
     0
102
RTVSPropertyOp52
 70
     0
102
RTVSPropertyOp53
 70
     1
102
RTVSPropertyOp54
 70
     1
102
RTVSPropertyOp55
 70
     1
102
RTVSPropertyOp56
 70
     1
102
RTVSPropertyOp57
 70
     1
102
RTVSPropertyOp58
 70
     1
102
RTVSPropertyOp59
 70
     1
102
RTVSPropertyOp60
 70
     1
102
RTVSPropertyOp61
 70
     1
102
RTVSPropertyOp62
 70
     1
  0
XRECORD
  5
A28B
102
{ACAD_REACTORS
330
A28A
102
}
330
A28A
100
AcDbXrecord
280
     1
102
RTVSPost2010Prop28
280
     0
102
RTVSPost2010PropOp28
 70
     1
102
RTVSPost2010Prop29
280
     1
102
RTVSPost2010PropOp29
 70
     1
102
RTVSPost2010Prop30
280
     1
102
RTVSPost2010PropOp30
 70
     1
102
RTVSPost2010Prop31
280
     0
102
RTVSPost2010PropOp31
 70
     1
102
RTVSPost2010Prop32
280
     0
102
RTVSPost2010PropOp32
 70
     1
102
RTVSPost2010Prop33
280
     0
102
RTVSPost2010PropOp33
 70
     1
102
RTVSPost2010Prop34
280
     0
102
RTVSPost2010PropOp34
 70
     1
102
RTVSPost2010Prop35
280
     0
102
RTVSPost2010PropOp35
 70
     1
102
RTVSPost2010Prop36
280
     0
102
RTVSPost2010PropOp36
 70
     1
102
RTVSPost2010Prop37
 90
       50
102
RTVSPost2010PropOp37
 70
     1
102
RTVSPost2010Prop38
140
0.0
102
RTVSPost2010PropOp38
 70
     1
102
RTVSPost2010Prop39
140
1.0
102
RTVSPost2010PropOp39
 70
     1
102
RTVSPost2010Prop40
 90
        0
102
RTVSPost2010PropOp40
 70
     1
102
RTVSPost2010Prop41ColorIndex
 90
       18
102
RTVSPost2010Prop41ColorRGB
 90
        0
102
RTVSPost2010PropOp41
 70
     1
102
RTVSPost2010Prop42
 90
       50
102
RTVSPost2010PropOp42
 70
     1
102
RTVSPost2010Prop43
 90
        3
102
RTVSPost2010PropOp43
 70
     1
102
RTVSPost2010Prop44ColorIndex
 90
        5
102
RTVSPost2010Prop44ColorRGB
 90
      255
102
RTVSPost2010PropOp44
 70
     1
102
RTVSPost2010Prop45
280
     0
102
RTVSPost2010PropOp45
 70
     1
102
RTVSPost2010Prop46
 90
       50
102
RTVSPost2010PropOp46
 70
     1
102
RTVSPost2010Prop47
 90
       50
102
RTVSPost2010PropOp47
 70
     1
102
RTVSPost2010Prop48
 90
       50
102
RTVSPost2010PropOp48
 70
     1
102
RTVSPost2010Prop49
280
     0
102
RTVSPost2010PropOp49
 70
     1
102
RTVSPost2010Prop50
 90
       50
102
RTVSPost2010PropOp50
 70
     1
102
RTVSPost2010Prop51ColorIndex
 90
      256
102
RTVSPost2010Prop51ColorRGB
 90
-16777216
102
RTVSPost2010PropOp51
 70
     0
102
RTVSPost2010Prop52
140
1.0
102
RTVSPost2010PropOp52
 70
     0
102
RTVSPost2010Prop53
 90
        2
102
RTVSPost2010PropOp53
 70
     1
102
RTVSPost2010Prop54
  1
strokes_ogs.tif
102
RTVSPost2010PropOp54
 70
     1
102
RTVSPost2010Prop55
280
     0
102
RTVSPost2010PropOp55
 70
     1
102
RTVSPost2010Prop56
140
1.0
102
RTVSPost2010PropOp56
 70
     1
102
RTVSPost2010Prop57
140
1.0
102
RTVSPost2010PropOp57
 70
     1
102
RTVSPropertyOp0
 70
     1
102
RTVSPropertyOp1
 70
     1
102
RTVSPropertyOp2
 70
     1
102
RTVSPropertyOp3
 70
     1
102
RTVSPropertyOp4
 70
     1
102
RTVSPropertyOp5
 70
     1
102
RTVSPropertyOp6
 70
     1
102
RTVSPropertyOp7
 70
     1
102
RTVSPropertyOp8
 70
     1
102
RTVSPropertyOp9
 70
     1
102
RTVSPropertyOp10
 70
     1
102
RTVSPropertyOp11
 70
     1
102
RTVSPropertyOp12
 70
     1
102
RTVSPropertyOp13
 70
     1
102
RTVSPropertyOp14
 70
     1
102
RTVSPropertyOp15
 70
     1
102
RTVSPropertyOp16
 70
     1
102
RTVSPropertyOp17
 70
     1
102
RTVSPropertyOp18
 70
     1
102
RTVSPropertyOp19
 70
     1
102
RTVSPropertyOp20
 70
     1
102
RTVSPropertyOp21
 70
     1
102
RTVSPropertyOp22
 70
     1
102
RTVSPropertyOp23
 70
     1
102
RTVSPropertyOp24
 70
     1
102
RTVSPropertyOp25
 70
     1
102
RTVSPropertyOp26
 70
     1
102
RTVSPropertyOp27
 70
     1
102
RTVSPropertyOp28
 70
     1
102
RTVSPropertyOp29
 70
     1
102
RTVSPropertyOp30
 70
     1
102
RTVSPropertyOp31
 70
     1
102
RTVSPropertyOp32
 70
     1
102
RTVSPropertyOp33
 70
     1
102
RTVSPropertyOp34
 70
     1
102
RTVSPropertyOp35
 70
     1
102
RTVSPropertyOp36
 70
     1
102
RTVSPropertyOp37
 70
     1
102
RTVSPropertyOp38
 70
     1
102
RTVSPropertyOp39
 70
     1
102
RTVSPropertyOp40
 70
     1
102
RTVSPropertyOp41
 70
     1
102
RTVSPropertyOp42
 70
     1
102
RTVSPropertyOp43
 70
     1
102
RTVSPropertyOp44
 70
     1
102
RTVSPropertyOp45
 70
     1
102
RTVSPropertyOp46
 70
     1
102
RTVSPropertyOp47
 70
     1
102
RTVSPropertyOp48
 70
     1
102
RTVSPropertyOp49
 70
     1
102
RTVSPropertyOp50
 70
     1
102
RTVSPropertyOp51
 70
     0
102
RTVSPropertyOp52
 70
     0
102
RTVSPropertyOp53
 70
     1
102
RTVSPropertyOp54
 70
     1
102
RTVSPropertyOp55
 70
     1
102
RTVSPropertyOp56
 70
     1
102
RTVSPropertyOp57
 70
     1
102
RTVSPropertyOp58
 70
     1
102
RTVSPropertyOp59
 70
     1
102
RTVSPropertyOp60
 70
     1
102
RTVSPropertyOp61
 70
     1
102
RTVSPropertyOp62
 70
     1
  0
XRECORD
  5
A285
102
{ACAD_REACTORS
330
A284
102
}
330
A284
100
AcDbXrecord
280
     1
102
RTVSPost2010Prop28
280
     0
102
RTVSPost2010PropOp28
 70
     1
102
RTVSPost2010Prop29
280
     1
102
RTVSPost2010PropOp29
 70
     1
102
RTVSPost2010Prop30
280
     1
102
RTVSPost2010PropOp30
 70
     1
102
RTVSPost2010Prop31
280
     0
102
RTVSPost2010PropOp31
 70
     1
102
RTVSPost2010Prop32
280
     0
102
RTVSPost2010PropOp32
 70
     1
102
RTVSPost2010Prop33
280
     0
102
RTVSPost2010PropOp33
 70
     1
102
RTVSPost2010Prop34
280
     0
102
RTVSPost2010PropOp34
 70
     1
102
RTVSPost2010Prop35
280
     0
102
RTVSPost2010PropOp35
 70
     1
102
RTVSPost2010Prop36
280
     0
102
RTVSPost2010PropOp36
 70
     1
102
RTVSPost2010Prop37
 90
       50
102
RTVSPost2010PropOp37
 70
     1
102
RTVSPost2010Prop38
140
0.0
102
RTVSPost2010PropOp38
 70
     1
102
RTVSPost2010Prop39
140
1.0
102
RTVSPost2010PropOp39
 70
     1
102
RTVSPost2010Prop40
 90
        0
102
RTVSPost2010PropOp40
 70
     1
102
RTVSPost2010Prop41ColorIndex
 90
       18
102
RTVSPost2010Prop41ColorRGB
 90
        0
102
RTVSPost2010PropOp41
 70
     1
102
RTVSPost2010Prop42
 90
       50
102
RTVSPost2010PropOp42
 70
     1
102
RTVSPost2010Prop43
 90
        3
102
RTVSPost2010PropOp43
 70
     1
102
RTVSPost2010Prop44ColorIndex
 90
        5
102
RTVSPost2010Prop44ColorRGB
 90
      255
102
RTVSPost2010PropOp44
 70
     1
102
RTVSPost2010Prop45
280
     0
102
RTVSPost2010PropOp45
 70
     1
102
RTVSPost2010Prop46
 90
       50
102
RTVSPost2010PropOp46
 70
     1
102
RTVSPost2010Prop47
 90
       50
102
RTVSPost2010PropOp47
 70
     1
102
RTVSPost2010Prop48
 90
       50
102
RTVSPost2010PropOp48
 70
     1
102
RTVSPost2010Prop49
280
     0
102
RTVSPost2010PropOp49
 70
     1
102
RTVSPost2010Prop50
 90
       50
102
RTVSPost2010PropOp50
 70
     1
102
RTVSPost2010Prop51ColorIndex
 90
      256
102
RTVSPost2010Prop51ColorRGB
 90
-16777216
102
RTVSPost2010PropOp51
 70
     0
102
RTVSPost2010Prop52
140
1.0
102
RTVSPost2010PropOp52
 70
     0
102
RTVSPost2010Prop53
 90
        2
102
RTVSPost2010PropOp53
 70
     1
102
RTVSPost2010Prop54
  1
strokes_ogs.tif
102
RTVSPost2010PropOp54
 70
     1
102
RTVSPost2010Prop55
280
     0
102
RTVSPost2010PropOp55
 70
     1
102
RTVSPost2010Prop56
140
1.0
102
RTVSPost2010PropOp56
 70
     1
102
RTVSPost2010Prop57
140
1.0
102
RTVSPost2010PropOp57
 70
     1
102
RTVSPropertyOp0
 70
     1
102
RTVSPropertyOp1
 70
     1
102
RTVSPropertyOp2
 70
     1
102
RTVSPropertyOp3
 70
     1
102
RTVSPropertyOp4
 70
     1
102
RTVSPropertyOp5
 70
     1
102
RTVSPropertyOp6
 70
     1
102
RTVSPropertyOp7
 70
     1
102
RTVSPropertyOp8
 70
     1
102
RTVSPropertyOp9
 70
     1
102
RTVSPropertyOp10
 70
     1
102
RTVSPropertyOp11
 70
     1
102
RTVSPropertyOp12
 70
     1
102
RTVSPropertyOp13
 70
     1
102
RTVSPropertyOp14
 70
     1
102
RTVSPropertyOp15
 70
     1
102
RTVSPropertyOp16
 70
     1
102
RTVSPropertyOp17
 70
     1
102
RTVSPropertyOp18
 70
     1
102
RTVSPropertyOp19
 70
     1
102
RTVSPropertyOp20
 70
     1
102
RTVSPropertyOp21
 70
     1
102
RTVSPropertyOp22
 70
     1
102
RTVSPropertyOp23
 70
     1
102
RTVSPropertyOp24
 70
     1
102
RTVSPropertyOp25
 70
     1
102
RTVSPropertyOp26
 70
     1
102
RTVSPropertyOp27
 70
     1
102
RTVSPropertyOp28
 70
     1
102
RTVSPropertyOp29
 70
     1
102
RTVSPropertyOp30
 70
     1
102
RTVSPropertyOp31
 70
     1
102
RTVSPropertyOp32
 70
     1
102
RTVSPropertyOp33
 70
     1
102
RTVSPropertyOp34
 70
     1
102
RTVSPropertyOp35
 70
     1
102
RTVSPropertyOp36
 70
     1
102
RTVSPropertyOp37
 70
     1
102
RTVSPropertyOp38
 70
     1
102
RTVSPropertyOp39
 70
     1
102
RTVSPropertyOp40
 70
     1
102
RTVSPropertyOp41
 70
     1
102
RTVSPropertyOp42
 70
     1
102
RTVSPropertyOp43
 70
     1
102
RTVSPropertyOp44
 70
     1
102
RTVSPropertyOp45
 70
     1
102
RTVSPropertyOp46
 70
     1
102
RTVSPropertyOp47
 70
     1
102
RTVSPropertyOp48
 70
     1
102
RTVSPropertyOp49
 70
     1
102
RTVSPropertyOp50
 70
     1
102
RTVSPropertyOp51
 70
     0
102
RTVSPropertyOp52
 70
     0
102
RTVSPropertyOp53
 70
     1
102
RTVSPropertyOp54
 70
     1
102
RTVSPropertyOp55
 70
     1
102
RTVSPropertyOp56
 70
     1
102
RTVSPropertyOp57
 70
     1
102
RTVSPropertyOp58
 70
     1
102
RTVSPropertyOp59
 70
     1
102
RTVSPropertyOp60
 70
     1
102
RTVSPropertyOp61
 70
     1
102
RTVSPropertyOp62
 70
     1
  0
XRECORD
  5
A287
102
{ACAD_REACTORS
330
A286
102
}
330
A286
100
AcDbXrecord
280
     1
102
RTVSPost2010Prop28
280
     0
102
RTVSPost2010PropOp28
 70
     1
102
RTVSPost2010Prop29
280
     1
102
RTVSPost2010PropOp29
 70
     1
102
RTVSPost2010Prop30
280
     1
102
RTVSPost2010PropOp30
 70
     1
102
RTVSPost2010Prop31
280
     0
102
RTVSPost2010PropOp31
 70
     1
102
RTVSPost2010Prop32
280
     0
102
RTVSPost2010PropOp32
 70
     1
102
RTVSPost2010Prop33
280
     0
102
RTVSPost2010PropOp33
 70
     1
102
RTVSPost2010Prop34
280
     0
102
RTVSPost2010PropOp34
 70
     1
102
RTVSPost2010Prop35
280
     0
102
RTVSPost2010PropOp35
 70
     1
102
RTVSPost2010Prop36
280
     0
102
RTVSPost2010PropOp36
 70
     1
102
RTVSPost2010Prop37
 90
       50
102
RTVSPost2010PropOp37
 70
     1
102
RTVSPost2010Prop38
140
0.0
102
RTVSPost2010PropOp38
 70
     1
102
RTVSPost2010Prop39
140
1.0
102
RTVSPost2010PropOp39
 70
     1
102
RTVSPost2010Prop40
 90
        0
102
RTVSPost2010PropOp40
 70
     1
102
RTVSPost2010Prop41ColorIndex
 90
       18
102
RTVSPost2010Prop41ColorRGB
 90
        0
102
RTVSPost2010PropOp41
 70
     1
102
RTVSPost2010Prop42
 90
       50
102
RTVSPost2010PropOp42
 70
     1
102
RTVSPost2010Prop43
 90
        3
102
RTVSPost2010PropOp43
 70
     1
102
RTVSPost2010Prop44ColorIndex
 90
        5
102
RTVSPost2010Prop44ColorRGB
 90
      255
102
RTVSPost2010PropOp44
 70
     1
102
RTVSPost2010Prop45
280
     0
102
RTVSPost2010PropOp45
 70
     1
102
RTVSPost2010Prop46
 90
       50
102
RTVSPost2010PropOp46
 70
     1
102
RTVSPost2010Prop47
 90
       50
102
RTVSPost2010PropOp47
 70
     1
102
RTVSPost2010Prop48
 90
       50
102
RTVSPost2010PropOp48
 70
     1
102
RTVSPost2010Prop49
280
     0
102
RTVSPost2010PropOp49
 70
     1
102
RTVSPost2010Prop50
 90
       50
102
RTVSPost2010PropOp50
 70
     1
102
RTVSPost2010Prop51ColorIndex
 90
      256
102
RTVSPost2010Prop51ColorRGB
 90
-16777216
102
RTVSPost2010PropOp51
 70
     0
102
RTVSPost2010Prop52
140
1.0
102
RTVSPost2010PropOp52
 70
     0
102
RTVSPost2010Prop53
 90
        2
102
RTVSPost2010PropOp53
 70
     1
102
RTVSPost2010Prop54
  1
strokes_ogs.tif
102
RTVSPost2010PropOp54
 70
     1
102
RTVSPost2010Prop55
280
     0
102
RTVSPost2010PropOp55
 70
     1
102
RTVSPost2010Prop56
140
1.0
102
RTVSPost2010PropOp56
 70
     1
102
RTVSPost2010Prop57
140
1.0
102
RTVSPost2010PropOp57
 70
     1
102
RTVSPropertyOp0
 70
     1
102
RTVSPropertyOp1
 70
     1
102
RTVSPropertyOp2
 70
     1
102
RTVSPropertyOp3
 70
     1
102
RTVSPropertyOp4
 70
     1
102
RTVSPropertyOp5
 70
     1
102
RTVSPropertyOp6
 70
     1
102
RTVSPropertyOp7
 70
     1
102
RTVSPropertyOp8
 70
     1
102
RTVSPropertyOp9
 70
     1
102
RTVSPropertyOp10
 70
     1
102
RTVSPropertyOp11
 70
     1
102
RTVSPropertyOp12
 70
     1
102
RTVSPropertyOp13
 70
     1
102
RTVSPropertyOp14
 70
     1
102
RTVSPropertyOp15
 70
     1
102
RTVSPropertyOp16
 70
     1
102
RTVSPropertyOp17
 70
     1
102
RTVSPropertyOp18
 70
     1
102
RTVSPropertyOp19
 70
     1
102
RTVSPropertyOp20
 70
     1
102
RTVSPropertyOp21
 70
     1
102
RTVSPropertyOp22
 70
     1
102
RTVSPropertyOp23
 70
     1
102
RTVSPropertyOp24
 70
     1
102
RTVSPropertyOp25
 70
     1
102
RTVSPropertyOp26
 70
     1
102
RTVSPropertyOp27
 70
     1
102
RTVSPropertyOp28
 70
     1
102
RTVSPropertyOp29
 70
     1
102
RTVSPropertyOp30
 70
     1
102
RTVSPropertyOp31
 70
     1
102
RTVSPropertyOp32
 70
     1
102
RTVSPropertyOp33
 70
     1
102
RTVSPropertyOp34
 70
     1
102
RTVSPropertyOp35
 70
     1
102
RTVSPropertyOp36
 70
     1
102
RTVSPropertyOp37
 70
     1
102
RTVSPropertyOp38
 70
     1
102
RTVSPropertyOp39
 70
     1
102
RTVSPropertyOp40
 70
     1
102
RTVSPropertyOp41
 70
     1
102
RTVSPropertyOp42
 70
     1
102
RTVSPropertyOp43
 70
     1
102
RTVSPropertyOp44
 70
     1
102
RTVSPropertyOp45
 70
     1
102
RTVSPropertyOp46
 70
     1
102
RTVSPropertyOp47
 70
     1
102
RTVSPropertyOp48
 70
     1
102
RTVSPropertyOp49
 70
     1
102
RTVSPropertyOp50
 70
     1
102
RTVSPropertyOp51
 70
     0
102
RTVSPropertyOp52
 70
     0
102
RTVSPropertyOp53
 70
     1
102
RTVSPropertyOp54
 70
     1
102
RTVSPropertyOp55
 70
     1
102
RTVSPropertyOp56
 70
     1
102
RTVSPropertyOp57
 70
     1
102
RTVSPropertyOp58
 70
     1
102
RTVSPropertyOp59
 70
     1
102
RTVSPropertyOp60
 70
     1
102
RTVSPropertyOp61
 70
     1
102
RTVSPropertyOp62
 70
     1
  0
XRECORD
  5
A27D
102
{ACAD_REACTORS
330
A27C
102
}
330
A27C
100
AcDbXrecord
280
     1
102
RTVSPost2010Prop28
280
     0
102
RTVSPost2010PropOp28
 70
     1
102
RTVSPost2010Prop29
280
     1
102
RTVSPost2010PropOp29
 70
     1
102
RTVSPost2010Prop30
280
     1
102
RTVSPost2010PropOp30
 70
     1
102
RTVSPost2010Prop31
280
     0
102
RTVSPost2010PropOp31
 70
     1
102
RTVSPost2010Prop32
280
     0
102
RTVSPost2010PropOp32
 70
     1
102
RTVSPost2010Prop33
280
     0
102
RTVSPost2010PropOp33
 70
     1
102
RTVSPost2010Prop34
280
     0
102
RTVSPost2010PropOp34
 70
     1
102
RTVSPost2010Prop35
280
     0
102
RTVSPost2010PropOp35
 70
     1
102
RTVSPost2010Prop36
280
     0
102
RTVSPost2010PropOp36
 70
     1
102
RTVSPost2010Prop37
 90
       50
102
RTVSPost2010PropOp37
 70
     1
102
RTVSPost2010Prop38
140
0.0
102
RTVSPost2010PropOp38
 70
     1
102
RTVSPost2010Prop39
140
1.0
102
RTVSPost2010PropOp39
 70
     1
102
RTVSPost2010Prop40
 90
        0
102
RTVSPost2010PropOp40
 70
     1
102
RTVSPost2010Prop41ColorIndex
 90
       18
102
RTVSPost2010Prop41ColorRGB
 90
        0
102
RTVSPost2010PropOp41
 70
     1
102
RTVSPost2010Prop42
 90
       50
102
RTVSPost2010PropOp42
 70
     1
102
RTVSPost2010Prop43
 90
        3
102
RTVSPost2010PropOp43
 70
     1
102
RTVSPost2010Prop44ColorIndex
 90
        5
102
RTVSPost2010Prop44ColorRGB
 90
      255
102
RTVSPost2010PropOp44
 70
     1
102
RTVSPost2010Prop45
280
     0
102
RTVSPost2010PropOp45
 70
     1
102
RTVSPost2010Prop46
 90
       50
102
RTVSPost2010PropOp46
 70
     1
102
RTVSPost2010Prop47
 90
       50
102
RTVSPost2010PropOp47
 70
     1
102
RTVSPost2010Prop48
 90
       50
102
RTVSPost2010PropOp48
 70
     1
102
RTVSPost2010Prop49
280
     0
102
RTVSPost2010PropOp49
 70
     1
102
RTVSPost2010Prop50
 90
       50
102
RTVSPost2010PropOp50
 70
     1
102
RTVSPost2010Prop51ColorIndex
 90
      256
102
RTVSPost2010Prop51ColorRGB
 90
-16777216
102
RTVSPost2010PropOp51
 70
     0
102
RTVSPost2010Prop52
140
1.0
102
RTVSPost2010PropOp52
 70
     0
102
RTVSPost2010Prop53
 90
        2
102
RTVSPost2010PropOp53
 70
     1
102
RTVSPost2010Prop54
  1
strokes_ogs.tif
102
RTVSPost2010PropOp54
 70
     1
102
RTVSPost2010Prop55
280
     0
102
RTVSPost2010PropOp55
 70
     1
102
RTVSPost2010Prop56
140
1.0
102
RTVSPost2010PropOp56
 70
     1
102
RTVSPost2010Prop57
140
1.0
102
RTVSPost2010PropOp57
 70
     1
102
RTVSPropertyOp0
 70
     1
102
RTVSPropertyOp1
 70
     1
102
RTVSPropertyOp2
 70
     1
102
RTVSPropertyOp3
 70
     1
102
RTVSPropertyOp4
 70
     1
102
RTVSPropertyOp5
 70
     1
102
RTVSPropertyOp6
 70
     1
102
RTVSPropertyOp7
 70
     1
102
RTVSPropertyOp8
 70
     1
102
RTVSPropertyOp9
 70
     1
102
RTVSPropertyOp10
 70
     1
102
RTVSPropertyOp11
 70
     1
102
RTVSPropertyOp12
 70
     1
102
RTVSPropertyOp13
 70
     1
102
RTVSPropertyOp14
 70
     1
102
RTVSPropertyOp15
 70
     1
102
RTVSPropertyOp16
 70
     1
102
RTVSPropertyOp17
 70
     1
102
RTVSPropertyOp18
 70
     1
102
RTVSPropertyOp19
 70
     1
102
RTVSPropertyOp20
 70
     1
102
RTVSPropertyOp21
 70
     1
102
RTVSPropertyOp22
 70
     1
102
RTVSPropertyOp23
 70
     1
102
RTVSPropertyOp24
 70
     1
102
RTVSPropertyOp25
 70
     1
102
RTVSPropertyOp26
 70
     1
102
RTVSPropertyOp27
 70
     1
102
RTVSPropertyOp28
 70
     1
102
RTVSPropertyOp29
 70
     1
102
RTVSPropertyOp30
 70
     1
102
RTVSPropertyOp31
 70
     1
102
RTVSPropertyOp32
 70
     1
102
RTVSPropertyOp33
 70
     1
102
RTVSPropertyOp34
 70
     1
102
RTVSPropertyOp35
 70
     1
102
RTVSPropertyOp36
 70
     1
102
RTVSPropertyOp37
 70
     1
102
RTVSPropertyOp38
 70
     1
102
RTVSPropertyOp39
 70
     1
102
RTVSPropertyOp40
 70
     1
102
RTVSPropertyOp41
 70
     1
102
RTVSPropertyOp42
 70
     1
102
RTVSPropertyOp43
 70
     1
102
RTVSPropertyOp44
 70
     1
102
RTVSPropertyOp45
 70
     1
102
RTVSPropertyOp46
 70
     1
102
RTVSPropertyOp47
 70
     1
102
RTVSPropertyOp48
 70
     1
102
RTVSPropertyOp49
 70
     1
102
RTVSPropertyOp50
 70
     1
102
RTVSPropertyOp51
 70
     0
102
RTVSPropertyOp52
 70
     0
102
RTVSPropertyOp53
 70
     1
102
RTVSPropertyOp54
 70
     1
102
RTVSPropertyOp55
 70
     1
102
RTVSPropertyOp56
 70
     1
102
RTVSPropertyOp57
 70
     1
102
RTVSPropertyOp58
 70
     1
102
RTVSPropertyOp59
 70
     1
102
RTVSPropertyOp60
 70
     1
102
RTVSPropertyOp61
 70
     1
102
RTVSPropertyOp62
 70
     1
  0
XRECORD
  5
A271
102
{ACAD_REACTORS
330
A270
102
}
330
A270
100
AcDbXrecord
280
     1
102
RTVSPost2010Prop28
280
     0
102
RTVSPost2010PropOp28
 70
     1
102
RTVSPost2010Prop29
280
     1
102
RTVSPost2010PropOp29
 70
     1
102
RTVSPost2010Prop30
280
     1
102
RTVSPost2010PropOp30
 70
     1
102
RTVSPost2010Prop31
280
     0
102
RTVSPost2010PropOp31
 70
     1
102
RTVSPost2010Prop32
280
     0
102
RTVSPost2010PropOp32
 70
     1
102
RTVSPost2010Prop33
280
     0
102
RTVSPost2010PropOp33
 70
     1
102
RTVSPost2010Prop34
280
     0
102
RTVSPost2010PropOp34
 70
     1
102
RTVSPost2010Prop35
280
     0
102
RTVSPost2010PropOp35
 70
     1
102
RTVSPost2010Prop36
280
     0
102
RTVSPost2010PropOp36
 70
     1
102
RTVSPost2010Prop37
 90
       50
102
RTVSPost2010PropOp37
 70
     1
102
RTVSPost2010Prop38
140
0.0
102
RTVSPost2010PropOp38
 70
     1
102
RTVSPost2010Prop39
140
1.0
102
RTVSPost2010PropOp39
 70
     1
102
RTVSPost2010Prop40
 90
        0
102
RTVSPost2010PropOp40
 70
     1
102
RTVSPost2010Prop41ColorIndex
 90
       18
102
RTVSPost2010Prop41ColorRGB
 90
        0
102
RTVSPost2010PropOp41
 70
     1
102
RTVSPost2010Prop42
 90
       50
102
RTVSPost2010PropOp42
 70
     1
102
RTVSPost2010Prop43
 90
        3
102
RTVSPost2010PropOp43
 70
     1
102
RTVSPost2010Prop44ColorIndex
 90
        5
102
RTVSPost2010Prop44ColorRGB
 90
      255
102
RTVSPost2010PropOp44
 70
     1
102
RTVSPost2010Prop45
280
     0
102
RTVSPost2010PropOp45
 70
     1
102
RTVSPost2010Prop46
 90
       50
102
RTVSPost2010PropOp46
 70
     1
102
RTVSPost2010Prop47
 90
       50
102
RTVSPost2010PropOp47
 70
     1
102
RTVSPost2010Prop48
 90
       50
102
RTVSPost2010PropOp48
 70
     1
102
RTVSPost2010Prop49
280
     0
102
RTVSPost2010PropOp49
 70
     1
102
RTVSPost2010Prop50
 90
       50
102
RTVSPost2010PropOp50
 70
     1
102
RTVSPost2010Prop51ColorIndex
 90
      256
102
RTVSPost2010Prop51ColorRGB
 90
-16777216
102
RTVSPost2010PropOp51
 70
     0
102
RTVSPost2010Prop52
140
1.0
102
RTVSPost2010PropOp52
 70
     0
102
RTVSPost2010Prop53
 90
        2
102
RTVSPost2010PropOp53
 70
     1
102
RTVSPost2010Prop54
  1
strokes_ogs.tif
102
RTVSPost2010PropOp54
 70
     1
102
RTVSPost2010Prop55
280
     0
102
RTVSPost2010PropOp55
 70
     1
102
RTVSPost2010Prop56
140
1.0
102
RTVSPost2010PropOp56
 70
     1
102
RTVSPost2010Prop57
140
1.0
102
RTVSPost2010PropOp57
 70
     1
102
RTVSPropertyOp0
 70
     1
102
RTVSPropertyOp1
 70
     1
102
RTVSPropertyOp2
 70
     1
102
RTVSPropertyOp3
 70
     1
102
RTVSPropertyOp4
 70
     1
102
RTVSPropertyOp5
 70
     1
102
RTVSPropertyOp6
 70
     1
102
RTVSPropertyOp7
 70
     1
102
RTVSPropertyOp8
 70
     1
102
RTVSPropertyOp9
 70
     1
102
RTVSPropertyOp10
 70
     1
102
RTVSPropertyOp11
 70
     1
102
RTVSPropertyOp12
 70
     1
102
RTVSPropertyOp13
 70
     1
102
RTVSPropertyOp14
 70
     1
102
RTVSPropertyOp15
 70
     1
102
RTVSPropertyOp16
 70
     1
102
RTVSPropertyOp17
 70
     1
102
RTVSPropertyOp18
 70
     1
102
RTVSPropertyOp19
 70
     1
102
RTVSPropertyOp20
 70
     1
102
RTVSPropertyOp21
 70
     1
102
RTVSPropertyOp22
 70
     1
102
RTVSPropertyOp23
 70
     1
102
RTVSPropertyOp24
 70
     1
102
RTVSPropertyOp25
 70
     1
102
RTVSPropertyOp26
 70
     1
102
RTVSPropertyOp27
 70
     1
102
RTVSPropertyOp28
 70
     1
102
RTVSPropertyOp29
 70
     1
102
RTVSPropertyOp30
 70
     1
102
RTVSPropertyOp31
 70
     1
102
RTVSPropertyOp32
 70
     1
102
RTVSPropertyOp33
 70
     1
102
RTVSPropertyOp34
 70
     1
102
RTVSPropertyOp35
 70
     1
102
RTVSPropertyOp36
 70
     1
102
RTVSPropertyOp37
 70
     1
102
RTVSPropertyOp38
 70
     1
102
RTVSPropertyOp39
 70
     1
102
RTVSPropertyOp40
 70
     1
102
RTVSPropertyOp41
 70
     1
102
RTVSPropertyOp42
 70
     1
102
RTVSPropertyOp43
 70
     1
102
RTVSPropertyOp44
 70
     1
102
RTVSPropertyOp45
 70
     1
102
RTVSPropertyOp46
 70
     1
102
RTVSPropertyOp47
 70
     1
102
RTVSPropertyOp48
 70
     1
102
RTVSPropertyOp49
 70
     1
102
RTVSPropertyOp50
 70
     1
102
RTVSPropertyOp51
 70
     0
102
RTVSPropertyOp52
 70
     0
102
RTVSPropertyOp53
 70
     1
102
RTVSPropertyOp54
 70
     1
102
RTVSPropertyOp55
 70
     1
102
RTVSPropertyOp56
 70
     1
102
RTVSPropertyOp57
 70
     1
102
RTVSPropertyOp58
 70
     1
102
RTVSPropertyOp59
 70
     1
102
RTVSPropertyOp60
 70
     1
102
RTVSPropertyOp61
 70
     1
102
RTVSPropertyOp62
 70
     1
  0
XRECORD
  5
A289
102
{ACAD_REACTORS
330
A288
102
}
330
A288
100
AcDbXrecord
280
     1
102
RTVSPost2010Prop28
280
     0
102
RTVSPost2010PropOp28
 70
     1
102
RTVSPost2010Prop29
280
     1
102
RTVSPost2010PropOp29
 70
     1
102
RTVSPost2010Prop30
280
     1
102
RTVSPost2010PropOp30
 70
     1
102
RTVSPost2010Prop31
280
     0
102
RTVSPost2010PropOp31
 70
     1
102
RTVSPost2010Prop32
280
     0
102
RTVSPost2010PropOp32
 70
     1
102
RTVSPost2010Prop33
280
     0
102
RTVSPost2010PropOp33
 70
     1
102
RTVSPost2010Prop34
280
     0
102
RTVSPost2010PropOp34
 70
     1
102
RTVSPost2010Prop35
280
     0
102
RTVSPost2010PropOp35
 70
     1
102
RTVSPost2010Prop36
280
     0
102
RTVSPost2010PropOp36
 70
     1
102
RTVSPost2010Prop37
 90
       50
102
RTVSPost2010PropOp37
 70
     1
102
RTVSPost2010Prop38
140
0.0
102
RTVSPost2010PropOp38
 70
     1
102
RTVSPost2010Prop39
140
1.0
102
RTVSPost2010PropOp39
 70
     1
102
RTVSPost2010Prop40
 90
        0
102
RTVSPost2010PropOp40
 70
     1
102
RTVSPost2010Prop41ColorIndex
 90
       18
102
RTVSPost2010Prop41ColorRGB
 90
        0
102
RTVSPost2010PropOp41
 70
     1
102
RTVSPost2010Prop42
 90
       50
102
RTVSPost2010PropOp42
 70
     1
102
RTVSPost2010Prop43
 90
        3
102
RTVSPost2010PropOp43
 70
     1
102
RTVSPost2010Prop44ColorIndex
 90
        5
102
RTVSPost2010Prop44ColorRGB
 90
      255
102
RTVSPost2010PropOp44
 70
     1
102
RTVSPost2010Prop45
280
     0
102
RTVSPost2010PropOp45
 70
     1
102
RTVSPost2010Prop46
 90
       50
102
RTVSPost2010PropOp46
 70
     1
102
RTVSPost2010Prop47
 90
       50
102
RTVSPost2010PropOp47
 70
     1
102
RTVSPost2010Prop48
 90
       50
102
RTVSPost2010PropOp48
 70
     1
102
RTVSPost2010Prop49
280
     0
102
RTVSPost2010PropOp49
 70
     1
102
RTVSPost2010Prop50
 90
       50
102
RTVSPost2010PropOp50
 70
     1
102
RTVSPost2010Prop51ColorIndex
 90
      256
102
RTVSPost2010Prop51ColorRGB
 90
-16777216
102
RTVSPost2010PropOp51
 70
     0
102
RTVSPost2010Prop52
140
1.0
102
RTVSPost2010PropOp52
 70
     0
102
RTVSPost2010Prop53
 90
        2
102
RTVSPost2010PropOp53
 70
     1
102
RTVSPost2010Prop54
  1
strokes_ogs.tif
102
RTVSPost2010PropOp54
 70
     1
102
RTVSPost2010Prop55
280
     0
102
RTVSPost2010PropOp55
 70
     1
102
RTVSPost2010Prop56
140
1.0
102
RTVSPost2010PropOp56
 70
     1
102
RTVSPost2010Prop57
140
1.0
102
RTVSPost2010PropOp57
 70
     1
102
RTVSPropertyOp0
 70
     1
102
RTVSPropertyOp1
 70
     1
102
RTVSPropertyOp2
 70
     1
102
RTVSPropertyOp3
 70
     1
102
RTVSPropertyOp4
 70
     1
102
RTVSPropertyOp5
 70
     1
102
RTVSPropertyOp6
 70
     1
102
RTVSPropertyOp7
 70
     1
102
RTVSPropertyOp8
 70
     1
102
RTVSPropertyOp9
 70
     1
102
RTVSPropertyOp10
 70
     1
102
RTVSPropertyOp11
 70
     1
102
RTVSPropertyOp12
 70
     1
102
RTVSPropertyOp13
 70
     1
102
RTVSPropertyOp14
 70
     1
102
RTVSPropertyOp15
 70
     1
102
RTVSPropertyOp16
 70
     1
102
RTVSPropertyOp17
 70
     1
102
RTVSPropertyOp18
 70
     1
102
RTVSPropertyOp19
 70
     1
102
RTVSPropertyOp20
 70
     1
102
RTVSPropertyOp21
 70
     1
102
RTVSPropertyOp22
 70
     1
102
RTVSPropertyOp23
 70
     1
102
RTVSPropertyOp24
 70
     1
102
RTVSPropertyOp25
 70
     1
102
RTVSPropertyOp26
 70
     1
102
RTVSPropertyOp27
 70
     1
102
RTVSPropertyOp28
 70
     1
102
RTVSPropertyOp29
 70
     1
102
RTVSPropertyOp30
 70
     1
102
RTVSPropertyOp31
 70
     1
102
RTVSPropertyOp32
 70
     1
102
RTVSPropertyOp33
 70
     1
102
RTVSPropertyOp34
 70
     1
102
RTVSPropertyOp35
 70
     1
102
RTVSPropertyOp36
 70
     1
102
RTVSPropertyOp37
 70
     1
102
RTVSPropertyOp38
 70
     1
102
RTVSPropertyOp39
 70
     1
102
RTVSPropertyOp40
 70
     1
102
RTVSPropertyOp41
 70
     1
102
RTVSPropertyOp42
 70
     1
102
RTVSPropertyOp43
 70
     1
102
RTVSPropertyOp44
 70
     1
102
RTVSPropertyOp45
 70
     1
102
RTVSPropertyOp46
 70
     1
102
RTVSPropertyOp47
 70
     1
102
RTVSPropertyOp48
 70
     1
102
RTVSPropertyOp49
 70
     1
102
RTVSPropertyOp50
 70
     1
102
RTVSPropertyOp51
 70
     0
102
RTVSPropertyOp52
 70
     0
102
RTVSPropertyOp53
 70
     1
102
RTVSPropertyOp54
 70
     1
102
RTVSPropertyOp55
 70
     1
102
RTVSPropertyOp56
 70
     1
102
RTVSPropertyOp57
 70
     1
102
RTVSPropertyOp58
 70
     1
102
RTVSPropertyOp59
 70
     1
102
RTVSPropertyOp60
 70
     1
102
RTVSPropertyOp61
 70
     1
102
RTVSPropertyOp62
 70
     1
  0
ENDSEC
  0
EOF
