  0
SECTION
  2
HEADER
  9
$ACADVER
  1
AC1015
  9
$ACADMAINTVER
 70
    20
  9
$DWGCODEPAGE
  3
ANSI_932
  9
$INSBASE
 10
0.0
 20
0.0
 30
0.0
  9
$EXTMIN
 10
10.000001537608
 20
9.999999806846743
 30
0.0
  9
$EXTMAX
 10
469.6375055376078
 20
342.6490177113673
 30
0.0
  9
$LIMMIN
 10
0.0000015376081137
 20
-0.0000001931532552
  9
$LIMMAX
 10
545.0000015376082
 20
375.7196967765436
  9
$ORTHOMODE
 70
     1
  9
$REGENMODE
 70
     1
  9
$FILLMODE
 70
     1
  9
$QTEXTMODE
 70
     0
  9
$MIRRTEXT
 70
     1
  9
$LTSCALE
 40
1.0
  9
$ATTMODE
 70
     1
  9
$TEXTSIZE
 40
2.5
  9
$TRACEWID
 40
1.0
  9
$TEXTSTYLE
  7
STANDARD
  9
$CLAYER
  8
0
  9
$CELTYPE
  6
BYLAYER
  9
$CECOLOR
 62
   256
  9
$CELTSCALE
 40
1.0
  9
$DISPSILH
 70
     0
  9
$DIMSCALE
 40
1.0
  9
$DIMASZ
 40
3.0
  9
$DIMEXO
 40
1.0
  9
$DIMDLI
 40
10.0
  9
$DIMRND
 40
0.0
  9
$DIMDLE
 40
0.0
  9
$DIMEXE
 40
1.0
  9
$DIMTP
 40
0.0
  9
$DIMTM
 40
0.0
  9
$DIMTXT
 40
3.2
  9
$DIMCEN
 40
0.0
  9
$DIMTSZ
 40
0.0
  9
$DIMTOL
 70
     0
  9
$DIMLIM
 70
     0
  9
$DIMTIH
 70
     0
  9
$DIMTOH
 70
     0
  9
$DIMSE1
 70
     0
  9
$DIMSE2
 70
     0
  9
$DIMTAD
 70
     3
  9
$DIMZIN
 70
     8
  9
$DIMBLK
  1

  9
$DIMASO
 70
     1
  9
$DIMSHO
 70
     1
  9
$DIMPOST
  1

  9
$DIMAPOST
  1

  9
$DIMALT
 70
     0
  9
$DIMALTD
 70
     2
  9
$DIMALTF
 40
25.4
  9
$DIMLFAC
 40
1.0
  9
$DIMTOFL
 70
     1
  9
$DIMTVP
 40
0.0
  9
$DIMTIX
 70
     0
  9
$DIMSOXD
 70
     0
  9
$DIMSAH
 70
     1
  9
$DIMBLK1
  1
OPEN
  9
$DIMBLK2
  1
OPEN
  9
$DIMSTYLE
  2
STANDARD
  9
$DIMCLRD
 70
     0
  9
$DIMCLRE
 70
     0
  9
$DIMCLRT
 70
     0
  9
$DIMTFAC
 40
1.0
  9
$DIMGAP
 40
1.0
  9
$DIMJUST
 70
     0
  9
$DIMSD1
 70
     0
  9
$DIMSD2
 70
     0
  9
$DIMTOLJ
 70
     1
  9
$DIMTZIN
 70
     0
  9
$DIMALTZ
 70
     0
  9
$DIMALTTZ
 70
     0
  9
$DIMUPT
 70
     0
  9
$DIMDEC
 70
     4
  9
$DIMTDEC
 70
     4
  9
$DIMALTU
 70
     2
  9
$DIMALTTD
 70
     2
  9
$DIMTXSTY
  7
STANDARD
  9
$DIMAUNIT
 70
     0
  9
$DIMADEC
 70
     0
  9
$DIMALTRND
 40
0.0
  9
$DIMAZIN
 70
     0
  9
$DIMDSEP
 70
    46
  9
$DIMATFIT
 70
     3
  9
$DIMFRAC
 70
     0
  9
$DIMLDRBLK
  1
OPEN
  9
$DIMLUNIT
 70
     2
  9
$DIMLWD
 70
    -2
  9
$DIMLWE
 70
    -2
  9
$DIMTMOVE
 70
     0
  9
$LUNITS
 70
     2
  9
$LUPREC
 70
     4
  9
$SKETCHINC
 40
1.0
  9
$FILLETRAD
 40
0.0
  9
$AUNITS
 70
     0
  9
$AUPREC
 70
     0
  9
$MENU
  1
.
  9
$ELEVATION
 40
0.0
  9
$PELEVATION
 40
0.0
  9
$THICKNESS
 40
0.0
  9
$LIMCHECK
 70
     0
  9
$CHAMFERA
 40
10.0
  9
$CHAMFERB
 40
10.0
  9
$CHAMFERC
 40
20.0
  9
$CHAMFERD
 40
0.0
  9
$SKPOLY
 70
     0
  9
$TDCREATE
 40
2455517.661586840
  9
$TDUCREATE
 40
2455517.286586840
  9
$TDUPDATE
 40
2457192.687246586
  9
$TDUUPDATE
 40
2457192.312246586
  9
$TDINDWG
 40
0.2664080324
  9
$TDUSRTIMER
 40
0.2664076505
  9
$USRTIMER
 70
     1
  9
$ANGBASE
 50
0.0
  9
$ANGDIR
 70
     0
  9
$PDMODE
 70
     0
  9
$PDSIZE
 40
0.0
  9
$PLINEWID
 40
0.0
  9
$SPLFRAME
 70
     0
  9
$SPLINETYPE
 70
     6
  9
$SPLINESEGS
 70
     8
  9
$HANDSEED
  5
19D2
  9
$SURFTAB1
 70
     6
  9
$SURFTAB2
 70
     6
  9
$SURFTYPE
 70
     6
  9
$SURFU
 70
     6
  9
$SURFV
 70
     6
  9
$UCSBASE
  2

  9
$UCSNAME
  2

  9
$UCSORG
 10
0.0
 20
0.0
 30
0.0
  9
$UCSXDIR
 10
1.0
 20
0.0
 30
0.0
  9
$UCSYDIR
 10
0.0
 20
1.0
 30
0.0
  9
$UCSORTHOREF
  2

  9
$UCSORTHOVIEW
 70
     0
  9
$UCSORGTOP
 10
0.0
 20
0.0
 30
0.0
  9
$UCSORGBOTTOM
 10
0.0
 20
0.0
 30
0.0
  9
$UCSORGLEFT
 10
0.0
 20
0.0
 30
0.0
  9
$UCSORGRIGHT
 10
0.0
 20
0.0
 30
0.0
  9
$UCSORGFRONT
 10
0.0
 20
0.0
 30
0.0
  9
$UCSORGBACK
 10
0.0
 20
0.0
 30
0.0
  9
$PUCSBASE
  2

  9
$PUCSNAME
  2

  9
$PUCSORG
 10
0.0
 20
0.0
 30
0.0
  9
$PUCSXDIR
 10
1.0
 20
0.0
 30
0.0
  9
$PUCSYDIR
 10
0.0
 20
1.0
 30
0.0
  9
$PUCSORTHOREF
  2

  9
$PUCSORTHOVIEW
 70
     0
  9
$PUCSORGTOP
 10
0.0
 20
0.0
 30
0.0
  9
$PUCSORGBOTTOM
 10
0.0
 20
0.0
 30
0.0
  9
$PUCSORGLEFT
 10
0.0
 20
0.0
 30
0.0
  9
$PUCSORGRIGHT
 10
0.0
 20
0.0
 30
0.0
  9
$PUCSORGFRONT
 10
0.0
 20
0.0
 30
0.0
  9
$PUCSORGBACK
 10
0.0
 20
0.0
 30
0.0
  9
$USERI1
 70
     0
  9
$USERI2
 70
     0
  9
$USERI3
 70
     0
  9
$USERI4
 70
     0
  9
$USERI5
 70
     0
  9
$USERR1
 40
0.0
  9
$USERR2
 40
0.0
  9
$USERR3
 40
0.0
  9
$USERR4
 40
0.0
  9
$USERR5
 40
0.0
  9
$WORLDVIEW
 70
     1
  9
$SHADEDGE
 70
     3
  9
$SHADEDIF
 70
    70
  9
$TILEMODE
 70
     1
  9
$MAXACTVP
 70
    48
  9
$PINSBASE
 10
0.0
 20
0.0
 30
0.0
  9
$PLIMCHECK
 70
     0
  9
$PEXTMIN
 10
1.000000000000000E+20
 20
1.000000000000000E+20
 30
1.000000000000000E+20
  9
$PEXTMAX
 10
-1.000000000000000E+20
 20
-1.000000000000000E+20
 30
-1.000000000000000E+20
  9
$PLIMMIN
 10
0.0
 20
0.0
  9
$PLIMMAX
 10
420.0
 20
297.0
  9
$UNITMODE
 70
     0
  9
$VISRETAIN
 70
     1
  9
$PLINEGEN
 70
     0
  9
$PSLTSCALE
 70
     1
  9
$TREEDEPTH
 70
  3020
  9
$CMLSTYLE
  2
STANDARD
  9
$CMLJUST
 70
     0
  9
$CMLSCALE
 40
20.0
  9
$PROXYGRAPHICS
 70
     1
  9
$MEASUREMENT
 70
     0
  9
$CELWEIGHT
370
    -1
  9
$ENDCAPS
280
     0
  9
$JOINSTYLE
280
     0
  9
$LWDISPLAY
290
     0
  9
$INSUNITS
 70
     0
  9
$HYPERLINKBASE
  1

  9
$STYLESHEET
  1

  9
$XEDIT
290
     1
  9
$CEPSNTYPE
380
     0
  9
$PSTYLEMODE
290
     1
  9
$FINGERPRINTGUID
  2
{BA387560-9B2C-4E98-95A9-FE35E078427E}
  9
$VERSIONGUID
  2
{50489975-AAEC-4144-B132-6BDD74620860}
  9
$EXTNAMES
290
     1
  9
$PSVPSCALE
 40
0.0
  9
$OLESTARTUP
290
     0
  0
ENDSEC
  0
SECTION
  2
CLASSES
  0
CLASS
  1
ACDBDICTIONARYWDFLT
  2
AcDbDictionaryWithDefault
  3
ObjectDBX Classes
 90
        0
280
     0
281
     0
  0
CLASS
  1
ACDBPLACEHOLDER
  2
AcDbPlaceHolder
  3
ObjectDBX Classes
 90
        0
280
     0
281
     0
  0
CLASS
  1
LAYOUT
  2
AcDbLayout
  3
ObjectDBX Classes
 90
        0
280
     0
281
     0
  0
CLASS
  1
MATERIAL
  2
AcDbMaterial
  3
ObjectDBX Classes
 90
     1153
280
     0
281
     0
  0
CLASS
  1
VISUALSTYLE
  2
AcDbVisualStyle
  3
ObjectDBX Classes
 90
     4095
280
     0
281
     0
  0
CLASS
  1
TABLESTYLE
  2
AcDbTableStyle
  3
ObjectDBX Classes
 90
     4095
280
     0
281
     0
  0
CLASS
  1
SCALE
  2
AcDbScale
  3
ObjectDBX Classes
 90
     1153
280
     0
281
     0
  0
CLASS
  1
MLEADERSTYLE
  2
AcDbMLeaderStyle
  3
ACDB_MLEADERSTYLE_CLASS
 90
     4095
280
     0
281
     0
  0
CLASS
  1
ACDBSECTIONVIEWSTYLE
  2
AcDbSectionViewStyle
  3
ObjectDBX Classes
 90
     1025
280
     0
281
     0
  0
CLASS
  1
ACDBDETAILVIEWSTYLE
  2
AcDbDetailViewStyle
  3
ObjectDBX Classes
 90
     1025
280
     0
281
     0
  0
CLASS
  1
DICTIONARYVAR
  2
AcDbDictionaryVar
  3
ObjectDBX Classes
 90
        0
280
     0
281
     0
  0
CLASS
  1
CELLSTYLEMAP
  2
AcDbCellStyleMap
  3
ObjectDBX Classes
 90
     1152
280
     0
281
     0
  0
ENDSEC
  0
SECTION
  2
TABLES
  0
TABLE
  2
VPORT
  5
8
330
0
100
AcDbSymbolTable
 70
     1
  0
VPORT
  5
191E
330
8
100
AcDbSymbolTableRecord
100
AcDbViewportTableRecord
  2
*ACTIVE
 70
     0
 10
0.0
 20
0.0
 11
1.0
 21
1.0
 12
373.326684398681
 22
176.3221311026466
 13
0.0
 23
0.0
 14
10.0
 24
10.0
 15
10.0
 25
10.0
 16
0.0
 26
0.0
 36
1.0
 17
0.0
 27
0.0
 37
0.0
 40
335.23103169833
 41
2.35006605019815
 42
50.0
 43
0.0
 44
0.0
 50
0.0
 51
0.0
 71
     0
 72
   100
 73
     1
 74
     0
 75
     0
 76
     0
 77
     0
 78
     0
281
     0
 65
     1
110
0.0
120
0.0
130
0.0
111
1.0
121
0.0
131
0.0
112
0.0
122
1.0
132
0.0
 79
     0
146
0.0
1001
ACAD_NAV_VCDISPLAY
1070
     3
  0
ENDTAB
  0
TABLE
  2
LTYPE
  5
5
330
0
100
AcDbSymbolTable
 70
     4
  0
LTYPE
  5
12
330
5
100
AcDbSymbolTableRecord
100
AcDbLinetypeTableRecord
  2
BYBLOCK
 70
     0
  3

 72
    65
 73
     0
 40
0.0
  0
LTYPE
  5
13
330
5
100
AcDbSymbolTableRecord
100
AcDbLinetypeTableRecord
  2
BYLAYER
 70
     0
  3

 72
    65
 73
     0
 40
0.0
  0
LTYPE
  5
14
330
5
100
AcDbSymbolTableRecord
100
AcDbLinetypeTableRecord
  2
CONTINUOUS
 70
     0
  3
Solid line
 72
    65
 73
     0
 40
0.0
  0
LTYPE
  5
4B
330
5
100
AcDbSymbolTableRecord
100
AcDbLinetypeTableRecord
  2
DASHED
 70
     0
  3
Dashed __ __ __ __ __ __ __ __ __ __ __ __ __ _
 72
    65
 73
     2
 40
19.04999999999998
 49
12.7
 74
     0
 49
-6.349999999999997
 74
     0
  0
LTYPE
  5
4C
330
5
100
AcDbSymbolTableRecord
100
AcDbLinetypeTableRecord
  2
CENTER
 70
     0
  3
Center ____ _ ____ _ ____ _ ____ _ ____ _ ____
 72
    65
 73
     4
 40
50.8
 49
31.75
 74
     0
 49
-6.349999999999997
 74
     0
 49
6.349999999999997
 74
     0
 49
-6.349999999999997
 74
     0
  0
LTYPE
  5
4D
330
5
100
AcDbSymbolTableRecord
100
AcDbLinetypeTableRecord
  2
PHANTOM
 70
     0
  3
Phantom ______  __  __  ______  __  __  ______
 72
    65
 73
     6
 40
63.5
 49
31.75
 74
     0
 49
-6.349999999999997
 74
     0
 49
6.349999999999997
 74
     0
 49
-6.349999999999997
 74
     0
 49
6.349999999999997
 74
     0
 49
-6.349999999999997
 74
     0
  0
ENDTAB
  0
TABLE
  2
LAYER
  5
2
330
0
100
AcDbSymbolTable
 70
     8
  0
LAYER
  5
E
102
{ACAD_XDICTIONARY
360
1976
102
}
330
2
100
AcDbSymbolTableRecord
100
AcDbLayerTableRecord
  2
0
 70
     0
 62
     7
  6
CONTINUOUS
370
    -3
390
1925
  0
LAYER
  5
4E
102
{ACAD_XDICTIONARY
360
1978
102
}
330
2
100
AcDbSymbolTableRecord
100
AcDbLayerTableRecord
  2
4
 70
     0
 62
     1
  6
CENTER
370
    -3
390
1925
  0
LAYER
  5
4F
102
{ACAD_XDICTIONARY
360
197A
102
}
330
2
100
AcDbSymbolTableRecord
100
AcDbLayerTableRecord
  2
5
 70
     0
 62
     6
  6
PHANTOM
370
    -3
390
1925
  0
LAYER
  5
50
102
{ACAD_XDICTIONARY
360
197C
102
}
330
2
100
AcDbSymbolTableRecord
100
AcDbLayerTableRecord
  2
1
 70
     0
 62
     7
  6
CONTINUOUS
370
    -3
390
1925
  0
LAYER
  5
51
102
{ACAD_XDICTIONARY
360
197E
102
}
330
2
100
AcDbSymbolTableRecord
100
AcDbLayerTableRecord
  2
2
 70
     0
 62
     4
  6
CONTINUOUS
370
    -3
390
1925
  0
LAYER
  5
52
102
{ACAD_XDICTIONARY
360
1980
102
}
330
2
100
AcDbSymbolTableRecord
100
AcDbLayerTableRecord
  2
3
 70
     0
 62
     2
  6
DASHED
370
    -3
390
1925
  0
LAYER
  5
53
102
{ACAD_XDICTIONARY
360
1982
102
}
330
2
100
AcDbSymbolTableRecord
100
AcDbLayerTableRecord
  2
6
 70
     0
 62
     5
  6
CONTINUOUS
370
    -3
390
1925
  0
LAYER
  5
54
102
{ACAD_XDICTIONARY
360
1984
102
}
330
2
100
AcDbSymbolTableRecord
100
AcDbLayerTableRecord
  2
7
 70
     0
 62
     3
  6
CONTINUOUS
370
    -3
390
1925
  0
ENDTAB
  0
TABLE
  2
STYLE
  5
3
330
0
100
AcDbSymbolTable
 70
     1
  0
STYLE
  5
F
330
3
100
AcDbSymbolTableRecord
100
AcDbTextStyleTableRecord
  2
STANDARD
 70
     0
 40
0.0
 41
1.0
 50
0.0
 71
     0
 42
2.5
  3
simplex.shx
  4

  0
ENDTAB
  0
TABLE
  2
VIEW
  5
6
330
0
100
AcDbSymbolTable
 70
     0
  0
ENDTAB
  0
TABLE
  2
UCS
  5
7
330
0
100
AcDbSymbolTable
 70
     0
  0
ENDTAB
  0
TABLE
  2
APPID
  5
9
330
0
100
AcDbSymbolTable
 70
     5
  0
APPID
  5
10
330
9
100
AcDbSymbolTableRecord
100
AcDbRegAppTableRecord
  2
ACAD
 70
     0
  0
APPID
  5
3E
330
9
100
AcDbSymbolTableRecord
100
AcDbRegAppTableRecord
  2
CONTENTTABDATA
 70
     0
  0
APPID
  5
3F
330
9
100
AcDbSymbolTableRecord
100
AcDbRegAppTableRecord
  2
CONTENTCURRENTTAB
 70
     0
  0
APPID
  5
1990
330
9
100
AcDbSymbolTableRecord
100
AcDbRegAppTableRecord
  2
ACAD_NAV_VCDISPLAY
 70
     0
  0
APPID
  5
19C9
330
9
100
AcDbSymbolTableRecord
100
AcDbRegAppTableRecord
  2
ACAD_MLEADERVER
 70
     0
  0
ENDTAB
  0
TABLE
  2
DIMSTYLE
  5
A
330
0
100
AcDbSymbolTable
 70
     1
100
AcDbDimStyleTable
 71
     0
  0
DIMSTYLE
105
1D
330
A
100
AcDbSymbolTableRecord
100
AcDbDimStyleTableRecord
  2
STANDARD
 70
     0
 41
3.0
 42
1.0
 43
10.0
 44
1.0
 73
     0
 74
     0
 77
     3
 78
     8
140
3.2
141
0.0
147
1.0
172
     1
173
     1
340
F
341
2E
343
2E
344
2E
  0
ENDTAB
  0
TABLE
  2
BLOCK_RECORD
  5
1
330
0
100
AcDbSymbolTable
 70
     1
  0
BLOCK_RECORD
  5
18
102
{ACAD_XDICTIONARY
360
190E
102
}
330
1
100
AcDbSymbolTableRecord
100
AcDbBlockTableRecord
  2
*MODEL_SPACE
340
1973
  0
BLOCK_RECORD
  5
15
102
{ACAD_XDICTIONARY
360
190C
102
}
330
1
100
AcDbSymbolTableRecord
100
AcDbBlockTableRecord
  2
*PAPER_SPACE
340
1974
  0
BLOCK_RECORD
  5
2E
330
1
100
AcDbSymbolTableRecord
100
AcDbBlockTableRecord
  2
_OPEN
340
0
  0
ENDTAB
  0
ENDSEC
  0
SECTION
  2
BLOCKS
  0
BLOCK
  5
19
330
18
100
AcDbEntity
  8
0
100
AcDbBlockBegin
  2
*MODEL_SPACE
 70
     0
 10
0.0
 20
0.0
 30
0.0
  3
*MODEL_SPACE
  1

  0
ENDBLK
  5
1A
330
18
100
AcDbEntity
  8
0
100
AcDbBlockEnd
  0
BLOCK
  5
16
330
15
100
AcDbEntity
 67
     1
  8
0
100
AcDbBlockBegin
  2
*PAPER_SPACE
 70
     0
 10
0.0
 20
0.0
 30
0.0
  3
*PAPER_SPACE
  1

  0
ENDBLK
  5
17
330
15
100
AcDbEntity
 67
     1
  8
0
100
AcDbBlockEnd
  0
BLOCK
  5
2F
330
2E
100
AcDbEntity
  8
0
100
AcDbBlockBegin
  2
_OPEN
 70
     0
 10
0.0
 20
0.0
 30
0.0
  3
_OPEN
  1

  0
LINE
  5
30
330
2E
100
AcDbEntity
  8
0
  6
ByBlock
 62
     0
100
AcDbLine
 10
-1.0
 20
0.1666666666666666
 30
0.0
 11
0.0
 21
0.0
 31
0.0
  0
LINE
  5
31
330
2E
100
AcDbEntity
  8
0
  6
ByBlock
 62
     0
100
AcDbLine
 10
0.0
 20
0.0
 30
0.0
 11
-1.0
 21
-0.1666666666666666
 31
0.0
  0
LINE
  5
32
330
2E
100
AcDbEntity
  8
0
  6
ByBlock
 62
     0
100
AcDbLine
 10
0.0
 20
0.0
 30
0.0
 11
-1.0
 21
0.0
 31
0.0
  0
ENDBLK
  5
33
330
2E
100
AcDbEntity
  8
0
100
AcDbBlockEnd
  0
ENDSEC
  0
SECTION
  2
ENTITIES
  0
ARC
  5
698
330
18
100
AcDbEntity
  8
1
  6
Continuous
100
AcDbCircle
 10
153.6692485376078
 20
179.8770097113674
 30
0.0
 40
37.5
100
AcDbArc
 50
97.39538888233299
 51
155.5429855400632
  0
ARC
  5
699
330
18
100
AcDbEntity
  8
1
  6
Continuous
100
AcDbCircle
 10
153.6692485376078
 20
179.8770097113674
 30
0.0
 40
30.0
100
AcDbArc
 50
101.5487580410849
 51
148.8345344139713
  0
ARC
  5
6AB
330
18
100
AcDbEntity
  8
1
  6
Continuous
100
AcDbCircle
 10
59.45466253760796
 20
193.6416057113674
 30
0.0
 40
45.0
100
AcDbArc
 50
207.4797100000003
 51
209.7767939999987
  0
ARC
  5
6AE
330
18
100
AcDbEntity
  8
1
  6
Continuous
100
AcDbCircle
 10
25.70466253760798
 20
172.1357047113674
 30
0.0
 40
1.5
100
AcDbArc
 50
180.0
 51
260.0000000000014
  0
LINE
  5
6AF
330
18
100
AcDbEntity
  8
1
  6
Continuous
100
AcDbLine
 10
22.69616253760796
 20
220.0770547113674
 30
0.0
 11
22.69616253760796
 21
168.3770547113675
 31
0.0
  0
LINE
  5
6B0
330
18
100
AcDbEntity
  8
1
  6
Continuous
100
AcDbLine
 10
20.396162537608
 20
220.0770547113674
 30
0.0
 11
20.396162537608
 21
168.3770547113675
 31
0.0
  0
LINE
  5
6B1
330
18
100
AcDbEntity
  8
1
  6
Continuous
100
AcDbLine
 10
26.70466253760798
 20
215.0984497113676
 30
0.0
 11
26.70466253760798
 21
144.6556607113673
 31
0.0
  0
LINE
  5
6B2
330
18
100
AcDbEntity
  8
1
  6
Continuous
100
AcDbLine
 10
51.704662537608
 20
144.6556607113673
 30
0.0
 11
51.704662537608
 21
215.0984497113676
 31
0.0
  0
LINE
  5
6B3
330
18
100
AcDbEntity
  8
4
  6
CENTER
100
AcDbLine
 10
39.20466253760798
 20
240.3770547113674
 30
0.0
 11
39.20466253760798
 21
137.3770547113674
 31
0.0
  0
LINE
  5
6B4
330
18
100
AcDbEntity
  8
4
  6
CENTER
100
AcDbLine
 10
153.6692485376078
 20
137.3770097113675
 30
0.0
 11
153.6692485376078
 21
220.3770097113676
 31
0.0
  0
TEXT
  5
6B6
330
18
100
AcDbEntity
  8
1
  6
Continuous
100
AcDbText
 10
10.000001537608
 20
9.999999806846743
 30
0.0
 40
1.399999999999999
  1
LAYER
100
AcDbText
  0
TEXT
  5
6B7
330
18
100
AcDbEntity
  8
7
  6
Continuous
100
AcDbText
 10
10.000001537608
 20
25.99999980684673
 30
0.0
 40
3.0
  1
CODE No.9653
100
AcDbText
  0
TEXT
  5
6B8
330
18
100
AcDbEntity
  8
7
  6
Continuous
100
AcDbText
 10
10.000001537608
 20
17.99999980684673
 30
0.0
 40
3.0
  1
TYPE No.106-NS
100
AcDbText
  0
TEXT
  5
6B9
330
18
100
AcDbEntity
  8
5
  6
PHANTOM
100
AcDbText
 10
25.979512537608
 20
10.04873680684672
 30
0.0
 40
1.399999999999999
  1
5
100
AcDbText
  0
TEXT
  5
6BA
330
18
100
AcDbEntity
  8
6
  6
Continuous
100
AcDbText
 10
27.979512537608
 20
10.04873680684672
 30
0.0
 40
1.399999999999999
  1
6
100
AcDbText
  0
TEXT
  5
6BB
330
18
100
AcDbEntity
  8
2
  6
Continuous
100
AcDbText
 10
19.97951253760799
 20
10.04873680684672
 30
0.0
 40
1.399999999999999
  1
2
100
AcDbText
  0
TEXT
  5
6BC
330
18
100
AcDbEntity
  8
3
  6
DASHED
100
AcDbText
 10
21.979512537608
 20
10.04873680684672
 30
0.0
 40
1.399999999999999
  1
3
100
AcDbText
  0
TEXT
  5
6BD
330
18
100
AcDbEntity
  8
4
  6
CENTER
100
AcDbText
 10
23.97951253760799
 20
10.04873680684672
 30
0.0
 40
1.399999999999999
  1
4
100
AcDbText
  0
TEXT
  5
6BE
330
18
100
AcDbEntity
  8
7
  6
Continuous
100
AcDbText
 10
29.97951253760799
 20
10.04873680684672
 30
0.0
 40
1.399999999999999
  1
7
100
AcDbText
  0
TEXT
  5
6BF
330
18
100
AcDbEntity
  8
1
  6
Continuous
100
AcDbText
 10
17.979512537608
 20
10.04873680684672
 30
0.0
 40
1.399999999999999
  1
1
100
AcDbText
  0
ARC
  5
6C0
330
18
100
AcDbEntity
  8
1
  6
Continuous
100
AcDbCircle
 10
39.20466253760798
 20
342.3770547113676
 30
0.0
 40
200.0
100
AcDbArc
 50
266.9601619999983
 51
273.0398380000014
  0
ARC
  5
6C1
330
18
100
AcDbEntity
  8
1
  6
Continuous
100
AcDbCircle
 10
28.70466253760799
 20
144.6556607113673
 30
0.0
 40
2.0
100
AcDbArc
 50
180.0
 51
266.9601619999983
  0
LINE
  5
6C2
330
18
100
AcDbEntity
  8
1
  6
Continuous
100
AcDbLine
 10
20.396162537608
 20
168.3770547113675
 30
0.0
 11
22.69616253760796
 21
168.3770547113675
 31
0.0
  0
LINE
  5
6C3
330
18
100
AcDbEntity
  8
1
  6
Continuous
100
AcDbLine
 10
25.44419053760805
 20
170.6584927113675
 30
0.0
 11
26.70466253760798
 21
170.4362377113674
 31
0.0
  0
ARC
  5
6C4
330
18
100
AcDbEntity
  8
1
  6
Continuous
100
AcDbCircle
 10
49.70466253760799
 20
144.6556607113673
 30
0.0
 40
2.0
100
AcDbArc
 50
273.0398380000014
 51
0.0
  0
ARC
  5
6CD
330
18
100
AcDbEntity
  8
1
  6
Continuous
100
AcDbCircle
 10
178.6692485376078
 20
65.7447287113676
 30
0.0
 40
20.44999999999999
100
AcDbArc
 50
219.973949999998
 51
140.0260500407792
  0
ARC
  5
6CE
330
18
100
AcDbEntity
  8
1
  6
Continuous
100
AcDbCircle
 10
178.6692485376078
 20
65.7447287113676
 30
0.0
 40
18.44999999999998
100
AcDbArc
 50
222.649119999999
 51
137.3508800000008
  0
ARC
  5
6CF
330
18
100
AcDbEntity
  8
1
  6
Continuous
100
AcDbCircle
 10
178.6692485376078
 20
65.7447287113676
 30
0.0
 40
26.000075
100
AcDbArc
 50
226.5040249999985
 51
72.37226606542711
  0
ARC
  5
6D2
330
18
100
AcDbEntity
  8
1
  6
Continuous
100
AcDbCircle
 10
118.4479295376079
 20
55.24472871136762
 30
0.0
 40
2.0
100
AcDbArc
 50
183.0398379999999
 51
270.0
  0
ARC
  5
6D3
330
18
100
AcDbEntity
  8
1
  6
Continuous
100
AcDbCircle
 10
188.8907175376079
 20
55.24472871136762
 30
0.0
 40
2.0
100
AcDbArc
 50
270.0
 51
356.9601619999998
  0
LINE
  5
6D5
330
18
100
AcDbEntity
  8
1
  6
Continuous
100
AcDbLine
 10
213.6692485376079
 20
85.74472871136761
 30
0.0
 11
213.6692485376079
 21
45.7447287113676
 31
0.0
  0
LINE
  5
6D6
330
18
100
AcDbEntity
  8
4
  6
CENTER
100
AcDbLine
 10
178.6692485376078
 20
97.74472871136765
 30
0.0
 11
178.6692485376078
 21
33.74472871136759
 31
0.0
  0
ARC
  5
6D7
330
18
100
AcDbEntity
  8
1
  6
Continuous
100
AcDbCircle
 10
159.8579005376078
 20
38.93622871136761
 30
0.0
 40
8.0
100
AcDbArc
 50
54.94291299999815
 51
90.0
  0
ARC
  5
6D8
330
18
100
AcDbEntity
  8
1
  6
Continuous
100
AcDbCircle
 10
159.8579005376078
 20
38.93622871136761
 30
0.0
 40
10.3
100
AcDbArc
 50
54.94291299999815
 51
90.0
  0
ARC
  5
6D9
330
18
100
AcDbEntity
  8
1
  6
Continuous
100
AcDbCircle
 10
153.6693235376078
 20
52.4362287113676
 30
0.0
 40
10.5
100
AcDbArc
 50
228.1896859999974
 51
311.8103149999992
  0
LINE
  5
6DA
330
18
100
AcDbEntity
  8
1
  6
Continuous
100
AcDbLine
 10
146.6693235376079
 20
44.6099907113676
 30
0.0
 11
160.6693235376079
 21
44.6099907113676
 31
0.0
  0
LINE
  5
6DB
330
18
100
AcDbEntity
  8
1
  6
Continuous
100
AcDbLine
 10
145.9279725376079
 20
50.7447287113676
 30
0.0
 11
161.410673537608
 21
50.7447287113676
 31
0.0
  0
LINE
  5
6DC
330
18
100
AcDbEntity
  8
1
  6
Continuous
100
AcDbLine
 10
118.4479285376079
 20
53.2447287113676
 30
0.0
 11
188.8907175376079
 21
53.2447287113676
 31
0.0
  0
LINE
  5
6DD
330
18
100
AcDbEntity
  8
1
  6
Continuous
100
AcDbLine
 10
206.6692485376079
 20
38.74472871136759
 30
0.0
 11
150.6692485376079
 21
38.74472871136759
 31
0.0
  0
ARC
  5
6DE
330
18
100
AcDbEntity
  8
1
  6
Continuous
100
AcDbCircle
 10
150.6692485376079
 20
45.7447287113676
 30
0.0
 40
7.0
100
AcDbArc
 50
180.0
 51
270.0
  0
LINE
  5
6DF
330
18
100
AcDbEntity
  8
4
  6
CENTER
100
AcDbLine
 10
151.6692485376079
 20
53.9947287113676
 30
0.0
 11
151.6692485376079
 21
41.4947287113676
 31
0.0
  0
LINE
  5
6E0
330
18
100
AcDbEntity
  8
1
  6
Continuous
100
AcDbLine
 10
143.4692485376078
 20
49.2362287113676
 30
0.0
 11
159.8579005376078
 21
49.2362287113676
 31
0.0
  0
LINE
  5
6E1
330
18
100
AcDbEntity
  8
1
  6
Continuous
100
AcDbLine
 10
143.4692485376078
 20
46.93622871136762
 30
0.0
 11
159.8579005376078
 21
46.93622871136762
 31
0.0
  0
LINE
  5
6E2
330
18
100
AcDbEntity
  8
4
  6
CENTER
100
AcDbLine
 10
157.9192485376079
 20
47.7447287113676
 30
0.0
 11
145.4192485376079
 21
47.7447287113676
 31
0.0
  0
LINE
  5
6E3
330
18
100
AcDbEntity
  8
1
  6
Continuous
100
AcDbLine
 10
143.4692485376078
 20
49.2362287113676
 30
0.0
 11
143.4692485376078
 21
46.93622871136762
 31
0.0
  0
LINE
  5
6E4
330
18
100
AcDbEntity
  8
1
  6
Continuous
100
AcDbLine
 10
143.6692485376079
 20
46.93622871136762
 30
0.0
 11
143.6692485376079
 21
45.7447287113676
 31
0.0
  0
LINE
  5
6E5
330
18
100
AcDbEntity
  8
1
  6
Continuous
100
AcDbLine
 10
146.6693235376079
 20
44.6099907113676
 30
0.0
 11
146.6693235376079
 21
46.93622871136762
 31
0.0
  0
ARC
  5
6E6
330
18
100
AcDbEntity
  8
1
  6
Continuous
100
AcDbCircle
 10
145.9279725376079
 20
52.24472871136761
 30
0.0
 40
1.5
100
AcDbArc
 50
190.0
 51
270.0
  0
LINE
  5
6E7
330
18
100
AcDbEntity
  8
1
  6
Continuous
100
AcDbLine
 10
143.6692485376079
 20
53.2447287113676
 30
0.0
 11
143.6692485376079
 21
49.2362287113676
 31
0.0
  0
LINE
  5
6E8
330
18
100
AcDbEntity
  8
1
  6
Continuous
100
AcDbLine
 10
144.4507605376078
 20
51.9842567113676
 30
0.0
 11
144.2285055376079
 21
53.2447287113676
 31
0.0
  0
LINE
  5
6EA
330
18
100
AcDbEntity
  8
1
  6
Continuous
100
AcDbLine
 10
149.6693235376078
 20
49.2362287113676
 30
0.0
 11
149.6693235376078
 21
50.7447287113676
 31
0.0
  0
LINE
  5
6EC
330
18
100
AcDbEntity
  8
1
  6
Continuous
100
AcDbLine
 10
157.6693235376078
 20
49.2362287113676
 30
0.0
 11
157.6693235376078
 21
50.7447287113676
 31
0.0
  0
LINE
  5
6ED
330
18
100
AcDbEntity
  8
1
  6
Continuous
100
AcDbLine
 10
160.6693235376079
 20
44.6099907113676
 30
0.0
 11
160.6693235376079
 21
46.89497171136761
 31
0.0
  0
LINE
  5
6EE
330
18
100
AcDbEntity
  8
1
  6
Continuous
100
AcDbLine
 10
162.8878855376081
 20
51.9842567113676
 30
0.0
 11
163.110140537608
 21
53.2447287113676
 31
0.0
  0
ARC
  5
6EF
330
18
100
AcDbEntity
  8
1
  6
Continuous
100
AcDbCircle
 10
161.410673537608
 20
52.24472871136761
 30
0.0
 40
1.5
100
AcDbArc
 50
270.0
 51
349.9999999999998
  0
ARC
  5
6F0
330
18
100
AcDbEntity
  8
1
  6
Continuous
100
AcDbCircle
 10
206.6692485376079
 20
45.7447287113676
 30
0.0
 40
7.0
100
AcDbArc
 50
270.0
 51
0.0
  0
LINE
  5
6F1
330
18
100
AcDbEntity
  8
4
  6
CENTER
100
AcDbLine
 10
205.6692485376079
 20
53.9947287113676
 30
0.0
 11
205.6692485376079
 21
41.4947287113676
 31
0.0
  0
CIRCLE
  5
6F2
330
18
100
AcDbEntity
  8
1
  6
Continuous
100
AcDbCircle
 10
205.6692485376079
 20
47.7447287113676
 30
0.0
 40
3.25
  0
LINE
  5
6F3
330
18
100
AcDbEntity
  8
4
  6
CENTER
100
AcDbLine
 10
211.9192485376079
 20
47.7447287113676
 30
0.0
 11
199.4192485376079
 21
47.7447287113676
 31
0.0
  0
LINE
  5
6FB
330
18
100
AcDbEntity
  8
1
  6
Continuous
100
AcDbLine
 10
188.8907175376079
 20
78.2447287113676
 30
0.0
 11
114.8948175376077
 21
78.2447287113676
 31
0.0
  0
LINE
  5
6FC
330
18
100
AcDbEntity
  8
4
  6
CENTER
100
AcDbLine
 10
218.9691735376079
 20
65.7447287113676
 30
0.0
 11
111.1692395376078
 21
65.7447287113676
 31
0.0
  0
ARC
  5
701
330
18
100
AcDbEntity
  8
1
  6
Continuous
100
AcDbCircle
 10
316.1693235376077
 20
65.7447287113676
 30
0.0
 40
200.0
100
AcDbArc
 50
176.9601619999999
 51
183.0398379999999
  0
ARC
  5
702
330
18
100
AcDbEntity
  8
1
  6
Continuous
100
AcDbCircle
 10
118.4479295376079
 20
76.24472871136759
 30
0.0
 40
2.0
100
AcDbArc
 50
90.0
 51
176.9601619999999
  0
LINE
  5
70E
330
18
100
AcDbEntity
  8
4
  6
CENTER
100
AcDbLine
 10
151.6692485376079
 20
89.99472871136761
 30
0.0
 11
151.6692485376079
 21
77.49472871136759
 31
0.0
  0
LINE
  5
71F
330
18
100
AcDbEntity
  8
4
  6
CENTER
100
AcDbLine
 10
157.9192485376079
 20
83.74472871136761
 30
0.0
 11
145.4192485376079
 21
83.74472871136761
 31
0.0
  0
ARC
  5
742
330
18
100
AcDbEntity
  8
1
  6
Continuous
100
AcDbCircle
 10
-8.83067646239192
 20
65.7447287113676
 30
0.0
 40
200.0
100
AcDbArc
 50
356.9601619999998
 51
3.039838000000127
  0
ARC
  5
743
330
18
100
AcDbEntity
  8
1
  6
Continuous
100
AcDbCircle
 10
188.8907175376079
 20
76.24472871136759
 30
0.0
 40
2.0
100
AcDbArc
 50
3.039838000000127
 51
90.0
  0
CIRCLE
  5
757
330
18
100
AcDbEntity
  8
1
  6
Continuous
100
AcDbCircle
 10
205.6692485376079
 20
83.74472871136761
 30
0.0
 40
3.25
  0
LINE
  5
758
330
18
100
AcDbEntity
  8
4
  6
CENTER
100
AcDbLine
 10
205.6692485376079
 20
89.99472871136761
 30
0.0
 11
205.6692485376079
 21
77.49472871136759
 31
0.0
  0
ARC
  5
759
330
18
100
AcDbEntity
  8
1
  6
Continuous
100
AcDbCircle
 10
206.6692485376079
 20
85.74472871136761
 30
0.0
 40
7.0
100
AcDbArc
 50
0.0
 51
68.40143637517231
  0
LINE
  5
75A
330
18
100
AcDbEntity
  8
4
  6
CENTER
100
AcDbLine
 10
211.9192485376079
 20
83.74472871136761
 30
0.0
 11
199.4192485376079
 21
83.74472871136761
 31
0.0
  0
ARC
  5
762
330
18
100
AcDbEntity
  8
1
  6
Continuous
100
AcDbCircle
 10
60.49266253760801
 20
223.2150097113674
 30
0.0
 40
3.461999999999998
100
AcDbArc
 50
0.0
 51
90.0
  0
ARC
  5
763
330
18
100
AcDbEntity
  8
1
  6
Continuous
100
AcDbCircle
 10
17.91666253760797
 20
223.2150097113674
 30
0.0
 40
3.461999999999998
100
AcDbArc
 50
90.0
 51
180.0
  0
ARC
  5
764
330
18
100
AcDbEntity
  8
1
  6
Continuous
100
AcDbCircle
 10
53.41051653760803
 20
219.7827757113675
 30
0.0
 40
4.612044999999998
100
AcDbArc
 50
3.658345999999971
 51
84.96300600000301
  0
ARC
  5
765
330
18
100
AcDbEntity
  8
1
  6
Continuous
100
AcDbCircle
 10
25.37433253760798
 20
219.3603297113675
 30
0.0
 40
5.029499999999996
100
AcDbArc
 50
94.0918589999981
 51
171.8072180000004
  0
LINE
  5
766
330
18
100
AcDbEntity
  8
1
  6
Continuous
100
AcDbLine
 10
33.99952253760796
 20
220.6145547113676
 30
0.0
 11
35.17280853760804
 21
222.0770097113674
 31
0.0
  0
LINE
  5
767
330
18
100
AcDbEntity
  8
1
  6
Continuous
100
AcDbLine
 10
34.51030853760801
 20
220.6145547113676
 30
0.0
 11
33.75859453760801
 21
222.0770097113674
 31
0.0
  0
LINE
  5
768
330
18
100
AcDbEntity
  8
1
  6
Continuous
100
AcDbLine
 10
25.01544853760798
 20
224.3770097113676
 30
0.0
 11
53.81544853760797
 21
224.3770097113676
 31
0.0
  0
LINE
  5
769
330
18
100
AcDbEntity
  8
1
  6
Continuous
100
AcDbLine
 10
25.01544853760798
 20
222.0770097113674
 30
0.0
 11
53.81544853760797
 21
222.0770097113674
 31
0.0
  0
ARC
  5
76A
330
18
100
AcDbEntity
  8
1
  6
Continuous
100
AcDbCircle
 10
39.20466253760798
 20
17.37705471136762
 30
0.0
 40
200.0
100
AcDbArc
 50
86.96016199999853
 51
93.03983800000152
  0
LINE
  5
76B
330
18
100
AcDbEntity
  8
1
  6
Continuous
100
AcDbLine
 10
22.92445853760796
 20
220.6145547113676
 30
0.0
 11
55.57070253760798
 21
220.6145547113676
 31
0.0
  0
LINE
  5
76C
330
18
100
AcDbEntity
  8
1
  6
Continuous
100
AcDbLine
 10
22.69616253760796
 20
219.1145547113676
 30
0.0
 11
55.71316253760802
 21
219.1145547113676
 31
0.0
  0
LINE
  5
76D
330
18
100
AcDbEntity
  8
4
  6
CENTER
100
AcDbLine
 10
10.396162537608
 20
179.8770547113676
 30
0.0
 11
72.67115153760801
 21
179.8770547113676
 31
0.0
  0
LINE
  5
76E
330
18
100
AcDbEntity
  8
1
  6
Continuous
100
AcDbLine
 10
14.45466253760798
 20
223.2150097113674
 30
0.0
 11
14.45466253760798
 21
193.6416057113674
 31
0.0
  0
ARC
  5
76F
330
18
100
AcDbEntity
  8
1
  6
Continuous
100
AcDbCircle
 10
59.45466253760796
 20
193.6416057113674
 30
0.0
 40
45.0
100
AcDbArc
 50
180.0
 51
194.0170839999994
  0
LINE
  5
770
330
18
100
AcDbEntity
  8
1
  6
Continuous
100
AcDbLine
 10
24.20466253760798
 20
187.6184057113674
 30
0.0
 11
24.20466253760798
 21
172.1357047113674
 31
0.0
  0
ARC
  5
771
330
18
100
AcDbEntity
  8
1
  6
Continuous
100
AcDbCircle
 10
25.896162537608
 20
179.8770547113676
 30
0.0
 40
10.5
100
AcDbArc
 50
138.1896860000001
 51
221.8103149999989
  0
LINE
  5
772
330
18
100
AcDbEntity
  8
1
  6
Continuous
100
AcDbLine
 10
18.069924537608
 20
186.8770547113674
 30
0.0
 11
18.069924537608
 21
172.8770547113674
 31
0.0
  0
LINE
  5
773
330
18
100
AcDbEntity
  8
1
  6
Continuous
100
AcDbLine
 10
18.069924537608
 20
172.8770547113674
 30
0.0
 11
20.396162537608
 21
172.8770547113674
 31
0.0
  0
LINE
  5
774
330
18
100
AcDbEntity
  8
1
  6
Continuous
100
AcDbLine
 10
22.69616253760796
 20
175.8770547113674
 30
0.0
 11
24.20466253760798
 21
175.8770547113674
 31
0.0
  0
LINE
  5
775
330
18
100
AcDbEntity
  8
1
  6
Continuous
100
AcDbLine
 10
22.69616253760796
 20
183.8770547113676
 30
0.0
 11
24.20466253760798
 21
183.8770547113676
 31
0.0
  0
ARC
  5
776
330
18
100
AcDbEntity
  8
1
  6
Continuous
100
AcDbCircle
 10
25.70466253760798
 20
187.6184057113674
 30
0.0
 40
1.5
100
AcDbArc
 50
99.99999999999859
 51
180.0
  0
LINE
  5
777
330
18
100
AcDbEntity
  8
1
  6
Continuous
100
AcDbLine
 10
18.069924537608
 20
186.8770547113674
 30
0.0
 11
20.396162537608
 21
186.8770547113674
 31
0.0
  0
LINE
  5
778
330
18
100
AcDbEntity
  8
1
  6
Continuous
100
AcDbLine
 10
25.44419053760805
 20
189.0956177113675
 30
0.0
 11
26.70466253760798
 21
189.3178727113675
 31
0.0
  0
ARC
  5
779
330
18
100
AcDbEntity
  8
1
  6
Continuous
100
AcDbCircle
 10
25.45498253760797
 20
219.2225157113675
 30
0.0
 40
2.888134999999998
100
AcDbArc
 50
98.75362900000247
 51
162.7897249999999
  0
LINE
  5
77A
330
18
100
AcDbEntity
  8
1
  6
Continuous
100
AcDbLine
 10
24.74955953760797
 20
222.0532567113675
 30
0.0
 11
22.99152753760802
 21
220.6145547113676
 31
0.0
  0
ARC
  5
77B
330
18
100
AcDbEntity
  8
1
  6
Continuous
100
AcDbCircle
 10
28.29816253760805
 20
224.3036767113675
 30
0.0
 40
7.487396
100
AcDbArc
 50
233.1199469999995
 51
265.5638020000012
  0
LINE
  5
77C
330
18
100
AcDbEntity
  8
1
  6
Continuous
100
AcDbLine
 10
22.69616253760796
 20
219.1145547113676
 30
0.0
 11
23.80466253760801
 21
218.3145547113676
 31
0.0
  0
LINE
  5
77D
330
18
100
AcDbEntity
  8
1
  6
Continuous
100
AcDbLine
 10
23.90466253760803
 20
220.6145547113676
 30
0.0
 11
22.69616253760796
 21
219.1145547113676
 31
0.0
  0
LINE
  5
77E
330
18
100
AcDbEntity
  8
1
  6
Continuous
100
AcDbLine
 10
23.66871253760804
 20
221.0566557113674
 30
0.0
 11
24.11081353760801
 21
220.6145547113676
 31
0.0
  0
ARC
  5
77F
330
18
100
AcDbEntity
  8
1
  6
Continuous
100
AcDbCircle
 10
28.70466253760799
 20
215.0984497113676
 30
0.0
 40
2.0
100
AcDbArc
 50
93.03983800000152
 51
180.0
  0
LINE
  5
780
330
18
100
AcDbEntity
  8
1
  6
Continuous
100
AcDbLine
 10
28.34266753760799
 20
220.6145547113676
 30
0.0
 11
29.51595353760797
 21
222.0770097113674
 31
0.0
  0
LINE
  5
781
330
18
100
AcDbEntity
  8
1
  6
Continuous
100
AcDbLine
 10
26.92845453760799
 20
220.6145547113676
 30
0.0
 11
28.10174053760795
 21
222.0770097113674
 31
0.0
  0
LINE
  5
782
330
18
100
AcDbEntity
  8
1
  6
Continuous
100
AcDbLine
 10
25.01424053760797
 20
220.6145547113676
 30
0.0
 11
26.68752653760805
 21
222.0770097113674
 31
0.0
  0
LINE
  5
783
330
18
100
AcDbEntity
  8
1
  6
Continuous
100
AcDbLine
 10
28.85345453760794
 20
220.6145547113676
 30
0.0
 11
28.10174053760795
 21
222.0770097113674
 31
0.0
  0
LINE
  5
784
330
18
100
AcDbEntity
  8
1
  6
Continuous
100
AcDbLine
 10
27.43924053760804
 20
220.6145547113676
 30
0.0
 11
26.68752653760805
 21
222.0770097113674
 31
0.0
  0
LINE
  5
785
330
18
100
AcDbEntity
  8
1
  6
Continuous
100
AcDbLine
 10
24.79030553760798
 20
222.0600177113676
 30
0.0
 11
25.52502753760802
 21
220.6145547113676
 31
0.0
  0
LINE
  5
786
330
18
100
AcDbEntity
  8
1
  6
Continuous
100
AcDbLine
 10
32.58530853760794
 20
220.6145547113676
 30
0.0
 11
33.75859453760801
 21
222.0770097113674
 31
0.0
  0
LINE
  5
787
330
18
100
AcDbEntity
  8
1
  6
Continuous
100
AcDbLine
 10
31.17109553760804
 20
220.6145547113676
 30
0.0
 11
32.344381537608
 21
222.0770097113674
 31
0.0
  0
LINE
  5
788
330
18
100
AcDbEntity
  8
1
  6
Continuous
100
AcDbLine
 10
29.75688153760801
 20
220.6145547113676
 30
0.0
 11
30.93016753760798
 21
222.0770097113674
 31
0.0
  0
LINE
  5
789
330
18
100
AcDbEntity
  8
1
  6
Continuous
100
AcDbLine
 10
33.09609553760799
 20
220.6145547113676
 30
0.0
 11
32.344381537608
 21
222.0770097113674
 31
0.0
  0
LINE
  5
78A
330
18
100
AcDbEntity
  8
1
  6
Continuous
100
AcDbLine
 10
31.68188153760798
 20
220.6145547113676
 30
0.0
 11
30.93016753760798
 21
222.0770097113674
 31
0.0
  0
LINE
  5
78B
330
18
100
AcDbEntity
  8
1
  6
Continuous
100
AcDbLine
 10
30.26766753760796
 20
220.6145547113676
 30
0.0
 11
29.51595353760797
 21
222.0770097113674
 31
0.0
  0
LINE
  5
78C
330
18
100
AcDbEntity
  8
1
  6
Continuous
100
AcDbLine
 10
63.95466253760798
 20
223.2150097113674
 30
0.0
 11
63.95466253760798
 21
195.4022887452293
 31
0.0
  0
LINE
  5
78D
330
18
100
AcDbEntity
  8
1
  6
Continuous
100
AcDbLine
 10
55.71316253760802
 20
220.0770547113674
 30
0.0
 11
55.71316253760802
 21
195.402239294857
 31
0.0
  0
LINE
  5
78E
330
18
100
AcDbEntity
  8
1
  6
Continuous
100
AcDbLine
 10
58.01316253760797
 20
220.0770547113674
 30
0.0
 11
58.01316253760797
 21
195.40225309524
 31
0.0
  0
LINE
  5
7CC
330
18
100
AcDbEntity
  8
1
  6
Continuous
100
AcDbLine
 10
52.88429853760806
 20
220.6145547113676
 30
0.0
 11
54.01541753760795
 21
222.0285477113674
 31
0.0
  0
ARC
  5
7CD
330
18
100
AcDbEntity
  8
1
  6
Continuous
100
AcDbCircle
 10
50.60123053760801
 20
224.6650897113676
 30
0.0
 40
7.848514999999999
100
AcDbArc
 50
270.9161380000021
 51
305.9881850000023
  0
LINE
  5
7CE
330
18
100
AcDbEntity
  8
1
  6
Continuous
100
AcDbLine
 10
44.409803537608
 20
220.6145547113676
 30
0.0
 11
43.65808953760802
 21
222.0770097113674
 31
0.0
  0
LINE
  5
7CF
330
18
100
AcDbEntity
  8
1
  6
Continuous
100
AcDbLine
 10
38.24216253760801
 20
220.6145547113676
 30
0.0
 11
39.41544853760797
 21
222.0770097113674
 31
0.0
  0
LINE
  5
7D0
330
18
100
AcDbEntity
  8
1
  6
Continuous
100
AcDbLine
 10
38.75294953760795
 20
220.6145547113676
 30
0.0
 11
38.00123553760796
 21
222.0770097113674
 31
0.0
  0
LINE
  5
7D1
330
18
100
AcDbEntity
  8
1
  6
Continuous
100
AcDbLine
 10
35.41373553760797
 20
220.6145547113676
 30
0.0
 11
36.58702153760794
 21
222.0770097113674
 31
0.0
  0
LINE
  5
7D2
330
18
100
AcDbEntity
  8
1
  6
Continuous
100
AcDbLine
 10
37.33873553760803
 20
220.6145547113676
 30
0.0
 11
36.58702153760794
 21
222.0770097113674
 31
0.0
  0
LINE
  5
7D3
330
18
100
AcDbEntity
  8
1
  6
Continuous
100
AcDbLine
 10
35.92452253760802
 20
220.6145547113676
 30
0.0
 11
35.17280853760804
 21
222.0770097113674
 31
0.0
  0
LINE
  5
7D4
330
18
100
AcDbEntity
  8
1
  6
Continuous
100
AcDbLine
 10
36.827949537608
 20
220.6145547113676
 30
0.0
 11
38.00123553760796
 21
222.0770097113674
 31
0.0
  0
LINE
  5
7D5
330
18
100
AcDbEntity
  8
1
  6
Continuous
100
AcDbLine
 10
42.48480353760792
 20
220.6145547113676
 30
0.0
 11
43.65808953760802
 21
222.0770097113674
 31
0.0
  0
LINE
  5
7D6
330
18
100
AcDbEntity
  8
1
  6
Continuous
100
AcDbLine
 10
42.995589537608
 20
220.6145547113676
 30
0.0
 11
42.24387553760799
 21
222.0770097113674
 31
0.0
  0
LINE
  5
7D7
330
18
100
AcDbEntity
  8
1
  6
Continuous
100
AcDbLine
 10
39.65637653760803
 20
220.6145547113676
 30
0.0
 11
40.82966253760797
 21
222.0770097113674
 31
0.0
  0
LINE
  5
7D8
330
18
100
AcDbEntity
  8
1
  6
Continuous
100
AcDbLine
 10
40.16716253760796
 20
220.6145547113676
 30
0.0
 11
39.41544853760797
 21
222.0770097113674
 31
0.0
  0
LINE
  5
7D9
330
18
100
AcDbEntity
  8
1
  6
Continuous
100
AcDbLine
 10
41.58137653760797
 20
220.6145547113676
 30
0.0
 11
40.82966253760797
 21
222.0770097113674
 31
0.0
  0
LINE
  5
7DA
330
18
100
AcDbEntity
  8
1
  6
Continuous
100
AcDbLine
 10
41.07058953760803
 20
220.6145547113676
 30
0.0
 11
42.24387553760799
 21
222.0770097113674
 31
0.0
  0
ARC
  5
7DB
330
18
100
AcDbEntity
  8
1
  6
Continuous
100
AcDbCircle
 10
49.70466253760799
 20
215.0984497113676
 30
0.0
 40
2.0
100
AcDbArc
 50
0.0
 51
86.96016199999853
  0
LINE
  5
7DC
330
18
100
AcDbEntity
  8
1
  6
Continuous
100
AcDbLine
 10
48.141657537608
 20
220.6145547113676
 30
0.0
 11
49.31494353760797
 21
222.0770097113674
 31
0.0
  0
LINE
  5
7DD
330
18
100
AcDbEntity
  8
1
  6
Continuous
100
AcDbLine
 10
48.65244453760793
 20
220.6145547113676
 30
0.0
 11
47.90073053760795
 21
222.0770097113674
 31
0.0
  0
LINE
  5
7DE
330
18
100
AcDbEntity
  8
1
  6
Continuous
100
AcDbLine
 10
46.72744453760799
 20
220.6145547113676
 30
0.0
 11
47.90073053760795
 21
222.0770097113674
 31
0.0
  0
LINE
  5
7DF
330
18
100
AcDbEntity
  8
1
  6
Continuous
100
AcDbLine
 10
47.23823053760805
 20
220.6145547113676
 30
0.0
 11
46.48651653760794
 21
222.0770097113674
 31
0.0
  0
LINE
  5
7E0
330
18
100
AcDbEntity
  8
1
  6
Continuous
100
AcDbLine
 10
43.89901753760796
 20
220.6145547113676
 30
0.0
 11
45.07230353760802
 21
222.0770097113674
 31
0.0
  0
LINE
  5
7E1
330
18
100
AcDbEntity
  8
1
  6
Continuous
100
AcDbLine
 10
45.82401753760803
 20
220.6145547113676
 30
0.0
 11
45.07230353760802
 21
222.0770097113674
 31
0.0
  0
LINE
  5
7E2
330
18
100
AcDbEntity
  8
1
  6
Continuous
100
AcDbLine
 10
45.31323053760798
 20
220.6145547113676
 30
0.0
 11
46.48651653760794
 21
222.0770097113674
 31
0.0
  0
LINE
  5
7E3
330
18
100
AcDbEntity
  8
1
  6
Continuous
100
AcDbLine
 10
51.47008453760804
 20
220.6145547113676
 30
0.0
 11
52.64337053760801
 21
222.0770097113674
 31
0.0
  0
LINE
  5
7E4
330
18
100
AcDbEntity
  8
1
  6
Continuous
100
AcDbLine
 10
51.98087153760797
 20
220.6145547113676
 30
0.0
 11
51.229157537608
 21
222.0770097113674
 31
0.0
  0
LINE
  5
7E5
330
18
100
AcDbEntity
  8
1
  6
Continuous
100
AcDbLine
 10
53.39508453760799
 20
220.6145547113676
 30
0.0
 11
52.64337053760801
 21
222.0770097113674
 31
0.0
  0
LINE
  5
7E6
330
18
100
AcDbEntity
  8
1
  6
Continuous
100
AcDbLine
 10
50.56665753760796
 20
220.6145547113676
 30
0.0
 11
49.31494353760797
 21
222.0770097113674
 31
0.0
  0
LINE
  5
7E7
330
18
100
AcDbEntity
  8
1
  6
Continuous
100
AcDbLine
 10
49.55587153760802
 20
220.6145547113676
 30
0.0
 11
51.229157537608
 21
222.0770097113674
 31
0.0
  0
LINE
  5
7E8
330
18
100
AcDbEntity
  8
1
  6
Continuous
100
AcDbLine
 10
55.71316253760802
 20
219.1145547113676
 30
0.0
 11
55.21316253760801
 21
218.3145547113676
 31
0.0
  0
ARC
  5
7E9
330
18
100
AcDbEntity
  8
1
  6
Continuous
100
AcDbCircle
 10
53.35485153760792
 20
219.7396307113676
 30
0.0
 40
2.382327999999998
100
AcDbArc
 50
8.142542999999704
 51
78.85228300000047
  0
LINE
  5
7EA
330
18
100
AcDbEntity
  8
1
  6
Continuous
100
AcDbLine
 10
54.50466253760794
 20
220.6145547113676
 30
0.0
 11
55.71316253760802
 21
219.1145547113676
 31
0.0
  0
LINE
  5
7EB
330
18
100
AcDbEntity
  8
1
  6
Continuous
100
AcDbLine
 10
54.29851253760796
 20
220.6145547113676
 30
0.0
 11
55.34200953760796
 21
221.0536667113676
 31
0.0
  0
LINE
  5
7EC
330
18
100
AcDbEntity
  8
1
  6
Continuous
100
AcDbLine
 10
55.41779853760797
 20
220.6145547113676
 30
0.0
 11
54.14171653760798
 21
221.9882597113676
 31
0.0
  0
LINE
  5
7ED
330
18
100
AcDbEntity
  8
1
  6
Continuous
100
AcDbLine
 10
33.54780853760804
 20
226.6770097113676
 30
0.0
 11
34.96202253760805
 21
227.8020547113676
 31
0.0
  0
LINE
  5
7EE
330
18
100
AcDbEntity
  8
1
  6
Continuous
100
AcDbLine
 10
35.38359453760803
 20
226.6770097113676
 30
0.0
 11
33.54780853760804
 21
227.8020547113676
 31
0.0
  0
LINE
  5
7EF
330
18
100
AcDbEntity
  8
1
  6
Continuous
100
AcDbLine
 10
16.41544853760797
 20
226.6770097113676
 30
0.0
 11
62.41544853760796
 21
226.6770097113676
 31
0.0
  0
LINE
  5
7F0
330
18
100
AcDbEntity
  8
1
  6
Continuous
100
AcDbLine
 10
12.20466253760798
 20
233.0770547113675
 30
0.0
 11
66.20466253760799
 21
233.0770547113675
 31
0.0
  0
LINE
  5
7F1
330
18
100
AcDbEntity
  8
1
  6
Continuous
100
AcDbLine
 10
12.20466253760798
 20
235.3770547113675
 30
0.0
 11
66.20466253760799
 21
235.3770547113675
 31
0.0
  0
LINE
  5
7F2
330
18
100
AcDbEntity
  8
1
  6
Continuous
100
AcDbLine
 10
16.20466253760798
 20
227.8020547113676
 30
0.0
 11
62.20466253760799
 21
227.8020547113676
 31
0.0
  0
LINE
  5
7F3
330
18
100
AcDbEntity
  8
1
  6
Continuous
100
AcDbLine
 10
16.15466253760803
 20
230.1020547113675
 30
0.0
 11
62.25466253760792
 21
230.1020547113675
 31
0.0
  0
LINE
  5
7F4
330
18
100
AcDbEntity
  8
1
  6
Continuous
100
AcDbLine
 10
16.412465537608
 20
230.9770547113676
 30
0.0
 11
61.99685953760798
 21
230.9770547113676
 31
0.0
  0
ARC
  5
7F5
330
18
100
AcDbEntity
  8
1
  6
Continuous
100
AcDbCircle
 10
16.412465537608
 20
234.4770547113676
 30
0.0
 40
3.5
100
AcDbArc
 50
203.5781779999993
 51
270.0
  0
LINE
  5
7F6
330
18
100
AcDbEntity
  8
1
  6
Continuous
100
AcDbLine
 10
12.20466253760798
 20
235.3770547113675
 30
0.0
 11
12.20466253760798
 21
233.0770547113675
 31
0.0
  0
LINE
  5
7F7
330
18
100
AcDbEntity
  8
4
  6
CENTER
100
AcDbLine
 10
21.20466253760799
 20
240.3770547113674
 30
0.0
 11
21.20466253760799
 21
228.0770547113674
 31
0.0
  0
LINE
  5
7F8
330
18
100
AcDbEntity
  8
1
  6
Continuous
100
AcDbLine
 10
23.64831353760803
 20
226.6770097113676
 30
0.0
 11
25.06252753760792
 21
227.8020547113676
 31
0.0
  0
LINE
  5
7F9
330
18
100
AcDbEntity
  8
1
  6
Continuous
100
AcDbLine
 10
25.48409953760801
 20
226.6770097113676
 30
0.0
 11
23.64831353760803
 21
227.8020547113676
 31
0.0
  0
LINE
  5
7FA
330
18
100
AcDbEntity
  8
1
  6
Continuous
100
AcDbLine
 10
19.40567253760798
 20
226.6770097113676
 30
0.0
 11
20.819886537608
 21
227.8020547113676
 31
0.0
  0
LINE
  5
7FB
330
18
100
AcDbEntity
  8
1
  6
Continuous
100
AcDbLine
 10
21.24145853760797
 20
226.6770097113676
 30
0.0
 11
19.40567253760798
 21
227.8020547113676
 31
0.0
  0
LINE
  5
7FC
330
18
100
AcDbEntity
  8
1
  6
Continuous
100
AcDbLine
 10
19.82724553760794
 20
226.6770097113676
 30
0.0
 11
17.99145953760796
 21
227.8020547113676
 31
0.0
  0
LINE
  5
7FD
330
18
100
AcDbEntity
  8
1
  6
Continuous
100
AcDbLine
 10
17.99145853760796
 20
226.6770097113676
 30
0.0
 11
19.40567253760798
 21
227.8020547113676
 31
0.0
  0
LINE
  5
7FE
330
18
100
AcDbEntity
  8
1
  6
Continuous
100
AcDbLine
 10
16.55466253760801
 20
227.8020547113676
 30
0.0
 11
15.65466253760803
 21
229.3020547113674
 31
0.0
  0
LINE
  5
7FF
330
18
100
AcDbEntity
  8
1
  6
Continuous
100
AcDbLine
 10
16.20466253760798
 20
227.8020547113676
 30
0.0
 11
16.41544853760797
 21
226.6770097113676
 31
0.0
  0
LINE
  5
800
330
18
100
AcDbEntity
  8
1
  6
Continuous
100
AcDbLine
 10
16.26345453760801
 20
227.4882637113674
 30
0.0
 11
16.57724553760794
 21
227.8020547113676
 31
0.0
  0
LINE
  5
801
330
18
100
AcDbEntity
  8
1
  6
Continuous
100
AcDbLine
 10
16.41544853760797
 20
227.2603797113675
 30
0.0
 11
16.99881853760791
 21
226.6770097113676
 31
0.0
  0
LINE
  5
802
330
18
100
AcDbEntity
  8
1
  6
Continuous
100
AcDbLine
 10
15.65466253760803
 20
229.3020547113674
 30
0.0
 11
16.15466253760803
 21
230.1020547113675
 31
0.0
  0
ARC
  5
803
330
18
100
AcDbEntity
  8
1
  6
Continuous
100
AcDbCircle
 10
22.45466253760799
 20
225.6275547113676
 30
0.0
 40
6.974499999999999
100
AcDbArc
 50
129.9139999999977
 51
140.0924020000016
  0
LINE
  5
804
330
18
100
AcDbEntity
  8
1
  6
Continuous
100
AcDbLine
 10
16.57724553760794
 20
226.6770097113676
 30
0.0
 11
17.99145953760796
 21
227.8020547113676
 31
0.0
  0
LINE
  5
805
330
18
100
AcDbEntity
  8
1
  6
Continuous
100
AcDbLine
 10
18.41303153760792
 20
226.6770097113676
 30
0.0
 11
16.57724553760794
 21
227.8020547113676
 31
0.0
  0
LINE
  5
806
330
18
100
AcDbEntity
  8
1
  6
Continuous
100
AcDbLine
 10
22.23409953760802
 20
226.6770097113676
 30
0.0
 11
23.64831353760803
 21
227.8020547113676
 31
0.0
  0
LINE
  5
807
330
18
100
AcDbEntity
  8
1
  6
Continuous
100
AcDbLine
 10
24.069886537608
 20
226.6770097113676
 30
0.0
 11
22.23410053760801
 21
227.8020547113676
 31
0.0
  0
LINE
  5
808
330
18
100
AcDbEntity
  8
1
  6
Continuous
100
AcDbLine
 10
20.819886537608
 20
226.6770097113676
 30
0.0
 11
22.23410053760801
 21
227.8020547113676
 31
0.0
  0
LINE
  5
809
330
18
100
AcDbEntity
  8
1
  6
Continuous
100
AcDbLine
 10
22.65567253760798
 20
226.6770097113676
 30
0.0
 11
20.819886537608
 21
227.8020547113676
 31
0.0
  0
LINE
  5
80A
330
18
100
AcDbEntity
  8
1
  6
Continuous
100
AcDbLine
 10
29.72674053760795
 20
226.6770097113676
 30
0.0
 11
27.89095453760797
 21
227.8020547113676
 31
0.0
  0
LINE
  5
80B
330
18
100
AcDbEntity
  8
1
  6
Continuous
100
AcDbLine
 10
29.30516753760798
 20
226.6770097113676
 30
0.0
 11
30.71938153760799
 21
227.8020547113676
 31
0.0
  0
LINE
  5
80C
330
18
100
AcDbEntity
  8
1
  6
Continuous
100
AcDbLine
 10
31.14095353760797
 20
226.6770097113676
 30
0.0
 11
29.30516753760798
 21
227.8020547113676
 31
0.0
  0
LINE
  5
80D
330
18
100
AcDbEntity
  8
1
  6
Continuous
100
AcDbLine
 10
27.89095353760797
 20
226.6770097113676
 30
0.0
 11
29.30516753760798
 21
227.8020547113676
 31
0.0
  0
LINE
  5
80E
330
18
100
AcDbEntity
  8
1
  6
Continuous
100
AcDbLine
 10
26.47674053760795
 20
226.6770097113676
 30
0.0
 11
27.89095453760797
 21
227.8020547113676
 31
0.0
  0
LINE
  5
80F
330
18
100
AcDbEntity
  8
1
  6
Continuous
100
AcDbLine
 10
28.31252653760805
 20
226.6770097113676
 30
0.0
 11
26.47674053760795
 21
227.8020547113676
 31
0.0
  0
LINE
  5
810
330
18
100
AcDbEntity
  8
1
  6
Continuous
100
AcDbLine
 10
25.06252653760805
 20
226.6770097113676
 30
0.0
 11
26.47674053760795
 21
227.8020547113676
 31
0.0
  0
LINE
  5
811
330
18
100
AcDbEntity
  8
1
  6
Continuous
100
AcDbLine
 10
26.89831353760804
 20
226.6770097113676
 30
0.0
 11
25.06252753760792
 21
227.8020547113676
 31
0.0
  0
LINE
  5
812
330
18
100
AcDbEntity
  8
1
  6
Continuous
100
AcDbLine
 10
32.13359453760801
 20
226.6770097113676
 30
0.0
 11
33.54780853760804
 21
227.8020547113676
 31
0.0
  0
LINE
  5
813
330
18
100
AcDbEntity
  8
1
  6
Continuous
100
AcDbLine
 10
30.71938153760799
 20
226.6770097113676
 30
0.0
 11
32.13359553760802
 21
227.8020547113676
 31
0.0
  0
LINE
  5
814
330
18
100
AcDbEntity
  8
1
  6
Continuous
100
AcDbLine
 10
32.55516753760797
 20
226.6770097113676
 30
0.0
 11
30.71938153760799
 21
227.8020547113676
 31
0.0
  0
LINE
  5
815
330
18
100
AcDbEntity
  8
1
  6
Continuous
100
AcDbLine
 10
33.969381537608
 20
226.6770097113676
 30
0.0
 11
32.13359553760802
 21
227.8020547113676
 31
0.0
  0
LINE
  5
816
330
18
100
AcDbEntity
  8
1
  6
Continuous
100
AcDbLine
 10
53.76837053760801
 20
226.6770097113676
 30
0.0
 11
51.93258453760802
 21
227.8020547113676
 31
0.0
  0
LINE
  5
817
330
18
100
AcDbEntity
  8
1
  6
Continuous
100
AcDbLine
 10
53.34679853760793
 20
226.6770097113676
 30
0.0
 11
54.76101253760794
 21
227.8020547113676
 31
0.0
  0
LINE
  5
818
330
18
100
AcDbEntity
  8
1
  6
Continuous
100
AcDbLine
 10
55.18258453760802
 20
226.6770097113676
 30
0.0
 11
53.34679853760793
 21
227.8020547113676
 31
0.0
  0
LINE
  5
819
330
18
100
AcDbEntity
  8
1
  6
Continuous
100
AcDbLine
 10
43.44730353760803
 20
226.6770097113676
 30
0.0
 11
44.86151753760805
 21
227.8020547113676
 31
0.0
  0
LINE
  5
81A
330
18
100
AcDbEntity
  8
1
  6
Continuous
100
AcDbLine
 10
43.868875537608
 20
226.6770097113676
 30
0.0
 11
42.03308953760802
 21
227.8020547113676
 31
0.0
  0
LINE
  5
81B
330
18
100
AcDbEntity
  8
1
  6
Continuous
100
AcDbLine
 10
45.28308953760801
 20
226.6770097113676
 30
0.0
 11
43.44730353760803
 21
227.8020547113676
 31
0.0
  0
LINE
  5
81C
330
18
100
AcDbEntity
  8
1
  6
Continuous
100
AcDbLine
 10
39.62623553760796
 20
226.6770097113676
 30
0.0
 11
37.79044953760797
 21
227.8020547113676
 31
0.0
  0
LINE
  5
81D
330
18
100
AcDbEntity
  8
1
  6
Continuous
100
AcDbLine
 10
37.79044853760797
 20
226.6770097113676
 30
0.0
 11
39.20466253760798
 21
227.8020547113676
 31
0.0
  0
LINE
  5
81E
330
18
100
AcDbEntity
  8
1
  6
Continuous
100
AcDbLine
 10
34.96202153760794
 20
226.6770097113676
 30
0.0
 11
36.37623553760795
 21
227.8020547113676
 31
0.0
  0
LINE
  5
81F
330
18
100
AcDbEntity
  8
1
  6
Continuous
100
AcDbLine
 10
36.79780853760803
 20
226.6770097113676
 30
0.0
 11
34.96202253760805
 21
227.8020547113676
 31
0.0
  0
LINE
  5
820
330
18
100
AcDbEntity
  8
1
  6
Continuous
100
AcDbLine
 10
36.37623553760795
 20
226.6770097113676
 30
0.0
 11
37.79044953760797
 21
227.8020547113676
 31
0.0
  0
LINE
  5
821
330
18
100
AcDbEntity
  8
1
  6
Continuous
100
AcDbLine
 10
38.21202153760792
 20
226.6770097113676
 30
0.0
 11
36.37623553760795
 21
227.8020547113676
 31
0.0
  0
LINE
  5
822
330
18
100
AcDbEntity
  8
1
  6
Continuous
100
AcDbLine
 10
39.20466253760798
 20
226.6770097113676
 30
0.0
 11
40.61887653760799
 21
227.8020547113676
 31
0.0
  0
LINE
  5
823
330
18
100
AcDbEntity
  8
1
  6
Continuous
100
AcDbLine
 10
41.04044853760797
 20
226.6770097113676
 30
0.0
 11
39.20466253760798
 21
227.8020547113676
 31
0.0
  0
LINE
  5
824
330
18
100
AcDbEntity
  8
1
  6
Continuous
100
AcDbLine
 10
40.618875537608
 20
226.6770097113676
 30
0.0
 11
42.03308953760802
 21
227.8020547113676
 31
0.0
  0
LINE
  5
825
330
18
100
AcDbEntity
  8
1
  6
Continuous
100
AcDbLine
 10
42.03308953760802
 20
226.6770097113676
 30
0.0
 11
43.44730353760803
 21
227.8020547113676
 31
0.0
  0
LINE
  5
826
330
18
100
AcDbEntity
  8
1
  6
Continuous
100
AcDbLine
 10
42.45466253760797
 20
226.6770097113676
 30
0.0
 11
40.61887653760799
 21
227.8020547113676
 31
0.0
  0
LINE
  5
827
330
18
100
AcDbEntity
  8
1
  6
Continuous
100
AcDbLine
 10
47.68994353760796
 20
226.6770097113676
 30
0.0
 11
49.10415753760799
 21
227.8020547113676
 31
0.0
  0
LINE
  5
828
330
18
100
AcDbEntity
  8
1
  6
Continuous
100
AcDbLine
 10
49.52573053760795
 20
226.6770097113676
 30
0.0
 11
47.68994453760796
 21
227.8020547113676
 31
0.0
  0
LINE
  5
829
330
18
100
AcDbEntity
  8
1
  6
Continuous
100
AcDbLine
 10
46.27573053760795
 20
226.6770097113676
 30
0.0
 11
47.68994453760796
 21
227.8020547113676
 31
0.0
  0
LINE
  5
82A
330
18
100
AcDbEntity
  8
1
  6
Continuous
100
AcDbLine
 10
48.11151653760806
 20
226.6770097113676
 30
0.0
 11
46.27573053760795
 21
227.8020547113676
 31
0.0
  0
LINE
  5
82B
330
18
100
AcDbEntity
  8
1
  6
Continuous
100
AcDbLine
 10
44.86151653760805
 20
226.6770097113676
 30
0.0
 11
46.27573053760795
 21
227.8020547113676
 31
0.0
  0
LINE
  5
82C
330
18
100
AcDbEntity
  8
1
  6
Continuous
100
AcDbLine
 10
46.69730353760804
 20
226.6770097113676
 30
0.0
 11
44.86151753760805
 21
227.8020547113676
 31
0.0
  0
LINE
  5
82D
330
18
100
AcDbEntity
  8
1
  6
Continuous
100
AcDbLine
 10
50.51837053760801
 20
226.6770097113676
 30
0.0
 11
51.93258453760802
 21
227.8020547113676
 31
0.0
  0
LINE
  5
82E
330
18
100
AcDbEntity
  8
1
  6
Continuous
100
AcDbLine
 10
51.93258453760802
 20
226.6770097113676
 30
0.0
 11
53.34679853760793
 21
227.8020547113676
 31
0.0
  0
LINE
  5
82F
330
18
100
AcDbEntity
  8
1
  6
Continuous
100
AcDbLine
 10
52.35415753760801
 20
226.6770097113676
 30
0.0
 11
50.518371537608
 21
227.8020547113676
 31
0.0
  0
LINE
  5
830
330
18
100
AcDbEntity
  8
1
  6
Continuous
100
AcDbLine
 10
49.10415753760799
 20
226.6770097113676
 30
0.0
 11
50.518371537608
 21
227.8020547113676
 31
0.0
  0
LINE
  5
831
330
18
100
AcDbEntity
  8
1
  6
Continuous
100
AcDbLine
 10
50.93994353760797
 20
226.6770097113676
 30
0.0
 11
49.10415753760799
 21
227.8020547113676
 31
0.0
  0
LINE
  5
832
330
18
100
AcDbEntity
  8
4
  6
CENTER
100
AcDbLine
 10
57.20466253760799
 20
240.3770547113674
 30
0.0
 11
57.20466253760799
 21
228.0770547113674
 31
0.0
  0
ARC
  5
833
330
18
100
AcDbEntity
  8
1
  6
Continuous
100
AcDbCircle
 10
61.99685953760798
 20
234.4770547113676
 30
0.0
 40
3.5
100
AcDbArc
 50
270.0
 51
336.4218220000005
  0
LINE
  5
834
330
18
100
AcDbEntity
  8
1
  6
Continuous
100
AcDbLine
 10
57.58943853760797
 20
226.6770097113676
 30
0.0
 11
59.00365253760799
 21
227.8020547113676
 31
0.0
  0
LINE
  5
835
330
18
100
AcDbEntity
  8
1
  6
Continuous
100
AcDbLine
 10
59.42522553760795
 20
226.6770097113676
 30
0.0
 11
57.58943953760796
 21
227.8020547113676
 31
0.0
  0
LINE
  5
836
330
18
100
AcDbEntity
  8
1
  6
Continuous
100
AcDbLine
 10
54.76101153760794
 20
226.6770097113676
 30
0.0
 11
56.17522553760796
 21
227.8020547113676
 31
0.0
  0
LINE
  5
837
330
18
100
AcDbEntity
  8
1
  6
Continuous
100
AcDbLine
 10
56.17522553760796
 20
226.6770097113676
 30
0.0
 11
57.58943953760796
 21
227.8020547113676
 31
0.0
  0
LINE
  5
838
330
18
100
AcDbEntity
  8
1
  6
Continuous
100
AcDbLine
 10
56.59679853760792
 20
226.6770097113676
 30
0.0
 11
54.76101253760794
 21
227.8020547113676
 31
0.0
  0
LINE
  5
839
330
18
100
AcDbEntity
  8
1
  6
Continuous
100
AcDbLine
 10
58.01101153760793
 20
226.6770097113676
 30
0.0
 11
56.17522553760796
 21
227.8020547113676
 31
0.0
  0
ARC
  5
83A
330
18
100
AcDbEntity
  8
1
  6
Continuous
100
AcDbCircle
 10
55.95466253760799
 20
225.6275547113676
 30
0.0
 40
6.974499999999999
100
AcDbArc
 50
39.90759799999828
 51
50.08600000000214
  0
LINE
  5
83B
330
18
100
AcDbEntity
  8
1
  6
Continuous
100
AcDbLine
 10
62.20466253760799
 20
227.8020547113676
 30
0.0
 11
62.41544853760796
 21
226.6770097113676
 31
0.0
  0
LINE
  5
83C
330
18
100
AcDbEntity
  8
1
  6
Continuous
100
AcDbLine
 10
59.00365253760799
 20
226.6770097113676
 30
0.0
 11
60.41786653760801
 21
227.8020547113676
 31
0.0
  0
LINE
  5
83D
330
18
100
AcDbEntity
  8
1
  6
Continuous
100
AcDbLine
 10
60.417865537608
 20
226.6770097113676
 30
0.0
 11
61.83207953760803
 21
227.8020547113676
 31
0.0
  0
LINE
  5
83E
330
18
100
AcDbEntity
  8
1
  6
Continuous
100
AcDbLine
 10
61.83207953760803
 20
226.6770097113676
 30
0.0
 11
62.323396537608
 21
227.1683267113675
 31
0.0
  0
LINE
  5
83F
330
18
100
AcDbEntity
  8
1
  6
Continuous
100
AcDbLine
 10
60.83943853760796
 20
226.6770097113676
 30
0.0
 11
59.00365253760799
 21
227.8020547113676
 31
0.0
  0
LINE
  5
840
330
18
100
AcDbEntity
  8
1
  6
Continuous
100
AcDbLine
 10
62.25365253760799
 20
226.6770097113676
 30
0.0
 11
60.41786653760801
 21
227.8020547113676
 31
0.0
  0
LINE
  5
841
330
18
100
AcDbEntity
  8
1
  6
Continuous
100
AcDbLine
 10
62.20466253760799
 20
227.4294717113675
 30
0.0
 11
61.83207953760803
 21
227.8020547113676
 31
0.0
  0
LINE
  5
842
330
18
100
AcDbEntity
  8
1
  6
Continuous
100
AcDbLine
 10
61.85466253760797
 20
227.8020547113676
 30
0.0
 11
62.75466253760793
 21
229.3020547113674
 31
0.0
  0
LINE
  5
843
330
18
100
AcDbEntity
  8
1
  6
Continuous
100
AcDbLine
 10
62.75466253760793
 20
229.3020547113674
 30
0.0
 11
62.25466253760792
 21
230.1020547113675
 31
0.0
  0
LINE
  5
844
330
18
100
AcDbEntity
  8
1
  6
Continuous
100
AcDbLine
 10
66.20466253760799
 20
235.3770547113675
 30
0.0
 11
66.20466253760799
 21
233.0770547113675
 31
0.0
  0
LINE
  5
847
330
18
100
AcDbEntity
  8
4
  6
CENTER
100
AcDbLine
 10
153.6692485376078
 20
278.6490177113676
 30
0.0
 11
153.6692485376078
 21
342.6490177113673
 31
0.0
  0
LINE
  5
848
330
18
100
AcDbEntity
  8
4
  6
CENTER
100
AcDbLine
 10
205.6692485376079
 20
286.3990177113673
 30
0.0
 11
205.6692485376079
 21
298.8990177113673
 31
0.0
  0
ARC
  5
849
330
18
100
AcDbEntity
  8
1
  6
Continuous
100
AcDbCircle
 10
206.6692485376079
 20
290.6490177113673
 30
0.0
 40
7.0
100
AcDbArc
 50
270.0
 51
0.0
  0
LINE
  5
84A
330
18
100
AcDbEntity
  8
4
  6
CENTER
100
AcDbLine
 10
151.6692485376079
 20
286.3990177113673
 30
0.0
 11
151.6692485376079
 21
298.8990177113673
 31
0.0
  0
ARC
  5
84B
330
18
100
AcDbEntity
  8
1
  6
Continuous
100
AcDbCircle
 10
150.6692485376079
 20
290.6490177113673
 30
0.0
 40
7.0
100
AcDbArc
 50
180.0
 51
270.0
  0
LINE
  5
84C
330
18
100
AcDbEntity
  8
4
  6
CENTER
100
AcDbLine
 10
178.6692485376078
 20
278.6490177113676
 30
0.0
 11
178.6692485376078
 21
342.6490177113673
 31
0.0
  0
CIRCLE
  5
84D
330
18
100
AcDbEntity
  8
1
  6
Continuous
100
AcDbCircle
 10
178.6692485376078
 20
310.6490177113673
 30
0.0
 40
23.5
  0
CIRCLE
  5
84E
330
18
100
AcDbEntity
  8
1
  6
Continuous
100
AcDbCircle
 10
153.6692485376078
 20
179.8770097113674
 30
0.0
 40
7.0
  0
LINE
  5
856
330
18
100
AcDbEntity
  8
1
  6
Continuous
100
AcDbLine
 10
206.6692485376079
 20
283.6490177113674
 30
0.0
 11
150.6692485376079
 21
283.6490177113674
 31
0.0
  0
LINE
  5
857
330
18
100
AcDbEntity
  8
1
  6
Continuous
100
AcDbLine
 10
160.0736855376078
 20
227.8020097113676
 30
0.0
 11
161.6986855376079
 21
226.6770097113676
 31
0.0
  0
LINE
  5
858
330
18
100
AcDbEntity
  8
1
  6
Continuous
100
AcDbLine
 10
160.4952585376079
 20
227.8020097113676
 30
0.0
 11
158.8702585376079
 21
226.6770097113676
 31
0.0
  0
LINE
  5
859
330
18
100
AcDbEntity
  8
1
  6
Continuous
100
AcDbLine
 10
158.6594715376079
 20
227.8020097113676
 30
0.0
 11
160.2844715376078
 21
226.6770097113676
 31
0.0
  0
LINE
  5
85A
330
18
100
AcDbEntity
  8
1
  6
Continuous
100
AcDbLine
 10
160.6692485376079
 20
224.3770097113676
 30
0.0
 11
146.6692485376078
 21
224.3770097113676
 31
0.0
  0
LINE
  5
85B
330
18
100
AcDbEntity
  8
1
  6
Continuous
100
AcDbLine
 10
201.6692485376079
 20
226.6770097113676
 30
0.0
 11
155.6692485376078
 21
226.6770097113676
 31
0.0
  0
LINE
  5
85C
330
18
100
AcDbEntity
  8
1
  6
Continuous
100
AcDbLine
 10
213.6692485376079
 20
233.0770097113674
 30
0.0
 11
143.6692485376079
 21
233.0770097113674
 31
0.0
  0
LINE
  5
85D
330
18
100
AcDbEntity
  8
1
  6
Continuous
100
AcDbLine
 10
213.6692485376079
 20
235.3770097113674
 30
0.0
 11
143.6692485376079
 21
235.3770097113674
 31
0.0
  0
LINE
  5
85E
330
18
100
AcDbEntity
  8
1
  6
Continuous
100
AcDbLine
 10
201.6692485376079
 20
227.8020097113676
 30
0.0
 11
155.6692485376078
 21
227.8020097113676
 31
0.0
  0
LINE
  5
85F
330
18
100
AcDbEntity
  8
1
  6
Continuous
100
AcDbLine
 10
201.7192485376078
 20
230.1020097113674
 30
0.0
 11
155.6192485376078
 21
230.1020097113674
 31
0.0
  0
LINE
  5
860
330
18
100
AcDbEntity
  8
1
  6
Continuous
100
AcDbLine
 10
201.4614455376078
 20
230.9770097113674
 30
0.0
 11
155.8770515376079
 21
230.9770097113674
 31
0.0
  0
LINE
  5
861
330
18
100
AcDbEntity
  8
4
  6
CENTER
100
AcDbLine
 10
196.1692485376079
 20
179.8770097113674
 30
0.0
 11
111.169248537608
 21
179.8770097113674
 31
0.0
  0
ARC
  5
862
330
18
100
AcDbEntity
  8
1
  6
Continuous
100
AcDbCircle
 10
157.3364385376079
 20
223.6770097113676
 30
0.0
 40
3.0
100
AcDbArc
 50
90.0
 51
166.5066010000001
  0
LINE
  5
86E
330
18
100
AcDbEntity
  8
1
  6
Continuous
100
AcDbLine
 10
149.9484825376079
 20
224.3770097113676
 30
0.0
 11
145.5654760856723
 21
195.4022449206789
 31
0.0
  0
LINE
  5
87D
330
18
100
AcDbEntity
  8
1
  6
Continuous
100
AcDbLine
 10
159.6692485376079
 20
183.3411107113674
 30
0.0
 11
153.6692485376078
 21
186.8052127113674
 31
0.0
  0
CIRCLE
  5
87E
330
18
100
AcDbEntity
  8
1
  6
Continuous
100
AcDbCircle
 10
153.6692485376078
 20
179.8770097113674
 30
0.0
 40
6.0
  0
LINE
  5
87F
330
18
100
AcDbEntity
  8
1
  6
Continuous
100
AcDbLine
 10
147.6692485376078
 20
183.3411107113674
 30
0.0
 11
153.6692485376078
 21
186.8052127113674
 31
0.0
  0
CIRCLE
  5
880
330
18
100
AcDbEntity
  8
2
  6
Continuous
100
AcDbCircle
 10
153.6692485376078
 20
179.8770097113674
 30
0.0
 40
3.3235
  0
CIRCLE
  5
881
330
18
100
AcDbEntity
  8
1
  6
Continuous
100
AcDbCircle
 10
153.6692485376078
 20
179.8770097113674
 30
0.0
 40
4.0
  0
LINE
  5
882
330
18
100
AcDbEntity
  8
1
  6
Continuous
100
AcDbLine
 10
153.6692485376078
 20
172.9488057113676
 30
0.0
 11
147.6692485376078
 21
176.4129077113675
 31
0.0
  0
LINE
  5
883
330
18
100
AcDbEntity
  8
1
  6
Continuous
100
AcDbLine
 10
147.6692485376078
 20
183.3411107113674
 30
0.0
 11
147.6692485376078
 21
176.4129077113675
 31
0.0
  0
LINE
  5
885
330
18
100
AcDbEntity
  8
1
  6
Continuous
100
AcDbLine
 10
159.6692485376079
 20
183.3411107113674
 30
0.0
 11
159.6692485376079
 21
176.4129077113675
 31
0.0
  0
LINE
  5
886
330
18
100
AcDbEntity
  8
1
  6
Continuous
100
AcDbLine
 10
153.6692485376078
 20
172.9488057113676
 30
0.0
 11
159.6692485376079
 21
176.4129077113675
 31
0.0
  0
LINE
  5
88A
330
18
100
AcDbEntity
  8
1
  6
Continuous
100
AcDbLine
 10
146.6692485376078
 20
224.3770097113676
 30
0.0
 11
146.6692485376078
 21
222.0770097113674
 31
0.0
  0
LINE
  5
88B
330
18
100
AcDbEntity
  8
1
  6
Continuous
100
AcDbLine
 10
149.8047735376078
 20
222.0770097113674
 30
0.0
 11
146.6692485376078
 21
222.0770097113674
 31
0.0
  0
LINE
  5
88E
330
18
100
AcDbEntity
  8
4
  6
CENTER
100
AcDbLine
 10
151.6692485376078
 20
240.3770097113675
 30
0.0
 11
151.6692485376078
 21
228.0770097113676
 31
0.0
  0
LINE
  5
88F
330
18
100
AcDbEntity
  8
1
  6
Continuous
100
AcDbLine
 10
143.6692485376079
 20
235.3770097113674
 30
0.0
 11
143.6692485376079
 21
233.0770097113674
 31
0.0
  0
ARC
  5
890
330
18
100
AcDbEntity
  8
1
  6
Continuous
100
AcDbCircle
 10
155.8770515376079
 20
234.4770097113676
 30
0.0
 40
3.5
100
AcDbArc
 50
203.5781779999993
 51
270.0
  0
LINE
  5
891
330
18
100
AcDbEntity
  8
1
  6
Continuous
100
AcDbLine
 10
156.0192485376078
 20
227.8020097113676
 30
0.0
 11
155.1192485376078
 21
229.3020097113675
 31
0.0
  0
LINE
  5
892
330
18
100
AcDbEntity
  8
1
  6
Continuous
100
AcDbLine
 10
155.1192485376078
 20
229.3020097113675
 30
0.0
 11
155.6192485376078
 21
230.1020097113674
 31
0.0
  0
ARC
  5
893
330
18
100
AcDbEntity
  8
1
  6
Continuous
100
AcDbCircle
 10
161.9192485376079
 20
225.6275097113674
 30
0.0
 40
6.974499999999999
100
AcDbArc
 50
129.9139999999977
 51
140.0924020000016
  0
LINE
  5
894
330
18
100
AcDbEntity
  8
1
  6
Continuous
100
AcDbLine
 10
155.6692485376078
 20
227.8020097113676
 30
0.0
 11
155.6692485376078
 21
226.6770097113676
 31
0.0
  0
LINE
  5
895
330
18
100
AcDbEntity
  8
1
  6
Continuous
100
AcDbLine
 10
159.0810445376079
 20
227.8020097113676
 30
0.0
 11
157.4560445376079
 21
226.6770097113676
 31
0.0
  0
LINE
  5
896
330
18
100
AcDbEntity
  8
1
  6
Continuous
100
AcDbLine
 10
157.666831537608
 20
227.8020097113676
 30
0.0
 11
156.041831537608
 21
226.6770097113676
 31
0.0
  0
LINE
  5
897
330
18
100
AcDbEntity
  8
1
  6
Continuous
100
AcDbLine
 10
155.6692485376078
 20
227.2186407113676
 30
0.0
 11
156.2526175376076
 21
227.8020097113676
 31
0.0
  0
LINE
  5
898
330
18
100
AcDbEntity
  8
1
  6
Continuous
100
AcDbLine
 10
157.2452585376079
 20
227.8020097113676
 30
0.0
 11
158.8702585376079
 21
226.6770097113676
 31
0.0
  0
LINE
  5
899
330
18
100
AcDbEntity
  8
1
  6
Continuous
100
AcDbLine
 10
155.8310445376079
 20
227.8020097113676
 30
0.0
 11
157.4560445376079
 21
226.6770097113676
 31
0.0
  0
ARC
  5
8A9
330
18
100
AcDbEntity
  8
1
  6
Continuous
100
AcDbCircle
 10
199.9878245376079
 20
223.2153467113676
 30
0.0
 40
3.462340999999999
100
AcDbArc
 50
7.662534999999825
 51
91.13487600000112
  0
LINE
  5
8AA
330
18
100
AcDbEntity
  8
4
  6
CENTER
100
AcDbLine
 10
178.6692485376079
 20
240.3770097113675
 30
0.0
 11
178.6692485376079
 21
207.5691217113676
 31
0.0
  0
LINE
  5
8AD
330
18
100
AcDbEntity
  8
1
  6
Continuous
100
AcDbLine
 10
203.4192485376079
 20
219.0770097113674
 30
0.0
 11
195.563347537608
 21
219.0770097113674
 31
0.0
  0
LINE
  5
8B4
330
18
100
AcDbEntity
  8
1
  6
Continuous
100
AcDbLine
 10
187.0039425376079
 20
214.2477517113676
 30
0.0
 11
171.3336858932144
 21
187.9883165101525
 31
0.0
  0
ARC
  5
8D1
330
18
100
AcDbEntity
  8
1
  6
Continuous
100
AcDbCircle
 10
195.563347537608
 20
209.0770097113674
 30
0.0
 40
10.0
100
AcDbArc
 50
90.0
 51
148.8638010000006
  0
ARC
  5
8D2
330
18
100
AcDbEntity
  8
1
  6
Continuous
100
AcDbCircle
 10
190.0658165376079
 20
224.6650437113676
 30
0.0
 40
7.848514999999999
100
AcDbArc
 50
270.9161380000021
 51
314.6032539999991
  0
LINE
  5
8D3
330
18
100
AcDbEntity
  8
1
  6
Continuous
100
AcDbLine
 10
190.191306537608
 20
216.8175317113675
 30
0.0
 11
189.2321305376079
 21
216.8175317113675
 31
0.0
  0
LINE
  5
8D6
330
18
100
AcDbEntity
  8
1
  6
Continuous
100
AcDbLine
 10
203.4192485376079
 20
223.6770097113676
 30
0.0
 11
203.4192485376079
 21
219.0770097113674
 31
0.0
  0
LINE
  5
8D9
330
18
100
AcDbEntity
  8
1
  6
Continuous
100
AcDbLine
 10
200.0932375376079
 20
227.8020097113676
 30
0.0
 11
198.4682375376079
 21
226.6770097113676
 31
0.0
  0
LINE
  5
8DA
330
18
100
AcDbEntity
  8
1
  6
Continuous
100
AcDbLine
 10
198.257451537608
 20
227.8020097113676
 30
0.0
 11
199.882451537608
 21
226.6770097113676
 31
0.0
  0
LINE
  5
8DB
330
18
100
AcDbEntity
  8
1
  6
Continuous
100
AcDbLine
 10
180.2942485376079
 20
227.8020097113676
 30
0.0
 11
178.6692485376079
 21
226.6770097113676
 31
0.0
  0
LINE
  5
8DC
330
18
100
AcDbEntity
  8
1
  6
Continuous
100
AcDbLine
 10
178.458461537608
 20
227.8020097113676
 30
0.0
 11
180.0834615376078
 21
226.6770097113676
 31
0.0
  0
LINE
  5
8DD
330
18
100
AcDbEntity
  8
1
  6
Continuous
100
AcDbLine
 10
170.3947535376079
 20
227.8020097113676
 30
0.0
 11
168.7697535376079
 21
226.6770097113676
 31
0.0
  0
LINE
  5
8DE
330
18
100
AcDbEntity
  8
1
  6
Continuous
100
AcDbLine
 10
168.5589665376078
 20
227.8020097113676
 30
0.0
 11
170.1839665376078
 21
226.6770097113676
 31
0.0
  0
LINE
  5
8DF
330
18
100
AcDbEntity
  8
1
  6
Continuous
100
AcDbLine
 10
166.1521125376077
 20
227.8020097113676
 30
0.0
 11
164.5271125376079
 21
226.6770097113676
 31
0.0
  0
LINE
  5
8E0
330
18
100
AcDbEntity
  8
1
  6
Continuous
100
AcDbLine
 10
164.316326537608
 20
227.8020097113676
 30
0.0
 11
165.941326537608
 21
226.6770097113676
 31
0.0
  0
LINE
  5
8E1
330
18
100
AcDbEntity
  8
1
  6
Continuous
100
AcDbLine
 10
161.9094715376079
 20
227.8020097113676
 30
0.0
 11
160.2844715376078
 21
226.6770097113676
 31
0.0
  0
LINE
  5
8E2
330
18
100
AcDbEntity
  8
1
  6
Continuous
100
AcDbLine
 10
161.4878985376078
 20
227.8020097113676
 30
0.0
 11
163.1128985376078
 21
226.6770097113676
 31
0.0
  0
LINE
  5
8E3
330
18
100
AcDbEntity
  8
1
  6
Continuous
100
AcDbLine
 10
164.7378985376076
 20
227.8020097113676
 30
0.0
 11
163.1128985376078
 21
226.6770097113676
 31
0.0
  0
LINE
  5
8E4
330
18
100
AcDbEntity
  8
1
  6
Continuous
100
AcDbLine
 10
163.3236855376078
 20
227.8020097113676
 30
0.0
 11
161.6986855376079
 21
226.6770097113676
 31
0.0
  0
LINE
  5
8E5
330
18
100
AcDbEntity
  8
1
  6
Continuous
100
AcDbLine
 10
162.9021125376078
 20
227.8020097113676
 30
0.0
 11
164.5271125376079
 21
226.6770097113676
 31
0.0
  0
LINE
  5
8E6
330
18
100
AcDbEntity
  8
1
  6
Continuous
100
AcDbLine
 10
165.7305395376079
 20
227.8020097113676
 30
0.0
 11
167.3555395376079
 21
226.6770097113676
 31
0.0
  0
LINE
  5
8E7
330
18
100
AcDbEntity
  8
1
  6
Continuous
100
AcDbLine
 10
168.9805395376079
 20
227.8020097113676
 30
0.0
 11
167.3555395376079
 21
226.6770097113676
 31
0.0
  0
LINE
  5
8E8
330
18
100
AcDbEntity
  8
1
  6
Continuous
100
AcDbLine
 10
167.566326537608
 20
227.8020097113676
 30
0.0
 11
165.941326537608
 21
226.6770097113676
 31
0.0
  0
LINE
  5
8E9
330
18
100
AcDbEntity
  8
1
  6
Continuous
100
AcDbLine
 10
167.1447535376079
 20
227.8020097113676
 30
0.0
 11
168.7697535376079
 21
226.6770097113676
 31
0.0
  0
LINE
  5
8EA
330
18
100
AcDbEntity
  8
1
  6
Continuous
100
AcDbLine
 10
176.051607537608
 20
227.8020097113676
 30
0.0
 11
174.4266075376079
 21
226.6770097113676
 31
0.0
  0
LINE
  5
8EB
330
18
100
AcDbEntity
  8
1
  6
Continuous
100
AcDbLine
 10
174.215821537608
 20
227.8020097113676
 30
0.0
 11
175.840821537608
 21
226.6770097113676
 31
0.0
  0
LINE
  5
8EC
330
18
100
AcDbEntity
  8
1
  6
Continuous
100
AcDbLine
 10
174.6373935376078
 20
227.8020097113676
 30
0.0
 11
173.0123935376079
 21
226.6770097113676
 31
0.0
  0
LINE
  5
8ED
330
18
100
AcDbEntity
  8
1
  6
Continuous
100
AcDbLine
 10
173.2231805376079
 20
227.8020097113676
 30
0.0
 11
171.5981805376079
 21
226.6770097113676
 31
0.0
  0
LINE
  5
8EE
330
18
100
AcDbEntity
  8
1
  6
Continuous
100
AcDbLine
 10
172.8016075376079
 20
227.8020097113676
 30
0.0
 11
174.4266075376079
 21
226.6770097113676
 31
0.0
  0
LINE
  5
8EF
330
18
100
AcDbEntity
  8
1
  6
Continuous
100
AcDbLine
 10
171.8089665376079
 20
227.8020097113676
 30
0.0
 11
170.1839665376078
 21
226.6770097113676
 31
0.0
  0
LINE
  5
8F0
330
18
100
AcDbEntity
  8
1
  6
Continuous
100
AcDbLine
 10
171.3873935376078
 20
227.8020097113676
 30
0.0
 11
173.0123935376079
 21
226.6770097113676
 31
0.0
  0
LINE
  5
8F1
330
18
100
AcDbEntity
  8
1
  6
Continuous
100
AcDbLine
 10
169.9731805376079
 20
227.8020097113676
 30
0.0
 11
171.5981805376079
 21
226.6770097113676
 31
0.0
  0
LINE
  5
8F2
330
18
100
AcDbEntity
  8
1
  6
Continuous
100
AcDbLine
 10
178.8800345376079
 20
227.8020097113676
 30
0.0
 11
177.2550345376079
 21
226.6770097113676
 31
0.0
  0
LINE
  5
8F3
330
18
100
AcDbEntity
  8
1
  6
Continuous
100
AcDbLine
 10
177.465821537608
 20
227.8020097113676
 30
0.0
 11
175.840821537608
 21
226.6770097113676
 31
0.0
  0
LINE
  5
8F4
330
18
100
AcDbEntity
  8
1
  6
Continuous
100
AcDbLine
 10
177.0442485376079
 20
227.8020097113676
 30
0.0
 11
178.6692485376079
 21
226.6770097113676
 31
0.0
  0
LINE
  5
8F5
330
18
100
AcDbEntity
  8
1
  6
Continuous
100
AcDbLine
 10
175.6300345376079
 20
227.8020097113676
 30
0.0
 11
177.2550345376079
 21
226.6770097113676
 31
0.0
  0
LINE
  5
8F6
330
18
100
AcDbEntity
  8
1
  6
Continuous
100
AcDbLine
 10
190.1937435376079
 20
227.8020097113676
 30
0.0
 11
188.5687435376079
 21
226.6770097113676
 31
0.0
  0
LINE
  5
8F7
330
18
100
AcDbEntity
  8
1
  6
Continuous
100
AcDbLine
 10
188.3579565376079
 20
227.8020097113676
 30
0.0
 11
189.9829565376079
 21
226.6770097113676
 31
0.0
  0
LINE
  5
8F8
330
18
100
AcDbEntity
  8
1
  6
Continuous
100
AcDbLine
 10
185.9511025376079
 20
227.8020097113676
 30
0.0
 11
184.3261025376079
 21
226.6770097113676
 31
0.0
  0
LINE
  5
8F9
330
18
100
AcDbEntity
  8
1
  6
Continuous
100
AcDbLine
 10
184.1153155376078
 20
227.8020097113676
 30
0.0
 11
185.7403155376078
 21
226.6770097113676
 31
0.0
  0
LINE
  5
8FA
330
18
100
AcDbEntity
  8
1
  6
Continuous
100
AcDbLine
 10
184.5368885376079
 20
227.8020097113676
 30
0.0
 11
182.9118885376079
 21
226.6770097113676
 31
0.0
  0
LINE
  5
8FB
330
18
100
AcDbEntity
  8
1
  6
Continuous
100
AcDbLine
 10
181.708461537608
 20
227.8020097113676
 30
0.0
 11
180.0834615376078
 21
226.6770097113676
 31
0.0
  0
LINE
  5
8FC
330
18
100
AcDbEntity
  8
1
  6
Continuous
100
AcDbLine
 10
183.1226755376079
 20
227.8020097113676
 30
0.0
 11
181.4976755376079
 21
226.6770097113676
 31
0.0
  0
LINE
  5
8FD
330
18
100
AcDbEntity
  8
1
  6
Continuous
100
AcDbLine
 10
179.8726755376079
 20
227.8020097113676
 30
0.0
 11
181.4976755376079
 21
226.6770097113676
 31
0.0
  0
LINE
  5
8FE
330
18
100
AcDbEntity
  8
1
  6
Continuous
100
AcDbLine
 10
181.2868885376079
 20
227.8020097113676
 30
0.0
 11
182.9118885376079
 21
226.6770097113676
 31
0.0
  0
LINE
  5
8FF
330
18
100
AcDbEntity
  8
1
  6
Continuous
100
AcDbLine
 10
182.701102537608
 20
227.8020097113676
 30
0.0
 11
184.3261025376079
 21
226.6770097113676
 31
0.0
  0
LINE
  5
900
330
18
100
AcDbEntity
  8
1
  6
Continuous
100
AcDbLine
 10
187.3653155376079
 20
227.8020097113676
 30
0.0
 11
185.7403155376078
 21
226.6770097113676
 31
0.0
  0
LINE
  5
901
330
18
100
AcDbEntity
  8
1
  6
Continuous
100
AcDbLine
 10
185.5295295376079
 20
227.8020097113676
 30
0.0
 11
187.1545295376079
 21
226.6770097113676
 31
0.0
  0
LINE
  5
902
330
18
100
AcDbEntity
  8
1
  6
Continuous
100
AcDbLine
 10
188.7795295376079
 20
227.8020097113676
 30
0.0
 11
187.1545295376079
 21
226.6770097113676
 31
0.0
  0
LINE
  5
903
330
18
100
AcDbEntity
  8
1
  6
Continuous
100
AcDbLine
 10
186.9437435376079
 20
227.8020097113676
 30
0.0
 11
188.5687435376079
 21
226.6770097113676
 31
0.0
  0
LINE
  5
904
330
18
100
AcDbEntity
  8
1
  6
Continuous
100
AcDbLine
 10
194.436383537608
 20
227.8020097113676
 30
0.0
 11
192.8113835376079
 21
226.6770097113676
 31
0.0
  0
LINE
  5
905
330
18
100
AcDbEntity
  8
1
  6
Continuous
100
AcDbLine
 10
192.6005975376078
 20
227.8020097113676
 30
0.0
 11
194.2255975376076
 21
226.6770097113676
 31
0.0
  0
LINE
  5
906
330
18
100
AcDbEntity
  8
1
  6
Continuous
100
AcDbLine
 10
191.6079565376079
 20
227.8020097113676
 30
0.0
 11
189.9829565376079
 21
226.6770097113676
 31
0.0
  0
LINE
  5
907
330
18
100
AcDbEntity
  8
1
  6
Continuous
100
AcDbLine
 10
189.7721705376079
 20
227.8020097113676
 30
0.0
 11
191.3971705376079
 21
226.6770097113676
 31
0.0
  0
LINE
  5
908
330
18
100
AcDbEntity
  8
1
  6
Continuous
100
AcDbLine
 10
193.0221705376079
 20
227.8020097113676
 30
0.0
 11
191.3971705376079
 21
226.6770097113676
 31
0.0
  0
LINE
  5
909
330
18
100
AcDbEntity
  8
1
  6
Continuous
100
AcDbLine
 10
191.1863835376079
 20
227.8020097113676
 30
0.0
 11
192.8113835376079
 21
226.6770097113676
 31
0.0
  0
LINE
  5
90A
330
18
100
AcDbEntity
  8
1
  6
Continuous
100
AcDbLine
 10
198.6790245376079
 20
227.8020097113676
 30
0.0
 11
197.054024537608
 21
226.6770097113676
 31
0.0
  0
LINE
  5
90B
330
18
100
AcDbEntity
  8
1
  6
Continuous
100
AcDbLine
 10
196.843237537608
 20
227.8020097113676
 30
0.0
 11
198.4682375376079
 21
226.6770097113676
 31
0.0
  0
LINE
  5
90C
330
18
100
AcDbEntity
  8
1
  6
Continuous
100
AcDbLine
 10
195.850597537608
 20
227.8020097113676
 30
0.0
 11
194.2255975376076
 21
226.6770097113676
 31
0.0
  0
LINE
  5
90D
330
18
100
AcDbEntity
  8
1
  6
Continuous
100
AcDbLine
 10
194.0148105376079
 20
227.8020097113676
 30
0.0
 11
195.6398105376079
 21
226.6770097113676
 31
0.0
  0
LINE
  5
90E
330
18
100
AcDbEntity
  8
1
  6
Continuous
100
AcDbLine
 10
197.2648105376079
 20
227.8020097113676
 30
0.0
 11
195.6398105376079
 21
226.6770097113676
 31
0.0
  0
LINE
  5
90F
330
18
100
AcDbEntity
  8
1
  6
Continuous
100
AcDbLine
 10
195.4290245376076
 20
227.8020097113676
 30
0.0
 11
197.054024537608
 21
226.6770097113676
 31
0.0
  0
LINE
  5
916
330
18
100
AcDbEntity
  8
4
  6
CENTER
100
AcDbLine
 10
205.6692485376079
 20
240.3770097113675
 30
0.0
 11
205.6692485376079
 21
228.0770097113676
 31
0.0
  0
ARC
  5
917
330
18
100
AcDbEntity
  8
1
  6
Continuous
100
AcDbCircle
 10
201.4614455376078
 20
234.4770097113676
 30
0.0
 40
3.5
100
AcDbArc
 50
270.0
 51
336.4218220000005
  0
ARC
  5
918
330
18
100
AcDbEntity
  8
1
  6
Continuous
100
AcDbCircle
 10
195.4192485376079
 20
225.6275097113674
 30
0.0
 40
6.974499999999999
100
AcDbArc
 50
39.90759799999828
 51
50.08600000000214
  0
LINE
  5
919
330
18
100
AcDbEntity
  8
1
  6
Continuous
100
AcDbLine
 10
201.3192485376078
 20
227.8020097113676
 30
0.0
 11
202.219248537608
 21
229.3020097113675
 31
0.0
  0
LINE
  5
91A
330
18
100
AcDbEntity
  8
1
  6
Continuous
100
AcDbLine
 10
201.6692485376079
 20
227.8020097113676
 30
0.0
 11
201.6692485376079
 21
226.6770097113676
 31
0.0
  0
LINE
  5
91B
330
18
100
AcDbEntity
  8
1
  6
Continuous
100
AcDbLine
 10
201.0858785376079
 20
227.8020097113676
 30
0.0
 11
201.6692485376079
 21
227.2186407113676
 31
0.0
  0
LINE
  5
91C
330
18
100
AcDbEntity
  8
1
  6
Continuous
100
AcDbLine
 10
201.5074515376079
 20
227.8020097113676
 30
0.0
 11
199.882451537608
 21
226.6770097113676
 31
0.0
  0
LINE
  5
91D
330
18
100
AcDbEntity
  8
1
  6
Continuous
100
AcDbLine
 10
199.6716655376079
 20
227.8020097113676
 30
0.0
 11
201.2966655376079
 21
226.6770097113676
 31
0.0
  0
LINE
  5
91E
330
18
100
AcDbEntity
  8
1
  6
Continuous
100
AcDbLine
 10
202.219248537608
 20
229.3020097113675
 30
0.0
 11
201.7192485376078
 21
230.1020097113674
 31
0.0
  0
LINE
  5
91F
330
18
100
AcDbEntity
  8
1
  6
Continuous
100
AcDbLine
 10
213.6692485376079
 20
235.3770097113674
 30
0.0
 11
213.6692485376079
 21
233.0770097113674
 31
0.0
  0
LINE
  5
920
330
18
100
AcDbEntity
  8
1
  6
Continuous
100
AcDbLine
 10
206.6692485376079
 20
337.6490177113673
 30
0.0
 11
150.6692485376079
 21
337.6490177113673
 31
0.0
  0
CIRCLE
  5
921
330
18
100
AcDbEntity
  8
1
  6
Continuous
100
AcDbCircle
 10
178.6692485376078
 20
310.6490177113673
 30
0.0
 40
20.89999999999998
  0
LINE
  5
922
330
18
100
AcDbEntity
  8
4
  6
CENTER
100
AcDbLine
 10
218.9691735376079
 20
310.6490177113673
 30
0.0
 11
111.1692395376078
 21
310.6490177113673
 31
0.0
  0
LINE
  5
924
330
18
100
AcDbEntity
  8
1
  6
Continuous
100
AcDbLine
 10
114.8947425376077
 20
298.1490177113673
 30
0.0
 11
143.6691735376078
 21
298.1490177113673
 31
0.0
  0
LINE
  5
925
330
18
100
AcDbEntity
  8
1
  6
Continuous
100
AcDbLine
 10
143.6691735376078
 20
323.1490177113673
 30
0.0
 11
118.447853537608
 21
323.1490177113673
 31
0.0
  0
ARC
  5
926
330
18
100
AcDbEntity
  8
1
  6
Continuous
100
AcDbCircle
 10
316.1692485376078
 20
310.6490177113673
 30
0.0
 40
200.0
100
AcDbArc
 50
176.9601619999999
 51
183.0398379999999
  0
ARC
  5
927
330
18
100
AcDbEntity
  8
1
  6
Continuous
100
AcDbCircle
 10
118.4478545376079
 20
300.1490177113676
 30
0.0
 40
2.0
100
AcDbArc
 50
183.0398379999999
 51
270.0
  0
ARC
  5
929
330
18
100
AcDbEntity
  8
1
  6
Continuous
100
AcDbCircle
 10
118.4478545376079
 20
321.1490177113673
 30
0.0
 40
2.0
100
AcDbArc
 50
90.0
 51
176.9601619999999
  0
LINE
  5
92A
330
18
100
AcDbEntity
  8
1
  6
Continuous
100
AcDbLine
 10
143.6692485376079
 20
290.6490177113673
 30
0.0
 11
143.6692485376079
 21
330.6490177113676
 31
0.0
  0
CIRCLE
  5
939
330
18
100
AcDbEntity
  8
1
  6
Continuous
100
AcDbCircle
 10
151.6692485376079
 20
292.6490177113673
 30
0.0
 40
3.25
  0
LINE
  5
93A
330
18
100
AcDbEntity
  8
4
  6
CENTER
100
AcDbLine
 10
157.9192485376079
 20
292.6490177113673
 30
0.0
 11
145.4192485376079
 21
292.6490177113673
 31
0.0
  0
LINE
  5
940
330
18
100
AcDbEntity
  8
1
  6
Continuous
100
AcDbLine
 10
143.4692485376078
 20
329.4575177113675
 30
0.0
 11
143.4692485376078
 21
327.1575177113676
 31
0.0
  0
CIRCLE
  5
942
330
18
100
AcDbEntity
  8
1
  6
Continuous
100
AcDbCircle
 10
151.6692485376079
 20
328.6490177113676
 30
0.0
 40
3.25
  0
LINE
  5
943
330
18
100
AcDbEntity
  8
4
  6
CENTER
100
AcDbLine
 10
151.6692485376079
 20
322.3990177113676
 30
0.0
 11
151.6692485376079
 21
334.8990177113676
 31
0.0
  0
LINE
  5
944
330
18
100
AcDbEntity
  8
1
  6
Continuous
100
AcDbLine
 10
143.4692485376078
 20
327.1575177113676
 30
0.0
 11
143.6692485376079
 21
327.1575177113676
 31
0.0
  0
ARC
  5
947
330
18
100
AcDbEntity
  8
1
  6
Continuous
100
AcDbCircle
 10
150.6692485376079
 20
330.6490177113676
 30
0.0
 40
7.0
100
AcDbArc
 50
90.0
 51
180.0
  0
LINE
  5
948
330
18
100
AcDbEntity
  8
4
  6
CENTER
100
AcDbLine
 10
157.9192485376079
 20
328.6490177113676
 30
0.0
 11
145.4192485376079
 21
328.6490177113676
 31
0.0
  0
LINE
  5
949
330
18
100
AcDbEntity
  8
1
  6
Continuous
100
AcDbLine
 10
143.4692485376078
 20
329.4575177113675
 30
0.0
 11
143.6692485376079
 21
329.4575177113675
 31
0.0
  0
CIRCLE
  5
94B
330
18
100
AcDbEntity
  8
1
  6
Continuous
100
AcDbCircle
 10
178.6692485376078
 20
310.6490177113673
 30
0.0
 40
11.9
  0
LINE
  5
94C
330
18
100
AcDbEntity
  8
1
  6
Continuous
100
AcDbLine
 10
213.6692485376079
 20
290.6490177113673
 30
0.0
 11
213.6692485376079
 21
330.6490177113676
 31
0.0
  0
LINE
  5
94D
330
18
100
AcDbEntity
  8
4
  6
CENTER
100
AcDbLine
 10
211.9192485376079
 20
292.6490177113673
 30
0.0
 11
199.4192485376079
 21
292.6490177113673
 31
0.0
  0
CIRCLE
  5
94E
330
18
100
AcDbEntity
  8
1
  6
Continuous
100
AcDbCircle
 10
205.6692485376079
 20
292.6490177113673
 30
0.0
 40
3.25
  0
CIRCLE
  5
94F
330
18
100
AcDbEntity
  8
1
  6
Continuous
100
AcDbCircle
 10
205.6692485376079
 20
328.6490177113676
 30
0.0
 40
3.25
  0
LINE
  5
950
330
18
100
AcDbEntity
  8
4
  6
CENTER
100
AcDbLine
 10
205.6692485376079
 20
322.3990177113676
 30
0.0
 11
205.6692485376079
 21
334.8990177113676
 31
0.0
  0
LINE
  5
951
330
18
100
AcDbEntity
  8
4
  6
CENTER
100
AcDbLine
 10
211.9192485376079
 20
328.6490177113676
 30
0.0
 11
199.4192485376079
 21
328.6490177113676
 31
0.0
  0
ARC
  5
952
330
18
100
AcDbEntity
  8
1
  6
Continuous
100
AcDbCircle
 10
206.6692485376079
 20
330.6490177113676
 30
0.0
 40
7.0
100
AcDbArc
 50
0.0
 51
90.0
  0
ARC
  5
954
330
18
100
AcDbEntity
  8
1
  6
Continuous
100
AcDbCircle
 10
427.137505537608
 20
179.8770097113674
 30
0.0
 40
37.5
100
AcDbArc
 50
137.903804000001
 51
82.60460999999997
  0
LINE
  5
955
330
18
100
AcDbEntity
  8
4
  6
CENTER
100
AcDbLine
 10
427.137505537608
 20
137.3770097113675
 30
0.0
 11
427.137505537608
 21
220.3770097113676
 31
0.0
  0
ARC
  5
956
330
18
100
AcDbEntity
  8
1
  6
Continuous
100
AcDbCircle
 10
427.137505537608
 20
179.8770097113674
 30
0.0
 40
30.0
100
AcDbArc
 50
142.361955999998
 51
78.45124099999701
  0
ARC
  5
957
330
18
100
AcDbEntity
  8
1
  6
Continuous
100
AcDbCircle
 10
427.137505537608
 20
178.8770097113674
 30
0.0
 40
10.5
100
AcDbArc
 50
211.1361989999992
 51
5.464976455785372
  0
ARC
  5
95B
330
18
100
AcDbEntity
  8
1
  6
Continuous
100
AcDbCircle
 10
319.2118775376077
 20
168.7684787113674
 30
0.0
 40
10.0
100
AcDbArc
 50
153.0359779999993
 51
180.0
  0
ARC
  5
95C
330
18
100
AcDbEntity
  8
1
  6
Continuous
100
AcDbCircle
 10
319.2118775376077
 20
168.2330617113674
 30
0.0
 40
12.3
100
AcDbArc
 50
153.6771109999986
 51
179.329451
  0
LINE
  5
95D
330
18
100
AcDbEntity
  8
1
  6
Continuous
100
AcDbLine
 10
273.8948775376079
 20
167.7770097113675
 30
0.0
 11
273.8948775376077
 21
213.9734027113674
 31
0.0
  0
ARC
  5
95E
330
18
100
AcDbEntity
  8
1
  6
Continuous
100
AcDbCircle
 10
261.5948775376078
 20
168.2330617113674
 30
0.0
 40
12.3
100
AcDbArc
 50
0.6705489999999839
 51
26.32288900000123
  0
ARC
  5
960
330
18
100
AcDbEntity
  8
1
  6
Continuous
100
AcDbCircle
 10
304.153377537608
 20
172.1356597113674
 30
0.0
 40
1.5
100
AcDbArc
 50
279.9999999999986
 51
0.0
  0
ARC
  5
961
330
18
100
AcDbEntity
  8
1
  6
Continuous
100
AcDbCircle
 10
276.6533775376079
 20
172.1356597113674
 30
0.0
 40
1.5
100
AcDbArc
 50
180.0
 51
260.0000000000014
  0
LINE
  5
962
330
18
100
AcDbEntity
  8
1
  6
Continuous
100
AcDbLine
 10
306.9118775376078
 20
168.3770097113674
 30
0.0
 11
306.9118775376078
 21
213.9734027113674
 31
0.0
  0
LINE
  5
963
330
18
100
AcDbEntity
  8
1
  6
Continuous
100
AcDbLine
 10
277.9033775376079
 20
215.0984047113676
 30
0.0
 11
277.9033775376079
 21
144.6556147113675
 31
0.0
  0
LINE
  5
964
330
18
100
AcDbEntity
  8
1
  6
Continuous
100
AcDbLine
 10
302.9033775376078
 20
215.0984047113676
 30
0.0
 11
302.9033775376078
 21
144.6556147113675
 31
0.0
  0
LINE
  5
965
330
18
100
AcDbEntity
  8
4
  6
CENTER
100
AcDbLine
 10
290.4033775376078
 20
240.3770097113675
 30
0.0
 11
290.4033775376078
 21
137.3770097113675
 31
0.0
  0
LINE
  5
969
330
18
100
AcDbEntity
  8
1
  6
Continuous
100
AcDbLine
 10
144.8235605376078
 20
191.5976997113674
 30
0.0
 11
144.0588445376078
 21
186.6565257113675
 31
0.0
  0
ARC
  5
96A
330
18
100
AcDbEntity
  8
1
  6
Continuous
100
AcDbCircle
 10
175.0183295376076
 20
255.0328487113675
 30
0.0
 40
90.0
100
AcDbArc
 50
248.4512380000014
 51
276.5710999999995
  0
LINE
  5
96B
330
18
100
AcDbEntity
  8
1
  6
Continuous
100
AcDbLine
 10
154.2667865376078
 20
195.4021927113674
 30
0.0
 11
114.4345585376078
 21
195.4024317113674
 31
0.0
  0
LINE
  5
96C
330
18
100
AcDbEntity
  8
1
  6
Continuous
100
AcDbLine
 10
114.4271925376077
 20
193.1024317113674
 30
0.0
 11
154.4659805376078
 21
193.1024017113674
 31
0.0
  0
LINE
  5
96D
330
18
100
AcDbEntity
  8
1
  6
Continuous
100
AcDbLine
 10
144.8235605376078
 20
191.5976997113674
 30
0.0
 11
141.5623855376078
 21
192.1024107113675
 31
0.0
  0
ARC
  5
973
330
18
100
AcDbEntity
  8
5
  6
PHANTOM
100
AcDbCircle
 10
145.4243595376077
 20
152.7675897113675
 30
0.0
 40
15.0
100
AcDbArc
 50
88.95123799999771
 51
124.3978109999975
  0
LINE
  5
974
330
18
100
AcDbEntity
  8
5
  6
PHANTOM
100
AcDbLine
 10
148.7919115376078
 20
194.6282797113674
 30
0.0
 11
111.4820885376078
 21
180.6789627113674
 31
0.0
  0
LINE
  5
975
330
18
100
AcDbEntity
  8
5
  6
PHANTOM
100
AcDbLine
 10
112.2806655376078
 20
178.5220367113676
 30
0.0
 11
149.7838955376078
 21
192.5438877113676
 31
0.0
  0
ARC
  5
976
330
18
100
AcDbEntity
  8
1
  6
Continuous
100
AcDbCircle
 10
290.4033775376078
 20
342.3770097113676
 30
0.0
 40
200.0
100
AcDbArc
 50
266.9601619999983
 51
273.0398380000014
  0
ARC
  5
977
330
18
100
AcDbEntity
  8
1
  6
Continuous
100
AcDbCircle
 10
279.9033775376079
 20
144.6556147113675
 30
0.0
 40
2.0
100
AcDbArc
 50
180.0
 51
266.9601619999983
  0
LINE
  5
980
330
18
100
AcDbEntity
  8
1
  6
Continuous
100
AcDbLine
 10
276.3929045376079
 20
170.6584477113676
 30
0.0
 11
277.9033775376079
 21
170.3921107113675
 31
0.0
  0
ARC
  5
983
330
18
100
AcDbEntity
  8
1
  6
Continuous
100
AcDbCircle
 10
300.9033775376078
 20
144.6556147113675
 30
0.0
 40
2.0
100
AcDbArc
 50
273.0398380000014
 51
0.0
  0
LINE
  5
984
330
18
100
AcDbEntity
  8
1
  6
Continuous
100
AcDbLine
 10
304.4138495376078
 20
170.6584477113676
 30
0.0
 11
302.9033775376078
 21
170.3921107113675
 31
0.0
  0
LINE
  5
985
330
18
100
AcDbEntity
  8
1
  6
Continuous
100
AcDbLine
 10
309.2118775376078
 20
168.3770097113674
 30
0.0
 11
309.2118775376078
 21
168.7684787113674
 31
0.0
  0
LINE
  5
986
330
18
100
AcDbEntity
  8
1
  6
Continuous
100
AcDbLine
 10
306.9118775376078
 20
168.3770097113674
 30
0.0
 11
309.2118775376078
 21
168.3770097113674
 31
0.0
  0
LINE
  5
987
330
18
100
AcDbEntity
  8
1
  6
Continuous
100
AcDbLine
 10
306.9118775376078
 20
170.4328277113676
 30
0.0
 11
306.9118775376078
 21
168.3770097113674
 31
0.0
  0
ARC
  5
98E
330
18
100
AcDbEntity
  8
1
  6
Continuous
100
AcDbCircle
 10
125.3906405376077
 20
181.6719437113675
 30
0.0
 40
11.0
100
AcDbArc
 50
179.8165
 51
278.1569680000026
  0
LINE
  5
98F
330
18
100
AcDbEntity
  8
5
  6
PHANTOM
100
AcDbLine
 10
130.7056175376077
 20
176.2799527113674
 30
0.0
 11
115.2320295376078
 21
170.5508937113674
 31
0.0
  0
ARC
  5
990
330
18
100
AcDbEntity
  8
5
  6
PHANTOM
100
AcDbCircle
 10
132.5811875376078
 20
176.9743887113674
 30
0.0
 40
4.0
100
AcDbArc
 50
290.3172220000025
 51
20.31722200000011
  0
LINE
  5
991
330
18
100
AcDbEntity
  8
5
  6
PHANTOM
100
AcDbLine
 10
111.4820885376078
 20
180.6789627113674
 30
0.0
 11
116.2372145376078
 21
167.8355547113674
 31
0.0
  0
LINE
  5
992
330
18
100
AcDbEntity
  8
5
  6
PHANTOM
100
AcDbLine
 10
116.6208995376079
 20
166.7997547113674
 30
0.0
 11
133.9700575376078
 21
173.2232497113674
 31
0.0
  0
ARC
  5
993
330
18
100
AcDbEntity
  8
5
  6
PHANTOM
100
AcDbCircle
 10
126.5528635376077
 20
171.6548977113674
 30
0.0
 40
11.0
100
AcDbArc
 50
200.3164999999988
 51
298.656968
  0
ARC
  5
994
330
18
100
AcDbEntity
  8
5
  6
PHANTOM
100
AcDbCircle
 10
103.0541995376077
 20
214.6527207113674
 30
0.0
 40
60.0
100
AcDbArc
 50
298.656968
 51
304.3978109999974
  0
ARC
  5
995
330
18
100
AcDbEntity
  8
1
  6
Continuous
100
AcDbCircle
 10
136.4525715376079
 20
157.3717907113674
 30
0.0
 40
15.0
100
AcDbArc
 50
68.45123800000138
 51
103.8978110000015
  0
ARC
  5
996
330
18
100
AcDbEntity
  8
1
  6
Continuous
100
AcDbCircle
 10
118.4382495376079
 20
230.1762147113675
 30
0.0
 40
60.0
100
AcDbArc
 50
278.1569680000026
 51
283.8978110000013
  0
LINE
  5
997
330
18
100
AcDbEntity
  8
1
  6
Continuous
100
AcDbLine
 10
130.9001385376076
 20
184.5497797113674
 30
0.0
 11
114.4000995376078
 21
184.6024947113674
 31
0.0
  0
LINE
  5
998
330
18
100
AcDbEntity
  8
1
  6
Continuous
100
AcDbLine
 10
114.4427667370235
 20
180.6023366589955
 30
0.0
 11
132.8873675376079
 21
180.5434197113675
 31
0.0
  0
LINE
  5
999
330
18
100
AcDbEntity
  8
1
  6
Continuous
100
AcDbLine
 10
114.4345585376078
 20
195.4024317113674
 30
0.0
 11
114.3906965376078
 21
181.7070887113675
 31
0.0
  0
LINE
  5
99A
330
18
100
AcDbEntity
  8
1
  6
Continuous
100
AcDbLine
 10
132.9272435376076
 20
193.0433427113675
 30
0.0
 11
132.9065085376077
 21
186.5433897113675
 31
0.0
  0
LINE
  5
99B
330
18
100
AcDbEntity
  8
1
  6
Continuous
100
AcDbLine
 10
136.9272235376078
 20
193.0305647113675
 30
0.0
 11
136.9001075376077
 21
184.5306397113674
 31
0.0
  0
LINE
  5
99C
330
18
100
AcDbEntity
  8
1
  6
Continuous
100
AcDbLine
 10
141.5623855376078
 20
192.1024137113674
 30
0.0
 11
140.7976685376078
 21
187.1612367113674
 31
0.0
  0
ARC
  5
99D
330
18
100
AcDbEntity
  8
1
  6
Continuous
100
AcDbCircle
 10
132.9001285376077
 20
184.5433997113675
 30
0.0
 40
4.0
100
AcDbArc
 50
269.8172220000027
 51
359.8172220000003
  0
LINE
  5
99E
330
18
100
AcDbEntity
  8
5
  6
PHANTOM
100
AcDbLine
 10
133.3809875376075
 20
186.3343987113674
 30
0.0
 11
136.3323255376077
 21
178.3632587113674
 31
0.0
  0
LINE
  5
99F
330
18
100
AcDbEntity
  8
5
  6
PHANTOM
100
AcDbLine
 10
129.6298425376078
 20
184.9455447113674
 30
0.0
 11
131.8867525376077
 21
178.8499577113674
 31
0.0
  0
ARC
  5
9A0
330
18
100
AcDbEntity
  8
5
  6
PHANTOM
100
AcDbCircle
 10
130.0111825376077
 20
178.1555227113674
 30
0.0
 40
2.0
100
AcDbArc
 50
290.3172220000025
 51
20.31722200000011
  0
LINE
  5
9A1
330
18
100
AcDbEntity
  8
5
  6
PHANTOM
100
AcDbLine
 10
128.3422795376077
 20
186.9827147113675
 30
0.0
 11
129.1408565376078
 21
184.8257897113674
 31
0.0
  0
ARC
  5
9A2
330
18
100
AcDbEntity
  8
1
  6
Continuous
100
AcDbCircle
 10
130.9065185376079
 20
186.5497697113674
 30
0.0
 40
2.0
100
AcDbArc
 50
269.8172220000027
 51
359.8172220000003
  0
LINE
  5
9A3
330
18
100
AcDbEntity
  8
5
  6
PHANTOM
100
AcDbLine
 10
138.0476605376078
 20
187.0882927113675
 30
0.0
 11
139.0618075376077
 21
182.1922197113675
 31
0.0
  0
LINE
  5
9A4
330
18
100
AcDbEntity
  8
5
  6
PHANTOM
100
AcDbLine
 10
142.2932165376075
 20
182.8615597113676
 30
0.0
 11
139.0618105376078
 21
182.1922207113674
 31
0.0
  0
LINE
  5
9A5
330
18
100
AcDbEntity
  8
5
  6
PHANTOM
100
AcDbLine
 10
141.2790665376076
 20
187.7576297113674
 30
0.0
 11
138.0476605376078
 21
187.0882907113674
 31
0.0
  0
LINE
  5
9A6
330
18
100
AcDbEntity
  8
1
  6
Continuous
100
AcDbLine
 10
144.0588475376079
 20
186.6565247113674
 30
0.0
 11
140.7976715376078
 21
187.1612357113674
 31
0.0
  0
LINE
  5
9A7
330
18
100
AcDbEntity
  8
5
  6
PHANTOM
100
AcDbLine
 10
141.2790665376076
 20
187.7576297113674
 30
0.0
 11
142.2932135376078
 21
182.8615587113674
 31
0.0
  0
LINE
  5
9A8
330
18
100
AcDbEntity
  8
1
  6
Continuous
100
AcDbLine
 10
132.4346505376078
 20
195.4024177113675
 30
0.0
 11
132.4272845376077
 21
193.1024177113674
 31
0.0
  0
LINE
  5
9B8
330
18
100
AcDbEntity
  8
5
  6
PHANTOM
100
AcDbLine
 10
186.5510555376079
 20
203.7597467113674
 30
0.0
 11
186.5796745376077
 21
198.5908237113676
 31
0.0
  0
LINE
  5
9B9
330
18
100
AcDbEntity
  8
5
  6
PHANTOM
100
AcDbLine
 10
204.5507895376079
 20
203.8594047113674
 30
0.0
 11
204.5829395376079
 21
198.0527077113675
 31
0.0
  0
LINE
  5
9BA
330
18
100
AcDbEntity
  8
1
  6
Continuous
100
AcDbLine
 10
186.8735815376079
 20
187.5735757113674
 30
0.0
 11
181.0755695376077
 21
187.7254027113674
 31
0.0
  0
LINE
  5
9BB
330
18
100
AcDbEntity
  8
1
  6
Continuous
100
AcDbLine
 10
181.3906965376077
 20
181.2630607113675
 30
0.0
 11
196.3906965376077
 21
181.2630607113675
 31
0.0
  0
LINE
  5
9BC
330
18
100
AcDbEntity
  8
1
  6
Continuous
100
AcDbLine
 10
181.3906965376077
 20
171.2630607113674
 30
0.0
 11
196.3906965376077
 21
171.2630607113674
 31
0.0
  0
ARC
  5
9BD
330
18
100
AcDbEntity
  8
5
  6
PHANTOM
100
AcDbCircle
 10
147.3462095376079
 20
257.7499997113674
 30
0.0
 40
90.0
100
AcDbArc
 50
268.9512379999976
 51
297.0711000000017
  0
LINE
  5
9BE
330
18
100
AcDbEntity
  8
5
  6
PHANTOM
100
AcDbLine
 10
182.8122285376078
 20
196.5747537113674
 30
0.0
 11
185.9052575376076
 21
197.6397687113674
 31
0.0
  0
LINE
  5
9BF
330
18
100
AcDbEntity
  8
5
  6
PHANTOM
100
AcDbLine
 10
179.1497525376079
 20
190.8835417113674
 30
0.0
 11
193.1998355376077
 21
196.1366527113675
 31
0.0
  0
LINE
  5
9C0
330
18
100
AcDbEntity
  8
5
  6
PHANTOM
100
AcDbLine
 10
182.6518265376079
 20
181.5168197113674
 30
0.0
 11
196.7019095376076
 21
186.7699307113674
 31
0.0
  0
ARC
  5
9C5
330
18
100
AcDbEntity
  8
1
  6
Continuous
100
AcDbCircle
 10
146.6199765376075
 20
179.5917297113675
 30
0.0
 40
14.55499999999999
100
AcDbArc
 50
303.0374000000028
 51
68.1635840000013
  0
ARC
  5
9C6
330
18
100
AcDbEntity
  8
1
  6
Continuous
100
AcDbCircle
 10
144.6692525376078
 20
179.9057347113675
 30
0.0
 40
24.7
100
AcDbArc
 50
324.6447029999985
 51
20.26260100000136
  0
ARC
  5
9C7
330
18
100
AcDbEntity
  8
1
  6
Continuous
100
AcDbCircle
 10
181.3906965376077
 20
176.2630607113675
 30
0.0
 40
5.0
100
AcDbArc
 50
90.0
 51
270.0
  0
ARC
  5
9C8
330
18
100
AcDbEntity
  8
5
  6
PHANTOM
100
AcDbCircle
 10
147.1662995376078
 20
177.1410897113675
 30
0.0
 40
14.55499999999999
100
AcDbArc
 50
323.5373999999986
 51
88.66358400000043
  0
ARC
  5
9C9
330
18
100
AcDbEntity
  8
5
  6
PHANTOM
100
AcDbCircle
 10
145.2291435376079
 20
176.7520507113674
 30
0.0
 40
24.7
100
AcDbArc
 50
345.1447029999984
 51
40.76260099999953
  0
LINE
  5
9CA
330
18
100
AcDbEntity
  8
1
  6
Continuous
100
AcDbLine
 10
162.4849335376078
 20
191.1816977113675
 30
0.0
 11
173.3423425376078
 21
185.6640117113675
 31
0.0
  0
ARC
  5
9CB
330
18
100
AcDbEntity
  8
1
  6
Continuous
100
AcDbCircle
 10
154.1863755376079
 20
172.3384327113674
 30
0.0
 40
23.06389999999999
100
AcDbArc
 50
48.93247400000301
 51
90.19907399999999
  0
LINE
  5
9CC
330
18
100
AcDbEntity
  8
5
  6
PHANTOM
100
AcDbLine
 10
157.9676705376076
 20
193.5531147113675
 30
0.0
 11
170.0698385376075
 21
192.1871967113674
 31
0.0
  0
ARC
  5
9CD
330
18
100
AcDbEntity
  8
5
  6
PHANTOM
100
AcDbCircle
 10
156.7936925376077
 20
172.9969367113674
 30
0.0
 40
23.06389999999999
100
AcDbArc
 50
69.43247399999894
 51
110.6990740000017
  0
ARC
  5
9DD
330
18
100
AcDbEntity
  8
5
  6
PHANTOM
100
AcDbCircle
 10
155.9825535376076
 20
175.9647857113674
 30
0.0
 40
17.7
100
AcDbArc
 50
83.56053099999959
 51
110.4999569999975
  0
ARC
  5
9E0
330
18
100
AcDbEntity
  8
1
  6
Continuous
100
AcDbCircle
 10
154.4659675376077
 20
175.4024017113675
 30
0.0
 40
17.7
100
AcDbArc
 50
63.06053099999898
 51
89.99995699999827
  0
LINE
  5
9E1
330
18
100
AcDbEntity
  8
1
  6
Continuous
100
AcDbLine
 10
169.3381595376076
 20
189.7271347113674
 30
0.0
 11
174.0010675376078
 21
185.6640717113674
 31
0.0
  0
ARC
  5
9E2
330
18
100
AcDbEntity
  8
5
  6
PHANTOM
100
AcDbCircle
 10
180.9007895376079
 20
186.2001807113674
 30
0.0
 40
5.0
100
AcDbArc
 50
110.4999999999989
 51
290.499999999999
  0
LINE
  5
9E3
330
18
100
AcDbEntity
  8
1
  6
Continuous
100
AcDbLine
 10
173.3423425376078
 20
185.6640117113675
 30
0.0
 11
181.0163275376078
 21
185.4630607113674
 31
0.0
  0
LINE
  5
9E4
330
18
100
AcDbEntity
  8
1
  6
Continuous
100
AcDbLine
 10
181.0163275376078
 20
185.4630607113674
 30
0.0
 11
181.0755695376077
 21
187.7254027113674
 31
0.0
  0
LINE
  5
9E5
330
18
100
AcDbEntity
  8
5
  6
PHANTOM
100
AcDbLine
 10
170.0698385376075
 20
192.1871967113674
 30
0.0
 11
177.3282205376076
 21
194.6864577113674
 31
0.0
  0
LINE
  5
9E6
330
18
100
AcDbEntity
  8
5
  6
PHANTOM
100
AcDbLine
 10
164.8962955376075
 20
194.5907157113675
 30
0.0
 11
170.6868265376076
 21
192.4179427113674
 31
0.0
  0
LINE
  5
9E7
330
18
100
AcDbEntity
  8
5
  6
PHANTOM
100
AcDbLine
 10
177.3282205376076
 20
194.6864577113674
 30
0.0
 11
176.7227875376078
 21
196.4447647113674
 31
0.0
  0
LINE
  5
9E8
330
18
100
AcDbEntity
  8
5
  6
PHANTOM
100
AcDbLine
 10
182.0754295376078
 20
198.7145717113675
 30
0.0
 11
177.0532765376076
 21
196.9853057113675
 31
0.0
  0
LINE
  5
9EA
330
18
100
AcDbEntity
  8
5
  6
PHANTOM
100
AcDbLine
 10
182.8122285376078
 20
196.5747537113674
 30
0.0
 11
182.0754295376076
 21
198.7145717113674
 31
0.0
  0
ARC
  5
9EB
330
18
100
AcDbEntity
  8
1
  6
Continuous
100
AcDbCircle
 10
194.3488095376076
 20
183.2072227113674
 30
0.0
 40
14.0
100
AcDbArc
 50
301.5613079999981
 51
342.8172220000019
  0
ARC
  5
9EC
330
18
100
AcDbEntity
  8
1
  6
Continuous
100
AcDbCircle
 10
196.3906965376077
 20
176.2630607113675
 30
0.0
 40
5.0
100
AcDbArc
 50
270.0
 51
90.0
  0
ARC
  5
9ED
330
18
100
AcDbEntity
  8
1
  6
Continuous
100
AcDbCircle
 10
180.7401335376079
 20
205.3613177113674
 30
0.0
 40
40.0
100
AcDbArc
 50
276.5710999999995
 51
301.5613079999981
  0
LINE
  5
9EE
330
18
100
AcDbEntity
  8
1
  6
Continuous
100
AcDbLine
 10
192.8326335376078
 20
190.7318537113675
 30
0.0
 11
209.7273845376079
 21
184.5215607113674
 31
0.0
  0
LINE
  5
9EF
330
18
100
AcDbEntity
  8
1
  6
Continuous
100
AcDbLine
 10
208.9315665376078
 20
182.3636267113676
 30
0.0
 11
192.0368145376079
 21
188.5739197113676
 31
0.0
  0
LINE
  5
9F0
330
18
100
AcDbEntity
  8
5
  6
PHANTOM
100
AcDbLine
 10
204.5610935376079
 20
201.5594267113674
 30
0.0
 11
186.5613585376078
 21
201.4597687113675
 31
0.0
  0
ARC
  5
9F1
330
18
100
AcDbEntity
  8
5
  6
PHANTOM
100
AcDbCircle
 10
190.6063965376078
 20
197.2426097113674
 30
0.0
 40
14.0
100
AcDbArc
 50
322.0613079999998
 51
3.317221999999903
  0
LINE
  5
9FA
330
18
100
AcDbEntity
  8
1
  6
Continuous
100
AcDbLine
 10
192.8326335376076
 20
190.7318537113676
 30
0.0
 11
191.0492445376076
 21
185.8802447113674
 31
0.0
  0
ARC
  5
9FB
330
18
100
AcDbEntity
  8
5
  6
PHANTOM
100
AcDbCircle
 10
194.9508725376077
 20
191.4532917113674
 30
0.0
 40
5.0
100
AcDbArc
 50
290.499999999999
 51
110.4999999999989
  0
ARC
  5
9FC
330
18
100
AcDbEntity
  8
5
  6
PHANTOM
100
AcDbCircle
 10
170.1010005376076
 20
213.2278767113674
 30
0.0
 40
40.0
100
AcDbArc
 50
297.0711000000017
 51
322.0613079999998
  0
LINE
  5
A01
330
18
100
AcDbEntity
  8
1
  6
Continuous
100
AcDbLine
 10
186.8143405376076
 20
185.3112347113675
 30
0.0
 11
190.0844705376078
 21
185.2256037113674
 31
0.0
  0
LINE
  5
A04
330
18
100
AcDbEntity
  8
1
  6
Continuous
100
AcDbLine
 10
186.8143405376076
 20
185.3112347113675
 30
0.0
 11
186.8735815376076
 21
187.5735757113674
 31
0.0
  0
ARC
  5
A07
330
18
100
AcDbEntity
  8
1
  6
Continuous
100
AcDbCircle
 10
190.1106475376078
 20
186.2252607113674
 30
0.0
 40
1.0
100
AcDbArc
 50
268.4999999999971
 51
339.8172219999996
  0
ARC
  5
A10
330
18
100
AcDbEntity
  8
5
  6
PHANTOM
100
AcDbCircle
 10
185.5796895376078
 20
198.5852867113674
 30
0.0
 40
1.0
100
AcDbArc
 50
289.0000000000018
 51
0.3172220000003773
  0
LINE
  5
A11
330
18
100
AcDbEntity
  8
1
  6
Continuous
100
AcDbLine
 10
209.7273845376079
 20
184.5215607113674
 30
0.0
 11
207.7239505376077
 21
179.0713297113675
 31
0.0
  0
LINE
  5
A4F
330
18
100
AcDbEntity
  8
5
  6
PHANTOM
100
AcDbLine
 10
186.5510555376079
 20
203.7597467113674
 30
0.0
 11
204.5507895376079
 21
203.8594047113674
 31
0.0
  0
LINE
  5
B29
330
18
100
AcDbEntity
  8
1
  6
Continuous
100
AcDbLine
 10
413.662000537608
 20
227.8020097113676
 30
0.0
 11
412.0370005376078
 21
226.6770097113676
 31
0.0
  0
LINE
  5
B2A
330
18
100
AcDbEntity
  8
1
  6
Continuous
100
AcDbLine
 10
411.826214537608
 20
227.8020097113676
 30
0.0
 11
413.451214537608
 21
226.6770097113676
 31
0.0
  0
LINE
  5
B2B
330
18
100
AcDbEntity
  8
1
  6
Continuous
100
AcDbLine
 10
412.2477875376079
 20
227.8020097113676
 30
0.0
 11
410.6227875376077
 21
226.6770097113676
 31
0.0
  0
LINE
  5
B2C
330
18
100
AcDbEntity
  8
1
  6
Continuous
100
AcDbLine
 10
379.3453085376078
 20
230.9770097113674
 30
0.0
 11
424.9297025376078
 21
230.9770097113674
 31
0.0
  0
LINE
  5
B2D
330
18
100
AcDbEntity
  8
1
  6
Continuous
100
AcDbLine
 10
379.087505537608
 20
230.1020097113674
 30
0.0
 11
425.1875055376078
 21
230.1020097113674
 31
0.0
  0
LINE
  5
B2E
330
18
100
AcDbEntity
  8
1
  6
Continuous
100
AcDbLine
 10
379.137505537608
 20
227.8020097113676
 30
0.0
 11
425.1375055376078
 21
227.8020097113676
 31
0.0
  0
LINE
  5
B2F
330
18
100
AcDbEntity
  8
1
  6
Continuous
100
AcDbLine
 10
367.1375055376078
 20
235.3770097113674
 30
0.0
 11
437.1375055376078
 21
235.3770097113674
 31
0.0
  0
LINE
  5
B30
330
18
100
AcDbEntity
  8
1
  6
Continuous
100
AcDbLine
 10
367.1375055376078
 20
233.0770097113674
 30
0.0
 11
437.1375055376078
 21
233.0770097113674
 31
0.0
  0
LINE
  5
B31
330
18
100
AcDbEntity
  8
1
  6
Continuous
100
AcDbLine
 10
379.137505537608
 20
226.6770097113676
 30
0.0
 11
425.1375055376078
 21
226.6770097113676
 31
0.0
  0
LINE
  5
B32
330
18
100
AcDbEntity
  8
4
  6
CENTER
100
AcDbLine
 10
384.6375055376078
 20
179.8770097113674
 30
0.0
 11
469.6375055376078
 21
179.8770097113674
 31
0.0
  0
LINE
  5
B33
330
18
100
AcDbEntity
  8
1
  6
Continuous
100
AcDbLine
 10
393.8028115376078
 20
214.2477517113676
 30
0.0
 11
418.1501295376079
 21
173.4477297113675
 31
0.0
  0
ARC
  5
B34
330
18
100
AcDbEntity
  8
1
  6
Continuous
100
AcDbCircle
 10
269.0743775376077
 20
223.2560097113674
 30
0.0
 40
3.420999999999998
100
AcDbArc
 50
90.0
 51
180.0
  0
ARC
  5
B35
330
18
100
AcDbEntity
  8
1
  6
Continuous
100
AcDbCircle
 10
311.7323775376078
 20
223.2560097113674
 30
0.0
 40
3.420999999999998
100
AcDbArc
 50
0.0
 51
90.0
  0
LINE
  5
B36
330
18
100
AcDbEntity
  8
1
  6
Continuous
100
AcDbLine
 10
278.917734537608
 20
216.8386667113676
 30
0.0
 11
301.9254345376078
 21
216.8175317113675
 31
0.0
  0
LINE
  5
B37
330
18
100
AcDbEntity
  8
1
  6
Continuous
100
AcDbLine
 10
302.0968225376078
 20
219.0770097113674
 30
0.0
 11
278.7778835376077
 21
219.0770097113674
 31
0.0
  0
LINE
  5
B38
330
18
100
AcDbEntity
  8
4
  6
CENTER
100
AcDbLine
 10
256.936888537608
 20
179.8770097113674
 30
0.0
 11
319.2118775376077
 21
179.8770097113674
 31
0.0
  0
ARC
  5
B39
330
18
100
AcDbEntity
  8
1
  6
Continuous
100
AcDbCircle
 10
285.653377537608
 20
195.3054507113676
 30
0.0
 40
20.0
100
AcDbArc
 50
162.8877310000003
 51
180.0
  0
ARC
  5
B3A
330
18
100
AcDbEntity
  8
1
  6
Continuous
100
AcDbCircle
 10
297.837147537608
 20
192.9142837113674
 30
0.0
 40
30.135401
100
AcDbArc
 50
161.7783770000003
 51
169.500698
  0
LINE
  5
B3B
330
18
100
AcDbEntity
  8
1
  6
Continuous
100
AcDbLine
 10
265.6533775376079
 20
223.2560097113674
 30
0.0
 11
265.6533775376079
 21
193.6415607113676
 31
0.0
  0
LINE
  5
B64
330
18
100
AcDbEntity
  8
1
  6
Continuous
100
AcDbLine
 10
275.153377537608
 20
187.6183607113675
 30
0.0
 11
275.153377537608
 21
172.1356597113674
 31
0.0
  0
LINE
  5
B68
330
18
100
AcDbEntity
  8
1
  6
Continuous
100
AcDbLine
 10
273.8948775376077
 20
175.8770097113676
 30
0.0
 11
275.153377537608
 21
175.8770097113676
 31
0.0
  0
LINE
  5
B6B
330
18
100
AcDbEntity
  8
1
  6
Continuous
100
AcDbLine
 10
275.153377537608
 20
183.8770097113674
 30
0.0
 11
273.8948775376077
 21
183.8770097113674
 31
0.0
  0
LINE
  5
B6C
330
18
100
AcDbEntity
  8
1
  6
Continuous
100
AcDbLine
 10
276.3929045376079
 20
189.0955727113674
 30
0.0
 11
277.9033775376079
 21
189.3619097113676
 31
0.0
  0
ARC
  5
B6D
330
18
100
AcDbEntity
  8
1
  6
Continuous
100
AcDbCircle
 10
276.6533775376079
 20
187.6183607113675
 30
0.0
 40
1.5
100
AcDbArc
 50
99.99999999999859
 51
180.0
  0
ARC
  5
B6E
330
18
100
AcDbEntity
  8
1
  6
Continuous
100
AcDbCircle
 10
361.6019055376078
 20
171.9228297113676
 30
0.0
 40
99.466508
100
AcDbArc
 50
154.2684000000013
 51
162.8877310000003
  0
ARC
  5
B6F
330
18
100
AcDbEntity
  8
1
  6
Continuous
100
AcDbCircle
 10
361.6019055376078
 20
171.9228297113676
 30
0.0
 40
97.26650800000001
100
AcDbArc
 50
151.265275999999
 51
161.7783770000003
  0
ARC
  5
B70
330
18
100
AcDbEntity
  8
1
  6
Continuous
100
AcDbCircle
 10
279.4968765376078
 20
224.3036307113676
 30
0.0
 40
7.487396
100
AcDbArc
 50
240.6184050000022
 51
265.5638020000012
  0
ARC
  5
B71
330
18
100
AcDbEntity
  8
1
  6
Continuous
100
AcDbCircle
 10
278.743906537608
 20
211.3621817113675
 30
0.0
 40
7.714902
100
AcDbArc
 50
89.7476700000025
 51
150.9629099999993
  0
ARC
  5
B72
330
18
100
AcDbEntity
  8
1
  6
Continuous
100
AcDbCircle
 10
279.9033775376079
 20
215.0984047113676
 30
0.0
 40
2.0
100
AcDbArc
 50
119.526135000002
 51
180.0
  0
ARC
  5
B73
330
18
100
AcDbEntity
  8
1
  6
Continuous
100
AcDbCircle
 10
295.1533775376078
 20
195.3054507113676
 30
0.0
 40
20.0
100
AcDbArc
 50
0.0
 51
17.11226899999966
  0
LINE
  5
B74
330
18
100
AcDbEntity
  8
1
  6
Continuous
100
AcDbLine
 10
315.1533775376078
 20
223.2560097113674
 30
0.0
 11
315.1533775376078
 21
193.6415607113676
 31
0.0
  0
ARC
  5
B75
330
18
100
AcDbEntity
  8
1
  6
Continuous
100
AcDbCircle
 10
282.9696065376078
 20
192.9142837113674
 30
0.0
 40
30.135401
100
AcDbArc
 50
10.49930199999999
 51
18.22162299999968
  0
ARC
  5
B76
330
18
100
AcDbEntity
  8
1
  6
Continuous
100
AcDbCircle
 10
304.153377537608
 20
187.6183607113675
 30
0.0
 40
1.5
100
AcDbArc
 50
0.0
 51
80.00000000000142
  0
LINE
  5
B77
330
18
100
AcDbEntity
  8
1
  6
Continuous
100
AcDbLine
 10
304.4138495376078
 20
189.0955727113674
 30
0.0
 11
302.9033775376078
 21
189.3619097113676
 31
0.0
  0
ARC
  5
B78
330
18
100
AcDbEntity
  8
1
  6
Continuous
100
AcDbCircle
 10
270.1533775376079
 20
193.6415607113676
 30
0.0
 40
45.0
100
AcDbArc
 50
333.1221949999997
 51
0.0
  0
ARC
  5
B79
330
18
100
AcDbEntity
  8
1
  6
Continuous
100
AcDbCircle
 10
267.8533505376079
 20
193.6415607113676
 30
0.0
 40
45.0
100
AcDbArc
 50
333.6771109999986
 51
6.077233000000068
  0
LINE
  5
B7A
330
18
100
AcDbEntity
  8
1
  6
Continuous
100
AcDbLine
 10
305.6533775376078
 20
187.6183607113675
 30
0.0
 11
305.6533775376078
 21
172.1356597113674
 31
0.0
  0
ARC
  5
B7B
330
18
100
AcDbEntity
  8
1
  6
Continuous
100
AcDbCircle
 10
300.9618775376078
 20
179.8770097113674
 30
0.0
 40
13.25
100
AcDbArc
 50
328.1092079999996
 51
13.27928100000052
  0
LINE
  5
B7C
330
18
100
AcDbEntity
  8
1
  6
Continuous
100
AcDbLine
 10
310.0762205376078
 20
172.8770097113675
 30
0.0
 11
312.2118775376077
 21
172.8770097113675
 31
0.0
  0
LINE
  5
B7D
330
18
100
AcDbEntity
  8
1
  6
Continuous
100
AcDbLine
 10
305.6533775376078
 20
175.8770097113676
 30
0.0
 11
306.9118775376078
 21
175.8770097113676
 31
0.0
  0
LINE
  5
B7E
330
18
100
AcDbEntity
  8
1
  6
Continuous
100
AcDbLine
 10
312.2118775376077
 20
177.6389797113675
 30
0.0
 11
312.2118775376077
 21
172.8770097113675
 31
0.0
  0
LINE
  5
B7F
330
18
100
AcDbEntity
  8
1
  6
Continuous
100
AcDbLine
 10
306.9118775376078
 20
183.8770097113674
 30
0.0
 11
305.6533775376078
 21
183.8770097113674
 31
0.0
  0
ARC
  5
B80
330
18
100
AcDbEntity
  8
1
  6
Continuous
100
AcDbCircle
 10
302.0628465376078
 20
211.3621817113675
 30
0.0
 40
7.714902
100
AcDbArc
 50
29.03709000000052
 51
90.25232999999749
  0
ARC
  5
B81
330
18
100
AcDbEntity
  8
1
  6
Continuous
100
AcDbCircle
 10
219.2048495376078
 20
171.9228297113676
 30
0.0
 40
97.26650800000001
100
AcDbArc
 50
18.22162299999968
 51
28.73472400000077
  0
ARC
  5
B82
330
18
100
AcDbEntity
  8
1
  6
Continuous
100
AcDbCircle
 10
301.7999445376077
 20
224.6650437113676
 30
0.0
 40
7.848514999999999
100
AcDbArc
 50
270.9161380000021
 51
294.9206559999993
  0
ARC
  5
B83
330
18
100
AcDbEntity
  8
1
  6
Continuous
100
AcDbCircle
 10
300.9033775376078
 20
215.0984047113676
 30
0.0
 40
2.0
100
AcDbArc
 50
0.0
 51
59.26762900000031
  0
ARC
  5
B84
330
18
100
AcDbEntity
  8
1
  6
Continuous
100
AcDbCircle
 10
219.2048495376078
 20
171.9228297113676
 30
0.0
 40
99.466508
100
AcDbArc
 50
17.11226899999966
 51
25.73159999999862
  0
LINE
  5
B85
330
18
100
AcDbEntity
  8
1
  6
Continuous
100
AcDbLine
 10
287.7857365376076
 20
227.8020097113676
 30
0.0
 11
286.1607365376077
 21
226.6770097113676
 31
0.0
  0
LINE
  5
B86
330
18
100
AcDbEntity
  8
1
  6
Continuous
100
AcDbLine
 10
286.3715225376078
 20
227.8020097113676
 30
0.0
 11
284.7465225376078
 21
226.6770097113676
 31
0.0
  0
LINE
  5
B87
330
18
100
AcDbEntity
  8
1
  6
Continuous
100
AcDbLine
 10
285.949950537608
 20
227.8020097113676
 30
0.0
 11
287.5749505376079
 21
226.6770097113676
 31
0.0
  0
LINE
  5
B88
330
18
100
AcDbEntity
  8
1
  6
Continuous
100
AcDbLine
 10
313.4033775376078
 20
226.6770097113676
 30
0.0
 11
267.4033775376079
 21
226.6770097113676
 31
0.0
  0
LINE
  5
B89
330
18
100
AcDbEntity
  8
1
  6
Continuous
100
AcDbLine
 10
313.4033775376078
 20
227.8020097113676
 30
0.0
 11
267.4033775376079
 21
227.8020097113676
 31
0.0
  0
LINE
  5
B8A
330
18
100
AcDbEntity
  8
1
  6
Continuous
100
AcDbLine
 10
313.4533775376078
 20
230.1020097113674
 30
0.0
 11
267.3533775376077
 21
230.1020097113674
 31
0.0
  0
LINE
  5
B8B
330
18
100
AcDbEntity
  8
1
  6
Continuous
100
AcDbLine
 10
313.1955745376078
 20
230.9770097113674
 30
0.0
 11
267.6111805376077
 21
230.9770097113674
 31
0.0
  0
LINE
  5
B8C
330
18
100
AcDbEntity
  8
1
  6
Continuous
100
AcDbLine
 10
263.4033775376079
 20
235.3770097113674
 30
0.0
 11
317.4033775376078
 21
235.3770097113674
 31
0.0
  0
LINE
  5
B8D
330
18
100
AcDbEntity
  8
1
  6
Continuous
100
AcDbLine
 10
263.4033775376079
 20
233.0770097113674
 30
0.0
 11
317.4033775376078
 21
233.0770097113674
 31
0.0
  0
ARC
  5
B8E
330
18
100
AcDbEntity
  8
1
  6
Continuous
100
AcDbCircle
 10
267.6111805376077
 20
234.4770097113676
 30
0.0
 40
3.5
100
AcDbArc
 50
203.5781779999993
 51
270.0
  0
LINE
  5
B8F
330
18
100
AcDbEntity
  8
1
  6
Continuous
100
AcDbLine
 10
263.4033775376079
 20
235.3770097113674
 30
0.0
 11
263.4033775376079
 21
233.0770097113674
 31
0.0
  0
LINE
  5
B90
330
18
100
AcDbEntity
  8
4
  6
CENTER
100
AcDbLine
 10
272.4033775376079
 20
240.3770097113675
 30
0.0
 11
272.4033775376079
 21
228.0770097113676
 31
0.0
  0
LINE
  5
B91
330
18
100
AcDbEntity
  8
1
  6
Continuous
100
AcDbLine
 10
277.8862415376078
 20
227.8020097113676
 30
0.0
 11
276.261241537608
 21
226.6770097113676
 31
0.0
  0
LINE
  5
B92
330
18
100
AcDbEntity
  8
1
  6
Continuous
100
AcDbLine
 10
276.0504555376079
 20
227.8020097113676
 30
0.0
 11
277.6754555376079
 21
226.6770097113676
 31
0.0
  0
LINE
  5
B93
330
18
100
AcDbEntity
  8
1
  6
Continuous
100
AcDbLine
 10
272.2293875376079
 20
227.8020097113676
 30
0.0
 11
270.6043875376079
 21
226.6770097113676
 31
0.0
  0
LINE
  5
B94
330
18
100
AcDbEntity
  8
1
  6
Continuous
100
AcDbLine
 10
270.393600537608
 20
227.8020097113676
 30
0.0
 11
272.018600537608
 21
226.6770097113676
 31
0.0
  0
ARC
  5
B95
330
18
100
AcDbEntity
  8
1
  6
Continuous
100
AcDbCircle
 10
273.6533775376079
 20
225.6275097113674
 30
0.0
 40
6.974499999999999
100
AcDbArc
 50
129.9139999999977
 51
140.0924020000016
  0
LINE
  5
B96
330
18
100
AcDbEntity
  8
1
  6
Continuous
100
AcDbLine
 10
270.815173537608
 20
227.8020097113676
 30
0.0
 11
269.1901735376081
 21
226.6770097113676
 31
0.0
  0
LINE
  5
B97
330
18
100
AcDbEntity
  8
1
  6
Continuous
100
AcDbLine
 10
269.4009605376078
 20
227.8020097113676
 30
0.0
 11
267.7759605376078
 21
226.6770097113676
 31
0.0
  0
LINE
  5
B98
330
18
100
AcDbEntity
  8
1
  6
Continuous
100
AcDbLine
 10
268.9793875376079
 20
227.8020097113676
 30
0.0
 11
270.6043875376079
 21
226.6770097113676
 31
0.0
  0
LINE
  5
B99
330
18
100
AcDbEntity
  8
1
  6
Continuous
100
AcDbLine
 10
267.565173537608
 20
227.8020097113676
 30
0.0
 11
269.1901735376081
 21
226.6770097113676
 31
0.0
  0
LINE
  5
B9A
330
18
100
AcDbEntity
  8
1
  6
Continuous
100
AcDbLine
 10
267.4033775376079
 20
227.8020097113676
 30
0.0
 11
267.4033775376079
 21
226.6770097113676
 31
0.0
  0
LINE
  5
B9B
330
18
100
AcDbEntity
  8
1
  6
Continuous
100
AcDbLine
 10
267.7533775376077
 20
227.8020097113676
 30
0.0
 11
266.8533775376078
 21
229.3020097113675
 31
0.0
  0
LINE
  5
B9C
330
18
100
AcDbEntity
  8
1
  6
Continuous
100
AcDbLine
 10
267.4033775376079
 20
227.7186407113675
 30
0.0
 11
267.9867465376079
 21
227.8020097113676
 31
0.0
  0
LINE
  5
B9D
330
18
100
AcDbEntity
  8
1
  6
Continuous
100
AcDbLine
 10
267.4033775376079
 20
227.0495927113675
 30
0.0
 11
267.7759605376078
 21
226.6770097113676
 31
0.0
  0
LINE
  5
B9E
330
18
100
AcDbEntity
  8
1
  6
Continuous
100
AcDbLine
 10
266.8533775376078
 20
229.3020097113675
 30
0.0
 11
267.3533775376077
 21
230.1020097113674
 31
0.0
  0
LINE
  5
B9F
330
18
100
AcDbEntity
  8
1
  6
Continuous
100
AcDbLine
 10
275.0578145376081
 20
227.8020097113676
 30
0.0
 11
273.4328145376081
 21
226.6770097113676
 31
0.0
  0
LINE
  5
BA0
330
18
100
AcDbEntity
  8
1
  6
Continuous
100
AcDbLine
 10
273.6436005376079
 20
227.8020097113676
 30
0.0
 11
272.018600537608
 21
226.6770097113676
 31
0.0
  0
LINE
  5
BA1
330
18
100
AcDbEntity
  8
1
  6
Continuous
100
AcDbLine
 10
273.2220275376079
 20
227.8020097113676
 30
0.0
 11
274.8470275376079
 21
226.6770097113676
 31
0.0
  0
LINE
  5
BA2
330
18
100
AcDbEntity
  8
1
  6
Continuous
100
AcDbLine
 10
271.8078145376081
 20
227.8020097113676
 30
0.0
 11
273.4328145376081
 21
226.6770097113676
 31
0.0
  0
LINE
  5
BA3
330
18
100
AcDbEntity
  8
1
  6
Continuous
100
AcDbLine
 10
276.4720275376079
 20
227.8020097113676
 30
0.0
 11
274.8470275376079
 21
226.6770097113676
 31
0.0
  0
LINE
  5
BA4
330
18
100
AcDbEntity
  8
1
  6
Continuous
100
AcDbLine
 10
274.6362415376078
 20
227.8020097113676
 30
0.0
 11
276.261241537608
 21
226.6770097113676
 31
0.0
  0
LINE
  5
BA5
330
18
100
AcDbEntity
  8
1
  6
Continuous
100
AcDbLine
 10
282.1288825376078
 20
227.8020097113676
 30
0.0
 11
280.5038825376078
 21
226.6770097113676
 31
0.0
  0
LINE
  5
BA6
330
18
100
AcDbEntity
  8
1
  6
Continuous
100
AcDbLine
 10
280.2930955376078
 20
227.8020097113676
 30
0.0
 11
281.9180955376078
 21
226.6770097113676
 31
0.0
  0
LINE
  5
BA7
330
18
100
AcDbEntity
  8
1
  6
Continuous
100
AcDbLine
 10
279.300455537608
 20
227.8020097113676
 30
0.0
 11
277.6754555376079
 21
226.6770097113676
 31
0.0
  0
LINE
  5
BA8
330
18
100
AcDbEntity
  8
1
  6
Continuous
100
AcDbLine
 10
277.4646685376079
 20
227.8020097113676
 30
0.0
 11
279.0896685376079
 21
226.6770097113676
 31
0.0
  0
LINE
  5
BA9
330
18
100
AcDbEntity
  8
1
  6
Continuous
100
AcDbLine
 10
280.7146685376078
 20
227.8020097113676
 30
0.0
 11
279.0896685376079
 21
226.6770097113676
 31
0.0
  0
LINE
  5
BAA
330
18
100
AcDbEntity
  8
1
  6
Continuous
100
AcDbLine
 10
278.8788825376077
 20
227.8020097113676
 30
0.0
 11
280.5038825376078
 21
226.6770097113676
 31
0.0
  0
LINE
  5
BAB
330
18
100
AcDbEntity
  8
1
  6
Continuous
100
AcDbLine
 10
284.5357365376078
 20
227.8020097113676
 30
0.0
 11
286.1607365376077
 21
226.6770097113676
 31
0.0
  0
LINE
  5
BAC
330
18
100
AcDbEntity
  8
1
  6
Continuous
100
AcDbLine
 10
283.5430955376078
 20
227.8020097113676
 30
0.0
 11
281.9180955376078
 21
226.6770097113676
 31
0.0
  0
LINE
  5
BAD
330
18
100
AcDbEntity
  8
1
  6
Continuous
100
AcDbLine
 10
281.707309537608
 20
227.8020097113676
 30
0.0
 11
283.3323095376076
 21
226.6770097113676
 31
0.0
  0
LINE
  5
BAE
330
18
100
AcDbEntity
  8
1
  6
Continuous
100
AcDbLine
 10
284.957309537608
 20
227.8020097113676
 30
0.0
 11
283.3323095376076
 21
226.6770097113676
 31
0.0
  0
LINE
  5
BAF
330
18
100
AcDbEntity
  8
1
  6
Continuous
100
AcDbLine
 10
283.1215225376078
 20
227.8020097113676
 30
0.0
 11
284.7465225376078
 21
226.6770097113676
 31
0.0
  0
LINE
  5
BB0
330
18
100
AcDbEntity
  8
1
  6
Continuous
100
AcDbLine
 10
306.1705125376078
 20
227.8020097113676
 30
0.0
 11
304.5455125376077
 21
226.6770097113676
 31
0.0
  0
LINE
  5
BB1
330
18
100
AcDbEntity
  8
1
  6
Continuous
100
AcDbLine
 10
304.3347265376078
 20
227.8020097113676
 30
0.0
 11
305.9597265376079
 21
226.6770097113676
 31
0.0
  0
LINE
  5
BB2
330
18
100
AcDbEntity
  8
1
  6
Continuous
100
AcDbLine
 10
294.4352315376078
 20
227.8020097113676
 30
0.0
 11
296.060231537608
 21
226.6770097113676
 31
0.0
  0
LINE
  5
BB3
330
18
100
AcDbEntity
  8
1
  6
Continuous
100
AcDbLine
 10
296.2710175376078
 20
227.8020097113676
 30
0.0
 11
294.6460175376078
 21
226.6770097113676
 31
0.0
  0
LINE
  5
BB4
330
18
100
AcDbEntity
  8
1
  6
Continuous
100
AcDbLine
 10
292.0283775376078
 20
227.8020097113676
 30
0.0
 11
290.4033775376078
 21
226.6770097113676
 31
0.0
  0
LINE
  5
BB5
330
18
100
AcDbEntity
  8
1
  6
Continuous
100
AcDbLine
 10
290.192590537608
 20
227.8020097113676
 30
0.0
 11
291.8175905376078
 21
226.6770097113676
 31
0.0
  0
LINE
  5
BB6
330
18
100
AcDbEntity
  8
1
  6
Continuous
100
AcDbLine
 10
290.614163537608
 20
227.8020097113676
 30
0.0
 11
288.989163537608
 21
226.6770097113676
 31
0.0
  0
LINE
  5
BB7
330
18
100
AcDbEntity
  8
1
  6
Continuous
100
AcDbLine
 10
288.778377537608
 20
227.8020097113676
 30
0.0
 11
290.4033775376078
 21
226.6770097113676
 31
0.0
  0
LINE
  5
BB8
330
18
100
AcDbEntity
  8
1
  6
Continuous
100
AcDbLine
 10
289.1999505376077
 20
227.8020097113676
 30
0.0
 11
287.5749505376079
 21
226.6770097113676
 31
0.0
  0
LINE
  5
BB9
330
18
100
AcDbEntity
  8
1
  6
Continuous
100
AcDbLine
 10
287.364163537608
 20
227.8020097113676
 30
0.0
 11
288.989163537608
 21
226.6770097113676
 31
0.0
  0
LINE
  5
BBA
330
18
100
AcDbEntity
  8
1
  6
Continuous
100
AcDbLine
 10
294.8568045376079
 20
227.8020097113676
 30
0.0
 11
293.2318045376078
 21
226.6770097113676
 31
0.0
  0
LINE
  5
BBB
330
18
100
AcDbEntity
  8
1
  6
Continuous
100
AcDbLine
 10
293.0210175376078
 20
227.8020097113676
 30
0.0
 11
294.6460175376078
 21
226.6770097113676
 31
0.0
  0
LINE
  5
BBC
330
18
100
AcDbEntity
  8
1
  6
Continuous
100
AcDbLine
 10
293.4425905376079
 20
227.8020097113676
 30
0.0
 11
291.8175905376078
 21
226.6770097113676
 31
0.0
  0
LINE
  5
BBD
330
18
100
AcDbEntity
  8
1
  6
Continuous
100
AcDbLine
 10
291.6068045376078
 20
227.8020097113676
 30
0.0
 11
293.2318045376078
 21
226.6770097113676
 31
0.0
  0
LINE
  5
BBE
330
18
100
AcDbEntity
  8
1
  6
Continuous
100
AcDbLine
 10
301.9278725376079
 20
227.8020097113676
 30
0.0
 11
300.3028725376078
 21
226.6770097113676
 31
0.0
  0
LINE
  5
BBF
330
18
100
AcDbEntity
  8
1
  6
Continuous
100
AcDbLine
 10
300.0920855376081
 20
227.8020097113676
 30
0.0
 11
301.7170855376078
 21
226.6770097113676
 31
0.0
  0
LINE
  5
BC0
330
18
100
AcDbEntity
  8
1
  6
Continuous
100
AcDbLine
 10
299.099444537608
 20
227.8020097113676
 30
0.0
 11
297.474444537608
 21
226.6770097113676
 31
0.0
  0
LINE
  5
BC1
330
18
100
AcDbEntity
  8
1
  6
Continuous
100
AcDbLine
 10
297.2636585376078
 20
227.8020097113676
 30
0.0
 11
298.8886585376078
 21
226.6770097113676
 31
0.0
  0
LINE
  5
BC2
330
18
100
AcDbEntity
  8
1
  6
Continuous
100
AcDbLine
 10
298.6778725376078
 20
227.8020097113676
 30
0.0
 11
300.3028725376078
 21
226.6770097113676
 31
0.0
  0
LINE
  5
BC3
330
18
100
AcDbEntity
  8
1
  6
Continuous
100
AcDbLine
 10
300.5136585376078
 20
227.8020097113676
 30
0.0
 11
298.8886585376078
 21
226.6770097113676
 31
0.0
  0
LINE
  5
BC4
330
18
100
AcDbEntity
  8
1
  6
Continuous
100
AcDbLine
 10
297.6852315376079
 20
227.8020097113676
 30
0.0
 11
296.060231537608
 21
226.6770097113676
 31
0.0
  0
LINE
  5
BC5
330
18
100
AcDbEntity
  8
1
  6
Continuous
100
AcDbLine
 10
295.8494445376079
 20
227.8020097113676
 30
0.0
 11
297.474444537608
 21
226.6770097113676
 31
0.0
  0
LINE
  5
BC6
330
18
100
AcDbEntity
  8
1
  6
Continuous
100
AcDbLine
 10
303.3420855376081
 20
227.8020097113676
 30
0.0
 11
301.7170855376078
 21
226.6770097113676
 31
0.0
  0
LINE
  5
BC7
330
18
100
AcDbEntity
  8
1
  6
Continuous
100
AcDbLine
 10
301.506299537608
 20
227.8020097113676
 30
0.0
 11
303.131299537608
 21
226.6770097113676
 31
0.0
  0
LINE
  5
BC8
330
18
100
AcDbEntity
  8
1
  6
Continuous
100
AcDbLine
 10
304.756299537608
 20
227.8020097113676
 30
0.0
 11
303.131299537608
 21
226.6770097113676
 31
0.0
  0
LINE
  5
BC9
330
18
100
AcDbEntity
  8
1
  6
Continuous
100
AcDbLine
 10
302.9205125376078
 20
227.8020097113676
 30
0.0
 11
304.5455125376077
 21
226.6770097113676
 31
0.0
  0
LINE
  5
BCA
330
18
100
AcDbEntity
  8
4
  6
CENTER
100
AcDbLine
 10
308.403377537608
 20
240.3770097113675
 30
0.0
 11
308.403377537608
 21
228.0770097113676
 31
0.0
  0
ARC
  5
BCB
330
18
100
AcDbEntity
  8
1
  6
Continuous
100
AcDbCircle
 10
313.1955745376078
 20
234.4770097113676
 30
0.0
 40
3.5
100
AcDbArc
 50
270.0
 51
336.4218220000005
  0
LINE
  5
BCC
330
18
100
AcDbEntity
  8
1
  6
Continuous
100
AcDbLine
 10
310.4131535376079
 20
227.8020097113676
 30
0.0
 11
308.7881535376078
 21
226.6770097113676
 31
0.0
  0
LINE
  5
BCD
330
18
100
AcDbEntity
  8
1
  6
Continuous
100
AcDbLine
 10
311.8273675376077
 20
227.8020097113676
 30
0.0
 11
310.2023675376077
 21
226.6770097113676
 31
0.0
  0
LINE
  5
BCE
330
18
100
AcDbEntity
  8
1
  6
Continuous
100
AcDbLine
 10
309.991580537608
 20
227.8020097113676
 30
0.0
 11
311.616580537608
 21
226.6770097113676
 31
0.0
  0
LINE
  5
BCF
330
18
100
AcDbEntity
  8
1
  6
Continuous
100
AcDbLine
 10
308.577367537608
 20
227.8020097113676
 30
0.0
 11
310.2023675376077
 21
226.6770097113676
 31
0.0
  0
LINE
  5
BD0
330
18
100
AcDbEntity
  8
1
  6
Continuous
100
AcDbLine
 10
307.5847265376078
 20
227.8020097113676
 30
0.0
 11
305.9597265376079
 21
226.6770097113676
 31
0.0
  0
LINE
  5
BD1
330
18
100
AcDbEntity
  8
1
  6
Continuous
100
AcDbLine
 10
305.7489395376078
 20
227.8020097113676
 30
0.0
 11
307.3739395376079
 21
226.6770097113676
 31
0.0
  0
LINE
  5
BD2
330
18
100
AcDbEntity
  8
1
  6
Continuous
100
AcDbLine
 10
308.9989395376079
 20
227.8020097113676
 30
0.0
 11
307.3739395376079
 21
226.6770097113676
 31
0.0
  0
LINE
  5
BD3
330
18
100
AcDbEntity
  8
1
  6
Continuous
100
AcDbLine
 10
307.1631535376079
 20
227.8020097113676
 30
0.0
 11
308.7881535376078
 21
226.6770097113676
 31
0.0
  0
LINE
  5
BD4
330
18
100
AcDbEntity
  8
1
  6
Continuous
100
AcDbLine
 10
313.0533775376077
 20
227.8020097113676
 30
0.0
 11
313.9533775376079
 21
229.3020097113675
 31
0.0
  0
LINE
  5
BD5
330
18
100
AcDbEntity
  8
1
  6
Continuous
100
AcDbLine
 10
313.4033775376078
 20
227.8020097113676
 30
0.0
 11
313.4033775376078
 21
226.6770097113676
 31
0.0
  0
LINE
  5
BD6
330
18
100
AcDbEntity
  8
1
  6
Continuous
100
AcDbLine
 10
313.4033775376078
 20
227.0495927113675
 30
0.0
 11
313.0307945376082
 21
226.6770097113676
 31
0.0
  0
LINE
  5
BD7
330
18
100
AcDbEntity
  8
1
  6
Continuous
100
AcDbLine
 10
312.8200075376078
 20
227.8020097113676
 30
0.0
 11
313.4033775376078
 21
227.7186407113675
 31
0.0
  0
LINE
  5
BD8
330
18
100
AcDbEntity
  8
1
  6
Continuous
100
AcDbLine
 10
313.9533775376079
 20
229.3020097113675
 30
0.0
 11
313.4533775376078
 21
230.1020097113674
 31
0.0
  0
ARC
  5
BD9
330
18
100
AcDbEntity
  8
1
  6
Continuous
100
AcDbCircle
 10
307.1533775376078
 20
225.6275097113674
 30
0.0
 40
6.974499999999999
100
AcDbArc
 50
39.90759799999828
 51
50.08600000000214
  0
LINE
  5
BDA
330
18
100
AcDbEntity
  8
1
  6
Continuous
100
AcDbLine
 10
313.2415805376079
 20
227.8020097113676
 30
0.0
 11
311.616580537608
 21
226.6770097113676
 31
0.0
  0
LINE
  5
BDB
330
18
100
AcDbEntity
  8
1
  6
Continuous
100
AcDbLine
 10
311.4057945376081
 20
227.8020097113676
 30
0.0
 11
313.0307945376082
 21
226.6770097113676
 31
0.0
  0
LINE
  5
BDC
330
18
100
AcDbEntity
  8
1
  6
Continuous
100
AcDbLine
 10
317.4033775376078
 20
235.3770097113674
 30
0.0
 11
317.4033775376078
 21
233.0770097113674
 31
0.0
  0
ARC
  5
BDD
330
18
100
AcDbEntity
  8
1
  6
Continuous
100
AcDbCircle
 10
380.8189295376078
 20
223.2153467113676
 30
0.0
 40
3.462340999999999
100
AcDbArc
 50
88.86512399999892
 51
172.3374649999999
  0
LINE
  5
BDE
330
18
100
AcDbEntity
  8
4
  6
CENTER
100
AcDbLine
 10
402.137505537608
 20
240.3770097113675
 30
0.0
 11
402.137505537608
 21
207.5691217113676
 31
0.0
  0
ARC
  5
BE3
330
18
100
AcDbEntity
  8
1
  6
Continuous
100
AcDbCircle
 10
385.2434065376078
 20
209.0770097113674
 30
0.0
 40
10.0
100
AcDbArc
 50
31.13619899999926
 51
90.0
  0
LINE
  5
BE4
330
18
100
AcDbEntity
  8
1
  6
Continuous
100
AcDbLine
 10
377.3875055376078
 20
219.0770097113674
 30
0.0
 11
385.2434065376078
 21
219.0770097113674
 31
0.0
  0
LINE
  5
BE5
330
18
100
AcDbEntity
  8
1
  6
Continuous
100
AcDbLine
 10
377.3875055376078
 20
223.6770097113676
 30
0.0
 11
377.3875055376078
 21
219.0770097113674
 31
0.0
  0
ARC
  5
BE6
330
18
100
AcDbEntity
  8
1
  6
Continuous
100
AcDbCircle
 10
390.7409375376078
 20
224.6650437113676
 30
0.0
 40
7.848514999999999
100
AcDbArc
 50
225.3967460000008
 51
269.0838619999976
  0
LINE
  5
BE7
330
18
100
AcDbEntity
  8
1
  6
Continuous
100
AcDbLine
 10
390.615447537608
 20
216.8175317113675
 30
0.0
 11
391.5746235376078
 21
216.8175317113675
 31
0.0
  0
LINE
  5
BE9
330
18
100
AcDbEntity
  8
1
  6
Continuous
100
AcDbLine
 10
367.1375055376078
 20
235.3770097113674
 30
0.0
 11
367.1375055376078
 21
233.0770097113674
 31
0.0
  0
LINE
  5
BEA
330
18
100
AcDbEntity
  8
1
  6
Continuous
100
AcDbLine
 10
393.8630105376078
 20
227.8020097113676
 30
0.0
 11
392.2380105376078
 21
226.6770097113676
 31
0.0
  0
LINE
  5
BEB
330
18
100
AcDbEntity
  8
1
  6
Continuous
100
AcDbLine
 10
392.027224537608
 20
227.8020097113676
 30
0.0
 11
393.6522245376078
 21
226.6770097113676
 31
0.0
  0
LINE
  5
BEC
330
18
100
AcDbEntity
  8
4
  6
CENTER
100
AcDbLine
 10
375.137505537608
 20
240.3770097113675
 30
0.0
 11
375.137505537608
 21
228.0770097113676
 31
0.0
  0
LINE
  5
BED
330
18
100
AcDbEntity
  8
1
  6
Continuous
100
AcDbLine
 10
383.9635165376078
 20
227.8020097113676
 30
0.0
 11
382.3385165376078
 21
226.6770097113676
 31
0.0
  0
LINE
  5
BEE
330
18
100
AcDbEntity
  8
1
  6
Continuous
100
AcDbLine
 10
382.1277295376077
 20
227.8020097113676
 30
0.0
 11
383.7527295376078
 21
226.6770097113676
 31
0.0
  0
ARC
  5
BEF
330
18
100
AcDbEntity
  8
1
  6
Continuous
100
AcDbCircle
 10
379.3453085376078
 20
234.4770097113676
 30
0.0
 40
3.5
100
AcDbArc
 50
203.5781779999993
 51
270.0
  0
LINE
  5
BF0
330
18
100
AcDbEntity
  8
1
  6
Continuous
100
AcDbLine
 10
378.587505537608
 20
229.3020097113675
 30
0.0
 11
379.087505537608
 21
230.1020097113674
 31
0.0
  0
LINE
  5
BF1
330
18
100
AcDbEntity
  8
1
  6
Continuous
100
AcDbLine
 10
381.1350885376079
 20
227.8020097113676
 30
0.0
 11
379.5100885376078
 21
226.6770097113676
 31
0.0
  0
LINE
  5
BF2
330
18
100
AcDbEntity
  8
1
  6
Continuous
100
AcDbLine
 10
379.2993025376077
 20
227.8020097113676
 30
0.0
 11
380.9243025376078
 21
226.6770097113676
 31
0.0
  0
LINE
  5
BF3
330
18
100
AcDbEntity
  8
1
  6
Continuous
100
AcDbLine
 10
382.5493025376077
 20
227.8020097113676
 30
0.0
 11
380.9243025376078
 21
226.6770097113676
 31
0.0
  0
LINE
  5
BF4
330
18
100
AcDbEntity
  8
1
  6
Continuous
100
AcDbLine
 10
380.7135165376078
 20
227.8020097113676
 30
0.0
 11
382.3385165376078
 21
226.6770097113676
 31
0.0
  0
LINE
  5
BF5
330
18
100
AcDbEntity
  8
1
  6
Continuous
100
AcDbLine
 10
379.7208755376078
 20
227.8020097113676
 30
0.0
 11
379.137505537608
 21
227.2186407113676
 31
0.0
  0
LINE
  5
BF6
330
18
100
AcDbEntity
  8
1
  6
Continuous
100
AcDbLine
 10
379.137505537608
 20
227.8020097113676
 30
0.0
 11
379.137505537608
 21
226.6770097113676
 31
0.0
  0
LINE
  5
BF7
330
18
100
AcDbEntity
  8
1
  6
Continuous
100
AcDbLine
 10
379.4875055376079
 20
227.8020097113676
 30
0.0
 11
378.587505537608
 21
229.3020097113675
 31
0.0
  0
ARC
  5
BF8
330
18
100
AcDbEntity
  8
1
  6
Continuous
100
AcDbCircle
 10
385.387505537608
 20
225.6275097113674
 30
0.0
 40
6.974499999999999
100
AcDbArc
 50
129.9139999999977
 51
140.0924020000016
  0
LINE
  5
BF9
330
18
100
AcDbEntity
  8
1
  6
Continuous
100
AcDbLine
 10
389.620370537608
 20
227.8020097113676
 30
0.0
 11
387.9953705376078
 21
226.6770097113676
 31
0.0
  0
LINE
  5
BFA
330
18
100
AcDbEntity
  8
1
  6
Continuous
100
AcDbLine
 10
387.784583537608
 20
227.8020097113676
 30
0.0
 11
389.4095835376077
 21
226.6770097113676
 31
0.0
  0
LINE
  5
BFB
330
18
100
AcDbEntity
  8
1
  6
Continuous
100
AcDbLine
 10
388.2061565376078
 20
227.8020097113676
 30
0.0
 11
386.5811565376077
 21
226.6770097113676
 31
0.0
  0
LINE
  5
BFC
330
18
100
AcDbEntity
  8
1
  6
Continuous
100
AcDbLine
 10
385.3777295376076
 20
227.8020097113676
 30
0.0
 11
383.7527295376078
 21
226.6770097113676
 31
0.0
  0
LINE
  5
BFD
330
18
100
AcDbEntity
  8
1
  6
Continuous
100
AcDbLine
 10
383.5419435376077
 20
227.8020097113676
 30
0.0
 11
385.166943537608
 21
226.6770097113676
 31
0.0
  0
LINE
  5
BFE
330
18
100
AcDbEntity
  8
1
  6
Continuous
100
AcDbLine
 10
386.791943537608
 20
227.8020097113676
 30
0.0
 11
385.166943537608
 21
226.6770097113676
 31
0.0
  0
LINE
  5
BFF
330
18
100
AcDbEntity
  8
1
  6
Continuous
100
AcDbLine
 10
384.9561565376076
 20
227.8020097113676
 30
0.0
 11
386.5811565376077
 21
226.6770097113676
 31
0.0
  0
LINE
  5
C00
330
18
100
AcDbEntity
  8
1
  6
Continuous
100
AcDbLine
 10
386.3703705376078
 20
227.8020097113676
 30
0.0
 11
387.9953705376078
 21
226.6770097113676
 31
0.0
  0
LINE
  5
C01
330
18
100
AcDbEntity
  8
1
  6
Continuous
100
AcDbLine
 10
391.0345835376081
 20
227.8020097113676
 30
0.0
 11
389.4095835376077
 21
226.6770097113676
 31
0.0
  0
LINE
  5
C02
330
18
100
AcDbEntity
  8
1
  6
Continuous
100
AcDbLine
 10
392.4487975376079
 20
227.8020097113676
 30
0.0
 11
390.8237975376079
 21
226.6770097113676
 31
0.0
  0
LINE
  5
C03
330
18
100
AcDbEntity
  8
1
  6
Continuous
100
AcDbLine
 10
389.1987975376079
 20
227.8020097113676
 30
0.0
 11
390.8237975376079
 21
226.6770097113676
 31
0.0
  0
LINE
  5
C04
330
18
100
AcDbEntity
  8
1
  6
Continuous
100
AcDbLine
 10
390.6130105376078
 20
227.8020097113676
 30
0.0
 11
392.2380105376078
 21
226.6770097113676
 31
0.0
  0
LINE
  5
C05
330
18
100
AcDbEntity
  8
1
  6
Continuous
100
AcDbLine
 10
403.7625055376078
 20
227.8020097113676
 30
0.0
 11
402.137505537608
 21
226.6770097113676
 31
0.0
  0
LINE
  5
C06
330
18
100
AcDbEntity
  8
1
  6
Continuous
100
AcDbLine
 10
401.9267195376079
 20
227.8020097113676
 30
0.0
 11
403.5517195376078
 21
226.6770097113676
 31
0.0
  0
LINE
  5
C07
330
18
100
AcDbEntity
  8
1
  6
Continuous
100
AcDbLine
 10
398.1056515376078
 20
227.8020097113676
 30
0.0
 11
396.4806515376078
 21
226.6770097113676
 31
0.0
  0
LINE
  5
C08
330
18
100
AcDbEntity
  8
1
  6
Continuous
100
AcDbLine
 10
396.2698655376078
 20
227.8020097113676
 30
0.0
 11
397.8948655376078
 21
226.6770097113676
 31
0.0
  0
LINE
  5
C09
330
18
100
AcDbEntity
  8
1
  6
Continuous
100
AcDbLine
 10
397.6840785376081
 20
227.8020097113676
 30
0.0
 11
399.3090785376081
 21
226.6770097113676
 31
0.0
  0
LINE
  5
C0A
330
18
100
AcDbEntity
  8
1
  6
Continuous
100
AcDbLine
 10
395.2772245376078
 20
227.8020097113676
 30
0.0
 11
393.6522245376078
 21
226.6770097113676
 31
0.0
  0
LINE
  5
C0B
330
18
100
AcDbEntity
  8
1
  6
Continuous
100
AcDbLine
 10
396.6914385376079
 20
227.8020097113676
 30
0.0
 11
395.0664385376079
 21
226.6770097113676
 31
0.0
  0
LINE
  5
C0C
330
18
100
AcDbEntity
  8
1
  6
Continuous
100
AcDbLine
 10
393.4414385376078
 20
227.8020097113676
 30
0.0
 11
395.0664385376079
 21
226.6770097113676
 31
0.0
  0
LINE
  5
C0D
330
18
100
AcDbEntity
  8
1
  6
Continuous
100
AcDbLine
 10
394.8556515376078
 20
227.8020097113676
 30
0.0
 11
396.4806515376078
 21
226.6770097113676
 31
0.0
  0
LINE
  5
C0E
330
18
100
AcDbEntity
  8
1
  6
Continuous
100
AcDbLine
 10
402.348292537608
 20
227.8020097113676
 30
0.0
 11
400.7232925376079
 21
226.6770097113676
 31
0.0
  0
LINE
  5
C0F
330
18
100
AcDbEntity
  8
1
  6
Continuous
100
AcDbLine
 10
400.5125055376078
 20
227.8020097113676
 30
0.0
 11
402.137505537608
 21
226.6770097113676
 31
0.0
  0
LINE
  5
C10
330
18
100
AcDbEntity
  8
1
  6
Continuous
100
AcDbLine
 10
399.5198655376078
 20
227.8020097113676
 30
0.0
 11
397.8948655376078
 21
226.6770097113676
 31
0.0
  0
LINE
  5
C11
330
18
100
AcDbEntity
  8
1
  6
Continuous
100
AcDbLine
 10
400.9340785376081
 20
227.8020097113676
 30
0.0
 11
399.3090785376081
 21
226.6770097113676
 31
0.0
  0
LINE
  5
C12
330
18
100
AcDbEntity
  8
1
  6
Continuous
100
AcDbLine
 10
399.098292537608
 20
227.8020097113676
 30
0.0
 11
400.7232925376079
 21
226.6770097113676
 31
0.0
  0
LINE
  5
C13
330
18
100
AcDbEntity
  8
1
  6
Continuous
100
AcDbLine
 10
408.0051465376078
 20
227.8020097113676
 30
0.0
 11
406.380146537608
 21
226.6770097113676
 31
0.0
  0
LINE
  5
C14
330
18
100
AcDbEntity
  8
1
  6
Continuous
100
AcDbLine
 10
406.1693605376076
 20
227.8020097113676
 30
0.0
 11
407.7943605376076
 21
226.6770097113676
 31
0.0
  0
LINE
  5
C15
330
18
100
AcDbEntity
  8
1
  6
Continuous
100
AcDbLine
 10
406.5909325376079
 20
227.8020097113676
 30
0.0
 11
404.9659325376079
 21
226.6770097113676
 31
0.0
  0
LINE
  5
C16
330
18
100
AcDbEntity
  8
1
  6
Continuous
100
AcDbLine
 10
404.7551465376081
 20
227.8020097113676
 30
0.0
 11
406.380146537608
 21
226.6770097113676
 31
0.0
  0
LINE
  5
C17
330
18
100
AcDbEntity
  8
1
  6
Continuous
100
AcDbLine
 10
405.1767195376077
 20
227.8020097113676
 30
0.0
 11
403.5517195376078
 21
226.6770097113676
 31
0.0
  0
LINE
  5
C18
330
18
100
AcDbEntity
  8
1
  6
Continuous
100
AcDbLine
 10
403.3409325376077
 20
227.8020097113676
 30
0.0
 11
404.9659325376079
 21
226.6770097113676
 31
0.0
  0
LINE
  5
C19
330
18
100
AcDbEntity
  8
1
  6
Continuous
100
AcDbLine
 10
410.8335735376076
 20
227.8020097113676
 30
0.0
 11
409.208573537608
 21
226.6770097113676
 31
0.0
  0
LINE
  5
C1A
330
18
100
AcDbEntity
  8
1
  6
Continuous
100
AcDbLine
 10
409.4193605376077
 20
227.8020097113676
 30
0.0
 11
407.7943605376076
 21
226.6770097113676
 31
0.0
  0
LINE
  5
C1B
330
18
100
AcDbEntity
  8
1
  6
Continuous
100
AcDbLine
 10
408.9977875376079
 20
227.8020097113676
 30
0.0
 11
410.6227875376077
 21
226.6770097113676
 31
0.0
  0
LINE
  5
C1C
330
18
100
AcDbEntity
  8
1
  6
Continuous
100
AcDbLine
 10
410.4120005376079
 20
227.8020097113676
 30
0.0
 11
412.0370005376078
 21
226.6770097113676
 31
0.0
  0
LINE
  5
C1D
330
18
100
AcDbEntity
  8
1
  6
Continuous
100
AcDbLine
 10
407.5835735376077
 20
227.8020097113676
 30
0.0
 11
409.208573537608
 21
226.6770097113676
 31
0.0
  0
ARC
  5
C1E
330
18
100
AcDbEntity
  8
1
  6
Continuous
100
AcDbCircle
 10
423.4703155376077
 20
223.6770097113676
 30
0.0
 40
3.0
100
AcDbArc
 50
13.49339899999969
 51
90.0
  0
LINE
  5
C1F
330
18
100
AcDbEntity
  8
1
  6
Continuous
100
AcDbLine
 10
430.8582715376077
 20
224.3770097113676
 30
0.0
 11
437.5897788440986
 21
179.8770010745425
 31
0.0
  0
CIRCLE
  5
C20
330
18
100
AcDbEntity
  8
1
  6
Continuous
100
AcDbCircle
 10
427.137505537608
 20
179.8770097113674
 30
0.0
 40
7.0
  0
LINE
  5
C21
330
18
100
AcDbEntity
  8
1
  6
Continuous
100
AcDbLine
 10
431.0019805376079
 20
222.0770097113674
 30
0.0
 11
434.1375055376078
 21
222.0770097113674
 31
0.0
  0
LINE
  5
C22
330
18
100
AcDbEntity
  8
1
  6
Continuous
100
AcDbLine
 10
420.1375055376078
 20
224.3770097113676
 30
0.0
 11
434.1375055376078
 21
224.3770097113676
 31
0.0
  0
LINE
  5
C23
330
18
100
AcDbEntity
  8
1
  6
Continuous
100
AcDbLine
 10
434.1375055376078
 20
224.3770097113676
 30
0.0
 11
434.1375055376078
 21
222.0770097113674
 31
0.0
  0
LINE
  5
C28
330
18
100
AcDbEntity
  8
4
  6
CENTER
100
AcDbLine
 10
429.1375055376078
 20
240.3770097113675
 30
0.0
 11
429.1375055376078
 21
228.0770097113676
 31
0.0
  0
LINE
  5
C29
330
18
100
AcDbEntity
  8
1
  6
Continuous
100
AcDbLine
 10
422.147282537608
 20
227.8020097113676
 30
0.0
 11
420.5222825376075
 21
226.6770097113676
 31
0.0
  0
LINE
  5
C2A
330
18
100
AcDbEntity
  8
1
  6
Continuous
100
AcDbLine
 10
420.311495537608
 20
227.8020097113676
 30
0.0
 11
421.9364955376078
 21
226.6770097113676
 31
0.0
  0
LINE
  5
C2B
330
18
100
AcDbEntity
  8
1
  6
Continuous
100
AcDbLine
 10
421.7257095376076
 20
227.8020097113676
 30
0.0
 11
423.3507095376078
 21
226.6770097113676
 31
0.0
  0
LINE
  5
C2C
330
18
100
AcDbEntity
  8
1
  6
Continuous
100
AcDbLine
 10
417.9046415376078
 20
227.8020097113676
 30
0.0
 11
416.2796415376077
 21
226.6770097113676
 31
0.0
  0
LINE
  5
C2D
330
18
100
AcDbEntity
  8
1
  6
Continuous
100
AcDbLine
 10
416.0688555376076
 20
227.8020097113676
 30
0.0
 11
417.6938555376079
 21
226.6770097113676
 31
0.0
  0
LINE
  5
C2E
330
18
100
AcDbEntity
  8
1
  6
Continuous
100
AcDbLine
 10
413.2404275376076
 20
227.8020097113676
 30
0.0
 11
414.8654275376078
 21
226.6770097113676
 31
0.0
  0
LINE
  5
C2F
330
18
100
AcDbEntity
  8
1
  6
Continuous
100
AcDbLine
 10
415.0762145376078
 20
227.8020097113676
 30
0.0
 11
413.451214537608
 21
226.6770097113676
 31
0.0
  0
LINE
  5
C30
330
18
100
AcDbEntity
  8
1
  6
Continuous
100
AcDbLine
 10
416.4904275376078
 20
227.8020097113676
 30
0.0
 11
414.8654275376078
 21
226.6770097113676
 31
0.0
  0
LINE
  5
C31
330
18
100
AcDbEntity
  8
1
  6
Continuous
100
AcDbLine
 10
414.654641537608
 20
227.8020097113676
 30
0.0
 11
416.2796415376077
 21
226.6770097113676
 31
0.0
  0
LINE
  5
C32
330
18
100
AcDbEntity
  8
1
  6
Continuous
100
AcDbLine
 10
417.4830685376076
 20
227.8020097113676
 30
0.0
 11
419.1080685376078
 21
226.6770097113676
 31
0.0
  0
LINE
  5
C33
330
18
100
AcDbEntity
  8
1
  6
Continuous
100
AcDbLine
 10
420.7330685376079
 20
227.8020097113676
 30
0.0
 11
419.1080685376078
 21
226.6770097113676
 31
0.0
  0
LINE
  5
C34
330
18
100
AcDbEntity
  8
1
  6
Continuous
100
AcDbLine
 10
419.3188555376078
 20
227.8020097113676
 30
0.0
 11
417.6938555376079
 21
226.6770097113676
 31
0.0
  0
LINE
  5
C35
330
18
100
AcDbEntity
  8
1
  6
Continuous
100
AcDbLine
 10
418.897282537608
 20
227.8020097113676
 30
0.0
 11
420.5222825376075
 21
226.6770097113676
 31
0.0
  0
ARC
  5
C36
330
18
100
AcDbEntity
  8
1
  6
Continuous
100
AcDbCircle
 10
424.9297025376078
 20
234.4770097113676
 30
0.0
 40
3.5
100
AcDbArc
 50
270.0
 51
336.4218220000005
  0
LINE
  5
C37
330
18
100
AcDbEntity
  8
1
  6
Continuous
100
AcDbLine
 10
425.6875055376077
 20
229.3020097113675
 30
0.0
 11
425.1875055376078
 21
230.1020097113674
 31
0.0
  0
LINE
  5
C38
330
18
100
AcDbEntity
  8
1
  6
Continuous
100
AcDbLine
 10
424.9757095376076
 20
227.8020097113676
 30
0.0
 11
423.3507095376078
 21
226.6770097113676
 31
0.0
  0
LINE
  5
C39
330
18
100
AcDbEntity
  8
1
  6
Continuous
100
AcDbLine
 10
423.5614955376076
 20
227.8020097113676
 30
0.0
 11
421.9364955376078
 21
226.6770097113676
 31
0.0
  0
LINE
  5
C3A
330
18
100
AcDbEntity
  8
1
  6
Continuous
100
AcDbLine
 10
425.1375055376078
 20
227.2186407113676
 30
0.0
 11
424.554136537608
 21
227.8020097113676
 31
0.0
  0
LINE
  5
C3B
330
18
100
AcDbEntity
  8
1
  6
Continuous
100
AcDbLine
 10
423.1399225376079
 20
227.8020097113676
 30
0.0
 11
424.7649225376076
 21
226.6770097113676
 31
0.0
  0
LINE
  5
C3C
330
18
100
AcDbEntity
  8
1
  6
Continuous
100
AcDbLine
 10
425.1375055376078
 20
227.8020097113676
 30
0.0
 11
425.1375055376078
 21
226.6770097113676
 31
0.0
  0
LINE
  5
C3D
330
18
100
AcDbEntity
  8
1
  6
Continuous
100
AcDbLine
 10
424.7875055376081
 20
227.8020097113676
 30
0.0
 11
425.6875055376077
 21
229.3020097113675
 31
0.0
  0
ARC
  5
C3E
330
18
100
AcDbEntity
  8
1
  6
Continuous
100
AcDbCircle
 10
418.8875055376078
 20
225.6275097113674
 30
0.0
 40
6.974499999999999
100
AcDbArc
 50
39.90759799999828
 51
50.08600000000214
  0
LINE
  5
C3F
330
18
100
AcDbEntity
  8
1
  6
Continuous
100
AcDbLine
 10
437.1375055376078
 20
235.3770097113674
 30
0.0
 11
437.1375055376078
 21
233.0770097113674
 31
0.0
  0
LINE
  5
C4F
330
18
100
AcDbEntity
  8
1
  6
Continuous
100
AcDbLine
 10
139.788344183942
 20
297.5490177113673
 30
0.0
 11
114.3906965376078
 21
297.5490177113673
 31
0.0
  0
LINE
  5
C51
330
18
100
AcDbEntity
  8
1
  6
Continuous
100
AcDbLine
 10
114.8947425376077
 20
297.5490177113673
 30
0.0
 11
114.8947425376077
 21
298.1490177113673
 31
0.0
  0
LINE
  5
C5A
330
18
100
AcDbEntity
  8
1
  6
Continuous
100
AcDbLine
 10
142.5691735376078
 20
291.2509852179736
 30
0.0
 11
142.5691735376078
 21
294.7681883577017
 31
0.0
  0
LINE
  5
C5B
330
18
100
AcDbEntity
  8
1
  6
Continuous
100
AcDbLine
 10
143.6691735376076
 20
291.2509852179736
 30
0.0
 11
138.7932455174103
 21
291.2509852179736
 31
0.0
  0
ARC
  5
C5E
330
18
100
AcDbEntity
  8
1
  6
Continuous
100
AcDbCircle
 10
143.0691735376078
 20
291.7509852179735
 30
0.0
 40
0.5
100
AcDbArc
 50
180.0
 51
270.0
  0
LINE
  5
C89
330
18
100
AcDbEntity
  8
1
  6
Continuous
100
AcDbLine
 10
52.96513453760791
 20
170.6584927113675
 30
0.0
 11
51.704662537608
 21
170.4362377113674
 31
0.0
  0
ARC
  5
C8C
330
18
100
AcDbEntity
  8
1
  6
Continuous
100
AcDbCircle
 10
52.70466253760798
 20
172.1357047113674
 30
0.0
 40
1.5
100
AcDbArc
 50
279.9999999999986
 51
317.5526256363097
  0
LINE
  5
C8E
330
18
100
AcDbEntity
  8
1
  6
Continuous
100
AcDbLine
 10
52.304662537608
 20
189.2120766286302
 30
0.0
 11
51.704662537608
 21
189.3178727113675
 31
0.0
  0
ARC
  5
C97
330
18
100
AcDbEntity
  8
1
  6
Continuous
100
AcDbCircle
 10
310.6533775376078
 20
193.6415607113676
 30
0.0
 40
45.0
100
AcDbArc
 50
180.0
 51
187.7496056892709
  0
ARC
  5
C99
330
18
100
AcDbEntity
  8
1
  6
Continuous
100
AcDbCircle
 10
312.9534045376078
 20
193.6415607113676
 30
0.0
 40
45.0
100
AcDbArc
 50
173.9227669999999
 51
187.7496056892709
  0
ARC
  5
C9C
330
18
100
AcDbEntity
  8
1
  6
Continuous
100
AcDbCircle
 10
153.6692485376078
 20
179.8770097113674
 30
0.0
 40
37.5
100
AcDbArc
 50
187.0770630785868
 51
338.4998411327346
  0
ARC
  5
C9D
330
18
100
AcDbEntity
  8
1
  6
Continuous
100
AcDbCircle
 10
153.6692485376078
 20
179.8770097113674
 30
0.0
 40
30.0
100
AcDbArc
 50
197.8617102313408
 51
330.6234273126198
  0
ARC
  5
C9E
330
18
100
AcDbEntity
  8
1
  6
Continuous
100
AcDbCircle
 10
153.6692485376078
 20
179.8770097113674
 30
0.0
 40
37.5
100
AcDbArc
 50
8.558509418953789
 51
42.09619546384302
  0
ARC
  5
C9F
330
18
100
AcDbEntity
  8
1
  6
Continuous
100
AcDbCircle
 10
153.6692485376078
 20
179.8770097113674
 30
0.0
 40
30.0
100
AcDbArc
 50
15.08498630495068
 51
37.63804306070998
  0
LINE
  5
CA8
330
18
100
AcDbEntity
  8
1
  6
Continuous
100
AcDbLine
 10
209.7273845376079
 20
270.6405177113672
 30
0.0
 11
209.7273845376079
 21
284.1405177113673
 31
0.0
  0
LINE
  5
CA9
330
18
100
AcDbEntity
  8
1
  6
Continuous
100
AcDbLine
 10
192.8326335376078
 20
270.6405177113672
 30
0.0
 11
192.8326335376078
 21
283.6490177113673
 31
0.0
  0
LINE
  5
CAA
330
18
100
AcDbEntity
  8
1
  6
Continuous
100
AcDbLine
 10
192.0368145376079
 20
270.6405177113672
 30
0.0
 11
192.0368145376079
 21
281.8405177113671
 31
0.0
  0
LINE
  5
CAC
330
18
100
AcDbEntity
  8
1
  6
Continuous
100
AcDbLine
 10
194.5368145376079
 20
268.1405177113672
 30
0.0
 11
207.2273845376079
 21
268.1405177113672
 31
0.0
  0
ARC
  5
CAD
330
18
100
AcDbEntity
  8
1
  6
Continuous
100
AcDbCircle
 10
207.2273845376079
 20
270.6405177113672
 30
0.0
 40
2.5
100
AcDbArc
 50
270.0
 51
0.0
  0
ARC
  5
CAE
330
18
100
AcDbEntity
  8
1
  6
Continuous
100
AcDbCircle
 10
195.3326335376076
 20
270.6405177113672
 30
0.0
 40
2.5
100
AcDbArc
 50
180.0
 51
270.0
  0
ARC
  5
CAF
330
18
100
AcDbEntity
  8
1
  6
Continuous
100
AcDbCircle
 10
194.5368145376079
 20
270.6405177113672
 30
0.0
 40
2.5
100
AcDbArc
 50
180.0
 51
270.0
  0
LINE
  5
CB6
330
18
100
AcDbEntity
  8
1
  6
Continuous
100
AcDbLine
 10
139.3337653481055
 20
291.2509852179736
 30
0.0
 11
139.3337653481055
 21
292.9337141872262
 31
0.0
  0
LINE
  5
CB7
330
18
100
AcDbEntity
  8
1
  6
Continuous
100
AcDbLine
 10
139.3337653481055
 20
292.9337141872262
 30
0.0
 11
142.5691735376078
 21
292.9337141872262
 31
0.0
  0
LINE
  5
CB8
330
18
100
AcDbEntity
  8
1
  6
Continuous
100
AcDbLine
 10
143.1691735376078
 20
291.8411050721408
 30
0.0
 11
143.1691735376077
 21
294.7681883577017
 31
0.0
  0
LINE
  5
CBA
330
18
100
AcDbEntity
  8
1
  6
Continuous
100
AcDbLine
 10
143.1691735376078
 20
291.8411050721408
 30
0.0
 11
143.6695397015586
 21
291.8405172812266
 31
0.0
  0
LINE
  5
CBB
330
18
100
AcDbEntity
  8
1
  6
Continuous
100
AcDbLine
 10
114.3906965376078
 20
284.5490177113673
 30
0.0
 11
114.3906965376078
 21
297.5490177113673
 31
0.0
  0
LINE
  5
CBC
330
18
100
AcDbEntity
  8
1
  6
Continuous
100
AcDbLine
 10
132.434650236551
 20
280.0490177113674
 30
0.0
 11
132.434650236551
 21
280.8405177113673
 31
0.0
  0
LINE
  5
CC0
330
18
100
AcDbEntity
  8
1
  6
Continuous
100
AcDbLine
 10
129.9346502365511
 20
277.5490177113673
 30
0.0
 11
121.3906965376078
 21
277.5490177113673
 31
0.0
  0
ARC
  5
CC1
330
18
100
AcDbEntity
  8
1
  6
Continuous
100
AcDbCircle
 10
121.3906965376078
 20
284.5490177113673
 30
0.0
 40
7.0
100
AcDbArc
 50
180.0
 51
270.0
  0
ARC
  5
CC2
330
18
100
AcDbEntity
  8
1
  6
Continuous
100
AcDbCircle
 10
129.9346502365511
 20
280.0490177113674
 30
0.0
 40
2.5
100
AcDbArc
 50
270.0
 51
0.0
  0
LINE
  5
CC8
330
18
100
AcDbEntity
  8
1
  6
Continuous
100
AcDbLine
 10
192.0368145376079
 20
281.8405177113671
 30
0.0
 11
133.4346502365511
 21
281.8405177113671
 31
0.0
  0
ARC
  5
CCB
330
18
100
AcDbEntity
  8
1
  6
Continuous
100
AcDbCircle
 10
133.4346502365511
 20
280.8405177113673
 30
0.0
 40
1.0
100
AcDbArc
 50
90.0
 51
180.0
  0
LINE
  5
CD1
330
18
100
AcDbEntity
  8
1
  6
Continuous
100
AcDbLine
 10
138.0344777641258
 20
291.5996239537157
 30
0.0
 11
134.4236814575065
 21
295.8058240326571
 31
0.0
  0
ARC
  5
CD2
330
18
100
AcDbEntity
  8
1
  6
Continuous
100
AcDbCircle
 10
138.7932455174103
 20
292.2509852179736
 30
0.0
 40
1.0
100
AcDbArc
 50
220.6443141605761
 51
270.0
  0
ARC
  5
CD4
330
18
100
AcDbEntity
  8
1
  6
Continuous
100
AcDbCircle
 10
130.6298426910844
 20
292.5490177113673
 30
0.0
 40
5.0
100
AcDbArc
 50
40.64431416057661
 51
90.0
  0
LINE
  5
CD6
330
18
100
AcDbEntity
  8
1
  6
Continuous
100
AcDbLine
 10
143.4691735376078
 20
294.1405177113673
 30
0.0
 11
143.6691735376078
 21
294.1405177113673
 31
0.0
  0
LINE
  5
CD7
330
18
100
AcDbEntity
  8
1
  6
Continuous
100
AcDbLine
 10
143.4691735376078
 20
291.8405177113672
 30
0.0
 11
143.4691735376078
 21
294.1405177113673
 31
0.0
  0
ARC
  5
CDD
330
18
100
AcDbEntity
  8
1
  6
Continuous
100
AcDbCircle
 10
139.788344183942
 20
294.7681883577017
 30
0.0
 40
3.380829353665618
100
AcDbArc
 50
0.0000000000009633
 51
90.0
  0
ARC
  5
CDE
330
18
100
AcDbEntity
  8
1
  6
Continuous
100
AcDbCircle
 10
139.788344183942
 20
294.7681883577017
 30
0.0
 40
2.780829353665618
100
AcDbArc
 50
0.0000000000009633
 51
90.0
  0
LINE
  5
CDF
330
18
100
AcDbEntity
  8
1
  6
Continuous
100
AcDbLine
 10
186.8735815376079
 20
281.8405177113671
 30
0.0
 11
186.8735815376079
 21
283.6490177113674
 31
0.0
  0
LINE
  5
CE1
330
18
100
AcDbEntity
  8
1
  6
Continuous
100
AcDbLine
 10
181.0755695376077
 20
281.8405177113671
 30
0.0
 11
181.0755695376077
 21
283.6490177113674
 31
0.0
  0
LINE
  5
CE6
330
18
100
AcDbEntity
  8
1
  6
Continuous
100
AcDbLine
 10
209.7273845376077
 20
284.1405177113673
 30
0.0
 11
209.2458822425256
 21
284.1405177113673
 31
0.0
  0
LINE
  5
CF2
330
18
100
AcDbEntity
  8
1
  6
Continuous
100
AcDbLine
 10
461.272710558337
 20
195.4024011136086
 30
0.0
 11
466.372195537608
 21
195.4024317113674
 31
0.0
  0
LINE
  5
CF8
330
18
100
AcDbEntity
  8
1
  6
Continuous
100
AcDbLine
 10
466.372195537608
 20
195.4024317113674
 30
0.0
 11
466.4160575376079
 21
181.7070887113675
 31
0.0
  0
ARC
  5
CFB
330
18
100
AcDbEntity
  8
1
  6
Continuous
100
AcDbCircle
 10
455.4161135376081
 20
181.6719437113675
 30
0.0
 40
11.0
100
AcDbArc
 50
324.3247630876971
 51
0.1834999999998149
  0
LINE
  5
D02
330
18
100
AcDbEntity
  8
1
  6
Continuous
100
AcDbLine
 10
387.9741205376081
 20
190.7318537113676
 30
0.0
 11
389.7575095376081
 21
185.8802447113674
 31
0.0
  0
LINE
  5
D03
330
18
100
AcDbEntity
  8
1
  6
Continuous
100
AcDbLine
 10
387.9741205376078
 20
190.7318537113675
 30
0.0
 11
371.0793695376078
 21
184.5215607113674
 31
0.0
  0
ARC
  5
D0C
330
18
100
AcDbEntity
  8
1
  6
Continuous
100
AcDbCircle
 10
400.0666205376077
 20
205.3613177113674
 30
0.0
 40
40.0
100
AcDbArc
 50
238.4386920000018
 51
258.7264523695595
  0
ARC
  5
D21
330
18
100
AcDbEntity
  8
1
  6
Continuous
100
AcDbCircle
 10
390.696106537608
 20
186.2252607113674
 30
0.0
 40
1.0
100
AcDbArc
 50
200.1827780000002
 51
230.1323574437255
  0
ARC
  5
D24
330
18
100
AcDbEntity
  8
1
  6
Continuous
100
AcDbCircle
 10
386.4579445376081
 20
183.2072227113674
 30
0.0
 40
14.0
100
AcDbArc
 50
197.182777999998
 51
238.4386920000018
  0
LINE
  5
D25
330
18
100
AcDbEntity
  8
1
  6
Continuous
100
AcDbLine
 10
371.0793695376078
 20
184.5215607113674
 30
0.0
 11
373.0828035376081
 21
179.0713297113675
 31
0.0
  0
ARC
  5
E33
330
18
100
AcDbEntity
  8
1
  6
Continuous
100
AcDbCircle
 10
461.2391665376081
 20
179.8770097113674
 30
0.0
 40
4.672769999999974
100
AcDbArc
 50
314.0263480535587
 51
45.97365194644121
  0
LINE
  5
E35
330
18
100
AcDbEntity
  8
1
  6
Continuous
100
AcDbLine
 10
389.6486445623077
 20
178.9630607113674
 30
0.0
 11
384.416057537608
 21
178.9630607113674
 31
0.0
  0
ARC
  5
E36
330
18
100
AcDbEntity
  8
1
  6
Continuous
100
AcDbCircle
 10
384.416057537608
 20
176.2630607113675
 30
0.0
 40
2.7
100
AcDbArc
 50
90.0
 51
270.0
  0
LINE
  5
E37
330
18
100
AcDbEntity
  8
1
  6
Continuous
100
AcDbLine
 10
390.1728731435832
 20
173.5630607113674
 30
0.0
 11
384.416057537608
 21
173.5630607113674
 31
0.0
  0
LINE
  5
E39
330
18
100
AcDbEntity
  8
1
  6
Continuous
100
AcDbLine
 10
209.7273845376079
 20
105.7532287113676
 30
0.0
 11
209.7273845376077
 21
92.25322871136773
 31
0.0
  0
LINE
  5
E3A
330
18
100
AcDbEntity
  8
1
  6
Continuous
100
AcDbLine
 10
192.0368145376079
 20
105.7532287113676
 30
0.0
 11
192.0368145376079
 21
95.65322871136777
 31
0.0
  0
ARC
  5
E3C
330
18
100
AcDbEntity
  8
1
  6
Continuous
100
AcDbCircle
 10
129.9346502365512
 20
96.34472871136765
 30
0.0
 40
2.5
100
AcDbArc
 50
0.0
 51
90.00000000000005
  0
ARC
  5
E3D
330
18
100
AcDbEntity
  8
1
  6
Continuous
100
AcDbCircle
 10
121.3906965376078
 20
91.84472871136762
 30
0.0
 40
7.0
100
AcDbArc
 50
90.00000000000005
 51
180.0
  0
LINE
  5
E3E
330
18
100
AcDbEntity
  8
1
  6
Continuous
100
AcDbLine
 10
194.5368145376079
 20
108.2532287113677
 30
0.0
 11
207.2273845376079
 21
108.2532287113677
 31
0.0
  0
ARC
  5
E3F
330
18
100
AcDbEntity
  8
1
  6
Continuous
100
AcDbCircle
 10
194.5368145376079
 20
105.7532287113676
 30
0.0
 40
2.5
100
AcDbArc
 50
90.00000000000005
 51
180.0
  0
ARC
  5
E41
330
18
100
AcDbEntity
  8
1
  6
Continuous
100
AcDbCircle
 10
207.2273845376079
 20
105.7532287113676
 30
0.0
 40
2.5
100
AcDbArc
 50
0.0
 51
90.00000000000005
  0
ARC
  5
E42
330
18
100
AcDbEntity
  8
1
  6
Continuous
100
AcDbCircle
 10
138.7932455174103
 20
84.14276120476143
 30
0.0
 40
1.0
100
AcDbArc
 50
90.00000000000005
 51
139.3556858394237
  0
LINE
  5
E43
330
18
100
AcDbEntity
  8
1
  6
Continuous
100
AcDbLine
 10
139.788344183942
 20
78.84472871136762
 30
0.0
 11
114.3906965376078
 21
78.84472871136762
 31
0.0
  0
LINE
  5
E47
330
18
100
AcDbEntity
  8
1
  6
Continuous
100
AcDbLine
 10
208.4315665376077
 20
94.55322871136777
 30
0.0
 11
157.1415240310015
 21
94.55322871136777
 31
0.0
  0
LINE
  5
E4A
330
18
100
AcDbEntity
  8
1
  6
Continuous
100
AcDbLine
 10
129.9346502365512
 20
98.84472871136765
 30
0.0
 11
121.3906965376078
 21
98.84472871136765
 31
0.0
  0
LINE
  5
E4B
330
18
100
AcDbEntity
  8
1
  6
Continuous
100
AcDbLine
 10
114.3906965376078
 20
91.84472871136762
 30
0.0
 11
114.3906965376078
 21
78.84472871136762
 31
0.0
  0
LINE
  5
E4C
330
18
100
AcDbEntity
  8
1
  6
Continuous
100
AcDbLine
 10
114.8947425376077
 20
78.84472871136762
 30
0.0
 11
114.8947425376077
 21
78.24472871136766
 31
0.0
  0
ARC
  5
E4D
330
18
100
AcDbEntity
  8
1
  6
Continuous
100
AcDbCircle
 10
133.4346502365512
 20
95.55322871136777
 30
0.0
 40
1.0
100
AcDbArc
 50
180.0
 51
270.0
  0
LINE
  5
E4E
330
18
100
AcDbEntity
  8
1
  6
Continuous
100
AcDbLine
 10
132.4346502365512
 20
96.34472871136765
 30
0.0
 11
132.4346502365512
 21
95.55322871136777
 31
0.0
  0
ARC
  5
E4F
330
18
100
AcDbEntity
  8
1
  6
Continuous
100
AcDbCircle
 10
130.6298426910844
 20
83.84472871136763
 30
0.0
 40
5.0
100
AcDbArc
 50
270.0
 51
319.3556858394233
  0
LINE
  5
E50
330
18
100
AcDbEntity
  8
1
  6
Continuous
100
AcDbLine
 10
138.0344777641259
 20
84.79412246901937
 30
0.0
 11
134.4236814575065
 21
80.58792239007784
 31
0.0
  0
LINE
  5
E61
330
18
100
AcDbEntity
  8
1
  6
Continuous
100
AcDbLine
 10
151.7584073560169
 20
82.25322871136773
 30
0.0
 11
159.8579005376078
 21
82.25322871136773
 31
0.0
  0
LINE
  5
E64
330
18
100
AcDbEntity
  8
1
  6
Continuous
100
AcDbLine
 10
139.3337653481055
 20
83.46003223550889
 30
0.0
 11
142.5691735376078
 21
83.46003223550889
 31
0.0
  0
LINE
  5
E65
330
18
100
AcDbEntity
  8
1
  6
Continuous
100
AcDbLine
 10
139.3337653481055
 20
85.14276120476145
 30
0.0
 11
139.3337653481055
 21
83.46003223550889
 31
0.0
  0
ARC
  5
E66
330
18
100
AcDbEntity
  8
1
  6
Continuous
100
AcDbCircle
 10
143.0691735376078
 20
84.6427612047614
 30
0.0
 40
0.5
100
AcDbArc
 50
90.00000000000005
 51
180.0
  0
LINE
  5
E67
330
18
100
AcDbEntity
  8
1
  6
Continuous
100
AcDbLine
 10
159.8429164883955
 20
85.14276120476145
 30
0.0
 11
114.3906965376078
 21
85.14276120476145
 31
0.0
  0
LINE
  5
E68
330
18
100
AcDbEntity
  8
1
  6
Continuous
100
AcDbLine
 10
142.5691735376078
 20
85.14924465014672
 30
0.0
 11
142.5691735376078
 21
81.62555806503325
 31
0.0
  0
ARC
  5
E69
330
18
100
AcDbEntity
  8
1
  6
Continuous
100
AcDbCircle
 10
139.788344183942
 20
81.62555806503325
 30
0.0
 40
2.780829353665618
100
AcDbArc
 50
270.0
 51
359.999999999999
  0
LINE
  5
E6B
330
18
100
AcDbEntity
  8
1
  6
Continuous
100
AcDbLine
 10
181.0755695376077
 20
92.25322871136773
 30
0.0
 11
181.8503018281734
 21
88.2029311987171
 31
0.0
  0
LINE
  5
E6C
330
18
100
AcDbEntity
  8
1
  6
Continuous
100
AcDbLine
 10
186.8735815376079
 20
92.2532287113678
 30
0.0
 11
186.0988492470423
 21
88.20293119871712
 31
0.0
  0
LINE
  5
E77
330
18
100
AcDbEntity
  8
1
  6
Continuous
100
AcDbLine
 10
209.7273845376077
 20
92.25322871136773
 30
0.0
 11
167.9407779682565
 21
92.25322871136773
 31
0.0
  0
LINE
  5
E7E
330
18
100
AcDbEntity
  8
1
  6
Continuous
100
AcDbLine
 10
185.3130944139735
 20
87.55322871136774
 30
0.0
 11
182.6360566612421
 21
87.55322871136774
 31
0.0
  0
ARC
  5
E87
330
18
100
AcDbEntity
  8
1
  6
Continuous
100
AcDbCircle
 10
185.3130944139735
 20
88.35322871136773
 30
0.0
 40
0.8
100
AcDbArc
 50
270.0
 51
349.1713838415748
  0
ARC
  5
E88
330
18
100
AcDbEntity
  8
1
  6
Continuous
100
AcDbCircle
 10
182.6360566612421
 20
88.35322871136773
 30
0.0
 40
0.8
100
AcDbArc
 50
190.8286161584259
 51
270.0
  0
ARC
  5
E8A
330
18
100
AcDbEntity
  8
1
  6
Continuous
100
AcDbCircle
 10
206.4315665376079
 20
105.7532287113676
 30
0.0
 40
2.5
100
AcDbArc
 50
0.0
 51
90.00000000000005
  0
LINE
  5
E8B
330
18
100
AcDbEntity
  8
1
  6
Continuous
100
AcDbLine
 10
208.9315665376079
 20
105.7532287113676
 30
0.0
 11
208.9315665376078
 21
95.05322871136774
 31
0.0
  0
ARC
  5
E8C
330
18
100
AcDbEntity
  8
1
  6
Continuous
100
AcDbCircle
 10
208.4315665376077
 20
95.05322871136774
 30
0.0
 40
0.5
100
AcDbArc
 50
270.0
 51
359.9999999999997
  0
ARC
  5
E8E
330
18
100
AcDbEntity
  8
1
  6
Continuous
100
AcDbCircle
 10
178.6692485376078
 20
65.7447287113676
 30
0.0
 40
22.45
100
AcDbArc
 50
234.9429129999981
 51
76.27009923861315
  0
ARC
  5
E8F
330
18
100
AcDbEntity
  8
1
  6
Continuous
100
AcDbCircle
 10
178.6692485376078
 20
65.7447287113676
 30
0.0
 40
24.75
100
AcDbArc
 50
234.9429129999981
 51
72.02710855153191
  0
ARC
  5
E90
330
18
100
AcDbEntity
  8
1
  6
Continuous
100
AcDbCircle
 10
159.8579005376078
 20
92.55322871136751
 30
0.0
 40
10.3
100
AcDbArc
 50
270.0
 51
305.0570870000019
  0
ARC
  5
E92
330
18
100
AcDbEntity
  8
1
  6
Continuous
100
AcDbCircle
 10
178.6692485376078
 20
65.7447287113676
 30
0.0
 40
24.75
100
AcDbArc
 50
83.56808437819777
 51
109.9149580161372
  0
ARC
  5
E93
330
18
100
AcDbEntity
  8
1
  6
Continuous
100
AcDbCircle
 10
178.6692485376078
 20
65.7447287113676
 30
0.0
 40
22.45
100
AcDbArc
 50
81.61658687170485
 51
125.0570860279448
  0
LINE
  5
E95
330
18
100
AcDbEntity
  8
1
  6
Continuous
100
AcDbLine
 10
161.4105985376079
 20
80.74472871136761
 30
0.0
 11
146.2166538549469
 21
80.74472871136761
 31
0.0
  0
LINE
  5
E96
330
18
100
AcDbEntity
  8
1
  6
Continuous
100
AcDbLine
 10
144.4506855376079
 20
79.50520171136763
 30
0.0
 11
144.228430537608
 21
78.2447287113676
 31
0.0
  0
ARC
  5
E97
330
18
100
AcDbEntity
  8
1
  6
Continuous
100
AcDbCircle
 10
145.9278975376079
 20
79.2447287113676
 30
0.0
 40
1.5
100
AcDbArc
 50
146.5372005317735
 51
169.9999999999999
  0
ARC
  5
E98
330
18
100
AcDbEntity
  8
1
  6
Continuous
100
AcDbCircle
 10
161.4105985376079
 20
79.2447287113676
 30
0.0
 40
1.5
100
AcDbArc
 50
10.00000000000002
 51
90.0
  0
LINE
  5
E99
330
18
100
AcDbEntity
  8
1
  6
Continuous
100
AcDbLine
 10
162.887810537608
 20
79.50520171136763
 30
0.0
 11
163.1100655376079
 21
78.2447287113676
 31
0.0
  0
LINE
  5
E9B
330
18
100
AcDbEntity
  8
1
  6
Continuous
100
AcDbLine
 10
153.9298226034769
 20
87.44276120476142
 30
0.0
 11
114.3906965376078
 21
87.44276120476142
 31
0.0
  0
ARC
  5
F6C
330
18
100
AcDbEntity
  8
1
  6
Continuous
100
AcDbCircle
 10
120.4947425376077
 20
78.1258067113676
 30
0.0
 40
3.671082999999998
100
AcDbArc
 50
11.29343299999906
 51
168.7065670000009
  0
LINE
  5
FBA
330
18
100
AcDbEntity
  8
1
  6
Continuous
100
AcDbLine
 10
156.8692485376078
 20
94.82557920476143
 30
0.0
 11
150.4692485376077
 21
94.82557920476143
 31
0.0
  0
ARC
  5
FBB
330
18
100
AcDbEntity
  8
1
  6
Continuous
100
AcDbCircle
 10
156.6692485376079
 20
85.27769720476142
 30
0.0
 40
8.665063999999999
100
AcDbArc
 50
69.7438419999998
 51
110.2561580000002
  0
ARC
  5
FBC
330
18
100
AcDbEntity
  8
1
  6
Continuous
100
AcDbCircle
 10
156.6692485376079
 20
97.60782420476141
 30
0.0
 40
8.665063999999999
100
AcDbArc
 50
249.7438419999998
 51
270.3331559637915
  0
LINE
  5
FBD
330
18
100
AcDbEntity
  8
1
  6
Continuous
100
AcDbLine
 10
149.6692485376078
 20
94.02557920476141
 30
0.0
 11
157.6692485376078
 21
94.02557920476141
 31
0.0
  0
LINE
  5
FBE
330
18
100
AcDbEntity
  8
1
  6
Continuous
100
AcDbLine
 10
147.6692485376078
 20
93.94276120476131
 30
0.0
 11
159.6692485376079
 21
93.94276120476131
 31
0.0
  0
LINE
  5
FBF
330
18
100
AcDbEntity
  8
1
  6
Continuous
100
AcDbLine
 10
156.7194228255035
 20
88.94276120476142
 30
0.0
 11
146.6692485376078
 21
88.94276120476142
 31
0.0
  0
LINE
  5
FC0
330
18
100
AcDbEntity
  8
1
  6
Continuous
100
AcDbLine
 10
149.6692485376078
 20
93.94276120476131
 30
0.0
 11
149.6692485376078
 21
94.02557920476141
 31
0.0
  0
LINE
  5
FC1
330
18
100
AcDbEntity
  8
2
  6
Continuous
100
AcDbLine
 10
150.3457485376078
 20
94.70207920476132
 30
0.0
 11
150.3457485376078
 21
93.94276120476131
 31
0.0
  0
LINE
  5
FC2
330
18
100
AcDbEntity
  8
1
  6
Continuous
100
AcDbLine
 10
153.6692485376078
 20
89.47865920476143
 30
0.0
 11
153.6692485376078
 21
93.40686220476142
 31
0.0
  0
LINE
  5
FC3
330
18
100
AcDbEntity
  8
1
  6
Continuous
100
AcDbLine
 10
146.6692485376078
 20
88.94276120476142
 30
0.0
 11
146.6692485376078
 21
87.44276120476142
 31
0.0
  0
LINE
  5
FC4
330
18
100
AcDbEntity
  8
1
  6
Continuous
100
AcDbLine
 10
147.6692485376078
 20
93.94276120476131
 30
0.0
 11
147.6692485376078
 21
88.94276120476142
 31
0.0
  0
ARC
  5
FC5
330
18
100
AcDbEntity
  8
1
  6
Continuous
100
AcDbCircle
 10
150.6692485376078
 20
85.27769720476142
 30
0.0
 40
8.665063999999999
100
AcDbArc
 50
69.7438419999998
 51
110.2561580000002
  0
ARC
  5
FC6
330
18
100
AcDbEntity
  8
1
  6
Continuous
100
AcDbCircle
 10
150.6692485376078
 20
97.60782420476141
 30
0.0
 40
8.665063999999999
100
AcDbArc
 50
249.7438419999998
 51
290.2561580000002
  0
LINE
  5
FC7
330
18
100
AcDbEntity
  8
1
  6
Continuous
100
AcDbLine
 10
150.4692485376077
 20
94.82557920476143
 30
0.0
 11
149.6692485376078
 21
94.02557920476141
 31
0.0
  0
LINE
  5
FC8
330
18
100
AcDbEntity
  8
1
  6
Continuous
100
AcDbLine
 10
157.6692485376078
 20
93.94276120476131
 30
0.0
 11
157.6692485376078
 21
94.02557920476141
 31
0.0
  0
LINE
  5
FC9
330
18
100
AcDbEntity
  8
2
  6
Continuous
100
AcDbLine
 10
156.9927485376079
 20
94.70207920476132
 30
0.0
 11
156.9927485376079
 21
93.94276120476131
 31
0.0
  0
LINE
  5
FCB
330
18
100
AcDbEntity
  8
1
  6
Continuous
100
AcDbLine
 10
159.6692485376079
 20
93.94276120476131
 30
0.0
 11
159.6692485376079
 21
90.98729197201393
 31
0.0
  0
LINE
  5
FCC
330
18
100
AcDbEntity
  8
1
  6
Continuous
100
AcDbLine
 10
156.8692485376078
 20
94.82557920476143
 30
0.0
 11
157.6692485376078
 21
94.02557920476141
 31
0.0
  0
LINE
  5
FCD
330
18
100
AcDbEntity
  8
1
  6
Continuous
100
AcDbLine
 10
150.196823044214
 20
94.55322871136777
 30
0.0
 11
133.4346502365512
 21
94.55322871136777
 31
0.0
  0
LINE
  5
FD2
330
18
100
AcDbEntity
  8
1
  6
Continuous
100
AcDbLine
 10
163.4310615910403
 20
87.10044721199066
 30
0.0
 11
167.1131674841749
 21
90.29554270413854
 31
0.0
  0
ARC
  5
FD4
330
18
100
AcDbEntity
  8
1
  6
Continuous
100
AcDbCircle
 10
158.1879287858593
 20
93.14276120476142
 30
0.0
 40
8.0
100
AcDbArc
 50
270.0
 51
310.9493498618133
  0
ARC
  5
FD5
330
18
100
AcDbEntity
  8
1
  6
Continuous
100
AcDbCircle
 10
172.356300289356
 20
84.25322871136772
 30
0.0
 40
8.0
100
AcDbArc
 50
90.0
 51
130.9493498618131
  0
LINE
  5
FDA
330
18
100
AcDbEntity
  8
1
  6
Continuous
100
AcDbLine
 10
155.0691252752957
 20
87.79898828188356
 30
0.0
 11
162.2442646091623
 21
92.7720933257571
 31
0.0
  0
ARC
  5
FDC
330
18
100
AcDbEntity
  8
1
  6
Continuous
100
AcDbCircle
 10
153.9298226034769
 20
89.44276120476143
 30
0.0
 40
2.0
100
AcDbArc
 50
270.0
 51
304.7259159247926
  0
ARC
  5
FDD
330
18
100
AcDbEntity
  8
1
  6
Continuous
100
AcDbCircle
 10
167.9407779682565
 20
84.55322871136775
 30
0.0
 40
10.0
100
AcDbArc
 50
90.0
 51
124.7259159247927
  0
ARC
  5
FDE
330
18
100
AcDbEntity
  8
1
  6
Continuous
100
AcDbCircle
 10
167.9407779682565
 20
84.55322871136775
 30
0.0
 40
7.7
100
AcDbArc
 50
90.0
 51
124.7259159247927
  0
LINE
  5
FDF
330
18
100
AcDbEntity
  8
1
  6
Continuous
100
AcDbLine
 10
156.3793233478874
 20
85.90864942057399
 30
0.0
 11
163.5544626817539
 21
90.88175446444756
 31
0.0
  0
ARC
  5
FE0
330
18
100
AcDbEntity
  8
1
  6
Continuous
100
AcDbCircle
 10
153.9298226034769
 20
89.44276120476143
 30
0.0
 40
4.299999999999998
100
AcDbArc
 50
270.0
 51
304.7259159247926
  0
LINE
  5
FE3
330
18
100
AcDbEntity
  8
1
  6
Continuous
100
AcDbLine
 10
170.9994554037599
 20
86.84396859690204
 30
0.0
 11
170.2433497567849
 21
89.00186867923801
 31
0.0
  0
ARC
  5
FE4
330
18
100
AcDbEntity
  8
1
  6
Continuous
100
AcDbCircle
 10
178.6691735376076
 20
65.7447287113676
 30
0.0
 40
25.35
100
AcDbArc
 50
111.3039806252192
 51
125.0889562722932
  0
LINE
  5
FEB
330
18
100
AcDbEntity
  8
1
  6
Continuous
100
AcDbLine
 10
157.6692485376078
 20
80.74472871136761
 30
0.0
 11
157.6692485376078
 21
82.25322871136761
 31
0.0
  0
LINE
  5
FEC
330
18
100
AcDbEntity
  8
1
  6
Continuous
100
AcDbLine
 10
149.6692485376078
 20
80.74472871136761
 30
0.0
 11
149.6692485376078
 21
82.03254883354473
 31
0.0
  0
ARC
  5
FED
330
18
100
AcDbEntity
  8
1
  6
Continuous
100
AcDbCircle
 10
139.788344183942
 20
81.62555806503325
 30
0.0
 40
3.380829353665618
100
AcDbArc
 50
270.0
 51
293.6013722154221
  0
LINE
  5
FEF
330
18
100
AcDbEntity
  8
1
  6
Continuous
100
AcDbLine
 10
147.7546975656808
 20
81.41676012206126
 30
0.0
 11
141.1419301422148
 21
78.52752446738232
 31
0.0
  0
ARC
  5
FF1
330
18
100
AcDbEntity
  8
1
  6
Continuous
100
AcDbCircle
 10
151.7584073560169
 20
72.25322871136772
 30
0.0
 40
10.0
100
AcDbArc
 50
90.0
 51
113.601372215422
  0
ARC
  5
FF4
330
18
100
AcDbEntity
  8
1
  6
Continuous
100
AcDbCircle
 10
159.8429164883955
 20
92.54276120476143
 30
0.0
 40
7.4
100
AcDbArc
 50
270.0
 51
305.0889562722933
  0
ARC
  5
FFF
330
18
100
AcDbEntity
  8
1
  6
Continuous
100
AcDbCircle
 10
178.6692485376078
 20
65.7447287113676
 30
0.0
 40
26.000075
100
AcDbArc
 50
84.4220701828503
 51
131.0467320735914
  0
LINE
  5
1089
330
18
100
AcDbEntity
  8
1
  6
Continuous
100
AcDbLine
 10
248.8948775376078
 20
190.7318087113674
 30
0.0
 11
260.9948775376078
 21
190.7318537113675
 31
0.0
  0
LINE
  5
108A
330
18
100
AcDbEntity
  8
1
  6
Continuous
100
AcDbLine
 10
248.8948775376078
 20
184.5215607113674
 30
0.0
 11
260.9948775376078
 21
184.5215607113674
 31
0.0
  0
LINE
  5
108C
330
18
100
AcDbEntity
  8
1
  6
Continuous
100
AcDbLine
 10
248.8853908113511
 20
182.3636267113676
 30
0.0
 11
260.9948775376078
 21
182.3636267113676
 31
0.0
  0
LINE
  5
108D
330
18
100
AcDbEntity
  8
1
  6
Continuous
100
AcDbLine
 10
261.5948775376078
 20
165.0328487113675
 30
0.0
 11
261.5948775376078
 21
181.7636267113676
 31
0.0
  0
LINE
  5
108F
330
18
100
AcDbEntity
  8
1
  6
Continuous
100
AcDbLine
 10
263.8948775376078
 20
187.8318537113674
 30
0.0
 11
263.8948775376078
 21
165.0328487113675
 31
0.0
  0
ARC
  5
1090
330
18
100
AcDbEntity
  8
1
  6
Continuous
100
AcDbCircle
 10
260.9948775376078
 20
181.7636267113676
 30
0.0
 40
0.6
100
AcDbArc
 50
0.0
 51
90.0
  0
ARC
  5
1093
330
18
100
AcDbEntity
  8
1
  6
Continuous
100
AcDbCircle
 10
260.9948775376078
 20
187.8318537113674
 30
0.0
 40
2.9
100
AcDbArc
 50
0.0
 51
90.0
  0
ARC
  5
1094
330
18
100
AcDbEntity
  8
1
  6
Continuous
100
AcDbCircle
 10
260.9948775376078
 20
181.6215607113674
 30
0.0
 40
2.9
100
AcDbArc
 50
0.0
 51
90.0
  0
ARC
  5
1097
330
18
100
AcDbEntity
  8
1
  6
Continuous
100
AcDbCircle
 10
248.8948775376078
 20
185.5215607113674
 30
0.0
 40
1.0
100
AcDbArc
 50
179.9999999999998
 51
270.0
  0
LINE
  5
109E
330
18
100
AcDbEntity
  8
1
  6
Continuous
100
AcDbLine
 10
200.2855400085267
 20
95.65322871136777
 30
0.0
 11
177.4958530647164
 21
95.65322871136777
 31
0.0
  0
ARC
  5
10A0
330
18
100
AcDbEntity
  8
1
  6
Continuous
100
AcDbCircle
 10
195.4856503140258
 20
89.72566970958366
 30
0.0
 40
7.627246999999997
100
AcDbArc
 50
39.26706699999741
 51
51.00089199999708
  0
ARC
  5
10A1
330
18
100
AcDbEntity
  8
1
  6
Continuous
100
AcDbCircle
 10
182.2957427602083
 20
89.72566971038601
 30
0.0
 40
7.627246999999997
100
AcDbArc
 50
128.9991080000029
 51
140.7329330000026
  0
ARC
  5
10A3
330
18
100
AcDbEntity
  8
1
  6
Continuous
100
AcDbCircle
 10
266.4224365385895
 20
175.3580144887669
 30
0.0
 40
7.627246999999997
100
AcDbArc
 50
129.2670669999957
 51
141.000891999997
  0
LINE
  5
10A4
330
18
100
AcDbEntity
  8
1
  6
Continuous
100
AcDbLine
 10
260.4948776084853
 20
180.1579042717879
 30
0.0
 11
260.4948776084853
 21
172.3682171509469
 31
0.0
  0
ARC
  5
10A5
330
18
100
AcDbEntity
  8
1
  6
Continuous
100
AcDbCircle
 10
266.4224365385895
 20
177.168106933968
 30
0.0
 40
7.627246999999997
100
AcDbArc
 50
218.9991080000029
 51
230.7329330000025
  0
LINE
  5
10A6
330
18
100
AcDbEntity
  8
1
  6
Continuous
100
AcDbLine
 10
261.5948775376078
 20
165.0328487113675
 30
0.0
 11
263.8948775376078
 21
165.0328487113675
 31
0.0
  0
LINE
  5
10A8
330
18
100
AcDbEntity
  8
1
  6
Continuous
100
AcDbLine
 10
263.8948775376078
 20
187.5735757113674
 30
0.0
 11
268.594877537608
 21
187.5735757113674
 31
0.0
  0
LINE
  5
10A9
330
18
100
AcDbEntity
  8
1
  6
Continuous
100
AcDbLine
 10
263.8948775376078
 20
185.3112347113675
 30
0.0
 11
268.594877537608
 21
185.3112347113675
 31
0.0
  0
LINE
  5
10AA
330
18
100
AcDbEntity
  8
1
  6
Continuous
100
AcDbLine
 10
268.594877537608
 20
185.3112347113675
 30
0.0
 11
268.594877537608
 21
187.5735757113674
 31
0.0
  0
ARC
  5
10AE
330
18
100
AcDbEntity
  8
1
  6
Continuous
100
AcDbCircle
 10
312.9534045376078
 20
193.6415607113676
 30
0.0
 40
45.0
100
AcDbArc
 50
189.6858518425309
 51
206.3228890000013
  0
LINE
  5
10AF
330
18
100
AcDbEntity
  8
1
  6
Continuous
100
AcDbLine
 10
257.3033775376079
 20
193.1024144899273
 30
0.0
 11
261.5948775376078
 21
193.1024112744204
 31
0.0
  0
LINE
  5
10B0
330
18
100
AcDbEntity
  8
1
  6
Continuous
100
AcDbLine
 10
265.6533775376079
 20
195.4022437452291
 30
0.0
 11
257.3033775376079
 21
195.4022938466195
 31
0.0
  0
LINE
  5
10B2
330
18
100
AcDbEntity
  8
1
  6
Continuous
100
AcDbLine
 10
257.3033775376079
 20
195.4022938466195
 30
0.0
 11
257.3033775376079
 21
193.1024144899273
 31
0.0
  0
LINE
  5
10B3
330
18
100
AcDbEntity
  8
1
  6
Continuous
100
AcDbLine
 10
261.5948775376078
 20
190.6691059031895
 30
0.0
 11
261.5948775376078
 21
195.4022680969049
 31
0.0
  0
ARC
  5
10BE
330
18
100
AcDbEntity
  8
1
  6
Continuous
100
AcDbCircle
 10
169.677103555834
 20
88.803461925551
 30
0.0
 40
0.6
100
AcDbArc
 50
19.30992780180578
 51
111.3039806252194
  0
LINE
  5
10C6
330
18
100
AcDbEntity
  8
1
  6
Continuous
100
AcDbLine
 10
270.219728749084
 20
167.072727015902
 30
0.0
 11
264.2824519318696
 21
165.7026394489824
 31
0.0
  0
ARC
  5
10CA
330
18
100
AcDbEntity
  8
1
  6
Continuous
100
AcDbCircle
 10
264.3948775376077
 20
165.2154428940125
 30
0.0
 40
0.5
100
AcDbArc
 50
102.9941290198844
 51
180.0
  0
LINE
  5
10CF
330
18
100
AcDbEntity
  8
1
  6
Continuous
100
AcDbLine
 10
261.3225270442141
 20
182.2662655487255
 30
0.0
 11
261.3225270442141
 21
181.0295063514241
 31
0.0
  0
LINE
  5
1187
330
18
100
AcDbEntity
  8
1
  6
Continuous
100
AcDbLine
 10
54.60464873722504
 20
195.4022326435897
 30
0.0
 11
72.30466253760801
 21
195.4023388466195
 31
0.0
  0
LINE
  5
1188
330
18
100
AcDbEntity
  8
1
  6
Continuous
100
AcDbLine
 10
72.30466253760801
 20
195.4023388466195
 30
0.0
 11
72.30466253760801
 21
193.1024594899274
 31
0.0
  0
LINE
  5
1189
330
18
100
AcDbEntity
  8
1
  6
Continuous
100
AcDbLine
 10
72.30466253760801
 20
193.1024594899274
 30
0.0
 11
54.60466253760802
 21
193.1022326436309
 31
0.0
  0
LINE
  5
1211
330
18
100
AcDbEntity
  8
1
  6
Continuous
100
AcDbLine
 10
60.90269503100183
 20
169.0837110523571
 30
0.0
 11
60.90269503100183
 21
193.1023133603173
 31
0.0
  0
LINE
  5
1212
330
18
100
AcDbEntity
  8
1
  6
Continuous
100
AcDbLine
 10
58.61316253760815
 20
168.0471201258417
 30
0.0
 11
58.60269503100181
 21
179.3384610250168
 31
0.0
  0
LINE
  5
1213
330
18
100
AcDbEntity
  8
1
  6
Continuous
100
AcDbLine
 10
52.304662537608
 20
171.1233356007421
 30
0.0
 11
52.304662537608
 21
193.1022326436309
 31
0.0
  0
LINE
  5
1216
330
18
100
AcDbEntity
  8
1
  6
Continuous
100
AcDbLine
 10
54.60466253760802
 20
184.6024947113674
 30
0.0
 11
54.60466253760802
 21
193.1024445044588
 31
0.0
  0
ARC
  5
1217
330
18
100
AcDbEntity
  8
1
  6
Continuous
100
AcDbCircle
 10
54.60466253760802
 20
193.1022326436309
 30
0.0
 40
2.299999999999998
100
AcDbArc
 50
90.00034378421672
 51
180.0
  0
LINE
  5
1218
330
18
100
AcDbEntity
  8
1
  6
Continuous
100
AcDbLine
 10
67.48551303100175
 20
183.8770547113676
 30
0.0
 11
67.48551303100175
 21
175.8770547113674
 31
0.0
  0
LINE
  5
1219
330
18
100
AcDbEntity
  8
1
  6
Continuous
100
AcDbLine
 10
68.28551303100181
 20
176.6770547113676
 30
0.0
 11
68.28551303100181
 21
183.0770547113676
 31
0.0
  0
LINE
  5
121A
330
18
100
AcDbEntity
  8
1
  6
Continuous
100
AcDbLine
 10
67.40269503100178
 20
185.8770547113675
 30
0.0
 11
67.40269503100178
 21
173.8770547113674
 31
0.0
  0
ARC
  5
121B
330
18
100
AcDbEntity
  8
1
  6
Continuous
100
AcDbCircle
 10
73.86679703100179
 20
179.8770547113676
 30
0.0
 40
11.464102
100
AcDbArc
 50
162.4120459999993
 51
197.5879540000006
  0
LINE
  5
121C
330
18
100
AcDbEntity
  8
1
  6
Continuous
100
AcDbLine
 10
62.40269503100178
 20
172.8770547113674
 30
0.0
 11
62.40269503100178
 21
186.8770547113674
 31
0.0
  0
ARC
  5
121D
330
18
100
AcDbEntity
  8
1
  6
Continuous
100
AcDbCircle
 10
55.93859303100174
 20
179.8770547113676
 30
0.0
 40
11.464102
100
AcDbArc
 50
342.4120459999992
 51
17.58795400000067
  0
LINE
  5
121E
330
18
100
AcDbEntity
  8
1
  6
Continuous
100
AcDbLine
 10
62.40269503100178
 20
172.8770547113674
 30
0.0
 11
60.90269503100177
 21
172.8770547113674
 31
0.0
  0
LINE
  5
121F
330
18
100
AcDbEntity
  8
1
  6
Continuous
100
AcDbLine
 10
68.28551303100181
 20
176.6770547113676
 30
0.0
 11
67.48551303100175
 21
175.8770547113674
 31
0.0
  0
LINE
  5
1220
330
18
100
AcDbEntity
  8
2
  6
Continuous
100
AcDbLine
 10
68.16201303100178
 20
176.5535547113675
 30
0.0
 11
67.40269503100178
 21
176.5535547113675
 31
0.0
  0
LINE
  5
1221
330
18
100
AcDbEntity
  8
1
  6
Continuous
100
AcDbLine
 10
67.40269503100178
 20
175.8770547113674
 30
0.0
 11
67.48551303100175
 21
175.8770547113674
 31
0.0
  0
ARC
  5
1222
330
18
100
AcDbEntity
  8
1
  6
Continuous
100
AcDbCircle
 10
65.46968203100181
 20
174.6809027113676
 30
0.0
 40
3.066986999999998
100
AcDbArc
 50
145.615753000001
 51
205.6157529999999
  0
LINE
  5
1223
330
18
100
AcDbEntity
  8
1
  6
Continuous
100
AcDbLine
 10
62.93859303100173
 20
172.9488517113674
 30
0.0
 11
62.40269503100178
 21
173.8770547113674
 31
0.0
  0
LINE
  5
1224
330
18
100
AcDbEntity
  8
1
  6
Continuous
100
AcDbLine
 10
62.93859303100173
 20
176.4129537113674
 30
0.0
 11
66.86679703100178
 21
176.4129537113674
 31
0.0
  0
LINE
  5
1225
330
18
100
AcDbEntity
  8
1
  6
Continuous
100
AcDbLine
 10
62.93859303100173
 20
172.9488517113674
 30
0.0
 11
66.86679703100178
 21
172.9488517113674
 31
0.0
  0
ARC
  5
1226
330
18
100
AcDbEntity
  8
1
  6
Continuous
100
AcDbCircle
 10
64.33570803100173
 20
174.6809027113676
 30
0.0
 40
3.066986999999998
100
AcDbArc
 50
334.384247
 51
34.38424699999895
  0
LINE
  5
1227
330
18
100
AcDbEntity
  8
1
  6
Continuous
100
AcDbLine
 10
66.86679703100178
 20
172.9488517113674
 30
0.0
 11
67.40269503100178
 21
173.8770547113674
 31
0.0
  0
LINE
  5
1228
330
18
100
AcDbEntity
  8
1
  6
Continuous
100
AcDbLine
 10
62.40269503100178
 20
186.8770547113674
 30
0.0
 11
60.90269503100177
 21
186.8770547113674
 31
0.0
  0
LINE
  5
1229
330
18
100
AcDbEntity
  8
1
  6
Continuous
100
AcDbLine
 10
68.28551303100181
 20
183.0770547113676
 30
0.0
 11
67.48551303100175
 21
183.8770547113676
 31
0.0
  0
LINE
  5
122A
330
18
100
AcDbEntity
  8
2
  6
Continuous
100
AcDbLine
 10
68.16201303100178
 20
183.2005547113675
 30
0.0
 11
67.40269503100178
 21
183.2005547113675
 31
0.0
  0
LINE
  5
122B
330
18
100
AcDbEntity
  8
1
  6
Continuous
100
AcDbLine
 10
67.40269503100178
 20
183.8770547113676
 30
0.0
 11
67.48551303100175
 21
183.8770547113676
 31
0.0
  0
LINE
  5
122C
330
18
100
AcDbEntity
  8
1
  6
Continuous
100
AcDbLine
 10
62.93859303100173
 20
186.8052587113674
 30
0.0
 11
62.40269503100178
 21
185.8770547113675
 31
0.0
  0
LINE
  5
122D
330
18
100
AcDbEntity
  8
1
  6
Continuous
100
AcDbLine
 10
62.93859303100173
 20
186.8052587113674
 30
0.0
 11
66.86679703100178
 21
186.8052587113674
 31
0.0
  0
LINE
  5
122E
330
18
100
AcDbEntity
  8
1
  6
Continuous
100
AcDbLine
 10
62.93859303100173
 20
183.3411567113675
 30
0.0
 11
66.86679703100178
 21
183.3411567113675
 31
0.0
  0
ARC
  5
122F
330
18
100
AcDbEntity
  8
1
  6
Continuous
100
AcDbCircle
 10
65.46968203100181
 20
185.0732077113676
 30
0.0
 40
3.066986999999998
100
AcDbArc
 50
154.3842469999999
 51
214.3842469999988
  0
LINE
  5
1230
330
18
100
AcDbEntity
  8
1
  6
Continuous
100
AcDbLine
 10
66.86679703100178
 20
186.8052587113674
 30
0.0
 11
67.40269503100178
 21
185.8770547113675
 31
0.0
  0
ARC
  5
1231
330
18
100
AcDbEntity
  8
1
  6
Continuous
100
AcDbCircle
 10
64.33570803100173
 20
185.0732077113676
 30
0.0
 40
3.066986999999998
100
AcDbArc
 50
325.6157530000009
 51
25.6157529999999
  0
LINE
  5
1235
330
18
100
AcDbEntity
  8
1
  6
Continuous
100
AcDbLine
 10
60.90269503100183
 20
170.6719437113675
 30
0.0
 11
58.60269503100181
 21
170.6719437113675
 31
0.0
  0
LINE
  5
1239
330
18
100
AcDbEntity
  8
1
  6
Continuous
100
AcDbLine
 10
59.83582290877484
 20
181.2799541712984
 30
0.0
 11
54.60466253760802
 21
184.6024947113674
 31
0.0
  0
LINE
  5
123B
330
18
100
AcDbEntity
  8
1
  6
Continuous
100
AcDbLine
 10
58.60269503100181
 20
179.3384610250168
 30
0.0
 11
53.37153465983499
 21
182.6610015650856
 31
0.0
  0
ARC
  5
123C
330
18
100
AcDbEntity
  8
1
  6
Continuous
100
AcDbCircle
 10
58.60269503100181
 20
179.3384610250168
 30
0.0
 40
2.299999999999998
100
AcDbArc
 50
0.0
 51
57.57857006083414
  0
ARC
  5
123D
330
18
100
AcDbEntity
  8
1
  6
Continuous
100
AcDbCircle
 10
54.60466253760802
 20
184.6024947113674
 30
0.0
 40
2.299999999999998
100
AcDbArc
 50
180.0
 51
237.5785700608342
  0
LINE
  5
124C
330
18
100
AcDbEntity
  8
1
  6
Continuous
100
AcDbLine
 10
58.00269503100185
 20
167.7770097113675
 30
0.0
 11
55.71316253760812
 21
167.7770097113675
 31
0.0
  0
LINE
  5
124E
330
18
100
AcDbEntity
  8
1
  6
Continuous
100
AcDbLine
 10
68.01316253760814
 20
165.0328487113675
 30
0.0
 11
68.01316253760814
 21
176.4047042179738
 31
0.0
  0
ARC
  5
124F
330
18
100
AcDbEntity
  8
1
  6
Continuous
100
AcDbCircle
 10
58.00269503100185
 20
168.3770097113674
 30
0.0
 40
0.6
100
AcDbArc
 50
270.0
 51
0.0000000000000891
  0
LINE
  5
1250
330
18
100
AcDbEntity
  8
1
  6
Continuous
100
AcDbLine
 10
55.71316253760812
 20
167.7770097113675
 30
0.0
 11
55.71316253760812
 21
181.173730481496
 31
0.0
  0
LINE
  5
1253
330
18
100
AcDbEntity
  8
1
  6
Continuous
100
AcDbLine
 10
55.71316253760812
 20
171.1233356007421
 30
0.0
 11
51.704662537608
 21
171.1233356007421
 31
0.0
  0
LINE
  5
1258
330
18
100
AcDbEntity
  8
1
  6
Continuous
100
AcDbLine
 10
52.30526671940379
 20
184.5497797113674
 30
0.0
 11
51.704662537608
 21
184.5497797113674
 31
0.0
  0
ARC
  5
125E
330
18
100
AcDbEntity
  8
1
  6
Continuous
100
AcDbCircle
 10
51.585740537608
 20
179.304190853969
 30
0.0
 40
3.671082999999998
100
AcDbArc
 50
281.293432999999
 51
78.70656700000096
  0
LINE
  5
1262
330
18
100
AcDbEntity
  8
1
  6
Continuous
100
AcDbLine
 10
81.71316253760812
 20
189.7318537113676
 30
0.0
 11
81.71316253760812
 21
183.3636267113677
 31
0.0
  0
LINE
  5
1263
330
18
100
AcDbEntity
  8
1
  6
Continuous
100
AcDbLine
 10
80.71316253760812
 20
182.3636267113677
 30
0.0
 11
68.28551303100181
 21
182.3636267113676
 31
0.0
  0
LINE
  5
1264
330
18
100
AcDbEntity
  8
1
  6
Continuous
100
AcDbLine
 10
80.71316253760812
 20
188.5739197113676
 30
0.0
 11
68.01316253760814
 21
188.5739197113676
 31
0.0
  0
LINE
  5
1265
330
18
100
AcDbEntity
  8
1
  6
Continuous
100
AcDbLine
 10
80.71316253760812
 20
190.7318537113676
 30
0.0
 11
68.01316253760814
 21
190.7318537113675
 31
0.0
  0
ARC
  5
126F
330
18
100
AcDbEntity
  8
1
  6
Continuous
100
AcDbCircle
 10
80.71316253760812
 20
183.3636267113677
 30
0.0
 40
1.0
100
AcDbArc
 50
270.0
 51
0.0000000000001527
  0
ARC
  5
1270
330
18
100
AcDbEntity
  8
1
  6
Continuous
100
AcDbCircle
 10
80.71316253760812
 20
187.5739197113676
 30
0.0
 40
1.0
100
AcDbArc
 50
0.0000000000004071
 51
89.99999999999987
  0
ARC
  5
1271
330
18
100
AcDbEntity
  8
1
  6
Continuous
100
AcDbCircle
 10
80.71316253760812
 20
189.7318537113676
 30
0.0
 40
1.0
100
AcDbArc
 50
0.0000000000001908
 51
90.0000000000001
  0
ARC
  5
1273
330
18
100
AcDbEntity
  8
1
  6
Continuous
100
AcDbCircle
 10
63.18560353662633
 20
175.358059488767
 30
0.0
 40
7.627246999999997
100
AcDbArc
 50
38.9991080000029
 51
48.03754069048451
  0
LINE
  5
1274
330
18
100
AcDbEntity
  8
1
  6
Continuous
100
AcDbLine
 10
69.11316246673057
 20
180.1579492717881
 30
0.0
 11
69.11316246673057
 21
172.368262150947
 31
0.0
  0
ARC
  5
1275
330
18
100
AcDbEntity
  8
1
  6
Continuous
100
AcDbCircle
 10
63.18560353662633
 20
177.168151933968
 30
0.0
 40
7.627246999999997
100
AcDbArc
 50
309.2670669999973
 51
321.0008919999971
  0
LINE
  5
1291
330
18
100
AcDbEntity
  8
1
  6
Continuous
100
AcDbLine
 10
68.01316253760814
 20
183.3494052047612
 30
0.0
 11
68.01316253760814
 21
193.1024044893126
 31
0.0
  0
LINE
  5
129B
330
18
100
AcDbEntity
  8
1
  6
Continuous
100
AcDbLine
 10
68.01316253760814
 20
165.0328487113675
 30
0.0
 11
65.71316253760811
 21
165.0328487113675
 31
0.0
  0
ARC
  5
12A1
330
18
100
AcDbEntity
  8
1
  6
Continuous
100
AcDbCircle
 10
310.6533775376078
 20
193.6415607113676
 30
0.0
 40
45.6
100
AcDbArc
 50
190.5260521039258
 51
206.8778050000001
  0
ARC
  5
12A2
330
18
100
AcDbEntity
  8
1
  6
Continuous
100
AcDbCircle
 10
261.5948775376078
 20
168.7766537113676
 30
0.0
 40
9.4
100
AcDbArc
 50
0.0
 51
26.87780500000008
  0
LINE
  5
12A4
330
18
100
AcDbEntity
  8
1
  6
Continuous
100
AcDbLine
 10
270.9948775376078
 20
168.0471201258417
 30
0.0
 11
270.9948775376078
 21
168.7766537113676
 31
0.0
  0
ARC
  5
12A6
330
18
100
AcDbEntity
  8
1
  6
Continuous
100
AcDbCircle
 10
269.9948775376078
 20
168.0471201258417
 30
0.0
 40
1.0
100
AcDbArc
 50
282.9941290198843
 51
0.0
  0
LINE
  5
12BB
330
18
100
AcDbEntity
  8
1
  6
Continuous
100
AcDbLine
 10
271.6053450442141
 20
167.7769647113673
 30
0.0
 11
273.8948775376077
 21
167.7769647113673
 31
0.0
  0
ARC
  5
12BC
330
18
100
AcDbEntity
  8
1
  6
Continuous
100
AcDbCircle
 10
271.6053450442141
 20
168.3769647113674
 30
0.0
 40
0.6
100
AcDbArc
 50
179.9999999999998
 51
270.0
  0
LINE
  5
12F0
330
18
100
AcDbEntity
  8
1
  6
Continuous
100
AcDbLine
 10
273.8948775376077
 20
171.123290600742
 30
0.0
 11
275.5465312141051
 21
171.123290600742
 31
0.0
  0
LINE
  5
12F2
330
18
100
AcDbEntity
  8
1
  6
Continuous
100
AcDbLine
 10
273.8948775376077
 20
188.6307288219929
 30
0.0
 11
275.5465302994632
 21
188.6307288219929
 31
0.0
  0
ARC
  5
12F6
330
18
100
AcDbEntity
  8
1
  6
Continuous
100
AcDbCircle
 10
59.61316253760815
 20
168.0471201258417
 30
0.0
 40
1.0
100
AcDbArc
 50
180.0
 51
257.0058709801155
  0
ARC
  5
12F7
330
18
100
AcDbEntity
  8
1
  6
Continuous
100
AcDbCircle
 10
65.21316253760819
 20
165.2154428940125
 30
0.0
 40
0.5
100
AcDbArc
 50
0.000000000000007
 51
77.00587098011556
  0
LINE
  5
12F8
330
18
100
AcDbEntity
  8
1
  6
Continuous
100
AcDbLine
 10
59.38831132613192
 20
167.0727270159021
 30
0.0
 11
65.32558814334629
 21
165.7026394489824
 31
0.0
  0
LINE
  5
12FA
330
18
100
AcDbEntity
  8
1
  6
Continuous
100
AcDbLine
 10
65.71316253760817
 20
165.2154428940125
 30
0.0
 11
65.71316253760811
 21
165.0328487113675
 31
0.0
  0
LINE
  5
12FB
330
18
100
AcDbEntity
  8
1
  6
Continuous
100
AcDbLine
 10
60.90269503100183
 20
169.0837110523571
 30
0.0
 11
65.84274592974168
 21
167.9437436018434
 31
0.0
  0
ARC
  5
12FC
330
18
100
AcDbEntity
  8
1
  6
Continuous
100
AcDbCircle
 10
65.21316253760819
 20
165.2154428940125
 30
0.0
 40
2.799999999999998
100
AcDbArc
 50
0.000000000000007
 51
77.00587098011556
  0
LINE
  5
15DC
330
18
100
AcDbEntity
  8
1
  6
Continuous
100
AcDbLine
 10
247.8948775376078
 20
189.7318087113674
 30
0.0
 11
247.8948775376078
 21
183.3635817113675
 31
0.0
  0
ARC
  5
15E9
330
18
100
AcDbEntity
  8
1
  6
Continuous
100
AcDbCircle
 10
248.8948775376078
 20
183.3635817113675
 30
0.0
 40
1.0
100
AcDbArc
 50
179.9999999999998
 51
269.9999999999998
  0
ARC
  5
162E
330
18
100
AcDbEntity
  8
1
  6
Continuous
100
AcDbCircle
 10
248.8948775376078
 20
189.7318087113674
 30
0.0
 40
1.0
100
AcDbArc
 50
89.99999999999991
 51
179.9999999999998
  0
LINE
  5
1885
330
18
100
AcDbEntity
  8
4
  6
CENTER
100
AcDbLine
 10
153.6692485376078
 20
33.74472871136771
 30
0.0
 11
153.6692485376078
 21
97.74472871136758
 31
0.0
  0
ENDSEC
  0
SECTION
  2
OBJECTS
  0
DICTIONARY
  5
C
330
0
100
AcDbDictionary
281
     1
  3
ACAD_CIP_PREVIOUS_PRODUCT_INFO
350
1975
  3
ACAD_COLOR
350
1958
  3
ACAD_DETAILVIEWSTYLE
350
1971
  3
ACAD_GROUP
350
D
  3
ACAD_LAYOUT
350
94
  3
ACAD_MATERIAL
350
1926
  3
ACAD_MLEADERSTYLE
350
196D
  3
ACAD_MLINESTYLE
350
1B
  3
ACAD_PLOTSETTINGS
350
95
  3
ACAD_PLOTSTYLENAME
350
1924
  3
ACAD_SCALELIST
350
195B
  3
ACAD_SECTIONVIEWSTYLE
350
196F
  3
ACAD_TABLESTYLE
350
1959
  3
ACAD_VISUALSTYLE
350
193F
  3
ACDB_RECOMPOSE_DATA
350
1993
  3
AcDbVariableDictionary
350
1986
  3
CONTENTDICTIONARY
350
3D
  3
DWGPROPS
350
1994
  0
DICTIONARY
  5
1976
330
E
100
AcDbDictionary
280
     1
281
     1
  3
ADSK_XREC_LAYER_RECONCILED
360
1977
  0
DICTIONARY
  5
1978
330
4E
100
AcDbDictionary
280
     1
281
     1
  3
ADSK_XREC_LAYER_RECONCILED
360
1979
  0
DICTIONARY
  5
197A
330
4F
100
AcDbDictionary
280
     1
281
     1
  3
ADSK_XREC_LAYER_RECONCILED
360
197B
  0
DICTIONARY
  5
197C
330
50
100
AcDbDictionary
280
     1
281
     1
  3
ADSK_XREC_LAYER_RECONCILED
360
197D
  0
DICTIONARY
  5
197E
330
51
100
AcDbDictionary
280
     1
281
     1
  3
ADSK_XREC_LAYER_RECONCILED
360
197F
  0
DICTIONARY
  5
1980
330
52
100
AcDbDictionary
280
     1
281
     1
  3
ADSK_XREC_LAYER_RECONCILED
360
1981
  0
DICTIONARY
  5
1982
330
53
100
AcDbDictionary
280
     1
281
     1
  3
ADSK_XREC_LAYER_RECONCILED
360
1983
  0
DICTIONARY
  5
1984
330
54
100
AcDbDictionary
280
     1
281
     1
  3
ADSK_XREC_LAYER_RECONCILED
360
1985
  0
DICTIONARY
  5
190E
330
18
100
AcDbDictionary
281
     1
  3
ACAD_LAYOUTSELFREF
350
1920
  0
DICTIONARY
  5
190C
330
15
100
AcDbDictionary
281
     1
  3
ACAD_LAYOUTSELFREF
350
191F
  0
XRECORD
  5
1975
102
{ACAD_REACTORS
330
C
102
}
330
C
100
AcDbXrecord
280
     1
300
ACDLT
300
2014
300
ACDLT_F_S
  0
DICTIONARY
  5
1958
102
{ACAD_REACTORS
330
C
102
}
330
C
100
AcDbDictionary
281
     1
  0
DICTIONARY
  5
1971
102
{ACAD_REACTORS
330
C
102
}
330
C
100
AcDbDictionary
281
     1
  3
Imperial24
350
1972
  0
DICTIONARY
  5
D
102
{ACAD_REACTORS
330
C
102
}
330
C
100
AcDbDictionary
281
     1
  0
DICTIONARY
  5
94
102
{ACAD_REACTORS
330
C
102
}
330
C
100
AcDbDictionary
281
     1
  3
Model
350
1973
  3
レイアウト1
350
1974
  0
DICTIONARY
  5
1926
102
{ACAD_REACTORS
330
C
102
}
330
C
100
AcDbDictionary
281
     1
  3
ByBlock
350
192F
  3
ByLayer
350
1927
  3
Global
350
1937
  0
DICTIONARY
  5
196D
102
{ACAD_REACTORS
330
C
102
}
330
C
100
AcDbDictionary
281
     1
  3
Standard
350
196E
  0
DICTIONARY
  5
1B
102
{ACAD_REACTORS
330
C
102
}
330
C
100
AcDbDictionary
281
     1
  3
STANDARD
350
1C
  0
DICTIONARY
  5
95
102
{ACAD_REACTORS
330
C
102
}
330
C
100
AcDbDictionary
281
     1
  0
ACDBDICTIONARYWDFLT
  5
1924
102
{ACAD_REACTORS
330
C
102
}
330
C
100
AcDbDictionary
281
     1
  3
Normal
350
1925
100
AcDbDictionaryWithDefault
340
1925
  0
DICTIONARY
  5
195B
102
{ACAD_REACTORS
330
C
102
}
330
C
100
AcDbDictionary
281
     1
  3
A0
350
195C
  3
A1
350
195D
  3
A2
350
195E
  3
A3
350
195F
  3
A4
350
1960
  3
A5
350
1961
  3
A6
350
1962
  3
A7
350
1963
  3
A8
350
1964
  3
A9
350
1965
  3
B0
350
1966
  3
B1
350
1967
  3
B2
350
1968
  3
B3
350
1969
  3
B4
350
196A
  3
B5
350
196B
  3
B6
350
196C
  0
DICTIONARY
  5
196F
102
{ACAD_REACTORS
330
C
102
}
330
C
100
AcDbDictionary
281
     1
  3
Imperial24
350
1970
  0
DICTIONARY
  5
1959
102
{ACAD_REACTORS
330
C
102
}
330
C
100
AcDbDictionary
281
     1
  3
Standard
350
195A
  0
DICTIONARY
  5
193F
102
{ACAD_REACTORS
330
C
102
}
330
C
100
AcDbDictionary
281
     1
  3
2dWireframe
350
1945
  3
Basic
350
1944
  3
Brighten
350
194B
  3
ColorChange
350
194F
  3
Conceptual
350
1948
  3
Dim
350
194A
  3
EdgeColorOff
350
1957
  3
Facepattern
350
194E
  3
Flat
350
1940
  3
FlatWithEdges
350
1941
  3
Gouraud
350
1942
  3
GouraudWithEdges
350
1943
  3
Hidden
350
1947
  3
JitterOff
350
1955
  3
Linepattern
350
194D
  3
OverhangOff
350
1956
  3
Realistic
350
1949
  3
Shaded
350
1954
  3
Shaded with edges
350
1953
  3
Shades of Gray
350
1950
  3
Sketchy
350
1951
  3
Thicken
350
194C
  3
Wireframe
350
1946
  3
X-Ray
350
1952
  0
XRECORD
  5
1993
102
{ACAD_REACTORS
330
C
102
}
330
C
100
AcDbXrecord
280
     1
 90
        1
330
195A
  0
DICTIONARY
  5
1986
102
{ACAD_REACTORS
330
C
102
}
330
C
100
AcDbDictionary
281
     1
  3
CANNOSCALE
350
198B
  3
CMLEADERSTYLE
350
1988
  3
CTABLESTYLE
350
1987
  3
CVIEWDETAILSTYLE
350
1989
  3
CVIEWSECTIONSTYLE
350
198A
  3
DIMASSOC
350
198E
  3
INDEXCTL
350
198D
  3
SORTENTS
350
198C
  3
XCLIPFRAME
350
198F
  0
DICTIONARY
  5
3D
102
{ACAD_REACTORS
330
C
102
}
330
C
100
AcDbDictionary
281
     1
  0
XRECORD
  5
1994
102
{ACAD_REACTORS
330
C
102
}
330
C
100
AcDbXrecord
280
     1
  1
DWGPROPS COOKIE
  2

  3

  4

  6

  7

  8
Yoshitsune
  9

300
=
301
=
302
=
303
=
304
=
305
=
306
=
307
=
308
=
309
=
 40
0.2664073495370371
 41
2455517.66158684
 42
2457192.687246586
  1

 90
        0
  0
XRECORD
  5
1977
102
{ACAD_REACTORS
330
1976
102
}
330
1976
100
AcDbXrecord
280
     1
290
     1
  0
XRECORD
  5
1979
102
{ACAD_REACTORS
330
1978
102
}
330
1978
100
AcDbXrecord
280
     1
290
     1
  0
XRECORD
  5
197B
102
{ACAD_REACTORS
330
197A
102
}
330
197A
100
AcDbXrecord
280
     1
290
     1
  0
XRECORD
  5
197D
102
{ACAD_REACTORS
330
197C
102
}
330
197C
100
AcDbXrecord
280
     1
290
     1
  0
XRECORD
  5
197F
102
{ACAD_REACTORS
330
197E
102
}
330
197E
100
AcDbXrecord
280
     1
290
     1
  0
XRECORD
  5
1981
102
{ACAD_REACTORS
330
1980
102
}
330
1980
100
AcDbXrecord
280
     1
290
     1
  0
XRECORD
  5
1983
102
{ACAD_REACTORS
330
1982
102
}
330
1982
100
AcDbXrecord
280
     1
290
     1
  0
XRECORD
  5
1985
102
{ACAD_REACTORS
330
1984
102
}
330
1984
100
AcDbXrecord
280
     1
290
     1
  0
XRECORD
  5
1920
102
{ACAD_REACTORS
330
190E
102
}
330
190E
100
AcDbXrecord
280
     1
340
18
  0
XRECORD
  5
191F
102
{ACAD_REACTORS
330
190C
102
}
330
190C
100
AcDbXrecord
280
     1
340
15
  0
ACDBDETAILVIEWSTYLE
  5
1972
102
{ACAD_XDICTIONARY
360
19CC
102
}
102
{ACAD_REACTORS
330
1971
102
}
330
1971
100
AcDbModelDocViewStyle
 70
     0
  3
Imperial24
290
     0
100
AcDbDetailViewStyle
 70
     0
 71
     0
 90
        3
 71
     1
340
F
 40
0.24
340
0
 40
0.24
300

 40
0.36
280
     3
 71
     2
340
14
 90
       25
 71
     3
340
F
 40
0.24
 90
        1
 40
0.75
 90
        1
300
%<\AcVar ViewType \f "%tc1">% %<\AcVar ViewDetailId>%\PSCALE %<\AcVar ViewScale \f "%sn">%
 71
     4
340
14
 90
       25
340
14
 90
       25
280
     0
  0
LAYOUT
  5
1973
102
{ACAD_XDICTIONARY
360
19CE
102
}
102
{ACAD_REACTORS
330
94
102
}
330
94
100
AcDbPlotSettings
  1

  2
Canon LBP9100C
  4

  6

 40
0.0
 41
0.0
 42
0.0
 43
0.0
 44
0.0
 45
0.0
 46
0.0
 47
0.0
 48
0.0
 49
0.0
140
0.0
141
0.0
142
1.0
143
1.0
 70
  1712
 72
     0
 73
     0
 74
     0
  7

 75
     0
147
1.0
148
0.0
149
0.0
100
AcDbLayout
  1
Model
 70
     1
 71
     0
 10
0.0
 20
0.0
 11
12.0
 21
9.0
 12
0.0
 22
0.0
 32
0.0
 14
0.0
 24
0.0
 34
0.0
 15
0.0
 25
0.0
 35
0.0
146
0.0
 13
0.0
 23
0.0
 33
0.0
 16
1.0
 26
0.0
 36
0.0
 17
0.0
 27
1.0
 37
0.0
 76
     0
330
18
331
191E
  0
LAYOUT
  5
1974
102
{ACAD_XDICTIONARY
360
19D0
102
}
102
{ACAD_REACTORS
330
94
102
}
330
94
100
AcDbPlotSettings
  1

  2
Canon LBP9100C
  4

  6

 40
0.0
 41
0.0
 42
0.0
 43
0.0
 44
0.0
 45
0.0
 46
0.0
 47
0.0
 48
0.0
 49
0.0
140
0.0
141
0.0
142
1.0
143
1.0
 70
   688
 72
     0
 73
     0
 74
     5
  7

 75
    16
147
1.0
148
0.0
149
0.0
100
AcDbLayout
  1
レイアウト1
 70
     1
 71
     1
 10
0.0
 20
0.0
 11
420.0
 21
297.0
 12
0.0
 22
0.0
 32
0.0
 14
1.000000000000000E+20
 24
1.000000000000000E+20
 34
1.000000000000000E+20
 15
-1.000000000000000E+20
 25
-1.000000000000000E+20
 35
-1.000000000000000E+20
146
0.0
 13
0.0
 23
0.0
 33
0.0
 16
1.0
 26
0.0
 36
0.0
 17
0.0
 27
1.0
 37
0.0
 76
     0
330
15
  0
MATERIAL
  5
192F
102
{ACAD_XDICTIONARY
360
1930
102
}
102
{ACAD_REACTORS
330
1926
102
}
330
1926
100
AcDbMaterial
  1
ByBlock
 72
     0
 43
0.0208333333333333
 43
0.0
 43
0.0
 43
0.0
 43
0.0
 43
0.0208333333333333
 43
0.0
 43
0.0
 43
0.0
 43
0.0
 43
1.0
 43
0.0
 43
0.0
 43
0.0
 43
0.0
 43
1.0
 77
     0
 47
0.0208333333333333
 47
0.0
 47
0.0
 47
0.0
 47
0.0
 47
0.0208333333333333
 47
0.0
 47
0.0
 47
0.0
 47
0.0
 47
1.0
 47
0.0
 47
0.0
 47
0.0
 47
0.0
 47
1.0
171
     0
 49
0.0208333333333333
 49
0.0
 49
0.0
 49
0.0
 49
0.0
 49
0.0208333333333333
 49
0.0
 49
0.0
 49
0.0
 49
0.0
 49
1.0
 49
0.0
 49
0.0
 49
0.0
 49
0.0
 49
1.0
175
     0
142
0.0208333333333333
142
0.0
142
0.0
142
0.0
142
0.0
142
0.0208333333333333
142
0.0
142
0.0
142
0.0
142
0.0
142
1.0
142
0.0
142
0.0
142
0.0
142
0.0
142
1.0
179
     0
144
0.0208333333333333
144
0.0
144
0.0
144
0.0
144
0.0
144
0.0208333333333333
144
0.0
144
0.0
144
0.0
144
0.0
144
1.0
144
0.0
144
0.0
144
0.0
144
0.0
144
1.0
147
0.0208333333333333
147
0.0
147
0.0
147
0.0
147
0.0
147
0.0208333333333333
147
0.0
147
0.0
147
0.0
147
0.0
147
1.0
147
0.0
147
0.0
147
0.0
147
0.0
147
1.0
  0
MATERIAL
  5
1927
102
{ACAD_XDICTIONARY
360
1928
102
}
102
{ACAD_REACTORS
330
1926
102
}
330
1926
100
AcDbMaterial
  1
ByLayer
 72
     0
 43
0.0208333333333333
 43
0.0
 43
0.0
 43
0.0
 43
0.0
 43
0.0208333333333333
 43
0.0
 43
0.0
 43
0.0
 43
0.0
 43
1.0
 43
0.0
 43
0.0
 43
0.0
 43
0.0
 43
1.0
 77
     0
 47
0.0208333333333333
 47
0.0
 47
0.0
 47
0.0
 47
0.0
 47
0.0208333333333333
 47
0.0
 47
0.0
 47
0.0
 47
0.0
 47
1.0
 47
0.0
 47
0.0
 47
0.0
 47
0.0
 47
1.0
171
     0
 49
0.0208333333333333
 49
0.0
 49
0.0
 49
0.0
 49
0.0
 49
0.0208333333333333
 49
0.0
 49
0.0
 49
0.0
 49
0.0
 49
1.0
 49
0.0
 49
0.0
 49
0.0
 49
0.0
 49
1.0
175
     0
142
0.0208333333333333
142
0.0
142
0.0
142
0.0
142
0.0
142
0.0208333333333333
142
0.0
142
0.0
142
0.0
142
0.0
142
1.0
142
0.0
142
0.0
142
0.0
142
0.0
142
1.0
179
     0
144
0.0208333333333333
144
0.0
144
0.0
144
0.0
144
0.0
144
0.0208333333333333
144
0.0
144
0.0
144
0.0
144
0.0
144
1.0
144
0.0
144
0.0
144
0.0
144
0.0
144
1.0
147
0.0208333333333333
147
0.0
147
0.0
147
0.0
147
0.0
147
0.0208333333333333
147
0.0
147
0.0
147
0.0
147
0.0
147
1.0
147
0.0
147
0.0
147
0.0
147
0.0
147
1.0
  0
MATERIAL
  5
1937
102
{ACAD_XDICTIONARY
360
1938
102
}
102
{ACAD_REACTORS
330
1926
102
}
330
1926
100
AcDbMaterial
  1
Global
 72
     0
 43
0.0208333333333333
 43
0.0
 43
0.0
 43
0.0
 43
0.0
 43
0.0208333333333333
 43
0.0
 43
0.0
 43
0.0
 43
0.0
 43
1.0
 43
0.0
 43
0.0
 43
0.0
 43
0.0
 43
1.0
 77
     0
 47
0.0208333333333333
 47
0.0
 47
0.0
 47
0.0
 47
0.0
 47
0.0208333333333333
 47
0.0
 47
0.0
 47
0.0
 47
0.0
 47
1.0
 47
0.0
 47
0.0
 47
0.0
 47
0.0
 47
1.0
171
     0
 49
0.0208333333333333
 49
0.0
 49
0.0
 49
0.0
 49
0.0
 49
0.0208333333333333
 49
0.0
 49
0.0
 49
0.0
 49
0.0
 49
1.0
 49
0.0
 49
0.0
 49
0.0
 49
0.0
 49
1.0
175
     0
142
0.0208333333333333
142
0.0
142
0.0
142
0.0
142
0.0
142
0.0208333333333333
142
0.0
142
0.0
142
0.0
142
0.0
142
1.0
142
0.0
142
0.0
142
0.0
142
0.0
142
1.0
179
     0
144
0.0208333333333333
144
0.0
144
0.0
144
0.0
144
0.0
144
0.0208333333333333
144
0.0
144
0.0
144
0.0
144
0.0
144
1.0
144
0.0
144
0.0
144
0.0
144
0.0
144
1.0
147
0.0208333333333333
147
0.0
147
0.0
147
0.0
147
0.0
147
0.0208333333333333
147
0.0
147
0.0
147
0.0
147
0.0
147
1.0
147
0.0
147
0.0
147
0.0
147
0.0
147
1.0
  0
MLEADERSTYLE
  5
196E
102
{ACAD_REACTORS
330
196D
102
}
330
196D
100
AcDbMLeaderStyle
170
     2
171
     1
172
     0
 90
        2
 40
0.0
 41
0.0
173
     1
 91
-1056964608
340
12
 92
       -2
290
     1
 42
0.09
291
     1
 43
0.36
  3
Standard
 44
0.18
300

342
F
174
     1
178
     6
175
     1
176
     0
 93
-1056964608
 45
0.18
292
     0
297
     0
 46
0.18
 94
-1056964608
 47
1.0
 49
1.0
140
1.0
293
     1
141
0.0
294
     1
177
     0
142
1.0
295
     0
296
     0
143
0.125
1001
ACAD_MLEADERVER
1070
     2
  0
MLINESTYLE
  5
1C
102
{ACAD_REACTORS
330
1B
102
}
330
1B
100
AcDbMlineStyle
  2
STANDARD
 70
     0
  3

 62
   256
 51
90.0
 52
90.0
 71
     2
 49
0.5
 62
   256
  6
BYLAYER
 49
-0.5
 62
   256
  6
BYLAYER
  0
ACDBPLACEHOLDER
  5
1925
102
{ACAD_REACTORS
330
1924
102
}
330
1924
  0
SCALE
  5
195C
102
{ACAD_REACTORS
330
195B
102
}
330
195B
100
AcDbScale
 70
     0
300
1:1
140
1.0
141
1.0
290
     1
  0
SCALE
  5
195D
102
{ACAD_REACTORS
330
195B
102
}
330
195B
100
AcDbScale
 70
     0
300
1/128" = 1'-0"
140
0.0078125
141
12.0
290
     0
  0
SCALE
  5
195E
102
{ACAD_REACTORS
330
195B
102
}
330
195B
100
AcDbScale
 70
     0
300
1/64" = 1'-0"
140
0.015625
141
12.0
290
     0
  0
SCALE
  5
195F
102
{ACAD_REACTORS
330
195B
102
}
330
195B
100
AcDbScale
 70
     0
300
1/32" = 1'-0"
140
0.03125
141
12.0
290
     0
  0
SCALE
  5
1960
102
{ACAD_REACTORS
330
195B
102
}
330
195B
100
AcDbScale
 70
     0
300
1/16" = 1'-0"
140
0.0625
141
12.0
290
     0
  0
SCALE
  5
1961
102
{ACAD_REACTORS
330
195B
102
}
330
195B
100
AcDbScale
 70
     0
300
3/32" = 1'-0"
140
0.09375
141
12.0
290
     0
  0
SCALE
  5
1962
102
{ACAD_REACTORS
330
195B
102
}
330
195B
100
AcDbScale
 70
     0
300
1/8" = 1'-0"
140
0.125
141
12.0
290
     0
  0
SCALE
  5
1963
102
{ACAD_REACTORS
330
195B
102
}
330
195B
100
AcDbScale
 70
     0
300
3/16" = 1'-0"
140
0.1875
141
12.0
290
     0
  0
SCALE
  5
1964
102
{ACAD_REACTORS
330
195B
102
}
330
195B
100
AcDbScale
 70
     0
300
1/4" = 1'-0"
140
0.25
141
12.0
290
     0
  0
SCALE
  5
1965
102
{ACAD_REACTORS
330
195B
102
}
330
195B
100
AcDbScale
 70
     0
300
3/8" = 1'-0"
140
0.375
141
12.0
290
     0
  0
SCALE
  5
1966
102
{ACAD_REACTORS
330
195B
102
}
330
195B
100
AcDbScale
 70
     0
300
1/2" = 1'-0"
140
0.5
141
12.0
290
     0
  0
SCALE
  5
1967
102
{ACAD_REACTORS
330
195B
102
}
330
195B
100
AcDbScale
 70
     0
300
3/4" = 1'-0"
140
0.75
141
12.0
290
     0
  0
SCALE
  5
1968
102
{ACAD_REACTORS
330
195B
102
}
330
195B
100
AcDbScale
 70
     0
300
1" = 1'-0"
140
1.0
141
12.0
290
     0
  0
SCALE
  5
1969
102
{ACAD_REACTORS
330
195B
102
}
330
195B
100
AcDbScale
 70
     0
300
1-1/2" = 1'-0"
140
1.5
141
12.0
290
     0
  0
SCALE
  5
196A
102
{ACAD_REACTORS
330
195B
102
}
330
195B
100
AcDbScale
 70
     0
300
3" = 1'-0"
140
3.0
141
12.0
290
     0
  0
SCALE
  5
196B
102
{ACAD_REACTORS
330
195B
102
}
330
195B
100
AcDbScale
 70
     0
300
6" = 1'-0"
140
6.0
141
12.0
290
     0
  0
SCALE
  5
196C
102
{ACAD_REACTORS
330
195B
102
}
330
195B
100
AcDbScale
 70
     0
300
1'-0" = 1'-0"
140
12.0
141
12.0
290
     0
  0
ACDBSECTIONVIEWSTYLE
  5
1970
102
{ACAD_XDICTIONARY
360
19CA
102
}
102
{ACAD_REACTORS
330
196F
102
}
330
196F
100
AcDbModelDocViewStyle
 70
     0
  3
Imperial24
290
     0
100
AcDbSectionViewStyle
 70
     0
 71
     0
 90
       78
 71
     1
340
F
 40
0.24
340
0
340
0
 40
0.24
300
I, O, Q, S, X, Z
 40
0.48
 90
        3
 40
0.18
 90
        1
 71
     2
340
14
 90
       25
340
14
 90
       50
 40
0.24
 40
0.0
 40
0.24
 71
     3
340
F
 40
0.24
 90
        1
 40
0.75
 90
        1
300
%<\AcVar ViewType \f "%tc1">% %<\AcVar ViewSectionStartId>%-%<\AcVar ViewSectionEndId>%\PSCALE %<\AcVar ViewScale \f "%sn">%
 71
     4
300
ANSI31
 40
1.0
 90
        0
290
     0
290
     0
 90
        6
 40
0.0
 40
1.570796326794896
 40
0.2617993877991494
 40
1.308996938995747
 40
-0.2617993877991494
 40
1.832595714594046
  0
TABLESTYLE
  5
195A
102
{ACAD_XDICTIONARY
360
1991
102
}
102
{ACAD_REACTORS
330
1959
102
}
330
1959
100
AcDbTableStyle
  3
Standard
 70
     0
 71
     0
 40
0.06
 41
0.06
280
     0
281
     0
  7
STANDARD
140
0.18
170
     2
 62
     0
 63
     7
283
     0
274
    -2
284
     1
 64
     0
275
    -2
285
     1
 65
     0
276
    -2
286
     1
 66
     0
277
    -2
287
     1
 67
     0
278
    -2
288
     1
 68
     0
279
    -2
289
     1
 69
     0
  7
STANDARD
140
0.25
170
     5
 62
     0
 63
     7
283
     0
274
    -2
284
     1
 64
     0
275
    -2
285
     1
 65
     0
276
    -2
286
     1
 66
     0
277
    -2
287
     1
 67
     0
278
    -2
288
     1
 68
     0
279
    -2
289
     1
 69
     0
  7
STANDARD
140
0.18
170
     5
 62
     0
 63
     7
283
     0
274
    -2
284
     1
 64
     0
275
    -2
285
     1
 65
     0
276
    -2
286
     1
 66
     0
277
    -2
287
     1
 67
     0
278
    -2
288
     1
 68
     0
279
    -2
289
     1
 69
     0
  0
VISUALSTYLE
  5
1945
102
{ACAD_XDICTIONARY
360
19A2
102
}
102
{ACAD_REACTORS
330
193F
102
}
330
193F
100
AcDbVisualStyle
  2
2dWireframe
 70
     4
 71
     0
 72
     2
 73
     0
 90
        0
 40
-0.6
 41
-30.0
 62
     5
 63
     7
 74
     1
 91
        4
 64
     7
 65
   257
 75
     1
175
     1
 42
1.0
 92
        0
 66
   257
 43
1.0
 76
     1
 77
     6
 78
     2
 67
     7
 79
     5
170
     0
171
     0
290
     0
174
     0
 93
        1
 44
0.0
173
     0
291
     0
 45
0.0
1001
ACAD
1000
AcDbSavedByObjectVersion
1070
     0
  0
VISUALSTYLE
  5
1944
102
{ACAD_XDICTIONARY
360
19A0
102
}
102
{ACAD_REACTORS
330
193F
102
}
330
193F
100
AcDbVisualStyle
  2
Basic
 70
     7
 71
     1
 72
     0
 73
     1
 90
        0
 40
-0.6
 41
-30.0
 62
     5
 63
     7
 74
     0
 91
        4
 64
     7
 65
   257
 75
     1
175
     1
 42
1.0
 92
        8
 66
     7
 43
1.0
 76
     1
 77
     6
 78
     2
 67
     7
 79
     5
170
     0
171
     0
290
     0
174
     0
 93
        1
 44
0.0
173
     0
291
     1
 45
0.0
1001
ACAD
1000
AcDbSavedByObjectVersion
1070
     0
  0
VISUALSTYLE
  5
194B
102
{ACAD_XDICTIONARY
360
19AE
102
}
102
{ACAD_REACTORS
330
193F
102
}
330
193F
100
AcDbVisualStyle
  2
Brighten
 70
    12
 71
     2
 72
     2
 73
     0
 90
        0
 40
-0.6
 41
-30.0
 62
     5
 63
     7
 74
     1
 91
        4
 64
     7
 65
   257
 75
     1
175
     1
 42
1.0
 92
        8
 66
     7
 43
1.0
 76
     1
 77
     6
 78
     2
 67
     7
 79
     5
170
     0
171
     0
290
     0
174
     0
 93
        1
 44
50.0
173
     0
291
     1
 45
0.0
1001
ACAD
1000
AcDbSavedByObjectVersion
1070
     0
  0
VISUALSTYLE
  5
194F
102
{ACAD_XDICTIONARY
360
19B6
102
}
102
{ACAD_REACTORS
330
193F
102
}
330
193F
100
AcDbVisualStyle
  2
ColorChange
 70
    16
 71
     2
 72
     2
 73
     3
 90
        0
 40
-0.6
 41
-30.0
 62
     5
 63
     8
 74
     1
 91
        4
 64
     7
 65
   257
 75
     1
175
     1
 42
1.0
 92
        8
 66
     8
 43
1.0
 76
     1
 77
     6
 78
     2
 67
     7
 79
     5
170
     0
171
     0
290
     0
174
     0
 93
        1
 44
0.0
173
     0
291
     1
 45
0.0
1001
ACAD
1000
AcDbSavedByObjectVersion
1070
     0
  0
VISUALSTYLE
  5
1948
102
{ACAD_XDICTIONARY
360
19A8
102
}
102
{ACAD_REACTORS
330
193F
102
}
330
193F
100
AcDbVisualStyle
  2
Conceptual
 70
     9
 71
     3
 72
     2
 73
     0
 90
        0
 40
-0.6
 41
-30.0
 62
     5
 63
     7
 74
     2
 91
        2
 64
     7
 65
   257
 75
     1
175
     1
 42
179.0
 92
        8
 66
     7
 43
1.0
 76
     1
 77
     6
 78
     2
 67
     7
 79
     3
170
     0
171
     0
290
     0
174
     0
 93
        1
 44
0.0
173
     0
291
     0
 45
0.0
1001
ACAD
1000
AcDbSavedByObjectVersion
1070
     0
  0
VISUALSTYLE
  5
194A
102
{ACAD_XDICTIONARY
360
19AC
102
}
102
{ACAD_REACTORS
330
193F
102
}
330
193F
100
AcDbVisualStyle
  2
Dim
 70
    11
 71
     2
 72
     2
 73
     0
 90
        0
 40
-0.6
 41
-30.0
 62
     5
 63
     7
 74
     1
 91
        4
 64
     7
 65
   257
 75
     1
175
     1
 42
1.0
 92
        8
 66
     7
 43
1.0
 76
     1
 77
     6
 78
     2
 67
     7
 79
     5
170
     0
171
     0
290
     0
174
     0
 93
        1
 44
-50.0
173
     0
291
     1
 45
0.0
1001
ACAD
1000
AcDbSavedByObjectVersion
1070
     0
  0
VISUALSTYLE
  5
1957
102
{ACAD_XDICTIONARY
360
19C6
102
}
102
{ACAD_REACTORS
330
193F
102
}
330
193F
100
AcDbVisualStyle
  2
EdgeColorOff
 70
    22
 71
     2
 72
     2
 73
     0
 90
        0
 40
-0.6
 41
-30.0
 62
     5
 63
     7
 74
     1
 91
        4
 64
     7
 65
   257
 75
     1
175
     1
 42
1.0
 92
        8
 66
     7
 43
1.0
 76
     1
 77
     6
 78
     2
 67
     7
 79
     5
170
     0
171
     0
290
     0
174
     0
 93
        1
 44
0.0
173
     0
291
     1
 45
0.0
1001
ACAD
1000
AcDbSavedByObjectVersion
1070
     0
  0
VISUALSTYLE
  5
194E
102
{ACAD_XDICTIONARY
360
19B4
102
}
102
{ACAD_REACTORS
330
193F
102
}
330
193F
100
AcDbVisualStyle
  2
Facepattern
 70
    15
 71
     2
 72
     2
 73
     0
 90
        0
 40
-0.6
 41
-30.0
 62
     5
 63
     7
 74
     1
 91
        4
 64
     7
 65
   257
 75
     1
175
     1
 42
1.0
 92
        8
 66
     7
 43
1.0
 76
     1
 77
     6
 78
     2
 67
     7
 79
     5
170
     0
171
     0
290
     0
174
     0
 93
        1
 44
0.0
173
     0
291
     1
 45
0.0
1001
ACAD
1000
AcDbSavedByObjectVersion
1070
     0
  0
VISUALSTYLE
  5
1940
102
{ACAD_XDICTIONARY
360
1998
102
}
102
{ACAD_REACTORS
330
193F
102
}
330
193F
100
AcDbVisualStyle
  2
Flat
 70
     0
 71
     2
 72
     1
 73
     1
 90
        2
 40
-0.6
 41
30.0
 62
     5
 63
     7
 74
     0
 91
        0
 64
     7
 65
   257
 75
     1
175
     1
 42
1.0
 92
        8
 66
     7
 43
1.0
 76
     1
 77
     6
 78
     2
 67
     7
 79
     5
170
     0
171
     0
290
     0
174
     0
 93
       13
 44
0.0
173
     0
291
     1
 45
0.0
1001
ACAD
1000
AcDbSavedByObjectVersion
1070
     0
  0
VISUALSTYLE
  5
1941
102
{ACAD_XDICTIONARY
360
199A
102
}
102
{ACAD_REACTORS
330
193F
102
}
330
193F
100
AcDbVisualStyle
  2
FlatWithEdges
 70
     1
 71
     2
 72
     1
 73
     1
 90
        2
 40
-0.6
 41
30.0
 62
     5
 63
     7
 74
     1
 91
        0
 64
     7
 65
   257
 75
     1
175
     1
 42
1.0
 92
        0
 66
   257
 43
1.0
 76
     1
 77
     6
 78
     2
 67
     7
 79
     5
170
     0
171
     0
290
     0
174
     0
 93
       13
 44
0.0
173
     0
291
     1
 45
0.0
1001
ACAD
1000
AcDbSavedByObjectVersion
1070
     0
  0
VISUALSTYLE
  5
1942
102
{ACAD_XDICTIONARY
360
199C
102
}
102
{ACAD_REACTORS
330
193F
102
}
330
193F
100
AcDbVisualStyle
  2
Gouraud
 70
     2
 71
     2
 72
     2
 73
     1
 90
        2
 40
-0.6
 41
30.0
 62
     5
 63
     7
 74
     0
 91
        0
 64
     7
 65
   257
 75
     1
175
     1
 42
1.0
 92
        0
 66
     7
 43
1.0
 76
     1
 77
     6
 78
     2
 67
     7
 79
     5
170
     0
171
     0
290
     0
174
     0
 93
       13
 44
0.0
173
     0
291
     1
 45
0.0
1001
ACAD
1000
AcDbSavedByObjectVersion
1070
     0
  0
VISUALSTYLE
  5
1943
102
{ACAD_XDICTIONARY
360
199E
102
}
102
{ACAD_REACTORS
330
193F
102
}
330
193F
100
AcDbVisualStyle
  2
GouraudWithEdges
 70
     3
 71
     2
 72
     2
 73
     1
 90
        2
 40
-0.6
 41
30.0
 62
     5
 63
     7
 74
     1
 91
        0
 64
     7
 65
   257
 75
     1
175
     1
 42
1.0
 92
        0
 66
   257
 43
1.0
 76
     1
 77
     6
 78
     2
 67
     7
 79
     5
170
     0
171
     0
290
     0
174
     0
 93
       13
 44
0.0
173
     0
291
     1
 45
0.0
1001
ACAD
1000
AcDbSavedByObjectVersion
1070
     0
  0
VISUALSTYLE
  5
1947
102
{ACAD_XDICTIONARY
360
19A6
102
}
102
{ACAD_REACTORS
330
193F
102
}
330
193F
100
AcDbVisualStyle
  2
Hidden
 70
     6
 71
     1
 72
     2
 73
     2
 90
        0
 40
-0.6
 41
-30.0
 62
     5
 63
     7
 74
     2
 91
        2
 64
     7
 65
   257
 75
     2
175
     1
 42
40.0
 92
        0
 66
   257
 43
1.0
 76
     1
 77
     6
 78
     2
 67
     7
 79
     3
170
     0
171
     0
290
     0
174
     0
 93
        1
 44
0.0
173
     0
291
     0
 45
0.0
1001
ACAD
1000
AcDbSavedByObjectVersion
1070
     0
  0
VISUALSTYLE
  5
1955
102
{ACAD_XDICTIONARY
360
19C2
102
}
102
{ACAD_REACTORS
330
193F
102
}
330
193F
100
AcDbVisualStyle
  2
JitterOff
 70
    20
 71
     2
 72
     2
 73
     0
 90
        0
 40
-0.6
 41
-30.0
 62
     5
 63
     7
 74
     1
 91
        4
 64
     7
 65
   257
 75
     1
175
     1
 42
1.0
 92
       10
 66
     7
 43
1.0
 76
     1
 77
     6
 78
     2
 67
     7
 79
     5
170
     0
171
     0
290
     0
174
     0
 93
        1
 44
0.0
173
     0
291
     1
 45
0.0
1001
ACAD
1000
AcDbSavedByObjectVersion
1070
     0
  0
VISUALSTYLE
  5
194D
102
{ACAD_XDICTIONARY
360
19B2
102
}
102
{ACAD_REACTORS
330
193F
102
}
330
193F
100
AcDbVisualStyle
  2
Linepattern
 70
    14
 71
     2
 72
     2
 73
     0
 90
        0
 40
-0.6
 41
-30.0
 62
     5
 63
     7
 74
     1
 91
        4
 64
     7
 65
   257
 75
     7
175
     7
 42
1.0
 92
        8
 66
     7
 43
1.0
 76
     1
 77
     6
 78
     2
 67
     7
 79
     5
170
     0
171
     0
290
     0
174
     0
 93
        1
 44
0.0
173
     0
291
     1
 45
0.0
1001
ACAD
1000
AcDbSavedByObjectVersion
1070
     0
  0
VISUALSTYLE
  5
1956
102
{ACAD_XDICTIONARY
360
19C4
102
}
102
{ACAD_REACTORS
330
193F
102
}
330
193F
100
AcDbVisualStyle
  2
OverhangOff
 70
    21
 71
     2
 72
     2
 73
     0
 90
        0
 40
-0.6
 41
-30.0
 62
     5
 63
     7
 74
     1
 91
        4
 64
     7
 65
   257
 75
     1
175
     1
 42
1.0
 92
        9
 66
     7
 43
1.0
 76
     1
 77
     6
 78
     2
 67
     7
 79
     5
170
     0
171
     0
290
     0
174
     0
 93
        1
 44
0.0
173
     0
291
     1
 45
0.0
1001
ACAD
1000
AcDbSavedByObjectVersion
1070
     0
  0
VISUALSTYLE
  5
1949
102
{ACAD_XDICTIONARY
360
19AA
102
}
102
{ACAD_REACTORS
330
193F
102
}
330
193F
100
AcDbVisualStyle
  2
Realistic
 70
     8
 71
     2
 72
     3
 73
     0
 90
        2
 40
-0.6
 41
30.0
 62
     5
 63
     7
 74
     0
 91
        0
 64
     7
 65
   257
 75
     1
175
     1
 42
1.0
 92
        8
 66
   257
 43
1.0
 76
     1
 77
     6
 78
     2
 67
     7
 79
     3
170
     0
171
     0
290
     0
174
     0
 93
       13
 44
0.0
173
     0
291
     0
 45
0.0
1001
ACAD
1000
AcDbSavedByObjectVersion
1070
     0
  0
VISUALSTYLE
  5
1954
102
{ACAD_XDICTIONARY
360
19C0
102
}
102
{ACAD_REACTORS
330
193F
102
}
330
193F
100
AcDbVisualStyle
  2
Shaded
 70
    27
 71
     2
 72
     2
 73
     1
 90
        2
 40
-0.6
 41
30.0
 62
     5
 63
     7
 74
     0
 91
        4
 64
     7
 65
   257
 75
     1
175
     1
 42
1.0
 92
        8
 66
   257
 43
1.0
 76
     1
 77
     6
 78
     2
 67
     8
 79
     3
170
     0
171
     0
290
     0
174
     0
 93
        5
 44
0.0
173
     0
291
     0
 45
0.0
1001
ACAD
1000
AcDbSavedByObjectVersion
1070
     0
  0
VISUALSTYLE
  5
1953
102
{ACAD_XDICTIONARY
360
19BE
102
}
102
{ACAD_REACTORS
330
193F
102
}
330
193F
100
AcDbVisualStyle
  2
Shaded with edges
 70
    26
 71
     2
 72
     2
 73
     1
 90
        2
 40
-0.6
 41
30.0
 62
     5
 63
     7
 74
     1
 91
       10
 64
     7
 65
   257
 75
     2
175
     1
 42
1.0
 92
        8
 66
   257
 43
1.0
 76
     1
 77
     6
 78
     2
 67
     7
 79
     3
170
     0
171
     0
290
     0
174
     0
 93
        5
 44
0.0
173
     0
291
     0
 45
0.0
1001
ACAD
1000
AcDbSavedByObjectVersion
1070
     0
  0
VISUALSTYLE
  5
1950
102
{ACAD_XDICTIONARY
360
19B8
102
}
102
{ACAD_REACTORS
330
193F
102
}
330
193F
100
AcDbVisualStyle
  2
Shades of Gray
 70
    23
 71
     2
 72
     2
 73
     3
 90
        0
 40
-0.6
 41
-30.0
 62
     5
 63
     7
 74
     2
 91
        2
 64
     7
 65
     7
 75
     1
175
     1
 42
40.0
 92
        8
 66
     7
 43
1.0
 76
     1
 77
     6
 78
     2
 67
     7
 79
     3
170
     0
171
     0
290
     0
174
     0
 93
        1
 44
0.0
173
     0
291
     0
 45
0.0
1001
ACAD
1000
AcDbSavedByObjectVersion
1070
     0
  0
VISUALSTYLE
  5
1951
102
{ACAD_XDICTIONARY
360
19BA
102
}
102
{ACAD_REACTORS
330
193F
102
}
330
193F
100
AcDbVisualStyle
  2
Sketchy
 70
    24
 71
     1
 72
     2
 73
     2
 90
        0
 40
-0.6
 41
-30.0
 62
     5
 63
     7
 74
     2
 91
        2
 64
     7
 65
     7
 75
     1
175
     1
 42
40.0
 92
       11
 66
     7
 43
1.0
 76
     1
 77
     6
 78
     2
 67
     7
 79
     6
170
     0
171
     0
290
     0
174
     0
 93
        1
 44
0.0
173
     0
291
     0
 45
0.0
1001
ACAD
1000
AcDbSavedByObjectVersion
1070
     0
  0
VISUALSTYLE
  5
194C
102
{ACAD_XDICTIONARY
360
19B0
102
}
102
{ACAD_REACTORS
330
193F
102
}
330
193F
100
AcDbVisualStyle
  2
Thicken
 70
    13
 71
     2
 72
     2
 73
     0
 90
        0
 40
-0.6
 41
-30.0
 62
     5
 63
     7
 74
     1
 91
        4
 64
     7
 65
   257
 75
     1
175
     1
 42
1.0
 92
       12
 66
     7
 43
1.0
 76
     1
 77
     6
 78
     2
 67
     7
 79
     5
170
     0
171
     0
290
     0
174
     0
 93
        1
 44
0.0
173
     0
291
     1
 45
0.0
1001
ACAD
1000
AcDbSavedByObjectVersion
1070
     0
  0
VISUALSTYLE
  5
1946
102
{ACAD_XDICTIONARY
360
19A4
102
}
102
{ACAD_REACTORS
330
193F
102
}
330
193F
100
AcDbVisualStyle
  2
Wireframe
 70
     5
 71
     0
 72
     2
 73
     0
 90
        0
 40
-0.6
 41
-30.0
 62
     5
 63
     7
 74
     1
 91
        4
 64
     7
 65
   257
 75
     1
175
     1
 42
1.0
 92
        0
 66
   257
 43
1.0
 76
     1
 77
     6
 78
     2
 67
     7
 79
     3
170
     0
171
     0
290
     0
174
     0
 93
        1
 44
0.0
173
     0
291
     0
 45
0.0
1001
ACAD
1000
AcDbSavedByObjectVersion
1070
     0
  0
VISUALSTYLE
  5
1952
102
{ACAD_XDICTIONARY
360
19BC
102
}
102
{ACAD_REACTORS
330
193F
102
}
330
193F
100
AcDbVisualStyle
  2
X-Ray
 70
    25
 71
     2
 72
     2
 73
     1
 90
        1
 40
0.5
 41
-30.0
 62
     5
 63
     7
 74
     1
 91
        0
 64
     7
 65
   257
 75
     1
175
     1
 42
1.0
 92
        8
 66
     7
 43
1.0
 76
     1
 77
     6
 78
     2
 67
     7
 79
     3
170
     0
171
     0
290
     0
174
     0
 93
       13
 44
0.0
173
     0
291
     0
 45
0.0
1001
ACAD
1000
AcDbSavedByObjectVersion
1070
     0
  0
DICTIONARYVAR
  5
198B
102
{ACAD_REACTORS
330
1986
102
}
330
1986
100
DictionaryVariables
280
     0
  1
1:1
  0
DICTIONARYVAR
  5
1988
102
{ACAD_REACTORS
330
1986
102
}
330
1986
100
DictionaryVariables
280
     0
  1
STANDARD
  0
DICTIONARYVAR
  5
1987
102
{ACAD_REACTORS
330
1986
102
}
330
1986
100
DictionaryVariables
280
     0
  1
STANDARD
  0
DICTIONARYVAR
  5
1989
102
{ACAD_REACTORS
330
1986
102
}
330
1986
100
DictionaryVariables
280
     0
  1
Imperial24
  0
DICTIONARYVAR
  5
198A
102
{ACAD_REACTORS
330
1986
102
}
330
1986
100
DictionaryVariables
280
     0
  1
Imperial24
  0
DICTIONARYVAR
  5
198E
102
{ACAD_REACTORS
330
1986
102
}
330
1986
100
DictionaryVariables
280
     0
  1
1
  0
DICTIONARYVAR
  5
198D
102
{ACAD_REACTORS
330
1986
102
}
330
1986
100
DictionaryVariables
280
     0
  1
0
  0
DICTIONARYVAR
  5
198C
102
{ACAD_REACTORS
330
1986
102
}
330
1986
100
DictionaryVariables
280
     0
  1
127
  0
DICTIONARYVAR
  5
198F
102
{ACAD_REACTORS
330
1986
102
}
330
1986
100
DictionaryVariables
280
     0
  1
2
  0
DICTIONARY
  5
19CC
330
1972
100
AcDbDictionary
280
     1
281
     1
  3
ACAD_XREC_ROUNDTRIP
360
19CD
  0
DICTIONARY
  5
19CE
330
1973
100
AcDbDictionary
280
     1
281
     1
  3
ACAD_XREC_ROUNDTRIP
360
19CF
  0
DICTIONARY
  5
19D0
330
1974
100
AcDbDictionary
280
     1
281
     1
  3
ACAD_XREC_ROUNDTRIP
360
19D1
  0
DICTIONARY
  5
1930
330
192F
100
AcDbDictionary
280
     1
281
     1
  3
ACAD_XREC_ROUNDTRIP
360
1996
  3
BUMPTILE
360
1932
  3
DIFFUSETILE
360
1931
  3
OPACITYTILE
360
1935
  3
REFLECTIONTILE
360
1934
  3
REFRACTIONTILE
360
1936
  3
SPECULARTILE
360
1933
  0
DICTIONARY
  5
1928
330
1927
100
AcDbDictionary
280
     1
281
     1
  3
ACAD_XREC_ROUNDTRIP
360
1995
  3
BUMPTILE
360
192A
  3
DIFFUSETILE
360
1929
  3
OPACITYTILE
360
192D
  3
REFLECTIONTILE
360
192C
  3
REFRACTIONTILE
360
192E
  3
SPECULARTILE
360
192B
  0
DICTIONARY
  5
1938
330
1937
100
AcDbDictionary
280
     1
281
     1
  3
ACAD_XREC_ROUNDTRIP
360
1997
  3
BUMPTILE
360
193A
  3
DIFFUSETILE
360
1939
  3
OPACITYTILE
360
193D
  3
REFLECTIONTILE
360
193C
  3
REFRACTIONTILE
360
193E
  3
SPECULARTILE
360
193B
  0
DICTIONARY
  5
19CA
330
1970
100
AcDbDictionary
280
     1
281
     1
  3
ACAD_XREC_ROUNDTRIP
360
19CB
  0
DICTIONARY
  5
1991
330
195A
100
AcDbDictionary
280
     1
281
     1
  3
ACAD_ROUNDTRIP_2008_TABLESTYLE_CELLSTYLEMAP
360
1992
  3
ACAD_XREC_ROUNDTRIP
360
19C8
  0
DICTIONARY
  5
19A2
330
1945
100
AcDbDictionary
280
     1
281
     1
  3
ACAD_XREC_ROUNDTRIP
360
19A3
  0
DICTIONARY
  5
19A0
330
1944
100
AcDbDictionary
280
     1
281
     1
  3
ACAD_XREC_ROUNDTRIP
360
19A1
  0
DICTIONARY
  5
19AE
330
194B
100
AcDbDictionary
280
     1
281
     1
  3
ACAD_XREC_ROUNDTRIP
360
19AF
  0
DICTIONARY
  5
19B6
330
194F
100
AcDbDictionary
280
     1
281
     1
  3
ACAD_XREC_ROUNDTRIP
360
19B7
  0
DICTIONARY
  5
19A8
330
1948
100
AcDbDictionary
280
     1
281
     1
  3
ACAD_XREC_ROUNDTRIP
360
19A9
  0
DICTIONARY
  5
19AC
330
194A
100
AcDbDictionary
280
     1
281
     1
  3
ACAD_XREC_ROUNDTRIP
360
19AD
  0
DICTIONARY
  5
19C6
330
1957
100
AcDbDictionary
280
     1
281
     1
  3
ACAD_XREC_ROUNDTRIP
360
19C7
  0
DICTIONARY
  5
19B4
330
194E
100
AcDbDictionary
280
     1
281
     1
  3
ACAD_XREC_ROUNDTRIP
360
19B5
  0
DICTIONARY
  5
1998
330
1940
100
AcDbDictionary
280
     1
281
     1
  3
ACAD_XREC_ROUNDTRIP
360
1999
  0
DICTIONARY
  5
199A
330
1941
100
AcDbDictionary
280
     1
281
     1
  3
ACAD_XREC_ROUNDTRIP
360
199B
  0
DICTIONARY
  5
199C
330
1942
100
AcDbDictionary
280
     1
281
     1
  3
ACAD_XREC_ROUNDTRIP
360
199D
  0
DICTIONARY
  5
199E
330
1943
100
AcDbDictionary
280
     1
281
     1
  3
ACAD_XREC_ROUNDTRIP
360
199F
  0
DICTIONARY
  5
19A6
330
1947
100
AcDbDictionary
280
     1
281
     1
  3
ACAD_XREC_ROUNDTRIP
360
19A7
  0
DICTIONARY
  5
19C2
330
1955
100
AcDbDictionary
280
     1
281
     1
  3
ACAD_XREC_ROUNDTRIP
360
19C3
  0
DICTIONARY
  5
19B2
330
194D
100
AcDbDictionary
280
     1
281
     1
  3
ACAD_XREC_ROUNDTRIP
360
19B3
  0
DICTIONARY
  5
19C4
330
1956
100
AcDbDictionary
280
     1
281
     1
  3
ACAD_XREC_ROUNDTRIP
360
19C5
  0
DICTIONARY
  5
19AA
330
1949
100
AcDbDictionary
280
     1
281
     1
  3
ACAD_XREC_ROUNDTRIP
360
19AB
  0
DICTIONARY
  5
19C0
330
1954
100
AcDbDictionary
280
     1
281
     1
  3
ACAD_XREC_ROUNDTRIP
360
19C1
  0
DICTIONARY
  5
19BE
330
1953
100
AcDbDictionary
280
     1
281
     1
  3
ACAD_XREC_ROUNDTRIP
360
19BF
  0
DICTIONARY
  5
19B8
330
1950
100
AcDbDictionary
280
     1
281
     1
  3
ACAD_XREC_ROUNDTRIP
360
19B9
  0
DICTIONARY
  5
19BA
330
1951
100
AcDbDictionary
280
     1
281
     1
  3
ACAD_XREC_ROUNDTRIP
360
19BB
  0
DICTIONARY
  5
19B0
330
194C
100
AcDbDictionary
280
     1
281
     1
  3
ACAD_XREC_ROUNDTRIP
360
19B1
  0
DICTIONARY
  5
19A4
330
1946
100
AcDbDictionary
280
     1
281
     1
  3
ACAD_XREC_ROUNDTRIP
360
19A5
  0
DICTIONARY
  5
19BC
330
1952
100
AcDbDictionary
280
     1
281
     1
  3
ACAD_XREC_ROUNDTRIP
360
19BD
  0
XRECORD
  5
19CD
102
{ACAD_REACTORS
330
19CC
102
}
330
19CC
100
AcDbXrecord
280
     1
102
DISPLAYNAME
  1
Imperial24
102
FLAGS
 90
        0
  0
XRECORD
  5
19CF
102
{ACAD_REACTORS
330
19CE
102
}
330
19CE
100
AcDbXrecord
280
     1
102
SHADEPLOT
 70
     0
102
SHADEPLOTRESLEVEL
 70
     2
102
SHADEPLOTCUSTOMDPI
 70
   300
  0
XRECORD
  5
19D1
102
{ACAD_REACTORS
330
19D0
102
}
330
19D0
100
AcDbXrecord
280
     1
102
SHADEPLOT
 70
     0
102
SHADEPLOTRESLEVEL
 70
     2
102
SHADEPLOTCUSTOMDPI
 70
   300
  0
XRECORD
  5
1996
102
{ACAD_REACTORS
330
1930
102
}
330
1930
100
AcDbXrecord
280
     1
102
MATERIAL
148
0.0
149
0.0
149
0.0
 93
        0
 94
      127
282
     0
 72
     0
 77
     0
171
     0
175
     0
179
     0
273
     0
  0
XRECORD
  5
1932
102
{ACAD_REACTORS
330
1930
102
}
330
1930
100
AcDbXrecord
280
     1
270
     1
271
     1
  0
XRECORD
  5
1931
102
{ACAD_REACTORS
330
1930
102
}
330
1930
100
AcDbXrecord
280
     1
270
     1
271
     1
  0
XRECORD
  5
1935
102
{ACAD_REACTORS
330
1930
102
}
330
1930
100
AcDbXrecord
280
     1
270
     1
271
     1
  0
XRECORD
  5
1934
102
{ACAD_REACTORS
330
1930
102
}
330
1930
100
AcDbXrecord
280
     1
270
     1
271
     1
  0
XRECORD
  5
1936
102
{ACAD_REACTORS
330
1930
102
}
330
1930
100
AcDbXrecord
280
     1
270
     1
271
     1
  0
XRECORD
  5
1933
102
{ACAD_REACTORS
330
1930
102
}
330
1930
100
AcDbXrecord
280
     1
270
     1
271
     1
  0
XRECORD
  5
1995
102
{ACAD_REACTORS
330
1928
102
}
330
1928
100
AcDbXrecord
280
     1
102
MATERIAL
148
0.0
149
0.0
149
0.0
 93
        0
 94
      127
282
     0
 72
     0
 77
     0
171
     0
175
     0
179
     0
273
     0
  0
XRECORD
  5
192A
102
{ACAD_REACTORS
330
1928
102
}
330
1928
100
AcDbXrecord
280
     1
270
     1
271
     1
  0
XRECORD
  5
1929
102
{ACAD_REACTORS
330
1928
102
}
330
1928
100
AcDbXrecord
280
     1
270
     1
271
     1
  0
XRECORD
  5
192D
102
{ACAD_REACTORS
330
1928
102
}
330
1928
100
AcDbXrecord
280
     1
270
     1
271
     1
  0
XRECORD
  5
192C
102
{ACAD_REACTORS
330
1928
102
}
330
1928
100
AcDbXrecord
280
     1
270
     1
271
     1
  0
XRECORD
  5
192E
102
{ACAD_REACTORS
330
1928
102
}
330
1928
100
AcDbXrecord
280
     1
270
     1
271
     1
  0
XRECORD
  5
192B
102
{ACAD_REACTORS
330
1928
102
}
330
1928
100
AcDbXrecord
280
     1
270
     1
271
     1
  0
XRECORD
  5
1997
102
{ACAD_REACTORS
330
1938
102
}
330
1938
100
AcDbXrecord
280
     1
102
MATERIAL
148
0.0
149
0.0
149
0.0
 93
        0
 94
      127
282
     0
 72
     0
 77
     0
171
     0
175
     0
179
     0
273
     0
  0
XRECORD
  5
193A
102
{ACAD_REACTORS
330
1938
102
}
330
1938
100
AcDbXrecord
280
     1
270
     1
271
     1
  0
XRECORD
  5
1939
102
{ACAD_REACTORS
330
1938
102
}
330
1938
100
AcDbXrecord
280
     1
270
     1
271
     1
  0
XRECORD
  5
193D
102
{ACAD_REACTORS
330
1938
102
}
330
1938
100
AcDbXrecord
280
     1
270
     1
271
     1
  0
XRECORD
  5
193C
102
{ACAD_REACTORS
330
1938
102
}
330
1938
100
AcDbXrecord
280
     1
270
     1
271
     1
  0
XRECORD
  5
193E
102
{ACAD_REACTORS
330
1938
102
}
330
1938
100
AcDbXrecord
280
     1
270
     1
271
     1
  0
XRECORD
  5
193B
102
{ACAD_REACTORS
330
1938
102
}
330
1938
100
AcDbXrecord
280
     1
270
     1
271
     1
  0
XRECORD
  5
19CB
102
{ACAD_REACTORS
330
19CA
102
}
330
19CA
100
AcDbXrecord
280
     1
102
DISPLAYNAME
  1
Imperial24
102
FLAGS
 90
        0
  0
CELLSTYLEMAP
  5
1992
102
{ACAD_REACTORS
330
1991
102
}
330
1991
100
AcDbCellStyleMap
 90
        3
300
CELLSTYLE
  1
TABLEFORMAT_BEGIN
 90
        5
170
     1
 91
        0
 92
    32768
 62
   257
 93
        1
300
CONTENTFORMAT
  1
CONTENTFORMAT_BEGIN
 90
        0
 91
        0
 92
      512
 93
        0
300

 40
0.0
140
1.0
 94
        5
 62
     0
340
F
144
0.25
309
CONTENTFORMAT_END
171
     0
 94
        0
309
TABLEFORMAT_END
  1
CELLSTYLE_BEGIN
 90
        1
 91
        1
300
_TITLE
309
CELLSTYLE_END
300
CELLSTYLE
  1
TABLEFORMAT_BEGIN
 90
        5
170
     1
 91
        0
 92
        0
 62
   257
 93
        1
300
CONTENTFORMAT
  1
CONTENTFORMAT_BEGIN
 90
        0
 91
        0
 92
      512
 93
        0
300

 40
0.0
140
1.0
 94
        5
 62
     0
340
F
144
0.18
309
CONTENTFORMAT_END
171
     0
 94
        0
309
TABLEFORMAT_END
  1
CELLSTYLE_BEGIN
 90
        2
 91
        1
300
_HEADER
309
CELLSTYLE_END
300
CELLSTYLE
  1
TABLEFORMAT_BEGIN
 90
        5
170
     1
 91
        0
 92
        0
 62
   257
 93
        1
300
CONTENTFORMAT
  1
CONTENTFORMAT_BEGIN
 90
        0
 91
        0
 92
      512
 93
        0
300

 40
0.0
140
1.0
 94
        2
 62
     0
340
F
144
0.18
309
CONTENTFORMAT_END
171
     0
 94
        0
309
TABLEFORMAT_END
  1
CELLSTYLE_BEGIN
 90
        3
 91
        2
300
_DATA
309
CELLSTYLE_END
  0
XRECORD
  5
19C8
102
{ACAD_REACTORS
330
1991
102
}
330
1991
100
AcDbXrecord
280
     1
102
ACAD_ROUNDTRIP_PRE2007_TABLESTYLE
 90
      512
 91
        0
  1

 92
      512
 93
        0
  2

 94
      512
 95
        0
  3

  0
XRECORD
  5
19A3
102
{ACAD_REACTORS
330
19A2
102
}
330
19A2
100
AcDbXrecord
280
     1
102
RTVSPost2010Prop28
280
     1
102
RTVSPost2010PropOp28
 70
     1
102
RTVSPost2010Prop29
280
     1
102
RTVSPost2010PropOp29
 70
     1
102
RTVSPost2010Prop30
280
     0
102
RTVSPost2010PropOp30
 70
     1
102
RTVSPost2010Prop31
280
     0
102
RTVSPost2010PropOp31
 70
     1
102
RTVSPost2010Prop32
280
     0
102
RTVSPost2010PropOp32
 70
     1
102
RTVSPost2010Prop33
280
     0
102
RTVSPost2010PropOp33
 70
     1
102
RTVSPost2010Prop34
280
     0
102
RTVSPost2010PropOp34
 70
     1
102
RTVSPost2010Prop35
280
     0
102
RTVSPost2010PropOp35
 70
     1
102
RTVSPost2010Prop36
280
     0
102
RTVSPost2010PropOp36
 70
     1
102
RTVSPost2010Prop37
 90
       50
102
RTVSPost2010PropOp37
 70
     1
102
RTVSPost2010Prop38
140
0.0
102
RTVSPost2010PropOp38
 70
     1
102
RTVSPost2010Prop39
140
1.0
102
RTVSPost2010PropOp39
 70
     1
102
RTVSPost2010Prop40
 90
        0
102
RTVSPost2010PropOp40
 70
     1
102
RTVSPost2010Prop41ColorIndex
 90
       18
102
RTVSPost2010Prop41ColorRGB
 90
        0
102
RTVSPost2010PropOp41
 70
     1
102
RTVSPost2010Prop42
 90
       50
102
RTVSPost2010PropOp42
 70
     1
102
RTVSPost2010Prop43
 90
        3
102
RTVSPost2010PropOp43
 70
     1
102
RTVSPost2010Prop44ColorIndex
 90
        5
102
RTVSPost2010Prop44ColorRGB
 90
      255
102
RTVSPost2010PropOp44
 70
     1
102
RTVSPost2010Prop45
280
     0
102
RTVSPost2010PropOp45
 70
     1
102
RTVSPost2010Prop46
 90
       50
102
RTVSPost2010PropOp46
 70
     1
102
RTVSPost2010Prop47
 90
       50
102
RTVSPost2010PropOp47
 70
     1
102
RTVSPost2010Prop48
 90
       50
102
RTVSPost2010PropOp48
 70
     1
102
RTVSPost2010Prop49
280
     0
102
RTVSPost2010PropOp49
 70
     1
102
RTVSPost2010Prop50
 90
       50
102
RTVSPost2010PropOp50
 70
     1
102
RTVSPost2010Prop51ColorIndex
 90
      256
102
RTVSPost2010Prop51ColorRGB
 90
-16777216
102
RTVSPost2010PropOp51
 70
     0
102
RTVSPost2010Prop52
140
1.0
102
RTVSPost2010PropOp52
 70
     0
102
RTVSPost2010Prop53
 90
        2
102
RTVSPost2010PropOp53
 70
     1
102
RTVSPost2010Prop54
  1
strokes_ogs.tif
102
RTVSPost2010PropOp54
 70
     1
102
RTVSPost2010Prop55
280
     0
102
RTVSPost2010PropOp55
 70
     1
102
RTVSPost2010Prop56
140
1.0
102
RTVSPost2010PropOp56
 70
     1
102
RTVSPost2010Prop57
140
1.0
102
RTVSPost2010PropOp57
 70
     1
102
RTVSPropertyOp0
 70
     1
102
RTVSPropertyOp1
 70
     1
102
RTVSPropertyOp2
 70
     1
102
RTVSPropertyOp3
 70
     1
102
RTVSPropertyOp4
 70
     1
102
RTVSPropertyOp5
 70
     1
102
RTVSPropertyOp6
 70
     1
102
RTVSPropertyOp7
 70
     1
102
RTVSPropertyOp8
 70
     1
102
RTVSPropertyOp9
 70
     1
102
RTVSPropertyOp10
 70
     1
102
RTVSPropertyOp11
 70
     1
102
RTVSPropertyOp12
 70
     1
102
RTVSPropertyOp13
 70
     1
102
RTVSPropertyOp14
 70
     1
102
RTVSPropertyOp15
 70
     1
102
RTVSPropertyOp16
 70
     1
102
RTVSPropertyOp17
 70
     1
102
RTVSPropertyOp18
 70
     1
102
RTVSPropertyOp19
 70
     1
102
RTVSPropertyOp20
 70
     1
102
RTVSPropertyOp21
 70
     1
102
RTVSPropertyOp22
 70
     1
102
RTVSPropertyOp23
 70
     1
102
RTVSPropertyOp24
 70
     1
102
RTVSPropertyOp25
 70
     1
102
RTVSPropertyOp26
 70
     1
102
RTVSPropertyOp27
 70
     1
102
RTVSPropertyOp28
 70
     1
102
RTVSPropertyOp29
 70
     1
102
RTVSPropertyOp30
 70
     1
102
RTVSPropertyOp31
 70
     1
102
RTVSPropertyOp32
 70
     1
102
RTVSPropertyOp33
 70
     1
102
RTVSPropertyOp34
 70
     1
102
RTVSPropertyOp35
 70
     1
102
RTVSPropertyOp36
 70
     1
102
RTVSPropertyOp37
 70
     1
102
RTVSPropertyOp38
 70
     1
102
RTVSPropertyOp39
 70
     1
102
RTVSPropertyOp40
 70
     1
102
RTVSPropertyOp41
 70
     1
102
RTVSPropertyOp42
 70
     1
102
RTVSPropertyOp43
 70
     1
102
RTVSPropertyOp44
 70
     1
102
RTVSPropertyOp45
 70
     1
102
RTVSPropertyOp46
 70
     1
102
RTVSPropertyOp47
 70
     1
102
RTVSPropertyOp48
 70
     1
102
RTVSPropertyOp49
 70
     1
102
RTVSPropertyOp50
 70
     1
102
RTVSPropertyOp51
 70
     0
102
RTVSPropertyOp52
 70
     0
102
RTVSPropertyOp53
 70
     1
102
RTVSPropertyOp54
 70
     1
102
RTVSPropertyOp55
 70
     1
102
RTVSPropertyOp56
 70
     1
102
RTVSPropertyOp57
 70
     1
102
RTVSPropertyOp58
 70
     1
102
RTVSPropertyOp59
 70
     1
102
RTVSPropertyOp60
 70
     1
102
RTVSPropertyOp61
 70
     1
102
RTVSPropertyOp62
 70
     1
  0
XRECORD
  5
19A1
102
{ACAD_REACTORS
330
19A0
102
}
330
19A0
100
AcDbXrecord
280
     1
102
RTVSPost2010Prop28
280
     0
102
RTVSPost2010PropOp28
 70
     1
102
RTVSPost2010Prop29
280
     1
102
RTVSPost2010PropOp29
 70
     1
102
RTVSPost2010Prop30
280
     1
102
RTVSPost2010PropOp30
 70
     1
102
RTVSPost2010Prop31
280
     0
102
RTVSPost2010PropOp31
 70
     1
102
RTVSPost2010Prop32
280
     0
102
RTVSPost2010PropOp32
 70
     1
102
RTVSPost2010Prop33
280
     0
102
RTVSPost2010PropOp33
 70
     1
102
RTVSPost2010Prop34
280
     0
102
RTVSPost2010PropOp34
 70
     1
102
RTVSPost2010Prop35
280
     0
102
RTVSPost2010PropOp35
 70
     1
102
RTVSPost2010Prop36
280
     0
102
RTVSPost2010PropOp36
 70
     1
102
RTVSPost2010Prop37
 90
       50
102
RTVSPost2010PropOp37
 70
     1
102
RTVSPost2010Prop38
140
0.0
102
RTVSPost2010PropOp38
 70
     1
102
RTVSPost2010Prop39
140
1.0
102
RTVSPost2010PropOp39
 70
     1
102
RTVSPost2010Prop40
 90
        0
102
RTVSPost2010PropOp40
 70
     1
102
RTVSPost2010Prop41ColorIndex
 90
       18
102
RTVSPost2010Prop41ColorRGB
 90
        0
102
RTVSPost2010PropOp41
 70
     1
102
RTVSPost2010Prop42
 90
       50
102
RTVSPost2010PropOp42
 70
     1
102
RTVSPost2010Prop43
 90
        3
102
RTVSPost2010PropOp43
 70
     1
102
RTVSPost2010Prop44ColorIndex
 90
        5
102
RTVSPost2010Prop44ColorRGB
 90
      255
102
RTVSPost2010PropOp44
 70
     1
102
RTVSPost2010Prop45
280
     0
102
RTVSPost2010PropOp45
 70
     1
102
RTVSPost2010Prop46
 90
       50
102
RTVSPost2010PropOp46
 70
     1
102
RTVSPost2010Prop47
 90
       50
102
RTVSPost2010PropOp47
 70
     1
102
RTVSPost2010Prop48
 90
       50
102
RTVSPost2010PropOp48
 70
     1
102
RTVSPost2010Prop49
280
     0
102
RTVSPost2010PropOp49
 70
     1
102
RTVSPost2010Prop50
 90
       50
102
RTVSPost2010PropOp50
 70
     1
102
RTVSPost2010Prop51ColorIndex
 90
      256
102
RTVSPost2010Prop51ColorRGB
 90
-16777216
102
RTVSPost2010PropOp51
 70
     0
102
RTVSPost2010Prop52
140
1.0
102
RTVSPost2010PropOp52
 70
     0
102
RTVSPost2010Prop53
 90
        2
102
RTVSPost2010PropOp53
 70
     1
102
RTVSPost2010Prop54
  1
strokes_ogs.tif
102
RTVSPost2010PropOp54
 70
     1
102
RTVSPost2010Prop55
280
     0
102
RTVSPost2010PropOp55
 70
     1
102
RTVSPost2010Prop56
140
1.0
102
RTVSPost2010PropOp56
 70
     1
102
RTVSPost2010Prop57
140
1.0
102
RTVSPost2010PropOp57
 70
     1
102
RTVSPropertyOp0
 70
     1
102
RTVSPropertyOp1
 70
     1
102
RTVSPropertyOp2
 70
     1
102
RTVSPropertyOp3
 70
     1
102
RTVSPropertyOp4
 70
     1
102
RTVSPropertyOp5
 70
     1
102
RTVSPropertyOp6
 70
     1
102
RTVSPropertyOp7
 70
     1
102
RTVSPropertyOp8
 70
     1
102
RTVSPropertyOp9
 70
     1
102
RTVSPropertyOp10
 70
     1
102
RTVSPropertyOp11
 70
     1
102
RTVSPropertyOp12
 70
     1
102
RTVSPropertyOp13
 70
     1
102
RTVSPropertyOp14
 70
     1
102
RTVSPropertyOp15
 70
     1
102
RTVSPropertyOp16
 70
     1
102
RTVSPropertyOp17
 70
     1
102
RTVSPropertyOp18
 70
     1
102
RTVSPropertyOp19
 70
     1
102
RTVSPropertyOp20
 70
     1
102
RTVSPropertyOp21
 70
     1
102
RTVSPropertyOp22
 70
     1
102
RTVSPropertyOp23
 70
     1
102
RTVSPropertyOp24
 70
     1
102
RTVSPropertyOp25
 70
     1
102
RTVSPropertyOp26
 70
     1
102
RTVSPropertyOp27
 70
     1
102
RTVSPropertyOp28
 70
     1
102
RTVSPropertyOp29
 70
     1
102
RTVSPropertyOp30
 70
     1
102
RTVSPropertyOp31
 70
     1
102
RTVSPropertyOp32
 70
     1
102
RTVSPropertyOp33
 70
     1
102
RTVSPropertyOp34
 70
     1
102
RTVSPropertyOp35
 70
     1
102
RTVSPropertyOp36
 70
     1
102
RTVSPropertyOp37
 70
     1
102
RTVSPropertyOp38
 70
     1
102
RTVSPropertyOp39
 70
     1
102
RTVSPropertyOp40
 70
     1
102
RTVSPropertyOp41
 70
     1
102
RTVSPropertyOp42
 70
     1
102
RTVSPropertyOp43
 70
     1
102
RTVSPropertyOp44
 70
     1
102
RTVSPropertyOp45
 70
     1
102
RTVSPropertyOp46
 70
     1
102
RTVSPropertyOp47
 70
     1
102
RTVSPropertyOp48
 70
     1
102
RTVSPropertyOp49
 70
     1
102
RTVSPropertyOp50
 70
     1
102
RTVSPropertyOp51
 70
     0
102
RTVSPropertyOp52
 70
     0
102
RTVSPropertyOp53
 70
     1
102
RTVSPropertyOp54
 70
     1
102
RTVSPropertyOp55
 70
     1
102
RTVSPropertyOp56
 70
     1
102
RTVSPropertyOp57
 70
     1
102
RTVSPropertyOp58
 70
     1
102
RTVSPropertyOp59
 70
     1
102
RTVSPropertyOp60
 70
     1
102
RTVSPropertyOp61
 70
     1
102
RTVSPropertyOp62
 70
     1
  0
XRECORD
  5
19AF
102
{ACAD_REACTORS
330
19AE
102
}
330
19AE
100
AcDbXrecord
280
     1
102
RTVSPost2010Prop28
280
     0
102
RTVSPost2010PropOp28
 70
     1
102
RTVSPost2010Prop29
280
     1
102
RTVSPost2010PropOp29
 70
     1
102
RTVSPost2010Prop30
280
     1
102
RTVSPost2010PropOp30
 70
     1
102
RTVSPost2010Prop31
280
     0
102
RTVSPost2010PropOp31
 70
     1
102
RTVSPost2010Prop32
280
     0
102
RTVSPost2010PropOp32
 70
     1
102
RTVSPost2010Prop33
280
     0
102
RTVSPost2010PropOp33
 70
     1
102
RTVSPost2010Prop34
280
     0
102
RTVSPost2010PropOp34
 70
     1
102
RTVSPost2010Prop35
280
     0
102
RTVSPost2010PropOp35
 70
     1
102
RTVSPost2010Prop36
280
     0
102
RTVSPost2010PropOp36
 70
     1
102
RTVSPost2010Prop37
 90
       50
102
RTVSPost2010PropOp37
 70
     1
102
RTVSPost2010Prop38
140
0.0
102
RTVSPost2010PropOp38
 70
     1
102
RTVSPost2010Prop39
140
1.0
102
RTVSPost2010PropOp39
 70
     1
102
RTVSPost2010Prop40
 90
        0
102
RTVSPost2010PropOp40
 70
     1
102
RTVSPost2010Prop41ColorIndex
 90
       18
102
RTVSPost2010Prop41ColorRGB
 90
        0
102
RTVSPost2010PropOp41
 70
     1
102
RTVSPost2010Prop42
 90
       50
102
RTVSPost2010PropOp42
 70
     1
102
RTVSPost2010Prop43
 90
        3
102
RTVSPost2010PropOp43
 70
     1
102
RTVSPost2010Prop44ColorIndex
 90
        5
102
RTVSPost2010Prop44ColorRGB
 90
      255
102
RTVSPost2010PropOp44
 70
     1
102
RTVSPost2010Prop45
280
     0
102
RTVSPost2010PropOp45
 70
     1
102
RTVSPost2010Prop46
 90
       50
102
RTVSPost2010PropOp46
 70
     1
102
RTVSPost2010Prop47
 90
       50
102
RTVSPost2010PropOp47
 70
     1
102
RTVSPost2010Prop48
 90
       50
102
RTVSPost2010PropOp48
 70
     1
102
RTVSPost2010Prop49
280
     0
102
RTVSPost2010PropOp49
 70
     1
102
RTVSPost2010Prop50
 90
       50
102
RTVSPost2010PropOp50
 70
     1
102
RTVSPost2010Prop51ColorIndex
 90
      256
102
RTVSPost2010Prop51ColorRGB
 90
-16777216
102
RTVSPost2010PropOp51
 70
     0
102
RTVSPost2010Prop52
140
1.0
102
RTVSPost2010PropOp52
 70
     0
102
RTVSPost2010Prop53
 90
        2
102
RTVSPost2010PropOp53
 70
     1
102
RTVSPost2010Prop54
  1
strokes_ogs.tif
102
RTVSPost2010PropOp54
 70
     1
102
RTVSPost2010Prop55
280
     0
102
RTVSPost2010PropOp55
 70
     1
102
RTVSPost2010Prop56
140
1.0
102
RTVSPost2010PropOp56
 70
     1
102
RTVSPost2010Prop57
140
1.0
102
RTVSPost2010PropOp57
 70
     1
102
RTVSPropertyOp0
 70
     1
102
RTVSPropertyOp1
 70
     1
102
RTVSPropertyOp2
 70
     1
102
RTVSPropertyOp3
 70
     1
102
RTVSPropertyOp4
 70
     1
102
RTVSPropertyOp5
 70
     1
102
RTVSPropertyOp6
 70
     1
102
RTVSPropertyOp7
 70
     1
102
RTVSPropertyOp8
 70
     1
102
RTVSPropertyOp9
 70
     1
102
RTVSPropertyOp10
 70
     1
102
RTVSPropertyOp11
 70
     1
102
RTVSPropertyOp12
 70
     1
102
RTVSPropertyOp13
 70
     1
102
RTVSPropertyOp14
 70
     1
102
RTVSPropertyOp15
 70
     1
102
RTVSPropertyOp16
 70
     1
102
RTVSPropertyOp17
 70
     1
102
RTVSPropertyOp18
 70
     1
102
RTVSPropertyOp19
 70
     1
102
RTVSPropertyOp20
 70
     1
102
RTVSPropertyOp21
 70
     1
102
RTVSPropertyOp22
 70
     1
102
RTVSPropertyOp23
 70
     1
102
RTVSPropertyOp24
 70
     1
102
RTVSPropertyOp25
 70
     1
102
RTVSPropertyOp26
 70
     1
102
RTVSPropertyOp27
 70
     1
102
RTVSPropertyOp28
 70
     1
102
RTVSPropertyOp29
 70
     1
102
RTVSPropertyOp30
 70
     1
102
RTVSPropertyOp31
 70
     1
102
RTVSPropertyOp32
 70
     1
102
RTVSPropertyOp33
 70
     1
102
RTVSPropertyOp34
 70
     1
102
RTVSPropertyOp35
 70
     1
102
RTVSPropertyOp36
 70
     1
102
RTVSPropertyOp37
 70
     1
102
RTVSPropertyOp38
 70
     1
102
RTVSPropertyOp39
 70
     1
102
RTVSPropertyOp40
 70
     1
102
RTVSPropertyOp41
 70
     1
102
RTVSPropertyOp42
 70
     1
102
RTVSPropertyOp43
 70
     1
102
RTVSPropertyOp44
 70
     1
102
RTVSPropertyOp45
 70
     1
102
RTVSPropertyOp46
 70
     1
102
RTVSPropertyOp47
 70
     1
102
RTVSPropertyOp48
 70
     1
102
RTVSPropertyOp49
 70
     1
102
RTVSPropertyOp50
 70
     1
102
RTVSPropertyOp51
 70
     0
102
RTVSPropertyOp52
 70
     0
102
RTVSPropertyOp53
 70
     1
102
RTVSPropertyOp54
 70
     1
102
RTVSPropertyOp55
 70
     1
102
RTVSPropertyOp56
 70
     1
102
RTVSPropertyOp57
 70
     1
102
RTVSPropertyOp58
 70
     1
102
RTVSPropertyOp59
 70
     1
102
RTVSPropertyOp60
 70
     1
102
RTVSPropertyOp61
 70
     1
102
RTVSPropertyOp62
 70
     1
  0
XRECORD
  5
19B7
102
{ACAD_REACTORS
330
19B6
102
}
330
19B6
100
AcDbXrecord
280
     1
102
RTVSPost2010Prop28
280
     0
102
RTVSPost2010PropOp28
 70
     1
102
RTVSPost2010Prop29
280
     1
102
RTVSPost2010PropOp29
 70
     1
102
RTVSPost2010Prop30
280
     1
102
RTVSPost2010PropOp30
 70
     1
102
RTVSPost2010Prop31
280
     0
102
RTVSPost2010PropOp31
 70
     1
102
RTVSPost2010Prop32
280
     0
102
RTVSPost2010PropOp32
 70
     1
102
RTVSPost2010Prop33
280
     0
102
RTVSPost2010PropOp33
 70
     1
102
RTVSPost2010Prop34
280
     0
102
RTVSPost2010PropOp34
 70
     1
102
RTVSPost2010Prop35
280
     0
102
RTVSPost2010PropOp35
 70
     1
102
RTVSPost2010Prop36
280
     0
102
RTVSPost2010PropOp36
 70
     1
102
RTVSPost2010Prop37
 90
       50
102
RTVSPost2010PropOp37
 70
     1
102
RTVSPost2010Prop38
140
0.0
102
RTVSPost2010PropOp38
 70
     1
102
RTVSPost2010Prop39
140
1.0
102
RTVSPost2010PropOp39
 70
     1
102
RTVSPost2010Prop40
 90
        0
102
RTVSPost2010PropOp40
 70
     1
102
RTVSPost2010Prop41ColorIndex
 90
       18
102
RTVSPost2010Prop41ColorRGB
 90
        0
102
RTVSPost2010PropOp41
 70
     1
102
RTVSPost2010Prop42
 90
       50
102
RTVSPost2010PropOp42
 70
     1
102
RTVSPost2010Prop43
 90
        3
102
RTVSPost2010PropOp43
 70
     1
102
RTVSPost2010Prop44ColorIndex
 90
        5
102
RTVSPost2010Prop44ColorRGB
 90
      255
102
RTVSPost2010PropOp44
 70
     1
102
RTVSPost2010Prop45
280
     0
102
RTVSPost2010PropOp45
 70
     1
102
RTVSPost2010Prop46
 90
       50
102
RTVSPost2010PropOp46
 70
     1
102
RTVSPost2010Prop47
 90
       50
102
RTVSPost2010PropOp47
 70
     1
102
RTVSPost2010Prop48
 90
       50
102
RTVSPost2010PropOp48
 70
     1
102
RTVSPost2010Prop49
280
     0
102
RTVSPost2010PropOp49
 70
     1
102
RTVSPost2010Prop50
 90
       50
102
RTVSPost2010PropOp50
 70
     1
102
RTVSPost2010Prop51ColorIndex
 90
      256
102
RTVSPost2010Prop51ColorRGB
 90
-16777216
102
RTVSPost2010PropOp51
 70
     0
102
RTVSPost2010Prop52
140
1.0
102
RTVSPost2010PropOp52
 70
     0
102
RTVSPost2010Prop53
 90
        2
102
RTVSPost2010PropOp53
 70
     1
102
RTVSPost2010Prop54
  1
strokes_ogs.tif
102
RTVSPost2010PropOp54
 70
     1
102
RTVSPost2010Prop55
280
     0
102
RTVSPost2010PropOp55
 70
     1
102
RTVSPost2010Prop56
140
1.0
102
RTVSPost2010PropOp56
 70
     1
102
RTVSPost2010Prop57
140
1.0
102
RTVSPost2010PropOp57
 70
     1
102
RTVSPropertyOp0
 70
     1
102
RTVSPropertyOp1
 70
     1
102
RTVSPropertyOp2
 70
     1
102
RTVSPropertyOp3
 70
     1
102
RTVSPropertyOp4
 70
     1
102
RTVSPropertyOp5
 70
     1
102
RTVSPropertyOp6
 70
     1
102
RTVSPropertyOp7
 70
     1
102
RTVSPropertyOp8
 70
     1
102
RTVSPropertyOp9
 70
     1
102
RTVSPropertyOp10
 70
     1
102
RTVSPropertyOp11
 70
     1
102
RTVSPropertyOp12
 70
     1
102
RTVSPropertyOp13
 70
     1
102
RTVSPropertyOp14
 70
     1
102
RTVSPropertyOp15
 70
     1
102
RTVSPropertyOp16
 70
     1
102
RTVSPropertyOp17
 70
     1
102
RTVSPropertyOp18
 70
     1
102
RTVSPropertyOp19
 70
     1
102
RTVSPropertyOp20
 70
     1
102
RTVSPropertyOp21
 70
     1
102
RTVSPropertyOp22
 70
     1
102
RTVSPropertyOp23
 70
     1
102
RTVSPropertyOp24
 70
     1
102
RTVSPropertyOp25
 70
     1
102
RTVSPropertyOp26
 70
     1
102
RTVSPropertyOp27
 70
     1
102
RTVSPropertyOp28
 70
     1
102
RTVSPropertyOp29
 70
     1
102
RTVSPropertyOp30
 70
     1
102
RTVSPropertyOp31
 70
     1
102
RTVSPropertyOp32
 70
     1
102
RTVSPropertyOp33
 70
     1
102
RTVSPropertyOp34
 70
     1
102
RTVSPropertyOp35
 70
     1
102
RTVSPropertyOp36
 70
     1
102
RTVSPropertyOp37
 70
     1
102
RTVSPropertyOp38
 70
     1
102
RTVSPropertyOp39
 70
     1
102
RTVSPropertyOp40
 70
     1
102
RTVSPropertyOp41
 70
     1
102
RTVSPropertyOp42
 70
     1
102
RTVSPropertyOp43
 70
     1
102
RTVSPropertyOp44
 70
     1
102
RTVSPropertyOp45
 70
     1
102
RTVSPropertyOp46
 70
     1
102
RTVSPropertyOp47
 70
     1
102
RTVSPropertyOp48
 70
     1
102
RTVSPropertyOp49
 70
     1
102
RTVSPropertyOp50
 70
     1
102
RTVSPropertyOp51
 70
     0
102
RTVSPropertyOp52
 70
     0
102
RTVSPropertyOp53
 70
     1
102
RTVSPropertyOp54
 70
     1
102
RTVSPropertyOp55
 70
     1
102
RTVSPropertyOp56
 70
     1
102
RTVSPropertyOp57
 70
     1
102
RTVSPropertyOp58
 70
     1
102
RTVSPropertyOp59
 70
     1
102
RTVSPropertyOp60
 70
     1
102
RTVSPropertyOp61
 70
     1
102
RTVSPropertyOp62
 70
     1
  0
XRECORD
  5
19A9
102
{ACAD_REACTORS
330
19A8
102
}
330
19A8
100
AcDbXrecord
280
     1
102
RTVSPost2010Prop28
280
     0
102
RTVSPost2010PropOp28
 70
     1
102
RTVSPost2010Prop29
280
     1
102
RTVSPost2010PropOp29
 70
     1
102
RTVSPost2010Prop30
280
     1
102
RTVSPost2010PropOp30
 70
     1
102
RTVSPost2010Prop31
280
     0
102
RTVSPost2010PropOp31
 70
     1
102
RTVSPost2010Prop32
280
     0
102
RTVSPost2010PropOp32
 70
     1
102
RTVSPost2010Prop33
280
     0
102
RTVSPost2010PropOp33
 70
     1
102
RTVSPost2010Prop34
280
     0
102
RTVSPost2010PropOp34
 70
     1
102
RTVSPost2010Prop35
280
     0
102
RTVSPost2010PropOp35
 70
     1
102
RTVSPost2010Prop36
280
     0
102
RTVSPost2010PropOp36
 70
     1
102
RTVSPost2010Prop37
 90
       50
102
RTVSPost2010PropOp37
 70
     1
102
RTVSPost2010Prop38
140
0.0
102
RTVSPost2010PropOp38
 70
     1
102
RTVSPost2010Prop39
140
1.0
102
RTVSPost2010PropOp39
 70
     1
102
RTVSPost2010Prop40
 90
        0
102
RTVSPost2010PropOp40
 70
     1
102
RTVSPost2010Prop41ColorIndex
 90
       18
102
RTVSPost2010Prop41ColorRGB
 90
        0
102
RTVSPost2010PropOp41
 70
     1
102
RTVSPost2010Prop42
 90
       50
102
RTVSPost2010PropOp42
 70
     1
102
RTVSPost2010Prop43
 90
        3
102
RTVSPost2010PropOp43
 70
     1
102
RTVSPost2010Prop44ColorIndex
 90
        5
102
RTVSPost2010Prop44ColorRGB
 90
      255
102
RTVSPost2010PropOp44
 70
     1
102
RTVSPost2010Prop45
280
     0
102
RTVSPost2010PropOp45
 70
     1
102
RTVSPost2010Prop46
 90
       50
102
RTVSPost2010PropOp46
 70
     1
102
RTVSPost2010Prop47
 90
       50
102
RTVSPost2010PropOp47
 70
     1
102
RTVSPost2010Prop48
 90
       50
102
RTVSPost2010PropOp48
 70
     1
102
RTVSPost2010Prop49
280
     0
102
RTVSPost2010PropOp49
 70
     1
102
RTVSPost2010Prop50
 90
       50
102
RTVSPost2010PropOp50
 70
     1
102
RTVSPost2010Prop51ColorIndex
 90
      256
102
RTVSPost2010Prop51ColorRGB
 90
-16777216
102
RTVSPost2010PropOp51
 70
     0
102
RTVSPost2010Prop52
140
1.0
102
RTVSPost2010PropOp52
 70
     0
102
RTVSPost2010Prop53
 90
        2
102
RTVSPost2010PropOp53
 70
     1
102
RTVSPost2010Prop54
  1
strokes_ogs.tif
102
RTVSPost2010PropOp54
 70
     1
102
RTVSPost2010Prop55
280
     0
102
RTVSPost2010PropOp55
 70
     1
102
RTVSPost2010Prop56
140
1.0
102
RTVSPost2010PropOp56
 70
     1
102
RTVSPost2010Prop57
140
1.0
102
RTVSPost2010PropOp57
 70
     1
102
RTVSPropertyOp0
 70
     1
102
RTVSPropertyOp1
 70
     1
102
RTVSPropertyOp2
 70
     1
102
RTVSPropertyOp3
 70
     1
102
RTVSPropertyOp4
 70
     1
102
RTVSPropertyOp5
 70
     1
102
RTVSPropertyOp6
 70
     1
102
RTVSPropertyOp7
 70
     1
102
RTVSPropertyOp8
 70
     1
102
RTVSPropertyOp9
 70
     1
102
RTVSPropertyOp10
 70
     1
102
RTVSPropertyOp11
 70
     1
102
RTVSPropertyOp12
 70
     1
102
RTVSPropertyOp13
 70
     1
102
RTVSPropertyOp14
 70
     1
102
RTVSPropertyOp15
 70
     1
102
RTVSPropertyOp16
 70
     1
102
RTVSPropertyOp17
 70
     1
102
RTVSPropertyOp18
 70
     1
102
RTVSPropertyOp19
 70
     1
102
RTVSPropertyOp20
 70
     1
102
RTVSPropertyOp21
 70
     1
102
RTVSPropertyOp22
 70
     1
102
RTVSPropertyOp23
 70
     1
102
RTVSPropertyOp24
 70
     1
102
RTVSPropertyOp25
 70
     1
102
RTVSPropertyOp26
 70
     1
102
RTVSPropertyOp27
 70
     1
102
RTVSPropertyOp28
 70
     1
102
RTVSPropertyOp29
 70
     1
102
RTVSPropertyOp30
 70
     1
102
RTVSPropertyOp31
 70
     1
102
RTVSPropertyOp32
 70
     1
102
RTVSPropertyOp33
 70
     1
102
RTVSPropertyOp34
 70
     1
102
RTVSPropertyOp35
 70
     1
102
RTVSPropertyOp36
 70
     1
102
RTVSPropertyOp37
 70
     1
102
RTVSPropertyOp38
 70
     1
102
RTVSPropertyOp39
 70
     1
102
RTVSPropertyOp40
 70
     1
102
RTVSPropertyOp41
 70
     1
102
RTVSPropertyOp42
 70
     1
102
RTVSPropertyOp43
 70
     1
102
RTVSPropertyOp44
 70
     1
102
RTVSPropertyOp45
 70
     1
102
RTVSPropertyOp46
 70
     1
102
RTVSPropertyOp47
 70
     1
102
RTVSPropertyOp48
 70
     1
102
RTVSPropertyOp49
 70
     1
102
RTVSPropertyOp50
 70
     1
102
RTVSPropertyOp51
 70
     0
102
RTVSPropertyOp52
 70
     0
102
RTVSPropertyOp53
 70
     1
102
RTVSPropertyOp54
 70
     1
102
RTVSPropertyOp55
 70
     1
102
RTVSPropertyOp56
 70
     1
102
RTVSPropertyOp57
 70
     1
102
RTVSPropertyOp58
 70
     1
102
RTVSPropertyOp59
 70
     1
102
RTVSPropertyOp60
 70
     1
102
RTVSPropertyOp61
 70
     1
102
RTVSPropertyOp62
 70
     1
  0
XRECORD
  5
19AD
102
{ACAD_REACTORS
330
19AC
102
}
330
19AC
100
AcDbXrecord
280
     1
102
RTVSPost2010Prop28
280
     0
102
RTVSPost2010PropOp28
 70
     1
102
RTVSPost2010Prop29
280
     1
102
RTVSPost2010PropOp29
 70
     1
102
RTVSPost2010Prop30
280
     1
102
RTVSPost2010PropOp30
 70
     1
102
RTVSPost2010Prop31
280
     0
102
RTVSPost2010PropOp31
 70
     1
102
RTVSPost2010Prop32
280
     0
102
RTVSPost2010PropOp32
 70
     1
102
RTVSPost2010Prop33
280
     0
102
RTVSPost2010PropOp33
 70
     1
102
RTVSPost2010Prop34
280
     0
102
RTVSPost2010PropOp34
 70
     1
102
RTVSPost2010Prop35
280
     0
102
RTVSPost2010PropOp35
 70
     1
102
RTVSPost2010Prop36
280
     0
102
RTVSPost2010PropOp36
 70
     1
102
RTVSPost2010Prop37
 90
       50
102
RTVSPost2010PropOp37
 70
     1
102
RTVSPost2010Prop38
140
0.0
102
RTVSPost2010PropOp38
 70
     1
102
RTVSPost2010Prop39
140
1.0
102
RTVSPost2010PropOp39
 70
     1
102
RTVSPost2010Prop40
 90
        0
102
RTVSPost2010PropOp40
 70
     1
102
RTVSPost2010Prop41ColorIndex
 90
       18
102
RTVSPost2010Prop41ColorRGB
 90
        0
102
RTVSPost2010PropOp41
 70
     1
102
RTVSPost2010Prop42
 90
       50
102
RTVSPost2010PropOp42
 70
     1
102
RTVSPost2010Prop43
 90
        3
102
RTVSPost2010PropOp43
 70
     1
102
RTVSPost2010Prop44ColorIndex
 90
        5
102
RTVSPost2010Prop44ColorRGB
 90
      255
102
RTVSPost2010PropOp44
 70
     1
102
RTVSPost2010Prop45
280
     0
102
RTVSPost2010PropOp45
 70
     1
102
RTVSPost2010Prop46
 90
       50
102
RTVSPost2010PropOp46
 70
     1
102
RTVSPost2010Prop47
 90
       50
102
RTVSPost2010PropOp47
 70
     1
102
RTVSPost2010Prop48
 90
       50
102
RTVSPost2010PropOp48
 70
     1
102
RTVSPost2010Prop49
280
     0
102
RTVSPost2010PropOp49
 70
     1
102
RTVSPost2010Prop50
 90
       50
102
RTVSPost2010PropOp50
 70
     1
102
RTVSPost2010Prop51ColorIndex
 90
      256
102
RTVSPost2010Prop51ColorRGB
 90
-16777216
102
RTVSPost2010PropOp51
 70
     0
102
RTVSPost2010Prop52
140
1.0
102
RTVSPost2010PropOp52
 70
     0
102
RTVSPost2010Prop53
 90
        2
102
RTVSPost2010PropOp53
 70
     1
102
RTVSPost2010Prop54
  1
strokes_ogs.tif
102
RTVSPost2010PropOp54
 70
     1
102
RTVSPost2010Prop55
280
     0
102
RTVSPost2010PropOp55
 70
     1
102
RTVSPost2010Prop56
140
1.0
102
RTVSPost2010PropOp56
 70
     1
102
RTVSPost2010Prop57
140
1.0
102
RTVSPost2010PropOp57
 70
     1
102
RTVSPropertyOp0
 70
     1
102
RTVSPropertyOp1
 70
     1
102
RTVSPropertyOp2
 70
     1
102
RTVSPropertyOp3
 70
     1
102
RTVSPropertyOp4
 70
     1
102
RTVSPropertyOp5
 70
     1
102
RTVSPropertyOp6
 70
     1
102
RTVSPropertyOp7
 70
     1
102
RTVSPropertyOp8
 70
     1
102
RTVSPropertyOp9
 70
     1
102
RTVSPropertyOp10
 70
     1
102
RTVSPropertyOp11
 70
     1
102
RTVSPropertyOp12
 70
     1
102
RTVSPropertyOp13
 70
     1
102
RTVSPropertyOp14
 70
     1
102
RTVSPropertyOp15
 70
     1
102
RTVSPropertyOp16
 70
     1
102
RTVSPropertyOp17
 70
     1
102
RTVSPropertyOp18
 70
     1
102
RTVSPropertyOp19
 70
     1
102
RTVSPropertyOp20
 70
     1
102
RTVSPropertyOp21
 70
     1
102
RTVSPropertyOp22
 70
     1
102
RTVSPropertyOp23
 70
     1
102
RTVSPropertyOp24
 70
     1
102
RTVSPropertyOp25
 70
     1
102
RTVSPropertyOp26
 70
     1
102
RTVSPropertyOp27
 70
     1
102
RTVSPropertyOp28
 70
     1
102
RTVSPropertyOp29
 70
     1
102
RTVSPropertyOp30
 70
     1
102
RTVSPropertyOp31
 70
     1
102
RTVSPropertyOp32
 70
     1
102
RTVSPropertyOp33
 70
     1
102
RTVSPropertyOp34
 70
     1
102
RTVSPropertyOp35
 70
     1
102
RTVSPropertyOp36
 70
     1
102
RTVSPropertyOp37
 70
     1
102
RTVSPropertyOp38
 70
     1
102
RTVSPropertyOp39
 70
     1
102
RTVSPropertyOp40
 70
     1
102
RTVSPropertyOp41
 70
     1
102
RTVSPropertyOp42
 70
     1
102
RTVSPropertyOp43
 70
     1
102
RTVSPropertyOp44
 70
     1
102
RTVSPropertyOp45
 70
     1
102
RTVSPropertyOp46
 70
     1
102
RTVSPropertyOp47
 70
     1
102
RTVSPropertyOp48
 70
     1
102
RTVSPropertyOp49
 70
     1
102
RTVSPropertyOp50
 70
     1
102
RTVSPropertyOp51
 70
     0
102
RTVSPropertyOp52
 70
     0
102
RTVSPropertyOp53
 70
     1
102
RTVSPropertyOp54
 70
     1
102
RTVSPropertyOp55
 70
     1
102
RTVSPropertyOp56
 70
     1
102
RTVSPropertyOp57
 70
     1
102
RTVSPropertyOp58
 70
     1
102
RTVSPropertyOp59
 70
     1
102
RTVSPropertyOp60
 70
     1
102
RTVSPropertyOp61
 70
     1
102
RTVSPropertyOp62
 70
     1
  0
XRECORD
  5
19C7
102
{ACAD_REACTORS
330
19C6
102
}
330
19C6
100
AcDbXrecord
280
     1
102
RTVSPost2010Prop28
280
     0
102
RTVSPost2010PropOp28
 70
     1
102
RTVSPost2010Prop29
280
     1
102
RTVSPost2010PropOp29
 70
     1
102
RTVSPost2010Prop30
280
     1
102
RTVSPost2010PropOp30
 70
     1
102
RTVSPost2010Prop31
280
     0
102
RTVSPost2010PropOp31
 70
     1
102
RTVSPost2010Prop32
280
     0
102
RTVSPost2010PropOp32
 70
     1
102
RTVSPost2010Prop33
280
     0
102
RTVSPost2010PropOp33
 70
     1
102
RTVSPost2010Prop34
280
     0
102
RTVSPost2010PropOp34
 70
     1
102
RTVSPost2010Prop35
280
     0
102
RTVSPost2010PropOp35
 70
     1
102
RTVSPost2010Prop36
280
     0
102
RTVSPost2010PropOp36
 70
     1
102
RTVSPost2010Prop37
 90
       50
102
RTVSPost2010PropOp37
 70
     0
102
RTVSPost2010Prop38
140
0.0
102
RTVSPost2010PropOp38
 70
     0
102
RTVSPost2010Prop39
140
1.0
102
RTVSPost2010PropOp39
 70
     0
102
RTVSPost2010Prop40
 90
        0
102
RTVSPost2010PropOp40
 70
     0
102
RTVSPost2010Prop41ColorIndex
 90
       18
102
RTVSPost2010Prop41ColorRGB
 90
        0
102
RTVSPost2010PropOp41
 70
     0
102
RTVSPost2010Prop42
 90
       50
102
RTVSPost2010PropOp42
 70
     0
102
RTVSPost2010Prop43
 90
        3
102
RTVSPost2010PropOp43
 70
     0
102
RTVSPost2010Prop44ColorIndex
 90
        5
102
RTVSPost2010Prop44ColorRGB
 90
      255
102
RTVSPost2010PropOp44
 70
     0
102
RTVSPost2010Prop45
280
     0
102
RTVSPost2010PropOp45
 70
     1
102
RTVSPost2010Prop46
 90
       50
102
RTVSPost2010PropOp46
 70
     0
102
RTVSPost2010Prop47
 90
       50
102
RTVSPost2010PropOp47
 70
     0
102
RTVSPost2010Prop48
 90
       50
102
RTVSPost2010PropOp48
 70
     0
102
RTVSPost2010Prop49
280
     0
102
RTVSPost2010PropOp49
 70
     1
102
RTVSPost2010Prop50
 90
       50
102
RTVSPost2010PropOp50
 70
     0
102
RTVSPost2010Prop51ColorIndex
 90
      256
102
RTVSPost2010Prop51ColorRGB
 90
-16777216
102
RTVSPost2010PropOp51
 70
     0
102
RTVSPost2010Prop52
140
1.0
102
RTVSPost2010PropOp52
 70
     0
102
RTVSPost2010Prop53
 90
        2
102
RTVSPost2010PropOp53
 70
     0
102
RTVSPost2010Prop54
  1
strokes_ogs.tif
102
RTVSPost2010PropOp54
 70
     0
102
RTVSPost2010Prop55
280
     0
102
RTVSPost2010PropOp55
 70
     1
102
RTVSPost2010Prop56
140
1.0
102
RTVSPost2010PropOp56
 70
     0
102
RTVSPost2010Prop57
140
1.0
102
RTVSPost2010PropOp57
 70
     0
102
RTVSPropertyOp0
 70
     0
102
RTVSPropertyOp1
 70
     0
102
RTVSPropertyOp2
 70
     0
102
RTVSPropertyOp3
 70
     0
102
RTVSPropertyOp4
 70
     0
102
RTVSPropertyOp5
 70
     0
102
RTVSPropertyOp6
 70
     0
102
RTVSPropertyOp7
 70
     0
102
RTVSPropertyOp8
 70
     0
102
RTVSPropertyOp9
 70
     0
102
RTVSPropertyOp10
 70
     0
102
RTVSPropertyOp11
 70
     0
102
RTVSPropertyOp12
 70
     0
102
RTVSPropertyOp13
 70
     0
102
RTVSPropertyOp14
 70
     2
102
RTVSPropertyOp15
 70
     0
102
RTVSPropertyOp16
 70
     0
102
RTVSPropertyOp17
 70
     0
102
RTVSPropertyOp18
 70
     0
102
RTVSPropertyOp19
 70
     0
102
RTVSPropertyOp20
 70
     0
102
RTVSPropertyOp21
 70
     0
102
RTVSPropertyOp22
 70
     0
102
RTVSPropertyOp23
 70
     0
102
RTVSPropertyOp24
 70
     0
102
RTVSPropertyOp25
 70
     0
102
RTVSPropertyOp26
 70
     0
102
RTVSPropertyOp27
 70
     0
102
RTVSPropertyOp28
 70
     1
102
RTVSPropertyOp29
 70
     1
102
RTVSPropertyOp30
 70
     1
102
RTVSPropertyOp31
 70
     1
102
RTVSPropertyOp32
 70
     1
102
RTVSPropertyOp33
 70
     1
102
RTVSPropertyOp34
 70
     1
102
RTVSPropertyOp35
 70
     1
102
RTVSPropertyOp36
 70
     1
102
RTVSPropertyOp37
 70
     0
102
RTVSPropertyOp38
 70
     0
102
RTVSPropertyOp39
 70
     0
102
RTVSPropertyOp40
 70
     0
102
RTVSPropertyOp41
 70
     0
102
RTVSPropertyOp42
 70
     0
102
RTVSPropertyOp43
 70
     0
102
RTVSPropertyOp44
 70
     0
102
RTVSPropertyOp45
 70
     1
102
RTVSPropertyOp46
 70
     0
102
RTVSPropertyOp47
 70
     0
102
RTVSPropertyOp48
 70
     0
102
RTVSPropertyOp49
 70
     1
102
RTVSPropertyOp50
 70
     0
102
RTVSPropertyOp51
 70
     0
102
RTVSPropertyOp52
 70
     0
102
RTVSPropertyOp53
 70
     0
102
RTVSPropertyOp54
 70
     0
102
RTVSPropertyOp55
 70
     1
102
RTVSPropertyOp56
 70
     0
102
RTVSPropertyOp57
 70
     0
102
RTVSPropertyOp58
 70
     0
102
RTVSPropertyOp59
 70
     0
102
RTVSPropertyOp60
 70
     0
102
RTVSPropertyOp61
 70
     0
102
RTVSPropertyOp62
 70
     0
  0
XRECORD
  5
19B5
102
{ACAD_REACTORS
330
19B4
102
}
330
19B4
100
AcDbXrecord
280
     1
102
RTVSPost2010Prop28
280
     0
102
RTVSPost2010PropOp28
 70
     1
102
RTVSPost2010Prop29
280
     1
102
RTVSPost2010PropOp29
 70
     1
102
RTVSPost2010Prop30
280
     1
102
RTVSPost2010PropOp30
 70
     1
102
RTVSPost2010Prop31
280
     0
102
RTVSPost2010PropOp31
 70
     1
102
RTVSPost2010Prop32
280
     0
102
RTVSPost2010PropOp32
 70
     1
102
RTVSPost2010Prop33
280
     0
102
RTVSPost2010PropOp33
 70
     1
102
RTVSPost2010Prop34
280
     0
102
RTVSPost2010PropOp34
 70
     1
102
RTVSPost2010Prop35
280
     0
102
RTVSPost2010PropOp35
 70
     1
102
RTVSPost2010Prop36
280
     0
102
RTVSPost2010PropOp36
 70
     1
102
RTVSPost2010Prop37
 90
       50
102
RTVSPost2010PropOp37
 70
     1
102
RTVSPost2010Prop38
140
0.0
102
RTVSPost2010PropOp38
 70
     1
102
RTVSPost2010Prop39
140
1.0
102
RTVSPost2010PropOp39
 70
     1
102
RTVSPost2010Prop40
 90
        0
102
RTVSPost2010PropOp40
 70
     1
102
RTVSPost2010Prop41ColorIndex
 90
       18
102
RTVSPost2010Prop41ColorRGB
 90
        0
102
RTVSPost2010PropOp41
 70
     1
102
RTVSPost2010Prop42
 90
       50
102
RTVSPost2010PropOp42
 70
     1
102
RTVSPost2010Prop43
 90
        3
102
RTVSPost2010PropOp43
 70
     1
102
RTVSPost2010Prop44ColorIndex
 90
        5
102
RTVSPost2010Prop44ColorRGB
 90
      255
102
RTVSPost2010PropOp44
 70
     1
102
RTVSPost2010Prop45
280
     0
102
RTVSPost2010PropOp45
 70
     1
102
RTVSPost2010Prop46
 90
       50
102
RTVSPost2010PropOp46
 70
     1
102
RTVSPost2010Prop47
 90
       50
102
RTVSPost2010PropOp47
 70
     1
102
RTVSPost2010Prop48
 90
       50
102
RTVSPost2010PropOp48
 70
     1
102
RTVSPost2010Prop49
280
     0
102
RTVSPost2010PropOp49
 70
     1
102
RTVSPost2010Prop50
 90
       50
102
RTVSPost2010PropOp50
 70
     1
102
RTVSPost2010Prop51ColorIndex
 90
      256
102
RTVSPost2010Prop51ColorRGB
 90
-16777216
102
RTVSPost2010PropOp51
 70
     0
102
RTVSPost2010Prop52
140
1.0
102
RTVSPost2010PropOp52
 70
     0
102
RTVSPost2010Prop53
 90
        2
102
RTVSPost2010PropOp53
 70
     1
102
RTVSPost2010Prop54
  1
strokes_ogs.tif
102
RTVSPost2010PropOp54
 70
     1
102
RTVSPost2010Prop55
280
     0
102
RTVSPost2010PropOp55
 70
     1
102
RTVSPost2010Prop56
140
1.0
102
RTVSPost2010PropOp56
 70
     1
102
RTVSPost2010Prop57
140
1.0
102
RTVSPost2010PropOp57
 70
     1
102
RTVSPropertyOp0
 70
     1
102
RTVSPropertyOp1
 70
     1
102
RTVSPropertyOp2
 70
     1
102
RTVSPropertyOp3
 70
     1
102
RTVSPropertyOp4
 70
     1
102
RTVSPropertyOp5
 70
     1
102
RTVSPropertyOp6
 70
     1
102
RTVSPropertyOp7
 70
     1
102
RTVSPropertyOp8
 70
     1
102
RTVSPropertyOp9
 70
     1
102
RTVSPropertyOp10
 70
     1
102
RTVSPropertyOp11
 70
     1
102
RTVSPropertyOp12
 70
     1
102
RTVSPropertyOp13
 70
     1
102
RTVSPropertyOp14
 70
     1
102
RTVSPropertyOp15
 70
     1
102
RTVSPropertyOp16
 70
     1
102
RTVSPropertyOp17
 70
     1
102
RTVSPropertyOp18
 70
     1
102
RTVSPropertyOp19
 70
     1
102
RTVSPropertyOp20
 70
     1
102
RTVSPropertyOp21
 70
     1
102
RTVSPropertyOp22
 70
     1
102
RTVSPropertyOp23
 70
     1
102
RTVSPropertyOp24
 70
     1
102
RTVSPropertyOp25
 70
     1
102
RTVSPropertyOp26
 70
     1
102
RTVSPropertyOp27
 70
     1
102
RTVSPropertyOp28
 70
     1
102
RTVSPropertyOp29
 70
     1
102
RTVSPropertyOp30
 70
     1
102
RTVSPropertyOp31
 70
     1
102
RTVSPropertyOp32
 70
     1
102
RTVSPropertyOp33
 70
     1
102
RTVSPropertyOp34
 70
     1
102
RTVSPropertyOp35
 70
     1
102
RTVSPropertyOp36
 70
     1
102
RTVSPropertyOp37
 70
     1
102
RTVSPropertyOp38
 70
     1
102
RTVSPropertyOp39
 70
     1
102
RTVSPropertyOp40
 70
     1
102
RTVSPropertyOp41
 70
     1
102
RTVSPropertyOp42
 70
     1
102
RTVSPropertyOp43
 70
     1
102
RTVSPropertyOp44
 70
     1
102
RTVSPropertyOp45
 70
     1
102
RTVSPropertyOp46
 70
     1
102
RTVSPropertyOp47
 70
     1
102
RTVSPropertyOp48
 70
     1
102
RTVSPropertyOp49
 70
     1
102
RTVSPropertyOp50
 70
     1
102
RTVSPropertyOp51
 70
     0
102
RTVSPropertyOp52
 70
     0
102
RTVSPropertyOp53
 70
     1
102
RTVSPropertyOp54
 70
     1
102
RTVSPropertyOp55
 70
     1
102
RTVSPropertyOp56
 70
     1
102
RTVSPropertyOp57
 70
     1
102
RTVSPropertyOp58
 70
     1
102
RTVSPropertyOp59
 70
     1
102
RTVSPropertyOp60
 70
     1
102
RTVSPropertyOp61
 70
     1
102
RTVSPropertyOp62
 70
     1
  0
XRECORD
  5
1999
102
{ACAD_REACTORS
330
1998
102
}
330
1998
100
AcDbXrecord
280
     1
102
RTVSPost2010Prop28
280
     0
102
RTVSPost2010PropOp28
 70
     1
102
RTVSPost2010Prop29
280
     1
102
RTVSPost2010PropOp29
 70
     1
102
RTVSPost2010Prop30
280
     1
102
RTVSPost2010PropOp30
 70
     1
102
RTVSPost2010Prop31
280
     0
102
RTVSPost2010PropOp31
 70
     1
102
RTVSPost2010Prop32
280
     0
102
RTVSPost2010PropOp32
 70
     1
102
RTVSPost2010Prop33
280
     0
102
RTVSPost2010PropOp33
 70
     1
102
RTVSPost2010Prop34
280
     0
102
RTVSPost2010PropOp34
 70
     1
102
RTVSPost2010Prop35
280
     0
102
RTVSPost2010PropOp35
 70
     1
102
RTVSPost2010Prop36
280
     0
102
RTVSPost2010PropOp36
 70
     1
102
RTVSPost2010Prop37
 90
       50
102
RTVSPost2010PropOp37
 70
     1
102
RTVSPost2010Prop38
140
0.0
102
RTVSPost2010PropOp38
 70
     1
102
RTVSPost2010Prop39
140
1.0
102
RTVSPost2010PropOp39
 70
     1
102
RTVSPost2010Prop40
 90
        0
102
RTVSPost2010PropOp40
 70
     1
102
RTVSPost2010Prop41ColorIndex
 90
       18
102
RTVSPost2010Prop41ColorRGB
 90
        0
102
RTVSPost2010PropOp41
 70
     1
102
RTVSPost2010Prop42
 90
       50
102
RTVSPost2010PropOp42
 70
     1
102
RTVSPost2010Prop43
 90
        3
102
RTVSPost2010PropOp43
 70
     1
102
RTVSPost2010Prop44ColorIndex
 90
        5
102
RTVSPost2010Prop44ColorRGB
 90
      255
102
RTVSPost2010PropOp44
 70
     1
102
RTVSPost2010Prop45
280
     0
102
RTVSPost2010PropOp45
 70
     1
102
RTVSPost2010Prop46
 90
       50
102
RTVSPost2010PropOp46
 70
     1
102
RTVSPost2010Prop47
 90
       50
102
RTVSPost2010PropOp47
 70
     1
102
RTVSPost2010Prop48
 90
       50
102
RTVSPost2010PropOp48
 70
     1
102
RTVSPost2010Prop49
280
     0
102
RTVSPost2010PropOp49
 70
     1
102
RTVSPost2010Prop50
 90
       50
102
RTVSPost2010PropOp50
 70
     1
102
RTVSPost2010Prop51ColorIndex
 90
      256
102
RTVSPost2010Prop51ColorRGB
 90
-16777216
102
RTVSPost2010PropOp51
 70
     0
102
RTVSPost2010Prop52
140
1.0
102
RTVSPost2010PropOp52
 70
     0
102
RTVSPost2010Prop53
 90
        2
102
RTVSPost2010PropOp53
 70
     1
102
RTVSPost2010Prop54
  1
strokes_ogs.tif
102
RTVSPost2010PropOp54
 70
     1
102
RTVSPost2010Prop55
280
     0
102
RTVSPost2010PropOp55
 70
     1
102
RTVSPost2010Prop56
140
1.0
102
RTVSPost2010PropOp56
 70
     1
102
RTVSPost2010Prop57
140
1.0
102
RTVSPost2010PropOp57
 70
     1
102
RTVSPropertyOp0
 70
     1
102
RTVSPropertyOp1
 70
     1
102
RTVSPropertyOp2
 70
     1
102
RTVSPropertyOp3
 70
     1
102
RTVSPropertyOp4
 70
     1
102
RTVSPropertyOp5
 70
     1
102
RTVSPropertyOp6
 70
     1
102
RTVSPropertyOp7
 70
     1
102
RTVSPropertyOp8
 70
     1
102
RTVSPropertyOp9
 70
     1
102
RTVSPropertyOp10
 70
     1
102
RTVSPropertyOp11
 70
     1
102
RTVSPropertyOp12
 70
     1
102
RTVSPropertyOp13
 70
     1
102
RTVSPropertyOp14
 70
     1
102
RTVSPropertyOp15
 70
     1
102
RTVSPropertyOp16
 70
     1
102
RTVSPropertyOp17
 70
     1
102
RTVSPropertyOp18
 70
     1
102
RTVSPropertyOp19
 70
     1
102
RTVSPropertyOp20
 70
     1
102
RTVSPropertyOp21
 70
     1
102
RTVSPropertyOp22
 70
     1
102
RTVSPropertyOp23
 70
     1
102
RTVSPropertyOp24
 70
     1
102
RTVSPropertyOp25
 70
     1
102
RTVSPropertyOp26
 70
     1
102
RTVSPropertyOp27
 70
     1
102
RTVSPropertyOp28
 70
     1
102
RTVSPropertyOp29
 70
     1
102
RTVSPropertyOp30
 70
     1
102
RTVSPropertyOp31
 70
     1
102
RTVSPropertyOp32
 70
     1
102
RTVSPropertyOp33
 70
     1
102
RTVSPropertyOp34
 70
     1
102
RTVSPropertyOp35
 70
     1
102
RTVSPropertyOp36
 70
     1
102
RTVSPropertyOp37
 70
     1
102
RTVSPropertyOp38
 70
     1
102
RTVSPropertyOp39
 70
     1
102
RTVSPropertyOp40
 70
     1
102
RTVSPropertyOp41
 70
     1
102
RTVSPropertyOp42
 70
     1
102
RTVSPropertyOp43
 70
     1
102
RTVSPropertyOp44
 70
     1
102
RTVSPropertyOp45
 70
     1
102
RTVSPropertyOp46
 70
     1
102
RTVSPropertyOp47
 70
     1
102
RTVSPropertyOp48
 70
     1
102
RTVSPropertyOp49
 70
     1
102
RTVSPropertyOp50
 70
     1
102
RTVSPropertyOp51
 70
     0
102
RTVSPropertyOp52
 70
     0
102
RTVSPropertyOp53
 70
     1
102
RTVSPropertyOp54
 70
     1
102
RTVSPropertyOp55
 70
     1
102
RTVSPropertyOp56
 70
     1
102
RTVSPropertyOp57
 70
     1
102
RTVSPropertyOp58
 70
     1
102
RTVSPropertyOp59
 70
     1
102
RTVSPropertyOp60
 70
     1
102
RTVSPropertyOp61
 70
     1
102
RTVSPropertyOp62
 70
     1
  0
XRECORD
  5
199B
102
{ACAD_REACTORS
330
199A
102
}
330
199A
100
AcDbXrecord
280
     1
102
RTVSPost2010Prop28
280
     0
102
RTVSPost2010PropOp28
 70
     1
102
RTVSPost2010Prop29
280
     1
102
RTVSPost2010PropOp29
 70
     1
102
RTVSPost2010Prop30
280
     1
102
RTVSPost2010PropOp30
 70
     1
102
RTVSPost2010Prop31
280
     0
102
RTVSPost2010PropOp31
 70
     1
102
RTVSPost2010Prop32
280
     0
102
RTVSPost2010PropOp32
 70
     1
102
RTVSPost2010Prop33
280
     0
102
RTVSPost2010PropOp33
 70
     1
102
RTVSPost2010Prop34
280
     0
102
RTVSPost2010PropOp34
 70
     1
102
RTVSPost2010Prop35
280
     0
102
RTVSPost2010PropOp35
 70
     1
102
RTVSPost2010Prop36
280
     0
102
RTVSPost2010PropOp36
 70
     1
102
RTVSPost2010Prop37
 90
       50
102
RTVSPost2010PropOp37
 70
     1
102
RTVSPost2010Prop38
140
0.0
102
RTVSPost2010PropOp38
 70
     1
102
RTVSPost2010Prop39
140
1.0
102
RTVSPost2010PropOp39
 70
     1
102
RTVSPost2010Prop40
 90
        0
102
RTVSPost2010PropOp40
 70
     1
102
RTVSPost2010Prop41ColorIndex
 90
       18
102
RTVSPost2010Prop41ColorRGB
 90
        0
102
RTVSPost2010PropOp41
 70
     1
102
RTVSPost2010Prop42
 90
       50
102
RTVSPost2010PropOp42
 70
     1
102
RTVSPost2010Prop43
 90
        3
102
RTVSPost2010PropOp43
 70
     1
102
RTVSPost2010Prop44ColorIndex
 90
        5
102
RTVSPost2010Prop44ColorRGB
 90
      255
102
RTVSPost2010PropOp44
 70
     1
102
RTVSPost2010Prop45
280
     0
102
RTVSPost2010PropOp45
 70
     1
102
RTVSPost2010Prop46
 90
       50
102
RTVSPost2010PropOp46
 70
     1
102
RTVSPost2010Prop47
 90
       50
102
RTVSPost2010PropOp47
 70
     1
102
RTVSPost2010Prop48
 90
       50
102
RTVSPost2010PropOp48
 70
     1
102
RTVSPost2010Prop49
280
     0
102
RTVSPost2010PropOp49
 70
     1
102
RTVSPost2010Prop50
 90
       50
102
RTVSPost2010PropOp50
 70
     1
102
RTVSPost2010Prop51ColorIndex
 90
      256
102
RTVSPost2010Prop51ColorRGB
 90
-16777216
102
RTVSPost2010PropOp51
 70
     0
102
RTVSPost2010Prop52
140
1.0
102
RTVSPost2010PropOp52
 70
     0
102
RTVSPost2010Prop53
 90
        2
102
RTVSPost2010PropOp53
 70
     1
102
RTVSPost2010Prop54
  1
strokes_ogs.tif
102
RTVSPost2010PropOp54
 70
     1
102
RTVSPost2010Prop55
280
     0
102
RTVSPost2010PropOp55
 70
     1
102
RTVSPost2010Prop56
140
1.0
102
RTVSPost2010PropOp56
 70
     1
102
RTVSPost2010Prop57
140
1.0
102
RTVSPost2010PropOp57
 70
     1
102
RTVSPropertyOp0
 70
     1
102
RTVSPropertyOp1
 70
     1
102
RTVSPropertyOp2
 70
     1
102
RTVSPropertyOp3
 70
     1
102
RTVSPropertyOp4
 70
     1
102
RTVSPropertyOp5
 70
     1
102
RTVSPropertyOp6
 70
     1
102
RTVSPropertyOp7
 70
     1
102
RTVSPropertyOp8
 70
     1
102
RTVSPropertyOp9
 70
     1
102
RTVSPropertyOp10
 70
     1
102
RTVSPropertyOp11
 70
     1
102
RTVSPropertyOp12
 70
     1
102
RTVSPropertyOp13
 70
     1
102
RTVSPropertyOp14
 70
     1
102
RTVSPropertyOp15
 70
     1
102
RTVSPropertyOp16
 70
     1
102
RTVSPropertyOp17
 70
     1
102
RTVSPropertyOp18
 70
     1
102
RTVSPropertyOp19
 70
     1
102
RTVSPropertyOp20
 70
     1
102
RTVSPropertyOp21
 70
     1
102
RTVSPropertyOp22
 70
     1
102
RTVSPropertyOp23
 70
     1
102
RTVSPropertyOp24
 70
     1
102
RTVSPropertyOp25
 70
     1
102
RTVSPropertyOp26
 70
     1
102
RTVSPropertyOp27
 70
     1
102
RTVSPropertyOp28
 70
     1
102
RTVSPropertyOp29
 70
     1
102
RTVSPropertyOp30
 70
     1
102
RTVSPropertyOp31
 70
     1
102
RTVSPropertyOp32
 70
     1
102
RTVSPropertyOp33
 70
     1
102
RTVSPropertyOp34
 70
     1
102
RTVSPropertyOp35
 70
     1
102
RTVSPropertyOp36
 70
     1
102
RTVSPropertyOp37
 70
     1
102
RTVSPropertyOp38
 70
     1
102
RTVSPropertyOp39
 70
     1
102
RTVSPropertyOp40
 70
     1
102
RTVSPropertyOp41
 70
     1
102
RTVSPropertyOp42
 70
     1
102
RTVSPropertyOp43
 70
     1
102
RTVSPropertyOp44
 70
     1
102
RTVSPropertyOp45
 70
     1
102
RTVSPropertyOp46
 70
     1
102
RTVSPropertyOp47
 70
     1
102
RTVSPropertyOp48
 70
     1
102
RTVSPropertyOp49
 70
     1
102
RTVSPropertyOp50
 70
     1
102
RTVSPropertyOp51
 70
     0
102
RTVSPropertyOp52
 70
     0
102
RTVSPropertyOp53
 70
     1
102
RTVSPropertyOp54
 70
     1
102
RTVSPropertyOp55
 70
     1
102
RTVSPropertyOp56
 70
     1
102
RTVSPropertyOp57
 70
     1
102
RTVSPropertyOp58
 70
     1
102
RTVSPropertyOp59
 70
     1
102
RTVSPropertyOp60
 70
     1
102
RTVSPropertyOp61
 70
     1
102
RTVSPropertyOp62
 70
     1
  0
XRECORD
  5
199D
102
{ACAD_REACTORS
330
199C
102
}
330
199C
100
AcDbXrecord
280
     1
102
RTVSPost2010Prop28
280
     0
102
RTVSPost2010PropOp28
 70
     1
102
RTVSPost2010Prop29
280
     1
102
RTVSPost2010PropOp29
 70
     1
102
RTVSPost2010Prop30
280
     1
102
RTVSPost2010PropOp30
 70
     1
102
RTVSPost2010Prop31
280
     0
102
RTVSPost2010PropOp31
 70
     1
102
RTVSPost2010Prop32
280
     0
102
RTVSPost2010PropOp32
 70
     1
102
RTVSPost2010Prop33
280
     0
102
RTVSPost2010PropOp33
 70
     1
102
RTVSPost2010Prop34
280
     0
102
RTVSPost2010PropOp34
 70
     1
102
RTVSPost2010Prop35
280
     0
102
RTVSPost2010PropOp35
 70
     1
102
RTVSPost2010Prop36
280
     0
102
RTVSPost2010PropOp36
 70
     1
102
RTVSPost2010Prop37
 90
       50
102
RTVSPost2010PropOp37
 70
     1
102
RTVSPost2010Prop38
140
0.0
102
RTVSPost2010PropOp38
 70
     1
102
RTVSPost2010Prop39
140
1.0
102
RTVSPost2010PropOp39
 70
     1
102
RTVSPost2010Prop40
 90
        0
102
RTVSPost2010PropOp40
 70
     1
102
RTVSPost2010Prop41ColorIndex
 90
       18
102
RTVSPost2010Prop41ColorRGB
 90
        0
102
RTVSPost2010PropOp41
 70
     1
102
RTVSPost2010Prop42
 90
       50
102
RTVSPost2010PropOp42
 70
     1
102
RTVSPost2010Prop43
 90
        3
102
RTVSPost2010PropOp43
 70
     1
102
RTVSPost2010Prop44ColorIndex
 90
        5
102
RTVSPost2010Prop44ColorRGB
 90
      255
102
RTVSPost2010PropOp44
 70
     1
102
RTVSPost2010Prop45
280
     0
102
RTVSPost2010PropOp45
 70
     1
102
RTVSPost2010Prop46
 90
       50
102
RTVSPost2010PropOp46
 70
     1
102
RTVSPost2010Prop47
 90
       50
102
RTVSPost2010PropOp47
 70
     1
102
RTVSPost2010Prop48
 90
       50
102
RTVSPost2010PropOp48
 70
     1
102
RTVSPost2010Prop49
280
     0
102
RTVSPost2010PropOp49
 70
     1
102
RTVSPost2010Prop50
 90
       50
102
RTVSPost2010PropOp50
 70
     1
102
RTVSPost2010Prop51ColorIndex
 90
      256
102
RTVSPost2010Prop51ColorRGB
 90
-16777216
102
RTVSPost2010PropOp51
 70
     0
102
RTVSPost2010Prop52
140
1.0
102
RTVSPost2010PropOp52
 70
     0
102
RTVSPost2010Prop53
 90
        2
102
RTVSPost2010PropOp53
 70
     1
102
RTVSPost2010Prop54
  1
strokes_ogs.tif
102
RTVSPost2010PropOp54
 70
     1
102
RTVSPost2010Prop55
280
     0
102
RTVSPost2010PropOp55
 70
     1
102
RTVSPost2010Prop56
140
1.0
102
RTVSPost2010PropOp56
 70
     1
102
RTVSPost2010Prop57
140
1.0
102
RTVSPost2010PropOp57
 70
     1
102
RTVSPropertyOp0
 70
     1
102
RTVSPropertyOp1
 70
     1
102
RTVSPropertyOp2
 70
     1
102
RTVSPropertyOp3
 70
     1
102
RTVSPropertyOp4
 70
     1
102
RTVSPropertyOp5
 70
     1
102
RTVSPropertyOp6
 70
     1
102
RTVSPropertyOp7
 70
     1
102
RTVSPropertyOp8
 70
     1
102
RTVSPropertyOp9
 70
     1
102
RTVSPropertyOp10
 70
     1
102
RTVSPropertyOp11
 70
     1
102
RTVSPropertyOp12
 70
     1
102
RTVSPropertyOp13
 70
     1
102
RTVSPropertyOp14
 70
     1
102
RTVSPropertyOp15
 70
     1
102
RTVSPropertyOp16
 70
     1
102
RTVSPropertyOp17
 70
     1
102
RTVSPropertyOp18
 70
     1
102
RTVSPropertyOp19
 70
     1
102
RTVSPropertyOp20
 70
     1
102
RTVSPropertyOp21
 70
     1
102
RTVSPropertyOp22
 70
     1
102
RTVSPropertyOp23
 70
     1
102
RTVSPropertyOp24
 70
     1
102
RTVSPropertyOp25
 70
     1
102
RTVSPropertyOp26
 70
     1
102
RTVSPropertyOp27
 70
     1
102
RTVSPropertyOp28
 70
     1
102
RTVSPropertyOp29
 70
     1
102
RTVSPropertyOp30
 70
     1
102
RTVSPropertyOp31
 70
     1
102
RTVSPropertyOp32
 70
     1
102
RTVSPropertyOp33
 70
     1
102
RTVSPropertyOp34
 70
     1
102
RTVSPropertyOp35
 70
     1
102
RTVSPropertyOp36
 70
     1
102
RTVSPropertyOp37
 70
     1
102
RTVSPropertyOp38
 70
     1
102
RTVSPropertyOp39
 70
     1
102
RTVSPropertyOp40
 70
     1
102
RTVSPropertyOp41
 70
     1
102
RTVSPropertyOp42
 70
     1
102
RTVSPropertyOp43
 70
     1
102
RTVSPropertyOp44
 70
     1
102
RTVSPropertyOp45
 70
     1
102
RTVSPropertyOp46
 70
     1
102
RTVSPropertyOp47
 70
     1
102
RTVSPropertyOp48
 70
     1
102
RTVSPropertyOp49
 70
     1
102
RTVSPropertyOp50
 70
     1
102
RTVSPropertyOp51
 70
     0
102
RTVSPropertyOp52
 70
     0
102
RTVSPropertyOp53
 70
     1
102
RTVSPropertyOp54
 70
     1
102
RTVSPropertyOp55
 70
     1
102
RTVSPropertyOp56
 70
     1
102
RTVSPropertyOp57
 70
     1
102
RTVSPropertyOp58
 70
     1
102
RTVSPropertyOp59
 70
     1
102
RTVSPropertyOp60
 70
     1
102
RTVSPropertyOp61
 70
     1
102
RTVSPropertyOp62
 70
     1
  0
XRECORD
  5
199F
102
{ACAD_REACTORS
330
199E
102
}
330
199E
100
AcDbXrecord
280
     1
102
RTVSPost2010Prop28
280
     0
102
RTVSPost2010PropOp28
 70
     1
102
RTVSPost2010Prop29
280
     1
102
RTVSPost2010PropOp29
 70
     1
102
RTVSPost2010Prop30
280
     1
102
RTVSPost2010PropOp30
 70
     1
102
RTVSPost2010Prop31
280
     0
102
RTVSPost2010PropOp31
 70
     1
102
RTVSPost2010Prop32
280
     0
102
RTVSPost2010PropOp32
 70
     1
102
RTVSPost2010Prop33
280
     0
102
RTVSPost2010PropOp33
 70
     1
102
RTVSPost2010Prop34
280
     0
102
RTVSPost2010PropOp34
 70
     1
102
RTVSPost2010Prop35
280
     0
102
RTVSPost2010PropOp35
 70
     1
102
RTVSPost2010Prop36
280
     0
102
RTVSPost2010PropOp36
 70
     1
102
RTVSPost2010Prop37
 90
       50
102
RTVSPost2010PropOp37
 70
     1
102
RTVSPost2010Prop38
140
0.0
102
RTVSPost2010PropOp38
 70
     1
102
RTVSPost2010Prop39
140
1.0
102
RTVSPost2010PropOp39
 70
     1
102
RTVSPost2010Prop40
 90
        0
102
RTVSPost2010PropOp40
 70
     1
102
RTVSPost2010Prop41ColorIndex
 90
       18
102
RTVSPost2010Prop41ColorRGB
 90
        0
102
RTVSPost2010PropOp41
 70
     1
102
RTVSPost2010Prop42
 90
       50
102
RTVSPost2010PropOp42
 70
     1
102
RTVSPost2010Prop43
 90
        3
102
RTVSPost2010PropOp43
 70
     1
102
RTVSPost2010Prop44ColorIndex
 90
        5
102
RTVSPost2010Prop44ColorRGB
 90
      255
102
RTVSPost2010PropOp44
 70
     1
102
RTVSPost2010Prop45
280
     0
102
RTVSPost2010PropOp45
 70
     1
102
RTVSPost2010Prop46
 90
       50
102
RTVSPost2010PropOp46
 70
     1
102
RTVSPost2010Prop47
 90
       50
102
RTVSPost2010PropOp47
 70
     1
102
RTVSPost2010Prop48
 90
       50
102
RTVSPost2010PropOp48
 70
     1
102
RTVSPost2010Prop49
280
     0
102
RTVSPost2010PropOp49
 70
     1
102
RTVSPost2010Prop50
 90
       50
102
RTVSPost2010PropOp50
 70
     1
102
RTVSPost2010Prop51ColorIndex
 90
      256
102
RTVSPost2010Prop51ColorRGB
 90
-16777216
102
RTVSPost2010PropOp51
 70
     0
102
RTVSPost2010Prop52
140
1.0
102
RTVSPost2010PropOp52
 70
     0
102
RTVSPost2010Prop53
 90
        2
102
RTVSPost2010PropOp53
 70
     1
102
RTVSPost2010Prop54
  1
strokes_ogs.tif
102
RTVSPost2010PropOp54
 70
     1
102
RTVSPost2010Prop55
280
     0
102
RTVSPost2010PropOp55
 70
     1
102
RTVSPost2010Prop56
140
1.0
102
RTVSPost2010PropOp56
 70
     1
102
RTVSPost2010Prop57
140
1.0
102
RTVSPost2010PropOp57
 70
     1
102
RTVSPropertyOp0
 70
     1
102
RTVSPropertyOp1
 70
     1
102
RTVSPropertyOp2
 70
     1
102
RTVSPropertyOp3
 70
     1
102
RTVSPropertyOp4
 70
     1
102
RTVSPropertyOp5
 70
     1
102
RTVSPropertyOp6
 70
     1
102
RTVSPropertyOp7
 70
     1
102
RTVSPropertyOp8
 70
     1
102
RTVSPropertyOp9
 70
     1
102
RTVSPropertyOp10
 70
     1
102
RTVSPropertyOp11
 70
     1
102
RTVSPropertyOp12
 70
     1
102
RTVSPropertyOp13
 70
     1
102
RTVSPropertyOp14
 70
     1
102
RTVSPropertyOp15
 70
     1
102
RTVSPropertyOp16
 70
     1
102
RTVSPropertyOp17
 70
     1
102
RTVSPropertyOp18
 70
     1
102
RTVSPropertyOp19
 70
     1
102
RTVSPropertyOp20
 70
     1
102
RTVSPropertyOp21
 70
     1
102
RTVSPropertyOp22
 70
     1
102
RTVSPropertyOp23
 70
     1
102
RTVSPropertyOp24
 70
     1
102
RTVSPropertyOp25
 70
     1
102
RTVSPropertyOp26
 70
     1
102
RTVSPropertyOp27
 70
     1
102
RTVSPropertyOp28
 70
     1
102
RTVSPropertyOp29
 70
     1
102
RTVSPropertyOp30
 70
     1
102
RTVSPropertyOp31
 70
     1
102
RTVSPropertyOp32
 70
     1
102
RTVSPropertyOp33
 70
     1
102
RTVSPropertyOp34
 70
     1
102
RTVSPropertyOp35
 70
     1
102
RTVSPropertyOp36
 70
     1
102
RTVSPropertyOp37
 70
     1
102
RTVSPropertyOp38
 70
     1
102
RTVSPropertyOp39
 70
     1
102
RTVSPropertyOp40
 70
     1
102
RTVSPropertyOp41
 70
     1
102
RTVSPropertyOp42
 70
     1
102
RTVSPropertyOp43
 70
     1
102
RTVSPropertyOp44
 70
     1
102
RTVSPropertyOp45
 70
     1
102
RTVSPropertyOp46
 70
     1
102
RTVSPropertyOp47
 70
     1
102
RTVSPropertyOp48
 70
     1
102
RTVSPropertyOp49
 70
     1
102
RTVSPropertyOp50
 70
     1
102
RTVSPropertyOp51
 70
     0
102
RTVSPropertyOp52
 70
     0
102
RTVSPropertyOp53
 70
     1
102
RTVSPropertyOp54
 70
     1
102
RTVSPropertyOp55
 70
     1
102
RTVSPropertyOp56
 70
     1
102
RTVSPropertyOp57
 70
     1
102
RTVSPropertyOp58
 70
     1
102
RTVSPropertyOp59
 70
     1
102
RTVSPropertyOp60
 70
     1
102
RTVSPropertyOp61
 70
     1
102
RTVSPropertyOp62
 70
     1
  0
XRECORD
  5
19A7
102
{ACAD_REACTORS
330
19A6
102
}
330
19A6
100
AcDbXrecord
280
     1
102
RTVSPost2010Prop28
280
     0
102
RTVSPost2010PropOp28
 70
     1
102
RTVSPost2010Prop29
280
     1
102
RTVSPost2010PropOp29
 70
     1
102
RTVSPost2010Prop30
280
     1
102
RTVSPost2010PropOp30
 70
     1
102
RTVSPost2010Prop31
280
     0
102
RTVSPost2010PropOp31
 70
     1
102
RTVSPost2010Prop32
280
     0
102
RTVSPost2010PropOp32
 70
     1
102
RTVSPost2010Prop33
280
     0
102
RTVSPost2010PropOp33
 70
     1
102
RTVSPost2010Prop34
280
     0
102
RTVSPost2010PropOp34
 70
     1
102
RTVSPost2010Prop35
280
     0
102
RTVSPost2010PropOp35
 70
     1
102
RTVSPost2010Prop36
280
     0
102
RTVSPost2010PropOp36
 70
     1
102
RTVSPost2010Prop37
 90
       50
102
RTVSPost2010PropOp37
 70
     1
102
RTVSPost2010Prop38
140
0.0
102
RTVSPost2010PropOp38
 70
     1
102
RTVSPost2010Prop39
140
1.0
102
RTVSPost2010PropOp39
 70
     1
102
RTVSPost2010Prop40
 90
        0
102
RTVSPost2010PropOp40
 70
     1
102
RTVSPost2010Prop41ColorIndex
 90
       18
102
RTVSPost2010Prop41ColorRGB
 90
        0
102
RTVSPost2010PropOp41
 70
     1
102
RTVSPost2010Prop42
 90
       50
102
RTVSPost2010PropOp42
 70
     1
102
RTVSPost2010Prop43
 90
        3
102
RTVSPost2010PropOp43
 70
     1
102
RTVSPost2010Prop44ColorIndex
 90
        5
102
RTVSPost2010Prop44ColorRGB
 90
      255
102
RTVSPost2010PropOp44
 70
     1
102
RTVSPost2010Prop45
280
     0
102
RTVSPost2010PropOp45
 70
     1
102
RTVSPost2010Prop46
 90
       50
102
RTVSPost2010PropOp46
 70
     1
102
RTVSPost2010Prop47
 90
       50
102
RTVSPost2010PropOp47
 70
     1
102
RTVSPost2010Prop48
 90
       50
102
RTVSPost2010PropOp48
 70
     1
102
RTVSPost2010Prop49
280
     0
102
RTVSPost2010PropOp49
 70
     1
102
RTVSPost2010Prop50
 90
       50
102
RTVSPost2010PropOp50
 70
     1
102
RTVSPost2010Prop51ColorIndex
 90
      256
102
RTVSPost2010Prop51ColorRGB
 90
-16777216
102
RTVSPost2010PropOp51
 70
     0
102
RTVSPost2010Prop52
140
1.0
102
RTVSPost2010PropOp52
 70
     0
102
RTVSPost2010Prop53
 90
        2
102
RTVSPost2010PropOp53
 70
     1
102
RTVSPost2010Prop54
  1
strokes_ogs.tif
102
RTVSPost2010PropOp54
 70
     1
102
RTVSPost2010Prop55
280
     0
102
RTVSPost2010PropOp55
 70
     1
102
RTVSPost2010Prop56
140
1.0
102
RTVSPost2010PropOp56
 70
     1
102
RTVSPost2010Prop57
140
1.0
102
RTVSPost2010PropOp57
 70
     1
102
RTVSPropertyOp0
 70
     1
102
RTVSPropertyOp1
 70
     1
102
RTVSPropertyOp2
 70
     1
102
RTVSPropertyOp3
 70
     1
102
RTVSPropertyOp4
 70
     1
102
RTVSPropertyOp5
 70
     1
102
RTVSPropertyOp6
 70
     1
102
RTVSPropertyOp7
 70
     1
102
RTVSPropertyOp8
 70
     1
102
RTVSPropertyOp9
 70
     1
102
RTVSPropertyOp10
 70
     1
102
RTVSPropertyOp11
 70
     1
102
RTVSPropertyOp12
 70
     1
102
RTVSPropertyOp13
 70
     1
102
RTVSPropertyOp14
 70
     1
102
RTVSPropertyOp15
 70
     1
102
RTVSPropertyOp16
 70
     1
102
RTVSPropertyOp17
 70
     1
102
RTVSPropertyOp18
 70
     1
102
RTVSPropertyOp19
 70
     1
102
RTVSPropertyOp20
 70
     1
102
RTVSPropertyOp21
 70
     1
102
RTVSPropertyOp22
 70
     1
102
RTVSPropertyOp23
 70
     1
102
RTVSPropertyOp24
 70
     1
102
RTVSPropertyOp25
 70
     1
102
RTVSPropertyOp26
 70
     1
102
RTVSPropertyOp27
 70
     1
102
RTVSPropertyOp28
 70
     1
102
RTVSPropertyOp29
 70
     1
102
RTVSPropertyOp30
 70
     1
102
RTVSPropertyOp31
 70
     1
102
RTVSPropertyOp32
 70
     1
102
RTVSPropertyOp33
 70
     1
102
RTVSPropertyOp34
 70
     1
102
RTVSPropertyOp35
 70
     1
102
RTVSPropertyOp36
 70
     1
102
RTVSPropertyOp37
 70
     1
102
RTVSPropertyOp38
 70
     1
102
RTVSPropertyOp39
 70
     1
102
RTVSPropertyOp40
 70
     1
102
RTVSPropertyOp41
 70
     1
102
RTVSPropertyOp42
 70
     1
102
RTVSPropertyOp43
 70
     1
102
RTVSPropertyOp44
 70
     1
102
RTVSPropertyOp45
 70
     1
102
RTVSPropertyOp46
 70
     1
102
RTVSPropertyOp47
 70
     1
102
RTVSPropertyOp48
 70
     1
102
RTVSPropertyOp49
 70
     1
102
RTVSPropertyOp50
 70
     1
102
RTVSPropertyOp51
 70
     0
102
RTVSPropertyOp52
 70
     0
102
RTVSPropertyOp53
 70
     1
102
RTVSPropertyOp54
 70
     1
102
RTVSPropertyOp55
 70
     1
102
RTVSPropertyOp56
 70
     1
102
RTVSPropertyOp57
 70
     1
102
RTVSPropertyOp58
 70
     1
102
RTVSPropertyOp59
 70
     1
102
RTVSPropertyOp60
 70
     1
102
RTVSPropertyOp61
 70
     1
102
RTVSPropertyOp62
 70
     1
  0
XRECORD
  5
19C3
102
{ACAD_REACTORS
330
19C2
102
}
330
19C2
100
AcDbXrecord
280
     1
102
RTVSPost2010Prop28
280
     0
102
RTVSPost2010PropOp28
 70
     1
102
RTVSPost2010Prop29
280
     1
102
RTVSPost2010PropOp29
 70
     1
102
RTVSPost2010Prop30
280
     1
102
RTVSPost2010PropOp30
 70
     1
102
RTVSPost2010Prop31
280
     0
102
RTVSPost2010PropOp31
 70
     1
102
RTVSPost2010Prop32
280
     0
102
RTVSPost2010PropOp32
 70
     1
102
RTVSPost2010Prop33
280
     0
102
RTVSPost2010PropOp33
 70
     1
102
RTVSPost2010Prop34
280
     0
102
RTVSPost2010PropOp34
 70
     1
102
RTVSPost2010Prop35
280
     0
102
RTVSPost2010PropOp35
 70
     1
102
RTVSPost2010Prop36
280
     0
102
RTVSPost2010PropOp36
 70
     1
102
RTVSPost2010Prop37
 90
       50
102
RTVSPost2010PropOp37
 70
     0
102
RTVSPost2010Prop38
140
0.0
102
RTVSPost2010PropOp38
 70
     0
102
RTVSPost2010Prop39
140
1.0
102
RTVSPost2010PropOp39
 70
     0
102
RTVSPost2010Prop40
 90
        0
102
RTVSPost2010PropOp40
 70
     0
102
RTVSPost2010Prop41ColorIndex
 90
       18
102
RTVSPost2010Prop41ColorRGB
 90
        0
102
RTVSPost2010PropOp41
 70
     0
102
RTVSPost2010Prop42
 90
       50
102
RTVSPost2010PropOp42
 70
     0
102
RTVSPost2010Prop43
 90
        3
102
RTVSPost2010PropOp43
 70
     0
102
RTVSPost2010Prop44ColorIndex
 90
        5
102
RTVSPost2010Prop44ColorRGB
 90
      255
102
RTVSPost2010PropOp44
 70
     0
102
RTVSPost2010Prop45
280
     0
102
RTVSPost2010PropOp45
 70
     1
102
RTVSPost2010Prop46
 90
       50
102
RTVSPost2010PropOp46
 70
     0
102
RTVSPost2010Prop47
 90
       50
102
RTVSPost2010PropOp47
 70
     0
102
RTVSPost2010Prop48
 90
       50
102
RTVSPost2010PropOp48
 70
     0
102
RTVSPost2010Prop49
280
     0
102
RTVSPost2010PropOp49
 70
     1
102
RTVSPost2010Prop50
 90
       50
102
RTVSPost2010PropOp50
 70
     0
102
RTVSPost2010Prop51ColorIndex
 90
      256
102
RTVSPost2010Prop51ColorRGB
 90
-16777216
102
RTVSPost2010PropOp51
 70
     0
102
RTVSPost2010Prop52
140
1.0
102
RTVSPost2010PropOp52
 70
     0
102
RTVSPost2010Prop53
 90
        2
102
RTVSPost2010PropOp53
 70
     0
102
RTVSPost2010Prop54
  1
strokes_ogs.tif
102
RTVSPost2010PropOp54
 70
     0
102
RTVSPost2010Prop55
280
     0
102
RTVSPost2010PropOp55
 70
     1
102
RTVSPost2010Prop56
140
1.0
102
RTVSPost2010PropOp56
 70
     0
102
RTVSPost2010Prop57
140
1.0
102
RTVSPost2010PropOp57
 70
     0
102
RTVSPropertyOp0
 70
     0
102
RTVSPropertyOp1
 70
     0
102
RTVSPropertyOp2
 70
     0
102
RTVSPropertyOp3
 70
     0
102
RTVSPropertyOp4
 70
     0
102
RTVSPropertyOp5
 70
     0
102
RTVSPropertyOp6
 70
     0
102
RTVSPropertyOp7
 70
     0
102
RTVSPropertyOp8
 70
     0
102
RTVSPropertyOp9
 70
     0
102
RTVSPropertyOp10
 70
     0
102
RTVSPropertyOp11
 70
     0
102
RTVSPropertyOp12
 70
     0
102
RTVSPropertyOp13
 70
     0
102
RTVSPropertyOp14
 70
     2
102
RTVSPropertyOp15
 70
     0
102
RTVSPropertyOp16
 70
     0
102
RTVSPropertyOp17
 70
     0
102
RTVSPropertyOp18
 70
     0
102
RTVSPropertyOp19
 70
     0
102
RTVSPropertyOp20
 70
     0
102
RTVSPropertyOp21
 70
     0
102
RTVSPropertyOp22
 70
     0
102
RTVSPropertyOp23
 70
     0
102
RTVSPropertyOp24
 70
     0
102
RTVSPropertyOp25
 70
     0
102
RTVSPropertyOp26
 70
     0
102
RTVSPropertyOp27
 70
     0
102
RTVSPropertyOp28
 70
     1
102
RTVSPropertyOp29
 70
     1
102
RTVSPropertyOp30
 70
     1
102
RTVSPropertyOp31
 70
     1
102
RTVSPropertyOp32
 70
     1
102
RTVSPropertyOp33
 70
     1
102
RTVSPropertyOp34
 70
     1
102
RTVSPropertyOp35
 70
     1
102
RTVSPropertyOp36
 70
     1
102
RTVSPropertyOp37
 70
     0
102
RTVSPropertyOp38
 70
     0
102
RTVSPropertyOp39
 70
     0
102
RTVSPropertyOp40
 70
     0
102
RTVSPropertyOp41
 70
     0
102
RTVSPropertyOp42
 70
     0
102
RTVSPropertyOp43
 70
     0
102
RTVSPropertyOp44
 70
     0
102
RTVSPropertyOp45
 70
     1
102
RTVSPropertyOp46
 70
     0
102
RTVSPropertyOp47
 70
     0
102
RTVSPropertyOp48
 70
     0
102
RTVSPropertyOp49
 70
     1
102
RTVSPropertyOp50
 70
     0
102
RTVSPropertyOp51
 70
     0
102
RTVSPropertyOp52
 70
     0
102
RTVSPropertyOp53
 70
     0
102
RTVSPropertyOp54
 70
     0
102
RTVSPropertyOp55
 70
     1
102
RTVSPropertyOp56
 70
     0
102
RTVSPropertyOp57
 70
     0
102
RTVSPropertyOp58
 70
     0
102
RTVSPropertyOp59
 70
     0
102
RTVSPropertyOp60
 70
     0
102
RTVSPropertyOp61
 70
     0
102
RTVSPropertyOp62
 70
     0
  0
XRECORD
  5
19B3
102
{ACAD_REACTORS
330
19B2
102
}
330
19B2
100
AcDbXrecord
280
     1
102
RTVSPost2010Prop28
280
     0
102
RTVSPost2010PropOp28
 70
     1
102
RTVSPost2010Prop29
280
     1
102
RTVSPost2010PropOp29
 70
     1
102
RTVSPost2010Prop30
280
     1
102
RTVSPost2010PropOp30
 70
     1
102
RTVSPost2010Prop31
280
     0
102
RTVSPost2010PropOp31
 70
     1
102
RTVSPost2010Prop32
280
     0
102
RTVSPost2010PropOp32
 70
     1
102
RTVSPost2010Prop33
280
     0
102
RTVSPost2010PropOp33
 70
     1
102
RTVSPost2010Prop34
280
     0
102
RTVSPost2010PropOp34
 70
     1
102
RTVSPost2010Prop35
280
     0
102
RTVSPost2010PropOp35
 70
     1
102
RTVSPost2010Prop36
280
     0
102
RTVSPost2010PropOp36
 70
     1
102
RTVSPost2010Prop37
 90
       50
102
RTVSPost2010PropOp37
 70
     1
102
RTVSPost2010Prop38
140
0.0
102
RTVSPost2010PropOp38
 70
     1
102
RTVSPost2010Prop39
140
1.0
102
RTVSPost2010PropOp39
 70
     1
102
RTVSPost2010Prop40
 90
        0
102
RTVSPost2010PropOp40
 70
     1
102
RTVSPost2010Prop41ColorIndex
 90
       18
102
RTVSPost2010Prop41ColorRGB
 90
        0
102
RTVSPost2010PropOp41
 70
     1
102
RTVSPost2010Prop42
 90
       50
102
RTVSPost2010PropOp42
 70
     1
102
RTVSPost2010Prop43
 90
        3
102
RTVSPost2010PropOp43
 70
     1
102
RTVSPost2010Prop44ColorIndex
 90
        5
102
RTVSPost2010Prop44ColorRGB
 90
      255
102
RTVSPost2010PropOp44
 70
     1
102
RTVSPost2010Prop45
280
     0
102
RTVSPost2010PropOp45
 70
     1
102
RTVSPost2010Prop46
 90
       50
102
RTVSPost2010PropOp46
 70
     1
102
RTVSPost2010Prop47
 90
       50
102
RTVSPost2010PropOp47
 70
     1
102
RTVSPost2010Prop48
 90
       50
102
RTVSPost2010PropOp48
 70
     1
102
RTVSPost2010Prop49
280
     0
102
RTVSPost2010PropOp49
 70
     1
102
RTVSPost2010Prop50
 90
       50
102
RTVSPost2010PropOp50
 70
     1
102
RTVSPost2010Prop51ColorIndex
 90
      256
102
RTVSPost2010Prop51ColorRGB
 90
-16777216
102
RTVSPost2010PropOp51
 70
     0
102
RTVSPost2010Prop52
140
1.0
102
RTVSPost2010PropOp52
 70
     0
102
RTVSPost2010Prop53
 90
        2
102
RTVSPost2010PropOp53
 70
     1
102
RTVSPost2010Prop54
  1
strokes_ogs.tif
102
RTVSPost2010PropOp54
 70
     1
102
RTVSPost2010Prop55
280
     0
102
RTVSPost2010PropOp55
 70
     1
102
RTVSPost2010Prop56
140
1.0
102
RTVSPost2010PropOp56
 70
     1
102
RTVSPost2010Prop57
140
1.0
102
RTVSPost2010PropOp57
 70
     1
102
RTVSPropertyOp0
 70
     1
102
RTVSPropertyOp1
 70
     1
102
RTVSPropertyOp2
 70
     1
102
RTVSPropertyOp3
 70
     1
102
RTVSPropertyOp4
 70
     1
102
RTVSPropertyOp5
 70
     1
102
RTVSPropertyOp6
 70
     1
102
RTVSPropertyOp7
 70
     1
102
RTVSPropertyOp8
 70
     1
102
RTVSPropertyOp9
 70
     1
102
RTVSPropertyOp10
 70
     1
102
RTVSPropertyOp11
 70
     1
102
RTVSPropertyOp12
 70
     1
102
RTVSPropertyOp13
 70
     1
102
RTVSPropertyOp14
 70
     1
102
RTVSPropertyOp15
 70
     1
102
RTVSPropertyOp16
 70
     1
102
RTVSPropertyOp17
 70
     1
102
RTVSPropertyOp18
 70
     1
102
RTVSPropertyOp19
 70
     1
102
RTVSPropertyOp20
 70
     1
102
RTVSPropertyOp21
 70
     1
102
RTVSPropertyOp22
 70
     1
102
RTVSPropertyOp23
 70
     1
102
RTVSPropertyOp24
 70
     1
102
RTVSPropertyOp25
 70
     1
102
RTVSPropertyOp26
 70
     1
102
RTVSPropertyOp27
 70
     1
102
RTVSPropertyOp28
 70
     1
102
RTVSPropertyOp29
 70
     1
102
RTVSPropertyOp30
 70
     1
102
RTVSPropertyOp31
 70
     1
102
RTVSPropertyOp32
 70
     1
102
RTVSPropertyOp33
 70
     1
102
RTVSPropertyOp34
 70
     1
102
RTVSPropertyOp35
 70
     1
102
RTVSPropertyOp36
 70
     1
102
RTVSPropertyOp37
 70
     1
102
RTVSPropertyOp38
 70
     1
102
RTVSPropertyOp39
 70
     1
102
RTVSPropertyOp40
 70
     1
102
RTVSPropertyOp41
 70
     1
102
RTVSPropertyOp42
 70
     1
102
RTVSPropertyOp43
 70
     1
102
RTVSPropertyOp44
 70
     1
102
RTVSPropertyOp45
 70
     1
102
RTVSPropertyOp46
 70
     1
102
RTVSPropertyOp47
 70
     1
102
RTVSPropertyOp48
 70
     1
102
RTVSPropertyOp49
 70
     1
102
RTVSPropertyOp50
 70
     1
102
RTVSPropertyOp51
 70
     0
102
RTVSPropertyOp52
 70
     0
102
RTVSPropertyOp53
 70
     1
102
RTVSPropertyOp54
 70
     1
102
RTVSPropertyOp55
 70
     1
102
RTVSPropertyOp56
 70
     1
102
RTVSPropertyOp57
 70
     1
102
RTVSPropertyOp58
 70
     1
102
RTVSPropertyOp59
 70
     1
102
RTVSPropertyOp60
 70
     1
102
RTVSPropertyOp61
 70
     1
102
RTVSPropertyOp62
 70
     1
  0
XRECORD
  5
19C5
102
{ACAD_REACTORS
330
19C4
102
}
330
19C4
100
AcDbXrecord
280
     1
102
RTVSPost2010Prop28
280
     0
102
RTVSPost2010PropOp28
 70
     1
102
RTVSPost2010Prop29
280
     1
102
RTVSPost2010PropOp29
 70
     1
102
RTVSPost2010Prop30
280
     1
102
RTVSPost2010PropOp30
 70
     1
102
RTVSPost2010Prop31
280
     0
102
RTVSPost2010PropOp31
 70
     1
102
RTVSPost2010Prop32
280
     0
102
RTVSPost2010PropOp32
 70
     1
102
RTVSPost2010Prop33
280
     0
102
RTVSPost2010PropOp33
 70
     1
102
RTVSPost2010Prop34
280
     0
102
RTVSPost2010PropOp34
 70
     1
102
RTVSPost2010Prop35
280
     0
102
RTVSPost2010PropOp35
 70
     1
102
RTVSPost2010Prop36
280
     0
102
RTVSPost2010PropOp36
 70
     1
102
RTVSPost2010Prop37
 90
       50
102
RTVSPost2010PropOp37
 70
     0
102
RTVSPost2010Prop38
140
0.0
102
RTVSPost2010PropOp38
 70
     0
102
RTVSPost2010Prop39
140
1.0
102
RTVSPost2010PropOp39
 70
     0
102
RTVSPost2010Prop40
 90
        0
102
RTVSPost2010PropOp40
 70
     0
102
RTVSPost2010Prop41ColorIndex
 90
       18
102
RTVSPost2010Prop41ColorRGB
 90
        0
102
RTVSPost2010PropOp41
 70
     0
102
RTVSPost2010Prop42
 90
       50
102
RTVSPost2010PropOp42
 70
     0
102
RTVSPost2010Prop43
 90
        3
102
RTVSPost2010PropOp43
 70
     0
102
RTVSPost2010Prop44ColorIndex
 90
        5
102
RTVSPost2010Prop44ColorRGB
 90
      255
102
RTVSPost2010PropOp44
 70
     0
102
RTVSPost2010Prop45
280
     0
102
RTVSPost2010PropOp45
 70
     1
102
RTVSPost2010Prop46
 90
       50
102
RTVSPost2010PropOp46
 70
     0
102
RTVSPost2010Prop47
 90
       50
102
RTVSPost2010PropOp47
 70
     0
102
RTVSPost2010Prop48
 90
       50
102
RTVSPost2010PropOp48
 70
     0
102
RTVSPost2010Prop49
280
     0
102
RTVSPost2010PropOp49
 70
     1
102
RTVSPost2010Prop50
 90
       50
102
RTVSPost2010PropOp50
 70
     0
102
RTVSPost2010Prop51ColorIndex
 90
      256
102
RTVSPost2010Prop51ColorRGB
 90
-16777216
102
RTVSPost2010PropOp51
 70
     0
102
RTVSPost2010Prop52
140
1.0
102
RTVSPost2010PropOp52
 70
     0
102
RTVSPost2010Prop53
 90
        2
102
RTVSPost2010PropOp53
 70
     0
102
RTVSPost2010Prop54
  1
strokes_ogs.tif
102
RTVSPost2010PropOp54
 70
     0
102
RTVSPost2010Prop55
280
     0
102
RTVSPost2010PropOp55
 70
     1
102
RTVSPost2010Prop56
140
1.0
102
RTVSPost2010PropOp56
 70
     0
102
RTVSPost2010Prop57
140
1.0
102
RTVSPost2010PropOp57
 70
     0
102
RTVSPropertyOp0
 70
     0
102
RTVSPropertyOp1
 70
     0
102
RTVSPropertyOp2
 70
     0
102
RTVSPropertyOp3
 70
     0
102
RTVSPropertyOp4
 70
     0
102
RTVSPropertyOp5
 70
     0
102
RTVSPropertyOp6
 70
     0
102
RTVSPropertyOp7
 70
     0
102
RTVSPropertyOp8
 70
     0
102
RTVSPropertyOp9
 70
     0
102
RTVSPropertyOp10
 70
     0
102
RTVSPropertyOp11
 70
     0
102
RTVSPropertyOp12
 70
     0
102
RTVSPropertyOp13
 70
     0
102
RTVSPropertyOp14
 70
     2
102
RTVSPropertyOp15
 70
     0
102
RTVSPropertyOp16
 70
     0
102
RTVSPropertyOp17
 70
     0
102
RTVSPropertyOp18
 70
     0
102
RTVSPropertyOp19
 70
     0
102
RTVSPropertyOp20
 70
     0
102
RTVSPropertyOp21
 70
     0
102
RTVSPropertyOp22
 70
     0
102
RTVSPropertyOp23
 70
     0
102
RTVSPropertyOp24
 70
     0
102
RTVSPropertyOp25
 70
     0
102
RTVSPropertyOp26
 70
     0
102
RTVSPropertyOp27
 70
     0
102
RTVSPropertyOp28
 70
     1
102
RTVSPropertyOp29
 70
     1
102
RTVSPropertyOp30
 70
     1
102
RTVSPropertyOp31
 70
     1
102
RTVSPropertyOp32
 70
     1
102
RTVSPropertyOp33
 70
     1
102
RTVSPropertyOp34
 70
     1
102
RTVSPropertyOp35
 70
     1
102
RTVSPropertyOp36
 70
     1
102
RTVSPropertyOp37
 70
     0
102
RTVSPropertyOp38
 70
     0
102
RTVSPropertyOp39
 70
     0
102
RTVSPropertyOp40
 70
     0
102
RTVSPropertyOp41
 70
     0
102
RTVSPropertyOp42
 70
     0
102
RTVSPropertyOp43
 70
     0
102
RTVSPropertyOp44
 70
     0
102
RTVSPropertyOp45
 70
     1
102
RTVSPropertyOp46
 70
     0
102
RTVSPropertyOp47
 70
     0
102
RTVSPropertyOp48
 70
     0
102
RTVSPropertyOp49
 70
     1
102
RTVSPropertyOp50
 70
     0
102
RTVSPropertyOp51
 70
     0
102
RTVSPropertyOp52
 70
     0
102
RTVSPropertyOp53
 70
     0
102
RTVSPropertyOp54
 70
     0
102
RTVSPropertyOp55
 70
     1
102
RTVSPropertyOp56
 70
     0
102
RTVSPropertyOp57
 70
     0
102
RTVSPropertyOp58
 70
     0
102
RTVSPropertyOp59
 70
     0
102
RTVSPropertyOp60
 70
     0
102
RTVSPropertyOp61
 70
     0
102
RTVSPropertyOp62
 70
     0
  0
XRECORD
  5
19AB
102
{ACAD_REACTORS
330
19AA
102
}
330
19AA
100
AcDbXrecord
280
     1
102
RTVSPost2010Prop28
280
     0
102
RTVSPost2010PropOp28
 70
     1
102
RTVSPost2010Prop29
280
     1
102
RTVSPost2010PropOp29
 70
     1
102
RTVSPost2010Prop30
280
     1
102
RTVSPost2010PropOp30
 70
     1
102
RTVSPost2010Prop31
280
     0
102
RTVSPost2010PropOp31
 70
     1
102
RTVSPost2010Prop32
280
     0
102
RTVSPost2010PropOp32
 70
     1
102
RTVSPost2010Prop33
280
     0
102
RTVSPost2010PropOp33
 70
     1
102
RTVSPost2010Prop34
280
     0
102
RTVSPost2010PropOp34
 70
     1
102
RTVSPost2010Prop35
280
     0
102
RTVSPost2010PropOp35
 70
     1
102
RTVSPost2010Prop36
280
     0
102
RTVSPost2010PropOp36
 70
     1
102
RTVSPost2010Prop37
 90
       50
102
RTVSPost2010PropOp37
 70
     1
102
RTVSPost2010Prop38
140
0.0
102
RTVSPost2010PropOp38
 70
     1
102
RTVSPost2010Prop39
140
1.0
102
RTVSPost2010PropOp39
 70
     1
102
RTVSPost2010Prop40
 90
        0
102
RTVSPost2010PropOp40
 70
     1
102
RTVSPost2010Prop41ColorIndex
 90
       18
102
RTVSPost2010Prop41ColorRGB
 90
        0
102
RTVSPost2010PropOp41
 70
     1
102
RTVSPost2010Prop42
 90
       50
102
RTVSPost2010PropOp42
 70
     1
102
RTVSPost2010Prop43
 90
        3
102
RTVSPost2010PropOp43
 70
     1
102
RTVSPost2010Prop44ColorIndex
 90
        5
102
RTVSPost2010Prop44ColorRGB
 90
      255
102
RTVSPost2010PropOp44
 70
     1
102
RTVSPost2010Prop45
280
     0
102
RTVSPost2010PropOp45
 70
     1
102
RTVSPost2010Prop46
 90
       50
102
RTVSPost2010PropOp46
 70
     1
102
RTVSPost2010Prop47
 90
       50
102
RTVSPost2010PropOp47
 70
     1
102
RTVSPost2010Prop48
 90
       50
102
RTVSPost2010PropOp48
 70
     1
102
RTVSPost2010Prop49
280
     0
102
RTVSPost2010PropOp49
 70
     1
102
RTVSPost2010Prop50
 90
       50
102
RTVSPost2010PropOp50
 70
     1
102
RTVSPost2010Prop51ColorIndex
 90
      256
102
RTVSPost2010Prop51ColorRGB
 90
-16777216
102
RTVSPost2010PropOp51
 70
     0
102
RTVSPost2010Prop52
140
1.0
102
RTVSPost2010PropOp52
 70
     0
102
RTVSPost2010Prop53
 90
        2
102
RTVSPost2010PropOp53
 70
     1
102
RTVSPost2010Prop54
  1
strokes_ogs.tif
102
RTVSPost2010PropOp54
 70
     1
102
RTVSPost2010Prop55
280
     0
102
RTVSPost2010PropOp55
 70
     1
102
RTVSPost2010Prop56
140
1.0
102
RTVSPost2010PropOp56
 70
     1
102
RTVSPost2010Prop57
140
1.0
102
RTVSPost2010PropOp57
 70
     1
102
RTVSPropertyOp0
 70
     1
102
RTVSPropertyOp1
 70
     1
102
RTVSPropertyOp2
 70
     1
102
RTVSPropertyOp3
 70
     1
102
RTVSPropertyOp4
 70
     1
102
RTVSPropertyOp5
 70
     1
102
RTVSPropertyOp6
 70
     1
102
RTVSPropertyOp7
 70
     1
102
RTVSPropertyOp8
 70
     1
102
RTVSPropertyOp9
 70
     1
102
RTVSPropertyOp10
 70
     1
102
RTVSPropertyOp11
 70
     1
102
RTVSPropertyOp12
 70
     1
102
RTVSPropertyOp13
 70
     1
102
RTVSPropertyOp14
 70
     1
102
RTVSPropertyOp15
 70
     1
102
RTVSPropertyOp16
 70
     1
102
RTVSPropertyOp17
 70
     1
102
RTVSPropertyOp18
 70
     1
102
RTVSPropertyOp19
 70
     1
102
RTVSPropertyOp20
 70
     1
102
RTVSPropertyOp21
 70
     1
102
RTVSPropertyOp22
 70
     1
102
RTVSPropertyOp23
 70
     1
102
RTVSPropertyOp24
 70
     1
102
RTVSPropertyOp25
 70
     1
102
RTVSPropertyOp26
 70
     1
102
RTVSPropertyOp27
 70
     1
102
RTVSPropertyOp28
 70
     1
102
RTVSPropertyOp29
 70
     1
102
RTVSPropertyOp30
 70
     1
102
RTVSPropertyOp31
 70
     1
102
RTVSPropertyOp32
 70
     1
102
RTVSPropertyOp33
 70
     1
102
RTVSPropertyOp34
 70
     1
102
RTVSPropertyOp35
 70
     1
102
RTVSPropertyOp36
 70
     1
102
RTVSPropertyOp37
 70
     1
102
RTVSPropertyOp38
 70
     1
102
RTVSPropertyOp39
 70
     1
102
RTVSPropertyOp40
 70
     1
102
RTVSPropertyOp41
 70
     1
102
RTVSPropertyOp42
 70
     1
102
RTVSPropertyOp43
 70
     1
102
RTVSPropertyOp44
 70
     1
102
RTVSPropertyOp45
 70
     1
102
RTVSPropertyOp46
 70
     1
102
RTVSPropertyOp47
 70
     1
102
RTVSPropertyOp48
 70
     1
102
RTVSPropertyOp49
 70
     1
102
RTVSPropertyOp50
 70
     1
102
RTVSPropertyOp51
 70
     0
102
RTVSPropertyOp52
 70
     0
102
RTVSPropertyOp53
 70
     1
102
RTVSPropertyOp54
 70
     1
102
RTVSPropertyOp55
 70
     1
102
RTVSPropertyOp56
 70
     1
102
RTVSPropertyOp57
 70
     1
102
RTVSPropertyOp58
 70
     1
102
RTVSPropertyOp59
 70
     1
102
RTVSPropertyOp60
 70
     1
102
RTVSPropertyOp61
 70
     1
102
RTVSPropertyOp62
 70
     1
  0
XRECORD
  5
19C1
102
{ACAD_REACTORS
330
19C0
102
}
330
19C0
100
AcDbXrecord
280
     1
102
RTVSPost2010Prop28
280
     0
102
RTVSPost2010PropOp28
 70
     1
102
RTVSPost2010Prop29
280
     1
102
RTVSPost2010PropOp29
 70
     1
102
RTVSPost2010Prop30
280
     1
102
RTVSPost2010PropOp30
 70
     1
102
RTVSPost2010Prop31
280
     0
102
RTVSPost2010PropOp31
 70
     1
102
RTVSPost2010Prop32
280
     0
102
RTVSPost2010PropOp32
 70
     1
102
RTVSPost2010Prop33
280
     0
102
RTVSPost2010PropOp33
 70
     1
102
RTVSPost2010Prop34
280
     0
102
RTVSPost2010PropOp34
 70
     1
102
RTVSPost2010Prop35
280
     0
102
RTVSPost2010PropOp35
 70
     1
102
RTVSPost2010Prop36
280
     0
102
RTVSPost2010PropOp36
 70
     1
102
RTVSPost2010Prop37
 90
       50
102
RTVSPost2010PropOp37
 70
     1
102
RTVSPost2010Prop38
140
0.0
102
RTVSPost2010PropOp38
 70
     1
102
RTVSPost2010Prop39
140
1.0
102
RTVSPost2010PropOp39
 70
     1
102
RTVSPost2010Prop40
 90
        0
102
RTVSPost2010PropOp40
 70
     1
102
RTVSPost2010Prop41ColorIndex
 90
       18
102
RTVSPost2010Prop41ColorRGB
 90
        0
102
RTVSPost2010PropOp41
 70
     1
102
RTVSPost2010Prop42
 90
       50
102
RTVSPost2010PropOp42
 70
     1
102
RTVSPost2010Prop43
 90
        3
102
RTVSPost2010PropOp43
 70
     1
102
RTVSPost2010Prop44ColorIndex
 90
        5
102
RTVSPost2010Prop44ColorRGB
 90
      255
102
RTVSPost2010PropOp44
 70
     1
102
RTVSPost2010Prop45
280
     0
102
RTVSPost2010PropOp45
 70
     1
102
RTVSPost2010Prop46
 90
       50
102
RTVSPost2010PropOp46
 70
     1
102
RTVSPost2010Prop47
 90
       50
102
RTVSPost2010PropOp47
 70
     1
102
RTVSPost2010Prop48
 90
       50
102
RTVSPost2010PropOp48
 70
     1
102
RTVSPost2010Prop49
280
     0
102
RTVSPost2010PropOp49
 70
     1
102
RTVSPost2010Prop50
 90
       50
102
RTVSPost2010PropOp50
 70
     1
102
RTVSPost2010Prop51ColorIndex
 90
      256
102
RTVSPost2010Prop51ColorRGB
 90
-16777216
102
RTVSPost2010PropOp51
 70
     0
102
RTVSPost2010Prop52
140
1.0
102
RTVSPost2010PropOp52
 70
     0
102
RTVSPost2010Prop53
 90
        2
102
RTVSPost2010PropOp53
 70
     1
102
RTVSPost2010Prop54
  1
strokes_ogs.tif
102
RTVSPost2010PropOp54
 70
     1
102
RTVSPost2010Prop55
280
     0
102
RTVSPost2010PropOp55
 70
     1
102
RTVSPost2010Prop56
140
1.0
102
RTVSPost2010PropOp56
 70
     1
102
RTVSPost2010Prop57
140
1.0
102
RTVSPost2010PropOp57
 70
     1
102
RTVSPropertyOp0
 70
     1
102
RTVSPropertyOp1
 70
     1
102
RTVSPropertyOp2
 70
     1
102
RTVSPropertyOp3
 70
     1
102
RTVSPropertyOp4
 70
     1
102
RTVSPropertyOp5
 70
     1
102
RTVSPropertyOp6
 70
     1
102
RTVSPropertyOp7
 70
     1
102
RTVSPropertyOp8
 70
     1
102
RTVSPropertyOp9
 70
     1
102
RTVSPropertyOp10
 70
     1
102
RTVSPropertyOp11
 70
     1
102
RTVSPropertyOp12
 70
     1
102
RTVSPropertyOp13
 70
     1
102
RTVSPropertyOp14
 70
     1
102
RTVSPropertyOp15
 70
     1
102
RTVSPropertyOp16
 70
     1
102
RTVSPropertyOp17
 70
     1
102
RTVSPropertyOp18
 70
     1
102
RTVSPropertyOp19
 70
     1
102
RTVSPropertyOp20
 70
     1
102
RTVSPropertyOp21
 70
     1
102
RTVSPropertyOp22
 70
     1
102
RTVSPropertyOp23
 70
     1
102
RTVSPropertyOp24
 70
     1
102
RTVSPropertyOp25
 70
     1
102
RTVSPropertyOp26
 70
     1
102
RTVSPropertyOp27
 70
     1
102
RTVSPropertyOp28
 70
     1
102
RTVSPropertyOp29
 70
     1
102
RTVSPropertyOp30
 70
     1
102
RTVSPropertyOp31
 70
     1
102
RTVSPropertyOp32
 70
     1
102
RTVSPropertyOp33
 70
     1
102
RTVSPropertyOp34
 70
     1
102
RTVSPropertyOp35
 70
     1
102
RTVSPropertyOp36
 70
     1
102
RTVSPropertyOp37
 70
     1
102
RTVSPropertyOp38
 70
     1
102
RTVSPropertyOp39
 70
     1
102
RTVSPropertyOp40
 70
     1
102
RTVSPropertyOp41
 70
     1
102
RTVSPropertyOp42
 70
     1
102
RTVSPropertyOp43
 70
     1
102
RTVSPropertyOp44
 70
     1
102
RTVSPropertyOp45
 70
     1
102
RTVSPropertyOp46
 70
     1
102
RTVSPropertyOp47
 70
     1
102
RTVSPropertyOp48
 70
     1
102
RTVSPropertyOp49
 70
     1
102
RTVSPropertyOp50
 70
     1
102
RTVSPropertyOp51
 70
     0
102
RTVSPropertyOp52
 70
     0
102
RTVSPropertyOp53
 70
     1
102
RTVSPropertyOp54
 70
     1
102
RTVSPropertyOp55
 70
     1
102
RTVSPropertyOp56
 70
     1
102
RTVSPropertyOp57
 70
     1
102
RTVSPropertyOp58
 70
     1
102
RTVSPropertyOp59
 70
     1
102
RTVSPropertyOp60
 70
     1
102
RTVSPropertyOp61
 70
     1
102
RTVSPropertyOp62
 70
     1
  0
XRECORD
  5
19BF
102
{ACAD_REACTORS
330
19BE
102
}
330
19BE
100
AcDbXrecord
280
     1
102
RTVSPost2010Prop28
280
     0
102
RTVSPost2010PropOp28
 70
     1
102
RTVSPost2010Prop29
280
     1
102
RTVSPost2010PropOp29
 70
     1
102
RTVSPost2010Prop30
280
     1
102
RTVSPost2010PropOp30
 70
     1
102
RTVSPost2010Prop31
280
     0
102
RTVSPost2010PropOp31
 70
     1
102
RTVSPost2010Prop32
280
     0
102
RTVSPost2010PropOp32
 70
     1
102
RTVSPost2010Prop33
280
     0
102
RTVSPost2010PropOp33
 70
     1
102
RTVSPost2010Prop34
280
     0
102
RTVSPost2010PropOp34
 70
     1
102
RTVSPost2010Prop35
280
     0
102
RTVSPost2010PropOp35
 70
     1
102
RTVSPost2010Prop36
280
     0
102
RTVSPost2010PropOp36
 70
     1
102
RTVSPost2010Prop37
 90
       50
102
RTVSPost2010PropOp37
 70
     1
102
RTVSPost2010Prop38
140
0.0
102
RTVSPost2010PropOp38
 70
     1
102
RTVSPost2010Prop39
140
1.0
102
RTVSPost2010PropOp39
 70
     1
102
RTVSPost2010Prop40
 90
        0
102
RTVSPost2010PropOp40
 70
     1
102
RTVSPost2010Prop41ColorIndex
 90
       18
102
RTVSPost2010Prop41ColorRGB
 90
        0
102
RTVSPost2010PropOp41
 70
     1
102
RTVSPost2010Prop42
 90
       50
102
RTVSPost2010PropOp42
 70
     1
102
RTVSPost2010Prop43
 90
        3
102
RTVSPost2010PropOp43
 70
     1
102
RTVSPost2010Prop44ColorIndex
 90
        5
102
RTVSPost2010Prop44ColorRGB
 90
      255
102
RTVSPost2010PropOp44
 70
     1
102
RTVSPost2010Prop45
280
     0
102
RTVSPost2010PropOp45
 70
     1
102
RTVSPost2010Prop46
 90
       50
102
RTVSPost2010PropOp46
 70
     1
102
RTVSPost2010Prop47
 90
       50
102
RTVSPost2010PropOp47
 70
     1
102
RTVSPost2010Prop48
 90
       50
102
RTVSPost2010PropOp48
 70
     1
102
RTVSPost2010Prop49
280
     0
102
RTVSPost2010PropOp49
 70
     1
102
RTVSPost2010Prop50
 90
       50
102
RTVSPost2010PropOp50
 70
     1
102
RTVSPost2010Prop51ColorIndex
 90
      256
102
RTVSPost2010Prop51ColorRGB
 90
-16777216
102
RTVSPost2010PropOp51
 70
     0
102
RTVSPost2010Prop52
140
1.0
102
RTVSPost2010PropOp52
 70
     0
102
RTVSPost2010Prop53
 90
        2
102
RTVSPost2010PropOp53
 70
     1
102
RTVSPost2010Prop54
  1
strokes_ogs.tif
102
RTVSPost2010PropOp54
 70
     1
102
RTVSPost2010Prop55
280
     0
102
RTVSPost2010PropOp55
 70
     1
102
RTVSPost2010Prop56
140
1.0
102
RTVSPost2010PropOp56
 70
     1
102
RTVSPost2010Prop57
140
1.0
102
RTVSPost2010PropOp57
 70
     1
102
RTVSPropertyOp0
 70
     1
102
RTVSPropertyOp1
 70
     1
102
RTVSPropertyOp2
 70
     1
102
RTVSPropertyOp3
 70
     1
102
RTVSPropertyOp4
 70
     1
102
RTVSPropertyOp5
 70
     1
102
RTVSPropertyOp6
 70
     1
102
RTVSPropertyOp7
 70
     1
102
RTVSPropertyOp8
 70
     1
102
RTVSPropertyOp9
 70
     1
102
RTVSPropertyOp10
 70
     1
102
RTVSPropertyOp11
 70
     1
102
RTVSPropertyOp12
 70
     1
102
RTVSPropertyOp13
 70
     1
102
RTVSPropertyOp14
 70
     1
102
RTVSPropertyOp15
 70
     1
102
RTVSPropertyOp16
 70
     1
102
RTVSPropertyOp17
 70
     1
102
RTVSPropertyOp18
 70
     1
102
RTVSPropertyOp19
 70
     1
102
RTVSPropertyOp20
 70
     1
102
RTVSPropertyOp21
 70
     1
102
RTVSPropertyOp22
 70
     1
102
RTVSPropertyOp23
 70
     1
102
RTVSPropertyOp24
 70
     1
102
RTVSPropertyOp25
 70
     1
102
RTVSPropertyOp26
 70
     1
102
RTVSPropertyOp27
 70
     1
102
RTVSPropertyOp28
 70
     1
102
RTVSPropertyOp29
 70
     1
102
RTVSPropertyOp30
 70
     1
102
RTVSPropertyOp31
 70
     1
102
RTVSPropertyOp32
 70
     1
102
RTVSPropertyOp33
 70
     1
102
RTVSPropertyOp34
 70
     1
102
RTVSPropertyOp35
 70
     1
102
RTVSPropertyOp36
 70
     1
102
RTVSPropertyOp37
 70
     1
102
RTVSPropertyOp38
 70
     1
102
RTVSPropertyOp39
 70
     1
102
RTVSPropertyOp40
 70
     1
102
RTVSPropertyOp41
 70
     1
102
RTVSPropertyOp42
 70
     1
102
RTVSPropertyOp43
 70
     1
102
RTVSPropertyOp44
 70
     1
102
RTVSPropertyOp45
 70
     1
102
RTVSPropertyOp46
 70
     1
102
RTVSPropertyOp47
 70
     1
102
RTVSPropertyOp48
 70
     1
102
RTVSPropertyOp49
 70
     1
102
RTVSPropertyOp50
 70
     1
102
RTVSPropertyOp51
 70
     0
102
RTVSPropertyOp52
 70
     0
102
RTVSPropertyOp53
 70
     1
102
RTVSPropertyOp54
 70
     1
102
RTVSPropertyOp55
 70
     1
102
RTVSPropertyOp56
 70
     1
102
RTVSPropertyOp57
 70
     1
102
RTVSPropertyOp58
 70
     1
102
RTVSPropertyOp59
 70
     1
102
RTVSPropertyOp60
 70
     1
102
RTVSPropertyOp61
 70
     1
102
RTVSPropertyOp62
 70
     1
  0
XRECORD
  5
19B9
102
{ACAD_REACTORS
330
19B8
102
}
330
19B8
100
AcDbXrecord
280
     1
102
RTVSPost2010Prop28
280
     0
102
RTVSPost2010PropOp28
 70
     1
102
RTVSPost2010Prop29
280
     1
102
RTVSPost2010PropOp29
 70
     1
102
RTVSPost2010Prop30
280
     1
102
RTVSPost2010PropOp30
 70
     1
102
RTVSPost2010Prop31
280
     0
102
RTVSPost2010PropOp31
 70
     1
102
RTVSPost2010Prop32
280
     0
102
RTVSPost2010PropOp32
 70
     1
102
RTVSPost2010Prop33
280
     0
102
RTVSPost2010PropOp33
 70
     1
102
RTVSPost2010Prop34
280
     0
102
RTVSPost2010PropOp34
 70
     1
102
RTVSPost2010Prop35
280
     0
102
RTVSPost2010PropOp35
 70
     1
102
RTVSPost2010Prop36
280
     0
102
RTVSPost2010PropOp36
 70
     1
102
RTVSPost2010Prop37
 90
       50
102
RTVSPost2010PropOp37
 70
     1
102
RTVSPost2010Prop38
140
0.0
102
RTVSPost2010PropOp38
 70
     1
102
RTVSPost2010Prop39
140
1.0
102
RTVSPost2010PropOp39
 70
     1
102
RTVSPost2010Prop40
 90
        0
102
RTVSPost2010PropOp40
 70
     1
102
RTVSPost2010Prop41ColorIndex
 90
       18
102
RTVSPost2010Prop41ColorRGB
 90
        0
102
RTVSPost2010PropOp41
 70
     1
102
RTVSPost2010Prop42
 90
       50
102
RTVSPost2010PropOp42
 70
     1
102
RTVSPost2010Prop43
 90
        3
102
RTVSPost2010PropOp43
 70
     1
102
RTVSPost2010Prop44ColorIndex
 90
        5
102
RTVSPost2010Prop44ColorRGB
 90
      255
102
RTVSPost2010PropOp44
 70
     1
102
RTVSPost2010Prop45
280
     0
102
RTVSPost2010PropOp45
 70
     1
102
RTVSPost2010Prop46
 90
       50
102
RTVSPost2010PropOp46
 70
     1
102
RTVSPost2010Prop47
 90
       50
102
RTVSPost2010PropOp47
 70
     1
102
RTVSPost2010Prop48
 90
       50
102
RTVSPost2010PropOp48
 70
     1
102
RTVSPost2010Prop49
280
     0
102
RTVSPost2010PropOp49
 70
     1
102
RTVSPost2010Prop50
 90
       50
102
RTVSPost2010PropOp50
 70
     1
102
RTVSPost2010Prop51ColorIndex
 90
      256
102
RTVSPost2010Prop51ColorRGB
 90
-16777216
102
RTVSPost2010PropOp51
 70
     0
102
RTVSPost2010Prop52
140
1.0
102
RTVSPost2010PropOp52
 70
     0
102
RTVSPost2010Prop53
 90
        2
102
RTVSPost2010PropOp53
 70
     1
102
RTVSPost2010Prop54
  1
strokes_ogs.tif
102
RTVSPost2010PropOp54
 70
     1
102
RTVSPost2010Prop55
280
     0
102
RTVSPost2010PropOp55
 70
     1
102
RTVSPost2010Prop56
140
1.0
102
RTVSPost2010PropOp56
 70
     1
102
RTVSPost2010Prop57
140
1.0
102
RTVSPost2010PropOp57
 70
     1
102
RTVSPropertyOp0
 70
     1
102
RTVSPropertyOp1
 70
     1
102
RTVSPropertyOp2
 70
     1
102
RTVSPropertyOp3
 70
     1
102
RTVSPropertyOp4
 70
     1
102
RTVSPropertyOp5
 70
     1
102
RTVSPropertyOp6
 70
     1
102
RTVSPropertyOp7
 70
     1
102
RTVSPropertyOp8
 70
     1
102
RTVSPropertyOp9
 70
     1
102
RTVSPropertyOp10
 70
     1
102
RTVSPropertyOp11
 70
     1
102
RTVSPropertyOp12
 70
     1
102
RTVSPropertyOp13
 70
     1
102
RTVSPropertyOp14
 70
     1
102
RTVSPropertyOp15
 70
     1
102
RTVSPropertyOp16
 70
     1
102
RTVSPropertyOp17
 70
     1
102
RTVSPropertyOp18
 70
     1
102
RTVSPropertyOp19
 70
     1
102
RTVSPropertyOp20
 70
     1
102
RTVSPropertyOp21
 70
     1
102
RTVSPropertyOp22
 70
     1
102
RTVSPropertyOp23
 70
     1
102
RTVSPropertyOp24
 70
     1
102
RTVSPropertyOp25
 70
     1
102
RTVSPropertyOp26
 70
     1
102
RTVSPropertyOp27
 70
     1
102
RTVSPropertyOp28
 70
     1
102
RTVSPropertyOp29
 70
     1
102
RTVSPropertyOp30
 70
     1
102
RTVSPropertyOp31
 70
     1
102
RTVSPropertyOp32
 70
     1
102
RTVSPropertyOp33
 70
     1
102
RTVSPropertyOp34
 70
     1
102
RTVSPropertyOp35
 70
     1
102
RTVSPropertyOp36
 70
     1
102
RTVSPropertyOp37
 70
     1
102
RTVSPropertyOp38
 70
     1
102
RTVSPropertyOp39
 70
     1
102
RTVSPropertyOp40
 70
     1
102
RTVSPropertyOp41
 70
     1
102
RTVSPropertyOp42
 70
     1
102
RTVSPropertyOp43
 70
     1
102
RTVSPropertyOp44
 70
     1
102
RTVSPropertyOp45
 70
     1
102
RTVSPropertyOp46
 70
     1
102
RTVSPropertyOp47
 70
     1
102
RTVSPropertyOp48
 70
     1
102
RTVSPropertyOp49
 70
     1
102
RTVSPropertyOp50
 70
     1
102
RTVSPropertyOp51
 70
     0
102
RTVSPropertyOp52
 70
     0
102
RTVSPropertyOp53
 70
     1
102
RTVSPropertyOp54
 70
     1
102
RTVSPropertyOp55
 70
     1
102
RTVSPropertyOp56
 70
     1
102
RTVSPropertyOp57
 70
     1
102
RTVSPropertyOp58
 70
     1
102
RTVSPropertyOp59
 70
     1
102
RTVSPropertyOp60
 70
     1
102
RTVSPropertyOp61
 70
     1
102
RTVSPropertyOp62
 70
     1
  0
XRECORD
  5
19BB
102
{ACAD_REACTORS
330
19BA
102
}
330
19BA
100
AcDbXrecord
280
     1
102
RTVSPost2010Prop28
280
     0
102
RTVSPost2010PropOp28
 70
     1
102
RTVSPost2010Prop29
280
     1
102
RTVSPost2010PropOp29
 70
     1
102
RTVSPost2010Prop30
280
     1
102
RTVSPost2010PropOp30
 70
     1
102
RTVSPost2010Prop31
280
     0
102
RTVSPost2010PropOp31
 70
     1
102
RTVSPost2010Prop32
280
     0
102
RTVSPost2010PropOp32
 70
     1
102
RTVSPost2010Prop33
280
     0
102
RTVSPost2010PropOp33
 70
     1
102
RTVSPost2010Prop34
280
     0
102
RTVSPost2010PropOp34
 70
     1
102
RTVSPost2010Prop35
280
     0
102
RTVSPost2010PropOp35
 70
     1
102
RTVSPost2010Prop36
280
     0
102
RTVSPost2010PropOp36
 70
     1
102
RTVSPost2010Prop37
 90
       50
102
RTVSPost2010PropOp37
 70
     1
102
RTVSPost2010Prop38
140
0.0
102
RTVSPost2010PropOp38
 70
     1
102
RTVSPost2010Prop39
140
1.0
102
RTVSPost2010PropOp39
 70
     1
102
RTVSPost2010Prop40
 90
        0
102
RTVSPost2010PropOp40
 70
     1
102
RTVSPost2010Prop41ColorIndex
 90
       18
102
RTVSPost2010Prop41ColorRGB
 90
        0
102
RTVSPost2010PropOp41
 70
     1
102
RTVSPost2010Prop42
 90
       50
102
RTVSPost2010PropOp42
 70
     1
102
RTVSPost2010Prop43
 90
        3
102
RTVSPost2010PropOp43
 70
     1
102
RTVSPost2010Prop44ColorIndex
 90
        5
102
RTVSPost2010Prop44ColorRGB
 90
      255
102
RTVSPost2010PropOp44
 70
     1
102
RTVSPost2010Prop45
280
     0
102
RTVSPost2010PropOp45
 70
     1
102
RTVSPost2010Prop46
 90
       50
102
RTVSPost2010PropOp46
 70
     1
102
RTVSPost2010Prop47
 90
       50
102
RTVSPost2010PropOp47
 70
     1
102
RTVSPost2010Prop48
 90
       50
102
RTVSPost2010PropOp48
 70
     1
102
RTVSPost2010Prop49
280
     0
102
RTVSPost2010PropOp49
 70
     1
102
RTVSPost2010Prop50
 90
       50
102
RTVSPost2010PropOp50
 70
     1
102
RTVSPost2010Prop51ColorIndex
 90
      256
102
RTVSPost2010Prop51ColorRGB
 90
-16777216
102
RTVSPost2010PropOp51
 70
     0
102
RTVSPost2010Prop52
140
1.0
102
RTVSPost2010PropOp52
 70
     0
102
RTVSPost2010Prop53
 90
        2
102
RTVSPost2010PropOp53
 70
     1
102
RTVSPost2010Prop54
  1
strokes_ogs.tif
102
RTVSPost2010PropOp54
 70
     1
102
RTVSPost2010Prop55
280
     0
102
RTVSPost2010PropOp55
 70
     1
102
RTVSPost2010Prop56
140
1.0
102
RTVSPost2010PropOp56
 70
     1
102
RTVSPost2010Prop57
140
1.0
102
RTVSPost2010PropOp57
 70
     1
102
RTVSPropertyOp0
 70
     1
102
RTVSPropertyOp1
 70
     1
102
RTVSPropertyOp2
 70
     1
102
RTVSPropertyOp3
 70
     1
102
RTVSPropertyOp4
 70
     1
102
RTVSPropertyOp5
 70
     1
102
RTVSPropertyOp6
 70
     1
102
RTVSPropertyOp7
 70
     1
102
RTVSPropertyOp8
 70
     1
102
RTVSPropertyOp9
 70
     1
102
RTVSPropertyOp10
 70
     1
102
RTVSPropertyOp11
 70
     1
102
RTVSPropertyOp12
 70
     1
102
RTVSPropertyOp13
 70
     1
102
RTVSPropertyOp14
 70
     1
102
RTVSPropertyOp15
 70
     1
102
RTVSPropertyOp16
 70
     1
102
RTVSPropertyOp17
 70
     1
102
RTVSPropertyOp18
 70
     1
102
RTVSPropertyOp19
 70
     1
102
RTVSPropertyOp20
 70
     1
102
RTVSPropertyOp21
 70
     1
102
RTVSPropertyOp22
 70
     1
102
RTVSPropertyOp23
 70
     1
102
RTVSPropertyOp24
 70
     1
102
RTVSPropertyOp25
 70
     1
102
RTVSPropertyOp26
 70
     1
102
RTVSPropertyOp27
 70
     1
102
RTVSPropertyOp28
 70
     1
102
RTVSPropertyOp29
 70
     1
102
RTVSPropertyOp30
 70
     1
102
RTVSPropertyOp31
 70
     1
102
RTVSPropertyOp32
 70
     1
102
RTVSPropertyOp33
 70
     1
102
RTVSPropertyOp34
 70
     1
102
RTVSPropertyOp35
 70
     1
102
RTVSPropertyOp36
 70
     1
102
RTVSPropertyOp37
 70
     1
102
RTVSPropertyOp38
 70
     1
102
RTVSPropertyOp39
 70
     1
102
RTVSPropertyOp40
 70
     1
102
RTVSPropertyOp41
 70
     1
102
RTVSPropertyOp42
 70
     1
102
RTVSPropertyOp43
 70
     1
102
RTVSPropertyOp44
 70
     1
102
RTVSPropertyOp45
 70
     1
102
RTVSPropertyOp46
 70
     1
102
RTVSPropertyOp47
 70
     1
102
RTVSPropertyOp48
 70
     1
102
RTVSPropertyOp49
 70
     1
102
RTVSPropertyOp50
 70
     1
102
RTVSPropertyOp51
 70
     0
102
RTVSPropertyOp52
 70
     0
102
RTVSPropertyOp53
 70
     1
102
RTVSPropertyOp54
 70
     1
102
RTVSPropertyOp55
 70
     1
102
RTVSPropertyOp56
 70
     1
102
RTVSPropertyOp57
 70
     1
102
RTVSPropertyOp58
 70
     1
102
RTVSPropertyOp59
 70
     1
102
RTVSPropertyOp60
 70
     1
102
RTVSPropertyOp61
 70
     1
102
RTVSPropertyOp62
 70
     1
  0
XRECORD
  5
19B1
102
{ACAD_REACTORS
330
19B0
102
}
330
19B0
100
AcDbXrecord
280
     1
102
RTVSPost2010Prop28
280
     0
102
RTVSPost2010PropOp28
 70
     1
102
RTVSPost2010Prop29
280
     1
102
RTVSPost2010PropOp29
 70
     1
102
RTVSPost2010Prop30
280
     1
102
RTVSPost2010PropOp30
 70
     1
102
RTVSPost2010Prop31
280
     0
102
RTVSPost2010PropOp31
 70
     1
102
RTVSPost2010Prop32
280
     0
102
RTVSPost2010PropOp32
 70
     1
102
RTVSPost2010Prop33
280
     0
102
RTVSPost2010PropOp33
 70
     1
102
RTVSPost2010Prop34
280
     0
102
RTVSPost2010PropOp34
 70
     1
102
RTVSPost2010Prop35
280
     0
102
RTVSPost2010PropOp35
 70
     1
102
RTVSPost2010Prop36
280
     0
102
RTVSPost2010PropOp36
 70
     1
102
RTVSPost2010Prop37
 90
       50
102
RTVSPost2010PropOp37
 70
     1
102
RTVSPost2010Prop38
140
0.0
102
RTVSPost2010PropOp38
 70
     1
102
RTVSPost2010Prop39
140
1.0
102
RTVSPost2010PropOp39
 70
     1
102
RTVSPost2010Prop40
 90
        0
102
RTVSPost2010PropOp40
 70
     1
102
RTVSPost2010Prop41ColorIndex
 90
       18
102
RTVSPost2010Prop41ColorRGB
 90
        0
102
RTVSPost2010PropOp41
 70
     1
102
RTVSPost2010Prop42
 90
       50
102
RTVSPost2010PropOp42
 70
     1
102
RTVSPost2010Prop43
 90
        3
102
RTVSPost2010PropOp43
 70
     1
102
RTVSPost2010Prop44ColorIndex
 90
        5
102
RTVSPost2010Prop44ColorRGB
 90
      255
102
RTVSPost2010PropOp44
 70
     1
102
RTVSPost2010Prop45
280
     0
102
RTVSPost2010PropOp45
 70
     1
102
RTVSPost2010Prop46
 90
       50
102
RTVSPost2010PropOp46
 70
     1
102
RTVSPost2010Prop47
 90
       50
102
RTVSPost2010PropOp47
 70
     1
102
RTVSPost2010Prop48
 90
       50
102
RTVSPost2010PropOp48
 70
     1
102
RTVSPost2010Prop49
280
     0
102
RTVSPost2010PropOp49
 70
     1
102
RTVSPost2010Prop50
 90
       50
102
RTVSPost2010PropOp50
 70
     1
102
RTVSPost2010Prop51ColorIndex
 90
      256
102
RTVSPost2010Prop51ColorRGB
 90
-16777216
102
RTVSPost2010PropOp51
 70
     0
102
RTVSPost2010Prop52
140
1.0
102
RTVSPost2010PropOp52
 70
     0
102
RTVSPost2010Prop53
 90
        2
102
RTVSPost2010PropOp53
 70
     1
102
RTVSPost2010Prop54
  1
strokes_ogs.tif
102
RTVSPost2010PropOp54
 70
     1
102
RTVSPost2010Prop55
280
     0
102
RTVSPost2010PropOp55
 70
     1
102
RTVSPost2010Prop56
140
1.0
102
RTVSPost2010PropOp56
 70
     1
102
RTVSPost2010Prop57
140
1.0
102
RTVSPost2010PropOp57
 70
     1
102
RTVSPropertyOp0
 70
     1
102
RTVSPropertyOp1
 70
     1
102
RTVSPropertyOp2
 70
     1
102
RTVSPropertyOp3
 70
     1
102
RTVSPropertyOp4
 70
     1
102
RTVSPropertyOp5
 70
     1
102
RTVSPropertyOp6
 70
     1
102
RTVSPropertyOp7
 70
     1
102
RTVSPropertyOp8
 70
     1
102
RTVSPropertyOp9
 70
     1
102
RTVSPropertyOp10
 70
     1
102
RTVSPropertyOp11
 70
     1
102
RTVSPropertyOp12
 70
     1
102
RTVSPropertyOp13
 70
     1
102
RTVSPropertyOp14
 70
     1
102
RTVSPropertyOp15
 70
     1
102
RTVSPropertyOp16
 70
     1
102
RTVSPropertyOp17
 70
     1
102
RTVSPropertyOp18
 70
     1
102
RTVSPropertyOp19
 70
     1
102
RTVSPropertyOp20
 70
     1
102
RTVSPropertyOp21
 70
     1
102
RTVSPropertyOp22
 70
     1
102
RTVSPropertyOp23
 70
     1
102
RTVSPropertyOp24
 70
     1
102
RTVSPropertyOp25
 70
     1
102
RTVSPropertyOp26
 70
     1
102
RTVSPropertyOp27
 70
     1
102
RTVSPropertyOp28
 70
     1
102
RTVSPropertyOp29
 70
     1
102
RTVSPropertyOp30
 70
     1
102
RTVSPropertyOp31
 70
     1
102
RTVSPropertyOp32
 70
     1
102
RTVSPropertyOp33
 70
     1
102
RTVSPropertyOp34
 70
     1
102
RTVSPropertyOp35
 70
     1
102
RTVSPropertyOp36
 70
     1
102
RTVSPropertyOp37
 70
     1
102
RTVSPropertyOp38
 70
     1
102
RTVSPropertyOp39
 70
     1
102
RTVSPropertyOp40
 70
     1
102
RTVSPropertyOp41
 70
     1
102
RTVSPropertyOp42
 70
     1
102
RTVSPropertyOp43
 70
     1
102
RTVSPropertyOp44
 70
     1
102
RTVSPropertyOp45
 70
     1
102
RTVSPropertyOp46
 70
     1
102
RTVSPropertyOp47
 70
     1
102
RTVSPropertyOp48
 70
     1
102
RTVSPropertyOp49
 70
     1
102
RTVSPropertyOp50
 70
     1
102
RTVSPropertyOp51
 70
     0
102
RTVSPropertyOp52
 70
     0
102
RTVSPropertyOp53
 70
     1
102
RTVSPropertyOp54
 70
     1
102
RTVSPropertyOp55
 70
     1
102
RTVSPropertyOp56
 70
     1
102
RTVSPropertyOp57
 70
     1
102
RTVSPropertyOp58
 70
     1
102
RTVSPropertyOp59
 70
     1
102
RTVSPropertyOp60
 70
     1
102
RTVSPropertyOp61
 70
     1
102
RTVSPropertyOp62
 70
     1
  0
XRECORD
  5
19A5
102
{ACAD_REACTORS
330
19A4
102
}
330
19A4
100
AcDbXrecord
280
     1
102
RTVSPost2010Prop28
280
     0
102
RTVSPost2010PropOp28
 70
     1
102
RTVSPost2010Prop29
280
     1
102
RTVSPost2010PropOp29
 70
     1
102
RTVSPost2010Prop30
280
     1
102
RTVSPost2010PropOp30
 70
     1
102
RTVSPost2010Prop31
280
     0
102
RTVSPost2010PropOp31
 70
     1
102
RTVSPost2010Prop32
280
     0
102
RTVSPost2010PropOp32
 70
     1
102
RTVSPost2010Prop33
280
     0
102
RTVSPost2010PropOp33
 70
     1
102
RTVSPost2010Prop34
280
     0
102
RTVSPost2010PropOp34
 70
     1
102
RTVSPost2010Prop35
280
     0
102
RTVSPost2010PropOp35
 70
     1
102
RTVSPost2010Prop36
280
     0
102
RTVSPost2010PropOp36
 70
     1
102
RTVSPost2010Prop37
 90
       50
102
RTVSPost2010PropOp37
 70
     1
102
RTVSPost2010Prop38
140
0.0
102
RTVSPost2010PropOp38
 70
     1
102
RTVSPost2010Prop39
140
1.0
102
RTVSPost2010PropOp39
 70
     1
102
RTVSPost2010Prop40
 90
        0
102
RTVSPost2010PropOp40
 70
     1
102
RTVSPost2010Prop41ColorIndex
 90
       18
102
RTVSPost2010Prop41ColorRGB
 90
        0
102
RTVSPost2010PropOp41
 70
     1
102
RTVSPost2010Prop42
 90
       50
102
RTVSPost2010PropOp42
 70
     1
102
RTVSPost2010Prop43
 90
        3
102
RTVSPost2010PropOp43
 70
     1
102
RTVSPost2010Prop44ColorIndex
 90
        5
102
RTVSPost2010Prop44ColorRGB
 90
      255
102
RTVSPost2010PropOp44
 70
     1
102
RTVSPost2010Prop45
280
     0
102
RTVSPost2010PropOp45
 70
     1
102
RTVSPost2010Prop46
 90
       50
102
RTVSPost2010PropOp46
 70
     1
102
RTVSPost2010Prop47
 90
       50
102
RTVSPost2010PropOp47
 70
     1
102
RTVSPost2010Prop48
 90
       50
102
RTVSPost2010PropOp48
 70
     1
102
RTVSPost2010Prop49
280
     0
102
RTVSPost2010PropOp49
 70
     1
102
RTVSPost2010Prop50
 90
       50
102
RTVSPost2010PropOp50
 70
     1
102
RTVSPost2010Prop51ColorIndex
 90
      256
102
RTVSPost2010Prop51ColorRGB
 90
-16777216
102
RTVSPost2010PropOp51
 70
     0
102
RTVSPost2010Prop52
140
1.0
102
RTVSPost2010PropOp52
 70
     0
102
RTVSPost2010Prop53
 90
        2
102
RTVSPost2010PropOp53
 70
     1
102
RTVSPost2010Prop54
  1
strokes_ogs.tif
102
RTVSPost2010PropOp54
 70
     1
102
RTVSPost2010Prop55
280
     0
102
RTVSPost2010PropOp55
 70
     1
102
RTVSPost2010Prop56
140
1.0
102
RTVSPost2010PropOp56
 70
     1
102
RTVSPost2010Prop57
140
1.0
102
RTVSPost2010PropOp57
 70
     1
102
RTVSPropertyOp0
 70
     1
102
RTVSPropertyOp1
 70
     1
102
RTVSPropertyOp2
 70
     1
102
RTVSPropertyOp3
 70
     1
102
RTVSPropertyOp4
 70
     1
102
RTVSPropertyOp5
 70
     1
102
RTVSPropertyOp6
 70
     1
102
RTVSPropertyOp7
 70
     1
102
RTVSPropertyOp8
 70
     1
102
RTVSPropertyOp9
 70
     1
102
RTVSPropertyOp10
 70
     1
102
RTVSPropertyOp11
 70
     1
102
RTVSPropertyOp12
 70
     1
102
RTVSPropertyOp13
 70
     1
102
RTVSPropertyOp14
 70
     1
102
RTVSPropertyOp15
 70
     1
102
RTVSPropertyOp16
 70
     1
102
RTVSPropertyOp17
 70
     1
102
RTVSPropertyOp18
 70
     1
102
RTVSPropertyOp19
 70
     1
102
RTVSPropertyOp20
 70
     1
102
RTVSPropertyOp21
 70
     1
102
RTVSPropertyOp22
 70
     1
102
RTVSPropertyOp23
 70
     1
102
RTVSPropertyOp24
 70
     1
102
RTVSPropertyOp25
 70
     1
102
RTVSPropertyOp26
 70
     1
102
RTVSPropertyOp27
 70
     1
102
RTVSPropertyOp28
 70
     1
102
RTVSPropertyOp29
 70
     1
102
RTVSPropertyOp30
 70
     1
102
RTVSPropertyOp31
 70
     1
102
RTVSPropertyOp32
 70
     1
102
RTVSPropertyOp33
 70
     1
102
RTVSPropertyOp34
 70
     1
102
RTVSPropertyOp35
 70
     1
102
RTVSPropertyOp36
 70
     1
102
RTVSPropertyOp37
 70
     1
102
RTVSPropertyOp38
 70
     1
102
RTVSPropertyOp39
 70
     1
102
RTVSPropertyOp40
 70
     1
102
RTVSPropertyOp41
 70
     1
102
RTVSPropertyOp42
 70
     1
102
RTVSPropertyOp43
 70
     1
102
RTVSPropertyOp44
 70
     1
102
RTVSPropertyOp45
 70
     1
102
RTVSPropertyOp46
 70
     1
102
RTVSPropertyOp47
 70
     1
102
RTVSPropertyOp48
 70
     1
102
RTVSPropertyOp49
 70
     1
102
RTVSPropertyOp50
 70
     1
102
RTVSPropertyOp51
 70
     0
102
RTVSPropertyOp52
 70
     0
102
RTVSPropertyOp53
 70
     1
102
RTVSPropertyOp54
 70
     1
102
RTVSPropertyOp55
 70
     1
102
RTVSPropertyOp56
 70
     1
102
RTVSPropertyOp57
 70
     1
102
RTVSPropertyOp58
 70
     1
102
RTVSPropertyOp59
 70
     1
102
RTVSPropertyOp60
 70
     1
102
RTVSPropertyOp61
 70
     1
102
RTVSPropertyOp62
 70
     1
  0
XRECORD
  5
19BD
102
{ACAD_REACTORS
330
19BC
102
}
330
19BC
100
AcDbXrecord
280
     1
102
RTVSPost2010Prop28
280
     0
102
RTVSPost2010PropOp28
 70
     1
102
RTVSPost2010Prop29
280
     1
102
RTVSPost2010PropOp29
 70
     1
102
RTVSPost2010Prop30
280
     1
102
RTVSPost2010PropOp30
 70
     1
102
RTVSPost2010Prop31
280
     0
102
RTVSPost2010PropOp31
 70
     1
102
RTVSPost2010Prop32
280
     0
102
RTVSPost2010PropOp32
 70
     1
102
RTVSPost2010Prop33
280
     0
102
RTVSPost2010PropOp33
 70
     1
102
RTVSPost2010Prop34
280
     0
102
RTVSPost2010PropOp34
 70
     1
102
RTVSPost2010Prop35
280
     0
102
RTVSPost2010PropOp35
 70
     1
102
RTVSPost2010Prop36
280
     0
102
RTVSPost2010PropOp36
 70
     1
102
RTVSPost2010Prop37
 90
       50
102
RTVSPost2010PropOp37
 70
     1
102
RTVSPost2010Prop38
140
0.0
102
RTVSPost2010PropOp38
 70
     1
102
RTVSPost2010Prop39
140
1.0
102
RTVSPost2010PropOp39
 70
     1
102
RTVSPost2010Prop40
 90
        0
102
RTVSPost2010PropOp40
 70
     1
102
RTVSPost2010Prop41ColorIndex
 90
       18
102
RTVSPost2010Prop41ColorRGB
 90
        0
102
RTVSPost2010PropOp41
 70
     1
102
RTVSPost2010Prop42
 90
       50
102
RTVSPost2010PropOp42
 70
     1
102
RTVSPost2010Prop43
 90
        3
102
RTVSPost2010PropOp43
 70
     1
102
RTVSPost2010Prop44ColorIndex
 90
        5
102
RTVSPost2010Prop44ColorRGB
 90
      255
102
RTVSPost2010PropOp44
 70
     1
102
RTVSPost2010Prop45
280
     0
102
RTVSPost2010PropOp45
 70
     1
102
RTVSPost2010Prop46
 90
       50
102
RTVSPost2010PropOp46
 70
     1
102
RTVSPost2010Prop47
 90
       50
102
RTVSPost2010PropOp47
 70
     1
102
RTVSPost2010Prop48
 90
       50
102
RTVSPost2010PropOp48
 70
     1
102
RTVSPost2010Prop49
280
     0
102
RTVSPost2010PropOp49
 70
     1
102
RTVSPost2010Prop50
 90
       50
102
RTVSPost2010PropOp50
 70
     1
102
RTVSPost2010Prop51ColorIndex
 90
      256
102
RTVSPost2010Prop51ColorRGB
 90
-16777216
102
RTVSPost2010PropOp51
 70
     0
102
RTVSPost2010Prop52
140
1.0
102
RTVSPost2010PropOp52
 70
     0
102
RTVSPost2010Prop53
 90
        2
102
RTVSPost2010PropOp53
 70
     1
102
RTVSPost2010Prop54
  1
strokes_ogs.tif
102
RTVSPost2010PropOp54
 70
     1
102
RTVSPost2010Prop55
280
     0
102
RTVSPost2010PropOp55
 70
     1
102
RTVSPost2010Prop56
140
1.0
102
RTVSPost2010PropOp56
 70
     1
102
RTVSPost2010Prop57
140
1.0
102
RTVSPost2010PropOp57
 70
     1
102
RTVSPropertyOp0
 70
     1
102
RTVSPropertyOp1
 70
     1
102
RTVSPropertyOp2
 70
     1
102
RTVSPropertyOp3
 70
     1
102
RTVSPropertyOp4
 70
     1
102
RTVSPropertyOp5
 70
     1
102
RTVSPropertyOp6
 70
     1
102
RTVSPropertyOp7
 70
     1
102
RTVSPropertyOp8
 70
     1
102
RTVSPropertyOp9
 70
     1
102
RTVSPropertyOp10
 70
     1
102
RTVSPropertyOp11
 70
     1
102
RTVSPropertyOp12
 70
     1
102
RTVSPropertyOp13
 70
     1
102
RTVSPropertyOp14
 70
     1
102
RTVSPropertyOp15
 70
     1
102
RTVSPropertyOp16
 70
     1
102
RTVSPropertyOp17
 70
     1
102
RTVSPropertyOp18
 70
     1
102
RTVSPropertyOp19
 70
     1
102
RTVSPropertyOp20
 70
     1
102
RTVSPropertyOp21
 70
     1
102
RTVSPropertyOp22
 70
     1
102
RTVSPropertyOp23
 70
     1
102
RTVSPropertyOp24
 70
     1
102
RTVSPropertyOp25
 70
     1
102
RTVSPropertyOp26
 70
     1
102
RTVSPropertyOp27
 70
     1
102
RTVSPropertyOp28
 70
     1
102
RTVSPropertyOp29
 70
     1
102
RTVSPropertyOp30
 70
     1
102
RTVSPropertyOp31
 70
     1
102
RTVSPropertyOp32
 70
     1
102
RTVSPropertyOp33
 70
     1
102
RTVSPropertyOp34
 70
     1
102
RTVSPropertyOp35
 70
     1
102
RTVSPropertyOp36
 70
     1
102
RTVSPropertyOp37
 70
     1
102
RTVSPropertyOp38
 70
     1
102
RTVSPropertyOp39
 70
     1
102
RTVSPropertyOp40
 70
     1
102
RTVSPropertyOp41
 70
     1
102
RTVSPropertyOp42
 70
     1
102
RTVSPropertyOp43
 70
     1
102
RTVSPropertyOp44
 70
     1
102
RTVSPropertyOp45
 70
     1
102
RTVSPropertyOp46
 70
     1
102
RTVSPropertyOp47
 70
     1
102
RTVSPropertyOp48
 70
     1
102
RTVSPropertyOp49
 70
     1
102
RTVSPropertyOp50
 70
     1
102
RTVSPropertyOp51
 70
     0
102
RTVSPropertyOp52
 70
     0
102
RTVSPropertyOp53
 70
     1
102
RTVSPropertyOp54
 70
     1
102
RTVSPropertyOp55
 70
     1
102
RTVSPropertyOp56
 70
     1
102
RTVSPropertyOp57
 70
     1
102
RTVSPropertyOp58
 70
     1
102
RTVSPropertyOp59
 70
     1
102
RTVSPropertyOp60
 70
     1
102
RTVSPropertyOp61
 70
     1
102
RTVSPropertyOp62
 70
     1
  0
ENDSEC
  0
EOF
