  0
SECTION
  2
HEADER
  9
$ACADVER
  1
AC1015
  9
$ACADMAINTVER
 70
    20
  9
$DWGCODEPAGE
  3
ANSI_932
  9
$INSBASE
 10
0.0
 20
0.0
 30
0.0
  9
$EXTMIN
 10
9.9999975266385
 20
10.0
 30
0.0
  9
$EXTMAX
 10
789.6383997540103
 20
512.2220019034029
 30
0.0
  9
$LIMMIN
 10
0.0000015376081137
 20
-0.0000001931532552
  9
$LIMMAX
 10
792.0000015376082
 20
545.9999998068466
  9
$ORTHOMODE
 70
     1
  9
$REGENMODE
 70
     1
  9
$FILLMODE
 70
     1
  9
$QTEXTMODE
 70
     0
  9
$MIRRTEXT
 70
     1
  9
$LTSCALE
 40
1.0
  9
$ATTMODE
 70
     1
  9
$TEXTSIZE
 40
2.5
  9
$TRACEWID
 40
1.0
  9
$TEXTSTYLE
  7
STANDARD
  9
$CLAYER
  8
0
  9
$CELTYPE
  6
BYLAYER
  9
$CECOLOR
 62
   256
  9
$CELTSCALE
 40
1.0
  9
$DISPSILH
 70
     0
  9
$DIMSCALE
 40
1.0
  9
$DIMASZ
 40
3.0
  9
$DIMEXO
 40
1.0
  9
$DIMDLI
 40
10.0
  9
$DIMRND
 40
0.0
  9
$DIMDLE
 40
0.0
  9
$DIMEXE
 40
1.0
  9
$DIMTP
 40
0.0
  9
$DIMTM
 40
0.0
  9
$DIMTXT
 40
3.2
  9
$DIMCEN
 40
0.0
  9
$DIMTSZ
 40
0.0
  9
$DIMTOL
 70
     0
  9
$DIMLIM
 70
     0
  9
$DIMTIH
 70
     0
  9
$DIMTOH
 70
     0
  9
$DIMSE1
 70
     0
  9
$DIMSE2
 70
     0
  9
$DIMTAD
 70
     3
  9
$DIMZIN
 70
     8
  9
$DIMBLK
  1

  9
$DIMASO
 70
     1
  9
$DIMSHO
 70
     1
  9
$DIMPOST
  1

  9
$DIMAPOST
  1

  9
$DIMALT
 70
     0
  9
$DIMALTD
 70
     2
  9
$DIMALTF
 40
25.4
  9
$DIMLFAC
 40
1.0
  9
$DIMTOFL
 70
     1
  9
$DIMTVP
 40
0.0
  9
$DIMTIX
 70
     0
  9
$DIMSOXD
 70
     0
  9
$DIMSAH
 70
     1
  9
$DIMBLK1
  1
OPEN
  9
$DIMBLK2
  1
OPEN
  9
$DIMSTYLE
  2
STANDARD
  9
$DIMCLRD
 70
     0
  9
$DIMCLRE
 70
     0
  9
$DIMCLRT
 70
     0
  9
$DIMTFAC
 40
1.0
  9
$DIMGAP
 40
1.0
  9
$DIMJUST
 70
     0
  9
$DIMSD1
 70
     0
  9
$DIMSD2
 70
     0
  9
$DIMTOLJ
 70
     1
  9
$DIMTZIN
 70
     0
  9
$DIMALTZ
 70
     0
  9
$DIMALTTZ
 70
     0
  9
$DIMUPT
 70
     0
  9
$DIMDEC
 70
     4
  9
$DIMTDEC
 70
     4
  9
$DIMALTU
 70
     2
  9
$DIMALTTD
 70
     2
  9
$DIMTXSTY
  7
STANDARD
  9
$DIMAUNIT
 70
     0
  9
$DIMADEC
 70
     0
  9
$DIMALTRND
 40
0.0
  9
$DIMAZIN
 70
     0
  9
$DIMDSEP
 70
    46
  9
$DIMATFIT
 70
     3
  9
$DIMFRAC
 70
     0
  9
$DIMLDRBLK
  1
OPEN
  9
$DIMLUNIT
 70
     2
  9
$DIMLWD
 70
    -2
  9
$DIMLWE
 70
    -2
  9
$DIMTMOVE
 70
     0
  9
$LUNITS
 70
     2
  9
$LUPREC
 70
     4
  9
$SKETCHINC
 40
1.0
  9
$FILLETRAD
 40
3.0
  9
$AUNITS
 70
     0
  9
$AUPREC
 70
     0
  9
$MENU
  1
.
  9
$ELEVATION
 40
0.0
  9
$PELEVATION
 40
0.0
  9
$THICKNESS
 40
0.0
  9
$LIMCHECK
 70
     0
  9
$CHAMFERA
 40
10.0
  9
$CHAMFERB
 40
10.0
  9
$CHAMFERC
 40
20.0
  9
$CHAMFERD
 40
0.0
  9
$SKPOLY
 70
     0
  9
$TDCREATE
 40
2452969.561183623
  9
$TDUCREATE
 40
2452969.186183623
  9
$TDUPDATE
 40
2457192.687346505
  9
$TDUUPDATE
 40
2457192.312346505
  9
$TDINDWG
 40
0.0324081134
  9
$TDUSRTIMER
 40
0.0324080903
  9
$USRTIMER
 70
     1
  9
$ANGBASE
 50
0.0
  9
$ANGDIR
 70
     0
  9
$PDMODE
 70
     0
  9
$PDSIZE
 40
0.0
  9
$PLINEWID
 40
0.0
  9
$SPLFRAME
 70
     0
  9
$SPLINETYPE
 70
     6
  9
$SPLINESEGS
 70
     8
  9
$HANDSEED
  5
1008
  9
$SURFTAB1
 70
     6
  9
$SURFTAB2
 70
     6
  9
$SURFTYPE
 70
     6
  9
$SURFU
 70
     6
  9
$SURFV
 70
     6
  9
$UCSBASE
  2

  9
$UCSNAME
  2

  9
$UCSORG
 10
0.0
 20
0.0
 30
0.0
  9
$UCSXDIR
 10
1.0
 20
0.0
 30
0.0
  9
$UCSYDIR
 10
0.0
 20
1.0
 30
0.0
  9
$UCSORTHOREF
  2

  9
$UCSORTHOVIEW
 70
     0
  9
$UCSORGTOP
 10
0.0
 20
0.0
 30
0.0
  9
$UCSORGBOTTOM
 10
0.0
 20
0.0
 30
0.0
  9
$UCSORGLEFT
 10
0.0
 20
0.0
 30
0.0
  9
$UCSORGRIGHT
 10
0.0
 20
0.0
 30
0.0
  9
$UCSORGFRONT
 10
0.0
 20
0.0
 30
0.0
  9
$UCSORGBACK
 10
0.0
 20
0.0
 30
0.0
  9
$PUCSBASE
  2

  9
$PUCSNAME
  2

  9
$PUCSORG
 10
0.0
 20
0.0
 30
0.0
  9
$PUCSXDIR
 10
1.0
 20
0.0
 30
0.0
  9
$PUCSYDIR
 10
0.0
 20
1.0
 30
0.0
  9
$PUCSORTHOREF
  2

  9
$PUCSORTHOVIEW
 70
     0
  9
$PUCSORGTOP
 10
0.0
 20
0.0
 30
0.0
  9
$PUCSORGBOTTOM
 10
0.0
 20
0.0
 30
0.0
  9
$PUCSORGLEFT
 10
0.0
 20
0.0
 30
0.0
  9
$PUCSORGRIGHT
 10
0.0
 20
0.0
 30
0.0
  9
$PUCSORGFRONT
 10
0.0
 20
0.0
 30
0.0
  9
$PUCSORGBACK
 10
0.0
 20
0.0
 30
0.0
  9
$USERI1
 70
     0
  9
$USERI2
 70
     0
  9
$USERI3
 70
     0
  9
$USERI4
 70
     0
  9
$USERI5
 70
     0
  9
$USERR1
 40
0.0
  9
$USERR2
 40
0.0
  9
$USERR3
 40
0.0
  9
$USERR4
 40
0.0
  9
$USERR5
 40
0.0
  9
$WORLDVIEW
 70
     1
  9
$SHADEDGE
 70
     3
  9
$SHADEDIF
 70
    70
  9
$TILEMODE
 70
     1
  9
$MAXACTVP
 70
    48
  9
$PINSBASE
 10
0.0
 20
0.0
 30
0.0
  9
$PLIMCHECK
 70
     0
  9
$PEXTMIN
 10
1.000000000000000E+20
 20
1.000000000000000E+20
 30
1.000000000000000E+20
  9
$PEXTMAX
 10
-1.000000000000000E+20
 20
-1.000000000000000E+20
 30
-1.000000000000000E+20
  9
$PLIMMIN
 10
0.0
 20
0.0
  9
$PLIMMAX
 10
420.0
 20
297.0
  9
$UNITMODE
 70
     0
  9
$VISRETAIN
 70
     1
  9
$PLINEGEN
 70
     0
  9
$PSLTSCALE
 70
     1
  9
$TREEDEPTH
 70
  3020
  9
$CMLSTYLE
  2
STANDARD
  9
$CMLJUST
 70
     0
  9
$CMLSCALE
 40
20.0
  9
$PROXYGRAPHICS
 70
     1
  9
$MEASUREMENT
 70
     0
  9
$CELWEIGHT
370
    -1
  9
$ENDCAPS
280
     0
  9
$JOINSTYLE
280
     0
  9
$LWDISPLAY
290
     0
  9
$INSUNITS
 70
     0
  9
$HYPERLINKBASE
  1

  9
$STYLESHEET
  1

  9
$XEDIT
290
     1
  9
$CEPSNTYPE
380
     0
  9
$PSTYLEMODE
290
     1
  9
$FINGERPRINTGUID
  2
{2018935D-6E31-4E11-B455-764F09ED76DA}
  9
$VERSIONGUID
  2
{88F005CF-123A-455D-A9CA-934F95264059}
  9
$EXTNAMES
290
     1
  9
$PSVPSCALE
 40
0.0
  9
$OLESTARTUP
290
     0
  0
ENDSEC
  0
SECTION
  2
CLASSES
  0
CLASS
  1
ACDBDICTIONARYWDFLT
  2
AcDbDictionaryWithDefault
  3
ObjectDBX Classes
 90
        0
280
     0
281
     0
  0
CLASS
  1
ACDBPLACEHOLDER
  2
AcDbPlaceHolder
  3
ObjectDBX Classes
 90
        0
280
     0
281
     0
  0
CLASS
  1
LAYOUT
  2
AcDbLayout
  3
ObjectDBX Classes
 90
        0
280
     0
281
     0
  0
CLASS
  1
DICTIONARYVAR
  2
AcDbDictionaryVar
  3
ObjectDBX Classes
 90
        0
280
     0
281
     0
  0
CLASS
  1
MATERIAL
  2
AcDbMaterial
  3
ObjectDBX Classes
 90
     1153
280
     0
281
     0
  0
CLASS
  1
VISUALSTYLE
  2
AcDbVisualStyle
  3
ObjectDBX Classes
 90
     4095
280
     0
281
     0
  0
CLASS
  1
TABLESTYLE
  2
AcDbTableStyle
  3
ObjectDBX Classes
 90
     4095
280
     0
281
     0
  0
CLASS
  1
SCALE
  2
AcDbScale
  3
ObjectDBX Classes
 90
     1153
280
     0
281
     0
  0
CLASS
  1
MLEADERSTYLE
  2
AcDbMLeaderStyle
  3
ACDB_MLEADERSTYLE_CLASS
 90
     4095
280
     0
281
     0
  0
CLASS
  1
ACDBSECTIONVIEWSTYLE
  2
AcDbSectionViewStyle
  3
ObjectDBX Classes
 90
     1025
280
     0
281
     0
  0
CLASS
  1
ACDBDETAILVIEWSTYLE
  2
AcDbDetailViewStyle
  3
ObjectDBX Classes
 90
     1025
280
     0
281
     0
  0
CLASS
  1
CELLSTYLEMAP
  2
AcDbCellStyleMap
  3
ObjectDBX Classes
 90
     1152
280
     0
281
     0
  0
ENDSEC
  0
SECTION
  2
TABLES
  0
TABLE
  2
VPORT
  5
8
330
0
100
AcDbSymbolTable
 70
     1
  0
VPORT
  5
F52
330
8
100
AcDbSymbolTableRecord
100
AcDbViewportTableRecord
  2
*ACTIVE
 70
     0
 10
0.0
 20
0.0
 11
1.0
 21
1.0
 12
551.9299400926012
 22
261.1070719871083
 13
0.0
 23
0.0
 14
10.0
 24
10.0
 15
10.0
 25
10.0
 16
0.0
 26
0.0
 36
1.0
 17
0.0
 27
0.0
 37
0.0
 40
507.8020995241621
 41
2.35006605019815
 42
50.0
 43
0.0
 44
0.0
 50
0.0
 51
0.0
 71
     0
 72
   100
 73
     1
 74
     0
 75
     0
 76
     0
 77
     0
 78
     0
281
     0
 65
     1
110
0.0
120
0.0
130
0.0
111
1.0
121
0.0
131
0.0
112
0.0
122
1.0
132
0.0
 79
     0
146
0.0
1001
ACAD_NAV_VCDISPLAY
1070
     3
  0
ENDTAB
  0
TABLE
  2
LTYPE
  5
5
330
0
100
AcDbSymbolTable
 70
     4
  0
LTYPE
  5
12
330
5
100
AcDbSymbolTableRecord
100
AcDbLinetypeTableRecord
  2
BYBLOCK
 70
     0
  3

 72
    65
 73
     0
 40
0.0
  0
LTYPE
  5
13
330
5
100
AcDbSymbolTableRecord
100
AcDbLinetypeTableRecord
  2
BYLAYER
 70
     0
  3

 72
    65
 73
     0
 40
0.0
  0
LTYPE
  5
14
330
5
100
AcDbSymbolTableRecord
100
AcDbLinetypeTableRecord
  2
CONTINUOUS
 70
     0
  3
Solid line
 72
    65
 73
     0
 40
0.0
  0
LTYPE
  5
4B
330
5
100
AcDbSymbolTableRecord
100
AcDbLinetypeTableRecord
  2
DASHED
 70
     0
  3
Dashed __ __ __ __ __ __ __ __ __ __ __ __ __ _
 72
    65
 73
     2
 40
19.04999999999999
 49
12.7
 74
     0
 49
-6.349999999999998
 74
     0
  0
LTYPE
  5
4C
330
5
100
AcDbSymbolTableRecord
100
AcDbLinetypeTableRecord
  2
CENTER
 70
     0
  3
Center ____ _ ____ _ ____ _ ____ _ ____ _ ____
 72
    65
 73
     4
 40
50.8
 49
31.75
 74
     0
 49
-6.349999999999998
 74
     0
 49
6.349999999999998
 74
     0
 49
-6.349999999999998
 74
     0
  0
LTYPE
  5
4D
330
5
100
AcDbSymbolTableRecord
100
AcDbLinetypeTableRecord
  2
PHANTOM
 70
     0
  3
Phantom ______  __  __  ______  __  __  ______
 72
    65
 73
     6
 40
63.5
 49
31.75
 74
     0
 49
-6.349999999999998
 74
     0
 49
6.349999999999998
 74
     0
 49
-6.349999999999998
 74
     0
 49
6.349999999999998
 74
     0
 49
-6.349999999999998
 74
     0
  0
ENDTAB
  0
TABLE
  2
LAYER
  5
2
330
0
100
AcDbSymbolTable
 70
     8
  0
LAYER
  5
E
102
{ACAD_XDICTIONARY
360
FAC
102
}
330
2
100
AcDbSymbolTableRecord
100
AcDbLayerTableRecord
  2
0
 70
     0
 62
     7
  6
CONTINUOUS
370
    -3
390
F5B
  0
LAYER
  5
4E
102
{ACAD_XDICTIONARY
360
FAE
102
}
330
2
100
AcDbSymbolTableRecord
100
AcDbLayerTableRecord
  2
4
 70
     0
 62
     1
  6
CENTER
370
    -3
390
F5B
  0
LAYER
  5
4F
102
{ACAD_XDICTIONARY
360
FB0
102
}
330
2
100
AcDbSymbolTableRecord
100
AcDbLayerTableRecord
  2
5
 70
     0
 62
     6
  6
PHANTOM
370
    -3
390
F5B
  0
LAYER
  5
50
102
{ACAD_XDICTIONARY
360
FB2
102
}
330
2
100
AcDbSymbolTableRecord
100
AcDbLayerTableRecord
  2
1
 70
     0
 62
     7
  6
CONTINUOUS
370
    -3
390
F5B
  0
LAYER
  5
51
102
{ACAD_XDICTIONARY
360
FB4
102
}
330
2
100
AcDbSymbolTableRecord
100
AcDbLayerTableRecord
  2
2
 70
     0
 62
     4
  6
CONTINUOUS
370
    -3
390
F5B
  0
LAYER
  5
52
102
{ACAD_XDICTIONARY
360
FB6
102
}
330
2
100
AcDbSymbolTableRecord
100
AcDbLayerTableRecord
  2
3
 70
     0
 62
     2
  6
DASHED
370
    -3
390
F5B
  0
LAYER
  5
53
102
{ACAD_XDICTIONARY
360
FB8
102
}
330
2
100
AcDbSymbolTableRecord
100
AcDbLayerTableRecord
  2
6
 70
     0
 62
     5
  6
CONTINUOUS
370
    -3
390
F5B
  0
LAYER
  5
54
102
{ACAD_XDICTIONARY
360
FBA
102
}
330
2
100
AcDbSymbolTableRecord
100
AcDbLayerTableRecord
  2
7
 70
     0
 62
     3
  6
CONTINUOUS
370
    -3
390
F5B
  0
ENDTAB
  0
TABLE
  2
STYLE
  5
3
330
0
100
AcDbSymbolTable
 70
     1
  0
STYLE
  5
F
330
3
100
AcDbSymbolTableRecord
100
AcDbTextStyleTableRecord
  2
STANDARD
 70
     0
 40
0.0
 41
1.0
 50
0.0
 71
     0
 42
2.5
  3
simplex.shx
  4

  0
ENDTAB
  0
TABLE
  2
VIEW
  5
6
330
0
100
AcDbSymbolTable
 70
     0
  0
ENDTAB
  0
TABLE
  2
UCS
  5
7
330
0
100
AcDbSymbolTable
 70
     0
  0
ENDTAB
  0
TABLE
  2
APPID
  5
9
330
0
100
AcDbSymbolTable
 70
     5
  0
APPID
  5
10
330
9
100
AcDbSymbolTableRecord
100
AcDbRegAppTableRecord
  2
ACAD
 70
     0
  0
APPID
  5
3E
330
9
100
AcDbSymbolTableRecord
100
AcDbRegAppTableRecord
  2
CONTENTTABDATA
 70
     0
  0
APPID
  5
3F
330
9
100
AcDbSymbolTableRecord
100
AcDbRegAppTableRecord
  2
CONTENTCURRENTTAB
 70
     0
  0
APPID
  5
FC6
330
9
100
AcDbSymbolTableRecord
100
AcDbRegAppTableRecord
  2
ACAD_NAV_VCDISPLAY
 70
     0
  0
APPID
  5
FFF
330
9
100
AcDbSymbolTableRecord
100
AcDbRegAppTableRecord
  2
ACAD_MLEADERVER
 70
     0
  0
ENDTAB
  0
TABLE
  2
DIMSTYLE
  5
A
330
0
100
AcDbSymbolTable
 70
     1
100
AcDbDimStyleTable
 71
     0
  0
DIMSTYLE
105
1D
330
A
100
AcDbSymbolTableRecord
100
AcDbDimStyleTableRecord
  2
STANDARD
 70
     0
 41
3.0
 42
1.0
 43
10.0
 44
1.0
 73
     0
 74
     0
 77
     3
 78
     8
140
3.2
141
0.0
147
1.0
172
     1
173
     1
340
F
341
2E
343
2E
344
2E
  0
ENDTAB
  0
TABLE
  2
BLOCK_RECORD
  5
1
330
0
100
AcDbSymbolTable
 70
     1
  0
BLOCK_RECORD
  5
18
102
{ACAD_XDICTIONARY
360
F55
102
}
330
1
100
AcDbSymbolTableRecord
100
AcDbBlockTableRecord
  2
*MODEL_SPACE
340
FA9
  0
BLOCK_RECORD
  5
15
102
{ACAD_XDICTIONARY
360
F53
102
}
330
1
100
AcDbSymbolTableRecord
100
AcDbBlockTableRecord
  2
*PAPER_SPACE
340
FAA
  0
BLOCK_RECORD
  5
2E
330
1
100
AcDbSymbolTableRecord
100
AcDbBlockTableRecord
  2
_OPEN
340
0
  0
ENDTAB
  0
ENDSEC
  0
SECTION
  2
BLOCKS
  0
BLOCK
  5
19
330
18
100
AcDbEntity
  8
0
100
AcDbBlockBegin
  2
*MODEL_SPACE
 70
     0
 10
0.0
 20
0.0
 30
0.0
  3
*MODEL_SPACE
  1

  0
ENDBLK
  5
1A
330
18
100
AcDbEntity
  8
0
100
AcDbBlockEnd
  0
BLOCK
  5
16
330
15
100
AcDbEntity
 67
     1
  8
0
100
AcDbBlockBegin
  2
*PAPER_SPACE
 70
     0
 10
0.0
 20
0.0
 30
0.0
  3
*PAPER_SPACE
  1

  0
ENDBLK
  5
17
330
15
100
AcDbEntity
 67
     1
  8
0
100
AcDbBlockEnd
  0
BLOCK
  5
2F
330
2E
100
AcDbEntity
  8
0
100
AcDbBlockBegin
  2
_OPEN
 70
     0
 10
0.0
 20
0.0
 30
0.0
  3
_OPEN
  1

  0
LINE
  5
30
330
2E
100
AcDbEntity
  8
0
  6
ByBlock
 62
     0
100
AcDbLine
 10
-1.0
 20
0.1666666666666666
 30
0.0
 11
0.0
 21
0.0
 31
0.0
  0
LINE
  5
31
330
2E
100
AcDbEntity
  8
0
  6
ByBlock
 62
     0
100
AcDbLine
 10
0.0
 20
0.0
 30
0.0
 11
-1.0
 21
-0.1666666666666666
 31
0.0
  0
LINE
  5
32
330
2E
100
AcDbEntity
  8
0
  6
ByBlock
 62
     0
100
AcDbLine
 10
0.0
 20
0.0
 30
0.0
 11
-1.0
 21
0.0
 31
0.0
  0
ENDBLK
  5
33
330
2E
100
AcDbEntity
  8
0
100
AcDbBlockEnd
  0
ENDSEC
  0
SECTION
  2
ENTITIES
  0
TEXT
  5
63
330
18
100
AcDbEntity
  8
4
  6
CENTER
 48
0.25
100
AcDbText
 10
23.97950852663849
 20
10.0
 30
0.0
 40
1.399999999999999
  1
4
100
AcDbText
  0
TEXT
  5
64
330
18
100
AcDbEntity
  8
7
  6
Continuous
 48
0.25
100
AcDbText
 10
9.999997526638502
 20
26.0000007607689
 30
0.0
 40
3.0
  1
CODE No.9847
100
AcDbText
  0
TEXT
  5
65
330
18
100
AcDbEntity
  8
7
  6
Continuous
 48
0.25
100
AcDbText
 10
9.999997526638502
 20
18.00000076076889
 30
0.0
 40
3.0
  1
TYPE No.107X-N
100
AcDbText
  0
TEXT
  5
66
330
18
100
AcDbEntity
  8
1
  6
Continuous
 48
0.25
100
AcDbText
 10
9.999997526638502
 20
10.00000076076889
 30
0.0
 40
1.399999999999999
  1
LAYER
100
AcDbText
  0
TEXT
  5
67
330
18
100
AcDbEntity
  8
2
  6
Continuous
 48
0.25
100
AcDbText
 10
19.9795085266385
 20
10.0
 30
0.0
 40
1.399999999999999
  1
2
100
AcDbText
  0
TEXT
  5
68
330
18
100
AcDbEntity
  8
3
  6
DASHED
 48
0.25
100
AcDbText
 10
21.9795085266385
 20
10.0
 30
0.0
 40
1.399999999999999
  1
3
100
AcDbText
  0
TEXT
  5
69
330
18
100
AcDbEntity
  8
1
  6
Continuous
 48
0.25
100
AcDbText
 10
17.9795085266385
 20
10.0
 30
0.0
 40
1.399999999999999
  1
1
100
AcDbText
  0
TEXT
  5
6A
330
18
100
AcDbEntity
  8
5
  6
PHANTOM
 48
0.25
100
AcDbText
 10
25.9795085266385
 20
10.0
 30
0.0
 40
1.399999999999999
  1
5
100
AcDbText
  0
TEXT
  5
6B
330
18
100
AcDbEntity
  8
6
  6
Continuous
 48
0.25
100
AcDbText
 10
27.9795085266385
 20
10.0
 30
0.0
 40
1.399999999999999
  1
6
100
AcDbText
  0
TEXT
  5
6C
330
18
100
AcDbEntity
  8
7
  6
Continuous
 48
0.25
100
AcDbText
 10
29.9795085266385
 20
10.0
 30
0.0
 40
1.399999999999999
  1
7
100
AcDbText
  0
LINE
  5
275
330
18
100
AcDbEntity
  8
4
  6
CENTER
100
AcDbLine
 10
321.1323496749823
 20
353.801145081071
 30
0.0
 11
321.1323496749823
 21
261.612991081071
 31
0.0
  0
LINE
  5
276
330
18
100
AcDbEntity
  8
1
  6
Continuous
100
AcDbLine
 10
371.1323496749824
 20
341.250833081071
 30
0.0
 11
360.1323496749825
 21
333.8312390810709
 31
0.0
  0
LINE
  5
277
330
18
100
AcDbEntity
  8
1
  6
Continuous
100
AcDbLine
 10
360.1323496749823
 20
333.599851081071
 30
0.0
 11
360.1323496749823
 21
339.599851081071
 31
0.0
  0
LINE
  5
278
330
18
100
AcDbEntity
  8
1
  6
Continuous
100
AcDbLine
 10
329.4110996749824
 20
341.809857081071
 30
0.0
 11
329.4110996749824
 21
335.3312390810708
 31
0.0
  0
LINE
  5
279
330
18
100
AcDbEntity
  8
1
  6
Continuous
100
AcDbLine
 10
312.8535956749824
 20
341.809857081071
 30
0.0
 11
312.8535956749824
 21
335.3312390810708
 31
0.0
  0
LINE
  5
27A
330
18
100
AcDbEntity
  8
1
  6
Continuous
100
AcDbLine
 10
271.1323496749823
 20
341.250833081071
 30
0.0
 11
282.1323496749823
 21
333.8312390810709
 31
0.0
  0
LINE
  5
27B
330
18
100
AcDbEntity
  8
1
  6
Continuous
100
AcDbLine
 10
282.1323496749823
 20
333.599851081071
 30
0.0
 11
282.1323496749823
 21
339.599851081071
 31
0.0
  0
LINE
  5
27C
330
18
100
AcDbEntity
  8
1
  6
Continuous
100
AcDbLine
 10
313.3535956749824
 20
333.8312390810709
 30
0.0
 11
328.9110996749824
 21
333.8312390810709
 31
0.0
  0
LINE
  5
27D
330
18
100
AcDbEntity
  8
1
  6
Continuous
100
AcDbLine
 10
283.6602136749823
 20
329.599851081071
 30
0.0
 11
358.6044856749823
 21
329.599851081071
 31
0.0
  0
LINE
  5
27E
330
18
100
AcDbEntity
  8
1
  6
Continuous
100
AcDbLine
 10
286.1323496749824
 20
322.599851081071
 30
0.0
 11
356.1323496749823
 21
322.599851081071
 31
0.0
  0
ARC
  5
27F
330
18
100
AcDbEntity
  8
1
  6
Continuous
100
AcDbCircle
 10
324.6323496749823
 20
278.306599081071
 30
0.0
 40
2.5
100
AcDbArc
 50
307.5873230000002
 51
0.000000000000007
  0
ARC
  5
280
330
18
100
AcDbEntity
  8
1
  6
Continuous
100
AcDbCircle
 10
324.6323496749823
 20
318.099851081071
 30
0.0
 40
2.5
100
AcDbArc
 50
0.000000000000007
 51
90.0
  0
LINE
  5
281
330
18
100
AcDbEntity
  8
1
  6
Continuous
100
AcDbLine
 10
354.4323496749824
 20
320.599851081071
 30
0.0
 11
286.1323496749824
 21
320.599851081071
 31
0.0
  0
ARC
  5
282
330
18
100
AcDbEntity
  8
1
  6
Continuous
100
AcDbCircle
 10
321.1323496749823
 20
322.545903081071
 30
0.0
 40
54.562052
100
AcDbArc
 50
270.0
 51
278.2128389999996
  0
LINE
  5
283
330
18
100
AcDbEntity
  8
1
  6
Continuous
100
AcDbLine
 10
265.1616556749824
 20
229.3740830810711
 30
0.0
 11
341.1346596749823
 21
287.854397081071
 31
0.0
  0
LINE
  5
284
330
18
100
AcDbEntity
  8
1
  6
Continuous
100
AcDbLine
 10
334.1323496749823
 20
267.849851081071
 30
0.0
 11
315.1463338722826
 21
267.849851081071
 31
0.0
  0
ARC
  5
285
330
18
100
AcDbEntity
  8
1
  6
Continuous
100
AcDbCircle
 10
352.9212496749824
 20
295.099851081071
 30
0.0
 40
6.0
100
AcDbArc
 50
270.0
 51
0.000000000000007
  0
LINE
  5
286
330
18
100
AcDbEntity
  8
1
  6
Continuous
100
AcDbLine
 10
327.1323496749823
 20
278.306599081071
 30
0.0
 11
327.1323496749823
 21
318.099851081071
 31
0.0
  0
ARC
  5
287
330
18
100
AcDbEntity
  8
1
  6
Continuous
100
AcDbCircle
 10
354.4323496749824
 20
295.099851081071
 30
0.0
 40
6.0
100
AcDbArc
 50
270.0
 51
0.000000000000007
  0
LINE
  5
288
330
18
100
AcDbEntity
  8
1
  6
Continuous
100
AcDbLine
 10
334.1323496749824
 20
267.849851081071
 30
0.0
 11
336.7208056749823
 21
268.543425081071
 31
0.0
  0
ARC
  5
289
330
18
100
AcDbEntity
  8
1
  6
Continuous
100
AcDbCircle
 10
344.7944776749824
 20
283.099851081071
 30
0.0
 40
6.0
100
AcDbArc
 50
90.0
 51
127.5873230000002
  0
LINE
  5
28A
330
18
100
AcDbEntity
  8
1
  6
Continuous
100
AcDbLine
 10
344.6323496749823
 20
288.049851081071
 30
0.0
 11
341.4036816749824
 21
288.049851081071
 31
0.0
  0
LINE
  5
28B
330
18
100
AcDbEntity
  8
1
  6
Continuous
100
AcDbLine
 10
344.6323496749822
 20
288.049851081071
 30
0.0
 11
341.6301276749824
 21
282.849851081071
 31
0.0
  0
LINE
  5
28C
330
18
100
AcDbEntity
  8
1
  6
Continuous
100
AcDbLine
 10
354.4323496749824
 20
289.099851081071
 30
0.0
 11
344.7944776749824
 21
289.099851081071
 31
0.0
  0
LINE
  5
28D
330
18
100
AcDbEntity
  8
1
  6
Continuous
100
AcDbLine
 10
338.1323496749824
 20
278.849851081071
 30
0.0
 11
338.1323496749824
 21
281.849851081071
 31
0.0
  0
LINE
  5
28E
330
18
100
AcDbEntity
  8
1
  6
Continuous
100
AcDbLine
 10
338.1323496749824
 20
278.849851081071
 30
0.0
 11
329.4366616749824
 21
278.849851081071
 31
0.0
  0
ARC
  5
28F
330
18
100
AcDbEntity
  8
1
  6
Continuous
100
AcDbCircle
 10
332.8236916749823
 20
281.834203081071
 30
0.0
 40
13.850354
100
AcDbArc
 50
253.6578390000003
 51
283.6578390000005
  0
LINE
  5
290
330
18
100
AcDbEntity
  8
1
  6
Continuous
100
AcDbLine
 10
336.7208056749824
 20
268.543425081071
 30
0.0
 11
336.7208056749824
 21
278.849851081071
 31
0.0
  0
LINE
  5
291
330
18
100
AcDbEntity
  8
1
  6
Continuous
100
AcDbLine
 10
328.9265776749823
 20
268.543425081071
 30
0.0
 11
328.9265776749823
 21
278.457213081071
 31
0.0
  0
LINE
  5
292
330
18
100
AcDbEntity
  8
1
  6
Continuous
100
AcDbLine
 10
339.8980776749823
 20
281.849851081071
 30
0.0
 11
333.3340256749824
 21
281.849851081071
 31
0.0
  0
ARC
  5
293
330
18
100
AcDbEntity
  8
1
  6
Continuous
100
AcDbCircle
 10
339.8980776749823
 20
283.849851081071
 30
0.0
 40
2.0
100
AcDbArc
 50
270.0
 51
330.0000000000002
  0
ARC
  5
294
330
18
100
AcDbEntity
  8
1
  6
Continuous
100
AcDbCircle
 10
354.1323496749823
 20
333.599851081071
 30
0.0
 40
6.0
100
AcDbArc
 50
318.1896849999999
 51
0.000000000000007
  0
ARC
  5
295
330
18
100
AcDbEntity
  8
1
  6
Continuous
100
AcDbCircle
 10
352.9212496749824
 20
314.599851081071
 30
0.0
 40
6.0
100
AcDbArc
 50
0.000000000000007
 51
90.0
  0
ARC
  5
296
330
18
100
AcDbEntity
  8
1
  6
Continuous
100
AcDbCircle
 10
354.4323496749824
 20
314.599851081071
 30
0.0
 40
6.0
100
AcDbArc
 50
0.000000000000007
 51
90.0
  0
LINE
  5
297
330
18
100
AcDbEntity
  8
1
  6
Continuous
100
AcDbLine
 10
360.4323496749824
 20
295.099851081071
 30
0.0
 11
360.4323496749824
 21
314.599851081071
 31
0.0
  0
LINE
  5
298
330
18
100
AcDbEntity
  8
1
  6
Continuous
100
AcDbLine
 10
358.9212496749825
 20
295.099851081071
 30
0.0
 11
358.9212496749825
 21
314.599851081071
 31
0.0
  0
LINE
  5
299
330
18
100
AcDbEntity
  8
1
  6
Continuous
100
AcDbLine
 10
356.1323496749823
 20
329.599851081071
 30
0.0
 11
356.1323496749823
 21
322.599851081071
 31
0.0
  0
LINE
  5
29A
330
18
100
AcDbEntity
  8
1
  6
Continuous
100
AcDbLine
 10
347.1323496749823
 20
320.599851081071
 30
0.0
 11
347.1323496749823
 21
321.999851081071
 31
0.0
  0
ARC
  5
29B
330
18
100
AcDbEntity
  8
1
  6
Continuous
100
AcDbCircle
 10
346.5323496749823
 20
321.999851081071
 30
0.0
 40
0.6
100
AcDbArc
 50
0.000000000000007
 51
90.0
  0
ARC
  5
29C
330
18
100
AcDbEntity
  8
1
  6
Continuous
100
AcDbCircle
 10
330.4110996749824
 20
334.8312390810709
 30
0.0
 40
1.0
100
AcDbArc
 50
180.0
 51
270.0
  0
LINE
  5
29E
330
18
100
AcDbEntity
  8
4
  6
CENTER
100
AcDbLine
 10
251.1323496749823
 20
192.599851081071
 30
0.0
 11
251.1323496749823
 21
302.599851081071
 31
0.0
  0
CIRCLE
  5
29F
330
18
100
AcDbEntity
  8
1
  6
Continuous
100
AcDbCircle
 10
251.1323496749823
 20
247.599851081071
 30
0.0
 40
11.5
  0
CIRCLE
  5
2A0
330
18
100
AcDbEntity
  8
1
  6
Continuous
100
AcDbCircle
 10
251.1323496749823
 20
247.599851081071
 30
0.0
 40
12.0
  0
ARC
  5
2A1
330
18
100
AcDbEntity
  8
1
  6
Continuous
100
AcDbCircle
 10
251.1323496749823
 20
247.599851081071
 30
0.0
 40
24.0
100
AcDbArc
 50
122.9597639999992
 51
324.1851650000003
  0
ARC
  5
2A2
330
18
100
AcDbEntity
  8
1
  6
Continuous
100
AcDbCircle
 10
251.1323496749823
 20
247.599851081071
 30
0.0
 40
50.0
100
AcDbArc
 50
77.3308489999999
 51
10.20021500000017
  0
ARC
  5
2A3
330
18
100
AcDbEntity
  8
1
  6
Continuous
100
AcDbCircle
 10
251.1323496749823
 20
247.599851081071
 30
0.0
 40
23.0
100
AcDbArc
 50
139.5576059999998
 51
307.5873230000002
  0
LINE
  5
2AA
330
18
100
AcDbEntity
  8
4
  6
CENTER
100
AcDbLine
 10
306.1323496749825
 20
247.599851081071
 30
0.0
 11
196.1323496749823
 21
247.599851081071
 31
0.0
  0
LINE
  5
2AB
330
18
100
AcDbEntity
  8
1
  6
Continuous
100
AcDbLine
 10
233.6280036749823
 20
262.519563081071
 30
0.0
 11
280.7368096749822
 21
317.7893150810711
 31
0.0
  0
ARC
  5
2B7
330
18
100
AcDbEntity
  8
1
  6
Continuous
100
AcDbCircle
 10
321.1323496749823
 20
322.545903081071
 30
0.0
 40
54.562052
100
AcDbArc
 50
264.2604309999997
 51
270.0
  0
ARC
  5
2F2
330
18
100
AcDbEntity
  8
1
  6
Continuous
100
AcDbCircle
 10
311.8535956749824
 20
334.8312390810709
 30
0.0
 40
1.0
100
AcDbArc
 50
270.0
 51
0.000000000000007
  0
LINE
  5
2F3
330
18
100
AcDbEntity
  8
1
  6
Continuous
100
AcDbLine
 10
295.1323496749825
 20
320.599851081071
 30
0.0
 11
295.1323496749825
 21
321.999851081071
 31
0.0
  0
ARC
  5
2F4
330
18
100
AcDbEntity
  8
1
  6
Continuous
100
AcDbCircle
 10
295.7323496749824
 20
321.999851081071
 30
0.0
 40
0.6
100
AcDbArc
 50
90.0
 51
180.0
  0
LINE
  5
2F7
330
18
100
AcDbEntity
  8
1
  6
Continuous
100
AcDbLine
 10
286.1323496749824
 20
329.599851081071
 30
0.0
 11
286.1323496749824
 21
322.599851081071
 31
0.0
  0
ARC
  5
2F8
330
18
100
AcDbEntity
  8
1
  6
Continuous
100
AcDbCircle
 10
286.8252776749823
 20
312.599851081071
 30
0.0
 40
8.0
100
AcDbArc
 50
90.0
 51
139.5576059999998
  0
ARC
  5
2F9
330
18
100
AcDbEntity
  8
1
  6
Continuous
100
AcDbCircle
 10
286.1323496749824
 20
317.599851081071
 30
0.0
 40
3.0
100
AcDbArc
 50
90.0
 51
110.8110110000005
  0
ARC
  5
2FA
330
18
100
AcDbEntity
  8
1
  6
Continuous
100
AcDbCircle
 10
288.1323496749824
 20
333.599851081071
 30
0.0
 40
6.0
100
AcDbArc
 50
180.0
 51
221.810315
  0
LINE
  5
303
330
18
100
AcDbEntity
  8
4
  6
CENTER
100
AcDbLine
 10
376.9430136749823
 20
453.5455414484125
 30
0.0
 11
195.8556416749823
 21
453.5455414484125
 31
0.0
  0
LINE
  5
304
330
18
100
AcDbEntity
  8
1
  6
Continuous
100
AcDbLine
 10
334.1096656749824
 20
461.0379974484126
 30
0.0
 11
322.9621656749824
 21
454.6019854484127
 31
0.0
  0
LINE
  5
305
330
18
100
AcDbEntity
  8
1
  6
Continuous
100
AcDbLine
 10
334.1096656749823
 20
446.0530834484126
 30
0.0
 11
322.9621656749824
 21
452.4890954484126
 31
0.0
  0
ARC
  5
306
330
18
100
AcDbEntity
  8
1
  6
Continuous
100
AcDbCircle
 10
316.2600456749824
 20
446.4782754484126
 30
0.0
 40
10.0
100
AcDbArc
 50
304.9051719999994
 51
350.8337979999998
  0
ARC
  5
307
330
18
100
AcDbEntity
  8
1
  6
Continuous
100
AcDbCircle
 10
329.6889336749824
 20
454.2314474484127
 30
0.0
 40
10.0
100
AcDbArc
 50
249.1662019999992
 51
295.0948280000009
  0
ARC
  5
308
330
18
100
AcDbEntity
  8
1
  6
Continuous
100
AcDbCircle
 10
322.5323496749823
 20
451.1206694484126
 30
0.0
 40
13.0
100
AcDbArc
 50
274.3012219999993
 51
325.698778
  0
LINE
  5
309
330
18
100
AcDbEntity
  8
1
  6
Continuous
100
AcDbLine
 10
331.1323496749823
 20
453.5455414484125
 30
0.0
 11
323.6323496749824
 21
453.5455414484125
 31
0.0
  0
ARC
  5
30A
330
18
100
AcDbEntity
  8
1
  6
Continuous
100
AcDbCircle
 10
329.6889336749824
 20
452.8596334484126
 30
0.0
 40
10.0
100
AcDbArc
 50
64.90517199999904
 51
110.8337980000007
  0
ARC
  5
30B
330
18
100
AcDbEntity
  8
1
  6
Continuous
100
AcDbCircle
 10
316.2600456749824
 20
460.6128054484123
 30
0.0
 40
10.0
100
AcDbArc
 50
9.166202000000144
 51
55.0948280000005
  0
ARC
  5
30C
330
18
100
AcDbEntity
  8
1
  6
Continuous
100
AcDbCircle
 10
322.5323496749823
 20
455.9704114484127
 30
0.0
 40
13.0
100
AcDbArc
 50
34.30122200000001
 51
85.69877800000066
  0
LINE
  5
30D
330
18
100
AcDbEntity
  8
1
  6
Continuous
100
AcDbLine
 10
328.6658336749824
 20
347.399851081071
 30
0.0
 11
313.5988636749823
 21
347.399851081071
 31
0.0
  0
LINE
  5
30E
330
18
100
AcDbEntity
  8
1
  6
Continuous
100
AcDbLine
 10
327.3823496749823
 20
341.250833081071
 30
0.0
 11
314.8823496749823
 21
341.250833081071
 31
0.0
  0
LINE
  5
30F
330
18
100
AcDbEntity
  8
1
  6
Continuous
100
AcDbLine
 10
327.3823536749824
 20
345.396021081071
 30
0.0
 11
314.8823456749823
 21
345.396021081071
 31
0.0
  0
CIRCLE
  5
310
330
18
100
AcDbEntity
  8
1
  6
Continuous
100
AcDbCircle
 10
321.1323496749823
 20
453.5455414484125
 30
0.0
 40
34.0
  0
CIRCLE
  5
311
330
18
100
AcDbEntity
  8
1
  6
Continuous
100
AcDbCircle
 10
321.1323496749823
 20
453.5455414484125
 30
0.0
 40
26.0
  0
LINE
  5
312
330
18
100
AcDbEntity
  8
1
  6
Continuous
100
AcDbLine
 10
282.1323496749823
 20
503.5455414484125
 30
0.0
 11
360.1323496749823
 21
503.5455414484125
 31
0.0
  0
LINE
  5
313
330
18
100
AcDbEntity
  8
1
  6
Continuous
100
AcDbLine
 10
360.1323496749823
 20
403.5455414484125
 30
0.0
 11
282.1323496749823
 21
403.5455414484125
 31
0.0
  0
LINE
  5
314
330
18
100
AcDbEntity
  8
1
  6
Continuous
100
AcDbLine
 10
371.1323496749823
 20
492.5455414484126
 30
0.0
 11
371.1323496749823
 21
414.5455414484127
 31
0.0
  0
LINE
  5
315
330
18
100
AcDbEntity
  8
1
  6
Continuous
100
AcDbLine
 10
371.1323496749823
 20
347.599851081071
 30
0.0
 11
329.5823496749824
 21
347.599851081071
 31
0.0
  0
LINE
  5
316
330
18
100
AcDbEntity
  8
1
  6
Continuous
100
AcDbLine
 10
329.4111036749824
 20
342.599851081071
 30
0.0
 11
371.1323496749823
 21
342.599851081071
 31
0.0
  0
LINE
  5
317
330
18
100
AcDbEntity
  8
1
  6
Continuous
100
AcDbLine
 10
371.1323496749823
 20
347.599851081071
 30
0.0
 11
371.1323496749823
 21
341.250833081071
 31
0.0
  0
ARC
  5
318
330
18
100
AcDbEntity
  8
1
  6
Continuous
100
AcDbCircle
 10
363.1323496749824
 20
339.599851081071
 30
0.0
 40
3.0
100
AcDbArc
 50
90.0
 51
180.0
  0
ARC
  5
319
330
18
100
AcDbEntity
  8
1
  6
Continuous
100
AcDbCircle
 10
327.3823496749823
 20
343.450833081071
 30
0.0
 40
2.2
100
AcDbArc
 50
270.0
 51
337.2438189999998
  0
ARC
  5
31A
330
18
100
AcDbEntity
  8
1
  6
Continuous
100
AcDbCircle
 10
329.5823496749824
 20
345.399851081071
 30
0.0
 40
2.2
100
AcDbArc
 50
90.0
 51
180.099725
  0
LINE
  5
31B
330
18
100
AcDbEntity
  8
4
  6
CENTER
100
AcDbLine
 10
368.3823496749823
 20
414.5455414484127
 30
0.0
 11
351.8823496749823
 21
414.5455414484127
 31
0.0
  0
CIRCLE
  5
31C
330
18
100
AcDbEntity
  8
1
  6
Continuous
100
AcDbCircle
 10
360.1323496749823
 20
414.5455414484127
 30
0.0
 40
5.25
  0
LINE
  5
31D
330
18
100
AcDbEntity
  8
4
  6
CENTER
100
AcDbLine
 10
360.1323496749823
 20
406.2955414484126
 30
0.0
 11
360.1323496749823
 21
422.7955414484126
 31
0.0
  0
ARC
  5
31E
330
18
100
AcDbEntity
  8
1
  6
Continuous
100
AcDbCircle
 10
360.1323496749823
 20
414.5455414484127
 30
0.0
 40
11.0
100
AcDbArc
 50
270.0
 51
0.000000000000007
  0
LINE
  5
31F
330
18
100
AcDbEntity
  8
1
  6
Continuous
100
AcDbLine
 10
327.3823496749823
 20
403.5455414484125
 30
0.0
 11
327.3823496749823
 21
415.4674954484126
 31
0.0
  0
ARC
  5
320
330
18
100
AcDbEntity
  8
1
  6
Continuous
100
AcDbCircle
 10
333.3823496749823
 20
415.4674954484126
 30
0.0
 40
6.0
100
AcDbArc
 50
107.8333829999992
 51
180.0
  0
ARC
  5
321
330
18
100
AcDbEntity
  8
1
  6
Continuous
100
AcDbCircle
 10
359.2103936749823
 20
441.2955414484127
 30
0.0
 40
6.0
100
AcDbArc
 50
90.0
 51
162.1666169999997
  0
ARC
  5
322
330
18
100
AcDbEntity
  8
1
  6
Continuous
100
AcDbCircle
 10
359.2103936749823
 20
465.7955414484127
 30
0.0
 40
6.0
100
AcDbArc
 50
197.8333830000003
 51
270.0
  0
LINE
  5
323
330
18
100
AcDbEntity
  8
1
  6
Continuous
100
AcDbLine
 10
371.1323496749823
 20
447.2955414484125
 30
0.0
 11
359.2103936749823
 21
447.2955414484125
 31
0.0
  0
LINE
  5
324
330
18
100
AcDbEntity
  8
1
  6
Continuous
100
AcDbLine
 10
371.1323496749823
 20
459.7955414484125
 30
0.0
 11
359.2103936749823
 21
459.7955414484125
 31
0.0
  0
ARC
  5
325
330
18
100
AcDbEntity
  8
1
  6
Continuous
100
AcDbCircle
 10
324.8166296749824
 20
461.2987114484126
 30
0.0
 40
10.0
100
AcDbArc
 50
309.1662020000003
 51
355.0948279999997
  0
ARC
  5
326
330
18
100
AcDbEntity
  8
1
  6
Continuous
100
AcDbCircle
 10
323.9323496749823
 20
453.5455414484125
 30
0.0
 40
13.0
100
AcDbArc
 50
334.3012220000001
 51
25.69877799999983
  0
ARC
  5
327
330
18
100
AcDbEntity
  8
1
  6
Continuous
100
AcDbCircle
 10
329.1410396749824
 20
446.6123194484127
 30
0.0
 40
5.0
100
AcDbArc
 50
325.698778
 51
353.5781779999999
  0
ARC
  5
328
330
18
100
AcDbEntity
  8
1
  6
Continuous
100
AcDbCircle
 10
324.8166296749824
 20
445.7923694484127
 30
0.0
 40
10.0
100
AcDbArc
 50
4.90517200000033
 51
50.83379799999964
  0
ARC
  5
329
330
18
100
AcDbEntity
  8
1
  6
Continuous
100
AcDbCircle
 10
331.1410396749824
 20
450.0764214484124
 30
0.0
 40
5.0
100
AcDbArc
 50
306.4218219999994
 51
334.3012220000001
  0
ARC
  5
32A
330
18
100
AcDbEntity
  8
1
  6
Continuous
100
AcDbCircle
 10
331.1410396749824
 20
457.0146594484127
 30
0.0
 40
5.0
100
AcDbArc
 50
25.69877799999983
 51
53.57817800000056
  0
ARC
  5
32B
330
18
100
AcDbEntity
  8
1
  6
Continuous
100
AcDbCircle
 10
329.1410396749824
 20
460.4787614484126
 30
0.0
 40
5.0
100
AcDbArc
 50
6.42182200000012
 51
34.30122200000001
  0
LINE
  5
32C
330
18
100
AcDbEntity
  8
4
  6
CENTER
100
AcDbLine
 10
368.3823496749823
 20
492.5455414484126
 30
0.0
 11
351.8823496749823
 21
492.5455414484126
 31
0.0
  0
CIRCLE
  5
32D
330
18
100
AcDbEntity
  8
1
  6
Continuous
100
AcDbCircle
 10
360.1323496749823
 20
492.5455414484126
 30
0.0
 40
5.25
  0
ARC
  5
32E
330
18
100
AcDbEntity
  8
1
  6
Continuous
100
AcDbCircle
 10
360.1323496749823
 20
492.5455414484126
 30
0.0
 40
11.0
100
AcDbArc
 50
0.000000000000007
 51
90.0
  0
LINE
  5
32F
330
18
100
AcDbEntity
  8
4
  6
CENTER
100
AcDbLine
 10
360.1323496749823
 20
484.2955414484126
 30
0.0
 11
360.1323496749823
 21
500.7955414484126
 31
0.0
  0
LINE
  5
330
330
18
100
AcDbEntity
  8
1
  6
Continuous
100
AcDbLine
 10
327.3823496749823
 20
503.5455414484125
 30
0.0
 11
327.3823496749823
 21
491.6235854484127
 31
0.0
  0
ARC
  5
331
330
18
100
AcDbEntity
  8
1
  6
Continuous
100
AcDbCircle
 10
333.3823496749823
 20
491.6235854484127
 30
0.0
 40
6.0
100
AcDbArc
 50
180.0
 51
252.1666170000007
  0
LINE
  5
333
330
18
100
AcDbEntity
  8
4
  6
CENTER
100
AcDbLine
 10
321.1323496749823
 20
394.8690809934225
 30
0.0
 11
321.1323496749823
 21
512.2220019034029
 31
0.0
  0
LINE
  5
334
330
18
100
AcDbEntity
  8
4
  6
CENTER
100
AcDbLine
 10
251.1323496749823
 20
404.1702994484126
 30
0.0
 11
251.1323496749823
 21
502.5113494484127
 31
0.0
  0
LINE
  5
335
330
18
100
AcDbEntity
  8
1
  6
Continuous
100
AcDbLine
 10
271.1323496749823
 20
414.5455414484127
 30
0.0
 11
271.1323496749823
 21
492.5455414484126
 31
0.0
  0
ARC
  5
336
330
18
100
AcDbEntity
  8
1
  6
Continuous
100
AcDbCircle
 10
208.4280576749823
 20
475.5455414484126
 30
0.0
 40
7.0
100
AcDbArc
 50
90.0
 51
175.162079
  0
LINE
  5
338
330
18
100
AcDbEntity
  8
1
  6
Continuous
100
AcDbLine
 10
312.6823496749823
 20
347.599851081071
 30
0.0
 11
271.1323496749823
 21
347.599851081071
 31
0.0
  0
LINE
  5
339
330
18
100
AcDbEntity
  8
1
  6
Continuous
100
AcDbLine
 10
312.8535956749824
 20
342.599851081071
 30
0.0
 11
271.1323496749823
 21
342.599851081071
 31
0.0
  0
ARC
  5
33A
330
18
100
AcDbEntity
  8
1
  6
Continuous
100
AcDbCircle
 10
314.8823456749823
 20
343.450833081071
 30
0.0
 40
2.2
100
AcDbArc
 50
202.7561810000003
 51
270.0
  0
ARC
  5
33B
330
18
100
AcDbEntity
  8
1
  6
Continuous
100
AcDbCircle
 10
312.6823496749823
 20
345.399851081071
 30
0.0
 40
2.2
100
AcDbArc
 50
359.9002749999999
 51
90.0
  0
ARC
  5
33C
330
18
100
AcDbEntity
  8
1
  6
Continuous
100
AcDbCircle
 10
279.1323496749823
 20
339.599851081071
 30
0.0
 40
3.0
100
AcDbArc
 50
0.000000000000007
 51
90.0
  0
LINE
  5
33D
330
18
100
AcDbEntity
  8
1
  6
Continuous
100
AcDbLine
 10
271.1323496749823
 20
347.599851081071
 30
0.0
 11
271.1323496749823
 21
341.250833081071
 31
0.0
  0
LINE
  5
33E
330
18
100
AcDbEntity
  8
1
  6
Continuous
100
AcDbLine
 10
271.8853976749822
 20
410.5455414484127
 30
0.0
 11
231.1323496749823
 21
410.5455414484127
 31
0.0
  0
LINE
  5
33F
330
18
100
AcDbEntity
  8
1
  6
Continuous
100
AcDbLine
 10
264.6323496749823
 20
453.0455414484126
 30
0.0
 11
237.6323496749823
 21
453.0455414484126
 31
0.0
  0
LINE
  5
340
330
18
100
AcDbEntity
  8
1
  6
Continuous
100
AcDbLine
 10
264.6323496749823
 20
454.0455414484126
 30
0.0
 11
237.6323496749823
 21
454.0455414484126
 31
0.0
  0
LINE
  5
341
330
18
100
AcDbEntity
  8
1
  6
Continuous
100
AcDbLine
 10
208.4280576749823
 20
424.5455414484125
 30
0.0
 11
271.1323496749823
 21
424.5455414484125
 31
0.0
  0
LINE
  5
342
330
18
100
AcDbEntity
  8
1
  6
Continuous
100
AcDbLine
 10
271.1323496749823
 20
452.5455414484127
 30
0.0
 11
205.2719976749823
 21
452.5455414484127
 31
0.0
  0
LINE
  5
343
330
18
100
AcDbEntity
  8
1
  6
Continuous
100
AcDbLine
 10
231.1323496749823
 20
422.5455414484127
 30
0.0
 11
271.1323496749823
 21
422.5455414484127
 31
0.0
  0
LINE
  5
344
330
18
100
AcDbEntity
  8
1
  6
Continuous
100
AcDbLine
 10
238.1323496749824
 20
453.5455414484125
 30
0.0
 11
264.1323496749823
 21
453.5455414484125
 31
0.0
  0
LINE
  5
345
330
18
100
AcDbEntity
  8
1
  6
Continuous
100
AcDbLine
 10
271.1323496749823
 20
454.5455414484126
 30
0.0
 11
205.2719976749823
 21
454.5455414484126
 31
0.0
  0
LINE
  5
346
330
18
100
AcDbEntity
  8
1
  6
Continuous
100
AcDbLine
 10
314.8823496749823
 20
403.5455414484125
 30
0.0
 11
314.8823496749823
 21
415.4674954484126
 31
0.0
  0
ARC
  5
347
330
18
100
AcDbEntity
  8
1
  6
Continuous
100
AcDbCircle
 10
308.8823496749824
 20
415.4674954484126
 30
0.0
 40
6.0
100
AcDbArc
 50
0.000000000000007
 51
72.16661700000075
  0
LINE
  5
348
330
18
100
AcDbEntity
  8
4
  6
CENTER
100
AcDbLine
 10
282.1323496749823
 20
406.2955414484126
 30
0.0
 11
282.1323496749823
 21
422.7955414484126
 31
0.0
  0
ARC
  5
349
330
18
100
AcDbEntity
  8
1
  6
Continuous
100
AcDbCircle
 10
282.1323496749823
 20
414.5455414484127
 30
0.0
 40
11.0
100
AcDbArc
 50
180.0
 51
270.0
  0
CIRCLE
  5
34A
330
18
100
AcDbEntity
  8
1
  6
Continuous
100
AcDbCircle
 10
282.1323496749823
 20
414.5455414484127
 30
0.0
 40
5.25
  0
LINE
  5
34B
330
18
100
AcDbEntity
  8
4
  6
CENTER
100
AcDbLine
 10
290.3823496749824
 20
414.5455414484127
 30
0.0
 11
273.8823496749823
 21
414.5455414484127
 31
0.0
  0
ARC
  5
34E
330
18
100
AcDbEntity
  8
1
  6
Continuous
100
AcDbCircle
 10
269.4491336749823
 20
422.7455414484126
 30
0.0
 40
0.2
100
AcDbArc
 50
270.0
 51
350.4058580000001
  0
LINE
  5
34F
330
18
100
AcDbEntity
  8
1
  6
Continuous
100
AcDbLine
 10
270.3003936749823
 20
423.4888334484127
 30
0.0
 11
271.1323496749823
 21
423.7816074484126
 31
0.0
  0
ARC
  5
350
330
18
100
AcDbEntity
  8
1
  6
Continuous
100
AcDbCircle
 10
270.6323496749823
 20
422.5455394484127
 30
0.0
 40
1.0
100
AcDbArc
 50
109.3874720000002
 51
170.4058580000002
  0
LINE
  5
351
330
18
100
AcDbEntity
  8
1
  6
Continuous
100
AcDbLine
 10
321.1323496749823
 20
455.6584294484125
 30
0.0
 11
321.1323496749823
 21
468.5304554484126
 31
0.0
  0
LINE
  5
352
330
18
100
AcDbEntity
  8
1
  6
Continuous
100
AcDbLine
 10
319.3025336749823
 20
454.6019854484127
 30
0.0
 11
308.1550316749822
 21
461.0379974484126
 31
0.0
  0
LINE
  5
353
330
18
100
AcDbEntity
  8
1
  6
Continuous
100
AcDbLine
 10
316.1323496749823
 20
462.2057954484127
 30
0.0
 11
319.8823496749823
 21
455.7106034484127
 31
0.0
  0
ARC
  5
354
330
18
100
AcDbEntity
  8
1
  6
Continuous
100
AcDbCircle
 10
317.4480696749824
 20
461.2987114484126
 30
0.0
 40
10.0
100
AcDbArc
 50
184.9051720000003
 51
230.8337979999996
  0
ARC
  5
355
330
18
100
AcDbEntity
  8
1
  6
Continuous
100
AcDbCircle
 10
318.3323496749824
 20
453.5455414484125
 30
0.0
 40
13.0
100
AcDbArc
 50
154.3012220000001
 51
205.6987779999999
  0
LINE
  5
356
330
18
100
AcDbEntity
  8
1
  6
Continuous
100
AcDbLine
 10
326.1323496749823
 20
462.2057954484127
 30
0.0
 11
322.3823496749823
 21
455.7106034484127
 31
0.0
  0
LINE
  5
357
330
18
100
AcDbEntity
  8
1
  6
Continuous
100
AcDbLine
 10
319.3025336749824
 20
452.4890954484126
 30
0.0
 11
308.1550316749824
 21
446.0530834484126
 31
0.0
  0
ARC
  5
358
330
18
100
AcDbEntity
  8
1
  6
Continuous
100
AcDbCircle
 10
317.4480696749824
 20
445.7923694484127
 30
0.0
 40
10.0
100
AcDbArc
 50
129.1662020000003
 51
175.0948279999995
  0
ARC
  5
359
330
18
100
AcDbEntity
  8
1
  6
Continuous
100
AcDbCircle
 10
312.5757656749823
 20
454.2314474484127
 30
0.0
 40
10.0
100
AcDbArc
 50
244.9051719999991
 51
290.8337980000008
  0
ARC
  5
35A
330
18
100
AcDbEntity
  8
1
  6
Continuous
100
AcDbCircle
 10
319.7323496749824
 20
451.1206694484126
 30
0.0
 40
13.0
100
AcDbArc
 50
214.301222
 51
265.6987780000006
  0
LINE
  5
35B
330
18
100
AcDbEntity
  8
1
  6
Continuous
100
AcDbLine
 10
321.1323496749823
 20
438.5606254484127
 30
0.0
 11
321.1323496749823
 21
451.4326514484126
 31
0.0
  0
ARC
  5
35C
330
18
100
AcDbEntity
  8
1
  6
Continuous
100
AcDbCircle
 10
326.0046536749825
 20
446.4782754484126
 30
0.0
 40
10.0
100
AcDbArc
 50
189.1662020000001
 51
235.0948280000004
  0
ARC
  5
35D
330
18
100
AcDbEntity
  8
1
  6
Continuous
100
AcDbCircle
 10
319.1323496749824
 20
443.1432014484125
 30
0.0
 40
5.0
100
AcDbArc
 50
265.6987780000006
 51
293.5781780000002
  0
ARC
  5
35E
330
18
100
AcDbEntity
  8
1
  6
Continuous
100
AcDbCircle
 10
323.1323496749823
 20
443.1432014484125
 30
0.0
 40
5.0
100
AcDbArc
 50
246.4218219999998
 51
274.3012219999993
  0
LINE
  5
35F
330
18
100
AcDbEntity
  8
1
  6
Continuous
100
AcDbLine
 10
311.1323496749824
 20
453.5455414484125
 30
0.0
 11
318.6323496749823
 21
453.5455414484125
 31
0.0
  0
LINE
  5
360
330
18
100
AcDbEntity
  8
1
  6
Continuous
100
AcDbLine
 10
316.1323496749825
 20
444.8852874484124
 30
0.0
 11
319.8823496749824
 21
451.3804774484125
 31
0.0
  0
ARC
  5
361
330
18
100
AcDbEntity
  8
1
  6
Continuous
100
AcDbCircle
 10
306.3121516749824
 20
444.9890954484126
 30
0.0
 40
15.0
100
AcDbArc
 50
25.21980799999994
 51
34.78019200000019
  0
ARC
  5
362
330
18
100
AcDbEntity
  8
1
  6
Continuous
100
AcDbCircle
 10
321.1323496749823
 20
436.4326514484126
 30
0.0
 40
15.0
100
AcDbArc
 50
85.21980799999955
 51
94.78019200000046
  0
ARC
  5
363
330
18
100
AcDbEntity
  8
1
  6
Continuous
100
AcDbCircle
 10
335.9525456749823
 20
444.9890954484126
 30
0.0
 40
15.0
100
AcDbArc
 50
145.2198079999998
 51
154.780192
  0
ARC
  5
364
330
18
100
AcDbEntity
  8
1
  6
Continuous
100
AcDbCircle
 10
335.9525456749823
 20
462.1019854484126
 30
0.0
 40
15.0
100
AcDbArc
 50
205.2198079999999
 51
214.7801920000002
  0
ARC
  5
365
330
18
100
AcDbEntity
  8
1
  6
Continuous
100
AcDbCircle
 10
321.1323496749823
 20
470.6584294484127
 30
0.0
 40
15.0
100
AcDbArc
 50
265.2198079999995
 51
274.7801920000004
  0
ARC
  5
366
330
18
100
AcDbEntity
  8
1
  6
Continuous
100
AcDbCircle
 10
306.3121516749824
 20
462.1019854484126
 30
0.0
 40
15.0
100
AcDbArc
 50
325.2198079999998
 51
334.7801920000001
  0
LINE
  5
367
330
18
100
AcDbEntity
  8
1
  6
Continuous
100
AcDbLine
 10
326.1323496749823
 20
444.8852874484126
 30
0.0
 11
322.3823496749823
 21
451.3804774484126
 31
0.0
  0
ARC
  5
368
330
18
100
AcDbEntity
  8
1
  6
Continuous
100
AcDbCircle
 10
313.1236596749823
 20
446.6123194484127
 30
0.0
 40
5.0
100
AcDbArc
 50
186.4218220000001
 51
214.301222
  0
ARC
  5
369
330
18
100
AcDbEntity
  8
1
  6
Continuous
100
AcDbCircle
 10
311.1236596749823
 20
450.0764214484124
 30
0.0
 40
5.0
100
AcDbArc
 50
205.6987779999999
 51
233.5781780000006
  0
ARC
  5
36A
330
18
100
AcDbEntity
  8
1
  6
Continuous
100
AcDbCircle
 10
312.5757656749823
 20
452.8596334484126
 30
0.0
 40
10.0
100
AcDbArc
 50
69.16620199999923
 51
115.0948280000009
  0
ARC
  5
36B
330
18
100
AcDbEntity
  8
1
  6
Continuous
100
AcDbCircle
 10
319.7323496749824
 20
455.9704114484127
 30
0.0
 40
13.0
100
AcDbArc
 50
94.30122199999932
 51
145.698778
  0
ARC
  5
36C
330
18
100
AcDbEntity
  8
1
  6
Continuous
100
AcDbCircle
 10
326.0046536749825
 20
460.6128054484123
 30
0.0
 40
10.0
100
AcDbArc
 50
124.9051719999995
 51
170.8337979999998
  0
ARC
  5
36D
330
18
100
AcDbEntity
  8
1
  6
Continuous
100
AcDbCircle
 10
319.1323496749824
 20
463.9478794484126
 30
0.0
 40
5.0
100
AcDbArc
 50
66.42182199999983
 51
94.30122199999932
  0
ARC
  5
36E
330
18
100
AcDbEntity
  8
1
  6
Continuous
100
AcDbCircle
 10
323.1323496749823
 20
463.9478794484126
 30
0.0
 40
5.0
100
AcDbArc
 50
85.69877800000066
 51
113.5781780000001
  0
ARC
  5
36F
330
18
100
AcDbEntity
  8
1
  6
Continuous
100
AcDbCircle
 10
313.1236596749823
 20
460.4787614484126
 30
0.0
 40
5.0
100
AcDbArc
 50
145.698778
 51
173.5781779999999
  0
ARC
  5
370
330
18
100
AcDbEntity
  8
1
  6
Continuous
100
AcDbCircle
 10
311.1236596749823
 20
457.0146594484127
 30
0.0
 40
5.0
100
AcDbArc
 50
126.4218219999994
 51
154.3012220000001
  0
LINE
  5
371
330
18
100
AcDbEntity
  8
1
  6
Continuous
100
AcDbLine
 10
271.1323496749823
 20
447.2955414484125
 30
0.0
 11
283.0543036749824
 21
447.2955414484125
 31
0.0
  0
ARC
  5
372
330
18
100
AcDbEntity
  8
1
  6
Continuous
100
AcDbCircle
 10
283.0543036749824
 20
441.2955414484127
 30
0.0
 40
6.0
100
AcDbArc
 50
17.8333830000003
 51
90.0
  0
LINE
  5
373
330
18
100
AcDbEntity
  8
1
  6
Continuous
100
AcDbLine
 10
264.1323496749825
 20
453.5455414484125
 30
0.0
 11
264.6323496749823
 21
453.0455414484126
 31
0.0
  0
LINE
  5
374
330
18
100
AcDbEntity
  8
1
  6
Continuous
100
AcDbLine
 10
264.6323496749823
 20
453.0455414484126
 30
0.0
 11
264.6323496749823
 21
452.5455414484127
 31
0.0
  0
LINE
  5
375
330
18
100
AcDbEntity
  8
1
  6
Continuous
100
AcDbLine
 10
264.1323496749823
 20
453.5455414484125
 30
0.0
 11
264.6323496749823
 21
454.0455414484124
 31
0.0
  0
LINE
  5
376
330
18
100
AcDbEntity
  8
1
  6
Continuous
100
AcDbLine
 10
264.6323496749823
 20
454.0455414484126
 30
0.0
 11
264.6323496749823
 21
454.5455414484126
 31
0.0
  0
LINE
  5
377
330
18
100
AcDbEntity
  8
1
  6
Continuous
100
AcDbLine
 10
271.1323496749823
 20
459.7955414484125
 30
0.0
 11
283.0543036749824
 21
459.7955414484125
 31
0.0
  0
ARC
  5
378
330
18
100
AcDbEntity
  8
1
  6
Continuous
100
AcDbCircle
 10
283.0543036749824
 20
465.7955414484127
 30
0.0
 40
6.0
100
AcDbArc
 50
270.0
 51
342.1666169999996
  0
ARC
  5
379
330
18
100
AcDbEntity
  8
1
  6
Continuous
100
AcDbCircle
 10
291.1323496749825
 20
438.5455414484126
 30
0.0
 40
90.0
100
AcDbArc
 50
173.0278269999997
 51
184.8379209999999
  0
ARC
  5
37A
330
18
100
AcDbEntity
  8
1
  6
Continuous
100
AcDbCircle
 10
231.1323496749823
 20
419.5455414484126
 30
0.0
 40
3.0
100
AcDbArc
 50
90.0
 51
180.0
  0
ARC
  5
37B
330
18
100
AcDbEntity
  8
1
  6
Continuous
100
AcDbCircle
 10
231.1323496749823
 20
413.5455414484126
 30
0.0
 40
3.0
100
AcDbArc
 50
180.0
 51
270.0
  0
LINE
  5
37C
330
18
100
AcDbEntity
  8
1
  6
Continuous
100
AcDbLine
 10
228.1323496749823
 20
419.5455414484126
 30
0.0
 11
228.1323496749823
 21
413.5455414484126
 31
0.0
  0
ARC
  5
37D
330
18
100
AcDbEntity
  8
1
  6
Continuous
100
AcDbCircle
 10
232.8155656749824
 20
422.7455414484126
 30
0.0
 40
0.2
100
AcDbArc
 50
189.5941419999997
 51
270.0
  0
LINE
  5
37E
330
18
100
AcDbEntity
  8
1
  6
Continuous
100
AcDbLine
 10
231.9643036749823
 20
423.4888334484127
 30
0.0
 11
228.9615296749823
 21
424.5455414484125
 31
0.0
  0
ARC
  5
37F
330
18
100
AcDbEntity
  8
1
  6
Continuous
100
AcDbCircle
 10
231.6323496749823
 20
422.5455394484127
 30
0.0
 40
1.0
100
AcDbArc
 50
9.594141999999783
 51
70.61252799999976
  0
ARC
  5
380
330
18
100
AcDbEntity
  8
1
  6
Continuous
100
AcDbCircle
 10
208.4280576749823
 20
431.5455414484127
 30
0.0
 40
7.0
100
AcDbArc
 50
184.8379209999999
 51
270.0
  0
LINE
  5
381
330
18
100
AcDbEntity
  8
1
  6
Continuous
100
AcDbLine
 10
238.1323496749824
 20
453.5455414484125
 30
0.0
 11
237.6323496749823
 21
453.0455414484126
 31
0.0
  0
LINE
  5
382
330
18
100
AcDbEntity
  8
1
  6
Continuous
100
AcDbLine
 10
237.6323496749823
 20
453.0455414484126
 30
0.0
 11
237.6323496749823
 21
452.5455414484127
 31
0.0
  0
LINE
  5
383
330
18
100
AcDbEntity
  8
1
  6
Continuous
100
AcDbLine
 10
238.1323496749824
 20
453.5455414484125
 30
0.0
 11
237.6323496749823
 21
454.0455414484124
 31
0.0
  0
LINE
  5
384
330
18
100
AcDbEntity
  8
1
  6
Continuous
100
AcDbLine
 10
237.6323496749823
 20
454.0455414484126
 30
0.0
 11
237.6323496749823
 21
454.5455414484126
 31
0.0
  0
ARC
  5
385
330
18
100
AcDbEntity
  8
1
  6
Continuous
100
AcDbCircle
 10
205.2719976749823
 20
458.0455414484126
 30
0.0
 40
3.5
100
AcDbArc
 50
186.9721730000002
 51
270.0
  0
ARC
  5
386
330
18
100
AcDbEntity
  8
1
  6
Continuous
100
AcDbCircle
 10
205.2719976749823
 20
449.0455414484125
 30
0.0
 40
3.5
100
AcDbArc
 50
90.0
 51
173.0278269999997
  0
ARC
  5
387
330
18
100
AcDbEntity
  8
1
  6
Continuous
100
AcDbCircle
 10
291.1323496749825
 20
468.5455414484127
 30
0.0
 40
90.0
100
AcDbArc
 50
175.162079
 51
186.9721730000002
  0
LINE
  5
388
330
18
100
AcDbEntity
  8
1
  6
Continuous
100
AcDbLine
 10
271.8853976749822
 20
496.5455414484126
 30
0.0
 11
231.1323496749823
 21
496.5455414484126
 31
0.0
  0
LINE
  5
389
330
18
100
AcDbEntity
  8
1
  6
Continuous
100
AcDbLine
 10
208.4280576749823
 20
482.5455414484125
 30
0.0
 11
271.1323496749823
 21
482.5455414484125
 31
0.0
  0
LINE
  5
38A
330
18
100
AcDbEntity
  8
1
  6
Continuous
100
AcDbLine
 10
231.1323496749823
 20
484.5455414484127
 30
0.0
 11
271.1323496749823
 21
484.5455414484127
 31
0.0
  0
LINE
  5
38B
330
18
100
AcDbEntity
  8
1
  6
Continuous
100
AcDbLine
 10
314.8823496749823
 20
503.5455414484125
 30
0.0
 11
314.8823496749823
 21
491.6235854484127
 31
0.0
  0
ARC
  5
38C
330
18
100
AcDbEntity
  8
1
  6
Continuous
100
AcDbCircle
 10
308.8823496749824
 20
491.6235854484127
 30
0.0
 40
6.0
100
AcDbArc
 50
287.8333829999992
 51
0.000000000000007
  0
ARC
  5
38D
330
18
100
AcDbEntity
  8
1
  6
Continuous
100
AcDbCircle
 10
282.1323496749823
 20
492.5455414484126
 30
0.0
 40
11.0
100
AcDbArc
 50
90.0
 51
180.0
  0
LINE
  5
38E
330
18
100
AcDbEntity
  8
4
  6
CENTER
100
AcDbLine
 10
290.3823496749824
 20
492.5455414484126
 30
0.0
 11
273.8823496749823
 21
492.5455414484126
 31
0.0
  0
CIRCLE
  5
38F
330
18
100
AcDbEntity
  8
1
  6
Continuous
100
AcDbCircle
 10
282.1323496749823
 20
492.5455414484126
 30
0.0
 40
5.25
  0
LINE
  5
390
330
18
100
AcDbEntity
  8
4
  6
CENTER
100
AcDbLine
 10
282.1323496749823
 20
484.2955414484126
 30
0.0
 11
282.1323496749823
 21
500.7955414484126
 31
0.0
  0
ARC
  5
393
330
18
100
AcDbEntity
  8
1
  6
Continuous
100
AcDbCircle
 10
269.4491336749823
 20
484.3455414484126
 30
0.0
 40
0.2
100
AcDbArc
 50
9.594141999999783
 51
90.0
  0
LINE
  5
394
330
18
100
AcDbEntity
  8
1
  6
Continuous
100
AcDbLine
 10
270.3003936749823
 20
483.6022474484127
 30
0.0
 11
271.1323496749823
 21
483.3094734484126
 31
0.0
  0
ARC
  5
395
330
18
100
AcDbEntity
  8
1
  6
Continuous
100
AcDbCircle
 10
270.6323496749823
 20
484.5455414484127
 30
0.0
 40
1.0
100
AcDbArc
 50
189.5941419999997
 51
250.6125279999997
  0
ARC
  5
396
330
18
100
AcDbEntity
  8
1
  6
Continuous
100
AcDbCircle
 10
231.1323496749823
 20
487.5455414484126
 30
0.0
 40
3.0
100
AcDbArc
 50
180.0
 51
270.0
  0
ARC
  5
397
330
18
100
AcDbEntity
  8
1
  6
Continuous
100
AcDbCircle
 10
231.1323496749823
 20
493.5455414484127
 30
0.0
 40
3.0
100
AcDbArc
 50
90.0
 51
180.0
  0
LINE
  5
398
330
18
100
AcDbEntity
  8
1
  6
Continuous
100
AcDbLine
 10
228.1323496749823
 20
487.5455414484126
 30
0.0
 11
228.1323496749823
 21
493.5455414484127
 31
0.0
  0
ARC
  5
399
330
18
100
AcDbEntity
  8
1
  6
Continuous
100
AcDbCircle
 10
232.8155656749824
 20
484.3455414484126
 30
0.0
 40
0.2
100
AcDbArc
 50
90.0
 51
170.4058580000002
  0
LINE
  5
39A
330
18
100
AcDbEntity
  8
1
  6
Continuous
100
AcDbLine
 10
231.9643036749823
 20
483.6022474484124
 30
0.0
 11
228.9615296749823
 21
482.5455414484124
 31
0.0
  0
ARC
  5
39B
330
18
100
AcDbEntity
  8
1
  6
Continuous
100
AcDbCircle
 10
231.6323496749823
 20
484.5455414484127
 30
0.0
 40
1.0
100
AcDbArc
 50
289.3874720000002
 51
350.4058580000001
  0
LINE
  5
39D
330
18
100
AcDbEntity
  8
4
  6
CENTER
100
AcDbLine
 10
123.9450731946966
 20
247.599851081071
 30
0.0
 11
26.74120519469659
 21
247.599851081071
 31
0.0
  0
LINE
  5
39E
330
18
100
AcDbEntity
  8
1
  6
Continuous
100
AcDbLine
 10
82.76981519469666
 20
347.399851081071
 30
0.0
 11
67.70284519469658
 21
347.399851081071
 31
0.0
  0
LINE
  5
39F
330
18
100
AcDbEntity
  8
1
  6
Continuous
100
AcDbLine
 10
67.45757719469657
 20
333.8312390810709
 30
0.0
 11
83.01508119469657
 21
333.8312390810709
 31
0.0
  0
LINE
  5
3A0
330
18
100
AcDbEntity
  8
1
  6
Continuous
100
AcDbLine
 10
81.48632919469662
 20
341.250833081071
 30
0.0
 11
68.98632919469662
 21
341.250833081071
 31
0.0
  0
LINE
  5
3A1
330
18
100
AcDbEntity
  8
1
  6
Continuous
100
AcDbLine
 10
81.48633319469661
 20
345.396021081071
 30
0.0
 11
68.98632719469664
 21
345.396021081071
 31
0.0
  0
LINE
  5
3A2
330
18
100
AcDbEntity
  8
1
  6
Continuous
100
AcDbLine
 10
37.76419519469652
 20
329.599851081071
 30
0.0
 11
112.7084651946965
 21
329.599851081071
 31
0.0
  0
LINE
  5
3A3
330
18
100
AcDbEntity
  8
1
  6
Continuous
100
AcDbLine
 10
40.23632919469661
 20
322.599851081071
 30
0.0
 11
110.2363291946966
 21
322.599851081071
 31
0.0
  0
ARC
  5
3A4
330
18
100
AcDbEntity
  8
1
  6
Continuous
100
AcDbCircle
 10
60.23632919469662
 20
287.599851081071
 30
0.0
 40
90.0
100
AcDbArc
 50
265.1620790000001
 51
276.972173
  0
ARC
  5
3A5
330
18
100
AcDbEntity
  8
1
  6
Continuous
100
AcDbCircle
 10
60.23632919469662
 20
207.599851081071
 30
0.0
 40
90.0
100
AcDbArc
 50
83.02782699999989
 51
94.83792099999986
  0
LINE
  5
3A6
330
18
100
AcDbEntity
  8
1
  6
Continuous
100
AcDbLine
 10
35.23632919469662
 20
320.599851081071
 30
0.0
 11
75.23632919469662
 21
320.599851081071
 31
0.0
  0
LINE
  5
3A7
330
18
100
AcDbEntity
  8
4
  6
CENTER
100
AcDbLine
 10
75.23632919469662
 20
351.801149081071
 30
0.0
 11
75.23632919469662
 21
191.730737081071
 31
0.0
  0
LINE
  5
3A8
330
18
100
AcDbEntity
  8
1
  6
Continuous
100
AcDbLine
 10
125.2363291946966
 20
341.250833081071
 30
0.0
 11
114.2363291946966
 21
333.8312390810709
 31
0.0
  0
LINE
  5
3A9
330
18
100
AcDbEntity
  8
1
  6
Continuous
100
AcDbLine
 10
114.2363291946966
 20
333.599851081071
 30
0.0
 11
114.2363291946966
 21
339.599851081071
 31
0.0
  0
LINE
  5
3AA
330
18
100
AcDbEntity
  8
1
  6
Continuous
100
AcDbLine
 10
83.51508119469656
 20
341.809857081071
 30
0.0
 11
83.51508119469656
 21
335.3312390810708
 31
0.0
  0
LINE
  5
3AB
330
18
100
AcDbEntity
  8
1
  6
Continuous
100
AcDbLine
 10
74.73632919469662
 20
261.099851081071
 30
0.0
 11
74.73632919469662
 21
234.099851081071
 31
0.0
  0
LINE
  5
3AC
330
18
100
AcDbEntity
  8
1
  6
Continuous
100
AcDbLine
 10
75.73632919469662
 20
234.099851081071
 30
0.0
 11
75.73632919469662
 21
261.099851081071
 31
0.0
  0
LINE
  5
3AD
330
18
100
AcDbEntity
  8
1
  6
Continuous
100
AcDbLine
 10
74.23632919469662
 20
201.739499081071
 30
0.0
 11
74.23632919469662
 21
293.460201081071
 31
0.0
  0
LINE
  5
3AE
330
18
100
AcDbEntity
  8
1
  6
Continuous
100
AcDbLine
 10
104.2363291946966
 20
204.895557081071
 30
0.0
 11
104.2363291946966
 21
290.304143081071
 31
0.0
  0
LINE
  5
3AF
330
18
100
AcDbEntity
  8
1
  6
Continuous
100
AcDbLine
 10
76.23632919469662
 20
201.739499081071
 30
0.0
 11
76.23632919469662
 21
293.460201081071
 31
0.0
  0
LINE
  5
3B0
330
18
100
AcDbEntity
  8
1
  6
Continuous
100
AcDbLine
 10
106.2363291946966
 20
227.599851081071
 30
0.0
 11
106.2363291946966
 21
312.599851081071
 31
0.0
  0
LINE
  5
3B1
330
18
100
AcDbEntity
  8
1
  6
Continuous
100
AcDbLine
 10
75.23632919469662
 20
234.599851081071
 30
0.0
 11
75.23632919469662
 21
260.599851081071
 31
0.0
  0
LINE
  5
3B2
330
18
100
AcDbEntity
  8
1
  6
Continuous
100
AcDbLine
 10
118.2363291946966
 20
317.599851081071
 30
0.0
 11
118.2363291946966
 21
227.599851081071
 31
0.0
  0
ARC
  5
3B3
330
18
100
AcDbEntity
  8
1
  6
Continuous
100
AcDbCircle
 10
70.73632919469662
 20
201.739499081071
 30
0.0
 40
3.5
100
AcDbArc
 50
276.972173
 51
0.000000000000007
  0
ARC
  5
3B4
330
18
100
AcDbEntity
  8
1
  6
Continuous
100
AcDbCircle
 10
79.73632919469662
 20
201.739499081071
 30
0.0
 40
3.5
100
AcDbArc
 50
180.0
 51
263.0278269999998
  0
ARC
  5
3B5
330
18
100
AcDbEntity
  8
1
  6
Continuous
100
AcDbCircle
 10
97.23632919469665
 20
204.895557081071
 30
0.0
 40
7.0
100
AcDbArc
 50
274.8379209999999
 51
0.000000000000007
  0
ARC
  5
3B6
330
18
100
AcDbEntity
  8
1
  6
Continuous
100
AcDbCircle
 10
90.23632919469662
 20
287.599851081071
 30
0.0
 40
90.0
100
AcDbArc
 50
263.0278269999998
 51
274.8379209999999
  0
LINE
  5
3B7
330
18
100
AcDbEntity
  8
1
  6
Continuous
100
AcDbLine
 10
115.2363291946966
 20
224.599851081071
 30
0.0
 11
109.2363291946966
 21
224.599851081071
 31
0.0
  0
ARC
  5
3B8
330
18
100
AcDbEntity
  8
1
  6
Continuous
100
AcDbCircle
 10
115.2363291946966
 20
227.599851081071
 30
0.0
 40
3.0
100
AcDbArc
 50
270.0
 51
0.000000000000007
  0
ARC
  5
3B9
330
18
100
AcDbEntity
  8
1
  6
Continuous
100
AcDbCircle
 10
106.0363291946965
 20
229.283065081071
 30
0.0
 40
0.2
100
AcDbArc
 50
279.5941419999997
 51
0.000000000000007
  0
LINE
  5
3BA
330
18
100
AcDbEntity
  8
1
  6
Continuous
100
AcDbLine
 10
105.2930371946965
 20
228.431805081071
 30
0.0
 11
104.2363291946966
 21
225.429029081071
 31
0.0
  0
ARC
  5
3BB
330
18
100
AcDbEntity
  8
1
  6
Continuous
100
AcDbCircle
 10
106.2363311946966
 20
228.099851081071
 30
0.0
 40
1.0
100
AcDbArc
 50
99.59414199999978
 51
160.6125279999998
  0
ARC
  5
3BC
330
18
100
AcDbEntity
  8
1
  6
Continuous
100
AcDbCircle
 10
109.2363291946966
 20
227.599851081071
 30
0.0
 40
3.0
100
AcDbArc
 50
180.0
 51
270.0
  0
LINE
  5
3BD
330
18
100
AcDbEntity
  8
1
  6
Continuous
100
AcDbLine
 10
75.23632919469662
 20
234.599851081071
 30
0.0
 11
74.73632919469662
 21
234.099851081071
 31
0.0
  0
LINE
  5
3BE
330
18
100
AcDbEntity
  8
1
  6
Continuous
100
AcDbLine
 10
74.73632919469662
 20
234.099851081071
 30
0.0
 11
74.23632919469662
 21
234.099851081071
 31
0.0
  0
LINE
  5
3BF
330
18
100
AcDbEntity
  8
1
  6
Continuous
100
AcDbLine
 10
75.23632919469662
 20
234.599851081071
 30
0.0
 11
75.73632919469673
 21
234.0998510810709
 31
0.0
  0
LINE
  5
3C0
330
18
100
AcDbEntity
  8
1
  6
Continuous
100
AcDbLine
 10
75.73632919469662
 20
234.099851081071
 30
0.0
 11
76.23632919469662
 21
234.099851081071
 31
0.0
  0
ARC
  5
3C1
330
18
100
AcDbEntity
  8
1
  6
Continuous
100
AcDbCircle
 10
97.23632919469665
 20
290.304143081071
 30
0.0
 40
7.0
100
AcDbArc
 50
0.000000000000007
 51
85.16207900000011
  0
LINE
  5
3C2
330
18
100
AcDbEntity
  8
1
  6
Continuous
100
AcDbLine
 10
105.2930371946965
 20
266.767895081071
 30
0.0
 11
104.2363291946966
 21
269.770671081071
 31
0.0
  0
ARC
  5
3C3
330
18
100
AcDbEntity
  8
1
  6
Continuous
100
AcDbCircle
 10
106.0363291946965
 20
265.9166350810711
 30
0.0
 40
0.2
100
AcDbArc
 50
0.000000000000007
 51
80.40585800000025
  0
ARC
  5
3C4
330
18
100
AcDbEntity
  8
1
  6
Continuous
100
AcDbCircle
 10
106.2363311946966
 20
267.099851081071
 30
0.0
 40
1.0
100
AcDbArc
 50
199.3874720000001
 51
260.4058580000002
  0
ARC
  5
3C5
330
18
100
AcDbEntity
  8
1
  6
Continuous
100
AcDbCircle
 10
101.2363291946966
 20
284.099851081071
 30
0.0
 40
5.0
100
AcDbArc
 50
0.000000000000007
 51
53.22250400000065
  0
LINE
  5
3C6
330
18
100
AcDbEntity
  8
1
  6
Continuous
100
AcDbLine
 10
76.23632919469662
 20
267.849851081071
 30
0.0
 11
74.23632919469662
 21
267.849851081071
 31
0.0
  0
LINE
  5
3C7
330
18
100
AcDbEntity
  8
1
  6
Continuous
100
AcDbLine
 10
75.23632919469662
 20
260.599851081071
 30
0.0
 11
74.73632919469662
 21
261.099851081071
 31
0.0
  0
LINE
  5
3C8
330
18
100
AcDbEntity
  8
1
  6
Continuous
100
AcDbLine
 10
74.73632919469662
 20
261.099851081071
 30
0.0
 11
74.23632919469662
 21
261.099851081071
 31
0.0
  0
LINE
  5
3C9
330
18
100
AcDbEntity
  8
1
  6
Continuous
100
AcDbLine
 10
75.23632919469662
 20
260.599851081071
 30
0.0
 11
75.73632919469662
 21
261.099851081071
 31
0.0
  0
LINE
  5
3CA
330
18
100
AcDbEntity
  8
1
  6
Continuous
100
AcDbLine
 10
75.73632919469662
 20
261.099851081071
 30
0.0
 11
76.23632919469662
 21
261.099851081071
 31
0.0
  0
LINE
  5
3CB
330
18
100
AcDbEntity
  8
1
  6
Continuous
100
AcDbLine
 10
76.23632919469662
 20
278.849851081071
 30
0.0
 11
75.23632919469662
 21
278.849851081071
 31
0.0
  0
ARC
  5
3CC
330
18
100
AcDbEntity
  8
1
  6
Continuous
100
AcDbCircle
 10
81.98632919469662
 20
308.975335081071
 30
0.0
 40
40.991486
100
AcDbArc
 50
260.5220320000004
 51
261.9363540000008
  0
LINE
  5
3CD
330
18
100
AcDbEntity
  8
1
  6
Continuous
100
AcDbLine
 10
74.23632919469662
 20
278.849851081071
 30
0.0
 11
75.23632919469662
 21
278.849851081071
 31
0.0
  0
LINE
  5
3CE
330
18
100
AcDbEntity
  8
1
  6
Continuous
100
AcDbLine
 10
75.23632919469662
 20
268.543425081071
 30
0.0
 11
75.23632919469662
 21
278.849851081071
 31
0.0
  0
ARC
  5
3CF
330
18
100
AcDbEntity
  8
1
  6
Continuous
100
AcDbCircle
 10
68.48632919469662
 20
308.975335081071
 30
0.0
 40
40.991486
100
AcDbArc
 50
278.0636459999991
 51
279.4779679999995
  0
LINE
  5
3D0
330
18
100
AcDbEntity
  8
1
  6
Continuous
100
AcDbLine
 10
74.23632919469662
 20
288.049851081071
 30
0.0
 11
75.23632919469662
 21
288.049851081071
 31
0.0
  0
LINE
  5
3D1
330
18
100
AcDbEntity
  8
1
  6
Continuous
100
AcDbLine
 10
74.23632919469662
 20
281.849851081071
 30
0.0
 11
75.23632919469662
 21
281.849851081071
 31
0.0
  0
LINE
  5
3D2
330
18
100
AcDbEntity
  8
1
  6
Continuous
100
AcDbLine
 10
76.23632919469662
 20
288.049851081071
 30
0.0
 11
75.23632919469662
 21
288.049851081071
 31
0.0
  0
LINE
  5
3D3
330
18
100
AcDbEntity
  8
1
  6
Continuous
100
AcDbLine
 10
76.23632919469662
 20
281.849851081071
 30
0.0
 11
75.23632919469662
 21
281.849851081071
 31
0.0
  0
LINE
  5
3D4
330
18
100
AcDbEntity
  8
1
  6
Continuous
100
AcDbLine
 10
74.23632919469662
 20
289.099851081071
 30
0.0
 11
75.23632919469662
 21
289.099851081071
 31
0.0
  0
LINE
  5
3D5
330
18
100
AcDbEntity
  8
1
  6
Continuous
100
AcDbLine
 10
76.23632919469662
 20
289.099851081071
 30
0.0
 11
75.23632919469662
 21
289.099851081071
 31
0.0
  0
ARC
  5
3D6
330
18
100
AcDbEntity
  8
1
  6
Continuous
100
AcDbCircle
 10
98.23632919469662
 20
312.599851081071
 30
0.0
 40
8.0
100
AcDbArc
 50
0.000000000000007
 51
90.0
  0
LINE
  5
3D7
330
18
100
AcDbEntity
  8
1
  6
Continuous
100
AcDbLine
 10
115.2363291946966
 20
320.599851081071
 30
0.0
 11
75.23632919469662
 21
320.599851081071
 31
0.0
  0
LINE
  5
3D8
330
18
100
AcDbEntity
  8
1
  6
Continuous
100
AcDbLine
 10
110.2363291946966
 20
329.599851081071
 30
0.0
 11
110.2363291946966
 21
322.599851081071
 31
0.0
  0
ARC
  5
3D9
330
18
100
AcDbEntity
  8
1
  6
Continuous
100
AcDbCircle
 10
115.2363291946966
 20
317.599851081071
 30
0.0
 40
3.0
100
AcDbArc
 50
0.000000000000007
 51
90.0
  0
ARC
  5
3DA
330
18
100
AcDbEntity
  8
1
  6
Continuous
100
AcDbCircle
 10
108.2363291946966
 20
333.599851081071
 30
0.0
 40
6.0
100
AcDbArc
 50
318.1896849999999
 51
0.000000000000007
  0
ARC
  5
3DB
330
18
100
AcDbEntity
  8
1
  6
Continuous
100
AcDbCircle
 10
90.23632919469662
 20
207.599851081071
 30
0.0
 40
90.0
100
AcDbArc
 50
85.16207900000011
 51
96.97217300000014
  0
ARC
  5
3DC
330
18
100
AcDbEntity
  8
1
  6
Continuous
100
AcDbCircle
 10
79.73632919469662
 20
293.460201081071
 30
0.0
 40
3.5
100
AcDbArc
 50
96.97217300000014
 51
180.0
  0
ARC
  5
3DD
330
18
100
AcDbEntity
  8
1
  6
Continuous
100
AcDbCircle
 10
70.73632919469662
 20
293.460201081071
 30
0.0
 40
3.5
100
AcDbArc
 50
0.000000000000007
 51
83.02782699999989
  0
LINE
  5
3DE
330
18
100
AcDbEntity
  8
1
  6
Continuous
100
AcDbLine
 10
101.2363291946966
 20
321.599851081071
 30
0.0
 11
101.2363291946966
 21
320.599851081071
 31
0.0
  0
ARC
  5
3DF
330
18
100
AcDbEntity
  8
1
  6
Continuous
100
AcDbCircle
 10
100.2363291946966
 20
321.599851081071
 30
0.0
 40
1.0
100
AcDbArc
 50
0.000000000000007
 51
90.0
  0
ARC
  5
3E0
330
18
100
AcDbEntity
  8
1
  6
Continuous
100
AcDbCircle
 10
84.51508119469655
 20
334.8312390810709
 30
0.0
 40
1.0
100
AcDbArc
 50
180.0
 51
270.0
  0
LINE
  5
3E1
330
18
100
AcDbEntity
  8
1
  6
Continuous
100
AcDbLine
 10
125.2363291946966
 20
347.599851081071
 30
0.0
 11
83.68632919469666
 21
347.599851081071
 31
0.0
  0
LINE
  5
3E2
330
18
100
AcDbEntity
  8
1
  6
Continuous
100
AcDbLine
 10
83.51508319469656
 20
342.599851081071
 30
0.0
 11
125.2363291946966
 21
342.599851081071
 31
0.0
  0
LINE
  5
3E3
330
18
100
AcDbEntity
  8
1
  6
Continuous
100
AcDbLine
 10
125.2363291946966
 20
347.599851081071
 30
0.0
 11
125.2363291946966
 21
341.250833081071
 31
0.0
  0
ARC
  5
3E4
330
18
100
AcDbEntity
  8
1
  6
Continuous
100
AcDbCircle
 10
117.2363291946966
 20
339.599851081071
 30
0.0
 40
3.0
100
AcDbArc
 50
90.0
 51
180.0
  0
ARC
  5
3E5
330
18
100
AcDbEntity
  8
1
  6
Continuous
100
AcDbCircle
 10
81.48632919469662
 20
343.450833081071
 30
0.0
 40
2.2
100
AcDbArc
 50
270.0
 51
337.2438189999998
  0
ARC
  5
3E6
330
18
100
AcDbEntity
  8
1
  6
Continuous
100
AcDbCircle
 10
83.68632919469666
 20
345.399851081071
 30
0.0
 40
2.2
100
AcDbArc
 50
90.0
 51
180.099725
  0
LINE
  5
3E7
330
18
100
AcDbEntity
  8
1
  6
Continuous
100
AcDbLine
 10
66.95757719469657
 20
341.809857081071
 30
0.0
 11
66.95757719469657
 21
335.3312390810708
 31
0.0
  0
LINE
  5
3E8
330
18
100
AcDbEntity
  8
1
  6
Continuous
100
AcDbLine
 10
25.23632919469662
 20
341.250833081071
 30
0.0
 11
36.23632919469662
 21
333.8312390810709
 31
0.0
  0
LINE
  5
3E9
330
18
100
AcDbEntity
  8
1
  6
Continuous
100
AcDbLine
 10
36.23632919469662
 20
333.599851081071
 30
0.0
 11
36.23632919469662
 21
339.599851081071
 31
0.0
  0
LINE
  5
3EA
330
18
100
AcDbEntity
  8
1
  6
Continuous
100
AcDbLine
 10
46.23632919469661
 20
204.895557081071
 30
0.0
 11
46.23632919469661
 21
290.304143081071
 31
0.0
  0
LINE
  5
3EB
330
18
100
AcDbEntity
  8
1
  6
Continuous
100
AcDbLine
 10
44.23632919469661
 20
227.599851081071
 30
0.0
 11
44.23632919469661
 21
312.599851081071
 31
0.0
  0
LINE
  5
3EC
330
18
100
AcDbEntity
  8
1
  6
Continuous
100
AcDbLine
 10
32.23632919469662
 20
317.599851081071
 30
0.0
 11
32.23632919469662
 21
227.599851081071
 31
0.0
  0
ARC
  5
3ED
330
18
100
AcDbEntity
  8
1
  6
Continuous
100
AcDbCircle
 10
53.23632919469662
 20
204.895557081071
 30
0.0
 40
7.0
100
AcDbArc
 50
180.0
 51
265.1620790000001
  0
LINE
  5
3EE
330
18
100
AcDbEntity
  8
1
  6
Continuous
100
AcDbLine
 10
35.23632919469662
 20
224.599851081071
 30
0.0
 11
41.23632919469661
 21
224.599851081071
 31
0.0
  0
LINE
  5
3EF
330
18
100
AcDbEntity
  8
1
  6
Continuous
100
AcDbLine
 10
45.17962319469654
 20
228.4318050810711
 30
0.0
 11
46.23632919469661
 21
225.4290290810711
 31
0.0
  0
ARC
  5
3F0
330
18
100
AcDbEntity
  8
1
  6
Continuous
100
AcDbCircle
 10
44.23632919469661
 20
228.099851081071
 30
0.0
 40
1.0
100
AcDbArc
 50
19.38747200000013
 51
80.40585800000025
  0
ARC
  5
3F1
330
18
100
AcDbEntity
  8
1
  6
Continuous
100
AcDbCircle
 10
44.43632919469665
 20
229.283065081071
 30
0.0
 40
0.2
100
AcDbArc
 50
180.0
 51
260.4058580000002
  0
ARC
  5
3F2
330
18
100
AcDbEntity
  8
1
  6
Continuous
100
AcDbCircle
 10
41.23632919469661
 20
227.599851081071
 30
0.0
 40
3.0
100
AcDbArc
 50
270.0
 51
0.000000000000007
  0
ARC
  5
3F3
330
18
100
AcDbEntity
  8
1
  6
Continuous
100
AcDbCircle
 10
35.23632919469662
 20
227.599851081071
 30
0.0
 40
3.0
100
AcDbArc
 50
180.0
 51
270.0
  0
ARC
  5
3F4
330
18
100
AcDbEntity
  8
1
  6
Continuous
100
AcDbCircle
 10
53.23632919469662
 20
290.304143081071
 30
0.0
 40
7.0
100
AcDbArc
 50
94.83792099999986
 51
180.0
  0
LINE
  5
3F5
330
18
100
AcDbEntity
  8
1
  6
Continuous
100
AcDbLine
 10
45.17962319469654
 20
266.767895081071
 30
0.0
 11
46.23632919469661
 21
269.770671081071
 31
0.0
  0
ARC
  5
3F6
330
18
100
AcDbEntity
  8
1
  6
Continuous
100
AcDbCircle
 10
44.23632919469661
 20
267.099851081071
 30
0.0
 40
1.0
100
AcDbArc
 50
279.5941419999997
 51
340.6125279999999
  0
ARC
  5
3F7
330
18
100
AcDbEntity
  8
1
  6
Continuous
100
AcDbCircle
 10
44.43632919469665
 20
265.9166350810711
 30
0.0
 40
0.2
100
AcDbArc
 50
99.59414199999978
 51
180.0
  0
ARC
  5
3F8
330
18
100
AcDbEntity
  8
1
  6
Continuous
100
AcDbCircle
 10
49.23632919469661
 20
284.099851081071
 30
0.0
 40
5.0
100
AcDbArc
 50
126.7774959999993
 51
180.0
  0
ARC
  5
3F9
330
18
100
AcDbEntity
  8
1
  6
Continuous
100
AcDbCircle
 10
42.23632919469661
 20
333.599851081071
 30
0.0
 40
6.0
100
AcDbArc
 50
180.0
 51
221.810315
  0
ARC
  5
3FA
330
18
100
AcDbEntity
  8
1
  6
Continuous
100
AcDbCircle
 10
52.23632919469661
 20
312.599851081071
 30
0.0
 40
8.0
100
AcDbArc
 50
90.0
 51
180.0
  0
ARC
  5
3FB
330
18
100
AcDbEntity
  8
1
  6
Continuous
100
AcDbCircle
 10
65.95757719469657
 20
334.8312390810709
 30
0.0
 40
1.0
100
AcDbArc
 50
270.0
 51
0.000000000000007
  0
LINE
  5
3FC
330
18
100
AcDbEntity
  8
1
  6
Continuous
100
AcDbLine
 10
40.23632919469661
 20
329.599851081071
 30
0.0
 11
40.23632919469661
 21
322.599851081071
 31
0.0
  0
LINE
  5
3FD
330
18
100
AcDbEntity
  8
1
  6
Continuous
100
AcDbLine
 10
49.23632919469661
 20
321.599851081071
 30
0.0
 11
49.23632919469661
 21
320.599851081071
 31
0.0
  0
ARC
  5
3FE
330
18
100
AcDbEntity
  8
1
  6
Continuous
100
AcDbCircle
 10
50.23632919469662
 20
321.599851081071
 30
0.0
 40
1.0
100
AcDbArc
 50
90.0
 51
180.0
  0
ARC
  5
3FF
330
18
100
AcDbEntity
  8
1
  6
Continuous
100
AcDbCircle
 10
35.23632919469662
 20
317.599851081071
 30
0.0
 40
3.0
100
AcDbArc
 50
90.0
 51
180.0
  0
LINE
  5
400
330
18
100
AcDbEntity
  8
1
  6
Continuous
100
AcDbLine
 10
66.78632919469658
 20
347.599851081071
 30
0.0
 11
25.23632919469662
 21
347.599851081071
 31
0.0
  0
LINE
  5
401
330
18
100
AcDbEntity
  8
1
  6
Continuous
100
AcDbLine
 10
66.95757719469657
 20
342.599851081071
 30
0.0
 11
25.23632919469662
 21
342.599851081071
 31
0.0
  0
ARC
  5
402
330
18
100
AcDbEntity
  8
1
  6
Continuous
100
AcDbCircle
 10
68.98632719469664
 20
343.450833081071
 30
0.0
 40
2.2
100
AcDbArc
 50
202.7561810000003
 51
270.0
  0
ARC
  5
403
330
18
100
AcDbEntity
  8
1
  6
Continuous
100
AcDbCircle
 10
66.78632919469658
 20
345.399851081071
 30
0.0
 40
2.2
100
AcDbArc
 50
359.9002749999999
 51
90.0
  0
ARC
  5
404
330
18
100
AcDbEntity
  8
1
  6
Continuous
100
AcDbCircle
 10
33.23632919469662
 20
339.599851081071
 30
0.0
 40
3.0
100
AcDbArc
 50
0.000000000000007
 51
90.0
  0
LINE
  5
405
330
18
100
AcDbEntity
  8
1
  6
Continuous
100
AcDbLine
 10
25.23632919469662
 20
347.599851081071
 30
0.0
 11
25.23632919469662
 21
341.250833081071
 31
0.0
  0
LINE
  5
4A1
330
18
100
AcDbEntity
  8
4
  6
CENTER
100
AcDbLine
 10
492.8853747144962
 20
351.801149081071
 30
0.0
 11
492.8853747144962
 21
191.730737081071
 31
0.0
  0
LINE
  5
4A9
330
18
100
AcDbEntity
  8
4
  6
CENTER
100
AcDbLine
 10
444.1766307144964
 20
247.599851081071
 30
0.0
 11
541.3804987144962
 21
247.599851081071
 31
0.0
  0
LINE
  5
4C0
330
18
100
AcDbEntity
  8
1
  6
Continuous
100
AcDbLine
 10
452.8853747144963
 20
320.599851081071
 30
0.0
 11
492.8853747144962
 21
320.599851081071
 31
0.0
  0
LINE
  5
4C1
330
18
100
AcDbEntity
  8
1
  6
Continuous
100
AcDbLine
 10
527.8853747144962
 20
322.599851081071
 30
0.0
 11
457.8853747144964
 21
322.599851081071
 31
0.0
  0
LINE
  5
4C2
330
18
100
AcDbEntity
  8
1
  6
Continuous
100
AcDbLine
 10
530.3575087144963
 20
329.599851081071
 30
0.0
 11
455.4132387144964
 21
329.599851081071
 31
0.0
  0
LINE
  5
4C3
330
18
100
AcDbEntity
  8
1
  6
Continuous
100
AcDbLine
 10
500.6641267144964
 20
333.8312390810709
 30
0.0
 11
485.1066227144963
 21
333.8312390810709
 31
0.0
  0
LINE
  5
4C4
330
18
100
AcDbEntity
  8
1
  6
Continuous
100
AcDbLine
 10
485.3518887144963
 20
347.399851081071
 30
0.0
 11
500.4188587144963
 21
347.399851081071
 31
0.0
  0
ARC
  5
4C5
330
18
100
AcDbEntity
  8
1
  6
Continuous
100
AcDbCircle
 10
484.4353747144963
 20
345.399851081071
 30
0.0
 40
2.2
100
AcDbArc
 50
359.9002749999999
 51
90.0
  0
ARC
  5
4C6
330
18
100
AcDbEntity
  8
1
  6
Continuous
100
AcDbCircle
 10
486.6353747144962
 20
343.450833081071
 30
0.0
 40
2.2
100
AcDbArc
 50
202.7561810000002
 51
270.0
  0
LINE
  5
4C7
330
18
100
AcDbEntity
  8
1
  6
Continuous
100
AcDbLine
 10
531.8853747144962
 20
333.599851081071
 30
0.0
 11
531.8853747144962
 21
339.599851081071
 31
0.0
  0
LINE
  5
4C8
330
18
100
AcDbEntity
  8
1
  6
Continuous
100
AcDbLine
 10
542.8853747144962
 20
341.250833081071
 30
0.0
 11
531.8853747144962
 21
333.8312390810709
 31
0.0
  0
LINE
  5
4C9
330
18
100
AcDbEntity
  8
1
  6
Continuous
100
AcDbLine
 10
501.1641267144963
 20
341.809857081071
 30
0.0
 11
501.1641267144963
 21
335.3312390810708
 31
0.0
  0
LINE
  5
4E1
330
18
100
AcDbEntity
  8
1
  6
Continuous
100
AcDbLine
 10
532.8853747144964
 20
320.599851081071
 30
0.0
 11
492.8853747144962
 21
320.599851081071
 31
0.0
  0
ARC
  5
4E3
330
18
100
AcDbEntity
  8
1
  6
Continuous
100
AcDbCircle
 10
525.8853747144963
 20
333.599851081071
 30
0.0
 40
6.0
100
AcDbArc
 50
318.1896849999999
 51
0.000000000000007
  0
LINE
  5
4E5
330
18
100
AcDbEntity
  8
1
  6
Continuous
100
AcDbLine
 10
527.8853747144962
 20
329.599851081071
 30
0.0
 11
527.8853747144962
 21
322.599851081071
 31
0.0
  0
ARC
  5
4E6
330
18
100
AcDbEntity
  8
1
  6
Continuous
100
AcDbCircle
 10
517.8853747144962
 20
321.599851081071
 30
0.0
 40
1.0
100
AcDbArc
 50
0.000000000000007
 51
90.0
  0
LINE
  5
4E7
330
18
100
AcDbEntity
  8
1
  6
Continuous
100
AcDbLine
 10
518.8853747144962
 20
321.599851081071
 30
0.0
 11
518.8853747144962
 21
320.599851081071
 31
0.0
  0
ARC
  5
4E9
330
18
100
AcDbEntity
  8
1
  6
Continuous
100
AcDbCircle
 10
502.1641267144963
 20
334.8312390810709
 30
0.0
 40
1.0
100
AcDbArc
 50
180.0
 51
270.0
  0
LINE
  5
4EA
330
18
100
AcDbEntity
  8
1
  6
Continuous
100
AcDbLine
 10
501.1641267144963
 20
342.599851081071
 30
0.0
 11
542.8853747144962
 21
342.599851081071
 31
0.0
  0
LINE
  5
4EB
330
18
100
AcDbEntity
  8
1
  6
Continuous
100
AcDbLine
 10
501.3353747144964
 20
347.599851081071
 30
0.0
 11
542.8853747144962
 21
347.599851081071
 31
0.0
  0
ARC
  5
4EC
330
18
100
AcDbEntity
  8
1
  6
Continuous
100
AcDbCircle
 10
534.8853747144962
 20
339.599851081071
 30
0.0
 40
3.0
100
AcDbArc
 50
90.0
 51
180.0
  0
LINE
  5
4ED
330
18
100
AcDbEntity
  8
1
  6
Continuous
100
AcDbLine
 10
542.8853747144962
 20
347.599851081071
 30
0.0
 11
542.8853747144962
 21
341.250833081071
 31
0.0
  0
ARC
  5
4EE
330
18
100
AcDbEntity
  8
1
  6
Continuous
100
AcDbCircle
 10
501.3353747144964
 20
345.399851081071
 30
0.0
 40
2.2
100
AcDbArc
 50
90.0
 51
180.099725
  0
ARC
  5
4EF
330
18
100
AcDbEntity
  8
1
  6
Continuous
100
AcDbCircle
 10
499.1353767144963
 20
343.450833081071
 30
0.0
 40
2.2
100
AcDbArc
 50
270.0
 51
337.2438189999997
  0
LINE
  5
4F0
330
18
100
AcDbEntity
  8
1
  6
Continuous
100
AcDbLine
 10
486.6353707144964
 20
345.396021081071
 30
0.0
 11
499.1353767144963
 21
345.396021081071
 31
0.0
  0
LINE
  5
4F1
330
18
100
AcDbEntity
  8
1
  6
Continuous
100
AcDbLine
 10
486.6353747144962
 20
341.250833081071
 30
0.0
 11
499.1353747144962
 21
341.250833081071
 31
0.0
  0
LINE
  5
4F2
330
18
100
AcDbEntity
  8
1
  6
Continuous
100
AcDbLine
 10
453.8853747144964
 20
333.599851081071
 30
0.0
 11
453.8853747144964
 21
339.599851081071
 31
0.0
  0
LINE
  5
4F3
330
18
100
AcDbEntity
  8
1
  6
Continuous
100
AcDbLine
 10
484.6066227144963
 20
341.809857081071
 30
0.0
 11
484.6066227144963
 21
335.3312390810708
 31
0.0
  0
LINE
  5
4F4
330
18
100
AcDbEntity
  8
1
  6
Continuous
100
AcDbLine
 10
442.8853747144962
 20
341.250833081071
 30
0.0
 11
453.8853747144964
 21
333.8312390810709
 31
0.0
  0
ARC
  5
4FA
330
18
100
AcDbEntity
  8
1
  6
Continuous
100
AcDbCircle
 10
459.8853747144963
 20
333.599851081071
 30
0.0
 40
6.0
100
AcDbArc
 50
180.0
 51
221.810315
  0
ARC
  5
4FC
330
18
100
AcDbEntity
  8
1
  6
Continuous
100
AcDbCircle
 10
483.6066227144963
 20
334.8312390810709
 30
0.0
 40
1.0
100
AcDbArc
 50
270.0
 51
0.000000000000007
  0
LINE
  5
4FD
330
18
100
AcDbEntity
  8
1
  6
Continuous
100
AcDbLine
 10
457.8853747144964
 20
329.599851081071
 30
0.0
 11
457.8853747144964
 21
322.599851081071
 31
0.0
  0
ARC
  5
4FE
330
18
100
AcDbEntity
  8
1
  6
Continuous
100
AcDbCircle
 10
467.8853747144962
 20
321.599851081071
 30
0.0
 40
1.0
100
AcDbArc
 50
90.0
 51
180.0
  0
LINE
  5
4FF
330
18
100
AcDbEntity
  8
1
  6
Continuous
100
AcDbLine
 10
466.8853747144964
 20
321.599851081071
 30
0.0
 11
466.8853747144964
 21
320.599851081071
 31
0.0
  0
LINE
  5
501
330
18
100
AcDbEntity
  8
1
  6
Continuous
100
AcDbLine
 10
484.6066207144963
 20
342.599851081071
 30
0.0
 11
442.8853747144962
 21
342.599851081071
 31
0.0
  0
LINE
  5
502
330
18
100
AcDbEntity
  8
1
  6
Continuous
100
AcDbLine
 10
442.8853747144962
 20
347.599851081071
 30
0.0
 11
484.4353747144963
 21
347.599851081071
 31
0.0
  0
LINE
  5
503
330
18
100
AcDbEntity
  8
1
  6
Continuous
100
AcDbLine
 10
442.8853747144962
 20
347.599851081071
 30
0.0
 11
442.8853747144962
 21
341.250833081071
 31
0.0
  0
ARC
  5
504
330
18
100
AcDbEntity
  8
1
  6
Continuous
100
AcDbCircle
 10
450.8853747144963
 20
339.599851081071
 30
0.0
 40
3.0
100
AcDbArc
 50
0.000000000000007
 51
90.0
  0
LINE
  5
505
330
18
100
AcDbEntity
  8
1
  6
Continuous
100
AcDbLine
 10
720.6090937540103
 20
229.3740830810711
 30
0.0
 11
644.6360897540102
 21
287.854397081071
 31
0.0
  0
LINE
  5
506
330
18
100
AcDbEntity
  8
4
  6
CENTER
100
AcDbLine
 10
679.6383997540102
 20
247.599851081071
 30
0.0
 11
789.6383997540103
 21
247.599851081071
 31
0.0
  0
LINE
  5
507
330
18
100
AcDbEntity
  8
1
  6
Continuous
100
AcDbLine
 10
631.3383997540102
 20
320.599851081071
 30
0.0
 11
699.6383997540102
 21
320.599851081071
 31
0.0
  0
LINE
  5
508
330
18
100
AcDbEntity
  8
1
  6
Continuous
100
AcDbLine
 10
699.6383997540102
 20
322.599851081071
 30
0.0
 11
629.6383997540104
 21
322.599851081071
 31
0.0
  0
LINE
  5
509
330
18
100
AcDbEntity
  8
1
  6
Continuous
100
AcDbLine
 10
702.1105357540103
 20
329.599851081071
 30
0.0
 11
627.1662637540104
 21
329.599851081071
 31
0.0
  0
LINE
  5
50A
330
18
100
AcDbEntity
  8
1
  6
Continuous
100
AcDbLine
 10
672.9171537540102
 20
342.599851081071
 30
0.0
 11
714.6383997540103
 21
342.599851081071
 31
0.0
  0
LINE
  5
50B
330
18
100
AcDbEntity
  8
1
  6
Continuous
100
AcDbLine
 10
673.0883997540104
 20
347.599851081071
 30
0.0
 11
714.6383997540103
 21
347.599851081071
 31
0.0
  0
LINE
  5
50C
330
18
100
AcDbEntity
  8
1
  6
Continuous
100
AcDbLine
 10
734.6383997540102
 20
253.373353081071
 30
0.0
 11
739.6383997540103
 21
250.486601081071
 31
0.0
  0
LINE
  5
50D
330
18
100
AcDbEntity
  8
1
  6
Continuous
100
AcDbLine
 10
729.6383997540102
 20
250.486601081071
 30
0.0
 11
734.6383997540102
 21
253.373353081071
 31
0.0
  0
ARC
  5
50E
330
18
100
AcDbEntity
  8
1
  6
Continuous
100
AcDbCircle
 10
734.6383997540102
 20
247.599851081071
 30
0.0
 40
23.0
100
AcDbArc
 50
232.4126769999999
 51
40.44239400000013
  0
ARC
  5
50F
330
18
100
AcDbEntity
  8
1
  6
Continuous
100
AcDbCircle
 10
734.6383997540102
 20
247.599851081071
 30
0.0
 40
50.0
100
AcDbArc
 50
169.7997849999998
 51
102.669151
  0
ARC
  5
510
330
18
100
AcDbEntity
  8
1
  6
Continuous
100
AcDbCircle
 10
734.6383997540102
 20
247.599851081071
 30
0.0
 40
24.0
100
AcDbArc
 50
215.8148349999996
 51
57.04023600000077
  0
LINE
  5
511
330
18
100
AcDbEntity
  8
4
  6
CENTER
100
AcDbLine
 10
734.6383997540102
 20
192.599851081071
 30
0.0
 11
734.6383997540102
 21
302.599851081071
 31
0.0
  0
CIRCLE
  5
512
330
18
100
AcDbEntity
  8
1
  6
Continuous
100
AcDbCircle
 10
734.6383997540102
 20
247.599851081071
 30
0.0
 40
12.0
  0
CIRCLE
  5
513
330
18
100
AcDbEntity
  8
1
  6
Continuous
100
AcDbCircle
 10
734.6383997540102
 20
247.599851081071
 30
0.0
 40
11.5
  0
LINE
  5
514
330
18
100
AcDbEntity
  8
1
  6
Continuous
100
AcDbLine
 10
734.6383997540102
 20
241.826347081071
 30
0.0
 11
729.6383997540102
 21
244.713099081071
 31
0.0
  0
LINE
  5
515
330
18
100
AcDbEntity
  8
1
  6
Continuous
100
AcDbLine
 10
739.6383997540103
 20
244.713099081071
 30
0.0
 11
739.6383997540103
 21
250.486601081071
 31
0.0
  0
LINE
  5
516
330
18
100
AcDbEntity
  8
1
  6
Continuous
100
AcDbLine
 10
734.6383997540102
 20
241.826347081071
 30
0.0
 11
739.6383997540103
 21
244.713099081071
 31
0.0
  0
LINE
  5
517
330
18
100
AcDbEntity
  8
1
  6
Continuous
100
AcDbLine
 10
729.6383997540102
 20
244.713099081071
 30
0.0
 11
729.6383997540102
 21
250.486601081071
 31
0.0
  0
LINE
  5
518
330
18
100
AcDbEntity
  8
1
  6
Continuous
100
AcDbLine
 10
703.6383997540102
 20
333.599851081071
 30
0.0
 11
703.6383997540102
 21
339.599851081071
 31
0.0
  0
LINE
  5
519
330
18
100
AcDbEntity
  8
1
  6
Continuous
100
AcDbLine
 10
714.6383997540103
 20
341.250833081071
 30
0.0
 11
703.6383997540102
 21
333.8312390810709
 31
0.0
  0
LINE
  5
51A
330
18
100
AcDbEntity
  8
1
  6
Continuous
100
AcDbLine
 10
752.1427457540103
 20
262.519563081071
 30
0.0
 11
705.0339397540104
 21
317.7893150810711
 31
0.0
  0
LINE
  5
51B
330
18
100
AcDbEntity
  8
1
  6
Continuous
100
AcDbLine
 10
699.6383997540102
 20
329.599851081071
 30
0.0
 11
699.6383997540102
 21
322.599851081071
 31
0.0
  0
ARC
  5
51C
330
18
100
AcDbEntity
  8
1
  6
Continuous
100
AcDbCircle
 10
698.9454717540103
 20
312.599851081071
 30
0.0
 40
8.0
100
AcDbArc
 50
40.44239400000013
 51
90.0
  0
ARC
  5
51D
330
18
100
AcDbEntity
  8
1
  6
Continuous
100
AcDbCircle
 10
699.6383997540102
 20
317.599851081071
 30
0.0
 40
3.0
100
AcDbArc
 50
69.18898899999948
 51
90.0
  0
ARC
  5
51E
330
18
100
AcDbEntity
  8
1
  6
Continuous
100
AcDbCircle
 10
697.6383997540103
 20
333.599851081071
 30
0.0
 40
6.0
100
AcDbArc
 50
318.1896849999999
 51
0.000000000000007
  0
ARC
  5
51F
330
18
100
AcDbEntity
  8
1
  6
Continuous
100
AcDbCircle
 10
690.0383997540103
 20
321.999851081071
 30
0.0
 40
0.6
100
AcDbArc
 50
0.000000000000007
 51
90.0
  0
LINE
  5
520
330
18
100
AcDbEntity
  8
1
  6
Continuous
100
AcDbLine
 10
690.6383997540102
 20
320.599851081071
 30
0.0
 11
690.6383997540102
 21
321.999851081071
 31
0.0
  0
LINE
  5
521
330
18
100
AcDbEntity
  8
1
  6
Continuous
100
AcDbLine
 10
714.6383997540103
 20
347.599851081071
 30
0.0
 11
714.6383997540103
 21
341.250833081071
 31
0.0
  0
ARC
  5
522
330
18
100
AcDbEntity
  8
1
  6
Continuous
100
AcDbCircle
 10
706.6383997540103
 20
339.599851081071
 30
0.0
 40
3.0
100
AcDbArc
 50
90.0
 51
180.0
  0
LINE
  5
523
330
18
100
AcDbEntity
  8
1
  6
Continuous
100
AcDbLine
 10
625.6383997540104
 20
333.599851081071
 30
0.0
 11
625.6383997540104
 21
339.599851081071
 31
0.0
  0
LINE
  5
524
330
18
100
AcDbEntity
  8
4
  6
CENTER
100
AcDbLine
 10
664.6383997540104
 20
353.801145081071
 30
0.0
 11
664.6383997540104
 21
261.612991081071
 31
0.0
  0
LINE
  5
525
330
18
100
AcDbEntity
  8
1
  6
Continuous
100
AcDbLine
 10
672.9171537540102
 20
341.809857081071
 30
0.0
 11
672.9171537540102
 21
335.3312390810708
 31
0.0
  0
LINE
  5
526
330
18
100
AcDbEntity
  8
1
  6
Continuous
100
AcDbLine
 10
656.3596497540101
 20
341.809857081071
 30
0.0
 11
656.3596497540101
 21
335.3312390810708
 31
0.0
  0
LINE
  5
527
330
18
100
AcDbEntity
  8
1
  6
Continuous
100
AcDbLine
 10
614.6383997540103
 20
341.250833081071
 30
0.0
 11
625.6383997540102
 21
333.8312390810709
 31
0.0
  0
ARC
  5
528
330
18
100
AcDbEntity
  8
1
  6
Continuous
100
AcDbCircle
 10
631.3383997540102
 20
295.099851081071
 30
0.0
 40
6.0
100
AcDbArc
 50
180.0
 51
270.0
  0
ARC
  5
529
330
18
100
AcDbEntity
  8
1
  6
Continuous
100
AcDbCircle
 10
632.8494997540103
 20
295.099851081071
 30
0.0
 40
6.0
100
AcDbArc
 50
180.0
 51
270.0
  0
LINE
  5
52A
330
18
100
AcDbEntity
  8
1
  6
Continuous
100
AcDbLine
 10
658.6383997540102
 20
278.306599081071
 30
0.0
 11
658.6383997540102
 21
318.099851081071
 31
0.0
  0
LINE
  5
52B
330
18
100
AcDbEntity
  8
1
  6
Continuous
100
AcDbLine
 10
647.6383997540104
 20
278.849851081071
 30
0.0
 11
656.3340877540102
 21
278.849851081071
 31
0.0
  0
LINE
  5
52C
330
18
100
AcDbEntity
  8
1
  6
Continuous
100
AcDbLine
 10
645.8726717540104
 20
281.849851081071
 30
0.0
 11
652.4367237540102
 21
281.849851081071
 31
0.0
  0
LINE
  5
52D
330
18
100
AcDbEntity
  8
1
  6
Continuous
100
AcDbLine
 10
656.8441717540102
 20
268.543425081071
 30
0.0
 11
656.8441717540102
 21
278.457213081071
 31
0.0
  0
LINE
  5
52E
330
18
100
AcDbEntity
  8
1
  6
Continuous
100
AcDbLine
 10
649.0499437540101
 20
268.543425081071
 30
0.0
 11
649.0499437540101
 21
278.849851081071
 31
0.0
  0
LINE
  5
52F
330
18
100
AcDbEntity
  8
1
  6
Continuous
100
AcDbLine
 10
651.6383997540104
 20
267.849851081071
 30
0.0
 11
670.6244155567101
 21
267.849851081071
 31
0.0
  0
ARC
  5
530
330
18
100
AcDbEntity
  8
1
  6
Continuous
100
AcDbCircle
 10
664.6383997540104
 20
322.545903081071
 30
0.0
 40
54.562052
100
AcDbArc
 50
261.7871610000004
 51
270.0
  0
ARC
  5
531
330
18
100
AcDbEntity
  8
1
  6
Continuous
100
AcDbCircle
 10
664.6383997540104
 20
322.545903081071
 30
0.0
 40
54.562052
100
AcDbArc
 50
270.0
 51
275.7395690000002
  0
ARC
  5
532
330
18
100
AcDbEntity
  8
1
  6
Continuous
100
AcDbCircle
 10
652.9470577540104
 20
281.834203081071
 30
0.0
 40
13.850354
100
AcDbArc
 50
256.3421609999995
 51
286.3421609999996
  0
LINE
  5
533
330
18
100
AcDbEntity
  8
1
  6
Continuous
100
AcDbLine
 10
651.6383997540103
 20
267.849851081071
 30
0.0
 11
649.0499437540104
 21
268.543425081071
 31
0.0
  0
ARC
  5
534
330
18
100
AcDbEntity
  8
1
  6
Continuous
100
AcDbCircle
 10
661.1383997540102
 20
278.306599081071
 30
0.0
 40
2.5
100
AcDbArc
 50
180.0
 51
232.4126769999999
  0
LINE
  5
535
330
18
100
AcDbEntity
  8
1
  6
Continuous
100
AcDbLine
 10
631.3383997540102
 20
289.099851081071
 30
0.0
 11
640.9762717540102
 21
289.099851081071
 31
0.0
  0
LINE
  5
536
330
18
100
AcDbEntity
  8
1
  6
Continuous
100
AcDbLine
 10
641.1383997540105
 20
288.049851081071
 30
0.0
 11
644.1406217540102
 21
282.849851081071
 31
0.0
  0
ARC
  5
537
330
18
100
AcDbEntity
  8
1
  6
Continuous
100
AcDbCircle
 10
645.8726717540104
 20
283.849851081071
 30
0.0
 40
2.0
100
AcDbArc
 50
209.9999999999997
 51
270.0
  0
LINE
  5
538
330
18
100
AcDbEntity
  8
1
  6
Continuous
100
AcDbLine
 10
647.6383997540104
 20
278.849851081071
 30
0.0
 11
647.6383997540104
 21
281.849851081071
 31
0.0
  0
ARC
  5
539
330
18
100
AcDbEntity
  8
1
  6
Continuous
100
AcDbCircle
 10
640.9762717540102
 20
283.099851081071
 30
0.0
 40
6.0
100
AcDbArc
 50
52.4126769999998
 51
90.0
  0
LINE
  5
53A
330
18
100
AcDbEntity
  8
1
  6
Continuous
100
AcDbLine
 10
641.1383997540102
 20
288.049851081071
 30
0.0
 11
644.3670677540104
 21
288.049851081071
 31
0.0
  0
LINE
  5
53B
330
18
100
AcDbEntity
  8
1
  6
Continuous
100
AcDbLine
 10
672.4171537540102
 20
333.8312390810709
 30
0.0
 11
656.8596497540101
 21
333.8312390810709
 31
0.0
  0
ARC
  5
53C
330
18
100
AcDbEntity
  8
1
  6
Continuous
100
AcDbCircle
 10
673.9171537540102
 20
334.8312390810709
 30
0.0
 40
1.0
100
AcDbArc
 50
180.0
 51
270.0
  0
ARC
  5
53D
330
18
100
AcDbEntity
  8
1
  6
Continuous
100
AcDbCircle
 10
661.1383997540102
 20
318.099851081071
 30
0.0
 40
2.5
100
AcDbArc
 50
90.0
 51
180.0
  0
ARC
  5
53E
330
18
100
AcDbEntity
  8
1
  6
Continuous
100
AcDbCircle
 10
655.3596497540102
 20
334.8312390810709
 30
0.0
 40
1.0
100
AcDbArc
 50
270.0
 51
0.000000000000007
  0
ARC
  5
53F
330
18
100
AcDbEntity
  8
1
  6
Continuous
100
AcDbCircle
 10
631.3383997540102
 20
314.599851081071
 30
0.0
 40
6.0
100
AcDbArc
 50
90.0
 51
180.0
  0
ARC
  5
540
330
18
100
AcDbEntity
  8
1
  6
Continuous
100
AcDbCircle
 10
632.8494997540103
 20
314.599851081071
 30
0.0
 40
6.0
100
AcDbArc
 50
90.0
 51
180.0
  0
LINE
  5
541
330
18
100
AcDbEntity
  8
1
  6
Continuous
100
AcDbLine
 10
626.8494997540102
 20
295.099851081071
 30
0.0
 11
626.8494997540102
 21
314.599851081071
 31
0.0
  0
LINE
  5
542
330
18
100
AcDbEntity
  8
1
  6
Continuous
100
AcDbLine
 10
625.3383997540102
 20
295.099851081071
 30
0.0
 11
625.3383997540102
 21
314.599851081071
 31
0.0
  0
ARC
  5
543
330
18
100
AcDbEntity
  8
1
  6
Continuous
100
AcDbCircle
 10
639.2383997540104
 20
321.999851081071
 30
0.0
 40
0.6
100
AcDbArc
 50
90.0
 51
180.0
  0
LINE
  5
544
330
18
100
AcDbEntity
  8
1
  6
Continuous
100
AcDbLine
 10
638.6383997540104
 20
320.599851081071
 30
0.0
 11
638.6383997540104
 21
321.999851081071
 31
0.0
  0
LINE
  5
545
330
18
100
AcDbEntity
  8
1
  6
Continuous
100
AcDbLine
 10
629.6383997540104
 20
329.599851081071
 30
0.0
 11
629.6383997540104
 21
322.599851081071
 31
0.0
  0
ARC
  5
546
330
18
100
AcDbEntity
  8
1
  6
Continuous
100
AcDbCircle
 10
631.6383997540103
 20
333.599851081071
 30
0.0
 40
6.0
100
AcDbArc
 50
180.0
 51
221.810315
  0
LINE
  5
547
330
18
100
AcDbEntity
  8
1
  6
Continuous
100
AcDbLine
 10
656.3596457540102
 20
342.599851081071
 30
0.0
 11
614.6383997540104
 21
342.599851081071
 31
0.0
  0
LINE
  5
548
330
18
100
AcDbEntity
  8
1
  6
Continuous
100
AcDbLine
 10
614.6383997540104
 20
347.599851081071
 30
0.0
 11
656.1883997540101
 21
347.599851081071
 31
0.0
  0
LINE
  5
549
330
18
100
AcDbEntity
  8
1
  6
Continuous
100
AcDbLine
 10
658.3883957540102
 20
345.396021081071
 30
0.0
 11
670.8884037540102
 21
345.396021081071
 31
0.0
  0
LINE
  5
54A
330
18
100
AcDbEntity
  8
1
  6
Continuous
100
AcDbLine
 10
658.3883997540104
 20
341.250833081071
 30
0.0
 11
670.8883997540104
 21
341.250833081071
 31
0.0
  0
LINE
  5
54B
330
18
100
AcDbEntity
  8
1
  6
Continuous
100
AcDbLine
 10
657.1049157540102
 20
347.399851081071
 30
0.0
 11
672.1718857540102
 21
347.399851081071
 31
0.0
  0
ARC
  5
54C
330
18
100
AcDbEntity
  8
1
  6
Continuous
100
AcDbCircle
 10
673.0883997540104
 20
345.399851081071
 30
0.0
 40
2.2
100
AcDbArc
 50
90.0
 51
180.099725
  0
ARC
  5
54D
330
18
100
AcDbEntity
  8
1
  6
Continuous
100
AcDbCircle
 10
670.8884037540102
 20
343.450833081071
 30
0.0
 40
2.2
100
AcDbArc
 50
270.0
 51
337.2438189999997
  0
ARC
  5
54E
330
18
100
AcDbEntity
  8
1
  6
Continuous
100
AcDbCircle
 10
656.1883997540101
 20
345.399851081071
 30
0.0
 40
2.2
100
AcDbArc
 50
359.9002749999999
 51
90.0
  0
ARC
  5
54F
330
18
100
AcDbEntity
  8
1
  6
Continuous
100
AcDbCircle
 10
658.3883997540104
 20
343.450833081071
 30
0.0
 40
2.2
100
AcDbArc
 50
202.7561810000002
 51
270.0
  0
ARC
  5
550
330
18
100
AcDbEntity
  8
1
  6
Continuous
100
AcDbCircle
 10
622.6383997540104
 20
339.599851081071
 30
0.0
 40
3.0
100
AcDbArc
 50
0.000000000000007
 51
90.0
  0
LINE
  5
551
330
18
100
AcDbEntity
  8
1
  6
Continuous
100
AcDbLine
 10
614.6383997540104
 20
347.599851081071
 30
0.0
 11
614.6383997540104
 21
341.250833081071
 31
0.0
  0
LINE
  5
552
330
18
100
AcDbEntity
  8
1
  6
Continuous
100
AcDbLine
 10
360.1323496749823
 20
142.105242627643
 30
0.0
 11
282.1323496749823
 21
142.105242627643
 31
0.0
  0
LINE
  5
553
330
18
100
AcDbEntity
  8
1
  6
Continuous
100
AcDbLine
 10
282.1323496749823
 20
42.10524262764305
 30
0.0
 11
360.1323496749823
 21
42.10524262764305
 31
0.0
  0
LINE
  5
556
330
18
100
AcDbEntity
  8
4
  6
CENTER
100
AcDbLine
 10
376.9430136749823
 20
92.10524262764307
 30
0.0
 11
195.8556416749823
 21
92.10524262764307
 31
0.0
  0
LINE
  5
55A
330
18
100
AcDbEntity
  8
4
  6
CENTER
100
AcDbLine
 10
251.1323496749823
 20
141.480484627643
 30
0.0
 11
251.1323496749823
 21
43.13943462764302
 31
0.0
  0
LINE
  5
572
330
18
100
AcDbEntity
  8
4
  6
CENTER
100
AcDbLine
 10
282.1323496749823
 20
139.355242627643
 30
0.0
 11
282.1323496749823
 21
122.855242627643
 31
0.0
  0
LINE
  5
573
330
18
100
AcDbEntity
  8
4
  6
CENTER
100
AcDbLine
 10
290.3823496749824
 20
131.105242627643
 30
0.0
 11
273.8823496749823
 21
131.105242627643
 31
0.0
  0
ARC
  5
574
330
18
100
AcDbEntity
  8
1
  6
Continuous
100
AcDbCircle
 10
282.1323496749823
 20
131.105242627643
 30
0.0
 40
11.0
100
AcDbArc
 50
90.00000000000005
 51
158.676313736502
  0
ARC
  5
575
330
18
100
AcDbEntity
  8
1
  6
Continuous
100
AcDbCircle
 10
282.1323496749823
 20
131.105242627643
 30
0.0
 40
5.25
100
AcDbArc
 50
49.63240645581437
 51
130.3675935441856
  0
LINE
  5
576
330
18
100
AcDbEntity
  8
1
  6
Continuous
100
AcDbLine
 10
285.5327176749823
 20
135.105242627643
 30
0.0
 11
278.7319816749824
 21
135.105242627643
 31
0.0
  0
ARC
  5
58C
330
18
100
AcDbEntity
  8
1
  6
Continuous
100
AcDbCircle
 10
282.1323496749823
 20
53.10524262764307
 30
0.0
 40
11.0
100
AcDbArc
 50
201.3236862634979
 51
270.0
  0
LINE
  5
58D
330
18
100
AcDbEntity
  8
4
  6
CENTER
100
AcDbLine
 10
290.3823496749824
 20
53.10524262764307
 30
0.0
 11
273.8823496749823
 21
53.10524262764307
 31
0.0
  0
LINE
  5
591
330
18
100
AcDbEntity
  8
4
  6
CENTER
100
AcDbLine
 10
282.1323496749823
 20
61.35524262764306
 30
0.0
 11
282.1323496749823
 21
44.85524262764307
 31
0.0
  0
ARC
  5
592
330
18
100
AcDbEntity
  8
1
  6
Continuous
100
AcDbCircle
 10
282.1323496749823
 20
53.10524262764307
 30
0.0
 40
5.25
100
AcDbArc
 50
229.6324064558144
 51
310.3675935441855
  0
LINE
  5
594
330
18
100
AcDbEntity
  8
1
  6
Continuous
100
AcDbLine
 10
285.5327176749823
 20
49.10524262764305
 30
0.0
 11
278.7319816749824
 21
49.10524262764305
 31
0.0
  0
LINE
  5
599
330
18
100
AcDbEntity
  8
4
  6
CENTER
100
AcDbLine
 10
321.1323496749823
 20
150.7817030826331
 30
0.0
 11
321.1323496749823
 21
33.42878217265286
 31
0.0
  0
LINE
  5
59A
330
18
100
AcDbEntity
  8
1
  6
Continuous
100
AcDbLine
 10
371.1323496749823
 20
53.10524262764307
 30
0.0
 11
371.1323496749823
 21
131.105242627643
 31
0.0
  0
ARC
  5
59D
330
18
100
AcDbEntity
  8
1
  6
Continuous
100
AcDbCircle
 10
360.1323496749823
 20
131.105242627643
 30
0.0
 40
11.0
100
AcDbArc
 50
0.0
 51
90.00000000000005
  0
LINE
  5
59E
330
18
100
AcDbEntity
  8
4
  6
CENTER
100
AcDbLine
 10
368.3823496749823
 20
131.105242627643
 30
0.0
 11
351.8823496749823
 21
131.105242627643
 31
0.0
  0
LINE
  5
5A1
330
18
100
AcDbEntity
  8
4
  6
CENTER
100
AcDbLine
 10
360.1323496749823
 20
139.355242627643
 30
0.0
 11
360.1323496749823
 21
122.855242627643
 31
0.0
  0
CIRCLE
  5
5A6
330
18
100
AcDbEntity
  8
1
  6
Continuous
100
AcDbCircle
 10
360.1323496749823
 20
131.105242627643
 30
0.0
 40
5.25
  0
ARC
  5
5CE
330
18
100
AcDbEntity
  8
1
  6
Continuous
100
AcDbCircle
 10
360.1323496749823
 20
53.10524262764307
 30
0.0
 40
11.0
100
AcDbArc
 50
270.0
 51
0.0
  0
LINE
  5
5CF
330
18
100
AcDbEntity
  8
4
  6
CENTER
100
AcDbLine
 10
368.3823496749823
 20
53.10524262764307
 30
0.0
 11
351.8823496749823
 21
53.10524262764307
 31
0.0
  0
LINE
  5
5D8
330
18
100
AcDbEntity
  8
4
  6
CENTER
100
AcDbLine
 10
360.1323496749823
 20
61.35524262764306
 30
0.0
 11
360.1323496749823
 21
44.85524262764307
 31
0.0
  0
CIRCLE
  5
5D9
330
18
100
AcDbEntity
  8
1
  6
Continuous
100
AcDbCircle
 10
360.1323496749823
 20
53.10524262764307
 30
0.0
 40
5.25
  0
ARC
  5
876
330
18
100
AcDbEntity
  8
1
  6
Continuous
100
AcDbCircle
 10
452.8853747144963
 20
279.3255375264035
 30
0.0
 40
3.0
100
AcDbArc
 50
180.0
 51
270.0
  0
ARC
  5
877
330
18
100
AcDbEntity
  8
1
  6
Continuous
100
AcDbCircle
 10
456.3964747144963
 20
281.3255375264035
 30
0.0
 40
5.0
100
AcDbArc
 50
180.0
 51
270.0
  0
ARC
  5
878
330
18
100
AcDbEntity
  8
1
  6
Continuous
100
AcDbCircle
 10
532.8853747144964
 20
279.3255375264035
 30
0.0
 40
3.0
100
AcDbArc
 50
270.0
 51
0.0
  0
ARC
  5
879
330
18
100
AcDbEntity
  8
1
  6
Continuous
100
AcDbCircle
 10
529.3742747144961
 20
281.3255375264035
 30
0.0
 40
5.0
100
AcDbArc
 50
270.0
 51
0.0
  0
LINE
  5
87A
330
18
100
AcDbEntity
  8
1
  6
Continuous
100
AcDbLine
 10
522.9420817144961
 20
266.7678960810711
 30
0.0
 11
516.2587013088656
 21
285.7596263155628
 31
0.0
  0
LINE
  5
87B
330
18
100
AcDbEntity
  8
1
  6
Continuous
100
AcDbLine
 10
475.8853747144963
 20
278.983851081071
 30
0.0
 11
475.8853747144963
 21
281.983851081071
 31
0.0
  0
LINE
  5
87C
330
18
100
AcDbEntity
  8
1
  6
Continuous
100
AcDbLine
 10
509.8853747144963
 20
278.983851081071
 30
0.0
 11
509.8853747144963
 21
281.983851081071
 31
0.0
  0
LINE
  5
87D
330
18
100
AcDbEntity
  8
1
  6
Continuous
100
AcDbLine
 10
462.8286677144961
 20
266.7678960810711
 30
0.0
 11
469.5120481201271
 21
285.7596263155628
 31
0.0
  0
LINE
  5
87E
330
18
100
AcDbEntity
  8
1
  6
Continuous
100
AcDbLine
 10
449.8853747144964
 20
317.599851081071
 30
0.0
 11
449.8853747144964
 21
227.599851081071
 31
0.0
  0
LINE
  5
87F
330
18
100
AcDbEntity
  8
1
  6
Continuous
100
AcDbLine
 10
535.8853747144962
 20
317.599851081071
 30
0.0
 11
535.8853747144962
 21
227.599851081071
 31
0.0
  0
LINE
  5
882
330
18
100
AcDbEntity
  8
1
  6
Continuous
100
AcDbLine
 10
532.8853747144964
 20
276.3255375264035
 30
0.0
 11
526.8633204528724
 21
276.3255375264035
 31
0.0
  0
LINE
  5
883
330
18
100
AcDbEntity
  8
1
  6
Continuous
100
AcDbLine
 10
532.8853747144964
 20
224.599851081071
 30
0.0
 11
526.8853747144962
 21
224.599851081071
 31
0.0
  0
LINE
  5
884
330
18
100
AcDbEntity
  8
4
  6
CENTER
100
AcDbLine
 10
443.2668177144961
 20
247.599851081071
 30
0.0
 11
542.6952527144964
 21
247.599851081071
 31
0.0
  0
ARC
  5
886
330
18
100
AcDbEntity
  8
1
  6
Continuous
100
AcDbCircle
 10
470.8853747144964
 20
204.8955580810712
 30
0.0
 40
7.0
100
AcDbArc
 50
180.0
 51
265.1620790000001
  0
LINE
  5
887
330
18
100
AcDbEntity
  8
1
  6
Continuous
100
AcDbLine
 10
461.8853747144964
 20
227.599851081071
 30
0.0
 11
461.8853747144964
 21
265.9166350810711
 31
0.0
  0
LINE
  5
888
330
18
100
AcDbEntity
  8
1
  6
Continuous
100
AcDbLine
 10
463.8853747144962
 20
204.8955580810712
 30
0.0
 11
463.8853747144962
 21
269.7706720810712
 31
0.0
  0
ARC
  5
889
330
18
100
AcDbEntity
  8
1
  6
Continuous
100
AcDbCircle
 10
452.8853747144963
 20
227.599851081071
 30
0.0
 40
3.0
100
AcDbArc
 50
180.0
 51
270.0
  0
ARC
  5
88A
330
18
100
AcDbEntity
  8
1
  6
Continuous
100
AcDbCircle
 10
458.8853747144963
 20
227.599851081071
 30
0.0
 40
3.0
100
AcDbArc
 50
270.0
 51
0.0
  0
LINE
  5
88B
330
18
100
AcDbEntity
  8
1
  6
Continuous
100
AcDbLine
 10
462.8286677144961
 20
228.4318060810714
 30
0.0
 11
463.8853747144962
 21
225.4290300810711
 31
0.0
  0
LINE
  5
88C
330
18
100
AcDbEntity
  8
1
  6
Continuous
100
AcDbLine
 10
452.8853747144963
 20
224.599851081071
 30
0.0
 11
458.8853747144963
 21
224.599851081071
 31
0.0
  0
ARC
  5
88D
330
18
100
AcDbEntity
  8
1
  6
Continuous
100
AcDbCircle
 10
461.8853727144961
 20
228.099851081071
 30
0.0
 40
1.0
100
AcDbArc
 50
19.38747199999857
 51
80.40585799999968
  0
ARC
  5
88E
330
18
100
AcDbEntity
  8
1
  6
Continuous
100
AcDbCircle
 10
462.0853747144961
 20
229.2830670810711
 30
0.0
 40
0.2
100
AcDbArc
 50
180.0
 51
260.4058579999996
  0
ARC
  5
88F
330
18
100
AcDbEntity
  8
1
  6
Continuous
100
AcDbCircle
 10
462.0853747144961
 20
265.9166350810711
 30
0.0
 40
0.2
100
AcDbArc
 50
99.59414200000031
 51
180.0
  0
ARC
  5
890
330
18
100
AcDbEntity
  8
1
  6
Continuous
100
AcDbCircle
 10
461.8853727144961
 20
267.099851081071
 30
0.0
 40
1.0
100
AcDbArc
 50
279.5941420000003
 51
340.6125280000014
  0
LINE
  5
891
330
18
100
AcDbEntity
  8
1
  6
Continuous
100
AcDbLine
 10
452.8853747144963
 20
276.3255375264035
 30
0.0
 11
458.90742897612
 21
276.3255375264035
 31
0.0
  0
LINE
  5
892
330
18
100
AcDbEntity
  8
1
  6
Continuous
100
AcDbLine
 10
521.8853747144962
 20
204.8955580810712
 30
0.0
 11
521.8853747144962
 21
269.7706720810712
 31
0.0
  0
LINE
  5
893
330
18
100
AcDbEntity
  8
1
  6
Continuous
100
AcDbLine
 10
493.3853747144963
 20
261.099851081071
 30
0.0
 11
493.3853747144963
 21
234.099851081071
 31
0.0
  0
LINE
  5
894
330
18
100
AcDbEntity
  8
1
  6
Continuous
100
AcDbLine
 10
492.3853747144963
 20
234.099851081071
 30
0.0
 11
492.3853747144963
 21
261.099851081071
 31
0.0
  0
LINE
  5
895
330
18
100
AcDbEntity
  8
1
  6
Continuous
100
AcDbLine
 10
492.8853747144962
 20
234.599851081071
 30
0.0
 11
492.8853747144962
 21
260.599851081071
 31
0.0
  0
LINE
  5
896
330
18
100
AcDbEntity
  8
1
  6
Continuous
100
AcDbLine
 10
523.8853747144964
 20
227.599851081071
 30
0.0
 11
523.8853747144964
 21
265.9166350810711
 31
0.0
  0
LINE
  5
897
330
18
100
AcDbEntity
  8
1
  6
Continuous
100
AcDbLine
 10
493.8853747144963
 20
201.7394990810711
 30
0.0
 11
493.8853747144963
 21
267.983851081071
 31
0.0
  0
LINE
  5
898
330
18
100
AcDbEntity
  8
1
  6
Continuous
100
AcDbLine
 10
491.8853747144964
 20
201.7394990810711
 30
0.0
 11
491.8853747144964
 21
267.983851081071
 31
0.0
  0
ARC
  5
899
330
18
100
AcDbEntity
  8
1
  6
Continuous
100
AcDbCircle
 10
507.8853747144964
 20
287.599851081071
 30
0.0
 40
90.0
100
AcDbArc
 50
263.0278270000017
 51
274.8379209999999
  0
ARC
  5
89A
330
18
100
AcDbEntity
  8
1
  6
Continuous
100
AcDbCircle
 10
477.8853747144963
 20
287.599851081071
 30
0.0
 40
90.0
100
AcDbArc
 50
265.1620790000001
 51
276.9721729999982
  0
ARC
  5
89B
330
18
100
AcDbEntity
  8
1
  6
Continuous
100
AcDbCircle
 10
488.3853747144963
 20
201.7394990810711
 30
0.0
 40
3.5
100
AcDbArc
 50
276.9721729999982
 51
0.0
  0
ARC
  5
89C
330
18
100
AcDbEntity
  8
1
  6
Continuous
100
AcDbCircle
 10
497.3853747144963
 20
201.7394990810711
 30
0.0
 40
3.5
100
AcDbArc
 50
180.0
 51
263.0278270000017
  0
LINE
  5
89D
330
18
100
AcDbEntity
  8
1
  6
Continuous
100
AcDbLine
 10
492.8853747144962
 20
234.599851081071
 30
0.0
 11
493.3853747144961
 21
234.099851081071
 31
0.0
  0
LINE
  5
89E
330
18
100
AcDbEntity
  8
1
  6
Continuous
100
AcDbLine
 10
493.3853747144963
 20
234.099851081071
 30
0.0
 11
493.8853747144963
 21
234.099851081071
 31
0.0
  0
LINE
  5
89F
330
18
100
AcDbEntity
  8
1
  6
Continuous
100
AcDbLine
 10
492.8853747144962
 20
234.599851081071
 30
0.0
 11
492.3853747144963
 21
234.099851081071
 31
0.0
  0
LINE
  5
8A0
330
18
100
AcDbEntity
  8
1
  6
Continuous
100
AcDbLine
 10
492.3853747144963
 20
234.099851081071
 30
0.0
 11
491.8853747144964
 21
234.099851081071
 31
0.0
  0
ARC
  5
8A1
330
18
100
AcDbEntity
  8
1
  6
Continuous
100
AcDbCircle
 10
514.8853747144962
 20
204.8955580810712
 30
0.0
 40
7.0
100
AcDbArc
 50
274.8379209999999
 51
0.0
  0
LINE
  5
8A2
330
18
100
AcDbEntity
  8
1
  6
Continuous
100
AcDbLine
 10
522.942080714496
 20
228.4318060810711
 30
0.0
 11
521.8853747144962
 21
225.4290300810711
 31
0.0
  0
ARC
  5
8A3
330
18
100
AcDbEntity
  8
1
  6
Continuous
100
AcDbCircle
 10
526.8853747144962
 20
227.599851081071
 30
0.0
 40
3.0
100
AcDbArc
 50
180.0
 51
270.0
  0
ARC
  5
8A4
330
18
100
AcDbEntity
  8
1
  6
Continuous
100
AcDbCircle
 10
523.8853757144961
 20
228.099851081071
 30
0.0
 40
1.0
100
AcDbArc
 50
99.59414200000031
 51
160.6125280000014
  0
ARC
  5
8A5
330
18
100
AcDbEntity
  8
1
  6
Continuous
100
AcDbCircle
 10
523.6853747144963
 20
229.2830670810711
 30
0.0
 40
0.2
100
AcDbArc
 50
279.5941420000003
 51
0.0
  0
ARC
  5
8A6
330
18
100
AcDbEntity
  8
1
  6
Continuous
100
AcDbCircle
 10
500.6796032350986
 20
322.6799030633293
 30
0.0
 40
54.562052
100
AcDbArc
 50
261.7871610000004
 51
268.9062717056291
  0
LINE
  5
8A7
330
18
100
AcDbEntity
  8
1
  6
Continuous
100
AcDbLine
 10
509.8853747144963
 20
278.983851081071
 30
0.0
 11
475.8853747144963
 21
278.983851081071
 31
0.0
  0
LINE
  5
8A8
330
18
100
AcDbEntity
  8
1
  6
Continuous
100
AcDbLine
 10
506.3853747144963
 20
267.983851081071
 30
0.0
 11
479.3853747144964
 21
267.983851081071
 31
0.0
  0
ARC
  5
8A9
330
18
100
AcDbEntity
  8
1
  6
Continuous
100
AcDbCircle
 10
487.1796032350978
 20
322.6799030633293
 30
0.0
 40
54.562052
100
AcDbArc
 50
261.7871610000004
 51
268.9062717056291
  0
LINE
  5
8AA
330
18
100
AcDbEntity
  8
1
  6
Continuous
100
AcDbLine
 10
479.3853747144964
 20
267.9838510810709
 30
0.0
 11
479.3853747144961
 21
278.9838510810709
 31
0.0
  0
ARC
  5
8AB
330
18
100
AcDbEntity
  8
1
  6
Continuous
100
AcDbCircle
 10
485.0911461938933
 20
322.6799030633293
 30
0.0
 40
54.562052
100
AcDbArc
 50
271.0937282943708
 51
278.2128389999995
  0
LINE
  5
8AC
330
18
100
AcDbEntity
  8
1
  6
Continuous
100
AcDbLine
 10
492.8853747144962
 20
268.6774260810711
 30
0.0
 11
492.8853747144962
 21
278.983851081071
 31
0.0
  0
LINE
  5
8AD
330
18
100
AcDbEntity
  8
1
  6
Continuous
100
AcDbLine
 10
492.8853747144962
 20
260.599851081071
 30
0.0
 11
493.3853747144961
 21
261.099851081071
 31
0.0
  0
LINE
  5
8AE
330
18
100
AcDbEntity
  8
1
  6
Continuous
100
AcDbLine
 10
493.3853747144963
 20
261.099851081071
 30
0.0
 11
493.8853747144963
 21
261.099851081071
 31
0.0
  0
LINE
  5
8AF
330
18
100
AcDbEntity
  8
1
  6
Continuous
100
AcDbLine
 10
492.8853747144962
 20
260.599851081071
 30
0.0
 11
492.3853747144961
 21
261.099851081071
 31
0.0
  0
LINE
  5
8B0
330
18
100
AcDbEntity
  8
1
  6
Continuous
100
AcDbLine
 10
492.3853747144963
 20
261.099851081071
 30
0.0
 11
491.8853747144964
 21
261.099851081071
 31
0.0
  0
LINE
  5
8B1
330
18
100
AcDbEntity
  8
1
  6
Continuous
100
AcDbLine
 10
506.3853747144963
 20
267.983851081071
 30
0.0
 11
506.3853747144963
 21
278.983851081071
 31
0.0
  0
ARC
  5
8B2
330
18
100
AcDbEntity
  8
1
  6
Continuous
100
AcDbCircle
 10
498.5911461938941
 20
322.6799030633293
 30
0.0
 40
54.562052
100
AcDbArc
 50
271.0937282943708
 51
278.2128389999995
  0
ARC
  5
8B3
330
18
100
AcDbEntity
  8
1
  6
Continuous
100
AcDbCircle
 10
523.685374714496
 20
265.9166350810711
 30
0.0
 40
0.2
100
AcDbArc
 50
0.0
 51
80.40585799999968
  0
ARC
  5
8B4
330
18
100
AcDbEntity
  8
1
  6
Continuous
100
AcDbCircle
 10
523.8853767144961
 20
267.099851081071
 30
0.0
 40
1.0
100
AcDbArc
 50
199.3874719999985
 51
260.4058579999996
  0
ARC
  5
8B5
330
18
100
AcDbEntity
  8
1
  6
Continuous
100
AcDbCircle
 10
532.8853747144964
 20
227.599851081071
 30
0.0
 40
3.0
100
AcDbArc
 50
270.0
 51
0.0
  0
LINE
  5
8B7
330
18
100
AcDbEntity
  8
1
  6
Continuous
100
AcDbLine
 10
514.6330146936253
 20
288.6846941975381
 30
0.0
 11
532.0698859799855
 21
280.1482420245537
 31
0.0
  0
ARC
  5
8B8
330
18
100
AcDbEntity
  8
1
  6
Continuous
100
AcDbCircle
 10
528.3742747144962
 20
314.599851081071
 30
0.0
 40
6.0
100
AcDbArc
 50
0.0
 51
90.0
  0
LINE
  5
8BE
330
18
100
AcDbEntity
  8
1
  6
Continuous
100
AcDbLine
 10
471.1377347353669
 20
288.6846941975381
 30
0.0
 11
453.700863449007
 21
280.1482420245537
 31
0.0
  0
LINE
  5
8C2
330
18
100
AcDbEntity
  8
1
  6
Continuous
100
AcDbLine
 10
451.3964747144963
 20
281.3255375264035
 30
0.0
 11
451.3964747144963
 21
314.599851081071
 31
0.0
  0
ARC
  5
8C3
330
18
100
AcDbEntity
  8
1
  6
Continuous
100
AcDbCircle
 10
457.3964747144962
 20
314.599851081071
 30
0.0
 40
6.0
100
AcDbArc
 50
90.0
 51
180.0
  0
ARC
  5
8C4
330
18
100
AcDbEntity
  8
1
  6
Continuous
100
AcDbCircle
 10
452.8853747144963
 20
317.599851081071
 30
0.0
 40
3.0
100
AcDbArc
 50
90.0
 51
180.0
  0
LINE
  5
8C8
330
18
100
AcDbEntity
  8
1
  6
Continuous
100
AcDbLine
 10
473.1325313659494
 20
289.099851081071
 30
0.0
 11
512.6382180630429
 21
289.099851081071
 31
0.0
  0
LINE
  5
8C9
330
18
100
AcDbEntity
  8
1
  6
Continuous
100
AcDbLine
 10
514.4268299280362
 20
288.1838510810711
 30
0.0
 11
471.441411280256
 21
288.1838510810711
 31
0.0
  0
LINE
  5
8CA
330
18
100
AcDbEntity
  8
1
  6
Continuous
100
AcDbLine
 10
511.6511027144961
 20
281.983851081071
 30
0.0
 11
474.119646714496
 21
281.983851081071
 31
0.0
  0
LINE
  5
8CB
330
18
100
AcDbEntity
  8
1
  6
Continuous
100
AcDbLine
 10
496.8853747144962
 20
289.099851081071
 30
0.0
 11
496.8853747144962
 21
320.599851081071
 31
0.0
  0
LINE
  5
8CC
330
18
100
AcDbEntity
  8
1
  6
Continuous
100
AcDbLine
 10
488.8853747144962
 20
289.099851081071
 30
0.0
 11
488.8853747144962
 21
320.599851081071
 31
0.0
  0
ARC
  5
8CD
330
18
100
AcDbEntity
  8
1
  6
Continuous
100
AcDbCircle
 10
474.2285241532441
 20
284.099851081071
 30
0.0
 40
5.0
100
AcDbArc
 50
90.0
 51
160.6125180895993
  0
ARC
  5
8CE
330
18
100
AcDbEntity
  8
1
  6
Continuous
100
AcDbCircle
 10
473.1325313659494
 20
284.099851081071
 30
0.0
 40
5.0
100
AcDbArc
 50
90.0
 51
113.5131370350235
  0
ARC
  5
8CF
330
18
100
AcDbEntity
  8
1
  6
Continuous
100
AcDbCircle
 10
474.119646714496
 20
283.9838510810711
 30
0.0
 40
2.0
100
AcDbArc
 50
210.0000000000004
 51
270.0
  0
LINE
  5
8D0
330
18
100
AcDbEntity
  8
1
  6
Continuous
100
AcDbLine
 10
470.1080594825226
 20
286.9321241783087
 30
0.0
 11
472.3875957144962
 21
282.983851081071
 31
0.0
  0
ARC
  5
8D2
330
18
100
AcDbEntity
  8
1
  6
Continuous
100
AcDbCircle
 10
512.6382180630429
 20
284.099851081071
 30
0.0
 40
5.0
100
AcDbArc
 50
66.48686296497647
 51
90.0
  0
ARC
  5
8D3
330
18
100
AcDbEntity
  8
1
  6
Continuous
100
AcDbCircle
 10
511.5422252757485
 20
284.099851081071
 30
0.0
 40
5.0
100
AcDbArc
 50
19.38748191040061
 51
90.0
  0
ARC
  5
8D4
330
18
100
AcDbEntity
  8
1
  6
Continuous
100
AcDbCircle
 10
511.6511027144961
 20
283.9838510810711
 30
0.0
 40
2.0
100
AcDbArc
 50
270.0
 51
329.9999999999994
  0
LINE
  5
8D5
330
18
100
AcDbEntity
  8
1
  6
Continuous
100
AcDbLine
 10
515.6626899464697
 20
286.9321241783088
 30
0.0
 11
513.3831537144962
 21
282.983851081071
 31
0.0
  0
LINE
  5
8EB
330
18
100
AcDbEntity
  8
1
  6
Continuous
100
AcDbLine
 10
534.3742747144962
 20
281.3255375264035
 30
0.0
 11
534.3742747144962
 21
314.599851081071
 31
0.0
  0
ARC
  5
8EC
330
18
100
AcDbEntity
  8
1
  6
Continuous
100
AcDbCircle
 10
532.8853747144964
 20
317.599851081071
 30
0.0
 40
3.0
100
AcDbArc
 50
0.0
 51
90.0
  0
LINE
  5
B49
330
18
100
AcDbEntity
  8
1
  6
Continuous
100
AcDbLine
 10
231.1323496749823
 20
123.105242627643
 30
0.0
 11
327.1323496749825
 21
123.105242627643
 31
0.0
  0
LINE
  5
B4B
330
18
100
AcDbEntity
  8
1
  6
Continuous
100
AcDbLine
 10
328.9265786749826
 20
105.605242627643
 30
0.0
 11
313.3381216749824
 21
105.605242627643
 31
0.0
  0
LINE
  5
B4D
330
18
100
AcDbEntity
  8
1
  6
Continuous
100
AcDbLine
 10
328.9265786749826
 20
78.60524262764307
 30
0.0
 11
313.3381216749824
 21
78.60524262764307
 31
0.0
  0
CIRCLE
  5
B4E
330
18
100
AcDbEntity
  8
1
  6
Continuous
100
AcDbCircle
 10
321.1323496749823
 20
92.10524262764307
 30
0.0
 40
10.0
  0
CIRCLE
  5
B4F
330
18
100
AcDbEntity
  8
1
  6
Continuous
100
AcDbCircle
 10
321.1323496749823
 20
92.10524262764307
 30
0.0
 40
13.0
  0
CIRCLE
  5
B50
330
18
100
AcDbEntity
  8
1
  6
Continuous
100
AcDbCircle
 10
321.1323496749823
 20
92.10524262764307
 30
0.0
 40
17.0
  0
LINE
  5
B51
330
18
100
AcDbEntity
  8
1
  6
Continuous
100
AcDbLine
 10
231.1323496749823
 20
49.10524262764305
 30
0.0
 11
324.6323496749825
 21
49.10524262764305
 31
0.0
  0
LINE
  5
B52
330
18
100
AcDbEntity
  8
1
  6
Continuous
100
AcDbLine
 10
231.1323496749823
 20
61.10524262764307
 30
0.0
 11
327.1323496749825
 21
61.10524262764307
 31
0.0
  0
ARC
  5
B54
330
18
100
AcDbEntity
  8
1
  6
Continuous
100
AcDbCircle
 10
321.1323496749823
 20
92.10524262764307
 30
0.0
 40
23.5
100
AcDbArc
 50
211.4798350120777
 51
148.5201649879222
  0
ARC
  5
B55
330
18
100
AcDbEntity
  8
1
  6
Continuous
100
AcDbCircle
 10
321.1323496749823
 20
92.10524262764307
 30
0.0
 40
19.76572800000008
100
AcDbArc
 50
118.7026747369468
 51
151.5341699720141
  0
LINE
  5
B56
330
18
100
AcDbEntity
  8
1
  6
Continuous
100
AcDbLine
 10
305.5438926749824
 20
92.10524262764307
 30
0.0
 11
313.3381216749824
 21
105.605242627643
 31
0.0
  0
ARC
  5
B57
330
18
100
AcDbEntity
  8
1
  6
Continuous
100
AcDbCircle
 10
291.1323496749825
 20
107.105242627643
 30
0.0
 40
90.0
100
AcDbArc
 50
175.162079
 51
186.9721729999982
  0
ARC
  5
B58
330
18
100
AcDbEntity
  8
1
  6
Continuous
100
AcDbCircle
 10
211.1323496749822
 20
107.105242627643
 30
0.0
 40
90.0
100
AcDbArc
 50
353.0278270000017
 51
4.837920999999876
  0
LINE
  5
B59
330
18
100
AcDbEntity
  8
1
  6
Continuous
100
AcDbLine
 10
208.4280576749824
 20
63.10524262764307
 30
0.0
 11
293.8366416749822
 21
63.10524262764307
 31
0.0
  0
LINE
  5
B5A
330
18
100
AcDbEntity
  8
1
  6
Continuous
100
AcDbLine
 10
296.9927016749823
 20
91.10524262764306
 30
0.0
 11
205.2719976749824
 21
91.10524262764306
 31
0.0
  0
LINE
  5
B5B
330
18
100
AcDbEntity
  8
1
  6
Continuous
100
AcDbLine
 10
296.9927016749823
 20
93.10524262764307
 30
0.0
 11
205.2719976749824
 21
93.10524262764307
 31
0.0
  0
ARC
  5
B5C
330
18
100
AcDbEntity
  8
1
  6
Continuous
100
AcDbCircle
 10
208.4280576749824
 20
70.10524262764306
 30
0.0
 40
7.0
100
AcDbArc
 50
184.8379209999998
 51
270.0
  0
ARC
  5
B5D
330
18
100
AcDbEntity
  8
1
  6
Continuous
100
AcDbCircle
 10
291.1323496749825
 20
77.10524262764306
 30
0.0
 40
90.0
100
AcDbArc
 50
173.0278270000017
 51
184.8379209999998
  0
ARC
  5
B5E
330
18
100
AcDbEntity
  8
1
  6
Continuous
100
AcDbCircle
 10
205.2719976749824
 20
87.60524262764306
 30
0.0
 40
3.5
100
AcDbArc
 50
90.0
 51
173.0278270000017
  0
ARC
  5
B5F
330
18
100
AcDbEntity
  8
1
  6
Continuous
100
AcDbCircle
 10
205.2719976749824
 20
96.60524262764306
 30
0.0
 40
3.5
100
AcDbArc
 50
186.9721729999982
 51
270.0
  0
ARC
  5
B60
330
18
100
AcDbEntity
  8
1
  6
Continuous
100
AcDbCircle
 10
231.1323496749823
 20
52.10524262764305
 30
0.0
 40
3.0
100
AcDbArc
 50
180.0
 51
270.0
  0
LINE
  5
B61
330
18
100
AcDbEntity
  8
1
  6
Continuous
100
AcDbLine
 10
231.9643046749825
 20
62.048536627643
 30
0.0
 11
228.9615296749824
 21
63.10524262764307
 31
0.0
  0
LINE
  5
B62
330
18
100
AcDbEntity
  8
1
  6
Continuous
100
AcDbLine
 10
228.1323496749823
 20
58.10524262764307
 30
0.0
 11
228.1323496749823
 21
52.10524262764305
 31
0.0
  0
ARC
  5
B63
330
18
100
AcDbEntity
  8
1
  6
Continuous
100
AcDbCircle
 10
231.1323496749823
 20
58.10524262764307
 30
0.0
 40
3.0
100
AcDbArc
 50
90.0
 51
180.0
  0
ARC
  5
B64
330
18
100
AcDbEntity
  8
1
  6
Continuous
100
AcDbCircle
 10
231.6323496749823
 20
61.10524062764307
 30
0.0
 40
1.0
100
AcDbArc
 50
0.0
 51
70.61252800000142
  0
ARC
  5
B65
330
18
100
AcDbEntity
  8
1
  6
Continuous
100
AcDbCircle
 10
232.8155656749824
 20
61.30524262764287
 30
0.0
 40
0.2
100
AcDbArc
 50
189.5941420000003
 51
270.0
  0
LINE
  5
B66
330
18
100
AcDbEntity
  8
1
  6
Continuous
100
AcDbLine
 10
238.1323496749824
 20
92.10524262764307
 30
0.0
 11
264.1323496749823
 21
92.10524262764307
 31
0.0
  0
LINE
  5
B67
330
18
100
AcDbEntity
  8
1
  6
Continuous
100
AcDbLine
 10
264.6323496749823
 20
91.60524262764306
 30
0.0
 11
237.6323496749823
 21
91.60524262764306
 31
0.0
  0
LINE
  5
B68
330
18
100
AcDbEntity
  8
1
  6
Continuous
100
AcDbLine
 10
264.6323496749823
 20
92.60524262764306
 30
0.0
 11
237.6323496749823
 21
92.60524262764306
 31
0.0
  0
LINE
  5
B69
330
18
100
AcDbEntity
  8
1
  6
Continuous
100
AcDbLine
 10
237.6323496749823
 20
91.60524262764306
 30
0.0
 11
237.6323496749823
 21
91.10524262764306
 31
0.0
  0
LINE
  5
B6A
330
18
100
AcDbEntity
  8
1
  6
Continuous
100
AcDbLine
 10
238.1323496749824
 20
92.10524262764307
 30
0.0
 11
237.6323496749823
 21
91.60524262764306
 31
0.0
  0
LINE
  5
B6B
330
18
100
AcDbEntity
  8
1
  6
Continuous
100
AcDbLine
 10
238.1323496749824
 20
92.10524262764307
 30
0.0
 11
237.6323496749823
 21
92.60524262764306
 31
0.0
  0
LINE
  5
B6C
330
18
100
AcDbEntity
  8
1
  6
Continuous
100
AcDbLine
 10
237.6323496749823
 20
92.60524262764306
 30
0.0
 11
237.6323496749823
 21
93.10524262764307
 31
0.0
  0
LINE
  5
B6D
330
18
100
AcDbEntity
  8
1
  6
Continuous
100
AcDbLine
 10
264.6323496749823
 20
91.60524262764306
 30
0.0
 11
264.6323496749823
 21
91.10524262764306
 31
0.0
  0
LINE
  5
B6E
330
18
100
AcDbEntity
  8
1
  6
Continuous
100
AcDbLine
 10
264.1323496749823
 20
92.10524262764307
 30
0.0
 11
264.6323496749823
 21
91.60524262764306
 31
0.0
  0
LINE
  5
B6F
330
18
100
AcDbEntity
  8
1
  6
Continuous
100
AcDbLine
 10
264.1323496749823
 20
92.10524262764307
 30
0.0
 11
264.6323496749823
 21
92.60524262764306
 31
0.0
  0
LINE
  5
B70
330
18
100
AcDbEntity
  8
1
  6
Continuous
100
AcDbLine
 10
264.6323496749823
 20
92.60524262764306
 30
0.0
 11
264.6323496749823
 21
93.10524262764307
 31
0.0
  0
ARC
  5
B71
330
18
100
AcDbEntity
  8
1
  6
Continuous
100
AcDbCircle
 10
293.8366416749822
 20
70.10524262764306
 30
0.0
 40
7.0
100
AcDbArc
 50
270.0
 51
355.1620790000002
  0
LINE
  5
B72
330
18
100
AcDbEntity
  8
1
  6
Continuous
100
AcDbLine
 10
270.3003946749823
 20
62.048536627643
 30
0.0
 11
273.3031706749824
 21
63.10524262764307
 31
0.0
  0
ARC
  5
B73
330
18
100
AcDbEntity
  8
1
  6
Continuous
100
AcDbCircle
 10
270.6323496749823
 20
61.10524062764307
 30
0.0
 40
1.0
100
AcDbArc
 50
109.3874719999985
 51
180.0
  0
ARC
  5
B74
330
18
100
AcDbEntity
  8
1
  6
Continuous
100
AcDbCircle
 10
269.4491336749824
 20
61.30524262764287
 30
0.0
 40
0.2
100
AcDbArc
 50
270.0
 51
350.4058579999997
  0
ARC
  5
B75
330
18
100
AcDbEntity
  8
1
  6
Continuous
100
AcDbCircle
 10
281.2951816749823
 20
69.10524262764306
 30
0.0
 40
8.0
100
AcDbArc
 50
270.0
 51
311.4096221092697
  0
ARC
  5
B78
330
18
100
AcDbEntity
  8
1
  6
Continuous
100
AcDbCircle
 10
211.1323496749822
 20
77.10524262764306
 30
0.0
 40
90.0
100
AcDbArc
 50
355.1620790000002
 51
6.972172999998203
  0
LINE
  5
B79
330
18
100
AcDbEntity
  8
1
  6
Continuous
100
AcDbLine
 10
305.5438926749824
 20
92.10524262764307
 30
0.0
 11
313.3381216749824
 21
78.60524262764307
 31
0.0
  0
ARC
  5
B7A
330
18
100
AcDbEntity
  8
1
  6
Continuous
100
AcDbCircle
 10
321.1323496749823
 20
92.10524262764307
 30
0.0
 40
19.76572800000008
100
AcDbArc
 50
208.4658300279858
 51
241.2973252630532
  0
ARC
  5
B7B
330
18
100
AcDbEntity
  8
1
  6
Continuous
100
AcDbCircle
 10
296.9927016749823
 20
87.60524262764306
 30
0.0
 40
3.5
100
AcDbArc
 50
6.972172999998203
 51
90.0
  0
ARC
  5
B7C
330
18
100
AcDbEntity
  8
1
  6
Continuous
100
AcDbCircle
 10
296.9927016749823
 20
96.60524262764306
 30
0.0
 40
3.5
100
AcDbArc
 50
270.0
 51
353.0278270000017
  0
LINE
  5
B7F
330
18
100
AcDbEntity
  8
1
  6
Continuous
100
AcDbLine
 10
208.4280576749824
 20
121.105242627643
 30
0.0
 11
293.8366416749822
 21
121.105242627643
 31
0.0
  0
ARC
  5
B80
330
18
100
AcDbEntity
  8
1
  6
Continuous
100
AcDbCircle
 10
208.4280576749824
 20
114.105242627643
 30
0.0
 40
7.0
100
AcDbArc
 50
90.0
 51
175.162079
  0
LINE
  5
B81
330
18
100
AcDbEntity
  8
1
  6
Continuous
100
AcDbLine
 10
231.9643046749825
 20
122.1619486276429
 30
0.0
 11
228.9615296749824
 21
121.105242627643
 31
0.0
  0
ARC
  5
B82
330
18
100
AcDbEntity
  8
1
  6
Continuous
100
AcDbCircle
 10
231.1323496749823
 20
126.105242627643
 30
0.0
 40
3.0
100
AcDbArc
 50
180.0
 51
270.0
  0
ARC
  5
B83
330
18
100
AcDbEntity
  8
1
  6
Continuous
100
AcDbCircle
 10
232.8155656749824
 20
122.905242627643
 30
0.0
 40
0.2
100
AcDbArc
 50
90.0
 51
170.4058579999996
  0
ARC
  5
B84
330
18
100
AcDbEntity
  8
1
  6
Continuous
100
AcDbCircle
 10
231.6323496749823
 20
123.105244627643
 30
0.0
 40
1.0
100
AcDbArc
 50
289.3874719999985
 51
350.4058579999997
  0
ARC
  5
B85
330
18
100
AcDbEntity
  8
1
  6
Continuous
100
AcDbCircle
 10
281.2951816749823
 20
115.105242627643
 30
0.0
 40
8.0
100
AcDbArc
 50
48.59037789073024
 51
90.0
  0
LINE
  5
B86
330
18
100
AcDbEntity
  8
1
  6
Continuous
100
AcDbLine
 10
270.3003946749823
 20
122.1619486276431
 30
0.0
 11
273.3031706749824
 21
121.105242627643
 31
0.0
  0
ARC
  5
B87
330
18
100
AcDbEntity
  8
1
  6
Continuous
100
AcDbCircle
 10
269.4491336749824
 20
122.905242627643
 30
0.0
 40
0.2
100
AcDbArc
 50
9.594142000000307
 51
90.0
  0
ARC
  5
B88
330
18
100
AcDbEntity
  8
1
  6
Continuous
100
AcDbCircle
 10
270.6323496749823
 20
123.105244627643
 30
0.0
 40
1.0
100
AcDbArc
 50
189.5941420000003
 51
250.6125280000014
  0
ARC
  5
B89
330
18
100
AcDbEntity
  8
1
  6
Continuous
100
AcDbCircle
 10
293.8366416749822
 20
114.105242627643
 30
0.0
 40
7.0
100
AcDbArc
 50
4.837920999999876
 51
90.0
  0
ARC
  5
B8A
330
18
100
AcDbEntity
  8
1
  6
Continuous
100
AcDbCircle
 10
321.1323496749823
 20
92.10524262764307
 30
0.0
 40
19.76572800000008
100
AcDbArc
 50
28.46583002798584
 51
61.29732526305314
  0
LINE
  5
B8B
330
18
100
AcDbEntity
  8
1
  6
Continuous
100
AcDbLine
 10
336.7208066749823
 20
92.10524262764307
 30
0.0
 11
328.9265786749826
 21
105.605242627643
 31
0.0
  0
ARC
  5
B8C
330
18
100
AcDbEntity
  8
1
  6
Continuous
100
AcDbCircle
 10
321.1323496749823
 20
92.10524262764307
 30
0.0
 40
38.0
100
AcDbArc
 50
282.1151169999996
 51
353.2877480000025
  0
ARC
  5
B8D
330
18
100
AcDbEntity
  8
1
  6
Continuous
100
AcDbCircle
 10
324.6323496749825
 20
51.60524262764305
 30
0.0
 40
2.5
100
AcDbArc
 50
270.0
 51
0.0
  0
ARC
  5
B8E
330
18
100
AcDbEntity
  8
1
  6
Continuous
100
AcDbCircle
 10
321.1323496749823
 20
92.10524262764307
 30
0.0
 40
31.57530680769388
100
AcDbArc
 50
280.9540626434
 51
308.7546590148057
  0
LINE
  5
B8F
330
18
100
AcDbEntity
  8
1
  6
Continuous
100
AcDbLine
 10
327.1323496749825
 20
52.50726262764306
 30
0.0
 11
327.1323496749825
 21
51.60524262764305
 31
0.0
  0
ARC
  5
B90
330
18
100
AcDbEntity
  8
1
  6
Continuous
100
AcDbCircle
 10
329.6323496749824
 20
52.50726262764306
 30
0.0
 40
2.5
100
AcDbArc
 50
102.1151169999996
 51
180.0
  0
LINE
  5
B91
330
18
100
AcDbEntity
  8
1
  6
Continuous
100
AcDbLine
 10
336.7208066749823
 20
92.10524262764307
 30
0.0
 11
328.9265786749826
 21
78.60524262764307
 31
0.0
  0
ARC
  5
B92
330
18
100
AcDbEntity
  8
1
  6
Continuous
100
AcDbCircle
 10
321.1323496749823
 20
92.10524262764307
 30
0.0
 40
19.76572800000008
100
AcDbArc
 50
298.7026747369469
 51
331.5341699720141
  0
ARC
  5
B98
330
18
100
AcDbEntity
  8
1
  6
Continuous
100
AcDbCircle
 10
359.9323496749824
 20
95.60524262764307
 30
0.0
 40
0.5
100
AcDbArc
 50
0.0
 51
90.0
  0
ARC
  5
B99
330
18
100
AcDbEntity
  8
1
  6
Continuous
100
AcDbCircle
 10
359.3684586749824
 20
96.60524262764306
 30
0.0
 40
0.5
100
AcDbArc
 50
186.7122519999974
 51
270.0
  0
LINE
  5
B9A
330
18
100
AcDbEntity
  8
1
  6
Continuous
100
AcDbLine
 10
359.9323496749824
 20
96.10524262764307
 30
0.0
 11
355.9030266749823
 21
96.10524262764307
 31
0.0
  0
ARC
  5
B9B
330
18
100
AcDbEntity
  8
1
  6
Continuous
100
AcDbCircle
 10
359.9323496749824
 20
88.60524262764306
 30
0.0
 40
0.5
100
AcDbArc
 50
270.0
 51
0.0
  0
ARC
  5
B9C
330
18
100
AcDbEntity
  8
1
  6
Continuous
100
AcDbCircle
 10
359.3684586749824
 20
87.60524262764306
 30
0.0
 40
0.5
100
AcDbArc
 50
90.0
 51
173.2877480000025
  0
LINE
  5
B9D
330
18
100
AcDbEntity
  8
1
  6
Continuous
100
AcDbLine
 10
360.4323496749824
 20
92.10524262764307
 30
0.0
 11
360.4323496749824
 21
88.60524262764306
 31
0.0
  0
LINE
  5
B9E
330
18
100
AcDbEntity
  8
1
  6
Continuous
100
AcDbLine
 10
359.9323496749824
 20
88.10524262764307
 30
0.0
 11
355.9030266749823
 21
88.10524262764307
 31
0.0
  0
LINE
  5
B9F
330
18
100
AcDbEntity
  8
1
  6
Continuous
100
AcDbLine
 10
360.4323496749824
 20
92.10524262764307
 30
0.0
 11
360.4323496749824
 21
95.60524262764307
 31
0.0
  0
ARC
  5
BA0
330
18
100
AcDbEntity
  8
1
  6
Continuous
100
AcDbCircle
 10
321.1323496749823
 20
92.10524262764307
 30
0.0
 40
31.57530680769388
100
AcDbArc
 50
51.24534098519433
 51
79.04593735659981
  0
LINE
  5
BA1
330
18
100
AcDbEntity
  8
1
  6
Continuous
100
AcDbLine
 10
231.1323496749823
 20
135.105242627643
 30
0.0
 11
324.6323496749825
 21
135.105242627643
 31
0.0
  0
ARC
  5
BA2
330
18
100
AcDbEntity
  8
1
  6
Continuous
100
AcDbCircle
 10
231.1323496749823
 20
132.105242627643
 30
0.0
 40
3.0
100
AcDbArc
 50
90.0
 51
180.0
  0
LINE
  5
BA3
330
18
100
AcDbEntity
  8
1
  6
Continuous
100
AcDbLine
 10
228.1323496749823
 20
126.105242627643
 30
0.0
 11
228.1323496749823
 21
132.105242627643
 31
0.0
  0
ARC
  5
BA4
330
18
100
AcDbEntity
  8
1
  6
Continuous
100
AcDbCircle
 10
321.1323496749823
 20
92.10524262764307
 30
0.0
 40
38.0
100
AcDbArc
 50
6.712251999997479
 51
77.88488300000032
  0
LINE
  5
BA5
330
18
100
AcDbEntity
  8
1
  6
Continuous
100
AcDbLine
 10
327.1323496749825
 20
132.6052426276429
 30
0.0
 11
327.1323496749825
 21
131.703222627643
 31
0.0
  0
ARC
  5
BA6
330
18
100
AcDbEntity
  8
1
  6
Continuous
100
AcDbCircle
 10
324.6323496749825
 20
132.6052426276429
 30
0.0
 40
2.5
100
AcDbArc
 50
0.0
 51
90.0
  0
ARC
  5
BA7
330
18
100
AcDbEntity
  8
1
  6
Continuous
100
AcDbCircle
 10
329.6323496749824
 20
131.703222627643
 30
0.0
 40
2.5
100
AcDbArc
 50
180.0
 51
257.8848830000003
  0
LINE
  5
BBD
330
18
100
AcDbEntity
  8
1
  6
Continuous
100
AcDbLine
 10
271.1323496749823
 20
91.10524262764306
 30
0.0
 11
271.1323496749823
 21
93.10524262764307
 31
0.0
  0
CIRCLE
  5
C3F
330
18
100
AcDbEntity
  8
1
  6
Continuous
100
AcDbCircle
 10
251.1323496749823
 20
247.599851081071
 30
0.0
 40
6.0
  0
LINE
  5
C40
330
18
100
AcDbEntity
  8
4
  6
CENTER
100
AcDbLine
 10
282.1323496749823
 20
351.505566204308
 30
0.0
 11
282.1323496749823
 21
336.3258359980729
 31
0.0
  0
LINE
  5
C41
330
18
100
AcDbEntity
  8
4
  6
CENTER
100
AcDbLine
 10
360.1323496749823
 20
351.505566204308
 30
0.0
 11
360.1323496749823
 21
336.3258359980729
 31
0.0
  0
LINE
  5
C42
330
18
100
AcDbEntity
  8
4
  6
CENTER
100
AcDbLine
 10
36.23632919469662
 20
351.505566204308
 30
0.0
 11
36.23632919469662
 21
336.3258359980729
 31
0.0
  0
LINE
  5
C43
330
18
100
AcDbEntity
  8
4
  6
CENTER
100
AcDbLine
 10
114.2363291946966
 20
351.505566204308
 30
0.0
 11
114.2363291946966
 21
336.3258359980729
 31
0.0
  0
LINE
  5
C44
330
18
100
AcDbEntity
  8
4
  6
CENTER
100
AcDbLine
 10
453.8853747144964
 20
351.505566204308
 30
0.0
 11
453.8853747144964
 21
336.3258359980729
 31
0.0
  0
LINE
  5
C45
330
18
100
AcDbEntity
  8
4
  6
CENTER
100
AcDbLine
 10
531.8853747144962
 20
351.505566204308
 30
0.0
 11
531.8853747144962
 21
336.3258359980729
 31
0.0
  0
LINE
  5
D5E
330
18
100
AcDbEntity
  8
4
  6
CENTER
100
AcDbLine
 10
625.6383997540104
 20
351.505566204308
 30
0.0
 11
625.6383997540104
 21
336.3258359980729
 31
0.0
  0
LINE
  5
D5F
330
18
100
AcDbEntity
  8
4
  6
CENTER
100
AcDbLine
 10
703.6383997540102
 20
351.505566204308
 30
0.0
 11
703.6383997540102
 21
336.3258359980729
 31
0.0
  0
LINE
  5
F35
330
18
100
AcDbEntity
  8
1
  6
Continuous
100
AcDbLine
 10
329.4111036749824
 20
142.105242627643
 30
0.0
 11
329.4111036749824
 21
135.6688708994873
 31
0.0
  0
LINE
  5
F36
330
18
100
AcDbEntity
  8
1
  6
Continuous
100
AcDbLine
 10
312.8535956749824
 20
142.1052426276431
 30
0.0
 11
312.8535956749824
 21
135.105242627643
 31
0.0
  0
LINE
  5
F37
330
18
100
AcDbEntity
  8
1
  6
Continuous
100
AcDbLine
 10
312.8535956749824
 20
49.10524262764305
 30
0.0
 11
312.8535956749824
 21
42.10524262764305
 31
0.0
  0
LINE
  5
F38
330
18
100
AcDbEntity
  8
1
  6
Continuous
100
AcDbLine
 10
329.4111036749824
 20
48.54161435579879
 30
0.0
 11
329.4111036749824
 21
42.10524262764305
 31
0.0
  0
LINE
  5
F39
330
18
100
AcDbEntity
  8
1
  6
Continuous
100
AcDbLine
 10
371.1323496749823
 20
83.82648862764302
 30
0.0
 11
364.6959779468271
 21
83.82648862764302
 31
0.0
  0
LINE
  5
F3A
330
18
100
AcDbEntity
  8
1
  6
Continuous
100
AcDbLine
 10
371.1323496749823
 20
100.383996627643
 30
0.0
 11
364.6959779468271
 21
100.383996627643
 31
0.0
  0
ARC
  5
F3C
330
18
100
AcDbEntity
  8
1
  6
Continuous
100
AcDbCircle
 10
321.1323496749832
 20
92.10524262764307
 30
0.0
 40
41.99999999999914
100
AcDbArc
 50
284.5153268098633
 51
345.4846731901355
  0
ARC
  5
F3D
330
18
100
AcDbEntity
  8
1
  6
Continuous
100
AcDbCircle
 10
332.4111036749824
 20
135.6688708994873
 30
0.0
 40
3.0
100
AcDbArc
 50
180.0
 51
255.4846731901369
  0
ARC
  5
F3E
330
18
100
AcDbEntity
  8
1
  6
Continuous
100
AcDbCircle
 10
364.6959779468271
 20
103.383996627643
 30
0.0
 40
3.0
100
AcDbArc
 50
194.5153268098643
 51
269.9999999999989
  0
ARC
  5
F3F
330
18
100
AcDbEntity
  8
1
  6
Continuous
100
AcDbCircle
 10
364.6959779468271
 20
80.82648862764301
 30
0.0
 40
3.0
100
AcDbArc
 50
90.0
 51
165.4846731901358
  0
ARC
  5
F40
330
18
100
AcDbEntity
  8
1
  6
Continuous
100
AcDbCircle
 10
332.4111036749824
 20
48.54161435579879
 30
0.0
 40
3.0
100
AcDbArc
 50
104.515326809863
 51
180.0
  0
ARC
  5
F41
330
18
100
AcDbEntity
  8
1
  6
Continuous
100
AcDbCircle
 10
321.1323496749832
 20
92.10524262764307
 30
0.0
 40
41.99999999999914
100
AcDbArc
 50
14.51532680986438
 51
75.48467319013667
  0
ENDSEC
  0
SECTION
  2
OBJECTS
  0
DICTIONARY
  5
C
330
0
100
AcDbDictionary
281
     1
  3
ACAD_CIP_PREVIOUS_PRODUCT_INFO
350
FAB
  3
ACAD_COLOR
350
F8E
  3
ACAD_DETAILVIEWSTYLE
350
FA7
  3
ACAD_GROUP
350
D
  3
ACAD_LAYOUT
350
94
  3
ACAD_MATERIAL
350
F5C
  3
ACAD_MLEADERSTYLE
350
FA3
  3
ACAD_MLINESTYLE
350
1B
  3
ACAD_PLOTSETTINGS
350
95
  3
ACAD_PLOTSTYLENAME
350
F5A
  3
ACAD_SCALELIST
350
F91
  3
ACAD_SECTIONVIEWSTYLE
350
FA5
  3
ACAD_TABLESTYLE
350
F8F
  3
ACAD_VISUALSTYLE
350
F75
  3
ACDB_RECOMPOSE_DATA
350
FC9
  3
AcDbVariableDictionary
350
FBC
  3
CONTENTDICTIONARY
350
3D
  3
DWGPROPS
350
FCA
  0
DICTIONARY
  5
FAC
330
E
100
AcDbDictionary
280
     1
281
     1
  3
ADSK_XREC_LAYER_RECONCILED
360
FAD
  0
DICTIONARY
  5
FAE
330
4E
100
AcDbDictionary
280
     1
281
     1
  3
ADSK_XREC_LAYER_RECONCILED
360
FAF
  0
DICTIONARY
  5
FB0
330
4F
100
AcDbDictionary
280
     1
281
     1
  3
ADSK_XREC_LAYER_RECONCILED
360
FB1
  0
DICTIONARY
  5
FB2
330
50
100
AcDbDictionary
280
     1
281
     1
  3
ADSK_XREC_LAYER_RECONCILED
360
FB3
  0
DICTIONARY
  5
FB4
330
51
100
AcDbDictionary
280
     1
281
     1
  3
ADSK_XREC_LAYER_RECONCILED
360
FB5
  0
DICTIONARY
  5
FB6
330
52
100
AcDbDictionary
280
     1
281
     1
  3
ADSK_XREC_LAYER_RECONCILED
360
FB7
  0
DICTIONARY
  5
FB8
330
53
100
AcDbDictionary
280
     1
281
     1
  3
ADSK_XREC_LAYER_RECONCILED
360
FB9
  0
DICTIONARY
  5
FBA
330
54
100
AcDbDictionary
280
     1
281
     1
  3
ADSK_XREC_LAYER_RECONCILED
360
FBB
  0
DICTIONARY
  5
F55
330
18
100
AcDbDictionary
281
     1
  3
ACAD_LAYOUTSELFREF
350
F56
  0
DICTIONARY
  5
F53
330
15
100
AcDbDictionary
281
     1
  3
ACAD_LAYOUTSELFREF
350
F54
  0
XRECORD
  5
FAB
102
{ACAD_REACTORS
330
C
102
}
330
C
100
AcDbXrecord
280
     1
300
ACDLT
300
2014
300
ACDLT_F_S
  0
DICTIONARY
  5
F8E
102
{ACAD_REACTORS
330
C
102
}
330
C
100
AcDbDictionary
281
     1
  0
DICTIONARY
  5
FA7
102
{ACAD_REACTORS
330
C
102
}
330
C
100
AcDbDictionary
281
     1
  3
Imperial24
350
FA8
  0
DICTIONARY
  5
D
102
{ACAD_REACTORS
330
C
102
}
330
C
100
AcDbDictionary
281
     1
  0
DICTIONARY
  5
94
102
{ACAD_REACTORS
330
C
102
}
330
C
100
AcDbDictionary
281
     1
  3
Model
350
FA9
  3
レイアウト1
350
FAA
  0
DICTIONARY
  5
F5C
102
{ACAD_REACTORS
330
C
102
}
330
C
100
AcDbDictionary
281
     1
  3
ByBlock
350
F65
  3
ByLayer
350
F5D
  3
Global
350
F6D
  0
DICTIONARY
  5
FA3
102
{ACAD_REACTORS
330
C
102
}
330
C
100
AcDbDictionary
281
     1
  3
Standard
350
FA4
  0
DICTIONARY
  5
1B
102
{ACAD_REACTORS
330
C
102
}
330
C
100
AcDbDictionary
281
     1
  3
STANDARD
350
1C
  0
DICTIONARY
  5
95
102
{ACAD_REACTORS
330
C
102
}
330
C
100
AcDbDictionary
281
     1
  0
ACDBDICTIONARYWDFLT
  5
F5A
102
{ACAD_REACTORS
330
C
102
}
330
C
100
AcDbDictionary
281
     1
  3
Normal
350
F5B
100
AcDbDictionaryWithDefault
340
F5B
  0
DICTIONARY
  5
F91
102
{ACAD_REACTORS
330
C
102
}
330
C
100
AcDbDictionary
281
     1
  3
A0
350
F92
  3
A1
350
F93
  3
A2
350
F94
  3
A3
350
F95
  3
A4
350
F96
  3
A5
350
F97
  3
A6
350
F98
  3
A7
350
F99
  3
A8
350
F9A
  3
A9
350
F9B
  3
B0
350
F9C
  3
B1
350
F9D
  3
B2
350
F9E
  3
B3
350
F9F
  3
B4
350
FA0
  3
B5
350
FA1
  3
B6
350
FA2
  0
DICTIONARY
  5
FA5
102
{ACAD_REACTORS
330
C
102
}
330
C
100
AcDbDictionary
281
     1
  3
Imperial24
350
FA6
  0
DICTIONARY
  5
F8F
102
{ACAD_REACTORS
330
C
102
}
330
C
100
AcDbDictionary
281
     1
  3
Standard
350
F90
  0
DICTIONARY
  5
F75
102
{ACAD_REACTORS
330
C
102
}
330
C
100
AcDbDictionary
281
     1
  3
2dWireframe
350
F7B
  3
Basic
350
F7A
  3
Brighten
350
F81
  3
ColorChange
350
F85
  3
Conceptual
350
F7E
  3
Dim
350
F80
  3
EdgeColorOff
350
F8D
  3
Facepattern
350
F84
  3
Flat
350
F76
  3
FlatWithEdges
350
F77
  3
Gouraud
350
F78
  3
GouraudWithEdges
350
F79
  3
Hidden
350
F7D
  3
JitterOff
350
F8B
  3
Linepattern
350
F83
  3
OverhangOff
350
F8C
  3
Realistic
350
F7F
  3
Shaded
350
F8A
  3
Shaded with edges
350
F89
  3
Shades of Gray
350
F86
  3
Sketchy
350
F87
  3
Thicken
350
F82
  3
Wireframe
350
F7C
  3
X-Ray
350
F88
  0
XRECORD
  5
FC9
102
{ACAD_REACTORS
330
C
102
}
330
C
100
AcDbXrecord
280
     1
 90
        1
330
F90
  0
DICTIONARY
  5
FBC
102
{ACAD_REACTORS
330
C
102
}
330
C
100
AcDbDictionary
281
     1
  3
CANNOSCALE
350
FC1
  3
CMLEADERSTYLE
350
FBE
  3
CTABLESTYLE
350
FBD
  3
CVIEWDETAILSTYLE
350
FBF
  3
CVIEWSECTIONSTYLE
350
FC0
  3
DIMASSOC
350
FC4
  3
INDEXCTL
350
FC3
  3
SORTENTS
350
FC2
  3
XCLIPFRAME
350
FC5
  0
DICTIONARY
  5
3D
102
{ACAD_REACTORS
330
C
102
}
330
C
100
AcDbDictionary
281
     1
  0
XRECORD
  5
FCA
102
{ACAD_REACTORS
330
C
102
}
330
C
100
AcDbXrecord
280
     1
  1
DWGPROPS COOKIE
  2

  3

  4

  6

  7

  8
Yoshitsune
  9

300
=
301
=
302
=
303
=
304
=
305
=
306
=
307
=
308
=
309
=
 40
0.0324074305555556
 41
2452969.561183623
 42
2457192.687346505
  1

 90
        0
  0
XRECORD
  5
FAD
102
{ACAD_REACTORS
330
FAC
102
}
330
FAC
100
AcDbXrecord
280
     1
290
     1
  0
XRECORD
  5
FAF
102
{ACAD_REACTORS
330
FAE
102
}
330
FAE
100
AcDbXrecord
280
     1
290
     1
  0
XRECORD
  5
FB1
102
{ACAD_REACTORS
330
FB0
102
}
330
FB0
100
AcDbXrecord
280
     1
290
     1
  0
XRECORD
  5
FB3
102
{ACAD_REACTORS
330
FB2
102
}
330
FB2
100
AcDbXrecord
280
     1
290
     1
  0
XRECORD
  5
FB5
102
{ACAD_REACTORS
330
FB4
102
}
330
FB4
100
AcDbXrecord
280
     1
290
     1
  0
XRECORD
  5
FB7
102
{ACAD_REACTORS
330
FB6
102
}
330
FB6
100
AcDbXrecord
280
     1
290
     1
  0
XRECORD
  5
FB9
102
{ACAD_REACTORS
330
FB8
102
}
330
FB8
100
AcDbXrecord
280
     1
290
     1
  0
XRECORD
  5
FBB
102
{ACAD_REACTORS
330
FBA
102
}
330
FBA
100
AcDbXrecord
280
     1
290
     1
  0
XRECORD
  5
F56
102
{ACAD_REACTORS
330
F55
102
}
330
F55
100
AcDbXrecord
280
     1
340
18
  0
XRECORD
  5
F54
102
{ACAD_REACTORS
330
F53
102
}
330
F53
100
AcDbXrecord
280
     1
340
15
  0
ACDBDETAILVIEWSTYLE
  5
FA8
102
{ACAD_XDICTIONARY
360
1002
102
}
102
{ACAD_REACTORS
330
FA7
102
}
330
FA7
100
AcDbModelDocViewStyle
 70
     0
  3
Imperial24
290
     0
100
AcDbDetailViewStyle
 70
     0
 71
     0
 90
        3
 71
     1
340
F
 40
0.24
340
0
 40
0.24
300

 40
0.36
280
     3
 71
     2
340
14
 90
       25
 71
     3
340
F
 40
0.24
 90
        1
 40
0.75
 90
        1
300
%<\AcVar ViewType \f "%tc1">% %<\AcVar ViewDetailId>%\PSCALE %<\AcVar ViewScale \f "%sn">%
 71
     4
340
14
 90
       25
340
14
 90
       25
280
     0
  0
LAYOUT
  5
FA9
102
{ACAD_XDICTIONARY
360
1004
102
}
102
{ACAD_REACTORS
330
94
102
}
330
94
100
AcDbPlotSettings
  1

  2
Canon LBP9100C
  4

  6

 40
0.0
 41
0.0
 42
0.0
 43
0.0
 44
0.0
 45
0.0
 46
0.0
 47
0.0
 48
0.0
 49
0.0
140
0.0
141
0.0
142
1.0
143
1.0
 70
  1712
 72
     0
 73
     0
 74
     0
  7

 75
     0
147
1.0
148
0.0
149
0.0
100
AcDbLayout
  1
Model
 70
     1
 71
     0
 10
0.0
 20
0.0
 11
12.0
 21
9.0
 12
0.0
 22
0.0
 32
0.0
 14
0.0
 24
0.0
 34
0.0
 15
0.0
 25
0.0
 35
0.0
146
0.0
 13
0.0
 23
0.0
 33
0.0
 16
1.0
 26
0.0
 36
0.0
 17
0.0
 27
1.0
 37
0.0
 76
     0
330
18
331
F52
  0
LAYOUT
  5
FAA
102
{ACAD_XDICTIONARY
360
1006
102
}
102
{ACAD_REACTORS
330
94
102
}
330
94
100
AcDbPlotSettings
  1

  2
Canon LBP9100C
  4

  6

 40
0.0
 41
0.0
 42
0.0
 43
0.0
 44
0.0
 45
0.0
 46
0.0
 47
0.0
 48
0.0
 49
0.0
140
0.0
141
0.0
142
1.0
143
1.0
 70
   688
 72
     0
 73
     0
 74
     5
  7

 75
    16
147
1.0
148
0.0
149
0.0
100
AcDbLayout
  1
レイアウト1
 70
     1
 71
     1
 10
0.0
 20
0.0
 11
420.0
 21
297.0
 12
0.0
 22
0.0
 32
0.0
 14
1.000000000000000E+20
 24
1.000000000000000E+20
 34
1.000000000000000E+20
 15
-1.000000000000000E+20
 25
-1.000000000000000E+20
 35
-1.000000000000000E+20
146
0.0
 13
0.0
 23
0.0
 33
0.0
 16
1.0
 26
0.0
 36
0.0
 17
0.0
 27
1.0
 37
0.0
 76
     0
330
15
  0
MATERIAL
  5
F65
102
{ACAD_XDICTIONARY
360
F66
102
}
102
{ACAD_REACTORS
330
F5C
102
}
330
F5C
100
AcDbMaterial
  1
ByBlock
 72
     0
 43
0.0208333333333333
 43
0.0
 43
0.0
 43
0.0
 43
0.0
 43
0.0208333333333333
 43
0.0
 43
0.0
 43
0.0
 43
0.0
 43
1.0
 43
0.0
 43
0.0
 43
0.0
 43
0.0
 43
1.0
 77
     0
 47
0.0208333333333333
 47
0.0
 47
0.0
 47
0.0
 47
0.0
 47
0.0208333333333333
 47
0.0
 47
0.0
 47
0.0
 47
0.0
 47
1.0
 47
0.0
 47
0.0
 47
0.0
 47
0.0
 47
1.0
171
     0
 49
0.0208333333333333
 49
0.0
 49
0.0
 49
0.0
 49
0.0
 49
0.0208333333333333
 49
0.0
 49
0.0
 49
0.0
 49
0.0
 49
1.0
 49
0.0
 49
0.0
 49
0.0
 49
0.0
 49
1.0
175
     0
142
0.0208333333333333
142
0.0
142
0.0
142
0.0
142
0.0
142
0.0208333333333333
142
0.0
142
0.0
142
0.0
142
0.0
142
1.0
142
0.0
142
0.0
142
0.0
142
0.0
142
1.0
179
     0
144
0.0208333333333333
144
0.0
144
0.0
144
0.0
144
0.0
144
0.0208333333333333
144
0.0
144
0.0
144
0.0
144
0.0
144
1.0
144
0.0
144
0.0
144
0.0
144
0.0
144
1.0
147
0.0208333333333333
147
0.0
147
0.0
147
0.0
147
0.0
147
0.0208333333333333
147
0.0
147
0.0
147
0.0
147
0.0
147
1.0
147
0.0
147
0.0
147
0.0
147
0.0
147
1.0
  0
MATERIAL
  5
F5D
102
{ACAD_XDICTIONARY
360
F5E
102
}
102
{ACAD_REACTORS
330
F5C
102
}
330
F5C
100
AcDbMaterial
  1
ByLayer
 72
     0
 43
0.0208333333333333
 43
0.0
 43
0.0
 43
0.0
 43
0.0
 43
0.0208333333333333
 43
0.0
 43
0.0
 43
0.0
 43
0.0
 43
1.0
 43
0.0
 43
0.0
 43
0.0
 43
0.0
 43
1.0
 77
     0
 47
0.0208333333333333
 47
0.0
 47
0.0
 47
0.0
 47
0.0
 47
0.0208333333333333
 47
0.0
 47
0.0
 47
0.0
 47
0.0
 47
1.0
 47
0.0
 47
0.0
 47
0.0
 47
0.0
 47
1.0
171
     0
 49
0.0208333333333333
 49
0.0
 49
0.0
 49
0.0
 49
0.0
 49
0.0208333333333333
 49
0.0
 49
0.0
 49
0.0
 49
0.0
 49
1.0
 49
0.0
 49
0.0
 49
0.0
 49
0.0
 49
1.0
175
     0
142
0.0208333333333333
142
0.0
142
0.0
142
0.0
142
0.0
142
0.0208333333333333
142
0.0
142
0.0
142
0.0
142
0.0
142
1.0
142
0.0
142
0.0
142
0.0
142
0.0
142
1.0
179
     0
144
0.0208333333333333
144
0.0
144
0.0
144
0.0
144
0.0
144
0.0208333333333333
144
0.0
144
0.0
144
0.0
144
0.0
144
1.0
144
0.0
144
0.0
144
0.0
144
0.0
144
1.0
147
0.0208333333333333
147
0.0
147
0.0
147
0.0
147
0.0
147
0.0208333333333333
147
0.0
147
0.0
147
0.0
147
0.0
147
1.0
147
0.0
147
0.0
147
0.0
147
0.0
147
1.0
  0
MATERIAL
  5
F6D
102
{ACAD_XDICTIONARY
360
F6E
102
}
102
{ACAD_REACTORS
330
F5C
102
}
330
F5C
100
AcDbMaterial
  1
Global
 72
     0
 43
0.0208333333333333
 43
0.0
 43
0.0
 43
0.0
 43
0.0
 43
0.0208333333333333
 43
0.0
 43
0.0
 43
0.0
 43
0.0
 43
1.0
 43
0.0
 43
0.0
 43
0.0
 43
0.0
 43
1.0
 77
     0
 47
0.0208333333333333
 47
0.0
 47
0.0
 47
0.0
 47
0.0
 47
0.0208333333333333
 47
0.0
 47
0.0
 47
0.0
 47
0.0
 47
1.0
 47
0.0
 47
0.0
 47
0.0
 47
0.0
 47
1.0
171
     0
 49
0.0208333333333333
 49
0.0
 49
0.0
 49
0.0
 49
0.0
 49
0.0208333333333333
 49
0.0
 49
0.0
 49
0.0
 49
0.0
 49
1.0
 49
0.0
 49
0.0
 49
0.0
 49
0.0
 49
1.0
175
     0
142
0.0208333333333333
142
0.0
142
0.0
142
0.0
142
0.0
142
0.0208333333333333
142
0.0
142
0.0
142
0.0
142
0.0
142
1.0
142
0.0
142
0.0
142
0.0
142
0.0
142
1.0
179
     0
144
0.0208333333333333
144
0.0
144
0.0
144
0.0
144
0.0
144
0.0208333333333333
144
0.0
144
0.0
144
0.0
144
0.0
144
1.0
144
0.0
144
0.0
144
0.0
144
0.0
144
1.0
147
0.0208333333333333
147
0.0
147
0.0
147
0.0
147
0.0
147
0.0208333333333333
147
0.0
147
0.0
147
0.0
147
0.0
147
1.0
147
0.0
147
0.0
147
0.0
147
0.0
147
1.0
  0
MLEADERSTYLE
  5
FA4
102
{ACAD_REACTORS
330
FA3
102
}
330
FA3
100
AcDbMLeaderStyle
170
     2
171
     1
172
     0
 90
        2
 40
0.0
 41
0.0
173
     1
 91
-1056964608
340
12
 92
       -2
290
     1
 42
0.09
291
     1
 43
0.36
  3
Standard
 44
0.18
300

342
F
174
     1
178
     6
175
     1
176
     0
 93
-1056964608
 45
0.18
292
     0
297
     0
 46
0.18
 94
-1056964608
 47
1.0
 49
1.0
140
1.0
293
     1
141
0.0
294
     1
177
     0
142
1.0
295
     0
296
     0
143
0.125
1001
ACAD_MLEADERVER
1070
     2
  0
MLINESTYLE
  5
1C
102
{ACAD_REACTORS
330
1B
102
}
330
1B
100
AcDbMlineStyle
  2
STANDARD
 70
     0
  3

 62
   256
 51
90.0
 52
90.0
 71
     2
 49
0.5
 62
   256
  6
BYLAYER
 49
-0.5
 62
   256
  6
BYLAYER
  0
ACDBPLACEHOLDER
  5
F5B
102
{ACAD_REACTORS
330
F5A
102
}
330
F5A
  0
SCALE
  5
F92
102
{ACAD_REACTORS
330
F91
102
}
330
F91
100
AcDbScale
 70
     0
300
1:1
140
1.0
141
1.0
290
     1
  0
SCALE
  5
F93
102
{ACAD_REACTORS
330
F91
102
}
330
F91
100
AcDbScale
 70
     0
300
1/128" = 1'-0"
140
0.0078125
141
12.0
290
     0
  0
SCALE
  5
F94
102
{ACAD_REACTORS
330
F91
102
}
330
F91
100
AcDbScale
 70
     0
300
1/64" = 1'-0"
140
0.015625
141
12.0
290
     0
  0
SCALE
  5
F95
102
{ACAD_REACTORS
330
F91
102
}
330
F91
100
AcDbScale
 70
     0
300
1/32" = 1'-0"
140
0.03125
141
12.0
290
     0
  0
SCALE
  5
F96
102
{ACAD_REACTORS
330
F91
102
}
330
F91
100
AcDbScale
 70
     0
300
1/16" = 1'-0"
140
0.0625
141
12.0
290
     0
  0
SCALE
  5
F97
102
{ACAD_REACTORS
330
F91
102
}
330
F91
100
AcDbScale
 70
     0
300
3/32" = 1'-0"
140
0.09375
141
12.0
290
     0
  0
SCALE
  5
F98
102
{ACAD_REACTORS
330
F91
102
}
330
F91
100
AcDbScale
 70
     0
300
1/8" = 1'-0"
140
0.125
141
12.0
290
     0
  0
SCALE
  5
F99
102
{ACAD_REACTORS
330
F91
102
}
330
F91
100
AcDbScale
 70
     0
300
3/16" = 1'-0"
140
0.1875
141
12.0
290
     0
  0
SCALE
  5
F9A
102
{ACAD_REACTORS
330
F91
102
}
330
F91
100
AcDbScale
 70
     0
300
1/4" = 1'-0"
140
0.25
141
12.0
290
     0
  0
SCALE
  5
F9B
102
{ACAD_REACTORS
330
F91
102
}
330
F91
100
AcDbScale
 70
     0
300
3/8" = 1'-0"
140
0.375
141
12.0
290
     0
  0
SCALE
  5
F9C
102
{ACAD_REACTORS
330
F91
102
}
330
F91
100
AcDbScale
 70
     0
300
1/2" = 1'-0"
140
0.5
141
12.0
290
     0
  0
SCALE
  5
F9D
102
{ACAD_REACTORS
330
F91
102
}
330
F91
100
AcDbScale
 70
     0
300
3/4" = 1'-0"
140
0.75
141
12.0
290
     0
  0
SCALE
  5
F9E
102
{ACAD_REACTORS
330
F91
102
}
330
F91
100
AcDbScale
 70
     0
300
1" = 1'-0"
140
1.0
141
12.0
290
     0
  0
SCALE
  5
F9F
102
{ACAD_REACTORS
330
F91
102
}
330
F91
100
AcDbScale
 70
     0
300
1-1/2" = 1'-0"
140
1.5
141
12.0
290
     0
  0
SCALE
  5
FA0
102
{ACAD_REACTORS
330
F91
102
}
330
F91
100
AcDbScale
 70
     0
300
3" = 1'-0"
140
3.0
141
12.0
290
     0
  0
SCALE
  5
FA1
102
{ACAD_REACTORS
330
F91
102
}
330
F91
100
AcDbScale
 70
     0
300
6" = 1'-0"
140
6.0
141
12.0
290
     0
  0
SCALE
  5
FA2
102
{ACAD_REACTORS
330
F91
102
}
330
F91
100
AcDbScale
 70
     0
300
1'-0" = 1'-0"
140
12.0
141
12.0
290
     0
  0
ACDBSECTIONVIEWSTYLE
  5
FA6
102
{ACAD_XDICTIONARY
360
1000
102
}
102
{ACAD_REACTORS
330
FA5
102
}
330
FA5
100
AcDbModelDocViewStyle
 70
     0
  3
Imperial24
290
     0
100
AcDbSectionViewStyle
 70
     0
 71
     0
 90
       78
 71
     1
340
F
 40
0.24
340
0
340
0
 40
0.24
300
I, O, Q, S, X, Z
 40
0.48
 90
        3
 40
0.18
 90
        1
 71
     2
340
14
 90
       25
340
14
 90
       50
 40
0.24
 40
0.0
 40
0.24
 71
     3
340
F
 40
0.24
 90
        1
 40
0.75
 90
        1
300
%<\AcVar ViewType \f "%tc1">% %<\AcVar ViewSectionStartId>%-%<\AcVar ViewSectionEndId>%\PSCALE %<\AcVar ViewScale \f "%sn">%
 71
     4
300
ANSI31
 40
1.0
 90
        0
290
     0
290
     0
 90
        6
 40
0.0
 40
1.570796326794896
 40
0.2617993877991494
 40
1.308996938995747
 40
-0.2617993877991494
 40
1.832595714594046
  0
TABLESTYLE
  5
F90
102
{ACAD_XDICTIONARY
360
FC7
102
}
102
{ACAD_REACTORS
330
F8F
102
}
330
F8F
100
AcDbTableStyle
  3
Standard
 70
     0
 71
     0
 40
0.06
 41
0.06
280
     0
281
     0
  7
STANDARD
140
0.18
170
     2
 62
     0
 63
     7
283
     0
274
    -2
284
     1
 64
     0
275
    -2
285
     1
 65
     0
276
    -2
286
     1
 66
     0
277
    -2
287
     1
 67
     0
278
    -2
288
     1
 68
     0
279
    -2
289
     1
 69
     0
  7
STANDARD
140
0.25
170
     5
 62
     0
 63
     7
283
     0
274
    -2
284
     1
 64
     0
275
    -2
285
     1
 65
     0
276
    -2
286
     1
 66
     0
277
    -2
287
     1
 67
     0
278
    -2
288
     1
 68
     0
279
    -2
289
     1
 69
     0
  7
STANDARD
140
0.18
170
     5
 62
     0
 63
     7
283
     0
274
    -2
284
     1
 64
     0
275
    -2
285
     1
 65
     0
276
    -2
286
     1
 66
     0
277
    -2
287
     1
 67
     0
278
    -2
288
     1
 68
     0
279
    -2
289
     1
 69
     0
  0
VISUALSTYLE
  5
F7B
102
{ACAD_XDICTIONARY
360
FD8
102
}
102
{ACAD_REACTORS
330
F75
102
}
330
F75
100
AcDbVisualStyle
  2
2dWireframe
 70
     4
 71
     0
 72
     2
 73
     0
 90
        0
 40
-0.6
 41
-30.0
 62
     5
 63
     7
 74
     1
 91
        4
 64
     7
 65
   257
 75
     1
175
     1
 42
1.0
 92
        0
 66
   257
 43
1.0
 76
     1
 77
     6
 78
     2
 67
     7
 79
     5
170
     0
171
     0
290
     0
174
     0
 93
        1
 44
0.0
173
     0
291
     0
 45
0.0
1001
ACAD
1000
AcDbSavedByObjectVersion
1070
     0
  0
VISUALSTYLE
  5
F7A
102
{ACAD_XDICTIONARY
360
FD6
102
}
102
{ACAD_REACTORS
330
F75
102
}
330
F75
100
AcDbVisualStyle
  2
Basic
 70
     7
 71
     1
 72
     0
 73
     1
 90
        0
 40
-0.6
 41
-30.0
 62
     5
 63
     7
 74
     0
 91
        4
 64
     7
 65
   257
 75
     1
175
     1
 42
1.0
 92
        8
 66
     7
 43
1.0
 76
     1
 77
     6
 78
     2
 67
     7
 79
     5
170
     0
171
     0
290
     0
174
     0
 93
        1
 44
0.0
173
     0
291
     1
 45
0.0
1001
ACAD
1000
AcDbSavedByObjectVersion
1070
     0
  0
VISUALSTYLE
  5
F81
102
{ACAD_XDICTIONARY
360
FE4
102
}
102
{ACAD_REACTORS
330
F75
102
}
330
F75
100
AcDbVisualStyle
  2
Brighten
 70
    12
 71
     2
 72
     2
 73
     0
 90
        0
 40
-0.6
 41
-30.0
 62
     5
 63
     7
 74
     1
 91
        4
 64
     7
 65
   257
 75
     1
175
     1
 42
1.0
 92
        8
 66
     7
 43
1.0
 76
     1
 77
     6
 78
     2
 67
     7
 79
     5
170
     0
171
     0
290
     0
174
     0
 93
        1
 44
50.0
173
     0
291
     1
 45
0.0
1001
ACAD
1000
AcDbSavedByObjectVersion
1070
     0
  0
VISUALSTYLE
  5
F85
102
{ACAD_XDICTIONARY
360
FEC
102
}
102
{ACAD_REACTORS
330
F75
102
}
330
F75
100
AcDbVisualStyle
  2
ColorChange
 70
    16
 71
     2
 72
     2
 73
     3
 90
        0
 40
-0.6
 41
-30.0
 62
     5
 63
     8
 74
     1
 91
        4
 64
     7
 65
   257
 75
     1
175
     1
 42
1.0
 92
        8
 66
     8
 43
1.0
 76
     1
 77
     6
 78
     2
 67
     7
 79
     5
170
     0
171
     0
290
     0
174
     0
 93
        1
 44
0.0
173
     0
291
     1
 45
0.0
1001
ACAD
1000
AcDbSavedByObjectVersion
1070
     0
  0
VISUALSTYLE
  5
F7E
102
{ACAD_XDICTIONARY
360
FDE
102
}
102
{ACAD_REACTORS
330
F75
102
}
330
F75
100
AcDbVisualStyle
  2
Conceptual
 70
     9
 71
     3
 72
     2
 73
     0
 90
        0
 40
-0.6
 41
-30.0
 62
     5
 63
     7
 74
     2
 91
        2
 64
     7
 65
   257
 75
     1
175
     1
 42
179.0
 92
        8
 66
     7
 43
1.0
 76
     1
 77
     6
 78
     2
 67
     7
 79
     3
170
     0
171
     0
290
     0
174
     0
 93
        1
 44
0.0
173
     0
291
     0
 45
0.0
1001
ACAD
1000
AcDbSavedByObjectVersion
1070
     0
  0
VISUALSTYLE
  5
F80
102
{ACAD_XDICTIONARY
360
FE2
102
}
102
{ACAD_REACTORS
330
F75
102
}
330
F75
100
AcDbVisualStyle
  2
Dim
 70
    11
 71
     2
 72
     2
 73
     0
 90
        0
 40
-0.6
 41
-30.0
 62
     5
 63
     7
 74
     1
 91
        4
 64
     7
 65
   257
 75
     1
175
     1
 42
1.0
 92
        8
 66
     7
 43
1.0
 76
     1
 77
     6
 78
     2
 67
     7
 79
     5
170
     0
171
     0
290
     0
174
     0
 93
        1
 44
-50.0
173
     0
291
     1
 45
0.0
1001
ACAD
1000
AcDbSavedByObjectVersion
1070
     0
  0
VISUALSTYLE
  5
F8D
102
{ACAD_XDICTIONARY
360
FFC
102
}
102
{ACAD_REACTORS
330
F75
102
}
330
F75
100
AcDbVisualStyle
  2
EdgeColorOff
 70
    22
 71
     2
 72
     2
 73
     0
 90
        0
 40
-0.6
 41
-30.0
 62
     5
 63
     7
 74
     1
 91
        4
 64
     7
 65
   257
 75
     1
175
     1
 42
1.0
 92
        8
 66
     7
 43
1.0
 76
     1
 77
     6
 78
     2
 67
     7
 79
     5
170
     0
171
     0
290
     0
174
     0
 93
        1
 44
0.0
173
     0
291
     1
 45
0.0
1001
ACAD
1000
AcDbSavedByObjectVersion
1070
     0
  0
VISUALSTYLE
  5
F84
102
{ACAD_XDICTIONARY
360
FEA
102
}
102
{ACAD_REACTORS
330
F75
102
}
330
F75
100
AcDbVisualStyle
  2
Facepattern
 70
    15
 71
     2
 72
     2
 73
     0
 90
        0
 40
-0.6
 41
-30.0
 62
     5
 63
     7
 74
     1
 91
        4
 64
     7
 65
   257
 75
     1
175
     1
 42
1.0
 92
        8
 66
     7
 43
1.0
 76
     1
 77
     6
 78
     2
 67
     7
 79
     5
170
     0
171
     0
290
     0
174
     0
 93
        1
 44
0.0
173
     0
291
     1
 45
0.0
1001
ACAD
1000
AcDbSavedByObjectVersion
1070
     0
  0
VISUALSTYLE
  5
F76
102
{ACAD_XDICTIONARY
360
FCE
102
}
102
{ACAD_REACTORS
330
F75
102
}
330
F75
100
AcDbVisualStyle
  2
Flat
 70
     0
 71
     2
 72
     1
 73
     1
 90
        2
 40
-0.6
 41
30.0
 62
     5
 63
     7
 74
     0
 91
        0
 64
     7
 65
   257
 75
     1
175
     1
 42
1.0
 92
        8
 66
     7
 43
1.0
 76
     1
 77
     6
 78
     2
 67
     7
 79
     5
170
     0
171
     0
290
     0
174
     0
 93
       13
 44
0.0
173
     0
291
     1
 45
0.0
1001
ACAD
1000
AcDbSavedByObjectVersion
1070
     0
  0
VISUALSTYLE
  5
F77
102
{ACAD_XDICTIONARY
360
FD0
102
}
102
{ACAD_REACTORS
330
F75
102
}
330
F75
100
AcDbVisualStyle
  2
FlatWithEdges
 70
     1
 71
     2
 72
     1
 73
     1
 90
        2
 40
-0.6
 41
30.0
 62
     5
 63
     7
 74
     1
 91
        0
 64
     7
 65
   257
 75
     1
175
     1
 42
1.0
 92
        0
 66
   257
 43
1.0
 76
     1
 77
     6
 78
     2
 67
     7
 79
     5
170
     0
171
     0
290
     0
174
     0
 93
       13
 44
0.0
173
     0
291
     1
 45
0.0
1001
ACAD
1000
AcDbSavedByObjectVersion
1070
     0
  0
VISUALSTYLE
  5
F78
102
{ACAD_XDICTIONARY
360
FD2
102
}
102
{ACAD_REACTORS
330
F75
102
}
330
F75
100
AcDbVisualStyle
  2
Gouraud
 70
     2
 71
     2
 72
     2
 73
     1
 90
        2
 40
-0.6
 41
30.0
 62
     5
 63
     7
 74
     0
 91
        0
 64
     7
 65
   257
 75
     1
175
     1
 42
1.0
 92
        0
 66
     7
 43
1.0
 76
     1
 77
     6
 78
     2
 67
     7
 79
     5
170
     0
171
     0
290
     0
174
     0
 93
       13
 44
0.0
173
     0
291
     1
 45
0.0
1001
ACAD
1000
AcDbSavedByObjectVersion
1070
     0
  0
VISUALSTYLE
  5
F79
102
{ACAD_XDICTIONARY
360
FD4
102
}
102
{ACAD_REACTORS
330
F75
102
}
330
F75
100
AcDbVisualStyle
  2
GouraudWithEdges
 70
     3
 71
     2
 72
     2
 73
     1
 90
        2
 40
-0.6
 41
30.0
 62
     5
 63
     7
 74
     1
 91
        0
 64
     7
 65
   257
 75
     1
175
     1
 42
1.0
 92
        0
 66
   257
 43
1.0
 76
     1
 77
     6
 78
     2
 67
     7
 79
     5
170
     0
171
     0
290
     0
174
     0
 93
       13
 44
0.0
173
     0
291
     1
 45
0.0
1001
ACAD
1000
AcDbSavedByObjectVersion
1070
     0
  0
VISUALSTYLE
  5
F7D
102
{ACAD_XDICTIONARY
360
FDC
102
}
102
{ACAD_REACTORS
330
F75
102
}
330
F75
100
AcDbVisualStyle
  2
Hidden
 70
     6
 71
     1
 72
     2
 73
     2
 90
        0
 40
-0.6
 41
-30.0
 62
     5
 63
     7
 74
     2
 91
        2
 64
     7
 65
   257
 75
     2
175
     1
 42
40.0
 92
        0
 66
   257
 43
1.0
 76
     1
 77
     6
 78
     2
 67
     7
 79
     3
170
     0
171
     0
290
     0
174
     0
 93
        1
 44
0.0
173
     0
291
     0
 45
0.0
1001
ACAD
1000
AcDbSavedByObjectVersion
1070
     0
  0
VISUALSTYLE
  5
F8B
102
{ACAD_XDICTIONARY
360
FF8
102
}
102
{ACAD_REACTORS
330
F75
102
}
330
F75
100
AcDbVisualStyle
  2
JitterOff
 70
    20
 71
     2
 72
     2
 73
     0
 90
        0
 40
-0.6
 41
-30.0
 62
     5
 63
     7
 74
     1
 91
        4
 64
     7
 65
   257
 75
     1
175
     1
 42
1.0
 92
       10
 66
     7
 43
1.0
 76
     1
 77
     6
 78
     2
 67
     7
 79
     5
170
     0
171
     0
290
     0
174
     0
 93
        1
 44
0.0
173
     0
291
     1
 45
0.0
1001
ACAD
1000
AcDbSavedByObjectVersion
1070
     0
  0
VISUALSTYLE
  5
F83
102
{ACAD_XDICTIONARY
360
FE8
102
}
102
{ACAD_REACTORS
330
F75
102
}
330
F75
100
AcDbVisualStyle
  2
Linepattern
 70
    14
 71
     2
 72
     2
 73
     0
 90
        0
 40
-0.6
 41
-30.0
 62
     5
 63
     7
 74
     1
 91
        4
 64
     7
 65
   257
 75
     7
175
     7
 42
1.0
 92
        8
 66
     7
 43
1.0
 76
     1
 77
     6
 78
     2
 67
     7
 79
     5
170
     0
171
     0
290
     0
174
     0
 93
        1
 44
0.0
173
     0
291
     1
 45
0.0
1001
ACAD
1000
AcDbSavedByObjectVersion
1070
     0
  0
VISUALSTYLE
  5
F8C
102
{ACAD_XDICTIONARY
360
FFA
102
}
102
{ACAD_REACTORS
330
F75
102
}
330
F75
100
AcDbVisualStyle
  2
OverhangOff
 70
    21
 71
     2
 72
     2
 73
     0
 90
        0
 40
-0.6
 41
-30.0
 62
     5
 63
     7
 74
     1
 91
        4
 64
     7
 65
   257
 75
     1
175
     1
 42
1.0
 92
        9
 66
     7
 43
1.0
 76
     1
 77
     6
 78
     2
 67
     7
 79
     5
170
     0
171
     0
290
     0
174
     0
 93
        1
 44
0.0
173
     0
291
     1
 45
0.0
1001
ACAD
1000
AcDbSavedByObjectVersion
1070
     0
  0
VISUALSTYLE
  5
F7F
102
{ACAD_XDICTIONARY
360
FE0
102
}
102
{ACAD_REACTORS
330
F75
102
}
330
F75
100
AcDbVisualStyle
  2
Realistic
 70
     8
 71
     2
 72
     3
 73
     0
 90
        2
 40
-0.6
 41
30.0
 62
     5
 63
     7
 74
     0
 91
        0
 64
     7
 65
   257
 75
     1
175
     1
 42
1.0
 92
        8
 66
   257
 43
1.0
 76
     1
 77
     6
 78
     2
 67
     7
 79
     3
170
     0
171
     0
290
     0
174
     0
 93
       13
 44
0.0
173
     0
291
     0
 45
0.0
1001
ACAD
1000
AcDbSavedByObjectVersion
1070
     0
  0
VISUALSTYLE
  5
F8A
102
{ACAD_XDICTIONARY
360
FF6
102
}
102
{ACAD_REACTORS
330
F75
102
}
330
F75
100
AcDbVisualStyle
  2
Shaded
 70
    27
 71
     2
 72
     2
 73
     1
 90
        2
 40
-0.6
 41
30.0
 62
     5
 63
     7
 74
     0
 91
        4
 64
     7
 65
   257
 75
     1
175
     1
 42
1.0
 92
        8
 66
   257
 43
1.0
 76
     1
 77
     6
 78
     2
 67
     8
 79
     3
170
     0
171
     0
290
     0
174
     0
 93
        5
 44
0.0
173
     0
291
     0
 45
0.0
1001
ACAD
1000
AcDbSavedByObjectVersion
1070
     0
  0
VISUALSTYLE
  5
F89
102
{ACAD_XDICTIONARY
360
FF4
102
}
102
{ACAD_REACTORS
330
F75
102
}
330
F75
100
AcDbVisualStyle
  2
Shaded with edges
 70
    26
 71
     2
 72
     2
 73
     1
 90
        2
 40
-0.6
 41
30.0
 62
     5
 63
     7
 74
     1
 91
       10
 64
     7
 65
   257
 75
     2
175
     1
 42
1.0
 92
        8
 66
   257
 43
1.0
 76
     1
 77
     6
 78
     2
 67
     7
 79
     3
170
     0
171
     0
290
     0
174
     0
 93
        5
 44
0.0
173
     0
291
     0
 45
0.0
1001
ACAD
1000
AcDbSavedByObjectVersion
1070
     0
  0
VISUALSTYLE
  5
F86
102
{ACAD_XDICTIONARY
360
FEE
102
}
102
{ACAD_REACTORS
330
F75
102
}
330
F75
100
AcDbVisualStyle
  2
Shades of Gray
 70
    23
 71
     2
 72
     2
 73
     3
 90
        0
 40
-0.6
 41
-30.0
 62
     5
 63
     7
 74
     2
 91
        2
 64
     7
 65
     7
 75
     1
175
     1
 42
40.0
 92
        8
 66
     7
 43
1.0
 76
     1
 77
     6
 78
     2
 67
     7
 79
     3
170
     0
171
     0
290
     0
174
     0
 93
        1
 44
0.0
173
     0
291
     0
 45
0.0
1001
ACAD
1000
AcDbSavedByObjectVersion
1070
     0
  0
VISUALSTYLE
  5
F87
102
{ACAD_XDICTIONARY
360
FF0
102
}
102
{ACAD_REACTORS
330
F75
102
}
330
F75
100
AcDbVisualStyle
  2
Sketchy
 70
    24
 71
     1
 72
     2
 73
     2
 90
        0
 40
-0.6
 41
-30.0
 62
     5
 63
     7
 74
     2
 91
        2
 64
     7
 65
     7
 75
     1
175
     1
 42
40.0
 92
       11
 66
     7
 43
1.0
 76
     1
 77
     6
 78
     2
 67
     7
 79
     6
170
     0
171
     0
290
     0
174
     0
 93
        1
 44
0.0
173
     0
291
     0
 45
0.0
1001
ACAD
1000
AcDbSavedByObjectVersion
1070
     0
  0
VISUALSTYLE
  5
F82
102
{ACAD_XDICTIONARY
360
FE6
102
}
102
{ACAD_REACTORS
330
F75
102
}
330
F75
100
AcDbVisualStyle
  2
Thicken
 70
    13
 71
     2
 72
     2
 73
     0
 90
        0
 40
-0.6
 41
-30.0
 62
     5
 63
     7
 74
     1
 91
        4
 64
     7
 65
   257
 75
     1
175
     1
 42
1.0
 92
       12
 66
     7
 43
1.0
 76
     1
 77
     6
 78
     2
 67
     7
 79
     5
170
     0
171
     0
290
     0
174
     0
 93
        1
 44
0.0
173
     0
291
     1
 45
0.0
1001
ACAD
1000
AcDbSavedByObjectVersion
1070
     0
  0
VISUALSTYLE
  5
F7C
102
{ACAD_XDICTIONARY
360
FDA
102
}
102
{ACAD_REACTORS
330
F75
102
}
330
F75
100
AcDbVisualStyle
  2
Wireframe
 70
     5
 71
     0
 72
     2
 73
     0
 90
        0
 40
-0.6
 41
-30.0
 62
     5
 63
     7
 74
     1
 91
        4
 64
     7
 65
   257
 75
     1
175
     1
 42
1.0
 92
        0
 66
   257
 43
1.0
 76
     1
 77
     6
 78
     2
 67
     7
 79
     3
170
     0
171
     0
290
     0
174
     0
 93
        1
 44
0.0
173
     0
291
     0
 45
0.0
1001
ACAD
1000
AcDbSavedByObjectVersion
1070
     0
  0
VISUALSTYLE
  5
F88
102
{ACAD_XDICTIONARY
360
FF2
102
}
102
{ACAD_REACTORS
330
F75
102
}
330
F75
100
AcDbVisualStyle
  2
X-Ray
 70
    25
 71
     2
 72
     2
 73
     1
 90
        1
 40
0.5
 41
-30.0
 62
     5
 63
     7
 74
     1
 91
        0
 64
     7
 65
   257
 75
     1
175
     1
 42
1.0
 92
        8
 66
     7
 43
1.0
 76
     1
 77
     6
 78
     2
 67
     7
 79
     3
170
     0
171
     0
290
     0
174
     0
 93
       13
 44
0.0
173
     0
291
     0
 45
0.0
1001
ACAD
1000
AcDbSavedByObjectVersion
1070
     0
  0
DICTIONARYVAR
  5
FC1
102
{ACAD_REACTORS
330
FBC
102
}
330
FBC
100
DictionaryVariables
280
     0
  1
1:1
  0
DICTIONARYVAR
  5
FBE
102
{ACAD_REACTORS
330
FBC
102
}
330
FBC
100
DictionaryVariables
280
     0
  1
STANDARD
  0
DICTIONARYVAR
  5
FBD
102
{ACAD_REACTORS
330
FBC
102
}
330
FBC
100
DictionaryVariables
280
     0
  1
STANDARD
  0
DICTIONARYVAR
  5
FBF
102
{ACAD_REACTORS
330
FBC
102
}
330
FBC
100
DictionaryVariables
280
     0
  1
Imperial24
  0
DICTIONARYVAR
  5
FC0
102
{ACAD_REACTORS
330
FBC
102
}
330
FBC
100
DictionaryVariables
280
     0
  1
Imperial24
  0
DICTIONARYVAR
  5
FC4
102
{ACAD_REACTORS
330
FBC
102
}
330
FBC
100
DictionaryVariables
280
     0
  1
1
  0
DICTIONARYVAR
  5
FC3
102
{ACAD_REACTORS
330
FBC
102
}
330
FBC
100
DictionaryVariables
280
     0
  1
0
  0
DICTIONARYVAR
  5
FC2
102
{ACAD_REACTORS
330
FBC
102
}
330
FBC
100
DictionaryVariables
280
     0
  1
127
  0
DICTIONARYVAR
  5
FC5
102
{ACAD_REACTORS
330
FBC
102
}
330
FBC
100
DictionaryVariables
280
     0
  1
2
  0
DICTIONARY
  5
1002
330
FA8
100
AcDbDictionary
280
     1
281
     1
  3
ACAD_XREC_ROUNDTRIP
360
1003
  0
DICTIONARY
  5
1004
330
FA9
100
AcDbDictionary
280
     1
281
     1
  3
ACAD_XREC_ROUNDTRIP
360
1005
  0
DICTIONARY
  5
1006
330
FAA
100
AcDbDictionary
280
     1
281
     1
  3
ACAD_XREC_ROUNDTRIP
360
1007
  0
DICTIONARY
  5
F66
330
F65
100
AcDbDictionary
280
     1
281
     1
  3
ACAD_XREC_ROUNDTRIP
360
FCC
  3
BUMPTILE
360
F68
  3
DIFFUSETILE
360
F67
  3
OPACITYTILE
360
F6B
  3
REFLECTIONTILE
360
F6A
  3
REFRACTIONTILE
360
F6C
  3
SPECULARTILE
360
F69
  0
DICTIONARY
  5
F5E
330
F5D
100
AcDbDictionary
280
     1
281
     1
  3
ACAD_XREC_ROUNDTRIP
360
FCB
  3
BUMPTILE
360
F60
  3
DIFFUSETILE
360
F5F
  3
OPACITYTILE
360
F63
  3
REFLECTIONTILE
360
F62
  3
REFRACTIONTILE
360
F64
  3
SPECULARTILE
360
F61
  0
DICTIONARY
  5
F6E
330
F6D
100
AcDbDictionary
280
     1
281
     1
  3
ACAD_XREC_ROUNDTRIP
360
FCD
  3
BUMPTILE
360
F70
  3
DIFFUSETILE
360
F6F
  3
OPACITYTILE
360
F73
  3
REFLECTIONTILE
360
F72
  3
REFRACTIONTILE
360
F74
  3
SPECULARTILE
360
F71
  0
DICTIONARY
  5
1000
330
FA6
100
AcDbDictionary
280
     1
281
     1
  3
ACAD_XREC_ROUNDTRIP
360
1001
  0
DICTIONARY
  5
FC7
330
F90
100
AcDbDictionary
280
     1
281
     1
  3
ACAD_ROUNDTRIP_2008_TABLESTYLE_CELLSTYLEMAP
360
FC8
  3
ACAD_XREC_ROUNDTRIP
360
FFE
  0
DICTIONARY
  5
FD8
330
F7B
100
AcDbDictionary
280
     1
281
     1
  3
ACAD_XREC_ROUNDTRIP
360
FD9
  0
DICTIONARY
  5
FD6
330
F7A
100
AcDbDictionary
280
     1
281
     1
  3
ACAD_XREC_ROUNDTRIP
360
FD7
  0
DICTIONARY
  5
FE4
330
F81
100
AcDbDictionary
280
     1
281
     1
  3
ACAD_XREC_ROUNDTRIP
360
FE5
  0
DICTIONARY
  5
FEC
330
F85
100
AcDbDictionary
280
     1
281
     1
  3
ACAD_XREC_ROUNDTRIP
360
FED
  0
DICTIONARY
  5
FDE
330
F7E
100
AcDbDictionary
280
     1
281
     1
  3
ACAD_XREC_ROUNDTRIP
360
FDF
  0
DICTIONARY
  5
FE2
330
F80
100
AcDbDictionary
280
     1
281
     1
  3
ACAD_XREC_ROUNDTRIP
360
FE3
  0
DICTIONARY
  5
FFC
330
F8D
100
AcDbDictionary
280
     1
281
     1
  3
ACAD_XREC_ROUNDTRIP
360
FFD
  0
DICTIONARY
  5
FEA
330
F84
100
AcDbDictionary
280
     1
281
     1
  3
ACAD_XREC_ROUNDTRIP
360
FEB
  0
DICTIONARY
  5
FCE
330
F76
100
AcDbDictionary
280
     1
281
     1
  3
ACAD_XREC_ROUNDTRIP
360
FCF
  0
DICTIONARY
  5
FD0
330
F77
100
AcDbDictionary
280
     1
281
     1
  3
ACAD_XREC_ROUNDTRIP
360
FD1
  0
DICTIONARY
  5
FD2
330
F78
100
AcDbDictionary
280
     1
281
     1
  3
ACAD_XREC_ROUNDTRIP
360
FD3
  0
DICTIONARY
  5
FD4
330
F79
100
AcDbDictionary
280
     1
281
     1
  3
ACAD_XREC_ROUNDTRIP
360
FD5
  0
DICTIONARY
  5
FDC
330
F7D
100
AcDbDictionary
280
     1
281
     1
  3
ACAD_XREC_ROUNDTRIP
360
FDD
  0
DICTIONARY
  5
FF8
330
F8B
100
AcDbDictionary
280
     1
281
     1
  3
ACAD_XREC_ROUNDTRIP
360
FF9
  0
DICTIONARY
  5
FE8
330
F83
100
AcDbDictionary
280
     1
281
     1
  3
ACAD_XREC_ROUNDTRIP
360
FE9
  0
DICTIONARY
  5
FFA
330
F8C
100
AcDbDictionary
280
     1
281
     1
  3
ACAD_XREC_ROUNDTRIP
360
FFB
  0
DICTIONARY
  5
FE0
330
F7F
100
AcDbDictionary
280
     1
281
     1
  3
ACAD_XREC_ROUNDTRIP
360
FE1
  0
DICTIONARY
  5
FF6
330
F8A
100
AcDbDictionary
280
     1
281
     1
  3
ACAD_XREC_ROUNDTRIP
360
FF7
  0
DICTIONARY
  5
FF4
330
F89
100
AcDbDictionary
280
     1
281
     1
  3
ACAD_XREC_ROUNDTRIP
360
FF5
  0
DICTIONARY
  5
FEE
330
F86
100
AcDbDictionary
280
     1
281
     1
  3
ACAD_XREC_ROUNDTRIP
360
FEF
  0
DICTIONARY
  5
FF0
330
F87
100
AcDbDictionary
280
     1
281
     1
  3
ACAD_XREC_ROUNDTRIP
360
FF1
  0
DICTIONARY
  5
FE6
330
F82
100
AcDbDictionary
280
     1
281
     1
  3
ACAD_XREC_ROUNDTRIP
360
FE7
  0
DICTIONARY
  5
FDA
330
F7C
100
AcDbDictionary
280
     1
281
     1
  3
ACAD_XREC_ROUNDTRIP
360
FDB
  0
DICTIONARY
  5
FF2
330
F88
100
AcDbDictionary
280
     1
281
     1
  3
ACAD_XREC_ROUNDTRIP
360
FF3
  0
XRECORD
  5
1003
102
{ACAD_REACTORS
330
1002
102
}
330
1002
100
AcDbXrecord
280
     1
102
DISPLAYNAME
  1
Imperial24
102
FLAGS
 90
        0
  0
XRECORD
  5
1005
102
{ACAD_REACTORS
330
1004
102
}
330
1004
100
AcDbXrecord
280
     1
102
SHADEPLOT
 70
     0
102
SHADEPLOTRESLEVEL
 70
     2
102
SHADEPLOTCUSTOMDPI
 70
   300
  0
XRECORD
  5
1007
102
{ACAD_REACTORS
330
1006
102
}
330
1006
100
AcDbXrecord
280
     1
102
SHADEPLOT
 70
     0
102
SHADEPLOTRESLEVEL
 70
     2
102
SHADEPLOTCUSTOMDPI
 70
   300
  0
XRECORD
  5
FCC
102
{ACAD_REACTORS
330
F66
102
}
330
F66
100
AcDbXrecord
280
     1
102
MATERIAL
148
0.0
149
0.0
149
0.0
 93
        0
 94
      127
282
     0
 72
     0
 77
     0
171
     0
175
     0
179
     0
273
     0
  0
XRECORD
  5
F68
102
{ACAD_REACTORS
330
F66
102
}
330
F66
100
AcDbXrecord
280
     1
270
     1
271
     1
  0
XRECORD
  5
F67
102
{ACAD_REACTORS
330
F66
102
}
330
F66
100
AcDbXrecord
280
     1
270
     1
271
     1
  0
XRECORD
  5
F6B
102
{ACAD_REACTORS
330
F66
102
}
330
F66
100
AcDbXrecord
280
     1
270
     1
271
     1
  0
XRECORD
  5
F6A
102
{ACAD_REACTORS
330
F66
102
}
330
F66
100
AcDbXrecord
280
     1
270
     1
271
     1
  0
XRECORD
  5
F6C
102
{ACAD_REACTORS
330
F66
102
}
330
F66
100
AcDbXrecord
280
     1
270
     1
271
     1
  0
XRECORD
  5
F69
102
{ACAD_REACTORS
330
F66
102
}
330
F66
100
AcDbXrecord
280
     1
270
     1
271
     1
  0
XRECORD
  5
FCB
102
{ACAD_REACTORS
330
F5E
102
}
330
F5E
100
AcDbXrecord
280
     1
102
MATERIAL
148
0.0
149
0.0
149
0.0
 93
        0
 94
      127
282
     0
 72
     0
 77
     0
171
     0
175
     0
179
     0
273
     0
  0
XRECORD
  5
F60
102
{ACAD_REACTORS
330
F5E
102
}
330
F5E
100
AcDbXrecord
280
     1
270
     1
271
     1
  0
XRECORD
  5
F5F
102
{ACAD_REACTORS
330
F5E
102
}
330
F5E
100
AcDbXrecord
280
     1
270
     1
271
     1
  0
XRECORD
  5
F63
102
{ACAD_REACTORS
330
F5E
102
}
330
F5E
100
AcDbXrecord
280
     1
270
     1
271
     1
  0
XRECORD
  5
F62
102
{ACAD_REACTORS
330
F5E
102
}
330
F5E
100
AcDbXrecord
280
     1
270
     1
271
     1
  0
XRECORD
  5
F64
102
{ACAD_REACTORS
330
F5E
102
}
330
F5E
100
AcDbXrecord
280
     1
270
     1
271
     1
  0
XRECORD
  5
F61
102
{ACAD_REACTORS
330
F5E
102
}
330
F5E
100
AcDbXrecord
280
     1
270
     1
271
     1
  0
XRECORD
  5
FCD
102
{ACAD_REACTORS
330
F6E
102
}
330
F6E
100
AcDbXrecord
280
     1
102
MATERIAL
148
0.0
149
0.0
149
0.0
 93
        0
 94
      127
282
     0
 72
     0
 77
     0
171
     0
175
     0
179
     0
273
     0
  0
XRECORD
  5
F70
102
{ACAD_REACTORS
330
F6E
102
}
330
F6E
100
AcDbXrecord
280
     1
270
     1
271
     1
  0
XRECORD
  5
F6F
102
{ACAD_REACTORS
330
F6E
102
}
330
F6E
100
AcDbXrecord
280
     1
270
     1
271
     1
  0
XRECORD
  5
F73
102
{ACAD_REACTORS
330
F6E
102
}
330
F6E
100
AcDbXrecord
280
     1
270
     1
271
     1
  0
XRECORD
  5
F72
102
{ACAD_REACTORS
330
F6E
102
}
330
F6E
100
AcDbXrecord
280
     1
270
     1
271
     1
  0
XRECORD
  5
F74
102
{ACAD_REACTORS
330
F6E
102
}
330
F6E
100
AcDbXrecord
280
     1
270
     1
271
     1
  0
XRECORD
  5
F71
102
{ACAD_REACTORS
330
F6E
102
}
330
F6E
100
AcDbXrecord
280
     1
270
     1
271
     1
  0
XRECORD
  5
1001
102
{ACAD_REACTORS
330
1000
102
}
330
1000
100
AcDbXrecord
280
     1
102
DISPLAYNAME
  1
Imperial24
102
FLAGS
 90
        0
  0
CELLSTYLEMAP
  5
FC8
102
{ACAD_REACTORS
330
FC7
102
}
330
FC7
100
AcDbCellStyleMap
 90
        3
300
CELLSTYLE
  1
TABLEFORMAT_BEGIN
 90
        5
170
     1
 91
        0
 92
    32768
 62
   257
 93
        1
300
CONTENTFORMAT
  1
CONTENTFORMAT_BEGIN
 90
        0
 91
        0
 92
      512
 93
        0
300

 40
0.0
140
1.0
 94
        5
 62
     0
340
F
144
0.25
309
CONTENTFORMAT_END
171
     0
 94
        0
309
TABLEFORMAT_END
  1
CELLSTYLE_BEGIN
 90
        1
 91
        1
300
_TITLE
309
CELLSTYLE_END
300
CELLSTYLE
  1
TABLEFORMAT_BEGIN
 90
        5
170
     1
 91
        0
 92
        0
 62
   257
 93
        1
300
CONTENTFORMAT
  1
CONTENTFORMAT_BEGIN
 90
        0
 91
        0
 92
      512
 93
        0
300

 40
0.0
140
1.0
 94
        5
 62
     0
340
F
144
0.18
309
CONTENTFORMAT_END
171
     0
 94
        0
309
TABLEFORMAT_END
  1
CELLSTYLE_BEGIN
 90
        2
 91
        1
300
_HEADER
309
CELLSTYLE_END
300
CELLSTYLE
  1
TABLEFORMAT_BEGIN
 90
        5
170
     1
 91
        0
 92
        0
 62
   257
 93
        1
300
CONTENTFORMAT
  1
CONTENTFORMAT_BEGIN
 90
        0
 91
        0
 92
      512
 93
        0
300

 40
0.0
140
1.0
 94
        2
 62
     0
340
F
144
0.18
309
CONTENTFORMAT_END
171
     0
 94
        0
309
TABLEFORMAT_END
  1
CELLSTYLE_BEGIN
 90
        3
 91
        2
300
_DATA
309
CELLSTYLE_END
  0
XRECORD
  5
FFE
102
{ACAD_REACTORS
330
FC7
102
}
330
FC7
100
AcDbXrecord
280
     1
102
ACAD_ROUNDTRIP_PRE2007_TABLESTYLE
 90
      512
 91
        0
  1

 92
      512
 93
        0
  2

 94
      512
 95
        0
  3

  0
XRECORD
  5
FD9
102
{ACAD_REACTORS
330
FD8
102
}
330
FD8
100
AcDbXrecord
280
     1
102
RTVSPost2010Prop28
280
     1
102
RTVSPost2010PropOp28
 70
     1
102
RTVSPost2010Prop29
280
     1
102
RTVSPost2010PropOp29
 70
     1
102
RTVSPost2010Prop30
280
     0
102
RTVSPost2010PropOp30
 70
     1
102
RTVSPost2010Prop31
280
     0
102
RTVSPost2010PropOp31
 70
     1
102
RTVSPost2010Prop32
280
     0
102
RTVSPost2010PropOp32
 70
     1
102
RTVSPost2010Prop33
280
     0
102
RTVSPost2010PropOp33
 70
     1
102
RTVSPost2010Prop34
280
     0
102
RTVSPost2010PropOp34
 70
     1
102
RTVSPost2010Prop35
280
     0
102
RTVSPost2010PropOp35
 70
     1
102
RTVSPost2010Prop36
280
     0
102
RTVSPost2010PropOp36
 70
     1
102
RTVSPost2010Prop37
 90
       50
102
RTVSPost2010PropOp37
 70
     1
102
RTVSPost2010Prop38
140
0.0
102
RTVSPost2010PropOp38
 70
     1
102
RTVSPost2010Prop39
140
1.0
102
RTVSPost2010PropOp39
 70
     1
102
RTVSPost2010Prop40
 90
        0
102
RTVSPost2010PropOp40
 70
     1
102
RTVSPost2010Prop41ColorIndex
 90
       18
102
RTVSPost2010Prop41ColorRGB
 90
        0
102
RTVSPost2010PropOp41
 70
     1
102
RTVSPost2010Prop42
 90
       50
102
RTVSPost2010PropOp42
 70
     1
102
RTVSPost2010Prop43
 90
        3
102
RTVSPost2010PropOp43
 70
     1
102
RTVSPost2010Prop44ColorIndex
 90
        5
102
RTVSPost2010Prop44ColorRGB
 90
      255
102
RTVSPost2010PropOp44
 70
     1
102
RTVSPost2010Prop45
280
     0
102
RTVSPost2010PropOp45
 70
     1
102
RTVSPost2010Prop46
 90
       50
102
RTVSPost2010PropOp46
 70
     1
102
RTVSPost2010Prop47
 90
       50
102
RTVSPost2010PropOp47
 70
     1
102
RTVSPost2010Prop48
 90
       50
102
RTVSPost2010PropOp48
 70
     1
102
RTVSPost2010Prop49
280
     0
102
RTVSPost2010PropOp49
 70
     1
102
RTVSPost2010Prop50
 90
       50
102
RTVSPost2010PropOp50
 70
     1
102
RTVSPost2010Prop51ColorIndex
 90
      256
102
RTVSPost2010Prop51ColorRGB
 90
-16777216
102
RTVSPost2010PropOp51
 70
     0
102
RTVSPost2010Prop52
140
1.0
102
RTVSPost2010PropOp52
 70
     0
102
RTVSPost2010Prop53
 90
        2
102
RTVSPost2010PropOp53
 70
     1
102
RTVSPost2010Prop54
  1
strokes_ogs.tif
102
RTVSPost2010PropOp54
 70
     1
102
RTVSPost2010Prop55
280
     0
102
RTVSPost2010PropOp55
 70
     1
102
RTVSPost2010Prop56
140
1.0
102
RTVSPost2010PropOp56
 70
     1
102
RTVSPost2010Prop57
140
1.0
102
RTVSPost2010PropOp57
 70
     1
102
RTVSPropertyOp0
 70
     1
102
RTVSPropertyOp1
 70
     1
102
RTVSPropertyOp2
 70
     1
102
RTVSPropertyOp3
 70
     1
102
RTVSPropertyOp4
 70
     1
102
RTVSPropertyOp5
 70
     1
102
RTVSPropertyOp6
 70
     1
102
RTVSPropertyOp7
 70
     1
102
RTVSPropertyOp8
 70
     1
102
RTVSPropertyOp9
 70
     1
102
RTVSPropertyOp10
 70
     1
102
RTVSPropertyOp11
 70
     1
102
RTVSPropertyOp12
 70
     1
102
RTVSPropertyOp13
 70
     1
102
RTVSPropertyOp14
 70
     1
102
RTVSPropertyOp15
 70
     1
102
RTVSPropertyOp16
 70
     1
102
RTVSPropertyOp17
 70
     1
102
RTVSPropertyOp18
 70
     1
102
RTVSPropertyOp19
 70
     1
102
RTVSPropertyOp20
 70
     1
102
RTVSPropertyOp21
 70
     1
102
RTVSPropertyOp22
 70
     1
102
RTVSPropertyOp23
 70
     1
102
RTVSPropertyOp24
 70
     1
102
RTVSPropertyOp25
 70
     1
102
RTVSPropertyOp26
 70
     1
102
RTVSPropertyOp27
 70
     1
102
RTVSPropertyOp28
 70
     1
102
RTVSPropertyOp29
 70
     1
102
RTVSPropertyOp30
 70
     1
102
RTVSPropertyOp31
 70
     1
102
RTVSPropertyOp32
 70
     1
102
RTVSPropertyOp33
 70
     1
102
RTVSPropertyOp34
 70
     1
102
RTVSPropertyOp35
 70
     1
102
RTVSPropertyOp36
 70
     1
102
RTVSPropertyOp37
 70
     1
102
RTVSPropertyOp38
 70
     1
102
RTVSPropertyOp39
 70
     1
102
RTVSPropertyOp40
 70
     1
102
RTVSPropertyOp41
 70
     1
102
RTVSPropertyOp42
 70
     1
102
RTVSPropertyOp43
 70
     1
102
RTVSPropertyOp44
 70
     1
102
RTVSPropertyOp45
 70
     1
102
RTVSPropertyOp46
 70
     1
102
RTVSPropertyOp47
 70
     1
102
RTVSPropertyOp48
 70
     1
102
RTVSPropertyOp49
 70
     1
102
RTVSPropertyOp50
 70
     1
102
RTVSPropertyOp51
 70
     0
102
RTVSPropertyOp52
 70
     0
102
RTVSPropertyOp53
 70
     1
102
RTVSPropertyOp54
 70
     1
102
RTVSPropertyOp55
 70
     1
102
RTVSPropertyOp56
 70
     1
102
RTVSPropertyOp57
 70
     1
102
RTVSPropertyOp58
 70
     1
102
RTVSPropertyOp59
 70
     1
102
RTVSPropertyOp60
 70
     1
102
RTVSPropertyOp61
 70
     1
102
RTVSPropertyOp62
 70
     1
  0
XRECORD
  5
FD7
102
{ACAD_REACTORS
330
FD6
102
}
330
FD6
100
AcDbXrecord
280
     1
102
RTVSPost2010Prop28
280
     0
102
RTVSPost2010PropOp28
 70
     1
102
RTVSPost2010Prop29
280
     1
102
RTVSPost2010PropOp29
 70
     1
102
RTVSPost2010Prop30
280
     1
102
RTVSPost2010PropOp30
 70
     1
102
RTVSPost2010Prop31
280
     0
102
RTVSPost2010PropOp31
 70
     1
102
RTVSPost2010Prop32
280
     0
102
RTVSPost2010PropOp32
 70
     1
102
RTVSPost2010Prop33
280
     0
102
RTVSPost2010PropOp33
 70
     1
102
RTVSPost2010Prop34
280
     0
102
RTVSPost2010PropOp34
 70
     1
102
RTVSPost2010Prop35
280
     0
102
RTVSPost2010PropOp35
 70
     1
102
RTVSPost2010Prop36
280
     0
102
RTVSPost2010PropOp36
 70
     1
102
RTVSPost2010Prop37
 90
       50
102
RTVSPost2010PropOp37
 70
     1
102
RTVSPost2010Prop38
140
0.0
102
RTVSPost2010PropOp38
 70
     1
102
RTVSPost2010Prop39
140
1.0
102
RTVSPost2010PropOp39
 70
     1
102
RTVSPost2010Prop40
 90
        0
102
RTVSPost2010PropOp40
 70
     1
102
RTVSPost2010Prop41ColorIndex
 90
       18
102
RTVSPost2010Prop41ColorRGB
 90
        0
102
RTVSPost2010PropOp41
 70
     1
102
RTVSPost2010Prop42
 90
       50
102
RTVSPost2010PropOp42
 70
     1
102
RTVSPost2010Prop43
 90
        3
102
RTVSPost2010PropOp43
 70
     1
102
RTVSPost2010Prop44ColorIndex
 90
        5
102
RTVSPost2010Prop44ColorRGB
 90
      255
102
RTVSPost2010PropOp44
 70
     1
102
RTVSPost2010Prop45
280
     0
102
RTVSPost2010PropOp45
 70
     1
102
RTVSPost2010Prop46
 90
       50
102
RTVSPost2010PropOp46
 70
     1
102
RTVSPost2010Prop47
 90
       50
102
RTVSPost2010PropOp47
 70
     1
102
RTVSPost2010Prop48
 90
       50
102
RTVSPost2010PropOp48
 70
     1
102
RTVSPost2010Prop49
280
     0
102
RTVSPost2010PropOp49
 70
     1
102
RTVSPost2010Prop50
 90
       50
102
RTVSPost2010PropOp50
 70
     1
102
RTVSPost2010Prop51ColorIndex
 90
      256
102
RTVSPost2010Prop51ColorRGB
 90
-16777216
102
RTVSPost2010PropOp51
 70
     0
102
RTVSPost2010Prop52
140
1.0
102
RTVSPost2010PropOp52
 70
     0
102
RTVSPost2010Prop53
 90
        2
102
RTVSPost2010PropOp53
 70
     1
102
RTVSPost2010Prop54
  1
strokes_ogs.tif
102
RTVSPost2010PropOp54
 70
     1
102
RTVSPost2010Prop55
280
     0
102
RTVSPost2010PropOp55
 70
     1
102
RTVSPost2010Prop56
140
1.0
102
RTVSPost2010PropOp56
 70
     1
102
RTVSPost2010Prop57
140
1.0
102
RTVSPost2010PropOp57
 70
     1
102
RTVSPropertyOp0
 70
     1
102
RTVSPropertyOp1
 70
     1
102
RTVSPropertyOp2
 70
     1
102
RTVSPropertyOp3
 70
     1
102
RTVSPropertyOp4
 70
     1
102
RTVSPropertyOp5
 70
     1
102
RTVSPropertyOp6
 70
     1
102
RTVSPropertyOp7
 70
     1
102
RTVSPropertyOp8
 70
     1
102
RTVSPropertyOp9
 70
     1
102
RTVSPropertyOp10
 70
     1
102
RTVSPropertyOp11
 70
     1
102
RTVSPropertyOp12
 70
     1
102
RTVSPropertyOp13
 70
     1
102
RTVSPropertyOp14
 70
     1
102
RTVSPropertyOp15
 70
     1
102
RTVSPropertyOp16
 70
     1
102
RTVSPropertyOp17
 70
     1
102
RTVSPropertyOp18
 70
     1
102
RTVSPropertyOp19
 70
     1
102
RTVSPropertyOp20
 70
     1
102
RTVSPropertyOp21
 70
     1
102
RTVSPropertyOp22
 70
     1
102
RTVSPropertyOp23
 70
     1
102
RTVSPropertyOp24
 70
     1
102
RTVSPropertyOp25
 70
     1
102
RTVSPropertyOp26
 70
     1
102
RTVSPropertyOp27
 70
     1
102
RTVSPropertyOp28
 70
     1
102
RTVSPropertyOp29
 70
     1
102
RTVSPropertyOp30
 70
     1
102
RTVSPropertyOp31
 70
     1
102
RTVSPropertyOp32
 70
     1
102
RTVSPropertyOp33
 70
     1
102
RTVSPropertyOp34
 70
     1
102
RTVSPropertyOp35
 70
     1
102
RTVSPropertyOp36
 70
     1
102
RTVSPropertyOp37
 70
     1
102
RTVSPropertyOp38
 70
     1
102
RTVSPropertyOp39
 70
     1
102
RTVSPropertyOp40
 70
     1
102
RTVSPropertyOp41
 70
     1
102
RTVSPropertyOp42
 70
     1
102
RTVSPropertyOp43
 70
     1
102
RTVSPropertyOp44
 70
     1
102
RTVSPropertyOp45
 70
     1
102
RTVSPropertyOp46
 70
     1
102
RTVSPropertyOp47
 70
     1
102
RTVSPropertyOp48
 70
     1
102
RTVSPropertyOp49
 70
     1
102
RTVSPropertyOp50
 70
     1
102
RTVSPropertyOp51
 70
     0
102
RTVSPropertyOp52
 70
     0
102
RTVSPropertyOp53
 70
     1
102
RTVSPropertyOp54
 70
     1
102
RTVSPropertyOp55
 70
     1
102
RTVSPropertyOp56
 70
     1
102
RTVSPropertyOp57
 70
     1
102
RTVSPropertyOp58
 70
     1
102
RTVSPropertyOp59
 70
     1
102
RTVSPropertyOp60
 70
     1
102
RTVSPropertyOp61
 70
     1
102
RTVSPropertyOp62
 70
     1
  0
XRECORD
  5
FE5
102
{ACAD_REACTORS
330
FE4
102
}
330
FE4
100
AcDbXrecord
280
     1
102
RTVSPost2010Prop28
280
     0
102
RTVSPost2010PropOp28
 70
     1
102
RTVSPost2010Prop29
280
     1
102
RTVSPost2010PropOp29
 70
     1
102
RTVSPost2010Prop30
280
     1
102
RTVSPost2010PropOp30
 70
     1
102
RTVSPost2010Prop31
280
     0
102
RTVSPost2010PropOp31
 70
     1
102
RTVSPost2010Prop32
280
     0
102
RTVSPost2010PropOp32
 70
     1
102
RTVSPost2010Prop33
280
     0
102
RTVSPost2010PropOp33
 70
     1
102
RTVSPost2010Prop34
280
     0
102
RTVSPost2010PropOp34
 70
     1
102
RTVSPost2010Prop35
280
     0
102
RTVSPost2010PropOp35
 70
     1
102
RTVSPost2010Prop36
280
     0
102
RTVSPost2010PropOp36
 70
     1
102
RTVSPost2010Prop37
 90
       50
102
RTVSPost2010PropOp37
 70
     1
102
RTVSPost2010Prop38
140
0.0
102
RTVSPost2010PropOp38
 70
     1
102
RTVSPost2010Prop39
140
1.0
102
RTVSPost2010PropOp39
 70
     1
102
RTVSPost2010Prop40
 90
        0
102
RTVSPost2010PropOp40
 70
     1
102
RTVSPost2010Prop41ColorIndex
 90
       18
102
RTVSPost2010Prop41ColorRGB
 90
        0
102
RTVSPost2010PropOp41
 70
     1
102
RTVSPost2010Prop42
 90
       50
102
RTVSPost2010PropOp42
 70
     1
102
RTVSPost2010Prop43
 90
        3
102
RTVSPost2010PropOp43
 70
     1
102
RTVSPost2010Prop44ColorIndex
 90
        5
102
RTVSPost2010Prop44ColorRGB
 90
      255
102
RTVSPost2010PropOp44
 70
     1
102
RTVSPost2010Prop45
280
     0
102
RTVSPost2010PropOp45
 70
     1
102
RTVSPost2010Prop46
 90
       50
102
RTVSPost2010PropOp46
 70
     1
102
RTVSPost2010Prop47
 90
       50
102
RTVSPost2010PropOp47
 70
     1
102
RTVSPost2010Prop48
 90
       50
102
RTVSPost2010PropOp48
 70
     1
102
RTVSPost2010Prop49
280
     0
102
RTVSPost2010PropOp49
 70
     1
102
RTVSPost2010Prop50
 90
       50
102
RTVSPost2010PropOp50
 70
     1
102
RTVSPost2010Prop51ColorIndex
 90
      256
102
RTVSPost2010Prop51ColorRGB
 90
-16777216
102
RTVSPost2010PropOp51
 70
     0
102
RTVSPost2010Prop52
140
1.0
102
RTVSPost2010PropOp52
 70
     0
102
RTVSPost2010Prop53
 90
        2
102
RTVSPost2010PropOp53
 70
     1
102
RTVSPost2010Prop54
  1
strokes_ogs.tif
102
RTVSPost2010PropOp54
 70
     1
102
RTVSPost2010Prop55
280
     0
102
RTVSPost2010PropOp55
 70
     1
102
RTVSPost2010Prop56
140
1.0
102
RTVSPost2010PropOp56
 70
     1
102
RTVSPost2010Prop57
140
1.0
102
RTVSPost2010PropOp57
 70
     1
102
RTVSPropertyOp0
 70
     1
102
RTVSPropertyOp1
 70
     1
102
RTVSPropertyOp2
 70
     1
102
RTVSPropertyOp3
 70
     1
102
RTVSPropertyOp4
 70
     1
102
RTVSPropertyOp5
 70
     1
102
RTVSPropertyOp6
 70
     1
102
RTVSPropertyOp7
 70
     1
102
RTVSPropertyOp8
 70
     1
102
RTVSPropertyOp9
 70
     1
102
RTVSPropertyOp10
 70
     1
102
RTVSPropertyOp11
 70
     1
102
RTVSPropertyOp12
 70
     1
102
RTVSPropertyOp13
 70
     1
102
RTVSPropertyOp14
 70
     1
102
RTVSPropertyOp15
 70
     1
102
RTVSPropertyOp16
 70
     1
102
RTVSPropertyOp17
 70
     1
102
RTVSPropertyOp18
 70
     1
102
RTVSPropertyOp19
 70
     1
102
RTVSPropertyOp20
 70
     1
102
RTVSPropertyOp21
 70
     1
102
RTVSPropertyOp22
 70
     1
102
RTVSPropertyOp23
 70
     1
102
RTVSPropertyOp24
 70
     1
102
RTVSPropertyOp25
 70
     1
102
RTVSPropertyOp26
 70
     1
102
RTVSPropertyOp27
 70
     1
102
RTVSPropertyOp28
 70
     1
102
RTVSPropertyOp29
 70
     1
102
RTVSPropertyOp30
 70
     1
102
RTVSPropertyOp31
 70
     1
102
RTVSPropertyOp32
 70
     1
102
RTVSPropertyOp33
 70
     1
102
RTVSPropertyOp34
 70
     1
102
RTVSPropertyOp35
 70
     1
102
RTVSPropertyOp36
 70
     1
102
RTVSPropertyOp37
 70
     1
102
RTVSPropertyOp38
 70
     1
102
RTVSPropertyOp39
 70
     1
102
RTVSPropertyOp40
 70
     1
102
RTVSPropertyOp41
 70
     1
102
RTVSPropertyOp42
 70
     1
102
RTVSPropertyOp43
 70
     1
102
RTVSPropertyOp44
 70
     1
102
RTVSPropertyOp45
 70
     1
102
RTVSPropertyOp46
 70
     1
102
RTVSPropertyOp47
 70
     1
102
RTVSPropertyOp48
 70
     1
102
RTVSPropertyOp49
 70
     1
102
RTVSPropertyOp50
 70
     1
102
RTVSPropertyOp51
 70
     0
102
RTVSPropertyOp52
 70
     0
102
RTVSPropertyOp53
 70
     1
102
RTVSPropertyOp54
 70
     1
102
RTVSPropertyOp55
 70
     1
102
RTVSPropertyOp56
 70
     1
102
RTVSPropertyOp57
 70
     1
102
RTVSPropertyOp58
 70
     1
102
RTVSPropertyOp59
 70
     1
102
RTVSPropertyOp60
 70
     1
102
RTVSPropertyOp61
 70
     1
102
RTVSPropertyOp62
 70
     1
  0
XRECORD
  5
FED
102
{ACAD_REACTORS
330
FEC
102
}
330
FEC
100
AcDbXrecord
280
     1
102
RTVSPost2010Prop28
280
     0
102
RTVSPost2010PropOp28
 70
     1
102
RTVSPost2010Prop29
280
     1
102
RTVSPost2010PropOp29
 70
     1
102
RTVSPost2010Prop30
280
     1
102
RTVSPost2010PropOp30
 70
     1
102
RTVSPost2010Prop31
280
     0
102
RTVSPost2010PropOp31
 70
     1
102
RTVSPost2010Prop32
280
     0
102
RTVSPost2010PropOp32
 70
     1
102
RTVSPost2010Prop33
280
     0
102
RTVSPost2010PropOp33
 70
     1
102
RTVSPost2010Prop34
280
     0
102
RTVSPost2010PropOp34
 70
     1
102
RTVSPost2010Prop35
280
     0
102
RTVSPost2010PropOp35
 70
     1
102
RTVSPost2010Prop36
280
     0
102
RTVSPost2010PropOp36
 70
     1
102
RTVSPost2010Prop37
 90
       50
102
RTVSPost2010PropOp37
 70
     1
102
RTVSPost2010Prop38
140
0.0
102
RTVSPost2010PropOp38
 70
     1
102
RTVSPost2010Prop39
140
1.0
102
RTVSPost2010PropOp39
 70
     1
102
RTVSPost2010Prop40
 90
        0
102
RTVSPost2010PropOp40
 70
     1
102
RTVSPost2010Prop41ColorIndex
 90
       18
102
RTVSPost2010Prop41ColorRGB
 90
        0
102
RTVSPost2010PropOp41
 70
     1
102
RTVSPost2010Prop42
 90
       50
102
RTVSPost2010PropOp42
 70
     1
102
RTVSPost2010Prop43
 90
        3
102
RTVSPost2010PropOp43
 70
     1
102
RTVSPost2010Prop44ColorIndex
 90
        5
102
RTVSPost2010Prop44ColorRGB
 90
      255
102
RTVSPost2010PropOp44
 70
     1
102
RTVSPost2010Prop45
280
     0
102
RTVSPost2010PropOp45
 70
     1
102
RTVSPost2010Prop46
 90
       50
102
RTVSPost2010PropOp46
 70
     1
102
RTVSPost2010Prop47
 90
       50
102
RTVSPost2010PropOp47
 70
     1
102
RTVSPost2010Prop48
 90
       50
102
RTVSPost2010PropOp48
 70
     1
102
RTVSPost2010Prop49
280
     0
102
RTVSPost2010PropOp49
 70
     1
102
RTVSPost2010Prop50
 90
       50
102
RTVSPost2010PropOp50
 70
     1
102
RTVSPost2010Prop51ColorIndex
 90
      256
102
RTVSPost2010Prop51ColorRGB
 90
-16777216
102
RTVSPost2010PropOp51
 70
     0
102
RTVSPost2010Prop52
140
1.0
102
RTVSPost2010PropOp52
 70
     0
102
RTVSPost2010Prop53
 90
        2
102
RTVSPost2010PropOp53
 70
     1
102
RTVSPost2010Prop54
  1
strokes_ogs.tif
102
RTVSPost2010PropOp54
 70
     1
102
RTVSPost2010Prop55
280
     0
102
RTVSPost2010PropOp55
 70
     1
102
RTVSPost2010Prop56
140
1.0
102
RTVSPost2010PropOp56
 70
     1
102
RTVSPost2010Prop57
140
1.0
102
RTVSPost2010PropOp57
 70
     1
102
RTVSPropertyOp0
 70
     1
102
RTVSPropertyOp1
 70
     1
102
RTVSPropertyOp2
 70
     1
102
RTVSPropertyOp3
 70
     1
102
RTVSPropertyOp4
 70
     1
102
RTVSPropertyOp5
 70
     1
102
RTVSPropertyOp6
 70
     1
102
RTVSPropertyOp7
 70
     1
102
RTVSPropertyOp8
 70
     1
102
RTVSPropertyOp9
 70
     1
102
RTVSPropertyOp10
 70
     1
102
RTVSPropertyOp11
 70
     1
102
RTVSPropertyOp12
 70
     1
102
RTVSPropertyOp13
 70
     1
102
RTVSPropertyOp14
 70
     1
102
RTVSPropertyOp15
 70
     1
102
RTVSPropertyOp16
 70
     1
102
RTVSPropertyOp17
 70
     1
102
RTVSPropertyOp18
 70
     1
102
RTVSPropertyOp19
 70
     1
102
RTVSPropertyOp20
 70
     1
102
RTVSPropertyOp21
 70
     1
102
RTVSPropertyOp22
 70
     1
102
RTVSPropertyOp23
 70
     1
102
RTVSPropertyOp24
 70
     1
102
RTVSPropertyOp25
 70
     1
102
RTVSPropertyOp26
 70
     1
102
RTVSPropertyOp27
 70
     1
102
RTVSPropertyOp28
 70
     1
102
RTVSPropertyOp29
 70
     1
102
RTVSPropertyOp30
 70
     1
102
RTVSPropertyOp31
 70
     1
102
RTVSPropertyOp32
 70
     1
102
RTVSPropertyOp33
 70
     1
102
RTVSPropertyOp34
 70
     1
102
RTVSPropertyOp35
 70
     1
102
RTVSPropertyOp36
 70
     1
102
RTVSPropertyOp37
 70
     1
102
RTVSPropertyOp38
 70
     1
102
RTVSPropertyOp39
 70
     1
102
RTVSPropertyOp40
 70
     1
102
RTVSPropertyOp41
 70
     1
102
RTVSPropertyOp42
 70
     1
102
RTVSPropertyOp43
 70
     1
102
RTVSPropertyOp44
 70
     1
102
RTVSPropertyOp45
 70
     1
102
RTVSPropertyOp46
 70
     1
102
RTVSPropertyOp47
 70
     1
102
RTVSPropertyOp48
 70
     1
102
RTVSPropertyOp49
 70
     1
102
RTVSPropertyOp50
 70
     1
102
RTVSPropertyOp51
 70
     0
102
RTVSPropertyOp52
 70
     0
102
RTVSPropertyOp53
 70
     1
102
RTVSPropertyOp54
 70
     1
102
RTVSPropertyOp55
 70
     1
102
RTVSPropertyOp56
 70
     1
102
RTVSPropertyOp57
 70
     1
102
RTVSPropertyOp58
 70
     1
102
RTVSPropertyOp59
 70
     1
102
RTVSPropertyOp60
 70
     1
102
RTVSPropertyOp61
 70
     1
102
RTVSPropertyOp62
 70
     1
  0
XRECORD
  5
FDF
102
{ACAD_REACTORS
330
FDE
102
}
330
FDE
100
AcDbXrecord
280
     1
102
RTVSPost2010Prop28
280
     0
102
RTVSPost2010PropOp28
 70
     1
102
RTVSPost2010Prop29
280
     1
102
RTVSPost2010PropOp29
 70
     1
102
RTVSPost2010Prop30
280
     1
102
RTVSPost2010PropOp30
 70
     1
102
RTVSPost2010Prop31
280
     0
102
RTVSPost2010PropOp31
 70
     1
102
RTVSPost2010Prop32
280
     0
102
RTVSPost2010PropOp32
 70
     1
102
RTVSPost2010Prop33
280
     0
102
RTVSPost2010PropOp33
 70
     1
102
RTVSPost2010Prop34
280
     0
102
RTVSPost2010PropOp34
 70
     1
102
RTVSPost2010Prop35
280
     0
102
RTVSPost2010PropOp35
 70
     1
102
RTVSPost2010Prop36
280
     0
102
RTVSPost2010PropOp36
 70
     1
102
RTVSPost2010Prop37
 90
       50
102
RTVSPost2010PropOp37
 70
     1
102
RTVSPost2010Prop38
140
0.0
102
RTVSPost2010PropOp38
 70
     1
102
RTVSPost2010Prop39
140
1.0
102
RTVSPost2010PropOp39
 70
     1
102
RTVSPost2010Prop40
 90
        0
102
RTVSPost2010PropOp40
 70
     1
102
RTVSPost2010Prop41ColorIndex
 90
       18
102
RTVSPost2010Prop41ColorRGB
 90
        0
102
RTVSPost2010PropOp41
 70
     1
102
RTVSPost2010Prop42
 90
       50
102
RTVSPost2010PropOp42
 70
     1
102
RTVSPost2010Prop43
 90
        3
102
RTVSPost2010PropOp43
 70
     1
102
RTVSPost2010Prop44ColorIndex
 90
        5
102
RTVSPost2010Prop44ColorRGB
 90
      255
102
RTVSPost2010PropOp44
 70
     1
102
RTVSPost2010Prop45
280
     0
102
RTVSPost2010PropOp45
 70
     1
102
RTVSPost2010Prop46
 90
       50
102
RTVSPost2010PropOp46
 70
     1
102
RTVSPost2010Prop47
 90
       50
102
RTVSPost2010PropOp47
 70
     1
102
RTVSPost2010Prop48
 90
       50
102
RTVSPost2010PropOp48
 70
     1
102
RTVSPost2010Prop49
280
     0
102
RTVSPost2010PropOp49
 70
     1
102
RTVSPost2010Prop50
 90
       50
102
RTVSPost2010PropOp50
 70
     1
102
RTVSPost2010Prop51ColorIndex
 90
      256
102
RTVSPost2010Prop51ColorRGB
 90
-16777216
102
RTVSPost2010PropOp51
 70
     0
102
RTVSPost2010Prop52
140
1.0
102
RTVSPost2010PropOp52
 70
     0
102
RTVSPost2010Prop53
 90
        2
102
RTVSPost2010PropOp53
 70
     1
102
RTVSPost2010Prop54
  1
strokes_ogs.tif
102
RTVSPost2010PropOp54
 70
     1
102
RTVSPost2010Prop55
280
     0
102
RTVSPost2010PropOp55
 70
     1
102
RTVSPost2010Prop56
140
1.0
102
RTVSPost2010PropOp56
 70
     1
102
RTVSPost2010Prop57
140
1.0
102
RTVSPost2010PropOp57
 70
     1
102
RTVSPropertyOp0
 70
     1
102
RTVSPropertyOp1
 70
     1
102
RTVSPropertyOp2
 70
     1
102
RTVSPropertyOp3
 70
     1
102
RTVSPropertyOp4
 70
     1
102
RTVSPropertyOp5
 70
     1
102
RTVSPropertyOp6
 70
     1
102
RTVSPropertyOp7
 70
     1
102
RTVSPropertyOp8
 70
     1
102
RTVSPropertyOp9
 70
     1
102
RTVSPropertyOp10
 70
     1
102
RTVSPropertyOp11
 70
     1
102
RTVSPropertyOp12
 70
     1
102
RTVSPropertyOp13
 70
     1
102
RTVSPropertyOp14
 70
     1
102
RTVSPropertyOp15
 70
     1
102
RTVSPropertyOp16
 70
     1
102
RTVSPropertyOp17
 70
     1
102
RTVSPropertyOp18
 70
     1
102
RTVSPropertyOp19
 70
     1
102
RTVSPropertyOp20
 70
     1
102
RTVSPropertyOp21
 70
     1
102
RTVSPropertyOp22
 70
     1
102
RTVSPropertyOp23
 70
     1
102
RTVSPropertyOp24
 70
     1
102
RTVSPropertyOp25
 70
     1
102
RTVSPropertyOp26
 70
     1
102
RTVSPropertyOp27
 70
     1
102
RTVSPropertyOp28
 70
     1
102
RTVSPropertyOp29
 70
     1
102
RTVSPropertyOp30
 70
     1
102
RTVSPropertyOp31
 70
     1
102
RTVSPropertyOp32
 70
     1
102
RTVSPropertyOp33
 70
     1
102
RTVSPropertyOp34
 70
     1
102
RTVSPropertyOp35
 70
     1
102
RTVSPropertyOp36
 70
     1
102
RTVSPropertyOp37
 70
     1
102
RTVSPropertyOp38
 70
     1
102
RTVSPropertyOp39
 70
     1
102
RTVSPropertyOp40
 70
     1
102
RTVSPropertyOp41
 70
     1
102
RTVSPropertyOp42
 70
     1
102
RTVSPropertyOp43
 70
     1
102
RTVSPropertyOp44
 70
     1
102
RTVSPropertyOp45
 70
     1
102
RTVSPropertyOp46
 70
     1
102
RTVSPropertyOp47
 70
     1
102
RTVSPropertyOp48
 70
     1
102
RTVSPropertyOp49
 70
     1
102
RTVSPropertyOp50
 70
     1
102
RTVSPropertyOp51
 70
     0
102
RTVSPropertyOp52
 70
     0
102
RTVSPropertyOp53
 70
     1
102
RTVSPropertyOp54
 70
     1
102
RTVSPropertyOp55
 70
     1
102
RTVSPropertyOp56
 70
     1
102
RTVSPropertyOp57
 70
     1
102
RTVSPropertyOp58
 70
     1
102
RTVSPropertyOp59
 70
     1
102
RTVSPropertyOp60
 70
     1
102
RTVSPropertyOp61
 70
     1
102
RTVSPropertyOp62
 70
     1
  0
XRECORD
  5
FE3
102
{ACAD_REACTORS
330
FE2
102
}
330
FE2
100
AcDbXrecord
280
     1
102
RTVSPost2010Prop28
280
     0
102
RTVSPost2010PropOp28
 70
     1
102
RTVSPost2010Prop29
280
     1
102
RTVSPost2010PropOp29
 70
     1
102
RTVSPost2010Prop30
280
     1
102
RTVSPost2010PropOp30
 70
     1
102
RTVSPost2010Prop31
280
     0
102
RTVSPost2010PropOp31
 70
     1
102
RTVSPost2010Prop32
280
     0
102
RTVSPost2010PropOp32
 70
     1
102
RTVSPost2010Prop33
280
     0
102
RTVSPost2010PropOp33
 70
     1
102
RTVSPost2010Prop34
280
     0
102
RTVSPost2010PropOp34
 70
     1
102
RTVSPost2010Prop35
280
     0
102
RTVSPost2010PropOp35
 70
     1
102
RTVSPost2010Prop36
280
     0
102
RTVSPost2010PropOp36
 70
     1
102
RTVSPost2010Prop37
 90
       50
102
RTVSPost2010PropOp37
 70
     1
102
RTVSPost2010Prop38
140
0.0
102
RTVSPost2010PropOp38
 70
     1
102
RTVSPost2010Prop39
140
1.0
102
RTVSPost2010PropOp39
 70
     1
102
RTVSPost2010Prop40
 90
        0
102
RTVSPost2010PropOp40
 70
     1
102
RTVSPost2010Prop41ColorIndex
 90
       18
102
RTVSPost2010Prop41ColorRGB
 90
        0
102
RTVSPost2010PropOp41
 70
     1
102
RTVSPost2010Prop42
 90
       50
102
RTVSPost2010PropOp42
 70
     1
102
RTVSPost2010Prop43
 90
        3
102
RTVSPost2010PropOp43
 70
     1
102
RTVSPost2010Prop44ColorIndex
 90
        5
102
RTVSPost2010Prop44ColorRGB
 90
      255
102
RTVSPost2010PropOp44
 70
     1
102
RTVSPost2010Prop45
280
     0
102
RTVSPost2010PropOp45
 70
     1
102
RTVSPost2010Prop46
 90
       50
102
RTVSPost2010PropOp46
 70
     1
102
RTVSPost2010Prop47
 90
       50
102
RTVSPost2010PropOp47
 70
     1
102
RTVSPost2010Prop48
 90
       50
102
RTVSPost2010PropOp48
 70
     1
102
RTVSPost2010Prop49
280
     0
102
RTVSPost2010PropOp49
 70
     1
102
RTVSPost2010Prop50
 90
       50
102
RTVSPost2010PropOp50
 70
     1
102
RTVSPost2010Prop51ColorIndex
 90
      256
102
RTVSPost2010Prop51ColorRGB
 90
-16777216
102
RTVSPost2010PropOp51
 70
     0
102
RTVSPost2010Prop52
140
1.0
102
RTVSPost2010PropOp52
 70
     0
102
RTVSPost2010Prop53
 90
        2
102
RTVSPost2010PropOp53
 70
     1
102
RTVSPost2010Prop54
  1
strokes_ogs.tif
102
RTVSPost2010PropOp54
 70
     1
102
RTVSPost2010Prop55
280
     0
102
RTVSPost2010PropOp55
 70
     1
102
RTVSPost2010Prop56
140
1.0
102
RTVSPost2010PropOp56
 70
     1
102
RTVSPost2010Prop57
140
1.0
102
RTVSPost2010PropOp57
 70
     1
102
RTVSPropertyOp0
 70
     1
102
RTVSPropertyOp1
 70
     1
102
RTVSPropertyOp2
 70
     1
102
RTVSPropertyOp3
 70
     1
102
RTVSPropertyOp4
 70
     1
102
RTVSPropertyOp5
 70
     1
102
RTVSPropertyOp6
 70
     1
102
RTVSPropertyOp7
 70
     1
102
RTVSPropertyOp8
 70
     1
102
RTVSPropertyOp9
 70
     1
102
RTVSPropertyOp10
 70
     1
102
RTVSPropertyOp11
 70
     1
102
RTVSPropertyOp12
 70
     1
102
RTVSPropertyOp13
 70
     1
102
RTVSPropertyOp14
 70
     1
102
RTVSPropertyOp15
 70
     1
102
RTVSPropertyOp16
 70
     1
102
RTVSPropertyOp17
 70
     1
102
RTVSPropertyOp18
 70
     1
102
RTVSPropertyOp19
 70
     1
102
RTVSPropertyOp20
 70
     1
102
RTVSPropertyOp21
 70
     1
102
RTVSPropertyOp22
 70
     1
102
RTVSPropertyOp23
 70
     1
102
RTVSPropertyOp24
 70
     1
102
RTVSPropertyOp25
 70
     1
102
RTVSPropertyOp26
 70
     1
102
RTVSPropertyOp27
 70
     1
102
RTVSPropertyOp28
 70
     1
102
RTVSPropertyOp29
 70
     1
102
RTVSPropertyOp30
 70
     1
102
RTVSPropertyOp31
 70
     1
102
RTVSPropertyOp32
 70
     1
102
RTVSPropertyOp33
 70
     1
102
RTVSPropertyOp34
 70
     1
102
RTVSPropertyOp35
 70
     1
102
RTVSPropertyOp36
 70
     1
102
RTVSPropertyOp37
 70
     1
102
RTVSPropertyOp38
 70
     1
102
RTVSPropertyOp39
 70
     1
102
RTVSPropertyOp40
 70
     1
102
RTVSPropertyOp41
 70
     1
102
RTVSPropertyOp42
 70
     1
102
RTVSPropertyOp43
 70
     1
102
RTVSPropertyOp44
 70
     1
102
RTVSPropertyOp45
 70
     1
102
RTVSPropertyOp46
 70
     1
102
RTVSPropertyOp47
 70
     1
102
RTVSPropertyOp48
 70
     1
102
RTVSPropertyOp49
 70
     1
102
RTVSPropertyOp50
 70
     1
102
RTVSPropertyOp51
 70
     0
102
RTVSPropertyOp52
 70
     0
102
RTVSPropertyOp53
 70
     1
102
RTVSPropertyOp54
 70
     1
102
RTVSPropertyOp55
 70
     1
102
RTVSPropertyOp56
 70
     1
102
RTVSPropertyOp57
 70
     1
102
RTVSPropertyOp58
 70
     1
102
RTVSPropertyOp59
 70
     1
102
RTVSPropertyOp60
 70
     1
102
RTVSPropertyOp61
 70
     1
102
RTVSPropertyOp62
 70
     1
  0
XRECORD
  5
FFD
102
{ACAD_REACTORS
330
FFC
102
}
330
FFC
100
AcDbXrecord
280
     1
102
RTVSPost2010Prop28
280
     0
102
RTVSPost2010PropOp28
 70
     1
102
RTVSPost2010Prop29
280
     1
102
RTVSPost2010PropOp29
 70
     1
102
RTVSPost2010Prop30
280
     1
102
RTVSPost2010PropOp30
 70
     1
102
RTVSPost2010Prop31
280
     0
102
RTVSPost2010PropOp31
 70
     1
102
RTVSPost2010Prop32
280
     0
102
RTVSPost2010PropOp32
 70
     1
102
RTVSPost2010Prop33
280
     0
102
RTVSPost2010PropOp33
 70
     1
102
RTVSPost2010Prop34
280
     0
102
RTVSPost2010PropOp34
 70
     1
102
RTVSPost2010Prop35
280
     0
102
RTVSPost2010PropOp35
 70
     1
102
RTVSPost2010Prop36
280
     0
102
RTVSPost2010PropOp36
 70
     1
102
RTVSPost2010Prop37
 90
       50
102
RTVSPost2010PropOp37
 70
     0
102
RTVSPost2010Prop38
140
0.0
102
RTVSPost2010PropOp38
 70
     0
102
RTVSPost2010Prop39
140
1.0
102
RTVSPost2010PropOp39
 70
     0
102
RTVSPost2010Prop40
 90
        0
102
RTVSPost2010PropOp40
 70
     0
102
RTVSPost2010Prop41ColorIndex
 90
       18
102
RTVSPost2010Prop41ColorRGB
 90
        0
102
RTVSPost2010PropOp41
 70
     0
102
RTVSPost2010Prop42
 90
       50
102
RTVSPost2010PropOp42
 70
     0
102
RTVSPost2010Prop43
 90
        3
102
RTVSPost2010PropOp43
 70
     0
102
RTVSPost2010Prop44ColorIndex
 90
        5
102
RTVSPost2010Prop44ColorRGB
 90
      255
102
RTVSPost2010PropOp44
 70
     0
102
RTVSPost2010Prop45
280
     0
102
RTVSPost2010PropOp45
 70
     1
102
RTVSPost2010Prop46
 90
       50
102
RTVSPost2010PropOp46
 70
     0
102
RTVSPost2010Prop47
 90
       50
102
RTVSPost2010PropOp47
 70
     0
102
RTVSPost2010Prop48
 90
       50
102
RTVSPost2010PropOp48
 70
     0
102
RTVSPost2010Prop49
280
     0
102
RTVSPost2010PropOp49
 70
     1
102
RTVSPost2010Prop50
 90
       50
102
RTVSPost2010PropOp50
 70
     0
102
RTVSPost2010Prop51ColorIndex
 90
      256
102
RTVSPost2010Prop51ColorRGB
 90
-16777216
102
RTVSPost2010PropOp51
 70
     0
102
RTVSPost2010Prop52
140
1.0
102
RTVSPost2010PropOp52
 70
     0
102
RTVSPost2010Prop53
 90
        2
102
RTVSPost2010PropOp53
 70
     0
102
RTVSPost2010Prop54
  1
strokes_ogs.tif
102
RTVSPost2010PropOp54
 70
     0
102
RTVSPost2010Prop55
280
     0
102
RTVSPost2010PropOp55
 70
     1
102
RTVSPost2010Prop56
140
1.0
102
RTVSPost2010PropOp56
 70
     0
102
RTVSPost2010Prop57
140
1.0
102
RTVSPost2010PropOp57
 70
     0
102
RTVSPropertyOp0
 70
     0
102
RTVSPropertyOp1
 70
     0
102
RTVSPropertyOp2
 70
     0
102
RTVSPropertyOp3
 70
     0
102
RTVSPropertyOp4
 70
     0
102
RTVSPropertyOp5
 70
     0
102
RTVSPropertyOp6
 70
     0
102
RTVSPropertyOp7
 70
     0
102
RTVSPropertyOp8
 70
     0
102
RTVSPropertyOp9
 70
     0
102
RTVSPropertyOp10
 70
     0
102
RTVSPropertyOp11
 70
     0
102
RTVSPropertyOp12
 70
     0
102
RTVSPropertyOp13
 70
     0
102
RTVSPropertyOp14
 70
     2
102
RTVSPropertyOp15
 70
     0
102
RTVSPropertyOp16
 70
     0
102
RTVSPropertyOp17
 70
     0
102
RTVSPropertyOp18
 70
     0
102
RTVSPropertyOp19
 70
     0
102
RTVSPropertyOp20
 70
     0
102
RTVSPropertyOp21
 70
     0
102
RTVSPropertyOp22
 70
     0
102
RTVSPropertyOp23
 70
     0
102
RTVSPropertyOp24
 70
     0
102
RTVSPropertyOp25
 70
     0
102
RTVSPropertyOp26
 70
     0
102
RTVSPropertyOp27
 70
     0
102
RTVSPropertyOp28
 70
     1
102
RTVSPropertyOp29
 70
     1
102
RTVSPropertyOp30
 70
     1
102
RTVSPropertyOp31
 70
     1
102
RTVSPropertyOp32
 70
     1
102
RTVSPropertyOp33
 70
     1
102
RTVSPropertyOp34
 70
     1
102
RTVSPropertyOp35
 70
     1
102
RTVSPropertyOp36
 70
     1
102
RTVSPropertyOp37
 70
     0
102
RTVSPropertyOp38
 70
     0
102
RTVSPropertyOp39
 70
     0
102
RTVSPropertyOp40
 70
     0
102
RTVSPropertyOp41
 70
     0
102
RTVSPropertyOp42
 70
     0
102
RTVSPropertyOp43
 70
     0
102
RTVSPropertyOp44
 70
     0
102
RTVSPropertyOp45
 70
     1
102
RTVSPropertyOp46
 70
     0
102
RTVSPropertyOp47
 70
     0
102
RTVSPropertyOp48
 70
     0
102
RTVSPropertyOp49
 70
     1
102
RTVSPropertyOp50
 70
     0
102
RTVSPropertyOp51
 70
     0
102
RTVSPropertyOp52
 70
     0
102
RTVSPropertyOp53
 70
     0
102
RTVSPropertyOp54
 70
     0
102
RTVSPropertyOp55
 70
     1
102
RTVSPropertyOp56
 70
     0
102
RTVSPropertyOp57
 70
     0
102
RTVSPropertyOp58
 70
     0
102
RTVSPropertyOp59
 70
     0
102
RTVSPropertyOp60
 70
     0
102
RTVSPropertyOp61
 70
     0
102
RTVSPropertyOp62
 70
     0
  0
XRECORD
  5
FEB
102
{ACAD_REACTORS
330
FEA
102
}
330
FEA
100
AcDbXrecord
280
     1
102
RTVSPost2010Prop28
280
     0
102
RTVSPost2010PropOp28
 70
     1
102
RTVSPost2010Prop29
280
     1
102
RTVSPost2010PropOp29
 70
     1
102
RTVSPost2010Prop30
280
     1
102
RTVSPost2010PropOp30
 70
     1
102
RTVSPost2010Prop31
280
     0
102
RTVSPost2010PropOp31
 70
     1
102
RTVSPost2010Prop32
280
     0
102
RTVSPost2010PropOp32
 70
     1
102
RTVSPost2010Prop33
280
     0
102
RTVSPost2010PropOp33
 70
     1
102
RTVSPost2010Prop34
280
     0
102
RTVSPost2010PropOp34
 70
     1
102
RTVSPost2010Prop35
280
     0
102
RTVSPost2010PropOp35
 70
     1
102
RTVSPost2010Prop36
280
     0
102
RTVSPost2010PropOp36
 70
     1
102
RTVSPost2010Prop37
 90
       50
102
RTVSPost2010PropOp37
 70
     1
102
RTVSPost2010Prop38
140
0.0
102
RTVSPost2010PropOp38
 70
     1
102
RTVSPost2010Prop39
140
1.0
102
RTVSPost2010PropOp39
 70
     1
102
RTVSPost2010Prop40
 90
        0
102
RTVSPost2010PropOp40
 70
     1
102
RTVSPost2010Prop41ColorIndex
 90
       18
102
RTVSPost2010Prop41ColorRGB
 90
        0
102
RTVSPost2010PropOp41
 70
     1
102
RTVSPost2010Prop42
 90
       50
102
RTVSPost2010PropOp42
 70
     1
102
RTVSPost2010Prop43
 90
        3
102
RTVSPost2010PropOp43
 70
     1
102
RTVSPost2010Prop44ColorIndex
 90
        5
102
RTVSPost2010Prop44ColorRGB
 90
      255
102
RTVSPost2010PropOp44
 70
     1
102
RTVSPost2010Prop45
280
     0
102
RTVSPost2010PropOp45
 70
     1
102
RTVSPost2010Prop46
 90
       50
102
RTVSPost2010PropOp46
 70
     1
102
RTVSPost2010Prop47
 90
       50
102
RTVSPost2010PropOp47
 70
     1
102
RTVSPost2010Prop48
 90
       50
102
RTVSPost2010PropOp48
 70
     1
102
RTVSPost2010Prop49
280
     0
102
RTVSPost2010PropOp49
 70
     1
102
RTVSPost2010Prop50
 90
       50
102
RTVSPost2010PropOp50
 70
     1
102
RTVSPost2010Prop51ColorIndex
 90
      256
102
RTVSPost2010Prop51ColorRGB
 90
-16777216
102
RTVSPost2010PropOp51
 70
     0
102
RTVSPost2010Prop52
140
1.0
102
RTVSPost2010PropOp52
 70
     0
102
RTVSPost2010Prop53
 90
        2
102
RTVSPost2010PropOp53
 70
     1
102
RTVSPost2010Prop54
  1
strokes_ogs.tif
102
RTVSPost2010PropOp54
 70
     1
102
RTVSPost2010Prop55
280
     0
102
RTVSPost2010PropOp55
 70
     1
102
RTVSPost2010Prop56
140
1.0
102
RTVSPost2010PropOp56
 70
     1
102
RTVSPost2010Prop57
140
1.0
102
RTVSPost2010PropOp57
 70
     1
102
RTVSPropertyOp0
 70
     1
102
RTVSPropertyOp1
 70
     1
102
RTVSPropertyOp2
 70
     1
102
RTVSPropertyOp3
 70
     1
102
RTVSPropertyOp4
 70
     1
102
RTVSPropertyOp5
 70
     1
102
RTVSPropertyOp6
 70
     1
102
RTVSPropertyOp7
 70
     1
102
RTVSPropertyOp8
 70
     1
102
RTVSPropertyOp9
 70
     1
102
RTVSPropertyOp10
 70
     1
102
RTVSPropertyOp11
 70
     1
102
RTVSPropertyOp12
 70
     1
102
RTVSPropertyOp13
 70
     1
102
RTVSPropertyOp14
 70
     1
102
RTVSPropertyOp15
 70
     1
102
RTVSPropertyOp16
 70
     1
102
RTVSPropertyOp17
 70
     1
102
RTVSPropertyOp18
 70
     1
102
RTVSPropertyOp19
 70
     1
102
RTVSPropertyOp20
 70
     1
102
RTVSPropertyOp21
 70
     1
102
RTVSPropertyOp22
 70
     1
102
RTVSPropertyOp23
 70
     1
102
RTVSPropertyOp24
 70
     1
102
RTVSPropertyOp25
 70
     1
102
RTVSPropertyOp26
 70
     1
102
RTVSPropertyOp27
 70
     1
102
RTVSPropertyOp28
 70
     1
102
RTVSPropertyOp29
 70
     1
102
RTVSPropertyOp30
 70
     1
102
RTVSPropertyOp31
 70
     1
102
RTVSPropertyOp32
 70
     1
102
RTVSPropertyOp33
 70
     1
102
RTVSPropertyOp34
 70
     1
102
RTVSPropertyOp35
 70
     1
102
RTVSPropertyOp36
 70
     1
102
RTVSPropertyOp37
 70
     1
102
RTVSPropertyOp38
 70
     1
102
RTVSPropertyOp39
 70
     1
102
RTVSPropertyOp40
 70
     1
102
RTVSPropertyOp41
 70
     1
102
RTVSPropertyOp42
 70
     1
102
RTVSPropertyOp43
 70
     1
102
RTVSPropertyOp44
 70
     1
102
RTVSPropertyOp45
 70
     1
102
RTVSPropertyOp46
 70
     1
102
RTVSPropertyOp47
 70
     1
102
RTVSPropertyOp48
 70
     1
102
RTVSPropertyOp49
 70
     1
102
RTVSPropertyOp50
 70
     1
102
RTVSPropertyOp51
 70
     0
102
RTVSPropertyOp52
 70
     0
102
RTVSPropertyOp53
 70
     1
102
RTVSPropertyOp54
 70
     1
102
RTVSPropertyOp55
 70
     1
102
RTVSPropertyOp56
 70
     1
102
RTVSPropertyOp57
 70
     1
102
RTVSPropertyOp58
 70
     1
102
RTVSPropertyOp59
 70
     1
102
RTVSPropertyOp60
 70
     1
102
RTVSPropertyOp61
 70
     1
102
RTVSPropertyOp62
 70
     1
  0
XRECORD
  5
FCF
102
{ACAD_REACTORS
330
FCE
102
}
330
FCE
100
AcDbXrecord
280
     1
102
RTVSPost2010Prop28
280
     0
102
RTVSPost2010PropOp28
 70
     1
102
RTVSPost2010Prop29
280
     1
102
RTVSPost2010PropOp29
 70
     1
102
RTVSPost2010Prop30
280
     1
102
RTVSPost2010PropOp30
 70
     1
102
RTVSPost2010Prop31
280
     0
102
RTVSPost2010PropOp31
 70
     1
102
RTVSPost2010Prop32
280
     0
102
RTVSPost2010PropOp32
 70
     1
102
RTVSPost2010Prop33
280
     0
102
RTVSPost2010PropOp33
 70
     1
102
RTVSPost2010Prop34
280
     0
102
RTVSPost2010PropOp34
 70
     1
102
RTVSPost2010Prop35
280
     0
102
RTVSPost2010PropOp35
 70
     1
102
RTVSPost2010Prop36
280
     0
102
RTVSPost2010PropOp36
 70
     1
102
RTVSPost2010Prop37
 90
       50
102
RTVSPost2010PropOp37
 70
     1
102
RTVSPost2010Prop38
140
0.0
102
RTVSPost2010PropOp38
 70
     1
102
RTVSPost2010Prop39
140
1.0
102
RTVSPost2010PropOp39
 70
     1
102
RTVSPost2010Prop40
 90
        0
102
RTVSPost2010PropOp40
 70
     1
102
RTVSPost2010Prop41ColorIndex
 90
       18
102
RTVSPost2010Prop41ColorRGB
 90
        0
102
RTVSPost2010PropOp41
 70
     1
102
RTVSPost2010Prop42
 90
       50
102
RTVSPost2010PropOp42
 70
     1
102
RTVSPost2010Prop43
 90
        3
102
RTVSPost2010PropOp43
 70
     1
102
RTVSPost2010Prop44ColorIndex
 90
        5
102
RTVSPost2010Prop44ColorRGB
 90
      255
102
RTVSPost2010PropOp44
 70
     1
102
RTVSPost2010Prop45
280
     0
102
RTVSPost2010PropOp45
 70
     1
102
RTVSPost2010Prop46
 90
       50
102
RTVSPost2010PropOp46
 70
     1
102
RTVSPost2010Prop47
 90
       50
102
RTVSPost2010PropOp47
 70
     1
102
RTVSPost2010Prop48
 90
       50
102
RTVSPost2010PropOp48
 70
     1
102
RTVSPost2010Prop49
280
     0
102
RTVSPost2010PropOp49
 70
     1
102
RTVSPost2010Prop50
 90
       50
102
RTVSPost2010PropOp50
 70
     1
102
RTVSPost2010Prop51ColorIndex
 90
      256
102
RTVSPost2010Prop51ColorRGB
 90
-16777216
102
RTVSPost2010PropOp51
 70
     0
102
RTVSPost2010Prop52
140
1.0
102
RTVSPost2010PropOp52
 70
     0
102
RTVSPost2010Prop53
 90
        2
102
RTVSPost2010PropOp53
 70
     1
102
RTVSPost2010Prop54
  1
strokes_ogs.tif
102
RTVSPost2010PropOp54
 70
     1
102
RTVSPost2010Prop55
280
     0
102
RTVSPost2010PropOp55
 70
     1
102
RTVSPost2010Prop56
140
1.0
102
RTVSPost2010PropOp56
 70
     1
102
RTVSPost2010Prop57
140
1.0
102
RTVSPost2010PropOp57
 70
     1
102
RTVSPropertyOp0
 70
     1
102
RTVSPropertyOp1
 70
     1
102
RTVSPropertyOp2
 70
     1
102
RTVSPropertyOp3
 70
     1
102
RTVSPropertyOp4
 70
     1
102
RTVSPropertyOp5
 70
     1
102
RTVSPropertyOp6
 70
     1
102
RTVSPropertyOp7
 70
     1
102
RTVSPropertyOp8
 70
     1
102
RTVSPropertyOp9
 70
     1
102
RTVSPropertyOp10
 70
     1
102
RTVSPropertyOp11
 70
     1
102
RTVSPropertyOp12
 70
     1
102
RTVSPropertyOp13
 70
     1
102
RTVSPropertyOp14
 70
     1
102
RTVSPropertyOp15
 70
     1
102
RTVSPropertyOp16
 70
     1
102
RTVSPropertyOp17
 70
     1
102
RTVSPropertyOp18
 70
     1
102
RTVSPropertyOp19
 70
     1
102
RTVSPropertyOp20
 70
     1
102
RTVSPropertyOp21
 70
     1
102
RTVSPropertyOp22
 70
     1
102
RTVSPropertyOp23
 70
     1
102
RTVSPropertyOp24
 70
     1
102
RTVSPropertyOp25
 70
     1
102
RTVSPropertyOp26
 70
     1
102
RTVSPropertyOp27
 70
     1
102
RTVSPropertyOp28
 70
     1
102
RTVSPropertyOp29
 70
     1
102
RTVSPropertyOp30
 70
     1
102
RTVSPropertyOp31
 70
     1
102
RTVSPropertyOp32
 70
     1
102
RTVSPropertyOp33
 70
     1
102
RTVSPropertyOp34
 70
     1
102
RTVSPropertyOp35
 70
     1
102
RTVSPropertyOp36
 70
     1
102
RTVSPropertyOp37
 70
     1
102
RTVSPropertyOp38
 70
     1
102
RTVSPropertyOp39
 70
     1
102
RTVSPropertyOp40
 70
     1
102
RTVSPropertyOp41
 70
     1
102
RTVSPropertyOp42
 70
     1
102
RTVSPropertyOp43
 70
     1
102
RTVSPropertyOp44
 70
     1
102
RTVSPropertyOp45
 70
     1
102
RTVSPropertyOp46
 70
     1
102
RTVSPropertyOp47
 70
     1
102
RTVSPropertyOp48
 70
     1
102
RTVSPropertyOp49
 70
     1
102
RTVSPropertyOp50
 70
     1
102
RTVSPropertyOp51
 70
     0
102
RTVSPropertyOp52
 70
     0
102
RTVSPropertyOp53
 70
     1
102
RTVSPropertyOp54
 70
     1
102
RTVSPropertyOp55
 70
     1
102
RTVSPropertyOp56
 70
     1
102
RTVSPropertyOp57
 70
     1
102
RTVSPropertyOp58
 70
     1
102
RTVSPropertyOp59
 70
     1
102
RTVSPropertyOp60
 70
     1
102
RTVSPropertyOp61
 70
     1
102
RTVSPropertyOp62
 70
     1
  0
XRECORD
  5
FD1
102
{ACAD_REACTORS
330
FD0
102
}
330
FD0
100
AcDbXrecord
280
     1
102
RTVSPost2010Prop28
280
     0
102
RTVSPost2010PropOp28
 70
     1
102
RTVSPost2010Prop29
280
     1
102
RTVSPost2010PropOp29
 70
     1
102
RTVSPost2010Prop30
280
     1
102
RTVSPost2010PropOp30
 70
     1
102
RTVSPost2010Prop31
280
     0
102
RTVSPost2010PropOp31
 70
     1
102
RTVSPost2010Prop32
280
     0
102
RTVSPost2010PropOp32
 70
     1
102
RTVSPost2010Prop33
280
     0
102
RTVSPost2010PropOp33
 70
     1
102
RTVSPost2010Prop34
280
     0
102
RTVSPost2010PropOp34
 70
     1
102
RTVSPost2010Prop35
280
     0
102
RTVSPost2010PropOp35
 70
     1
102
RTVSPost2010Prop36
280
     0
102
RTVSPost2010PropOp36
 70
     1
102
RTVSPost2010Prop37
 90
       50
102
RTVSPost2010PropOp37
 70
     1
102
RTVSPost2010Prop38
140
0.0
102
RTVSPost2010PropOp38
 70
     1
102
RTVSPost2010Prop39
140
1.0
102
RTVSPost2010PropOp39
 70
     1
102
RTVSPost2010Prop40
 90
        0
102
RTVSPost2010PropOp40
 70
     1
102
RTVSPost2010Prop41ColorIndex
 90
       18
102
RTVSPost2010Prop41ColorRGB
 90
        0
102
RTVSPost2010PropOp41
 70
     1
102
RTVSPost2010Prop42
 90
       50
102
RTVSPost2010PropOp42
 70
     1
102
RTVSPost2010Prop43
 90
        3
102
RTVSPost2010PropOp43
 70
     1
102
RTVSPost2010Prop44ColorIndex
 90
        5
102
RTVSPost2010Prop44ColorRGB
 90
      255
102
RTVSPost2010PropOp44
 70
     1
102
RTVSPost2010Prop45
280
     0
102
RTVSPost2010PropOp45
 70
     1
102
RTVSPost2010Prop46
 90
       50
102
RTVSPost2010PropOp46
 70
     1
102
RTVSPost2010Prop47
 90
       50
102
RTVSPost2010PropOp47
 70
     1
102
RTVSPost2010Prop48
 90
       50
102
RTVSPost2010PropOp48
 70
     1
102
RTVSPost2010Prop49
280
     0
102
RTVSPost2010PropOp49
 70
     1
102
RTVSPost2010Prop50
 90
       50
102
RTVSPost2010PropOp50
 70
     1
102
RTVSPost2010Prop51ColorIndex
 90
      256
102
RTVSPost2010Prop51ColorRGB
 90
-16777216
102
RTVSPost2010PropOp51
 70
     0
102
RTVSPost2010Prop52
140
1.0
102
RTVSPost2010PropOp52
 70
     0
102
RTVSPost2010Prop53
 90
        2
102
RTVSPost2010PropOp53
 70
     1
102
RTVSPost2010Prop54
  1
strokes_ogs.tif
102
RTVSPost2010PropOp54
 70
     1
102
RTVSPost2010Prop55
280
     0
102
RTVSPost2010PropOp55
 70
     1
102
RTVSPost2010Prop56
140
1.0
102
RTVSPost2010PropOp56
 70
     1
102
RTVSPost2010Prop57
140
1.0
102
RTVSPost2010PropOp57
 70
     1
102
RTVSPropertyOp0
 70
     1
102
RTVSPropertyOp1
 70
     1
102
RTVSPropertyOp2
 70
     1
102
RTVSPropertyOp3
 70
     1
102
RTVSPropertyOp4
 70
     1
102
RTVSPropertyOp5
 70
     1
102
RTVSPropertyOp6
 70
     1
102
RTVSPropertyOp7
 70
     1
102
RTVSPropertyOp8
 70
     1
102
RTVSPropertyOp9
 70
     1
102
RTVSPropertyOp10
 70
     1
102
RTVSPropertyOp11
 70
     1
102
RTVSPropertyOp12
 70
     1
102
RTVSPropertyOp13
 70
     1
102
RTVSPropertyOp14
 70
     1
102
RTVSPropertyOp15
 70
     1
102
RTVSPropertyOp16
 70
     1
102
RTVSPropertyOp17
 70
     1
102
RTVSPropertyOp18
 70
     1
102
RTVSPropertyOp19
 70
     1
102
RTVSPropertyOp20
 70
     1
102
RTVSPropertyOp21
 70
     1
102
RTVSPropertyOp22
 70
     1
102
RTVSPropertyOp23
 70
     1
102
RTVSPropertyOp24
 70
     1
102
RTVSPropertyOp25
 70
     1
102
RTVSPropertyOp26
 70
     1
102
RTVSPropertyOp27
 70
     1
102
RTVSPropertyOp28
 70
     1
102
RTVSPropertyOp29
 70
     1
102
RTVSPropertyOp30
 70
     1
102
RTVSPropertyOp31
 70
     1
102
RTVSPropertyOp32
 70
     1
102
RTVSPropertyOp33
 70
     1
102
RTVSPropertyOp34
 70
     1
102
RTVSPropertyOp35
 70
     1
102
RTVSPropertyOp36
 70
     1
102
RTVSPropertyOp37
 70
     1
102
RTVSPropertyOp38
 70
     1
102
RTVSPropertyOp39
 70
     1
102
RTVSPropertyOp40
 70
     1
102
RTVSPropertyOp41
 70
     1
102
RTVSPropertyOp42
 70
     1
102
RTVSPropertyOp43
 70
     1
102
RTVSPropertyOp44
 70
     1
102
RTVSPropertyOp45
 70
     1
102
RTVSPropertyOp46
 70
     1
102
RTVSPropertyOp47
 70
     1
102
RTVSPropertyOp48
 70
     1
102
RTVSPropertyOp49
 70
     1
102
RTVSPropertyOp50
 70
     1
102
RTVSPropertyOp51
 70
     0
102
RTVSPropertyOp52
 70
     0
102
RTVSPropertyOp53
 70
     1
102
RTVSPropertyOp54
 70
     1
102
RTVSPropertyOp55
 70
     1
102
RTVSPropertyOp56
 70
     1
102
RTVSPropertyOp57
 70
     1
102
RTVSPropertyOp58
 70
     1
102
RTVSPropertyOp59
 70
     1
102
RTVSPropertyOp60
 70
     1
102
RTVSPropertyOp61
 70
     1
102
RTVSPropertyOp62
 70
     1
  0
XRECORD
  5
FD3
102
{ACAD_REACTORS
330
FD2
102
}
330
FD2
100
AcDbXrecord
280
     1
102
RTVSPost2010Prop28
280
     0
102
RTVSPost2010PropOp28
 70
     1
102
RTVSPost2010Prop29
280
     1
102
RTVSPost2010PropOp29
 70
     1
102
RTVSPost2010Prop30
280
     1
102
RTVSPost2010PropOp30
 70
     1
102
RTVSPost2010Prop31
280
     0
102
RTVSPost2010PropOp31
 70
     1
102
RTVSPost2010Prop32
280
     0
102
RTVSPost2010PropOp32
 70
     1
102
RTVSPost2010Prop33
280
     0
102
RTVSPost2010PropOp33
 70
     1
102
RTVSPost2010Prop34
280
     0
102
RTVSPost2010PropOp34
 70
     1
102
RTVSPost2010Prop35
280
     0
102
RTVSPost2010PropOp35
 70
     1
102
RTVSPost2010Prop36
280
     0
102
RTVSPost2010PropOp36
 70
     1
102
RTVSPost2010Prop37
 90
       50
102
RTVSPost2010PropOp37
 70
     1
102
RTVSPost2010Prop38
140
0.0
102
RTVSPost2010PropOp38
 70
     1
102
RTVSPost2010Prop39
140
1.0
102
RTVSPost2010PropOp39
 70
     1
102
RTVSPost2010Prop40
 90
        0
102
RTVSPost2010PropOp40
 70
     1
102
RTVSPost2010Prop41ColorIndex
 90
       18
102
RTVSPost2010Prop41ColorRGB
 90
        0
102
RTVSPost2010PropOp41
 70
     1
102
RTVSPost2010Prop42
 90
       50
102
RTVSPost2010PropOp42
 70
     1
102
RTVSPost2010Prop43
 90
        3
102
RTVSPost2010PropOp43
 70
     1
102
RTVSPost2010Prop44ColorIndex
 90
        5
102
RTVSPost2010Prop44ColorRGB
 90
      255
102
RTVSPost2010PropOp44
 70
     1
102
RTVSPost2010Prop45
280
     0
102
RTVSPost2010PropOp45
 70
     1
102
RTVSPost2010Prop46
 90
       50
102
RTVSPost2010PropOp46
 70
     1
102
RTVSPost2010Prop47
 90
       50
102
RTVSPost2010PropOp47
 70
     1
102
RTVSPost2010Prop48
 90
       50
102
RTVSPost2010PropOp48
 70
     1
102
RTVSPost2010Prop49
280
     0
102
RTVSPost2010PropOp49
 70
     1
102
RTVSPost2010Prop50
 90
       50
102
RTVSPost2010PropOp50
 70
     1
102
RTVSPost2010Prop51ColorIndex
 90
      256
102
RTVSPost2010Prop51ColorRGB
 90
-16777216
102
RTVSPost2010PropOp51
 70
     0
102
RTVSPost2010Prop52
140
1.0
102
RTVSPost2010PropOp52
 70
     0
102
RTVSPost2010Prop53
 90
        2
102
RTVSPost2010PropOp53
 70
     1
102
RTVSPost2010Prop54
  1
strokes_ogs.tif
102
RTVSPost2010PropOp54
 70
     1
102
RTVSPost2010Prop55
280
     0
102
RTVSPost2010PropOp55
 70
     1
102
RTVSPost2010Prop56
140
1.0
102
RTVSPost2010PropOp56
 70
     1
102
RTVSPost2010Prop57
140
1.0
102
RTVSPost2010PropOp57
 70
     1
102
RTVSPropertyOp0
 70
     1
102
RTVSPropertyOp1
 70
     1
102
RTVSPropertyOp2
 70
     1
102
RTVSPropertyOp3
 70
     1
102
RTVSPropertyOp4
 70
     1
102
RTVSPropertyOp5
 70
     1
102
RTVSPropertyOp6
 70
     1
102
RTVSPropertyOp7
 70
     1
102
RTVSPropertyOp8
 70
     1
102
RTVSPropertyOp9
 70
     1
102
RTVSPropertyOp10
 70
     1
102
RTVSPropertyOp11
 70
     1
102
RTVSPropertyOp12
 70
     1
102
RTVSPropertyOp13
 70
     1
102
RTVSPropertyOp14
 70
     1
102
RTVSPropertyOp15
 70
     1
102
RTVSPropertyOp16
 70
     1
102
RTVSPropertyOp17
 70
     1
102
RTVSPropertyOp18
 70
     1
102
RTVSPropertyOp19
 70
     1
102
RTVSPropertyOp20
 70
     1
102
RTVSPropertyOp21
 70
     1
102
RTVSPropertyOp22
 70
     1
102
RTVSPropertyOp23
 70
     1
102
RTVSPropertyOp24
 70
     1
102
RTVSPropertyOp25
 70
     1
102
RTVSPropertyOp26
 70
     1
102
RTVSPropertyOp27
 70
     1
102
RTVSPropertyOp28
 70
     1
102
RTVSPropertyOp29
 70
     1
102
RTVSPropertyOp30
 70
     1
102
RTVSPropertyOp31
 70
     1
102
RTVSPropertyOp32
 70
     1
102
RTVSPropertyOp33
 70
     1
102
RTVSPropertyOp34
 70
     1
102
RTVSPropertyOp35
 70
     1
102
RTVSPropertyOp36
 70
     1
102
RTVSPropertyOp37
 70
     1
102
RTVSPropertyOp38
 70
     1
102
RTVSPropertyOp39
 70
     1
102
RTVSPropertyOp40
 70
     1
102
RTVSPropertyOp41
 70
     1
102
RTVSPropertyOp42
 70
     1
102
RTVSPropertyOp43
 70
     1
102
RTVSPropertyOp44
 70
     1
102
RTVSPropertyOp45
 70
     1
102
RTVSPropertyOp46
 70
     1
102
RTVSPropertyOp47
 70
     1
102
RTVSPropertyOp48
 70
     1
102
RTVSPropertyOp49
 70
     1
102
RTVSPropertyOp50
 70
     1
102
RTVSPropertyOp51
 70
     0
102
RTVSPropertyOp52
 70
     0
102
RTVSPropertyOp53
 70
     1
102
RTVSPropertyOp54
 70
     1
102
RTVSPropertyOp55
 70
     1
102
RTVSPropertyOp56
 70
     1
102
RTVSPropertyOp57
 70
     1
102
RTVSPropertyOp58
 70
     1
102
RTVSPropertyOp59
 70
     1
102
RTVSPropertyOp60
 70
     1
102
RTVSPropertyOp61
 70
     1
102
RTVSPropertyOp62
 70
     1
  0
XRECORD
  5
FD5
102
{ACAD_REACTORS
330
FD4
102
}
330
FD4
100
AcDbXrecord
280
     1
102
RTVSPost2010Prop28
280
     0
102
RTVSPost2010PropOp28
 70
     1
102
RTVSPost2010Prop29
280
     1
102
RTVSPost2010PropOp29
 70
     1
102
RTVSPost2010Prop30
280
     1
102
RTVSPost2010PropOp30
 70
     1
102
RTVSPost2010Prop31
280
     0
102
RTVSPost2010PropOp31
 70
     1
102
RTVSPost2010Prop32
280
     0
102
RTVSPost2010PropOp32
 70
     1
102
RTVSPost2010Prop33
280
     0
102
RTVSPost2010PropOp33
 70
     1
102
RTVSPost2010Prop34
280
     0
102
RTVSPost2010PropOp34
 70
     1
102
RTVSPost2010Prop35
280
     0
102
RTVSPost2010PropOp35
 70
     1
102
RTVSPost2010Prop36
280
     0
102
RTVSPost2010PropOp36
 70
     1
102
RTVSPost2010Prop37
 90
       50
102
RTVSPost2010PropOp37
 70
     1
102
RTVSPost2010Prop38
140
0.0
102
RTVSPost2010PropOp38
 70
     1
102
RTVSPost2010Prop39
140
1.0
102
RTVSPost2010PropOp39
 70
     1
102
RTVSPost2010Prop40
 90
        0
102
RTVSPost2010PropOp40
 70
     1
102
RTVSPost2010Prop41ColorIndex
 90
       18
102
RTVSPost2010Prop41ColorRGB
 90
        0
102
RTVSPost2010PropOp41
 70
     1
102
RTVSPost2010Prop42
 90
       50
102
RTVSPost2010PropOp42
 70
     1
102
RTVSPost2010Prop43
 90
        3
102
RTVSPost2010PropOp43
 70
     1
102
RTVSPost2010Prop44ColorIndex
 90
        5
102
RTVSPost2010Prop44ColorRGB
 90
      255
102
RTVSPost2010PropOp44
 70
     1
102
RTVSPost2010Prop45
280
     0
102
RTVSPost2010PropOp45
 70
     1
102
RTVSPost2010Prop46
 90
       50
102
RTVSPost2010PropOp46
 70
     1
102
RTVSPost2010Prop47
 90
       50
102
RTVSPost2010PropOp47
 70
     1
102
RTVSPost2010Prop48
 90
       50
102
RTVSPost2010PropOp48
 70
     1
102
RTVSPost2010Prop49
280
     0
102
RTVSPost2010PropOp49
 70
     1
102
RTVSPost2010Prop50
 90
       50
102
RTVSPost2010PropOp50
 70
     1
102
RTVSPost2010Prop51ColorIndex
 90
      256
102
RTVSPost2010Prop51ColorRGB
 90
-16777216
102
RTVSPost2010PropOp51
 70
     0
102
RTVSPost2010Prop52
140
1.0
102
RTVSPost2010PropOp52
 70
     0
102
RTVSPost2010Prop53
 90
        2
102
RTVSPost2010PropOp53
 70
     1
102
RTVSPost2010Prop54
  1
strokes_ogs.tif
102
RTVSPost2010PropOp54
 70
     1
102
RTVSPost2010Prop55
280
     0
102
RTVSPost2010PropOp55
 70
     1
102
RTVSPost2010Prop56
140
1.0
102
RTVSPost2010PropOp56
 70
     1
102
RTVSPost2010Prop57
140
1.0
102
RTVSPost2010PropOp57
 70
     1
102
RTVSPropertyOp0
 70
     1
102
RTVSPropertyOp1
 70
     1
102
RTVSPropertyOp2
 70
     1
102
RTVSPropertyOp3
 70
     1
102
RTVSPropertyOp4
 70
     1
102
RTVSPropertyOp5
 70
     1
102
RTVSPropertyOp6
 70
     1
102
RTVSPropertyOp7
 70
     1
102
RTVSPropertyOp8
 70
     1
102
RTVSPropertyOp9
 70
     1
102
RTVSPropertyOp10
 70
     1
102
RTVSPropertyOp11
 70
     1
102
RTVSPropertyOp12
 70
     1
102
RTVSPropertyOp13
 70
     1
102
RTVSPropertyOp14
 70
     1
102
RTVSPropertyOp15
 70
     1
102
RTVSPropertyOp16
 70
     1
102
RTVSPropertyOp17
 70
     1
102
RTVSPropertyOp18
 70
     1
102
RTVSPropertyOp19
 70
     1
102
RTVSPropertyOp20
 70
     1
102
RTVSPropertyOp21
 70
     1
102
RTVSPropertyOp22
 70
     1
102
RTVSPropertyOp23
 70
     1
102
RTVSPropertyOp24
 70
     1
102
RTVSPropertyOp25
 70
     1
102
RTVSPropertyOp26
 70
     1
102
RTVSPropertyOp27
 70
     1
102
RTVSPropertyOp28
 70
     1
102
RTVSPropertyOp29
 70
     1
102
RTVSPropertyOp30
 70
     1
102
RTVSPropertyOp31
 70
     1
102
RTVSPropertyOp32
 70
     1
102
RTVSPropertyOp33
 70
     1
102
RTVSPropertyOp34
 70
     1
102
RTVSPropertyOp35
 70
     1
102
RTVSPropertyOp36
 70
     1
102
RTVSPropertyOp37
 70
     1
102
RTVSPropertyOp38
 70
     1
102
RTVSPropertyOp39
 70
     1
102
RTVSPropertyOp40
 70
     1
102
RTVSPropertyOp41
 70
     1
102
RTVSPropertyOp42
 70
     1
102
RTVSPropertyOp43
 70
     1
102
RTVSPropertyOp44
 70
     1
102
RTVSPropertyOp45
 70
     1
102
RTVSPropertyOp46
 70
     1
102
RTVSPropertyOp47
 70
     1
102
RTVSPropertyOp48
 70
     1
102
RTVSPropertyOp49
 70
     1
102
RTVSPropertyOp50
 70
     1
102
RTVSPropertyOp51
 70
     0
102
RTVSPropertyOp52
 70
     0
102
RTVSPropertyOp53
 70
     1
102
RTVSPropertyOp54
 70
     1
102
RTVSPropertyOp55
 70
     1
102
RTVSPropertyOp56
 70
     1
102
RTVSPropertyOp57
 70
     1
102
RTVSPropertyOp58
 70
     1
102
RTVSPropertyOp59
 70
     1
102
RTVSPropertyOp60
 70
     1
102
RTVSPropertyOp61
 70
     1
102
RTVSPropertyOp62
 70
     1
  0
XRECORD
  5
FDD
102
{ACAD_REACTORS
330
FDC
102
}
330
FDC
100
AcDbXrecord
280
     1
102
RTVSPost2010Prop28
280
     0
102
RTVSPost2010PropOp28
 70
     1
102
RTVSPost2010Prop29
280
     1
102
RTVSPost2010PropOp29
 70
     1
102
RTVSPost2010Prop30
280
     1
102
RTVSPost2010PropOp30
 70
     1
102
RTVSPost2010Prop31
280
     0
102
RTVSPost2010PropOp31
 70
     1
102
RTVSPost2010Prop32
280
     0
102
RTVSPost2010PropOp32
 70
     1
102
RTVSPost2010Prop33
280
     0
102
RTVSPost2010PropOp33
 70
     1
102
RTVSPost2010Prop34
280
     0
102
RTVSPost2010PropOp34
 70
     1
102
RTVSPost2010Prop35
280
     0
102
RTVSPost2010PropOp35
 70
     1
102
RTVSPost2010Prop36
280
     0
102
RTVSPost2010PropOp36
 70
     1
102
RTVSPost2010Prop37
 90
       50
102
RTVSPost2010PropOp37
 70
     1
102
RTVSPost2010Prop38
140
0.0
102
RTVSPost2010PropOp38
 70
     1
102
RTVSPost2010Prop39
140
1.0
102
RTVSPost2010PropOp39
 70
     1
102
RTVSPost2010Prop40
 90
        0
102
RTVSPost2010PropOp40
 70
     1
102
RTVSPost2010Prop41ColorIndex
 90
       18
102
RTVSPost2010Prop41ColorRGB
 90
        0
102
RTVSPost2010PropOp41
 70
     1
102
RTVSPost2010Prop42
 90
       50
102
RTVSPost2010PropOp42
 70
     1
102
RTVSPost2010Prop43
 90
        3
102
RTVSPost2010PropOp43
 70
     1
102
RTVSPost2010Prop44ColorIndex
 90
        5
102
RTVSPost2010Prop44ColorRGB
 90
      255
102
RTVSPost2010PropOp44
 70
     1
102
RTVSPost2010Prop45
280
     0
102
RTVSPost2010PropOp45
 70
     1
102
RTVSPost2010Prop46
 90
       50
102
RTVSPost2010PropOp46
 70
     1
102
RTVSPost2010Prop47
 90
       50
102
RTVSPost2010PropOp47
 70
     1
102
RTVSPost2010Prop48
 90
       50
102
RTVSPost2010PropOp48
 70
     1
102
RTVSPost2010Prop49
280
     0
102
RTVSPost2010PropOp49
 70
     1
102
RTVSPost2010Prop50
 90
       50
102
RTVSPost2010PropOp50
 70
     1
102
RTVSPost2010Prop51ColorIndex
 90
      256
102
RTVSPost2010Prop51ColorRGB
 90
-16777216
102
RTVSPost2010PropOp51
 70
     0
102
RTVSPost2010Prop52
140
1.0
102
RTVSPost2010PropOp52
 70
     0
102
RTVSPost2010Prop53
 90
        2
102
RTVSPost2010PropOp53
 70
     1
102
RTVSPost2010Prop54
  1
strokes_ogs.tif
102
RTVSPost2010PropOp54
 70
     1
102
RTVSPost2010Prop55
280
     0
102
RTVSPost2010PropOp55
 70
     1
102
RTVSPost2010Prop56
140
1.0
102
RTVSPost2010PropOp56
 70
     1
102
RTVSPost2010Prop57
140
1.0
102
RTVSPost2010PropOp57
 70
     1
102
RTVSPropertyOp0
 70
     1
102
RTVSPropertyOp1
 70
     1
102
RTVSPropertyOp2
 70
     1
102
RTVSPropertyOp3
 70
     1
102
RTVSPropertyOp4
 70
     1
102
RTVSPropertyOp5
 70
     1
102
RTVSPropertyOp6
 70
     1
102
RTVSPropertyOp7
 70
     1
102
RTVSPropertyOp8
 70
     1
102
RTVSPropertyOp9
 70
     1
102
RTVSPropertyOp10
 70
     1
102
RTVSPropertyOp11
 70
     1
102
RTVSPropertyOp12
 70
     1
102
RTVSPropertyOp13
 70
     1
102
RTVSPropertyOp14
 70
     1
102
RTVSPropertyOp15
 70
     1
102
RTVSPropertyOp16
 70
     1
102
RTVSPropertyOp17
 70
     1
102
RTVSPropertyOp18
 70
     1
102
RTVSPropertyOp19
 70
     1
102
RTVSPropertyOp20
 70
     1
102
RTVSPropertyOp21
 70
     1
102
RTVSPropertyOp22
 70
     1
102
RTVSPropertyOp23
 70
     1
102
RTVSPropertyOp24
 70
     1
102
RTVSPropertyOp25
 70
     1
102
RTVSPropertyOp26
 70
     1
102
RTVSPropertyOp27
 70
     1
102
RTVSPropertyOp28
 70
     1
102
RTVSPropertyOp29
 70
     1
102
RTVSPropertyOp30
 70
     1
102
RTVSPropertyOp31
 70
     1
102
RTVSPropertyOp32
 70
     1
102
RTVSPropertyOp33
 70
     1
102
RTVSPropertyOp34
 70
     1
102
RTVSPropertyOp35
 70
     1
102
RTVSPropertyOp36
 70
     1
102
RTVSPropertyOp37
 70
     1
102
RTVSPropertyOp38
 70
     1
102
RTVSPropertyOp39
 70
     1
102
RTVSPropertyOp40
 70
     1
102
RTVSPropertyOp41
 70
     1
102
RTVSPropertyOp42
 70
     1
102
RTVSPropertyOp43
 70
     1
102
RTVSPropertyOp44
 70
     1
102
RTVSPropertyOp45
 70
     1
102
RTVSPropertyOp46
 70
     1
102
RTVSPropertyOp47
 70
     1
102
RTVSPropertyOp48
 70
     1
102
RTVSPropertyOp49
 70
     1
102
RTVSPropertyOp50
 70
     1
102
RTVSPropertyOp51
 70
     0
102
RTVSPropertyOp52
 70
     0
102
RTVSPropertyOp53
 70
     1
102
RTVSPropertyOp54
 70
     1
102
RTVSPropertyOp55
 70
     1
102
RTVSPropertyOp56
 70
     1
102
RTVSPropertyOp57
 70
     1
102
RTVSPropertyOp58
 70
     1
102
RTVSPropertyOp59
 70
     1
102
RTVSPropertyOp60
 70
     1
102
RTVSPropertyOp61
 70
     1
102
RTVSPropertyOp62
 70
     1
  0
XRECORD
  5
FF9
102
{ACAD_REACTORS
330
FF8
102
}
330
FF8
100
AcDbXrecord
280
     1
102
RTVSPost2010Prop28
280
     0
102
RTVSPost2010PropOp28
 70
     1
102
RTVSPost2010Prop29
280
     1
102
RTVSPost2010PropOp29
 70
     1
102
RTVSPost2010Prop30
280
     1
102
RTVSPost2010PropOp30
 70
     1
102
RTVSPost2010Prop31
280
     0
102
RTVSPost2010PropOp31
 70
     1
102
RTVSPost2010Prop32
280
     0
102
RTVSPost2010PropOp32
 70
     1
102
RTVSPost2010Prop33
280
     0
102
RTVSPost2010PropOp33
 70
     1
102
RTVSPost2010Prop34
280
     0
102
RTVSPost2010PropOp34
 70
     1
102
RTVSPost2010Prop35
280
     0
102
RTVSPost2010PropOp35
 70
     1
102
RTVSPost2010Prop36
280
     0
102
RTVSPost2010PropOp36
 70
     1
102
RTVSPost2010Prop37
 90
       50
102
RTVSPost2010PropOp37
 70
     0
102
RTVSPost2010Prop38
140
0.0
102
RTVSPost2010PropOp38
 70
     0
102
RTVSPost2010Prop39
140
1.0
102
RTVSPost2010PropOp39
 70
     0
102
RTVSPost2010Prop40
 90
        0
102
RTVSPost2010PropOp40
 70
     0
102
RTVSPost2010Prop41ColorIndex
 90
       18
102
RTVSPost2010Prop41ColorRGB
 90
        0
102
RTVSPost2010PropOp41
 70
     0
102
RTVSPost2010Prop42
 90
       50
102
RTVSPost2010PropOp42
 70
     0
102
RTVSPost2010Prop43
 90
        3
102
RTVSPost2010PropOp43
 70
     0
102
RTVSPost2010Prop44ColorIndex
 90
        5
102
RTVSPost2010Prop44ColorRGB
 90
      255
102
RTVSPost2010PropOp44
 70
     0
102
RTVSPost2010Prop45
280
     0
102
RTVSPost2010PropOp45
 70
     1
102
RTVSPost2010Prop46
 90
       50
102
RTVSPost2010PropOp46
 70
     0
102
RTVSPost2010Prop47
 90
       50
102
RTVSPost2010PropOp47
 70
     0
102
RTVSPost2010Prop48
 90
       50
102
RTVSPost2010PropOp48
 70
     0
102
RTVSPost2010Prop49
280
     0
102
RTVSPost2010PropOp49
 70
     1
102
RTVSPost2010Prop50
 90
       50
102
RTVSPost2010PropOp50
 70
     0
102
RTVSPost2010Prop51ColorIndex
 90
      256
102
RTVSPost2010Prop51ColorRGB
 90
-16777216
102
RTVSPost2010PropOp51
 70
     0
102
RTVSPost2010Prop52
140
1.0
102
RTVSPost2010PropOp52
 70
     0
102
RTVSPost2010Prop53
 90
        2
102
RTVSPost2010PropOp53
 70
     0
102
RTVSPost2010Prop54
  1
strokes_ogs.tif
102
RTVSPost2010PropOp54
 70
     0
102
RTVSPost2010Prop55
280
     0
102
RTVSPost2010PropOp55
 70
     1
102
RTVSPost2010Prop56
140
1.0
102
RTVSPost2010PropOp56
 70
     0
102
RTVSPost2010Prop57
140
1.0
102
RTVSPost2010PropOp57
 70
     0
102
RTVSPropertyOp0
 70
     0
102
RTVSPropertyOp1
 70
     0
102
RTVSPropertyOp2
 70
     0
102
RTVSPropertyOp3
 70
     0
102
RTVSPropertyOp4
 70
     0
102
RTVSPropertyOp5
 70
     0
102
RTVSPropertyOp6
 70
     0
102
RTVSPropertyOp7
 70
     0
102
RTVSPropertyOp8
 70
     0
102
RTVSPropertyOp9
 70
     0
102
RTVSPropertyOp10
 70
     0
102
RTVSPropertyOp11
 70
     0
102
RTVSPropertyOp12
 70
     0
102
RTVSPropertyOp13
 70
     0
102
RTVSPropertyOp14
 70
     2
102
RTVSPropertyOp15
 70
     0
102
RTVSPropertyOp16
 70
     0
102
RTVSPropertyOp17
 70
     0
102
RTVSPropertyOp18
 70
     0
102
RTVSPropertyOp19
 70
     0
102
RTVSPropertyOp20
 70
     0
102
RTVSPropertyOp21
 70
     0
102
RTVSPropertyOp22
 70
     0
102
RTVSPropertyOp23
 70
     0
102
RTVSPropertyOp24
 70
     0
102
RTVSPropertyOp25
 70
     0
102
RTVSPropertyOp26
 70
     0
102
RTVSPropertyOp27
 70
     0
102
RTVSPropertyOp28
 70
     1
102
RTVSPropertyOp29
 70
     1
102
RTVSPropertyOp30
 70
     1
102
RTVSPropertyOp31
 70
     1
102
RTVSPropertyOp32
 70
     1
102
RTVSPropertyOp33
 70
     1
102
RTVSPropertyOp34
 70
     1
102
RTVSPropertyOp35
 70
     1
102
RTVSPropertyOp36
 70
     1
102
RTVSPropertyOp37
 70
     0
102
RTVSPropertyOp38
 70
     0
102
RTVSPropertyOp39
 70
     0
102
RTVSPropertyOp40
 70
     0
102
RTVSPropertyOp41
 70
     0
102
RTVSPropertyOp42
 70
     0
102
RTVSPropertyOp43
 70
     0
102
RTVSPropertyOp44
 70
     0
102
RTVSPropertyOp45
 70
     1
102
RTVSPropertyOp46
 70
     0
102
RTVSPropertyOp47
 70
     0
102
RTVSPropertyOp48
 70
     0
102
RTVSPropertyOp49
 70
     1
102
RTVSPropertyOp50
 70
     0
102
RTVSPropertyOp51
 70
     0
102
RTVSPropertyOp52
 70
     0
102
RTVSPropertyOp53
 70
     0
102
RTVSPropertyOp54
 70
     0
102
RTVSPropertyOp55
 70
     1
102
RTVSPropertyOp56
 70
     0
102
RTVSPropertyOp57
 70
     0
102
RTVSPropertyOp58
 70
     0
102
RTVSPropertyOp59
 70
     0
102
RTVSPropertyOp60
 70
     0
102
RTVSPropertyOp61
 70
     0
102
RTVSPropertyOp62
 70
     0
  0
XRECORD
  5
FE9
102
{ACAD_REACTORS
330
FE8
102
}
330
FE8
100
AcDbXrecord
280
     1
102
RTVSPost2010Prop28
280
     0
102
RTVSPost2010PropOp28
 70
     1
102
RTVSPost2010Prop29
280
     1
102
RTVSPost2010PropOp29
 70
     1
102
RTVSPost2010Prop30
280
     1
102
RTVSPost2010PropOp30
 70
     1
102
RTVSPost2010Prop31
280
     0
102
RTVSPost2010PropOp31
 70
     1
102
RTVSPost2010Prop32
280
     0
102
RTVSPost2010PropOp32
 70
     1
102
RTVSPost2010Prop33
280
     0
102
RTVSPost2010PropOp33
 70
     1
102
RTVSPost2010Prop34
280
     0
102
RTVSPost2010PropOp34
 70
     1
102
RTVSPost2010Prop35
280
     0
102
RTVSPost2010PropOp35
 70
     1
102
RTVSPost2010Prop36
280
     0
102
RTVSPost2010PropOp36
 70
     1
102
RTVSPost2010Prop37
 90
       50
102
RTVSPost2010PropOp37
 70
     1
102
RTVSPost2010Prop38
140
0.0
102
RTVSPost2010PropOp38
 70
     1
102
RTVSPost2010Prop39
140
1.0
102
RTVSPost2010PropOp39
 70
     1
102
RTVSPost2010Prop40
 90
        0
102
RTVSPost2010PropOp40
 70
     1
102
RTVSPost2010Prop41ColorIndex
 90
       18
102
RTVSPost2010Prop41ColorRGB
 90
        0
102
RTVSPost2010PropOp41
 70
     1
102
RTVSPost2010Prop42
 90
       50
102
RTVSPost2010PropOp42
 70
     1
102
RTVSPost2010Prop43
 90
        3
102
RTVSPost2010PropOp43
 70
     1
102
RTVSPost2010Prop44ColorIndex
 90
        5
102
RTVSPost2010Prop44ColorRGB
 90
      255
102
RTVSPost2010PropOp44
 70
     1
102
RTVSPost2010Prop45
280
     0
102
RTVSPost2010PropOp45
 70
     1
102
RTVSPost2010Prop46
 90
       50
102
RTVSPost2010PropOp46
 70
     1
102
RTVSPost2010Prop47
 90
       50
102
RTVSPost2010PropOp47
 70
     1
102
RTVSPost2010Prop48
 90
       50
102
RTVSPost2010PropOp48
 70
     1
102
RTVSPost2010Prop49
280
     0
102
RTVSPost2010PropOp49
 70
     1
102
RTVSPost2010Prop50
 90
       50
102
RTVSPost2010PropOp50
 70
     1
102
RTVSPost2010Prop51ColorIndex
 90
      256
102
RTVSPost2010Prop51ColorRGB
 90
-16777216
102
RTVSPost2010PropOp51
 70
     0
102
RTVSPost2010Prop52
140
1.0
102
RTVSPost2010PropOp52
 70
     0
102
RTVSPost2010Prop53
 90
        2
102
RTVSPost2010PropOp53
 70
     1
102
RTVSPost2010Prop54
  1
strokes_ogs.tif
102
RTVSPost2010PropOp54
 70
     1
102
RTVSPost2010Prop55
280
     0
102
RTVSPost2010PropOp55
 70
     1
102
RTVSPost2010Prop56
140
1.0
102
RTVSPost2010PropOp56
 70
     1
102
RTVSPost2010Prop57
140
1.0
102
RTVSPost2010PropOp57
 70
     1
102
RTVSPropertyOp0
 70
     1
102
RTVSPropertyOp1
 70
     1
102
RTVSPropertyOp2
 70
     1
102
RTVSPropertyOp3
 70
     1
102
RTVSPropertyOp4
 70
     1
102
RTVSPropertyOp5
 70
     1
102
RTVSPropertyOp6
 70
     1
102
RTVSPropertyOp7
 70
     1
102
RTVSPropertyOp8
 70
     1
102
RTVSPropertyOp9
 70
     1
102
RTVSPropertyOp10
 70
     1
102
RTVSPropertyOp11
 70
     1
102
RTVSPropertyOp12
 70
     1
102
RTVSPropertyOp13
 70
     1
102
RTVSPropertyOp14
 70
     1
102
RTVSPropertyOp15
 70
     1
102
RTVSPropertyOp16
 70
     1
102
RTVSPropertyOp17
 70
     1
102
RTVSPropertyOp18
 70
     1
102
RTVSPropertyOp19
 70
     1
102
RTVSPropertyOp20
 70
     1
102
RTVSPropertyOp21
 70
     1
102
RTVSPropertyOp22
 70
     1
102
RTVSPropertyOp23
 70
     1
102
RTVSPropertyOp24
 70
     1
102
RTVSPropertyOp25
 70
     1
102
RTVSPropertyOp26
 70
     1
102
RTVSPropertyOp27
 70
     1
102
RTVSPropertyOp28
 70
     1
102
RTVSPropertyOp29
 70
     1
102
RTVSPropertyOp30
 70
     1
102
RTVSPropertyOp31
 70
     1
102
RTVSPropertyOp32
 70
     1
102
RTVSPropertyOp33
 70
     1
102
RTVSPropertyOp34
 70
     1
102
RTVSPropertyOp35
 70
     1
102
RTVSPropertyOp36
 70
     1
102
RTVSPropertyOp37
 70
     1
102
RTVSPropertyOp38
 70
     1
102
RTVSPropertyOp39
 70
     1
102
RTVSPropertyOp40
 70
     1
102
RTVSPropertyOp41
 70
     1
102
RTVSPropertyOp42
 70
     1
102
RTVSPropertyOp43
 70
     1
102
RTVSPropertyOp44
 70
     1
102
RTVSPropertyOp45
 70
     1
102
RTVSPropertyOp46
 70
     1
102
RTVSPropertyOp47
 70
     1
102
RTVSPropertyOp48
 70
     1
102
RTVSPropertyOp49
 70
     1
102
RTVSPropertyOp50
 70
     1
102
RTVSPropertyOp51
 70
     0
102
RTVSPropertyOp52
 70
     0
102
RTVSPropertyOp53
 70
     1
102
RTVSPropertyOp54
 70
     1
102
RTVSPropertyOp55
 70
     1
102
RTVSPropertyOp56
 70
     1
102
RTVSPropertyOp57
 70
     1
102
RTVSPropertyOp58
 70
     1
102
RTVSPropertyOp59
 70
     1
102
RTVSPropertyOp60
 70
     1
102
RTVSPropertyOp61
 70
     1
102
RTVSPropertyOp62
 70
     1
  0
XRECORD
  5
FFB
102
{ACAD_REACTORS
330
FFA
102
}
330
FFA
100
AcDbXrecord
280
     1
102
RTVSPost2010Prop28
280
     0
102
RTVSPost2010PropOp28
 70
     1
102
RTVSPost2010Prop29
280
     1
102
RTVSPost2010PropOp29
 70
     1
102
RTVSPost2010Prop30
280
     1
102
RTVSPost2010PropOp30
 70
     1
102
RTVSPost2010Prop31
280
     0
102
RTVSPost2010PropOp31
 70
     1
102
RTVSPost2010Prop32
280
     0
102
RTVSPost2010PropOp32
 70
     1
102
RTVSPost2010Prop33
280
     0
102
RTVSPost2010PropOp33
 70
     1
102
RTVSPost2010Prop34
280
     0
102
RTVSPost2010PropOp34
 70
     1
102
RTVSPost2010Prop35
280
     0
102
RTVSPost2010PropOp35
 70
     1
102
RTVSPost2010Prop36
280
     0
102
RTVSPost2010PropOp36
 70
     1
102
RTVSPost2010Prop37
 90
       50
102
RTVSPost2010PropOp37
 70
     0
102
RTVSPost2010Prop38
140
0.0
102
RTVSPost2010PropOp38
 70
     0
102
RTVSPost2010Prop39
140
1.0
102
RTVSPost2010PropOp39
 70
     0
102
RTVSPost2010Prop40
 90
        0
102
RTVSPost2010PropOp40
 70
     0
102
RTVSPost2010Prop41ColorIndex
 90
       18
102
RTVSPost2010Prop41ColorRGB
 90
        0
102
RTVSPost2010PropOp41
 70
     0
102
RTVSPost2010Prop42
 90
       50
102
RTVSPost2010PropOp42
 70
     0
102
RTVSPost2010Prop43
 90
        3
102
RTVSPost2010PropOp43
 70
     0
102
RTVSPost2010Prop44ColorIndex
 90
        5
102
RTVSPost2010Prop44ColorRGB
 90
      255
102
RTVSPost2010PropOp44
 70
     0
102
RTVSPost2010Prop45
280
     0
102
RTVSPost2010PropOp45
 70
     1
102
RTVSPost2010Prop46
 90
       50
102
RTVSPost2010PropOp46
 70
     0
102
RTVSPost2010Prop47
 90
       50
102
RTVSPost2010PropOp47
 70
     0
102
RTVSPost2010Prop48
 90
       50
102
RTVSPost2010PropOp48
 70
     0
102
RTVSPost2010Prop49
280
     0
102
RTVSPost2010PropOp49
 70
     1
102
RTVSPost2010Prop50
 90
       50
102
RTVSPost2010PropOp50
 70
     0
102
RTVSPost2010Prop51ColorIndex
 90
      256
102
RTVSPost2010Prop51ColorRGB
 90
-16777216
102
RTVSPost2010PropOp51
 70
     0
102
RTVSPost2010Prop52
140
1.0
102
RTVSPost2010PropOp52
 70
     0
102
RTVSPost2010Prop53
 90
        2
102
RTVSPost2010PropOp53
 70
     0
102
RTVSPost2010Prop54
  1
strokes_ogs.tif
102
RTVSPost2010PropOp54
 70
     0
102
RTVSPost2010Prop55
280
     0
102
RTVSPost2010PropOp55
 70
     1
102
RTVSPost2010Prop56
140
1.0
102
RTVSPost2010PropOp56
 70
     0
102
RTVSPost2010Prop57
140
1.0
102
RTVSPost2010PropOp57
 70
     0
102
RTVSPropertyOp0
 70
     0
102
RTVSPropertyOp1
 70
     0
102
RTVSPropertyOp2
 70
     0
102
RTVSPropertyOp3
 70
     0
102
RTVSPropertyOp4
 70
     0
102
RTVSPropertyOp5
 70
     0
102
RTVSPropertyOp6
 70
     0
102
RTVSPropertyOp7
 70
     0
102
RTVSPropertyOp8
 70
     0
102
RTVSPropertyOp9
 70
     0
102
RTVSPropertyOp10
 70
     0
102
RTVSPropertyOp11
 70
     0
102
RTVSPropertyOp12
 70
     0
102
RTVSPropertyOp13
 70
     0
102
RTVSPropertyOp14
 70
     2
102
RTVSPropertyOp15
 70
     0
102
RTVSPropertyOp16
 70
     0
102
RTVSPropertyOp17
 70
     0
102
RTVSPropertyOp18
 70
     0
102
RTVSPropertyOp19
 70
     0
102
RTVSPropertyOp20
 70
     0
102
RTVSPropertyOp21
 70
     0
102
RTVSPropertyOp22
 70
     0
102
RTVSPropertyOp23
 70
     0
102
RTVSPropertyOp24
 70
     0
102
RTVSPropertyOp25
 70
     0
102
RTVSPropertyOp26
 70
     0
102
RTVSPropertyOp27
 70
     0
102
RTVSPropertyOp28
 70
     1
102
RTVSPropertyOp29
 70
     1
102
RTVSPropertyOp30
 70
     1
102
RTVSPropertyOp31
 70
     1
102
RTVSPropertyOp32
 70
     1
102
RTVSPropertyOp33
 70
     1
102
RTVSPropertyOp34
 70
     1
102
RTVSPropertyOp35
 70
     1
102
RTVSPropertyOp36
 70
     1
102
RTVSPropertyOp37
 70
     0
102
RTVSPropertyOp38
 70
     0
102
RTVSPropertyOp39
 70
     0
102
RTVSPropertyOp40
 70
     0
102
RTVSPropertyOp41
 70
     0
102
RTVSPropertyOp42
 70
     0
102
RTVSPropertyOp43
 70
     0
102
RTVSPropertyOp44
 70
     0
102
RTVSPropertyOp45
 70
     1
102
RTVSPropertyOp46
 70
     0
102
RTVSPropertyOp47
 70
     0
102
RTVSPropertyOp48
 70
     0
102
RTVSPropertyOp49
 70
     1
102
RTVSPropertyOp50
 70
     0
102
RTVSPropertyOp51
 70
     0
102
RTVSPropertyOp52
 70
     0
102
RTVSPropertyOp53
 70
     0
102
RTVSPropertyOp54
 70
     0
102
RTVSPropertyOp55
 70
     1
102
RTVSPropertyOp56
 70
     0
102
RTVSPropertyOp57
 70
     0
102
RTVSPropertyOp58
 70
     0
102
RTVSPropertyOp59
 70
     0
102
RTVSPropertyOp60
 70
     0
102
RTVSPropertyOp61
 70
     0
102
RTVSPropertyOp62
 70
     0
  0
XRECORD
  5
FE1
102
{ACAD_REACTORS
330
FE0
102
}
330
FE0
100
AcDbXrecord
280
     1
102
RTVSPost2010Prop28
280
     0
102
RTVSPost2010PropOp28
 70
     1
102
RTVSPost2010Prop29
280
     1
102
RTVSPost2010PropOp29
 70
     1
102
RTVSPost2010Prop30
280
     1
102
RTVSPost2010PropOp30
 70
     1
102
RTVSPost2010Prop31
280
     0
102
RTVSPost2010PropOp31
 70
     1
102
RTVSPost2010Prop32
280
     0
102
RTVSPost2010PropOp32
 70
     1
102
RTVSPost2010Prop33
280
     0
102
RTVSPost2010PropOp33
 70
     1
102
RTVSPost2010Prop34
280
     0
102
RTVSPost2010PropOp34
 70
     1
102
RTVSPost2010Prop35
280
     0
102
RTVSPost2010PropOp35
 70
     1
102
RTVSPost2010Prop36
280
     0
102
RTVSPost2010PropOp36
 70
     1
102
RTVSPost2010Prop37
 90
       50
102
RTVSPost2010PropOp37
 70
     1
102
RTVSPost2010Prop38
140
0.0
102
RTVSPost2010PropOp38
 70
     1
102
RTVSPost2010Prop39
140
1.0
102
RTVSPost2010PropOp39
 70
     1
102
RTVSPost2010Prop40
 90
        0
102
RTVSPost2010PropOp40
 70
     1
102
RTVSPost2010Prop41ColorIndex
 90
       18
102
RTVSPost2010Prop41ColorRGB
 90
        0
102
RTVSPost2010PropOp41
 70
     1
102
RTVSPost2010Prop42
 90
       50
102
RTVSPost2010PropOp42
 70
     1
102
RTVSPost2010Prop43
 90
        3
102
RTVSPost2010PropOp43
 70
     1
102
RTVSPost2010Prop44ColorIndex
 90
        5
102
RTVSPost2010Prop44ColorRGB
 90
      255
102
RTVSPost2010PropOp44
 70
     1
102
RTVSPost2010Prop45
280
     0
102
RTVSPost2010PropOp45
 70
     1
102
RTVSPost2010Prop46
 90
       50
102
RTVSPost2010PropOp46
 70
     1
102
RTVSPost2010Prop47
 90
       50
102
RTVSPost2010PropOp47
 70
     1
102
RTVSPost2010Prop48
 90
       50
102
RTVSPost2010PropOp48
 70
     1
102
RTVSPost2010Prop49
280
     0
102
RTVSPost2010PropOp49
 70
     1
102
RTVSPost2010Prop50
 90
       50
102
RTVSPost2010PropOp50
 70
     1
102
RTVSPost2010Prop51ColorIndex
 90
      256
102
RTVSPost2010Prop51ColorRGB
 90
-16777216
102
RTVSPost2010PropOp51
 70
     0
102
RTVSPost2010Prop52
140
1.0
102
RTVSPost2010PropOp52
 70
     0
102
RTVSPost2010Prop53
 90
        2
102
RTVSPost2010PropOp53
 70
     1
102
RTVSPost2010Prop54
  1
strokes_ogs.tif
102
RTVSPost2010PropOp54
 70
     1
102
RTVSPost2010Prop55
280
     0
102
RTVSPost2010PropOp55
 70
     1
102
RTVSPost2010Prop56
140
1.0
102
RTVSPost2010PropOp56
 70
     1
102
RTVSPost2010Prop57
140
1.0
102
RTVSPost2010PropOp57
 70
     1
102
RTVSPropertyOp0
 70
     1
102
RTVSPropertyOp1
 70
     1
102
RTVSPropertyOp2
 70
     1
102
RTVSPropertyOp3
 70
     1
102
RTVSPropertyOp4
 70
     1
102
RTVSPropertyOp5
 70
     1
102
RTVSPropertyOp6
 70
     1
102
RTVSPropertyOp7
 70
     1
102
RTVSPropertyOp8
 70
     1
102
RTVSPropertyOp9
 70
     1
102
RTVSPropertyOp10
 70
     1
102
RTVSPropertyOp11
 70
     1
102
RTVSPropertyOp12
 70
     1
102
RTVSPropertyOp13
 70
     1
102
RTVSPropertyOp14
 70
     1
102
RTVSPropertyOp15
 70
     1
102
RTVSPropertyOp16
 70
     1
102
RTVSPropertyOp17
 70
     1
102
RTVSPropertyOp18
 70
     1
102
RTVSPropertyOp19
 70
     1
102
RTVSPropertyOp20
 70
     1
102
RTVSPropertyOp21
 70
     1
102
RTVSPropertyOp22
 70
     1
102
RTVSPropertyOp23
 70
     1
102
RTVSPropertyOp24
 70
     1
102
RTVSPropertyOp25
 70
     1
102
RTVSPropertyOp26
 70
     1
102
RTVSPropertyOp27
 70
     1
102
RTVSPropertyOp28
 70
     1
102
RTVSPropertyOp29
 70
     1
102
RTVSPropertyOp30
 70
     1
102
RTVSPropertyOp31
 70
     1
102
RTVSPropertyOp32
 70
     1
102
RTVSPropertyOp33
 70
     1
102
RTVSPropertyOp34
 70
     1
102
RTVSPropertyOp35
 70
     1
102
RTVSPropertyOp36
 70
     1
102
RTVSPropertyOp37
 70
     1
102
RTVSPropertyOp38
 70
     1
102
RTVSPropertyOp39
 70
     1
102
RTVSPropertyOp40
 70
     1
102
RTVSPropertyOp41
 70
     1
102
RTVSPropertyOp42
 70
     1
102
RTVSPropertyOp43
 70
     1
102
RTVSPropertyOp44
 70
     1
102
RTVSPropertyOp45
 70
     1
102
RTVSPropertyOp46
 70
     1
102
RTVSPropertyOp47
 70
     1
102
RTVSPropertyOp48
 70
     1
102
RTVSPropertyOp49
 70
     1
102
RTVSPropertyOp50
 70
     1
102
RTVSPropertyOp51
 70
     0
102
RTVSPropertyOp52
 70
     0
102
RTVSPropertyOp53
 70
     1
102
RTVSPropertyOp54
 70
     1
102
RTVSPropertyOp55
 70
     1
102
RTVSPropertyOp56
 70
     1
102
RTVSPropertyOp57
 70
     1
102
RTVSPropertyOp58
 70
     1
102
RTVSPropertyOp59
 70
     1
102
RTVSPropertyOp60
 70
     1
102
RTVSPropertyOp61
 70
     1
102
RTVSPropertyOp62
 70
     1
  0
XRECORD
  5
FF7
102
{ACAD_REACTORS
330
FF6
102
}
330
FF6
100
AcDbXrecord
280
     1
102
RTVSPost2010Prop28
280
     0
102
RTVSPost2010PropOp28
 70
     1
102
RTVSPost2010Prop29
280
     1
102
RTVSPost2010PropOp29
 70
     1
102
RTVSPost2010Prop30
280
     1
102
RTVSPost2010PropOp30
 70
     1
102
RTVSPost2010Prop31
280
     0
102
RTVSPost2010PropOp31
 70
     1
102
RTVSPost2010Prop32
280
     0
102
RTVSPost2010PropOp32
 70
     1
102
RTVSPost2010Prop33
280
     0
102
RTVSPost2010PropOp33
 70
     1
102
RTVSPost2010Prop34
280
     0
102
RTVSPost2010PropOp34
 70
     1
102
RTVSPost2010Prop35
280
     0
102
RTVSPost2010PropOp35
 70
     1
102
RTVSPost2010Prop36
280
     0
102
RTVSPost2010PropOp36
 70
     1
102
RTVSPost2010Prop37
 90
       50
102
RTVSPost2010PropOp37
 70
     1
102
RTVSPost2010Prop38
140
0.0
102
RTVSPost2010PropOp38
 70
     1
102
RTVSPost2010Prop39
140
1.0
102
RTVSPost2010PropOp39
 70
     1
102
RTVSPost2010Prop40
 90
        0
102
RTVSPost2010PropOp40
 70
     1
102
RTVSPost2010Prop41ColorIndex
 90
       18
102
RTVSPost2010Prop41ColorRGB
 90
        0
102
RTVSPost2010PropOp41
 70
     1
102
RTVSPost2010Prop42
 90
       50
102
RTVSPost2010PropOp42
 70
     1
102
RTVSPost2010Prop43
 90
        3
102
RTVSPost2010PropOp43
 70
     1
102
RTVSPost2010Prop44ColorIndex
 90
        5
102
RTVSPost2010Prop44ColorRGB
 90
      255
102
RTVSPost2010PropOp44
 70
     1
102
RTVSPost2010Prop45
280
     0
102
RTVSPost2010PropOp45
 70
     1
102
RTVSPost2010Prop46
 90
       50
102
RTVSPost2010PropOp46
 70
     1
102
RTVSPost2010Prop47
 90
       50
102
RTVSPost2010PropOp47
 70
     1
102
RTVSPost2010Prop48
 90
       50
102
RTVSPost2010PropOp48
 70
     1
102
RTVSPost2010Prop49
280
     0
102
RTVSPost2010PropOp49
 70
     1
102
RTVSPost2010Prop50
 90
       50
102
RTVSPost2010PropOp50
 70
     1
102
RTVSPost2010Prop51ColorIndex
 90
      256
102
RTVSPost2010Prop51ColorRGB
 90
-16777216
102
RTVSPost2010PropOp51
 70
     0
102
RTVSPost2010Prop52
140
1.0
102
RTVSPost2010PropOp52
 70
     0
102
RTVSPost2010Prop53
 90
        2
102
RTVSPost2010PropOp53
 70
     1
102
RTVSPost2010Prop54
  1
strokes_ogs.tif
102
RTVSPost2010PropOp54
 70
     1
102
RTVSPost2010Prop55
280
     0
102
RTVSPost2010PropOp55
 70
     1
102
RTVSPost2010Prop56
140
1.0
102
RTVSPost2010PropOp56
 70
     1
102
RTVSPost2010Prop57
140
1.0
102
RTVSPost2010PropOp57
 70
     1
102
RTVSPropertyOp0
 70
     1
102
RTVSPropertyOp1
 70
     1
102
RTVSPropertyOp2
 70
     1
102
RTVSPropertyOp3
 70
     1
102
RTVSPropertyOp4
 70
     1
102
RTVSPropertyOp5
 70
     1
102
RTVSPropertyOp6
 70
     1
102
RTVSPropertyOp7
 70
     1
102
RTVSPropertyOp8
 70
     1
102
RTVSPropertyOp9
 70
     1
102
RTVSPropertyOp10
 70
     1
102
RTVSPropertyOp11
 70
     1
102
RTVSPropertyOp12
 70
     1
102
RTVSPropertyOp13
 70
     1
102
RTVSPropertyOp14
 70
     1
102
RTVSPropertyOp15
 70
     1
102
RTVSPropertyOp16
 70
     1
102
RTVSPropertyOp17
 70
     1
102
RTVSPropertyOp18
 70
     1
102
RTVSPropertyOp19
 70
     1
102
RTVSPropertyOp20
 70
     1
102
RTVSPropertyOp21
 70
     1
102
RTVSPropertyOp22
 70
     1
102
RTVSPropertyOp23
 70
     1
102
RTVSPropertyOp24
 70
     1
102
RTVSPropertyOp25
 70
     1
102
RTVSPropertyOp26
 70
     1
102
RTVSPropertyOp27
 70
     1
102
RTVSPropertyOp28
 70
     1
102
RTVSPropertyOp29
 70
     1
102
RTVSPropertyOp30
 70
     1
102
RTVSPropertyOp31
 70
     1
102
RTVSPropertyOp32
 70
     1
102
RTVSPropertyOp33
 70
     1
102
RTVSPropertyOp34
 70
     1
102
RTVSPropertyOp35
 70
     1
102
RTVSPropertyOp36
 70
     1
102
RTVSPropertyOp37
 70
     1
102
RTVSPropertyOp38
 70
     1
102
RTVSPropertyOp39
 70
     1
102
RTVSPropertyOp40
 70
     1
102
RTVSPropertyOp41
 70
     1
102
RTVSPropertyOp42
 70
     1
102
RTVSPropertyOp43
 70
     1
102
RTVSPropertyOp44
 70
     1
102
RTVSPropertyOp45
 70
     1
102
RTVSPropertyOp46
 70
     1
102
RTVSPropertyOp47
 70
     1
102
RTVSPropertyOp48
 70
     1
102
RTVSPropertyOp49
 70
     1
102
RTVSPropertyOp50
 70
     1
102
RTVSPropertyOp51
 70
     0
102
RTVSPropertyOp52
 70
     0
102
RTVSPropertyOp53
 70
     1
102
RTVSPropertyOp54
 70
     1
102
RTVSPropertyOp55
 70
     1
102
RTVSPropertyOp56
 70
     1
102
RTVSPropertyOp57
 70
     1
102
RTVSPropertyOp58
 70
     1
102
RTVSPropertyOp59
 70
     1
102
RTVSPropertyOp60
 70
     1
102
RTVSPropertyOp61
 70
     1
102
RTVSPropertyOp62
 70
     1
  0
XRECORD
  5
FF5
102
{ACAD_REACTORS
330
FF4
102
}
330
FF4
100
AcDbXrecord
280
     1
102
RTVSPost2010Prop28
280
     0
102
RTVSPost2010PropOp28
 70
     1
102
RTVSPost2010Prop29
280
     1
102
RTVSPost2010PropOp29
 70
     1
102
RTVSPost2010Prop30
280
     1
102
RTVSPost2010PropOp30
 70
     1
102
RTVSPost2010Prop31
280
     0
102
RTVSPost2010PropOp31
 70
     1
102
RTVSPost2010Prop32
280
     0
102
RTVSPost2010PropOp32
 70
     1
102
RTVSPost2010Prop33
280
     0
102
RTVSPost2010PropOp33
 70
     1
102
RTVSPost2010Prop34
280
     0
102
RTVSPost2010PropOp34
 70
     1
102
RTVSPost2010Prop35
280
     0
102
RTVSPost2010PropOp35
 70
     1
102
RTVSPost2010Prop36
280
     0
102
RTVSPost2010PropOp36
 70
     1
102
RTVSPost2010Prop37
 90
       50
102
RTVSPost2010PropOp37
 70
     1
102
RTVSPost2010Prop38
140
0.0
102
RTVSPost2010PropOp38
 70
     1
102
RTVSPost2010Prop39
140
1.0
102
RTVSPost2010PropOp39
 70
     1
102
RTVSPost2010Prop40
 90
        0
102
RTVSPost2010PropOp40
 70
     1
102
RTVSPost2010Prop41ColorIndex
 90
       18
102
RTVSPost2010Prop41ColorRGB
 90
        0
102
RTVSPost2010PropOp41
 70
     1
102
RTVSPost2010Prop42
 90
       50
102
RTVSPost2010PropOp42
 70
     1
102
RTVSPost2010Prop43
 90
        3
102
RTVSPost2010PropOp43
 70
     1
102
RTVSPost2010Prop44ColorIndex
 90
        5
102
RTVSPost2010Prop44ColorRGB
 90
      255
102
RTVSPost2010PropOp44
 70
     1
102
RTVSPost2010Prop45
280
     0
102
RTVSPost2010PropOp45
 70
     1
102
RTVSPost2010Prop46
 90
       50
102
RTVSPost2010PropOp46
 70
     1
102
RTVSPost2010Prop47
 90
       50
102
RTVSPost2010PropOp47
 70
     1
102
RTVSPost2010Prop48
 90
       50
102
RTVSPost2010PropOp48
 70
     1
102
RTVSPost2010Prop49
280
     0
102
RTVSPost2010PropOp49
 70
     1
102
RTVSPost2010Prop50
 90
       50
102
RTVSPost2010PropOp50
 70
     1
102
RTVSPost2010Prop51ColorIndex
 90
      256
102
RTVSPost2010Prop51ColorRGB
 90
-16777216
102
RTVSPost2010PropOp51
 70
     0
102
RTVSPost2010Prop52
140
1.0
102
RTVSPost2010PropOp52
 70
     0
102
RTVSPost2010Prop53
 90
        2
102
RTVSPost2010PropOp53
 70
     1
102
RTVSPost2010Prop54
  1
strokes_ogs.tif
102
RTVSPost2010PropOp54
 70
     1
102
RTVSPost2010Prop55
280
     0
102
RTVSPost2010PropOp55
 70
     1
102
RTVSPost2010Prop56
140
1.0
102
RTVSPost2010PropOp56
 70
     1
102
RTVSPost2010Prop57
140
1.0
102
RTVSPost2010PropOp57
 70
     1
102
RTVSPropertyOp0
 70
     1
102
RTVSPropertyOp1
 70
     1
102
RTVSPropertyOp2
 70
     1
102
RTVSPropertyOp3
 70
     1
102
RTVSPropertyOp4
 70
     1
102
RTVSPropertyOp5
 70
     1
102
RTVSPropertyOp6
 70
     1
102
RTVSPropertyOp7
 70
     1
102
RTVSPropertyOp8
 70
     1
102
RTVSPropertyOp9
 70
     1
102
RTVSPropertyOp10
 70
     1
102
RTVSPropertyOp11
 70
     1
102
RTVSPropertyOp12
 70
     1
102
RTVSPropertyOp13
 70
     1
102
RTVSPropertyOp14
 70
     1
102
RTVSPropertyOp15
 70
     1
102
RTVSPropertyOp16
 70
     1
102
RTVSPropertyOp17
 70
     1
102
RTVSPropertyOp18
 70
     1
102
RTVSPropertyOp19
 70
     1
102
RTVSPropertyOp20
 70
     1
102
RTVSPropertyOp21
 70
     1
102
RTVSPropertyOp22
 70
     1
102
RTVSPropertyOp23
 70
     1
102
RTVSPropertyOp24
 70
     1
102
RTVSPropertyOp25
 70
     1
102
RTVSPropertyOp26
 70
     1
102
RTVSPropertyOp27
 70
     1
102
RTVSPropertyOp28
 70
     1
102
RTVSPropertyOp29
 70
     1
102
RTVSPropertyOp30
 70
     1
102
RTVSPropertyOp31
 70
     1
102
RTVSPropertyOp32
 70
     1
102
RTVSPropertyOp33
 70
     1
102
RTVSPropertyOp34
 70
     1
102
RTVSPropertyOp35
 70
     1
102
RTVSPropertyOp36
 70
     1
102
RTVSPropertyOp37
 70
     1
102
RTVSPropertyOp38
 70
     1
102
RTVSPropertyOp39
 70
     1
102
RTVSPropertyOp40
 70
     1
102
RTVSPropertyOp41
 70
     1
102
RTVSPropertyOp42
 70
     1
102
RTVSPropertyOp43
 70
     1
102
RTVSPropertyOp44
 70
     1
102
RTVSPropertyOp45
 70
     1
102
RTVSPropertyOp46
 70
     1
102
RTVSPropertyOp47
 70
     1
102
RTVSPropertyOp48
 70
     1
102
RTVSPropertyOp49
 70
     1
102
RTVSPropertyOp50
 70
     1
102
RTVSPropertyOp51
 70
     0
102
RTVSPropertyOp52
 70
     0
102
RTVSPropertyOp53
 70
     1
102
RTVSPropertyOp54
 70
     1
102
RTVSPropertyOp55
 70
     1
102
RTVSPropertyOp56
 70
     1
102
RTVSPropertyOp57
 70
     1
102
RTVSPropertyOp58
 70
     1
102
RTVSPropertyOp59
 70
     1
102
RTVSPropertyOp60
 70
     1
102
RTVSPropertyOp61
 70
     1
102
RTVSPropertyOp62
 70
     1
  0
XRECORD
  5
FEF
102
{ACAD_REACTORS
330
FEE
102
}
330
FEE
100
AcDbXrecord
280
     1
102
RTVSPost2010Prop28
280
     0
102
RTVSPost2010PropOp28
 70
     1
102
RTVSPost2010Prop29
280
     1
102
RTVSPost2010PropOp29
 70
     1
102
RTVSPost2010Prop30
280
     1
102
RTVSPost2010PropOp30
 70
     1
102
RTVSPost2010Prop31
280
     0
102
RTVSPost2010PropOp31
 70
     1
102
RTVSPost2010Prop32
280
     0
102
RTVSPost2010PropOp32
 70
     1
102
RTVSPost2010Prop33
280
     0
102
RTVSPost2010PropOp33
 70
     1
102
RTVSPost2010Prop34
280
     0
102
RTVSPost2010PropOp34
 70
     1
102
RTVSPost2010Prop35
280
     0
102
RTVSPost2010PropOp35
 70
     1
102
RTVSPost2010Prop36
280
     0
102
RTVSPost2010PropOp36
 70
     1
102
RTVSPost2010Prop37
 90
       50
102
RTVSPost2010PropOp37
 70
     1
102
RTVSPost2010Prop38
140
0.0
102
RTVSPost2010PropOp38
 70
     1
102
RTVSPost2010Prop39
140
1.0
102
RTVSPost2010PropOp39
 70
     1
102
RTVSPost2010Prop40
 90
        0
102
RTVSPost2010PropOp40
 70
     1
102
RTVSPost2010Prop41ColorIndex
 90
       18
102
RTVSPost2010Prop41ColorRGB
 90
        0
102
RTVSPost2010PropOp41
 70
     1
102
RTVSPost2010Prop42
 90
       50
102
RTVSPost2010PropOp42
 70
     1
102
RTVSPost2010Prop43
 90
        3
102
RTVSPost2010PropOp43
 70
     1
102
RTVSPost2010Prop44ColorIndex
 90
        5
102
RTVSPost2010Prop44ColorRGB
 90
      255
102
RTVSPost2010PropOp44
 70
     1
102
RTVSPost2010Prop45
280
     0
102
RTVSPost2010PropOp45
 70
     1
102
RTVSPost2010Prop46
 90
       50
102
RTVSPost2010PropOp46
 70
     1
102
RTVSPost2010Prop47
 90
       50
102
RTVSPost2010PropOp47
 70
     1
102
RTVSPost2010Prop48
 90
       50
102
RTVSPost2010PropOp48
 70
     1
102
RTVSPost2010Prop49
280
     0
102
RTVSPost2010PropOp49
 70
     1
102
RTVSPost2010Prop50
 90
       50
102
RTVSPost2010PropOp50
 70
     1
102
RTVSPost2010Prop51ColorIndex
 90
      256
102
RTVSPost2010Prop51ColorRGB
 90
-16777216
102
RTVSPost2010PropOp51
 70
     0
102
RTVSPost2010Prop52
140
1.0
102
RTVSPost2010PropOp52
 70
     0
102
RTVSPost2010Prop53
 90
        2
102
RTVSPost2010PropOp53
 70
     1
102
RTVSPost2010Prop54
  1
strokes_ogs.tif
102
RTVSPost2010PropOp54
 70
     1
102
RTVSPost2010Prop55
280
     0
102
RTVSPost2010PropOp55
 70
     1
102
RTVSPost2010Prop56
140
1.0
102
RTVSPost2010PropOp56
 70
     1
102
RTVSPost2010Prop57
140
1.0
102
RTVSPost2010PropOp57
 70
     1
102
RTVSPropertyOp0
 70
     1
102
RTVSPropertyOp1
 70
     1
102
RTVSPropertyOp2
 70
     1
102
RTVSPropertyOp3
 70
     1
102
RTVSPropertyOp4
 70
     1
102
RTVSPropertyOp5
 70
     1
102
RTVSPropertyOp6
 70
     1
102
RTVSPropertyOp7
 70
     1
102
RTVSPropertyOp8
 70
     1
102
RTVSPropertyOp9
 70
     1
102
RTVSPropertyOp10
 70
     1
102
RTVSPropertyOp11
 70
     1
102
RTVSPropertyOp12
 70
     1
102
RTVSPropertyOp13
 70
     1
102
RTVSPropertyOp14
 70
     1
102
RTVSPropertyOp15
 70
     1
102
RTVSPropertyOp16
 70
     1
102
RTVSPropertyOp17
 70
     1
102
RTVSPropertyOp18
 70
     1
102
RTVSPropertyOp19
 70
     1
102
RTVSPropertyOp20
 70
     1
102
RTVSPropertyOp21
 70
     1
102
RTVSPropertyOp22
 70
     1
102
RTVSPropertyOp23
 70
     1
102
RTVSPropertyOp24
 70
     1
102
RTVSPropertyOp25
 70
     1
102
RTVSPropertyOp26
 70
     1
102
RTVSPropertyOp27
 70
     1
102
RTVSPropertyOp28
 70
     1
102
RTVSPropertyOp29
 70
     1
102
RTVSPropertyOp30
 70
     1
102
RTVSPropertyOp31
 70
     1
102
RTVSPropertyOp32
 70
     1
102
RTVSPropertyOp33
 70
     1
102
RTVSPropertyOp34
 70
     1
102
RTVSPropertyOp35
 70
     1
102
RTVSPropertyOp36
 70
     1
102
RTVSPropertyOp37
 70
     1
102
RTVSPropertyOp38
 70
     1
102
RTVSPropertyOp39
 70
     1
102
RTVSPropertyOp40
 70
     1
102
RTVSPropertyOp41
 70
     1
102
RTVSPropertyOp42
 70
     1
102
RTVSPropertyOp43
 70
     1
102
RTVSPropertyOp44
 70
     1
102
RTVSPropertyOp45
 70
     1
102
RTVSPropertyOp46
 70
     1
102
RTVSPropertyOp47
 70
     1
102
RTVSPropertyOp48
 70
     1
102
RTVSPropertyOp49
 70
     1
102
RTVSPropertyOp50
 70
     1
102
RTVSPropertyOp51
 70
     0
102
RTVSPropertyOp52
 70
     0
102
RTVSPropertyOp53
 70
     1
102
RTVSPropertyOp54
 70
     1
102
RTVSPropertyOp55
 70
     1
102
RTVSPropertyOp56
 70
     1
102
RTVSPropertyOp57
 70
     1
102
RTVSPropertyOp58
 70
     1
102
RTVSPropertyOp59
 70
     1
102
RTVSPropertyOp60
 70
     1
102
RTVSPropertyOp61
 70
     1
102
RTVSPropertyOp62
 70
     1
  0
XRECORD
  5
FF1
102
{ACAD_REACTORS
330
FF0
102
}
330
FF0
100
AcDbXrecord
280
     1
102
RTVSPost2010Prop28
280
     0
102
RTVSPost2010PropOp28
 70
     1
102
RTVSPost2010Prop29
280
     1
102
RTVSPost2010PropOp29
 70
     1
102
RTVSPost2010Prop30
280
     1
102
RTVSPost2010PropOp30
 70
     1
102
RTVSPost2010Prop31
280
     0
102
RTVSPost2010PropOp31
 70
     1
102
RTVSPost2010Prop32
280
     0
102
RTVSPost2010PropOp32
 70
     1
102
RTVSPost2010Prop33
280
     0
102
RTVSPost2010PropOp33
 70
     1
102
RTVSPost2010Prop34
280
     0
102
RTVSPost2010PropOp34
 70
     1
102
RTVSPost2010Prop35
280
     0
102
RTVSPost2010PropOp35
 70
     1
102
RTVSPost2010Prop36
280
     0
102
RTVSPost2010PropOp36
 70
     1
102
RTVSPost2010Prop37
 90
       50
102
RTVSPost2010PropOp37
 70
     1
102
RTVSPost2010Prop38
140
0.0
102
RTVSPost2010PropOp38
 70
     1
102
RTVSPost2010Prop39
140
1.0
102
RTVSPost2010PropOp39
 70
     1
102
RTVSPost2010Prop40
 90
        0
102
RTVSPost2010PropOp40
 70
     1
102
RTVSPost2010Prop41ColorIndex
 90
       18
102
RTVSPost2010Prop41ColorRGB
 90
        0
102
RTVSPost2010PropOp41
 70
     1
102
RTVSPost2010Prop42
 90
       50
102
RTVSPost2010PropOp42
 70
     1
102
RTVSPost2010Prop43
 90
        3
102
RTVSPost2010PropOp43
 70
     1
102
RTVSPost2010Prop44ColorIndex
 90
        5
102
RTVSPost2010Prop44ColorRGB
 90
      255
102
RTVSPost2010PropOp44
 70
     1
102
RTVSPost2010Prop45
280
     0
102
RTVSPost2010PropOp45
 70
     1
102
RTVSPost2010Prop46
 90
       50
102
RTVSPost2010PropOp46
 70
     1
102
RTVSPost2010Prop47
 90
       50
102
RTVSPost2010PropOp47
 70
     1
102
RTVSPost2010Prop48
 90
       50
102
RTVSPost2010PropOp48
 70
     1
102
RTVSPost2010Prop49
280
     0
102
RTVSPost2010PropOp49
 70
     1
102
RTVSPost2010Prop50
 90
       50
102
RTVSPost2010PropOp50
 70
     1
102
RTVSPost2010Prop51ColorIndex
 90
      256
102
RTVSPost2010Prop51ColorRGB
 90
-16777216
102
RTVSPost2010PropOp51
 70
     0
102
RTVSPost2010Prop52
140
1.0
102
RTVSPost2010PropOp52
 70
     0
102
RTVSPost2010Prop53
 90
        2
102
RTVSPost2010PropOp53
 70
     1
102
RTVSPost2010Prop54
  1
strokes_ogs.tif
102
RTVSPost2010PropOp54
 70
     1
102
RTVSPost2010Prop55
280
     0
102
RTVSPost2010PropOp55
 70
     1
102
RTVSPost2010Prop56
140
1.0
102
RTVSPost2010PropOp56
 70
     1
102
RTVSPost2010Prop57
140
1.0
102
RTVSPost2010PropOp57
 70
     1
102
RTVSPropertyOp0
 70
     1
102
RTVSPropertyOp1
 70
     1
102
RTVSPropertyOp2
 70
     1
102
RTVSPropertyOp3
 70
     1
102
RTVSPropertyOp4
 70
     1
102
RTVSPropertyOp5
 70
     1
102
RTVSPropertyOp6
 70
     1
102
RTVSPropertyOp7
 70
     1
102
RTVSPropertyOp8
 70
     1
102
RTVSPropertyOp9
 70
     1
102
RTVSPropertyOp10
 70
     1
102
RTVSPropertyOp11
 70
     1
102
RTVSPropertyOp12
 70
     1
102
RTVSPropertyOp13
 70
     1
102
RTVSPropertyOp14
 70
     1
102
RTVSPropertyOp15
 70
     1
102
RTVSPropertyOp16
 70
     1
102
RTVSPropertyOp17
 70
     1
102
RTVSPropertyOp18
 70
     1
102
RTVSPropertyOp19
 70
     1
102
RTVSPropertyOp20
 70
     1
102
RTVSPropertyOp21
 70
     1
102
RTVSPropertyOp22
 70
     1
102
RTVSPropertyOp23
 70
     1
102
RTVSPropertyOp24
 70
     1
102
RTVSPropertyOp25
 70
     1
102
RTVSPropertyOp26
 70
     1
102
RTVSPropertyOp27
 70
     1
102
RTVSPropertyOp28
 70
     1
102
RTVSPropertyOp29
 70
     1
102
RTVSPropertyOp30
 70
     1
102
RTVSPropertyOp31
 70
     1
102
RTVSPropertyOp32
 70
     1
102
RTVSPropertyOp33
 70
     1
102
RTVSPropertyOp34
 70
     1
102
RTVSPropertyOp35
 70
     1
102
RTVSPropertyOp36
 70
     1
102
RTVSPropertyOp37
 70
     1
102
RTVSPropertyOp38
 70
     1
102
RTVSPropertyOp39
 70
     1
102
RTVSPropertyOp40
 70
     1
102
RTVSPropertyOp41
 70
     1
102
RTVSPropertyOp42
 70
     1
102
RTVSPropertyOp43
 70
     1
102
RTVSPropertyOp44
 70
     1
102
RTVSPropertyOp45
 70
     1
102
RTVSPropertyOp46
 70
     1
102
RTVSPropertyOp47
 70
     1
102
RTVSPropertyOp48
 70
     1
102
RTVSPropertyOp49
 70
     1
102
RTVSPropertyOp50
 70
     1
102
RTVSPropertyOp51
 70
     0
102
RTVSPropertyOp52
 70
     0
102
RTVSPropertyOp53
 70
     1
102
RTVSPropertyOp54
 70
     1
102
RTVSPropertyOp55
 70
     1
102
RTVSPropertyOp56
 70
     1
102
RTVSPropertyOp57
 70
     1
102
RTVSPropertyOp58
 70
     1
102
RTVSPropertyOp59
 70
     1
102
RTVSPropertyOp60
 70
     1
102
RTVSPropertyOp61
 70
     1
102
RTVSPropertyOp62
 70
     1
  0
XRECORD
  5
FE7
102
{ACAD_REACTORS
330
FE6
102
}
330
FE6
100
AcDbXrecord
280
     1
102
RTVSPost2010Prop28
280
     0
102
RTVSPost2010PropOp28
 70
     1
102
RTVSPost2010Prop29
280
     1
102
RTVSPost2010PropOp29
 70
     1
102
RTVSPost2010Prop30
280
     1
102
RTVSPost2010PropOp30
 70
     1
102
RTVSPost2010Prop31
280
     0
102
RTVSPost2010PropOp31
 70
     1
102
RTVSPost2010Prop32
280
     0
102
RTVSPost2010PropOp32
 70
     1
102
RTVSPost2010Prop33
280
     0
102
RTVSPost2010PropOp33
 70
     1
102
RTVSPost2010Prop34
280
     0
102
RTVSPost2010PropOp34
 70
     1
102
RTVSPost2010Prop35
280
     0
102
RTVSPost2010PropOp35
 70
     1
102
RTVSPost2010Prop36
280
     0
102
RTVSPost2010PropOp36
 70
     1
102
RTVSPost2010Prop37
 90
       50
102
RTVSPost2010PropOp37
 70
     1
102
RTVSPost2010Prop38
140
0.0
102
RTVSPost2010PropOp38
 70
     1
102
RTVSPost2010Prop39
140
1.0
102
RTVSPost2010PropOp39
 70
     1
102
RTVSPost2010Prop40
 90
        0
102
RTVSPost2010PropOp40
 70
     1
102
RTVSPost2010Prop41ColorIndex
 90
       18
102
RTVSPost2010Prop41ColorRGB
 90
        0
102
RTVSPost2010PropOp41
 70
     1
102
RTVSPost2010Prop42
 90
       50
102
RTVSPost2010PropOp42
 70
     1
102
RTVSPost2010Prop43
 90
        3
102
RTVSPost2010PropOp43
 70
     1
102
RTVSPost2010Prop44ColorIndex
 90
        5
102
RTVSPost2010Prop44ColorRGB
 90
      255
102
RTVSPost2010PropOp44
 70
     1
102
RTVSPost2010Prop45
280
     0
102
RTVSPost2010PropOp45
 70
     1
102
RTVSPost2010Prop46
 90
       50
102
RTVSPost2010PropOp46
 70
     1
102
RTVSPost2010Prop47
 90
       50
102
RTVSPost2010PropOp47
 70
     1
102
RTVSPost2010Prop48
 90
       50
102
RTVSPost2010PropOp48
 70
     1
102
RTVSPost2010Prop49
280
     0
102
RTVSPost2010PropOp49
 70
     1
102
RTVSPost2010Prop50
 90
       50
102
RTVSPost2010PropOp50
 70
     1
102
RTVSPost2010Prop51ColorIndex
 90
      256
102
RTVSPost2010Prop51ColorRGB
 90
-16777216
102
RTVSPost2010PropOp51
 70
     0
102
RTVSPost2010Prop52
140
1.0
102
RTVSPost2010PropOp52
 70
     0
102
RTVSPost2010Prop53
 90
        2
102
RTVSPost2010PropOp53
 70
     1
102
RTVSPost2010Prop54
  1
strokes_ogs.tif
102
RTVSPost2010PropOp54
 70
     1
102
RTVSPost2010Prop55
280
     0
102
RTVSPost2010PropOp55
 70
     1
102
RTVSPost2010Prop56
140
1.0
102
RTVSPost2010PropOp56
 70
     1
102
RTVSPost2010Prop57
140
1.0
102
RTVSPost2010PropOp57
 70
     1
102
RTVSPropertyOp0
 70
     1
102
RTVSPropertyOp1
 70
     1
102
RTVSPropertyOp2
 70
     1
102
RTVSPropertyOp3
 70
     1
102
RTVSPropertyOp4
 70
     1
102
RTVSPropertyOp5
 70
     1
102
RTVSPropertyOp6
 70
     1
102
RTVSPropertyOp7
 70
     1
102
RTVSPropertyOp8
 70
     1
102
RTVSPropertyOp9
 70
     1
102
RTVSPropertyOp10
 70
     1
102
RTVSPropertyOp11
 70
     1
102
RTVSPropertyOp12
 70
     1
102
RTVSPropertyOp13
 70
     1
102
RTVSPropertyOp14
 70
     1
102
RTVSPropertyOp15
 70
     1
102
RTVSPropertyOp16
 70
     1
102
RTVSPropertyOp17
 70
     1
102
RTVSPropertyOp18
 70
     1
102
RTVSPropertyOp19
 70
     1
102
RTVSPropertyOp20
 70
     1
102
RTVSPropertyOp21
 70
     1
102
RTVSPropertyOp22
 70
     1
102
RTVSPropertyOp23
 70
     1
102
RTVSPropertyOp24
 70
     1
102
RTVSPropertyOp25
 70
     1
102
RTVSPropertyOp26
 70
     1
102
RTVSPropertyOp27
 70
     1
102
RTVSPropertyOp28
 70
     1
102
RTVSPropertyOp29
 70
     1
102
RTVSPropertyOp30
 70
     1
102
RTVSPropertyOp31
 70
     1
102
RTVSPropertyOp32
 70
     1
102
RTVSPropertyOp33
 70
     1
102
RTVSPropertyOp34
 70
     1
102
RTVSPropertyOp35
 70
     1
102
RTVSPropertyOp36
 70
     1
102
RTVSPropertyOp37
 70
     1
102
RTVSPropertyOp38
 70
     1
102
RTVSPropertyOp39
 70
     1
102
RTVSPropertyOp40
 70
     1
102
RTVSPropertyOp41
 70
     1
102
RTVSPropertyOp42
 70
     1
102
RTVSPropertyOp43
 70
     1
102
RTVSPropertyOp44
 70
     1
102
RTVSPropertyOp45
 70
     1
102
RTVSPropertyOp46
 70
     1
102
RTVSPropertyOp47
 70
     1
102
RTVSPropertyOp48
 70
     1
102
RTVSPropertyOp49
 70
     1
102
RTVSPropertyOp50
 70
     1
102
RTVSPropertyOp51
 70
     0
102
RTVSPropertyOp52
 70
     0
102
RTVSPropertyOp53
 70
     1
102
RTVSPropertyOp54
 70
     1
102
RTVSPropertyOp55
 70
     1
102
RTVSPropertyOp56
 70
     1
102
RTVSPropertyOp57
 70
     1
102
RTVSPropertyOp58
 70
     1
102
RTVSPropertyOp59
 70
     1
102
RTVSPropertyOp60
 70
     1
102
RTVSPropertyOp61
 70
     1
102
RTVSPropertyOp62
 70
     1
  0
XRECORD
  5
FDB
102
{ACAD_REACTORS
330
FDA
102
}
330
FDA
100
AcDbXrecord
280
     1
102
RTVSPost2010Prop28
280
     0
102
RTVSPost2010PropOp28
 70
     1
102
RTVSPost2010Prop29
280
     1
102
RTVSPost2010PropOp29
 70
     1
102
RTVSPost2010Prop30
280
     1
102
RTVSPost2010PropOp30
 70
     1
102
RTVSPost2010Prop31
280
     0
102
RTVSPost2010PropOp31
 70
     1
102
RTVSPost2010Prop32
280
     0
102
RTVSPost2010PropOp32
 70
     1
102
RTVSPost2010Prop33
280
     0
102
RTVSPost2010PropOp33
 70
     1
102
RTVSPost2010Prop34
280
     0
102
RTVSPost2010PropOp34
 70
     1
102
RTVSPost2010Prop35
280
     0
102
RTVSPost2010PropOp35
 70
     1
102
RTVSPost2010Prop36
280
     0
102
RTVSPost2010PropOp36
 70
     1
102
RTVSPost2010Prop37
 90
       50
102
RTVSPost2010PropOp37
 70
     1
102
RTVSPost2010Prop38
140
0.0
102
RTVSPost2010PropOp38
 70
     1
102
RTVSPost2010Prop39
140
1.0
102
RTVSPost2010PropOp39
 70
     1
102
RTVSPost2010Prop40
 90
        0
102
RTVSPost2010PropOp40
 70
     1
102
RTVSPost2010Prop41ColorIndex
 90
       18
102
RTVSPost2010Prop41ColorRGB
 90
        0
102
RTVSPost2010PropOp41
 70
     1
102
RTVSPost2010Prop42
 90
       50
102
RTVSPost2010PropOp42
 70
     1
102
RTVSPost2010Prop43
 90
        3
102
RTVSPost2010PropOp43
 70
     1
102
RTVSPost2010Prop44ColorIndex
 90
        5
102
RTVSPost2010Prop44ColorRGB
 90
      255
102
RTVSPost2010PropOp44
 70
     1
102
RTVSPost2010Prop45
280
     0
102
RTVSPost2010PropOp45
 70
     1
102
RTVSPost2010Prop46
 90
       50
102
RTVSPost2010PropOp46
 70
     1
102
RTVSPost2010Prop47
 90
       50
102
RTVSPost2010PropOp47
 70
     1
102
RTVSPost2010Prop48
 90
       50
102
RTVSPost2010PropOp48
 70
     1
102
RTVSPost2010Prop49
280
     0
102
RTVSPost2010PropOp49
 70
     1
102
RTVSPost2010Prop50
 90
       50
102
RTVSPost2010PropOp50
 70
     1
102
RTVSPost2010Prop51ColorIndex
 90
      256
102
RTVSPost2010Prop51ColorRGB
 90
-16777216
102
RTVSPost2010PropOp51
 70
     0
102
RTVSPost2010Prop52
140
1.0
102
RTVSPost2010PropOp52
 70
     0
102
RTVSPost2010Prop53
 90
        2
102
RTVSPost2010PropOp53
 70
     1
102
RTVSPost2010Prop54
  1
strokes_ogs.tif
102
RTVSPost2010PropOp54
 70
     1
102
RTVSPost2010Prop55
280
     0
102
RTVSPost2010PropOp55
 70
     1
102
RTVSPost2010Prop56
140
1.0
102
RTVSPost2010PropOp56
 70
     1
102
RTVSPost2010Prop57
140
1.0
102
RTVSPost2010PropOp57
 70
     1
102
RTVSPropertyOp0
 70
     1
102
RTVSPropertyOp1
 70
     1
102
RTVSPropertyOp2
 70
     1
102
RTVSPropertyOp3
 70
     1
102
RTVSPropertyOp4
 70
     1
102
RTVSPropertyOp5
 70
     1
102
RTVSPropertyOp6
 70
     1
102
RTVSPropertyOp7
 70
     1
102
RTVSPropertyOp8
 70
     1
102
RTVSPropertyOp9
 70
     1
102
RTVSPropertyOp10
 70
     1
102
RTVSPropertyOp11
 70
     1
102
RTVSPropertyOp12
 70
     1
102
RTVSPropertyOp13
 70
     1
102
RTVSPropertyOp14
 70
     1
102
RTVSPropertyOp15
 70
     1
102
RTVSPropertyOp16
 70
     1
102
RTVSPropertyOp17
 70
     1
102
RTVSPropertyOp18
 70
     1
102
RTVSPropertyOp19
 70
     1
102
RTVSPropertyOp20
 70
     1
102
RTVSPropertyOp21
 70
     1
102
RTVSPropertyOp22
 70
     1
102
RTVSPropertyOp23
 70
     1
102
RTVSPropertyOp24
 70
     1
102
RTVSPropertyOp25
 70
     1
102
RTVSPropertyOp26
 70
     1
102
RTVSPropertyOp27
 70
     1
102
RTVSPropertyOp28
 70
     1
102
RTVSPropertyOp29
 70
     1
102
RTVSPropertyOp30
 70
     1
102
RTVSPropertyOp31
 70
     1
102
RTVSPropertyOp32
 70
     1
102
RTVSPropertyOp33
 70
     1
102
RTVSPropertyOp34
 70
     1
102
RTVSPropertyOp35
 70
     1
102
RTVSPropertyOp36
 70
     1
102
RTVSPropertyOp37
 70
     1
102
RTVSPropertyOp38
 70
     1
102
RTVSPropertyOp39
 70
     1
102
RTVSPropertyOp40
 70
     1
102
RTVSPropertyOp41
 70
     1
102
RTVSPropertyOp42
 70
     1
102
RTVSPropertyOp43
 70
     1
102
RTVSPropertyOp44
 70
     1
102
RTVSPropertyOp45
 70
     1
102
RTVSPropertyOp46
 70
     1
102
RTVSPropertyOp47
 70
     1
102
RTVSPropertyOp48
 70
     1
102
RTVSPropertyOp49
 70
     1
102
RTVSPropertyOp50
 70
     1
102
RTVSPropertyOp51
 70
     0
102
RTVSPropertyOp52
 70
     0
102
RTVSPropertyOp53
 70
     1
102
RTVSPropertyOp54
 70
     1
102
RTVSPropertyOp55
 70
     1
102
RTVSPropertyOp56
 70
     1
102
RTVSPropertyOp57
 70
     1
102
RTVSPropertyOp58
 70
     1
102
RTVSPropertyOp59
 70
     1
102
RTVSPropertyOp60
 70
     1
102
RTVSPropertyOp61
 70
     1
102
RTVSPropertyOp62
 70
     1
  0
XRECORD
  5
FF3
102
{ACAD_REACTORS
330
FF2
102
}
330
FF2
100
AcDbXrecord
280
     1
102
RTVSPost2010Prop28
280
     0
102
RTVSPost2010PropOp28
 70
     1
102
RTVSPost2010Prop29
280
     1
102
RTVSPost2010PropOp29
 70
     1
102
RTVSPost2010Prop30
280
     1
102
RTVSPost2010PropOp30
 70
     1
102
RTVSPost2010Prop31
280
     0
102
RTVSPost2010PropOp31
 70
     1
102
RTVSPost2010Prop32
280
     0
102
RTVSPost2010PropOp32
 70
     1
102
RTVSPost2010Prop33
280
     0
102
RTVSPost2010PropOp33
 70
     1
102
RTVSPost2010Prop34
280
     0
102
RTVSPost2010PropOp34
 70
     1
102
RTVSPost2010Prop35
280
     0
102
RTVSPost2010PropOp35
 70
     1
102
RTVSPost2010Prop36
280
     0
102
RTVSPost2010PropOp36
 70
     1
102
RTVSPost2010Prop37
 90
       50
102
RTVSPost2010PropOp37
 70
     1
102
RTVSPost2010Prop38
140
0.0
102
RTVSPost2010PropOp38
 70
     1
102
RTVSPost2010Prop39
140
1.0
102
RTVSPost2010PropOp39
 70
     1
102
RTVSPost2010Prop40
 90
        0
102
RTVSPost2010PropOp40
 70
     1
102
RTVSPost2010Prop41ColorIndex
 90
       18
102
RTVSPost2010Prop41ColorRGB
 90
        0
102
RTVSPost2010PropOp41
 70
     1
102
RTVSPost2010Prop42
 90
       50
102
RTVSPost2010PropOp42
 70
     1
102
RTVSPost2010Prop43
 90
        3
102
RTVSPost2010PropOp43
 70
     1
102
RTVSPost2010Prop44ColorIndex
 90
        5
102
RTVSPost2010Prop44ColorRGB
 90
      255
102
RTVSPost2010PropOp44
 70
     1
102
RTVSPost2010Prop45
280
     0
102
RTVSPost2010PropOp45
 70
     1
102
RTVSPost2010Prop46
 90
       50
102
RTVSPost2010PropOp46
 70
     1
102
RTVSPost2010Prop47
 90
       50
102
RTVSPost2010PropOp47
 70
     1
102
RTVSPost2010Prop48
 90
       50
102
RTVSPost2010PropOp48
 70
     1
102
RTVSPost2010Prop49
280
     0
102
RTVSPost2010PropOp49
 70
     1
102
RTVSPost2010Prop50
 90
       50
102
RTVSPost2010PropOp50
 70
     1
102
RTVSPost2010Prop51ColorIndex
 90
      256
102
RTVSPost2010Prop51ColorRGB
 90
-16777216
102
RTVSPost2010PropOp51
 70
     0
102
RTVSPost2010Prop52
140
1.0
102
RTVSPost2010PropOp52
 70
     0
102
RTVSPost2010Prop53
 90
        2
102
RTVSPost2010PropOp53
 70
     1
102
RTVSPost2010Prop54
  1
strokes_ogs.tif
102
RTVSPost2010PropOp54
 70
     1
102
RTVSPost2010Prop55
280
     0
102
RTVSPost2010PropOp55
 70
     1
102
RTVSPost2010Prop56
140
1.0
102
RTVSPost2010PropOp56
 70
     1
102
RTVSPost2010Prop57
140
1.0
102
RTVSPost2010PropOp57
 70
     1
102
RTVSPropertyOp0
 70
     1
102
RTVSPropertyOp1
 70
     1
102
RTVSPropertyOp2
 70
     1
102
RTVSPropertyOp3
 70
     1
102
RTVSPropertyOp4
 70
     1
102
RTVSPropertyOp5
 70
     1
102
RTVSPropertyOp6
 70
     1
102
RTVSPropertyOp7
 70
     1
102
RTVSPropertyOp8
 70
     1
102
RTVSPropertyOp9
 70
     1
102
RTVSPropertyOp10
 70
     1
102
RTVSPropertyOp11
 70
     1
102
RTVSPropertyOp12
 70
     1
102
RTVSPropertyOp13
 70
     1
102
RTVSPropertyOp14
 70
     1
102
RTVSPropertyOp15
 70
     1
102
RTVSPropertyOp16
 70
     1
102
RTVSPropertyOp17
 70
     1
102
RTVSPropertyOp18
 70
     1
102
RTVSPropertyOp19
 70
     1
102
RTVSPropertyOp20
 70
     1
102
RTVSPropertyOp21
 70
     1
102
RTVSPropertyOp22
 70
     1
102
RTVSPropertyOp23
 70
     1
102
RTVSPropertyOp24
 70
     1
102
RTVSPropertyOp25
 70
     1
102
RTVSPropertyOp26
 70
     1
102
RTVSPropertyOp27
 70
     1
102
RTVSPropertyOp28
 70
     1
102
RTVSPropertyOp29
 70
     1
102
RTVSPropertyOp30
 70
     1
102
RTVSPropertyOp31
 70
     1
102
RTVSPropertyOp32
 70
     1
102
RTVSPropertyOp33
 70
     1
102
RTVSPropertyOp34
 70
     1
102
RTVSPropertyOp35
 70
     1
102
RTVSPropertyOp36
 70
     1
102
RTVSPropertyOp37
 70
     1
102
RTVSPropertyOp38
 70
     1
102
RTVSPropertyOp39
 70
     1
102
RTVSPropertyOp40
 70
     1
102
RTVSPropertyOp41
 70
     1
102
RTVSPropertyOp42
 70
     1
102
RTVSPropertyOp43
 70
     1
102
RTVSPropertyOp44
 70
     1
102
RTVSPropertyOp45
 70
     1
102
RTVSPropertyOp46
 70
     1
102
RTVSPropertyOp47
 70
     1
102
RTVSPropertyOp48
 70
     1
102
RTVSPropertyOp49
 70
     1
102
RTVSPropertyOp50
 70
     1
102
RTVSPropertyOp51
 70
     0
102
RTVSPropertyOp52
 70
     0
102
RTVSPropertyOp53
 70
     1
102
RTVSPropertyOp54
 70
     1
102
RTVSPropertyOp55
 70
     1
102
RTVSPropertyOp56
 70
     1
102
RTVSPropertyOp57
 70
     1
102
RTVSPropertyOp58
 70
     1
102
RTVSPropertyOp59
 70
     1
102
RTVSPropertyOp60
 70
     1
102
RTVSPropertyOp61
 70
     1
102
RTVSPropertyOp62
 70
     1
  0
ENDSEC
  0
EOF
