  0
SECTION
  2
HEADER
  9
$ACADVER
  1
AC1015
  9
$ACADMAINTVER
 70
    20
  9
$DWGCODEPAGE
  3
ANSI_932
  9
$INSBASE
 10
0.0
 20
0.0
 30
0.0
  9
$EXTMIN
 10
10.00000153760811
 20
9.999999806846602
 30
0.0
  9
$EXTMAX
 10
630.7676975376081
 20
456.7240068068463
 30
0.0
  9
$LIMMIN
 10
0.0000015376083204
 20
-0.0000001931532552
  9
$LIMMAX
 10
665.0000015376081
 20
458.4469695038162
  9
$ORTHOMODE
 70
     1
  9
$REGENMODE
 70
     1
  9
$FILLMODE
 70
     1
  9
$QTEXTMODE
 70
     0
  9
$MIRRTEXT
 70
     1
  9
$LTSCALE
 40
1.0
  9
$ATTMODE
 70
     1
  9
$TEXTSIZE
 40
2.5
  9
$TRACEWID
 40
1.0
  9
$TEXTSTYLE
  7
STANDARD
  9
$CLAYER
  8
0
  9
$CELTYPE
  6
BYLAYER
  9
$CECOLOR
 62
   256
  9
$CELTSCALE
 40
1.0
  9
$DISPSILH
 70
     0
  9
$DIMSCALE
 40
1.0
  9
$DIMASZ
 40
3.0
  9
$DIMEXO
 40
1.0
  9
$DIMDLI
 40
10.0
  9
$DIMRND
 40
0.0
  9
$DIMDLE
 40
0.0
  9
$DIMEXE
 40
1.0
  9
$DIMTP
 40
0.0
  9
$DIMTM
 40
0.0
  9
$DIMTXT
 40
3.2
  9
$DIMCEN
 40
0.0
  9
$DIMTSZ
 40
0.0
  9
$DIMTOL
 70
     0
  9
$DIMLIM
 70
     0
  9
$DIMTIH
 70
     0
  9
$DIMTOH
 70
     0
  9
$DIMSE1
 70
     0
  9
$DIMSE2
 70
     0
  9
$DIMTAD
 70
     3
  9
$DIMZIN
 70
     8
  9
$DIMBLK
  1

  9
$DIMASO
 70
     1
  9
$DIMSHO
 70
     1
  9
$DIMPOST
  1

  9
$DIMAPOST
  1

  9
$DIMALT
 70
     0
  9
$DIMALTD
 70
     2
  9
$DIMALTF
 40
25.4
  9
$DIMLFAC
 40
1.0
  9
$DIMTOFL
 70
     1
  9
$DIMTVP
 40
0.0
  9
$DIMTIX
 70
     0
  9
$DIMSOXD
 70
     0
  9
$DIMSAH
 70
     1
  9
$DIMBLK1
  1
OPEN
  9
$DIMBLK2
  1
OPEN
  9
$DIMSTYLE
  2
STANDARD
  9
$DIMCLRD
 70
     0
  9
$DIMCLRE
 70
     0
  9
$DIMCLRT
 70
     0
  9
$DIMTFAC
 40
1.0
  9
$DIMGAP
 40
1.0
  9
$DIMJUST
 70
     0
  9
$DIMSD1
 70
     0
  9
$DIMSD2
 70
     0
  9
$DIMTOLJ
 70
     1
  9
$DIMTZIN
 70
     0
  9
$DIMALTZ
 70
     0
  9
$DIMALTTZ
 70
     0
  9
$DIMUPT
 70
     0
  9
$DIMDEC
 70
     4
  9
$DIMTDEC
 70
     4
  9
$DIMALTU
 70
     2
  9
$DIMALTTD
 70
     2
  9
$DIMTXSTY
  7
STANDARD
  9
$DIMAUNIT
 70
     0
  9
$DIMADEC
 70
     0
  9
$DIMALTRND
 40
0.0
  9
$DIMAZIN
 70
     0
  9
$DIMDSEP
 70
    46
  9
$DIMATFIT
 70
     3
  9
$DIMFRAC
 70
     0
  9
$DIMLDRBLK
  1
OPEN
  9
$DIMLUNIT
 70
     2
  9
$DIMLWD
 70
    -2
  9
$DIMLWE
 70
    -2
  9
$DIMTMOVE
 70
     0
  9
$LUNITS
 70
     2
  9
$LUPREC
 70
     4
  9
$SKETCHINC
 40
1.0
  9
$FILLETRAD
 40
0.0
  9
$AUNITS
 70
     0
  9
$AUPREC
 70
     0
  9
$MENU
  1
.
  9
$ELEVATION
 40
0.0
  9
$PELEVATION
 40
0.0
  9
$THICKNESS
 40
0.0
  9
$LIMCHECK
 70
     0
  9
$CHAMFERA
 40
10.0
  9
$CHAMFERB
 40
10.0
  9
$CHAMFERC
 40
20.0
  9
$CHAMFERD
 40
0.0
  9
$SKPOLY
 70
     0
  9
$TDCREATE
 40
2454875.623199595
  9
$TDUCREATE
 40
2454875.248199595
  9
$TDUPDATE
 40
2457192.687365857
  9
$TDUUPDATE
 40
2457192.312365857
  9
$TDINDWG
 40
0.0045476157
  9
$TDUSRTIMER
 40
0.0045476042
  9
$USRTIMER
 70
     1
  9
$ANGBASE
 50
0.0
  9
$ANGDIR
 70
     0
  9
$PDMODE
 70
     0
  9
$PDSIZE
 40
0.0
  9
$PLINEWID
 40
0.0
  9
$SPLFRAME
 70
     0
  9
$SPLINETYPE
 70
     6
  9
$SPLINESEGS
 70
     8
  9
$HANDSEED
  5
77E
  9
$SURFTAB1
 70
     6
  9
$SURFTAB2
 70
     6
  9
$SURFTYPE
 70
     6
  9
$SURFU
 70
     6
  9
$SURFV
 70
     6
  9
$UCSBASE
  2

  9
$UCSNAME
  2

  9
$UCSORG
 10
0.0
 20
0.0
 30
0.0
  9
$UCSXDIR
 10
1.0
 20
0.0
 30
0.0
  9
$UCSYDIR
 10
0.0
 20
1.0
 30
0.0
  9
$UCSORTHOREF
  2

  9
$UCSORTHOVIEW
 70
     0
  9
$UCSORGTOP
 10
0.0
 20
0.0
 30
0.0
  9
$UCSORGBOTTOM
 10
0.0
 20
0.0
 30
0.0
  9
$UCSORGLEFT
 10
0.0
 20
0.0
 30
0.0
  9
$UCSORGRIGHT
 10
0.0
 20
0.0
 30
0.0
  9
$UCSORGFRONT
 10
0.0
 20
0.0
 30
0.0
  9
$UCSORGBACK
 10
0.0
 20
0.0
 30
0.0
  9
$PUCSBASE
  2

  9
$PUCSNAME
  2

  9
$PUCSORG
 10
0.0
 20
0.0
 30
0.0
  9
$PUCSXDIR
 10
1.0
 20
0.0
 30
0.0
  9
$PUCSYDIR
 10
0.0
 20
1.0
 30
0.0
  9
$PUCSORTHOREF
  2

  9
$PUCSORTHOVIEW
 70
     0
  9
$PUCSORGTOP
 10
0.0
 20
0.0
 30
0.0
  9
$PUCSORGBOTTOM
 10
0.0
 20
0.0
 30
0.0
  9
$PUCSORGLEFT
 10
0.0
 20
0.0
 30
0.0
  9
$PUCSORGRIGHT
 10
0.0
 20
0.0
 30
0.0
  9
$PUCSORGFRONT
 10
0.0
 20
0.0
 30
0.0
  9
$PUCSORGBACK
 10
0.0
 20
0.0
 30
0.0
  9
$USERI1
 70
     0
  9
$USERI2
 70
     0
  9
$USERI3
 70
     0
  9
$USERI4
 70
     0
  9
$USERI5
 70
     0
  9
$USERR1
 40
0.0
  9
$USERR2
 40
0.0
  9
$USERR3
 40
0.0
  9
$USERR4
 40
0.0
  9
$USERR5
 40
0.0
  9
$WORLDVIEW
 70
     1
  9
$SHADEDGE
 70
     3
  9
$SHADEDIF
 70
    70
  9
$TILEMODE
 70
     1
  9
$MAXACTVP
 70
    48
  9
$PINSBASE
 10
0.0
 20
0.0
 30
0.0
  9
$PLIMCHECK
 70
     0
  9
$PEXTMIN
 10
1.000000000000000E+20
 20
1.000000000000000E+20
 30
1.000000000000000E+20
  9
$PEXTMAX
 10
-1.000000000000000E+20
 20
-1.000000000000000E+20
 30
-1.000000000000000E+20
  9
$PLIMMIN
 10
0.0
 20
0.0
  9
$PLIMMAX
 10
420.0
 20
297.0
  9
$UNITMODE
 70
     0
  9
$VISRETAIN
 70
     1
  9
$PLINEGEN
 70
     0
  9
$PSLTSCALE
 70
     1
  9
$TREEDEPTH
 70
  3020
  9
$CMLSTYLE
  2
STANDARD
  9
$CMLJUST
 70
     0
  9
$CMLSCALE
 40
20.0
  9
$PROXYGRAPHICS
 70
     1
  9
$MEASUREMENT
 70
     0
  9
$CELWEIGHT
370
    -1
  9
$ENDCAPS
280
     0
  9
$JOINSTYLE
280
     0
  9
$LWDISPLAY
290
     0
  9
$INSUNITS
 70
     0
  9
$HYPERLINKBASE
  1

  9
$STYLESHEET
  1

  9
$XEDIT
290
     1
  9
$CEPSNTYPE
380
     0
  9
$PSTYLEMODE
290
     1
  9
$FINGERPRINTGUID
  2
{9D927403-00A1-4C21-862B-86944628382B}
  9
$VERSIONGUID
  2
{3350CFD9-D46D-4094-A79D-FCE6E7DDC248}
  9
$EXTNAMES
290
     1
  9
$PSVPSCALE
 40
0.0
  9
$OLESTARTUP
290
     0
  0
ENDSEC
  0
SECTION
  2
CLASSES
  0
CLASS
  1
ACDBDICTIONARYWDFLT
  2
AcDbDictionaryWithDefault
  3
ObjectDBX Classes
 90
        0
280
     0
281
     0
  0
CLASS
  1
ACDBPLACEHOLDER
  2
AcDbPlaceHolder
  3
ObjectDBX Classes
 90
        0
280
     0
281
     0
  0
CLASS
  1
LAYOUT
  2
AcDbLayout
  3
ObjectDBX Classes
 90
        0
280
     0
281
     0
  0
CLASS
  1
MATERIAL
  2
AcDbMaterial
  3
ObjectDBX Classes
 90
     1153
280
     0
281
     0
  0
CLASS
  1
VISUALSTYLE
  2
AcDbVisualStyle
  3
ObjectDBX Classes
 90
     4095
280
     0
281
     0
  0
CLASS
  1
TABLESTYLE
  2
AcDbTableStyle
  3
ObjectDBX Classes
 90
     4095
280
     0
281
     0
  0
CLASS
  1
SCALE
  2
AcDbScale
  3
ObjectDBX Classes
 90
     1153
280
     0
281
     0
  0
CLASS
  1
MLEADERSTYLE
  2
AcDbMLeaderStyle
  3
ACDB_MLEADERSTYLE_CLASS
 90
     4095
280
     0
281
     0
  0
CLASS
  1
ACDBSECTIONVIEWSTYLE
  2
AcDbSectionViewStyle
  3
ObjectDBX Classes
 90
     1025
280
     0
281
     0
  0
CLASS
  1
ACDBDETAILVIEWSTYLE
  2
AcDbDetailViewStyle
  3
ObjectDBX Classes
 90
     1025
280
     0
281
     0
  0
CLASS
  1
DICTIONARYVAR
  2
AcDbDictionaryVar
  3
ObjectDBX Classes
 90
        0
280
     0
281
     0
  0
CLASS
  1
CELLSTYLEMAP
  2
AcDbCellStyleMap
  3
ObjectDBX Classes
 90
     1152
280
     0
281
     0
  0
ENDSEC
  0
SECTION
  2
TABLES
  0
TABLE
  2
VPORT
  5
8
330
0
100
AcDbSymbolTable
 70
     1
  0
VPORT
  5
6C8
330
8
100
AcDbSymbolTableRecord
100
AcDbViewportTableRecord
  2
*ACTIVE
 70
     0
 10
0.0
 20
0.0
 11
1.0
 21
1.0
 12
505.4211360896061
 22
233.3682279996785
 13
0.0
 23
0.0
 14
10.0
 24
10.0
 15
10.0
 25
10.0
 16
0.0
 26
0.0
 36
1.0
 17
0.0
 27
0.0
 37
0.0
 40
450.1551444910642
 41
2.35006605019815
 42
50.0
 43
0.0
 44
0.0
 50
0.0
 51
0.0
 71
     0
 72
   100
 73
     1
 74
     0
 75
     0
 76
     0
 77
     0
 78
     0
281
     0
 65
     1
110
0.0
120
0.0
130
0.0
111
1.0
121
0.0
131
0.0
112
0.0
122
1.0
132
0.0
 79
     0
146
0.0
1001
ACAD_NAV_VCDISPLAY
1070
     3
  0
ENDTAB
  0
TABLE
  2
LTYPE
  5
5
330
0
100
AcDbSymbolTable
 70
     4
  0
LTYPE
  5
12
330
5
100
AcDbSymbolTableRecord
100
AcDbLinetypeTableRecord
  2
BYBLOCK
 70
     0
  3

 72
    65
 73
     0
 40
0.0
  0
LTYPE
  5
13
330
5
100
AcDbSymbolTableRecord
100
AcDbLinetypeTableRecord
  2
BYLAYER
 70
     0
  3

 72
    65
 73
     0
 40
0.0
  0
LTYPE
  5
14
330
5
100
AcDbSymbolTableRecord
100
AcDbLinetypeTableRecord
  2
CONTINUOUS
 70
     0
  3
Solid line
 72
    65
 73
     0
 40
0.0
  0
LTYPE
  5
4B
330
5
100
AcDbSymbolTableRecord
100
AcDbLinetypeTableRecord
  2
DASHED
 70
     0
  3
Dashed __ __ __ __ __ __ __ __ __ __ __ __ __ _
 72
    65
 73
     2
 40
19.04999999999999
 49
12.7
 74
     0
 49
-6.349999999999998
 74
     0
  0
LTYPE
  5
4C
330
5
100
AcDbSymbolTableRecord
100
AcDbLinetypeTableRecord
  2
CENTER
 70
     0
  3
Center ____ _ ____ _ ____ _ ____ _ ____ _ ____
 72
    65
 73
     4
 40
50.8
 49
31.75
 74
     0
 49
-6.349999999999998
 74
     0
 49
6.349999999999998
 74
     0
 49
-6.349999999999998
 74
     0
  0
LTYPE
  5
4D
330
5
100
AcDbSymbolTableRecord
100
AcDbLinetypeTableRecord
  2
PHANTOM
 70
     0
  3
Phantom ______  __  __  ______  __  __  ______
 72
    65
 73
     6
 40
63.5
 49
31.75
 74
     0
 49
-6.349999999999998
 74
     0
 49
6.349999999999998
 74
     0
 49
-6.349999999999998
 74
     0
 49
6.349999999999998
 74
     0
 49
-6.349999999999998
 74
     0
  0
ENDTAB
  0
TABLE
  2
LAYER
  5
2
330
0
100
AcDbSymbolTable
 70
     8
  0
LAYER
  5
E
102
{ACAD_XDICTIONARY
360
722
102
}
330
2
100
AcDbSymbolTableRecord
100
AcDbLayerTableRecord
  2
0
 70
     0
 62
     7
  6
CONTINUOUS
370
    -3
390
6D1
  0
LAYER
  5
4E
102
{ACAD_XDICTIONARY
360
724
102
}
330
2
100
AcDbSymbolTableRecord
100
AcDbLayerTableRecord
  2
4
 70
     0
 62
     1
  6
CENTER
370
    -3
390
6D1
  0
LAYER
  5
4F
102
{ACAD_XDICTIONARY
360
726
102
}
330
2
100
AcDbSymbolTableRecord
100
AcDbLayerTableRecord
  2
5
 70
     0
 62
     6
  6
PHANTOM
370
    -3
390
6D1
  0
LAYER
  5
50
102
{ACAD_XDICTIONARY
360
728
102
}
330
2
100
AcDbSymbolTableRecord
100
AcDbLayerTableRecord
  2
1
 70
     0
 62
     7
  6
CONTINUOUS
370
    -3
390
6D1
  0
LAYER
  5
51
102
{ACAD_XDICTIONARY
360
72A
102
}
330
2
100
AcDbSymbolTableRecord
100
AcDbLayerTableRecord
  2
2
 70
     0
 62
     4
  6
CONTINUOUS
370
    -3
390
6D1
  0
LAYER
  5
52
102
{ACAD_XDICTIONARY
360
72C
102
}
330
2
100
AcDbSymbolTableRecord
100
AcDbLayerTableRecord
  2
3
 70
     0
 62
     2
  6
DASHED
370
    -3
390
6D1
  0
LAYER
  5
53
102
{ACAD_XDICTIONARY
360
72E
102
}
330
2
100
AcDbSymbolTableRecord
100
AcDbLayerTableRecord
  2
6
 70
     0
 62
     5
  6
CONTINUOUS
370
    -3
390
6D1
  0
LAYER
  5
54
102
{ACAD_XDICTIONARY
360
730
102
}
330
2
100
AcDbSymbolTableRecord
100
AcDbLayerTableRecord
  2
7
 70
     0
 62
     3
  6
CONTINUOUS
370
    -3
390
6D1
  0
ENDTAB
  0
TABLE
  2
STYLE
  5
3
330
0
100
AcDbSymbolTable
 70
     1
  0
STYLE
  5
F
330
3
100
AcDbSymbolTableRecord
100
AcDbTextStyleTableRecord
  2
STANDARD
 70
     0
 40
0.0
 41
1.0
 50
0.0
 71
     0
 42
2.5
  3
simplex.shx
  4

  0
ENDTAB
  0
TABLE
  2
VIEW
  5
6
330
0
100
AcDbSymbolTable
 70
     0
  0
ENDTAB
  0
TABLE
  2
UCS
  5
7
330
0
100
AcDbSymbolTable
 70
     0
  0
ENDTAB
  0
TABLE
  2
APPID
  5
9
330
0
100
AcDbSymbolTable
 70
     5
  0
APPID
  5
10
330
9
100
AcDbSymbolTableRecord
100
AcDbRegAppTableRecord
  2
ACAD
 70
     0
  0
APPID
  5
3E
330
9
100
AcDbSymbolTableRecord
100
AcDbRegAppTableRecord
  2
CONTENTTABDATA
 70
     0
  0
APPID
  5
3F
330
9
100
AcDbSymbolTableRecord
100
AcDbRegAppTableRecord
  2
CONTENTCURRENTTAB
 70
     0
  0
APPID
  5
73C
330
9
100
AcDbSymbolTableRecord
100
AcDbRegAppTableRecord
  2
ACAD_NAV_VCDISPLAY
 70
     0
  0
APPID
  5
775
330
9
100
AcDbSymbolTableRecord
100
AcDbRegAppTableRecord
  2
ACAD_MLEADERVER
 70
     0
  0
ENDTAB
  0
TABLE
  2
DIMSTYLE
  5
A
330
0
100
AcDbSymbolTable
 70
     1
100
AcDbDimStyleTable
 71
     0
  0
DIMSTYLE
105
1D
330
A
100
AcDbSymbolTableRecord
100
AcDbDimStyleTableRecord
  2
STANDARD
 70
     0
 41
3.0
 42
1.0
 43
10.0
 44
1.0
 73
     0
 74
     0
 77
     3
 78
     8
140
3.2
141
0.0
147
1.0
172
     1
173
     1
340
F
341
2E
343
2E
344
2E
  0
ENDTAB
  0
TABLE
  2
BLOCK_RECORD
  5
1
330
0
100
AcDbSymbolTable
 70
     1
  0
BLOCK_RECORD
  5
18
102
{ACAD_XDICTIONARY
360
6CB
102
}
330
1
100
AcDbSymbolTableRecord
100
AcDbBlockTableRecord
  2
*MODEL_SPACE
340
71F
  0
BLOCK_RECORD
  5
15
102
{ACAD_XDICTIONARY
360
6C9
102
}
330
1
100
AcDbSymbolTableRecord
100
AcDbBlockTableRecord
  2
*PAPER_SPACE
340
720
  0
BLOCK_RECORD
  5
2E
330
1
100
AcDbSymbolTableRecord
100
AcDbBlockTableRecord
  2
_OPEN
340
0
  0
ENDTAB
  0
ENDSEC
  0
SECTION
  2
BLOCKS
  0
BLOCK
  5
19
330
18
100
AcDbEntity
  8
0
100
AcDbBlockBegin
  2
*MODEL_SPACE
 70
     0
 10
0.0
 20
0.0
 30
0.0
  3
*MODEL_SPACE
  1

  0
ENDBLK
  5
1A
330
18
100
AcDbEntity
  8
0
100
AcDbBlockEnd
  0
BLOCK
  5
16
330
15
100
AcDbEntity
 67
     1
  8
0
100
AcDbBlockBegin
  2
*PAPER_SPACE
 70
     0
 10
0.0
 20
0.0
 30
0.0
  3
*PAPER_SPACE
  1

  0
ENDBLK
  5
17
330
15
100
AcDbEntity
 67
     1
  8
0
100
AcDbBlockEnd
  0
BLOCK
  5
2F
330
2E
100
AcDbEntity
  8
0
100
AcDbBlockBegin
  2
_OPEN
 70
     0
 10
0.0
 20
0.0
 30
0.0
  3
_OPEN
  1

  0
LINE
  5
30
330
2E
100
AcDbEntity
  8
0
  6
ByBlock
 62
     0
100
AcDbLine
 10
-1.0
 20
0.1666666666666666
 30
0.0
 11
0.0
 21
0.0
 31
0.0
  0
LINE
  5
31
330
2E
100
AcDbEntity
  8
0
  6
ByBlock
 62
     0
100
AcDbLine
 10
0.0
 20
0.0
 30
0.0
 11
-1.0
 21
-0.1666666666666666
 31
0.0
  0
LINE
  5
32
330
2E
100
AcDbEntity
  8
0
  6
ByBlock
 62
     0
100
AcDbLine
 10
0.0
 20
0.0
 30
0.0
 11
-1.0
 21
0.0
 31
0.0
  0
ENDBLK
  5
33
330
2E
100
AcDbEntity
  8
0
100
AcDbBlockEnd
  0
ENDSEC
  0
SECTION
  2
ENTITIES
  0
ARC
  5
3AC
330
18
100
AcDbEntity
  8
1
  6
Continuous
100
AcDbCircle
 10
397.7240445376081
 20
133.6563168068465
 30
0.0
 40
150.0
100
AcDbArc
 50
84.103042
 51
95.89695799999999
  0
ARC
  5
3AD
330
18
100
AcDbEntity
  8
1
  6
Continuous
100
AcDbCircle
 10
397.7240445376081
 20
333.6563168068465
 30
0.0
 40
150.0
100
AcDbArc
 50
264.103042
 51
275.896958
  0
LINE
  5
3AE
330
18
100
AcDbEntity
  8
1
  6
Continuous
100
AcDbLine
 10
395.7240445376081
 20
298.4563518068465
 30
0.0
 11
397.7240445376081
 21
300.4563518068465
 31
0.0
  0
LINE
  5
3AF
330
18
100
AcDbEntity
  8
1
  6
Continuous
100
AcDbLine
 10
397.4613025376081
 20
298.4563518068465
 30
0.0
 11
395.461302537608
 21
300.4563518068465
 31
0.0
  0
LINE
  5
3B0
330
18
100
AcDbEntity
  8
1
  6
Continuous
100
AcDbLine
 10
418.7240485376078
 20
285.4563168068466
 30
0.0
 11
376.7240445376081
 21
285.4563168068466
 31
0.0
  0
LINE
  5
3B1
330
18
100
AcDbEntity
  8
1
  6
Continuous
100
AcDbLine
 10
368.0240445376081
 20
300.4563518068465
 30
0.0
 11
427.4240445376078
 21
300.4563518068465
 31
0.0
  0
LINE
  5
3B2
330
18
100
AcDbEntity
  8
1
  6
Continuous
100
AcDbLine
 10
368.0240445376081
 20
298.4563518068465
 30
0.0
 11
427.4240445376078
 21
298.4563518068465
 31
0.0
  0
LINE
  5
3B3
330
18
100
AcDbEntity
  8
1
  6
Continuous
100
AcDbLine
 10
442.7240875376082
 20
310.4563168068465
 30
0.0
 11
352.7240875376081
 21
310.4563168068465
 31
0.0
  0
LINE
  5
3B4
330
18
100
AcDbEntity
  8
1
  6
Continuous
100
AcDbLine
 10
352.7240875376081
 20
313.6563168068466
 30
0.0
 11
442.7240875376082
 21
313.6563168068466
 31
0.0
  0
LINE
  5
3B5
330
18
100
AcDbEntity
  8
1
  6
Continuous
100
AcDbLine
 10
429.1955935376078
 20
303.1390288068465
 30
0.0
 11
366.2283055376079
 21
303.1390288068465
 31
0.0
  0
LINE
  5
3B6
330
18
100
AcDbEntity
  8
4
  6
CENTER
100
AcDbLine
 10
355.7651315376079
 20
233.6563168068466
 30
0.0
 11
439.1239995376079
 21
233.6563168068466
 31
0.0
  0
LINE
  5
3B7
330
18
100
AcDbEntity
  8
1
  6
Continuous
100
AcDbLine
 10
234.680391537608
 20
285.8962978068465
 30
0.0
 11
234.680391537608
 21
233.6563168068466
 31
0.0
  0
LINE
  5
3B8
330
18
100
AcDbEntity
  8
1
  6
Continuous
100
AcDbLine
 10
378.7240445376081
 20
188.4289088068466
 30
0.0
 11
378.7240445376081
 21
278.8837248068466
 31
0.0
  0
LINE
  5
3B9
330
18
100
AcDbEntity
  8
1
  6
Continuous
100
AcDbLine
 10
58.38660053760809
 20
188.4289088068466
 30
0.0
 11
58.38660053760809
 21
278.8837248068466
 31
0.0
  0
LINE
  5
3BA
330
18
100
AcDbEntity
  8
1
  6
Continuous
100
AcDbLine
 10
96.38660053760814
 20
278.8837248068466
 30
0.0
 11
96.38660053760814
 21
188.4289088068466
 31
0.0
  0
ARC
  5
3BB
330
18
100
AcDbEntity
  8
1
  6
Continuous
100
AcDbCircle
 10
221.680391537608
 20
233.6563168068466
 30
0.0
 40
50.0
100
AcDbArc
 50
92.96300399999999
 51
38.182544
  0
ARC
  5
3BC
330
18
100
AcDbEntity
  8
1
  6
Continuous
100
AcDbCircle
 10
221.680391537608
 20
233.6563168068466
 30
0.0
 40
41.5
100
AcDbArc
 50
96.69418199999995
 51
34.451134
  0
ARC
  5
3BD
330
18
100
AcDbEntity
  8
1
  6
Continuous
100
AcDbCircle
 10
421.8994905376079
 20
257.9422238068464
 30
0.0
 40
52.894674
100
AcDbArc
 50
148.6565099999999
 51
183.8477089999999
  0
ARC
  5
3BE
330
18
100
AcDbEntity
  8
1
  6
Continuous
100
AcDbCircle
 10
403.3537215376081
 20
263.3825978068464
 30
0.0
 40
37.129677
100
AcDbArc
 50
147.8317889999999
 51
180.0
  0
LINE
  5
3BF
330
18
100
AcDbEntity
  8
1
  6
Continuous
100
AcDbLine
 10
45.88660053760809
 20
294.4563168068465
 30
0.0
 11
45.88660053760809
 21
254.3868828068466
 31
0.0
  0
LINE
  5
3C0
330
18
100
AcDbEntity
  8
1
  6
Continuous
100
AcDbLine
 10
108.8866005376081
 20
294.4563168068465
 30
0.0
 11
108.8866005376081
 21
254.3927418068466
 31
0.0
  0
LINE
  5
3C1
330
18
100
AcDbEntity
  8
4
  6
CENTER
100
AcDbLine
 10
77.38660053760813
 20
318.6563168068464
 30
0.0
 11
77.38660053760813
 21
178.6563168068463
 31
0.0
  0
LINE
  5
3C2
330
18
100
AcDbEntity
  8
1
  6
Continuous
100
AcDbLine
 10
56.38660053760811
 20
218.6563168068465
 30
0.0
 11
56.38660053760811
 21
294.0563528068465
 31
0.0
  0
LINE
  5
3C3
330
18
100
AcDbEntity
  8
1
  6
Continuous
100
AcDbLine
 10
53.48660053760811
 20
218.6563168068465
 30
0.0
 11
53.48660053760811
 21
294.4563518068464
 31
0.0
  0
LINE
  5
3C4
330
18
100
AcDbEntity
  8
1
  6
Continuous
100
AcDbLine
 10
101.286600537608
 20
218.6563168068465
 30
0.0
 11
101.286600537608
 21
294.4563518068464
 31
0.0
  0
LINE
  5
3C5
330
18
100
AcDbEntity
  8
1
  6
Continuous
100
AcDbLine
 10
98.38660053760813
 20
294.1840338068465
 30
0.0
 11
98.38660053760813
 21
218.6563168068465
 31
0.0
  0
LINE
  5
3C6
330
18
100
AcDbEntity
  8
1
  6
Continuous
100
AcDbLine
 10
207.198075537608
 20
237.5630428068466
 30
0.0
 11
222.9388905376081
 21
298.4563168068465
 31
0.0
  0
LINE
  5
3C7
330
18
100
AcDbEntity
  8
1
  6
Continuous
100
AcDbLine
 10
234.0630295376079
 20
225.1904858068465
 30
0.0
 11
271.5431425376079
 21
280.0111748068465
 31
0.0
  0
LINE
  5
3C8
330
18
100
AcDbEntity
  8
1
  6
Continuous
100
AcDbLine
 10
376.7240445376081
 20
285.2563168068463
 30
0.0
 11
376.7240445376081
 21
218.6563168068465
 31
0.0
  0
LINE
  5
3C9
330
18
100
AcDbEntity
  8
1
  6
Continuous
100
AcDbLine
 10
366.2240445376081
 20
294.4563168068465
 30
0.0
 11
366.2240445376081
 21
254.3927418068466
 31
0.0
  0
LINE
  5
3CA
330
18
100
AcDbEntity
  8
4
  6
CENTER
100
AcDbLine
 10
221.680391537608
 20
178.6563168068463
 30
0.0
 11
221.680391537608
 21
284.7368298068464
 31
0.0
  0
TEXT
  5
3CB
330
18
100
AcDbEntity
  8
4
  6
CENTER
100
AcDbText
 10
23.9795125376081
 20
10.04873680684658
 30
0.0
 40
1.399999999999999
  1
4
100
AcDbText
  0
TEXT
  5
3CC
330
18
100
AcDbEntity
  8
7
  6
Continuous
100
AcDbText
 10
10.00000153760811
 20
25.9999998068466
 30
0.0
 40
3.0
  1
CODE No.9071
100
AcDbText
  0
TEXT
  5
3CD
330
18
100
AcDbEntity
  8
7
  6
Continuous
100
AcDbText
 10
10.00000153760811
 20
17.9999998068466
 30
0.0
 40
3.0
  1
TYPE No.107ZHB
100
AcDbText
  0
TEXT
  5
3CE
330
18
100
AcDbEntity
  8
1
  6
Continuous
100
AcDbText
 10
10.00000153760811
 20
9.999999806846602
 30
0.0
 40
1.399999999999999
  1
LAYER
100
AcDbText
  0
TEXT
  5
3CF
330
18
100
AcDbEntity
  8
2
  6
Continuous
100
AcDbText
 10
19.9795125376081
 20
10.04873680684658
 30
0.0
 40
1.399999999999999
  1
2
100
AcDbText
  0
TEXT
  5
3D0
330
18
100
AcDbEntity
  8
3
  6
DASHED
100
AcDbText
 10
21.97951253760811
 20
10.04873680684658
 30
0.0
 40
1.399999999999999
  1
3
100
AcDbText
  0
TEXT
  5
3D1
330
18
100
AcDbEntity
  8
1
  6
Continuous
100
AcDbText
 10
17.9795125376081
 20
10.04873680684658
 30
0.0
 40
1.399999999999999
  1
1
100
AcDbText
  0
TEXT
  5
3D2
330
18
100
AcDbEntity
  8
5
  6
PHANTOM
100
AcDbText
 10
25.97951253760811
 20
10.04873680684658
 30
0.0
 40
1.399999999999999
  1
5
100
AcDbText
  0
TEXT
  5
3D3
330
18
100
AcDbEntity
  8
6
  6
Continuous
100
AcDbText
 10
27.97951253760811
 20
10.04873680684658
 30
0.0
 40
1.399999999999999
  1
6
100
AcDbText
  0
TEXT
  5
3D4
330
18
100
AcDbEntity
  8
7
  6
Continuous
100
AcDbText
 10
29.97951253760811
 20
10.04873680684658
 30
0.0
 40
1.399999999999999
  1
7
100
AcDbText
  0
ARC
  5
3D5
330
18
100
AcDbEntity
  8
1
  6
Continuous
100
AcDbCircle
 10
92.38660053760813
 20
188.4289088068466
 30
0.0
 40
4.0
100
AcDbArc
 50
275.896958
 51
0.0
  0
ARC
  5
3D6
330
18
100
AcDbEntity
  8
1
  6
Continuous
100
AcDbCircle
 10
62.38660053760811
 20
188.4289088068466
 30
0.0
 40
4.0
100
AcDbArc
 50
180.0
 51
264.103042
  0
ARC
  5
3D7
330
18
100
AcDbEntity
  8
1
  6
Continuous
100
AcDbCircle
 10
77.38660053760813
 20
333.6563168068465
 30
0.0
 40
150.0
100
AcDbArc
 50
264.103042
 51
275.896958
  0
LINE
  5
3D8
330
18
100
AcDbEntity
  8
4
  6
CENTER
100
AcDbLine
 10
119.3455135376081
 20
233.6563168068466
 30
0.0
 11
35.98660053760811
 21
233.6563168068466
 31
0.0
  0
LINE
  5
3D9
330
18
100
AcDbEntity
  8
1
  6
Continuous
100
AcDbLine
 10
56.98660053760811
 20
249.9063168068465
 30
0.0
 11
56.98660053760811
 21
217.4063168068466
 31
0.0
  0
ARC
  5
3DA
330
18
100
AcDbEntity
  8
1
  6
Continuous
100
AcDbCircle
 10
63.2274105376081
 20
233.6563168068466
 30
0.0
 40
16.24081099999999
100
AcDbArc
 50
162.412046
 51
197.5879539999999
  0
LINE
  5
3DB
330
18
100
AcDbEntity
  8
1
  6
Continuous
100
AcDbLine
 10
46.98660053760811
 20
225.1563168068466
 30
0.0
 11
46.98660053760811
 21
242.1563168068466
 31
0.0
  0
LINE
  5
3DC
330
18
100
AcDbEntity
  8
1
  6
Continuous
100
AcDbLine
 10
56.38660053760811
 20
218.6563168068465
 30
0.0
 11
53.48660053760811
 21
218.6563168068465
 31
0.0
  0
LINE
  5
3DD
330
18
100
AcDbEntity
  8
1
  6
Continuous
100
AcDbLine
 10
47.74578953760809
 20
228.7488398068465
 30
0.0
 11
53.48660053760811
 21
228.7488398068465
 31
0.0
  0
LINE
  5
3DE
330
18
100
AcDbEntity
  8
1
  6
Continuous
100
AcDbLine
 10
47.74578953760809
 20
223.8413618068466
 30
0.0
 11
53.48660053760811
 21
223.8413618068466
 31
0.0
  0
LINE
  5
3DF
330
18
100
AcDbEntity
  8
1
  6
Continuous
100
AcDbLine
 10
47.74578953760809
 20
223.8413618068466
 30
0.0
 11
46.98660053760811
 21
225.1563168068466
 31
0.0
  0
ARC
  5
3E0
330
18
100
AcDbEntity
  8
1
  6
Continuous
100
AcDbCircle
 10
51.3314985376081
 20
226.2951008068466
 30
0.0
 40
4.344898999999998
100
AcDbArc
 50
145.615753
 51
205.615753
  0
ARC
  5
3E1
330
18
100
AcDbEntity
  8
1
  6
Continuous
100
AcDbCircle
 10
58.48660053760811
 20
217.4063168068466
 30
0.0
 40
1.5
100
AcDbArc
 50
180.0
 51
266.1774459999999
  0
LINE
  5
3E2
330
18
100
AcDbEntity
  8
1
  6
Continuous
100
AcDbLine
 10
56.38660053760811
 20
227.3063168068465
 30
0.0
 11
56.98660053760811
 21
227.3063168068465
 31
0.0
  0
ARC
  5
3E3
330
18
100
AcDbEntity
  8
1
  6
Continuous
100
AcDbCircle
 10
63.04941853760812
 20
254.3927418068466
 30
0.0
 40
17.162819
100
AcDbArc
 50
180.0
 51
219.519799
  0
ARC
  5
3E4
330
18
100
AcDbEntity
  8
1
  6
Continuous
100
AcDbCircle
 10
51.3314985376081
 20
241.0175328068465
 30
0.0
 40
4.344898999999998
100
AcDbArc
 50
154.3842469999999
 51
214.384247
  0
LINE
  5
3E5
330
18
100
AcDbEntity
  8
1
  6
Continuous
100
AcDbLine
 10
47.74578953760809
 20
238.5637938068466
 30
0.0
 11
53.48660053760811
 21
238.5637938068466
 31
0.0
  0
LINE
  5
3EB
330
18
100
AcDbEntity
  8
1
  6
Continuous
100
AcDbLine
 10
47.74578953760809
 20
243.4712708068465
 30
0.0
 11
53.48660053760811
 21
243.4712708068465
 31
0.0
  0
LINE
  5
3EC
330
18
100
AcDbEntity
  8
1
  6
Continuous
100
AcDbLine
 10
47.74578953760809
 20
243.4712708068465
 30
0.0
 11
46.98660053760811
 21
242.1563168068466
 31
0.0
  0
ARC
  5
3ED
330
18
100
AcDbEntity
  8
1
  6
Continuous
100
AcDbCircle
 10
58.48660053760811
 20
249.9063168068465
 30
0.0
 40
1.5
100
AcDbArc
 50
93.82255399999998
 51
180.0
  0
LINE
  5
3EE
330
18
100
AcDbEntity
  8
1
  6
Continuous
100
AcDbLine
 10
56.38660053760811
 20
240.0063168068466
 30
0.0
 11
56.98660053760811
 21
240.0063168068466
 31
0.0
  0
LINE
  5
3EF
330
18
100
AcDbEntity
  8
1
  6
Continuous
100
AcDbLine
 10
97.78660053760813
 20
249.9063168068465
 30
0.0
 11
97.78660053760813
 21
217.4063168068466
 31
0.0
  0
ARC
  5
3F0
330
18
100
AcDbEntity
  8
1
  6
Continuous
100
AcDbCircle
 10
120.5274325376081
 20
233.6563168068466
 30
0.0
 40
16.24081099999999
100
AcDbArc
 50
162.412046
 51
197.5879539999999
  0
ARC
  5
3F1
330
18
100
AcDbEntity
  8
1
  6
Continuous
100
AcDbCircle
 10
95.04581153760813
 20
233.6563168068466
 30
0.0
 40
16.24081099999999
100
AcDbArc
 50
342.4120459999998
 51
17.587954
  0
LINE
  5
3F2
330
18
100
AcDbEntity
  8
1
  6
Continuous
100
AcDbLine
 10
111.286622537608
 20
225.1563168068466
 30
0.0
 11
111.286622537608
 21
242.1563168068466
 31
0.0
  0
LINE
  5
3F3
330
18
100
AcDbEntity
  8
1
  6
Continuous
100
AcDbLine
 10
112.8486225376079
 20
228.4563168068465
 30
0.0
 11
112.8486225376079
 21
238.8563168068465
 31
0.0
  0
LINE
  5
3F4
330
18
100
AcDbEntity
  8
1
  6
Continuous
100
AcDbLine
 10
112.048622537608
 20
227.6563168068466
 30
0.0
 11
112.048622537608
 21
239.6563168068464
 31
0.0
  0
LINE
  5
3F5
330
18
100
AcDbEntity
  8
1
  6
Continuous
100
AcDbLine
 10
104.286622537608
 20
223.1563168068466
 30
0.0
 11
104.286622537608
 21
244.1563168068466
 31
0.0
  0
LINE
  5
3F6
330
18
100
AcDbEntity
  8
1
  6
Continuous
100
AcDbLine
 10
101.286622537608
 20
223.1563168068466
 30
0.0
 11
104.286622537608
 21
223.1563168068466
 31
0.0
  0
ARC
  5
3F7
330
18
100
AcDbEntity
  8
1
  6
Continuous
100
AcDbCircle
 10
96.2866005376081
 20
217.4063168068466
 30
0.0
 40
1.5
100
AcDbArc
 50
273.822554
 51
0.0
  0
LINE
  5
3F8
330
18
100
AcDbEntity
  8
1
  6
Continuous
100
AcDbLine
 10
101.286600537608
 20
218.6563168068465
 30
0.0
 11
98.38660053760813
 21
218.6563168068465
 31
0.0
  0
LINE
  5
3F9
330
18
100
AcDbEntity
  8
1
  6
Continuous
100
AcDbLine
 10
97.78660053760813
 20
227.3063168068465
 30
0.0
 11
98.38660053760813
 21
227.3063168068465
 31
0.0
  0
LINE
  5
3FA
330
18
100
AcDbEntity
  8
1
  6
Continuous
100
AcDbLine
 10
105.045811537608
 20
228.7488398068465
 30
0.0
 11
110.5274325376081
 21
228.7488398068465
 31
0.0
  0
LINE
  5
3FB
330
18
100
AcDbEntity
  8
1
  6
Continuous
100
AcDbLine
 10
105.045811537608
 20
223.8413618068466
 30
0.0
 11
110.5274325376081
 21
223.8413618068466
 31
0.0
  0
LINE
  5
3FC
330
18
100
AcDbEntity
  8
1
  6
Continuous
100
AcDbLine
 10
105.045811537608
 20
223.8413618068466
 30
0.0
 11
104.286622537608
 21
225.1563168068466
 31
0.0
  0
ARC
  5
3FD
330
18
100
AcDbEntity
  8
1
  6
Continuous
100
AcDbCircle
 10
108.6315215376081
 20
226.2951008068466
 30
0.0
 40
4.344898999999998
100
AcDbArc
 50
145.615753
 51
205.615753
  0
LINE
  5
3FE
330
18
100
AcDbEntity
  8
2
  6
Continuous
100
AcDbLine
 10
112.8486225376079
 20
228.6033168068466
 30
0.0
 11
111.286622537608
 21
228.6033168068466
 31
0.0
  0
LINE
  5
3FF
330
18
100
AcDbEntity
  8
1
  6
Continuous
100
AcDbLine
 10
110.5274325376081
 20
223.8413618068466
 30
0.0
 11
111.286622537608
 21
225.1563168068466
 31
0.0
  0
ARC
  5
400
330
18
100
AcDbEntity
  8
1
  6
Continuous
100
AcDbCircle
 10
106.9417235376081
 20
226.2951008068466
 30
0.0
 40
4.344898999999998
100
AcDbArc
 50
334.384247
 51
34.38424699999997
  0
LINE
  5
401
330
18
100
AcDbEntity
  8
1
  6
Continuous
100
AcDbLine
 10
111.286622537608
 20
227.6563168068466
 30
0.0
 11
112.048622537608
 21
227.6563168068466
 31
0.0
  0
LINE
  5
402
330
18
100
AcDbEntity
  8
1
  6
Continuous
100
AcDbLine
 10
112.048622537608
 20
227.6563168068466
 30
0.0
 11
112.8486225376079
 21
228.4563168068465
 31
0.0
  0
ARC
  5
403
330
18
100
AcDbEntity
  8
1
  6
Continuous
100
AcDbCircle
 10
96.2866005376081
 20
249.9063168068465
 30
0.0
 40
1.5
100
AcDbArc
 50
0.0
 51
86.17744600000001
  0
ARC
  5
404
330
18
100
AcDbEntity
  8
1
  6
Continuous
100
AcDbCircle
 10
91.72378153760814
 20
254.3927418068466
 30
0.0
 40
17.162819
100
AcDbArc
 50
317.0525379999999
 51
0.0
  0
LINE
  5
405
330
18
100
AcDbEntity
  8
1
  6
Continuous
100
AcDbLine
 10
104.286622537608
 20
233.6563168068466
 30
0.0
 11
101.286600537608
 21
230.6562948068466
 31
0.0
  0
LINE
  5
406
330
18
100
AcDbEntity
  8
1
  6
Continuous
100
AcDbLine
 10
104.286622537608
 20
236.6563388068466
 30
0.0
 11
101.286600537608
 21
233.6563168068466
 31
0.0
  0
LINE
  5
407
330
18
100
AcDbEntity
  8
1
  6
Continuous
100
AcDbLine
 10
101.286600537608
 20
244.1563168068466
 30
0.0
 11
104.286622537608
 21
244.1563168068466
 31
0.0
  0
LINE
  5
408
330
18
100
AcDbEntity
  8
1
  6
Continuous
100
AcDbLine
 10
97.78660053760813
 20
240.0063168068466
 30
0.0
 11
98.38660053760813
 21
240.0063168068466
 31
0.0
  0
ARC
  5
409
330
18
100
AcDbEntity
  8
1
  6
Continuous
100
AcDbCircle
 10
108.6315215376081
 20
241.0175328068465
 30
0.0
 40
4.344898999999998
100
AcDbArc
 50
154.3842469999999
 51
214.384247
  0
ARC
  5
40A
330
18
100
AcDbEntity
  8
1
  6
Continuous
100
AcDbCircle
 10
106.9417235376081
 20
241.0175328068465
 30
0.0
 40
4.344898999999998
100
AcDbArc
 50
325.6157529999998
 51
25.615753
  0
LINE
  5
40B
330
18
100
AcDbEntity
  8
1
  6
Continuous
100
AcDbLine
 10
105.045811537608
 20
238.5637938068466
 30
0.0
 11
110.5274325376081
 21
238.5637938068466
 31
0.0
  0
LINE
  5
40C
330
18
100
AcDbEntity
  8
2
  6
Continuous
100
AcDbLine
 10
112.8486225376079
 20
238.7093168068465
 30
0.0
 11
111.286622537608
 21
238.7093168068465
 31
0.0
  0
LINE
  5
40D
330
18
100
AcDbEntity
  8
1
  6
Continuous
100
AcDbLine
 10
111.286622537608
 20
239.6563168068464
 30
0.0
 11
112.048622537608
 21
239.6563168068464
 31
0.0
  0
LINE
  5
40E
330
18
100
AcDbEntity
  8
1
  6
Continuous
100
AcDbLine
 10
112.048622537608
 20
239.6563168068464
 30
0.0
 11
112.8486225376079
 21
238.8563168068465
 31
0.0
  0
LINE
  5
40F
330
18
100
AcDbEntity
  8
1
  6
Continuous
100
AcDbLine
 10
105.045811537608
 20
243.4712708068465
 30
0.0
 11
110.5274325376081
 21
243.4712708068465
 31
0.0
  0
LINE
  5
410
330
18
100
AcDbEntity
  8
1
  6
Continuous
100
AcDbLine
 10
105.045811537608
 20
243.4712708068465
 30
0.0
 11
104.286622537608
 21
242.1563168068466
 31
0.0
  0
LINE
  5
411
330
18
100
AcDbEntity
  8
1
  6
Continuous
100
AcDbLine
 10
110.5274325376081
 20
243.4712708068465
 30
0.0
 11
111.286622537608
 21
242.1563168068466
 31
0.0
  0
ARC
  5
412
330
18
100
AcDbEntity
  8
1
  6
Continuous
100
AcDbCircle
 10
121.680391537608
 20
89.14360580684663
 30
0.0
 40
150.0
100
AcDbArc
 50
354.103042
 51
5.896957999999998
  0
ARC
  5
413
330
18
100
AcDbEntity
  8
1
  6
Continuous
100
AcDbCircle
 10
321.6803915376079
 20
89.14360580684663
 30
0.0
 40
150.0
100
AcDbArc
 50
174.103042
 51
185.896958
  0
ARC
  5
414
330
18
100
AcDbEntity
  8
1
  6
Continuous
100
AcDbCircle
 10
258.680391537608
 20
89.14360580684663
 30
0.0
 40
18.8
100
AcDbArc
 50
311.373699
 51
49.46272100000001
  0
ARC
  5
415
330
18
100
AcDbEntity
  8
1
  6
Continuous
100
AcDbCircle
 10
258.680391537608
 20
89.14360580684663
 30
0.0
 40
26.8
100
AcDbArc
 50
225.1499729999999
 51
134.850027
  0
ARC
  5
416
330
18
100
AcDbEntity
  8
1
  6
Continuous
100
AcDbCircle
 10
258.680391537608
 20
89.14360580684663
 30
0.0
 40
28.6
100
AcDbArc
 50
233.6226389999999
 51
126.3773609999997
  0
ARC
  5
417
330
18
100
AcDbEntity
  8
1
  6
Continuous
100
AcDbCircle
 10
258.680391537608
 20
89.14360580684663
 30
0.0
 40
40.017087
100
AcDbArc
 50
224.586148
 51
135.413852
  0
ARC
  5
418
330
18
100
AcDbEntity
  8
1
  6
Continuous
100
AcDbCircle
 10
258.680391537608
 20
89.14360580684663
 30
0.0
 40
31.5
100
AcDbArc
 50
233.6226389999999
 51
126.3773609999997
  0
LINE
  5
419
330
18
100
AcDbEntity
  8
4
  6
CENTER
100
AcDbLine
 10
221.680391537608
 20
40.58862680684661
 30
0.0
 11
221.680391537608
 21
138.3436058068465
 31
0.0
  0
ARC
  5
41A
330
18
100
AcDbEntity
  8
1
  6
Continuous
100
AcDbCircle
 10
741.8803915376081
 20
89.14360580684663
 30
0.0
 40
439.0
100
AcDbArc
 50
177.0531969999999
 51
182.9468029999999
  0
LINE
  5
41B
330
18
100
AcDbEntity
  8
4
  6
CENTER
100
AcDbLine
 10
258.680391537608
 20
40.58862680684661
 30
0.0
 11
258.680391537608
 21
138.3436058068465
 31
0.0
  0
LINE
  5
41C
330
18
100
AcDbEntity
  8
4
  6
CENTER
100
AcDbLine
 10
166.6803915376079
 20
89.14360580684663
 30
0.0
 11
307.880391537608
 21
89.14360580684663
 31
0.0
  0
ARC
  5
41D
330
18
100
AcDbEntity
  8
1
  6
Continuous
100
AcDbCircle
 10
258.680391537608
 20
-394.0563941931534
 30
0.0
 40
439.0
100
AcDbArc
 50
87.05226800000001
 51
92.94680300000001
  0
LINE
  5
41E
330
18
100
AcDbEntity
  8
1
  6
Continuous
100
AcDbLine
 10
205.430391537608
 20
68.7436058068466
 30
0.0
 11
237.930391537608
 21
68.7436058068466
 31
0.0
  0
LINE
  5
41F
330
18
100
AcDbEntity
  8
1
  6
Continuous
100
AcDbLine
 10
266.9077995376081
 20
70.14360580684661
 30
0.0
 11
176.452983537608
 21
70.14360580684661
 31
0.0
  0
LINE
  5
420
330
18
100
AcDbEntity
  8
1
  6
Continuous
100
AcDbLine
 10
206.680391537608
 20
65.2436058068466
 30
0.0
 11
235.549460537608
 21
65.2436058068466
 31
0.0
  0
LINE
  5
421
330
18
100
AcDbEntity
  8
1
  6
Continuous
100
AcDbLine
 10
235.549460537608
 20
68.1436058068466
 30
0.0
 11
206.680391537608
 21
68.1436058068466
 31
0.0
  0
ARC
  5
422
330
18
100
AcDbEntity
  8
1
  6
Continuous
100
AcDbCircle
 10
176.452983537608
 20
74.14360580684662
 30
0.0
 40
4.0
100
AcDbArc
 50
185.896958
 51
270.0
  0
ARC
  5
423
330
18
100
AcDbEntity
  8
1
  6
Continuous
100
AcDbCircle
 10
205.430391537608
 20
70.2436058068466
 30
0.0
 40
1.5
100
AcDbArc
 50
183.8225539999998
 51
270.0
  0
LINE
  5
424
330
18
100
AcDbEntity
  8
1
  6
Continuous
100
AcDbLine
 10
206.680391537608
 20
65.2436058068466
 30
0.0
 11
206.680391537608
 21
68.1436058068466
 31
0.0
  0
LINE
  5
425
330
18
100
AcDbEntity
  8
1
  6
Continuous
100
AcDbLine
 10
213.180391537608
 20
58.74360580684661
 30
0.0
 11
213.180391537608
 21
65.2436058068466
 31
0.0
  0
LINE
  5
426
330
18
100
AcDbEntity
  8
1
  6
Continuous
100
AcDbLine
 10
221.680391537608
 20
65.2436058068466
 30
0.0
 11
221.680391537608
 21
59.5027948068466
 31
0.0
  0
LINE
  5
427
330
18
100
AcDbEntity
  8
1
  6
Continuous
100
AcDbLine
 10
230.180391537608
 20
58.74360580684661
 30
0.0
 11
230.180391537608
 21
65.2436058068466
 31
0.0
  0
LINE
  5
428
330
18
100
AcDbEntity
  8
4
  6
CENTER
100
AcDbLine
 10
223.180391537608
 20
61.8936058068466
 30
0.0
 11
223.180391537608
 21
45.3936058068466
 31
0.0
  0
ARC
  5
429
330
18
100
AcDbEntity
  8
1
  6
Continuous
100
AcDbCircle
 10
225.930391537608
 20
71.01911180684658
 30
0.0
 40
12.275507
100
AcDbArc
 50
249.7438419999999
 51
290.256158
  0
LINE
  5
42A
330
18
100
AcDbEntity
  8
1
  6
Continuous
100
AcDbLine
 10
213.180391537608
 20
58.74360580684661
 30
0.0
 11
230.180391537608
 21
58.74360580684661
 31
0.0
  0
ARC
  5
42B
330
18
100
AcDbEntity
  8
1
  6
Continuous
100
AcDbCircle
 10
225.9015075376081
 20
271.3335678068466
 30
0.0
 40
227.1999999999999
100
AcDbArc
 50
269.462219
 51
272.575759
  0
LINE
  5
42C
330
18
100
AcDbEntity
  8
4
  6
CENTER
100
AcDbLine
 10
214.930391537608
 20
53.6436058068466
 30
0.0
 11
231.430391537608
 21
53.6436058068466
 31
0.0
  0
ARC
  5
42D
330
18
100
AcDbEntity
  8
1
  6
Continuous
100
AcDbCircle
 10
223.180391537608
 20
53.6436058068466
 30
0.0
 40
5.25
100
AcDbArc
 50
103.7291326754129
 51
75.13563399999998
  0
ARC
  5
42E
330
18
100
AcDbEntity
  8
1
  6
Continuous
100
AcDbCircle
 10
223.769028537608
 20
54.23224180684659
 30
0.0
 40
10.08866599999998
100
AcDbArc
 50
180.0003209999998
 51
270.0
  0
ARC
  5
42F
330
18
100
AcDbEntity
  8
1
  6
Continuous
100
AcDbCircle
 10
217.430391537608
 20
71.01911180684658
 30
0.0
 40
12.275507
100
AcDbArc
 50
249.7438419999999
 51
290.256158
  0
ARC
  5
430
330
18
100
AcDbEntity
  8
1
  6
Continuous
100
AcDbCircle
 10
440.8703535376078
 20
56.36472180684659
 30
0.0
 40
227.1999999999999
100
AcDbArc
 50
179.400077
 51
180.5377809999999
  0
ARC
  5
436
330
18
100
AcDbEntity
  8
1
  6
Continuous
100
AcDbCircle
 10
235.549460537608
 20
57.7436058068466
 30
0.0
 40
10.4
100
AcDbArc
 50
53.62263899999999
 51
90.0
  0
LINE
  5
437
330
18
100
AcDbEntity
  8
1
  6
Continuous
100
AcDbLine
 10
215.3303915376081
 20
68.1436058068466
 30
0.0
 11
215.3303915376081
 21
68.7436058068466
 31
0.0
  0
LINE
  5
438
330
18
100
AcDbEntity
  8
1
  6
Continuous
100
AcDbLine
 10
228.030391537608
 20
68.1436058068466
 30
0.0
 11
228.030391537608
 21
68.7436058068466
 31
0.0
  0
ARC
  5
439
330
18
100
AcDbEntity
  8
1
  6
Continuous
100
AcDbCircle
 10
237.930391537608
 20
70.2436058068466
 30
0.0
 40
1.5
100
AcDbArc
 50
270.0
 51
356.1774459999999
  0
ARC
  5
43A
330
18
100
AcDbEntity
  8
1
  6
Continuous
100
AcDbCircle
 10
235.549460537608
 20
57.7436058068466
 30
0.0
 40
7.5
100
AcDbArc
 50
53.62263899999999
 51
90.0
  0
ARC
  5
43B
330
18
100
AcDbEntity
  8
1
  6
Continuous
100
AcDbCircle
 10
266.9077995376081
 20
74.14360580684662
 30
0.0
 40
4.0
100
AcDbArc
 50
270.0
 51
354.103042
  0
ARC
  5
43C
330
18
100
AcDbEntity
  8
1
  6
Continuous
100
AcDbCircle
 10
76.49042953760814
 20
56.36472180684659
 30
0.0
 40
227.1999999999999
100
AcDbArc
 50
359.4622189999999
 51
2.575759
  0
LINE
  5
43D
330
18
100
AcDbEntity
  8
4
  6
CENTER
100
AcDbLine
 10
294.180391537608
 20
61.8936058068466
 30
0.0
 11
294.180391537608
 21
45.3936058068466
 31
0.0
  0
ARC
  5
43E
330
18
100
AcDbEntity
  8
1
  6
Continuous
100
AcDbCircle
 10
293.5917555376079
 20
54.23224180684659
 30
0.0
 40
10.08866599999998
100
AcDbArc
 50
270.0003209999997
 51
0.0
  0
ARC
  5
43F
330
18
100
AcDbEntity
  8
1
  6
Continuous
100
AcDbCircle
 10
291.459275537608
 20
271.3335678068466
 30
0.0
 40
227.1999999999999
100
AcDbArc
 50
267.424241
 51
270.5377809999998
  0
LINE
  5
440
330
18
100
AcDbEntity
  8
4
  6
CENTER
100
AcDbLine
 10
285.930391537608
 20
53.6436058068466
 30
0.0
 11
302.430391537608
 21
53.6436058068466
 31
0.0
  0
CIRCLE
  5
441
330
18
100
AcDbEntity
  8
1
  6
Continuous
100
AcDbCircle
 10
294.180391537608
 20
53.6436058068466
 30
0.0
 40
5.25
  0
ARC
  5
442
330
18
100
AcDbEntity
  8
1
  6
Continuous
100
AcDbCircle
 10
258.680391537608
 20
572.3436058068464
 30
0.0
 40
439.0
100
AcDbArc
 50
267.053197
 51
272.9477319999999
  0
LINE
  5
443
330
18
100
AcDbEntity
  8
4
  6
CENTER
100
AcDbLine
 10
276.6803915376079
 20
233.6563168068466
 30
0.0
 11
166.6803915376079
 21
233.6563168068466
 31
0.0
  0
LINE
  5
444
330
18
100
AcDbEntity
  8
1
  6
Continuous
100
AcDbLine
 10
205.430391537608
 20
109.5436058068466
 30
0.0
 11
237.930391537608
 21
109.5436058068466
 31
0.0
  0
LINE
  5
445
330
18
100
AcDbEntity
  8
1
  6
Continuous
100
AcDbLine
 10
176.452983537608
 20
108.1436058068466
 30
0.0
 11
266.9077995376081
 21
108.1436058068466
 31
0.0
  0
LINE
  5
446
330
18
100
AcDbEntity
  8
1
  6
Continuous
100
AcDbLine
 10
235.549460537608
 20
110.1436058068466
 30
0.0
 11
206.680391537608
 21
110.1436058068466
 31
0.0
  0
LINE
  5
447
330
18
100
AcDbEntity
  8
1
  6
Continuous
100
AcDbLine
 10
235.549460537608
 20
113.0436058068466
 30
0.0
 11
206.680391537608
 21
113.0436058068466
 31
0.0
  0
ARC
  5
448
330
18
100
AcDbEntity
  8
1
  6
Continuous
100
AcDbCircle
 10
176.452983537608
 20
104.1436058068466
 30
0.0
 40
4.0
100
AcDbArc
 50
90.0
 51
174.103042
  0
LINE
  5
449
330
18
100
AcDbEntity
  8
1
  6
Continuous
100
AcDbLine
 10
206.680391537608
 20
113.0436058068466
 30
0.0
 11
206.680391537608
 21
110.1436058068466
 31
0.0
  0
ARC
  5
44A
330
18
100
AcDbEntity
  8
1
  6
Continuous
100
AcDbCircle
 10
205.430391537608
 20
108.0436058068466
 30
0.0
 40
1.5
100
AcDbArc
 50
90.0
 51
176.1774459999998
  0
ARC
  5
44B
330
18
100
AcDbEntity
  8
1
  6
Continuous
100
AcDbCircle
 10
235.549460537608
 20
120.5436058068466
 30
0.0
 40
10.4
100
AcDbArc
 50
270.0
 51
306.377361
  0
LINE
  5
44C
330
18
100
AcDbEntity
  8
1
  6
Continuous
100
AcDbLine
 10
215.680391537608
 20
123.0436058068466
 30
0.0
 11
215.680391537608
 21
123.8056058068466
 31
0.0
  0
LINE
  5
44D
330
18
100
AcDbEntity
  8
1
  6
Continuous
100
AcDbLine
 10
227.680391537608
 20
123.0436058068466
 30
0.0
 11
227.680391537608
 21
123.8056058068466
 31
0.0
  0
LINE
  5
44E
330
18
100
AcDbEntity
  8
2
  6
Continuous
100
AcDbLine
 10
216.627391537608
 20
124.6056058068465
 30
0.0
 11
216.627391537608
 21
123.0436058068466
 31
0.0
  0
LINE
  5
44F
330
18
100
AcDbEntity
  8
2
  6
Continuous
100
AcDbLine
 10
226.733391537608
 20
124.6056058068465
 30
0.0
 11
226.733391537608
 21
123.0436058068466
 31
0.0
  0
ARC
  5
450
330
18
100
AcDbEntity
  8
1
  6
Continuous
100
AcDbCircle
 10
440.8703535376078
 20
121.9224888068465
 30
0.0
 40
227.1999999999999
100
AcDbArc
 50
179.462219
 51
179.7172729999997
  0
LINE
  5
451
330
18
100
AcDbEntity
  8
4
  6
CENTER
100
AcDbLine
 10
223.180391537608
 20
132.8936058068463
 30
0.0
 11
223.180391537608
 21
116.3936058068466
 31
0.0
  0
ARC
  5
452
330
18
100
AcDbEntity
  8
1
  6
Continuous
100
AcDbCircle
 10
223.180391537608
 20
124.6436058068466
 30
0.0
 40
5.25
100
AcDbArc
 50
342.25616
 51
180.414716
  0
ARC
  5
453
330
18
100
AcDbEntity
  8
1
  6
Continuous
100
AcDbCircle
 10
225.930391537608
 20
110.7680988068465
 30
0.0
 40
12.275507
100
AcDbArc
 50
69.743842
 51
110.2561579999999
  0
ARC
  5
454
330
18
100
AcDbEntity
  8
1
  6
Continuous
100
AcDbCircle
 10
225.930391537608
 20
128.3191118068465
 30
0.0
 40
12.275507
100
AcDbArc
 50
249.7438419999999
 51
290.256158
  0
LINE
  5
455
330
18
100
AcDbEntity
  8
1
  6
Continuous
100
AcDbLine
 10
230.180391537608
 20
123.0436058068466
 30
0.0
 11
213.180391537608
 21
123.0436058068466
 31
0.0
  0
LINE
  5
456
330
18
100
AcDbEntity
  8
1
  6
Continuous
100
AcDbLine
 10
230.180391537608
 20
116.0436058068466
 30
0.0
 11
213.180391537608
 21
116.0436058068466
 31
0.0
  0
LINE
  5
457
330
18
100
AcDbEntity
  8
1
  6
Continuous
100
AcDbLine
 10
232.180391537608
 20
116.0436058068466
 30
0.0
 11
211.180391537608
 21
116.0436058068466
 31
0.0
  0
LINE
  5
458
330
18
100
AcDbEntity
  8
1
  6
Continuous
100
AcDbLine
 10
215.3303915376081
 20
109.5436058068466
 30
0.0
 11
215.3303915376081
 21
110.1436058068466
 31
0.0
  0
ARC
  5
459
330
18
100
AcDbEntity
  8
1
  6
Continuous
100
AcDbCircle
 10
217.430391537608
 20
110.7680988068465
 30
0.0
 40
12.275507
100
AcDbArc
 50
69.743842
 51
110.2561579999999
  0
ARC
  5
45A
330
18
100
AcDbEntity
  8
1
  6
Continuous
100
AcDbCircle
 10
217.430391537608
 20
128.3191118068465
 30
0.0
 40
12.275507
100
AcDbArc
 50
249.7438419999999
 51
290.256158
  0
LINE
  5
45B
330
18
100
AcDbEntity
  8
1
  6
Continuous
100
AcDbLine
 10
213.180391537608
 20
116.0436058068466
 30
0.0
 11
213.180391537608
 21
123.0436058068466
 31
0.0
  0
LINE
  5
45C
330
18
100
AcDbEntity
  8
1
  6
Continuous
100
AcDbLine
 10
211.180391537608
 20
116.0436058068466
 30
0.0
 11
211.180391537608
 21
113.0436058068466
 31
0.0
  0
LINE
  5
45D
330
18
100
AcDbEntity
  8
1
  6
Continuous
100
AcDbLine
 10
221.680391537608
 20
116.8027948068464
 30
0.0
 11
221.680391537608
 21
122.2844158068463
 31
0.0
  0
LINE
  5
45E
330
18
100
AcDbEntity
  8
1
  6
Continuous
100
AcDbLine
 10
218.680391537608
 20
116.0436058068466
 30
0.0
 11
221.680391537608
 21
113.0436058068466
 31
0.0
  0
LINE
  5
45F
330
18
100
AcDbEntity
  8
1
  6
Continuous
100
AcDbLine
 10
221.680391537608
 20
116.0436058068466
 30
0.0
 11
224.680391537608
 21
113.0436058068466
 31
0.0
  0
ARC
  5
460
330
18
100
AcDbEntity
  8
1
  6
Continuous
100
AcDbCircle
 10
235.549460537608
 20
120.5436058068466
 30
0.0
 40
7.5
100
AcDbArc
 50
270.0
 51
306.377361
  0
LINE
  5
461
330
18
100
AcDbEntity
  8
1
  6
Continuous
100
AcDbLine
 10
228.030391537608
 20
109.5436058068466
 30
0.0
 11
228.030391537608
 21
110.1436058068466
 31
0.0
  0
ARC
  5
462
330
18
100
AcDbEntity
  8
1
  6
Continuous
100
AcDbCircle
 10
237.930391537608
 20
108.0436058068466
 30
0.0
 40
1.5
100
AcDbArc
 50
3.822553999999998
 51
90.0
  0
LINE
  5
463
330
18
100
AcDbEntity
  8
1
  6
Continuous
100
AcDbLine
 10
230.180391537608
 20
116.0436058068466
 30
0.0
 11
230.180391537608
 21
123.0436058068466
 31
0.0
  0
LINE
  5
464
330
18
100
AcDbEntity
  8
1
  6
Continuous
100
AcDbLine
 10
232.180391537608
 20
116.0436058068466
 30
0.0
 11
232.180391537608
 21
113.0436058068466
 31
0.0
  0
LINE
  5
465
330
18
100
AcDbEntity
  8
1
  6
Continuous
100
AcDbLine
 10
226.880391537608
 20
124.6056058068465
 30
0.0
 11
216.480391537608
 21
124.6056058068465
 31
0.0
  0
LINE
  5
466
330
18
100
AcDbEntity
  8
1
  6
Continuous
100
AcDbLine
 10
227.680391537608
 20
123.8056058068466
 30
0.0
 11
215.680391537608
 21
123.8056058068466
 31
0.0
  0
ARC
  5
467
330
18
100
AcDbEntity
  8
1
  6
Continuous
100
AcDbCircle
 10
225.9015075376081
 20
-93.04635619315339
 30
0.0
 40
227.1999999999999
100
AcDbArc
 50
87.42424099999999
 51
90.537781
  0
LINE
  5
468
330
18
100
AcDbEntity
  8
4
  6
CENTER
100
AcDbLine
 10
214.930391537608
 20
124.6436058068466
 30
0.0
 11
231.430391537608
 21
124.6436058068466
 31
0.0
  0
ARC
  5
469
330
18
100
AcDbEntity
  8
1
  6
Continuous
100
AcDbCircle
 10
223.769027537608
 20
124.0549688068464
 30
0.0
 40
10.08866599999998
100
AcDbArc
 50
90.00032099999998
 51
180.0
  0
LINE
  5
46A
330
18
100
AcDbEntity
  8
1
  6
Continuous
100
AcDbLine
 10
215.680391537608
 20
123.8056058068466
 30
0.0
 11
216.480391537608
 21
124.6056058068465
 31
0.0
  0
LINE
  5
46B
330
18
100
AcDbEntity
  8
1
  6
Continuous
100
AcDbLine
 10
227.680391537608
 20
123.8056058068466
 30
0.0
 11
226.880391537608
 21
124.6056058068465
 31
0.0
  0
ARC
  5
46C
330
18
100
AcDbEntity
  8
1
  6
Continuous
100
AcDbCircle
 10
266.9077995376081
 20
104.1436058068466
 30
0.0
 40
4.0
100
AcDbArc
 50
5.896957999999998
 51
90.0
  0
ARC
  5
46D
330
18
100
AcDbEntity
  8
1
  6
Continuous
100
AcDbCircle
 10
221.680391537608
 20
233.6563168068466
 30
0.0
 40
31.0
100
AcDbArc
 50
104.4431719999999
 51
26.701619
  0
ARC
  5
46E
330
18
100
AcDbEntity
  8
1
  6
Continuous
100
AcDbCircle
 10
221.680391537608
 20
233.6563168068466
 30
0.0
 40
22.1
100
AcDbArc
 50
118.248182
 51
12.89542899999998
  0
ARC
  5
46F
330
18
100
AcDbEntity
  8
1
  6
Continuous
100
AcDbCircle
 10
221.680391537608
 20
233.6563168068466
 30
0.0
 40
15.0
100
AcDbArc
 50
164.903329
 51
325.640148
  0
CIRCLE
  5
470
330
18
100
AcDbEntity
  8
1
  6
Continuous
100
AcDbCircle
 10
195.605313537608
 20
233.6687778068464
 30
0.0
 40
4.024922
  0
LINE
  5
471
330
18
100
AcDbEntity
  8
1
  6
Continuous
100
AcDbLine
 10
199.5803915376081
 20
231.1563168068465
 30
0.0
 11
195.5803915376081
 21
229.1563168068464
 31
0.0
  0
LINE
  5
472
330
18
100
AcDbEntity
  8
1
  6
Continuous
100
AcDbLine
 10
191.5803915376081
 20
231.1563168068465
 30
0.0
 11
195.5803915376081
 21
229.1563168068464
 31
0.0
  0
LINE
  5
473
330
18
100
AcDbEntity
  8
1
  6
Continuous
100
AcDbLine
 10
191.5803915376081
 20
236.1563168068466
 30
0.0
 11
195.5803915376081
 21
238.1563168068466
 31
0.0
  0
LINE
  5
474
330
18
100
AcDbEntity
  8
1
  6
Continuous
100
AcDbLine
 10
191.5803915376081
 20
236.1563168068466
 30
0.0
 11
191.5803915376081
 21
231.1563168068465
 31
0.0
  0
LINE
  5
475
330
18
100
AcDbEntity
  8
1
  6
Continuous
100
AcDbLine
 10
195.5803915376081
 20
238.1563168068466
 30
0.0
 11
199.5803915376081
 21
236.1563168068466
 31
0.0
  0
LINE
  5
476
330
18
100
AcDbEntity
  8
1
  6
Continuous
100
AcDbLine
 10
199.5803915376081
 20
236.1563168068466
 30
0.0
 11
199.5803915376081
 21
231.1563168068465
 31
0.0
  0
LINE
  5
477
330
18
100
AcDbEntity
  8
1
  6
Continuous
100
AcDbLine
 10
247.780391537608
 20
229.1563168068464
 30
0.0
 11
243.780391537608
 21
231.1563168068465
 31
0.0
  0
LINE
  5
478
330
18
100
AcDbEntity
  8
1
  6
Continuous
100
AcDbLine
 10
251.780391537608
 20
231.1563168068465
 30
0.0
 11
247.780391537608
 21
229.1563168068464
 31
0.0
  0
CIRCLE
  5
479
330
18
100
AcDbEntity
  8
1
  6
Continuous
100
AcDbCircle
 10
247.755468537608
 20
233.6438558068465
 30
0.0
 40
4.024922
  0
CIRCLE
  5
47A
330
18
100
AcDbEntity
  8
1
  6
Continuous
100
AcDbCircle
 10
221.680391537608
 20
233.6563168068466
 30
0.0
 40
10.5
  0
CIRCLE
  5
47B
330
18
100
AcDbEntity
  8
1
  6
Continuous
100
AcDbCircle
 10
221.680391537608
 20
233.6563168068466
 30
0.0
 40
6.0
  0
CIRCLE
  5
47C
330
18
100
AcDbEntity
  8
2
  6
Continuous
100
AcDbCircle
 10
221.680391537608
 20
233.6563168068466
 30
0.0
 40
5.052999999999999
  0
LINE
  5
47D
330
18
100
AcDbEntity
  8
1
  6
Continuous
100
AcDbLine
 10
230.180391537608
 20
228.7488398068465
 30
0.0
 11
230.180391537608
 21
238.5637938068466
 31
0.0
  0
LINE
  5
47E
330
18
100
AcDbEntity
  8
1
  6
Continuous
100
AcDbLine
 10
213.180391537608
 20
228.7488398068465
 30
0.0
 11
213.180391537608
 21
238.5637938068466
 31
0.0
  0
CIRCLE
  5
47F
330
18
100
AcDbEntity
  8
1
  6
Continuous
100
AcDbCircle
 10
221.680391537608
 20
233.6563168068466
 30
0.0
 40
8.5
  0
LINE
  5
480
330
18
100
AcDbEntity
  8
1
  6
Continuous
100
AcDbLine
 10
224.180391537608
 20
211.5563168068464
 30
0.0
 11
226.180391537608
 21
207.5563168068464
 31
0.0
  0
LINE
  5
481
330
18
100
AcDbEntity
  8
1
  6
Continuous
100
AcDbLine
 10
217.180391537608
 20
207.5563168068464
 30
0.0
 11
219.180391537608
 21
211.5563168068464
 31
0.0
  0
CIRCLE
  5
482
330
18
100
AcDbEntity
  8
1
  6
Continuous
100
AcDbCircle
 10
221.667929537608
 20
207.5812388068465
 30
0.0
 40
4.024922
  0
LINE
  5
483
330
18
100
AcDbEntity
  8
1
  6
Continuous
100
AcDbLine
 10
224.180391537608
 20
203.5563168068464
 30
0.0
 11
226.180391537608
 21
207.5563168068464
 31
0.0
  0
LINE
  5
484
330
18
100
AcDbEntity
  8
1
  6
Continuous
100
AcDbLine
 10
219.180391537608
 20
203.5563168068464
 30
0.0
 11
217.180391537608
 21
207.5563168068464
 31
0.0
  0
LINE
  5
485
330
18
100
AcDbEntity
  8
1
  6
Continuous
100
AcDbLine
 10
219.180391537608
 20
203.5563168068464
 30
0.0
 11
224.180391537608
 21
203.5563168068464
 31
0.0
  0
LINE
  5
486
330
18
100
AcDbEntity
  8
1
  6
Continuous
100
AcDbLine
 10
230.180391537608
 20
228.7488398068465
 30
0.0
 11
221.680391537608
 21
223.8413618068466
 31
0.0
  0
LINE
  5
487
330
18
100
AcDbEntity
  8
1
  6
Continuous
100
AcDbLine
 10
219.180391537608
 20
211.5563168068464
 30
0.0
 11
224.180391537608
 21
211.5563168068464
 31
0.0
  0
LINE
  5
488
330
18
100
AcDbEntity
  8
1
  6
Continuous
100
AcDbLine
 10
213.180391537608
 20
228.7488398068465
 30
0.0
 11
221.680391537608
 21
223.8413618068466
 31
0.0
  0
LINE
  5
489
330
18
100
AcDbEntity
  8
1
  6
Continuous
100
AcDbLine
 10
221.680391537608
 20
243.4712708068465
 30
0.0
 11
230.180391537608
 21
238.5637938068466
 31
0.0
  0
LINE
  5
48A
330
18
100
AcDbEntity
  8
1
  6
Continuous
100
AcDbLine
 10
221.680391537608
 20
243.4712708068465
 30
0.0
 11
213.180391537608
 21
238.5637938068466
 31
0.0
  0
LINE
  5
48B
330
18
100
AcDbEntity
  8
1
  6
Continuous
100
AcDbLine
 10
251.780391537608
 20
236.1563168068466
 30
0.0
 11
247.780391537608
 21
238.1563168068466
 31
0.0
  0
LINE
  5
48C
330
18
100
AcDbEntity
  8
1
  6
Continuous
100
AcDbLine
 10
243.780391537608
 20
236.1563168068466
 30
0.0
 11
247.780391537608
 21
238.1563168068466
 31
0.0
  0
LINE
  5
48D
330
18
100
AcDbEntity
  8
1
  6
Continuous
100
AcDbLine
 10
243.780391537608
 20
231.1563168068465
 30
0.0
 11
243.780391537608
 21
236.1563168068466
 31
0.0
  0
LINE
  5
48E
330
18
100
AcDbEntity
  8
1
  6
Continuous
100
AcDbLine
 10
251.780391537608
 20
231.1563168068465
 30
0.0
 11
251.780391537608
 21
236.1563168068466
 31
0.0
  0
ARC
  5
48F
330
18
100
AcDbEntity
  8
1
  6
Continuous
100
AcDbCircle
 10
382.7240445376079
 20
188.4289088068466
 30
0.0
 40
4.0
100
AcDbArc
 50
180.0
 51
264.103042
  0
ARC
  5
490
330
18
100
AcDbEntity
  8
1
  6
Continuous
100
AcDbCircle
 10
293.5917555376079
 20
124.0549698068466
 30
0.0
 40
10.08866599999998
100
AcDbArc
 50
0.000321
 51
90.0
  0
CIRCLE
  5
491
330
18
100
AcDbEntity
  8
1
  6
Continuous
100
AcDbCircle
 10
294.180391537608
 20
124.6436058068466
 30
0.0
 40
5.25
  0
LINE
  5
492
330
18
100
AcDbEntity
  8
4
  6
CENTER
100
AcDbLine
 10
294.180391537608
 20
132.8936058068463
 30
0.0
 11
294.180391537608
 21
116.3936058068466
 31
0.0
  0
ARC
  5
493
330
18
100
AcDbEntity
  8
1
  6
Continuous
100
AcDbCircle
 10
291.459275537608
 20
-93.04635619315339
 30
0.0
 40
227.1999999999999
100
AcDbArc
 50
89.46221899999995
 51
92.57575900000002
  0
LINE
  5
494
330
18
100
AcDbEntity
  8
4
  6
CENTER
100
AcDbLine
 10
285.930391537608
 20
124.6436058068466
 30
0.0
 11
302.430391537608
 21
124.6436058068466
 31
0.0
  0
ARC
  5
495
330
18
100
AcDbEntity
  8
1
  6
Continuous
100
AcDbCircle
 10
76.49042953760814
 20
121.9224888068465
 30
0.0
 40
227.1999999999999
100
AcDbArc
 50
357.424241
 51
0.5377810000000001
  0
LINE
  5
496
330
18
100
AcDbEntity
  8
1
  6
Continuous
100
AcDbLine
 10
377.3240445376081
 20
249.9063168068465
 30
0.0
 11
377.3240445376081
 21
217.4063168068466
 31
0.0
  0
ARC
  5
497
330
18
100
AcDbEntity
  8
1
  6
Continuous
100
AcDbCircle
 10
354.5831675376081
 20
233.6563168068466
 30
0.0
 40
16.24081099999999
100
AcDbArc
 50
342.4120459999998
 51
17.587954
  0
ARC
  5
498
330
18
100
AcDbEntity
  8
1
  6
Continuous
100
AcDbCircle
 10
380.0647885376081
 20
233.6563168068466
 30
0.0
 40
16.24081099999999
100
AcDbArc
 50
162.412046
 51
197.5879539999999
  0
LINE
  5
499
330
18
100
AcDbEntity
  8
1
  6
Continuous
100
AcDbLine
 10
363.8239775376079
 20
225.1563168068466
 30
0.0
 11
363.8239775376079
 21
242.1563168068466
 31
0.0
  0
LINE
  5
49A
330
18
100
AcDbEntity
  8
1
  6
Continuous
100
AcDbLine
 10
370.8239775376079
 20
223.1563168068466
 30
0.0
 11
370.8239775376079
 21
242.5535928068466
 31
0.0
  0
LINE
  5
49B
330
18
100
AcDbEntity
  8
1
  6
Continuous
100
AcDbLine
 10
362.2619775376081
 20
228.4563168068465
 30
0.0
 11
362.2619775376081
 21
238.8563168068465
 31
0.0
  0
LINE
  5
49C
330
18
100
AcDbEntity
  8
1
  6
Continuous
100
AcDbLine
 10
363.0619775376079
 20
227.6563168068466
 30
0.0
 11
363.0619775376079
 21
239.6563168068464
 31
0.0
  0
LINE
  5
49D
330
18
100
AcDbEntity
  8
1
  6
Continuous
100
AcDbLine
 10
373.8240445376082
 20
218.6563168068465
 30
0.0
 11
373.8240445376082
 21
232.9098448068466
 31
0.0
  0
LINE
  5
49E
330
18
100
AcDbEntity
  8
1
  6
Continuous
100
AcDbLine
 10
370.0647885376081
 20
228.7488398068465
 30
0.0
 11
364.5831675376081
 21
228.7488398068465
 31
0.0
  0
LINE
  5
49F
330
18
100
AcDbEntity
  8
1
  6
Continuous
100
AcDbLine
 10
370.0647885376081
 20
223.8413618068466
 30
0.0
 11
364.5831675376081
 21
223.8413618068466
 31
0.0
  0
LINE
  5
4A0
330
18
100
AcDbEntity
  8
1
  6
Continuous
100
AcDbLine
 10
364.5831675376081
 20
223.8413618068466
 30
0.0
 11
363.8239775376079
 21
225.1563168068466
 31
0.0
  0
ARC
  5
4A1
330
18
100
AcDbEntity
  8
1
  6
Continuous
100
AcDbCircle
 10
368.1688765376081
 20
226.2951008068466
 30
0.0
 40
4.344898999999998
100
AcDbArc
 50
145.615753
 51
205.615753
  0
LINE
  5
4A2
330
18
100
AcDbEntity
  8
1
  6
Continuous
100
AcDbLine
 10
363.8239775376079
 20
227.6563168068466
 30
0.0
 11
363.0619775376079
 21
227.6563168068466
 31
0.0
  0
LINE
  5
4A3
330
18
100
AcDbEntity
  8
1
  6
Continuous
100
AcDbLine
 10
363.0619775376079
 20
227.6563168068466
 30
0.0
 11
362.2619775376081
 21
228.4563168068465
 31
0.0
  0
LINE
  5
4A4
330
18
100
AcDbEntity
  8
2
  6
Continuous
100
AcDbLine
 10
362.2619775376081
 20
228.6033168068466
 30
0.0
 11
363.8239775376079
 21
228.6033168068466
 31
0.0
  0
ARC
  5
4A5
330
18
100
AcDbEntity
  8
1
  6
Continuous
100
AcDbCircle
 10
378.8240445376081
 20
217.4063168068466
 30
0.0
 40
1.5
100
AcDbArc
 50
180.0
 51
266.1774459999999
  0
LINE
  5
4A6
330
18
100
AcDbEntity
  8
1
  6
Continuous
100
AcDbLine
 10
373.8240005376081
 20
218.6563168068465
 30
0.0
 11
376.7240005376081
 21
218.6563168068465
 31
0.0
  0
LINE
  5
4A7
330
18
100
AcDbEntity
  8
1
  6
Continuous
100
AcDbLine
 10
373.8240445376082
 20
218.6563168068465
 30
0.0
 11
376.7240445376081
 21
218.6563168068465
 31
0.0
  0
LINE
  5
4A8
330
18
100
AcDbEntity
  8
1
  6
Continuous
100
AcDbLine
 10
373.8239775376079
 20
223.1563168068466
 30
0.0
 11
370.8239775376079
 21
223.1563168068466
 31
0.0
  0
LINE
  5
4A9
330
18
100
AcDbEntity
  8
1
  6
Continuous
100
AcDbLine
 10
370.0647885376081
 20
223.8413618068466
 30
0.0
 11
370.8239775376079
 21
225.1563168068466
 31
0.0
  0
ARC
  5
4AA
330
18
100
AcDbEntity
  8
1
  6
Continuous
100
AcDbCircle
 10
366.4790795376079
 20
226.2951008068466
 30
0.0
 40
4.344898999999998
100
AcDbArc
 50
334.384247
 51
34.38424699999997
  0
LINE
  5
4AB
330
18
100
AcDbEntity
  8
1
  6
Continuous
100
AcDbLine
 10
376.7240445376081
 20
227.3063168068465
 30
0.0
 11
377.3240445376081
 21
227.3063168068465
 31
0.0
  0
LINE
  5
4AC
330
18
100
AcDbEntity
  8
1
  6
Continuous
100
AcDbLine
 10
370.0647885376081
 20
243.4712708068465
 30
0.0
 11
364.5831675376081
 21
243.4712708068465
 31
0.0
  0
LINE
  5
4AD
330
18
100
AcDbEntity
  8
1
  6
Continuous
100
AcDbLine
 10
370.0647885376081
 20
238.5637938068466
 30
0.0
 11
364.5831675376081
 21
238.5637938068466
 31
0.0
  0
ARC
  5
4AE
330
18
100
AcDbEntity
  8
1
  6
Continuous
100
AcDbCircle
 10
368.1688765376081
 20
241.0175328068465
 30
0.0
 40
4.344898999999998
100
AcDbArc
 50
154.3842469999999
 51
214.384247
  0
LINE
  5
4AF
330
18
100
AcDbEntity
  8
1
  6
Continuous
100
AcDbLine
 10
363.8239775376079
 20
239.6563168068464
 30
0.0
 11
363.0619775376079
 21
239.6563168068464
 31
0.0
  0
LINE
  5
4B0
330
18
100
AcDbEntity
  8
1
  6
Continuous
100
AcDbLine
 10
363.0619775376079
 20
239.6563168068464
 30
0.0
 11
362.2619775376081
 21
238.8563168068465
 31
0.0
  0
LINE
  5
4B1
330
18
100
AcDbEntity
  8
2
  6
Continuous
100
AcDbLine
 10
362.2619775376081
 20
238.7093168068465
 30
0.0
 11
363.8239775376079
 21
238.7093168068465
 31
0.0
  0
LINE
  5
4B2
330
18
100
AcDbEntity
  8
1
  6
Continuous
100
AcDbLine
 10
364.5831675376081
 20
243.4712708068465
 30
0.0
 11
363.8239775376079
 21
242.1563168068466
 31
0.0
  0
ARC
  5
4B3
330
18
100
AcDbEntity
  8
1
  6
Continuous
100
AcDbCircle
 10
378.8240445376081
 20
249.9063168068465
 30
0.0
 40
1.5
100
AcDbArc
 50
93.82255399999998
 51
180.0
  0
ARC
  5
4B4
330
18
100
AcDbEntity
  8
1
  6
Continuous
100
AcDbCircle
 10
383.3868635376081
 20
254.3927418068466
 30
0.0
 40
14.262819
100
AcDbArc
 50
180.0
 51
218.964483
  0
ARC
  5
4B5
330
18
100
AcDbEntity
  8
1
  6
Continuous
100
AcDbCircle
 10
383.3868635376081
 20
254.3927418068466
 30
0.0
 40
17.162819
100
AcDbArc
 50
180.0
 51
218.964483
  0
ARC
  5
4B6
330
18
100
AcDbEntity
  8
1
  6
Continuous
100
AcDbCircle
 10
356.8240445376081
 20
232.9098448068466
 30
0.0
 40
17.0
100
AcDbArc
 50
0.0
 51
38.964483
  0
ARC
  5
4B7
330
18
100
AcDbEntity
  8
1
  6
Continuous
100
AcDbCircle
 10
356.8240445376081
 20
232.9098448068466
 30
0.0
 40
19.9
100
AcDbArc
 50
0.0
 51
38.964483
  0
ARC
  5
4B8
330
18
100
AcDbEntity
  8
1
  6
Continuous
100
AcDbCircle
 10
366.4790795376079
 20
241.0175328068465
 30
0.0
 40
4.344898999999998
100
AcDbArc
 50
325.6157529999998
 51
25.615753
  0
LINE
  5
4B9
330
18
100
AcDbEntity
  8
1
  6
Continuous
100
AcDbLine
 10
373.4800545376081
 20
236.3123938068465
 30
0.0
 11
370.8239775376079
 21
233.6563168068466
 31
0.0
  0
LINE
  5
4BA
330
18
100
AcDbEntity
  8
1
  6
Continuous
100
AcDbLine
 10
373.8240445376082
 20
233.6563168068466
 30
0.0
 11
370.8239775376079
 21
230.6562498068466
 31
0.0
  0
LINE
  5
4BB
330
18
100
AcDbEntity
  8
1
  6
Continuous
100
AcDbLine
 10
376.7240445376081
 20
240.0063168068466
 30
0.0
 11
377.3240445376081
 21
240.0063168068466
 31
0.0
  0
LINE
  5
4BC
330
18
100
AcDbEntity
  8
1
  6
Continuous
100
AcDbLine
 10
370.0647885376081
 20
243.4712708068465
 30
0.0
 11
370.8239775376079
 21
242.1563168068466
 31
0.0
  0
ARC
  5
4BD
330
18
100
AcDbEntity
  8
1
  6
Continuous
100
AcDbCircle
 10
77.38660053760813
 20
133.6563168068465
 30
0.0
 40
150.0
100
AcDbArc
 50
84.103042
 51
95.89695799999999
  0
LINE
  5
4BE
330
18
100
AcDbEntity
  8
1
  6
Continuous
100
AcDbLine
 10
98.38660053760813
 20
292.5563528068465
 30
0.0
 11
56.38660053760811
 21
292.5563528068465
 31
0.0
  0
LINE
  5
4BF
330
18
100
AcDbEntity
  8
1
  6
Continuous
100
AcDbLine
 10
98.30625753760813
 20
294.5563528068465
 30
0.0
 11
56.47238653760811
 21
294.5563528068465
 31
0.0
  0
ARC
  5
4C0
330
18
100
AcDbEntity
  8
1
  6
Continuous
100
AcDbCircle
 10
82.01160053760814
 20
296.8691128068464
 30
0.0
 40
9.51276
100
AcDbArc
 50
240.909595
 51
299.0904049999998
  0
LINE
  5
4C1
330
18
100
AcDbEntity
  8
1
  6
Continuous
100
AcDbLine
 10
86.63660053760812
 20
287.3563528068463
 30
0.0
 11
68.13660053760812
 21
287.3563528068463
 31
0.0
  0
LINE
  5
4C2
330
18
100
AcDbEntity
  8
1
  6
Continuous
100
AcDbLine
 10
96.18660053760812
 20
288.5563528068465
 30
0.0
 11
58.58660053760811
 21
288.5563528068465
 31
0.0
  0
LINE
  5
4C3
330
18
100
AcDbEntity
  8
1
  6
Continuous
100
AcDbLine
 10
96.89204453760813
 20
295.5563528068466
 30
0.0
 11
57.8866005376081
 21
295.5563528068466
 31
0.0
  0
LINE
  5
4C4
330
18
100
AcDbEntity
  8
1
  6
Continuous
100
AcDbLine
 10
88.43756753760812
 20
298.4563518068465
 30
0.0
 11
86.43756753760813
 21
300.4563518068465
 31
0.0
  0
LINE
  5
4C5
330
18
100
AcDbEntity
  8
1
  6
Continuous
100
AcDbLine
 10
107.0866005376079
 20
300.4563518068465
 30
0.0
 11
47.6866005376081
 21
300.4563518068465
 31
0.0
  0
LINE
  5
4C6
330
18
100
AcDbEntity
  8
1
  6
Continuous
100
AcDbLine
 10
107.0866005376079
 20
298.4563518068465
 30
0.0
 11
47.6866005376081
 21
298.4563518068465
 31
0.0
  0
LINE
  5
4C7
330
18
100
AcDbEntity
  8
1
  6
Continuous
100
AcDbLine
 10
45.9150515376081
 20
303.1390288068465
 30
0.0
 11
108.8823395376081
 21
303.1390288068465
 31
0.0
  0
LINE
  5
4C8
330
18
100
AcDbEntity
  8
1
  6
Continuous
100
AcDbLine
 10
32.38655753760811
 20
310.4563168068465
 30
0.0
 11
122.386557537608
 21
310.4563168068465
 31
0.0
  0
LINE
  5
4C9
330
18
100
AcDbEntity
  8
1
  6
Continuous
100
AcDbLine
 10
122.386557537608
 20
313.6563168068466
 30
0.0
 11
32.38655753760811
 21
313.6563168068466
 31
0.0
  0
LINE
  5
4CA
330
18
100
AcDbEntity
  8
4
  6
CENTER
100
AcDbLine
 10
41.88660053760811
 20
318.6563168068464
 30
0.0
 11
41.88660053760811
 21
305.4563168068465
 31
0.0
  0
ARC
  5
4CB
330
18
100
AcDbEntity
  8
1
  6
Continuous
100
AcDbCircle
 10
57.48660053760811
 20
294.4563518068464
 30
0.0
 40
4.0
100
AcDbArc
 50
90.0
 51
180.0
  0
LINE
  5
4CC
330
18
100
AcDbEntity
  8
1
  6
Continuous
100
AcDbLine
 10
56.7591835376081
 20
298.4563518068465
 30
0.0
 11
54.7591835376081
 21
300.4563518068465
 31
0.0
  0
LINE
  5
4CD
330
18
100
AcDbEntity
  8
1
  6
Continuous
100
AcDbLine
 10
55.0219255376081
 20
298.4563518068465
 30
0.0
 11
57.0219255376081
 21
300.4563518068465
 31
0.0
  0
ARC
  5
4CE
330
18
100
AcDbEntity
  8
1
  6
Continuous
100
AcDbCircle
 10
71.33136053760809
 20
328.4450998068466
 30
0.0
 40
37.592419
100
AcDbArc
 50
210.972964
 51
215.7527669999999
  0
LINE
  5
4CF
330
18
100
AcDbEntity
  8
1
  6
Continuous
100
AcDbLine
 10
32.38655753760811
 20
313.6563168068466
 30
0.0
 11
32.38655753760811
 21
310.4563168068465
 31
0.0
  0
ARC
  5
4D0
330
18
100
AcDbEntity
  8
1
  6
Continuous
100
AcDbCircle
 10
46.95779053760809
 20
431.5894458068464
 30
0.0
 40
121.797774
100
AcDbArc
 50
264.0116039999999
 51
265.484837
  0
ARC
  5
4D1
330
18
100
AcDbEntity
  8
1
  6
Continuous
100
AcDbCircle
 10
37.19522053760811
 20
307.9557548068464
 30
0.0
 40
2.220760999999999
100
AcDbArc
 50
30.97296399999999
 51
85.484837
  0
ARC
  5
4D2
330
18
100
AcDbEntity
  8
1
  6
Continuous
100
AcDbCircle
 10
52.9623995376081
 20
315.2198738068465
 30
0.0
 40
14.957814
100
AcDbArc
 50
215.7527669999999
 51
225.5858139999999
  0
ARC
  5
4D3
330
18
100
AcDbEntity
  8
1
  6
Continuous
100
AcDbCircle
 10
49.88660053760811
 20
294.4563168068465
 30
0.0
 40
4.0
100
AcDbArc
 50
90.0
 51
180.0
  0
LINE
  5
4D4
330
18
100
AcDbEntity
  8
1
  6
Continuous
100
AcDbLine
 10
47.6866005376081
 20
300.1719938068465
 30
0.0
 11
47.9709585376081
 21
300.4563518068465
 31
0.0
  0
LINE
  5
4D5
330
18
100
AcDbEntity
  8
1
  6
Continuous
100
AcDbLine
 10
47.6866005376081
 20
303.1390288068465
 30
0.0
 11
47.6866005376081
 21
298.4563518068465
 31
0.0
  0
LINE
  5
4D6
330
18
100
AcDbEntity
  8
1
  6
Continuous
100
AcDbLine
 10
47.7082175376081
 20
298.4563518068465
 30
0.0
 11
47.6866005376081
 21
298.4779678068464
 31
0.0
  0
ARC
  5
4D7
330
18
100
AcDbEntity
  8
1
  6
Continuous
100
AcDbCircle
 10
45.9150515376081
 20
308.0268598068465
 30
0.0
 40
4.887830999999998
100
AcDbArc
 50
225.5858139999999
 51
270.0
  0
LINE
  5
4D8
330
18
100
AcDbEntity
  8
1
  6
Continuous
100
AcDbLine
 10
52.2337005376081
 20
298.4563518068465
 30
0.0
 11
50.2337005376081
 21
300.4563518068465
 31
0.0
  0
LINE
  5
4D9
330
18
100
AcDbEntity
  8
1
  6
Continuous
100
AcDbLine
 10
49.97095853760811
 20
298.4563518068465
 30
0.0
 11
47.9709585376081
 21
300.4563518068465
 31
0.0
  0
LINE
  5
4DA
330
18
100
AcDbEntity
  8
1
  6
Continuous
100
AcDbLine
 10
50.49644253760811
 20
298.4563518068465
 30
0.0
 11
52.49644253760814
 21
300.4563518068465
 31
0.0
  0
LINE
  5
4DB
330
18
100
AcDbEntity
  8
1
  6
Continuous
100
AcDbLine
 10
48.23370053760811
 20
298.4563518068465
 30
0.0
 11
50.2337005376081
 21
300.4563518068465
 31
0.0
  0
LINE
  5
4DC
330
18
100
AcDbEntity
  8
1
  6
Continuous
100
AcDbLine
 10
54.49644253760812
 20
298.4563518068465
 30
0.0
 11
52.49644253760814
 21
300.4563518068465
 31
0.0
  0
LINE
  5
4DD
330
18
100
AcDbEntity
  8
1
  6
Continuous
100
AcDbLine
 10
52.7591835376081
 20
298.4563518068465
 30
0.0
 11
54.7591835376081
 21
300.4563518068465
 31
0.0
  0
ARC
  5
4DE
330
18
100
AcDbEntity
  8
1
  6
Continuous
100
AcDbCircle
 10
57.8866005376081
 20
294.0563528068465
 30
0.0
 40
1.5
100
AcDbArc
 50
90.0
 51
180.0
  0
ARC
  5
4DF
330
18
100
AcDbEntity
  8
1
  6
Continuous
100
AcDbCircle
 10
72.7616005376081
 20
296.8691128068464
 30
0.0
 40
9.51276
100
AcDbArc
 50
240.909595
 51
299.0904049999998
  0
ARC
  5
4E0
330
18
100
AcDbEntity
  8
1
  6
Continuous
100
AcDbCircle
 10
62.38660053760811
 20
278.8837248068466
 30
0.0
 40
4.0
100
AcDbArc
 50
95.89695799999999
 51
180.0
  0
ARC
  5
4E1
330
18
100
AcDbEntity
  8
1
  6
Continuous
100
AcDbCircle
 10
58.38660053760809
 20
290.5563528068465
 30
0.0
 40
2.0
100
AcDbArc
 50
180.0
 51
275.7391699999999
  0
LINE
  5
4E2
330
18
100
AcDbEntity
  8
1
  6
Continuous
100
AcDbLine
 10
68.13660053760812
 20
288.5563528068465
 30
0.0
 11
68.13660053760812
 21
287.3563528068463
 31
0.0
  0
LINE
  5
4E3
330
18
100
AcDbEntity
  8
1
  6
Continuous
100
AcDbLine
 10
72.59837553760809
 20
298.4563518068465
 30
0.0
 11
70.59837553760809
 21
300.4563518068465
 31
0.0
  0
LINE
  5
4E4
330
18
100
AcDbEntity
  8
1
  6
Continuous
100
AcDbLine
 10
70.86111753760814
 20
298.4563518068465
 30
0.0
 11
72.86111753760812
 21
300.4563518068465
 31
0.0
  0
LINE
  5
4E5
330
18
100
AcDbEntity
  8
1
  6
Continuous
100
AcDbLine
 10
63.54740953760811
 20
298.4563518068465
 30
0.0
 11
61.54740953760811
 21
300.4563518068465
 31
0.0
  0
LINE
  5
4E6
330
18
100
AcDbEntity
  8
1
  6
Continuous
100
AcDbLine
 10
61.81015053760811
 20
298.4563518068465
 30
0.0
 11
63.81015053760811
 21
300.4563518068465
 31
0.0
  0
LINE
  5
4E7
330
18
100
AcDbEntity
  8
1
  6
Continuous
100
AcDbLine
 10
59.0219255376081
 20
298.4563518068465
 30
0.0
 11
57.0219255376081
 21
300.4563518068465
 31
0.0
  0
LINE
  5
4E8
330
18
100
AcDbEntity
  8
1
  6
Continuous
100
AcDbLine
 10
57.28466753760812
 20
298.4563518068465
 30
0.0
 11
59.28466753760812
 21
300.4563518068465
 31
0.0
  0
LINE
  5
4E9
330
18
100
AcDbEntity
  8
1
  6
Continuous
100
AcDbLine
 10
59.5474095376081
 20
298.4563518068465
 30
0.0
 11
61.54740953760811
 21
300.4563518068465
 31
0.0
  0
LINE
  5
4EA
330
18
100
AcDbEntity
  8
1
  6
Continuous
100
AcDbLine
 10
61.28466753760811
 20
298.4563518068465
 30
0.0
 11
59.28466753760812
 21
300.4563518068465
 31
0.0
  0
LINE
  5
4EB
330
18
100
AcDbEntity
  8
1
  6
Continuous
100
AcDbLine
 10
68.07289253760811
 20
298.4563518068465
 30
0.0
 11
66.07289253760811
 21
300.4563518068465
 31
0.0
  0
LINE
  5
4EC
330
18
100
AcDbEntity
  8
1
  6
Continuous
100
AcDbLine
 10
65.81015053760811
 20
298.4563518068465
 30
0.0
 11
63.81015053760811
 21
300.4563518068465
 31
0.0
  0
LINE
  5
4ED
330
18
100
AcDbEntity
  8
1
  6
Continuous
100
AcDbLine
 10
66.33563453760811
 20
298.4563518068465
 30
0.0
 11
68.33563453760811
 21
300.4563518068465
 31
0.0
  0
LINE
  5
4EE
330
18
100
AcDbEntity
  8
1
  6
Continuous
100
AcDbLine
 10
64.0728925376081
 20
298.4563518068465
 30
0.0
 11
66.07289253760811
 21
300.4563518068465
 31
0.0
  0
LINE
  5
4EF
330
18
100
AcDbEntity
  8
1
  6
Continuous
100
AcDbLine
 10
70.33563453760812
 20
298.4563518068465
 30
0.0
 11
68.33563453760811
 21
300.4563518068465
 31
0.0
  0
LINE
  5
4F0
330
18
100
AcDbEntity
  8
1
  6
Continuous
100
AcDbLine
 10
68.59837553760811
 20
298.4563518068465
 30
0.0
 11
70.59837553760809
 21
300.4563518068465
 31
0.0
  0
LINE
  5
4F1
330
18
100
AcDbEntity
  8
1
  6
Continuous
100
AcDbLine
 10
79.38660053760813
 20
298.4563518068465
 30
0.0
 11
77.38660053760813
 21
300.4563518068465
 31
0.0
  0
LINE
  5
4F2
330
18
100
AcDbEntity
  8
1
  6
Continuous
100
AcDbLine
 10
77.64934253760812
 20
298.4563518068465
 30
0.0
 11
79.64934253760812
 21
300.4563518068465
 31
0.0
  0
LINE
  5
4F3
330
18
100
AcDbEntity
  8
1
  6
Continuous
100
AcDbLine
 10
74.86111753760809
 20
298.4563518068465
 30
0.0
 11
72.86111753760812
 21
300.4563518068465
 31
0.0
  0
LINE
  5
4F4
330
18
100
AcDbEntity
  8
1
  6
Continuous
100
AcDbLine
 10
73.12385953760811
 20
298.4563518068465
 30
0.0
 11
75.12385953760811
 21
300.4563518068465
 31
0.0
  0
LINE
  5
4F5
330
18
100
AcDbEntity
  8
1
  6
Continuous
100
AcDbLine
 10
75.38660053760811
 20
298.4563518068465
 30
0.0
 11
77.38660053760813
 21
300.4563518068465
 31
0.0
  0
LINE
  5
4F6
330
18
100
AcDbEntity
  8
1
  6
Continuous
100
AcDbLine
 10
77.12385953760808
 20
298.4563518068465
 30
0.0
 11
75.12385953760811
 21
300.4563518068465
 31
0.0
  0
LINE
  5
4F7
330
18
100
AcDbEntity
  8
1
  6
Continuous
100
AcDbLine
 10
86.17482653760808
 20
298.4563518068465
 30
0.0
 11
84.17482653760812
 21
300.4563518068465
 31
0.0
  0
LINE
  5
4F8
330
18
100
AcDbEntity
  8
1
  6
Continuous
100
AcDbLine
 10
81.64934253760812
 20
298.4563518068465
 30
0.0
 11
79.64934253760812
 21
300.4563518068465
 31
0.0
  0
LINE
  5
4F9
330
18
100
AcDbEntity
  8
1
  6
Continuous
100
AcDbLine
 10
83.91208453760809
 20
298.4563518068465
 30
0.0
 11
81.91208453760808
 21
300.4563518068465
 31
0.0
  0
LINE
  5
4FA
330
18
100
AcDbEntity
  8
1
  6
Continuous
100
AcDbLine
 10
79.91208453760809
 20
298.4563518068465
 30
0.0
 11
81.91208453760808
 21
300.4563518068465
 31
0.0
  0
LINE
  5
4FB
330
18
100
AcDbEntity
  8
1
  6
Continuous
100
AcDbLine
 10
82.17482653760811
 20
298.4563518068465
 30
0.0
 11
84.17482653760812
 21
300.4563518068465
 31
0.0
  0
LINE
  5
4FC
330
18
100
AcDbEntity
  8
1
  6
Continuous
100
AcDbLine
 10
84.43756753760814
 20
298.4563518068465
 30
0.0
 11
86.43756753760813
 21
300.4563518068465
 31
0.0
  0
LINE
  5
4FD
330
18
100
AcDbEntity
  8
4
  6
CENTER
100
AcDbLine
 10
112.886600537608
 20
318.6563168068464
 30
0.0
 11
112.886600537608
 21
305.4563168068465
 31
0.0
  0
ARC
  5
4FE
330
18
100
AcDbEntity
  8
1
  6
Continuous
100
AcDbCircle
 10
117.666329537608
 20
308.0706368068464
 30
0.0
 40
2.134530999999999
100
AcDbArc
 50
92.31614099999999
 51
123.757227
  0
ARC
  5
4FF
330
18
100
AcDbEntity
  8
1
  6
Continuous
100
AcDbCircle
 10
96.89204453760813
 20
294.0563528068465
 30
0.0
 40
1.5
100
AcDbArc
 50
359.843881
 51
90.0
  0
ARC
  5
500
330
18
100
AcDbEntity
  8
1
  6
Continuous
100
AcDbCircle
 10
92.38660053760813
 20
278.8837248068466
 30
0.0
 40
4.0
100
AcDbArc
 50
0.0
 51
84.103042
  0
LINE
  5
501
330
18
100
AcDbEntity
  8
1
  6
Continuous
100
AcDbLine
 10
86.63660053760812
 20
288.5563528068465
 30
0.0
 11
86.63660053760812
 21
287.3563528068463
 31
0.0
  0
ARC
  5
502
330
18
100
AcDbEntity
  8
1
  6
Continuous
100
AcDbCircle
 10
96.38660053760814
 20
290.5563528068465
 30
0.0
 40
2.0
100
AcDbArc
 50
264.26083
 51
0.0
  0
ARC
  5
503
330
18
100
AcDbEntity
  8
1
  6
Continuous
100
AcDbCircle
 10
97.28660053760812
 20
294.4563518068464
 30
0.0
 40
4.0
100
AcDbArc
 50
0.0
 51
90.0
  0
LINE
  5
504
330
18
100
AcDbEntity
  8
1
  6
Continuous
100
AcDbLine
 10
100.276759537608
 20
298.4563518068465
 30
0.0
 11
102.2767595376081
 21
300.4563518068465
 31
0.0
  0
LINE
  5
505
330
18
100
AcDbEntity
  8
1
  6
Continuous
100
AcDbLine
 10
95.22579253760813
 20
298.4563518068465
 30
0.0
 11
93.22579253760812
 21
300.4563518068465
 31
0.0
  0
LINE
  5
506
330
18
100
AcDbEntity
  8
1
  6
Continuous
100
AcDbLine
 10
93.48853453760808
 20
298.4563518068465
 30
0.0
 11
95.48853453760813
 21
300.4563518068465
 31
0.0
  0
LINE
  5
507
330
18
100
AcDbEntity
  8
1
  6
Continuous
100
AcDbLine
 10
86.70030953760806
 20
298.4563518068465
 30
0.0
 11
88.70030953760808
 21
300.4563518068465
 31
0.0
  0
LINE
  5
508
330
18
100
AcDbEntity
  8
1
  6
Continuous
100
AcDbLine
 10
90.70030953760811
 20
298.4563518068465
 30
0.0
 11
88.70030953760808
 21
300.4563518068465
 31
0.0
  0
LINE
  5
509
330
18
100
AcDbEntity
  8
1
  6
Continuous
100
AcDbLine
 10
88.9630515376081
 20
298.4563518068465
 30
0.0
 11
90.96305153760813
 21
300.4563518068465
 31
0.0
  0
LINE
  5
50A
330
18
100
AcDbEntity
  8
1
  6
Continuous
100
AcDbLine
 10
92.9630515376081
 20
298.4563518068465
 30
0.0
 11
90.96305153760813
 21
300.4563518068465
 31
0.0
  0
LINE
  5
50B
330
18
100
AcDbEntity
  8
1
  6
Continuous
100
AcDbLine
 10
91.22579253760813
 20
298.4563518068465
 30
0.0
 11
93.22579253760812
 21
300.4563518068465
 31
0.0
  0
LINE
  5
50C
330
18
100
AcDbEntity
  8
1
  6
Continuous
100
AcDbLine
 10
102.014017537608
 20
298.4563518068465
 30
0.0
 11
100.014017537608
 21
300.4563518068465
 31
0.0
  0
LINE
  5
50D
330
18
100
AcDbEntity
  8
1
  6
Continuous
100
AcDbLine
 10
97.48853453760808
 20
298.4563518068465
 30
0.0
 11
95.48853453760813
 21
300.4563518068465
 31
0.0
  0
LINE
  5
50E
330
18
100
AcDbEntity
  8
1
  6
Continuous
100
AcDbLine
 10
99.75127653760813
 20
298.4563518068465
 30
0.0
 11
97.75127653760812
 21
300.4563518068465
 31
0.0
  0
LINE
  5
50F
330
18
100
AcDbEntity
  8
1
  6
Continuous
100
AcDbLine
 10
95.75127653760812
 20
298.4563518068465
 30
0.0
 11
97.75127653760812
 21
300.4563518068465
 31
0.0
  0
LINE
  5
510
330
18
100
AcDbEntity
  8
1
  6
Continuous
100
AcDbLine
 10
98.01401753760814
 20
298.4563518068465
 30
0.0
 11
100.014017537608
 21
300.4563518068465
 31
0.0
  0
ARC
  5
511
330
18
100
AcDbEntity
  8
1
  6
Continuous
100
AcDbCircle
 10
106.422339537608
 20
311.2274488068464
 30
0.0
 40
8.889996
100
AcDbArc
 50
306.095819
 51
323.4592569999998
  0
ARC
  5
512
330
18
100
AcDbEntity
  8
1
  6
Continuous
100
AcDbCircle
 10
108.8823395376081
 20
307.8534288068465
 30
0.0
 40
4.7144
100
AcDbArc
 50
270.0
 51
306.095819
  0
LINE
  5
513
330
18
100
AcDbEntity
  8
1
  6
Continuous
100
AcDbLine
 10
104.2767595376081
 20
298.4563518068465
 30
0.0
 11
102.2767595376081
 21
300.4563518068465
 31
0.0
  0
LINE
  5
514
330
18
100
AcDbEntity
  8
1
  6
Continuous
100
AcDbLine
 10
102.5395015376081
 20
298.4563518068465
 30
0.0
 11
104.5395015376081
 21
300.4563518068465
 31
0.0
  0
LINE
  5
515
330
18
100
AcDbEntity
  8
1
  6
Continuous
100
AcDbLine
 10
107.0866005376079
 20
303.1390288068465
 30
0.0
 11
107.0866005376079
 21
298.4563518068465
 31
0.0
  0
LINE
  5
516
330
18
100
AcDbEntity
  8
1
  6
Continuous
100
AcDbLine
 10
106.5395015376081
 20
298.4563518068465
 30
0.0
 11
104.5395015376081
 21
300.4563518068465
 31
0.0
  0
LINE
  5
517
330
18
100
AcDbEntity
  8
1
  6
Continuous
100
AcDbLine
 10
104.8022435376081
 20
298.4563518068465
 30
0.0
 11
106.8022435376078
 21
300.4563518068465
 31
0.0
  0
ARC
  5
518
330
18
100
AcDbEntity
  8
1
  6
Continuous
100
AcDbCircle
 10
104.8866005376081
 20
294.4563168068465
 30
0.0
 40
4.0
100
AcDbArc
 50
0.0
 51
90.0
  0
LINE
  5
519
330
18
100
AcDbEntity
  8
1
  6
Continuous
100
AcDbLine
 10
107.0866005376079
 20
298.4779678068464
 30
0.0
 11
107.0649845376081
 21
298.4563518068465
 31
0.0
  0
LINE
  5
51A
330
18
100
AcDbEntity
  8
1
  6
Continuous
100
AcDbLine
 10
107.0866005376079
 20
300.1719938068465
 30
0.0
 11
106.8022435376078
 21
300.4563518068465
 31
0.0
  0
ARC
  5
51B
330
18
100
AcDbEntity
  8
1
  6
Continuous
100
AcDbCircle
 10
117.9824335376081
 20
307.5976868068465
 30
0.0
 40
2.703393
100
AcDbArc
 50
123.757227
 51
147.630988
  0
ARC
  5
51C
330
18
100
AcDbEntity
  8
1
  6
Continuous
100
AcDbCircle
 10
71.92943953760813
 20
336.7885998068464
 30
0.0
 40
51.821717
100
AcDbArc
 50
323.4592569999998
 51
327.6309879999999
  0
ARC
  5
51D
330
18
100
AcDbEntity
  8
1
  6
Continuous
100
AcDbCircle
 10
119.3009095376081
 20
316.5554088068465
 30
0.0
 40
6.183383999999997
100
AcDbArc
 50
272.29061
 51
279.471331
  0
ARC
  5
51E
330
18
100
AcDbEntity
  8
1
  6
Continuous
100
AcDbCircle
 10
119.8347665376079
 20
303.2104188068466
 30
0.0
 40
7.172280999999999
100
AcDbArc
 50
92.29060999999999
 51
97.77101899999998
  0
LINE
  5
51F
330
18
100
AcDbEntity
  8
1
  6
Continuous
100
AcDbLine
 10
122.386557537608
 20
313.6563168068466
 30
0.0
 11
122.386557537608
 21
310.4563168068465
 31
0.0
  0
ARC
  5
520
330
18
100
AcDbEntity
  8
1
  6
Continuous
100
AcDbCircle
 10
117.032258537608
 20
323.7458128068465
 30
0.0
 40
13.553464
100
AcDbArc
 50
272.316141
 51
277.7710189999999
  0
LINE
  5
521
330
18
100
AcDbEntity
  8
4
  6
CENTER
100
AcDbLine
 10
221.680391537608
 20
456.7240068068463
 30
0.0
 11
221.680391537608
 21
358.9690278068464
 31
0.0
  0
ARC
  5
524
330
18
100
AcDbEntity
  8
1
  6
Continuous
100
AcDbCircle
 10
223.769028537608
 20
443.0803918068464
 30
0.0
 40
10.08866599999998
100
AcDbArc
 50
90.0
 51
179.9996789999999
  0
ARC
  5
525
330
18
100
AcDbEntity
  8
1
  6
Continuous
100
AcDbCircle
 10
293.5917555376079
 20
443.0803918068464
 30
0.0
 40
10.08866599999998
100
AcDbArc
 50
0.0
 51
89.99967899999999
  0
CIRCLE
  5
526
330
18
100
AcDbEntity
  8
1
  6
Continuous
100
AcDbCircle
 10
294.180391537608
 20
443.6690278068466
 30
0.0
 40
5.25
  0
CIRCLE
  5
527
330
18
100
AcDbEntity
  8
1
  6
Continuous
100
AcDbCircle
 10
223.180391537608
 20
443.6690278068466
 30
0.0
 40
5.25
  0
LINE
  5
528
330
18
100
AcDbEntity
  8
4
  6
CENTER
100
AcDbLine
 10
258.680391537608
 20
456.7240068068463
 30
0.0
 11
258.680391537608
 21
358.9690278068464
 31
0.0
  0
LINE
  5
529
330
18
100
AcDbEntity
  8
4
  6
CENTER
100
AcDbLine
 10
294.180391537608
 20
435.4190278068466
 30
0.0
 11
294.180391537608
 21
451.9190278068466
 31
0.0
  0
LINE
  5
52A
330
18
100
AcDbEntity
  8
4
  6
CENTER
100
AcDbLine
 10
223.180391537608
 20
435.4190278068466
 30
0.0
 11
223.180391537608
 21
451.9190278068466
 31
0.0
  0
ARC
  5
52B
330
18
100
AcDbEntity
  8
1
  6
Continuous
100
AcDbCircle
 10
258.680391537608
 20
-75.03097219315337
 30
0.0
 40
439.0
100
AcDbArc
 50
87.05226800000001
 51
92.94680300000001
  0
LINE
  5
52C
330
18
100
AcDbEntity
  8
1
  6
Continuous
100
AcDbLine
 10
213.680434537608
 20
313.6563168068466
 30
0.0
 11
303.6804345376079
 21
313.6563168068466
 31
0.0
  0
CIRCLE
  5
52D
330
18
100
AcDbEntity
  8
1
  6
Continuous
100
AcDbCircle
 10
258.680391537608
 20
408.1690278068465
 30
0.0
 40
16.0
  0
CIRCLE
  5
52E
330
18
100
AcDbEntity
  8
1
  6
Continuous
100
AcDbCircle
 10
258.680391537608
 20
408.1690278068465
 30
0.0
 40
30.09
  0
LINE
  5
52F
330
18
100
AcDbEntity
  8
4
  6
CENTER
100
AcDbLine
 10
166.6803915376079
 20
408.1690278068465
 30
0.0
 11
307.4679615376081
 21
408.1690278068465
 31
0.0
  0
CIRCLE
  5
530
330
18
100
AcDbEntity
  8
1
  6
Continuous
100
AcDbCircle
 10
258.680391537608
 20
408.1690278068465
 30
0.0
 40
32.875
  0
LINE
  5
531
330
18
100
AcDbEntity
  8
1
  6
Continuous
100
AcDbLine
 10
270.2568415376081
 20
298.4563518068465
 30
0.0
 11
272.2568415376081
 21
300.4563518068465
 31
0.0
  0
ARC
  5
532
330
18
100
AcDbEntity
  8
1
  6
Continuous
100
AcDbCircle
 10
281.8620065376078
 20
272.9563168068465
 30
0.0
 40
12.5
100
AcDbArc
 50
90.0
 51
145.640148
  0
LINE
  5
533
330
18
100
AcDbEntity
  8
1
  6
Continuous
100
AcDbLine
 10
303.6804345376079
 20
310.4563168068465
 30
0.0
 11
213.680434537608
 21
310.4563168068465
 31
0.0
  0
LINE
  5
534
330
18
100
AcDbEntity
  8
1
  6
Continuous
100
AcDbLine
 10
290.1519405376081
 20
303.1390288068465
 30
0.0
 11
227.184652537608
 21
303.1390288068465
 31
0.0
  0
LINE
  5
535
330
18
100
AcDbEntity
  8
1
  6
Continuous
100
AcDbLine
 10
228.980391537608
 20
300.4563518068465
 30
0.0
 11
288.3803915376079
 21
300.4563518068465
 31
0.0
  0
LINE
  5
536
330
18
100
AcDbEntity
  8
1
  6
Continuous
100
AcDbLine
 10
219.9803915376081
 20
298.4563518068465
 30
0.0
 11
288.3803915376079
 21
298.4563518068465
 31
0.0
  0
LINE
  5
537
330
18
100
AcDbEntity
  8
4
  6
CENTER
100
AcDbLine
 10
223.180391537608
 20
318.6563168068464
 30
0.0
 11
223.180391537608
 21
305.4563168068465
 31
0.0
  0
LINE
  5
538
330
18
100
AcDbEntity
  8
4
  6
CENTER
100
AcDbLine
 10
258.680391537608
 20
318.6563168068464
 30
0.0
 11
258.680391537608
 21
276.8662248068463
 31
0.0
  0
LINE
  5
539
330
18
100
AcDbEntity
  8
1
  6
Continuous
100
AcDbLine
 10
240.841199537608
 20
298.4563518068465
 30
0.0
 11
242.841199537608
 21
300.4563518068465
 31
0.0
  0
LINE
  5
53A
330
18
100
AcDbEntity
  8
1
  6
Continuous
100
AcDbLine
 10
242.578457537608
 20
298.4563518068465
 30
0.0
 11
240.578457537608
 21
300.4563518068465
 31
0.0
  0
ARC
  5
53B
330
18
100
AcDbEntity
  8
1
  6
Continuous
100
AcDbCircle
 10
227.184652537608
 20
307.8534288068465
 30
0.0
 40
4.7144
100
AcDbArc
 50
233.904181
 51
270.0
  0
ARC
  5
53C
330
18
100
AcDbEntity
  8
1
  6
Continuous
100
AcDbCircle
 10
229.644652537608
 20
311.2274488068464
 30
0.0
 40
8.889996
100
AcDbArc
 50
216.540743
 51
233.904181
  0
LINE
  5
53D
330
18
100
AcDbEntity
  8
1
  6
Continuous
100
AcDbLine
 10
219.9803915376081
 20
298.4563168068465
 30
0.0
 11
219.9803915376081
 21
295.5563168068464
 31
0.0
  0
LINE
  5
53E
330
18
100
AcDbEntity
  8
1
  6
Continuous
100
AcDbLine
 10
219.9803915376081
 20
295.5563168068464
 30
0.0
 11
221.8980915376081
 21
295.5563168068464
 31
0.0
  0
ARC
  5
53F
330
18
100
AcDbEntity
  8
1
  6
Continuous
100
AcDbCircle
 10
219.034733537608
 20
323.7458128068465
 30
0.0
 40
13.553464
100
AcDbArc
 50
262.2289809999999
 51
267.683859
  0
ARC
  5
540
330
18
100
AcDbEntity
  8
1
  6
Continuous
100
AcDbCircle
 10
216.2322255376081
 20
303.2104188068466
 30
0.0
 40
7.172280999999999
100
AcDbArc
 50
82.228981
 51
87.70939
  0
ARC
  5
541
330
18
100
AcDbEntity
  8
1
  6
Continuous
100
AcDbCircle
 10
216.7660825376081
 20
316.5554088068465
 30
0.0
 40
6.183383999999997
100
AcDbArc
 50
260.5286689999999
 51
267.70939
  0
LINE
  5
542
330
18
100
AcDbEntity
  8
1
  6
Continuous
100
AcDbLine
 10
213.680434537608
 20
313.6563168068466
 30
0.0
 11
213.680434537608
 21
310.4563168068465
 31
0.0
  0
ARC
  5
543
330
18
100
AcDbEntity
  8
1
  6
Continuous
100
AcDbCircle
 10
218.084558537608
 20
307.5976868068465
 30
0.0
 40
2.703393
100
AcDbArc
 50
32.369012
 51
56.242773
  0
ARC
  5
544
330
18
100
AcDbEntity
  8
1
  6
Continuous
100
AcDbCircle
 10
264.137552537608
 20
336.7885998068464
 30
0.0
 40
51.821717
100
AcDbArc
 50
212.369012
 51
216.540743
  0
ARC
  5
545
330
18
100
AcDbEntity
  8
1
  6
Continuous
100
AcDbCircle
 10
218.400662537608
 20
308.0706368068464
 30
0.0
 40
2.134530999999999
100
AcDbArc
 50
56.242773
 51
87.683859
  0
LINE
  5
546
330
18
100
AcDbEntity
  8
1
  6
Continuous
100
AcDbLine
 10
231.7902325376081
 20
298.4563518068465
 30
0.0
 11
233.7902325376081
 21
300.4563518068465
 31
0.0
  0
LINE
  5
547
330
18
100
AcDbEntity
  8
1
  6
Continuous
100
AcDbLine
 10
228.980391537608
 20
300.1719938068465
 30
0.0
 11
229.2647485376081
 21
300.4563518068465
 31
0.0
  0
LINE
  5
548
330
18
100
AcDbEntity
  8
1
  6
Continuous
100
AcDbLine
 10
228.980391537608
 20
298.4779678068464
 30
0.0
 11
229.002007537608
 21
298.4563518068465
 31
0.0
  0
LINE
  5
549
330
18
100
AcDbEntity
  8
1
  6
Continuous
100
AcDbLine
 10
228.980391537608
 20
303.1390288068465
 30
0.0
 11
228.980391537608
 21
298.4563518068465
 31
0.0
  0
LINE
  5
54A
330
18
100
AcDbEntity
  8
1
  6
Continuous
100
AcDbLine
 10
229.527490537608
 20
298.4563518068465
 30
0.0
 11
231.527490537608
 21
300.4563518068465
 31
0.0
  0
LINE
  5
54B
330
18
100
AcDbEntity
  8
1
  6
Continuous
100
AcDbLine
 10
233.527490537608
 20
298.4563518068465
 30
0.0
 11
231.527490537608
 21
300.4563518068465
 31
0.0
  0
LINE
  5
54C
330
18
100
AcDbEntity
  8
1
  6
Continuous
100
AcDbLine
 10
231.2647485376081
 20
298.4563518068465
 30
0.0
 11
229.2647485376081
 21
300.4563518068465
 31
0.0
  0
LINE
  5
54D
330
18
100
AcDbEntity
  8
1
  6
Continuous
100
AcDbLine
 10
238.578457537608
 20
298.4563518068465
 30
0.0
 11
240.578457537608
 21
300.4563518068465
 31
0.0
  0
LINE
  5
54E
330
18
100
AcDbEntity
  8
1
  6
Continuous
100
AcDbLine
 10
236.3157155376081
 20
298.4563518068465
 30
0.0
 11
238.3157155376081
 21
300.4563518068465
 31
0.0
  0
LINE
  5
54F
330
18
100
AcDbEntity
  8
1
  6
Continuous
100
AcDbLine
 10
240.3157155376081
 20
298.4563518068465
 30
0.0
 11
238.3157155376081
 21
300.4563518068465
 31
0.0
  0
LINE
  5
550
330
18
100
AcDbEntity
  8
1
  6
Continuous
100
AcDbLine
 10
238.0529745376081
 20
298.4563518068465
 30
0.0
 11
236.0529745376081
 21
300.4563518068465
 31
0.0
  0
LINE
  5
551
330
18
100
AcDbEntity
  8
1
  6
Continuous
100
AcDbLine
 10
234.0529745376081
 20
298.4563518068465
 30
0.0
 11
236.0529745376081
 21
300.4563518068465
 31
0.0
  0
LINE
  5
552
330
18
100
AcDbEntity
  8
1
  6
Continuous
100
AcDbLine
 10
235.7902325376081
 20
298.4563518068465
 30
0.0
 11
233.7902325376081
 21
300.4563518068465
 31
0.0
  0
LINE
  5
553
330
18
100
AcDbEntity
  8
1
  6
Continuous
100
AcDbLine
 10
256.680391537608
 20
298.4563518068465
 30
0.0
 11
258.680391537608
 21
300.4563518068465
 31
0.0
  0
LINE
  5
554
330
18
100
AcDbEntity
  8
1
  6
Continuous
100
AcDbLine
 10
258.4176495376079
 20
298.4563518068465
 30
0.0
 11
256.4176495376079
 21
300.4563518068465
 31
0.0
  0
LINE
  5
555
330
18
100
AcDbEntity
  8
1
  6
Continuous
100
AcDbLine
 10
247.6294245376081
 20
298.4563518068465
 30
0.0
 11
249.6294245376081
 21
300.4563518068465
 31
0.0
  0
LINE
  5
556
330
18
100
AcDbEntity
  8
1
  6
Continuous
100
AcDbLine
 10
249.366682537608
 20
298.4563518068465
 30
0.0
 11
247.3666825376081
 21
300.4563518068465
 31
0.0
  0
LINE
  5
557
330
18
100
AcDbEntity
  8
1
  6
Continuous
100
AcDbLine
 10
245.3666825376081
 20
298.4563518068465
 30
0.0
 11
247.3666825376081
 21
300.4563518068465
 31
0.0
  0
LINE
  5
558
330
18
100
AcDbEntity
  8
1
  6
Continuous
100
AcDbLine
 10
243.1039405376081
 20
298.4563518068465
 30
0.0
 11
245.1039405376081
 21
300.4563518068465
 31
0.0
  0
LINE
  5
559
330
18
100
AcDbEntity
  8
1
  6
Continuous
100
AcDbLine
 10
247.1039405376081
 20
298.4563518068465
 30
0.0
 11
245.1039405376081
 21
300.4563518068465
 31
0.0
  0
LINE
  5
55A
330
18
100
AcDbEntity
  8
1
  6
Continuous
100
AcDbLine
 10
244.841199537608
 20
298.4563518068465
 30
0.0
 11
242.841199537608
 21
300.4563518068465
 31
0.0
  0
LINE
  5
55B
330
18
100
AcDbEntity
  8
1
  6
Continuous
100
AcDbLine
 10
254.417649537608
 20
298.4563518068465
 30
0.0
 11
256.4176495376079
 21
300.4563518068465
 31
0.0
  0
LINE
  5
55C
330
18
100
AcDbEntity
  8
1
  6
Continuous
100
AcDbLine
 10
252.1549075376081
 20
298.4563518068465
 30
0.0
 11
254.1549075376081
 21
300.4563518068465
 31
0.0
  0
LINE
  5
55D
330
18
100
AcDbEntity
  8
1
  6
Continuous
100
AcDbLine
 10
256.154907537608
 20
298.4563518068465
 30
0.0
 11
254.1549075376081
 21
300.4563518068465
 31
0.0
  0
LINE
  5
55E
330
18
100
AcDbEntity
  8
1
  6
Continuous
100
AcDbLine
 10
253.8921655376081
 20
298.4563518068465
 30
0.0
 11
251.8921655376081
 21
300.4563518068465
 31
0.0
  0
LINE
  5
55F
330
18
100
AcDbEntity
  8
1
  6
Continuous
100
AcDbLine
 10
251.6294245376081
 20
298.4563518068465
 30
0.0
 11
249.6294245376081
 21
300.4563518068465
 31
0.0
  0
LINE
  5
560
330
18
100
AcDbEntity
  8
1
  6
Continuous
100
AcDbLine
 10
249.8921655376081
 20
298.4563518068465
 30
0.0
 11
251.8921655376081
 21
300.4563518068465
 31
0.0
  0
LINE
  5
561
330
18
100
AcDbEntity
  8
1
  6
Continuous
100
AcDbLine
 10
263.4686165376079
 20
298.4563518068465
 30
0.0
 11
265.4686165376079
 21
300.4563518068465
 31
0.0
  0
LINE
  5
562
330
18
100
AcDbEntity
  8
1
  6
Continuous
100
AcDbLine
 10
265.2058745376079
 20
298.4563518068465
 30
0.0
 11
263.2058745376081
 21
300.4563518068465
 31
0.0
  0
LINE
  5
563
330
18
100
AcDbEntity
  8
1
  6
Continuous
100
AcDbLine
 10
258.9431325376081
 20
298.4563518068465
 30
0.0
 11
260.9431325376081
 21
300.4563518068465
 31
0.0
  0
LINE
  5
564
330
18
100
AcDbEntity
  8
1
  6
Continuous
100
AcDbLine
 10
261.2058745376081
 20
298.4563518068465
 30
0.0
 11
263.2058745376081
 21
300.4563518068465
 31
0.0
  0
LINE
  5
565
330
18
100
AcDbEntity
  8
1
  6
Continuous
100
AcDbLine
 10
260.680391537608
 20
298.4563518068465
 30
0.0
 11
258.680391537608
 21
300.4563518068465
 31
0.0
  0
LINE
  5
566
330
18
100
AcDbEntity
  8
1
  6
Continuous
100
AcDbLine
 10
262.9431325376081
 20
298.4563518068465
 30
0.0
 11
260.9431325376081
 21
300.4563518068465
 31
0.0
  0
LINE
  5
567
330
18
100
AcDbEntity
  8
1
  6
Continuous
100
AcDbLine
 10
271.9940995376081
 20
298.4563518068465
 30
0.0
 11
269.9940995376081
 21
300.4563518068465
 31
0.0
  0
LINE
  5
568
330
18
100
AcDbEntity
  8
1
  6
Continuous
100
AcDbLine
 10
265.731357537608
 20
298.4563518068465
 30
0.0
 11
267.731357537608
 21
300.4563518068465
 31
0.0
  0
LINE
  5
569
330
18
100
AcDbEntity
  8
1
  6
Continuous
100
AcDbLine
 10
267.4686165376079
 20
298.4563518068465
 30
0.0
 11
265.4686165376079
 21
300.4563518068465
 31
0.0
  0
LINE
  5
56A
330
18
100
AcDbEntity
  8
1
  6
Continuous
100
AcDbLine
 10
267.9940995376081
 20
298.4563518068465
 30
0.0
 11
269.9940995376081
 21
300.4563518068465
 31
0.0
  0
LINE
  5
56B
330
18
100
AcDbEntity
  8
1
  6
Continuous
100
AcDbLine
 10
269.731357537608
 20
298.4563518068465
 30
0.0
 11
267.731357537608
 21
300.4563518068465
 31
0.0
  0
LINE
  5
56C
330
18
100
AcDbEntity
  8
1
  6
Continuous
100
AcDbLine
 10
176.452983537608
 20
427.1690278068466
 30
0.0
 11
214.069037537608
 21
427.1690278068466
 31
0.0
  0
LINE
  5
56D
330
18
100
AcDbEntity
  8
1
  6
Continuous
100
AcDbLine
 10
214.069037537608
 20
389.1690278068464
 30
0.0
 11
176.452983537608
 21
389.1690278068464
 31
0.0
  0
LINE
  5
56E
330
18
100
AcDbEntity
  8
1
  6
Continuous
100
AcDbLine
 10
205.430391537608
 20
387.7690278068464
 30
0.0
 11
214.006149537608
 21
387.7690278068464
 31
0.0
  0
LINE
  5
56F
330
18
100
AcDbEntity
  8
1
  6
Continuous
100
AcDbLine
 10
205.430391537608
 20
428.5690278068464
 30
0.0
 11
214.006149537608
 21
428.5690278068464
 31
0.0
  0
LINE
  5
570
330
18
100
AcDbEntity
  8
1
  6
Continuous
100
AcDbLine
 10
213.977826537608
 20
429.1690278068466
 30
0.0
 11
206.680391537608
 21
429.1690278068466
 31
0.0
  0
LINE
  5
571
330
18
100
AcDbEntity
  8
1
  6
Continuous
100
AcDbLine
 10
206.680391537608
 20
432.0690278068464
 30
0.0
 11
213.843911537608
 21
432.0690278068464
 31
0.0
  0
LINE
  5
572
330
18
100
AcDbEntity
  8
1
  6
Continuous
100
AcDbLine
 10
213.977826537608
 20
387.1690278068464
 30
0.0
 11
206.680391537608
 21
387.1690278068464
 31
0.0
  0
LINE
  5
573
330
18
100
AcDbEntity
  8
1
  6
Continuous
100
AcDbLine
 10
213.843911537608
 20
384.2690278068463
 30
0.0
 11
206.680391537608
 21
384.2690278068463
 31
0.0
  0
ARC
  5
574
330
18
100
AcDbEntity
  8
1
  6
Continuous
100
AcDbCircle
 10
321.6803915376079
 20
408.1690278068465
 30
0.0
 40
150.0
100
AcDbArc
 50
174.103042
 51
185.896958
  0
ARC
  5
575
330
18
100
AcDbEntity
  8
1
  6
Continuous
100
AcDbCircle
 10
176.452983537608
 20
393.1690278068464
 30
0.0
 40
4.0
100
AcDbArc
 50
185.896958
 51
270.0
  0
ARC
  5
576
330
18
100
AcDbEntity
  8
1
  6
Continuous
100
AcDbCircle
 10
205.430391537608
 20
389.2690278068465
 30
0.0
 40
1.5
100
AcDbArc
 50
183.8225539999998
 51
270.0
  0
LINE
  5
577
330
18
100
AcDbEntity
  8
1
  6
Continuous
100
AcDbLine
 10
206.680391537608
 20
384.2690278068463
 30
0.0
 11
206.680391537608
 21
387.1690278068464
 31
0.0
  0
ARC
  5
578
330
18
100
AcDbEntity
  8
1
  6
Continuous
100
AcDbCircle
 10
176.452983537608
 20
423.1690278068466
 30
0.0
 40
4.0
100
AcDbArc
 50
90.0
 51
174.103042
  0
ARC
  5
579
330
18
100
AcDbEntity
  8
1
  6
Continuous
100
AcDbCircle
 10
205.430391537608
 20
427.0690278068466
 30
0.0
 40
1.5
100
AcDbArc
 50
90.0
 51
176.1774459999998
  0
LINE
  5
57A
330
18
100
AcDbEntity
  8
1
  6
Continuous
100
AcDbLine
 10
206.680391537608
 20
432.0690278068464
 30
0.0
 11
206.680391537608
 21
429.1690278068466
 31
0.0
  0
ARC
  5
57B
330
18
100
AcDbEntity
  8
1
  6
Continuous
100
AcDbCircle
 10
-224.5196084623918
 20
408.1690278068465
 30
0.0
 40
439.0
100
AcDbArc
 50
357.053197
 51
2.946803
  0
LINE
  5
57C
330
18
100
AcDbEntity
  8
1
  6
Continuous
100
AcDbLine
 10
213.180391537608
 20
381.2690278068464
 30
0.0
 11
213.180391537608
 21
374.2690278068465
 31
0.0
  0
ARC
  5
57D
330
18
100
AcDbEntity
  8
1
  6
Continuous
100
AcDbCircle
 10
440.8703535376078
 20
375.3901438068465
 30
0.0
 40
227.1999999999999
100
AcDbArc
 50
177.424241
 51
180.5377809999999
  0
LINE
  5
57E
330
18
100
AcDbEntity
  8
4
  6
CENTER
100
AcDbLine
 10
223.180391537608
 20
364.4190278068464
 30
0.0
 11
223.180391537608
 21
380.9190278068464
 31
0.0
  0
ARC
  5
583
330
18
100
AcDbEntity
  8
1
  6
Continuous
100
AcDbCircle
 10
225.9015075376081
 20
590.3589898068465
 30
0.0
 40
227.1999999999999
100
AcDbArc
 50
269.462219
 51
272.575759
  0
LINE
  5
584
330
18
100
AcDbEntity
  8
4
  6
CENTER
100
AcDbLine
 10
214.930391537608
 20
372.6690278068464
 30
0.0
 11
231.430391537608
 21
372.6690278068464
 31
0.0
  0
CIRCLE
  5
585
330
18
100
AcDbEntity
  8
1
  6
Continuous
100
AcDbCircle
 10
223.180391537608
 20
372.6690278068464
 30
0.0
 40
5.25
  0
ARC
  5
586
330
18
100
AcDbEntity
  8
1
  6
Continuous
100
AcDbCircle
 10
223.769027537608
 20
373.2576648068464
 30
0.0
 40
10.08866599999998
100
AcDbArc
 50
180.0
 51
269.999679
  0
LINE
  5
587
330
18
100
AcDbEntity
  8
1
  6
Continuous
100
AcDbLine
 10
213.673119537608
 20
374.2690278068465
 30
0.0
 11
213.180391537608
 21
374.2690278068465
 31
0.0
  0
ARC
  5
588
330
18
100
AcDbEntity
  8
1
  6
Continuous
100
AcDbCircle
 10
217.430391537608
 20
386.5445348068464
 30
0.0
 40
12.275507
100
AcDbArc
 50
249.7438419999999
 51
252.1664069999999
  0
LINE
  5
58E
330
18
100
AcDbEntity
  8
1
  6
Continuous
100
AcDbLine
 10
211.180391537608
 20
381.2690278068464
 30
0.0
 11
211.180391537608
 21
384.2690278068463
 31
0.0
  0
LINE
  5
58F
330
18
100
AcDbEntity
  8
1
  6
Continuous
100
AcDbLine
 10
213.746425537608
 20
381.2690278068464
 30
0.0
 11
211.180391537608
 21
381.2690278068464
 31
0.0
  0
ARC
  5
590
330
18
100
AcDbEntity
  8
1
  6
Continuous
100
AcDbCircle
 10
217.430391537608
 20
368.9935218068464
 30
0.0
 40
12.275507
100
AcDbArc
 50
107.5327649999999
 51
110.2561579999999
  0
LINE
  5
592
330
18
100
AcDbEntity
  8
1
  6
Continuous
100
AcDbLine
 10
213.180391537608
 20
438.5690278068464
 30
0.0
 11
213.180391537608
 21
432.0690278068464
 31
0.0
  0
ARC
  5
593
330
18
100
AcDbEntity
  8
1
  6
Continuous
100
AcDbCircle
 10
440.8703535376078
 20
440.9479118068463
 30
0.0
 40
227.1999999999999
100
AcDbArc
 50
179.462219
 51
182.575759
  0
ARC
  5
594
330
18
100
AcDbEntity
  8
1
  6
Continuous
100
AcDbCircle
 10
217.430391537608
 20
426.2935218068466
 30
0.0
 40
12.275507
100
AcDbArc
 50
107.7419439999999
 51
110.2561579999999
  0
LINE
  5
595
330
18
100
AcDbEntity
  8
1
  6
Continuous
100
AcDbLine
 10
213.180391537608
 20
438.5690278068464
 30
0.0
 11
213.682808537608
 21
438.5690278068464
 31
0.0
  0
LINE
  5
598
330
18
100
AcDbEntity
  8
4
  6
CENTER
100
AcDbLine
 10
294.180391537608
 20
318.6563168068464
 30
0.0
 11
294.180391537608
 21
305.4563168068465
 31
0.0
  0
LINE
  5
599
330
18
100
AcDbEntity
  8
1
  6
Continuous
100
AcDbLine
 10
290.1803915376079
 20
294.4563168068465
 30
0.0
 11
290.1803915376079
 21
285.4563168068466
 31
0.0
  0
LINE
  5
59A
330
18
100
AcDbEntity
  8
1
  6
Continuous
100
AcDbLine
 10
290.1803915376079
 20
285.4563168068466
 30
0.0
 11
281.8620065376078
 21
285.4563168068466
 31
0.0
  0
ARC
  5
59B
330
18
100
AcDbEntity
  8
1
  6
Continuous
100
AcDbCircle
 10
286.6028915376079
 20
294.8572538068465
 30
0.0
 40
3.599896999999999
100
AcDbArc
 50
353.605432
 51
88.76641800000001
  0
LINE
  5
59C
330
18
100
AcDbEntity
  8
1
  6
Continuous
100
AcDbLine
 10
286.0960335376079
 20
298.4563518068465
 30
0.0
 11
288.0960335376079
 21
300.4563518068465
 31
0.0
  0
LINE
  5
59D
330
18
100
AcDbEntity
  8
1
  6
Continuous
100
AcDbLine
 10
287.8332915376079
 20
298.4563518068465
 30
0.0
 11
285.8332915376079
 21
300.4563518068465
 31
0.0
  0
LINE
  5
59E
330
18
100
AcDbEntity
  8
1
  6
Continuous
100
AcDbLine
 10
279.307808537608
 20
298.4563518068465
 30
0.0
 11
281.307808537608
 21
300.4563518068465
 31
0.0
  0
LINE
  5
59F
330
18
100
AcDbEntity
  8
1
  6
Continuous
100
AcDbLine
 10
281.045066537608
 20
298.4563518068465
 30
0.0
 11
279.045066537608
 21
300.4563518068465
 31
0.0
  0
LINE
  5
5A0
330
18
100
AcDbEntity
  8
1
  6
Continuous
100
AcDbLine
 10
272.5195825376081
 20
298.4563518068465
 30
0.0
 11
274.5195825376081
 21
300.4563518068465
 31
0.0
  0
LINE
  5
5A1
330
18
100
AcDbEntity
  8
1
  6
Continuous
100
AcDbLine
 10
274.7823245376082
 20
298.4563518068465
 30
0.0
 11
276.7823245376082
 21
300.4563518068465
 31
0.0
  0
LINE
  5
5A2
330
18
100
AcDbEntity
  8
1
  6
Continuous
100
AcDbLine
 10
277.045066537608
 20
298.4563518068465
 30
0.0
 11
279.045066537608
 21
300.4563518068465
 31
0.0
  0
LINE
  5
5A3
330
18
100
AcDbEntity
  8
1
  6
Continuous
100
AcDbLine
 10
274.2568415376081
 20
298.4563518068465
 30
0.0
 11
272.2568415376081
 21
300.4563518068465
 31
0.0
  0
LINE
  5
5A4
330
18
100
AcDbEntity
  8
1
  6
Continuous
100
AcDbLine
 10
276.5195825376081
 20
298.4563518068465
 30
0.0
 11
274.5195825376081
 21
300.4563518068465
 31
0.0
  0
LINE
  5
5A5
330
18
100
AcDbEntity
  8
1
  6
Continuous
100
AcDbLine
 10
278.7823245376081
 20
298.4563518068465
 30
0.0
 11
276.7823245376082
 21
300.4563518068465
 31
0.0
  0
LINE
  5
5A6
330
18
100
AcDbEntity
  8
1
  6
Continuous
100
AcDbLine
 10
281.5705495376079
 20
298.4563518068465
 30
0.0
 11
283.5705495376079
 21
300.4563518068465
 31
0.0
  0
LINE
  5
5A7
330
18
100
AcDbEntity
  8
1
  6
Continuous
100
AcDbLine
 10
283.3078085376079
 20
298.4563518068465
 30
0.0
 11
281.307808537608
 21
300.4563518068465
 31
0.0
  0
LINE
  5
5A8
330
18
100
AcDbEntity
  8
1
  6
Continuous
100
AcDbLine
 10
283.8332915376079
 20
298.4563518068465
 30
0.0
 11
285.8332915376079
 21
300.4563518068465
 31
0.0
  0
LINE
  5
5A9
330
18
100
AcDbEntity
  8
1
  6
Continuous
100
AcDbLine
 10
285.5705495376079
 20
298.4563518068465
 30
0.0
 11
283.5705495376079
 21
300.4563518068465
 31
0.0
  0
ARC
  5
5AA
330
18
100
AcDbEntity
  8
1
  6
Continuous
100
AcDbCircle
 10
283.1045925376081
 20
315.2198738068465
 30
0.0
 40
14.957814
100
AcDbArc
 50
314.4141859999998
 51
324.247233
  0
LINE
  5
5AB
330
18
100
AcDbEntity
  8
1
  6
Continuous
100
AcDbLine
 10
288.3803915376079
 20
300.1719938068465
 30
0.0
 11
288.0960335376079
 21
300.4563518068465
 31
0.0
  0
ARC
  5
5AC
330
18
100
AcDbEntity
  8
1
  6
Continuous
100
AcDbCircle
 10
290.1519405376081
 20
308.0268598068465
 30
0.0
 40
4.887830999999998
100
AcDbArc
 50
270.0
 51
314.4141859999998
  0
LINE
  5
5AD
330
18
100
AcDbEntity
  8
1
  6
Continuous
100
AcDbLine
 10
288.3587745376079
 20
298.4563518068465
 30
0.0
 11
288.3803915376079
 21
298.4779678068464
 31
0.0
  0
LINE
  5
5AE
330
18
100
AcDbEntity
  8
1
  6
Continuous
100
AcDbLine
 10
288.3803915376079
 20
303.1390288068465
 30
0.0
 11
288.3803915376079
 21
298.4563518068465
 31
0.0
  0
ARC
  5
5AF
330
18
100
AcDbEntity
  8
1
  6
Continuous
100
AcDbCircle
 10
264.7356315376078
 20
328.4450998068466
 30
0.0
 40
37.592419
100
AcDbArc
 50
324.247233
 51
329.027036
  0
ARC
  5
5B0
330
18
100
AcDbEntity
  8
1
  6
Continuous
100
AcDbCircle
 10
298.8717715376081
 20
307.9557548068464
 30
0.0
 40
2.220760999999999
100
AcDbArc
 50
94.51516299999999
 51
149.027036
  0
ARC
  5
5B1
330
18
100
AcDbEntity
  8
1
  6
Continuous
100
AcDbCircle
 10
289.109201537608
 20
431.5894458068464
 30
0.0
 40
121.797774
100
AcDbArc
 50
274.5151629999999
 51
275.988396
  0
LINE
  5
5B2
330
18
100
AcDbEntity
  8
1
  6
Continuous
100
AcDbLine
 10
303.6804345376079
 20
313.6563168068466
 30
0.0
 11
303.6804345376079
 21
310.4563168068465
 31
0.0
  0
LINE
  5
5B3
330
18
100
AcDbEntity
  8
4
  6
CENTER
100
AcDbLine
 10
362.2240445376081
 20
318.6563168068464
 30
0.0
 11
362.2240445376081
 21
305.4563168068465
 31
0.0
  0
ARC
  5
5B4
330
18
100
AcDbEntity
  8
1
  6
Continuous
100
AcDbCircle
 10
366.2283055376079
 20
307.8534288068465
 30
0.0
 40
4.7144
100
AcDbArc
 50
233.904181
 51
270.0
  0
ARC
  5
5B5
330
18
100
AcDbEntity
  8
1
  6
Continuous
100
AcDbCircle
 10
368.6883055376081
 20
311.2274488068464
 30
0.0
 40
8.889996
100
AcDbArc
 50
216.540743
 51
233.904181
  0
ARC
  5
5B6
330
18
100
AcDbEntity
  8
1
  6
Continuous
100
AcDbCircle
 10
358.0783865376081
 20
323.7458128068465
 30
0.0
 40
13.553464
100
AcDbArc
 50
262.2289809999999
 51
267.683859
  0
ARC
  5
5B7
330
18
100
AcDbEntity
  8
1
  6
Continuous
100
AcDbCircle
 10
355.275878537608
 20
303.2104188068466
 30
0.0
 40
7.172280999999999
100
AcDbArc
 50
82.228981
 51
87.70939
  0
ARC
  5
5B8
330
18
100
AcDbEntity
  8
1
  6
Continuous
100
AcDbCircle
 10
355.8097355376079
 20
316.5554088068465
 30
0.0
 40
6.183383999999997
100
AcDbArc
 50
260.5286689999999
 51
267.70939
  0
LINE
  5
5B9
330
18
100
AcDbEntity
  8
1
  6
Continuous
100
AcDbLine
 10
352.7240875376081
 20
313.6563168068466
 30
0.0
 11
352.7240875376081
 21
310.4563168068465
 31
0.0
  0
ARC
  5
5BA
330
18
100
AcDbEntity
  8
1
  6
Continuous
100
AcDbCircle
 10
403.1812055376081
 20
336.7885998068464
 30
0.0
 40
51.821717
100
AcDbArc
 50
212.369012
 51
216.540743
  0
ARC
  5
5BB
330
18
100
AcDbEntity
  8
1
  6
Continuous
100
AcDbCircle
 10
357.4443155376081
 20
308.0706368068464
 30
0.0
 40
2.134530999999999
100
AcDbArc
 50
56.242773
 51
87.683859
  0
ARC
  5
5BC
330
18
100
AcDbEntity
  8
1
  6
Continuous
100
AcDbCircle
 10
357.1282115376081
 20
307.5976868068465
 30
0.0
 40
2.703393
100
AcDbArc
 50
32.369012
 51
56.242773
  0
ARC
  5
5BD
330
18
100
AcDbEntity
  8
1
  6
Continuous
100
AcDbCircle
 10
382.7240445376079
 20
278.8837248068466
 30
0.0
 40
4.0
100
AcDbArc
 50
95.89695799999999
 51
180.0
  0
ARC
  5
5BE
330
18
100
AcDbEntity
  8
1
  6
Continuous
100
AcDbCircle
 10
376.1563125376079
 20
280.4886528068465
 30
0.0
 40
5.0
100
AcDbArc
 50
83.48021899999999
 51
147.8317889999999
  0
LINE
  5
5BF
330
18
100
AcDbEntity
  8
1
  6
Continuous
100
AcDbLine
 10
379.8848525376079
 20
298.4563518068465
 30
0.0
 11
381.8848525376079
 21
300.4563518068465
 31
0.0
  0
LINE
  5
5C0
330
18
100
AcDbEntity
  8
1
  6
Continuous
100
AcDbLine
 10
381.6221105376079
 20
298.4563518068465
 30
0.0
 11
379.6221105376079
 21
300.4563518068465
 31
0.0
  0
LINE
  5
5C1
330
18
100
AcDbEntity
  8
1
  6
Continuous
100
AcDbLine
 10
370.8338855376081
 20
298.4563518068465
 30
0.0
 11
372.8338855376081
 21
300.4563518068465
 31
0.0
  0
LINE
  5
5C2
330
18
100
AcDbEntity
  8
1
  6
Continuous
100
AcDbLine
 10
368.0240445376081
 20
300.1719938068465
 30
0.0
 11
368.3084015376081
 21
300.4563518068465
 31
0.0
  0
LINE
  5
5C3
330
18
100
AcDbEntity
  8
1
  6
Continuous
100
AcDbLine
 10
368.0240445376081
 20
298.4779678068464
 30
0.0
 11
368.0456605376079
 21
298.4563518068465
 31
0.0
  0
LINE
  5
5C4
330
18
100
AcDbEntity
  8
1
  6
Continuous
100
AcDbLine
 10
368.0240445376081
 20
303.1390288068465
 30
0.0
 11
368.0240445376081
 21
298.4563518068465
 31
0.0
  0
LINE
  5
5C5
330
18
100
AcDbEntity
  8
1
  6
Continuous
100
AcDbLine
 10
368.5711435376081
 20
298.4563518068465
 30
0.0
 11
370.5711435376081
 21
300.4563518068465
 31
0.0
  0
LINE
  5
5C6
330
18
100
AcDbEntity
  8
1
  6
Continuous
100
AcDbLine
 10
372.5711435376081
 20
298.4563518068465
 30
0.0
 11
370.5711435376081
 21
300.4563518068465
 31
0.0
  0
LINE
  5
5C7
330
18
100
AcDbEntity
  8
1
  6
Continuous
100
AcDbLine
 10
370.3084015376081
 20
298.4563518068465
 30
0.0
 11
368.3084015376081
 21
300.4563518068465
 31
0.0
  0
ARC
  5
5C8
330
18
100
AcDbEntity
  8
1
  6
Continuous
100
AcDbCircle
 10
370.2240445376079
 20
294.4563168068465
 30
0.0
 40
4.0
100
AcDbArc
 50
90.0
 51
180.0
  0
LINE
  5
5C9
330
18
100
AcDbEntity
  8
1
  6
Continuous
100
AcDbLine
 10
377.6221105376079
 20
298.4563518068465
 30
0.0
 11
379.6221105376079
 21
300.4563518068465
 31
0.0
  0
LINE
  5
5CA
330
18
100
AcDbEntity
  8
1
  6
Continuous
100
AcDbLine
 10
375.3593685376082
 20
298.4563518068465
 30
0.0
 11
377.3593685376081
 21
300.4563518068465
 31
0.0
  0
LINE
  5
5CB
330
18
100
AcDbEntity
  8
1
  6
Continuous
100
AcDbLine
 10
373.0966275376079
 20
298.4563518068465
 30
0.0
 11
375.0966275376079
 21
300.4563518068465
 31
0.0
  0
LINE
  5
5CC
330
18
100
AcDbEntity
  8
1
  6
Continuous
100
AcDbLine
 10
379.3593685376081
 20
298.4563518068465
 30
0.0
 11
377.3593685376081
 21
300.4563518068465
 31
0.0
  0
LINE
  5
5CD
330
18
100
AcDbEntity
  8
1
  6
Continuous
100
AcDbLine
 10
377.0966275376079
 20
298.4563518068465
 30
0.0
 11
375.0966275376079
 21
300.4563518068465
 31
0.0
  0
LINE
  5
5CE
330
18
100
AcDbEntity
  8
1
  6
Continuous
100
AcDbLine
 10
374.8338855376081
 20
298.4563518068465
 30
0.0
 11
372.8338855376081
 21
300.4563518068465
 31
0.0
  0
LINE
  5
5CF
330
18
100
AcDbEntity
  8
1
  6
Continuous
100
AcDbLine
 10
386.6730775376079
 20
298.4563518068465
 30
0.0
 11
388.6730775376079
 21
300.4563518068465
 31
0.0
  0
LINE
  5
5D0
330
18
100
AcDbEntity
  8
1
  6
Continuous
100
AcDbLine
 10
388.4103355376079
 20
298.4563518068465
 30
0.0
 11
386.4103355376079
 21
300.4563518068465
 31
0.0
  0
LINE
  5
5D1
330
18
100
AcDbEntity
  8
1
  6
Continuous
100
AcDbLine
 10
384.4103355376079
 20
298.4563518068465
 30
0.0
 11
386.4103355376079
 21
300.4563518068465
 31
0.0
  0
LINE
  5
5D2
330
18
100
AcDbEntity
  8
1
  6
Continuous
100
AcDbLine
 10
386.1475935376079
 20
298.4563518068465
 30
0.0
 11
384.1475935376079
 21
300.4563518068465
 31
0.0
  0
LINE
  5
5D3
330
18
100
AcDbEntity
  8
1
  6
Continuous
100
AcDbLine
 10
382.1475935376079
 20
298.4563518068465
 30
0.0
 11
384.1475935376079
 21
300.4563518068465
 31
0.0
  0
LINE
  5
5D4
330
18
100
AcDbEntity
  8
1
  6
Continuous
100
AcDbLine
 10
383.8848525376079
 20
298.4563518068465
 30
0.0
 11
381.8848525376079
 21
300.4563518068465
 31
0.0
  0
LINE
  5
5D5
330
18
100
AcDbEntity
  8
1
  6
Continuous
100
AcDbLine
 10
393.4613025376079
 20
298.4563518068465
 30
0.0
 11
395.461302537608
 21
300.4563518068465
 31
0.0
  0
LINE
  5
5D6
330
18
100
AcDbEntity
  8
1
  6
Continuous
100
AcDbLine
 10
391.1985605376081
 20
298.4563518068465
 30
0.0
 11
393.1985605376081
 21
300.4563518068465
 31
0.0
  0
LINE
  5
5D7
330
18
100
AcDbEntity
  8
1
  6
Continuous
100
AcDbLine
 10
388.935818537608
 20
298.4563518068465
 30
0.0
 11
390.9358185376079
 21
300.4563518068465
 31
0.0
  0
LINE
  5
5D8
330
18
100
AcDbEntity
  8
1
  6
Continuous
100
AcDbLine
 10
395.198560537608
 20
298.4563518068465
 30
0.0
 11
393.1985605376081
 21
300.4563518068465
 31
0.0
  0
LINE
  5
5D9
330
18
100
AcDbEntity
  8
1
  6
Continuous
100
AcDbLine
 10
392.9358185376081
 20
298.4563518068465
 30
0.0
 11
390.9358185376079
 21
300.4563518068465
 31
0.0
  0
LINE
  5
5DA
330
18
100
AcDbEntity
  8
1
  6
Continuous
100
AcDbLine
 10
390.6730775376079
 20
298.4563518068465
 30
0.0
 11
388.6730775376079
 21
300.4563518068465
 31
0.0
  0
ARC
  5
5DB
330
18
100
AcDbEntity
  8
1
  6
Continuous
100
AcDbCircle
 10
741.8803915376081
 20
408.1690278068465
 30
0.0
 40
439.0
100
AcDbArc
 50
177.0531969999999
 51
182.9468029999999
  0
ARC
  5
5DC
330
18
100
AcDbEntity
  8
1
  6
Continuous
100
AcDbCircle
 10
293.5917555376079
 20
373.2576638068465
 30
0.0
 40
10.08866599999998
100
AcDbArc
 50
270.0
 51
359.999679
  0
LINE
  5
5DD
330
18
100
AcDbEntity
  8
4
  6
CENTER
100
AcDbLine
 10
294.180391537608
 20
364.4190278068464
 30
0.0
 11
294.180391537608
 21
380.9190278068464
 31
0.0
  0
ARC
  5
5DE
330
18
100
AcDbEntity
  8
1
  6
Continuous
100
AcDbCircle
 10
291.459275537608
 20
590.3589898068465
 30
0.0
 40
227.1999999999999
100
AcDbArc
 50
267.424241
 51
270.5377809999998
  0
LINE
  5
5DF
330
18
100
AcDbEntity
  8
4
  6
CENTER
100
AcDbLine
 10
285.930391537608
 20
372.6690278068464
 30
0.0
 11
302.430391537608
 21
372.6690278068464
 31
0.0
  0
CIRCLE
  5
5E0
330
18
100
AcDbEntity
  8
1
  6
Continuous
100
AcDbCircle
 10
294.180391537608
 20
372.6690278068464
 30
0.0
 40
5.25
  0
ARC
  5
5E1
330
18
100
AcDbEntity
  8
1
  6
Continuous
100
AcDbCircle
 10
76.49042953760814
 20
375.3901438068465
 30
0.0
 40
227.1999999999999
100
AcDbArc
 50
359.4622189999999
 51
2.575759
  0
ARC
  5
5E2
330
18
100
AcDbEntity
  8
1
  6
Continuous
100
AcDbCircle
 10
76.49042953760814
 20
440.9479118068463
 30
0.0
 40
227.1999999999999
100
AcDbArc
 50
357.424241
 51
0.5377810000000001
  0
ARC
  5
5E3
330
18
100
AcDbEntity
  8
1
  6
Continuous
100
AcDbCircle
 10
258.680391537608
 20
891.3690278068465
 30
0.0
 40
439.0
100
AcDbArc
 50
267.053197
 51
272.9477319999999
  0
ARC
  5
5E4
330
18
100
AcDbEntity
  8
1
  6
Continuous
100
AcDbCircle
 10
225.9015075376081
 20
225.9790658068465
 30
0.0
 40
227.1999999999999
100
AcDbArc
 50
87.42424099999999
 51
90.537781
  0
LINE
  5
5E5
330
18
100
AcDbEntity
  8
4
  6
CENTER
100
AcDbLine
 10
214.930391537608
 20
443.6690278068466
 30
0.0
 11
231.430391537608
 21
443.6690278068466
 31
0.0
  0
ARC
  5
5E7
330
18
100
AcDbEntity
  8
1
  6
Continuous
100
AcDbCircle
 10
291.459275537608
 20
225.9790658068465
 30
0.0
 40
227.1999999999999
100
AcDbArc
 50
89.46221899999995
 51
92.57575900000002
  0
LINE
  5
5E8
330
18
100
AcDbEntity
  8
4
  6
CENTER
100
AcDbLine
 10
285.930391537608
 20
443.6690278068466
 30
0.0
 11
302.430391537608
 21
443.6690278068466
 31
0.0
  0
LINE
  5
5E9
330
18
100
AcDbEntity
  8
1
  6
Continuous
100
AcDbLine
 10
562.7676975376081
 20
285.8962978068465
 30
0.0
 11
562.7676975376081
 21
233.6563168068466
 31
0.0
  0
LINE
  5
5EA
330
18
100
AcDbEntity
  8
1
  6
Continuous
100
AcDbLine
 10
416.7240445376078
 20
278.8837248068466
 30
0.0
 11
416.7240445376078
 21
188.4289088068466
 31
0.0
  0
ARC
  5
5EB
330
18
100
AcDbEntity
  8
1
  6
Continuous
100
AcDbCircle
 10
575.7676975376081
 20
233.6563168068466
 30
0.0
 40
41.5
100
AcDbArc
 50
145.548866
 51
83.305818
  0
ARC
  5
5EC
330
18
100
AcDbEntity
  8
1
  6
Continuous
100
AcDbCircle
 10
575.7676975376081
 20
233.6563168068466
 30
0.0
 40
50.0
100
AcDbArc
 50
141.8174559999999
 51
87.036996
  0
ARC
  5
5ED
330
18
100
AcDbEntity
  8
1
  6
Continuous
100
AcDbCircle
 10
373.548598537608
 20
257.9422238068464
 30
0.0
 40
52.894674
100
AcDbArc
 50
356.1522909999998
 51
31.34349000000001
  0
LINE
  5
5EE
330
18
100
AcDbEntity
  8
4
  6
CENTER
100
AcDbLine
 10
575.7676975376081
 20
178.6563168068463
 30
0.0
 11
575.7676975376081
 21
284.7368298068464
 31
0.0
  0
LINE
  5
5EF
330
18
100
AcDbEntity
  8
1
  6
Continuous
100
AcDbLine
 10
590.250013537608
 20
237.5630428068466
 30
0.0
 11
574.5091985376077
 21
298.4563168068465
 31
0.0
  0
LINE
  5
5F0
330
18
100
AcDbEntity
  8
1
  6
Continuous
100
AcDbLine
 10
563.3850595376077
 20
225.1904858068465
 30
0.0
 11
525.9049465376079
 21
280.0111748068465
 31
0.0
  0
LINE
  5
5F1
330
18
100
AcDbEntity
  8
1
  6
Continuous
100
AcDbLine
 10
429.2240445376078
 20
294.4563168068465
 30
0.0
 11
429.2240445376078
 21
254.3927418068466
 31
0.0
  0
ARC
  5
5F2
330
18
100
AcDbEntity
  8
1
  6
Continuous
100
AcDbCircle
 10
392.0943675376079
 20
263.3825978068464
 30
0.0
 40
37.129677
100
AcDbArc
 50
0.0
 51
32.168211
  0
LINE
  5
5F3
330
18
100
AcDbEntity
  8
1
  6
Continuous
100
AcDbLine
 10
418.724044537608
 20
218.6563168068465
 30
0.0
 11
418.724044537608
 21
285.4563168068466
 31
0.0
  0
LINE
  5
5F4
330
18
100
AcDbEntity
  8
4
  6
CENTER
100
AcDbLine
 10
397.7240445376081
 20
318.6563168068464
 30
0.0
 11
397.7240445376081
 21
178.6563168068463
 31
0.0
  0
ARC
  5
5F5
330
18
100
AcDbEntity
  8
1
  6
Continuous
100
AcDbCircle
 10
412.7240445376078
 20
188.4289088068466
 30
0.0
 40
4.0
100
AcDbArc
 50
275.896958
 51
0.0
  0
LINE
  5
5F6
330
18
100
AcDbEntity
  8
1
  6
Continuous
100
AcDbLine
 10
418.1240445376078
 20
249.9063168068465
 30
0.0
 11
418.1240445376078
 21
217.4063168068466
 31
0.0
  0
LINE
  5
5F7
330
18
100
AcDbEntity
  8
1
  6
Continuous
100
AcDbLine
 10
428.1240005376081
 20
225.1563168068466
 30
0.0
 11
428.1240005376081
 21
242.1563168068466
 31
0.0
  0
ARC
  5
5F8
330
18
100
AcDbEntity
  8
1
  6
Continuous
100
AcDbCircle
 10
411.883189537608
 20
233.6563168068466
 30
0.0
 40
16.24081099999999
100
AcDbArc
 50
342.4120459999998
 51
17.587954
  0
LINE
  5
5F9
330
18
100
AcDbEntity
  8
1
  6
Continuous
100
AcDbLine
 10
421.624044537608
 20
218.6563168068465
 30
0.0
 11
421.624044537608
 21
232.9098448068466
 31
0.0
  0
LINE
  5
5FA
330
18
100
AcDbEntity
  8
1
  6
Continuous
100
AcDbLine
 10
427.364810537608
 20
228.7488398068465
 30
0.0
 11
421.624000537608
 21
228.7488398068465
 31
0.0
  0
LINE
  5
5FB
330
18
100
AcDbEntity
  8
1
  6
Continuous
100
AcDbLine
 10
427.364810537608
 20
223.8413618068466
 30
0.0
 11
421.624000537608
 21
223.8413618068466
 31
0.0
  0
LINE
  5
5FC
330
18
100
AcDbEntity
  8
1
  6
Continuous
100
AcDbLine
 10
418.724044537608
 20
218.6563168068465
 30
0.0
 11
421.624044537608
 21
218.6563168068465
 31
0.0
  0
ARC
  5
5FD
330
18
100
AcDbEntity
  8
1
  6
Continuous
100
AcDbCircle
 10
416.6240445376081
 20
217.4063168068466
 30
0.0
 40
1.5
100
AcDbArc
 50
273.822554
 51
0.0
  0
LINE
  5
5FE
330
18
100
AcDbEntity
  8
1
  6
Continuous
100
AcDbLine
 10
418.1240445376078
 20
227.3063168068465
 30
0.0
 11
418.724044537608
 21
227.3063168068465
 31
0.0
  0
ARC
  5
5FF
330
18
100
AcDbEntity
  8
1
  6
Continuous
100
AcDbCircle
 10
423.779101537608
 20
226.2951008068466
 30
0.0
 40
4.344898999999998
100
AcDbArc
 50
334.384247
 51
34.38424699999997
  0
LINE
  5
600
330
18
100
AcDbEntity
  8
1
  6
Continuous
100
AcDbLine
 10
427.364810537608
 20
223.8413618068466
 30
0.0
 11
428.1240005376081
 21
225.1563168068466
 31
0.0
  0
ARC
  5
601
330
18
100
AcDbEntity
  8
1
  6
Continuous
100
AcDbCircle
 10
412.0612255376078
 20
254.3927418068466
 30
0.0
 40
14.262819
100
AcDbArc
 50
321.0355169999999
 51
0.0
  0
ARC
  5
602
330
18
100
AcDbEntity
  8
1
  6
Continuous
100
AcDbCircle
 10
412.0612255376078
 20
254.3927418068466
 30
0.0
 40
17.162819
100
AcDbArc
 50
321.0355169999999
 51
0.0
  0
LINE
  5
603
330
18
100
AcDbEntity
  8
1
  6
Continuous
100
AcDbLine
 10
427.364810537608
 20
243.4712708068465
 30
0.0
 11
425.3027735376078
 21
243.4712708068465
 31
0.0
  0
LINE
  5
604
330
18
100
AcDbEntity
  8
1
  6
Continuous
100
AcDbLine
 10
427.364810537608
 20
238.5637938068466
 30
0.0
 11
422.591800537608
 21
238.5637938068466
 31
0.0
  0
ARC
  5
605
330
18
100
AcDbEntity
  8
1
  6
Continuous
100
AcDbCircle
 10
416.6240445376081
 20
249.9063168068465
 30
0.0
 40
1.5
100
AcDbArc
 50
0.0
 51
86.17744600000001
  0
ARC
  5
606
330
18
100
AcDbEntity
  8
1
  6
Continuous
100
AcDbCircle
 10
438.6240445376079
 20
232.9098448068466
 30
0.0
 40
19.9
100
AcDbArc
 50
141.035517
 51
180.0
  0
ARC
  5
607
330
18
100
AcDbEntity
  8
1
  6
Continuous
100
AcDbCircle
 10
438.6240445376079
 20
232.9098448068466
 30
0.0
 40
17.0
100
AcDbArc
 50
141.035517
 51
180.0
  0
LINE
  5
608
330
18
100
AcDbEntity
  8
1
  6
Continuous
100
AcDbLine
 10
418.1240445376078
 20
240.0063168068466
 30
0.0
 11
418.724044537608
 21
240.0063168068466
 31
0.0
  0
ARC
  5
609
330
18
100
AcDbEntity
  8
1
  6
Continuous
100
AcDbCircle
 10
423.779101537608
 20
241.0175328068465
 30
0.0
 40
4.344898999999998
100
AcDbArc
 50
325.6157529999998
 51
25.615753
  0
LINE
  5
60F
330
18
100
AcDbEntity
  8
1
  6
Continuous
100
AcDbLine
 10
427.364810537608
 20
243.4712708068465
 30
0.0
 11
428.1240005376081
 21
242.1563168068466
 31
0.0
  0
ARC
  5
610
330
18
100
AcDbEntity
  8
1
  6
Continuous
100
AcDbCircle
 10
575.7676975376081
 20
233.6563168068466
 30
0.0
 40
22.1
100
AcDbArc
 50
167.104571
 51
61.751818
  0
ARC
  5
611
330
18
100
AcDbEntity
  8
1
  6
Continuous
100
AcDbCircle
 10
575.7676975376081
 20
233.6563168068466
 30
0.0
 40
31.0
100
AcDbArc
 50
153.298381
 51
75.55682799999998
  0
ARC
  5
612
330
18
100
AcDbEntity
  8
1
  6
Continuous
100
AcDbCircle
 10
575.7676975376081
 20
233.6563168068466
 30
0.0
 40
15.0
100
AcDbArc
 50
214.3598519999999
 51
15.09667099999999
  0
LINE
  5
613
330
18
100
AcDbEntity
  8
4
  6
CENTER
100
AcDbLine
 10
520.767697537608
 20
233.6563168068466
 30
0.0
 11
630.7676975376081
 21
233.6563168068466
 31
0.0
  0
LINE
  5
614
330
18
100
AcDbEntity
  8
1
  6
Continuous
100
AcDbLine
 10
584.2676975376081
 20
228.7488398068465
 30
0.0
 11
575.7676975376081
 21
223.8413618068466
 31
0.0
  0
CIRCLE
  5
615
330
18
100
AcDbEntity
  8
1
  6
Continuous
100
AcDbCircle
 10
575.7676975376081
 20
233.6563168068466
 30
0.0
 40
8.5
  0
LINE
  5
616
330
18
100
AcDbEntity
  8
1
  6
Continuous
100
AcDbLine
 10
575.7676975376081
 20
243.4712708068465
 30
0.0
 11
584.2676975376081
 21
238.5637938068466
 31
0.0
  0
CIRCLE
  5
617
330
18
100
AcDbEntity
  8
1
  6
Continuous
100
AcDbCircle
 10
549.6926195376079
 20
233.6687778068464
 30
0.0
 40
4.024922
  0
LINE
  5
618
330
18
100
AcDbEntity
  8
1
  6
Continuous
100
AcDbLine
 10
553.6676975376081
 20
231.1563168068465
 30
0.0
 11
549.6676975376081
 21
229.1563168068464
 31
0.0
  0
LINE
  5
619
330
18
100
AcDbEntity
  8
1
  6
Continuous
100
AcDbLine
 10
545.6676975376081
 20
231.1563168068465
 30
0.0
 11
549.6676975376081
 21
229.1563168068464
 31
0.0
  0
LINE
  5
61B
330
18
100
AcDbEntity
  8
1
  6
Continuous
100
AcDbLine
 10
567.2676975376081
 20
228.7488398068465
 30
0.0
 11
567.2676975376081
 21
238.5637938068466
 31
0.0
  0
LINE
  5
61C
330
18
100
AcDbEntity
  8
1
  6
Continuous
100
AcDbLine
 10
578.2676975376078
 20
211.5563168068464
 30
0.0
 11
580.2676975376081
 21
207.5563168068464
 31
0.0
  0
LINE
  5
61D
330
18
100
AcDbEntity
  8
1
  6
Continuous
100
AcDbLine
 10
571.2676975376081
 20
207.5563168068464
 30
0.0
 11
573.267697537608
 21
211.5563168068464
 31
0.0
  0
CIRCLE
  5
61E
330
18
100
AcDbEntity
  8
1
  6
Continuous
100
AcDbCircle
 10
575.7552355376081
 20
207.5812388068465
 30
0.0
 40
4.024922
  0
LINE
  5
61F
330
18
100
AcDbEntity
  8
1
  6
Continuous
100
AcDbLine
 10
573.267697537608
 20
203.5563168068464
 30
0.0
 11
578.2676975376078
 21
203.5563168068464
 31
0.0
  0
LINE
  5
620
330
18
100
AcDbEntity
  8
1
  6
Continuous
100
AcDbLine
 10
573.267697537608
 20
203.5563168068464
 30
0.0
 11
571.2676975376081
 21
207.5563168068464
 31
0.0
  0
LINE
  5
621
330
18
100
AcDbEntity
  8
1
  6
Continuous
100
AcDbLine
 10
578.2676975376078
 20
203.5563168068464
 30
0.0
 11
580.2676975376081
 21
207.5563168068464
 31
0.0
  0
LINE
  5
622
330
18
100
AcDbEntity
  8
1
  6
Continuous
100
AcDbLine
 10
573.267697537608
 20
211.5563168068464
 30
0.0
 11
578.2676975376078
 21
211.5563168068464
 31
0.0
  0
LINE
  5
623
330
18
100
AcDbEntity
  8
1
  6
Continuous
100
AcDbLine
 10
567.2676975376081
 20
228.7488398068465
 30
0.0
 11
575.7676975376081
 21
223.8413618068466
 31
0.0
  0
LINE
  5
624
330
18
100
AcDbEntity
  8
1
  6
Continuous
100
AcDbLine
 10
549.6676975376081
 20
238.1563168068466
 30
0.0
 11
553.6676975376081
 21
236.1563168068466
 31
0.0
  0
LINE
  5
625
330
18
100
AcDbEntity
  8
1
  6
Continuous
100
AcDbLine
 10
545.6676975376081
 20
236.1563168068466
 30
0.0
 11
549.6676975376081
 21
238.1563168068466
 31
0.0
  0
LINE
  5
626
330
18
100
AcDbEntity
  8
1
  6
Continuous
100
AcDbLine
 10
545.6676975376081
 20
236.1563168068466
 30
0.0
 11
545.6676975376081
 21
231.1563168068465
 31
0.0
  0
LINE
  5
627
330
18
100
AcDbEntity
  8
1
  6
Continuous
100
AcDbLine
 10
553.6676975376081
 20
236.1563168068466
 30
0.0
 11
553.6676975376081
 21
231.1563168068465
 31
0.0
  0
LINE
  5
628
330
18
100
AcDbEntity
  8
1
  6
Continuous
100
AcDbLine
 10
575.7676975376081
 20
243.4712708068465
 30
0.0
 11
567.2676975376081
 21
238.5637938068466
 31
0.0
  0
LINE
  5
62A
330
18
100
AcDbEntity
  8
1
  6
Continuous
100
AcDbLine
 10
601.8676975376081
 20
229.1563168068464
 30
0.0
 11
597.8676975376081
 21
231.1563168068465
 31
0.0
  0
LINE
  5
62B
330
18
100
AcDbEntity
  8
1
  6
Continuous
100
AcDbLine
 10
605.8676975376081
 20
231.1563168068465
 30
0.0
 11
601.8676975376081
 21
229.1563168068464
 31
0.0
  0
CIRCLE
  5
62C
330
18
100
AcDbEntity
  8
1
  6
Continuous
100
AcDbCircle
 10
601.8427745376079
 20
233.6438558068465
 30
0.0
 40
4.024922
  0
LINE
  5
62D
330
18
100
AcDbEntity
  8
1
  6
Continuous
100
AcDbLine
 10
584.2676975376081
 20
228.7488398068465
 30
0.0
 11
584.2676975376081
 21
238.5637938068466
 31
0.0
  0
LINE
  5
62E
330
18
100
AcDbEntity
  8
1
  6
Continuous
100
AcDbLine
 10
605.8676975376081
 20
236.1563168068466
 30
0.0
 11
601.8676975376081
 21
238.1563168068466
 31
0.0
  0
LINE
  5
62F
330
18
100
AcDbEntity
  8
1
  6
Continuous
100
AcDbLine
 10
597.8676975376081
 20
236.1563168068466
 30
0.0
 11
601.8676975376081
 21
238.1563168068466
 31
0.0
  0
LINE
  5
630
330
18
100
AcDbEntity
  8
1
  6
Continuous
100
AcDbLine
 10
597.8676975376081
 20
231.1563168068465
 30
0.0
 11
597.8676975376081
 21
236.1563168068466
 31
0.0
  0
LINE
  5
631
330
18
100
AcDbEntity
  8
1
  6
Continuous
100
AcDbLine
 10
605.8676975376081
 20
231.1563168068465
 30
0.0
 11
605.8676975376081
 21
236.1563168068466
 31
0.0
  0
LINE
  5
632
330
18
100
AcDbEntity
  8
1
  6
Continuous
100
AcDbLine
 10
520.4030225376079
 20
298.4563518068465
 30
0.0
 11
518.4030225376078
 21
300.4563518068465
 31
0.0
  0
LINE
  5
633
330
18
100
AcDbEntity
  8
1
  6
Continuous
100
AcDbLine
 10
518.665764537608
 20
298.4563518068465
 30
0.0
 11
520.6657645376078
 21
300.4563518068465
 31
0.0
  0
ARC
  5
634
330
18
100
AcDbEntity
  8
1
  6
Continuous
100
AcDbCircle
 10
515.5860825376079
 20
272.9563168068465
 30
0.0
 40
12.5
100
AcDbArc
 50
34.35985200000001
 51
90.0
  0
LINE
  5
635
330
18
100
AcDbEntity
  8
1
  6
Continuous
100
AcDbLine
 10
507.296148537608
 20
303.1390288068465
 30
0.0
 11
570.2634365376077
 21
303.1390288068465
 31
0.0
  0
LINE
  5
636
330
18
100
AcDbEntity
  8
1
  6
Continuous
100
AcDbLine
 10
568.4676975376082
 20
300.4563518068465
 30
0.0
 11
509.0676975376081
 21
300.4563518068465
 31
0.0
  0
LINE
  5
637
330
18
100
AcDbEntity
  8
1
  6
Continuous
100
AcDbLine
 10
577.4676975376082
 20
298.4563518068465
 30
0.0
 11
509.0676975376081
 21
298.4563518068465
 31
0.0
  0
LINE
  5
638
330
18
100
AcDbEntity
  8
1
  6
Continuous
100
AcDbLine
 10
583.7676545376081
 20
313.6563168068466
 30
0.0
 11
493.767654537608
 21
313.6563168068466
 31
0.0
  0
LINE
  5
639
330
18
100
AcDbEntity
  8
1
  6
Continuous
100
AcDbLine
 10
493.767654537608
 20
310.4563168068465
 30
0.0
 11
583.7676545376081
 21
310.4563168068465
 31
0.0
  0
LINE
  5
63A
330
18
100
AcDbEntity
  8
4
  6
CENTER
100
AcDbLine
 10
433.2240445376078
 20
318.6563168068464
 30
0.0
 11
433.2240445376078
 21
305.4563168068465
 31
0.0
  0
ARC
  5
63B
330
18
100
AcDbEntity
  8
1
  6
Continuous
100
AcDbCircle
 10
425.2240445376078
 20
294.4563168068465
 30
0.0
 40
4.0
100
AcDbArc
 50
0.0
 51
90.0
  0
LINE
  5
63C
330
18
100
AcDbEntity
  8
1
  6
Continuous
100
AcDbLine
 10
425.1396865376078
 20
298.4563518068465
 30
0.0
 11
427.1396865376081
 21
300.4563518068465
 31
0.0
  0
ARC
  5
63D
330
18
100
AcDbEntity
  8
1
  6
Continuous
100
AcDbCircle
 10
419.2917755376078
 20
280.4886528068465
 30
0.0
 40
5.0
100
AcDbArc
 50
32.168211
 51
96.519781
  0
ARC
  5
63E
330
18
100
AcDbEntity
  8
1
  6
Continuous
100
AcDbCircle
 10
412.7240445376078
 20
278.8837248068466
 30
0.0
 40
4.0
100
AcDbArc
 50
0.0
 51
84.103042
  0
LINE
  5
63F
330
18
100
AcDbEntity
  8
1
  6
Continuous
100
AcDbLine
 10
413.3004945376081
 20
298.4563518068465
 30
0.0
 11
411.3004945376081
 21
300.4563518068465
 31
0.0
  0
LINE
  5
640
330
18
100
AcDbEntity
  8
1
  6
Continuous
100
AcDbLine
 10
402.5122695376079
 20
298.4563518068465
 30
0.0
 11
404.5122695376081
 21
300.4563518068465
 31
0.0
  0
LINE
  5
641
330
18
100
AcDbEntity
  8
1
  6
Continuous
100
AcDbLine
 10
404.2495275376079
 20
298.4563518068465
 30
0.0
 11
402.2495275376081
 21
300.4563518068465
 31
0.0
  0
LINE
  5
642
330
18
100
AcDbEntity
  8
1
  6
Continuous
100
AcDbLine
 10
400.2495275376078
 20
298.4563518068465
 30
0.0
 11
402.2495275376081
 21
300.4563518068465
 31
0.0
  0
LINE
  5
643
330
18
100
AcDbEntity
  8
1
  6
Continuous
100
AcDbLine
 10
397.9867855376081
 20
298.4563518068465
 30
0.0
 11
399.9867855376081
 21
300.4563518068465
 31
0.0
  0
LINE
  5
644
330
18
100
AcDbEntity
  8
1
  6
Continuous
100
AcDbLine
 10
399.724044537608
 20
298.4563518068465
 30
0.0
 11
397.7240445376081
 21
300.4563518068465
 31
0.0
  0
LINE
  5
645
330
18
100
AcDbEntity
  8
1
  6
Continuous
100
AcDbLine
 10
401.9867855376078
 20
298.4563518068465
 30
0.0
 11
399.9867855376081
 21
300.4563518068465
 31
0.0
  0
LINE
  5
646
330
18
100
AcDbEntity
  8
1
  6
Continuous
100
AcDbLine
 10
404.775010537608
 20
298.4563518068465
 30
0.0
 11
406.7750105376081
 21
300.4563518068465
 31
0.0
  0
LINE
  5
647
330
18
100
AcDbEntity
  8
1
  6
Continuous
100
AcDbLine
 10
407.0377525376079
 20
298.4563518068465
 30
0.0
 11
409.0377525376078
 21
300.4563518068465
 31
0.0
  0
LINE
  5
648
330
18
100
AcDbEntity
  8
1
  6
Continuous
100
AcDbLine
 10
409.3004945376081
 20
298.4563518068465
 30
0.0
 11
411.3004945376081
 21
300.4563518068465
 31
0.0
  0
LINE
  5
649
330
18
100
AcDbEntity
  8
1
  6
Continuous
100
AcDbLine
 10
406.5122695376079
 20
298.4563518068465
 30
0.0
 11
404.5122695376081
 21
300.4563518068465
 31
0.0
  0
LINE
  5
64A
330
18
100
AcDbEntity
  8
1
  6
Continuous
100
AcDbLine
 10
408.775010537608
 20
298.4563518068465
 30
0.0
 11
406.7750105376081
 21
300.4563518068465
 31
0.0
  0
LINE
  5
64B
330
18
100
AcDbEntity
  8
1
  6
Continuous
100
AcDbLine
 10
411.0377525376079
 20
298.4563518068465
 30
0.0
 11
409.0377525376078
 21
300.4563518068465
 31
0.0
  0
LINE
  5
64C
330
18
100
AcDbEntity
  8
1
  6
Continuous
100
AcDbLine
 10
418.3514615376078
 20
298.4563518068465
 30
0.0
 11
420.351461537608
 21
300.4563518068465
 31
0.0
  0
LINE
  5
64D
330
18
100
AcDbEntity
  8
1
  6
Continuous
100
AcDbLine
 10
420.0887195376078
 20
298.4563518068465
 30
0.0
 11
418.088719537608
 21
300.4563518068465
 31
0.0
  0
LINE
  5
64E
330
18
100
AcDbEntity
  8
1
  6
Continuous
100
AcDbLine
 10
411.5632355376078
 20
298.4563518068465
 30
0.0
 11
413.5632355376078
 21
300.4563518068465
 31
0.0
  0
LINE
  5
64F
330
18
100
AcDbEntity
  8
1
  6
Continuous
100
AcDbLine
 10
413.8259775376078
 20
298.4563518068465
 30
0.0
 11
415.8259775376079
 21
300.4563518068465
 31
0.0
  0
LINE
  5
650
330
18
100
AcDbEntity
  8
1
  6
Continuous
100
AcDbLine
 10
415.5632355376078
 20
298.4563518068465
 30
0.0
 11
413.5632355376078
 21
300.4563518068465
 31
0.0
  0
LINE
  5
651
330
18
100
AcDbEntity
  8
1
  6
Continuous
100
AcDbLine
 10
416.0887195376078
 20
298.4563518068465
 30
0.0
 11
418.088719537608
 21
300.4563518068465
 31
0.0
  0
LINE
  5
652
330
18
100
AcDbEntity
  8
1
  6
Continuous
100
AcDbLine
 10
417.8259775376078
 20
298.4563518068465
 30
0.0
 11
415.8259775376079
 21
300.4563518068465
 31
0.0
  0
LINE
  5
653
330
18
100
AcDbEntity
  8
1
  6
Continuous
100
AcDbLine
 10
420.6142025376078
 20
298.4563518068465
 30
0.0
 11
422.6142025376081
 21
300.4563518068465
 31
0.0
  0
LINE
  5
654
330
18
100
AcDbEntity
  8
1
  6
Continuous
100
AcDbLine
 10
422.8769445376078
 20
298.4563518068465
 30
0.0
 11
424.8769445376081
 21
300.4563518068465
 31
0.0
  0
LINE
  5
655
330
18
100
AcDbEntity
  8
1
  6
Continuous
100
AcDbLine
 10
422.3514615376078
 20
298.4563518068465
 30
0.0
 11
420.351461537608
 21
300.4563518068465
 31
0.0
  0
LINE
  5
656
330
18
100
AcDbEntity
  8
1
  6
Continuous
100
AcDbLine
 10
424.6142025376078
 20
298.4563518068465
 30
0.0
 11
422.6142025376081
 21
300.4563518068465
 31
0.0
  0
LINE
  5
657
330
18
100
AcDbEntity
  8
1
  6
Continuous
100
AcDbLine
 10
426.8769445376078
 20
298.4563518068465
 30
0.0
 11
424.8769445376081
 21
300.4563518068465
 31
0.0
  0
ARC
  5
658
330
18
100
AcDbEntity
  8
1
  6
Continuous
100
AcDbCircle
 10
422.1482455376079
 20
315.2198738068465
 30
0.0
 40
14.957814
100
AcDbArc
 50
314.4141859999998
 51
324.247233
  0
ARC
  5
659
330
18
100
AcDbEntity
  8
1
  6
Continuous
100
AcDbCircle
 10
429.1955935376078
 20
308.0268598068465
 30
0.0
 40
4.887830999999998
100
AcDbArc
 50
270.0
 51
314.4141859999998
  0
LINE
  5
65A
330
18
100
AcDbEntity
  8
1
  6
Continuous
100
AcDbLine
 10
427.4240445376078
 20
300.1719938068465
 30
0.0
 11
427.1396865376081
 21
300.4563518068465
 31
0.0
  0
LINE
  5
65B
330
18
100
AcDbEntity
  8
1
  6
Continuous
100
AcDbLine
 10
427.402427537608
 20
298.4563518068465
 30
0.0
 11
427.4240445376078
 21
298.4779678068464
 31
0.0
  0
LINE
  5
65C
330
18
100
AcDbEntity
  8
1
  6
Continuous
100
AcDbLine
 10
427.4240445376078
 20
303.1390288068465
 30
0.0
 11
427.4240445376078
 21
298.4563518068465
 31
0.0
  0
ARC
  5
65D
330
18
100
AcDbEntity
  8
1
  6
Continuous
100
AcDbCircle
 10
403.7792845376078
 20
328.4450998068466
 30
0.0
 40
37.592419
100
AcDbArc
 50
324.247233
 51
329.027036
  0
ARC
  5
65E
330
18
100
AcDbEntity
  8
1
  6
Continuous
100
AcDbCircle
 10
428.152854537608
 20
431.5894458068464
 30
0.0
 40
121.797774
100
AcDbArc
 50
274.5151629999999
 51
275.988396
  0
ARC
  5
65F
330
18
100
AcDbEntity
  8
1
  6
Continuous
100
AcDbCircle
 10
437.9154245376081
 20
307.9557548068464
 30
0.0
 40
2.220760999999999
100
AcDbArc
 50
94.51516299999999
 51
149.027036
  0
LINE
  5
660
330
18
100
AcDbEntity
  8
1
  6
Continuous
100
AcDbLine
 10
442.7240875376082
 20
313.6563168068466
 30
0.0
 11
442.7240875376082
 21
310.4563168068465
 31
0.0
  0
LINE
  5
661
330
18
100
AcDbEntity
  8
4
  6
CENTER
100
AcDbLine
 10
503.2676975376078
 20
318.6563168068464
 30
0.0
 11
503.2676975376078
 21
305.4563168068465
 31
0.0
  0
LINE
  5
662
330
18
100
AcDbEntity
  8
1
  6
Continuous
100
AcDbLine
 10
507.2676975376078
 20
294.4563168068465
 30
0.0
 11
507.2676975376078
 21
285.4563168068466
 31
0.0
  0
LINE
  5
663
330
18
100
AcDbEntity
  8
1
  6
Continuous
100
AcDbLine
 10
507.2676975376078
 20
285.4563168068466
 30
0.0
 11
515.5860825376079
 21
285.4563168068466
 31
0.0
  0
ARC
  5
664
330
18
100
AcDbEntity
  8
1
  6
Continuous
100
AcDbCircle
 10
507.296148537608
 20
308.0268598068465
 30
0.0
 40
4.887830999999998
100
AcDbArc
 50
225.5858139999999
 51
270.0
  0
ARC
  5
665
330
18
100
AcDbEntity
  8
1
  6
Continuous
100
AcDbCircle
 10
514.3434965376078
 20
315.2198738068465
 30
0.0
 40
14.957814
100
AcDbArc
 50
215.7527669999999
 51
225.5858139999999
  0
ARC
  5
666
330
18
100
AcDbEntity
  8
1
  6
Continuous
100
AcDbCircle
 10
508.3388875376082
 20
431.5894458068464
 30
0.0
 40
121.797774
100
AcDbArc
 50
264.0116039999999
 51
265.484837
  0
LINE
  5
667
330
18
100
AcDbEntity
  8
1
  6
Continuous
100
AcDbLine
 10
493.767654537608
 20
313.6563168068466
 30
0.0
 11
493.767654537608
 21
310.4563168068465
 31
0.0
  0
ARC
  5
668
330
18
100
AcDbEntity
  8
1
  6
Continuous
100
AcDbCircle
 10
532.7124575376078
 20
328.4450998068466
 30
0.0
 40
37.592419
100
AcDbArc
 50
210.972964
 51
215.7527669999999
  0
ARC
  5
669
330
18
100
AcDbEntity
  8
1
  6
Continuous
100
AcDbCircle
 10
498.5763175376081
 20
307.9557548068464
 30
0.0
 40
2.220760999999999
100
AcDbArc
 50
30.97296399999999
 51
85.484837
  0
LINE
  5
66A
330
18
100
AcDbEntity
  8
1
  6
Continuous
100
AcDbLine
 10
513.6147975376078
 20
298.4563518068465
 30
0.0
 11
511.6147975376081
 21
300.4563518068465
 31
0.0
  0
LINE
  5
66B
330
18
100
AcDbEntity
  8
1
  6
Continuous
100
AcDbLine
 10
511.8775395376081
 20
298.4563518068465
 30
0.0
 11
513.8775395376078
 21
300.4563518068465
 31
0.0
  0
LINE
  5
66C
330
18
100
AcDbEntity
  8
1
  6
Continuous
100
AcDbLine
 10
509.0676975376081
 20
300.1719938068465
 30
0.0
 11
509.352055537608
 21
300.4563518068465
 31
0.0
  0
LINE
  5
66D
330
18
100
AcDbEntity
  8
1
  6
Continuous
100
AcDbLine
 10
509.0893145376081
 20
298.4563518068465
 30
0.0
 11
509.0676975376081
 21
298.4779678068464
 31
0.0
  0
LINE
  5
66E
330
18
100
AcDbEntity
  8
1
  6
Continuous
100
AcDbLine
 10
509.0676975376081
 20
303.1390288068465
 30
0.0
 11
509.0676975376081
 21
298.4563518068465
 31
0.0
  0
LINE
  5
66F
330
18
100
AcDbEntity
  8
1
  6
Continuous
100
AcDbLine
 10
511.3520555376081
 20
298.4563518068465
 30
0.0
 11
509.352055537608
 21
300.4563518068465
 31
0.0
  0
LINE
  5
670
330
18
100
AcDbEntity
  8
1
  6
Continuous
100
AcDbLine
 10
509.6147975376081
 20
298.4563518068465
 30
0.0
 11
511.6147975376081
 21
300.4563518068465
 31
0.0
  0
ARC
  5
671
330
18
100
AcDbEntity
  8
1
  6
Continuous
100
AcDbCircle
 10
510.845197537608
 20
294.8572538068465
 30
0.0
 40
3.599896999999999
100
AcDbArc
 50
91.233582
 51
186.394568
  0
LINE
  5
672
330
18
100
AcDbEntity
  8
1
  6
Continuous
100
AcDbLine
 10
518.1402805376079
 20
298.4563518068465
 30
0.0
 11
516.1402805376078
 21
300.4563518068465
 31
0.0
  0
LINE
  5
673
330
18
100
AcDbEntity
  8
1
  6
Continuous
100
AcDbLine
 10
516.4030225376079
 20
298.4563518068465
 30
0.0
 11
518.4030225376078
 21
300.4563518068465
 31
0.0
  0
LINE
  5
674
330
18
100
AcDbEntity
  8
1
  6
Continuous
100
AcDbLine
 10
515.8775395376078
 20
298.4563518068465
 30
0.0
 11
513.8775395376078
 21
300.4563518068465
 31
0.0
  0
LINE
  5
675
330
18
100
AcDbEntity
  8
1
  6
Continuous
100
AcDbLine
 10
514.1402805376078
 20
298.4563518068465
 30
0.0
 11
516.1402805376078
 21
300.4563518068465
 31
0.0
  0
ARC
  5
676
330
18
100
AcDbEntity
  8
1
  6
Continuous
100
AcDbCircle
 10
580.6820065376077
 20
316.5554088068465
 30
0.0
 40
6.183383999999997
100
AcDbArc
 50
272.29061
 51
279.471331
  0
LINE
  5
677
330
18
100
AcDbEntity
  8
4
  6
CENTER
100
AcDbLine
 10
538.7676975376081
 20
318.6563168068464
 30
0.0
 11
538.7676975376081
 21
276.8662248068463
 31
0.0
  0
LINE
  5
678
330
18
100
AcDbEntity
  8
4
  6
CENTER
100
AcDbLine
 10
574.2676975376078
 20
318.6563168068464
 30
0.0
 11
574.2676975376078
 21
305.4563168068465
 31
0.0
  0
LINE
  5
679
330
18
100
AcDbEntity
  8
1
  6
Continuous
100
AcDbLine
 10
552.0814065376081
 20
298.4563518068465
 30
0.0
 11
550.0814065376081
 21
300.4563518068465
 31
0.0
  0
LINE
  5
67A
330
18
100
AcDbEntity
  8
1
  6
Continuous
100
AcDbLine
 10
550.3441485376081
 20
298.4563518068465
 30
0.0
 11
552.3441485376081
 21
300.4563518068465
 31
0.0
  0
LINE
  5
67B
330
18
100
AcDbEntity
  8
1
  6
Continuous
100
AcDbLine
 10
536.2422145376078
 20
298.4563518068465
 30
0.0
 11
534.242214537608
 21
300.4563518068465
 31
0.0
  0
LINE
  5
67C
330
18
100
AcDbEntity
  8
1
  6
Continuous
100
AcDbLine
 10
534.5049565376078
 20
298.4563518068465
 30
0.0
 11
536.5049565376081
 21
300.4563518068465
 31
0.0
  0
LINE
  5
67D
330
18
100
AcDbEntity
  8
1
  6
Continuous
100
AcDbLine
 10
529.4539895376081
 20
298.4563518068465
 30
0.0
 11
527.4539895376078
 21
300.4563518068465
 31
0.0
  0
LINE
  5
67E
330
18
100
AcDbEntity
  8
1
  6
Continuous
100
AcDbLine
 10
522.665764537608
 20
298.4563518068465
 30
0.0
 11
520.6657645376078
 21
300.4563518068465
 31
0.0
  0
LINE
  5
67F
330
18
100
AcDbEntity
  8
1
  6
Continuous
100
AcDbLine
 10
520.928506537608
 20
298.4563518068465
 30
0.0
 11
522.9285065376078
 21
300.4563518068465
 31
0.0
  0
LINE
  5
680
330
18
100
AcDbEntity
  8
1
  6
Continuous
100
AcDbLine
 10
524.928506537608
 20
298.4563518068465
 30
0.0
 11
522.9285065376078
 21
300.4563518068465
 31
0.0
  0
LINE
  5
681
330
18
100
AcDbEntity
  8
1
  6
Continuous
100
AcDbLine
 10
523.1912475376081
 20
298.4563518068465
 30
0.0
 11
525.1912475376078
 21
300.4563518068465
 31
0.0
  0
LINE
  5
682
330
18
100
AcDbEntity
  8
1
  6
Continuous
100
AcDbLine
 10
527.1912475376081
 20
298.4563518068465
 30
0.0
 11
525.1912475376078
 21
300.4563518068465
 31
0.0
  0
LINE
  5
683
330
18
100
AcDbEntity
  8
1
  6
Continuous
100
AcDbLine
 10
525.4539895376081
 20
298.4563518068465
 30
0.0
 11
527.4539895376078
 21
300.4563518068465
 31
0.0
  0
LINE
  5
684
330
18
100
AcDbEntity
  8
1
  6
Continuous
100
AcDbLine
 10
527.7167315376081
 20
298.4563518068465
 30
0.0
 11
529.7167315376078
 21
300.4563518068465
 31
0.0
  0
LINE
  5
685
330
18
100
AcDbEntity
  8
1
  6
Continuous
100
AcDbLine
 10
533.9794725376078
 20
298.4563518068465
 30
0.0
 11
531.979472537608
 21
300.4563518068465
 31
0.0
  0
LINE
  5
686
330
18
100
AcDbEntity
  8
1
  6
Continuous
100
AcDbLine
 10
532.2422145376078
 20
298.4563518068465
 30
0.0
 11
534.242214537608
 21
300.4563518068465
 31
0.0
  0
LINE
  5
687
330
18
100
AcDbEntity
  8
1
  6
Continuous
100
AcDbLine
 10
529.979472537608
 20
298.4563518068465
 30
0.0
 11
531.979472537608
 21
300.4563518068465
 31
0.0
  0
LINE
  5
688
330
18
100
AcDbEntity
  8
1
  6
Continuous
100
AcDbLine
 10
531.7167315376081
 20
298.4563518068465
 30
0.0
 11
529.7167315376078
 21
300.4563518068465
 31
0.0
  0
LINE
  5
689
330
18
100
AcDbEntity
  8
1
  6
Continuous
100
AcDbLine
 10
543.0304395376079
 20
298.4563518068465
 30
0.0
 11
541.0304395376081
 21
300.4563518068465
 31
0.0
  0
LINE
  5
68A
330
18
100
AcDbEntity
  8
1
  6
Continuous
100
AcDbLine
 10
541.2931815376079
 20
298.4563518068465
 30
0.0
 11
543.2931815376081
 21
300.4563518068465
 31
0.0
  0
LINE
  5
68B
330
18
100
AcDbEntity
  8
1
  6
Continuous
100
AcDbLine
 10
538.5049565376078
 20
298.4563518068465
 30
0.0
 11
536.5049565376081
 21
300.4563518068465
 31
0.0
  0
LINE
  5
68C
330
18
100
AcDbEntity
  8
1
  6
Continuous
100
AcDbLine
 10
536.7676975376078
 20
298.4563518068465
 30
0.0
 11
538.7676975376081
 21
300.4563518068465
 31
0.0
  0
LINE
  5
68D
330
18
100
AcDbEntity
  8
1
  6
Continuous
100
AcDbLine
 10
540.7676975376078
 20
298.4563518068465
 30
0.0
 11
538.7676975376081
 21
300.4563518068465
 31
0.0
  0
LINE
  5
68E
330
18
100
AcDbEntity
  8
1
  6
Continuous
100
AcDbLine
 10
539.0304395376078
 20
298.4563518068465
 30
0.0
 11
541.0304395376081
 21
300.4563518068465
 31
0.0
  0
LINE
  5
68F
330
18
100
AcDbEntity
  8
1
  6
Continuous
100
AcDbLine
 10
545.2931815376079
 20
298.4563518068465
 30
0.0
 11
543.2931815376081
 21
300.4563518068465
 31
0.0
  0
LINE
  5
690
330
18
100
AcDbEntity
  8
1
  6
Continuous
100
AcDbLine
 10
543.5559235376081
 20
298.4563518068465
 30
0.0
 11
545.5559235376081
 21
300.4563518068465
 31
0.0
  0
LINE
  5
691
330
18
100
AcDbEntity
  8
1
  6
Continuous
100
AcDbLine
 10
549.8186645376081
 20
298.4563518068465
 30
0.0
 11
547.8186645376081
 21
300.4563518068465
 31
0.0
  0
LINE
  5
692
330
18
100
AcDbEntity
  8
1
  6
Continuous
100
AcDbLine
 10
548.0814065376081
 20
298.4563518068465
 30
0.0
 11
550.0814065376081
 21
300.4563518068465
 31
0.0
  0
LINE
  5
693
330
18
100
AcDbEntity
  8
1
  6
Continuous
100
AcDbLine
 10
545.8186645376081
 20
298.4563518068465
 30
0.0
 11
547.8186645376081
 21
300.4563518068465
 31
0.0
  0
LINE
  5
694
330
18
100
AcDbEntity
  8
1
  6
Continuous
100
AcDbLine
 10
547.555923537608
 20
298.4563518068465
 30
0.0
 11
545.5559235376081
 21
300.4563518068465
 31
0.0
  0
LINE
  5
695
330
18
100
AcDbEntity
  8
1
  6
Continuous
100
AcDbLine
 10
567.9205985376079
 20
298.4563518068465
 30
0.0
 11
565.9205985376079
 21
300.4563518068465
 31
0.0
  0
LINE
  5
696
330
18
100
AcDbEntity
  8
1
  6
Continuous
100
AcDbLine
 10
558.8696315376081
 20
298.4563518068465
 30
0.0
 11
556.8696315376081
 21
300.4563518068465
 31
0.0
  0
LINE
  5
697
330
18
100
AcDbEntity
  8
1
  6
Continuous
100
AcDbLine
 10
557.1323735376079
 20
298.4563518068465
 30
0.0
 11
559.1323735376079
 21
300.4563518068465
 31
0.0
  0
LINE
  5
698
330
18
100
AcDbEntity
  8
1
  6
Continuous
100
AcDbLine
 10
554.3441485376081
 20
298.4563518068465
 30
0.0
 11
552.3441485376081
 21
300.4563518068465
 31
0.0
  0
LINE
  5
699
330
18
100
AcDbEntity
  8
1
  6
Continuous
100
AcDbLine
 10
552.6068895376081
 20
298.4563518068465
 30
0.0
 11
554.6068895376079
 21
300.4563518068465
 31
0.0
  0
LINE
  5
69A
330
18
100
AcDbEntity
  8
1
  6
Continuous
100
AcDbLine
 10
556.6068895376081
 20
298.4563518068465
 30
0.0
 11
554.6068895376079
 21
300.4563518068465
 31
0.0
  0
LINE
  5
69B
330
18
100
AcDbEntity
  8
1
  6
Continuous
100
AcDbLine
 10
554.8696315376081
 20
298.4563518068465
 30
0.0
 11
556.8696315376081
 21
300.4563518068465
 31
0.0
  0
LINE
  5
69C
330
18
100
AcDbEntity
  8
1
  6
Continuous
100
AcDbLine
 10
561.1323735376079
 20
298.4563518068465
 30
0.0
 11
559.1323735376079
 21
300.4563518068465
 31
0.0
  0
LINE
  5
69D
330
18
100
AcDbEntity
  8
1
  6
Continuous
100
AcDbLine
 10
559.3951145376081
 20
298.4563518068465
 30
0.0
 11
561.3951145376081
 21
300.4563518068465
 31
0.0
  0
LINE
  5
69E
330
18
100
AcDbEntity
  8
1
  6
Continuous
100
AcDbLine
 10
565.6578565376077
 20
298.4563518068465
 30
0.0
 11
563.6578565376079
 21
300.4563518068465
 31
0.0
  0
LINE
  5
69F
330
18
100
AcDbEntity
  8
1
  6
Continuous
100
AcDbLine
 10
563.9205985376077
 20
298.4563518068465
 30
0.0
 11
565.9205985376079
 21
300.4563518068465
 31
0.0
  0
LINE
  5
6A0
330
18
100
AcDbEntity
  8
1
  6
Continuous
100
AcDbLine
 10
563.3951145376081
 20
298.4563518068465
 30
0.0
 11
561.3951145376081
 21
300.4563518068465
 31
0.0
  0
LINE
  5
6A1
330
18
100
AcDbEntity
  8
1
  6
Continuous
100
AcDbLine
 10
561.6578565376079
 20
298.4563518068465
 30
0.0
 11
563.6578565376079
 21
300.4563518068465
 31
0.0
  0
ARC
  5
6A2
330
18
100
AcDbEntity
  8
1
  6
Continuous
100
AcDbCircle
 10
567.8034365376077
 20
311.2274488068464
 30
0.0
 40
8.889996
100
AcDbArc
 50
306.095819
 51
323.4592569999998
  0
LINE
  5
6A3
330
18
100
AcDbEntity
  8
1
  6
Continuous
100
AcDbLine
 10
568.4676975376082
 20
300.1719938068465
 30
0.0
 11
568.1833405376079
 21
300.4563518068465
 31
0.0
  0
ARC
  5
6A4
330
18
100
AcDbEntity
  8
1
  6
Continuous
100
AcDbCircle
 10
570.2634365376077
 20
307.8534288068465
 30
0.0
 40
4.7144
100
AcDbArc
 50
270.0
 51
306.095819
  0
LINE
  5
6A5
330
18
100
AcDbEntity
  8
1
  6
Continuous
100
AcDbLine
 10
568.4676975376082
 20
298.4779678068464
 30
0.0
 11
568.446081537608
 21
298.4563518068465
 31
0.0
  0
LINE
  5
6A6
330
18
100
AcDbEntity
  8
1
  6
Continuous
100
AcDbLine
 10
568.4676975376082
 20
303.1390288068465
 30
0.0
 11
568.4676975376082
 21
298.4563518068465
 31
0.0
  0
LINE
  5
6A7
330
18
100
AcDbEntity
  8
1
  6
Continuous
100
AcDbLine
 10
566.1833405376079
 20
298.4563518068465
 30
0.0
 11
568.1833405376079
 21
300.4563518068465
 31
0.0
  0
LINE
  5
6A8
330
18
100
AcDbEntity
  8
1
  6
Continuous
100
AcDbLine
 10
577.4676975376082
 20
295.5563168068464
 30
0.0
 11
575.5499975376077
 21
295.5563168068464
 31
0.0
  0
LINE
  5
6A9
330
18
100
AcDbEntity
  8
1
  6
Continuous
100
AcDbLine
 10
577.4676975376082
 20
298.4563168068465
 30
0.0
 11
577.4676975376082
 21
295.5563168068464
 31
0.0
  0
ARC
  5
6AA
330
18
100
AcDbEntity
  8
1
  6
Continuous
100
AcDbCircle
 10
579.363530537608
 20
307.5976868068465
 30
0.0
 40
2.703393
100
AcDbArc
 50
123.757227
 51
147.630988
  0
ARC
  5
6AB
330
18
100
AcDbEntity
  8
1
  6
Continuous
100
AcDbCircle
 10
578.4133555376081
 20
323.7458128068465
 30
0.0
 40
13.553464
100
AcDbArc
 50
272.316141
 51
277.7710189999999
  0
ARC
  5
6AC
330
18
100
AcDbEntity
  8
1
  6
Continuous
100
AcDbCircle
 10
581.2158635376079
 20
303.2104188068466
 30
0.0
 40
7.172280999999999
100
AcDbArc
 50
92.29060999999999
 51
97.77101899999998
  0
ARC
  5
6AD
330
18
100
AcDbEntity
  8
1
  6
Continuous
100
AcDbCircle
 10
579.0474265376079
 20
308.0706368068464
 30
0.0
 40
2.134530999999999
100
AcDbArc
 50
92.31614099999999
 51
123.757227
  0
ARC
  5
6AE
330
18
100
AcDbEntity
  8
1
  6
Continuous
100
AcDbCircle
 10
533.3105365376078
 20
336.7885998068464
 30
0.0
 40
51.821717
100
AcDbArc
 50
323.4592569999998
 51
327.6309879999999
  0
LINE
  5
6AF
330
18
100
AcDbEntity
  8
1
  6
Continuous
100
AcDbLine
 10
583.7676545376081
 20
313.6563168068466
 30
0.0
 11
583.7676545376081
 21
310.4563168068465
 31
0.0
  0
ENDSEC
  0
SECTION
  2
OBJECTS
  0
DICTIONARY
  5
C
330
0
100
AcDbDictionary
281
     1
  3
ACAD_CIP_PREVIOUS_PRODUCT_INFO
350
721
  3
ACAD_COLOR
350
704
  3
ACAD_DETAILVIEWSTYLE
350
71D
  3
ACAD_GROUP
350
D
  3
ACAD_LAYOUT
350
94
  3
ACAD_MATERIAL
350
6D2
  3
ACAD_MLEADERSTYLE
350
719
  3
ACAD_MLINESTYLE
350
1B
  3
ACAD_PLOTSETTINGS
350
95
  3
ACAD_PLOTSTYLENAME
350
6D0
  3
ACAD_SCALELIST
350
707
  3
ACAD_SECTIONVIEWSTYLE
350
71B
  3
ACAD_TABLESTYLE
350
705
  3
ACAD_VISUALSTYLE
350
6EB
  3
ACDB_RECOMPOSE_DATA
350
73F
  3
AcDbVariableDictionary
350
732
  3
CONTENTDICTIONARY
350
3D
  3
DWGPROPS
350
740
  0
DICTIONARY
  5
722
330
E
100
AcDbDictionary
280
     1
281
     1
  3
ADSK_XREC_LAYER_RECONCILED
360
723
  0
DICTIONARY
  5
724
330
4E
100
AcDbDictionary
280
     1
281
     1
  3
ADSK_XREC_LAYER_RECONCILED
360
725
  0
DICTIONARY
  5
726
330
4F
100
AcDbDictionary
280
     1
281
     1
  3
ADSK_XREC_LAYER_RECONCILED
360
727
  0
DICTIONARY
  5
728
330
50
100
AcDbDictionary
280
     1
281
     1
  3
ADSK_XREC_LAYER_RECONCILED
360
729
  0
DICTIONARY
  5
72A
330
51
100
AcDbDictionary
280
     1
281
     1
  3
ADSK_XREC_LAYER_RECONCILED
360
72B
  0
DICTIONARY
  5
72C
330
52
100
AcDbDictionary
280
     1
281
     1
  3
ADSK_XREC_LAYER_RECONCILED
360
72D
  0
DICTIONARY
  5
72E
330
53
100
AcDbDictionary
280
     1
281
     1
  3
ADSK_XREC_LAYER_RECONCILED
360
72F
  0
DICTIONARY
  5
730
330
54
100
AcDbDictionary
280
     1
281
     1
  3
ADSK_XREC_LAYER_RECONCILED
360
731
  0
DICTIONARY
  5
6CB
330
18
100
AcDbDictionary
281
     1
  3
ACAD_LAYOUTSELFREF
350
6CC
  0
DICTIONARY
  5
6C9
330
15
100
AcDbDictionary
281
     1
  3
ACAD_LAYOUTSELFREF
350
6CA
  0
XRECORD
  5
721
102
{ACAD_REACTORS
330
C
102
}
330
C
100
AcDbXrecord
280
     1
300
ACDLT
300
2014
300
ACDLT_F_S
  0
DICTIONARY
  5
704
102
{ACAD_REACTORS
330
C
102
}
330
C
100
AcDbDictionary
281
     1
  0
DICTIONARY
  5
71D
102
{ACAD_REACTORS
330
C
102
}
330
C
100
AcDbDictionary
281
     1
  3
Imperial24
350
71E
  0
DICTIONARY
  5
D
102
{ACAD_REACTORS
330
C
102
}
330
C
100
AcDbDictionary
281
     1
  0
DICTIONARY
  5
94
102
{ACAD_REACTORS
330
C
102
}
330
C
100
AcDbDictionary
281
     1
  3
Model
350
71F
  3
レイアウト1
350
720
  0
DICTIONARY
  5
6D2
102
{ACAD_REACTORS
330
C
102
}
330
C
100
AcDbDictionary
281
     1
  3
ByBlock
350
6DB
  3
ByLayer
350
6D3
  3
Global
350
6E3
  0
DICTIONARY
  5
719
102
{ACAD_REACTORS
330
C
102
}
330
C
100
AcDbDictionary
281
     1
  3
Standard
350
71A
  0
DICTIONARY
  5
1B
102
{ACAD_REACTORS
330
C
102
}
330
C
100
AcDbDictionary
281
     1
  3
STANDARD
350
1C
  0
DICTIONARY
  5
95
102
{ACAD_REACTORS
330
C
102
}
330
C
100
AcDbDictionary
281
     1
  0
ACDBDICTIONARYWDFLT
  5
6D0
102
{ACAD_REACTORS
330
C
102
}
330
C
100
AcDbDictionary
281
     1
  3
Normal
350
6D1
100
AcDbDictionaryWithDefault
340
6D1
  0
DICTIONARY
  5
707
102
{ACAD_REACTORS
330
C
102
}
330
C
100
AcDbDictionary
281
     1
  3
A0
350
708
  3
A1
350
709
  3
A2
350
70A
  3
A3
350
70B
  3
A4
350
70C
  3
A5
350
70D
  3
A6
350
70E
  3
A7
350
70F
  3
A8
350
710
  3
A9
350
711
  3
B0
350
712
  3
B1
350
713
  3
B2
350
714
  3
B3
350
715
  3
B4
350
716
  3
B5
350
717
  3
B6
350
718
  0
DICTIONARY
  5
71B
102
{ACAD_REACTORS
330
C
102
}
330
C
100
AcDbDictionary
281
     1
  3
Imperial24
350
71C
  0
DICTIONARY
  5
705
102
{ACAD_REACTORS
330
C
102
}
330
C
100
AcDbDictionary
281
     1
  3
Standard
350
706
  0
DICTIONARY
  5
6EB
102
{ACAD_REACTORS
330
C
102
}
330
C
100
AcDbDictionary
281
     1
  3
2dWireframe
350
6F1
  3
Basic
350
6F0
  3
Brighten
350
6F7
  3
ColorChange
350
6FB
  3
Conceptual
350
6F4
  3
Dim
350
6F6
  3
EdgeColorOff
350
703
  3
Facepattern
350
6FA
  3
Flat
350
6EC
  3
FlatWithEdges
350
6ED
  3
Gouraud
350
6EE
  3
GouraudWithEdges
350
6EF
  3
Hidden
350
6F3
  3
JitterOff
350
701
  3
Linepattern
350
6F9
  3
OverhangOff
350
702
  3
Realistic
350
6F5
  3
Shaded
350
700
  3
Shaded with edges
350
6FF
  3
Shades of Gray
350
6FC
  3
Sketchy
350
6FD
  3
Thicken
350
6F8
  3
Wireframe
350
6F2
  3
X-Ray
350
6FE
  0
XRECORD
  5
73F
102
{ACAD_REACTORS
330
C
102
}
330
C
100
AcDbXrecord
280
     1
 90
        1
330
706
  0
DICTIONARY
  5
732
102
{ACAD_REACTORS
330
C
102
}
330
C
100
AcDbDictionary
281
     1
  3
CANNOSCALE
350
737
  3
CMLEADERSTYLE
350
734
  3
CTABLESTYLE
350
733
  3
CVIEWDETAILSTYLE
350
735
  3
CVIEWSECTIONSTYLE
350
736
  3
DIMASSOC
350
73A
  3
INDEXCTL
350
739
  3
SORTENTS
350
738
  3
XCLIPFRAME
350
73B
  0
DICTIONARY
  5
3D
102
{ACAD_REACTORS
330
C
102
}
330
C
100
AcDbDictionary
281
     1
  0
XRECORD
  5
740
102
{ACAD_REACTORS
330
C
102
}
330
C
100
AcDbXrecord
280
     1
  1
DWGPROPS COOKIE
  2

  3

  4

  6

  7

  8
Yoshitsune
  9

300
=
301
=
302
=
303
=
304
=
305
=
306
=
307
=
308
=
309
=
 40
0.0045469560185185
 41
2454875.623199595
 42
2457192.687365857
  1

 90
        0
  0
XRECORD
  5
723
102
{ACAD_REACTORS
330
722
102
}
330
722
100
AcDbXrecord
280
     1
290
     1
  0
XRECORD
  5
725
102
{ACAD_REACTORS
330
724
102
}
330
724
100
AcDbXrecord
280
     1
290
     1
  0
XRECORD
  5
727
102
{ACAD_REACTORS
330
726
102
}
330
726
100
AcDbXrecord
280
     1
290
     1
  0
XRECORD
  5
729
102
{ACAD_REACTORS
330
728
102
}
330
728
100
AcDbXrecord
280
     1
290
     1
  0
XRECORD
  5
72B
102
{ACAD_REACTORS
330
72A
102
}
330
72A
100
AcDbXrecord
280
     1
290
     1
  0
XRECORD
  5
72D
102
{ACAD_REACTORS
330
72C
102
}
330
72C
100
AcDbXrecord
280
     1
290
     1
  0
XRECORD
  5
72F
102
{ACAD_REACTORS
330
72E
102
}
330
72E
100
AcDbXrecord
280
     1
290
     1
  0
XRECORD
  5
731
102
{ACAD_REACTORS
330
730
102
}
330
730
100
AcDbXrecord
280
     1
290
     1
  0
XRECORD
  5
6CC
102
{ACAD_REACTORS
330
6CB
102
}
330
6CB
100
AcDbXrecord
280
     1
340
18
  0
XRECORD
  5
6CA
102
{ACAD_REACTORS
330
6C9
102
}
330
6C9
100
AcDbXrecord
280
     1
340
15
  0
ACDBDETAILVIEWSTYLE
  5
71E
102
{ACAD_XDICTIONARY
360
778
102
}
102
{ACAD_REACTORS
330
71D
102
}
330
71D
100
AcDbModelDocViewStyle
 70
     0
  3
Imperial24
290
     0
100
AcDbDetailViewStyle
 70
     0
 71
     0
 90
        3
 71
     1
340
F
 40
0.24
340
0
 40
0.24
300

 40
0.36
280
     3
 71
     2
340
14
 90
       25
 71
     3
340
F
 40
0.24
 90
        1
 40
0.75
 90
        1
300
%<\AcVar ViewType \f "%tc1">% %<\AcVar ViewDetailId>%\PSCALE %<\AcVar ViewScale \f "%sn">%
 71
     4
340
14
 90
       25
340
14
 90
       25
280
     0
  0
LAYOUT
  5
71F
102
{ACAD_XDICTIONARY
360
77A
102
}
102
{ACAD_REACTORS
330
94
102
}
330
94
100
AcDbPlotSettings
  1

  2
Canon LBP9100C
  4

  6

 40
0.0
 41
0.0
 42
0.0
 43
0.0
 44
0.0
 45
0.0
 46
0.0
 47
0.0
 48
0.0
 49
0.0
140
0.0
141
0.0
142
1.0
143
1.0
 70
  1712
 72
     0
 73
     0
 74
     0
  7

 75
     0
147
1.0
148
0.0
149
0.0
100
AcDbLayout
  1
Model
 70
     1
 71
     0
 10
0.0
 20
0.0
 11
12.0
 21
9.0
 12
0.0
 22
0.0
 32
0.0
 14
0.0
 24
0.0
 34
0.0
 15
0.0
 25
0.0
 35
0.0
146
0.0
 13
0.0
 23
0.0
 33
0.0
 16
1.0
 26
0.0
 36
0.0
 17
0.0
 27
1.0
 37
0.0
 76
     0
330
18
331
6C8
  0
LAYOUT
  5
720
102
{ACAD_XDICTIONARY
360
77C
102
}
102
{ACAD_REACTORS
330
94
102
}
330
94
100
AcDbPlotSettings
  1

  2
Canon LBP9100C
  4

  6

 40
0.0
 41
0.0
 42
0.0
 43
0.0
 44
0.0
 45
0.0
 46
0.0
 47
0.0
 48
0.0
 49
0.0
140
0.0
141
0.0
142
1.0
143
1.0
 70
   688
 72
     0
 73
     0
 74
     5
  7

 75
    16
147
1.0
148
0.0
149
0.0
100
AcDbLayout
  1
レイアウト1
 70
     1
 71
     1
 10
0.0
 20
0.0
 11
420.0
 21
297.0
 12
0.0
 22
0.0
 32
0.0
 14
1.000000000000000E+20
 24
1.000000000000000E+20
 34
1.000000000000000E+20
 15
-1.000000000000000E+20
 25
-1.000000000000000E+20
 35
-1.000000000000000E+20
146
0.0
 13
0.0
 23
0.0
 33
0.0
 16
1.0
 26
0.0
 36
0.0
 17
0.0
 27
1.0
 37
0.0
 76
     0
330
15
  0
MATERIAL
  5
6DB
102
{ACAD_XDICTIONARY
360
6DC
102
}
102
{ACAD_REACTORS
330
6D2
102
}
330
6D2
100
AcDbMaterial
  1
ByBlock
 72
     0
 43
0.0208333333333333
 43
0.0
 43
0.0
 43
0.0
 43
0.0
 43
0.0208333333333333
 43
0.0
 43
0.0
 43
0.0
 43
0.0
 43
1.0
 43
0.0
 43
0.0
 43
0.0
 43
0.0
 43
1.0
 77
     0
 47
0.0208333333333333
 47
0.0
 47
0.0
 47
0.0
 47
0.0
 47
0.0208333333333333
 47
0.0
 47
0.0
 47
0.0
 47
0.0
 47
1.0
 47
0.0
 47
0.0
 47
0.0
 47
0.0
 47
1.0
171
     0
 49
0.0208333333333333
 49
0.0
 49
0.0
 49
0.0
 49
0.0
 49
0.0208333333333333
 49
0.0
 49
0.0
 49
0.0
 49
0.0
 49
1.0
 49
0.0
 49
0.0
 49
0.0
 49
0.0
 49
1.0
175
     0
142
0.0208333333333333
142
0.0
142
0.0
142
0.0
142
0.0
142
0.0208333333333333
142
0.0
142
0.0
142
0.0
142
0.0
142
1.0
142
0.0
142
0.0
142
0.0
142
0.0
142
1.0
179
     0
144
0.0208333333333333
144
0.0
144
0.0
144
0.0
144
0.0
144
0.0208333333333333
144
0.0
144
0.0
144
0.0
144
0.0
144
1.0
144
0.0
144
0.0
144
0.0
144
0.0
144
1.0
147
0.0208333333333333
147
0.0
147
0.0
147
0.0
147
0.0
147
0.0208333333333333
147
0.0
147
0.0
147
0.0
147
0.0
147
1.0
147
0.0
147
0.0
147
0.0
147
0.0
147
1.0
  0
MATERIAL
  5
6D3
102
{ACAD_XDICTIONARY
360
6D4
102
}
102
{ACAD_REACTORS
330
6D2
102
}
330
6D2
100
AcDbMaterial
  1
ByLayer
 72
     0
 43
0.0208333333333333
 43
0.0
 43
0.0
 43
0.0
 43
0.0
 43
0.0208333333333333
 43
0.0
 43
0.0
 43
0.0
 43
0.0
 43
1.0
 43
0.0
 43
0.0
 43
0.0
 43
0.0
 43
1.0
 77
     0
 47
0.0208333333333333
 47
0.0
 47
0.0
 47
0.0
 47
0.0
 47
0.0208333333333333
 47
0.0
 47
0.0
 47
0.0
 47
0.0
 47
1.0
 47
0.0
 47
0.0
 47
0.0
 47
0.0
 47
1.0
171
     0
 49
0.0208333333333333
 49
0.0
 49
0.0
 49
0.0
 49
0.0
 49
0.0208333333333333
 49
0.0
 49
0.0
 49
0.0
 49
0.0
 49
1.0
 49
0.0
 49
0.0
 49
0.0
 49
0.0
 49
1.0
175
     0
142
0.0208333333333333
142
0.0
142
0.0
142
0.0
142
0.0
142
0.0208333333333333
142
0.0
142
0.0
142
0.0
142
0.0
142
1.0
142
0.0
142
0.0
142
0.0
142
0.0
142
1.0
179
     0
144
0.0208333333333333
144
0.0
144
0.0
144
0.0
144
0.0
144
0.0208333333333333
144
0.0
144
0.0
144
0.0
144
0.0
144
1.0
144
0.0
144
0.0
144
0.0
144
0.0
144
1.0
147
0.0208333333333333
147
0.0
147
0.0
147
0.0
147
0.0
147
0.0208333333333333
147
0.0
147
0.0
147
0.0
147
0.0
147
1.0
147
0.0
147
0.0
147
0.0
147
0.0
147
1.0
  0
MATERIAL
  5
6E3
102
{ACAD_XDICTIONARY
360
6E4
102
}
102
{ACAD_REACTORS
330
6D2
102
}
330
6D2
100
AcDbMaterial
  1
Global
 72
     0
 43
0.0208333333333333
 43
0.0
 43
0.0
 43
0.0
 43
0.0
 43
0.0208333333333333
 43
0.0
 43
0.0
 43
0.0
 43
0.0
 43
1.0
 43
0.0
 43
0.0
 43
0.0
 43
0.0
 43
1.0
 77
     0
 47
0.0208333333333333
 47
0.0
 47
0.0
 47
0.0
 47
0.0
 47
0.0208333333333333
 47
0.0
 47
0.0
 47
0.0
 47
0.0
 47
1.0
 47
0.0
 47
0.0
 47
0.0
 47
0.0
 47
1.0
171
     0
 49
0.0208333333333333
 49
0.0
 49
0.0
 49
0.0
 49
0.0
 49
0.0208333333333333
 49
0.0
 49
0.0
 49
0.0
 49
0.0
 49
1.0
 49
0.0
 49
0.0
 49
0.0
 49
0.0
 49
1.0
175
     0
142
0.0208333333333333
142
0.0
142
0.0
142
0.0
142
0.0
142
0.0208333333333333
142
0.0
142
0.0
142
0.0
142
0.0
142
1.0
142
0.0
142
0.0
142
0.0
142
0.0
142
1.0
179
     0
144
0.0208333333333333
144
0.0
144
0.0
144
0.0
144
0.0
144
0.0208333333333333
144
0.0
144
0.0
144
0.0
144
0.0
144
1.0
144
0.0
144
0.0
144
0.0
144
0.0
144
1.0
147
0.0208333333333333
147
0.0
147
0.0
147
0.0
147
0.0
147
0.0208333333333333
147
0.0
147
0.0
147
0.0
147
0.0
147
1.0
147
0.0
147
0.0
147
0.0
147
0.0
147
1.0
  0
MLEADERSTYLE
  5
71A
102
{ACAD_REACTORS
330
719
102
}
330
719
100
AcDbMLeaderStyle
170
     2
171
     1
172
     0
 90
        2
 40
0.0
 41
0.0
173
     1
 91
-1056964608
340
12
 92
       -2
290
     1
 42
0.09
291
     1
 43
0.36
  3
Standard
 44
0.18
300

342
F
174
     1
178
     6
175
     1
176
     0
 93
-1056964608
 45
0.18
292
     0
297
     0
 46
0.18
 94
-1056964608
 47
1.0
 49
1.0
140
1.0
293
     1
141
0.0
294
     1
177
     0
142
1.0
295
     0
296
     0
143
0.125
1001
ACAD_MLEADERVER
1070
     2
  0
MLINESTYLE
  5
1C
102
{ACAD_REACTORS
330
1B
102
}
330
1B
100
AcDbMlineStyle
  2
STANDARD
 70
     0
  3

 62
   256
 51
90.0
 52
90.0
 71
     2
 49
0.5
 62
   256
  6
BYLAYER
 49
-0.5
 62
   256
  6
BYLAYER
  0
ACDBPLACEHOLDER
  5
6D1
102
{ACAD_REACTORS
330
6D0
102
}
330
6D0
  0
SCALE
  5
708
102
{ACAD_REACTORS
330
707
102
}
330
707
100
AcDbScale
 70
     0
300
1:1
140
1.0
141
1.0
290
     1
  0
SCALE
  5
709
102
{ACAD_REACTORS
330
707
102
}
330
707
100
AcDbScale
 70
     0
300
1/128" = 1'-0"
140
0.0078125
141
12.0
290
     0
  0
SCALE
  5
70A
102
{ACAD_REACTORS
330
707
102
}
330
707
100
AcDbScale
 70
     0
300
1/64" = 1'-0"
140
0.015625
141
12.0
290
     0
  0
SCALE
  5
70B
102
{ACAD_REACTORS
330
707
102
}
330
707
100
AcDbScale
 70
     0
300
1/32" = 1'-0"
140
0.03125
141
12.0
290
     0
  0
SCALE
  5
70C
102
{ACAD_REACTORS
330
707
102
}
330
707
100
AcDbScale
 70
     0
300
1/16" = 1'-0"
140
0.0625
141
12.0
290
     0
  0
SCALE
  5
70D
102
{ACAD_REACTORS
330
707
102
}
330
707
100
AcDbScale
 70
     0
300
3/32" = 1'-0"
140
0.09375
141
12.0
290
     0
  0
SCALE
  5
70E
102
{ACAD_REACTORS
330
707
102
}
330
707
100
AcDbScale
 70
     0
300
1/8" = 1'-0"
140
0.125
141
12.0
290
     0
  0
SCALE
  5
70F
102
{ACAD_REACTORS
330
707
102
}
330
707
100
AcDbScale
 70
     0
300
3/16" = 1'-0"
140
0.1875
141
12.0
290
     0
  0
SCALE
  5
710
102
{ACAD_REACTORS
330
707
102
}
330
707
100
AcDbScale
 70
     0
300
1/4" = 1'-0"
140
0.25
141
12.0
290
     0
  0
SCALE
  5
711
102
{ACAD_REACTORS
330
707
102
}
330
707
100
AcDbScale
 70
     0
300
3/8" = 1'-0"
140
0.375
141
12.0
290
     0
  0
SCALE
  5
712
102
{ACAD_REACTORS
330
707
102
}
330
707
100
AcDbScale
 70
     0
300
1/2" = 1'-0"
140
0.5
141
12.0
290
     0
  0
SCALE
  5
713
102
{ACAD_REACTORS
330
707
102
}
330
707
100
AcDbScale
 70
     0
300
3/4" = 1'-0"
140
0.75
141
12.0
290
     0
  0
SCALE
  5
714
102
{ACAD_REACTORS
330
707
102
}
330
707
100
AcDbScale
 70
     0
300
1" = 1'-0"
140
1.0
141
12.0
290
     0
  0
SCALE
  5
715
102
{ACAD_REACTORS
330
707
102
}
330
707
100
AcDbScale
 70
     0
300
1-1/2" = 1'-0"
140
1.5
141
12.0
290
     0
  0
SCALE
  5
716
102
{ACAD_REACTORS
330
707
102
}
330
707
100
AcDbScale
 70
     0
300
3" = 1'-0"
140
3.0
141
12.0
290
     0
  0
SCALE
  5
717
102
{ACAD_REACTORS
330
707
102
}
330
707
100
AcDbScale
 70
     0
300
6" = 1'-0"
140
6.0
141
12.0
290
     0
  0
SCALE
  5
718
102
{ACAD_REACTORS
330
707
102
}
330
707
100
AcDbScale
 70
     0
300
1'-0" = 1'-0"
140
12.0
141
12.0
290
     0
  0
ACDBSECTIONVIEWSTYLE
  5
71C
102
{ACAD_XDICTIONARY
360
776
102
}
102
{ACAD_REACTORS
330
71B
102
}
330
71B
100
AcDbModelDocViewStyle
 70
     0
  3
Imperial24
290
     0
100
AcDbSectionViewStyle
 70
     0
 71
     0
 90
       78
 71
     1
340
F
 40
0.24
340
0
340
0
 40
0.24
300
I, O, Q, S, X, Z
 40
0.48
 90
        3
 40
0.18
 90
        1
 71
     2
340
14
 90
       25
340
14
 90
       50
 40
0.24
 40
0.0
 40
0.24
 71
     3
340
F
 40
0.24
 90
        1
 40
0.75
 90
        1
300
%<\AcVar ViewType \f "%tc1">% %<\AcVar ViewSectionStartId>%-%<\AcVar ViewSectionEndId>%\PSCALE %<\AcVar ViewScale \f "%sn">%
 71
     4
300
ANSI31
 40
1.0
 90
        0
290
     0
290
     0
 90
        6
 40
0.0
 40
1.570796326794896
 40
0.2617993877991494
 40
1.308996938995747
 40
-0.2617993877991494
 40
1.832595714594046
  0
TABLESTYLE
  5
706
102
{ACAD_XDICTIONARY
360
73D
102
}
102
{ACAD_REACTORS
330
705
102
}
330
705
100
AcDbTableStyle
  3
Standard
 70
     0
 71
     0
 40
0.06
 41
0.06
280
     0
281
     0
  7
STANDARD
140
0.18
170
     2
 62
     0
 63
     7
283
     0
274
    -2
284
     1
 64
     0
275
    -2
285
     1
 65
     0
276
    -2
286
     1
 66
     0
277
    -2
287
     1
 67
     0
278
    -2
288
     1
 68
     0
279
    -2
289
     1
 69
     0
  7
STANDARD
140
0.25
170
     5
 62
     0
 63
     7
283
     0
274
    -2
284
     1
 64
     0
275
    -2
285
     1
 65
     0
276
    -2
286
     1
 66
     0
277
    -2
287
     1
 67
     0
278
    -2
288
     1
 68
     0
279
    -2
289
     1
 69
     0
  7
STANDARD
140
0.18
170
     5
 62
     0
 63
     7
283
     0
274
    -2
284
     1
 64
     0
275
    -2
285
     1
 65
     0
276
    -2
286
     1
 66
     0
277
    -2
287
     1
 67
     0
278
    -2
288
     1
 68
     0
279
    -2
289
     1
 69
     0
  0
VISUALSTYLE
  5
6F1
102
{ACAD_XDICTIONARY
360
74E
102
}
102
{ACAD_REACTORS
330
6EB
102
}
330
6EB
100
AcDbVisualStyle
  2
2dWireframe
 70
     4
 71
     0
 72
     2
 73
     0
 90
        0
 40
-0.6
 41
-30.0
 62
     5
 63
     7
 74
     1
 91
        4
 64
     7
 65
   257
 75
     1
175
     1
 42
1.0
 92
        0
 66
   257
 43
1.0
 76
     1
 77
     6
 78
     2
 67
     7
 79
     5
170
     0
171
     0
290
     0
174
     0
 93
        1
 44
0.0
173
     0
291
     0
 45
0.0
1001
ACAD
1000
AcDbSavedByObjectVersion
1070
     0
  0
VISUALSTYLE
  5
6F0
102
{ACAD_XDICTIONARY
360
74C
102
}
102
{ACAD_REACTORS
330
6EB
102
}
330
6EB
100
AcDbVisualStyle
  2
Basic
 70
     7
 71
     1
 72
     0
 73
     1
 90
        0
 40
-0.6
 41
-30.0
 62
     5
 63
     7
 74
     0
 91
        4
 64
     7
 65
   257
 75
     1
175
     1
 42
1.0
 92
        8
 66
     7
 43
1.0
 76
     1
 77
     6
 78
     2
 67
     7
 79
     5
170
     0
171
     0
290
     0
174
     0
 93
        1
 44
0.0
173
     0
291
     1
 45
0.0
1001
ACAD
1000
AcDbSavedByObjectVersion
1070
     0
  0
VISUALSTYLE
  5
6F7
102
{ACAD_XDICTIONARY
360
75A
102
}
102
{ACAD_REACTORS
330
6EB
102
}
330
6EB
100
AcDbVisualStyle
  2
Brighten
 70
    12
 71
     2
 72
     2
 73
     0
 90
        0
 40
-0.6
 41
-30.0
 62
     5
 63
     7
 74
     1
 91
        4
 64
     7
 65
   257
 75
     1
175
     1
 42
1.0
 92
        8
 66
     7
 43
1.0
 76
     1
 77
     6
 78
     2
 67
     7
 79
     5
170
     0
171
     0
290
     0
174
     0
 93
        1
 44
50.0
173
     0
291
     1
 45
0.0
1001
ACAD
1000
AcDbSavedByObjectVersion
1070
     0
  0
VISUALSTYLE
  5
6FB
102
{ACAD_XDICTIONARY
360
762
102
}
102
{ACAD_REACTORS
330
6EB
102
}
330
6EB
100
AcDbVisualStyle
  2
ColorChange
 70
    16
 71
     2
 72
     2
 73
     3
 90
        0
 40
-0.6
 41
-30.0
 62
     5
 63
     8
 74
     1
 91
        4
 64
     7
 65
   257
 75
     1
175
     1
 42
1.0
 92
        8
 66
     8
 43
1.0
 76
     1
 77
     6
 78
     2
 67
     7
 79
     5
170
     0
171
     0
290
     0
174
     0
 93
        1
 44
0.0
173
     0
291
     1
 45
0.0
1001
ACAD
1000
AcDbSavedByObjectVersion
1070
     0
  0
VISUALSTYLE
  5
6F4
102
{ACAD_XDICTIONARY
360
754
102
}
102
{ACAD_REACTORS
330
6EB
102
}
330
6EB
100
AcDbVisualStyle
  2
Conceptual
 70
     9
 71
     3
 72
     2
 73
     0
 90
        0
 40
-0.6
 41
-30.0
 62
     5
 63
     7
 74
     2
 91
        2
 64
     7
 65
   257
 75
     1
175
     1
 42
179.0
 92
        8
 66
     7
 43
1.0
 76
     1
 77
     6
 78
     2
 67
     7
 79
     3
170
     0
171
     0
290
     0
174
     0
 93
        1
 44
0.0
173
     0
291
     0
 45
0.0
1001
ACAD
1000
AcDbSavedByObjectVersion
1070
     0
  0
VISUALSTYLE
  5
6F6
102
{ACAD_XDICTIONARY
360
758
102
}
102
{ACAD_REACTORS
330
6EB
102
}
330
6EB
100
AcDbVisualStyle
  2
Dim
 70
    11
 71
     2
 72
     2
 73
     0
 90
        0
 40
-0.6
 41
-30.0
 62
     5
 63
     7
 74
     1
 91
        4
 64
     7
 65
   257
 75
     1
175
     1
 42
1.0
 92
        8
 66
     7
 43
1.0
 76
     1
 77
     6
 78
     2
 67
     7
 79
     5
170
     0
171
     0
290
     0
174
     0
 93
        1
 44
-50.0
173
     0
291
     1
 45
0.0
1001
ACAD
1000
AcDbSavedByObjectVersion
1070
     0
  0
VISUALSTYLE
  5
703
102
{ACAD_XDICTIONARY
360
772
102
}
102
{ACAD_REACTORS
330
6EB
102
}
330
6EB
100
AcDbVisualStyle
  2
EdgeColorOff
 70
    22
 71
     2
 72
     2
 73
     0
 90
        0
 40
-0.6
 41
-30.0
 62
     5
 63
     7
 74
     1
 91
        4
 64
     7
 65
   257
 75
     1
175
     1
 42
1.0
 92
        8
 66
     7
 43
1.0
 76
     1
 77
     6
 78
     2
 67
     7
 79
     5
170
     0
171
     0
290
     0
174
     0
 93
        1
 44
0.0
173
     0
291
     1
 45
0.0
1001
ACAD
1000
AcDbSavedByObjectVersion
1070
     0
  0
VISUALSTYLE
  5
6FA
102
{ACAD_XDICTIONARY
360
760
102
}
102
{ACAD_REACTORS
330
6EB
102
}
330
6EB
100
AcDbVisualStyle
  2
Facepattern
 70
    15
 71
     2
 72
     2
 73
     0
 90
        0
 40
-0.6
 41
-30.0
 62
     5
 63
     7
 74
     1
 91
        4
 64
     7
 65
   257
 75
     1
175
     1
 42
1.0
 92
        8
 66
     7
 43
1.0
 76
     1
 77
     6
 78
     2
 67
     7
 79
     5
170
     0
171
     0
290
     0
174
     0
 93
        1
 44
0.0
173
     0
291
     1
 45
0.0
1001
ACAD
1000
AcDbSavedByObjectVersion
1070
     0
  0
VISUALSTYLE
  5
6EC
102
{ACAD_XDICTIONARY
360
744
102
}
102
{ACAD_REACTORS
330
6EB
102
}
330
6EB
100
AcDbVisualStyle
  2
Flat
 70
     0
 71
     2
 72
     1
 73
     1
 90
        2
 40
-0.6
 41
30.0
 62
     5
 63
     7
 74
     0
 91
        0
 64
     7
 65
   257
 75
     1
175
     1
 42
1.0
 92
        8
 66
     7
 43
1.0
 76
     1
 77
     6
 78
     2
 67
     7
 79
     5
170
     0
171
     0
290
     0
174
     0
 93
       13
 44
0.0
173
     0
291
     1
 45
0.0
1001
ACAD
1000
AcDbSavedByObjectVersion
1070
     0
  0
VISUALSTYLE
  5
6ED
102
{ACAD_XDICTIONARY
360
746
102
}
102
{ACAD_REACTORS
330
6EB
102
}
330
6EB
100
AcDbVisualStyle
  2
FlatWithEdges
 70
     1
 71
     2
 72
     1
 73
     1
 90
        2
 40
-0.6
 41
30.0
 62
     5
 63
     7
 74
     1
 91
        0
 64
     7
 65
   257
 75
     1
175
     1
 42
1.0
 92
        0
 66
   257
 43
1.0
 76
     1
 77
     6
 78
     2
 67
     7
 79
     5
170
     0
171
     0
290
     0
174
     0
 93
       13
 44
0.0
173
     0
291
     1
 45
0.0
1001
ACAD
1000
AcDbSavedByObjectVersion
1070
     0
  0
VISUALSTYLE
  5
6EE
102
{ACAD_XDICTIONARY
360
748
102
}
102
{ACAD_REACTORS
330
6EB
102
}
330
6EB
100
AcDbVisualStyle
  2
Gouraud
 70
     2
 71
     2
 72
     2
 73
     1
 90
        2
 40
-0.6
 41
30.0
 62
     5
 63
     7
 74
     0
 91
        0
 64
     7
 65
   257
 75
     1
175
     1
 42
1.0
 92
        0
 66
     7
 43
1.0
 76
     1
 77
     6
 78
     2
 67
     7
 79
     5
170
     0
171
     0
290
     0
174
     0
 93
       13
 44
0.0
173
     0
291
     1
 45
0.0
1001
ACAD
1000
AcDbSavedByObjectVersion
1070
     0
  0
VISUALSTYLE
  5
6EF
102
{ACAD_XDICTIONARY
360
74A
102
}
102
{ACAD_REACTORS
330
6EB
102
}
330
6EB
100
AcDbVisualStyle
  2
GouraudWithEdges
 70
     3
 71
     2
 72
     2
 73
     1
 90
        2
 40
-0.6
 41
30.0
 62
     5
 63
     7
 74
     1
 91
        0
 64
     7
 65
   257
 75
     1
175
     1
 42
1.0
 92
        0
 66
   257
 43
1.0
 76
     1
 77
     6
 78
     2
 67
     7
 79
     5
170
     0
171
     0
290
     0
174
     0
 93
       13
 44
0.0
173
     0
291
     1
 45
0.0
1001
ACAD
1000
AcDbSavedByObjectVersion
1070
     0
  0
VISUALSTYLE
  5
6F3
102
{ACAD_XDICTIONARY
360
752
102
}
102
{ACAD_REACTORS
330
6EB
102
}
330
6EB
100
AcDbVisualStyle
  2
Hidden
 70
     6
 71
     1
 72
     2
 73
     2
 90
        0
 40
-0.6
 41
-30.0
 62
     5
 63
     7
 74
     2
 91
        2
 64
     7
 65
   257
 75
     2
175
     1
 42
40.0
 92
        0
 66
   257
 43
1.0
 76
     1
 77
     6
 78
     2
 67
     7
 79
     3
170
     0
171
     0
290
     0
174
     0
 93
        1
 44
0.0
173
     0
291
     0
 45
0.0
1001
ACAD
1000
AcDbSavedByObjectVersion
1070
     0
  0
VISUALSTYLE
  5
701
102
{ACAD_XDICTIONARY
360
76E
102
}
102
{ACAD_REACTORS
330
6EB
102
}
330
6EB
100
AcDbVisualStyle
  2
JitterOff
 70
    20
 71
     2
 72
     2
 73
     0
 90
        0
 40
-0.6
 41
-30.0
 62
     5
 63
     7
 74
     1
 91
        4
 64
     7
 65
   257
 75
     1
175
     1
 42
1.0
 92
       10
 66
     7
 43
1.0
 76
     1
 77
     6
 78
     2
 67
     7
 79
     5
170
     0
171
     0
290
     0
174
     0
 93
        1
 44
0.0
173
     0
291
     1
 45
0.0
1001
ACAD
1000
AcDbSavedByObjectVersion
1070
     0
  0
VISUALSTYLE
  5
6F9
102
{ACAD_XDICTIONARY
360
75E
102
}
102
{ACAD_REACTORS
330
6EB
102
}
330
6EB
100
AcDbVisualStyle
  2
Linepattern
 70
    14
 71
     2
 72
     2
 73
     0
 90
        0
 40
-0.6
 41
-30.0
 62
     5
 63
     7
 74
     1
 91
        4
 64
     7
 65
   257
 75
     7
175
     7
 42
1.0
 92
        8
 66
     7
 43
1.0
 76
     1
 77
     6
 78
     2
 67
     7
 79
     5
170
     0
171
     0
290
     0
174
     0
 93
        1
 44
0.0
173
     0
291
     1
 45
0.0
1001
ACAD
1000
AcDbSavedByObjectVersion
1070
     0
  0
VISUALSTYLE
  5
702
102
{ACAD_XDICTIONARY
360
770
102
}
102
{ACAD_REACTORS
330
6EB
102
}
330
6EB
100
AcDbVisualStyle
  2
OverhangOff
 70
    21
 71
     2
 72
     2
 73
     0
 90
        0
 40
-0.6
 41
-30.0
 62
     5
 63
     7
 74
     1
 91
        4
 64
     7
 65
   257
 75
     1
175
     1
 42
1.0
 92
        9
 66
     7
 43
1.0
 76
     1
 77
     6
 78
     2
 67
     7
 79
     5
170
     0
171
     0
290
     0
174
     0
 93
        1
 44
0.0
173
     0
291
     1
 45
0.0
1001
ACAD
1000
AcDbSavedByObjectVersion
1070
     0
  0
VISUALSTYLE
  5
6F5
102
{ACAD_XDICTIONARY
360
756
102
}
102
{ACAD_REACTORS
330
6EB
102
}
330
6EB
100
AcDbVisualStyle
  2
Realistic
 70
     8
 71
     2
 72
     3
 73
     0
 90
        2
 40
-0.6
 41
30.0
 62
     5
 63
     7
 74
     0
 91
        0
 64
     7
 65
   257
 75
     1
175
     1
 42
1.0
 92
        8
 66
   257
 43
1.0
 76
     1
 77
     6
 78
     2
 67
     7
 79
     3
170
     0
171
     0
290
     0
174
     0
 93
       13
 44
0.0
173
     0
291
     0
 45
0.0
1001
ACAD
1000
AcDbSavedByObjectVersion
1070
     0
  0
VISUALSTYLE
  5
700
102
{ACAD_XDICTIONARY
360
76C
102
}
102
{ACAD_REACTORS
330
6EB
102
}
330
6EB
100
AcDbVisualStyle
  2
Shaded
 70
    27
 71
     2
 72
     2
 73
     1
 90
        2
 40
-0.6
 41
30.0
 62
     5
 63
     7
 74
     0
 91
        4
 64
     7
 65
   257
 75
     1
175
     1
 42
1.0
 92
        8
 66
   257
 43
1.0
 76
     1
 77
     6
 78
     2
 67
     8
 79
     3
170
     0
171
     0
290
     0
174
     0
 93
        5
 44
0.0
173
     0
291
     0
 45
0.0
1001
ACAD
1000
AcDbSavedByObjectVersion
1070
     0
  0
VISUALSTYLE
  5
6FF
102
{ACAD_XDICTIONARY
360
76A
102
}
102
{ACAD_REACTORS
330
6EB
102
}
330
6EB
100
AcDbVisualStyle
  2
Shaded with edges
 70
    26
 71
     2
 72
     2
 73
     1
 90
        2
 40
-0.6
 41
30.0
 62
     5
 63
     7
 74
     1
 91
       10
 64
     7
 65
   257
 75
     2
175
     1
 42
1.0
 92
        8
 66
   257
 43
1.0
 76
     1
 77
     6
 78
     2
 67
     7
 79
     3
170
     0
171
     0
290
     0
174
     0
 93
        5
 44
0.0
173
     0
291
     0
 45
0.0
1001
ACAD
1000
AcDbSavedByObjectVersion
1070
     0
  0
VISUALSTYLE
  5
6FC
102
{ACAD_XDICTIONARY
360
764
102
}
102
{ACAD_REACTORS
330
6EB
102
}
330
6EB
100
AcDbVisualStyle
  2
Shades of Gray
 70
    23
 71
     2
 72
     2
 73
     3
 90
        0
 40
-0.6
 41
-30.0
 62
     5
 63
     7
 74
     2
 91
        2
 64
     7
 65
     7
 75
     1
175
     1
 42
40.0
 92
        8
 66
     7
 43
1.0
 76
     1
 77
     6
 78
     2
 67
     7
 79
     3
170
     0
171
     0
290
     0
174
     0
 93
        1
 44
0.0
173
     0
291
     0
 45
0.0
1001
ACAD
1000
AcDbSavedByObjectVersion
1070
     0
  0
VISUALSTYLE
  5
6FD
102
{ACAD_XDICTIONARY
360
766
102
}
102
{ACAD_REACTORS
330
6EB
102
}
330
6EB
100
AcDbVisualStyle
  2
Sketchy
 70
    24
 71
     1
 72
     2
 73
     2
 90
        0
 40
-0.6
 41
-30.0
 62
     5
 63
     7
 74
     2
 91
        2
 64
     7
 65
     7
 75
     1
175
     1
 42
40.0
 92
       11
 66
     7
 43
1.0
 76
     1
 77
     6
 78
     2
 67
     7
 79
     6
170
     0
171
     0
290
     0
174
     0
 93
        1
 44
0.0
173
     0
291
     0
 45
0.0
1001
ACAD
1000
AcDbSavedByObjectVersion
1070
     0
  0
VISUALSTYLE
  5
6F8
102
{ACAD_XDICTIONARY
360
75C
102
}
102
{ACAD_REACTORS
330
6EB
102
}
330
6EB
100
AcDbVisualStyle
  2
Thicken
 70
    13
 71
     2
 72
     2
 73
     0
 90
        0
 40
-0.6
 41
-30.0
 62
     5
 63
     7
 74
     1
 91
        4
 64
     7
 65
   257
 75
     1
175
     1
 42
1.0
 92
       12
 66
     7
 43
1.0
 76
     1
 77
     6
 78
     2
 67
     7
 79
     5
170
     0
171
     0
290
     0
174
     0
 93
        1
 44
0.0
173
     0
291
     1
 45
0.0
1001
ACAD
1000
AcDbSavedByObjectVersion
1070
     0
  0
VISUALSTYLE
  5
6F2
102
{ACAD_XDICTIONARY
360
750
102
}
102
{ACAD_REACTORS
330
6EB
102
}
330
6EB
100
AcDbVisualStyle
  2
Wireframe
 70
     5
 71
     0
 72
     2
 73
     0
 90
        0
 40
-0.6
 41
-30.0
 62
     5
 63
     7
 74
     1
 91
        4
 64
     7
 65
   257
 75
     1
175
     1
 42
1.0
 92
        0
 66
   257
 43
1.0
 76
     1
 77
     6
 78
     2
 67
     7
 79
     3
170
     0
171
     0
290
     0
174
     0
 93
        1
 44
0.0
173
     0
291
     0
 45
0.0
1001
ACAD
1000
AcDbSavedByObjectVersion
1070
     0
  0
VISUALSTYLE
  5
6FE
102
{ACAD_XDICTIONARY
360
768
102
}
102
{ACAD_REACTORS
330
6EB
102
}
330
6EB
100
AcDbVisualStyle
  2
X-Ray
 70
    25
 71
     2
 72
     2
 73
     1
 90
        1
 40
0.5
 41
-30.0
 62
     5
 63
     7
 74
     1
 91
        0
 64
     7
 65
   257
 75
     1
175
     1
 42
1.0
 92
        8
 66
     7
 43
1.0
 76
     1
 77
     6
 78
     2
 67
     7
 79
     3
170
     0
171
     0
290
     0
174
     0
 93
       13
 44
0.0
173
     0
291
     0
 45
0.0
1001
ACAD
1000
AcDbSavedByObjectVersion
1070
     0
  0
DICTIONARYVAR
  5
737
102
{ACAD_REACTORS
330
732
102
}
330
732
100
DictionaryVariables
280
     0
  1
1:1
  0
DICTIONARYVAR
  5
734
102
{ACAD_REACTORS
330
732
102
}
330
732
100
DictionaryVariables
280
     0
  1
STANDARD
  0
DICTIONARYVAR
  5
733
102
{ACAD_REACTORS
330
732
102
}
330
732
100
DictionaryVariables
280
     0
  1
STANDARD
  0
DICTIONARYVAR
  5
735
102
{ACAD_REACTORS
330
732
102
}
330
732
100
DictionaryVariables
280
     0
  1
Imperial24
  0
DICTIONARYVAR
  5
736
102
{ACAD_REACTORS
330
732
102
}
330
732
100
DictionaryVariables
280
     0
  1
Imperial24
  0
DICTIONARYVAR
  5
73A
102
{ACAD_REACTORS
330
732
102
}
330
732
100
DictionaryVariables
280
     0
  1
1
  0
DICTIONARYVAR
  5
739
102
{ACAD_REACTORS
330
732
102
}
330
732
100
DictionaryVariables
280
     0
  1
0
  0
DICTIONARYVAR
  5
738
102
{ACAD_REACTORS
330
732
102
}
330
732
100
DictionaryVariables
280
     0
  1
127
  0
DICTIONARYVAR
  5
73B
102
{ACAD_REACTORS
330
732
102
}
330
732
100
DictionaryVariables
280
     0
  1
2
  0
DICTIONARY
  5
778
330
71E
100
AcDbDictionary
280
     1
281
     1
  3
ACAD_XREC_ROUNDTRIP
360
779
  0
DICTIONARY
  5
77A
330
71F
100
AcDbDictionary
280
     1
281
     1
  3
ACAD_XREC_ROUNDTRIP
360
77B
  0
DICTIONARY
  5
77C
330
720
100
AcDbDictionary
280
     1
281
     1
  3
ACAD_XREC_ROUNDTRIP
360
77D
  0
DICTIONARY
  5
6DC
330
6DB
100
AcDbDictionary
280
     1
281
     1
  3
ACAD_XREC_ROUNDTRIP
360
742
  3
BUMPTILE
360
6DE
  3
DIFFUSETILE
360
6DD
  3
OPACITYTILE
360
6E1
  3
REFLECTIONTILE
360
6E0
  3
REFRACTIONTILE
360
6E2
  3
SPECULARTILE
360
6DF
  0
DICTIONARY
  5
6D4
330
6D3
100
AcDbDictionary
280
     1
281
     1
  3
ACAD_XREC_ROUNDTRIP
360
741
  3
BUMPTILE
360
6D6
  3
DIFFUSETILE
360
6D5
  3
OPACITYTILE
360
6D9
  3
REFLECTIONTILE
360
6D8
  3
REFRACTIONTILE
360
6DA
  3
SPECULARTILE
360
6D7
  0
DICTIONARY
  5
6E4
330
6E3
100
AcDbDictionary
280
     1
281
     1
  3
ACAD_XREC_ROUNDTRIP
360
743
  3
BUMPTILE
360
6E6
  3
DIFFUSETILE
360
6E5
  3
OPACITYTILE
360
6E9
  3
REFLECTIONTILE
360
6E8
  3
REFRACTIONTILE
360
6EA
  3
SPECULARTILE
360
6E7
  0
DICTIONARY
  5
776
330
71C
100
AcDbDictionary
280
     1
281
     1
  3
ACAD_XREC_ROUNDTRIP
360
777
  0
DICTIONARY
  5
73D
330
706
100
AcDbDictionary
280
     1
281
     1
  3
ACAD_ROUNDTRIP_2008_TABLESTYLE_CELLSTYLEMAP
360
73E
  3
ACAD_XREC_ROUNDTRIP
360
774
  0
DICTIONARY
  5
74E
330
6F1
100
AcDbDictionary
280
     1
281
     1
  3
ACAD_XREC_ROUNDTRIP
360
74F
  0
DICTIONARY
  5
74C
330
6F0
100
AcDbDictionary
280
     1
281
     1
  3
ACAD_XREC_ROUNDTRIP
360
74D
  0
DICTIONARY
  5
75A
330
6F7
100
AcDbDictionary
280
     1
281
     1
  3
ACAD_XREC_ROUNDTRIP
360
75B
  0
DICTIONARY
  5
762
330
6FB
100
AcDbDictionary
280
     1
281
     1
  3
ACAD_XREC_ROUNDTRIP
360
763
  0
DICTIONARY
  5
754
330
6F4
100
AcDbDictionary
280
     1
281
     1
  3
ACAD_XREC_ROUNDTRIP
360
755
  0
DICTIONARY
  5
758
330
6F6
100
AcDbDictionary
280
     1
281
     1
  3
ACAD_XREC_ROUNDTRIP
360
759
  0
DICTIONARY
  5
772
330
703
100
AcDbDictionary
280
     1
281
     1
  3
ACAD_XREC_ROUNDTRIP
360
773
  0
DICTIONARY
  5
760
330
6FA
100
AcDbDictionary
280
     1
281
     1
  3
ACAD_XREC_ROUNDTRIP
360
761
  0
DICTIONARY
  5
744
330
6EC
100
AcDbDictionary
280
     1
281
     1
  3
ACAD_XREC_ROUNDTRIP
360
745
  0
DICTIONARY
  5
746
330
6ED
100
AcDbDictionary
280
     1
281
     1
  3
ACAD_XREC_ROUNDTRIP
360
747
  0
DICTIONARY
  5
748
330
6EE
100
AcDbDictionary
280
     1
281
     1
  3
ACAD_XREC_ROUNDTRIP
360
749
  0
DICTIONARY
  5
74A
330
6EF
100
AcDbDictionary
280
     1
281
     1
  3
ACAD_XREC_ROUNDTRIP
360
74B
  0
DICTIONARY
  5
752
330
6F3
100
AcDbDictionary
280
     1
281
     1
  3
ACAD_XREC_ROUNDTRIP
360
753
  0
DICTIONARY
  5
76E
330
701
100
AcDbDictionary
280
     1
281
     1
  3
ACAD_XREC_ROUNDTRIP
360
76F
  0
DICTIONARY
  5
75E
330
6F9
100
AcDbDictionary
280
     1
281
     1
  3
ACAD_XREC_ROUNDTRIP
360
75F
  0
DICTIONARY
  5
770
330
702
100
AcDbDictionary
280
     1
281
     1
  3
ACAD_XREC_ROUNDTRIP
360
771
  0
DICTIONARY
  5
756
330
6F5
100
AcDbDictionary
280
     1
281
     1
  3
ACAD_XREC_ROUNDTRIP
360
757
  0
DICTIONARY
  5
76C
330
700
100
AcDbDictionary
280
     1
281
     1
  3
ACAD_XREC_ROUNDTRIP
360
76D
  0
DICTIONARY
  5
76A
330
6FF
100
AcDbDictionary
280
     1
281
     1
  3
ACAD_XREC_ROUNDTRIP
360
76B
  0
DICTIONARY
  5
764
330
6FC
100
AcDbDictionary
280
     1
281
     1
  3
ACAD_XREC_ROUNDTRIP
360
765
  0
DICTIONARY
  5
766
330
6FD
100
AcDbDictionary
280
     1
281
     1
  3
ACAD_XREC_ROUNDTRIP
360
767
  0
DICTIONARY
  5
75C
330
6F8
100
AcDbDictionary
280
     1
281
     1
  3
ACAD_XREC_ROUNDTRIP
360
75D
  0
DICTIONARY
  5
750
330
6F2
100
AcDbDictionary
280
     1
281
     1
  3
ACAD_XREC_ROUNDTRIP
360
751
  0
DICTIONARY
  5
768
330
6FE
100
AcDbDictionary
280
     1
281
     1
  3
ACAD_XREC_ROUNDTRIP
360
769
  0
XRECORD
  5
779
102
{ACAD_REACTORS
330
778
102
}
330
778
100
AcDbXrecord
280
     1
102
DISPLAYNAME
  1
Imperial24
102
FLAGS
 90
        0
  0
XRECORD
  5
77B
102
{ACAD_REACTORS
330
77A
102
}
330
77A
100
AcDbXrecord
280
     1
102
SHADEPLOT
 70
     0
102
SHADEPLOTRESLEVEL
 70
     2
102
SHADEPLOTCUSTOMDPI
 70
   300
  0
XRECORD
  5
77D
102
{ACAD_REACTORS
330
77C
102
}
330
77C
100
AcDbXrecord
280
     1
102
SHADEPLOT
 70
     0
102
SHADEPLOTRESLEVEL
 70
     2
102
SHADEPLOTCUSTOMDPI
 70
   300
  0
XRECORD
  5
742
102
{ACAD_REACTORS
330
6DC
102
}
330
6DC
100
AcDbXrecord
280
     1
102
MATERIAL
148
0.0
149
0.0
149
0.0
 93
        0
 94
      127
282
     0
 72
     0
 77
     0
171
     0
175
     0
179
     0
273
     0
  0
XRECORD
  5
6DE
102
{ACAD_REACTORS
330
6DC
102
}
330
6DC
100
AcDbXrecord
280
     1
270
     1
271
     1
  0
XRECORD
  5
6DD
102
{ACAD_REACTORS
330
6DC
102
}
330
6DC
100
AcDbXrecord
280
     1
270
     1
271
     1
  0
XRECORD
  5
6E1
102
{ACAD_REACTORS
330
6DC
102
}
330
6DC
100
AcDbXrecord
280
     1
270
     1
271
     1
  0
XRECORD
  5
6E0
102
{ACAD_REACTORS
330
6DC
102
}
330
6DC
100
AcDbXrecord
280
     1
270
     1
271
     1
  0
XRECORD
  5
6E2
102
{ACAD_REACTORS
330
6DC
102
}
330
6DC
100
AcDbXrecord
280
     1
270
     1
271
     1
  0
XRECORD
  5
6DF
102
{ACAD_REACTORS
330
6DC
102
}
330
6DC
100
AcDbXrecord
280
     1
270
     1
271
     1
  0
XRECORD
  5
741
102
{ACAD_REACTORS
330
6D4
102
}
330
6D4
100
AcDbXrecord
280
     1
102
MATERIAL
148
0.0
149
0.0
149
0.0
 93
        0
 94
      127
282
     0
 72
     0
 77
     0
171
     0
175
     0
179
     0
273
     0
  0
XRECORD
  5
6D6
102
{ACAD_REACTORS
330
6D4
102
}
330
6D4
100
AcDbXrecord
280
     1
270
     1
271
     1
  0
XRECORD
  5
6D5
102
{ACAD_REACTORS
330
6D4
102
}
330
6D4
100
AcDbXrecord
280
     1
270
     1
271
     1
  0
XRECORD
  5
6D9
102
{ACAD_REACTORS
330
6D4
102
}
330
6D4
100
AcDbXrecord
280
     1
270
     1
271
     1
  0
XRECORD
  5
6D8
102
{ACAD_REACTORS
330
6D4
102
}
330
6D4
100
AcDbXrecord
280
     1
270
     1
271
     1
  0
XRECORD
  5
6DA
102
{ACAD_REACTORS
330
6D4
102
}
330
6D4
100
AcDbXrecord
280
     1
270
     1
271
     1
  0
XRECORD
  5
6D7
102
{ACAD_REACTORS
330
6D4
102
}
330
6D4
100
AcDbXrecord
280
     1
270
     1
271
     1
  0
XRECORD
  5
743
102
{ACAD_REACTORS
330
6E4
102
}
330
6E4
100
AcDbXrecord
280
     1
102
MATERIAL
148
0.0
149
0.0
149
0.0
 93
        0
 94
      127
282
     0
 72
     0
 77
     0
171
     0
175
     0
179
     0
273
     0
  0
XRECORD
  5
6E6
102
{ACAD_REACTORS
330
6E4
102
}
330
6E4
100
AcDbXrecord
280
     1
270
     1
271
     1
  0
XRECORD
  5
6E5
102
{ACAD_REACTORS
330
6E4
102
}
330
6E4
100
AcDbXrecord
280
     1
270
     1
271
     1
  0
XRECORD
  5
6E9
102
{ACAD_REACTORS
330
6E4
102
}
330
6E4
100
AcDbXrecord
280
     1
270
     1
271
     1
  0
XRECORD
  5
6E8
102
{ACAD_REACTORS
330
6E4
102
}
330
6E4
100
AcDbXrecord
280
     1
270
     1
271
     1
  0
XRECORD
  5
6EA
102
{ACAD_REACTORS
330
6E4
102
}
330
6E4
100
AcDbXrecord
280
     1
270
     1
271
     1
  0
XRECORD
  5
6E7
102
{ACAD_REACTORS
330
6E4
102
}
330
6E4
100
AcDbXrecord
280
     1
270
     1
271
     1
  0
XRECORD
  5
777
102
{ACAD_REACTORS
330
776
102
}
330
776
100
AcDbXrecord
280
     1
102
DISPLAYNAME
  1
Imperial24
102
FLAGS
 90
        0
  0
CELLSTYLEMAP
  5
73E
102
{ACAD_REACTORS
330
73D
102
}
330
73D
100
AcDbCellStyleMap
 90
        3
300
CELLSTYLE
  1
TABLEFORMAT_BEGIN
 90
        5
170
     1
 91
        0
 92
    32768
 62
   257
 93
        1
300
CONTENTFORMAT
  1
CONTENTFORMAT_BEGIN
 90
        0
 91
        0
 92
      512
 93
        0
300

 40
0.0
140
1.0
 94
        5
 62
     0
340
F
144
0.25
309
CONTENTFORMAT_END
171
     0
 94
        0
309
TABLEFORMAT_END
  1
CELLSTYLE_BEGIN
 90
        1
 91
        1
300
_TITLE
309
CELLSTYLE_END
300
CELLSTYLE
  1
TABLEFORMAT_BEGIN
 90
        5
170
     1
 91
        0
 92
        0
 62
   257
 93
        1
300
CONTENTFORMAT
  1
CONTENTFORMAT_BEGIN
 90
        0
 91
        0
 92
      512
 93
        0
300

 40
0.0
140
1.0
 94
        5
 62
     0
340
F
144
0.18
309
CONTENTFORMAT_END
171
     0
 94
        0
309
TABLEFORMAT_END
  1
CELLSTYLE_BEGIN
 90
        2
 91
        1
300
_HEADER
309
CELLSTYLE_END
300
CELLSTYLE
  1
TABLEFORMAT_BEGIN
 90
        5
170
     1
 91
        0
 92
        0
 62
   257
 93
        1
300
CONTENTFORMAT
  1
CONTENTFORMAT_BEGIN
 90
        0
 91
        0
 92
      512
 93
        0
300

 40
0.0
140
1.0
 94
        2
 62
     0
340
F
144
0.18
309
CONTENTFORMAT_END
171
     0
 94
        0
309
TABLEFORMAT_END
  1
CELLSTYLE_BEGIN
 90
        3
 91
        2
300
_DATA
309
CELLSTYLE_END
  0
XRECORD
  5
774
102
{ACAD_REACTORS
330
73D
102
}
330
73D
100
AcDbXrecord
280
     1
102
ACAD_ROUNDTRIP_PRE2007_TABLESTYLE
 90
      512
 91
        0
  1

 92
      512
 93
        0
  2

 94
      512
 95
        0
  3

  0
XRECORD
  5
74F
102
{ACAD_REACTORS
330
74E
102
}
330
74E
100
AcDbXrecord
280
     1
102
RTVSPost2010Prop28
280
     1
102
RTVSPost2010PropOp28
 70
     1
102
RTVSPost2010Prop29
280
     1
102
RTVSPost2010PropOp29
 70
     1
102
RTVSPost2010Prop30
280
     0
102
RTVSPost2010PropOp30
 70
     1
102
RTVSPost2010Prop31
280
     0
102
RTVSPost2010PropOp31
 70
     1
102
RTVSPost2010Prop32
280
     0
102
RTVSPost2010PropOp32
 70
     1
102
RTVSPost2010Prop33
280
     0
102
RTVSPost2010PropOp33
 70
     1
102
RTVSPost2010Prop34
280
     0
102
RTVSPost2010PropOp34
 70
     1
102
RTVSPost2010Prop35
280
     0
102
RTVSPost2010PropOp35
 70
     1
102
RTVSPost2010Prop36
280
     0
102
RTVSPost2010PropOp36
 70
     1
102
RTVSPost2010Prop37
 90
       50
102
RTVSPost2010PropOp37
 70
     1
102
RTVSPost2010Prop38
140
0.0
102
RTVSPost2010PropOp38
 70
     1
102
RTVSPost2010Prop39
140
1.0
102
RTVSPost2010PropOp39
 70
     1
102
RTVSPost2010Prop40
 90
        0
102
RTVSPost2010PropOp40
 70
     1
102
RTVSPost2010Prop41ColorIndex
 90
       18
102
RTVSPost2010Prop41ColorRGB
 90
        0
102
RTVSPost2010PropOp41
 70
     1
102
RTVSPost2010Prop42
 90
       50
102
RTVSPost2010PropOp42
 70
     1
102
RTVSPost2010Prop43
 90
        3
102
RTVSPost2010PropOp43
 70
     1
102
RTVSPost2010Prop44ColorIndex
 90
        5
102
RTVSPost2010Prop44ColorRGB
 90
      255
102
RTVSPost2010PropOp44
 70
     1
102
RTVSPost2010Prop45
280
     0
102
RTVSPost2010PropOp45
 70
     1
102
RTVSPost2010Prop46
 90
       50
102
RTVSPost2010PropOp46
 70
     1
102
RTVSPost2010Prop47
 90
       50
102
RTVSPost2010PropOp47
 70
     1
102
RTVSPost2010Prop48
 90
       50
102
RTVSPost2010PropOp48
 70
     1
102
RTVSPost2010Prop49
280
     0
102
RTVSPost2010PropOp49
 70
     1
102
RTVSPost2010Prop50
 90
       50
102
RTVSPost2010PropOp50
 70
     1
102
RTVSPost2010Prop51ColorIndex
 90
      256
102
RTVSPost2010Prop51ColorRGB
 90
-16777216
102
RTVSPost2010PropOp51
 70
     0
102
RTVSPost2010Prop52
140
1.0
102
RTVSPost2010PropOp52
 70
     0
102
RTVSPost2010Prop53
 90
        2
102
RTVSPost2010PropOp53
 70
     1
102
RTVSPost2010Prop54
  1
strokes_ogs.tif
102
RTVSPost2010PropOp54
 70
     1
102
RTVSPost2010Prop55
280
     0
102
RTVSPost2010PropOp55
 70
     1
102
RTVSPost2010Prop56
140
1.0
102
RTVSPost2010PropOp56
 70
     1
102
RTVSPost2010Prop57
140
1.0
102
RTVSPost2010PropOp57
 70
     1
102
RTVSPropertyOp0
 70
     1
102
RTVSPropertyOp1
 70
     1
102
RTVSPropertyOp2
 70
     1
102
RTVSPropertyOp3
 70
     1
102
RTVSPropertyOp4
 70
     1
102
RTVSPropertyOp5
 70
     1
102
RTVSPropertyOp6
 70
     1
102
RTVSPropertyOp7
 70
     1
102
RTVSPropertyOp8
 70
     1
102
RTVSPropertyOp9
 70
     1
102
RTVSPropertyOp10
 70
     1
102
RTVSPropertyOp11
 70
     1
102
RTVSPropertyOp12
 70
     1
102
RTVSPropertyOp13
 70
     1
102
RTVSPropertyOp14
 70
     1
102
RTVSPropertyOp15
 70
     1
102
RTVSPropertyOp16
 70
     1
102
RTVSPropertyOp17
 70
     1
102
RTVSPropertyOp18
 70
     1
102
RTVSPropertyOp19
 70
     1
102
RTVSPropertyOp20
 70
     1
102
RTVSPropertyOp21
 70
     1
102
RTVSPropertyOp22
 70
     1
102
RTVSPropertyOp23
 70
     1
102
RTVSPropertyOp24
 70
     1
102
RTVSPropertyOp25
 70
     1
102
RTVSPropertyOp26
 70
     1
102
RTVSPropertyOp27
 70
     1
102
RTVSPropertyOp28
 70
     1
102
RTVSPropertyOp29
 70
     1
102
RTVSPropertyOp30
 70
     1
102
RTVSPropertyOp31
 70
     1
102
RTVSPropertyOp32
 70
     1
102
RTVSPropertyOp33
 70
     1
102
RTVSPropertyOp34
 70
     1
102
RTVSPropertyOp35
 70
     1
102
RTVSPropertyOp36
 70
     1
102
RTVSPropertyOp37
 70
     1
102
RTVSPropertyOp38
 70
     1
102
RTVSPropertyOp39
 70
     1
102
RTVSPropertyOp40
 70
     1
102
RTVSPropertyOp41
 70
     1
102
RTVSPropertyOp42
 70
     1
102
RTVSPropertyOp43
 70
     1
102
RTVSPropertyOp44
 70
     1
102
RTVSPropertyOp45
 70
     1
102
RTVSPropertyOp46
 70
     1
102
RTVSPropertyOp47
 70
     1
102
RTVSPropertyOp48
 70
     1
102
RTVSPropertyOp49
 70
     1
102
RTVSPropertyOp50
 70
     1
102
RTVSPropertyOp51
 70
     0
102
RTVSPropertyOp52
 70
     0
102
RTVSPropertyOp53
 70
     1
102
RTVSPropertyOp54
 70
     1
102
RTVSPropertyOp55
 70
     1
102
RTVSPropertyOp56
 70
     1
102
RTVSPropertyOp57
 70
     1
102
RTVSPropertyOp58
 70
     1
102
RTVSPropertyOp59
 70
     1
102
RTVSPropertyOp60
 70
     1
102
RTVSPropertyOp61
 70
     1
102
RTVSPropertyOp62
 70
     1
  0
XRECORD
  5
74D
102
{ACAD_REACTORS
330
74C
102
}
330
74C
100
AcDbXrecord
280
     1
102
RTVSPost2010Prop28
280
     0
102
RTVSPost2010PropOp28
 70
     1
102
RTVSPost2010Prop29
280
     1
102
RTVSPost2010PropOp29
 70
     1
102
RTVSPost2010Prop30
280
     1
102
RTVSPost2010PropOp30
 70
     1
102
RTVSPost2010Prop31
280
     0
102
RTVSPost2010PropOp31
 70
     1
102
RTVSPost2010Prop32
280
     0
102
RTVSPost2010PropOp32
 70
     1
102
RTVSPost2010Prop33
280
     0
102
RTVSPost2010PropOp33
 70
     1
102
RTVSPost2010Prop34
280
     0
102
RTVSPost2010PropOp34
 70
     1
102
RTVSPost2010Prop35
280
     0
102
RTVSPost2010PropOp35
 70
     1
102
RTVSPost2010Prop36
280
     0
102
RTVSPost2010PropOp36
 70
     1
102
RTVSPost2010Prop37
 90
       50
102
RTVSPost2010PropOp37
 70
     1
102
RTVSPost2010Prop38
140
0.0
102
RTVSPost2010PropOp38
 70
     1
102
RTVSPost2010Prop39
140
1.0
102
RTVSPost2010PropOp39
 70
     1
102
RTVSPost2010Prop40
 90
        0
102
RTVSPost2010PropOp40
 70
     1
102
RTVSPost2010Prop41ColorIndex
 90
       18
102
RTVSPost2010Prop41ColorRGB
 90
        0
102
RTVSPost2010PropOp41
 70
     1
102
RTVSPost2010Prop42
 90
       50
102
RTVSPost2010PropOp42
 70
     1
102
RTVSPost2010Prop43
 90
        3
102
RTVSPost2010PropOp43
 70
     1
102
RTVSPost2010Prop44ColorIndex
 90
        5
102
RTVSPost2010Prop44ColorRGB
 90
      255
102
RTVSPost2010PropOp44
 70
     1
102
RTVSPost2010Prop45
280
     0
102
RTVSPost2010PropOp45
 70
     1
102
RTVSPost2010Prop46
 90
       50
102
RTVSPost2010PropOp46
 70
     1
102
RTVSPost2010Prop47
 90
       50
102
RTVSPost2010PropOp47
 70
     1
102
RTVSPost2010Prop48
 90
       50
102
RTVSPost2010PropOp48
 70
     1
102
RTVSPost2010Prop49
280
     0
102
RTVSPost2010PropOp49
 70
     1
102
RTVSPost2010Prop50
 90
       50
102
RTVSPost2010PropOp50
 70
     1
102
RTVSPost2010Prop51ColorIndex
 90
      256
102
RTVSPost2010Prop51ColorRGB
 90
-16777216
102
RTVSPost2010PropOp51
 70
     0
102
RTVSPost2010Prop52
140
1.0
102
RTVSPost2010PropOp52
 70
     0
102
RTVSPost2010Prop53
 90
        2
102
RTVSPost2010PropOp53
 70
     1
102
RTVSPost2010Prop54
  1
strokes_ogs.tif
102
RTVSPost2010PropOp54
 70
     1
102
RTVSPost2010Prop55
280
     0
102
RTVSPost2010PropOp55
 70
     1
102
RTVSPost2010Prop56
140
1.0
102
RTVSPost2010PropOp56
 70
     1
102
RTVSPost2010Prop57
140
1.0
102
RTVSPost2010PropOp57
 70
     1
102
RTVSPropertyOp0
 70
     1
102
RTVSPropertyOp1
 70
     1
102
RTVSPropertyOp2
 70
     1
102
RTVSPropertyOp3
 70
     1
102
RTVSPropertyOp4
 70
     1
102
RTVSPropertyOp5
 70
     1
102
RTVSPropertyOp6
 70
     1
102
RTVSPropertyOp7
 70
     1
102
RTVSPropertyOp8
 70
     1
102
RTVSPropertyOp9
 70
     1
102
RTVSPropertyOp10
 70
     1
102
RTVSPropertyOp11
 70
     1
102
RTVSPropertyOp12
 70
     1
102
RTVSPropertyOp13
 70
     1
102
RTVSPropertyOp14
 70
     1
102
RTVSPropertyOp15
 70
     1
102
RTVSPropertyOp16
 70
     1
102
RTVSPropertyOp17
 70
     1
102
RTVSPropertyOp18
 70
     1
102
RTVSPropertyOp19
 70
     1
102
RTVSPropertyOp20
 70
     1
102
RTVSPropertyOp21
 70
     1
102
RTVSPropertyOp22
 70
     1
102
RTVSPropertyOp23
 70
     1
102
RTVSPropertyOp24
 70
     1
102
RTVSPropertyOp25
 70
     1
102
RTVSPropertyOp26
 70
     1
102
RTVSPropertyOp27
 70
     1
102
RTVSPropertyOp28
 70
     1
102
RTVSPropertyOp29
 70
     1
102
RTVSPropertyOp30
 70
     1
102
RTVSPropertyOp31
 70
     1
102
RTVSPropertyOp32
 70
     1
102
RTVSPropertyOp33
 70
     1
102
RTVSPropertyOp34
 70
     1
102
RTVSPropertyOp35
 70
     1
102
RTVSPropertyOp36
 70
     1
102
RTVSPropertyOp37
 70
     1
102
RTVSPropertyOp38
 70
     1
102
RTVSPropertyOp39
 70
     1
102
RTVSPropertyOp40
 70
     1
102
RTVSPropertyOp41
 70
     1
102
RTVSPropertyOp42
 70
     1
102
RTVSPropertyOp43
 70
     1
102
RTVSPropertyOp44
 70
     1
102
RTVSPropertyOp45
 70
     1
102
RTVSPropertyOp46
 70
     1
102
RTVSPropertyOp47
 70
     1
102
RTVSPropertyOp48
 70
     1
102
RTVSPropertyOp49
 70
     1
102
RTVSPropertyOp50
 70
     1
102
RTVSPropertyOp51
 70
     0
102
RTVSPropertyOp52
 70
     0
102
RTVSPropertyOp53
 70
     1
102
RTVSPropertyOp54
 70
     1
102
RTVSPropertyOp55
 70
     1
102
RTVSPropertyOp56
 70
     1
102
RTVSPropertyOp57
 70
     1
102
RTVSPropertyOp58
 70
     1
102
RTVSPropertyOp59
 70
     1
102
RTVSPropertyOp60
 70
     1
102
RTVSPropertyOp61
 70
     1
102
RTVSPropertyOp62
 70
     1
  0
XRECORD
  5
75B
102
{ACAD_REACTORS
330
75A
102
}
330
75A
100
AcDbXrecord
280
     1
102
RTVSPost2010Prop28
280
     0
102
RTVSPost2010PropOp28
 70
     1
102
RTVSPost2010Prop29
280
     1
102
RTVSPost2010PropOp29
 70
     1
102
RTVSPost2010Prop30
280
     1
102
RTVSPost2010PropOp30
 70
     1
102
RTVSPost2010Prop31
280
     0
102
RTVSPost2010PropOp31
 70
     1
102
RTVSPost2010Prop32
280
     0
102
RTVSPost2010PropOp32
 70
     1
102
RTVSPost2010Prop33
280
     0
102
RTVSPost2010PropOp33
 70
     1
102
RTVSPost2010Prop34
280
     0
102
RTVSPost2010PropOp34
 70
     1
102
RTVSPost2010Prop35
280
     0
102
RTVSPost2010PropOp35
 70
     1
102
RTVSPost2010Prop36
280
     0
102
RTVSPost2010PropOp36
 70
     1
102
RTVSPost2010Prop37
 90
       50
102
RTVSPost2010PropOp37
 70
     1
102
RTVSPost2010Prop38
140
0.0
102
RTVSPost2010PropOp38
 70
     1
102
RTVSPost2010Prop39
140
1.0
102
RTVSPost2010PropOp39
 70
     1
102
RTVSPost2010Prop40
 90
        0
102
RTVSPost2010PropOp40
 70
     1
102
RTVSPost2010Prop41ColorIndex
 90
       18
102
RTVSPost2010Prop41ColorRGB
 90
        0
102
RTVSPost2010PropOp41
 70
     1
102
RTVSPost2010Prop42
 90
       50
102
RTVSPost2010PropOp42
 70
     1
102
RTVSPost2010Prop43
 90
        3
102
RTVSPost2010PropOp43
 70
     1
102
RTVSPost2010Prop44ColorIndex
 90
        5
102
RTVSPost2010Prop44ColorRGB
 90
      255
102
RTVSPost2010PropOp44
 70
     1
102
RTVSPost2010Prop45
280
     0
102
RTVSPost2010PropOp45
 70
     1
102
RTVSPost2010Prop46
 90
       50
102
RTVSPost2010PropOp46
 70
     1
102
RTVSPost2010Prop47
 90
       50
102
RTVSPost2010PropOp47
 70
     1
102
RTVSPost2010Prop48
 90
       50
102
RTVSPost2010PropOp48
 70
     1
102
RTVSPost2010Prop49
280
     0
102
RTVSPost2010PropOp49
 70
     1
102
RTVSPost2010Prop50
 90
       50
102
RTVSPost2010PropOp50
 70
     1
102
RTVSPost2010Prop51ColorIndex
 90
      256
102
RTVSPost2010Prop51ColorRGB
 90
-16777216
102
RTVSPost2010PropOp51
 70
     0
102
RTVSPost2010Prop52
140
1.0
102
RTVSPost2010PropOp52
 70
     0
102
RTVSPost2010Prop53
 90
        2
102
RTVSPost2010PropOp53
 70
     1
102
RTVSPost2010Prop54
  1
strokes_ogs.tif
102
RTVSPost2010PropOp54
 70
     1
102
RTVSPost2010Prop55
280
     0
102
RTVSPost2010PropOp55
 70
     1
102
RTVSPost2010Prop56
140
1.0
102
RTVSPost2010PropOp56
 70
     1
102
RTVSPost2010Prop57
140
1.0
102
RTVSPost2010PropOp57
 70
     1
102
RTVSPropertyOp0
 70
     1
102
RTVSPropertyOp1
 70
     1
102
RTVSPropertyOp2
 70
     1
102
RTVSPropertyOp3
 70
     1
102
RTVSPropertyOp4
 70
     1
102
RTVSPropertyOp5
 70
     1
102
RTVSPropertyOp6
 70
     1
102
RTVSPropertyOp7
 70
     1
102
RTVSPropertyOp8
 70
     1
102
RTVSPropertyOp9
 70
     1
102
RTVSPropertyOp10
 70
     1
102
RTVSPropertyOp11
 70
     1
102
RTVSPropertyOp12
 70
     1
102
RTVSPropertyOp13
 70
     1
102
RTVSPropertyOp14
 70
     1
102
RTVSPropertyOp15
 70
     1
102
RTVSPropertyOp16
 70
     1
102
RTVSPropertyOp17
 70
     1
102
RTVSPropertyOp18
 70
     1
102
RTVSPropertyOp19
 70
     1
102
RTVSPropertyOp20
 70
     1
102
RTVSPropertyOp21
 70
     1
102
RTVSPropertyOp22
 70
     1
102
RTVSPropertyOp23
 70
     1
102
RTVSPropertyOp24
 70
     1
102
RTVSPropertyOp25
 70
     1
102
RTVSPropertyOp26
 70
     1
102
RTVSPropertyOp27
 70
     1
102
RTVSPropertyOp28
 70
     1
102
RTVSPropertyOp29
 70
     1
102
RTVSPropertyOp30
 70
     1
102
RTVSPropertyOp31
 70
     1
102
RTVSPropertyOp32
 70
     1
102
RTVSPropertyOp33
 70
     1
102
RTVSPropertyOp34
 70
     1
102
RTVSPropertyOp35
 70
     1
102
RTVSPropertyOp36
 70
     1
102
RTVSPropertyOp37
 70
     1
102
RTVSPropertyOp38
 70
     1
102
RTVSPropertyOp39
 70
     1
102
RTVSPropertyOp40
 70
     1
102
RTVSPropertyOp41
 70
     1
102
RTVSPropertyOp42
 70
     1
102
RTVSPropertyOp43
 70
     1
102
RTVSPropertyOp44
 70
     1
102
RTVSPropertyOp45
 70
     1
102
RTVSPropertyOp46
 70
     1
102
RTVSPropertyOp47
 70
     1
102
RTVSPropertyOp48
 70
     1
102
RTVSPropertyOp49
 70
     1
102
RTVSPropertyOp50
 70
     1
102
RTVSPropertyOp51
 70
     0
102
RTVSPropertyOp52
 70
     0
102
RTVSPropertyOp53
 70
     1
102
RTVSPropertyOp54
 70
     1
102
RTVSPropertyOp55
 70
     1
102
RTVSPropertyOp56
 70
     1
102
RTVSPropertyOp57
 70
     1
102
RTVSPropertyOp58
 70
     1
102
RTVSPropertyOp59
 70
     1
102
RTVSPropertyOp60
 70
     1
102
RTVSPropertyOp61
 70
     1
102
RTVSPropertyOp62
 70
     1
  0
XRECORD
  5
763
102
{ACAD_REACTORS
330
762
102
}
330
762
100
AcDbXrecord
280
     1
102
RTVSPost2010Prop28
280
     0
102
RTVSPost2010PropOp28
 70
     1
102
RTVSPost2010Prop29
280
     1
102
RTVSPost2010PropOp29
 70
     1
102
RTVSPost2010Prop30
280
     1
102
RTVSPost2010PropOp30
 70
     1
102
RTVSPost2010Prop31
280
     0
102
RTVSPost2010PropOp31
 70
     1
102
RTVSPost2010Prop32
280
     0
102
RTVSPost2010PropOp32
 70
     1
102
RTVSPost2010Prop33
280
     0
102
RTVSPost2010PropOp33
 70
     1
102
RTVSPost2010Prop34
280
     0
102
RTVSPost2010PropOp34
 70
     1
102
RTVSPost2010Prop35
280
     0
102
RTVSPost2010PropOp35
 70
     1
102
RTVSPost2010Prop36
280
     0
102
RTVSPost2010PropOp36
 70
     1
102
RTVSPost2010Prop37
 90
       50
102
RTVSPost2010PropOp37
 70
     1
102
RTVSPost2010Prop38
140
0.0
102
RTVSPost2010PropOp38
 70
     1
102
RTVSPost2010Prop39
140
1.0
102
RTVSPost2010PropOp39
 70
     1
102
RTVSPost2010Prop40
 90
        0
102
RTVSPost2010PropOp40
 70
     1
102
RTVSPost2010Prop41ColorIndex
 90
       18
102
RTVSPost2010Prop41ColorRGB
 90
        0
102
RTVSPost2010PropOp41
 70
     1
102
RTVSPost2010Prop42
 90
       50
102
RTVSPost2010PropOp42
 70
     1
102
RTVSPost2010Prop43
 90
        3
102
RTVSPost2010PropOp43
 70
     1
102
RTVSPost2010Prop44ColorIndex
 90
        5
102
RTVSPost2010Prop44ColorRGB
 90
      255
102
RTVSPost2010PropOp44
 70
     1
102
RTVSPost2010Prop45
280
     0
102
RTVSPost2010PropOp45
 70
     1
102
RTVSPost2010Prop46
 90
       50
102
RTVSPost2010PropOp46
 70
     1
102
RTVSPost2010Prop47
 90
       50
102
RTVSPost2010PropOp47
 70
     1
102
RTVSPost2010Prop48
 90
       50
102
RTVSPost2010PropOp48
 70
     1
102
RTVSPost2010Prop49
280
     0
102
RTVSPost2010PropOp49
 70
     1
102
RTVSPost2010Prop50
 90
       50
102
RTVSPost2010PropOp50
 70
     1
102
RTVSPost2010Prop51ColorIndex
 90
      256
102
RTVSPost2010Prop51ColorRGB
 90
-16777216
102
RTVSPost2010PropOp51
 70
     0
102
RTVSPost2010Prop52
140
1.0
102
RTVSPost2010PropOp52
 70
     0
102
RTVSPost2010Prop53
 90
        2
102
RTVSPost2010PropOp53
 70
     1
102
RTVSPost2010Prop54
  1
strokes_ogs.tif
102
RTVSPost2010PropOp54
 70
     1
102
RTVSPost2010Prop55
280
     0
102
RTVSPost2010PropOp55
 70
     1
102
RTVSPost2010Prop56
140
1.0
102
RTVSPost2010PropOp56
 70
     1
102
RTVSPost2010Prop57
140
1.0
102
RTVSPost2010PropOp57
 70
     1
102
RTVSPropertyOp0
 70
     1
102
RTVSPropertyOp1
 70
     1
102
RTVSPropertyOp2
 70
     1
102
RTVSPropertyOp3
 70
     1
102
RTVSPropertyOp4
 70
     1
102
RTVSPropertyOp5
 70
     1
102
RTVSPropertyOp6
 70
     1
102
RTVSPropertyOp7
 70
     1
102
RTVSPropertyOp8
 70
     1
102
RTVSPropertyOp9
 70
     1
102
RTVSPropertyOp10
 70
     1
102
RTVSPropertyOp11
 70
     1
102
RTVSPropertyOp12
 70
     1
102
RTVSPropertyOp13
 70
     1
102
RTVSPropertyOp14
 70
     1
102
RTVSPropertyOp15
 70
     1
102
RTVSPropertyOp16
 70
     1
102
RTVSPropertyOp17
 70
     1
102
RTVSPropertyOp18
 70
     1
102
RTVSPropertyOp19
 70
     1
102
RTVSPropertyOp20
 70
     1
102
RTVSPropertyOp21
 70
     1
102
RTVSPropertyOp22
 70
     1
102
RTVSPropertyOp23
 70
     1
102
RTVSPropertyOp24
 70
     1
102
RTVSPropertyOp25
 70
     1
102
RTVSPropertyOp26
 70
     1
102
RTVSPropertyOp27
 70
     1
102
RTVSPropertyOp28
 70
     1
102
RTVSPropertyOp29
 70
     1
102
RTVSPropertyOp30
 70
     1
102
RTVSPropertyOp31
 70
     1
102
RTVSPropertyOp32
 70
     1
102
RTVSPropertyOp33
 70
     1
102
RTVSPropertyOp34
 70
     1
102
RTVSPropertyOp35
 70
     1
102
RTVSPropertyOp36
 70
     1
102
RTVSPropertyOp37
 70
     1
102
RTVSPropertyOp38
 70
     1
102
RTVSPropertyOp39
 70
     1
102
RTVSPropertyOp40
 70
     1
102
RTVSPropertyOp41
 70
     1
102
RTVSPropertyOp42
 70
     1
102
RTVSPropertyOp43
 70
     1
102
RTVSPropertyOp44
 70
     1
102
RTVSPropertyOp45
 70
     1
102
RTVSPropertyOp46
 70
     1
102
RTVSPropertyOp47
 70
     1
102
RTVSPropertyOp48
 70
     1
102
RTVSPropertyOp49
 70
     1
102
RTVSPropertyOp50
 70
     1
102
RTVSPropertyOp51
 70
     0
102
RTVSPropertyOp52
 70
     0
102
RTVSPropertyOp53
 70
     1
102
RTVSPropertyOp54
 70
     1
102
RTVSPropertyOp55
 70
     1
102
RTVSPropertyOp56
 70
     1
102
RTVSPropertyOp57
 70
     1
102
RTVSPropertyOp58
 70
     1
102
RTVSPropertyOp59
 70
     1
102
RTVSPropertyOp60
 70
     1
102
RTVSPropertyOp61
 70
     1
102
RTVSPropertyOp62
 70
     1
  0
XRECORD
  5
755
102
{ACAD_REACTORS
330
754
102
}
330
754
100
AcDbXrecord
280
     1
102
RTVSPost2010Prop28
280
     0
102
RTVSPost2010PropOp28
 70
     1
102
RTVSPost2010Prop29
280
     1
102
RTVSPost2010PropOp29
 70
     1
102
RTVSPost2010Prop30
280
     1
102
RTVSPost2010PropOp30
 70
     1
102
RTVSPost2010Prop31
280
     0
102
RTVSPost2010PropOp31
 70
     1
102
RTVSPost2010Prop32
280
     0
102
RTVSPost2010PropOp32
 70
     1
102
RTVSPost2010Prop33
280
     0
102
RTVSPost2010PropOp33
 70
     1
102
RTVSPost2010Prop34
280
     0
102
RTVSPost2010PropOp34
 70
     1
102
RTVSPost2010Prop35
280
     0
102
RTVSPost2010PropOp35
 70
     1
102
RTVSPost2010Prop36
280
     0
102
RTVSPost2010PropOp36
 70
     1
102
RTVSPost2010Prop37
 90
       50
102
RTVSPost2010PropOp37
 70
     1
102
RTVSPost2010Prop38
140
0.0
102
RTVSPost2010PropOp38
 70
     1
102
RTVSPost2010Prop39
140
1.0
102
RTVSPost2010PropOp39
 70
     1
102
RTVSPost2010Prop40
 90
        0
102
RTVSPost2010PropOp40
 70
     1
102
RTVSPost2010Prop41ColorIndex
 90
       18
102
RTVSPost2010Prop41ColorRGB
 90
        0
102
RTVSPost2010PropOp41
 70
     1
102
RTVSPost2010Prop42
 90
       50
102
RTVSPost2010PropOp42
 70
     1
102
RTVSPost2010Prop43
 90
        3
102
RTVSPost2010PropOp43
 70
     1
102
RTVSPost2010Prop44ColorIndex
 90
        5
102
RTVSPost2010Prop44ColorRGB
 90
      255
102
RTVSPost2010PropOp44
 70
     1
102
RTVSPost2010Prop45
280
     0
102
RTVSPost2010PropOp45
 70
     1
102
RTVSPost2010Prop46
 90
       50
102
RTVSPost2010PropOp46
 70
     1
102
RTVSPost2010Prop47
 90
       50
102
RTVSPost2010PropOp47
 70
     1
102
RTVSPost2010Prop48
 90
       50
102
RTVSPost2010PropOp48
 70
     1
102
RTVSPost2010Prop49
280
     0
102
RTVSPost2010PropOp49
 70
     1
102
RTVSPost2010Prop50
 90
       50
102
RTVSPost2010PropOp50
 70
     1
102
RTVSPost2010Prop51ColorIndex
 90
      256
102
RTVSPost2010Prop51ColorRGB
 90
-16777216
102
RTVSPost2010PropOp51
 70
     0
102
RTVSPost2010Prop52
140
1.0
102
RTVSPost2010PropOp52
 70
     0
102
RTVSPost2010Prop53
 90
        2
102
RTVSPost2010PropOp53
 70
     1
102
RTVSPost2010Prop54
  1
strokes_ogs.tif
102
RTVSPost2010PropOp54
 70
     1
102
RTVSPost2010Prop55
280
     0
102
RTVSPost2010PropOp55
 70
     1
102
RTVSPost2010Prop56
140
1.0
102
RTVSPost2010PropOp56
 70
     1
102
RTVSPost2010Prop57
140
1.0
102
RTVSPost2010PropOp57
 70
     1
102
RTVSPropertyOp0
 70
     1
102
RTVSPropertyOp1
 70
     1
102
RTVSPropertyOp2
 70
     1
102
RTVSPropertyOp3
 70
     1
102
RTVSPropertyOp4
 70
     1
102
RTVSPropertyOp5
 70
     1
102
RTVSPropertyOp6
 70
     1
102
RTVSPropertyOp7
 70
     1
102
RTVSPropertyOp8
 70
     1
102
RTVSPropertyOp9
 70
     1
102
RTVSPropertyOp10
 70
     1
102
RTVSPropertyOp11
 70
     1
102
RTVSPropertyOp12
 70
     1
102
RTVSPropertyOp13
 70
     1
102
RTVSPropertyOp14
 70
     1
102
RTVSPropertyOp15
 70
     1
102
RTVSPropertyOp16
 70
     1
102
RTVSPropertyOp17
 70
     1
102
RTVSPropertyOp18
 70
     1
102
RTVSPropertyOp19
 70
     1
102
RTVSPropertyOp20
 70
     1
102
RTVSPropertyOp21
 70
     1
102
RTVSPropertyOp22
 70
     1
102
RTVSPropertyOp23
 70
     1
102
RTVSPropertyOp24
 70
     1
102
RTVSPropertyOp25
 70
     1
102
RTVSPropertyOp26
 70
     1
102
RTVSPropertyOp27
 70
     1
102
RTVSPropertyOp28
 70
     1
102
RTVSPropertyOp29
 70
     1
102
RTVSPropertyOp30
 70
     1
102
RTVSPropertyOp31
 70
     1
102
RTVSPropertyOp32
 70
     1
102
RTVSPropertyOp33
 70
     1
102
RTVSPropertyOp34
 70
     1
102
RTVSPropertyOp35
 70
     1
102
RTVSPropertyOp36
 70
     1
102
RTVSPropertyOp37
 70
     1
102
RTVSPropertyOp38
 70
     1
102
RTVSPropertyOp39
 70
     1
102
RTVSPropertyOp40
 70
     1
102
RTVSPropertyOp41
 70
     1
102
RTVSPropertyOp42
 70
     1
102
RTVSPropertyOp43
 70
     1
102
RTVSPropertyOp44
 70
     1
102
RTVSPropertyOp45
 70
     1
102
RTVSPropertyOp46
 70
     1
102
RTVSPropertyOp47
 70
     1
102
RTVSPropertyOp48
 70
     1
102
RTVSPropertyOp49
 70
     1
102
RTVSPropertyOp50
 70
     1
102
RTVSPropertyOp51
 70
     0
102
RTVSPropertyOp52
 70
     0
102
RTVSPropertyOp53
 70
     1
102
RTVSPropertyOp54
 70
     1
102
RTVSPropertyOp55
 70
     1
102
RTVSPropertyOp56
 70
     1
102
RTVSPropertyOp57
 70
     1
102
RTVSPropertyOp58
 70
     1
102
RTVSPropertyOp59
 70
     1
102
RTVSPropertyOp60
 70
     1
102
RTVSPropertyOp61
 70
     1
102
RTVSPropertyOp62
 70
     1
  0
XRECORD
  5
759
102
{ACAD_REACTORS
330
758
102
}
330
758
100
AcDbXrecord
280
     1
102
RTVSPost2010Prop28
280
     0
102
RTVSPost2010PropOp28
 70
     1
102
RTVSPost2010Prop29
280
     1
102
RTVSPost2010PropOp29
 70
     1
102
RTVSPost2010Prop30
280
     1
102
RTVSPost2010PropOp30
 70
     1
102
RTVSPost2010Prop31
280
     0
102
RTVSPost2010PropOp31
 70
     1
102
RTVSPost2010Prop32
280
     0
102
RTVSPost2010PropOp32
 70
     1
102
RTVSPost2010Prop33
280
     0
102
RTVSPost2010PropOp33
 70
     1
102
RTVSPost2010Prop34
280
     0
102
RTVSPost2010PropOp34
 70
     1
102
RTVSPost2010Prop35
280
     0
102
RTVSPost2010PropOp35
 70
     1
102
RTVSPost2010Prop36
280
     0
102
RTVSPost2010PropOp36
 70
     1
102
RTVSPost2010Prop37
 90
       50
102
RTVSPost2010PropOp37
 70
     1
102
RTVSPost2010Prop38
140
0.0
102
RTVSPost2010PropOp38
 70
     1
102
RTVSPost2010Prop39
140
1.0
102
RTVSPost2010PropOp39
 70
     1
102
RTVSPost2010Prop40
 90
        0
102
RTVSPost2010PropOp40
 70
     1
102
RTVSPost2010Prop41ColorIndex
 90
       18
102
RTVSPost2010Prop41ColorRGB
 90
        0
102
RTVSPost2010PropOp41
 70
     1
102
RTVSPost2010Prop42
 90
       50
102
RTVSPost2010PropOp42
 70
     1
102
RTVSPost2010Prop43
 90
        3
102
RTVSPost2010PropOp43
 70
     1
102
RTVSPost2010Prop44ColorIndex
 90
        5
102
RTVSPost2010Prop44ColorRGB
 90
      255
102
RTVSPost2010PropOp44
 70
     1
102
RTVSPost2010Prop45
280
     0
102
RTVSPost2010PropOp45
 70
     1
102
RTVSPost2010Prop46
 90
       50
102
RTVSPost2010PropOp46
 70
     1
102
RTVSPost2010Prop47
 90
       50
102
RTVSPost2010PropOp47
 70
     1
102
RTVSPost2010Prop48
 90
       50
102
RTVSPost2010PropOp48
 70
     1
102
RTVSPost2010Prop49
280
     0
102
RTVSPost2010PropOp49
 70
     1
102
RTVSPost2010Prop50
 90
       50
102
RTVSPost2010PropOp50
 70
     1
102
RTVSPost2010Prop51ColorIndex
 90
      256
102
RTVSPost2010Prop51ColorRGB
 90
-16777216
102
RTVSPost2010PropOp51
 70
     0
102
RTVSPost2010Prop52
140
1.0
102
RTVSPost2010PropOp52
 70
     0
102
RTVSPost2010Prop53
 90
        2
102
RTVSPost2010PropOp53
 70
     1
102
RTVSPost2010Prop54
  1
strokes_ogs.tif
102
RTVSPost2010PropOp54
 70
     1
102
RTVSPost2010Prop55
280
     0
102
RTVSPost2010PropOp55
 70
     1
102
RTVSPost2010Prop56
140
1.0
102
RTVSPost2010PropOp56
 70
     1
102
RTVSPost2010Prop57
140
1.0
102
RTVSPost2010PropOp57
 70
     1
102
RTVSPropertyOp0
 70
     1
102
RTVSPropertyOp1
 70
     1
102
RTVSPropertyOp2
 70
     1
102
RTVSPropertyOp3
 70
     1
102
RTVSPropertyOp4
 70
     1
102
RTVSPropertyOp5
 70
     1
102
RTVSPropertyOp6
 70
     1
102
RTVSPropertyOp7
 70
     1
102
RTVSPropertyOp8
 70
     1
102
RTVSPropertyOp9
 70
     1
102
RTVSPropertyOp10
 70
     1
102
RTVSPropertyOp11
 70
     1
102
RTVSPropertyOp12
 70
     1
102
RTVSPropertyOp13
 70
     1
102
RTVSPropertyOp14
 70
     1
102
RTVSPropertyOp15
 70
     1
102
RTVSPropertyOp16
 70
     1
102
RTVSPropertyOp17
 70
     1
102
RTVSPropertyOp18
 70
     1
102
RTVSPropertyOp19
 70
     1
102
RTVSPropertyOp20
 70
     1
102
RTVSPropertyOp21
 70
     1
102
RTVSPropertyOp22
 70
     1
102
RTVSPropertyOp23
 70
     1
102
RTVSPropertyOp24
 70
     1
102
RTVSPropertyOp25
 70
     1
102
RTVSPropertyOp26
 70
     1
102
RTVSPropertyOp27
 70
     1
102
RTVSPropertyOp28
 70
     1
102
RTVSPropertyOp29
 70
     1
102
RTVSPropertyOp30
 70
     1
102
RTVSPropertyOp31
 70
     1
102
RTVSPropertyOp32
 70
     1
102
RTVSPropertyOp33
 70
     1
102
RTVSPropertyOp34
 70
     1
102
RTVSPropertyOp35
 70
     1
102
RTVSPropertyOp36
 70
     1
102
RTVSPropertyOp37
 70
     1
102
RTVSPropertyOp38
 70
     1
102
RTVSPropertyOp39
 70
     1
102
RTVSPropertyOp40
 70
     1
102
RTVSPropertyOp41
 70
     1
102
RTVSPropertyOp42
 70
     1
102
RTVSPropertyOp43
 70
     1
102
RTVSPropertyOp44
 70
     1
102
RTVSPropertyOp45
 70
     1
102
RTVSPropertyOp46
 70
     1
102
RTVSPropertyOp47
 70
     1
102
RTVSPropertyOp48
 70
     1
102
RTVSPropertyOp49
 70
     1
102
RTVSPropertyOp50
 70
     1
102
RTVSPropertyOp51
 70
     0
102
RTVSPropertyOp52
 70
     0
102
RTVSPropertyOp53
 70
     1
102
RTVSPropertyOp54
 70
     1
102
RTVSPropertyOp55
 70
     1
102
RTVSPropertyOp56
 70
     1
102
RTVSPropertyOp57
 70
     1
102
RTVSPropertyOp58
 70
     1
102
RTVSPropertyOp59
 70
     1
102
RTVSPropertyOp60
 70
     1
102
RTVSPropertyOp61
 70
     1
102
RTVSPropertyOp62
 70
     1
  0
XRECORD
  5
773
102
{ACAD_REACTORS
330
772
102
}
330
772
100
AcDbXrecord
280
     1
102
RTVSPost2010Prop28
280
     0
102
RTVSPost2010PropOp28
 70
     1
102
RTVSPost2010Prop29
280
     1
102
RTVSPost2010PropOp29
 70
     1
102
RTVSPost2010Prop30
280
     1
102
RTVSPost2010PropOp30
 70
     1
102
RTVSPost2010Prop31
280
     0
102
RTVSPost2010PropOp31
 70
     1
102
RTVSPost2010Prop32
280
     0
102
RTVSPost2010PropOp32
 70
     1
102
RTVSPost2010Prop33
280
     0
102
RTVSPost2010PropOp33
 70
     1
102
RTVSPost2010Prop34
280
     0
102
RTVSPost2010PropOp34
 70
     1
102
RTVSPost2010Prop35
280
     0
102
RTVSPost2010PropOp35
 70
     1
102
RTVSPost2010Prop36
280
     0
102
RTVSPost2010PropOp36
 70
     1
102
RTVSPost2010Prop37
 90
       50
102
RTVSPost2010PropOp37
 70
     0
102
RTVSPost2010Prop38
140
0.0
102
RTVSPost2010PropOp38
 70
     0
102
RTVSPost2010Prop39
140
1.0
102
RTVSPost2010PropOp39
 70
     0
102
RTVSPost2010Prop40
 90
        0
102
RTVSPost2010PropOp40
 70
     0
102
RTVSPost2010Prop41ColorIndex
 90
       18
102
RTVSPost2010Prop41ColorRGB
 90
        0
102
RTVSPost2010PropOp41
 70
     0
102
RTVSPost2010Prop42
 90
       50
102
RTVSPost2010PropOp42
 70
     0
102
RTVSPost2010Prop43
 90
        3
102
RTVSPost2010PropOp43
 70
     0
102
RTVSPost2010Prop44ColorIndex
 90
        5
102
RTVSPost2010Prop44ColorRGB
 90
      255
102
RTVSPost2010PropOp44
 70
     0
102
RTVSPost2010Prop45
280
     0
102
RTVSPost2010PropOp45
 70
     1
102
RTVSPost2010Prop46
 90
       50
102
RTVSPost2010PropOp46
 70
     0
102
RTVSPost2010Prop47
 90
       50
102
RTVSPost2010PropOp47
 70
     0
102
RTVSPost2010Prop48
 90
       50
102
RTVSPost2010PropOp48
 70
     0
102
RTVSPost2010Prop49
280
     0
102
RTVSPost2010PropOp49
 70
     1
102
RTVSPost2010Prop50
 90
       50
102
RTVSPost2010PropOp50
 70
     0
102
RTVSPost2010Prop51ColorIndex
 90
      256
102
RTVSPost2010Prop51ColorRGB
 90
-16777216
102
RTVSPost2010PropOp51
 70
     0
102
RTVSPost2010Prop52
140
1.0
102
RTVSPost2010PropOp52
 70
     0
102
RTVSPost2010Prop53
 90
        2
102
RTVSPost2010PropOp53
 70
     0
102
RTVSPost2010Prop54
  1
strokes_ogs.tif
102
RTVSPost2010PropOp54
 70
     0
102
RTVSPost2010Prop55
280
     0
102
RTVSPost2010PropOp55
 70
     1
102
RTVSPost2010Prop56
140
1.0
102
RTVSPost2010PropOp56
 70
     0
102
RTVSPost2010Prop57
140
1.0
102
RTVSPost2010PropOp57
 70
     0
102
RTVSPropertyOp0
 70
     0
102
RTVSPropertyOp1
 70
     0
102
RTVSPropertyOp2
 70
     0
102
RTVSPropertyOp3
 70
     0
102
RTVSPropertyOp4
 70
     0
102
RTVSPropertyOp5
 70
     0
102
RTVSPropertyOp6
 70
     0
102
RTVSPropertyOp7
 70
     0
102
RTVSPropertyOp8
 70
     0
102
RTVSPropertyOp9
 70
     0
102
RTVSPropertyOp10
 70
     0
102
RTVSPropertyOp11
 70
     0
102
RTVSPropertyOp12
 70
     0
102
RTVSPropertyOp13
 70
     0
102
RTVSPropertyOp14
 70
     2
102
RTVSPropertyOp15
 70
     0
102
RTVSPropertyOp16
 70
     0
102
RTVSPropertyOp17
 70
     0
102
RTVSPropertyOp18
 70
     0
102
RTVSPropertyOp19
 70
     0
102
RTVSPropertyOp20
 70
     0
102
RTVSPropertyOp21
 70
     0
102
RTVSPropertyOp22
 70
     0
102
RTVSPropertyOp23
 70
     0
102
RTVSPropertyOp24
 70
     0
102
RTVSPropertyOp25
 70
     0
102
RTVSPropertyOp26
 70
     0
102
RTVSPropertyOp27
 70
     0
102
RTVSPropertyOp28
 70
     1
102
RTVSPropertyOp29
 70
     1
102
RTVSPropertyOp30
 70
     1
102
RTVSPropertyOp31
 70
     1
102
RTVSPropertyOp32
 70
     1
102
RTVSPropertyOp33
 70
     1
102
RTVSPropertyOp34
 70
     1
102
RTVSPropertyOp35
 70
     1
102
RTVSPropertyOp36
 70
     1
102
RTVSPropertyOp37
 70
     0
102
RTVSPropertyOp38
 70
     0
102
RTVSPropertyOp39
 70
     0
102
RTVSPropertyOp40
 70
     0
102
RTVSPropertyOp41
 70
     0
102
RTVSPropertyOp42
 70
     0
102
RTVSPropertyOp43
 70
     0
102
RTVSPropertyOp44
 70
     0
102
RTVSPropertyOp45
 70
     1
102
RTVSPropertyOp46
 70
     0
102
RTVSPropertyOp47
 70
     0
102
RTVSPropertyOp48
 70
     0
102
RTVSPropertyOp49
 70
     1
102
RTVSPropertyOp50
 70
     0
102
RTVSPropertyOp51
 70
     0
102
RTVSPropertyOp52
 70
     0
102
RTVSPropertyOp53
 70
     0
102
RTVSPropertyOp54
 70
     0
102
RTVSPropertyOp55
 70
     1
102
RTVSPropertyOp56
 70
     0
102
RTVSPropertyOp57
 70
     0
102
RTVSPropertyOp58
 70
     0
102
RTVSPropertyOp59
 70
     0
102
RTVSPropertyOp60
 70
     0
102
RTVSPropertyOp61
 70
     0
102
RTVSPropertyOp62
 70
     0
  0
XRECORD
  5
761
102
{ACAD_REACTORS
330
760
102
}
330
760
100
AcDbXrecord
280
     1
102
RTVSPost2010Prop28
280
     0
102
RTVSPost2010PropOp28
 70
     1
102
RTVSPost2010Prop29
280
     1
102
RTVSPost2010PropOp29
 70
     1
102
RTVSPost2010Prop30
280
     1
102
RTVSPost2010PropOp30
 70
     1
102
RTVSPost2010Prop31
280
     0
102
RTVSPost2010PropOp31
 70
     1
102
RTVSPost2010Prop32
280
     0
102
RTVSPost2010PropOp32
 70
     1
102
RTVSPost2010Prop33
280
     0
102
RTVSPost2010PropOp33
 70
     1
102
RTVSPost2010Prop34
280
     0
102
RTVSPost2010PropOp34
 70
     1
102
RTVSPost2010Prop35
280
     0
102
RTVSPost2010PropOp35
 70
     1
102
RTVSPost2010Prop36
280
     0
102
RTVSPost2010PropOp36
 70
     1
102
RTVSPost2010Prop37
 90
       50
102
RTVSPost2010PropOp37
 70
     1
102
RTVSPost2010Prop38
140
0.0
102
RTVSPost2010PropOp38
 70
     1
102
RTVSPost2010Prop39
140
1.0
102
RTVSPost2010PropOp39
 70
     1
102
RTVSPost2010Prop40
 90
        0
102
RTVSPost2010PropOp40
 70
     1
102
RTVSPost2010Prop41ColorIndex
 90
       18
102
RTVSPost2010Prop41ColorRGB
 90
        0
102
RTVSPost2010PropOp41
 70
     1
102
RTVSPost2010Prop42
 90
       50
102
RTVSPost2010PropOp42
 70
     1
102
RTVSPost2010Prop43
 90
        3
102
RTVSPost2010PropOp43
 70
     1
102
RTVSPost2010Prop44ColorIndex
 90
        5
102
RTVSPost2010Prop44ColorRGB
 90
      255
102
RTVSPost2010PropOp44
 70
     1
102
RTVSPost2010Prop45
280
     0
102
RTVSPost2010PropOp45
 70
     1
102
RTVSPost2010Prop46
 90
       50
102
RTVSPost2010PropOp46
 70
     1
102
RTVSPost2010Prop47
 90
       50
102
RTVSPost2010PropOp47
 70
     1
102
RTVSPost2010Prop48
 90
       50
102
RTVSPost2010PropOp48
 70
     1
102
RTVSPost2010Prop49
280
     0
102
RTVSPost2010PropOp49
 70
     1
102
RTVSPost2010Prop50
 90
       50
102
RTVSPost2010PropOp50
 70
     1
102
RTVSPost2010Prop51ColorIndex
 90
      256
102
RTVSPost2010Prop51ColorRGB
 90
-16777216
102
RTVSPost2010PropOp51
 70
     0
102
RTVSPost2010Prop52
140
1.0
102
RTVSPost2010PropOp52
 70
     0
102
RTVSPost2010Prop53
 90
        2
102
RTVSPost2010PropOp53
 70
     1
102
RTVSPost2010Prop54
  1
strokes_ogs.tif
102
RTVSPost2010PropOp54
 70
     1
102
RTVSPost2010Prop55
280
     0
102
RTVSPost2010PropOp55
 70
     1
102
RTVSPost2010Prop56
140
1.0
102
RTVSPost2010PropOp56
 70
     1
102
RTVSPost2010Prop57
140
1.0
102
RTVSPost2010PropOp57
 70
     1
102
RTVSPropertyOp0
 70
     1
102
RTVSPropertyOp1
 70
     1
102
RTVSPropertyOp2
 70
     1
102
RTVSPropertyOp3
 70
     1
102
RTVSPropertyOp4
 70
     1
102
RTVSPropertyOp5
 70
     1
102
RTVSPropertyOp6
 70
     1
102
RTVSPropertyOp7
 70
     1
102
RTVSPropertyOp8
 70
     1
102
RTVSPropertyOp9
 70
     1
102
RTVSPropertyOp10
 70
     1
102
RTVSPropertyOp11
 70
     1
102
RTVSPropertyOp12
 70
     1
102
RTVSPropertyOp13
 70
     1
102
RTVSPropertyOp14
 70
     1
102
RTVSPropertyOp15
 70
     1
102
RTVSPropertyOp16
 70
     1
102
RTVSPropertyOp17
 70
     1
102
RTVSPropertyOp18
 70
     1
102
RTVSPropertyOp19
 70
     1
102
RTVSPropertyOp20
 70
     1
102
RTVSPropertyOp21
 70
     1
102
RTVSPropertyOp22
 70
     1
102
RTVSPropertyOp23
 70
     1
102
RTVSPropertyOp24
 70
     1
102
RTVSPropertyOp25
 70
     1
102
RTVSPropertyOp26
 70
     1
102
RTVSPropertyOp27
 70
     1
102
RTVSPropertyOp28
 70
     1
102
RTVSPropertyOp29
 70
     1
102
RTVSPropertyOp30
 70
     1
102
RTVSPropertyOp31
 70
     1
102
RTVSPropertyOp32
 70
     1
102
RTVSPropertyOp33
 70
     1
102
RTVSPropertyOp34
 70
     1
102
RTVSPropertyOp35
 70
     1
102
RTVSPropertyOp36
 70
     1
102
RTVSPropertyOp37
 70
     1
102
RTVSPropertyOp38
 70
     1
102
RTVSPropertyOp39
 70
     1
102
RTVSPropertyOp40
 70
     1
102
RTVSPropertyOp41
 70
     1
102
RTVSPropertyOp42
 70
     1
102
RTVSPropertyOp43
 70
     1
102
RTVSPropertyOp44
 70
     1
102
RTVSPropertyOp45
 70
     1
102
RTVSPropertyOp46
 70
     1
102
RTVSPropertyOp47
 70
     1
102
RTVSPropertyOp48
 70
     1
102
RTVSPropertyOp49
 70
     1
102
RTVSPropertyOp50
 70
     1
102
RTVSPropertyOp51
 70
     0
102
RTVSPropertyOp52
 70
     0
102
RTVSPropertyOp53
 70
     1
102
RTVSPropertyOp54
 70
     1
102
RTVSPropertyOp55
 70
     1
102
RTVSPropertyOp56
 70
     1
102
RTVSPropertyOp57
 70
     1
102
RTVSPropertyOp58
 70
     1
102
RTVSPropertyOp59
 70
     1
102
RTVSPropertyOp60
 70
     1
102
RTVSPropertyOp61
 70
     1
102
RTVSPropertyOp62
 70
     1
  0
XRECORD
  5
745
102
{ACAD_REACTORS
330
744
102
}
330
744
100
AcDbXrecord
280
     1
102
RTVSPost2010Prop28
280
     0
102
RTVSPost2010PropOp28
 70
     1
102
RTVSPost2010Prop29
280
     1
102
RTVSPost2010PropOp29
 70
     1
102
RTVSPost2010Prop30
280
     1
102
RTVSPost2010PropOp30
 70
     1
102
RTVSPost2010Prop31
280
     0
102
RTVSPost2010PropOp31
 70
     1
102
RTVSPost2010Prop32
280
     0
102
RTVSPost2010PropOp32
 70
     1
102
RTVSPost2010Prop33
280
     0
102
RTVSPost2010PropOp33
 70
     1
102
RTVSPost2010Prop34
280
     0
102
RTVSPost2010PropOp34
 70
     1
102
RTVSPost2010Prop35
280
     0
102
RTVSPost2010PropOp35
 70
     1
102
RTVSPost2010Prop36
280
     0
102
RTVSPost2010PropOp36
 70
     1
102
RTVSPost2010Prop37
 90
       50
102
RTVSPost2010PropOp37
 70
     1
102
RTVSPost2010Prop38
140
0.0
102
RTVSPost2010PropOp38
 70
     1
102
RTVSPost2010Prop39
140
1.0
102
RTVSPost2010PropOp39
 70
     1
102
RTVSPost2010Prop40
 90
        0
102
RTVSPost2010PropOp40
 70
     1
102
RTVSPost2010Prop41ColorIndex
 90
       18
102
RTVSPost2010Prop41ColorRGB
 90
        0
102
RTVSPost2010PropOp41
 70
     1
102
RTVSPost2010Prop42
 90
       50
102
RTVSPost2010PropOp42
 70
     1
102
RTVSPost2010Prop43
 90
        3
102
RTVSPost2010PropOp43
 70
     1
102
RTVSPost2010Prop44ColorIndex
 90
        5
102
RTVSPost2010Prop44ColorRGB
 90
      255
102
RTVSPost2010PropOp44
 70
     1
102
RTVSPost2010Prop45
280
     0
102
RTVSPost2010PropOp45
 70
     1
102
RTVSPost2010Prop46
 90
       50
102
RTVSPost2010PropOp46
 70
     1
102
RTVSPost2010Prop47
 90
       50
102
RTVSPost2010PropOp47
 70
     1
102
RTVSPost2010Prop48
 90
       50
102
RTVSPost2010PropOp48
 70
     1
102
RTVSPost2010Prop49
280
     0
102
RTVSPost2010PropOp49
 70
     1
102
RTVSPost2010Prop50
 90
       50
102
RTVSPost2010PropOp50
 70
     1
102
RTVSPost2010Prop51ColorIndex
 90
      256
102
RTVSPost2010Prop51ColorRGB
 90
-16777216
102
RTVSPost2010PropOp51
 70
     0
102
RTVSPost2010Prop52
140
1.0
102
RTVSPost2010PropOp52
 70
     0
102
RTVSPost2010Prop53
 90
        2
102
RTVSPost2010PropOp53
 70
     1
102
RTVSPost2010Prop54
  1
strokes_ogs.tif
102
RTVSPost2010PropOp54
 70
     1
102
RTVSPost2010Prop55
280
     0
102
RTVSPost2010PropOp55
 70
     1
102
RTVSPost2010Prop56
140
1.0
102
RTVSPost2010PropOp56
 70
     1
102
RTVSPost2010Prop57
140
1.0
102
RTVSPost2010PropOp57
 70
     1
102
RTVSPropertyOp0
 70
     1
102
RTVSPropertyOp1
 70
     1
102
RTVSPropertyOp2
 70
     1
102
RTVSPropertyOp3
 70
     1
102
RTVSPropertyOp4
 70
     1
102
RTVSPropertyOp5
 70
     1
102
RTVSPropertyOp6
 70
     1
102
RTVSPropertyOp7
 70
     1
102
RTVSPropertyOp8
 70
     1
102
RTVSPropertyOp9
 70
     1
102
RTVSPropertyOp10
 70
     1
102
RTVSPropertyOp11
 70
     1
102
RTVSPropertyOp12
 70
     1
102
RTVSPropertyOp13
 70
     1
102
RTVSPropertyOp14
 70
     1
102
RTVSPropertyOp15
 70
     1
102
RTVSPropertyOp16
 70
     1
102
RTVSPropertyOp17
 70
     1
102
RTVSPropertyOp18
 70
     1
102
RTVSPropertyOp19
 70
     1
102
RTVSPropertyOp20
 70
     1
102
RTVSPropertyOp21
 70
     1
102
RTVSPropertyOp22
 70
     1
102
RTVSPropertyOp23
 70
     1
102
RTVSPropertyOp24
 70
     1
102
RTVSPropertyOp25
 70
     1
102
RTVSPropertyOp26
 70
     1
102
RTVSPropertyOp27
 70
     1
102
RTVSPropertyOp28
 70
     1
102
RTVSPropertyOp29
 70
     1
102
RTVSPropertyOp30
 70
     1
102
RTVSPropertyOp31
 70
     1
102
RTVSPropertyOp32
 70
     1
102
RTVSPropertyOp33
 70
     1
102
RTVSPropertyOp34
 70
     1
102
RTVSPropertyOp35
 70
     1
102
RTVSPropertyOp36
 70
     1
102
RTVSPropertyOp37
 70
     1
102
RTVSPropertyOp38
 70
     1
102
RTVSPropertyOp39
 70
     1
102
RTVSPropertyOp40
 70
     1
102
RTVSPropertyOp41
 70
     1
102
RTVSPropertyOp42
 70
     1
102
RTVSPropertyOp43
 70
     1
102
RTVSPropertyOp44
 70
     1
102
RTVSPropertyOp45
 70
     1
102
RTVSPropertyOp46
 70
     1
102
RTVSPropertyOp47
 70
     1
102
RTVSPropertyOp48
 70
     1
102
RTVSPropertyOp49
 70
     1
102
RTVSPropertyOp50
 70
     1
102
RTVSPropertyOp51
 70
     0
102
RTVSPropertyOp52
 70
     0
102
RTVSPropertyOp53
 70
     1
102
RTVSPropertyOp54
 70
     1
102
RTVSPropertyOp55
 70
     1
102
RTVSPropertyOp56
 70
     1
102
RTVSPropertyOp57
 70
     1
102
RTVSPropertyOp58
 70
     1
102
RTVSPropertyOp59
 70
     1
102
RTVSPropertyOp60
 70
     1
102
RTVSPropertyOp61
 70
     1
102
RTVSPropertyOp62
 70
     1
  0
XRECORD
  5
747
102
{ACAD_REACTORS
330
746
102
}
330
746
100
AcDbXrecord
280
     1
102
RTVSPost2010Prop28
280
     0
102
RTVSPost2010PropOp28
 70
     1
102
RTVSPost2010Prop29
280
     1
102
RTVSPost2010PropOp29
 70
     1
102
RTVSPost2010Prop30
280
     1
102
RTVSPost2010PropOp30
 70
     1
102
RTVSPost2010Prop31
280
     0
102
RTVSPost2010PropOp31
 70
     1
102
RTVSPost2010Prop32
280
     0
102
RTVSPost2010PropOp32
 70
     1
102
RTVSPost2010Prop33
280
     0
102
RTVSPost2010PropOp33
 70
     1
102
RTVSPost2010Prop34
280
     0
102
RTVSPost2010PropOp34
 70
     1
102
RTVSPost2010Prop35
280
     0
102
RTVSPost2010PropOp35
 70
     1
102
RTVSPost2010Prop36
280
     0
102
RTVSPost2010PropOp36
 70
     1
102
RTVSPost2010Prop37
 90
       50
102
RTVSPost2010PropOp37
 70
     1
102
RTVSPost2010Prop38
140
0.0
102
RTVSPost2010PropOp38
 70
     1
102
RTVSPost2010Prop39
140
1.0
102
RTVSPost2010PropOp39
 70
     1
102
RTVSPost2010Prop40
 90
        0
102
RTVSPost2010PropOp40
 70
     1
102
RTVSPost2010Prop41ColorIndex
 90
       18
102
RTVSPost2010Prop41ColorRGB
 90
        0
102
RTVSPost2010PropOp41
 70
     1
102
RTVSPost2010Prop42
 90
       50
102
RTVSPost2010PropOp42
 70
     1
102
RTVSPost2010Prop43
 90
        3
102
RTVSPost2010PropOp43
 70
     1
102
RTVSPost2010Prop44ColorIndex
 90
        5
102
RTVSPost2010Prop44ColorRGB
 90
      255
102
RTVSPost2010PropOp44
 70
     1
102
RTVSPost2010Prop45
280
     0
102
RTVSPost2010PropOp45
 70
     1
102
RTVSPost2010Prop46
 90
       50
102
RTVSPost2010PropOp46
 70
     1
102
RTVSPost2010Prop47
 90
       50
102
RTVSPost2010PropOp47
 70
     1
102
RTVSPost2010Prop48
 90
       50
102
RTVSPost2010PropOp48
 70
     1
102
RTVSPost2010Prop49
280
     0
102
RTVSPost2010PropOp49
 70
     1
102
RTVSPost2010Prop50
 90
       50
102
RTVSPost2010PropOp50
 70
     1
102
RTVSPost2010Prop51ColorIndex
 90
      256
102
RTVSPost2010Prop51ColorRGB
 90
-16777216
102
RTVSPost2010PropOp51
 70
     0
102
RTVSPost2010Prop52
140
1.0
102
RTVSPost2010PropOp52
 70
     0
102
RTVSPost2010Prop53
 90
        2
102
RTVSPost2010PropOp53
 70
     1
102
RTVSPost2010Prop54
  1
strokes_ogs.tif
102
RTVSPost2010PropOp54
 70
     1
102
RTVSPost2010Prop55
280
     0
102
RTVSPost2010PropOp55
 70
     1
102
RTVSPost2010Prop56
140
1.0
102
RTVSPost2010PropOp56
 70
     1
102
RTVSPost2010Prop57
140
1.0
102
RTVSPost2010PropOp57
 70
     1
102
RTVSPropertyOp0
 70
     1
102
RTVSPropertyOp1
 70
     1
102
RTVSPropertyOp2
 70
     1
102
RTVSPropertyOp3
 70
     1
102
RTVSPropertyOp4
 70
     1
102
RTVSPropertyOp5
 70
     1
102
RTVSPropertyOp6
 70
     1
102
RTVSPropertyOp7
 70
     1
102
RTVSPropertyOp8
 70
     1
102
RTVSPropertyOp9
 70
     1
102
RTVSPropertyOp10
 70
     1
102
RTVSPropertyOp11
 70
     1
102
RTVSPropertyOp12
 70
     1
102
RTVSPropertyOp13
 70
     1
102
RTVSPropertyOp14
 70
     1
102
RTVSPropertyOp15
 70
     1
102
RTVSPropertyOp16
 70
     1
102
RTVSPropertyOp17
 70
     1
102
RTVSPropertyOp18
 70
     1
102
RTVSPropertyOp19
 70
     1
102
RTVSPropertyOp20
 70
     1
102
RTVSPropertyOp21
 70
     1
102
RTVSPropertyOp22
 70
     1
102
RTVSPropertyOp23
 70
     1
102
RTVSPropertyOp24
 70
     1
102
RTVSPropertyOp25
 70
     1
102
RTVSPropertyOp26
 70
     1
102
RTVSPropertyOp27
 70
     1
102
RTVSPropertyOp28
 70
     1
102
RTVSPropertyOp29
 70
     1
102
RTVSPropertyOp30
 70
     1
102
RTVSPropertyOp31
 70
     1
102
RTVSPropertyOp32
 70
     1
102
RTVSPropertyOp33
 70
     1
102
RTVSPropertyOp34
 70
     1
102
RTVSPropertyOp35
 70
     1
102
RTVSPropertyOp36
 70
     1
102
RTVSPropertyOp37
 70
     1
102
RTVSPropertyOp38
 70
     1
102
RTVSPropertyOp39
 70
     1
102
RTVSPropertyOp40
 70
     1
102
RTVSPropertyOp41
 70
     1
102
RTVSPropertyOp42
 70
     1
102
RTVSPropertyOp43
 70
     1
102
RTVSPropertyOp44
 70
     1
102
RTVSPropertyOp45
 70
     1
102
RTVSPropertyOp46
 70
     1
102
RTVSPropertyOp47
 70
     1
102
RTVSPropertyOp48
 70
     1
102
RTVSPropertyOp49
 70
     1
102
RTVSPropertyOp50
 70
     1
102
RTVSPropertyOp51
 70
     0
102
RTVSPropertyOp52
 70
     0
102
RTVSPropertyOp53
 70
     1
102
RTVSPropertyOp54
 70
     1
102
RTVSPropertyOp55
 70
     1
102
RTVSPropertyOp56
 70
     1
102
RTVSPropertyOp57
 70
     1
102
RTVSPropertyOp58
 70
     1
102
RTVSPropertyOp59
 70
     1
102
RTVSPropertyOp60
 70
     1
102
RTVSPropertyOp61
 70
     1
102
RTVSPropertyOp62
 70
     1
  0
XRECORD
  5
749
102
{ACAD_REACTORS
330
748
102
}
330
748
100
AcDbXrecord
280
     1
102
RTVSPost2010Prop28
280
     0
102
RTVSPost2010PropOp28
 70
     1
102
RTVSPost2010Prop29
280
     1
102
RTVSPost2010PropOp29
 70
     1
102
RTVSPost2010Prop30
280
     1
102
RTVSPost2010PropOp30
 70
     1
102
RTVSPost2010Prop31
280
     0
102
RTVSPost2010PropOp31
 70
     1
102
RTVSPost2010Prop32
280
     0
102
RTVSPost2010PropOp32
 70
     1
102
RTVSPost2010Prop33
280
     0
102
RTVSPost2010PropOp33
 70
     1
102
RTVSPost2010Prop34
280
     0
102
RTVSPost2010PropOp34
 70
     1
102
RTVSPost2010Prop35
280
     0
102
RTVSPost2010PropOp35
 70
     1
102
RTVSPost2010Prop36
280
     0
102
RTVSPost2010PropOp36
 70
     1
102
RTVSPost2010Prop37
 90
       50
102
RTVSPost2010PropOp37
 70
     1
102
RTVSPost2010Prop38
140
0.0
102
RTVSPost2010PropOp38
 70
     1
102
RTVSPost2010Prop39
140
1.0
102
RTVSPost2010PropOp39
 70
     1
102
RTVSPost2010Prop40
 90
        0
102
RTVSPost2010PropOp40
 70
     1
102
RTVSPost2010Prop41ColorIndex
 90
       18
102
RTVSPost2010Prop41ColorRGB
 90
        0
102
RTVSPost2010PropOp41
 70
     1
102
RTVSPost2010Prop42
 90
       50
102
RTVSPost2010PropOp42
 70
     1
102
RTVSPost2010Prop43
 90
        3
102
RTVSPost2010PropOp43
 70
     1
102
RTVSPost2010Prop44ColorIndex
 90
        5
102
RTVSPost2010Prop44ColorRGB
 90
      255
102
RTVSPost2010PropOp44
 70
     1
102
RTVSPost2010Prop45
280
     0
102
RTVSPost2010PropOp45
 70
     1
102
RTVSPost2010Prop46
 90
       50
102
RTVSPost2010PropOp46
 70
     1
102
RTVSPost2010Prop47
 90
       50
102
RTVSPost2010PropOp47
 70
     1
102
RTVSPost2010Prop48
 90
       50
102
RTVSPost2010PropOp48
 70
     1
102
RTVSPost2010Prop49
280
     0
102
RTVSPost2010PropOp49
 70
     1
102
RTVSPost2010Prop50
 90
       50
102
RTVSPost2010PropOp50
 70
     1
102
RTVSPost2010Prop51ColorIndex
 90
      256
102
RTVSPost2010Prop51ColorRGB
 90
-16777216
102
RTVSPost2010PropOp51
 70
     0
102
RTVSPost2010Prop52
140
1.0
102
RTVSPost2010PropOp52
 70
     0
102
RTVSPost2010Prop53
 90
        2
102
RTVSPost2010PropOp53
 70
     1
102
RTVSPost2010Prop54
  1
strokes_ogs.tif
102
RTVSPost2010PropOp54
 70
     1
102
RTVSPost2010Prop55
280
     0
102
RTVSPost2010PropOp55
 70
     1
102
RTVSPost2010Prop56
140
1.0
102
RTVSPost2010PropOp56
 70
     1
102
RTVSPost2010Prop57
140
1.0
102
RTVSPost2010PropOp57
 70
     1
102
RTVSPropertyOp0
 70
     1
102
RTVSPropertyOp1
 70
     1
102
RTVSPropertyOp2
 70
     1
102
RTVSPropertyOp3
 70
     1
102
RTVSPropertyOp4
 70
     1
102
RTVSPropertyOp5
 70
     1
102
RTVSPropertyOp6
 70
     1
102
RTVSPropertyOp7
 70
     1
102
RTVSPropertyOp8
 70
     1
102
RTVSPropertyOp9
 70
     1
102
RTVSPropertyOp10
 70
     1
102
RTVSPropertyOp11
 70
     1
102
RTVSPropertyOp12
 70
     1
102
RTVSPropertyOp13
 70
     1
102
RTVSPropertyOp14
 70
     1
102
RTVSPropertyOp15
 70
     1
102
RTVSPropertyOp16
 70
     1
102
RTVSPropertyOp17
 70
     1
102
RTVSPropertyOp18
 70
     1
102
RTVSPropertyOp19
 70
     1
102
RTVSPropertyOp20
 70
     1
102
RTVSPropertyOp21
 70
     1
102
RTVSPropertyOp22
 70
     1
102
RTVSPropertyOp23
 70
     1
102
RTVSPropertyOp24
 70
     1
102
RTVSPropertyOp25
 70
     1
102
RTVSPropertyOp26
 70
     1
102
RTVSPropertyOp27
 70
     1
102
RTVSPropertyOp28
 70
     1
102
RTVSPropertyOp29
 70
     1
102
RTVSPropertyOp30
 70
     1
102
RTVSPropertyOp31
 70
     1
102
RTVSPropertyOp32
 70
     1
102
RTVSPropertyOp33
 70
     1
102
RTVSPropertyOp34
 70
     1
102
RTVSPropertyOp35
 70
     1
102
RTVSPropertyOp36
 70
     1
102
RTVSPropertyOp37
 70
     1
102
RTVSPropertyOp38
 70
     1
102
RTVSPropertyOp39
 70
     1
102
RTVSPropertyOp40
 70
     1
102
RTVSPropertyOp41
 70
     1
102
RTVSPropertyOp42
 70
     1
102
RTVSPropertyOp43
 70
     1
102
RTVSPropertyOp44
 70
     1
102
RTVSPropertyOp45
 70
     1
102
RTVSPropertyOp46
 70
     1
102
RTVSPropertyOp47
 70
     1
102
RTVSPropertyOp48
 70
     1
102
RTVSPropertyOp49
 70
     1
102
RTVSPropertyOp50
 70
     1
102
RTVSPropertyOp51
 70
     0
102
RTVSPropertyOp52
 70
     0
102
RTVSPropertyOp53
 70
     1
102
RTVSPropertyOp54
 70
     1
102
RTVSPropertyOp55
 70
     1
102
RTVSPropertyOp56
 70
     1
102
RTVSPropertyOp57
 70
     1
102
RTVSPropertyOp58
 70
     1
102
RTVSPropertyOp59
 70
     1
102
RTVSPropertyOp60
 70
     1
102
RTVSPropertyOp61
 70
     1
102
RTVSPropertyOp62
 70
     1
  0
XRECORD
  5
74B
102
{ACAD_REACTORS
330
74A
102
}
330
74A
100
AcDbXrecord
280
     1
102
RTVSPost2010Prop28
280
     0
102
RTVSPost2010PropOp28
 70
     1
102
RTVSPost2010Prop29
280
     1
102
RTVSPost2010PropOp29
 70
     1
102
RTVSPost2010Prop30
280
     1
102
RTVSPost2010PropOp30
 70
     1
102
RTVSPost2010Prop31
280
     0
102
RTVSPost2010PropOp31
 70
     1
102
RTVSPost2010Prop32
280
     0
102
RTVSPost2010PropOp32
 70
     1
102
RTVSPost2010Prop33
280
     0
102
RTVSPost2010PropOp33
 70
     1
102
RTVSPost2010Prop34
280
     0
102
RTVSPost2010PropOp34
 70
     1
102
RTVSPost2010Prop35
280
     0
102
RTVSPost2010PropOp35
 70
     1
102
RTVSPost2010Prop36
280
     0
102
RTVSPost2010PropOp36
 70
     1
102
RTVSPost2010Prop37
 90
       50
102
RTVSPost2010PropOp37
 70
     1
102
RTVSPost2010Prop38
140
0.0
102
RTVSPost2010PropOp38
 70
     1
102
RTVSPost2010Prop39
140
1.0
102
RTVSPost2010PropOp39
 70
     1
102
RTVSPost2010Prop40
 90
        0
102
RTVSPost2010PropOp40
 70
     1
102
RTVSPost2010Prop41ColorIndex
 90
       18
102
RTVSPost2010Prop41ColorRGB
 90
        0
102
RTVSPost2010PropOp41
 70
     1
102
RTVSPost2010Prop42
 90
       50
102
RTVSPost2010PropOp42
 70
     1
102
RTVSPost2010Prop43
 90
        3
102
RTVSPost2010PropOp43
 70
     1
102
RTVSPost2010Prop44ColorIndex
 90
        5
102
RTVSPost2010Prop44ColorRGB
 90
      255
102
RTVSPost2010PropOp44
 70
     1
102
RTVSPost2010Prop45
280
     0
102
RTVSPost2010PropOp45
 70
     1
102
RTVSPost2010Prop46
 90
       50
102
RTVSPost2010PropOp46
 70
     1
102
RTVSPost2010Prop47
 90
       50
102
RTVSPost2010PropOp47
 70
     1
102
RTVSPost2010Prop48
 90
       50
102
RTVSPost2010PropOp48
 70
     1
102
RTVSPost2010Prop49
280
     0
102
RTVSPost2010PropOp49
 70
     1
102
RTVSPost2010Prop50
 90
       50
102
RTVSPost2010PropOp50
 70
     1
102
RTVSPost2010Prop51ColorIndex
 90
      256
102
RTVSPost2010Prop51ColorRGB
 90
-16777216
102
RTVSPost2010PropOp51
 70
     0
102
RTVSPost2010Prop52
140
1.0
102
RTVSPost2010PropOp52
 70
     0
102
RTVSPost2010Prop53
 90
        2
102
RTVSPost2010PropOp53
 70
     1
102
RTVSPost2010Prop54
  1
strokes_ogs.tif
102
RTVSPost2010PropOp54
 70
     1
102
RTVSPost2010Prop55
280
     0
102
RTVSPost2010PropOp55
 70
     1
102
RTVSPost2010Prop56
140
1.0
102
RTVSPost2010PropOp56
 70
     1
102
RTVSPost2010Prop57
140
1.0
102
RTVSPost2010PropOp57
 70
     1
102
RTVSPropertyOp0
 70
     1
102
RTVSPropertyOp1
 70
     1
102
RTVSPropertyOp2
 70
     1
102
RTVSPropertyOp3
 70
     1
102
RTVSPropertyOp4
 70
     1
102
RTVSPropertyOp5
 70
     1
102
RTVSPropertyOp6
 70
     1
102
RTVSPropertyOp7
 70
     1
102
RTVSPropertyOp8
 70
     1
102
RTVSPropertyOp9
 70
     1
102
RTVSPropertyOp10
 70
     1
102
RTVSPropertyOp11
 70
     1
102
RTVSPropertyOp12
 70
     1
102
RTVSPropertyOp13
 70
     1
102
RTVSPropertyOp14
 70
     1
102
RTVSPropertyOp15
 70
     1
102
RTVSPropertyOp16
 70
     1
102
RTVSPropertyOp17
 70
     1
102
RTVSPropertyOp18
 70
     1
102
RTVSPropertyOp19
 70
     1
102
RTVSPropertyOp20
 70
     1
102
RTVSPropertyOp21
 70
     1
102
RTVSPropertyOp22
 70
     1
102
RTVSPropertyOp23
 70
     1
102
RTVSPropertyOp24
 70
     1
102
RTVSPropertyOp25
 70
     1
102
RTVSPropertyOp26
 70
     1
102
RTVSPropertyOp27
 70
     1
102
RTVSPropertyOp28
 70
     1
102
RTVSPropertyOp29
 70
     1
102
RTVSPropertyOp30
 70
     1
102
RTVSPropertyOp31
 70
     1
102
RTVSPropertyOp32
 70
     1
102
RTVSPropertyOp33
 70
     1
102
RTVSPropertyOp34
 70
     1
102
RTVSPropertyOp35
 70
     1
102
RTVSPropertyOp36
 70
     1
102
RTVSPropertyOp37
 70
     1
102
RTVSPropertyOp38
 70
     1
102
RTVSPropertyOp39
 70
     1
102
RTVSPropertyOp40
 70
     1
102
RTVSPropertyOp41
 70
     1
102
RTVSPropertyOp42
 70
     1
102
RTVSPropertyOp43
 70
     1
102
RTVSPropertyOp44
 70
     1
102
RTVSPropertyOp45
 70
     1
102
RTVSPropertyOp46
 70
     1
102
RTVSPropertyOp47
 70
     1
102
RTVSPropertyOp48
 70
     1
102
RTVSPropertyOp49
 70
     1
102
RTVSPropertyOp50
 70
     1
102
RTVSPropertyOp51
 70
     0
102
RTVSPropertyOp52
 70
     0
102
RTVSPropertyOp53
 70
     1
102
RTVSPropertyOp54
 70
     1
102
RTVSPropertyOp55
 70
     1
102
RTVSPropertyOp56
 70
     1
102
RTVSPropertyOp57
 70
     1
102
RTVSPropertyOp58
 70
     1
102
RTVSPropertyOp59
 70
     1
102
RTVSPropertyOp60
 70
     1
102
RTVSPropertyOp61
 70
     1
102
RTVSPropertyOp62
 70
     1
  0
XRECORD
  5
753
102
{ACAD_REACTORS
330
752
102
}
330
752
100
AcDbXrecord
280
     1
102
RTVSPost2010Prop28
280
     0
102
RTVSPost2010PropOp28
 70
     1
102
RTVSPost2010Prop29
280
     1
102
RTVSPost2010PropOp29
 70
     1
102
RTVSPost2010Prop30
280
     1
102
RTVSPost2010PropOp30
 70
     1
102
RTVSPost2010Prop31
280
     0
102
RTVSPost2010PropOp31
 70
     1
102
RTVSPost2010Prop32
280
     0
102
RTVSPost2010PropOp32
 70
     1
102
RTVSPost2010Prop33
280
     0
102
RTVSPost2010PropOp33
 70
     1
102
RTVSPost2010Prop34
280
     0
102
RTVSPost2010PropOp34
 70
     1
102
RTVSPost2010Prop35
280
     0
102
RTVSPost2010PropOp35
 70
     1
102
RTVSPost2010Prop36
280
     0
102
RTVSPost2010PropOp36
 70
     1
102
RTVSPost2010Prop37
 90
       50
102
RTVSPost2010PropOp37
 70
     1
102
RTVSPost2010Prop38
140
0.0
102
RTVSPost2010PropOp38
 70
     1
102
RTVSPost2010Prop39
140
1.0
102
RTVSPost2010PropOp39
 70
     1
102
RTVSPost2010Prop40
 90
        0
102
RTVSPost2010PropOp40
 70
     1
102
RTVSPost2010Prop41ColorIndex
 90
       18
102
RTVSPost2010Prop41ColorRGB
 90
        0
102
RTVSPost2010PropOp41
 70
     1
102
RTVSPost2010Prop42
 90
       50
102
RTVSPost2010PropOp42
 70
     1
102
RTVSPost2010Prop43
 90
        3
102
RTVSPost2010PropOp43
 70
     1
102
RTVSPost2010Prop44ColorIndex
 90
        5
102
RTVSPost2010Prop44ColorRGB
 90
      255
102
RTVSPost2010PropOp44
 70
     1
102
RTVSPost2010Prop45
280
     0
102
RTVSPost2010PropOp45
 70
     1
102
RTVSPost2010Prop46
 90
       50
102
RTVSPost2010PropOp46
 70
     1
102
RTVSPost2010Prop47
 90
       50
102
RTVSPost2010PropOp47
 70
     1
102
RTVSPost2010Prop48
 90
       50
102
RTVSPost2010PropOp48
 70
     1
102
RTVSPost2010Prop49
280
     0
102
RTVSPost2010PropOp49
 70
     1
102
RTVSPost2010Prop50
 90
       50
102
RTVSPost2010PropOp50
 70
     1
102
RTVSPost2010Prop51ColorIndex
 90
      256
102
RTVSPost2010Prop51ColorRGB
 90
-16777216
102
RTVSPost2010PropOp51
 70
     0
102
RTVSPost2010Prop52
140
1.0
102
RTVSPost2010PropOp52
 70
     0
102
RTVSPost2010Prop53
 90
        2
102
RTVSPost2010PropOp53
 70
     1
102
RTVSPost2010Prop54
  1
strokes_ogs.tif
102
RTVSPost2010PropOp54
 70
     1
102
RTVSPost2010Prop55
280
     0
102
RTVSPost2010PropOp55
 70
     1
102
RTVSPost2010Prop56
140
1.0
102
RTVSPost2010PropOp56
 70
     1
102
RTVSPost2010Prop57
140
1.0
102
RTVSPost2010PropOp57
 70
     1
102
RTVSPropertyOp0
 70
     1
102
RTVSPropertyOp1
 70
     1
102
RTVSPropertyOp2
 70
     1
102
RTVSPropertyOp3
 70
     1
102
RTVSPropertyOp4
 70
     1
102
RTVSPropertyOp5
 70
     1
102
RTVSPropertyOp6
 70
     1
102
RTVSPropertyOp7
 70
     1
102
RTVSPropertyOp8
 70
     1
102
RTVSPropertyOp9
 70
     1
102
RTVSPropertyOp10
 70
     1
102
RTVSPropertyOp11
 70
     1
102
RTVSPropertyOp12
 70
     1
102
RTVSPropertyOp13
 70
     1
102
RTVSPropertyOp14
 70
     1
102
RTVSPropertyOp15
 70
     1
102
RTVSPropertyOp16
 70
     1
102
RTVSPropertyOp17
 70
     1
102
RTVSPropertyOp18
 70
     1
102
RTVSPropertyOp19
 70
     1
102
RTVSPropertyOp20
 70
     1
102
RTVSPropertyOp21
 70
     1
102
RTVSPropertyOp22
 70
     1
102
RTVSPropertyOp23
 70
     1
102
RTVSPropertyOp24
 70
     1
102
RTVSPropertyOp25
 70
     1
102
RTVSPropertyOp26
 70
     1
102
RTVSPropertyOp27
 70
     1
102
RTVSPropertyOp28
 70
     1
102
RTVSPropertyOp29
 70
     1
102
RTVSPropertyOp30
 70
     1
102
RTVSPropertyOp31
 70
     1
102
RTVSPropertyOp32
 70
     1
102
RTVSPropertyOp33
 70
     1
102
RTVSPropertyOp34
 70
     1
102
RTVSPropertyOp35
 70
     1
102
RTVSPropertyOp36
 70
     1
102
RTVSPropertyOp37
 70
     1
102
RTVSPropertyOp38
 70
     1
102
RTVSPropertyOp39
 70
     1
102
RTVSPropertyOp40
 70
     1
102
RTVSPropertyOp41
 70
     1
102
RTVSPropertyOp42
 70
     1
102
RTVSPropertyOp43
 70
     1
102
RTVSPropertyOp44
 70
     1
102
RTVSPropertyOp45
 70
     1
102
RTVSPropertyOp46
 70
     1
102
RTVSPropertyOp47
 70
     1
102
RTVSPropertyOp48
 70
     1
102
RTVSPropertyOp49
 70
     1
102
RTVSPropertyOp50
 70
     1
102
RTVSPropertyOp51
 70
     0
102
RTVSPropertyOp52
 70
     0
102
RTVSPropertyOp53
 70
     1
102
RTVSPropertyOp54
 70
     1
102
RTVSPropertyOp55
 70
     1
102
RTVSPropertyOp56
 70
     1
102
RTVSPropertyOp57
 70
     1
102
RTVSPropertyOp58
 70
     1
102
RTVSPropertyOp59
 70
     1
102
RTVSPropertyOp60
 70
     1
102
RTVSPropertyOp61
 70
     1
102
RTVSPropertyOp62
 70
     1
  0
XRECORD
  5
76F
102
{ACAD_REACTORS
330
76E
102
}
330
76E
100
AcDbXrecord
280
     1
102
RTVSPost2010Prop28
280
     0
102
RTVSPost2010PropOp28
 70
     1
102
RTVSPost2010Prop29
280
     1
102
RTVSPost2010PropOp29
 70
     1
102
RTVSPost2010Prop30
280
     1
102
RTVSPost2010PropOp30
 70
     1
102
RTVSPost2010Prop31
280
     0
102
RTVSPost2010PropOp31
 70
     1
102
RTVSPost2010Prop32
280
     0
102
RTVSPost2010PropOp32
 70
     1
102
RTVSPost2010Prop33
280
     0
102
RTVSPost2010PropOp33
 70
     1
102
RTVSPost2010Prop34
280
     0
102
RTVSPost2010PropOp34
 70
     1
102
RTVSPost2010Prop35
280
     0
102
RTVSPost2010PropOp35
 70
     1
102
RTVSPost2010Prop36
280
     0
102
RTVSPost2010PropOp36
 70
     1
102
RTVSPost2010Prop37
 90
       50
102
RTVSPost2010PropOp37
 70
     0
102
RTVSPost2010Prop38
140
0.0
102
RTVSPost2010PropOp38
 70
     0
102
RTVSPost2010Prop39
140
1.0
102
RTVSPost2010PropOp39
 70
     0
102
RTVSPost2010Prop40
 90
        0
102
RTVSPost2010PropOp40
 70
     0
102
RTVSPost2010Prop41ColorIndex
 90
       18
102
RTVSPost2010Prop41ColorRGB
 90
        0
102
RTVSPost2010PropOp41
 70
     0
102
RTVSPost2010Prop42
 90
       50
102
RTVSPost2010PropOp42
 70
     0
102
RTVSPost2010Prop43
 90
        3
102
RTVSPost2010PropOp43
 70
     0
102
RTVSPost2010Prop44ColorIndex
 90
        5
102
RTVSPost2010Prop44ColorRGB
 90
      255
102
RTVSPost2010PropOp44
 70
     0
102
RTVSPost2010Prop45
280
     0
102
RTVSPost2010PropOp45
 70
     1
102
RTVSPost2010Prop46
 90
       50
102
RTVSPost2010PropOp46
 70
     0
102
RTVSPost2010Prop47
 90
       50
102
RTVSPost2010PropOp47
 70
     0
102
RTVSPost2010Prop48
 90
       50
102
RTVSPost2010PropOp48
 70
     0
102
RTVSPost2010Prop49
280
     0
102
RTVSPost2010PropOp49
 70
     1
102
RTVSPost2010Prop50
 90
       50
102
RTVSPost2010PropOp50
 70
     0
102
RTVSPost2010Prop51ColorIndex
 90
      256
102
RTVSPost2010Prop51ColorRGB
 90
-16777216
102
RTVSPost2010PropOp51
 70
     0
102
RTVSPost2010Prop52
140
1.0
102
RTVSPost2010PropOp52
 70
     0
102
RTVSPost2010Prop53
 90
        2
102
RTVSPost2010PropOp53
 70
     0
102
RTVSPost2010Prop54
  1
strokes_ogs.tif
102
RTVSPost2010PropOp54
 70
     0
102
RTVSPost2010Prop55
280
     0
102
RTVSPost2010PropOp55
 70
     1
102
RTVSPost2010Prop56
140
1.0
102
RTVSPost2010PropOp56
 70
     0
102
RTVSPost2010Prop57
140
1.0
102
RTVSPost2010PropOp57
 70
     0
102
RTVSPropertyOp0
 70
     0
102
RTVSPropertyOp1
 70
     0
102
RTVSPropertyOp2
 70
     0
102
RTVSPropertyOp3
 70
     0
102
RTVSPropertyOp4
 70
     0
102
RTVSPropertyOp5
 70
     0
102
RTVSPropertyOp6
 70
     0
102
RTVSPropertyOp7
 70
     0
102
RTVSPropertyOp8
 70
     0
102
RTVSPropertyOp9
 70
     0
102
RTVSPropertyOp10
 70
     0
102
RTVSPropertyOp11
 70
     0
102
RTVSPropertyOp12
 70
     0
102
RTVSPropertyOp13
 70
     0
102
RTVSPropertyOp14
 70
     2
102
RTVSPropertyOp15
 70
     0
102
RTVSPropertyOp16
 70
     0
102
RTVSPropertyOp17
 70
     0
102
RTVSPropertyOp18
 70
     0
102
RTVSPropertyOp19
 70
     0
102
RTVSPropertyOp20
 70
     0
102
RTVSPropertyOp21
 70
     0
102
RTVSPropertyOp22
 70
     0
102
RTVSPropertyOp23
 70
     0
102
RTVSPropertyOp24
 70
     0
102
RTVSPropertyOp25
 70
     0
102
RTVSPropertyOp26
 70
     0
102
RTVSPropertyOp27
 70
     0
102
RTVSPropertyOp28
 70
     1
102
RTVSPropertyOp29
 70
     1
102
RTVSPropertyOp30
 70
     1
102
RTVSPropertyOp31
 70
     1
102
RTVSPropertyOp32
 70
     1
102
RTVSPropertyOp33
 70
     1
102
RTVSPropertyOp34
 70
     1
102
RTVSPropertyOp35
 70
     1
102
RTVSPropertyOp36
 70
     1
102
RTVSPropertyOp37
 70
     0
102
RTVSPropertyOp38
 70
     0
102
RTVSPropertyOp39
 70
     0
102
RTVSPropertyOp40
 70
     0
102
RTVSPropertyOp41
 70
     0
102
RTVSPropertyOp42
 70
     0
102
RTVSPropertyOp43
 70
     0
102
RTVSPropertyOp44
 70
     0
102
RTVSPropertyOp45
 70
     1
102
RTVSPropertyOp46
 70
     0
102
RTVSPropertyOp47
 70
     0
102
RTVSPropertyOp48
 70
     0
102
RTVSPropertyOp49
 70
     1
102
RTVSPropertyOp50
 70
     0
102
RTVSPropertyOp51
 70
     0
102
RTVSPropertyOp52
 70
     0
102
RTVSPropertyOp53
 70
     0
102
RTVSPropertyOp54
 70
     0
102
RTVSPropertyOp55
 70
     1
102
RTVSPropertyOp56
 70
     0
102
RTVSPropertyOp57
 70
     0
102
RTVSPropertyOp58
 70
     0
102
RTVSPropertyOp59
 70
     0
102
RTVSPropertyOp60
 70
     0
102
RTVSPropertyOp61
 70
     0
102
RTVSPropertyOp62
 70
     0
  0
XRECORD
  5
75F
102
{ACAD_REACTORS
330
75E
102
}
330
75E
100
AcDbXrecord
280
     1
102
RTVSPost2010Prop28
280
     0
102
RTVSPost2010PropOp28
 70
     1
102
RTVSPost2010Prop29
280
     1
102
RTVSPost2010PropOp29
 70
     1
102
RTVSPost2010Prop30
280
     1
102
RTVSPost2010PropOp30
 70
     1
102
RTVSPost2010Prop31
280
     0
102
RTVSPost2010PropOp31
 70
     1
102
RTVSPost2010Prop32
280
     0
102
RTVSPost2010PropOp32
 70
     1
102
RTVSPost2010Prop33
280
     0
102
RTVSPost2010PropOp33
 70
     1
102
RTVSPost2010Prop34
280
     0
102
RTVSPost2010PropOp34
 70
     1
102
RTVSPost2010Prop35
280
     0
102
RTVSPost2010PropOp35
 70
     1
102
RTVSPost2010Prop36
280
     0
102
RTVSPost2010PropOp36
 70
     1
102
RTVSPost2010Prop37
 90
       50
102
RTVSPost2010PropOp37
 70
     1
102
RTVSPost2010Prop38
140
0.0
102
RTVSPost2010PropOp38
 70
     1
102
RTVSPost2010Prop39
140
1.0
102
RTVSPost2010PropOp39
 70
     1
102
RTVSPost2010Prop40
 90
        0
102
RTVSPost2010PropOp40
 70
     1
102
RTVSPost2010Prop41ColorIndex
 90
       18
102
RTVSPost2010Prop41ColorRGB
 90
        0
102
RTVSPost2010PropOp41
 70
     1
102
RTVSPost2010Prop42
 90
       50
102
RTVSPost2010PropOp42
 70
     1
102
RTVSPost2010Prop43
 90
        3
102
RTVSPost2010PropOp43
 70
     1
102
RTVSPost2010Prop44ColorIndex
 90
        5
102
RTVSPost2010Prop44ColorRGB
 90
      255
102
RTVSPost2010PropOp44
 70
     1
102
RTVSPost2010Prop45
280
     0
102
RTVSPost2010PropOp45
 70
     1
102
RTVSPost2010Prop46
 90
       50
102
RTVSPost2010PropOp46
 70
     1
102
RTVSPost2010Prop47
 90
       50
102
RTVSPost2010PropOp47
 70
     1
102
RTVSPost2010Prop48
 90
       50
102
RTVSPost2010PropOp48
 70
     1
102
RTVSPost2010Prop49
280
     0
102
RTVSPost2010PropOp49
 70
     1
102
RTVSPost2010Prop50
 90
       50
102
RTVSPost2010PropOp50
 70
     1
102
RTVSPost2010Prop51ColorIndex
 90
      256
102
RTVSPost2010Prop51ColorRGB
 90
-16777216
102
RTVSPost2010PropOp51
 70
     0
102
RTVSPost2010Prop52
140
1.0
102
RTVSPost2010PropOp52
 70
     0
102
RTVSPost2010Prop53
 90
        2
102
RTVSPost2010PropOp53
 70
     1
102
RTVSPost2010Prop54
  1
strokes_ogs.tif
102
RTVSPost2010PropOp54
 70
     1
102
RTVSPost2010Prop55
280
     0
102
RTVSPost2010PropOp55
 70
     1
102
RTVSPost2010Prop56
140
1.0
102
RTVSPost2010PropOp56
 70
     1
102
RTVSPost2010Prop57
140
1.0
102
RTVSPost2010PropOp57
 70
     1
102
RTVSPropertyOp0
 70
     1
102
RTVSPropertyOp1
 70
     1
102
RTVSPropertyOp2
 70
     1
102
RTVSPropertyOp3
 70
     1
102
RTVSPropertyOp4
 70
     1
102
RTVSPropertyOp5
 70
     1
102
RTVSPropertyOp6
 70
     1
102
RTVSPropertyOp7
 70
     1
102
RTVSPropertyOp8
 70
     1
102
RTVSPropertyOp9
 70
     1
102
RTVSPropertyOp10
 70
     1
102
RTVSPropertyOp11
 70
     1
102
RTVSPropertyOp12
 70
     1
102
RTVSPropertyOp13
 70
     1
102
RTVSPropertyOp14
 70
     1
102
RTVSPropertyOp15
 70
     1
102
RTVSPropertyOp16
 70
     1
102
RTVSPropertyOp17
 70
     1
102
RTVSPropertyOp18
 70
     1
102
RTVSPropertyOp19
 70
     1
102
RTVSPropertyOp20
 70
     1
102
RTVSPropertyOp21
 70
     1
102
RTVSPropertyOp22
 70
     1
102
RTVSPropertyOp23
 70
     1
102
RTVSPropertyOp24
 70
     1
102
RTVSPropertyOp25
 70
     1
102
RTVSPropertyOp26
 70
     1
102
RTVSPropertyOp27
 70
     1
102
RTVSPropertyOp28
 70
     1
102
RTVSPropertyOp29
 70
     1
102
RTVSPropertyOp30
 70
     1
102
RTVSPropertyOp31
 70
     1
102
RTVSPropertyOp32
 70
     1
102
RTVSPropertyOp33
 70
     1
102
RTVSPropertyOp34
 70
     1
102
RTVSPropertyOp35
 70
     1
102
RTVSPropertyOp36
 70
     1
102
RTVSPropertyOp37
 70
     1
102
RTVSPropertyOp38
 70
     1
102
RTVSPropertyOp39
 70
     1
102
RTVSPropertyOp40
 70
     1
102
RTVSPropertyOp41
 70
     1
102
RTVSPropertyOp42
 70
     1
102
RTVSPropertyOp43
 70
     1
102
RTVSPropertyOp44
 70
     1
102
RTVSPropertyOp45
 70
     1
102
RTVSPropertyOp46
 70
     1
102
RTVSPropertyOp47
 70
     1
102
RTVSPropertyOp48
 70
     1
102
RTVSPropertyOp49
 70
     1
102
RTVSPropertyOp50
 70
     1
102
RTVSPropertyOp51
 70
     0
102
RTVSPropertyOp52
 70
     0
102
RTVSPropertyOp53
 70
     1
102
RTVSPropertyOp54
 70
     1
102
RTVSPropertyOp55
 70
     1
102
RTVSPropertyOp56
 70
     1
102
RTVSPropertyOp57
 70
     1
102
RTVSPropertyOp58
 70
     1
102
RTVSPropertyOp59
 70
     1
102
RTVSPropertyOp60
 70
     1
102
RTVSPropertyOp61
 70
     1
102
RTVSPropertyOp62
 70
     1
  0
XRECORD
  5
771
102
{ACAD_REACTORS
330
770
102
}
330
770
100
AcDbXrecord
280
     1
102
RTVSPost2010Prop28
280
     0
102
RTVSPost2010PropOp28
 70
     1
102
RTVSPost2010Prop29
280
     1
102
RTVSPost2010PropOp29
 70
     1
102
RTVSPost2010Prop30
280
     1
102
RTVSPost2010PropOp30
 70
     1
102
RTVSPost2010Prop31
280
     0
102
RTVSPost2010PropOp31
 70
     1
102
RTVSPost2010Prop32
280
     0
102
RTVSPost2010PropOp32
 70
     1
102
RTVSPost2010Prop33
280
     0
102
RTVSPost2010PropOp33
 70
     1
102
RTVSPost2010Prop34
280
     0
102
RTVSPost2010PropOp34
 70
     1
102
RTVSPost2010Prop35
280
     0
102
RTVSPost2010PropOp35
 70
     1
102
RTVSPost2010Prop36
280
     0
102
RTVSPost2010PropOp36
 70
     1
102
RTVSPost2010Prop37
 90
       50
102
RTVSPost2010PropOp37
 70
     0
102
RTVSPost2010Prop38
140
0.0
102
RTVSPost2010PropOp38
 70
     0
102
RTVSPost2010Prop39
140
1.0
102
RTVSPost2010PropOp39
 70
     0
102
RTVSPost2010Prop40
 90
        0
102
RTVSPost2010PropOp40
 70
     0
102
RTVSPost2010Prop41ColorIndex
 90
       18
102
RTVSPost2010Prop41ColorRGB
 90
        0
102
RTVSPost2010PropOp41
 70
     0
102
RTVSPost2010Prop42
 90
       50
102
RTVSPost2010PropOp42
 70
     0
102
RTVSPost2010Prop43
 90
        3
102
RTVSPost2010PropOp43
 70
     0
102
RTVSPost2010Prop44ColorIndex
 90
        5
102
RTVSPost2010Prop44ColorRGB
 90
      255
102
RTVSPost2010PropOp44
 70
     0
102
RTVSPost2010Prop45
280
     0
102
RTVSPost2010PropOp45
 70
     1
102
RTVSPost2010Prop46
 90
       50
102
RTVSPost2010PropOp46
 70
     0
102
RTVSPost2010Prop47
 90
       50
102
RTVSPost2010PropOp47
 70
     0
102
RTVSPost2010Prop48
 90
       50
102
RTVSPost2010PropOp48
 70
     0
102
RTVSPost2010Prop49
280
     0
102
RTVSPost2010PropOp49
 70
     1
102
RTVSPost2010Prop50
 90
       50
102
RTVSPost2010PropOp50
 70
     0
102
RTVSPost2010Prop51ColorIndex
 90
      256
102
RTVSPost2010Prop51ColorRGB
 90
-16777216
102
RTVSPost2010PropOp51
 70
     0
102
RTVSPost2010Prop52
140
1.0
102
RTVSPost2010PropOp52
 70
     0
102
RTVSPost2010Prop53
 90
        2
102
RTVSPost2010PropOp53
 70
     0
102
RTVSPost2010Prop54
  1
strokes_ogs.tif
102
RTVSPost2010PropOp54
 70
     0
102
RTVSPost2010Prop55
280
     0
102
RTVSPost2010PropOp55
 70
     1
102
RTVSPost2010Prop56
140
1.0
102
RTVSPost2010PropOp56
 70
     0
102
RTVSPost2010Prop57
140
1.0
102
RTVSPost2010PropOp57
 70
     0
102
RTVSPropertyOp0
 70
     0
102
RTVSPropertyOp1
 70
     0
102
RTVSPropertyOp2
 70
     0
102
RTVSPropertyOp3
 70
     0
102
RTVSPropertyOp4
 70
     0
102
RTVSPropertyOp5
 70
     0
102
RTVSPropertyOp6
 70
     0
102
RTVSPropertyOp7
 70
     0
102
RTVSPropertyOp8
 70
     0
102
RTVSPropertyOp9
 70
     0
102
RTVSPropertyOp10
 70
     0
102
RTVSPropertyOp11
 70
     0
102
RTVSPropertyOp12
 70
     0
102
RTVSPropertyOp13
 70
     0
102
RTVSPropertyOp14
 70
     2
102
RTVSPropertyOp15
 70
     0
102
RTVSPropertyOp16
 70
     0
102
RTVSPropertyOp17
 70
     0
102
RTVSPropertyOp18
 70
     0
102
RTVSPropertyOp19
 70
     0
102
RTVSPropertyOp20
 70
     0
102
RTVSPropertyOp21
 70
     0
102
RTVSPropertyOp22
 70
     0
102
RTVSPropertyOp23
 70
     0
102
RTVSPropertyOp24
 70
     0
102
RTVSPropertyOp25
 70
     0
102
RTVSPropertyOp26
 70
     0
102
RTVSPropertyOp27
 70
     0
102
RTVSPropertyOp28
 70
     1
102
RTVSPropertyOp29
 70
     1
102
RTVSPropertyOp30
 70
     1
102
RTVSPropertyOp31
 70
     1
102
RTVSPropertyOp32
 70
     1
102
RTVSPropertyOp33
 70
     1
102
RTVSPropertyOp34
 70
     1
102
RTVSPropertyOp35
 70
     1
102
RTVSPropertyOp36
 70
     1
102
RTVSPropertyOp37
 70
     0
102
RTVSPropertyOp38
 70
     0
102
RTVSPropertyOp39
 70
     0
102
RTVSPropertyOp40
 70
     0
102
RTVSPropertyOp41
 70
     0
102
RTVSPropertyOp42
 70
     0
102
RTVSPropertyOp43
 70
     0
102
RTVSPropertyOp44
 70
     0
102
RTVSPropertyOp45
 70
     1
102
RTVSPropertyOp46
 70
     0
102
RTVSPropertyOp47
 70
     0
102
RTVSPropertyOp48
 70
     0
102
RTVSPropertyOp49
 70
     1
102
RTVSPropertyOp50
 70
     0
102
RTVSPropertyOp51
 70
     0
102
RTVSPropertyOp52
 70
     0
102
RTVSPropertyOp53
 70
     0
102
RTVSPropertyOp54
 70
     0
102
RTVSPropertyOp55
 70
     1
102
RTVSPropertyOp56
 70
     0
102
RTVSPropertyOp57
 70
     0
102
RTVSPropertyOp58
 70
     0
102
RTVSPropertyOp59
 70
     0
102
RTVSPropertyOp60
 70
     0
102
RTVSPropertyOp61
 70
     0
102
RTVSPropertyOp62
 70
     0
  0
XRECORD
  5
757
102
{ACAD_REACTORS
330
756
102
}
330
756
100
AcDbXrecord
280
     1
102
RTVSPost2010Prop28
280
     0
102
RTVSPost2010PropOp28
 70
     1
102
RTVSPost2010Prop29
280
     1
102
RTVSPost2010PropOp29
 70
     1
102
RTVSPost2010Prop30
280
     1
102
RTVSPost2010PropOp30
 70
     1
102
RTVSPost2010Prop31
280
     0
102
RTVSPost2010PropOp31
 70
     1
102
RTVSPost2010Prop32
280
     0
102
RTVSPost2010PropOp32
 70
     1
102
RTVSPost2010Prop33
280
     0
102
RTVSPost2010PropOp33
 70
     1
102
RTVSPost2010Prop34
280
     0
102
RTVSPost2010PropOp34
 70
     1
102
RTVSPost2010Prop35
280
     0
102
RTVSPost2010PropOp35
 70
     1
102
RTVSPost2010Prop36
280
     0
102
RTVSPost2010PropOp36
 70
     1
102
RTVSPost2010Prop37
 90
       50
102
RTVSPost2010PropOp37
 70
     1
102
RTVSPost2010Prop38
140
0.0
102
RTVSPost2010PropOp38
 70
     1
102
RTVSPost2010Prop39
140
1.0
102
RTVSPost2010PropOp39
 70
     1
102
RTVSPost2010Prop40
 90
        0
102
RTVSPost2010PropOp40
 70
     1
102
RTVSPost2010Prop41ColorIndex
 90
       18
102
RTVSPost2010Prop41ColorRGB
 90
        0
102
RTVSPost2010PropOp41
 70
     1
102
RTVSPost2010Prop42
 90
       50
102
RTVSPost2010PropOp42
 70
     1
102
RTVSPost2010Prop43
 90
        3
102
RTVSPost2010PropOp43
 70
     1
102
RTVSPost2010Prop44ColorIndex
 90
        5
102
RTVSPost2010Prop44ColorRGB
 90
      255
102
RTVSPost2010PropOp44
 70
     1
102
RTVSPost2010Prop45
280
     0
102
RTVSPost2010PropOp45
 70
     1
102
RTVSPost2010Prop46
 90
       50
102
RTVSPost2010PropOp46
 70
     1
102
RTVSPost2010Prop47
 90
       50
102
RTVSPost2010PropOp47
 70
     1
102
RTVSPost2010Prop48
 90
       50
102
RTVSPost2010PropOp48
 70
     1
102
RTVSPost2010Prop49
280
     0
102
RTVSPost2010PropOp49
 70
     1
102
RTVSPost2010Prop50
 90
       50
102
RTVSPost2010PropOp50
 70
     1
102
RTVSPost2010Prop51ColorIndex
 90
      256
102
RTVSPost2010Prop51ColorRGB
 90
-16777216
102
RTVSPost2010PropOp51
 70
     0
102
RTVSPost2010Prop52
140
1.0
102
RTVSPost2010PropOp52
 70
     0
102
RTVSPost2010Prop53
 90
        2
102
RTVSPost2010PropOp53
 70
     1
102
RTVSPost2010Prop54
  1
strokes_ogs.tif
102
RTVSPost2010PropOp54
 70
     1
102
RTVSPost2010Prop55
280
     0
102
RTVSPost2010PropOp55
 70
     1
102
RTVSPost2010Prop56
140
1.0
102
RTVSPost2010PropOp56
 70
     1
102
RTVSPost2010Prop57
140
1.0
102
RTVSPost2010PropOp57
 70
     1
102
RTVSPropertyOp0
 70
     1
102
RTVSPropertyOp1
 70
     1
102
RTVSPropertyOp2
 70
     1
102
RTVSPropertyOp3
 70
     1
102
RTVSPropertyOp4
 70
     1
102
RTVSPropertyOp5
 70
     1
102
RTVSPropertyOp6
 70
     1
102
RTVSPropertyOp7
 70
     1
102
RTVSPropertyOp8
 70
     1
102
RTVSPropertyOp9
 70
     1
102
RTVSPropertyOp10
 70
     1
102
RTVSPropertyOp11
 70
     1
102
RTVSPropertyOp12
 70
     1
102
RTVSPropertyOp13
 70
     1
102
RTVSPropertyOp14
 70
     1
102
RTVSPropertyOp15
 70
     1
102
RTVSPropertyOp16
 70
     1
102
RTVSPropertyOp17
 70
     1
102
RTVSPropertyOp18
 70
     1
102
RTVSPropertyOp19
 70
     1
102
RTVSPropertyOp20
 70
     1
102
RTVSPropertyOp21
 70
     1
102
RTVSPropertyOp22
 70
     1
102
RTVSPropertyOp23
 70
     1
102
RTVSPropertyOp24
 70
     1
102
RTVSPropertyOp25
 70
     1
102
RTVSPropertyOp26
 70
     1
102
RTVSPropertyOp27
 70
     1
102
RTVSPropertyOp28
 70
     1
102
RTVSPropertyOp29
 70
     1
102
RTVSPropertyOp30
 70
     1
102
RTVSPropertyOp31
 70
     1
102
RTVSPropertyOp32
 70
     1
102
RTVSPropertyOp33
 70
     1
102
RTVSPropertyOp34
 70
     1
102
RTVSPropertyOp35
 70
     1
102
RTVSPropertyOp36
 70
     1
102
RTVSPropertyOp37
 70
     1
102
RTVSPropertyOp38
 70
     1
102
RTVSPropertyOp39
 70
     1
102
RTVSPropertyOp40
 70
     1
102
RTVSPropertyOp41
 70
     1
102
RTVSPropertyOp42
 70
     1
102
RTVSPropertyOp43
 70
     1
102
RTVSPropertyOp44
 70
     1
102
RTVSPropertyOp45
 70
     1
102
RTVSPropertyOp46
 70
     1
102
RTVSPropertyOp47
 70
     1
102
RTVSPropertyOp48
 70
     1
102
RTVSPropertyOp49
 70
     1
102
RTVSPropertyOp50
 70
     1
102
RTVSPropertyOp51
 70
     0
102
RTVSPropertyOp52
 70
     0
102
RTVSPropertyOp53
 70
     1
102
RTVSPropertyOp54
 70
     1
102
RTVSPropertyOp55
 70
     1
102
RTVSPropertyOp56
 70
     1
102
RTVSPropertyOp57
 70
     1
102
RTVSPropertyOp58
 70
     1
102
RTVSPropertyOp59
 70
     1
102
RTVSPropertyOp60
 70
     1
102
RTVSPropertyOp61
 70
     1
102
RTVSPropertyOp62
 70
     1
  0
XRECORD
  5
76D
102
{ACAD_REACTORS
330
76C
102
}
330
76C
100
AcDbXrecord
280
     1
102
RTVSPost2010Prop28
280
     0
102
RTVSPost2010PropOp28
 70
     1
102
RTVSPost2010Prop29
280
     1
102
RTVSPost2010PropOp29
 70
     1
102
RTVSPost2010Prop30
280
     1
102
RTVSPost2010PropOp30
 70
     1
102
RTVSPost2010Prop31
280
     0
102
RTVSPost2010PropOp31
 70
     1
102
RTVSPost2010Prop32
280
     0
102
RTVSPost2010PropOp32
 70
     1
102
RTVSPost2010Prop33
280
     0
102
RTVSPost2010PropOp33
 70
     1
102
RTVSPost2010Prop34
280
     0
102
RTVSPost2010PropOp34
 70
     1
102
RTVSPost2010Prop35
280
     0
102
RTVSPost2010PropOp35
 70
     1
102
RTVSPost2010Prop36
280
     0
102
RTVSPost2010PropOp36
 70
     1
102
RTVSPost2010Prop37
 90
       50
102
RTVSPost2010PropOp37
 70
     1
102
RTVSPost2010Prop38
140
0.0
102
RTVSPost2010PropOp38
 70
     1
102
RTVSPost2010Prop39
140
1.0
102
RTVSPost2010PropOp39
 70
     1
102
RTVSPost2010Prop40
 90
        0
102
RTVSPost2010PropOp40
 70
     1
102
RTVSPost2010Prop41ColorIndex
 90
       18
102
RTVSPost2010Prop41ColorRGB
 90
        0
102
RTVSPost2010PropOp41
 70
     1
102
RTVSPost2010Prop42
 90
       50
102
RTVSPost2010PropOp42
 70
     1
102
RTVSPost2010Prop43
 90
        3
102
RTVSPost2010PropOp43
 70
     1
102
RTVSPost2010Prop44ColorIndex
 90
        5
102
RTVSPost2010Prop44ColorRGB
 90
      255
102
RTVSPost2010PropOp44
 70
     1
102
RTVSPost2010Prop45
280
     0
102
RTVSPost2010PropOp45
 70
     1
102
RTVSPost2010Prop46
 90
       50
102
RTVSPost2010PropOp46
 70
     1
102
RTVSPost2010Prop47
 90
       50
102
RTVSPost2010PropOp47
 70
     1
102
RTVSPost2010Prop48
 90
       50
102
RTVSPost2010PropOp48
 70
     1
102
RTVSPost2010Prop49
280
     0
102
RTVSPost2010PropOp49
 70
     1
102
RTVSPost2010Prop50
 90
       50
102
RTVSPost2010PropOp50
 70
     1
102
RTVSPost2010Prop51ColorIndex
 90
      256
102
RTVSPost2010Prop51ColorRGB
 90
-16777216
102
RTVSPost2010PropOp51
 70
     0
102
RTVSPost2010Prop52
140
1.0
102
RTVSPost2010PropOp52
 70
     0
102
RTVSPost2010Prop53
 90
        2
102
RTVSPost2010PropOp53
 70
     1
102
RTVSPost2010Prop54
  1
strokes_ogs.tif
102
RTVSPost2010PropOp54
 70
     1
102
RTVSPost2010Prop55
280
     0
102
RTVSPost2010PropOp55
 70
     1
102
RTVSPost2010Prop56
140
1.0
102
RTVSPost2010PropOp56
 70
     1
102
RTVSPost2010Prop57
140
1.0
102
RTVSPost2010PropOp57
 70
     1
102
RTVSPropertyOp0
 70
     1
102
RTVSPropertyOp1
 70
     1
102
RTVSPropertyOp2
 70
     1
102
RTVSPropertyOp3
 70
     1
102
RTVSPropertyOp4
 70
     1
102
RTVSPropertyOp5
 70
     1
102
RTVSPropertyOp6
 70
     1
102
RTVSPropertyOp7
 70
     1
102
RTVSPropertyOp8
 70
     1
102
RTVSPropertyOp9
 70
     1
102
RTVSPropertyOp10
 70
     1
102
RTVSPropertyOp11
 70
     1
102
RTVSPropertyOp12
 70
     1
102
RTVSPropertyOp13
 70
     1
102
RTVSPropertyOp14
 70
     1
102
RTVSPropertyOp15
 70
     1
102
RTVSPropertyOp16
 70
     1
102
RTVSPropertyOp17
 70
     1
102
RTVSPropertyOp18
 70
     1
102
RTVSPropertyOp19
 70
     1
102
RTVSPropertyOp20
 70
     1
102
RTVSPropertyOp21
 70
     1
102
RTVSPropertyOp22
 70
     1
102
RTVSPropertyOp23
 70
     1
102
RTVSPropertyOp24
 70
     1
102
RTVSPropertyOp25
 70
     1
102
RTVSPropertyOp26
 70
     1
102
RTVSPropertyOp27
 70
     1
102
RTVSPropertyOp28
 70
     1
102
RTVSPropertyOp29
 70
     1
102
RTVSPropertyOp30
 70
     1
102
RTVSPropertyOp31
 70
     1
102
RTVSPropertyOp32
 70
     1
102
RTVSPropertyOp33
 70
     1
102
RTVSPropertyOp34
 70
     1
102
RTVSPropertyOp35
 70
     1
102
RTVSPropertyOp36
 70
     1
102
RTVSPropertyOp37
 70
     1
102
RTVSPropertyOp38
 70
     1
102
RTVSPropertyOp39
 70
     1
102
RTVSPropertyOp40
 70
     1
102
RTVSPropertyOp41
 70
     1
102
RTVSPropertyOp42
 70
     1
102
RTVSPropertyOp43
 70
     1
102
RTVSPropertyOp44
 70
     1
102
RTVSPropertyOp45
 70
     1
102
RTVSPropertyOp46
 70
     1
102
RTVSPropertyOp47
 70
     1
102
RTVSPropertyOp48
 70
     1
102
RTVSPropertyOp49
 70
     1
102
RTVSPropertyOp50
 70
     1
102
RTVSPropertyOp51
 70
     0
102
RTVSPropertyOp52
 70
     0
102
RTVSPropertyOp53
 70
     1
102
RTVSPropertyOp54
 70
     1
102
RTVSPropertyOp55
 70
     1
102
RTVSPropertyOp56
 70
     1
102
RTVSPropertyOp57
 70
     1
102
RTVSPropertyOp58
 70
     1
102
RTVSPropertyOp59
 70
     1
102
RTVSPropertyOp60
 70
     1
102
RTVSPropertyOp61
 70
     1
102
RTVSPropertyOp62
 70
     1
  0
XRECORD
  5
76B
102
{ACAD_REACTORS
330
76A
102
}
330
76A
100
AcDbXrecord
280
     1
102
RTVSPost2010Prop28
280
     0
102
RTVSPost2010PropOp28
 70
     1
102
RTVSPost2010Prop29
280
     1
102
RTVSPost2010PropOp29
 70
     1
102
RTVSPost2010Prop30
280
     1
102
RTVSPost2010PropOp30
 70
     1
102
RTVSPost2010Prop31
280
     0
102
RTVSPost2010PropOp31
 70
     1
102
RTVSPost2010Prop32
280
     0
102
RTVSPost2010PropOp32
 70
     1
102
RTVSPost2010Prop33
280
     0
102
RTVSPost2010PropOp33
 70
     1
102
RTVSPost2010Prop34
280
     0
102
RTVSPost2010PropOp34
 70
     1
102
RTVSPost2010Prop35
280
     0
102
RTVSPost2010PropOp35
 70
     1
102
RTVSPost2010Prop36
280
     0
102
RTVSPost2010PropOp36
 70
     1
102
RTVSPost2010Prop37
 90
       50
102
RTVSPost2010PropOp37
 70
     1
102
RTVSPost2010Prop38
140
0.0
102
RTVSPost2010PropOp38
 70
     1
102
RTVSPost2010Prop39
140
1.0
102
RTVSPost2010PropOp39
 70
     1
102
RTVSPost2010Prop40
 90
        0
102
RTVSPost2010PropOp40
 70
     1
102
RTVSPost2010Prop41ColorIndex
 90
       18
102
RTVSPost2010Prop41ColorRGB
 90
        0
102
RTVSPost2010PropOp41
 70
     1
102
RTVSPost2010Prop42
 90
       50
102
RTVSPost2010PropOp42
 70
     1
102
RTVSPost2010Prop43
 90
        3
102
RTVSPost2010PropOp43
 70
     1
102
RTVSPost2010Prop44ColorIndex
 90
        5
102
RTVSPost2010Prop44ColorRGB
 90
      255
102
RTVSPost2010PropOp44
 70
     1
102
RTVSPost2010Prop45
280
     0
102
RTVSPost2010PropOp45
 70
     1
102
RTVSPost2010Prop46
 90
       50
102
RTVSPost2010PropOp46
 70
     1
102
RTVSPost2010Prop47
 90
       50
102
RTVSPost2010PropOp47
 70
     1
102
RTVSPost2010Prop48
 90
       50
102
RTVSPost2010PropOp48
 70
     1
102
RTVSPost2010Prop49
280
     0
102
RTVSPost2010PropOp49
 70
     1
102
RTVSPost2010Prop50
 90
       50
102
RTVSPost2010PropOp50
 70
     1
102
RTVSPost2010Prop51ColorIndex
 90
      256
102
RTVSPost2010Prop51ColorRGB
 90
-16777216
102
RTVSPost2010PropOp51
 70
     0
102
RTVSPost2010Prop52
140
1.0
102
RTVSPost2010PropOp52
 70
     0
102
RTVSPost2010Prop53
 90
        2
102
RTVSPost2010PropOp53
 70
     1
102
RTVSPost2010Prop54
  1
strokes_ogs.tif
102
RTVSPost2010PropOp54
 70
     1
102
RTVSPost2010Prop55
280
     0
102
RTVSPost2010PropOp55
 70
     1
102
RTVSPost2010Prop56
140
1.0
102
RTVSPost2010PropOp56
 70
     1
102
RTVSPost2010Prop57
140
1.0
102
RTVSPost2010PropOp57
 70
     1
102
RTVSPropertyOp0
 70
     1
102
RTVSPropertyOp1
 70
     1
102
RTVSPropertyOp2
 70
     1
102
RTVSPropertyOp3
 70
     1
102
RTVSPropertyOp4
 70
     1
102
RTVSPropertyOp5
 70
     1
102
RTVSPropertyOp6
 70
     1
102
RTVSPropertyOp7
 70
     1
102
RTVSPropertyOp8
 70
     1
102
RTVSPropertyOp9
 70
     1
102
RTVSPropertyOp10
 70
     1
102
RTVSPropertyOp11
 70
     1
102
RTVSPropertyOp12
 70
     1
102
RTVSPropertyOp13
 70
     1
102
RTVSPropertyOp14
 70
     1
102
RTVSPropertyOp15
 70
     1
102
RTVSPropertyOp16
 70
     1
102
RTVSPropertyOp17
 70
     1
102
RTVSPropertyOp18
 70
     1
102
RTVSPropertyOp19
 70
     1
102
RTVSPropertyOp20
 70
     1
102
RTVSPropertyOp21
 70
     1
102
RTVSPropertyOp22
 70
     1
102
RTVSPropertyOp23
 70
     1
102
RTVSPropertyOp24
 70
     1
102
RTVSPropertyOp25
 70
     1
102
RTVSPropertyOp26
 70
     1
102
RTVSPropertyOp27
 70
     1
102
RTVSPropertyOp28
 70
     1
102
RTVSPropertyOp29
 70
     1
102
RTVSPropertyOp30
 70
     1
102
RTVSPropertyOp31
 70
     1
102
RTVSPropertyOp32
 70
     1
102
RTVSPropertyOp33
 70
     1
102
RTVSPropertyOp34
 70
     1
102
RTVSPropertyOp35
 70
     1
102
RTVSPropertyOp36
 70
     1
102
RTVSPropertyOp37
 70
     1
102
RTVSPropertyOp38
 70
     1
102
RTVSPropertyOp39
 70
     1
102
RTVSPropertyOp40
 70
     1
102
RTVSPropertyOp41
 70
     1
102
RTVSPropertyOp42
 70
     1
102
RTVSPropertyOp43
 70
     1
102
RTVSPropertyOp44
 70
     1
102
RTVSPropertyOp45
 70
     1
102
RTVSPropertyOp46
 70
     1
102
RTVSPropertyOp47
 70
     1
102
RTVSPropertyOp48
 70
     1
102
RTVSPropertyOp49
 70
     1
102
RTVSPropertyOp50
 70
     1
102
RTVSPropertyOp51
 70
     0
102
RTVSPropertyOp52
 70
     0
102
RTVSPropertyOp53
 70
     1
102
RTVSPropertyOp54
 70
     1
102
RTVSPropertyOp55
 70
     1
102
RTVSPropertyOp56
 70
     1
102
RTVSPropertyOp57
 70
     1
102
RTVSPropertyOp58
 70
     1
102
RTVSPropertyOp59
 70
     1
102
RTVSPropertyOp60
 70
     1
102
RTVSPropertyOp61
 70
     1
102
RTVSPropertyOp62
 70
     1
  0
XRECORD
  5
765
102
{ACAD_REACTORS
330
764
102
}
330
764
100
AcDbXrecord
280
     1
102
RTVSPost2010Prop28
280
     0
102
RTVSPost2010PropOp28
 70
     1
102
RTVSPost2010Prop29
280
     1
102
RTVSPost2010PropOp29
 70
     1
102
RTVSPost2010Prop30
280
     1
102
RTVSPost2010PropOp30
 70
     1
102
RTVSPost2010Prop31
280
     0
102
RTVSPost2010PropOp31
 70
     1
102
RTVSPost2010Prop32
280
     0
102
RTVSPost2010PropOp32
 70
     1
102
RTVSPost2010Prop33
280
     0
102
RTVSPost2010PropOp33
 70
     1
102
RTVSPost2010Prop34
280
     0
102
RTVSPost2010PropOp34
 70
     1
102
RTVSPost2010Prop35
280
     0
102
RTVSPost2010PropOp35
 70
     1
102
RTVSPost2010Prop36
280
     0
102
RTVSPost2010PropOp36
 70
     1
102
RTVSPost2010Prop37
 90
       50
102
RTVSPost2010PropOp37
 70
     1
102
RTVSPost2010Prop38
140
0.0
102
RTVSPost2010PropOp38
 70
     1
102
RTVSPost2010Prop39
140
1.0
102
RTVSPost2010PropOp39
 70
     1
102
RTVSPost2010Prop40
 90
        0
102
RTVSPost2010PropOp40
 70
     1
102
RTVSPost2010Prop41ColorIndex
 90
       18
102
RTVSPost2010Prop41ColorRGB
 90
        0
102
RTVSPost2010PropOp41
 70
     1
102
RTVSPost2010Prop42
 90
       50
102
RTVSPost2010PropOp42
 70
     1
102
RTVSPost2010Prop43
 90
        3
102
RTVSPost2010PropOp43
 70
     1
102
RTVSPost2010Prop44ColorIndex
 90
        5
102
RTVSPost2010Prop44ColorRGB
 90
      255
102
RTVSPost2010PropOp44
 70
     1
102
RTVSPost2010Prop45
280
     0
102
RTVSPost2010PropOp45
 70
     1
102
RTVSPost2010Prop46
 90
       50
102
RTVSPost2010PropOp46
 70
     1
102
RTVSPost2010Prop47
 90
       50
102
RTVSPost2010PropOp47
 70
     1
102
RTVSPost2010Prop48
 90
       50
102
RTVSPost2010PropOp48
 70
     1
102
RTVSPost2010Prop49
280
     0
102
RTVSPost2010PropOp49
 70
     1
102
RTVSPost2010Prop50
 90
       50
102
RTVSPost2010PropOp50
 70
     1
102
RTVSPost2010Prop51ColorIndex
 90
      256
102
RTVSPost2010Prop51ColorRGB
 90
-16777216
102
RTVSPost2010PropOp51
 70
     0
102
RTVSPost2010Prop52
140
1.0
102
RTVSPost2010PropOp52
 70
     0
102
RTVSPost2010Prop53
 90
        2
102
RTVSPost2010PropOp53
 70
     1
102
RTVSPost2010Prop54
  1
strokes_ogs.tif
102
RTVSPost2010PropOp54
 70
     1
102
RTVSPost2010Prop55
280
     0
102
RTVSPost2010PropOp55
 70
     1
102
RTVSPost2010Prop56
140
1.0
102
RTVSPost2010PropOp56
 70
     1
102
RTVSPost2010Prop57
140
1.0
102
RTVSPost2010PropOp57
 70
     1
102
RTVSPropertyOp0
 70
     1
102
RTVSPropertyOp1
 70
     1
102
RTVSPropertyOp2
 70
     1
102
RTVSPropertyOp3
 70
     1
102
RTVSPropertyOp4
 70
     1
102
RTVSPropertyOp5
 70
     1
102
RTVSPropertyOp6
 70
     1
102
RTVSPropertyOp7
 70
     1
102
RTVSPropertyOp8
 70
     1
102
RTVSPropertyOp9
 70
     1
102
RTVSPropertyOp10
 70
     1
102
RTVSPropertyOp11
 70
     1
102
RTVSPropertyOp12
 70
     1
102
RTVSPropertyOp13
 70
     1
102
RTVSPropertyOp14
 70
     1
102
RTVSPropertyOp15
 70
     1
102
RTVSPropertyOp16
 70
     1
102
RTVSPropertyOp17
 70
     1
102
RTVSPropertyOp18
 70
     1
102
RTVSPropertyOp19
 70
     1
102
RTVSPropertyOp20
 70
     1
102
RTVSPropertyOp21
 70
     1
102
RTVSPropertyOp22
 70
     1
102
RTVSPropertyOp23
 70
     1
102
RTVSPropertyOp24
 70
     1
102
RTVSPropertyOp25
 70
     1
102
RTVSPropertyOp26
 70
     1
102
RTVSPropertyOp27
 70
     1
102
RTVSPropertyOp28
 70
     1
102
RTVSPropertyOp29
 70
     1
102
RTVSPropertyOp30
 70
     1
102
RTVSPropertyOp31
 70
     1
102
RTVSPropertyOp32
 70
     1
102
RTVSPropertyOp33
 70
     1
102
RTVSPropertyOp34
 70
     1
102
RTVSPropertyOp35
 70
     1
102
RTVSPropertyOp36
 70
     1
102
RTVSPropertyOp37
 70
     1
102
RTVSPropertyOp38
 70
     1
102
RTVSPropertyOp39
 70
     1
102
RTVSPropertyOp40
 70
     1
102
RTVSPropertyOp41
 70
     1
102
RTVSPropertyOp42
 70
     1
102
RTVSPropertyOp43
 70
     1
102
RTVSPropertyOp44
 70
     1
102
RTVSPropertyOp45
 70
     1
102
RTVSPropertyOp46
 70
     1
102
RTVSPropertyOp47
 70
     1
102
RTVSPropertyOp48
 70
     1
102
RTVSPropertyOp49
 70
     1
102
RTVSPropertyOp50
 70
     1
102
RTVSPropertyOp51
 70
     0
102
RTVSPropertyOp52
 70
     0
102
RTVSPropertyOp53
 70
     1
102
RTVSPropertyOp54
 70
     1
102
RTVSPropertyOp55
 70
     1
102
RTVSPropertyOp56
 70
     1
102
RTVSPropertyOp57
 70
     1
102
RTVSPropertyOp58
 70
     1
102
RTVSPropertyOp59
 70
     1
102
RTVSPropertyOp60
 70
     1
102
RTVSPropertyOp61
 70
     1
102
RTVSPropertyOp62
 70
     1
  0
XRECORD
  5
767
102
{ACAD_REACTORS
330
766
102
}
330
766
100
AcDbXrecord
280
     1
102
RTVSPost2010Prop28
280
     0
102
RTVSPost2010PropOp28
 70
     1
102
RTVSPost2010Prop29
280
     1
102
RTVSPost2010PropOp29
 70
     1
102
RTVSPost2010Prop30
280
     1
102
RTVSPost2010PropOp30
 70
     1
102
RTVSPost2010Prop31
280
     0
102
RTVSPost2010PropOp31
 70
     1
102
RTVSPost2010Prop32
280
     0
102
RTVSPost2010PropOp32
 70
     1
102
RTVSPost2010Prop33
280
     0
102
RTVSPost2010PropOp33
 70
     1
102
RTVSPost2010Prop34
280
     0
102
RTVSPost2010PropOp34
 70
     1
102
RTVSPost2010Prop35
280
     0
102
RTVSPost2010PropOp35
 70
     1
102
RTVSPost2010Prop36
280
     0
102
RTVSPost2010PropOp36
 70
     1
102
RTVSPost2010Prop37
 90
       50
102
RTVSPost2010PropOp37
 70
     1
102
RTVSPost2010Prop38
140
0.0
102
RTVSPost2010PropOp38
 70
     1
102
RTVSPost2010Prop39
140
1.0
102
RTVSPost2010PropOp39
 70
     1
102
RTVSPost2010Prop40
 90
        0
102
RTVSPost2010PropOp40
 70
     1
102
RTVSPost2010Prop41ColorIndex
 90
       18
102
RTVSPost2010Prop41ColorRGB
 90
        0
102
RTVSPost2010PropOp41
 70
     1
102
RTVSPost2010Prop42
 90
       50
102
RTVSPost2010PropOp42
 70
     1
102
RTVSPost2010Prop43
 90
        3
102
RTVSPost2010PropOp43
 70
     1
102
RTVSPost2010Prop44ColorIndex
 90
        5
102
RTVSPost2010Prop44ColorRGB
 90
      255
102
RTVSPost2010PropOp44
 70
     1
102
RTVSPost2010Prop45
280
     0
102
RTVSPost2010PropOp45
 70
     1
102
RTVSPost2010Prop46
 90
       50
102
RTVSPost2010PropOp46
 70
     1
102
RTVSPost2010Prop47
 90
       50
102
RTVSPost2010PropOp47
 70
     1
102
RTVSPost2010Prop48
 90
       50
102
RTVSPost2010PropOp48
 70
     1
102
RTVSPost2010Prop49
280
     0
102
RTVSPost2010PropOp49
 70
     1
102
RTVSPost2010Prop50
 90
       50
102
RTVSPost2010PropOp50
 70
     1
102
RTVSPost2010Prop51ColorIndex
 90
      256
102
RTVSPost2010Prop51ColorRGB
 90
-16777216
102
RTVSPost2010PropOp51
 70
     0
102
RTVSPost2010Prop52
140
1.0
102
RTVSPost2010PropOp52
 70
     0
102
RTVSPost2010Prop53
 90
        2
102
RTVSPost2010PropOp53
 70
     1
102
RTVSPost2010Prop54
  1
strokes_ogs.tif
102
RTVSPost2010PropOp54
 70
     1
102
RTVSPost2010Prop55
280
     0
102
RTVSPost2010PropOp55
 70
     1
102
RTVSPost2010Prop56
140
1.0
102
RTVSPost2010PropOp56
 70
     1
102
RTVSPost2010Prop57
140
1.0
102
RTVSPost2010PropOp57
 70
     1
102
RTVSPropertyOp0
 70
     1
102
RTVSPropertyOp1
 70
     1
102
RTVSPropertyOp2
 70
     1
102
RTVSPropertyOp3
 70
     1
102
RTVSPropertyOp4
 70
     1
102
RTVSPropertyOp5
 70
     1
102
RTVSPropertyOp6
 70
     1
102
RTVSPropertyOp7
 70
     1
102
RTVSPropertyOp8
 70
     1
102
RTVSPropertyOp9
 70
     1
102
RTVSPropertyOp10
 70
     1
102
RTVSPropertyOp11
 70
     1
102
RTVSPropertyOp12
 70
     1
102
RTVSPropertyOp13
 70
     1
102
RTVSPropertyOp14
 70
     1
102
RTVSPropertyOp15
 70
     1
102
RTVSPropertyOp16
 70
     1
102
RTVSPropertyOp17
 70
     1
102
RTVSPropertyOp18
 70
     1
102
RTVSPropertyOp19
 70
     1
102
RTVSPropertyOp20
 70
     1
102
RTVSPropertyOp21
 70
     1
102
RTVSPropertyOp22
 70
     1
102
RTVSPropertyOp23
 70
     1
102
RTVSPropertyOp24
 70
     1
102
RTVSPropertyOp25
 70
     1
102
RTVSPropertyOp26
 70
     1
102
RTVSPropertyOp27
 70
     1
102
RTVSPropertyOp28
 70
     1
102
RTVSPropertyOp29
 70
     1
102
RTVSPropertyOp30
 70
     1
102
RTVSPropertyOp31
 70
     1
102
RTVSPropertyOp32
 70
     1
102
RTVSPropertyOp33
 70
     1
102
RTVSPropertyOp34
 70
     1
102
RTVSPropertyOp35
 70
     1
102
RTVSPropertyOp36
 70
     1
102
RTVSPropertyOp37
 70
     1
102
RTVSPropertyOp38
 70
     1
102
RTVSPropertyOp39
 70
     1
102
RTVSPropertyOp40
 70
     1
102
RTVSPropertyOp41
 70
     1
102
RTVSPropertyOp42
 70
     1
102
RTVSPropertyOp43
 70
     1
102
RTVSPropertyOp44
 70
     1
102
RTVSPropertyOp45
 70
     1
102
RTVSPropertyOp46
 70
     1
102
RTVSPropertyOp47
 70
     1
102
RTVSPropertyOp48
 70
     1
102
RTVSPropertyOp49
 70
     1
102
RTVSPropertyOp50
 70
     1
102
RTVSPropertyOp51
 70
     0
102
RTVSPropertyOp52
 70
     0
102
RTVSPropertyOp53
 70
     1
102
RTVSPropertyOp54
 70
     1
102
RTVSPropertyOp55
 70
     1
102
RTVSPropertyOp56
 70
     1
102
RTVSPropertyOp57
 70
     1
102
RTVSPropertyOp58
 70
     1
102
RTVSPropertyOp59
 70
     1
102
RTVSPropertyOp60
 70
     1
102
RTVSPropertyOp61
 70
     1
102
RTVSPropertyOp62
 70
     1
  0
XRECORD
  5
75D
102
{ACAD_REACTORS
330
75C
102
}
330
75C
100
AcDbXrecord
280
     1
102
RTVSPost2010Prop28
280
     0
102
RTVSPost2010PropOp28
 70
     1
102
RTVSPost2010Prop29
280
     1
102
RTVSPost2010PropOp29
 70
     1
102
RTVSPost2010Prop30
280
     1
102
RTVSPost2010PropOp30
 70
     1
102
RTVSPost2010Prop31
280
     0
102
RTVSPost2010PropOp31
 70
     1
102
RTVSPost2010Prop32
280
     0
102
RTVSPost2010PropOp32
 70
     1
102
RTVSPost2010Prop33
280
     0
102
RTVSPost2010PropOp33
 70
     1
102
RTVSPost2010Prop34
280
     0
102
RTVSPost2010PropOp34
 70
     1
102
RTVSPost2010Prop35
280
     0
102
RTVSPost2010PropOp35
 70
     1
102
RTVSPost2010Prop36
280
     0
102
RTVSPost2010PropOp36
 70
     1
102
RTVSPost2010Prop37
 90
       50
102
RTVSPost2010PropOp37
 70
     1
102
RTVSPost2010Prop38
140
0.0
102
RTVSPost2010PropOp38
 70
     1
102
RTVSPost2010Prop39
140
1.0
102
RTVSPost2010PropOp39
 70
     1
102
RTVSPost2010Prop40
 90
        0
102
RTVSPost2010PropOp40
 70
     1
102
RTVSPost2010Prop41ColorIndex
 90
       18
102
RTVSPost2010Prop41ColorRGB
 90
        0
102
RTVSPost2010PropOp41
 70
     1
102
RTVSPost2010Prop42
 90
       50
102
RTVSPost2010PropOp42
 70
     1
102
RTVSPost2010Prop43
 90
        3
102
RTVSPost2010PropOp43
 70
     1
102
RTVSPost2010Prop44ColorIndex
 90
        5
102
RTVSPost2010Prop44ColorRGB
 90
      255
102
RTVSPost2010PropOp44
 70
     1
102
RTVSPost2010Prop45
280
     0
102
RTVSPost2010PropOp45
 70
     1
102
RTVSPost2010Prop46
 90
       50
102
RTVSPost2010PropOp46
 70
     1
102
RTVSPost2010Prop47
 90
       50
102
RTVSPost2010PropOp47
 70
     1
102
RTVSPost2010Prop48
 90
       50
102
RTVSPost2010PropOp48
 70
     1
102
RTVSPost2010Prop49
280
     0
102
RTVSPost2010PropOp49
 70
     1
102
RTVSPost2010Prop50
 90
       50
102
RTVSPost2010PropOp50
 70
     1
102
RTVSPost2010Prop51ColorIndex
 90
      256
102
RTVSPost2010Prop51ColorRGB
 90
-16777216
102
RTVSPost2010PropOp51
 70
     0
102
RTVSPost2010Prop52
140
1.0
102
RTVSPost2010PropOp52
 70
     0
102
RTVSPost2010Prop53
 90
        2
102
RTVSPost2010PropOp53
 70
     1
102
RTVSPost2010Prop54
  1
strokes_ogs.tif
102
RTVSPost2010PropOp54
 70
     1
102
RTVSPost2010Prop55
280
     0
102
RTVSPost2010PropOp55
 70
     1
102
RTVSPost2010Prop56
140
1.0
102
RTVSPost2010PropOp56
 70
     1
102
RTVSPost2010Prop57
140
1.0
102
RTVSPost2010PropOp57
 70
     1
102
RTVSPropertyOp0
 70
     1
102
RTVSPropertyOp1
 70
     1
102
RTVSPropertyOp2
 70
     1
102
RTVSPropertyOp3
 70
     1
102
RTVSPropertyOp4
 70
     1
102
RTVSPropertyOp5
 70
     1
102
RTVSPropertyOp6
 70
     1
102
RTVSPropertyOp7
 70
     1
102
RTVSPropertyOp8
 70
     1
102
RTVSPropertyOp9
 70
     1
102
RTVSPropertyOp10
 70
     1
102
RTVSPropertyOp11
 70
     1
102
RTVSPropertyOp12
 70
     1
102
RTVSPropertyOp13
 70
     1
102
RTVSPropertyOp14
 70
     1
102
RTVSPropertyOp15
 70
     1
102
RTVSPropertyOp16
 70
     1
102
RTVSPropertyOp17
 70
     1
102
RTVSPropertyOp18
 70
     1
102
RTVSPropertyOp19
 70
     1
102
RTVSPropertyOp20
 70
     1
102
RTVSPropertyOp21
 70
     1
102
RTVSPropertyOp22
 70
     1
102
RTVSPropertyOp23
 70
     1
102
RTVSPropertyOp24
 70
     1
102
RTVSPropertyOp25
 70
     1
102
RTVSPropertyOp26
 70
     1
102
RTVSPropertyOp27
 70
     1
102
RTVSPropertyOp28
 70
     1
102
RTVSPropertyOp29
 70
     1
102
RTVSPropertyOp30
 70
     1
102
RTVSPropertyOp31
 70
     1
102
RTVSPropertyOp32
 70
     1
102
RTVSPropertyOp33
 70
     1
102
RTVSPropertyOp34
 70
     1
102
RTVSPropertyOp35
 70
     1
102
RTVSPropertyOp36
 70
     1
102
RTVSPropertyOp37
 70
     1
102
RTVSPropertyOp38
 70
     1
102
RTVSPropertyOp39
 70
     1
102
RTVSPropertyOp40
 70
     1
102
RTVSPropertyOp41
 70
     1
102
RTVSPropertyOp42
 70
     1
102
RTVSPropertyOp43
 70
     1
102
RTVSPropertyOp44
 70
     1
102
RTVSPropertyOp45
 70
     1
102
RTVSPropertyOp46
 70
     1
102
RTVSPropertyOp47
 70
     1
102
RTVSPropertyOp48
 70
     1
102
RTVSPropertyOp49
 70
     1
102
RTVSPropertyOp50
 70
     1
102
RTVSPropertyOp51
 70
     0
102
RTVSPropertyOp52
 70
     0
102
RTVSPropertyOp53
 70
     1
102
RTVSPropertyOp54
 70
     1
102
RTVSPropertyOp55
 70
     1
102
RTVSPropertyOp56
 70
     1
102
RTVSPropertyOp57
 70
     1
102
RTVSPropertyOp58
 70
     1
102
RTVSPropertyOp59
 70
     1
102
RTVSPropertyOp60
 70
     1
102
RTVSPropertyOp61
 70
     1
102
RTVSPropertyOp62
 70
     1
  0
XRECORD
  5
751
102
{ACAD_REACTORS
330
750
102
}
330
750
100
AcDbXrecord
280
     1
102
RTVSPost2010Prop28
280
     0
102
RTVSPost2010PropOp28
 70
     1
102
RTVSPost2010Prop29
280
     1
102
RTVSPost2010PropOp29
 70
     1
102
RTVSPost2010Prop30
280
     1
102
RTVSPost2010PropOp30
 70
     1
102
RTVSPost2010Prop31
280
     0
102
RTVSPost2010PropOp31
 70
     1
102
RTVSPost2010Prop32
280
     0
102
RTVSPost2010PropOp32
 70
     1
102
RTVSPost2010Prop33
280
     0
102
RTVSPost2010PropOp33
 70
     1
102
RTVSPost2010Prop34
280
     0
102
RTVSPost2010PropOp34
 70
     1
102
RTVSPost2010Prop35
280
     0
102
RTVSPost2010PropOp35
 70
     1
102
RTVSPost2010Prop36
280
     0
102
RTVSPost2010PropOp36
 70
     1
102
RTVSPost2010Prop37
 90
       50
102
RTVSPost2010PropOp37
 70
     1
102
RTVSPost2010Prop38
140
0.0
102
RTVSPost2010PropOp38
 70
     1
102
RTVSPost2010Prop39
140
1.0
102
RTVSPost2010PropOp39
 70
     1
102
RTVSPost2010Prop40
 90
        0
102
RTVSPost2010PropOp40
 70
     1
102
RTVSPost2010Prop41ColorIndex
 90
       18
102
RTVSPost2010Prop41ColorRGB
 90
        0
102
RTVSPost2010PropOp41
 70
     1
102
RTVSPost2010Prop42
 90
       50
102
RTVSPost2010PropOp42
 70
     1
102
RTVSPost2010Prop43
 90
        3
102
RTVSPost2010PropOp43
 70
     1
102
RTVSPost2010Prop44ColorIndex
 90
        5
102
RTVSPost2010Prop44ColorRGB
 90
      255
102
RTVSPost2010PropOp44
 70
     1
102
RTVSPost2010Prop45
280
     0
102
RTVSPost2010PropOp45
 70
     1
102
RTVSPost2010Prop46
 90
       50
102
RTVSPost2010PropOp46
 70
     1
102
RTVSPost2010Prop47
 90
       50
102
RTVSPost2010PropOp47
 70
     1
102
RTVSPost2010Prop48
 90
       50
102
RTVSPost2010PropOp48
 70
     1
102
RTVSPost2010Prop49
280
     0
102
RTVSPost2010PropOp49
 70
     1
102
RTVSPost2010Prop50
 90
       50
102
RTVSPost2010PropOp50
 70
     1
102
RTVSPost2010Prop51ColorIndex
 90
      256
102
RTVSPost2010Prop51ColorRGB
 90
-16777216
102
RTVSPost2010PropOp51
 70
     0
102
RTVSPost2010Prop52
140
1.0
102
RTVSPost2010PropOp52
 70
     0
102
RTVSPost2010Prop53
 90
        2
102
RTVSPost2010PropOp53
 70
     1
102
RTVSPost2010Prop54
  1
strokes_ogs.tif
102
RTVSPost2010PropOp54
 70
     1
102
RTVSPost2010Prop55
280
     0
102
RTVSPost2010PropOp55
 70
     1
102
RTVSPost2010Prop56
140
1.0
102
RTVSPost2010PropOp56
 70
     1
102
RTVSPost2010Prop57
140
1.0
102
RTVSPost2010PropOp57
 70
     1
102
RTVSPropertyOp0
 70
     1
102
RTVSPropertyOp1
 70
     1
102
RTVSPropertyOp2
 70
     1
102
RTVSPropertyOp3
 70
     1
102
RTVSPropertyOp4
 70
     1
102
RTVSPropertyOp5
 70
     1
102
RTVSPropertyOp6
 70
     1
102
RTVSPropertyOp7
 70
     1
102
RTVSPropertyOp8
 70
     1
102
RTVSPropertyOp9
 70
     1
102
RTVSPropertyOp10
 70
     1
102
RTVSPropertyOp11
 70
     1
102
RTVSPropertyOp12
 70
     1
102
RTVSPropertyOp13
 70
     1
102
RTVSPropertyOp14
 70
     1
102
RTVSPropertyOp15
 70
     1
102
RTVSPropertyOp16
 70
     1
102
RTVSPropertyOp17
 70
     1
102
RTVSPropertyOp18
 70
     1
102
RTVSPropertyOp19
 70
     1
102
RTVSPropertyOp20
 70
     1
102
RTVSPropertyOp21
 70
     1
102
RTVSPropertyOp22
 70
     1
102
RTVSPropertyOp23
 70
     1
102
RTVSPropertyOp24
 70
     1
102
RTVSPropertyOp25
 70
     1
102
RTVSPropertyOp26
 70
     1
102
RTVSPropertyOp27
 70
     1
102
RTVSPropertyOp28
 70
     1
102
RTVSPropertyOp29
 70
     1
102
RTVSPropertyOp30
 70
     1
102
RTVSPropertyOp31
 70
     1
102
RTVSPropertyOp32
 70
     1
102
RTVSPropertyOp33
 70
     1
102
RTVSPropertyOp34
 70
     1
102
RTVSPropertyOp35
 70
     1
102
RTVSPropertyOp36
 70
     1
102
RTVSPropertyOp37
 70
     1
102
RTVSPropertyOp38
 70
     1
102
RTVSPropertyOp39
 70
     1
102
RTVSPropertyOp40
 70
     1
102
RTVSPropertyOp41
 70
     1
102
RTVSPropertyOp42
 70
     1
102
RTVSPropertyOp43
 70
     1
102
RTVSPropertyOp44
 70
     1
102
RTVSPropertyOp45
 70
     1
102
RTVSPropertyOp46
 70
     1
102
RTVSPropertyOp47
 70
     1
102
RTVSPropertyOp48
 70
     1
102
RTVSPropertyOp49
 70
     1
102
RTVSPropertyOp50
 70
     1
102
RTVSPropertyOp51
 70
     0
102
RTVSPropertyOp52
 70
     0
102
RTVSPropertyOp53
 70
     1
102
RTVSPropertyOp54
 70
     1
102
RTVSPropertyOp55
 70
     1
102
RTVSPropertyOp56
 70
     1
102
RTVSPropertyOp57
 70
     1
102
RTVSPropertyOp58
 70
     1
102
RTVSPropertyOp59
 70
     1
102
RTVSPropertyOp60
 70
     1
102
RTVSPropertyOp61
 70
     1
102
RTVSPropertyOp62
 70
     1
  0
XRECORD
  5
769
102
{ACAD_REACTORS
330
768
102
}
330
768
100
AcDbXrecord
280
     1
102
RTVSPost2010Prop28
280
     0
102
RTVSPost2010PropOp28
 70
     1
102
RTVSPost2010Prop29
280
     1
102
RTVSPost2010PropOp29
 70
     1
102
RTVSPost2010Prop30
280
     1
102
RTVSPost2010PropOp30
 70
     1
102
RTVSPost2010Prop31
280
     0
102
RTVSPost2010PropOp31
 70
     1
102
RTVSPost2010Prop32
280
     0
102
RTVSPost2010PropOp32
 70
     1
102
RTVSPost2010Prop33
280
     0
102
RTVSPost2010PropOp33
 70
     1
102
RTVSPost2010Prop34
280
     0
102
RTVSPost2010PropOp34
 70
     1
102
RTVSPost2010Prop35
280
     0
102
RTVSPost2010PropOp35
 70
     1
102
RTVSPost2010Prop36
280
     0
102
RTVSPost2010PropOp36
 70
     1
102
RTVSPost2010Prop37
 90
       50
102
RTVSPost2010PropOp37
 70
     1
102
RTVSPost2010Prop38
140
0.0
102
RTVSPost2010PropOp38
 70
     1
102
RTVSPost2010Prop39
140
1.0
102
RTVSPost2010PropOp39
 70
     1
102
RTVSPost2010Prop40
 90
        0
102
RTVSPost2010PropOp40
 70
     1
102
RTVSPost2010Prop41ColorIndex
 90
       18
102
RTVSPost2010Prop41ColorRGB
 90
        0
102
RTVSPost2010PropOp41
 70
     1
102
RTVSPost2010Prop42
 90
       50
102
RTVSPost2010PropOp42
 70
     1
102
RTVSPost2010Prop43
 90
        3
102
RTVSPost2010PropOp43
 70
     1
102
RTVSPost2010Prop44ColorIndex
 90
        5
102
RTVSPost2010Prop44ColorRGB
 90
      255
102
RTVSPost2010PropOp44
 70
     1
102
RTVSPost2010Prop45
280
     0
102
RTVSPost2010PropOp45
 70
     1
102
RTVSPost2010Prop46
 90
       50
102
RTVSPost2010PropOp46
 70
     1
102
RTVSPost2010Prop47
 90
       50
102
RTVSPost2010PropOp47
 70
     1
102
RTVSPost2010Prop48
 90
       50
102
RTVSPost2010PropOp48
 70
     1
102
RTVSPost2010Prop49
280
     0
102
RTVSPost2010PropOp49
 70
     1
102
RTVSPost2010Prop50
 90
       50
102
RTVSPost2010PropOp50
 70
     1
102
RTVSPost2010Prop51ColorIndex
 90
      256
102
RTVSPost2010Prop51ColorRGB
 90
-16777216
102
RTVSPost2010PropOp51
 70
     0
102
RTVSPost2010Prop52
140
1.0
102
RTVSPost2010PropOp52
 70
     0
102
RTVSPost2010Prop53
 90
        2
102
RTVSPost2010PropOp53
 70
     1
102
RTVSPost2010Prop54
  1
strokes_ogs.tif
102
RTVSPost2010PropOp54
 70
     1
102
RTVSPost2010Prop55
280
     0
102
RTVSPost2010PropOp55
 70
     1
102
RTVSPost2010Prop56
140
1.0
102
RTVSPost2010PropOp56
 70
     1
102
RTVSPost2010Prop57
140
1.0
102
RTVSPost2010PropOp57
 70
     1
102
RTVSPropertyOp0
 70
     1
102
RTVSPropertyOp1
 70
     1
102
RTVSPropertyOp2
 70
     1
102
RTVSPropertyOp3
 70
     1
102
RTVSPropertyOp4
 70
     1
102
RTVSPropertyOp5
 70
     1
102
RTVSPropertyOp6
 70
     1
102
RTVSPropertyOp7
 70
     1
102
RTVSPropertyOp8
 70
     1
102
RTVSPropertyOp9
 70
     1
102
RTVSPropertyOp10
 70
     1
102
RTVSPropertyOp11
 70
     1
102
RTVSPropertyOp12
 70
     1
102
RTVSPropertyOp13
 70
     1
102
RTVSPropertyOp14
 70
     1
102
RTVSPropertyOp15
 70
     1
102
RTVSPropertyOp16
 70
     1
102
RTVSPropertyOp17
 70
     1
102
RTVSPropertyOp18
 70
     1
102
RTVSPropertyOp19
 70
     1
102
RTVSPropertyOp20
 70
     1
102
RTVSPropertyOp21
 70
     1
102
RTVSPropertyOp22
 70
     1
102
RTVSPropertyOp23
 70
     1
102
RTVSPropertyOp24
 70
     1
102
RTVSPropertyOp25
 70
     1
102
RTVSPropertyOp26
 70
     1
102
RTVSPropertyOp27
 70
     1
102
RTVSPropertyOp28
 70
     1
102
RTVSPropertyOp29
 70
     1
102
RTVSPropertyOp30
 70
     1
102
RTVSPropertyOp31
 70
     1
102
RTVSPropertyOp32
 70
     1
102
RTVSPropertyOp33
 70
     1
102
RTVSPropertyOp34
 70
     1
102
RTVSPropertyOp35
 70
     1
102
RTVSPropertyOp36
 70
     1
102
RTVSPropertyOp37
 70
     1
102
RTVSPropertyOp38
 70
     1
102
RTVSPropertyOp39
 70
     1
102
RTVSPropertyOp40
 70
     1
102
RTVSPropertyOp41
 70
     1
102
RTVSPropertyOp42
 70
     1
102
RTVSPropertyOp43
 70
     1
102
RTVSPropertyOp44
 70
     1
102
RTVSPropertyOp45
 70
     1
102
RTVSPropertyOp46
 70
     1
102
RTVSPropertyOp47
 70
     1
102
RTVSPropertyOp48
 70
     1
102
RTVSPropertyOp49
 70
     1
102
RTVSPropertyOp50
 70
     1
102
RTVSPropertyOp51
 70
     0
102
RTVSPropertyOp52
 70
     0
102
RTVSPropertyOp53
 70
     1
102
RTVSPropertyOp54
 70
     1
102
RTVSPropertyOp55
 70
     1
102
RTVSPropertyOp56
 70
     1
102
RTVSPropertyOp57
 70
     1
102
RTVSPropertyOp58
 70
     1
102
RTVSPropertyOp59
 70
     1
102
RTVSPropertyOp60
 70
     1
102
RTVSPropertyOp61
 70
     1
102
RTVSPropertyOp62
 70
     1
  0
ENDSEC
  0
EOF
