  0
SECTION
  2
HEADER
  9
$ACADVER
  1
AC1015
  9
$ACADMAINTVER
 70
    20
  9
$DWGCODEPAGE
  3
ANSI_932
  9
$INSBASE
 10
0.0
 20
0.0
 30
0.0
  9
$EXTMIN
 10
10.0
 20
9.999999999999998
 30
0.0
  9
$EXTMAX
 10
583.4316719999998
 20
418.6778279999998
 30
0.0
  9
$LIMMIN
 10
0.0
 20
0.0
  9
$LIMMAX
 10
663.7395339999999
 20
457.578012
  9
$ORTHOMODE
 70
     0
  9
$REGENMODE
 70
     1
  9
$FILLMODE
 70
     1
  9
$QTEXTMODE
 70
     0
  9
$MIRRTEXT
 70
     1
  9
$LTSCALE
 40
20.0
  9
$ATTMODE
 70
     1
  9
$TEXTSIZE
 40
5.0
  9
$TRACEWID
 40
1.0
  9
$TEXTSTYLE
  7
STANDARD
  9
$CLAYER
  8
0
  9
$CELTYPE
  6
BYLAYER
  9
$CECOLOR
 62
   256
  9
$CELTSCALE
 40
1.0
  9
$DISPSILH
 70
     0
  9
$DIMSCALE
 40
1.0
  9
$DIMASZ
 40
3.0
  9
$DIMEXO
 40
1.0
  9
$DIMDLI
 40
10.0
  9
$DIMRND
 40
0.0
  9
$DIMDLE
 40
0.0
  9
$DIMEXE
 40
1.0
  9
$DIMTP
 40
0.0
  9
$DIMTM
 40
0.0
  9
$DIMTXT
 40
3.2
  9
$DIMCEN
 40
0.0
  9
$DIMTSZ
 40
0.0
  9
$DIMTOL
 70
     0
  9
$DIMLIM
 70
     0
  9
$DIMTIH
 70
     0
  9
$DIMTOH
 70
     0
  9
$DIMSE1
 70
     0
  9
$DIMSE2
 70
     0
  9
$DIMTAD
 70
     3
  9
$DIMZIN
 70
     8
  9
$DIMBLK
  1

  9
$DIMASO
 70
     1
  9
$DIMSHO
 70
     1
  9
$DIMPOST
  1

  9
$DIMAPOST
  1

  9
$DIMALT
 70
     0
  9
$DIMALTD
 70
     2
  9
$DIMALTF
 40
25.4
  9
$DIMLFAC
 40
1.0
  9
$DIMTOFL
 70
     1
  9
$DIMTVP
 40
0.0
  9
$DIMTIX
 70
     0
  9
$DIMSOXD
 70
     0
  9
$DIMSAH
 70
     1
  9
$DIMBLK1
  1
OPEN
  9
$DIMBLK2
  1
OPEN
  9
$DIMSTYLE
  2
STANDARD
  9
$DIMCLRD
 70
     0
  9
$DIMCLRE
 70
     0
  9
$DIMCLRT
 70
     0
  9
$DIMTFAC
 40
1.0
  9
$DIMGAP
 40
1.0
  9
$DIMJUST
 70
     0
  9
$DIMSD1
 70
     0
  9
$DIMSD2
 70
     0
  9
$DIMTOLJ
 70
     1
  9
$DIMTZIN
 70
     0
  9
$DIMALTZ
 70
     0
  9
$DIMALTTZ
 70
     0
  9
$DIMUPT
 70
     0
  9
$DIMDEC
 70
     4
  9
$DIMTDEC
 70
     4
  9
$DIMALTU
 70
     2
  9
$DIMALTTD
 70
     2
  9
$DIMTXSTY
  7
STANDARD
  9
$DIMAUNIT
 70
     0
  9
$DIMADEC
 70
     0
  9
$DIMALTRND
 40
0.0
  9
$DIMAZIN
 70
     0
  9
$DIMDSEP
 70
    46
  9
$DIMATFIT
 70
     3
  9
$DIMFRAC
 70
     0
  9
$DIMLDRBLK
  1
OPEN
  9
$DIMLUNIT
 70
     2
  9
$DIMLWD
 70
    -2
  9
$DIMLWE
 70
    -2
  9
$DIMTMOVE
 70
     0
  9
$LUNITS
 70
     2
  9
$LUPREC
 70
     4
  9
$SKETCHINC
 40
1.0
  9
$FILLETRAD
 40
12.6
  9
$AUNITS
 70
     0
  9
$AUPREC
 70
     2
  9
$MENU
  1
.
  9
$ELEVATION
 40
0.0
  9
$PELEVATION
 40
0.0
  9
$THICKNESS
 40
0.0
  9
$LIMCHECK
 70
     0
  9
$CHAMFERA
 40
10.0
  9
$CHAMFERB
 40
10.0
  9
$CHAMFERC
 40
0.0
  9
$CHAMFERD
 40
0.0
  9
$SKPOLY
 70
     0
  9
$TDCREATE
 40
2451301.483772106
  9
$TDUCREATE
 40
2451301.108772106
  9
$TDUPDATE
 40
2457192.687391679
  9
$TDUUPDATE
 40
2457192.312391678
  9
$TDINDWG
 40
0.0000111921
  9
$TDUSRTIMER
 40
0.0000106944
  9
$USRTIMER
 70
     1
  9
$ANGBASE
 50
0.0
  9
$ANGDIR
 70
     0
  9
$PDMODE
 70
     0
  9
$PDSIZE
 40
0.0
  9
$PLINEWID
 40
0.0
  9
$SPLFRAME
 70
     0
  9
$SPLINETYPE
 70
     6
  9
$SPLINESEGS
 70
     8
  9
$HANDSEED
  5
B578
  9
$SURFTAB1
 70
     6
  9
$SURFTAB2
 70
     6
  9
$SURFTYPE
 70
     6
  9
$SURFU
 70
     6
  9
$SURFV
 70
     6
  9
$UCSBASE
  2

  9
$UCSNAME
  2

  9
$UCSORG
 10
0.0
 20
0.0
 30
0.0
  9
$UCSXDIR
 10
1.0
 20
0.0
 30
0.0
  9
$UCSYDIR
 10
0.0
 20
1.0
 30
0.0
  9
$UCSORTHOREF
  2

  9
$UCSORTHOVIEW
 70
     0
  9
$UCSORGTOP
 10
0.0
 20
0.0
 30
0.0
  9
$UCSORGBOTTOM
 10
0.0
 20
0.0
 30
0.0
  9
$UCSORGLEFT
 10
0.0
 20
0.0
 30
0.0
  9
$UCSORGRIGHT
 10
0.0
 20
0.0
 30
0.0
  9
$UCSORGFRONT
 10
0.0
 20
0.0
 30
0.0
  9
$UCSORGBACK
 10
0.0
 20
0.0
 30
0.0
  9
$PUCSBASE
  2

  9
$PUCSNAME
  2

  9
$PUCSORG
 10
0.0
 20
0.0
 30
0.0
  9
$PUCSXDIR
 10
1.0
 20
0.0
 30
0.0
  9
$PUCSYDIR
 10
0.0
 20
1.0
 30
0.0
  9
$PUCSORTHOREF
  2

  9
$PUCSORTHOVIEW
 70
     0
  9
$PUCSORGTOP
 10
0.0
 20
0.0
 30
0.0
  9
$PUCSORGBOTTOM
 10
0.0
 20
0.0
 30
0.0
  9
$PUCSORGLEFT
 10
0.0
 20
0.0
 30
0.0
  9
$PUCSORGRIGHT
 10
0.0
 20
0.0
 30
0.0
  9
$PUCSORGFRONT
 10
0.0
 20
0.0
 30
0.0
  9
$PUCSORGBACK
 10
0.0
 20
0.0
 30
0.0
  9
$USERI1
 70
     0
  9
$USERI2
 70
     0
  9
$USERI3
 70
     0
  9
$USERI4
 70
     0
  9
$USERI5
 70
     0
  9
$USERR1
 40
0.0
  9
$USERR2
 40
0.0
  9
$USERR3
 40
0.0
  9
$USERR4
 40
0.0
  9
$USERR5
 40
0.0
  9
$WORLDVIEW
 70
     1
  9
$SHADEDGE
 70
     3
  9
$SHADEDIF
 70
    70
  9
$TILEMODE
 70
     1
  9
$MAXACTVP
 70
    16
  9
$PINSBASE
 10
0.0
 20
0.0
 30
0.0
  9
$PLIMCHECK
 70
     0
  9
$PEXTMIN
 10
1.000000000000000E+20
 20
1.000000000000000E+20
 30
1.000000000000000E+20
  9
$PEXTMAX
 10
-1.000000000000000E+20
 20
-1.000000000000000E+20
 30
-1.000000000000000E+20
  9
$PLIMMIN
 10
0.0
 20
0.0
  9
$PLIMMAX
 10
420.0
 20
297.0
  9
$UNITMODE
 70
     0
  9
$VISRETAIN
 70
     0
  9
$PLINEGEN
 70
     0
  9
$PSLTSCALE
 70
     0
  9
$TREEDEPTH
 70
  3020
  9
$CMLSTYLE
  2
STANDARD
  9
$CMLJUST
 70
     0
  9
$CMLSCALE
 40
1.0
  9
$PROXYGRAPHICS
 70
     1
  9
$MEASUREMENT
 70
     0
  9
$CELWEIGHT
370
    -1
  9
$ENDCAPS
280
     0
  9
$JOINSTYLE
280
     0
  9
$LWDISPLAY
290
     0
  9
$INSUNITS
 70
     0
  9
$HYPERLINKBASE
  1

  9
$STYLESHEET
  1

  9
$XEDIT
290
     1
  9
$CEPSNTYPE
380
     0
  9
$PSTYLEMODE
290
     1
  9
$FINGERPRINTGUID
  2
{81E87611-E8F3-42FB-8729-6E4F62101021}
  9
$VERSIONGUID
  2
{78B5090B-2D32-497A-AAD3-B59E5351BAB4}
  9
$EXTNAMES
290
     1
  9
$PSVPSCALE
 40
0.0
  9
$OLESTARTUP
290
     0
  0
ENDSEC
  0
SECTION
  2
CLASSES
  0
CLASS
  1
ACDBDICTIONARYWDFLT
  2
AcDbDictionaryWithDefault
  3
ObjectDBX Classes
 90
        0
280
     0
281
     0
  0
CLASS
  1
ACDBPLACEHOLDER
  2
AcDbPlaceHolder
  3
ObjectDBX Classes
 90
        0
280
     0
281
     0
  0
CLASS
  1
LAYOUT
  2
AcDbLayout
  3
ObjectDBX Classes
 90
        0
280
     0
281
     0
  0
CLASS
  1
DICTIONARYVAR
  2
AcDbDictionaryVar
  3
ObjectDBX Classes
 90
        0
280
     0
281
     0
  0
CLASS
  1
MATERIAL
  2
AcDbMaterial
  3
ObjectDBX Classes
 90
     1153
280
     0
281
     0
  0
CLASS
  1
VISUALSTYLE
  2
AcDbVisualStyle
  3
ObjectDBX Classes
 90
     4095
280
     0
281
     0
  0
CLASS
  1
TABLESTYLE
  2
AcDbTableStyle
  3
ObjectDBX Classes
 90
     4095
280
     0
281
     0
  0
CLASS
  1
SCALE
  2
AcDbScale
  3
ObjectDBX Classes
 90
     1153
280
     0
281
     0
  0
CLASS
  1
MLEADERSTYLE
  2
AcDbMLeaderStyle
  3
ACDB_MLEADERSTYLE_CLASS
 90
     4095
280
     0
281
     0
  0
CLASS
  1
ACDBSECTIONVIEWSTYLE
  2
AcDbSectionViewStyle
  3
ObjectDBX Classes
 90
     1025
280
     0
281
     0
  0
CLASS
  1
ACDBDETAILVIEWSTYLE
  2
AcDbDetailViewStyle
  3
ObjectDBX Classes
 90
     1025
280
     0
281
     0
  0
CLASS
  1
CELLSTYLEMAP
  2
AcDbCellStyleMap
  3
ObjectDBX Classes
 90
     1152
280
     0
281
     0
  0
ENDSEC
  0
SECTION
  2
TABLES
  0
TABLE
  2
VPORT
  5
B1DD
330
0
100
AcDbSymbolTable
 70
     1
  0
VPORT
  5
B4C1
330
B1DD
100
AcDbSymbolTableRecord
100
AcDbViewportTableRecord
  2
*ACTIVE
 70
     0
 10
0.0
 20
0.0
 11
1.0
 21
1.0
 12
420.4981156632748
 22
214.336088273532
 13
0.0
 23
0.0
 14
10.0
 24
10.0
 15
10.0
 25
10.0
 16
0.0
 26
0.0
 36
1.0
 17
0.0
 27
0.0
 37
0.0
 40
413.2477040860384
 41
2.35006605019815
 42
50.0
 43
0.0
 44
0.0
 50
0.0
 51
0.0
 71
     0
 72
   100
 73
     1
 74
     0
 75
     0
 76
     0
 77
     0
 78
     0
281
     0
 65
     1
110
0.0
120
0.0
130
0.0
111
1.0
121
0.0
131
0.0
112
0.0
122
1.0
132
0.0
 79
     0
146
0.0
1001
ACAD_NAV_VCDISPLAY
1070
     3
  0
ENDTAB
  0
TABLE
  2
LTYPE
  5
B1DA
330
0
100
AcDbSymbolTable
 70
     4
  0
LTYPE
  5
B1E8
330
B1DA
100
AcDbSymbolTableRecord
100
AcDbLinetypeTableRecord
  2
BYBLOCK
 70
     0
  3

 72
    65
 73
     0
 40
0.0
  0
LTYPE
  5
B1E9
330
B1DA
100
AcDbSymbolTableRecord
100
AcDbLinetypeTableRecord
  2
BYLAYER
 70
     0
  3

 72
    65
 73
     0
 40
0.0
  0
LTYPE
  5
B1EA
330
B1DA
100
AcDbSymbolTableRecord
100
AcDbLinetypeTableRecord
  2
CONTINUOUS
 70
     0
  3
Solid line
 72
    65
 73
     0
 40
0.0
  0
LTYPE
  5
B1F8
330
B1DA
100
AcDbSymbolTableRecord
100
AcDbLinetypeTableRecord
  2
DASHED
 70
     0
  3
__ __ __ __ __ __ __ __ __ __ __ __ __ __ __ __
 72
    65
 73
     2
 40
0.75
 49
0.5
 74
     0
 49
-0.25
 74
     0
  0
LTYPE
  5
B1F9
330
B1DA
100
AcDbSymbolTableRecord
100
AcDbLinetypeTableRecord
  2
CENTER
 70
     0
  3
____ _ ____ _ ____ _ ____ _ ____ _ ____ _ ____ 
 72
    65
 73
     4
 40
2.0
 49
1.25
 74
     0
 49
-0.25
 74
     0
 49
0.25
 74
     0
 49
-0.25
 74
     0
  0
LTYPE
  5
B1FA
330
B1DA
100
AcDbSymbolTableRecord
100
AcDbLinetypeTableRecord
  2
PHANTOM
 70
     0
  3
______  __  __  ______  __  __  ______  __  __ 
 72
    65
 73
     6
 40
2.5
 49
1.25
 74
     0
 49
-0.25
 74
     0
 49
0.25
 74
     0
 49
-0.25
 74
     0
 49
0.25
 74
     0
 49
-0.25
 74
     0
  0
ENDTAB
  0
TABLE
  2
LAYER
  5
B1D7
330
0
100
AcDbSymbolTable
 70
     8
  0
LAYER
  5
B1E5
102
{ACAD_XDICTIONARY
360
B51C
102
}
330
B1D7
100
AcDbSymbolTableRecord
100
AcDbLayerTableRecord
  2
0
 70
     0
 62
     7
  6
CONTINUOUS
370
    -3
390
B4CA
  0
LAYER
  5
B1FB
102
{ACAD_XDICTIONARY
360
B51E
102
}
330
B1D7
100
AcDbSymbolTableRecord
100
AcDbLayerTableRecord
  2
4
 70
     0
 62
     1
  6
CENTER
370
    -3
390
B4CA
  0
LAYER
  5
B1FC
102
{ACAD_XDICTIONARY
360
B520
102
}
330
B1D7
100
AcDbSymbolTableRecord
100
AcDbLayerTableRecord
  2
5
 70
     0
 62
     6
  6
PHANTOM
370
    -3
390
B4CA
  0
LAYER
  5
B1FD
102
{ACAD_XDICTIONARY
360
B522
102
}
330
B1D7
100
AcDbSymbolTableRecord
100
AcDbLayerTableRecord
  2
1
 70
     0
 62
     7
  6
CONTINUOUS
370
    -3
390
B4CA
  0
LAYER
  5
B1FE
102
{ACAD_XDICTIONARY
360
B524
102
}
330
B1D7
100
AcDbSymbolTableRecord
100
AcDbLayerTableRecord
  2
2
 70
     0
 62
     4
  6
CONTINUOUS
370
    -3
390
B4CA
  0
LAYER
  5
B1FF
102
{ACAD_XDICTIONARY
360
B526
102
}
330
B1D7
100
AcDbSymbolTableRecord
100
AcDbLayerTableRecord
  2
3
 70
     0
 62
     2
  6
DASHED
370
    -3
390
B4CA
  0
LAYER
  5
B200
102
{ACAD_XDICTIONARY
360
B528
102
}
330
B1D7
100
AcDbSymbolTableRecord
100
AcDbLayerTableRecord
  2
6
 70
     0
 62
     5
  6
CONTINUOUS
370
    -3
390
B4CA
  0
LAYER
  5
B201
102
{ACAD_XDICTIONARY
360
B52A
102
}
330
B1D7
100
AcDbSymbolTableRecord
100
AcDbLayerTableRecord
  2
7
 70
     0
 62
     3
  6
CONTINUOUS
370
    -3
390
B4CA
  0
ENDTAB
  0
TABLE
  2
STYLE
  5
B1D8
330
0
100
AcDbSymbolTable
 70
     1
  0
STYLE
  5
B1E6
330
B1D8
100
AcDbSymbolTableRecord
100
AcDbTextStyleTableRecord
  2
STANDARD
 70
     0
 40
0.0
 41
1.0
 50
0.0
 71
     0
 42
5.0
  3
txt
  4

  0
ENDTAB
  0
TABLE
  2
VIEW
  5
B1DB
330
0
100
AcDbSymbolTable
 70
     0
  0
ENDTAB
  0
TABLE
  2
UCS
  5
B1DC
330
0
100
AcDbSymbolTable
 70
     0
  0
ENDTAB
  0
TABLE
  2
APPID
  5
B1DE
330
0
100
AcDbSymbolTable
 70
     3
  0
APPID
  5
B1E7
330
B1DE
100
AcDbSymbolTableRecord
100
AcDbRegAppTableRecord
  2
ACAD
 70
     0
  0
APPID
  5
B536
330
B1DE
100
AcDbSymbolTableRecord
100
AcDbRegAppTableRecord
  2
ACAD_NAV_VCDISPLAY
 70
     0
  0
APPID
  5
B56F
330
B1DE
100
AcDbSymbolTableRecord
100
AcDbRegAppTableRecord
  2
ACAD_MLEADERVER
 70
     0
  0
ENDTAB
  0
TABLE
  2
DIMSTYLE
  5
B1DF
330
0
100
AcDbSymbolTable
 70
     1
100
AcDbDimStyleTable
 71
     0
  0
DIMSTYLE
105
B203
330
B1DF
100
AcDbSymbolTableRecord
100
AcDbDimStyleTableRecord
  2
STANDARD
 70
     0
 41
3.0
 42
1.0
 43
10.0
 44
1.0
 73
     0
 74
     0
 77
     3
 78
     8
140
3.2
141
0.0
147
1.0
172
     1
173
     1
284
     8
285
     8
286
     8
340
B1E6
  0
ENDTAB
  0
TABLE
  2
BLOCK_RECORD
  5
B1D6
330
0
100
AcDbSymbolTable
 70
     1
  0
BLOCK_RECORD
  5
B1F3
102
{ACAD_XDICTIONARY
360
B4C4
102
}
330
B1D6
100
AcDbSymbolTableRecord
100
AcDbBlockTableRecord
  2
*MODEL_SPACE
340
B518
  0
BLOCK_RECORD
  5
B1EF
102
{ACAD_XDICTIONARY
360
B4C2
102
}
330
B1D6
100
AcDbSymbolTableRecord
100
AcDbBlockTableRecord
  2
*PAPER_SPACE
340
B519
  0
BLOCK_RECORD
  5
B20B
330
B1D6
100
AcDbSymbolTableRecord
100
AcDbBlockTableRecord
  2
_OPEN
340
0
  0
ENDTAB
  0
ENDSEC
  0
SECTION
  2
BLOCKS
  0
BLOCK
  5
B1F4
330
B1F3
100
AcDbEntity
  8
0
100
AcDbBlockBegin
  2
*MODEL_SPACE
 70
     0
 10
0.0
 20
0.0
 30
0.0
  3
*MODEL_SPACE
  1

  0
ENDBLK
  5
B1F5
330
B1F3
100
AcDbEntity
  8
0
100
AcDbBlockEnd
  0
BLOCK
  5
B1F0
330
B1EF
100
AcDbEntity
 67
     1
  8
0
100
AcDbBlockBegin
  2
*PAPER_SPACE
 70
     0
 10
0.0
 20
0.0
 30
0.0
  3
*PAPER_SPACE
  1

  0
ENDBLK
  5
B1F1
330
B1EF
100
AcDbEntity
 67
     1
  8
0
100
AcDbBlockEnd
  0
BLOCK
  5
B20C
330
B20B
100
AcDbEntity
  8
0
100
AcDbBlockBegin
  2
_OPEN
 70
     0
 10
0.0
 20
0.0
 30
0.0
  3
_OPEN
  1

  0
LINE
  5
B20D
330
B20B
100
AcDbEntity
  8
0
  6
ByBlock
 62
     0
100
AcDbLine
 10
-1.0
 20
0.166667
 30
0.0
 11
0.0
 21
0.0
 31
0.0
  0
LINE
  5
B20E
330
B20B
100
AcDbEntity
  8
0
  6
ByBlock
 62
     0
100
AcDbLine
 10
0.0
 20
0.0
 30
0.0
 11
-1.0
 21
-0.166667
 31
0.0
  0
LINE
  5
B20F
330
B20B
100
AcDbEntity
  8
0
  6
ByBlock
 62
     0
100
AcDbLine
 10
0.0
 20
0.0
 30
0.0
 11
-1.0
 21
0.0
 31
0.0
  0
ENDBLK
  5
B210
330
B20B
100
AcDbEntity
  8
0
100
AcDbBlockEnd
  0
ENDSEC
  0
SECTION
  2
ENTITIES
  0
TEXT
  5
B211
330
B1F3
100
AcDbEntity
  8
7
  6
Continuous
100
AcDbText
 10
10.0
 20
18.0
 30
0.0
 40
3.0
  1
TYPE No.107-N
100
AcDbText
  0
TEXT
  5
B212
330
B1F3
100
AcDbEntity
  8
7
  6
Continuous
100
AcDbText
 10
10.0
 20
26.0
 30
0.0
 40
3.0
  1
CODE No.9652
100
AcDbText
  0
TEXT
  5
B213
330
B1F3
100
AcDbEntity
  8
1
  6
Continuous
100
AcDbText
 10
10.0
 20
10.0
 30
0.0
 40
1.399999999999999
  1
LAYER
100
AcDbText
  0
TEXT
  5
B214
330
B1F3
100
AcDbEntity
  8
1
  6
Continuous
100
AcDbText
 10
17.97951099999998
 20
10.04873699999998
 30
0.0
 40
1.399999999999999
  1
1
100
AcDbText
  0
TEXT
  5
B215
330
B1F3
100
AcDbEntity
  8
7
  6
Continuous
100
AcDbText
 10
29.97951099999999
 20
10.04873699999998
 30
0.0
 40
1.399999999999999
  1
7
100
AcDbText
  0
TEXT
  5
B216
330
B1F3
100
AcDbEntity
  8
4
  6
CENTER
100
AcDbText
 10
23.97951099999999
 20
10.04873699999998
 30
0.0
 40
1.399999999999999
  1
4
100
AcDbText
  0
TEXT
  5
B217
330
B1F3
100
AcDbEntity
  8
3
  6
DASHED
100
AcDbText
 10
21.979511
 20
10.04873699999998
 30
0.0
 40
1.399999999999999
  1
3
100
AcDbText
  0
TEXT
  5
B218
330
B1F3
100
AcDbEntity
  8
2
  6
Continuous
100
AcDbText
 10
19.97951099999999
 20
10.04873699999998
 30
0.0
 40
1.399999999999999
  1
2
100
AcDbText
  0
TEXT
  5
B219
330
B1F3
100
AcDbEntity
  8
6
  6
Continuous
100
AcDbText
 10
27.979511
 20
10.04873699999998
 30
0.0
 40
1.399999999999999
  1
6
100
AcDbText
  0
TEXT
  5
B21A
330
B1F3
100
AcDbEntity
  8
5
  6
PHANTOM
100
AcDbText
 10
25.97951099999999
 20
10.04873699999998
 30
0.0
 40
1.399999999999999
  1
5
100
AcDbText
  0
LINE
  5
B21B
330
B1F3
100
AcDbEntity
  8
1
  6
Continuous
100
AcDbLine
 10
250.507768
 20
271.4269239999999
 30
0.0
 11
244.853411
 21
270.928035
 31
0.0
  0
LINE
  5
B21C
330
B1F3
100
AcDbEntity
  8
1
  6
Continuous
100
AcDbLine
 10
175.086035
 20
291.726337
 30
0.0
 11
274.0860349999999
 21
291.726337
 31
0.0
  0
ARC
  5
B21D
330
B1F3
100
AcDbEntity
  8
1
  6
Continuous
100
AcDbCircle
 10
245.117864
 20
276.746691
 30
0.0
 40
7.172999999999999
100
AcDbArc
 50
16.056676
 51
21.632539
  0
LINE
  5
B21E
330
B1F3
100
AcDbEntity
  8
1
  6
Continuous
100
AcDbLine
 10
334.28406
 20
281.4103479999999
 30
0.0
 11
382.7340599999999
 21
281.4103479999999
 31
0.0
  0
LINE
  5
B21F
330
B1F3
100
AcDbEntity
  8
1
  6
Continuous
100
AcDbLine
 10
329.2364899999999
 20
285.353337
 30
0.0
 11
387.781629
 21
285.353337
 31
0.0
  0
LINE
  5
B220
330
B1F3
100
AcDbEntity
  8
1
  6
Continuous
100
AcDbLine
 10
385.1951599999999
 20
283.5183369999999
 30
0.0
 11
385.1951599999999
 21
281.410337
 31
0.0
  0
LINE
  5
B221
330
B1F3
100
AcDbEntity
  8
1
  6
Continuous
100
AcDbLine
 10
396.00906
 20
291.726337
 30
0.0
 11
396.00906
 21
288.826722
 31
0.0
  0
LINE
  5
B222
330
B1F3
100
AcDbEntity
  8
1
  6
Continuous
100
AcDbLine
 10
321.00906
 20
291.726337
 30
0.0
 11
321.00906
 21
288.826722
 31
0.0
  0
LINE
  5
B223
330
B1F3
100
AcDbEntity
  8
1
  6
Continuous
100
AcDbLine
 10
321.00906
 20
291.726337
 30
0.0
 11
396.00906
 21
291.726337
 31
0.0
  0
LINE
  5
B224
330
B1F3
100
AcDbEntity
  8
1
  6
Continuous
100
AcDbLine
 10
321.00906
 20
288.826722
 30
0.0
 11
396.00906
 21
288.826722
 31
0.0
  0
LINE
  5
B225
330
B1F3
100
AcDbEntity
  8
1
  6
Continuous
100
AcDbLine
 10
331.82296
 20
283.5183369999999
 30
0.0
 11
385.1951599999999
 21
283.5183369999999
 31
0.0
  0
LINE
  5
B226
330
B1F3
100
AcDbEntity
  8
1
  6
Continuous
100
AcDbLine
 10
331.82296
 20
281.410337
 30
0.0
 11
385.1951599999999
 21
281.410337
 31
0.0
  0
LINE
  5
B227
330
B1F3
100
AcDbEntity
  8
1
  6
Continuous
100
AcDbLine
 10
331.82296
 20
281.410337
 30
0.0
 11
331.82296
 21
283.5183369999999
 31
0.0
  0
ARC
  5
B228
330
B1F3
100
AcDbEntity
  8
1
  6
Continuous
100
AcDbCircle
 10
329.2364899999999
 20
292.853337
 30
0.0
 40
7.5
100
AcDbArc
 50
212.4716319999998
 51
270.0
  0
ARC
  5
B229
330
B1F3
100
AcDbEntity
  8
1
  6
Continuous
100
AcDbCircle
 10
387.781629
 20
292.853337
 30
0.0
 40
7.5
100
AcDbArc
 50
270.0
 51
327.528368
  0
ARC
  5
B22A
330
B1F3
100
AcDbEntity
  8
1
  6
Continuous
100
AcDbCircle
 10
376.907448
 20
290.102173
 30
0.0
 40
9.0
100
AcDbArc
 50
312.9845629999999
 51
328.1532869999999
  0
ARC
  5
B22B
330
B1F3
100
AcDbEntity
  8
1
  6
Continuous
100
AcDbCircle
 10
340.45271
 20
289.765918
 30
0.0
 40
9.0
100
AcDbArc
 50
209.359435
 51
223.961567
  0
LINE
  5
B22C
330
B1F3
100
AcDbEntity
  8
1
  6
Continuous
100
AcDbLine
 10
248.8110349999999
 20
281.4113479999999
 30
0.0
 11
200.3610349999999
 21
281.4113479999999
 31
0.0
  0
ARC
  5
B22D
330
B1F3
100
AcDbEntity
  8
1
  6
Continuous
100
AcDbCircle
 10
248.8110349999999
 20
278.211348
 30
0.0
 40
3.2
100
AcDbArc
 50
21.59414599999999
 51
90.0
  0
LINE
  5
B22E
330
B1F3
100
AcDbEntity
  8
1
  6
Continuous
100
AcDbLine
 10
253.858604
 20
285.353337
 30
0.0
 11
195.3134649999999
 21
285.353337
 31
0.0
  0
LINE
  5
B22F
330
B1F3
100
AcDbEntity
  8
1
  6
Continuous
100
AcDbLine
 10
197.899935
 20
283.5183369999999
 30
0.0
 11
197.899935
 21
281.411337
 31
0.0
  0
LINE
  5
B230
330
B1F3
100
AcDbEntity
  8
1
  6
Continuous
100
AcDbLine
 10
274.0860349999999
 20
288.826722
 30
0.0
 11
175.086035
 21
288.826722
 31
0.0
  0
LINE
  5
B231
330
B1F3
100
AcDbEntity
  8
1
  6
Continuous
100
AcDbLine
 10
251.272135
 20
283.5183369999999
 30
0.0
 11
197.899935
 21
283.5183369999999
 31
0.0
  0
LINE
  5
B232
330
B1F3
100
AcDbEntity
  8
1
  6
Continuous
100
AcDbLine
 10
251.272135
 20
281.411337
 30
0.0
 11
197.899935
 21
281.411337
 31
0.0
  0
LINE
  5
B233
330
B1F3
100
AcDbEntity
  8
1
  6
Continuous
100
AcDbLine
 10
251.272135
 20
281.411337
 30
0.0
 11
251.272135
 21
283.5183369999999
 31
0.0
  0
ARC
  5
B234
330
B1F3
100
AcDbEntity
  8
1
  6
Continuous
100
AcDbCircle
 10
253.858604
 20
292.853337
 30
0.0
 40
7.5
100
AcDbArc
 50
270.0
 51
327.528368
  0
ARC
  5
B235
330
B1F3
100
AcDbEntity
  8
1
  6
Continuous
100
AcDbCircle
 10
195.3134649999999
 20
292.853337
 30
0.0
 40
7.5
100
AcDbArc
 50
212.4716319999998
 51
270.0
  0
ARC
  5
B236
330
B1F3
100
AcDbEntity
  8
1
  6
Continuous
100
AcDbCircle
 10
206.187646
 20
290.102173
 30
0.0
 40
9.0
100
AcDbArc
 50
211.8467129999999
 51
227.0154369999999
  0
ARC
  5
B237
330
B1F3
100
AcDbEntity
  8
1
  6
Continuous
100
AcDbCircle
 10
242.6423839999999
 20
289.765918
 30
0.0
 40
9.0
100
AcDbArc
 50
316.0384329999998
 51
330.6405649999998
  0
LINE
  5
B238
330
B1F3
100
AcDbEntity
  8
1
  6
Continuous
100
AcDbLine
 10
274.0860349999999
 20
288.826722
 30
0.0
 11
274.0860349999999
 21
291.726337
 31
0.0
  0
LINE
  5
B239
330
B1F3
100
AcDbEntity
  8
1
  6
Continuous
100
AcDbLine
 10
175.086035
 20
288.826722
 30
0.0
 11
175.086035
 21
291.710877
 31
0.0
  0
LINE
  5
B23A
330
B1F3
100
AcDbEntity
  8
1
  6
Continuous
100
AcDbLine
 10
274.0860349999999
 20
346.1778279999998
 30
0.0
 11
274.0860349999999
 21
406.1778279999998
 31
0.0
  0
LINE
  5
B23B
330
B1F3
100
AcDbEntity
  8
1
  6
Continuous
100
AcDbLine
 10
175.086035
 20
346.1778279999998
 30
0.0
 11
175.086035
 21
406.1778279999998
 31
0.0
  0
LINE
  5
B23C
330
B1F3
100
AcDbEntity
  8
1
  6
Continuous
100
AcDbLine
 10
266.5860349999999
 20
413.6778279999998
 30
0.0
 11
182.586035
 21
413.6778279999998
 31
0.0
  0
LINE
  5
B23D
330
B1F3
100
AcDbEntity
  8
1
  6
Continuous
100
AcDbLine
 10
266.5860349999999
 20
338.6778279999999
 30
0.0
 11
182.586035
 21
338.6778279999999
 31
0.0
  0
CIRCLE
  5
B23E
330
B1F3
100
AcDbEntity
  8
1
  6
Continuous
100
AcDbCircle
 10
264.5860349999999
 20
404.1778279999999
 30
0.0
 40
4.25
  0
CIRCLE
  5
B23F
330
B1F3
100
AcDbEntity
  8
1
  6
Continuous
100
AcDbCircle
 10
264.5860349999999
 20
348.1778279999999
 30
0.0
 40
4.25
  0
CIRCLE
  5
B240
330
B1F3
100
AcDbEntity
  8
1
  6
Continuous
100
AcDbCircle
 10
184.586035
 20
348.1778279999999
 30
0.0
 40
4.25
  0
CIRCLE
  5
B241
330
B1F3
100
AcDbEntity
  8
1
  6
Continuous
100
AcDbCircle
 10
184.586035
 20
404.1778279999999
 30
0.0
 40
4.25
  0
CIRCLE
  5
B242
330
B1F3
100
AcDbEntity
  8
1
  6
Continuous
100
AcDbCircle
 10
224.586035
 20
376.1778279999999
 30
0.0
 40
31.0
  0
CIRCLE
  5
B243
330
B1F3
100
AcDbEntity
  8
1
  6
Continuous
100
AcDbCircle
 10
224.586035
 20
376.1778279999999
 30
0.0
 40
13.34999999999999
  0
ARC
  5
B244
330
B1F3
100
AcDbEntity
  8
1
  6
Continuous
100
AcDbCircle
 10
266.5860349999999
 20
406.1778279999998
 30
0.0
 40
7.5
100
AcDbArc
 50
0.0
 51
90.0
  0
ARC
  5
B245
330
B1F3
100
AcDbEntity
  8
1
  6
Continuous
100
AcDbCircle
 10
266.5860349999999
 20
346.1778279999998
 30
0.0
 40
7.5
100
AcDbArc
 50
270.0
 51
0.0
  0
ARC
  5
B246
330
B1F3
100
AcDbEntity
  8
1
  6
Continuous
100
AcDbCircle
 10
182.586035
 20
406.1778279999998
 30
0.0
 40
7.5
100
AcDbArc
 50
90.0
 51
180.0
  0
ARC
  5
B247
330
B1F3
100
AcDbEntity
  8
1
  6
Continuous
100
AcDbCircle
 10
182.586035
 20
346.1778279999998
 30
0.0
 40
7.5
100
AcDbArc
 50
180.0
 51
270.0
  0
LINE
  5
B248
330
B1F3
100
AcDbEntity
  8
1
  6
Continuous
100
AcDbLine
 10
331.08406
 20
278.2103479999999
 30
0.0
 11
331.08406
 21
240.8077009999999
 31
0.0
  0
LINE
  5
B249
330
B1F3
100
AcDbEntity
  8
1
  6
Continuous
100
AcDbLine
 10
385.9340599999999
 20
278.2103479999999
 30
0.0
 11
385.9340599999999
 21
238.32971
 31
0.0
  0
ARC
  5
B24A
330
B1F3
100
AcDbEntity
  8
1
  6
Continuous
100
AcDbCircle
 10
334.28406
 20
278.2103479999999
 30
0.0
 40
3.2
100
AcDbArc
 50
90.0
 51
180.0
  0
ARC
  5
B24B
330
B1F3
100
AcDbEntity
  8
1
  6
Continuous
100
AcDbCircle
 10
382.7340599999999
 20
278.2103479999999
 30
0.0
 40
3.2
100
AcDbArc
 50
0.0
 51
90.0
  0
LINE
  5
B24C
330
B1F3
100
AcDbEntity
  8
1
  6
Continuous
100
AcDbLine
 10
374.3262599999998
 20
207.2262429999999
 30
0.0
 11
376.926269
 21
207.2262429999999
 31
0.0
  0
LINE
  5
B24D
330
B1F3
100
AcDbEntity
  8
1
  6
Continuous
100
AcDbLine
 10
349.962153
 20
271.52734
 30
0.0
 11
367.055966
 21
271.52734
 31
0.0
  0
ARC
  5
B24E
330
B1F3
100
AcDbEntity
  8
1
  6
Continuous
100
AcDbCircle
 10
371.669201
 20
238.32971
 30
0.0
 40
40.585141
100
AcDbArc
 50
127.58973
 51
178.2037629999999
  0
ARC
  5
B24F
330
B1F3
100
AcDbEntity
  8
1
  6
Continuous
100
AcDbCircle
 10
349.962153
 20
266.5273399999999
 30
0.0
 40
5.0
100
AcDbArc
 50
90.0
 51
127.58973
  0
ARC
  5
B250
330
B1F3
100
AcDbEntity
  8
1
  6
Continuous
100
AcDbCircle
 10
372.9088929999999
 20
240.1980149999999
 30
0.0
 40
39.224834
100
AcDbArc
 50
127.1210199999998
 51
179.538277
  0
ARC
  5
B251
330
B1F3
100
AcDbEntity
  8
1
  6
Continuous
100
AcDbCircle
 10
345.3489189999999
 20
238.32971
 30
0.0
 40
40.585141
100
AcDbArc
 50
4.655269999999998
 51
52.41027
  0
ARC
  5
B252
330
B1F3
100
AcDbEntity
  8
1
  6
Continuous
100
AcDbCircle
 10
367.055966
 20
266.5273399999999
 30
0.0
 40
5.0
100
AcDbArc
 50
52.41027
 51
90.0
  0
ARC
  5
B253
330
B1F3
100
AcDbEntity
  8
1
  6
Continuous
100
AcDbCircle
 10
344.109226
 20
240.1980149999999
 30
0.0
 40
39.224834
100
AcDbArc
 50
0.4616360000000002
 51
52.87898000000001
  0
ARC
  5
B254
330
B1F3
100
AcDbEntity
  8
1
  6
Continuous
100
AcDbCircle
 10
191.5864479999999
 20
218.726543
 30
0.0
 40
50.0
100
AcDbArc
 50
85.14298000000001
 51
32.458048
  0
LINE
  5
B255
330
B1F3
100
AcDbEntity
  8
1
  6
Continuous
100
AcDbLine
 10
203.380718
 20
277.1581949999999
 30
0.0
 11
203.380718
 21
233.1632759999999
 31
0.0
  0
LINE
  5
B256
330
B1F3
100
AcDbEntity
  8
1
  6
Continuous
100
AcDbLine
 10
332.82296
 20
283.5183369999999
 30
0.0
 11
331.82296
 21
282.410337
 31
0.0
  0
LINE
  5
B257
330
B1F3
100
AcDbEntity
  8
1
  6
Continuous
100
AcDbLine
 10
332.9442799999998
 20
281.410337
 30
0.0
 11
334.9442799999998
 21
283.5183369999999
 31
0.0
  0
LINE
  5
B258
330
B1F3
100
AcDbEntity
  8
1
  6
Continuous
100
AcDbLine
 10
335.0656
 20
281.410337
 30
0.0
 11
337.0656
 21
283.5183369999999
 31
0.0
  0
LINE
  5
B259
330
B1F3
100
AcDbEntity
  8
1
  6
Continuous
100
AcDbLine
 10
337.1869209999999
 20
281.410337
 30
0.0
 11
339.1869209999999
 21
283.5183369999999
 31
0.0
  0
LINE
  5
B25A
330
B1F3
100
AcDbEntity
  8
1
  6
Continuous
100
AcDbLine
 10
339.308241
 20
281.410337
 30
0.0
 11
341.308241
 21
283.5183369999999
 31
0.0
  0
LINE
  5
B25B
330
B1F3
100
AcDbEntity
  8
1
  6
Continuous
100
AcDbLine
 10
341.4295609999999
 20
281.410337
 30
0.0
 11
343.4295609999999
 21
283.5183369999999
 31
0.0
  0
LINE
  5
B25C
330
B1F3
100
AcDbEntity
  8
1
  6
Continuous
100
AcDbLine
 10
343.5508819999999
 20
281.410337
 30
0.0
 11
345.5508819999999
 21
283.5183369999999
 31
0.0
  0
LINE
  5
B25D
330
B1F3
100
AcDbEntity
  8
1
  6
Continuous
100
AcDbLine
 10
345.672202
 20
281.410337
 30
0.0
 11
347.672202
 21
283.5183369999999
 31
0.0
  0
LINE
  5
B25E
330
B1F3
100
AcDbEntity
  8
1
  6
Continuous
100
AcDbLine
 10
347.7935219999998
 20
281.410337
 30
0.0
 11
349.793522
 21
283.5183369999999
 31
0.0
  0
LINE
  5
B25F
330
B1F3
100
AcDbEntity
  8
1
  6
Continuous
100
AcDbLine
 10
349.914843
 20
281.410337
 30
0.0
 11
351.914843
 21
283.5183369999999
 31
0.0
  0
LINE
  5
B260
330
B1F3
100
AcDbEntity
  8
1
  6
Continuous
100
AcDbLine
 10
352.036163
 20
281.410337
 30
0.0
 11
354.036163
 21
283.5183369999999
 31
0.0
  0
LINE
  5
B261
330
B1F3
100
AcDbEntity
  8
1
  6
Continuous
100
AcDbLine
 10
354.157483
 20
281.410337
 30
0.0
 11
356.157483
 21
283.5183369999999
 31
0.0
  0
LINE
  5
B262
330
B1F3
100
AcDbEntity
  8
1
  6
Continuous
100
AcDbLine
 10
356.278804
 20
281.410337
 30
0.0
 11
358.278804
 21
283.5183369999999
 31
0.0
  0
LINE
  5
B263
330
B1F3
100
AcDbEntity
  8
1
  6
Continuous
100
AcDbLine
 10
358.400124
 20
281.410337
 30
0.0
 11
360.400124
 21
283.5183369999999
 31
0.0
  0
LINE
  5
B264
330
B1F3
100
AcDbEntity
  8
1
  6
Continuous
100
AcDbLine
 10
360.5214439999999
 20
281.410337
 30
0.0
 11
362.5214439999999
 21
283.5183369999999
 31
0.0
  0
LINE
  5
B265
330
B1F3
100
AcDbEntity
  8
1
  6
Continuous
100
AcDbLine
 10
362.642765
 20
281.410337
 30
0.0
 11
364.642765
 21
283.5183369999999
 31
0.0
  0
LINE
  5
B266
330
B1F3
100
AcDbEntity
  8
1
  6
Continuous
100
AcDbLine
 10
364.764085
 20
281.410337
 30
0.0
 11
366.764085
 21
283.5183369999999
 31
0.0
  0
LINE
  5
B267
330
B1F3
100
AcDbEntity
  8
1
  6
Continuous
100
AcDbLine
 10
366.885405
 20
281.410337
 30
0.0
 11
368.8854049999998
 21
283.5183369999999
 31
0.0
  0
LINE
  5
B268
330
B1F3
100
AcDbEntity
  8
1
  6
Continuous
100
AcDbLine
 10
369.0067259999998
 20
281.410337
 30
0.0
 11
371.0067259999998
 21
283.5183369999999
 31
0.0
  0
LINE
  5
B269
330
B1F3
100
AcDbEntity
  8
1
  6
Continuous
100
AcDbLine
 10
371.1280459999999
 20
281.410337
 30
0.0
 11
373.1280459999999
 21
283.5183369999999
 31
0.0
  0
LINE
  5
B26A
330
B1F3
100
AcDbEntity
  8
1
  6
Continuous
100
AcDbLine
 10
373.249366
 20
281.410337
 30
0.0
 11
375.249366
 21
283.5183369999999
 31
0.0
  0
LINE
  5
B26B
330
B1F3
100
AcDbEntity
  8
1
  6
Continuous
100
AcDbLine
 10
375.3706869999998
 20
281.410337
 30
0.0
 11
377.3706869999998
 21
283.5183369999999
 31
0.0
  0
LINE
  5
B26C
330
B1F3
100
AcDbEntity
  8
1
  6
Continuous
100
AcDbLine
 10
377.492007
 20
281.410337
 30
0.0
 11
379.4920069999998
 21
283.5183369999999
 31
0.0
  0
LINE
  5
B26D
330
B1F3
100
AcDbEntity
  8
1
  6
Continuous
100
AcDbLine
 10
379.613327
 20
281.410337
 30
0.0
 11
381.613327
 21
283.5183369999999
 31
0.0
  0
LINE
  5
B26E
330
B1F3
100
AcDbEntity
  8
1
  6
Continuous
100
AcDbLine
 10
381.7346479999998
 20
281.410337
 30
0.0
 11
383.7346479999998
 21
283.5183369999999
 31
0.0
  0
LINE
  5
B26F
330
B1F3
100
AcDbEntity
  8
1
  6
Continuous
100
AcDbLine
 10
383.855968
 20
281.410337
 30
0.0
 11
385.1951599999999
 21
282.7495279999999
 31
0.0
  0
LINE
  5
B270
330
B1F3
100
AcDbEntity
  8
1
  6
Continuous
100
AcDbLine
 10
332.82296
 20
281.410337
 30
0.0
 11
331.82296
 21
282.410337
 31
0.0
  0
LINE
  5
B271
330
B1F3
100
AcDbEntity
  8
1
  6
Continuous
100
AcDbLine
 10
335.651387
 20
281.410337
 30
0.0
 11
333.651387
 21
283.5183369999999
 31
0.0
  0
LINE
  5
B272
330
B1F3
100
AcDbEntity
  8
1
  6
Continuous
100
AcDbLine
 10
338.479814
 20
281.410337
 30
0.0
 11
336.4798139999999
 21
283.5183369999999
 31
0.0
  0
LINE
  5
B273
330
B1F3
100
AcDbEntity
  8
1
  6
Continuous
100
AcDbLine
 10
341.308241
 20
281.410337
 30
0.0
 11
339.308241
 21
283.5183369999999
 31
0.0
  0
LINE
  5
B274
330
B1F3
100
AcDbEntity
  8
1
  6
Continuous
100
AcDbLine
 10
344.1366679999999
 20
281.410337
 30
0.0
 11
342.1366679999999
 21
283.5183369999999
 31
0.0
  0
LINE
  5
B275
330
B1F3
100
AcDbEntity
  8
1
  6
Continuous
100
AcDbLine
 10
346.965095
 20
281.410337
 30
0.0
 11
344.965095
 21
283.5183369999999
 31
0.0
  0
LINE
  5
B276
330
B1F3
100
AcDbEntity
  8
1
  6
Continuous
100
AcDbLine
 10
349.793522
 20
281.410337
 30
0.0
 11
347.7935219999998
 21
283.5183369999999
 31
0.0
  0
LINE
  5
B277
330
B1F3
100
AcDbEntity
  8
1
  6
Continuous
100
AcDbLine
 10
352.6219489999999
 20
281.410337
 30
0.0
 11
350.6219489999998
 21
283.5183369999999
 31
0.0
  0
LINE
  5
B278
330
B1F3
100
AcDbEntity
  8
1
  6
Continuous
100
AcDbLine
 10
355.450377
 20
281.410337
 30
0.0
 11
353.450377
 21
283.5183369999999
 31
0.0
  0
LINE
  5
B279
330
B1F3
100
AcDbEntity
  8
1
  6
Continuous
100
AcDbLine
 10
358.278804
 20
281.410337
 30
0.0
 11
356.278804
 21
283.5183369999999
 31
0.0
  0
LINE
  5
B27A
330
B1F3
100
AcDbEntity
  8
1
  6
Continuous
100
AcDbLine
 10
361.107231
 20
281.410337
 30
0.0
 11
359.107231
 21
283.5183369999999
 31
0.0
  0
LINE
  5
B27B
330
B1F3
100
AcDbEntity
  8
1
  6
Continuous
100
AcDbLine
 10
363.9356579999999
 20
281.410337
 30
0.0
 11
361.9356579999999
 21
283.5183369999999
 31
0.0
  0
LINE
  5
B27C
330
B1F3
100
AcDbEntity
  8
1
  6
Continuous
100
AcDbLine
 10
366.764085
 20
281.410337
 30
0.0
 11
364.764085
 21
283.5183369999999
 31
0.0
  0
LINE
  5
B27D
330
B1F3
100
AcDbEntity
  8
1
  6
Continuous
100
AcDbLine
 10
369.592512
 20
281.410337
 30
0.0
 11
367.592512
 21
283.5183369999999
 31
0.0
  0
LINE
  5
B27E
330
B1F3
100
AcDbEntity
  8
1
  6
Continuous
100
AcDbLine
 10
372.4209389999999
 20
281.410337
 30
0.0
 11
370.4209389999999
 21
283.5183369999999
 31
0.0
  0
LINE
  5
B27F
330
B1F3
100
AcDbEntity
  8
1
  6
Continuous
100
AcDbLine
 10
375.249366
 20
281.410337
 30
0.0
 11
373.249366
 21
283.5183369999999
 31
0.0
  0
LINE
  5
B280
330
B1F3
100
AcDbEntity
  8
1
  6
Continuous
100
AcDbLine
 10
378.077794
 20
281.410337
 30
0.0
 11
376.077794
 21
283.5183369999999
 31
0.0
  0
LINE
  5
B281
330
B1F3
100
AcDbEntity
  8
1
  6
Continuous
100
AcDbLine
 10
380.906221
 20
281.410337
 30
0.0
 11
378.906221
 21
283.5183369999999
 31
0.0
  0
LINE
  5
B282
330
B1F3
100
AcDbEntity
  8
1
  6
Continuous
100
AcDbLine
 10
383.7346479999998
 20
281.410337
 30
0.0
 11
381.7346479999998
 21
283.5183369999999
 31
0.0
  0
LINE
  5
B283
330
B1F3
100
AcDbEntity
  8
1
  6
Continuous
100
AcDbLine
 10
385.1951599999999
 20
282.886252
 30
0.0
 11
384.563075
 21
283.5183369999999
 31
0.0
  0
LINE
  5
B284
330
B1F3
100
AcDbEntity
  8
1
  6
Continuous
100
AcDbLine
 10
250.2721349999999
 20
283.5183369999999
 30
0.0
 11
251.272135
 21
282.5183369999999
 31
0.0
  0
LINE
  5
B285
330
B1F3
100
AcDbEntity
  8
1
  6
Continuous
100
AcDbLine
 10
250.150814
 20
281.411337
 30
0.0
 11
248.150814
 21
283.5183369999999
 31
0.0
  0
LINE
  5
B286
330
B1F3
100
AcDbEntity
  8
1
  6
Continuous
100
AcDbLine
 10
248.0294939999998
 20
281.411337
 30
0.0
 11
246.029494
 21
283.5183369999999
 31
0.0
  0
LINE
  5
B287
330
B1F3
100
AcDbEntity
  8
1
  6
Continuous
100
AcDbLine
 10
245.908174
 20
281.411337
 30
0.0
 11
243.908174
 21
283.5183369999999
 31
0.0
  0
LINE
  5
B288
330
B1F3
100
AcDbEntity
  8
1
  6
Continuous
100
AcDbLine
 10
243.7868529999998
 20
281.411337
 30
0.0
 11
241.7868529999998
 21
283.5183369999999
 31
0.0
  0
LINE
  5
B289
330
B1F3
100
AcDbEntity
  8
1
  6
Continuous
100
AcDbLine
 10
241.665533
 20
281.411337
 30
0.0
 11
239.665533
 21
283.5183369999999
 31
0.0
  0
LINE
  5
B28A
330
B1F3
100
AcDbEntity
  8
1
  6
Continuous
100
AcDbLine
 10
239.5442129999999
 20
281.411337
 30
0.0
 11
237.5442129999999
 21
283.5183369999999
 31
0.0
  0
LINE
  5
B28B
330
B1F3
100
AcDbEntity
  8
1
  6
Continuous
100
AcDbLine
 10
237.4228919999999
 20
281.411337
 30
0.0
 11
235.422892
 21
283.5183369999999
 31
0.0
  0
LINE
  5
B28C
330
B1F3
100
AcDbEntity
  8
1
  6
Continuous
100
AcDbLine
 10
235.301572
 20
281.411337
 30
0.0
 11
233.301572
 21
283.5183369999999
 31
0.0
  0
LINE
  5
B28D
330
B1F3
100
AcDbEntity
  8
1
  6
Continuous
100
AcDbLine
 10
233.180252
 20
281.411337
 30
0.0
 11
231.180252
 21
283.5183369999999
 31
0.0
  0
LINE
  5
B28E
330
B1F3
100
AcDbEntity
  8
1
  6
Continuous
100
AcDbLine
 10
231.058931
 20
281.411337
 30
0.0
 11
229.058931
 21
283.5183369999999
 31
0.0
  0
LINE
  5
B28F
330
B1F3
100
AcDbEntity
  8
1
  6
Continuous
100
AcDbLine
 10
228.9376109999998
 20
281.411337
 30
0.0
 11
226.9376109999999
 21
283.5183369999999
 31
0.0
  0
LINE
  5
B290
330
B1F3
100
AcDbEntity
  8
1
  6
Continuous
100
AcDbLine
 10
226.816291
 20
281.411337
 30
0.0
 11
224.816291
 21
283.5183369999999
 31
0.0
  0
LINE
  5
B291
330
B1F3
100
AcDbEntity
  8
1
  6
Continuous
100
AcDbLine
 10
224.69497
 20
281.411337
 30
0.0
 11
222.69497
 21
283.5183369999999
 31
0.0
  0
LINE
  5
B292
330
B1F3
100
AcDbEntity
  8
1
  6
Continuous
100
AcDbLine
 10
222.57365
 20
281.411337
 30
0.0
 11
220.5736499999999
 21
283.5183369999999
 31
0.0
  0
LINE
  5
B293
330
B1F3
100
AcDbEntity
  8
1
  6
Continuous
100
AcDbLine
 10
220.4523299999999
 20
281.411337
 30
0.0
 11
218.4523299999999
 21
283.5183369999999
 31
0.0
  0
LINE
  5
B294
330
B1F3
100
AcDbEntity
  8
1
  6
Continuous
100
AcDbLine
 10
218.3310089999999
 20
281.411337
 30
0.0
 11
216.3310089999999
 21
283.5183369999999
 31
0.0
  0
LINE
  5
B295
330
B1F3
100
AcDbEntity
  8
1
  6
Continuous
100
AcDbLine
 10
216.209689
 20
281.411337
 30
0.0
 11
214.209689
 21
283.5183369999999
 31
0.0
  0
LINE
  5
B296
330
B1F3
100
AcDbEntity
  8
1
  6
Continuous
100
AcDbLine
 10
214.0883689999999
 20
281.411337
 30
0.0
 11
212.0883689999998
 21
283.5183369999999
 31
0.0
  0
LINE
  5
B297
330
B1F3
100
AcDbEntity
  8
1
  6
Continuous
100
AcDbLine
 10
211.9670479999999
 20
281.411337
 30
0.0
 11
209.9670479999999
 21
283.5183369999999
 31
0.0
  0
LINE
  5
B298
330
B1F3
100
AcDbEntity
  8
1
  6
Continuous
100
AcDbLine
 10
209.8457279999998
 20
281.411337
 30
0.0
 11
207.845728
 21
283.5183369999999
 31
0.0
  0
LINE
  5
B299
330
B1F3
100
AcDbEntity
  8
1
  6
Continuous
100
AcDbLine
 10
207.724407
 20
281.411337
 30
0.0
 11
205.724407
 21
283.5183369999999
 31
0.0
  0
LINE
  5
B29A
330
B1F3
100
AcDbEntity
  8
1
  6
Continuous
100
AcDbLine
 10
205.6030869999999
 20
281.411337
 30
0.0
 11
203.6030869999999
 21
283.5183369999999
 31
0.0
  0
LINE
  5
B29B
330
B1F3
100
AcDbEntity
  8
1
  6
Continuous
100
AcDbLine
 10
203.4817669999999
 20
281.411337
 30
0.0
 11
201.4817669999999
 21
283.5183369999999
 31
0.0
  0
LINE
  5
B29C
330
B1F3
100
AcDbEntity
  8
1
  6
Continuous
100
AcDbLine
 10
201.3604459999998
 20
281.411337
 30
0.0
 11
199.360446
 21
283.5183369999999
 31
0.0
  0
LINE
  5
B29D
330
B1F3
100
AcDbEntity
  8
1
  6
Continuous
100
AcDbLine
 10
199.2391259999999
 20
281.411337
 30
0.0
 11
197.899935
 21
282.8575279999999
 31
0.0
  0
LINE
  5
B29E
330
B1F3
100
AcDbEntity
  8
1
  6
Continuous
100
AcDbLine
 10
250.2721349999999
 20
281.411337
 30
0.0
 11
251.272135
 21
282.5183369999999
 31
0.0
  0
LINE
  5
B29F
330
B1F3
100
AcDbEntity
  8
1
  6
Continuous
100
AcDbLine
 10
247.4437079999999
 20
281.411337
 30
0.0
 11
249.4437079999999
 21
283.5183369999999
 31
0.0
  0
LINE
  5
B2A0
330
B1F3
100
AcDbEntity
  8
1
  6
Continuous
100
AcDbLine
 10
244.6152799999999
 20
281.411337
 30
0.0
 11
246.6152799999999
 21
283.5183369999999
 31
0.0
  0
LINE
  5
B2A1
330
B1F3
100
AcDbEntity
  8
1
  6
Continuous
100
AcDbLine
 10
241.7868529999998
 20
281.411337
 30
0.0
 11
243.7868529999998
 21
283.5183369999999
 31
0.0
  0
LINE
  5
B2A2
330
B1F3
100
AcDbEntity
  8
1
  6
Continuous
100
AcDbLine
 10
238.9584259999999
 20
281.411337
 30
0.0
 11
240.9584259999999
 21
283.5183369999999
 31
0.0
  0
LINE
  5
B2A3
330
B1F3
100
AcDbEntity
  8
1
  6
Continuous
100
AcDbLine
 10
236.129999
 20
281.411337
 30
0.0
 11
238.129999
 21
283.5183369999999
 31
0.0
  0
LINE
  5
B2A4
330
B1F3
100
AcDbEntity
  8
1
  6
Continuous
100
AcDbLine
 10
233.301572
 20
281.411337
 30
0.0
 11
235.301572
 21
283.5183369999999
 31
0.0
  0
LINE
  5
B2A5
330
B1F3
100
AcDbEntity
  8
1
  6
Continuous
100
AcDbLine
 10
230.4731449999999
 20
281.411337
 30
0.0
 11
232.4731449999999
 21
283.5183369999999
 31
0.0
  0
LINE
  5
B2A6
330
B1F3
100
AcDbEntity
  8
1
  6
Continuous
100
AcDbLine
 10
227.644718
 20
281.411337
 30
0.0
 11
229.644718
 21
283.5183369999999
 31
0.0
  0
LINE
  5
B2A7
330
B1F3
100
AcDbEntity
  8
1
  6
Continuous
100
AcDbLine
 10
224.816291
 20
281.411337
 30
0.0
 11
226.816291
 21
283.5183369999999
 31
0.0
  0
LINE
  5
B2A8
330
B1F3
100
AcDbEntity
  8
1
  6
Continuous
100
AcDbLine
 10
221.9878629999998
 20
281.411337
 30
0.0
 11
223.9878629999998
 21
283.5183369999999
 31
0.0
  0
LINE
  5
B2A9
330
B1F3
100
AcDbEntity
  8
1
  6
Continuous
100
AcDbLine
 10
219.1594359999999
 20
281.411337
 30
0.0
 11
221.1594359999998
 21
283.5183369999999
 31
0.0
  0
LINE
  5
B2AA
330
B1F3
100
AcDbEntity
  8
1
  6
Continuous
100
AcDbLine
 10
216.3310089999999
 20
281.411337
 30
0.0
 11
218.3310089999999
 21
283.5183369999999
 31
0.0
  0
LINE
  5
B2AB
330
B1F3
100
AcDbEntity
  8
1
  6
Continuous
100
AcDbLine
 10
213.502582
 20
281.411337
 30
0.0
 11
215.502582
 21
283.5183369999999
 31
0.0
  0
LINE
  5
B2AC
330
B1F3
100
AcDbEntity
  8
1
  6
Continuous
100
AcDbLine
 10
210.6741549999999
 20
281.411337
 30
0.0
 11
212.6741549999999
 21
283.5183369999999
 31
0.0
  0
LINE
  5
B2AD
330
B1F3
100
AcDbEntity
  8
1
  6
Continuous
100
AcDbLine
 10
207.845728
 20
281.411337
 30
0.0
 11
209.8457279999998
 21
283.5183369999999
 31
0.0
  0
LINE
  5
B2AE
330
B1F3
100
AcDbEntity
  8
1
  6
Continuous
100
AcDbLine
 10
205.0173009999999
 20
281.411337
 30
0.0
 11
207.0173009999999
 21
283.5183369999999
 31
0.0
  0
LINE
  5
B2AF
330
B1F3
100
AcDbEntity
  8
1
  6
Continuous
100
AcDbLine
 10
202.188874
 20
281.411337
 30
0.0
 11
204.188874
 21
283.5183369999999
 31
0.0
  0
LINE
  5
B2B0
330
B1F3
100
AcDbEntity
  8
1
  6
Continuous
100
AcDbLine
 10
199.360446
 20
281.411337
 30
0.0
 11
201.3604459999998
 21
283.5183369999999
 31
0.0
  0
LINE
  5
B2B1
330
B1F3
100
AcDbEntity
  8
1
  6
Continuous
100
AcDbLine
 10
197.899935
 20
282.886252
 30
0.0
 11
198.5320189999999
 21
283.5183369999999
 31
0.0
  0
LINE
  5
B2B2
330
B1F3
100
AcDbEntity
  8
4
  6
CENTER
100
AcDbLine
 10
133.5864479999999
 20
218.726543
 30
0.0
 11
248.816658
 21
218.726543
 31
0.0
  0
LINE
  5
B2B3
330
B1F3
100
AcDbEntity
  8
4
  6
CENTER
100
AcDbLine
 10
191.5864479999999
 20
160.6195429999999
 30
0.0
 11
191.5864479999999
 21
270.2841509999998
 31
0.0
  0
LINE
  5
B2B4
330
B1F3
100
AcDbEntity
  8
4
  6
CENTER
100
AcDbLine
 10
224.586035
 20
247.7533339999999
 30
0.0
 11
224.586035
 21
296.7263369999999
 31
0.0
  0
LINE
  5
B2B5
330
B1F3
100
AcDbEntity
  8
4
  6
CENTER
100
AcDbLine
 10
271.8360349999999
 20
404.1778279999999
 30
0.0
 11
257.3360349999999
 21
404.1778279999999
 31
0.0
  0
LINE
  5
B2B6
330
B1F3
100
AcDbEntity
  8
4
  6
CENTER
100
AcDbLine
 10
264.5860349999999
 20
396.9278279999999
 30
0.0
 11
264.5860349999999
 21
411.4278279999998
 31
0.0
  0
LINE
  5
B2B7
330
B1F3
100
AcDbEntity
  8
4
  6
CENTER
100
AcDbLine
 10
271.8360349999999
 20
348.1778279999999
 30
0.0
 11
257.3360349999999
 21
348.1778279999999
 31
0.0
  0
LINE
  5
B2B8
330
B1F3
100
AcDbEntity
  8
4
  6
CENTER
100
AcDbLine
 10
264.5860349999999
 20
340.9278279999999
 30
0.0
 11
264.5860349999999
 21
355.4278279999999
 31
0.0
  0
LINE
  5
B2B9
330
B1F3
100
AcDbEntity
  8
4
  6
CENTER
100
AcDbLine
 10
190.463829
 20
348.1778279999999
 30
0.0
 11
178.6615369999999
 21
348.1778279999999
 31
0.0
  0
LINE
  5
B2BA
330
B1F3
100
AcDbEntity
  8
4
  6
CENTER
100
AcDbLine
 10
184.586035
 20
340.3079739999999
 30
0.0
 11
184.586035
 21
354.6681159999999
 31
0.0
  0
LINE
  5
B2BB
330
B1F3
100
AcDbEntity
  8
4
  6
CENTER
100
AcDbLine
 10
191.836035
 20
404.1778279999999
 30
0.0
 11
177.336035
 21
404.1778279999999
 31
0.0
  0
LINE
  5
B2BC
330
B1F3
100
AcDbEntity
  8
4
  6
CENTER
100
AcDbLine
 10
184.586035
 20
396.9278279999999
 30
0.0
 11
184.586035
 21
411.4278279999998
 31
0.0
  0
LINE
  5
B2BD
330
B1F3
100
AcDbEntity
  8
4
  6
CENTER
100
AcDbLine
 10
279.0860349999999
 20
376.1778279999999
 30
0.0
 11
136.586035
 21
376.1778279999999
 31
0.0
  0
LINE
  5
B2BE
330
B1F3
100
AcDbEntity
  8
4
  6
CENTER
100
AcDbLine
 10
224.586035
 20
333.6778279999998
 30
0.0
 11
224.586035
 21
418.6778279999998
 31
0.0
  0
LINE
  5
B2BF
330
B1F3
100
AcDbEntity
  8
4
  6
CENTER
100
AcDbLine
 10
358.50906
 20
296.7263369999999
 30
0.0
 11
358.50906
 21
160.726247
 31
0.0
  0
LINE
  5
B2C0
330
B1F3
100
AcDbEntity
  8
1
  6
Continuous
100
AcDbLine
 10
342.69186
 20
207.2262429999999
 30
0.0
 11
340.1588509999999
 21
207.2262429999999
 31
0.0
  0
LINE
  5
B2C1
330
B1F3
100
AcDbEntity
  8
1
  6
Continuous
100
AcDbLine
 10
342.69186
 20
265.208383
 30
0.0
 11
342.69186
 21
207.2262429999999
 31
0.0
  0
LINE
  5
B2C2
330
B1F3
100
AcDbEntity
  8
1
  6
Continuous
100
AcDbLine
 10
374.3262599999998
 20
265.2083819999999
 30
0.0
 11
374.3262599999998
 21
207.2262429999999
 31
0.0
  0
ARC
  5
B2C3
330
B1F3
100
AcDbEntity
  8
1
  6
Continuous
100
AcDbCircle
 10
191.5878779999999
 20
218.376545
 30
0.0
 40
11.14999999999999
100
AcDbArc
 50
144.5269859999999
 51
300.109962
  0
ARC
  5
B2C4
330
B1F3
100
AcDbEntity
  8
1
  6
Continuous
100
AcDbCircle
 10
181.4622139999999
 20
266.318997
 30
0.0
 40
14.529548
100
AcDbArc
 50
359.3096679999999
 51
41.61228499999999
  0
LINE
  5
B2C5
330
B1F3
100
AcDbEntity
  8
1
  6
Continuous
100
AcDbLine
 10
192.3253129999999
 20
275.9678749999998
 30
0.0
 11
191.5883819999999
 21
278.48638
 31
0.0
  0
ARC
  5
B2C6
330
B1F3
100
AcDbEntity
  8
1
  6
Continuous
100
AcDbCircle
 10
183.746176
 20
275.8823549999998
 30
0.0
 40
5.267126
100
AcDbArc
 50
2.768558
 51
15.576486
  0
ARC
  5
B2C7
330
B1F3
100
AcDbEntity
  8
1
  6
Continuous
100
AcDbCircle
 10
192.5528429999999
 20
546.829645
 30
0.0
 40
270.861866
100
AcDbArc
 50
269.329835
 51
269.95187
  0
ARC
  5
B2C8
330
B1F3
100
AcDbEntity
  8
1
  6
Continuous
100
AcDbCircle
 10
189.391374
 20
276.5519729999999
 30
0.0
 40
0.565705
100
AcDbArc
 50
227.219834
 51
269.329835
  0
ARC
  5
B2C9
330
B1F3
100
AcDbEntity
  8
1
  6
Continuous
100
AcDbCircle
 10
194.983895
 20
277.458008
 30
0.0
 40
6.166148999999997
100
AcDbArc
 50
174.1216709999999
 51
181.498972
  0
ARC
  5
B2CA
330
B1F3
100
AcDbEntity
  8
1
  6
Continuous
100
AcDbCircle
 10
189.104413
 20
277.963069
 30
0.0
 40
0.283955
100
AcDbArc
 50
112.4266129999999
 51
153.555477
  0
ARC
  5
B2CB
330
B1F3
100
AcDbEntity
  8
1
  6
Continuous
100
AcDbCircle
 10
190.4158669999999
 20
274.7854319999999
 30
0.0
 40
3.721582999999998
100
AcDbArc
 50
88.727417
 51
112.4266129999999
  0
ARC
  5
B2CC
330
B1F3
100
AcDbEntity
  8
1
  6
Continuous
100
AcDbCircle
 10
245.057491
 20
268.61502
 30
0.0
 40
2.322
100
AcDbArc
 50
95.042199
 51
166.6951479999999
  0
ARC
  5
B2CD
330
B1F3
100
AcDbEntity
  8
1
  6
Continuous
100
AcDbCircle
 10
196.1450389999999
 20
279.690506
 30
0.0
 40
1.189
100
AcDbArc
 50
271.184952
 51
5.074886
  0
ARC
  5
B2CE
330
B1F3
100
AcDbEntity
  8
1
  6
Continuous
100
AcDbCircle
 10
193.4351679999998
 20
410.7017019999998
 30
0.0
 40
132.2282199999999
100
AcDbArc
 50
268.727417
 51
273.9593529999999
  0
LINE
  5
B2CF
330
B1F3
100
AcDbEntity
  8
1
  6
Continuous
100
AcDbLine
 10
192.3253129999999
 20
275.9678749999998
 30
0.0
 11
191.5883819999999
 21
278.48638
 31
0.0
  0
ARC
  5
B2D0
330
B1F3
100
AcDbEntity
  8
1
  6
Continuous
100
AcDbCircle
 10
183.746176
 20
275.8823549999998
 30
0.0
 40
5.267126
100
AcDbArc
 50
2.768558
 51
15.576486
  0
ARC
  5
B2D1
330
B1F3
100
AcDbEntity
  8
1
  6
Continuous
100
AcDbCircle
 10
192.5528429999999
 20
546.829645
 30
0.0
 40
270.861866
100
AcDbArc
 50
269.329835
 51
269.95187
  0
ARC
  5
B2D2
330
B1F3
100
AcDbEntity
  8
1
  6
Continuous
100
AcDbCircle
 10
189.391374
 20
276.5519729999999
 30
0.0
 40
0.565705
100
AcDbArc
 50
227.219834
 51
269.329835
  0
ARC
  5
B2D3
330
B1F3
100
AcDbEntity
  8
1
  6
Continuous
100
AcDbCircle
 10
194.983895
 20
277.458008
 30
0.0
 40
6.166148999999997
100
AcDbArc
 50
174.1216709999999
 51
181.498972
  0
ARC
  5
B2D4
330
B1F3
100
AcDbEntity
  8
1
  6
Continuous
100
AcDbCircle
 10
189.104413
 20
277.963069
 30
0.0
 40
0.283955
100
AcDbArc
 50
112.4266129999999
 51
153.555477
  0
ARC
  5
B2D5
330
B1F3
100
AcDbEntity
  8
1
  6
Continuous
100
AcDbCircle
 10
190.4158669999999
 20
274.7854319999999
 30
0.0
 40
3.721582999999998
100
AcDbArc
 50
88.727417
 51
112.4266129999999
  0
ARC
  5
B2D6
330
B1F3
100
AcDbEntity
  8
1
  6
Continuous
100
AcDbCircle
 10
200.1180199999998
 20
278.226135
 30
0.0
 40
3.2
100
AcDbArc
 50
90.23407699999998
 51
150.627636
  0
ARC
  5
B2D7
330
B1F3
100
AcDbEntity
  8
1
  6
Continuous
100
AcDbCircle
 10
200.1948669999999
 20
279.042456
 30
0.0
 40
2.383999999999999
100
AcDbArc
 50
353.8988339999999
 51
90.23407699999998
  0
LINE
  5
B2D8
330
B1F3
100
AcDbEntity
  8
4
  6
CENTER
100
AcDbLine
 10
57.121566
 20
296.7263459999998
 30
0.0
 11
57.121566
 21
160.7267559999999
 31
0.0
  0
LINE
  5
B2D9
330
B1F3
100
AcDbEntity
  8
4
  6
CENTER
100
AcDbLine
 10
29.971999
 20
218.7267559999999
 30
0.0
 11
87.64230600000002
 21
218.7267559999999
 31
0.0
  0
LINE
  5
B2DA
330
B1F3
100
AcDbEntity
  8
1
  6
Continuous
100
AcDbLine
 10
44.284708
 20
281.393346
 30
0.0
 11
46.284708
 21
283.518346
 31
0.0
  0
LINE
  5
B2DB
330
B1F3
100
AcDbEntity
  8
1
  6
Continuous
100
AcDbLine
 10
30.43546599999999
 20
283.518346
 30
0.0
 11
83.80766599999999
 21
283.518346
 31
0.0
  0
LINE
  5
B2DC
330
B1F3
100
AcDbEntity
  8
1
  6
Continuous
100
AcDbLine
 10
19.621566
 20
288.8267309999998
 30
0.0
 11
94.621566
 21
288.8267309999998
 31
0.0
  0
LINE
  5
B2DD
330
B1F3
100
AcDbEntity
  8
1
  6
Continuous
100
AcDbLine
 10
19.621566
 20
291.726346
 30
0.0
 11
94.621566
 21
291.726346
 31
0.0
  0
LINE
  5
B2DE
330
B1F3
100
AcDbEntity
  8
1
  6
Continuous
100
AcDbLine
 10
27.84899600000001
 20
285.3533459999998
 30
0.0
 11
86.39413499999998
 21
285.3533459999998
 31
0.0
  0
LINE
  5
B2DF
330
B1F3
100
AcDbEntity
  8
1
  6
Continuous
100
AcDbLine
 10
42.20434
 20
278.5643709999998
 30
0.0
 11
72.038775
 21
278.5643709999998
 31
0.0
  0
LINE
  5
B2E0
330
B1F3
100
AcDbEntity
  8
1
  6
Continuous
100
AcDbLine
 10
30.43546599999999
 20
281.3933569999999
 30
0.0
 11
83.80766599999999
 21
281.3933569999999
 31
0.0
  0
LINE
  5
B2E1
330
B1F3
100
AcDbEntity
  8
1
  6
Continuous
100
AcDbLine
 10
42.20434
 20
275.9643709999999
 30
0.0
 11
72.038775
 21
275.9643709999999
 31
0.0
  0
LINE
  5
B2E2
330
B1F3
100
AcDbEntity
  8
1
  6
Continuous
100
AcDbLine
 10
38.70434
 20
275.0643709999998
 30
0.0
 11
38.70434
 21
207.226752
 31
0.0
  0
LINE
  5
B2E3
330
B1F3
100
AcDbEntity
  8
1
  6
Continuous
100
AcDbLine
 10
41.30434
 20
275.0643709999998
 30
0.0
 11
41.30434
 21
207.226752
 31
0.0
  0
LINE
  5
B2E4
330
B1F3
100
AcDbEntity
  8
1
  6
Continuous
100
AcDbLine
 10
29.696566
 20
278.193357
 30
0.0
 11
29.696566
 21
240.80652
 31
0.0
  0
ARC
  5
B2E5
330
B1F3
100
AcDbEntity
  8
1
  6
Continuous
100
AcDbCircle
 10
66.162603
 20
240.80652
 30
0.0
 40
36.466037
100
AcDbArc
 50
180.0
 51
209.7374579999999
  0
LINE
  5
B2E6
330
B1F3
100
AcDbEntity
  8
1
  6
Continuous
100
AcDbLine
 10
38.70434
 20
207.226752
 30
0.0
 11
41.30434
 21
207.226752
 31
0.0
  0
ARC
  5
B2E7
330
B1F3
100
AcDbEntity
  8
1
  6
Continuous
100
AcDbCircle
 10
32.896566
 20
278.193357
 30
0.0
 40
3.2
100
AcDbArc
 50
90.0
 51
180.0
  0
ARC
  5
B2E8
330
B1F3
100
AcDbEntity
  8
1
  6
Continuous
100
AcDbCircle
 10
27.84899600000001
 20
292.853346
 30
0.0
 40
7.5
100
AcDbArc
 50
212.4716319999998
 51
270.0
  0
LINE
  5
B2E9
330
B1F3
100
AcDbEntity
  8
1
  6
Continuous
100
AcDbLine
 10
19.621566
 20
291.726346
 30
0.0
 11
19.621566
 21
288.8267309999998
 31
0.0
  0
LINE
  5
B2EA
330
B1F3
100
AcDbEntity
  8
1
  6
Continuous
100
AcDbLine
 10
45.577601
 20
281.393346
 30
0.0
 11
43.577601
 21
283.518346
 31
0.0
  0
LINE
  5
B2EB
330
B1F3
100
AcDbEntity
  8
1
  6
Continuous
100
AcDbLine
 10
42.74917399999997
 20
281.393346
 30
0.0
 11
40.74917399999999
 21
283.518346
 31
0.0
  0
LINE
  5
B2EC
330
B1F3
100
AcDbEntity
  8
1
  6
Continuous
100
AcDbLine
 10
39.92074699999999
 20
281.393346
 30
0.0
 11
37.920747
 21
283.518346
 31
0.0
  0
LINE
  5
B2ED
330
B1F3
100
AcDbEntity
  8
1
  6
Continuous
100
AcDbLine
 10
37.09232
 20
281.393346
 30
0.0
 11
35.09232
 21
283.518346
 31
0.0
  0
LINE
  5
B2EE
330
B1F3
100
AcDbEntity
  8
1
  6
Continuous
100
AcDbLine
 10
34.26389299999998
 20
281.393346
 30
0.0
 11
32.26389299999999
 21
283.518346
 31
0.0
  0
LINE
  5
B2EF
330
B1F3
100
AcDbEntity
  8
1
  6
Continuous
100
AcDbLine
 10
31.435466
 20
281.393346
 30
0.0
 11
30.43546599999999
 21
282.393346
 31
0.0
  0
LINE
  5
B2F0
330
B1F3
100
AcDbEntity
  8
1
  6
Continuous
100
AcDbLine
 10
42.16338799999999
 20
281.393346
 30
0.0
 11
44.163388
 21
283.518346
 31
0.0
  0
LINE
  5
B2F1
330
B1F3
100
AcDbEntity
  8
1
  6
Continuous
100
AcDbLine
 10
40.042067
 20
281.393346
 30
0.0
 11
42.04206699999999
 21
283.518346
 31
0.0
  0
LINE
  5
B2F2
330
B1F3
100
AcDbEntity
  8
1
  6
Continuous
100
AcDbLine
 10
37.920747
 20
281.393346
 30
0.0
 11
39.92074699999999
 21
283.518346
 31
0.0
  0
LINE
  5
B2F3
330
B1F3
100
AcDbEntity
  8
1
  6
Continuous
100
AcDbLine
 10
35.799427
 20
281.393346
 30
0.0
 11
37.799427
 21
283.518346
 31
0.0
  0
LINE
  5
B2F4
330
B1F3
100
AcDbEntity
  8
1
  6
Continuous
100
AcDbLine
 10
33.678106
 20
281.393346
 30
0.0
 11
35.678106
 21
283.518346
 31
0.0
  0
LINE
  5
B2F5
330
B1F3
100
AcDbEntity
  8
1
  6
Continuous
100
AcDbLine
 10
31.55678599999999
 20
281.393346
 30
0.0
 11
33.55678599999999
 21
283.518346
 31
0.0
  0
LINE
  5
B2F6
330
B1F3
100
AcDbEntity
  8
1
  6
Continuous
100
AcDbLine
 10
30.43546599999999
 20
281.393346
 30
0.0
 11
30.43546599999999
 21
283.518346
 31
0.0
  0
ARC
  5
B2F7
330
B1F3
100
AcDbEntity
  8
1
  6
Continuous
100
AcDbCircle
 10
42.20434
 20
275.0643709999998
 30
0.0
 40
3.5
100
AcDbArc
 50
90.0
 51
178.892845
  0
ARC
  5
B2F8
330
B1F3
100
AcDbEntity
  8
1
  6
Continuous
100
AcDbCircle
 10
42.20434
 20
275.0643709999998
 30
0.0
 40
0.9
100
AcDbArc
 50
90.0
 51
180.0
  0
LINE
  5
B2F9
330
B1F3
100
AcDbEntity
  8
1
  6
Continuous
100
AcDbLine
 10
31.435466
 20
283.518346
 30
0.0
 11
30.43546599999999
 21
282.393346
 31
0.0
  0
ARC
  5
B2FA
330
B1F3
100
AcDbEntity
  8
1
  6
Continuous
100
AcDbCircle
 10
39.06521599999999
 20
289.7659269999999
 30
0.0
 40
9.0
100
AcDbArc
 50
209.359435
 51
223.961567
  0
LINE
  5
B2FB
330
B1F3
100
AcDbEntity
  8
1
  6
Continuous
100
AcDbLine
 10
75.538775
 20
275.0643709999998
 30
0.0
 11
75.538775
 21
207.2267559999999
 31
0.0
  0
LINE
  5
B2FC
330
B1F3
100
AcDbEntity
  8
1
  6
Continuous
100
AcDbLine
 10
72.938775
 20
275.0643709999998
 30
0.0
 11
72.938775
 21
207.2267559999999
 31
0.0
  0
LINE
  5
B2FD
330
B1F3
100
AcDbEntity
  8
1
  6
Continuous
100
AcDbLine
 10
84.54656599999998
 20
278.193357
 30
0.0
 11
84.54656599999998
 21
240.807914
 31
0.0
  0
LINE
  5
B2FE
330
B1F3
100
AcDbEntity
  8
1
  6
Continuous
100
AcDbLine
 10
72.938775
 20
207.226752
 30
0.0
 11
75.538775
 21
207.226752
 31
0.0
  0
LINE
  5
B2FF
330
B1F3
100
AcDbEntity
  8
1
  6
Continuous
100
AcDbLine
 10
75.538775
 20
211.2267559999999
 30
0.0
 11
77.538775
 21
211.2267559999999
 31
0.0
  0
LINE
  5
B300
330
B1F3
100
AcDbEntity
  8
1
  6
Continuous
100
AcDbLine
 10
77.538775
 20
211.2267559999999
 30
0.0
 11
77.538775
 21
226.226756
 31
0.0
  0
LINE
  5
B301
330
B1F3
100
AcDbEntity
  8
1
  6
Continuous
100
AcDbLine
 10
75.538775
 20
226.226756
 30
0.0
 11
77.538775
 21
226.226756
 31
0.0
  0
LINE
  5
B302
330
B1F3
100
AcDbEntity
  8
1
  6
Continuous
100
AcDbLine
 10
84.00434
 20
215.392321
 30
0.0
 11
84.00434
 21
222.0502559999999
 31
0.0
  0
LINE
  5
B303
330
B1F3
100
AcDbEntity
  8
1
  6
Continuous
100
AcDbLine
 10
83.33877499999998
 20
214.7267559999999
 30
0.0
 11
83.33877499999998
 21
222.726756
 31
0.0
  0
ARC
  5
B304
330
B1F3
100
AcDbEntity
  8
1
  6
Continuous
100
AcDbCircle
 10
48.080566
 20
240.807914
 30
0.0
 40
36.466
100
AcDbArc
 50
335.4468919999998
 51
0.0
  0
LINE
  5
B305
330
B1F3
100
AcDbEntity
  8
1
  6
Continuous
100
AcDbLine
 10
79.518727
 20
281.393346
 30
0.0
 11
77.51872699999998
 21
283.518346
 31
0.0
  0
LINE
  5
B306
330
B1F3
100
AcDbEntity
  8
1
  6
Continuous
100
AcDbLine
 10
78.22583299999998
 20
281.393346
 30
0.0
 11
80.22583299999999
 21
283.518346
 31
0.0
  0
LINE
  5
B307
330
B1F3
100
AcDbEntity
  8
1
  6
Continuous
100
AcDbLine
 10
62.548164
 20
281.393346
 30
0.0
 11
60.54816399999999
 21
283.518346
 31
0.0
  0
LINE
  5
B308
330
B1F3
100
AcDbEntity
  8
1
  6
Continuous
100
AcDbLine
 10
61.25527099999999
 20
281.393346
 30
0.0
 11
63.25527099999999
 21
283.518346
 31
0.0
  0
LINE
  5
B309
330
B1F3
100
AcDbEntity
  8
1
  6
Continuous
100
AcDbLine
 10
59.719737
 20
281.393346
 30
0.0
 11
57.719737
 21
283.518346
 31
0.0
  0
LINE
  5
B30A
330
B1F3
100
AcDbEntity
  8
1
  6
Continuous
100
AcDbLine
 10
56.89130999999999
 20
281.393346
 30
0.0
 11
54.89131
 21
283.518346
 31
0.0
  0
LINE
  5
B30B
330
B1F3
100
AcDbEntity
  8
1
  6
Continuous
100
AcDbLine
 10
54.06288299999999
 20
281.393346
 30
0.0
 11
52.062883
 21
283.518346
 31
0.0
  0
LINE
  5
B30C
330
B1F3
100
AcDbEntity
  8
1
  6
Continuous
100
AcDbLine
 10
51.23445499999998
 20
281.393346
 30
0.0
 11
49.23445499999999
 21
283.518346
 31
0.0
  0
LINE
  5
B30D
330
B1F3
100
AcDbEntity
  8
1
  6
Continuous
100
AcDbLine
 10
48.406028
 20
281.393346
 30
0.0
 11
46.40602799999999
 21
283.518346
 31
0.0
  0
LINE
  5
B30E
330
B1F3
100
AcDbEntity
  8
1
  6
Continuous
100
AcDbLine
 10
59.13395
 20
281.393346
 30
0.0
 11
61.13395
 21
283.518346
 31
0.0
  0
LINE
  5
B30F
330
B1F3
100
AcDbEntity
  8
1
  6
Continuous
100
AcDbLine
 10
57.01263
 20
281.393346
 30
0.0
 11
59.01263
 21
283.518346
 31
0.0
  0
LINE
  5
B310
330
B1F3
100
AcDbEntity
  8
1
  6
Continuous
100
AcDbLine
 10
54.89131
 20
281.393346
 30
0.0
 11
56.89130999999999
 21
283.518346
 31
0.0
  0
LINE
  5
B311
330
B1F3
100
AcDbEntity
  8
1
  6
Continuous
100
AcDbLine
 10
52.769989
 20
281.393346
 30
0.0
 11
54.769989
 21
283.518346
 31
0.0
  0
LINE
  5
B312
330
B1F3
100
AcDbEntity
  8
1
  6
Continuous
100
AcDbLine
 10
50.648669
 20
281.393346
 30
0.0
 11
52.64866899999999
 21
283.518346
 31
0.0
  0
LINE
  5
B313
330
B1F3
100
AcDbEntity
  8
1
  6
Continuous
100
AcDbLine
 10
48.527349
 20
281.393346
 30
0.0
 11
50.527349
 21
283.518346
 31
0.0
  0
LINE
  5
B314
330
B1F3
100
AcDbEntity
  8
1
  6
Continuous
100
AcDbLine
 10
46.40602799999999
 20
281.393346
 30
0.0
 11
48.406028
 21
283.518346
 31
0.0
  0
LINE
  5
B315
330
B1F3
100
AcDbEntity
  8
1
  6
Continuous
100
AcDbLine
 10
76.69029999999998
 20
281.393346
 30
0.0
 11
74.69029999999998
 21
283.518346
 31
0.0
  0
LINE
  5
B316
330
B1F3
100
AcDbEntity
  8
1
  6
Continuous
100
AcDbLine
 10
73.86187199999998
 20
281.393346
 30
0.0
 11
71.86187199999998
 21
283.518346
 31
0.0
  0
LINE
  5
B317
330
B1F3
100
AcDbEntity
  8
1
  6
Continuous
100
AcDbLine
 10
71.033445
 20
281.393346
 30
0.0
 11
69.033445
 21
283.518346
 31
0.0
  0
LINE
  5
B318
330
B1F3
100
AcDbEntity
  8
1
  6
Continuous
100
AcDbLine
 10
68.20501800000001
 20
281.393346
 30
0.0
 11
66.20501800000001
 21
283.518346
 31
0.0
  0
LINE
  5
B319
330
B1F3
100
AcDbEntity
  8
1
  6
Continuous
100
AcDbLine
 10
65.376591
 20
281.393346
 30
0.0
 11
63.37659099999999
 21
283.518346
 31
0.0
  0
LINE
  5
B31A
330
B1F3
100
AcDbEntity
  8
1
  6
Continuous
100
AcDbLine
 10
76.10451299999998
 20
281.393346
 30
0.0
 11
78.10451299999998
 21
283.518346
 31
0.0
  0
LINE
  5
B31B
330
B1F3
100
AcDbEntity
  8
1
  6
Continuous
100
AcDbLine
 10
73.983193
 20
281.393346
 30
0.0
 11
75.98319299999999
 21
283.518346
 31
0.0
  0
LINE
  5
B31C
330
B1F3
100
AcDbEntity
  8
1
  6
Continuous
100
AcDbLine
 10
71.86187199999998
 20
281.393346
 30
0.0
 11
73.86187199999998
 21
283.518346
 31
0.0
  0
LINE
  5
B31D
330
B1F3
100
AcDbEntity
  8
1
  6
Continuous
100
AcDbLine
 10
69.74055200000001
 20
281.393346
 30
0.0
 11
71.74055200000002
 21
283.518346
 31
0.0
  0
LINE
  5
B31E
330
B1F3
100
AcDbEntity
  8
1
  6
Continuous
100
AcDbLine
 10
67.619232
 20
281.393346
 30
0.0
 11
69.619232
 21
283.518346
 31
0.0
  0
LINE
  5
B31F
330
B1F3
100
AcDbEntity
  8
1
  6
Continuous
100
AcDbLine
 10
65.497911
 20
281.393346
 30
0.0
 11
67.497911
 21
283.518346
 31
0.0
  0
LINE
  5
B320
330
B1F3
100
AcDbEntity
  8
1
  6
Continuous
100
AcDbLine
 10
63.37659099999999
 20
281.393346
 30
0.0
 11
65.376591
 21
283.518346
 31
0.0
  0
ARC
  5
B321
330
B1F3
100
AcDbEntity
  8
1
  6
Continuous
100
AcDbCircle
 10
72.038775
 20
275.0643709999998
 30
0.0
 40
3.5
100
AcDbArc
 50
0.0
 51
90.0
  0
ARC
  5
B322
330
B1F3
100
AcDbEntity
  8
1
  6
Continuous
100
AcDbCircle
 10
72.038775
 20
275.0643709999998
 30
0.0
 40
0.9
100
AcDbArc
 50
0.0
 51
90.0
  0
LINE
  5
B323
330
B1F3
100
AcDbEntity
  8
1
  6
Continuous
100
AcDbLine
 10
82.347154
 20
281.393346
 30
0.0
 11
80.34715400000001
 21
283.518346
 31
0.0
  0
LINE
  5
B324
330
B1F3
100
AcDbEntity
  8
1
  6
Continuous
100
AcDbLine
 10
82.468474
 20
281.393346
 30
0.0
 11
83.80766599999999
 21
282.732537
 31
0.0
  0
LINE
  5
B325
330
B1F3
100
AcDbEntity
  8
1
  6
Continuous
100
AcDbLine
 10
80.34715400000001
 20
281.393346
 30
0.0
 11
82.347154
 21
283.518346
 31
0.0
  0
LINE
  5
B326
330
B1F3
100
AcDbEntity
  8
1
  6
Continuous
100
AcDbLine
 10
83.80766599999999
 20
283.518346
 30
0.0
 11
83.80766599999999
 21
281.393346
 31
0.0
  0
ARC
  5
B327
330
B1F3
100
AcDbEntity
  8
1
  6
Continuous
100
AcDbCircle
 10
81.34656600000003
 20
278.193357
 30
0.0
 40
3.2
100
AcDbArc
 50
0.0
 51
90.0
  0
ARC
  5
B328
330
B1F3
100
AcDbEntity
  8
1
  6
Continuous
100
AcDbCircle
 10
86.39413499999998
 20
292.853346
 30
0.0
 40
7.5
100
AcDbArc
 50
270.0
 51
327.528368
  0
ARC
  5
B329
330
B1F3
100
AcDbEntity
  8
1
  6
Continuous
100
AcDbCircle
 10
75.519954
 20
290.102182
 30
0.0
 40
9.0
100
AcDbArc
 50
312.9845629999999
 51
328.1532869999999
  0
LINE
  5
B32A
330
B1F3
100
AcDbEntity
  8
1
  6
Continuous
100
AcDbLine
 10
83.80766599999999
 20
282.761261
 30
0.0
 11
83.17558099999997
 21
283.518346
 31
0.0
  0
LINE
  5
B32B
330
B1F3
100
AcDbEntity
  8
1
  6
Continuous
100
AcDbLine
 10
94.621566
 20
291.726346
 30
0.0
 11
94.621566
 21
288.8267309999998
 31
0.0
  0
LINE
  5
B32C
330
B1F3
100
AcDbEntity
  8
1
  6
Continuous
100
AcDbLine
 10
47.521566
 20
268.5106059999998
 30
0.0
 11
47.82569099999999
 21
268.5106059999998
 31
0.0
  0
LINE
  5
B32D
330
B1F3
100
AcDbEntity
  8
1
  6
Continuous
100
AcDbLine
 10
47.521566
 20
268.5106059999998
 30
0.0
 11
47.521566
 21
270.5106059999998
 31
0.0
  0
LINE
  5
B32E
330
B1F3
100
AcDbEntity
  8
1
  6
Continuous
100
AcDbLine
 10
66.721566
 20
268.5106059999998
 30
0.0
 11
66.41744
 21
268.5106059999998
 31
0.0
  0
LINE
  5
B32F
330
B1F3
100
AcDbEntity
  8
1
  6
Continuous
100
AcDbLine
 10
61.221566
 20
270.110606
 30
0.0
 11
63.66104100000001
 21
268.619816
 31
0.0
  0
LINE
  5
B330
330
B1F3
100
AcDbEntity
  8
1
  6
Continuous
100
AcDbLine
 10
61.221566
 20
270.110606
 30
0.0
 11
60.458024
 21
269.0607359999999
 31
0.0
  0
LINE
  5
B331
330
B1F3
100
AcDbEntity
  8
1
  6
Continuous
100
AcDbLine
 10
66.721566
 20
268.5106059999998
 30
0.0
 11
66.721566
 21
270.5106059999998
 31
0.0
  0
LINE
  5
B332
330
B1F3
100
AcDbEntity
  8
1
  6
Continuous
100
AcDbLine
 10
53.02156599999999
 20
270.110606
 30
0.0
 11
50.582091
 21
268.619816
 31
0.0
  0
LINE
  5
B333
330
B1F3
100
AcDbEntity
  8
1
  6
Continuous
100
AcDbLine
 10
53.02156599999999
 20
270.110606
 30
0.0
 11
53.78510699999999
 21
269.0607359999999
 31
0.0
  0
LINE
  5
B334
330
B1F3
100
AcDbEntity
  8
1
  6
Continuous
100
AcDbLine
 10
71.316565
 20
270.5106059999998
 30
0.0
 11
42.92656599999999
 21
270.5106059999998
 31
0.0
  0
ARC
  5
B335
330
B1F3
100
AcDbEntity
  8
1
  6
Continuous
100
AcDbCircle
 10
71.641402
 20
274.5652119999999
 30
0.0
 40
4.031502999999998
100
AcDbArc
 50
278.1363819999999
 51
287.7668209999999
  0
ARC
  5
B336
330
B1F3
100
AcDbEntity
  8
1
  6
Continuous
100
AcDbCircle
 10
71.316565
 20
276.8372949999999
 30
0.0
 40
6.326689
100
AcDbArc
 50
270.0
 51
278.1363819999999
  0
LINE
  5
B337
330
B1F3
100
AcDbEntity
  8
1
  6
Continuous
100
AcDbLine
 10
72.938775
 20
273.7506629999999
 30
0.0
 11
41.30434
 21
273.7506629999999
 31
0.0
  0
LINE
  5
B338
330
B1F3
100
AcDbEntity
  8
1
  6
Continuous
100
AcDbLine
 10
72.938775
 20
274.960097
 30
0.0
 11
41.30434
 21
274.960097
 31
0.0
  0
ARC
  5
B339
330
B1F3
100
AcDbEntity
  8
1
  6
Continuous
100
AcDbCircle
 10
42.60172899999999
 20
274.5652119999999
 30
0.0
 40
4.031502999999998
100
AcDbArc
 50
252.2331789999999
 51
261.8636179999999
  0
ARC
  5
B33A
330
B1F3
100
AcDbEntity
  8
1
  6
Continuous
100
AcDbCircle
 10
42.92656599999999
 20
276.8372949999999
 30
0.0
 40
6.326689
100
AcDbArc
 50
261.8636179999999
 51
270.0
  0
LINE
  5
B33B
330
B1F3
100
AcDbEntity
  8
1
  6
Continuous
100
AcDbLine
 10
71.91403000000002
 20
274.960097
 30
0.0
 11
70.909756
 21
275.9643709999999
 31
0.0
  0
LINE
  5
B33C
330
B1F3
100
AcDbEntity
  8
1
  6
Continuous
100
AcDbLine
 10
49.286613
 20
274.960097
 30
0.0
 11
48.282339
 21
275.9643709999999
 31
0.0
  0
LINE
  5
B33D
330
B1F3
100
AcDbEntity
  8
1
  6
Continuous
100
AcDbLine
 10
48.69227999999999
 20
274.960097
 30
0.0
 11
49.696553
 21
275.9643709999999
 31
0.0
  0
LINE
  5
B33E
330
B1F3
100
AcDbEntity
  8
1
  6
Continuous
100
AcDbLine
 10
43.03542499999998
 20
274.960097
 30
0.0
 11
44.03969899999998
 21
275.9643709999999
 31
0.0
  0
LINE
  5
B33F
330
B1F3
100
AcDbEntity
  8
1
  6
Continuous
100
AcDbLine
 10
41.560075
 20
275.615567
 30
0.0
 11
42.21554499999998
 21
274.960097
 31
0.0
  0
LINE
  5
B340
330
B1F3
100
AcDbEntity
  8
1
  6
Continuous
100
AcDbLine
 10
43.629758
 20
274.960097
 30
0.0
 11
42.625485
 21
275.9643709999999
 31
0.0
  0
LINE
  5
B341
330
B1F3
100
AcDbEntity
  8
1
  6
Continuous
100
AcDbLine
 10
41.621212
 20
274.960097
 30
0.0
 11
42.625485
 21
275.9643709999999
 31
0.0
  0
LINE
  5
B342
330
B1F3
100
AcDbEntity
  8
1
  6
Continuous
100
AcDbLine
 10
47.278066
 20
274.960097
 30
0.0
 11
48.282339
 21
275.9643709999999
 31
0.0
  0
LINE
  5
B343
330
B1F3
100
AcDbEntity
  8
1
  6
Continuous
100
AcDbLine
 10
45.04397199999998
 20
274.960097
 30
0.0
 11
44.03969899999998
 21
275.9643709999999
 31
0.0
  0
LINE
  5
B344
330
B1F3
100
AcDbEntity
  8
1
  6
Continuous
100
AcDbLine
 10
46.458186
 20
274.960097
 30
0.0
 11
45.453912
 21
275.9643709999999
 31
0.0
  0
LINE
  5
B345
330
B1F3
100
AcDbEntity
  8
1
  6
Continuous
100
AcDbLine
 10
47.872399
 20
274.960097
 30
0.0
 11
46.86812599999998
 21
275.9643709999999
 31
0.0
  0
LINE
  5
B346
330
B1F3
100
AcDbEntity
  8
1
  6
Continuous
100
AcDbLine
 10
44.449639
 20
274.960097
 30
0.0
 11
45.453912
 21
275.9643709999999
 31
0.0
  0
LINE
  5
B347
330
B1F3
100
AcDbEntity
  8
1
  6
Continuous
100
AcDbLine
 10
45.86385299999998
 20
274.960097
 30
0.0
 11
46.86812599999998
 21
275.9643709999999
 31
0.0
  0
LINE
  5
B348
330
B1F3
100
AcDbEntity
  8
1
  6
Continuous
100
AcDbLine
 10
69.08560300000001
 20
274.960097
 30
0.0
 11
68.081329
 21
275.9643709999999
 31
0.0
  0
LINE
  5
B349
330
B1F3
100
AcDbEntity
  8
1
  6
Continuous
100
AcDbLine
 10
68.49127
 20
274.960097
 30
0.0
 11
69.49554300000001
 21
275.9643709999999
 31
0.0
  0
LINE
  5
B34A
330
B1F3
100
AcDbEntity
  8
1
  6
Continuous
100
AcDbLine
 10
60.60032099999999
 20
274.960097
 30
0.0
 11
59.59604800000001
 21
275.9643709999999
 31
0.0
  0
LINE
  5
B34B
330
B1F3
100
AcDbEntity
  8
1
  6
Continuous
100
AcDbLine
 10
60.005988
 20
274.960097
 30
0.0
 11
61.010261
 21
275.9643709999999
 31
0.0
  0
LINE
  5
B34C
330
B1F3
100
AcDbEntity
  8
1
  6
Continuous
100
AcDbLine
 10
59.18610799999999
 20
274.960097
 30
0.0
 11
58.18183399999998
 21
275.9643709999999
 31
0.0
  0
LINE
  5
B34D
330
B1F3
100
AcDbEntity
  8
1
  6
Continuous
100
AcDbLine
 10
58.591775
 20
274.960097
 30
0.0
 11
59.59604800000001
 21
275.9643709999999
 31
0.0
  0
LINE
  5
B34E
330
B1F3
100
AcDbEntity
  8
1
  6
Continuous
100
AcDbLine
 10
64.842962
 20
274.960097
 30
0.0
 11
63.838689
 21
275.9643709999999
 31
0.0
  0
LINE
  5
B34F
330
B1F3
100
AcDbEntity
  8
1
  6
Continuous
100
AcDbLine
 10
64.24862899999999
 20
274.960097
 30
0.0
 11
65.252902
 21
275.9643709999999
 31
0.0
  0
LINE
  5
B350
330
B1F3
100
AcDbEntity
  8
1
  6
Continuous
100
AcDbLine
 10
63.428748
 20
274.960097
 30
0.0
 11
62.424475
 21
275.9643709999999
 31
0.0
  0
LINE
  5
B351
330
B1F3
100
AcDbEntity
  8
1
  6
Continuous
100
AcDbLine
 10
62.01453499999999
 20
274.960097
 30
0.0
 11
61.010261
 21
275.9643709999999
 31
0.0
  0
LINE
  5
B352
330
B1F3
100
AcDbEntity
  8
1
  6
Continuous
100
AcDbLine
 10
62.834415
 20
274.960097
 30
0.0
 11
63.838689
 21
275.9643709999999
 31
0.0
  0
LINE
  5
B353
330
B1F3
100
AcDbEntity
  8
1
  6
Continuous
100
AcDbLine
 10
61.42020200000001
 20
274.960097
 30
0.0
 11
62.424475
 21
275.9643709999999
 31
0.0
  0
LINE
  5
B354
330
B1F3
100
AcDbEntity
  8
1
  6
Continuous
100
AcDbLine
 10
67.671389
 20
274.960097
 30
0.0
 11
66.66711600000001
 21
275.9643709999999
 31
0.0
  0
LINE
  5
B355
330
B1F3
100
AcDbEntity
  8
1
  6
Continuous
100
AcDbLine
 10
66.257175
 20
274.960097
 30
0.0
 11
65.252902
 21
275.9643709999999
 31
0.0
  0
LINE
  5
B356
330
B1F3
100
AcDbEntity
  8
1
  6
Continuous
100
AcDbLine
 10
67.077056
 20
274.960097
 30
0.0
 11
68.081329
 21
275.9643709999999
 31
0.0
  0
LINE
  5
B357
330
B1F3
100
AcDbEntity
  8
1
  6
Continuous
100
AcDbLine
 10
65.662842
 20
274.960097
 30
0.0
 11
66.66711600000001
 21
275.9643709999999
 31
0.0
  0
LINE
  5
B358
330
B1F3
100
AcDbEntity
  8
1
  6
Continuous
100
AcDbLine
 10
70.49981600000002
 20
274.960097
 30
0.0
 11
69.49554300000001
 21
275.9643709999999
 31
0.0
  0
LINE
  5
B359
330
B1F3
100
AcDbEntity
  8
1
  6
Continuous
100
AcDbLine
 10
69.90548299999999
 20
274.960097
 30
0.0
 11
70.909756
 21
275.9643709999999
 31
0.0
  0
LINE
  5
B35A
330
B1F3
100
AcDbEntity
  8
1
  6
Continuous
100
AcDbLine
 10
52.11504
 20
274.960097
 30
0.0
 11
51.11076699999999
 21
275.9643709999999
 31
0.0
  0
LINE
  5
B35B
330
B1F3
100
AcDbEntity
  8
1
  6
Continuous
100
AcDbLine
 10
51.520707
 20
274.960097
 30
0.0
 11
52.52498
 21
275.9643709999999
 31
0.0
  0
LINE
  5
B35C
330
B1F3
100
AcDbEntity
  8
1
  6
Continuous
100
AcDbLine
 10
50.700826
 20
274.960097
 30
0.0
 11
49.696553
 21
275.9643709999999
 31
0.0
  0
LINE
  5
B35D
330
B1F3
100
AcDbEntity
  8
1
  6
Continuous
100
AcDbLine
 10
50.106493
 20
274.960097
 30
0.0
 11
51.11076699999999
 21
275.9643709999999
 31
0.0
  0
LINE
  5
B35E
330
B1F3
100
AcDbEntity
  8
1
  6
Continuous
100
AcDbLine
 10
56.35768
 20
274.960097
 30
0.0
 11
55.35340699999999
 21
275.9643709999999
 31
0.0
  0
LINE
  5
B35F
330
B1F3
100
AcDbEntity
  8
1
  6
Continuous
100
AcDbLine
 10
55.763347
 20
274.960097
 30
0.0
 11
56.767621
 21
275.9643709999999
 31
0.0
  0
LINE
  5
B360
330
B1F3
100
AcDbEntity
  8
1
  6
Continuous
100
AcDbLine
 10
54.94346700000001
 20
274.960097
 30
0.0
 11
53.93919399999999
 21
275.9643709999999
 31
0.0
  0
LINE
  5
B361
330
B1F3
100
AcDbEntity
  8
1
  6
Continuous
100
AcDbLine
 10
53.52925299999998
 20
274.960097
 30
0.0
 11
52.52498
 21
275.9643709999999
 31
0.0
  0
LINE
  5
B362
330
B1F3
100
AcDbEntity
  8
1
  6
Continuous
100
AcDbLine
 10
54.349134
 20
274.960097
 30
0.0
 11
55.35340699999999
 21
275.9643709999999
 31
0.0
  0
LINE
  5
B363
330
B1F3
100
AcDbEntity
  8
1
  6
Continuous
100
AcDbLine
 10
52.93492
 20
274.960097
 30
0.0
 11
53.93919399999999
 21
275.9643709999999
 31
0.0
  0
LINE
  5
B364
330
B1F3
100
AcDbEntity
  8
1
  6
Continuous
100
AcDbLine
 10
57.77189400000001
 20
274.960097
 30
0.0
 11
56.767621
 21
275.9643709999999
 31
0.0
  0
LINE
  5
B365
330
B1F3
100
AcDbEntity
  8
1
  6
Continuous
100
AcDbLine
 10
57.17756099999999
 20
274.960097
 30
0.0
 11
58.18183399999998
 21
275.9643709999999
 31
0.0
  0
LINE
  5
B366
330
B1F3
100
AcDbEntity
  8
1
  6
Continuous
100
AcDbLine
 10
72.484261
 20
275.8040789999999
 30
0.0
 11
72.71129999999998
 21
275.577041
 31
0.0
  0
LINE
  5
B367
330
B1F3
100
AcDbEntity
  8
1
  6
Continuous
100
AcDbLine
 10
71.31969699999998
 20
274.960097
 30
0.0
 11
72.272261
 21
275.912661
 31
0.0
  0
LINE
  5
B368
330
B1F3
100
AcDbEntity
  8
1
  6
Continuous
100
AcDbLine
 10
72.73390999999998
 20
274.960097
 30
0.0
 11
72.870993
 21
275.0971799999999
 31
0.0
  0
LINE
  5
B369
330
B1F3
100
AcDbEntity
  8
1
  6
Continuous
100
AcDbLine
 10
82.53877499999999
 20
222.726756
 30
0.0
 11
83.32784000000001
 21
222.726756
 31
0.0
  0
LINE
  5
B36A
330
B1F3
100
AcDbEntity
  8
1
  6
Continuous
100
AcDbLine
 10
82.53877499999999
 20
214.7267559999999
 30
0.0
 11
83.33877499999998
 21
214.7267559999999
 31
0.0
  0
LINE
  5
B36B
330
B1F3
100
AcDbEntity
  8
2
  6
Continuous
100
AcDbLine
 10
82.53877499999999
 20
222.0502559999999
 30
0.0
 11
84.00434
 21
222.0502559999999
 31
0.0
  0
LINE
  5
B36C
330
B1F3
100
AcDbEntity
  8
2
  6
Continuous
100
AcDbLine
 10
82.53877499999999
 20
215.403256
 30
0.0
 11
84.00434
 21
215.403256
 31
0.0
  0
LINE
  5
B36D
330
B1F3
100
AcDbEntity
  8
1
  6
Continuous
100
AcDbLine
 10
83.32784000000001
 20
222.726756
 30
0.0
 11
84.00434
 21
222.0502559999999
 31
0.0
  0
LINE
  5
B36E
330
B1F3
100
AcDbEntity
  8
1
  6
Continuous
100
AcDbLine
 10
84.00434
 20
215.392321
 30
0.0
 11
83.33877499999998
 21
214.7267559999999
 31
0.0
  0
LINE
  5
B36F
330
B1F3
100
AcDbEntity
  8
1
  6
Continuous
100
AcDbLine
 10
82.53877499999999
 20
224.726756
 30
0.0
 11
82.53877499999999
 21
212.7267559999999
 31
0.0
  0
ARC
  5
B370
330
B1F3
100
AcDbEntity
  8
1
  6
Continuous
100
AcDbCircle
 10
71.074673
 20
218.7267559999999
 30
0.0
 40
11.464102
100
AcDbArc
 50
342.4120459999999
 51
17.587954
  0
ARC
  5
B371
330
B1F3
100
AcDbEntity
  8
1
  6
Continuous
100
AcDbCircle
 10
89.002876
 20
218.7267559999999
 30
0.0
 40
11.464102
100
AcDbArc
 50
162.412046
 51
197.5879539999999
  0
LINE
  5
B372
330
B1F3
100
AcDbEntity
  8
1
  6
Continuous
100
AcDbLine
 10
82.00287600000001
 20
211.7985529999999
 30
0.0
 11
82.53877499999999
 21
212.7267559999999
 31
0.0
  0
LINE
  5
B373
330
B1F3
100
AcDbEntity
  8
1
  6
Continuous
100
AcDbLine
 10
78.074673
 20
211.7985529999999
 30
0.0
 11
77.538775
 21
212.7267559999999
 31
0.0
  0
LINE
  5
B374
330
B1F3
100
AcDbEntity
  8
1
  6
Continuous
100
AcDbLine
 10
78.074673
 20
211.7985529999999
 30
0.0
 11
82.00287600000001
 21
211.7985529999999
 31
0.0
  0
LINE
  5
B375
330
B1F3
100
AcDbEntity
  8
1
  6
Continuous
100
AcDbLine
 10
78.074673
 20
215.2626549999999
 30
0.0
 11
82.00287600000001
 21
215.2626549999999
 31
0.0
  0
ARC
  5
B376
330
B1F3
100
AcDbEntity
  8
1
  6
Continuous
100
AcDbCircle
 10
80.60576199999998
 20
213.530604
 30
0.0
 40
3.066986999999998
100
AcDbArc
 50
145.615753
 51
205.615753
  0
ARC
  5
B377
330
B1F3
100
AcDbEntity
  8
1
  6
Continuous
100
AcDbCircle
 10
79.47178700000002
 20
213.530604
 30
0.0
 40
3.066986999999998
100
AcDbArc
 50
334.384247
 51
34.38424699999998
  0
ARC
  5
B378
330
B1F3
100
AcDbEntity
  8
1
  6
Continuous
100
AcDbCircle
 10
79.47178700000002
 20
223.9229089999998
 30
0.0
 40
3.066986999999998
100
AcDbArc
 50
325.6157529999999
 51
25.615753
  0
ARC
  5
B379
330
B1F3
100
AcDbEntity
  8
1
  6
Continuous
100
AcDbCircle
 10
80.60576199999998
 20
223.9229089999998
 30
0.0
 40
3.066986999999998
100
AcDbArc
 50
154.3842469999999
 51
214.384247
  0
LINE
  5
B37A
330
B1F3
100
AcDbEntity
  8
1
  6
Continuous
100
AcDbLine
 10
78.074673
 20
222.190858
 30
0.0
 11
82.00287600000001
 21
222.190858
 31
0.0
  0
LINE
  5
B37B
330
B1F3
100
AcDbEntity
  8
1
  6
Continuous
100
AcDbLine
 10
78.074673
 20
225.65496
 30
0.0
 11
82.00287600000001
 21
225.65496
 31
0.0
  0
LINE
  5
B37C
330
B1F3
100
AcDbEntity
  8
1
  6
Continuous
100
AcDbLine
 10
78.074673
 20
225.65496
 30
0.0
 11
77.538775
 21
224.726756
 31
0.0
  0
LINE
  5
B37D
330
B1F3
100
AcDbEntity
  8
1
  6
Continuous
100
AcDbLine
 10
82.00287600000001
 20
225.65496
 30
0.0
 11
82.53877499999999
 21
224.726756
 31
0.0
  0
LINE
  5
B37E
330
B1F3
100
AcDbEntity
  8
1
  6
Continuous
100
AcDbLine
 10
77.538775
 20
220.726756
 30
0.0
 11
75.538775
 21
218.7267559999999
 31
0.0
  0
LINE
  5
B37F
330
B1F3
100
AcDbEntity
  8
1
  6
Continuous
100
AcDbLine
 10
77.538775
 20
218.7267559999999
 30
0.0
 11
75.538775
 21
216.7267559999999
 31
0.0
  0
LINE
  5
B380
330
B1F3
100
AcDbEntity
  8
4
  6
CENTER
100
AcDbLine
 10
184.586035
 20
283.826722
 30
0.0
 11
184.586035
 21
296.7263369999999
 31
0.0
  0
LINE
  5
B381
330
B1F3
100
AcDbEntity
  8
4
  6
CENTER
100
AcDbLine
 10
264.5860349999999
 20
283.826722
 30
0.0
 11
264.5860349999999
 21
296.7263369999999
 31
0.0
  0
LINE
  5
B382
330
B1F3
100
AcDbEntity
  8
4
  6
CENTER
100
AcDbLine
 10
330.5090599999999
 20
296.7263369999999
 30
0.0
 11
330.5090599999999
 21
283.826722
 31
0.0
  0
LINE
  5
B383
330
B1F3
100
AcDbEntity
  8
4
  6
CENTER
100
AcDbLine
 10
386.5090599999999
 20
296.7263369999999
 30
0.0
 11
386.5090599999999
 21
283.826722
 31
0.0
  0
LINE
  5
B384
330
B1F3
100
AcDbEntity
  8
4
  6
CENTER
100
AcDbLine
 10
85.121566
 20
296.7263459999998
 30
0.0
 11
85.121566
 21
283.8267309999998
 31
0.0
  0
LINE
  5
B385
330
B1F3
100
AcDbEntity
  8
4
  6
CENTER
100
AcDbLine
 10
29.12156599999999
 20
296.7263459999998
 30
0.0
 11
29.12156599999999
 21
283.8267309999998
 31
0.0
  0
ARC
  5
B386
330
B1F3
100
AcDbEntity
  8
1
  6
Continuous
100
AcDbCircle
 10
150.31378
 20
291.5450149999998
 30
0.0
 40
95.157
100
AcDbArc
 50
299.4272049999999
 51
346.3948139999998
  0
ARC
  5
B387
330
B1F3
100
AcDbEntity
  8
1
  6
Continuous
100
AcDbCircle
 10
123.324982
 20
267.0195019999998
 30
0.0
 40
72.67100000000002
100
AcDbArc
 50
324.5269859999999
 51
359.3096679999999
  0
LINE
  5
B388
330
B1F3
100
AcDbEntity
  8
1
  6
Continuous
100
AcDbLine
 10
252.0110349999999
 20
271.52734
 30
0.0
 11
252.0110349999999
 21
278.730657
 31
0.0
  0
LINE
  5
B389
330
B1F3
100
AcDbEntity
  8
1
  6
Continuous
100
AcDbLine
 10
250.507768
 20
271.4269239999999
 30
0.0
 11
252.0110349999999
 21
271.52734
 31
0.0
  0
LINE
  5
B38A
330
B1F3
100
AcDbEntity
  8
1
  6
Continuous
100
AcDbLine
 10
185.5864479999999
 20
222.190644
 30
0.0
 11
185.5864479999999
 21
215.262441
 31
0.0
  0
LINE
  5
B38B
330
B1F3
100
AcDbEntity
  8
1
  6
Continuous
100
AcDbLine
 10
197.586448
 20
222.190644
 30
0.0
 11
197.586448
 21
215.262441
 31
0.0
  0
CIRCLE
  5
B38C
330
B1F3
100
AcDbEntity
  8
1
  6
Continuous
100
AcDbCircle
 10
191.5864479999999
 20
218.726543
 30
0.0
 40
6.0
  0
LINE
  5
B38D
330
B1F3
100
AcDbEntity
  8
1
  6
Continuous
100
AcDbLine
 10
191.5864479999999
 20
211.798339
 30
0.0
 11
197.586448
 21
215.262441
 31
0.0
  0
LINE
  5
B38E
330
B1F3
100
AcDbEntity
  8
1
  6
Continuous
100
AcDbLine
 10
191.5864479999999
 20
211.798339
 30
0.0
 11
185.5864479999999
 21
215.262441
 31
0.0
  0
LINE
  5
B38F
330
B1F3
100
AcDbEntity
  8
1
  6
Continuous
100
AcDbLine
 10
197.586448
 20
222.190644
 30
0.0
 11
191.5864479999999
 21
225.6547459999999
 31
0.0
  0
LINE
  5
B390
330
B1F3
100
AcDbEntity
  8
1
  6
Continuous
100
AcDbLine
 10
185.5864479999999
 20
222.190644
 30
0.0
 11
191.5864479999999
 21
225.6547459999999
 31
0.0
  0
CIRCLE
  5
B391
330
B1F3
100
AcDbEntity
  8
1
  6
Continuous
100
AcDbCircle
 10
191.5864479999999
 20
218.726543
 30
0.0
 40
4.0
  0
CIRCLE
  5
B392
330
B1F3
100
AcDbEntity
  8
2
  6
Continuous
100
AcDbCircle
 10
191.5864479999999
 20
218.726543
 30
0.0
 40
3.3235
  0
CIRCLE
  5
B393
330
B1F3
100
AcDbEntity
  8
1
  6
Continuous
100
AcDbCircle
 10
191.5864479999999
 20
218.726543
 30
0.0
 40
7.5
  0
LINE
  5
B394
330
B1F3
100
AcDbEntity
  8
4
  6
CENTER
100
AcDbLine
 10
279.0860349999999
 20
84.274845
 30
0.0
 11
136.586035
 21
84.274845
 31
0.0
  0
LINE
  5
B395
330
B1F3
100
AcDbEntity
  8
1
  6
Continuous
100
AcDbLine
 10
266.5860349999999
 20
46.774845
 30
0.0
 11
182.586035
 21
46.774845
 31
0.0
  0
LINE
  5
B396
330
B1F3
100
AcDbEntity
  8
1
  6
Continuous
100
AcDbLine
 10
266.5860349999999
 20
121.7748449999999
 30
0.0
 11
182.586035
 21
121.7748449999999
 31
0.0
  0
LINE
  5
B397
330
B1F3
100
AcDbEntity
  8
1
  6
Continuous
100
AcDbLine
 10
175.086035
 20
114.274845
 30
0.0
 11
175.086035
 21
97.77484499999999
 31
0.0
  0
LINE
  5
B398
330
B1F3
100
AcDbEntity
  8
4
  6
CENTER
100
AcDbLine
 10
190.463829
 20
112.274845
 30
0.0
 11
178.6615369999999
 21
112.274845
 31
0.0
  0
ARC
  5
B399
330
B1F3
100
AcDbEntity
  8
1
  6
Continuous
100
AcDbCircle
 10
184.586035
 20
112.274845
 30
0.0
 40
4.25
100
AcDbArc
 50
344.7591759999999
 51
283.6089609999999
  0
ARC
  5
B39A
330
B1F3
100
AcDbEntity
  8
1
  6
Continuous
100
AcDbCircle
 10
182.586035
 20
114.274845
 30
0.0
 40
7.5
100
AcDbArc
 50
90.0
 51
180.0
  0
LINE
  5
B39B
330
B1F3
100
AcDbEntity
  8
4
  6
CENTER
100
AcDbLine
 10
184.586035
 20
120.1446989999999
 30
0.0
 11
184.586035
 21
105.784557
 31
0.0
  0
LINE
  5
B39C
330
B1F3
100
AcDbEntity
  8
4
  6
CENTER
100
AcDbLine
 10
191.836035
 20
56.27484499999999
 30
0.0
 11
177.336035
 21
56.27484499999999
 31
0.0
  0
CIRCLE
  5
B39D
330
B1F3
100
AcDbEntity
  8
1
  6
Continuous
100
AcDbCircle
 10
184.586035
 20
56.27484499999999
 30
0.0
 40
4.25
  0
ARC
  5
B39E
330
B1F3
100
AcDbEntity
  8
1
  6
Continuous
100
AcDbCircle
 10
182.586035
 20
54.27484499999999
 30
0.0
 40
7.5
100
AcDbArc
 50
180.0
 51
270.0
  0
LINE
  5
B39F
330
B1F3
100
AcDbEntity
  8
4
  6
CENTER
100
AcDbLine
 10
184.586035
 20
63.52484499999999
 30
0.0
 11
184.586035
 21
49.02484499999999
 31
0.0
  0
LINE
  5
B3A0
330
B1F3
100
AcDbEntity
  8
1
  6
Continuous
100
AcDbLine
 10
274.0860349999999
 20
114.274845
 30
0.0
 11
274.0860349999999
 21
54.27484499999999
 31
0.0
  0
LINE
  5
B3A1
330
B1F3
100
AcDbEntity
  8
4
  6
CENTER
100
AcDbLine
 10
224.586035
 20
126.774845
 30
0.0
 11
224.586035
 21
41.774845
 31
0.0
  0
CIRCLE
  5
B3A2
330
B1F3
100
AcDbEntity
  8
1
  6
Continuous
100
AcDbCircle
 10
264.5860349999999
 20
112.274845
 30
0.0
 40
4.25
  0
ARC
  5
B3A3
330
B1F3
100
AcDbEntity
  8
1
  6
Continuous
100
AcDbCircle
 10
266.5860349999999
 20
114.274845
 30
0.0
 40
7.5
100
AcDbArc
 50
0.0
 51
90.0
  0
LINE
  5
B3A4
330
B1F3
100
AcDbEntity
  8
4
  6
CENTER
100
AcDbLine
 10
271.8360349999999
 20
112.274845
 30
0.0
 11
257.3360349999999
 21
112.274845
 31
0.0
  0
LINE
  5
B3A5
330
B1F3
100
AcDbEntity
  8
4
  6
CENTER
100
AcDbLine
 10
264.5860349999999
 20
119.524845
 30
0.0
 11
264.5860349999999
 21
105.024845
 31
0.0
  0
CIRCLE
  5
B3A6
330
B1F3
100
AcDbEntity
  8
1
  6
Continuous
100
AcDbCircle
 10
264.5860349999999
 20
56.27484499999999
 30
0.0
 40
4.25
  0
ARC
  5
B3A7
330
B1F3
100
AcDbEntity
  8
1
  6
Continuous
100
AcDbCircle
 10
266.5860349999999
 20
54.27484499999999
 30
0.0
 40
7.5
100
AcDbArc
 50
270.0
 51
0.0
  0
LINE
  5
B3A8
330
B1F3
100
AcDbEntity
  8
4
  6
CENTER
100
AcDbLine
 10
271.8360349999999
 20
56.27484499999999
 30
0.0
 11
257.3360349999999
 21
56.27484499999999
 31
0.0
  0
LINE
  5
B3A9
330
B1F3
100
AcDbEntity
  8
4
  6
CENTER
100
AcDbLine
 10
264.5860349999999
 20
63.52484499999999
 30
0.0
 11
264.5860349999999
 21
49.02484499999999
 31
0.0
  0
LINE
  5
B3AA
330
B1F3
100
AcDbEntity
  8
1
  6
Continuous
100
AcDbLine
 10
362.6090609999998
 20
270.1105969999999
 30
0.0
 11
365.227242
 21
268.510597
 31
0.0
  0
LINE
  5
B3AB
330
B1F3
100
AcDbEntity
  8
1
  6
Continuous
100
AcDbLine
 10
362.6090609999998
 20
270.1105969999999
 30
0.0
 11
361.8455189999999
 21
269.060727
 31
0.0
  0
LINE
  5
B3AC
330
B1F3
100
AcDbEntity
  8
1
  6
Continuous
100
AcDbLine
 10
368.109061
 20
268.510597
 30
0.0
 11
368.109061
 21
270.510597
 31
0.0
  0
LINE
  5
B3AD
330
B1F3
100
AcDbEntity
  8
1
  6
Continuous
100
AcDbLine
 10
348.909061
 20
268.510597
 30
0.0
 11
348.909061
 21
270.510597
 31
0.0
  0
LINE
  5
B3AE
330
B1F3
100
AcDbEntity
  8
1
  6
Continuous
100
AcDbLine
 10
354.409061
 20
270.1105969999999
 30
0.0
 11
351.790879
 21
268.510597
 31
0.0
  0
LINE
  5
B3AF
330
B1F3
100
AcDbEntity
  8
1
  6
Continuous
100
AcDbLine
 10
354.409061
 20
270.1105969999999
 30
0.0
 11
355.1726019999999
 21
269.060727
 31
0.0
  0
LINE
  5
B3B0
330
B1F3
100
AcDbEntity
  8
1
  6
Continuous
100
AcDbLine
 10
348.909061
 20
268.510597
 30
0.0
 11
368.109061
 21
268.510597
 31
0.0
  0
LINE
  5
B3B1
330
B1F3
100
AcDbEntity
  8
1
  6
Continuous
100
AcDbLine
 10
369.0037029999999
 20
270.510597
 30
0.0
 11
348.014416
 21
270.510597
 31
0.0
  0
LINE
  5
B3B2
330
B1F3
100
AcDbEntity
  8
1
  6
Continuous
100
AcDbLine
 10
195.586035
 20
110.492054
 30
0.0
 11
187.586035
 21
110.492054
 31
0.0
  0
LINE
  5
B3B3
330
B1F3
100
AcDbEntity
  8
1
  6
Continuous
100
AcDbLine
 10
194.9204699999999
 20
111.157619
 30
0.0
 11
188.2625349999999
 21
111.157619
 31
0.0
  0
LINE
  5
B3B4
330
B1F3
100
AcDbEntity
  8
1
  6
Continuous
100
AcDbLine
 10
189.586035
 20
104.6920539999999
 30
0.0
 11
191.586035
 21
102.692054
 31
0.0
  0
LINE
  5
B3B5
330
B1F3
100
AcDbEntity
  8
1
  6
Continuous
100
AcDbLine
 10
191.586035
 20
104.6920539999999
 30
0.0
 11
193.586035
 21
102.692054
 31
0.0
  0
LINE
  5
B3B6
330
B1F3
100
AcDbEntity
  8
1
  6
Continuous
100
AcDbLine
 10
199.086035
 20
104.6920539999999
 30
0.0
 11
184.0860349999999
 21
104.6920539999999
 31
0.0
  0
LINE
  5
B3B7
330
B1F3
100
AcDbEntity
  8
1
  6
Continuous
100
AcDbLine
 10
199.086035
 20
102.692054
 30
0.0
 11
199.086035
 21
104.6920539999999
 31
0.0
  0
LINE
  5
B3B8
330
B1F3
100
AcDbEntity
  8
1
  6
Continuous
100
AcDbLine
 10
194.9204699999999
 20
111.157619
 30
0.0
 11
195.586035
 21
110.492054
 31
0.0
  0
LINE
  5
B3B9
330
B1F3
100
AcDbEntity
  8
2
  6
Continuous
100
AcDbLine
 10
194.909535
 20
109.6920539999999
 30
0.0
 11
194.909535
 21
111.157619
 31
0.0
  0
LINE
  5
B3BA
330
B1F3
100
AcDbEntity
  8
1
  6
Continuous
100
AcDbLine
 10
195.586035
 20
109.6920539999999
 30
0.0
 11
195.586035
 21
110.492054
 31
0.0
  0
LINE
  5
B3BB
330
B1F3
100
AcDbEntity
  8
1
  6
Continuous
100
AcDbLine
 10
184.0860349999999
 20
102.692054
 30
0.0
 11
184.0860349999999
 21
104.6920539999999
 31
0.0
  0
LINE
  5
B3BC
330
B1F3
100
AcDbEntity
  8
1
  6
Continuous
100
AcDbLine
 10
187.586035
 20
110.4811189999998
 30
0.0
 11
188.2625349999999
 21
111.157619
 31
0.0
  0
LINE
  5
B3BD
330
B1F3
100
AcDbEntity
  8
2
  6
Continuous
100
AcDbLine
 10
188.2625349999999
 20
109.6920539999999
 30
0.0
 11
188.2625349999999
 21
111.157619
 31
0.0
  0
LINE
  5
B3BE
330
B1F3
100
AcDbEntity
  8
1
  6
Continuous
100
AcDbLine
 10
187.586035
 20
109.6920539999999
 30
0.0
 11
187.586035
 21
110.4811189999998
 31
0.0
  0
LINE
  5
B3BF
330
B1F3
100
AcDbEntity
  8
4
  6
CENTER
100
AcDbLine
 10
191.586035
 20
126.774845
 30
0.0
 11
191.586035
 21
41.774845
 31
0.0
  0
LINE
  5
B3C0
330
B1F3
100
AcDbEntity
  8
1
  6
Continuous
100
AcDbLine
 10
180.437878
 20
102.692054
 30
0.0
 11
200.232537
 21
102.692054
 31
0.0
  0
LINE
  5
B3C1
330
B1F3
100
AcDbEntity
  8
1
  6
Continuous
100
AcDbLine
 10
180.437878
 20
65.857619
 30
0.0
 11
200.250976
 21
65.857619
 31
0.0
  0
LINE
  5
B3C2
330
B1F3
100
AcDbEntity
  8
1
  6
Continuous
100
AcDbLine
 10
180.437878
 20
100.092054
 30
0.0
 11
200.232537
 21
100.092054
 31
0.0
  0
LINE
  5
B3C3
330
B1F3
100
AcDbEntity
  8
1
  6
Continuous
100
AcDbLine
 10
180.437878
 20
68.45761899999999
 30
0.0
 11
200.253235
 21
68.45761899999999
 31
0.0
  0
LINE
  5
B3C4
330
B1F3
100
AcDbEntity
  8
1
  6
Continuous
100
AcDbLine
 10
180.437878
 20
102.692054
 30
0.0
 11
180.437878
 21
100.092054
 31
0.0
  0
LINE
  5
B3C5
330
B1F3
100
AcDbEntity
  8
1
  6
Continuous
100
AcDbLine
 10
180.437878
 20
68.45761899999999
 30
0.0
 11
180.437878
 21
65.857619
 31
0.0
  0
LINE
  5
B3C6
330
B1F3
100
AcDbEntity
  8
1
  6
Continuous
100
AcDbLine
 10
175.086035
 20
70.774845
 30
0.0
 11
175.086035
 21
54.27484499999999
 31
0.0
  0
ARC
  5
B3C7
330
B1F3
100
AcDbEntity
  8
1
  6
Continuous
100
AcDbCircle
 10
194.586035
 20
113.3571169999999
 30
0.0
 40
8.665063999999999
100
AcDbArc
 50
249.7438419999999
 51
290.256158
  0
ARC
  5
B3C8
330
B1F3
100
AcDbEntity
  8
1
  6
Continuous
100
AcDbCircle
 10
194.586035
 20
101.0269899999999
 30
0.0
 40
8.665063999999999
100
AcDbArc
 50
69.743842
 51
110.256158
  0
LINE
  5
B3C9
330
B1F3
100
AcDbEntity
  8
1
  6
Continuous
100
AcDbLine
 10
185.586035
 20
109.6920539999999
 30
0.0
 11
197.5860349999999
 21
109.6920539999999
 31
0.0
  0
LINE
  5
B3CA
330
B1F3
100
AcDbEntity
  8
1
  6
Continuous
100
AcDbLine
 10
197.5860349999999
 20
109.6920539999999
 30
0.0
 11
197.5860349999999
 21
104.6920539999999
 31
0.0
  0
ARC
  5
B3CB
330
B1F3
100
AcDbEntity
  8
1
  6
Continuous
100
AcDbCircle
 10
188.586035
 20
113.3571169999999
 30
0.0
 40
8.665063999999999
100
AcDbArc
 50
249.7438419999999
 51
290.256158
  0
ARC
  5
B3CC
330
B1F3
100
AcDbEntity
  8
1
  6
Continuous
100
AcDbCircle
 10
188.586035
 20
101.0269899999999
 30
0.0
 40
8.665063999999999
100
AcDbArc
 50
69.743842
 51
110.256158
  0
LINE
  5
B3CD
330
B1F3
100
AcDbEntity
  8
1
  6
Continuous
100
AcDbLine
 10
191.586035
 20
105.227952
 30
0.0
 11
191.586035
 21
109.1561549999999
 31
0.0
  0
LINE
  5
B3CE
330
B1F3
100
AcDbEntity
  8
1
  6
Continuous
100
AcDbLine
 10
185.586035
 20
109.6920539999999
 30
0.0
 11
185.586035
 21
104.6920539999999
 31
0.0
  0
ARC
  5
B3CF
330
B1F3
100
AcDbEntity
  8
1
  6
Continuous
100
AcDbCircle
 10
224.586035
 20
84.274845
 30
0.0
 40
35.59999899999999
100
AcDbArc
 50
218.3591509999999
 51
139.3257199999998
  0
ARC
  5
B3D0
330
B1F3
100
AcDbEntity
  8
1
  6
Continuous
100
AcDbCircle
 10
224.586035
 20
84.274845
 30
0.0
 40
27.425
100
AcDbArc
 50
229.403483
 51
130.596517
  0
ARC
  5
B3D1
330
B1F3
100
AcDbEntity
  8
1
  6
Continuous
100
AcDbCircle
 10
224.586035
 20
84.274845
 30
0.0
 40
24.82499999999999
100
AcDbArc
 50
229.403483
 51
130.596517
  0
ARC
  5
B3D2
330
B1F3
100
AcDbEntity
  8
1
  6
Continuous
100
AcDbCircle
 10
200.232537
 20
112.6920539999999
 30
0.0
 40
10.0
100
AcDbArc
 50
270.0
 51
310.596517
  0
ARC
  5
B3D3
330
B1F3
100
AcDbEntity
  8
1
  6
Continuous
100
AcDbCircle
 10
200.232537
 20
112.6920539999999
 30
0.0
 40
12.6
100
AcDbArc
 50
270.0
 51
310.596517
  0
ARC
  5
B3D4
330
B1F3
100
AcDbEntity
  8
1
  6
Continuous
100
AcDbCircle
 10
200.232537
 20
55.85763599999999
 30
0.0
 40
10.0
100
AcDbArc
 50
49.40348300000001
 51
90.0
  0
ARC
  5
B3D5
330
B1F3
100
AcDbEntity
  8
1
  6
Continuous
100
AcDbCircle
 10
200.232537
 20
55.85763599999999
 30
0.0
 40
12.6
100
AcDbArc
 50
49.40348300000001
 51
90.0
  0
ARC
  5
B3D6
330
B1F3
100
AcDbEntity
  8
1
  6
Continuous
100
AcDbCircle
 10
224.586035
 20
84.274845
 30
0.0
 40
19.82499999999999
100
AcDbArc
 50
222.9185799999999
 51
317.177047
  0
ARC
  5
B3D7
330
B1F3
100
AcDbEntity
  8
1
  6
Continuous
100
AcDbCircle
 10
188.586035
 20
359.4256829999998
 30
0.0
 40
8.665063999999999
100
AcDbArc
 50
249.7438419999999
 51
265.7425759999998
  0
LINE
  5
B3D8
330
B1F3
100
AcDbEntity
  8
1
  6
Continuous
100
AcDbLine
 10
185.586035
 20
350.760619
 30
0.0
 11
187.9611929999999
 21
350.760619
 31
0.0
  0
LINE
  5
B3D9
330
B1F3
100
AcDbEntity
  8
1
  6
Continuous
100
AcDbLine
 10
188.4440339999999
 20
349.960619
 30
0.0
 11
187.586035
 21
349.960619
 31
0.0
  0
LINE
  5
B3DA
330
B1F3
100
AcDbEntity
  8
1
  6
Continuous
100
AcDbLine
 10
188.6865599999999
 20
349.2950539999998
 30
0.0
 11
188.2625349999999
 21
349.2950539999998
 31
0.0
  0
LINE
  5
B3DB
330
B1F3
100
AcDbEntity
  8
1
  6
Continuous
100
AcDbLine
 10
185.586035
 20
350.760619
 30
0.0
 11
185.586035
 21
352.308506
 31
0.0
  0
LINE
  5
B3DC
330
B1F3
100
AcDbEntity
  8
1
  6
Continuous
100
AcDbLine
 10
187.586035
 20
349.971554
 30
0.0
 11
188.2625349999999
 21
349.2950539999998
 31
0.0
  0
LINE
  5
B3DD
330
B1F3
100
AcDbEntity
  8
2
  6
Continuous
100
AcDbLine
 10
188.2625349999999
 20
350.3099279999998
 30
0.0
 11
188.2625349999999
 21
349.2950539999998
 31
0.0
  0
LINE
  5
B3DE
330
B1F3
100
AcDbEntity
  8
1
  6
Continuous
100
AcDbLine
 10
187.586035
 20
350.760619
 30
0.0
 11
187.586035
 21
349.971554
 31
0.0
  0
LINE
  5
B3DF
330
B1F3
100
AcDbEntity
  8
4
  6
CENTER
100
AcDbLine
 10
326.6262859999998
 20
218.726543
 30
0.0
 11
386.926286
 21
218.726543
 31
0.0
  0
ARC
  5
B3E0
330
B1F3
100
AcDbEntity
  8
1
  6
Continuous
100
AcDbCircle
 10
593.6931379999997
 20
267.0195019999998
 30
0.0
 40
72.67100000000002
100
AcDbArc
 50
180.690332
 51
215.473014
  0
LINE
  5
B3E1
330
B1F3
100
AcDbEntity
  8
4
  6
CENTER
100
AcDbLine
 10
492.4320849999999
 20
247.7533339999999
 30
0.0
 11
492.4320849999999
 21
296.7263369999999
 31
0.0
  0
ARC
  5
B3E2
330
B1F3
100
AcDbEntity
  8
1
  6
Continuous
100
AcDbCircle
 10
566.7043409999998
 20
291.5450149999998
 30
0.0
 40
95.157
100
AcDbArc
 50
193.605186
 51
240.5727950000001
  0
ARC
  5
B3E3
330
B1F3
100
AcDbEntity
  8
1
  6
Continuous
100
AcDbCircle
 10
525.4316719999998
 20
218.726543
 30
0.0
 40
50.0
100
AcDbArc
 50
147.3664949999998
 51
94.85701999999996
  0
LINE
  5
B3E4
330
B1F3
100
AcDbEntity
  8
4
  6
CENTER
100
AcDbLine
 10
525.4316719999998
 20
160.6195429999999
 30
0.0
 11
525.4316719999998
 21
270.2841509999998
 31
0.0
  0
LINE
  5
B3E5
330
B1F3
100
AcDbEntity
  8
4
  6
CENTER
100
AcDbLine
 10
583.4316719999998
 20
218.726543
 30
0.0
 11
468.201462
 21
218.726543
 31
0.0
  0
ARC
  5
B3E6
330
B1F3
100
AcDbEntity
  8
1
  6
Continuous
100
AcDbCircle
 10
525.430243
 20
218.376545
 30
0.0
 40
11.14999999999999
100
AcDbArc
 50
239.8900379999998
 51
35.473014
  0
LINE
  5
B3E7
330
B1F3
100
AcDbEntity
  8
1
  6
Continuous
100
AcDbLine
 10
541.9320849999998
 20
291.726337
 30
0.0
 11
442.9320849999998
 21
291.726337
 31
0.0
  0
LINE
  5
B3E8
330
B1F3
100
AcDbEntity
  8
1
  6
Continuous
100
AcDbLine
 10
468.2070849999998
 20
281.4113479999999
 30
0.0
 11
516.6570849999999
 21
281.4113479999999
 31
0.0
  0
LINE
  5
B3E9
330
B1F3
100
AcDbEntity
  8
1
  6
Continuous
100
AcDbLine
 10
463.1595159999998
 20
285.353337
 30
0.0
 11
521.704655
 21
285.353337
 31
0.0
  0
LINE
  5
B3EA
330
B1F3
100
AcDbEntity
  8
1
  6
Continuous
100
AcDbLine
 10
442.9320849999998
 20
288.826722
 30
0.0
 11
541.9320849999998
 21
288.826722
 31
0.0
  0
LINE
  5
B3EB
330
B1F3
100
AcDbEntity
  8
1
  6
Continuous
100
AcDbLine
 10
465.7459849999998
 20
283.5183369999999
 30
0.0
 11
519.1181849999998
 21
283.5183369999999
 31
0.0
  0
LINE
  5
B3EC
330
B1F3
100
AcDbEntity
  8
1
  6
Continuous
100
AcDbLine
 10
465.7459849999998
 20
281.411337
 30
0.0
 11
519.1181849999998
 21
281.411337
 31
0.0
  0
LINE
  5
B3ED
330
B1F3
100
AcDbEntity
  8
1
  6
Continuous
100
AcDbLine
 10
481.7165479999999
 20
281.411337
 30
0.0
 11
483.716548
 21
283.5183369999999
 31
0.0
  0
LINE
  5
B3EE
330
B1F3
100
AcDbEntity
  8
1
  6
Continuous
100
AcDbLine
 10
483.716548
 20
281.411337
 30
0.0
 11
481.7165479999999
 21
283.5183369999999
 31
0.0
  0
ARC
  5
B3EF
330
B1F3
100
AcDbEntity
  8
1
  6
Continuous
100
AcDbCircle
 10
521.704655
 20
292.853337
 30
0.0
 40
7.5
100
AcDbArc
 50
270.0
 51
327.528368
  0
ARC
  5
B3F0
330
B1F3
100
AcDbEntity
  8
1
  6
Continuous
100
AcDbCircle
 10
526.6022529999998
 20
274.7854319999999
 30
0.0
 40
3.721582999999998
100
AcDbArc
 50
67.573387
 51
91.27258299999999
  0
ARC
  5
B3F1
330
B1F3
100
AcDbEntity
  8
1
  6
Continuous
100
AcDbCircle
 10
526.6022529999998
 20
274.7854319999999
 30
0.0
 40
3.721582999999998
100
AcDbArc
 50
67.573387
 51
91.27258299999999
  0
ARC
  5
B3F2
330
B1F3
100
AcDbEntity
  8
1
  6
Continuous
100
AcDbCircle
 10
524.4652769999999
 20
546.829645
 30
0.0
 40
270.861866
100
AcDbArc
 50
270.0481299999999
 51
270.6701649999998
  0
ARC
  5
B3F3
330
B1F3
100
AcDbEntity
  8
1
  6
Continuous
100
AcDbCircle
 10
524.4652769999999
 20
546.829645
 30
0.0
 40
270.861866
100
AcDbArc
 50
270.0481299999999
 51
270.6701649999998
  0
ARC
  5
B3F4
330
B1F3
100
AcDbEntity
  8
1
  6
Continuous
100
AcDbCircle
 10
527.626747
 20
276.5519729999999
 30
0.0
 40
0.565705
100
AcDbArc
 50
270.6701649999998
 51
312.780166
  0
ARC
  5
B3F5
330
B1F3
100
AcDbEntity
  8
1
  6
Continuous
100
AcDbCircle
 10
527.626747
 20
276.5519729999999
 30
0.0
 40
0.565705
100
AcDbArc
 50
270.6701649999998
 51
312.780166
  0
ARC
  5
B3F6
330
B1F3
100
AcDbEntity
  8
1
  6
Continuous
100
AcDbCircle
 10
533.2719439999998
 20
275.8823549999998
 30
0.0
 40
5.267126
100
AcDbArc
 50
164.4235139999999
 51
177.2314419999999
  0
ARC
  5
B3F7
330
B1F3
100
AcDbEntity
  8
1
  6
Continuous
100
AcDbCircle
 10
522.0342249999998
 20
277.458008
 30
0.0
 40
6.166148999999997
100
AcDbArc
 50
358.5010279999999
 51
5.878328999999997
  0
ARC
  5
B3F8
330
B1F3
100
AcDbEntity
  8
1
  6
Continuous
100
AcDbCircle
 10
527.913707
 20
277.963069
 30
0.0
 40
0.283955
100
AcDbArc
 50
26.44452299999999
 51
67.573387
  0
ARC
  5
B3F9
330
B1F3
100
AcDbEntity
  8
1
  6
Continuous
100
AcDbCircle
 10
533.2719439999998
 20
275.8823549999998
 30
0.0
 40
5.267126
100
AcDbArc
 50
164.4235139999999
 51
177.2314419999999
  0
ARC
  5
B3FA
330
B1F3
100
AcDbEntity
  8
1
  6
Continuous
100
AcDbCircle
 10
522.0342249999998
 20
277.458008
 30
0.0
 40
6.166148999999997
100
AcDbArc
 50
358.5010279999999
 51
5.878328999999997
  0
ARC
  5
B3FB
330
B1F3
100
AcDbEntity
  8
1
  6
Continuous
100
AcDbCircle
 10
527.913707
 20
277.963069
 30
0.0
 40
0.283955
100
AcDbArc
 50
26.44452299999999
 51
67.573387
  0
LINE
  5
B3FC
330
B1F3
100
AcDbEntity
  8
1
  6
Continuous
100
AcDbLine
 10
541.9320849999998
 20
288.826722
 30
0.0
 11
541.9320849999998
 21
291.710877
 31
0.0
  0
LINE
  5
B3FD
330
B1F3
100
AcDbEntity
  8
4
  6
CENTER
100
AcDbLine
 10
532.4320849999998
 20
283.826722
 30
0.0
 11
532.4320849999998
 21
296.7263369999999
 31
0.0
  0
ARC
  5
B3FE
330
B1F3
100
AcDbEntity
  8
1
  6
Continuous
100
AcDbCircle
 10
510.830474
 20
290.102173
 30
0.0
 40
9.0
100
AcDbArc
 50
312.9845629999999
 51
328.1532869999999
  0
LINE
  5
B3FF
330
B1F3
100
AcDbEntity
  8
1
  6
Continuous
100
AcDbLine
 10
506.343965
 20
281.411337
 30
0.0
 11
504.343965
 21
283.5183369999999
 31
0.0
  0
LINE
  5
B400
330
B1F3
100
AcDbEntity
  8
1
  6
Continuous
100
AcDbLine
 10
505.051072
 20
281.411337
 30
0.0
 11
507.0510719999998
 21
283.5183369999999
 31
0.0
  0
LINE
  5
B401
330
B1F3
100
AcDbEntity
  8
1
  6
Continuous
100
AcDbLine
 10
519.1181849999998
 20
283.5183369999999
 30
0.0
 11
519.1181849999998
 21
281.411337
 31
0.0
  0
LINE
  5
B402
330
B1F3
100
AcDbEntity
  8
1
  6
Continuous
100
AcDbLine
 10
507.172392
 20
281.411337
 30
0.0
 11
509.1723919999998
 21
283.5183369999999
 31
0.0
  0
LINE
  5
B403
330
B1F3
100
AcDbEntity
  8
1
  6
Continuous
100
AcDbLine
 10
509.293713
 20
281.411337
 30
0.0
 11
511.2937129999998
 21
283.5183369999999
 31
0.0
  0
LINE
  5
B404
330
B1F3
100
AcDbEntity
  8
1
  6
Continuous
100
AcDbLine
 10
511.415033
 20
281.411337
 30
0.0
 11
513.4150329999998
 21
283.5183369999999
 31
0.0
  0
LINE
  5
B405
330
B1F3
100
AcDbEntity
  8
1
  6
Continuous
100
AcDbLine
 10
513.5363530000002
 20
281.411337
 30
0.0
 11
515.5363529999998
 21
283.5183369999999
 31
0.0
  0
LINE
  5
B406
330
B1F3
100
AcDbEntity
  8
1
  6
Continuous
100
AcDbLine
 10
515.657674
 20
281.411337
 30
0.0
 11
517.657674
 21
283.5183369999999
 31
0.0
  0
LINE
  5
B407
330
B1F3
100
AcDbEntity
  8
1
  6
Continuous
100
AcDbLine
 10
517.778994
 20
281.411337
 30
0.0
 11
519.1181849999998
 21
282.8575279999999
 31
0.0
  0
LINE
  5
B408
330
B1F3
100
AcDbEntity
  8
1
  6
Continuous
100
AcDbLine
 10
509.1723919999998
 20
281.411337
 30
0.0
 11
507.172392
 21
283.5183369999999
 31
0.0
  0
LINE
  5
B409
330
B1F3
100
AcDbEntity
  8
1
  6
Continuous
100
AcDbLine
 10
512.000819
 20
281.411337
 30
0.0
 11
510.0008189999998
 21
283.5183369999999
 31
0.0
  0
LINE
  5
B40A
330
B1F3
100
AcDbEntity
  8
1
  6
Continuous
100
AcDbLine
 10
514.829246
 20
281.411337
 30
0.0
 11
512.8292459999999
 21
283.5183369999999
 31
0.0
  0
LINE
  5
B40B
330
B1F3
100
AcDbEntity
  8
1
  6
Continuous
100
AcDbLine
 10
517.657674
 20
281.411337
 30
0.0
 11
515.657674
 21
283.5183369999999
 31
0.0
  0
LINE
  5
B40C
330
B1F3
100
AcDbEntity
  8
1
  6
Continuous
100
AcDbLine
 10
519.1181849999998
 20
282.886252
 30
0.0
 11
518.4861009999998
 21
283.5183369999999
 31
0.0
  0
LINE
  5
B40D
330
B1F3
100
AcDbEntity
  8
1
  6
Continuous
100
AcDbLine
 10
524.692807
 20
275.9678749999998
 30
0.0
 11
525.429738
 21
278.48638
 31
0.0
  0
ARC
  5
B40E
330
B1F3
100
AcDbEntity
  8
1
  6
Continuous
100
AcDbCircle
 10
520.8730809999998
 20
279.690506
 30
0.0
 40
1.189
100
AcDbArc
 50
174.9251139999999
 51
268.815048
  0
ARC
  5
B40F
330
B1F3
100
AcDbEntity
  8
1
  6
Continuous
100
AcDbCircle
 10
523.582952
 20
410.7017019999998
 30
0.0
 40
132.2282199999999
100
AcDbArc
 50
266.0406469999999
 51
271.272583
  0
LINE
  5
B410
330
B1F3
100
AcDbEntity
  8
1
  6
Continuous
100
AcDbLine
 10
524.692807
 20
275.9678749999998
 30
0.0
 11
525.429738
 21
278.48638
 31
0.0
  0
ARC
  5
B411
330
B1F3
100
AcDbEntity
  8
1
  6
Continuous
100
AcDbCircle
 10
516.9001009999998
 20
278.226135
 30
0.0
 40
3.2
100
AcDbArc
 50
29.372364
 51
89.765923
  0
ARC
  5
B412
330
B1F3
100
AcDbEntity
  8
1
  6
Continuous
100
AcDbCircle
 10
516.823253
 20
279.042456
 30
0.0
 40
2.383999999999999
100
AcDbArc
 50
89.765923
 51
186.1011659999999
  0
ARC
  5
B413
330
B1F3
100
AcDbEntity
  8
1
  6
Continuous
100
AcDbCircle
 10
535.5559059999999
 20
266.318997
 30
0.0
 40
14.529548
100
AcDbArc
 50
138.3877149999999
 51
180.690332
  0
LINE
  5
B414
330
B1F3
100
AcDbEntity
  8
1
  6
Continuous
100
AcDbLine
 10
483.8378679999998
 20
281.411337
 30
0.0
 11
485.8378679999998
 21
283.5183369999999
 31
0.0
  0
LINE
  5
B415
330
B1F3
100
AcDbEntity
  8
1
  6
Continuous
100
AcDbLine
 10
485.9591889999999
 20
281.411337
 30
0.0
 11
487.9591889999998
 21
283.5183369999999
 31
0.0
  0
LINE
  5
B416
330
B1F3
100
AcDbEntity
  8
1
  6
Continuous
100
AcDbLine
 10
488.0805089999998
 20
281.411337
 30
0.0
 11
490.080509
 21
283.5183369999999
 31
0.0
  0
LINE
  5
B417
330
B1F3
100
AcDbEntity
  8
1
  6
Continuous
100
AcDbLine
 10
490.201829
 20
281.411337
 30
0.0
 11
492.2018289999998
 21
283.5183369999999
 31
0.0
  0
LINE
  5
B418
330
B1F3
100
AcDbEntity
  8
1
  6
Continuous
100
AcDbLine
 10
492.3231499999998
 20
281.411337
 30
0.0
 11
494.32315
 21
283.5183369999999
 31
0.0
  0
LINE
  5
B419
330
B1F3
100
AcDbEntity
  8
1
  6
Continuous
100
AcDbLine
 10
494.44447
 20
281.411337
 30
0.0
 11
496.44447
 21
283.5183369999999
 31
0.0
  0
LINE
  5
B41A
330
B1F3
100
AcDbEntity
  8
1
  6
Continuous
100
AcDbLine
 10
496.56579
 20
281.411337
 30
0.0
 11
498.5657899999998
 21
283.5183369999999
 31
0.0
  0
LINE
  5
B41B
330
B1F3
100
AcDbEntity
  8
1
  6
Continuous
100
AcDbLine
 10
498.687111
 20
281.411337
 30
0.0
 11
500.687111
 21
283.5183369999999
 31
0.0
  0
LINE
  5
B41C
330
B1F3
100
AcDbEntity
  8
1
  6
Continuous
100
AcDbLine
 10
500.808431
 20
281.411337
 30
0.0
 11
502.8084309999998
 21
283.5183369999999
 31
0.0
  0
LINE
  5
B41D
330
B1F3
100
AcDbEntity
  8
1
  6
Continuous
100
AcDbLine
 10
486.544975
 20
281.411337
 30
0.0
 11
484.544975
 21
283.5183369999999
 31
0.0
  0
LINE
  5
B41E
330
B1F3
100
AcDbEntity
  8
1
  6
Continuous
100
AcDbLine
 10
489.3734019999998
 20
281.411337
 30
0.0
 11
487.3734019999998
 21
283.5183369999999
 31
0.0
  0
LINE
  5
B41F
330
B1F3
100
AcDbEntity
  8
1
  6
Continuous
100
AcDbLine
 10
492.2018289999998
 20
281.411337
 30
0.0
 11
490.201829
 21
283.5183369999999
 31
0.0
  0
LINE
  5
B420
330
B1F3
100
AcDbEntity
  8
1
  6
Continuous
100
AcDbLine
 10
495.0302569999998
 20
281.411337
 30
0.0
 11
493.030257
 21
283.5183369999999
 31
0.0
  0
LINE
  5
B421
330
B1F3
100
AcDbEntity
  8
1
  6
Continuous
100
AcDbLine
 10
497.858684
 20
281.411337
 30
0.0
 11
495.8586839999998
 21
283.5183369999999
 31
0.0
  0
LINE
  5
B422
330
B1F3
100
AcDbEntity
  8
1
  6
Continuous
100
AcDbLine
 10
500.687111
 20
281.411337
 30
0.0
 11
498.687111
 21
283.5183369999999
 31
0.0
  0
LINE
  5
B423
330
B1F3
100
AcDbEntity
  8
1
  6
Continuous
100
AcDbLine
 10
503.5155379999998
 20
281.411337
 30
0.0
 11
501.515538
 21
283.5183369999999
 31
0.0
  0
LINE
  5
B424
330
B1F3
100
AcDbEntity
  8
1
  6
Continuous
100
AcDbLine
 10
502.9297509999998
 20
281.411337
 30
0.0
 11
504.9297509999998
 21
283.5183369999999
 31
0.0
  0
ARC
  5
B425
330
B1F3
100
AcDbEntity
  8
1
  6
Continuous
100
AcDbCircle
 10
474.375736
 20
289.765918
 30
0.0
 40
9.0
100
AcDbArc
 50
209.359435
 51
223.961567
  0
LINE
  5
B426
330
B1F3
100
AcDbEntity
  8
1
  6
Continuous
100
AcDbLine
 10
465.0070849999998
 20
271.52734
 30
0.0
 11
465.0070849999998
 21
278.730657
 31
0.0
  0
ARC
  5
B427
330
B1F3
100
AcDbEntity
  8
1
  6
Continuous
100
AcDbCircle
 10
471.9002559999998
 20
276.746691
 30
0.0
 40
7.172999999999999
100
AcDbArc
 50
158.3674609999999
 51
163.9433239999999
  0
ARC
  5
B428
330
B1F3
100
AcDbEntity
  8
1
  6
Continuous
100
AcDbCircle
 10
468.2070849999998
 20
278.211348
 30
0.0
 40
3.2
100
AcDbArc
 50
90.0
 51
158.405854
  0
LINE
  5
B429
330
B1F3
100
AcDbEntity
  8
1
  6
Continuous
100
AcDbLine
 10
466.5103519999998
 20
271.4269239999999
 30
0.0
 11
465.0070849999998
 21
271.52734
 31
0.0
  0
LINE
  5
B42A
330
B1F3
100
AcDbEntity
  8
1
  6
Continuous
100
AcDbLine
 10
466.5103519999998
 20
271.4269239999999
 30
0.0
 11
472.1647089999998
 21
270.928035
 31
0.0
  0
LINE
  5
B42B
330
B1F3
100
AcDbEntity
  8
1
  6
Continuous
100
AcDbLine
 10
465.7459849999998
 20
281.411337
 30
0.0
 11
465.7459849999998
 21
283.5183369999999
 31
0.0
  0
LINE
  5
B42C
330
B1F3
100
AcDbEntity
  8
1
  6
Continuous
100
AcDbLine
 10
466.7459849999998
 20
283.5183369999999
 30
0.0
 11
465.7459849999998
 21
282.5183369999999
 31
0.0
  0
LINE
  5
B42D
330
B1F3
100
AcDbEntity
  8
1
  6
Continuous
100
AcDbLine
 10
466.8673059999998
 20
281.411337
 30
0.0
 11
468.867306
 21
283.5183369999999
 31
0.0
  0
LINE
  5
B42E
330
B1F3
100
AcDbEntity
  8
1
  6
Continuous
100
AcDbLine
 10
468.9886259999998
 20
281.411337
 30
0.0
 11
470.9886259999998
 21
283.5183369999999
 31
0.0
  0
LINE
  5
B42F
330
B1F3
100
AcDbEntity
  8
1
  6
Continuous
100
AcDbLine
 10
471.1099459999998
 20
281.411337
 30
0.0
 11
473.109946
 21
283.5183369999999
 31
0.0
  0
LINE
  5
B430
330
B1F3
100
AcDbEntity
  8
1
  6
Continuous
100
AcDbLine
 10
473.2312669999998
 20
281.411337
 30
0.0
 11
475.231267
 21
283.5183369999999
 31
0.0
  0
LINE
  5
B431
330
B1F3
100
AcDbEntity
  8
1
  6
Continuous
100
AcDbLine
 10
475.352587
 20
281.411337
 30
0.0
 11
477.352587
 21
283.5183369999999
 31
0.0
  0
LINE
  5
B432
330
B1F3
100
AcDbEntity
  8
1
  6
Continuous
100
AcDbLine
 10
477.473907
 20
281.411337
 30
0.0
 11
479.473907
 21
283.5183369999999
 31
0.0
  0
LINE
  5
B433
330
B1F3
100
AcDbEntity
  8
1
  6
Continuous
100
AcDbLine
 10
479.595228
 20
281.411337
 30
0.0
 11
481.595228
 21
283.5183369999999
 31
0.0
  0
LINE
  5
B434
330
B1F3
100
AcDbEntity
  8
1
  6
Continuous
100
AcDbLine
 10
466.7459849999998
 20
281.411337
 30
0.0
 11
465.7459849999998
 21
282.5183369999999
 31
0.0
  0
LINE
  5
B435
330
B1F3
100
AcDbEntity
  8
1
  6
Continuous
100
AcDbLine
 10
469.5744119999998
 20
281.411337
 30
0.0
 11
467.574412
 21
283.5183369999999
 31
0.0
  0
LINE
  5
B436
330
B1F3
100
AcDbEntity
  8
1
  6
Continuous
100
AcDbLine
 10
472.40284
 20
281.411337
 30
0.0
 11
470.40284
 21
283.5183369999999
 31
0.0
  0
LINE
  5
B437
330
B1F3
100
AcDbEntity
  8
1
  6
Continuous
100
AcDbLine
 10
475.231267
 20
281.411337
 30
0.0
 11
473.2312669999998
 21
283.5183369999999
 31
0.0
  0
LINE
  5
B438
330
B1F3
100
AcDbEntity
  8
1
  6
Continuous
100
AcDbLine
 10
478.0596939999998
 20
281.411337
 30
0.0
 11
476.059694
 21
283.5183369999999
 31
0.0
  0
LINE
  5
B439
330
B1F3
100
AcDbEntity
  8
1
  6
Continuous
100
AcDbLine
 10
480.888121
 20
281.411337
 30
0.0
 11
478.888121
 21
283.5183369999999
 31
0.0
  0
ARC
  5
B43A
330
B1F3
100
AcDbEntity
  8
1
  6
Continuous
100
AcDbCircle
 10
471.9606299999998
 20
268.61502
 30
0.0
 40
2.322
100
AcDbArc
 50
13.304852
 51
84.95780100000002
  0
ARC
  5
B43B
330
B1F3
100
AcDbEntity
  8
1
  6
Continuous
100
AcDbCircle
 10
463.1595159999998
 20
292.853337
 30
0.0
 40
7.5
100
AcDbArc
 50
212.4716319999998
 51
270.0
  0
LINE
  5
B43C
330
B1F3
100
AcDbEntity
  8
1
  6
Continuous
100
AcDbLine
 10
442.9320849999998
 20
288.826722
 30
0.0
 11
442.9320849999998
 21
291.726337
 31
0.0
  0
LINE
  5
B43D
330
B1F3
100
AcDbEntity
  8
4
  6
CENTER
100
AcDbLine
 10
452.4320849999998
 20
283.826722
 30
0.0
 11
452.4320849999998
 21
296.7263369999999
 31
0.0
  0
CIRCLE
  5
B43E
330
B1F3
100
AcDbEntity
  8
1
  6
Continuous
100
AcDbCircle
 10
525.4316719999998
 20
218.726543
 30
0.0
 40
7.0
  0
ARC
  5
B43F
330
B1F3
100
AcDbEntity
  8
1
  6
Continuous
100
AcDbCircle
 10
349.4680599999999
 20
240.8077009999999
 30
0.0
 40
36.466
100
AcDbArc
 50
323.7207199999998
 51
0.0
  0
LINE
  5
B440
330
B1F3
100
AcDbEntity
  8
1
  6
Continuous
100
AcDbLine
 10
376.926269
 20
213.3127599999999
 30
0.0
 11
376.926269
 21
207.2262429999999
 31
0.0
  0
ARC
  5
B441
330
B1F3
100
AcDbEntity
  8
1
  6
Continuous
100
AcDbCircle
 10
386.9262689999998
 20
213.3127599999999
 30
0.0
 40
10.0
100
AcDbArc
 50
143.72072
 51
180.0
  0
ARC
  5
B442
330
B1F3
100
AcDbEntity
  8
1
  6
Continuous
100
AcDbCircle
 10
349.4680599999999
 20
240.8077009999999
 30
0.0
 40
33.866
100
AcDbArc
 50
323.7207009999999
 51
0.0
  0
ARC
  5
B443
330
B1F3
100
AcDbEntity
  8
1
  6
Continuous
100
AcDbCircle
 10
386.92626
 20
213.312748
 30
0.0
 40
12.6
100
AcDbArc
 50
143.7207009999999
 51
180.0
  0
ARC
  5
B444
330
B1F3
100
AcDbEntity
  8
1
  6
Continuous
100
AcDbCircle
 10
367.5500599999999
 20
240.8077009999999
 30
0.0
 40
33.866
100
AcDbArc
 50
180.0
 51
216.279299
  0
ARC
  5
B445
330
B1F3
100
AcDbEntity
  8
1
  6
Continuous
100
AcDbCircle
 10
367.5500599999999
 20
240.8077009999999
 30
0.0
 40
36.466
100
AcDbArc
 50
180.0
 51
216.2792799999998
  0
ARC
  5
B446
330
B1F3
100
AcDbEntity
  8
1
  6
Continuous
100
AcDbCircle
 10
330.09186
 20
213.312748
 30
0.0
 40
12.6
100
AcDbArc
 50
0.0
 51
36.279299
  0
ARC
  5
B447
330
B1F3
100
AcDbEntity
  8
1
  6
Continuous
100
AcDbCircle
 10
330.0918509999998
 20
213.3127599999999
 30
0.0
 40
10.0
100
AcDbArc
 50
0.0
 51
36.27928
  0
LINE
  5
B448
330
B1F3
100
AcDbEntity
  8
1
  6
Continuous
100
AcDbLine
 10
340.0918509999999
 20
213.3127599999999
 30
0.0
 11
340.0918509999999
 21
207.2262429999999
 31
0.0
  0
ARC
  5
B449
330
B1F3
100
AcDbEntity
  8
1
  6
Continuous
100
AcDbCircle
 10
326.6277319999999
 20
218.726543
 30
0.0
 40
11.464102
100
AcDbArc
 50
342.4120459999999
 51
3.048318999999998
  0
ARC
  5
B44A
330
B1F3
100
AcDbEntity
  8
1
  6
Continuous
100
AcDbCircle
 10
344.5559359999998
 20
218.726543
 30
0.0
 40
11.464102
100
AcDbArc
 50
162.412046
 51
197.5879539999999
  0
LINE
  5
B44B
330
B1F3
100
AcDbEntity
  8
1
  6
Continuous
100
AcDbLine
 10
333.091834
 20
224.726543
 30
0.0
 11
333.091834
 21
212.726543
 31
0.0
  0
LINE
  5
B44C
330
B1F3
100
AcDbEntity
  8
1
  6
Continuous
100
AcDbLine
 10
332.291834
 20
214.726543
 30
0.0
 11
332.291834
 21
222.726543
 31
0.0
  0
LINE
  5
B44D
330
B1F3
100
AcDbEntity
  8
1
  6
Continuous
100
AcDbLine
 10
331.6262689999998
 20
215.3921079999999
 30
0.0
 11
331.6262689999998
 21
222.0500429999999
 31
0.0
  0
LINE
  5
B44E
330
B1F3
100
AcDbEntity
  8
1
  6
Continuous
100
AcDbLine
 10
337.555936
 20
215.262441
 30
0.0
 11
333.6277319999999
 21
215.262441
 31
0.0
  0
LINE
  5
B44F
330
B1F3
100
AcDbEntity
  8
1
  6
Continuous
100
AcDbLine
 10
337.555936
 20
211.798339
 30
0.0
 11
333.6277319999999
 21
211.798339
 31
0.0
  0
ARC
  5
B450
330
B1F3
100
AcDbEntity
  8
1
  6
Continuous
100
AcDbCircle
 10
335.024847
 20
213.5303899999999
 30
0.0
 40
3.066986999999998
100
AcDbArc
 50
334.384247
 51
34.38424699999998
  0
LINE
  5
B451
330
B1F3
100
AcDbEntity
  8
1
  6
Continuous
100
AcDbLine
 10
337.555936
 20
211.798339
 30
0.0
 11
338.091834
 21
212.726543
 31
0.0
  0
LINE
  5
B452
330
B1F3
100
AcDbEntity
  8
1
  6
Continuous
100
AcDbLine
 10
338.091834
 20
211.2265429999999
 30
0.0
 11
338.091834
 21
218.726543
 31
0.0
  0
LINE
  5
B453
330
B1F3
100
AcDbEntity
  8
1
  6
Continuous
100
AcDbLine
 10
340.091834
 20
211.2265429999999
 30
0.0
 11
338.091834
 21
211.2265429999999
 31
0.0
  0
ARC
  5
B454
330
B1F3
100
AcDbEntity
  8
1
  6
Continuous
100
AcDbCircle
 10
336.1588209999998
 20
213.5303899999999
 30
0.0
 40
3.066986999999998
100
AcDbArc
 50
145.615753
 51
205.615753
  0
LINE
  5
B455
330
B1F3
100
AcDbEntity
  8
1
  6
Continuous
100
AcDbLine
 10
333.6277319999999
 20
211.798339
 30
0.0
 11
333.091834
 21
212.726543
 31
0.0
  0
LINE
  5
B456
330
B1F3
100
AcDbEntity
  8
1
  6
Continuous
100
AcDbLine
 10
331.6262689999998
 20
215.3921079999999
 30
0.0
 11
332.291834
 21
214.726543
 31
0.0
  0
LINE
  5
B457
330
B1F3
100
AcDbEntity
  8
2
  6
Continuous
100
AcDbLine
 10
333.091834
 20
215.403043
 30
0.0
 11
331.6262689999998
 21
215.403043
 31
0.0
  0
LINE
  5
B458
330
B1F3
100
AcDbEntity
  8
1
  6
Continuous
100
AcDbLine
 10
333.091834
 20
214.726543
 30
0.0
 11
332.291834
 21
214.726543
 31
0.0
  0
LINE
  5
B459
330
B1F3
100
AcDbEntity
  8
1
  6
Continuous
100
AcDbLine
 10
334.381444
 20
225.6547459999999
 30
0.0
 11
333.6277319999999
 21
225.6547459999999
 31
0.0
  0
LINE
  5
B45A
330
B1F3
100
AcDbEntity
  8
1
  6
Continuous
100
AcDbLine
 10
336.194449
 20
222.190644
 30
0.0
 11
333.6277319999999
 21
222.190644
 31
0.0
  0
LINE
  5
B45B
330
B1F3
100
AcDbEntity
  8
1
  6
Continuous
100
AcDbLine
 10
333.6277319999999
 20
225.6547459999999
 30
0.0
 11
333.091834
 21
224.726543
 31
0.0
  0
ARC
  5
B45C
330
B1F3
100
AcDbEntity
  8
1
  6
Continuous
100
AcDbCircle
 10
336.1588209999998
 20
223.9226949999999
 30
0.0
 40
3.066986999999998
100
AcDbArc
 50
154.3842469999999
 51
214.384247
  0
LINE
  5
B45D
330
B1F3
100
AcDbEntity
  8
1
  6
Continuous
100
AcDbLine
 10
332.3027689999999
 20
222.726543
 30
0.0
 11
331.6262689999998
 21
222.0500429999999
 31
0.0
  0
LINE
  5
B45E
330
B1F3
100
AcDbEntity
  8
2
  6
Continuous
100
AcDbLine
 10
333.091834
 20
222.0500429999999
 30
0.0
 11
331.6262689999998
 21
222.0500429999999
 31
0.0
  0
LINE
  5
B45F
330
B1F3
100
AcDbEntity
  8
1
  6
Continuous
100
AcDbLine
 10
333.091834
 20
222.726543
 30
0.0
 11
332.3027689999999
 21
222.726543
 31
0.0
  0
LINE
  5
B460
330
B1F3
100
AcDbEntity
  8
1
  6
Continuous
100
AcDbLine
 10
338.3367779999999
 20
218.971486
 30
0.0
 11
338.091834
 21
218.726543
 31
0.0
  0
LINE
  5
B461
330
B1F3
100
AcDbEntity
  8
1
  6
Continuous
100
AcDbLine
 10
339.0738739999999
 20
217.708583
 30
0.0
 11
338.091834
 21
216.726543
 31
0.0
  0
LINE
  5
B462
330
B1F3
100
AcDbEntity
  8
1
  6
Continuous
100
AcDbLine
 10
144.392603
 20
362.6778279999999
 30
0.0
 11
175.086035
 21
362.6778279999999
 31
0.0
  0
LINE
  5
B463
330
B1F3
100
AcDbEntity
  8
1
  6
Continuous
100
AcDbLine
 10
144.392603
 20
389.6778279999999
 30
0.0
 11
175.086035
 21
389.6778279999999
 31
0.0
  0
ARC
  5
B464
330
B1F3
100
AcDbEntity
  8
1
  6
Continuous
100
AcDbCircle
 10
144.392603
 20
387.177828
 30
0.0
 40
2.5
100
AcDbArc
 50
90.0
 51
176.8071899999999
  0
ARC
  5
B465
330
B1F3
100
AcDbEntity
  8
1
  6
Continuous
100
AcDbCircle
 10
144.392603
 20
365.1778279999998
 30
0.0
 40
2.5
100
AcDbArc
 50
183.19281
 51
270.0
  0
ARC
  5
B466
330
B1F3
100
AcDbEntity
  8
1
  6
Continuous
100
AcDbCircle
 10
341.5860349999999
 20
376.1778279999999
 30
0.0
 40
200.0
100
AcDbArc
 50
176.8071899999999
 51
183.19281
  0
ARC
  5
B467
330
B1F3
100
AcDbEntity
  8
1
  6
Continuous
100
AcDbCircle
 10
191.5864479999999
 20
218.726543
 30
0.0
 40
40.0
100
AcDbArc
 50
84.386764
 51
25.700217
  0
ARC
  5
B468
330
B1F3
100
AcDbEntity
  8
1
  6
Continuous
100
AcDbCircle
 10
525.4316719999998
 20
218.726543
 30
0.0
 40
40.0
100
AcDbArc
 50
154.299783
 51
95.61323599999996
  0
LINE
  5
B469
330
B1F3
100
AcDbEntity
  8
1
  6
Continuous
100
AcDbLine
 10
43.62156599999997
 20
265.9201879999999
 30
0.0
 11
43.62156599999997
 21
171.2267559999999
 31
0.0
  0
LINE
  5
B46A
330
B1F3
100
AcDbEntity
  8
1
  6
Continuous
100
AcDbLine
 10
70.621566
 20
265.9201879999999
 30
0.0
 11
70.621566
 21
171.2267559999999
 31
0.0
  0
ARC
  5
B46B
330
B1F3
100
AcDbEntity
  8
1
  6
Continuous
100
AcDbCircle
 10
46.12156599999997
 20
171.5333229999998
 30
0.0
 40
2.5
100
AcDbArc
 50
180.0
 51
266.80719
  0
LINE
  5
B46C
330
B1F3
100
AcDbEntity
  8
1
  6
Continuous
100
AcDbLine
 10
41.87156599999997
 20
209.404955
 30
0.0
 11
41.87156599999997
 21
228.0485559999999
 31
0.0
  0
LINE
  5
B46D
330
B1F3
100
AcDbEntity
  8
1
  6
Continuous
100
AcDbLine
 10
43.524269
 20
207.435339
 30
0.0
 11
43.62156599999997
 21
207.418183
 31
0.0
  0
LINE
  5
B46E
330
B1F3
100
AcDbEntity
  8
1
  6
Continuous
100
AcDbLine
 10
41.30434
 20
213.2267559999999
 30
0.0
 11
41.87156599999997
 21
213.2267559999999
 31
0.0
  0
ARC
  5
B46F
330
B1F3
100
AcDbEntity
  8
1
  6
Continuous
100
AcDbCircle
 10
43.87156599999999
 20
209.404955
 30
0.0
 40
2.0
100
AcDbArc
 50
180.0
 51
260.0
  0
LINE
  5
B470
330
B1F3
100
AcDbEntity
  8
1
  6
Continuous
100
AcDbLine
 10
43.524269
 20
230.0181719999999
 30
0.0
 11
43.62156599999997
 21
230.0353279999999
 31
0.0
  0
LINE
  5
B471
330
B1F3
100
AcDbEntity
  8
1
  6
Continuous
100
AcDbLine
 10
41.30434
 20
224.226756
 30
0.0
 11
41.87156599999997
 21
224.226756
 31
0.0
  0
ARC
  5
B472
330
B1F3
100
AcDbEntity
  8
1
  6
Continuous
100
AcDbCircle
 10
43.87156599999999
 20
228.0485559999999
 30
0.0
 40
2.0
100
AcDbArc
 50
100.0
 51
180.0
  0
ARC
  5
B473
330
B1F3
100
AcDbEntity
  8
1
  6
Continuous
100
AcDbCircle
 10
57.121566
 20
368.726756
 30
0.0
 40
200.0
100
AcDbArc
 50
266.80719
 51
273.19281
  0
ARC
  5
B474
330
B1F3
100
AcDbEntity
  8
1
  6
Continuous
100
AcDbCircle
 10
68.121566
 20
171.5333229999998
 30
0.0
 40
2.5
100
AcDbArc
 50
273.19281
 51
0.0
  0
LINE
  5
B475
330
B1F3
100
AcDbEntity
  8
1
  6
Continuous
100
AcDbLine
 10
72.371566
 20
209.404955
 30
0.0
 11
72.371566
 21
228.0485559999999
 31
0.0
  0
ARC
  5
B476
330
B1F3
100
AcDbEntity
  8
1
  6
Continuous
100
AcDbCircle
 10
70.371566
 20
209.404955
 30
0.0
 40
2.0
100
AcDbArc
 50
280.0
 51
0.0
  0
LINE
  5
B477
330
B1F3
100
AcDbEntity
  8
1
  6
Continuous
100
AcDbLine
 10
70.718862
 20
207.435339
 30
0.0
 11
70.621566
 21
207.418183
 31
0.0
  0
LINE
  5
B478
330
B1F3
100
AcDbEntity
  8
1
  6
Continuous
100
AcDbLine
 10
72.938775
 20
213.2267559999999
 30
0.0
 11
72.371566
 21
213.2267559999999
 31
0.0
  0
ARC
  5
B479
330
B1F3
100
AcDbEntity
  8
1
  6
Continuous
100
AcDbCircle
 10
70.371566
 20
228.0485559999999
 30
0.0
 40
2.0
100
AcDbArc
 50
0.0
 51
80.0
  0
LINE
  5
B47A
330
B1F3
100
AcDbEntity
  8
1
  6
Continuous
100
AcDbLine
 10
70.718862
 20
230.0181719999999
 30
0.0
 11
70.621566
 21
230.0353279999999
 31
0.0
  0
LINE
  5
B47B
330
B1F3
100
AcDbEntity
  8
1
  6
Continuous
100
AcDbLine
 10
72.938775
 20
224.226756
 30
0.0
 11
72.371566
 21
224.226756
 31
0.0
  0
ARC
  5
B47C
330
B1F3
100
AcDbEntity
  8
1
  6
Continuous
100
AcDbCircle
 10
46.12156599999997
 20
265.9201879999999
 30
0.0
 40
2.5
100
AcDbArc
 50
93.19281
 51
180.0
  0
ARC
  5
B47D
330
B1F3
100
AcDbEntity
  8
1
  6
Continuous
100
AcDbCircle
 10
57.121566
 20
68.72675599999999
 30
0.0
 40
200.0
100
AcDbArc
 50
86.80719000000001
 51
93.19281
  0
ARC
  5
B47E
330
B1F3
100
AcDbEntity
  8
1
  6
Continuous
100
AcDbCircle
 10
68.121566
 20
265.9201879999999
 30
0.0
 40
2.5
100
AcDbArc
 50
0.0
 51
86.80719000000001
  0
LINE
  5
B47F
330
B1F3
100
AcDbEntity
  8
1
  6
Continuous
100
AcDbLine
 10
372.0090599999999
 20
265.919975
 30
0.0
 11
372.0090599999999
 21
171.2265429999999
 31
0.0
  0
LINE
  5
B480
330
B1F3
100
AcDbEntity
  8
1
  6
Continuous
100
AcDbLine
 10
345.0090599999999
 20
265.919975
 30
0.0
 11
345.0090599999999
 21
171.2265429999999
 31
0.0
  0
ARC
  5
B481
330
B1F3
100
AcDbEntity
  8
1
  6
Continuous
100
AcDbCircle
 10
347.5090599999999
 20
171.53311
 30
0.0
 40
2.5
100
AcDbArc
 50
180.0
 51
266.80719
  0
ARC
  5
B482
330
B1F3
100
AcDbEntity
  8
1
  6
Continuous
100
AcDbCircle
 10
358.50906
 20
368.726543
 30
0.0
 40
200.0
100
AcDbArc
 50
266.80719
 51
273.19281
  0
ARC
  5
B483
330
B1F3
100
AcDbEntity
  8
1
  6
Continuous
100
AcDbCircle
 10
369.5090599999999
 20
171.53311
 30
0.0
 40
2.5
100
AcDbArc
 50
273.19281
 51
0.0
  0
LINE
  5
B484
330
B1F3
100
AcDbEntity
  8
1
  6
Continuous
100
AcDbLine
 10
373.7590599999998
 20
209.4047419999998
 30
0.0
 11
373.7590599999998
 21
228.0483429999999
 31
0.0
  0
LINE
  5
B485
330
B1F3
100
AcDbEntity
  8
1
  6
Continuous
100
AcDbLine
 10
343.2590599999999
 20
209.4047419999998
 30
0.0
 11
343.2590599999999
 21
228.0483429999999
 31
0.0
  0
LINE
  5
B486
330
B1F3
100
AcDbEntity
  8
1
  6
Continuous
100
AcDbLine
 10
342.6918339999998
 20
224.2265429999999
 30
0.0
 11
343.2590599999999
 21
224.2265429999999
 31
0.0
  0
ARC
  5
B487
330
B1F3
100
AcDbEntity
  8
1
  6
Continuous
100
AcDbCircle
 10
345.2590599999999
 20
209.4047419999998
 30
0.0
 40
2.0
100
AcDbArc
 50
180.0
 51
260.0
  0
LINE
  5
B488
330
B1F3
100
AcDbEntity
  8
1
  6
Continuous
100
AcDbLine
 10
342.6918339999998
 20
213.2265429999999
 30
0.0
 11
343.2590599999999
 21
213.2265429999999
 31
0.0
  0
LINE
  5
B489
330
B1F3
100
AcDbEntity
  8
1
  6
Continuous
100
AcDbLine
 10
344.9117629999999
 20
207.4351259999999
 30
0.0
 11
345.0090599999999
 21
207.41797
 31
0.0
  0
LINE
  5
B48A
330
B1F3
100
AcDbEntity
  8
1
  6
Continuous
100
AcDbLine
 10
374.3262689999999
 20
224.2265429999999
 30
0.0
 11
373.7590599999998
 21
224.2265429999999
 31
0.0
  0
LINE
  5
B48B
330
B1F3
100
AcDbEntity
  8
1
  6
Continuous
100
AcDbLine
 10
374.3262689999999
 20
213.2265429999999
 30
0.0
 11
373.7590599999998
 21
213.2265429999999
 31
0.0
  0
LINE
  5
B48C
330
B1F3
100
AcDbEntity
  8
1
  6
Continuous
100
AcDbLine
 10
372.106356
 20
207.4351259999999
 30
0.0
 11
372.0090599999999
 21
207.41797
 31
0.0
  0
ARC
  5
B48D
330
B1F3
100
AcDbEntity
  8
1
  6
Continuous
100
AcDbCircle
 10
371.7590599999998
 20
209.4047419999998
 30
0.0
 40
2.0
100
AcDbArc
 50
280.0
 51
0.0
  0
ARC
  5
B48E
330
B1F3
100
AcDbEntity
  8
1
  6
Continuous
100
AcDbCircle
 10
347.5090599999999
 20
265.919975
 30
0.0
 40
2.5
100
AcDbArc
 50
93.19281
 51
180.0
  0
ARC
  5
B48F
330
B1F3
100
AcDbEntity
  8
1
  6
Continuous
100
AcDbCircle
 10
345.2590599999999
 20
228.0483429999999
 30
0.0
 40
2.0
100
AcDbArc
 50
100.0
 51
180.0
  0
LINE
  5
B490
330
B1F3
100
AcDbEntity
  8
1
  6
Continuous
100
AcDbLine
 10
344.9117629999999
 20
230.0179589999999
 30
0.0
 11
345.0090599999999
 21
230.035115
 31
0.0
  0
LINE
  5
B491
330
B1F3
100
AcDbEntity
  8
1
  6
Continuous
100
AcDbLine
 10
372.106356
 20
230.0179589999999
 30
0.0
 11
372.0090599999999
 21
230.035115
 31
0.0
  0
ARC
  5
B492
330
B1F3
100
AcDbEntity
  8
1
  6
Continuous
100
AcDbCircle
 10
371.7590599999998
 20
228.0483429999999
 30
0.0
 40
2.0
100
AcDbArc
 50
0.0
 51
80.0
  0
ARC
  5
B493
330
B1F3
100
AcDbEntity
  8
1
  6
Continuous
100
AcDbCircle
 10
358.50906
 20
68.726543
 30
0.0
 40
200.0
100
AcDbArc
 50
86.80719000000001
 51
87.337226
  0
ARC
  5
B494
330
B1F3
100
AcDbEntity
  8
1
  6
Continuous
100
AcDbCircle
 10
369.5090599999999
 20
265.919975
 30
0.0
 40
2.5
100
AcDbArc
 50
0.0
 51
86.80719000000001
  0
ARC
  5
B495
330
B1F3
100
AcDbEntity
  8
1
  6
Continuous
100
AcDbCircle
 10
358.50906
 20
68.726543
 30
0.0
 40
200.0
100
AcDbArc
 50
92.66277399999998
 51
93.19281
  0
LINE
  5
B496
330
B1F3
100
AcDbEntity
  8
1
  6
Continuous
100
AcDbLine
 10
144.392603
 20
97.77484499999999
 30
0.0
 11
239.086035
 21
97.77484499999999
 31
0.0
  0
LINE
  5
B497
330
B1F3
100
AcDbEntity
  8
1
  6
Continuous
100
AcDbLine
 10
144.392603
 20
70.774845
 30
0.0
 11
239.086035
 21
70.774845
 31
0.0
  0
ARC
  5
B498
330
B1F3
100
AcDbEntity
  8
1
  6
Continuous
100
AcDbCircle
 10
341.5860349999999
 20
84.274845
 30
0.0
 40
200.0
100
AcDbArc
 50
176.8071899999999
 51
183.19281
  0
ARC
  5
B499
330
B1F3
100
AcDbEntity
  8
1
  6
Continuous
100
AcDbCircle
 10
144.392603
 20
73.274845
 30
0.0
 40
2.5
100
AcDbArc
 50
183.19281
 51
270.0
  0
ARC
  5
B49A
330
B1F3
100
AcDbEntity
  8
1
  6
Continuous
100
AcDbCircle
 10
144.392603
 20
95.27484499999998
 30
0.0
 40
2.5
100
AcDbArc
 50
90.0
 51
176.8071899999999
  0
ARC
  5
B49B
330
B1F3
100
AcDbEntity
  8
1
  6
Continuous
100
AcDbCircle
 10
41.58603499999999
 20
84.274845
 30
0.0
 40
200.0
100
AcDbArc
 50
356.80719
 51
3.192809999999998
  0
LINE
  5
B49C
330
B1F3
100
AcDbEntity
  8
1
  6
Continuous
100
AcDbLine
 10
200.907836
 20
69.02484499999999
 30
0.0
 11
182.264235
 21
69.02484499999999
 31
0.0
  0
LINE
  5
B49D
330
B1F3
100
AcDbEntity
  8
1
  6
Continuous
100
AcDbLine
 10
186.086035
 20
68.45761899999999
 30
0.0
 11
186.086035
 21
69.02484499999999
 31
0.0
  0
ARC
  5
B49E
330
B1F3
100
AcDbEntity
  8
1
  6
Continuous
100
AcDbCircle
 10
182.264235
 20
71.024845
 30
0.0
 40
2.0
100
AcDbArc
 50
190.0
 51
270.0
  0
LINE
  5
B49F
330
B1F3
100
AcDbEntity
  8
1
  6
Continuous
100
AcDbLine
 10
180.2946189999999
 20
70.677548
 30
0.0
 11
180.2774629999999
 21
70.774845
 31
0.0
  0
ARC
  5
B4A0
330
B1F3
100
AcDbEntity
  8
1
  6
Continuous
100
AcDbCircle
 10
200.907836
 20
71.024845
 30
0.0
 40
2.0
100
AcDbArc
 50
270.0
 51
350.0
  0
LINE
  5
B4A1
330
B1F3
100
AcDbEntity
  8
1
  6
Continuous
100
AcDbLine
 10
197.086035
 20
68.45761899999999
 30
0.0
 11
197.086035
 21
69.02484499999999
 31
0.0
  0
LINE
  5
B4A2
330
B1F3
100
AcDbEntity
  8
1
  6
Continuous
100
AcDbLine
 10
202.877452
 20
70.677548
 30
0.0
 11
202.8946079999998
 21
70.774845
 31
0.0
  0
ARC
  5
B4A3
330
B1F3
100
AcDbEntity
  8
1
  6
Continuous
100
AcDbCircle
 10
238.779468
 20
73.274845
 30
0.0
 40
2.5
100
AcDbArc
 50
270.0
 51
356.80719
  0
LINE
  5
B4A4
330
B1F3
100
AcDbEntity
  8
1
  6
Continuous
100
AcDbLine
 10
200.907836
 20
99.52484500000002
 30
0.0
 11
182.264235
 21
99.52484500000002
 31
0.0
  0
LINE
  5
B4A5
330
B1F3
100
AcDbEntity
  8
1
  6
Continuous
100
AcDbLine
 10
186.086035
 20
100.092054
 30
0.0
 11
186.086035
 21
99.52484500000002
 31
0.0
  0
LINE
  5
B4A6
330
B1F3
100
AcDbEntity
  8
1
  6
Continuous
100
AcDbLine
 10
180.2946189999999
 20
97.87214099999999
 30
0.0
 11
180.2774629999999
 21
97.77484499999999
 31
0.0
  0
ARC
  5
B4A7
330
B1F3
100
AcDbEntity
  8
1
  6
Continuous
100
AcDbCircle
 10
182.264235
 20
97.52484500000001
 30
0.0
 40
2.0
100
AcDbArc
 50
90.0
 51
170.0
  0
ARC
  5
B4A8
330
B1F3
100
AcDbEntity
  8
1
  6
Continuous
100
AcDbCircle
 10
200.907836
 20
97.52484500000001
 30
0.0
 40
2.0
100
AcDbArc
 50
10.0
 51
90.0
  0
LINE
  5
B4A9
330
B1F3
100
AcDbEntity
  8
1
  6
Continuous
100
AcDbLine
 10
197.086035
 20
100.092054
 30
0.0
 11
197.086035
 21
99.52484500000002
 31
0.0
  0
LINE
  5
B4AA
330
B1F3
100
AcDbEntity
  8
1
  6
Continuous
100
AcDbLine
 10
202.877452
 20
97.87214099999999
 30
0.0
 11
202.8946079999998
 21
97.77484499999999
 31
0.0
  0
ARC
  5
B4AB
330
B1F3
100
AcDbEntity
  8
1
  6
Continuous
100
AcDbCircle
 10
238.779468
 20
95.27484499999998
 30
0.0
 40
2.5
100
AcDbArc
 50
3.192809999999998
 51
90.0
  0
ARC
  5
B4AC
330
B1F3
100
AcDbEntity
  8
1
  6
Continuous
100
AcDbCircle
 10
224.586035
 20
84.274845
 30
0.0
 40
19.82499999999999
100
AcDbArc
 50
42.822953
 51
137.08142
  0
ARC
  5
B4AD
330
B1F3
100
AcDbEntity
  8
1
  6
Continuous
100
AcDbCircle
 10
224.586035
 20
84.274845
 30
0.0
 40
19.82499999999999
100
AcDbArc
 50
327.475953
 51
32.52404699999999
  0
LINE
  5
B4AE
330
B1F3
100
AcDbEntity
  8
1
  6
Continuous
100
AcDbLine
 10
184.586035
 20
63.531381
 30
0.0
 11
184.586035
 21
65.857619
 31
0.0
  0
LINE
  5
B4AF
330
B1F3
100
AcDbEntity
  8
1
  6
Continuous
100
AcDbLine
 10
198.586035
 20
63.531381
 30
0.0
 11
184.586035
 21
63.531381
 31
0.0
  0
ARC
  5
B4B0
330
B1F3
100
AcDbEntity
  8
1
  6
Continuous
100
AcDbCircle
 10
191.586035
 20
71.357619
 30
0.0
 40
10.5
100
AcDbArc
 50
228.1896849999998
 51
311.810315
  0
LINE
  5
B4B1
330
B1F3
100
AcDbEntity
  8
1
  6
Continuous
100
AcDbLine
 10
198.586035
 20
63.531381
 30
0.0
 11
198.586035
 21
65.857619
 31
0.0
  0
LINE
  5
B4B2
330
B1F3
100
AcDbEntity
  8
1
  6
Continuous
100
AcDbLine
 10
36.378102
 20
225.7267559999999
 30
0.0
 11
36.378102
 21
211.726756
 31
0.0
  0
ARC
  5
B4B3
330
B1F3
100
AcDbEntity
  8
1
  6
Continuous
100
AcDbCircle
 10
44.20434
 20
218.7267559999999
 30
0.0
 40
10.5
100
AcDbArc
 50
138.1896849999999
 51
221.810315
  0
LINE
  5
B4B4
330
B1F3
100
AcDbEntity
  8
1
  6
Continuous
100
AcDbLine
 10
36.378102
 20
211.726756
 30
0.0
 11
38.70434
 21
211.726756
 31
0.0
  0
LINE
  5
B4B5
330
B1F3
100
AcDbEntity
  8
1
  6
Continuous
100
AcDbLine
 10
36.378102
 20
225.7267559999999
 30
0.0
 11
38.70434
 21
225.7267559999999
 31
0.0
  0
LINE
  5
B4B6
330
B1F3
100
AcDbEntity
  8
1
  6
Continuous
100
AcDbLine
 10
379.2525069999999
 20
219.768312
 30
0.0
 11
379.2525069999999
 21
211.7265429999999
 31
0.0
  0
ARC
  5
B4B7
330
B1F3
100
AcDbEntity
  8
1
  6
Continuous
100
AcDbCircle
 10
371.4262689999998
 20
218.726543
 30
0.0
 40
10.5
100
AcDbArc
 50
318.189685
 51
22.38542199999999
  0
LINE
  5
B4B8
330
B1F3
100
AcDbEntity
  8
1
  6
Continuous
100
AcDbLine
 10
379.2525069999999
 20
211.7265429999999
 30
0.0
 11
376.926269
 21
211.7265429999999
 31
0.0
  0
LINE
  5
B4B9
330
B1F3
100
AcDbEntity
  8
4
  6
CENTER
100
AcDbLine
 10
191.586035
 20
333.6778279999998
 30
0.0
 11
191.586035
 21
418.6778279999998
 31
0.0
  0
ENDSEC
  0
SECTION
  2
OBJECTS
  0
DICTIONARY
  5
B1E1
330
0
100
AcDbDictionary
281
     1
  3
ACAD_CIP_PREVIOUS_PRODUCT_INFO
350
B51B
  3
ACAD_COLOR
350
B4FD
  3
ACAD_DETAILVIEWSTYLE
350
B516
  3
ACAD_GROUP
350
B1E2
  3
ACAD_LAYOUT
350
B1EE
  3
ACAD_MATERIAL
350
B4CB
  3
ACAD_MLEADERSTYLE
350
B512
  3
ACAD_MLINESTYLE
350
B1EB
  3
ACAD_PLOTSETTINGS
350
B1ED
  3
ACAD_PLOTSTYLENAME
350
B4C9
  3
ACAD_SCALELIST
350
B500
  3
ACAD_SECTIONVIEWSTYLE
350
B514
  3
ACAD_TABLESTYLE
350
B4FE
  3
ACAD_VISUALSTYLE
350
B4E4
  3
ACDB_RECOMPOSE_DATA
350
B539
  3
AcDbVariableDictionary
350
B52C
  3
DWGPROPS
350
B53A
  0
DICTIONARY
  5
B51C
330
B1E5
100
AcDbDictionary
280
     1
281
     1
  3
ADSK_XREC_LAYER_RECONCILED
360
B51D
  0
DICTIONARY
  5
B51E
330
B1FB
100
AcDbDictionary
280
     1
281
     1
  3
ADSK_XREC_LAYER_RECONCILED
360
B51F
  0
DICTIONARY
  5
B520
330
B1FC
100
AcDbDictionary
280
     1
281
     1
  3
ADSK_XREC_LAYER_RECONCILED
360
B521
  0
DICTIONARY
  5
B522
330
B1FD
100
AcDbDictionary
280
     1
281
     1
  3
ADSK_XREC_LAYER_RECONCILED
360
B523
  0
DICTIONARY
  5
B524
330
B1FE
100
AcDbDictionary
280
     1
281
     1
  3
ADSK_XREC_LAYER_RECONCILED
360
B525
  0
DICTIONARY
  5
B526
330
B1FF
100
AcDbDictionary
280
     1
281
     1
  3
ADSK_XREC_LAYER_RECONCILED
360
B527
  0
DICTIONARY
  5
B528
330
B200
100
AcDbDictionary
280
     1
281
     1
  3
ADSK_XREC_LAYER_RECONCILED
360
B529
  0
DICTIONARY
  5
B52A
330
B201
100
AcDbDictionary
280
     1
281
     1
  3
ADSK_XREC_LAYER_RECONCILED
360
B52B
  0
DICTIONARY
  5
B4C4
330
B1F3
100
AcDbDictionary
281
     1
  3
ACAD_LAYOUTSELFREF
350
B4C5
  0
DICTIONARY
  5
B4C2
330
B1EF
100
AcDbDictionary
281
     1
  3
ACAD_LAYOUTSELFREF
350
B4C3
  0
XRECORD
  5
B51B
102
{ACAD_REACTORS
330
B1E1
102
}
330
B1E1
100
AcDbXrecord
280
     1
300
ACDLT
300
2014
300
ACDLT_F_S
  0
DICTIONARY
  5
B4FD
102
{ACAD_REACTORS
330
B1E1
102
}
330
B1E1
100
AcDbDictionary
281
     1
  0
DICTIONARY
  5
B516
102
{ACAD_REACTORS
330
B1E1
102
}
330
B1E1
100
AcDbDictionary
281
     1
  3
Imperial24
350
B517
  0
DICTIONARY
  5
B1E2
102
{ACAD_REACTORS
330
B1E1
102
}
330
B1E1
100
AcDbDictionary
281
     1
  0
DICTIONARY
  5
B1EE
102
{ACAD_REACTORS
330
B1E1
102
}
330
B1E1
100
AcDbDictionary
281
     1
  3
Model
350
B518
  3
レイアウト1
350
B519
  0
DICTIONARY
  5
B4CB
102
{ACAD_REACTORS
330
B1E1
102
}
330
B1E1
100
AcDbDictionary
281
     1
  3
ByBlock
350
B4D4
  3
ByLayer
350
B4CC
  3
Global
350
B4DC
  0
DICTIONARY
  5
B512
102
{ACAD_REACTORS
330
B1E1
102
}
330
B1E1
100
AcDbDictionary
281
     1
  3
Standard
350
B513
  0
DICTIONARY
  5
B1EB
102
{ACAD_REACTORS
330
B1E1
102
}
330
B1E1
100
AcDbDictionary
281
     1
  3
STANDARD
350
B1EC
  0
DICTIONARY
  5
B1ED
102
{ACAD_REACTORS
330
B1E1
102
}
330
B1E1
100
AcDbDictionary
281
     1
  0
ACDBDICTIONARYWDFLT
  5
B4C9
102
{ACAD_REACTORS
330
B1E1
102
}
330
B1E1
100
AcDbDictionary
281
     1
  3
Normal
350
B4CA
100
AcDbDictionaryWithDefault
340
B4CA
  0
DICTIONARY
  5
B500
102
{ACAD_REACTORS
330
B1E1
102
}
330
B1E1
100
AcDbDictionary
281
     1
  3
A0
350
B501
  3
A1
350
B502
  3
A2
350
B503
  3
A3
350
B504
  3
A4
350
B505
  3
A5
350
B506
  3
A6
350
B507
  3
A7
350
B508
  3
A8
350
B509
  3
A9
350
B50A
  3
B0
350
B50B
  3
B1
350
B50C
  3
B2
350
B50D
  3
B3
350
B50E
  3
B4
350
B50F
  3
B5
350
B510
  3
B6
350
B511
  0
DICTIONARY
  5
B514
102
{ACAD_REACTORS
330
B1E1
102
}
330
B1E1
100
AcDbDictionary
281
     1
  3
Imperial24
350
B515
  0
DICTIONARY
  5
B4FE
102
{ACAD_REACTORS
330
B1E1
102
}
330
B1E1
100
AcDbDictionary
281
     1
  3
Standard
350
B4FF
  0
DICTIONARY
  5
B4E4
102
{ACAD_REACTORS
330
B1E1
102
}
330
B1E1
100
AcDbDictionary
281
     1
  3
2dWireframe
350
B4EA
  3
Basic
350
B4E9
  3
Brighten
350
B4F0
  3
ColorChange
350
B4F4
  3
Conceptual
350
B4ED
  3
Dim
350
B4EF
  3
EdgeColorOff
350
B4FC
  3
Facepattern
350
B4F3
  3
Flat
350
B4E5
  3
FlatWithEdges
350
B4E6
  3
Gouraud
350
B4E7
  3
GouraudWithEdges
350
B4E8
  3
Hidden
350
B4EC
  3
JitterOff
350
B4FA
  3
Linepattern
350
B4F2
  3
OverhangOff
350
B4FB
  3
Realistic
350
B4EE
  3
Shaded
350
B4F9
  3
Shaded with edges
350
B4F8
  3
Shades of Gray
350
B4F5
  3
Sketchy
350
B4F6
  3
Thicken
350
B4F1
  3
Wireframe
350
B4EB
  3
X-Ray
350
B4F7
  0
XRECORD
  5
B539
102
{ACAD_REACTORS
330
B1E1
102
}
330
B1E1
100
AcDbXrecord
280
     1
 90
        1
330
B4FF
  0
DICTIONARY
  5
B52C
102
{ACAD_REACTORS
330
B1E1
102
}
330
B1E1
100
AcDbDictionary
281
     1
  3
CANNOSCALE
350
B531
  3
CMLEADERSTYLE
350
B52E
  3
CTABLESTYLE
350
B52D
  3
CVIEWDETAILSTYLE
350
B52F
  3
CVIEWSECTIONSTYLE
350
B530
  3
DIMASSOC
350
B534
  3
INDEXCTL
350
B533
  3
SORTENTS
350
B532
  3
XCLIPFRAME
350
B535
  0
XRECORD
  5
B53A
102
{ACAD_REACTORS
330
B1E1
102
}
330
B1E1
100
AcDbXrecord
280
     1
  1
DWGPROPS COOKIE
  2

  3

  4

  6

  7

  8
Yoshitsune
  9

300
=
301
=
302
=
303
=
304
=
305
=
306
=
307
=
308
=
309
=
 40
0.0000105324074074
 41
2451301.483772106
 42
2457192.687391679
  1

 90
        0
  0
XRECORD
  5
B51D
102
{ACAD_REACTORS
330
B51C
102
}
330
B51C
100
AcDbXrecord
280
     1
290
     1
  0
XRECORD
  5
B51F
102
{ACAD_REACTORS
330
B51E
102
}
330
B51E
100
AcDbXrecord
280
     1
290
     1
  0
XRECORD
  5
B521
102
{ACAD_REACTORS
330
B520
102
}
330
B520
100
AcDbXrecord
280
     1
290
     1
  0
XRECORD
  5
B523
102
{ACAD_REACTORS
330
B522
102
}
330
B522
100
AcDbXrecord
280
     1
290
     1
  0
XRECORD
  5
B525
102
{ACAD_REACTORS
330
B524
102
}
330
B524
100
AcDbXrecord
280
     1
290
     1
  0
XRECORD
  5
B527
102
{ACAD_REACTORS
330
B526
102
}
330
B526
100
AcDbXrecord
280
     1
290
     1
  0
XRECORD
  5
B529
102
{ACAD_REACTORS
330
B528
102
}
330
B528
100
AcDbXrecord
280
     1
290
     1
  0
XRECORD
  5
B52B
102
{ACAD_REACTORS
330
B52A
102
}
330
B52A
100
AcDbXrecord
280
     1
290
     1
  0
XRECORD
  5
B4C5
102
{ACAD_REACTORS
330
B4C4
102
}
330
B4C4
100
AcDbXrecord
280
     1
340
B1F3
  0
XRECORD
  5
B4C3
102
{ACAD_REACTORS
330
B4C2
102
}
330
B4C2
100
AcDbXrecord
280
     1
340
B1EF
  0
ACDBDETAILVIEWSTYLE
  5
B517
102
{ACAD_XDICTIONARY
360
B572
102
}
102
{ACAD_REACTORS
330
B516
102
}
330
B516
100
AcDbModelDocViewStyle
 70
     0
  3
Imperial24
290
     0
100
AcDbDetailViewStyle
 70
     0
 71
     0
 90
        3
 71
     1
340
B1E6
 40
0.24
340
0
 40
0.24
300

 40
0.36
280
     3
 71
     2
340
B1EA
 90
       25
 71
     3
340
B1E6
 40
0.24
 90
        1
 40
0.75
 90
        1
300
%<\AcVar ViewType \f "%tc1">% %<\AcVar ViewDetailId>%\PSCALE %<\AcVar ViewScale \f "%sn">%
 71
     4
340
B1EA
 90
       25
340
B1EA
 90
       25
280
     0
  0
LAYOUT
  5
B518
102
{ACAD_XDICTIONARY
360
B574
102
}
102
{ACAD_REACTORS
330
B1EE
102
}
330
B1EE
100
AcDbPlotSettings
  1

  2
Canon LBP9100C
  4

  6

 40
0.0
 41
0.0
 42
0.0
 43
0.0
 44
0.0
 45
0.0
 46
0.0
 47
0.0
 48
0.0
 49
0.0
140
0.0
141
0.0
142
1.0
143
1.0
 70
  1712
 72
     0
 73
     0
 74
     0
  7

 75
     0
147
1.0
148
0.0
149
0.0
100
AcDbLayout
  1
Model
 70
     1
 71
     0
 10
0.0
 20
0.0
 11
12.0
 21
9.0
 12
0.0
 22
0.0
 32
0.0
 14
0.0
 24
0.0
 34
0.0
 15
0.0
 25
0.0
 35
0.0
146
0.0
 13
0.0
 23
0.0
 33
0.0
 16
1.0
 26
0.0
 36
0.0
 17
0.0
 27
1.0
 37
0.0
 76
     0
330
B1F3
331
B4C1
  0
LAYOUT
  5
B519
102
{ACAD_XDICTIONARY
360
B576
102
}
102
{ACAD_REACTORS
330
B1EE
102
}
330
B1EE
100
AcDbPlotSettings
  1

  2
Canon LBP9100C
  4

  6

 40
0.0
 41
0.0
 42
0.0
 43
0.0
 44
0.0
 45
0.0
 46
0.0
 47
0.0
 48
0.0
 49
0.0
140
0.0
141
0.0
142
1.0
143
1.0
 70
   688
 72
     0
 73
     0
 74
     5
  7

 75
    16
147
1.0
148
0.0
149
0.0
100
AcDbLayout
  1
レイアウト1
 70
     0
 71
     1
 10
0.0
 20
0.0
 11
420.0
 21
297.0
 12
0.0
 22
0.0
 32
0.0
 14
1.000000000000000E+20
 24
1.000000000000000E+20
 34
1.000000000000000E+20
 15
-1.000000000000000E+20
 25
-1.000000000000000E+20
 35
-1.000000000000000E+20
146
0.0
 13
0.0
 23
0.0
 33
0.0
 16
1.0
 26
0.0
 36
0.0
 17
0.0
 27
1.0
 37
0.0
 76
     0
330
B1EF
  0
MATERIAL
  5
B4D4
102
{ACAD_XDICTIONARY
360
B4D5
102
}
102
{ACAD_REACTORS
330
B4CB
102
}
330
B4CB
100
AcDbMaterial
  1
ByBlock
 72
     0
 43
0.0208333333333333
 43
0.0
 43
0.0
 43
0.0
 43
0.0
 43
0.0208333333333333
 43
0.0
 43
0.0
 43
0.0
 43
0.0
 43
1.0
 43
0.0
 43
0.0
 43
0.0
 43
0.0
 43
1.0
 77
     0
 47
0.0208333333333333
 47
0.0
 47
0.0
 47
0.0
 47
0.0
 47
0.0208333333333333
 47
0.0
 47
0.0
 47
0.0
 47
0.0
 47
1.0
 47
0.0
 47
0.0
 47
0.0
 47
0.0
 47
1.0
171
     0
 49
0.0208333333333333
 49
0.0
 49
0.0
 49
0.0
 49
0.0
 49
0.0208333333333333
 49
0.0
 49
0.0
 49
0.0
 49
0.0
 49
1.0
 49
0.0
 49
0.0
 49
0.0
 49
0.0
 49
1.0
175
     0
142
0.0208333333333333
142
0.0
142
0.0
142
0.0
142
0.0
142
0.0208333333333333
142
0.0
142
0.0
142
0.0
142
0.0
142
1.0
142
0.0
142
0.0
142
0.0
142
0.0
142
1.0
179
     0
144
0.0208333333333333
144
0.0
144
0.0
144
0.0
144
0.0
144
0.0208333333333333
144
0.0
144
0.0
144
0.0
144
0.0
144
1.0
144
0.0
144
0.0
144
0.0
144
0.0
144
1.0
147
0.0208333333333333
147
0.0
147
0.0
147
0.0
147
0.0
147
0.0208333333333333
147
0.0
147
0.0
147
0.0
147
0.0
147
1.0
147
0.0
147
0.0
147
0.0
147
0.0
147
1.0
  0
MATERIAL
  5
B4CC
102
{ACAD_XDICTIONARY
360
B4CD
102
}
102
{ACAD_REACTORS
330
B4CB
102
}
330
B4CB
100
AcDbMaterial
  1
ByLayer
 72
     0
 43
0.0208333333333333
 43
0.0
 43
0.0
 43
0.0
 43
0.0
 43
0.0208333333333333
 43
0.0
 43
0.0
 43
0.0
 43
0.0
 43
1.0
 43
0.0
 43
0.0
 43
0.0
 43
0.0
 43
1.0
 77
     0
 47
0.0208333333333333
 47
0.0
 47
0.0
 47
0.0
 47
0.0
 47
0.0208333333333333
 47
0.0
 47
0.0
 47
0.0
 47
0.0
 47
1.0
 47
0.0
 47
0.0
 47
0.0
 47
0.0
 47
1.0
171
     0
 49
0.0208333333333333
 49
0.0
 49
0.0
 49
0.0
 49
0.0
 49
0.0208333333333333
 49
0.0
 49
0.0
 49
0.0
 49
0.0
 49
1.0
 49
0.0
 49
0.0
 49
0.0
 49
0.0
 49
1.0
175
     0
142
0.0208333333333333
142
0.0
142
0.0
142
0.0
142
0.0
142
0.0208333333333333
142
0.0
142
0.0
142
0.0
142
0.0
142
1.0
142
0.0
142
0.0
142
0.0
142
0.0
142
1.0
179
     0
144
0.0208333333333333
144
0.0
144
0.0
144
0.0
144
0.0
144
0.0208333333333333
144
0.0
144
0.0
144
0.0
144
0.0
144
1.0
144
0.0
144
0.0
144
0.0
144
0.0
144
1.0
147
0.0208333333333333
147
0.0
147
0.0
147
0.0
147
0.0
147
0.0208333333333333
147
0.0
147
0.0
147
0.0
147
0.0
147
1.0
147
0.0
147
0.0
147
0.0
147
0.0
147
1.0
  0
MATERIAL
  5
B4DC
102
{ACAD_XDICTIONARY
360
B4DD
102
}
102
{ACAD_REACTORS
330
B4CB
102
}
330
B4CB
100
AcDbMaterial
  1
Global
 72
     0
 43
0.0208333333333333
 43
0.0
 43
0.0
 43
0.0
 43
0.0
 43
0.0208333333333333
 43
0.0
 43
0.0
 43
0.0
 43
0.0
 43
1.0
 43
0.0
 43
0.0
 43
0.0
 43
0.0
 43
1.0
 77
     0
 47
0.0208333333333333
 47
0.0
 47
0.0
 47
0.0
 47
0.0
 47
0.0208333333333333
 47
0.0
 47
0.0
 47
0.0
 47
0.0
 47
1.0
 47
0.0
 47
0.0
 47
0.0
 47
0.0
 47
1.0
171
     0
 49
0.0208333333333333
 49
0.0
 49
0.0
 49
0.0
 49
0.0
 49
0.0208333333333333
 49
0.0
 49
0.0
 49
0.0
 49
0.0
 49
1.0
 49
0.0
 49
0.0
 49
0.0
 49
0.0
 49
1.0
175
     0
142
0.0208333333333333
142
0.0
142
0.0
142
0.0
142
0.0
142
0.0208333333333333
142
0.0
142
0.0
142
0.0
142
0.0
142
1.0
142
0.0
142
0.0
142
0.0
142
0.0
142
1.0
179
     0
144
0.0208333333333333
144
0.0
144
0.0
144
0.0
144
0.0
144
0.0208333333333333
144
0.0
144
0.0
144
0.0
144
0.0
144
1.0
144
0.0
144
0.0
144
0.0
144
0.0
144
1.0
147
0.0208333333333333
147
0.0
147
0.0
147
0.0
147
0.0
147
0.0208333333333333
147
0.0
147
0.0
147
0.0
147
0.0
147
1.0
147
0.0
147
0.0
147
0.0
147
0.0
147
1.0
  0
MLEADERSTYLE
  5
B513
102
{ACAD_REACTORS
330
B512
102
}
330
B512
100
AcDbMLeaderStyle
170
     2
171
     1
172
     0
 90
        2
 40
0.0
 41
0.0
173
     1
 91
-1056964608
340
B1E8
 92
       -2
290
     1
 42
0.09
291
     1
 43
0.36
  3
Standard
 44
0.18
300

342
B1E6
174
     1
178
     6
175
     1
176
     0
 93
-1056964608
 45
0.18
292
     0
297
     0
 46
0.18
 94
-1056964608
 47
1.0
 49
1.0
140
1.0
293
     1
141
0.0
294
     1
177
     0
142
1.0
295
     0
296
     0
143
0.125
1001
ACAD_MLEADERVER
1070
     2
  0
MLINESTYLE
  5
B1EC
102
{ACAD_REACTORS
330
B1EB
102
}
330
B1EB
100
AcDbMlineStyle
  2
STANDARD
 70
     0
  3

 62
   256
 51
90.0
 52
90.0
 71
     2
 49
0.5
 62
   256
  6
BYLAYER
 49
-0.5
 62
   256
  6
BYLAYER
  0
ACDBPLACEHOLDER
  5
B4CA
102
{ACAD_REACTORS
330
B4C9
102
}
330
B4C9
  0
SCALE
  5
B501
102
{ACAD_REACTORS
330
B500
102
}
330
B500
100
AcDbScale
 70
     0
300
1:1
140
1.0
141
1.0
290
     1
  0
SCALE
  5
B502
102
{ACAD_REACTORS
330
B500
102
}
330
B500
100
AcDbScale
 70
     0
300
1/128" = 1'-0"
140
0.0078125
141
12.0
290
     0
  0
SCALE
  5
B503
102
{ACAD_REACTORS
330
B500
102
}
330
B500
100
AcDbScale
 70
     0
300
1/64" = 1'-0"
140
0.015625
141
12.0
290
     0
  0
SCALE
  5
B504
102
{ACAD_REACTORS
330
B500
102
}
330
B500
100
AcDbScale
 70
     0
300
1/32" = 1'-0"
140
0.03125
141
12.0
290
     0
  0
SCALE
  5
B505
102
{ACAD_REACTORS
330
B500
102
}
330
B500
100
AcDbScale
 70
     0
300
1/16" = 1'-0"
140
0.0625
141
12.0
290
     0
  0
SCALE
  5
B506
102
{ACAD_REACTORS
330
B500
102
}
330
B500
100
AcDbScale
 70
     0
300
3/32" = 1'-0"
140
0.09375
141
12.0
290
     0
  0
SCALE
  5
B507
102
{ACAD_REACTORS
330
B500
102
}
330
B500
100
AcDbScale
 70
     0
300
1/8" = 1'-0"
140
0.125
141
12.0
290
     0
  0
SCALE
  5
B508
102
{ACAD_REACTORS
330
B500
102
}
330
B500
100
AcDbScale
 70
     0
300
3/16" = 1'-0"
140
0.1875
141
12.0
290
     0
  0
SCALE
  5
B509
102
{ACAD_REACTORS
330
B500
102
}
330
B500
100
AcDbScale
 70
     0
300
1/4" = 1'-0"
140
0.25
141
12.0
290
     0
  0
SCALE
  5
B50A
102
{ACAD_REACTORS
330
B500
102
}
330
B500
100
AcDbScale
 70
     0
300
3/8" = 1'-0"
140
0.375
141
12.0
290
     0
  0
SCALE
  5
B50B
102
{ACAD_REACTORS
330
B500
102
}
330
B500
100
AcDbScale
 70
     0
300
1/2" = 1'-0"
140
0.5
141
12.0
290
     0
  0
SCALE
  5
B50C
102
{ACAD_REACTORS
330
B500
102
}
330
B500
100
AcDbScale
 70
     0
300
3/4" = 1'-0"
140
0.75
141
12.0
290
     0
  0
SCALE
  5
B50D
102
{ACAD_REACTORS
330
B500
102
}
330
B500
100
AcDbScale
 70
     0
300
1" = 1'-0"
140
1.0
141
12.0
290
     0
  0
SCALE
  5
B50E
102
{ACAD_REACTORS
330
B500
102
}
330
B500
100
AcDbScale
 70
     0
300
1-1/2" = 1'-0"
140
1.5
141
12.0
290
     0
  0
SCALE
  5
B50F
102
{ACAD_REACTORS
330
B500
102
}
330
B500
100
AcDbScale
 70
     0
300
3" = 1'-0"
140
3.0
141
12.0
290
     0
  0
SCALE
  5
B510
102
{ACAD_REACTORS
330
B500
102
}
330
B500
100
AcDbScale
 70
     0
300
6" = 1'-0"
140
6.0
141
12.0
290
     0
  0
SCALE
  5
B511
102
{ACAD_REACTORS
330
B500
102
}
330
B500
100
AcDbScale
 70
     0
300
1'-0" = 1'-0"
140
12.0
141
12.0
290
     0
  0
ACDBSECTIONVIEWSTYLE
  5
B515
102
{ACAD_XDICTIONARY
360
B570
102
}
102
{ACAD_REACTORS
330
B514
102
}
330
B514
100
AcDbModelDocViewStyle
 70
     0
  3
Imperial24
290
     0
100
AcDbSectionViewStyle
 70
     0
 71
     0
 90
       78
 71
     1
340
B1E6
 40
0.24
340
0
340
0
 40
0.24
300
I, O, Q, S, X, Z
 40
0.48
 90
        3
 40
0.18
 90
        1
 71
     2
340
B1EA
 90
       25
340
B1EA
 90
       50
 40
0.24
 40
0.0
 40
0.24
 71
     3
340
B1E6
 40
0.24
 90
        1
 40
0.75
 90
        1
300
%<\AcVar ViewType \f "%tc1">% %<\AcVar ViewSectionStartId>%-%<\AcVar ViewSectionEndId>%\PSCALE %<\AcVar ViewScale \f "%sn">%
 71
     4
300
ANSI31
 40
1.0
 90
        0
290
     0
290
     0
 90
        6
 40
0.0
 40
1.570796326794896
 40
0.2617993877991494
 40
1.308996938995747
 40
-0.2617993877991494
 40
1.832595714594046
  0
TABLESTYLE
  5
B4FF
102
{ACAD_XDICTIONARY
360
B537
102
}
102
{ACAD_REACTORS
330
B4FE
102
}
330
B4FE
100
AcDbTableStyle
  3
Standard
 70
     0
 71
     0
 40
0.06
 41
0.06
280
     0
281
     0
  7
STANDARD
140
0.18
170
     2
 62
     0
 63
     7
283
     0
274
    -2
284
     1
 64
     0
275
    -2
285
     1
 65
     0
276
    -2
286
     1
 66
     0
277
    -2
287
     1
 67
     0
278
    -2
288
     1
 68
     0
279
    -2
289
     1
 69
     0
  7
STANDARD
140
0.25
170
     5
 62
     0
 63
     7
283
     0
274
    -2
284
     1
 64
     0
275
    -2
285
     1
 65
     0
276
    -2
286
     1
 66
     0
277
    -2
287
     1
 67
     0
278
    -2
288
     1
 68
     0
279
    -2
289
     1
 69
     0
  7
STANDARD
140
0.18
170
     5
 62
     0
 63
     7
283
     0
274
    -2
284
     1
 64
     0
275
    -2
285
     1
 65
     0
276
    -2
286
     1
 66
     0
277
    -2
287
     1
 67
     0
278
    -2
288
     1
 68
     0
279
    -2
289
     1
 69
     0
  0
VISUALSTYLE
  5
B4EA
102
{ACAD_XDICTIONARY
360
B548
102
}
102
{ACAD_REACTORS
330
B4E4
102
}
330
B4E4
100
AcDbVisualStyle
  2
2dWireframe
 70
     4
 71
     0
 72
     2
 73
     0
 90
        0
 40
-0.6
 41
-30.0
 62
     5
 63
     7
 74
     1
 91
        4
 64
     7
 65
   257
 75
     1
175
     1
 42
1.0
 92
        0
 66
   257
 43
1.0
 76
     1
 77
     6
 78
     2
 67
     7
 79
     5
170
     0
171
     0
290
     0
174
     0
 93
        1
 44
0.0
173
     0
291
     0
 45
0.0
1001
ACAD
1000
AcDbSavedByObjectVersion
1070
     0
  0
VISUALSTYLE
  5
B4E9
102
{ACAD_XDICTIONARY
360
B546
102
}
102
{ACAD_REACTORS
330
B4E4
102
}
330
B4E4
100
AcDbVisualStyle
  2
Basic
 70
     7
 71
     1
 72
     0
 73
     1
 90
        0
 40
-0.6
 41
-30.0
 62
     5
 63
     7
 74
     0
 91
        4
 64
     7
 65
   257
 75
     1
175
     1
 42
1.0
 92
        8
 66
     7
 43
1.0
 76
     1
 77
     6
 78
     2
 67
     7
 79
     5
170
     0
171
     0
290
     0
174
     0
 93
        1
 44
0.0
173
     0
291
     1
 45
0.0
1001
ACAD
1000
AcDbSavedByObjectVersion
1070
     0
  0
VISUALSTYLE
  5
B4F0
102
{ACAD_XDICTIONARY
360
B554
102
}
102
{ACAD_REACTORS
330
B4E4
102
}
330
B4E4
100
AcDbVisualStyle
  2
Brighten
 70
    12
 71
     2
 72
     2
 73
     0
 90
        0
 40
-0.6
 41
-30.0
 62
     5
 63
     7
 74
     1
 91
        4
 64
     7
 65
   257
 75
     1
175
     1
 42
1.0
 92
        8
 66
     7
 43
1.0
 76
     1
 77
     6
 78
     2
 67
     7
 79
     5
170
     0
171
     0
290
     0
174
     0
 93
        1
 44
50.0
173
     0
291
     1
 45
0.0
1001
ACAD
1000
AcDbSavedByObjectVersion
1070
     0
  0
VISUALSTYLE
  5
B4F4
102
{ACAD_XDICTIONARY
360
B55C
102
}
102
{ACAD_REACTORS
330
B4E4
102
}
330
B4E4
100
AcDbVisualStyle
  2
ColorChange
 70
    16
 71
     2
 72
     2
 73
     3
 90
        0
 40
-0.6
 41
-30.0
 62
     5
 63
     8
 74
     1
 91
        4
 64
     7
 65
   257
 75
     1
175
     1
 42
1.0
 92
        8
 66
     8
 43
1.0
 76
     1
 77
     6
 78
     2
 67
     7
 79
     5
170
     0
171
     0
290
     0
174
     0
 93
        1
 44
0.0
173
     0
291
     1
 45
0.0
1001
ACAD
1000
AcDbSavedByObjectVersion
1070
     0
  0
VISUALSTYLE
  5
B4ED
102
{ACAD_XDICTIONARY
360
B54E
102
}
102
{ACAD_REACTORS
330
B4E4
102
}
330
B4E4
100
AcDbVisualStyle
  2
Conceptual
 70
     9
 71
     3
 72
     2
 73
     0
 90
        0
 40
-0.6
 41
-30.0
 62
     5
 63
     7
 74
     2
 91
        2
 64
     7
 65
   257
 75
     1
175
     1
 42
179.0
 92
        8
 66
     7
 43
1.0
 76
     1
 77
     6
 78
     2
 67
     7
 79
     3
170
     0
171
     0
290
     0
174
     0
 93
        1
 44
0.0
173
     0
291
     0
 45
0.0
1001
ACAD
1000
AcDbSavedByObjectVersion
1070
     0
  0
VISUALSTYLE
  5
B4EF
102
{ACAD_XDICTIONARY
360
B552
102
}
102
{ACAD_REACTORS
330
B4E4
102
}
330
B4E4
100
AcDbVisualStyle
  2
Dim
 70
    11
 71
     2
 72
     2
 73
     0
 90
        0
 40
-0.6
 41
-30.0
 62
     5
 63
     7
 74
     1
 91
        4
 64
     7
 65
   257
 75
     1
175
     1
 42
1.0
 92
        8
 66
     7
 43
1.0
 76
     1
 77
     6
 78
     2
 67
     7
 79
     5
170
     0
171
     0
290
     0
174
     0
 93
        1
 44
-50.0
173
     0
291
     1
 45
0.0
1001
ACAD
1000
AcDbSavedByObjectVersion
1070
     0
  0
VISUALSTYLE
  5
B4FC
102
{ACAD_XDICTIONARY
360
B56C
102
}
102
{ACAD_REACTORS
330
B4E4
102
}
330
B4E4
100
AcDbVisualStyle
  2
EdgeColorOff
 70
    22
 71
     2
 72
     2
 73
     0
 90
        0
 40
-0.6
 41
-30.0
 62
     5
 63
     7
 74
     1
 91
        4
 64
     7
 65
   257
 75
     1
175
     1
 42
1.0
 92
        8
 66
     7
 43
1.0
 76
     1
 77
     6
 78
     2
 67
     7
 79
     5
170
     0
171
     0
290
     0
174
     0
 93
        1
 44
0.0
173
     0
291
     1
 45
0.0
1001
ACAD
1000
AcDbSavedByObjectVersion
1070
     0
  0
VISUALSTYLE
  5
B4F3
102
{ACAD_XDICTIONARY
360
B55A
102
}
102
{ACAD_REACTORS
330
B4E4
102
}
330
B4E4
100
AcDbVisualStyle
  2
Facepattern
 70
    15
 71
     2
 72
     2
 73
     0
 90
        0
 40
-0.6
 41
-30.0
 62
     5
 63
     7
 74
     1
 91
        4
 64
     7
 65
   257
 75
     1
175
     1
 42
1.0
 92
        8
 66
     7
 43
1.0
 76
     1
 77
     6
 78
     2
 67
     7
 79
     5
170
     0
171
     0
290
     0
174
     0
 93
        1
 44
0.0
173
     0
291
     1
 45
0.0
1001
ACAD
1000
AcDbSavedByObjectVersion
1070
     0
  0
VISUALSTYLE
  5
B4E5
102
{ACAD_XDICTIONARY
360
B53E
102
}
102
{ACAD_REACTORS
330
B4E4
102
}
330
B4E4
100
AcDbVisualStyle
  2
Flat
 70
     0
 71
     2
 72
     1
 73
     1
 90
        2
 40
-0.6
 41
30.0
 62
     5
 63
     7
 74
     0
 91
        0
 64
     7
 65
   257
 75
     1
175
     1
 42
1.0
 92
        8
 66
     7
 43
1.0
 76
     1
 77
     6
 78
     2
 67
     7
 79
     5
170
     0
171
     0
290
     0
174
     0
 93
       13
 44
0.0
173
     0
291
     1
 45
0.0
1001
ACAD
1000
AcDbSavedByObjectVersion
1070
     0
  0
VISUALSTYLE
  5
B4E6
102
{ACAD_XDICTIONARY
360
B540
102
}
102
{ACAD_REACTORS
330
B4E4
102
}
330
B4E4
100
AcDbVisualStyle
  2
FlatWithEdges
 70
     1
 71
     2
 72
     1
 73
     1
 90
        2
 40
-0.6
 41
30.0
 62
     5
 63
     7
 74
     1
 91
        0
 64
     7
 65
   257
 75
     1
175
     1
 42
1.0
 92
        0
 66
   257
 43
1.0
 76
     1
 77
     6
 78
     2
 67
     7
 79
     5
170
     0
171
     0
290
     0
174
     0
 93
       13
 44
0.0
173
     0
291
     1
 45
0.0
1001
ACAD
1000
AcDbSavedByObjectVersion
1070
     0
  0
VISUALSTYLE
  5
B4E7
102
{ACAD_XDICTIONARY
360
B542
102
}
102
{ACAD_REACTORS
330
B4E4
102
}
330
B4E4
100
AcDbVisualStyle
  2
Gouraud
 70
     2
 71
     2
 72
     2
 73
     1
 90
        2
 40
-0.6
 41
30.0
 62
     5
 63
     7
 74
     0
 91
        0
 64
     7
 65
   257
 75
     1
175
     1
 42
1.0
 92
        0
 66
     7
 43
1.0
 76
     1
 77
     6
 78
     2
 67
     7
 79
     5
170
     0
171
     0
290
     0
174
     0
 93
       13
 44
0.0
173
     0
291
     1
 45
0.0
1001
ACAD
1000
AcDbSavedByObjectVersion
1070
     0
  0
VISUALSTYLE
  5
B4E8
102
{ACAD_XDICTIONARY
360
B544
102
}
102
{ACAD_REACTORS
330
B4E4
102
}
330
B4E4
100
AcDbVisualStyle
  2
GouraudWithEdges
 70
     3
 71
     2
 72
     2
 73
     1
 90
        2
 40
-0.6
 41
30.0
 62
     5
 63
     7
 74
     1
 91
        0
 64
     7
 65
   257
 75
     1
175
     1
 42
1.0
 92
        0
 66
   257
 43
1.0
 76
     1
 77
     6
 78
     2
 67
     7
 79
     5
170
     0
171
     0
290
     0
174
     0
 93
       13
 44
0.0
173
     0
291
     1
 45
0.0
1001
ACAD
1000
AcDbSavedByObjectVersion
1070
     0
  0
VISUALSTYLE
  5
B4EC
102
{ACAD_XDICTIONARY
360
B54C
102
}
102
{ACAD_REACTORS
330
B4E4
102
}
330
B4E4
100
AcDbVisualStyle
  2
Hidden
 70
     6
 71
     1
 72
     2
 73
     2
 90
        0
 40
-0.6
 41
-30.0
 62
     5
 63
     7
 74
     2
 91
        2
 64
     7
 65
   257
 75
     2
175
     1
 42
40.0
 92
        0
 66
   257
 43
1.0
 76
     1
 77
     6
 78
     2
 67
     7
 79
     3
170
     0
171
     0
290
     0
174
     0
 93
        1
 44
0.0
173
     0
291
     0
 45
0.0
1001
ACAD
1000
AcDbSavedByObjectVersion
1070
     0
  0
VISUALSTYLE
  5
B4FA
102
{ACAD_XDICTIONARY
360
B568
102
}
102
{ACAD_REACTORS
330
B4E4
102
}
330
B4E4
100
AcDbVisualStyle
  2
JitterOff
 70
    20
 71
     2
 72
     2
 73
     0
 90
        0
 40
-0.6
 41
-30.0
 62
     5
 63
     7
 74
     1
 91
        4
 64
     7
 65
   257
 75
     1
175
     1
 42
1.0
 92
       10
 66
     7
 43
1.0
 76
     1
 77
     6
 78
     2
 67
     7
 79
     5
170
     0
171
     0
290
     0
174
     0
 93
        1
 44
0.0
173
     0
291
     1
 45
0.0
1001
ACAD
1000
AcDbSavedByObjectVersion
1070
     0
  0
VISUALSTYLE
  5
B4F2
102
{ACAD_XDICTIONARY
360
B558
102
}
102
{ACAD_REACTORS
330
B4E4
102
}
330
B4E4
100
AcDbVisualStyle
  2
Linepattern
 70
    14
 71
     2
 72
     2
 73
     0
 90
        0
 40
-0.6
 41
-30.0
 62
     5
 63
     7
 74
     1
 91
        4
 64
     7
 65
   257
 75
     7
175
     7
 42
1.0
 92
        8
 66
     7
 43
1.0
 76
     1
 77
     6
 78
     2
 67
     7
 79
     5
170
     0
171
     0
290
     0
174
     0
 93
        1
 44
0.0
173
     0
291
     1
 45
0.0
1001
ACAD
1000
AcDbSavedByObjectVersion
1070
     0
  0
VISUALSTYLE
  5
B4FB
102
{ACAD_XDICTIONARY
360
B56A
102
}
102
{ACAD_REACTORS
330
B4E4
102
}
330
B4E4
100
AcDbVisualStyle
  2
OverhangOff
 70
    21
 71
     2
 72
     2
 73
     0
 90
        0
 40
-0.6
 41
-30.0
 62
     5
 63
     7
 74
     1
 91
        4
 64
     7
 65
   257
 75
     1
175
     1
 42
1.0
 92
        9
 66
     7
 43
1.0
 76
     1
 77
     6
 78
     2
 67
     7
 79
     5
170
     0
171
     0
290
     0
174
     0
 93
        1
 44
0.0
173
     0
291
     1
 45
0.0
1001
ACAD
1000
AcDbSavedByObjectVersion
1070
     0
  0
VISUALSTYLE
  5
B4EE
102
{ACAD_XDICTIONARY
360
B550
102
}
102
{ACAD_REACTORS
330
B4E4
102
}
330
B4E4
100
AcDbVisualStyle
  2
Realistic
 70
     8
 71
     2
 72
     3
 73
     0
 90
        2
 40
-0.6
 41
30.0
 62
     5
 63
     7
 74
     0
 91
        0
 64
     7
 65
   257
 75
     1
175
     1
 42
1.0
 92
        8
 66
   257
 43
1.0
 76
     1
 77
     6
 78
     2
 67
     7
 79
     3
170
     0
171
     0
290
     0
174
     0
 93
       13
 44
0.0
173
     0
291
     0
 45
0.0
1001
ACAD
1000
AcDbSavedByObjectVersion
1070
     0
  0
VISUALSTYLE
  5
B4F9
102
{ACAD_XDICTIONARY
360
B566
102
}
102
{ACAD_REACTORS
330
B4E4
102
}
330
B4E4
100
AcDbVisualStyle
  2
Shaded
 70
    27
 71
     2
 72
     2
 73
     1
 90
        2
 40
-0.6
 41
30.0
 62
     5
 63
     7
 74
     0
 91
        4
 64
     7
 65
   257
 75
     1
175
     1
 42
1.0
 92
        8
 66
   257
 43
1.0
 76
     1
 77
     6
 78
     2
 67
     8
 79
     3
170
     0
171
     0
290
     0
174
     0
 93
        5
 44
0.0
173
     0
291
     0
 45
0.0
1001
ACAD
1000
AcDbSavedByObjectVersion
1070
     0
  0
VISUALSTYLE
  5
B4F8
102
{ACAD_XDICTIONARY
360
B564
102
}
102
{ACAD_REACTORS
330
B4E4
102
}
330
B4E4
100
AcDbVisualStyle
  2
Shaded with edges
 70
    26
 71
     2
 72
     2
 73
     1
 90
        2
 40
-0.6
 41
30.0
 62
     5
 63
     7
 74
     1
 91
       10
 64
     7
 65
   257
 75
     2
175
     1
 42
1.0
 92
        8
 66
   257
 43
1.0
 76
     1
 77
     6
 78
     2
 67
     7
 79
     3
170
     0
171
     0
290
     0
174
     0
 93
        5
 44
0.0
173
     0
291
     0
 45
0.0
1001
ACAD
1000
AcDbSavedByObjectVersion
1070
     0
  0
VISUALSTYLE
  5
B4F5
102
{ACAD_XDICTIONARY
360
B55E
102
}
102
{ACAD_REACTORS
330
B4E4
102
}
330
B4E4
100
AcDbVisualStyle
  2
Shades of Gray
 70
    23
 71
     2
 72
     2
 73
     3
 90
        0
 40
-0.6
 41
-30.0
 62
     5
 63
     7
 74
     2
 91
        2
 64
     7
 65
     7
 75
     1
175
     1
 42
40.0
 92
        8
 66
     7
 43
1.0
 76
     1
 77
     6
 78
     2
 67
     7
 79
     3
170
     0
171
     0
290
     0
174
     0
 93
        1
 44
0.0
173
     0
291
     0
 45
0.0
1001
ACAD
1000
AcDbSavedByObjectVersion
1070
     0
  0
VISUALSTYLE
  5
B4F6
102
{ACAD_XDICTIONARY
360
B560
102
}
102
{ACAD_REACTORS
330
B4E4
102
}
330
B4E4
100
AcDbVisualStyle
  2
Sketchy
 70
    24
 71
     1
 72
     2
 73
     2
 90
        0
 40
-0.6
 41
-30.0
 62
     5
 63
     7
 74
     2
 91
        2
 64
     7
 65
     7
 75
     1
175
     1
 42
40.0
 92
       11
 66
     7
 43
1.0
 76
     1
 77
     6
 78
     2
 67
     7
 79
     6
170
     0
171
     0
290
     0
174
     0
 93
        1
 44
0.0
173
     0
291
     0
 45
0.0
1001
ACAD
1000
AcDbSavedByObjectVersion
1070
     0
  0
VISUALSTYLE
  5
B4F1
102
{ACAD_XDICTIONARY
360
B556
102
}
102
{ACAD_REACTORS
330
B4E4
102
}
330
B4E4
100
AcDbVisualStyle
  2
Thicken
 70
    13
 71
     2
 72
     2
 73
     0
 90
        0
 40
-0.6
 41
-30.0
 62
     5
 63
     7
 74
     1
 91
        4
 64
     7
 65
   257
 75
     1
175
     1
 42
1.0
 92
       12
 66
     7
 43
1.0
 76
     1
 77
     6
 78
     2
 67
     7
 79
     5
170
     0
171
     0
290
     0
174
     0
 93
        1
 44
0.0
173
     0
291
     1
 45
0.0
1001
ACAD
1000
AcDbSavedByObjectVersion
1070
     0
  0
VISUALSTYLE
  5
B4EB
102
{ACAD_XDICTIONARY
360
B54A
102
}
102
{ACAD_REACTORS
330
B4E4
102
}
330
B4E4
100
AcDbVisualStyle
  2
Wireframe
 70
     5
 71
     0
 72
     2
 73
     0
 90
        0
 40
-0.6
 41
-30.0
 62
     5
 63
     7
 74
     1
 91
        4
 64
     7
 65
   257
 75
     1
175
     1
 42
1.0
 92
        0
 66
   257
 43
1.0
 76
     1
 77
     6
 78
     2
 67
     7
 79
     3
170
     0
171
     0
290
     0
174
     0
 93
        1
 44
0.0
173
     0
291
     0
 45
0.0
1001
ACAD
1000
AcDbSavedByObjectVersion
1070
     0
  0
VISUALSTYLE
  5
B4F7
102
{ACAD_XDICTIONARY
360
B562
102
}
102
{ACAD_REACTORS
330
B4E4
102
}
330
B4E4
100
AcDbVisualStyle
  2
X-Ray
 70
    25
 71
     2
 72
     2
 73
     1
 90
        1
 40
0.5
 41
-30.0
 62
     5
 63
     7
 74
     1
 91
        0
 64
     7
 65
   257
 75
     1
175
     1
 42
1.0
 92
        8
 66
     7
 43
1.0
 76
     1
 77
     6
 78
     2
 67
     7
 79
     3
170
     0
171
     0
290
     0
174
     0
 93
       13
 44
0.0
173
     0
291
     0
 45
0.0
1001
ACAD
1000
AcDbSavedByObjectVersion
1070
     0
  0
DICTIONARYVAR
  5
B531
102
{ACAD_REACTORS
330
B52C
102
}
330
B52C
100
DictionaryVariables
280
     0
  1
1:1
  0
DICTIONARYVAR
  5
B52E
102
{ACAD_REACTORS
330
B52C
102
}
330
B52C
100
DictionaryVariables
280
     0
  1
STANDARD
  0
DICTIONARYVAR
  5
B52D
102
{ACAD_REACTORS
330
B52C
102
}
330
B52C
100
DictionaryVariables
280
     0
  1
STANDARD
  0
DICTIONARYVAR
  5
B52F
102
{ACAD_REACTORS
330
B52C
102
}
330
B52C
100
DictionaryVariables
280
     0
  1
Imperial24
  0
DICTIONARYVAR
  5
B530
102
{ACAD_REACTORS
330
B52C
102
}
330
B52C
100
DictionaryVariables
280
     0
  1
Imperial24
  0
DICTIONARYVAR
  5
B534
102
{ACAD_REACTORS
330
B52C
102
}
330
B52C
100
DictionaryVariables
280
     0
  1
1
  0
DICTIONARYVAR
  5
B533
102
{ACAD_REACTORS
330
B52C
102
}
330
B52C
100
DictionaryVariables
280
     0
  1
0
  0
DICTIONARYVAR
  5
B532
102
{ACAD_REACTORS
330
B52C
102
}
330
B52C
100
DictionaryVariables
280
     0
  1
127
  0
DICTIONARYVAR
  5
B535
102
{ACAD_REACTORS
330
B52C
102
}
330
B52C
100
DictionaryVariables
280
     0
  1
2
  0
DICTIONARY
  5
B572
330
B517
100
AcDbDictionary
280
     1
281
     1
  3
ACAD_XREC_ROUNDTRIP
360
B573
  0
DICTIONARY
  5
B574
330
B518
100
AcDbDictionary
280
     1
281
     1
  3
ACAD_XREC_ROUNDTRIP
360
B575
  0
DICTIONARY
  5
B576
330
B519
100
AcDbDictionary
280
     1
281
     1
  3
ACAD_XREC_ROUNDTRIP
360
B577
  0
DICTIONARY
  5
B4D5
330
B4D4
100
AcDbDictionary
280
     1
281
     1
  3
ACAD_XREC_ROUNDTRIP
360
B53C
  3
BUMPTILE
360
B4D7
  3
DIFFUSETILE
360
B4D6
  3
OPACITYTILE
360
B4DA
  3
REFLECTIONTILE
360
B4D9
  3
REFRACTIONTILE
360
B4DB
  3
SPECULARTILE
360
B4D8
  0
DICTIONARY
  5
B4CD
330
B4CC
100
AcDbDictionary
280
     1
281
     1
  3
ACAD_XREC_ROUNDTRIP
360
B53B
  3
BUMPTILE
360
B4CF
  3
DIFFUSETILE
360
B4CE
  3
OPACITYTILE
360
B4D2
  3
REFLECTIONTILE
360
B4D1
  3
REFRACTIONTILE
360
B4D3
  3
SPECULARTILE
360
B4D0
  0
DICTIONARY
  5
B4DD
330
B4DC
100
AcDbDictionary
280
     1
281
     1
  3
ACAD_XREC_ROUNDTRIP
360
B53D
  3
BUMPTILE
360
B4DF
  3
DIFFUSETILE
360
B4DE
  3
OPACITYTILE
360
B4E2
  3
REFLECTIONTILE
360
B4E1
  3
REFRACTIONTILE
360
B4E3
  3
SPECULARTILE
360
B4E0
  0
DICTIONARY
  5
B570
330
B515
100
AcDbDictionary
280
     1
281
     1
  3
ACAD_XREC_ROUNDTRIP
360
B571
  0
DICTIONARY
  5
B537
330
B4FF
100
AcDbDictionary
280
     1
281
     1
  3
ACAD_ROUNDTRIP_2008_TABLESTYLE_CELLSTYLEMAP
360
B538
  3
ACAD_XREC_ROUNDTRIP
360
B56E
  0
DICTIONARY
  5
B548
330
B4EA
100
AcDbDictionary
280
     1
281
     1
  3
ACAD_XREC_ROUNDTRIP
360
B549
  0
DICTIONARY
  5
B546
330
B4E9
100
AcDbDictionary
280
     1
281
     1
  3
ACAD_XREC_ROUNDTRIP
360
B547
  0
DICTIONARY
  5
B554
330
B4F0
100
AcDbDictionary
280
     1
281
     1
  3
ACAD_XREC_ROUNDTRIP
360
B555
  0
DICTIONARY
  5
B55C
330
B4F4
100
AcDbDictionary
280
     1
281
     1
  3
ACAD_XREC_ROUNDTRIP
360
B55D
  0
DICTIONARY
  5
B54E
330
B4ED
100
AcDbDictionary
280
     1
281
     1
  3
ACAD_XREC_ROUNDTRIP
360
B54F
  0
DICTIONARY
  5
B552
330
B4EF
100
AcDbDictionary
280
     1
281
     1
  3
ACAD_XREC_ROUNDTRIP
360
B553
  0
DICTIONARY
  5
B56C
330
B4FC
100
AcDbDictionary
280
     1
281
     1
  3
ACAD_XREC_ROUNDTRIP
360
B56D
  0
DICTIONARY
  5
B55A
330
B4F3
100
AcDbDictionary
280
     1
281
     1
  3
ACAD_XREC_ROUNDTRIP
360
B55B
  0
DICTIONARY
  5
B53E
330
B4E5
100
AcDbDictionary
280
     1
281
     1
  3
ACAD_XREC_ROUNDTRIP
360
B53F
  0
DICTIONARY
  5
B540
330
B4E6
100
AcDbDictionary
280
     1
281
     1
  3
ACAD_XREC_ROUNDTRIP
360
B541
  0
DICTIONARY
  5
B542
330
B4E7
100
AcDbDictionary
280
     1
281
     1
  3
ACAD_XREC_ROUNDTRIP
360
B543
  0
DICTIONARY
  5
B544
330
B4E8
100
AcDbDictionary
280
     1
281
     1
  3
ACAD_XREC_ROUNDTRIP
360
B545
  0
DICTIONARY
  5
B54C
330
B4EC
100
AcDbDictionary
280
     1
281
     1
  3
ACAD_XREC_ROUNDTRIP
360
B54D
  0
DICTIONARY
  5
B568
330
B4FA
100
AcDbDictionary
280
     1
281
     1
  3
ACAD_XREC_ROUNDTRIP
360
B569
  0
DICTIONARY
  5
B558
330
B4F2
100
AcDbDictionary
280
     1
281
     1
  3
ACAD_XREC_ROUNDTRIP
360
B559
  0
DICTIONARY
  5
B56A
330
B4FB
100
AcDbDictionary
280
     1
281
     1
  3
ACAD_XREC_ROUNDTRIP
360
B56B
  0
DICTIONARY
  5
B550
330
B4EE
100
AcDbDictionary
280
     1
281
     1
  3
ACAD_XREC_ROUNDTRIP
360
B551
  0
DICTIONARY
  5
B566
330
B4F9
100
AcDbDictionary
280
     1
281
     1
  3
ACAD_XREC_ROUNDTRIP
360
B567
  0
DICTIONARY
  5
B564
330
B4F8
100
AcDbDictionary
280
     1
281
     1
  3
ACAD_XREC_ROUNDTRIP
360
B565
  0
DICTIONARY
  5
B55E
330
B4F5
100
AcDbDictionary
280
     1
281
     1
  3
ACAD_XREC_ROUNDTRIP
360
B55F
  0
DICTIONARY
  5
B560
330
B4F6
100
AcDbDictionary
280
     1
281
     1
  3
ACAD_XREC_ROUNDTRIP
360
B561
  0
DICTIONARY
  5
B556
330
B4F1
100
AcDbDictionary
280
     1
281
     1
  3
ACAD_XREC_ROUNDTRIP
360
B557
  0
DICTIONARY
  5
B54A
330
B4EB
100
AcDbDictionary
280
     1
281
     1
  3
ACAD_XREC_ROUNDTRIP
360
B54B
  0
DICTIONARY
  5
B562
330
B4F7
100
AcDbDictionary
280
     1
281
     1
  3
ACAD_XREC_ROUNDTRIP
360
B563
  0
XRECORD
  5
B573
102
{ACAD_REACTORS
330
B572
102
}
330
B572
100
AcDbXrecord
280
     1
102
DISPLAYNAME
  1
Imperial24
102
FLAGS
 90
        0
  0
XRECORD
  5
B575
102
{ACAD_REACTORS
330
B574
102
}
330
B574
100
AcDbXrecord
280
     1
102
SHADEPLOT
 70
     0
102
SHADEPLOTRESLEVEL
 70
     2
102
SHADEPLOTCUSTOMDPI
 70
   300
  0
XRECORD
  5
B577
102
{ACAD_REACTORS
330
B576
102
}
330
B576
100
AcDbXrecord
280
     1
102
SHADEPLOT
 70
     0
102
SHADEPLOTRESLEVEL
 70
     2
102
SHADEPLOTCUSTOMDPI
 70
   300
  0
XRECORD
  5
B53C
102
{ACAD_REACTORS
330
B4D5
102
}
330
B4D5
100
AcDbXrecord
280
     1
102
MATERIAL
148
0.0
149
0.0
149
0.0
 93
        0
 94
      127
282
     0
 72
     0
 77
     0
171
     0
175
     0
179
     0
273
     0
  0
XRECORD
  5
B4D7
102
{ACAD_REACTORS
330
B4D5
102
}
330
B4D5
100
AcDbXrecord
280
     1
270
     1
271
     1
  0
XRECORD
  5
B4D6
102
{ACAD_REACTORS
330
B4D5
102
}
330
B4D5
100
AcDbXrecord
280
     1
270
     1
271
     1
  0
XRECORD
  5
B4DA
102
{ACAD_REACTORS
330
B4D5
102
}
330
B4D5
100
AcDbXrecord
280
     1
270
     1
271
     1
  0
XRECORD
  5
B4D9
102
{ACAD_REACTORS
330
B4D5
102
}
330
B4D5
100
AcDbXrecord
280
     1
270
     1
271
     1
  0
XRECORD
  5
B4DB
102
{ACAD_REACTORS
330
B4D5
102
}
330
B4D5
100
AcDbXrecord
280
     1
270
     1
271
     1
  0
XRECORD
  5
B4D8
102
{ACAD_REACTORS
330
B4D5
102
}
330
B4D5
100
AcDbXrecord
280
     1
270
     1
271
     1
  0
XRECORD
  5
B53B
102
{ACAD_REACTORS
330
B4CD
102
}
330
B4CD
100
AcDbXrecord
280
     1
102
MATERIAL
148
0.0
149
0.0
149
0.0
 93
        0
 94
      127
282
     0
 72
     0
 77
     0
171
     0
175
     0
179
     0
273
     0
  0
XRECORD
  5
B4CF
102
{ACAD_REACTORS
330
B4CD
102
}
330
B4CD
100
AcDbXrecord
280
     1
270
     1
271
     1
  0
XRECORD
  5
B4CE
102
{ACAD_REACTORS
330
B4CD
102
}
330
B4CD
100
AcDbXrecord
280
     1
270
     1
271
     1
  0
XRECORD
  5
B4D2
102
{ACAD_REACTORS
330
B4CD
102
}
330
B4CD
100
AcDbXrecord
280
     1
270
     1
271
     1
  0
XRECORD
  5
B4D1
102
{ACAD_REACTORS
330
B4CD
102
}
330
B4CD
100
AcDbXrecord
280
     1
270
     1
271
     1
  0
XRECORD
  5
B4D3
102
{ACAD_REACTORS
330
B4CD
102
}
330
B4CD
100
AcDbXrecord
280
     1
270
     1
271
     1
  0
XRECORD
  5
B4D0
102
{ACAD_REACTORS
330
B4CD
102
}
330
B4CD
100
AcDbXrecord
280
     1
270
     1
271
     1
  0
XRECORD
  5
B53D
102
{ACAD_REACTORS
330
B4DD
102
}
330
B4DD
100
AcDbXrecord
280
     1
102
MATERIAL
148
0.0
149
0.0
149
0.0
 93
        0
 94
      127
282
     0
 72
     0
 77
     0
171
     0
175
     0
179
     0
273
     0
  0
XRECORD
  5
B4DF
102
{ACAD_REACTORS
330
B4DD
102
}
330
B4DD
100
AcDbXrecord
280
     1
270
     1
271
     1
  0
XRECORD
  5
B4DE
102
{ACAD_REACTORS
330
B4DD
102
}
330
B4DD
100
AcDbXrecord
280
     1
270
     1
271
     1
  0
XRECORD
  5
B4E2
102
{ACAD_REACTORS
330
B4DD
102
}
330
B4DD
100
AcDbXrecord
280
     1
270
     1
271
     1
  0
XRECORD
  5
B4E1
102
{ACAD_REACTORS
330
B4DD
102
}
330
B4DD
100
AcDbXrecord
280
     1
270
     1
271
     1
  0
XRECORD
  5
B4E3
102
{ACAD_REACTORS
330
B4DD
102
}
330
B4DD
100
AcDbXrecord
280
     1
270
     1
271
     1
  0
XRECORD
  5
B4E0
102
{ACAD_REACTORS
330
B4DD
102
}
330
B4DD
100
AcDbXrecord
280
     1
270
     1
271
     1
  0
XRECORD
  5
B571
102
{ACAD_REACTORS
330
B570
102
}
330
B570
100
AcDbXrecord
280
     1
102
DISPLAYNAME
  1
Imperial24
102
FLAGS
 90
        0
  0
CELLSTYLEMAP
  5
B538
102
{ACAD_REACTORS
330
B537
102
}
330
B537
100
AcDbCellStyleMap
 90
        3
300
CELLSTYLE
  1
TABLEFORMAT_BEGIN
 90
        5
170
     1
 91
        0
 92
    32768
 62
   257
 93
        1
300
CONTENTFORMAT
  1
CONTENTFORMAT_BEGIN
 90
        0
 91
        0
 92
      512
 93
        0
300

 40
0.0
140
1.0
 94
        5
 62
     0
340
B1E6
144
0.25
309
CONTENTFORMAT_END
171
     0
 94
        0
309
TABLEFORMAT_END
  1
CELLSTYLE_BEGIN
 90
        1
 91
        1
300
_TITLE
309
CELLSTYLE_END
300
CELLSTYLE
  1
TABLEFORMAT_BEGIN
 90
        5
170
     1
 91
        0
 92
        0
 62
   257
 93
        1
300
CONTENTFORMAT
  1
CONTENTFORMAT_BEGIN
 90
        0
 91
        0
 92
      512
 93
        0
300

 40
0.0
140
1.0
 94
        5
 62
     0
340
B1E6
144
0.18
309
CONTENTFORMAT_END
171
     0
 94
        0
309
TABLEFORMAT_END
  1
CELLSTYLE_BEGIN
 90
        2
 91
        1
300
_HEADER
309
CELLSTYLE_END
300
CELLSTYLE
  1
TABLEFORMAT_BEGIN
 90
        5
170
     1
 91
        0
 92
        0
 62
   257
 93
        1
300
CONTENTFORMAT
  1
CONTENTFORMAT_BEGIN
 90
        0
 91
        0
 92
      512
 93
        0
300

 40
0.0
140
1.0
 94
        2
 62
     0
340
B1E6
144
0.18
309
CONTENTFORMAT_END
171
     0
 94
        0
309
TABLEFORMAT_END
  1
CELLSTYLE_BEGIN
 90
        3
 91
        2
300
_DATA
309
CELLSTYLE_END
  0
XRECORD
  5
B56E
102
{ACAD_REACTORS
330
B537
102
}
330
B537
100
AcDbXrecord
280
     1
102
ACAD_ROUNDTRIP_PRE2007_TABLESTYLE
 90
      512
 91
        0
  1

 92
      512
 93
        0
  2

 94
      512
 95
        0
  3

  0
XRECORD
  5
B549
102
{ACAD_REACTORS
330
B548
102
}
330
B548
100
AcDbXrecord
280
     1
102
RTVSPost2010Prop28
280
     1
102
RTVSPost2010PropOp28
 70
     1
102
RTVSPost2010Prop29
280
     1
102
RTVSPost2010PropOp29
 70
     1
102
RTVSPost2010Prop30
280
     0
102
RTVSPost2010PropOp30
 70
     1
102
RTVSPost2010Prop31
280
     0
102
RTVSPost2010PropOp31
 70
     1
102
RTVSPost2010Prop32
280
     0
102
RTVSPost2010PropOp32
 70
     1
102
RTVSPost2010Prop33
280
     0
102
RTVSPost2010PropOp33
 70
     1
102
RTVSPost2010Prop34
280
     0
102
RTVSPost2010PropOp34
 70
     1
102
RTVSPost2010Prop35
280
     0
102
RTVSPost2010PropOp35
 70
     1
102
RTVSPost2010Prop36
280
     0
102
RTVSPost2010PropOp36
 70
     1
102
RTVSPost2010Prop37
 90
       50
102
RTVSPost2010PropOp37
 70
     1
102
RTVSPost2010Prop38
140
0.0
102
RTVSPost2010PropOp38
 70
     1
102
RTVSPost2010Prop39
140
1.0
102
RTVSPost2010PropOp39
 70
     1
102
RTVSPost2010Prop40
 90
        0
102
RTVSPost2010PropOp40
 70
     1
102
RTVSPost2010Prop41ColorIndex
 90
       18
102
RTVSPost2010Prop41ColorRGB
 90
        0
102
RTVSPost2010PropOp41
 70
     1
102
RTVSPost2010Prop42
 90
       50
102
RTVSPost2010PropOp42
 70
     1
102
RTVSPost2010Prop43
 90
        3
102
RTVSPost2010PropOp43
 70
     1
102
RTVSPost2010Prop44ColorIndex
 90
        5
102
RTVSPost2010Prop44ColorRGB
 90
      255
102
RTVSPost2010PropOp44
 70
     1
102
RTVSPost2010Prop45
280
     0
102
RTVSPost2010PropOp45
 70
     1
102
RTVSPost2010Prop46
 90
       50
102
RTVSPost2010PropOp46
 70
     1
102
RTVSPost2010Prop47
 90
       50
102
RTVSPost2010PropOp47
 70
     1
102
RTVSPost2010Prop48
 90
       50
102
RTVSPost2010PropOp48
 70
     1
102
RTVSPost2010Prop49
280
     0
102
RTVSPost2010PropOp49
 70
     1
102
RTVSPost2010Prop50
 90
       50
102
RTVSPost2010PropOp50
 70
     1
102
RTVSPost2010Prop51ColorIndex
 90
      256
102
RTVSPost2010Prop51ColorRGB
 90
-16777216
102
RTVSPost2010PropOp51
 70
     0
102
RTVSPost2010Prop52
140
1.0
102
RTVSPost2010PropOp52
 70
     0
102
RTVSPost2010Prop53
 90
        2
102
RTVSPost2010PropOp53
 70
     1
102
RTVSPost2010Prop54
  1
strokes_ogs.tif
102
RTVSPost2010PropOp54
 70
     1
102
RTVSPost2010Prop55
280
     0
102
RTVSPost2010PropOp55
 70
     1
102
RTVSPost2010Prop56
140
1.0
102
RTVSPost2010PropOp56
 70
     1
102
RTVSPost2010Prop57
140
1.0
102
RTVSPost2010PropOp57
 70
     1
102
RTVSPropertyOp0
 70
     1
102
RTVSPropertyOp1
 70
     1
102
RTVSPropertyOp2
 70
     1
102
RTVSPropertyOp3
 70
     1
102
RTVSPropertyOp4
 70
     1
102
RTVSPropertyOp5
 70
     1
102
RTVSPropertyOp6
 70
     1
102
RTVSPropertyOp7
 70
     1
102
RTVSPropertyOp8
 70
     1
102
RTVSPropertyOp9
 70
     1
102
RTVSPropertyOp10
 70
     1
102
RTVSPropertyOp11
 70
     1
102
RTVSPropertyOp12
 70
     1
102
RTVSPropertyOp13
 70
     1
102
RTVSPropertyOp14
 70
     1
102
RTVSPropertyOp15
 70
     1
102
RTVSPropertyOp16
 70
     1
102
RTVSPropertyOp17
 70
     1
102
RTVSPropertyOp18
 70
     1
102
RTVSPropertyOp19
 70
     1
102
RTVSPropertyOp20
 70
     1
102
RTVSPropertyOp21
 70
     1
102
RTVSPropertyOp22
 70
     1
102
RTVSPropertyOp23
 70
     1
102
RTVSPropertyOp24
 70
     1
102
RTVSPropertyOp25
 70
     1
102
RTVSPropertyOp26
 70
     1
102
RTVSPropertyOp27
 70
     1
102
RTVSPropertyOp28
 70
     1
102
RTVSPropertyOp29
 70
     1
102
RTVSPropertyOp30
 70
     1
102
RTVSPropertyOp31
 70
     1
102
RTVSPropertyOp32
 70
     1
102
RTVSPropertyOp33
 70
     1
102
RTVSPropertyOp34
 70
     1
102
RTVSPropertyOp35
 70
     1
102
RTVSPropertyOp36
 70
     1
102
RTVSPropertyOp37
 70
     1
102
RTVSPropertyOp38
 70
     1
102
RTVSPropertyOp39
 70
     1
102
RTVSPropertyOp40
 70
     1
102
RTVSPropertyOp41
 70
     1
102
RTVSPropertyOp42
 70
     1
102
RTVSPropertyOp43
 70
     1
102
RTVSPropertyOp44
 70
     1
102
RTVSPropertyOp45
 70
     1
102
RTVSPropertyOp46
 70
     1
102
RTVSPropertyOp47
 70
     1
102
RTVSPropertyOp48
 70
     1
102
RTVSPropertyOp49
 70
     1
102
RTVSPropertyOp50
 70
     1
102
RTVSPropertyOp51
 70
     0
102
RTVSPropertyOp52
 70
     0
102
RTVSPropertyOp53
 70
     1
102
RTVSPropertyOp54
 70
     1
102
RTVSPropertyOp55
 70
     1
102
RTVSPropertyOp56
 70
     1
102
RTVSPropertyOp57
 70
     1
102
RTVSPropertyOp58
 70
     1
102
RTVSPropertyOp59
 70
     1
102
RTVSPropertyOp60
 70
     1
102
RTVSPropertyOp61
 70
     1
102
RTVSPropertyOp62
 70
     1
  0
XRECORD
  5
B547
102
{ACAD_REACTORS
330
B546
102
}
330
B546
100
AcDbXrecord
280
     1
102
RTVSPost2010Prop28
280
     0
102
RTVSPost2010PropOp28
 70
     1
102
RTVSPost2010Prop29
280
     1
102
RTVSPost2010PropOp29
 70
     1
102
RTVSPost2010Prop30
280
     1
102
RTVSPost2010PropOp30
 70
     1
102
RTVSPost2010Prop31
280
     0
102
RTVSPost2010PropOp31
 70
     1
102
RTVSPost2010Prop32
280
     0
102
RTVSPost2010PropOp32
 70
     1
102
RTVSPost2010Prop33
280
     0
102
RTVSPost2010PropOp33
 70
     1
102
RTVSPost2010Prop34
280
     0
102
RTVSPost2010PropOp34
 70
     1
102
RTVSPost2010Prop35
280
     0
102
RTVSPost2010PropOp35
 70
     1
102
RTVSPost2010Prop36
280
     0
102
RTVSPost2010PropOp36
 70
     1
102
RTVSPost2010Prop37
 90
       50
102
RTVSPost2010PropOp37
 70
     1
102
RTVSPost2010Prop38
140
0.0
102
RTVSPost2010PropOp38
 70
     1
102
RTVSPost2010Prop39
140
1.0
102
RTVSPost2010PropOp39
 70
     1
102
RTVSPost2010Prop40
 90
        0
102
RTVSPost2010PropOp40
 70
     1
102
RTVSPost2010Prop41ColorIndex
 90
       18
102
RTVSPost2010Prop41ColorRGB
 90
        0
102
RTVSPost2010PropOp41
 70
     1
102
RTVSPost2010Prop42
 90
       50
102
RTVSPost2010PropOp42
 70
     1
102
RTVSPost2010Prop43
 90
        3
102
RTVSPost2010PropOp43
 70
     1
102
RTVSPost2010Prop44ColorIndex
 90
        5
102
RTVSPost2010Prop44ColorRGB
 90
      255
102
RTVSPost2010PropOp44
 70
     1
102
RTVSPost2010Prop45
280
     0
102
RTVSPost2010PropOp45
 70
     1
102
RTVSPost2010Prop46
 90
       50
102
RTVSPost2010PropOp46
 70
     1
102
RTVSPost2010Prop47
 90
       50
102
RTVSPost2010PropOp47
 70
     1
102
RTVSPost2010Prop48
 90
       50
102
RTVSPost2010PropOp48
 70
     1
102
RTVSPost2010Prop49
280
     0
102
RTVSPost2010PropOp49
 70
     1
102
RTVSPost2010Prop50
 90
       50
102
RTVSPost2010PropOp50
 70
     1
102
RTVSPost2010Prop51ColorIndex
 90
      256
102
RTVSPost2010Prop51ColorRGB
 90
-16777216
102
RTVSPost2010PropOp51
 70
     0
102
RTVSPost2010Prop52
140
1.0
102
RTVSPost2010PropOp52
 70
     0
102
RTVSPost2010Prop53
 90
        2
102
RTVSPost2010PropOp53
 70
     1
102
RTVSPost2010Prop54
  1
strokes_ogs.tif
102
RTVSPost2010PropOp54
 70
     1
102
RTVSPost2010Prop55
280
     0
102
RTVSPost2010PropOp55
 70
     1
102
RTVSPost2010Prop56
140
1.0
102
RTVSPost2010PropOp56
 70
     1
102
RTVSPost2010Prop57
140
1.0
102
RTVSPost2010PropOp57
 70
     1
102
RTVSPropertyOp0
 70
     1
102
RTVSPropertyOp1
 70
     1
102
RTVSPropertyOp2
 70
     1
102
RTVSPropertyOp3
 70
     1
102
RTVSPropertyOp4
 70
     1
102
RTVSPropertyOp5
 70
     1
102
RTVSPropertyOp6
 70
     1
102
RTVSPropertyOp7
 70
     1
102
RTVSPropertyOp8
 70
     1
102
RTVSPropertyOp9
 70
     1
102
RTVSPropertyOp10
 70
     1
102
RTVSPropertyOp11
 70
     1
102
RTVSPropertyOp12
 70
     1
102
RTVSPropertyOp13
 70
     1
102
RTVSPropertyOp14
 70
     1
102
RTVSPropertyOp15
 70
     1
102
RTVSPropertyOp16
 70
     1
102
RTVSPropertyOp17
 70
     1
102
RTVSPropertyOp18
 70
     1
102
RTVSPropertyOp19
 70
     1
102
RTVSPropertyOp20
 70
     1
102
RTVSPropertyOp21
 70
     1
102
RTVSPropertyOp22
 70
     1
102
RTVSPropertyOp23
 70
     1
102
RTVSPropertyOp24
 70
     1
102
RTVSPropertyOp25
 70
     1
102
RTVSPropertyOp26
 70
     1
102
RTVSPropertyOp27
 70
     1
102
RTVSPropertyOp28
 70
     1
102
RTVSPropertyOp29
 70
     1
102
RTVSPropertyOp30
 70
     1
102
RTVSPropertyOp31
 70
     1
102
RTVSPropertyOp32
 70
     1
102
RTVSPropertyOp33
 70
     1
102
RTVSPropertyOp34
 70
     1
102
RTVSPropertyOp35
 70
     1
102
RTVSPropertyOp36
 70
     1
102
RTVSPropertyOp37
 70
     1
102
RTVSPropertyOp38
 70
     1
102
RTVSPropertyOp39
 70
     1
102
RTVSPropertyOp40
 70
     1
102
RTVSPropertyOp41
 70
     1
102
RTVSPropertyOp42
 70
     1
102
RTVSPropertyOp43
 70
     1
102
RTVSPropertyOp44
 70
     1
102
RTVSPropertyOp45
 70
     1
102
RTVSPropertyOp46
 70
     1
102
RTVSPropertyOp47
 70
     1
102
RTVSPropertyOp48
 70
     1
102
RTVSPropertyOp49
 70
     1
102
RTVSPropertyOp50
 70
     1
102
RTVSPropertyOp51
 70
     0
102
RTVSPropertyOp52
 70
     0
102
RTVSPropertyOp53
 70
     1
102
RTVSPropertyOp54
 70
     1
102
RTVSPropertyOp55
 70
     1
102
RTVSPropertyOp56
 70
     1
102
RTVSPropertyOp57
 70
     1
102
RTVSPropertyOp58
 70
     1
102
RTVSPropertyOp59
 70
     1
102
RTVSPropertyOp60
 70
     1
102
RTVSPropertyOp61
 70
     1
102
RTVSPropertyOp62
 70
     1
  0
XRECORD
  5
B555
102
{ACAD_REACTORS
330
B554
102
}
330
B554
100
AcDbXrecord
280
     1
102
RTVSPost2010Prop28
280
     0
102
RTVSPost2010PropOp28
 70
     1
102
RTVSPost2010Prop29
280
     1
102
RTVSPost2010PropOp29
 70
     1
102
RTVSPost2010Prop30
280
     1
102
RTVSPost2010PropOp30
 70
     1
102
RTVSPost2010Prop31
280
     0
102
RTVSPost2010PropOp31
 70
     1
102
RTVSPost2010Prop32
280
     0
102
RTVSPost2010PropOp32
 70
     1
102
RTVSPost2010Prop33
280
     0
102
RTVSPost2010PropOp33
 70
     1
102
RTVSPost2010Prop34
280
     0
102
RTVSPost2010PropOp34
 70
     1
102
RTVSPost2010Prop35
280
     0
102
RTVSPost2010PropOp35
 70
     1
102
RTVSPost2010Prop36
280
     0
102
RTVSPost2010PropOp36
 70
     1
102
RTVSPost2010Prop37
 90
       50
102
RTVSPost2010PropOp37
 70
     1
102
RTVSPost2010Prop38
140
0.0
102
RTVSPost2010PropOp38
 70
     1
102
RTVSPost2010Prop39
140
1.0
102
RTVSPost2010PropOp39
 70
     1
102
RTVSPost2010Prop40
 90
        0
102
RTVSPost2010PropOp40
 70
     1
102
RTVSPost2010Prop41ColorIndex
 90
       18
102
RTVSPost2010Prop41ColorRGB
 90
        0
102
RTVSPost2010PropOp41
 70
     1
102
RTVSPost2010Prop42
 90
       50
102
RTVSPost2010PropOp42
 70
     1
102
RTVSPost2010Prop43
 90
        3
102
RTVSPost2010PropOp43
 70
     1
102
RTVSPost2010Prop44ColorIndex
 90
        5
102
RTVSPost2010Prop44ColorRGB
 90
      255
102
RTVSPost2010PropOp44
 70
     1
102
RTVSPost2010Prop45
280
     0
102
RTVSPost2010PropOp45
 70
     1
102
RTVSPost2010Prop46
 90
       50
102
RTVSPost2010PropOp46
 70
     1
102
RTVSPost2010Prop47
 90
       50
102
RTVSPost2010PropOp47
 70
     1
102
RTVSPost2010Prop48
 90
       50
102
RTVSPost2010PropOp48
 70
     1
102
RTVSPost2010Prop49
280
     0
102
RTVSPost2010PropOp49
 70
     1
102
RTVSPost2010Prop50
 90
       50
102
RTVSPost2010PropOp50
 70
     1
102
RTVSPost2010Prop51ColorIndex
 90
      256
102
RTVSPost2010Prop51ColorRGB
 90
-16777216
102
RTVSPost2010PropOp51
 70
     0
102
RTVSPost2010Prop52
140
1.0
102
RTVSPost2010PropOp52
 70
     0
102
RTVSPost2010Prop53
 90
        2
102
RTVSPost2010PropOp53
 70
     1
102
RTVSPost2010Prop54
  1
strokes_ogs.tif
102
RTVSPost2010PropOp54
 70
     1
102
RTVSPost2010Prop55
280
     0
102
RTVSPost2010PropOp55
 70
     1
102
RTVSPost2010Prop56
140
1.0
102
RTVSPost2010PropOp56
 70
     1
102
RTVSPost2010Prop57
140
1.0
102
RTVSPost2010PropOp57
 70
     1
102
RTVSPropertyOp0
 70
     1
102
RTVSPropertyOp1
 70
     1
102
RTVSPropertyOp2
 70
     1
102
RTVSPropertyOp3
 70
     1
102
RTVSPropertyOp4
 70
     1
102
RTVSPropertyOp5
 70
     1
102
RTVSPropertyOp6
 70
     1
102
RTVSPropertyOp7
 70
     1
102
RTVSPropertyOp8
 70
     1
102
RTVSPropertyOp9
 70
     1
102
RTVSPropertyOp10
 70
     1
102
RTVSPropertyOp11
 70
     1
102
RTVSPropertyOp12
 70
     1
102
RTVSPropertyOp13
 70
     1
102
RTVSPropertyOp14
 70
     1
102
RTVSPropertyOp15
 70
     1
102
RTVSPropertyOp16
 70
     1
102
RTVSPropertyOp17
 70
     1
102
RTVSPropertyOp18
 70
     1
102
RTVSPropertyOp19
 70
     1
102
RTVSPropertyOp20
 70
     1
102
RTVSPropertyOp21
 70
     1
102
RTVSPropertyOp22
 70
     1
102
RTVSPropertyOp23
 70
     1
102
RTVSPropertyOp24
 70
     1
102
RTVSPropertyOp25
 70
     1
102
RTVSPropertyOp26
 70
     1
102
RTVSPropertyOp27
 70
     1
102
RTVSPropertyOp28
 70
     1
102
RTVSPropertyOp29
 70
     1
102
RTVSPropertyOp30
 70
     1
102
RTVSPropertyOp31
 70
     1
102
RTVSPropertyOp32
 70
     1
102
RTVSPropertyOp33
 70
     1
102
RTVSPropertyOp34
 70
     1
102
RTVSPropertyOp35
 70
     1
102
RTVSPropertyOp36
 70
     1
102
RTVSPropertyOp37
 70
     1
102
RTVSPropertyOp38
 70
     1
102
RTVSPropertyOp39
 70
     1
102
RTVSPropertyOp40
 70
     1
102
RTVSPropertyOp41
 70
     1
102
RTVSPropertyOp42
 70
     1
102
RTVSPropertyOp43
 70
     1
102
RTVSPropertyOp44
 70
     1
102
RTVSPropertyOp45
 70
     1
102
RTVSPropertyOp46
 70
     1
102
RTVSPropertyOp47
 70
     1
102
RTVSPropertyOp48
 70
     1
102
RTVSPropertyOp49
 70
     1
102
RTVSPropertyOp50
 70
     1
102
RTVSPropertyOp51
 70
     0
102
RTVSPropertyOp52
 70
     0
102
RTVSPropertyOp53
 70
     1
102
RTVSPropertyOp54
 70
     1
102
RTVSPropertyOp55
 70
     1
102
RTVSPropertyOp56
 70
     1
102
RTVSPropertyOp57
 70
     1
102
RTVSPropertyOp58
 70
     1
102
RTVSPropertyOp59
 70
     1
102
RTVSPropertyOp60
 70
     1
102
RTVSPropertyOp61
 70
     1
102
RTVSPropertyOp62
 70
     1
  0
XRECORD
  5
B55D
102
{ACAD_REACTORS
330
B55C
102
}
330
B55C
100
AcDbXrecord
280
     1
102
RTVSPost2010Prop28
280
     0
102
RTVSPost2010PropOp28
 70
     1
102
RTVSPost2010Prop29
280
     1
102
RTVSPost2010PropOp29
 70
     1
102
RTVSPost2010Prop30
280
     1
102
RTVSPost2010PropOp30
 70
     1
102
RTVSPost2010Prop31
280
     0
102
RTVSPost2010PropOp31
 70
     1
102
RTVSPost2010Prop32
280
     0
102
RTVSPost2010PropOp32
 70
     1
102
RTVSPost2010Prop33
280
     0
102
RTVSPost2010PropOp33
 70
     1
102
RTVSPost2010Prop34
280
     0
102
RTVSPost2010PropOp34
 70
     1
102
RTVSPost2010Prop35
280
     0
102
RTVSPost2010PropOp35
 70
     1
102
RTVSPost2010Prop36
280
     0
102
RTVSPost2010PropOp36
 70
     1
102
RTVSPost2010Prop37
 90
       50
102
RTVSPost2010PropOp37
 70
     1
102
RTVSPost2010Prop38
140
0.0
102
RTVSPost2010PropOp38
 70
     1
102
RTVSPost2010Prop39
140
1.0
102
RTVSPost2010PropOp39
 70
     1
102
RTVSPost2010Prop40
 90
        0
102
RTVSPost2010PropOp40
 70
     1
102
RTVSPost2010Prop41ColorIndex
 90
       18
102
RTVSPost2010Prop41ColorRGB
 90
        0
102
RTVSPost2010PropOp41
 70
     1
102
RTVSPost2010Prop42
 90
       50
102
RTVSPost2010PropOp42
 70
     1
102
RTVSPost2010Prop43
 90
        3
102
RTVSPost2010PropOp43
 70
     1
102
RTVSPost2010Prop44ColorIndex
 90
        5
102
RTVSPost2010Prop44ColorRGB
 90
      255
102
RTVSPost2010PropOp44
 70
     1
102
RTVSPost2010Prop45
280
     0
102
RTVSPost2010PropOp45
 70
     1
102
RTVSPost2010Prop46
 90
       50
102
RTVSPost2010PropOp46
 70
     1
102
RTVSPost2010Prop47
 90
       50
102
RTVSPost2010PropOp47
 70
     1
102
RTVSPost2010Prop48
 90
       50
102
RTVSPost2010PropOp48
 70
     1
102
RTVSPost2010Prop49
280
     0
102
RTVSPost2010PropOp49
 70
     1
102
RTVSPost2010Prop50
 90
       50
102
RTVSPost2010PropOp50
 70
     1
102
RTVSPost2010Prop51ColorIndex
 90
      256
102
RTVSPost2010Prop51ColorRGB
 90
-16777216
102
RTVSPost2010PropOp51
 70
     0
102
RTVSPost2010Prop52
140
1.0
102
RTVSPost2010PropOp52
 70
     0
102
RTVSPost2010Prop53
 90
        2
102
RTVSPost2010PropOp53
 70
     1
102
RTVSPost2010Prop54
  1
strokes_ogs.tif
102
RTVSPost2010PropOp54
 70
     1
102
RTVSPost2010Prop55
280
     0
102
RTVSPost2010PropOp55
 70
     1
102
RTVSPost2010Prop56
140
1.0
102
RTVSPost2010PropOp56
 70
     1
102
RTVSPost2010Prop57
140
1.0
102
RTVSPost2010PropOp57
 70
     1
102
RTVSPropertyOp0
 70
     1
102
RTVSPropertyOp1
 70
     1
102
RTVSPropertyOp2
 70
     1
102
RTVSPropertyOp3
 70
     1
102
RTVSPropertyOp4
 70
     1
102
RTVSPropertyOp5
 70
     1
102
RTVSPropertyOp6
 70
     1
102
RTVSPropertyOp7
 70
     1
102
RTVSPropertyOp8
 70
     1
102
RTVSPropertyOp9
 70
     1
102
RTVSPropertyOp10
 70
     1
102
RTVSPropertyOp11
 70
     1
102
RTVSPropertyOp12
 70
     1
102
RTVSPropertyOp13
 70
     1
102
RTVSPropertyOp14
 70
     1
102
RTVSPropertyOp15
 70
     1
102
RTVSPropertyOp16
 70
     1
102
RTVSPropertyOp17
 70
     1
102
RTVSPropertyOp18
 70
     1
102
RTVSPropertyOp19
 70
     1
102
RTVSPropertyOp20
 70
     1
102
RTVSPropertyOp21
 70
     1
102
RTVSPropertyOp22
 70
     1
102
RTVSPropertyOp23
 70
     1
102
RTVSPropertyOp24
 70
     1
102
RTVSPropertyOp25
 70
     1
102
RTVSPropertyOp26
 70
     1
102
RTVSPropertyOp27
 70
     1
102
RTVSPropertyOp28
 70
     1
102
RTVSPropertyOp29
 70
     1
102
RTVSPropertyOp30
 70
     1
102
RTVSPropertyOp31
 70
     1
102
RTVSPropertyOp32
 70
     1
102
RTVSPropertyOp33
 70
     1
102
RTVSPropertyOp34
 70
     1
102
RTVSPropertyOp35
 70
     1
102
RTVSPropertyOp36
 70
     1
102
RTVSPropertyOp37
 70
     1
102
RTVSPropertyOp38
 70
     1
102
RTVSPropertyOp39
 70
     1
102
RTVSPropertyOp40
 70
     1
102
RTVSPropertyOp41
 70
     1
102
RTVSPropertyOp42
 70
     1
102
RTVSPropertyOp43
 70
     1
102
RTVSPropertyOp44
 70
     1
102
RTVSPropertyOp45
 70
     1
102
RTVSPropertyOp46
 70
     1
102
RTVSPropertyOp47
 70
     1
102
RTVSPropertyOp48
 70
     1
102
RTVSPropertyOp49
 70
     1
102
RTVSPropertyOp50
 70
     1
102
RTVSPropertyOp51
 70
     0
102
RTVSPropertyOp52
 70
     0
102
RTVSPropertyOp53
 70
     1
102
RTVSPropertyOp54
 70
     1
102
RTVSPropertyOp55
 70
     1
102
RTVSPropertyOp56
 70
     1
102
RTVSPropertyOp57
 70
     1
102
RTVSPropertyOp58
 70
     1
102
RTVSPropertyOp59
 70
     1
102
RTVSPropertyOp60
 70
     1
102
RTVSPropertyOp61
 70
     1
102
RTVSPropertyOp62
 70
     1
  0
XRECORD
  5
B54F
102
{ACAD_REACTORS
330
B54E
102
}
330
B54E
100
AcDbXrecord
280
     1
102
RTVSPost2010Prop28
280
     0
102
RTVSPost2010PropOp28
 70
     1
102
RTVSPost2010Prop29
280
     1
102
RTVSPost2010PropOp29
 70
     1
102
RTVSPost2010Prop30
280
     1
102
RTVSPost2010PropOp30
 70
     1
102
RTVSPost2010Prop31
280
     0
102
RTVSPost2010PropOp31
 70
     1
102
RTVSPost2010Prop32
280
     0
102
RTVSPost2010PropOp32
 70
     1
102
RTVSPost2010Prop33
280
     0
102
RTVSPost2010PropOp33
 70
     1
102
RTVSPost2010Prop34
280
     0
102
RTVSPost2010PropOp34
 70
     1
102
RTVSPost2010Prop35
280
     0
102
RTVSPost2010PropOp35
 70
     1
102
RTVSPost2010Prop36
280
     0
102
RTVSPost2010PropOp36
 70
     1
102
RTVSPost2010Prop37
 90
       50
102
RTVSPost2010PropOp37
 70
     1
102
RTVSPost2010Prop38
140
0.0
102
RTVSPost2010PropOp38
 70
     1
102
RTVSPost2010Prop39
140
1.0
102
RTVSPost2010PropOp39
 70
     1
102
RTVSPost2010Prop40
 90
        0
102
RTVSPost2010PropOp40
 70
     1
102
RTVSPost2010Prop41ColorIndex
 90
       18
102
RTVSPost2010Prop41ColorRGB
 90
        0
102
RTVSPost2010PropOp41
 70
     1
102
RTVSPost2010Prop42
 90
       50
102
RTVSPost2010PropOp42
 70
     1
102
RTVSPost2010Prop43
 90
        3
102
RTVSPost2010PropOp43
 70
     1
102
RTVSPost2010Prop44ColorIndex
 90
        5
102
RTVSPost2010Prop44ColorRGB
 90
      255
102
RTVSPost2010PropOp44
 70
     1
102
RTVSPost2010Prop45
280
     0
102
RTVSPost2010PropOp45
 70
     1
102
RTVSPost2010Prop46
 90
       50
102
RTVSPost2010PropOp46
 70
     1
102
RTVSPost2010Prop47
 90
       50
102
RTVSPost2010PropOp47
 70
     1
102
RTVSPost2010Prop48
 90
       50
102
RTVSPost2010PropOp48
 70
     1
102
RTVSPost2010Prop49
280
     0
102
RTVSPost2010PropOp49
 70
     1
102
RTVSPost2010Prop50
 90
       50
102
RTVSPost2010PropOp50
 70
     1
102
RTVSPost2010Prop51ColorIndex
 90
      256
102
RTVSPost2010Prop51ColorRGB
 90
-16777216
102
RTVSPost2010PropOp51
 70
     0
102
RTVSPost2010Prop52
140
1.0
102
RTVSPost2010PropOp52
 70
     0
102
RTVSPost2010Prop53
 90
        2
102
RTVSPost2010PropOp53
 70
     1
102
RTVSPost2010Prop54
  1
strokes_ogs.tif
102
RTVSPost2010PropOp54
 70
     1
102
RTVSPost2010Prop55
280
     0
102
RTVSPost2010PropOp55
 70
     1
102
RTVSPost2010Prop56
140
1.0
102
RTVSPost2010PropOp56
 70
     1
102
RTVSPost2010Prop57
140
1.0
102
RTVSPost2010PropOp57
 70
     1
102
RTVSPropertyOp0
 70
     1
102
RTVSPropertyOp1
 70
     1
102
RTVSPropertyOp2
 70
     1
102
RTVSPropertyOp3
 70
     1
102
RTVSPropertyOp4
 70
     1
102
RTVSPropertyOp5
 70
     1
102
RTVSPropertyOp6
 70
     1
102
RTVSPropertyOp7
 70
     1
102
RTVSPropertyOp8
 70
     1
102
RTVSPropertyOp9
 70
     1
102
RTVSPropertyOp10
 70
     1
102
RTVSPropertyOp11
 70
     1
102
RTVSPropertyOp12
 70
     1
102
RTVSPropertyOp13
 70
     1
102
RTVSPropertyOp14
 70
     1
102
RTVSPropertyOp15
 70
     1
102
RTVSPropertyOp16
 70
     1
102
RTVSPropertyOp17
 70
     1
102
RTVSPropertyOp18
 70
     1
102
RTVSPropertyOp19
 70
     1
102
RTVSPropertyOp20
 70
     1
102
RTVSPropertyOp21
 70
     1
102
RTVSPropertyOp22
 70
     1
102
RTVSPropertyOp23
 70
     1
102
RTVSPropertyOp24
 70
     1
102
RTVSPropertyOp25
 70
     1
102
RTVSPropertyOp26
 70
     1
102
RTVSPropertyOp27
 70
     1
102
RTVSPropertyOp28
 70
     1
102
RTVSPropertyOp29
 70
     1
102
RTVSPropertyOp30
 70
     1
102
RTVSPropertyOp31
 70
     1
102
RTVSPropertyOp32
 70
     1
102
RTVSPropertyOp33
 70
     1
102
RTVSPropertyOp34
 70
     1
102
RTVSPropertyOp35
 70
     1
102
RTVSPropertyOp36
 70
     1
102
RTVSPropertyOp37
 70
     1
102
RTVSPropertyOp38
 70
     1
102
RTVSPropertyOp39
 70
     1
102
RTVSPropertyOp40
 70
     1
102
RTVSPropertyOp41
 70
     1
102
RTVSPropertyOp42
 70
     1
102
RTVSPropertyOp43
 70
     1
102
RTVSPropertyOp44
 70
     1
102
RTVSPropertyOp45
 70
     1
102
RTVSPropertyOp46
 70
     1
102
RTVSPropertyOp47
 70
     1
102
RTVSPropertyOp48
 70
     1
102
RTVSPropertyOp49
 70
     1
102
RTVSPropertyOp50
 70
     1
102
RTVSPropertyOp51
 70
     0
102
RTVSPropertyOp52
 70
     0
102
RTVSPropertyOp53
 70
     1
102
RTVSPropertyOp54
 70
     1
102
RTVSPropertyOp55
 70
     1
102
RTVSPropertyOp56
 70
     1
102
RTVSPropertyOp57
 70
     1
102
RTVSPropertyOp58
 70
     1
102
RTVSPropertyOp59
 70
     1
102
RTVSPropertyOp60
 70
     1
102
RTVSPropertyOp61
 70
     1
102
RTVSPropertyOp62
 70
     1
  0
XRECORD
  5
B553
102
{ACAD_REACTORS
330
B552
102
}
330
B552
100
AcDbXrecord
280
     1
102
RTVSPost2010Prop28
280
     0
102
RTVSPost2010PropOp28
 70
     1
102
RTVSPost2010Prop29
280
     1
102
RTVSPost2010PropOp29
 70
     1
102
RTVSPost2010Prop30
280
     1
102
RTVSPost2010PropOp30
 70
     1
102
RTVSPost2010Prop31
280
     0
102
RTVSPost2010PropOp31
 70
     1
102
RTVSPost2010Prop32
280
     0
102
RTVSPost2010PropOp32
 70
     1
102
RTVSPost2010Prop33
280
     0
102
RTVSPost2010PropOp33
 70
     1
102
RTVSPost2010Prop34
280
     0
102
RTVSPost2010PropOp34
 70
     1
102
RTVSPost2010Prop35
280
     0
102
RTVSPost2010PropOp35
 70
     1
102
RTVSPost2010Prop36
280
     0
102
RTVSPost2010PropOp36
 70
     1
102
RTVSPost2010Prop37
 90
       50
102
RTVSPost2010PropOp37
 70
     1
102
RTVSPost2010Prop38
140
0.0
102
RTVSPost2010PropOp38
 70
     1
102
RTVSPost2010Prop39
140
1.0
102
RTVSPost2010PropOp39
 70
     1
102
RTVSPost2010Prop40
 90
        0
102
RTVSPost2010PropOp40
 70
     1
102
RTVSPost2010Prop41ColorIndex
 90
       18
102
RTVSPost2010Prop41ColorRGB
 90
        0
102
RTVSPost2010PropOp41
 70
     1
102
RTVSPost2010Prop42
 90
       50
102
RTVSPost2010PropOp42
 70
     1
102
RTVSPost2010Prop43
 90
        3
102
RTVSPost2010PropOp43
 70
     1
102
RTVSPost2010Prop44ColorIndex
 90
        5
102
RTVSPost2010Prop44ColorRGB
 90
      255
102
RTVSPost2010PropOp44
 70
     1
102
RTVSPost2010Prop45
280
     0
102
RTVSPost2010PropOp45
 70
     1
102
RTVSPost2010Prop46
 90
       50
102
RTVSPost2010PropOp46
 70
     1
102
RTVSPost2010Prop47
 90
       50
102
RTVSPost2010PropOp47
 70
     1
102
RTVSPost2010Prop48
 90
       50
102
RTVSPost2010PropOp48
 70
     1
102
RTVSPost2010Prop49
280
     0
102
RTVSPost2010PropOp49
 70
     1
102
RTVSPost2010Prop50
 90
       50
102
RTVSPost2010PropOp50
 70
     1
102
RTVSPost2010Prop51ColorIndex
 90
      256
102
RTVSPost2010Prop51ColorRGB
 90
-16777216
102
RTVSPost2010PropOp51
 70
     0
102
RTVSPost2010Prop52
140
1.0
102
RTVSPost2010PropOp52
 70
     0
102
RTVSPost2010Prop53
 90
        2
102
RTVSPost2010PropOp53
 70
     1
102
RTVSPost2010Prop54
  1
strokes_ogs.tif
102
RTVSPost2010PropOp54
 70
     1
102
RTVSPost2010Prop55
280
     0
102
RTVSPost2010PropOp55
 70
     1
102
RTVSPost2010Prop56
140
1.0
102
RTVSPost2010PropOp56
 70
     1
102
RTVSPost2010Prop57
140
1.0
102
RTVSPost2010PropOp57
 70
     1
102
RTVSPropertyOp0
 70
     1
102
RTVSPropertyOp1
 70
     1
102
RTVSPropertyOp2
 70
     1
102
RTVSPropertyOp3
 70
     1
102
RTVSPropertyOp4
 70
     1
102
RTVSPropertyOp5
 70
     1
102
RTVSPropertyOp6
 70
     1
102
RTVSPropertyOp7
 70
     1
102
RTVSPropertyOp8
 70
     1
102
RTVSPropertyOp9
 70
     1
102
RTVSPropertyOp10
 70
     1
102
RTVSPropertyOp11
 70
     1
102
RTVSPropertyOp12
 70
     1
102
RTVSPropertyOp13
 70
     1
102
RTVSPropertyOp14
 70
     1
102
RTVSPropertyOp15
 70
     1
102
RTVSPropertyOp16
 70
     1
102
RTVSPropertyOp17
 70
     1
102
RTVSPropertyOp18
 70
     1
102
RTVSPropertyOp19
 70
     1
102
RTVSPropertyOp20
 70
     1
102
RTVSPropertyOp21
 70
     1
102
RTVSPropertyOp22
 70
     1
102
RTVSPropertyOp23
 70
     1
102
RTVSPropertyOp24
 70
     1
102
RTVSPropertyOp25
 70
     1
102
RTVSPropertyOp26
 70
     1
102
RTVSPropertyOp27
 70
     1
102
RTVSPropertyOp28
 70
     1
102
RTVSPropertyOp29
 70
     1
102
RTVSPropertyOp30
 70
     1
102
RTVSPropertyOp31
 70
     1
102
RTVSPropertyOp32
 70
     1
102
RTVSPropertyOp33
 70
     1
102
RTVSPropertyOp34
 70
     1
102
RTVSPropertyOp35
 70
     1
102
RTVSPropertyOp36
 70
     1
102
RTVSPropertyOp37
 70
     1
102
RTVSPropertyOp38
 70
     1
102
RTVSPropertyOp39
 70
     1
102
RTVSPropertyOp40
 70
     1
102
RTVSPropertyOp41
 70
     1
102
RTVSPropertyOp42
 70
     1
102
RTVSPropertyOp43
 70
     1
102
RTVSPropertyOp44
 70
     1
102
RTVSPropertyOp45
 70
     1
102
RTVSPropertyOp46
 70
     1
102
RTVSPropertyOp47
 70
     1
102
RTVSPropertyOp48
 70
     1
102
RTVSPropertyOp49
 70
     1
102
RTVSPropertyOp50
 70
     1
102
RTVSPropertyOp51
 70
     0
102
RTVSPropertyOp52
 70
     0
102
RTVSPropertyOp53
 70
     1
102
RTVSPropertyOp54
 70
     1
102
RTVSPropertyOp55
 70
     1
102
RTVSPropertyOp56
 70
     1
102
RTVSPropertyOp57
 70
     1
102
RTVSPropertyOp58
 70
     1
102
RTVSPropertyOp59
 70
     1
102
RTVSPropertyOp60
 70
     1
102
RTVSPropertyOp61
 70
     1
102
RTVSPropertyOp62
 70
     1
  0
XRECORD
  5
B56D
102
{ACAD_REACTORS
330
B56C
102
}
330
B56C
100
AcDbXrecord
280
     1
102
RTVSPost2010Prop28
280
     0
102
RTVSPost2010PropOp28
 70
     1
102
RTVSPost2010Prop29
280
     1
102
RTVSPost2010PropOp29
 70
     1
102
RTVSPost2010Prop30
280
     1
102
RTVSPost2010PropOp30
 70
     1
102
RTVSPost2010Prop31
280
     0
102
RTVSPost2010PropOp31
 70
     1
102
RTVSPost2010Prop32
280
     0
102
RTVSPost2010PropOp32
 70
     1
102
RTVSPost2010Prop33
280
     0
102
RTVSPost2010PropOp33
 70
     1
102
RTVSPost2010Prop34
280
     0
102
RTVSPost2010PropOp34
 70
     1
102
RTVSPost2010Prop35
280
     0
102
RTVSPost2010PropOp35
 70
     1
102
RTVSPost2010Prop36
280
     0
102
RTVSPost2010PropOp36
 70
     1
102
RTVSPost2010Prop37
 90
       50
102
RTVSPost2010PropOp37
 70
     0
102
RTVSPost2010Prop38
140
0.0
102
RTVSPost2010PropOp38
 70
     0
102
RTVSPost2010Prop39
140
1.0
102
RTVSPost2010PropOp39
 70
     0
102
RTVSPost2010Prop40
 90
        0
102
RTVSPost2010PropOp40
 70
     0
102
RTVSPost2010Prop41ColorIndex
 90
       18
102
RTVSPost2010Prop41ColorRGB
 90
        0
102
RTVSPost2010PropOp41
 70
     0
102
RTVSPost2010Prop42
 90
       50
102
RTVSPost2010PropOp42
 70
     0
102
RTVSPost2010Prop43
 90
        3
102
RTVSPost2010PropOp43
 70
     0
102
RTVSPost2010Prop44ColorIndex
 90
        5
102
RTVSPost2010Prop44ColorRGB
 90
      255
102
RTVSPost2010PropOp44
 70
     0
102
RTVSPost2010Prop45
280
     0
102
RTVSPost2010PropOp45
 70
     1
102
RTVSPost2010Prop46
 90
       50
102
RTVSPost2010PropOp46
 70
     0
102
RTVSPost2010Prop47
 90
       50
102
RTVSPost2010PropOp47
 70
     0
102
RTVSPost2010Prop48
 90
       50
102
RTVSPost2010PropOp48
 70
     0
102
RTVSPost2010Prop49
280
     0
102
RTVSPost2010PropOp49
 70
     1
102
RTVSPost2010Prop50
 90
       50
102
RTVSPost2010PropOp50
 70
     0
102
RTVSPost2010Prop51ColorIndex
 90
      256
102
RTVSPost2010Prop51ColorRGB
 90
-16777216
102
RTVSPost2010PropOp51
 70
     0
102
RTVSPost2010Prop52
140
1.0
102
RTVSPost2010PropOp52
 70
     0
102
RTVSPost2010Prop53
 90
        2
102
RTVSPost2010PropOp53
 70
     0
102
RTVSPost2010Prop54
  1
strokes_ogs.tif
102
RTVSPost2010PropOp54
 70
     0
102
RTVSPost2010Prop55
280
     0
102
RTVSPost2010PropOp55
 70
     1
102
RTVSPost2010Prop56
140
1.0
102
RTVSPost2010PropOp56
 70
     0
102
RTVSPost2010Prop57
140
1.0
102
RTVSPost2010PropOp57
 70
     0
102
RTVSPropertyOp0
 70
     0
102
RTVSPropertyOp1
 70
     0
102
RTVSPropertyOp2
 70
     0
102
RTVSPropertyOp3
 70
     0
102
RTVSPropertyOp4
 70
     0
102
RTVSPropertyOp5
 70
     0
102
RTVSPropertyOp6
 70
     0
102
RTVSPropertyOp7
 70
     0
102
RTVSPropertyOp8
 70
     0
102
RTVSPropertyOp9
 70
     0
102
RTVSPropertyOp10
 70
     0
102
RTVSPropertyOp11
 70
     0
102
RTVSPropertyOp12
 70
     0
102
RTVSPropertyOp13
 70
     0
102
RTVSPropertyOp14
 70
     2
102
RTVSPropertyOp15
 70
     0
102
RTVSPropertyOp16
 70
     0
102
RTVSPropertyOp17
 70
     0
102
RTVSPropertyOp18
 70
     0
102
RTVSPropertyOp19
 70
     0
102
RTVSPropertyOp20
 70
     0
102
RTVSPropertyOp21
 70
     0
102
RTVSPropertyOp22
 70
     0
102
RTVSPropertyOp23
 70
     0
102
RTVSPropertyOp24
 70
     0
102
RTVSPropertyOp25
 70
     0
102
RTVSPropertyOp26
 70
     0
102
RTVSPropertyOp27
 70
     0
102
RTVSPropertyOp28
 70
     1
102
RTVSPropertyOp29
 70
     1
102
RTVSPropertyOp30
 70
     1
102
RTVSPropertyOp31
 70
     1
102
RTVSPropertyOp32
 70
     1
102
RTVSPropertyOp33
 70
     1
102
RTVSPropertyOp34
 70
     1
102
RTVSPropertyOp35
 70
     1
102
RTVSPropertyOp36
 70
     1
102
RTVSPropertyOp37
 70
     0
102
RTVSPropertyOp38
 70
     0
102
RTVSPropertyOp39
 70
     0
102
RTVSPropertyOp40
 70
     0
102
RTVSPropertyOp41
 70
     0
102
RTVSPropertyOp42
 70
     0
102
RTVSPropertyOp43
 70
     0
102
RTVSPropertyOp44
 70
     0
102
RTVSPropertyOp45
 70
     1
102
RTVSPropertyOp46
 70
     0
102
RTVSPropertyOp47
 70
     0
102
RTVSPropertyOp48
 70
     0
102
RTVSPropertyOp49
 70
     1
102
RTVSPropertyOp50
 70
     0
102
RTVSPropertyOp51
 70
     0
102
RTVSPropertyOp52
 70
     0
102
RTVSPropertyOp53
 70
     0
102
RTVSPropertyOp54
 70
     0
102
RTVSPropertyOp55
 70
     1
102
RTVSPropertyOp56
 70
     0
102
RTVSPropertyOp57
 70
     0
102
RTVSPropertyOp58
 70
     0
102
RTVSPropertyOp59
 70
     0
102
RTVSPropertyOp60
 70
     0
102
RTVSPropertyOp61
 70
     0
102
RTVSPropertyOp62
 70
     0
  0
XRECORD
  5
B55B
102
{ACAD_REACTORS
330
B55A
102
}
330
B55A
100
AcDbXrecord
280
     1
102
RTVSPost2010Prop28
280
     0
102
RTVSPost2010PropOp28
 70
     1
102
RTVSPost2010Prop29
280
     1
102
RTVSPost2010PropOp29
 70
     1
102
RTVSPost2010Prop30
280
     1
102
RTVSPost2010PropOp30
 70
     1
102
RTVSPost2010Prop31
280
     0
102
RTVSPost2010PropOp31
 70
     1
102
RTVSPost2010Prop32
280
     0
102
RTVSPost2010PropOp32
 70
     1
102
RTVSPost2010Prop33
280
     0
102
RTVSPost2010PropOp33
 70
     1
102
RTVSPost2010Prop34
280
     0
102
RTVSPost2010PropOp34
 70
     1
102
RTVSPost2010Prop35
280
     0
102
RTVSPost2010PropOp35
 70
     1
102
RTVSPost2010Prop36
280
     0
102
RTVSPost2010PropOp36
 70
     1
102
RTVSPost2010Prop37
 90
       50
102
RTVSPost2010PropOp37
 70
     1
102
RTVSPost2010Prop38
140
0.0
102
RTVSPost2010PropOp38
 70
     1
102
RTVSPost2010Prop39
140
1.0
102
RTVSPost2010PropOp39
 70
     1
102
RTVSPost2010Prop40
 90
        0
102
RTVSPost2010PropOp40
 70
     1
102
RTVSPost2010Prop41ColorIndex
 90
       18
102
RTVSPost2010Prop41ColorRGB
 90
        0
102
RTVSPost2010PropOp41
 70
     1
102
RTVSPost2010Prop42
 90
       50
102
RTVSPost2010PropOp42
 70
     1
102
RTVSPost2010Prop43
 90
        3
102
RTVSPost2010PropOp43
 70
     1
102
RTVSPost2010Prop44ColorIndex
 90
        5
102
RTVSPost2010Prop44ColorRGB
 90
      255
102
RTVSPost2010PropOp44
 70
     1
102
RTVSPost2010Prop45
280
     0
102
RTVSPost2010PropOp45
 70
     1
102
RTVSPost2010Prop46
 90
       50
102
RTVSPost2010PropOp46
 70
     1
102
RTVSPost2010Prop47
 90
       50
102
RTVSPost2010PropOp47
 70
     1
102
RTVSPost2010Prop48
 90
       50
102
RTVSPost2010PropOp48
 70
     1
102
RTVSPost2010Prop49
280
     0
102
RTVSPost2010PropOp49
 70
     1
102
RTVSPost2010Prop50
 90
       50
102
RTVSPost2010PropOp50
 70
     1
102
RTVSPost2010Prop51ColorIndex
 90
      256
102
RTVSPost2010Prop51ColorRGB
 90
-16777216
102
RTVSPost2010PropOp51
 70
     0
102
RTVSPost2010Prop52
140
1.0
102
RTVSPost2010PropOp52
 70
     0
102
RTVSPost2010Prop53
 90
        2
102
RTVSPost2010PropOp53
 70
     1
102
RTVSPost2010Prop54
  1
strokes_ogs.tif
102
RTVSPost2010PropOp54
 70
     1
102
RTVSPost2010Prop55
280
     0
102
RTVSPost2010PropOp55
 70
     1
102
RTVSPost2010Prop56
140
1.0
102
RTVSPost2010PropOp56
 70
     1
102
RTVSPost2010Prop57
140
1.0
102
RTVSPost2010PropOp57
 70
     1
102
RTVSPropertyOp0
 70
     1
102
RTVSPropertyOp1
 70
     1
102
RTVSPropertyOp2
 70
     1
102
RTVSPropertyOp3
 70
     1
102
RTVSPropertyOp4
 70
     1
102
RTVSPropertyOp5
 70
     1
102
RTVSPropertyOp6
 70
     1
102
RTVSPropertyOp7
 70
     1
102
RTVSPropertyOp8
 70
     1
102
RTVSPropertyOp9
 70
     1
102
RTVSPropertyOp10
 70
     1
102
RTVSPropertyOp11
 70
     1
102
RTVSPropertyOp12
 70
     1
102
RTVSPropertyOp13
 70
     1
102
RTVSPropertyOp14
 70
     1
102
RTVSPropertyOp15
 70
     1
102
RTVSPropertyOp16
 70
     1
102
RTVSPropertyOp17
 70
     1
102
RTVSPropertyOp18
 70
     1
102
RTVSPropertyOp19
 70
     1
102
RTVSPropertyOp20
 70
     1
102
RTVSPropertyOp21
 70
     1
102
RTVSPropertyOp22
 70
     1
102
RTVSPropertyOp23
 70
     1
102
RTVSPropertyOp24
 70
     1
102
RTVSPropertyOp25
 70
     1
102
RTVSPropertyOp26
 70
     1
102
RTVSPropertyOp27
 70
     1
102
RTVSPropertyOp28
 70
     1
102
RTVSPropertyOp29
 70
     1
102
RTVSPropertyOp30
 70
     1
102
RTVSPropertyOp31
 70
     1
102
RTVSPropertyOp32
 70
     1
102
RTVSPropertyOp33
 70
     1
102
RTVSPropertyOp34
 70
     1
102
RTVSPropertyOp35
 70
     1
102
RTVSPropertyOp36
 70
     1
102
RTVSPropertyOp37
 70
     1
102
RTVSPropertyOp38
 70
     1
102
RTVSPropertyOp39
 70
     1
102
RTVSPropertyOp40
 70
     1
102
RTVSPropertyOp41
 70
     1
102
RTVSPropertyOp42
 70
     1
102
RTVSPropertyOp43
 70
     1
102
RTVSPropertyOp44
 70
     1
102
RTVSPropertyOp45
 70
     1
102
RTVSPropertyOp46
 70
     1
102
RTVSPropertyOp47
 70
     1
102
RTVSPropertyOp48
 70
     1
102
RTVSPropertyOp49
 70
     1
102
RTVSPropertyOp50
 70
     1
102
RTVSPropertyOp51
 70
     0
102
RTVSPropertyOp52
 70
     0
102
RTVSPropertyOp53
 70
     1
102
RTVSPropertyOp54
 70
     1
102
RTVSPropertyOp55
 70
     1
102
RTVSPropertyOp56
 70
     1
102
RTVSPropertyOp57
 70
     1
102
RTVSPropertyOp58
 70
     1
102
RTVSPropertyOp59
 70
     1
102
RTVSPropertyOp60
 70
     1
102
RTVSPropertyOp61
 70
     1
102
RTVSPropertyOp62
 70
     1
  0
XRECORD
  5
B53F
102
{ACAD_REACTORS
330
B53E
102
}
330
B53E
100
AcDbXrecord
280
     1
102
RTVSPost2010Prop28
280
     0
102
RTVSPost2010PropOp28
 70
     1
102
RTVSPost2010Prop29
280
     1
102
RTVSPost2010PropOp29
 70
     1
102
RTVSPost2010Prop30
280
     1
102
RTVSPost2010PropOp30
 70
     1
102
RTVSPost2010Prop31
280
     0
102
RTVSPost2010PropOp31
 70
     1
102
RTVSPost2010Prop32
280
     0
102
RTVSPost2010PropOp32
 70
     1
102
RTVSPost2010Prop33
280
     0
102
RTVSPost2010PropOp33
 70
     1
102
RTVSPost2010Prop34
280
     0
102
RTVSPost2010PropOp34
 70
     1
102
RTVSPost2010Prop35
280
     0
102
RTVSPost2010PropOp35
 70
     1
102
RTVSPost2010Prop36
280
     0
102
RTVSPost2010PropOp36
 70
     1
102
RTVSPost2010Prop37
 90
       50
102
RTVSPost2010PropOp37
 70
     1
102
RTVSPost2010Prop38
140
0.0
102
RTVSPost2010PropOp38
 70
     1
102
RTVSPost2010Prop39
140
1.0
102
RTVSPost2010PropOp39
 70
     1
102
RTVSPost2010Prop40
 90
        0
102
RTVSPost2010PropOp40
 70
     1
102
RTVSPost2010Prop41ColorIndex
 90
       18
102
RTVSPost2010Prop41ColorRGB
 90
        0
102
RTVSPost2010PropOp41
 70
     1
102
RTVSPost2010Prop42
 90
       50
102
RTVSPost2010PropOp42
 70
     1
102
RTVSPost2010Prop43
 90
        3
102
RTVSPost2010PropOp43
 70
     1
102
RTVSPost2010Prop44ColorIndex
 90
        5
102
RTVSPost2010Prop44ColorRGB
 90
      255
102
RTVSPost2010PropOp44
 70
     1
102
RTVSPost2010Prop45
280
     0
102
RTVSPost2010PropOp45
 70
     1
102
RTVSPost2010Prop46
 90
       50
102
RTVSPost2010PropOp46
 70
     1
102
RTVSPost2010Prop47
 90
       50
102
RTVSPost2010PropOp47
 70
     1
102
RTVSPost2010Prop48
 90
       50
102
RTVSPost2010PropOp48
 70
     1
102
RTVSPost2010Prop49
280
     0
102
RTVSPost2010PropOp49
 70
     1
102
RTVSPost2010Prop50
 90
       50
102
RTVSPost2010PropOp50
 70
     1
102
RTVSPost2010Prop51ColorIndex
 90
      256
102
RTVSPost2010Prop51ColorRGB
 90
-16777216
102
RTVSPost2010PropOp51
 70
     0
102
RTVSPost2010Prop52
140
1.0
102
RTVSPost2010PropOp52
 70
     0
102
RTVSPost2010Prop53
 90
        2
102
RTVSPost2010PropOp53
 70
     1
102
RTVSPost2010Prop54
  1
strokes_ogs.tif
102
RTVSPost2010PropOp54
 70
     1
102
RTVSPost2010Prop55
280
     0
102
RTVSPost2010PropOp55
 70
     1
102
RTVSPost2010Prop56
140
1.0
102
RTVSPost2010PropOp56
 70
     1
102
RTVSPost2010Prop57
140
1.0
102
RTVSPost2010PropOp57
 70
     1
102
RTVSPropertyOp0
 70
     1
102
RTVSPropertyOp1
 70
     1
102
RTVSPropertyOp2
 70
     1
102
RTVSPropertyOp3
 70
     1
102
RTVSPropertyOp4
 70
     1
102
RTVSPropertyOp5
 70
     1
102
RTVSPropertyOp6
 70
     1
102
RTVSPropertyOp7
 70
     1
102
RTVSPropertyOp8
 70
     1
102
RTVSPropertyOp9
 70
     1
102
RTVSPropertyOp10
 70
     1
102
RTVSPropertyOp11
 70
     1
102
RTVSPropertyOp12
 70
     1
102
RTVSPropertyOp13
 70
     1
102
RTVSPropertyOp14
 70
     1
102
RTVSPropertyOp15
 70
     1
102
RTVSPropertyOp16
 70
     1
102
RTVSPropertyOp17
 70
     1
102
RTVSPropertyOp18
 70
     1
102
RTVSPropertyOp19
 70
     1
102
RTVSPropertyOp20
 70
     1
102
RTVSPropertyOp21
 70
     1
102
RTVSPropertyOp22
 70
     1
102
RTVSPropertyOp23
 70
     1
102
RTVSPropertyOp24
 70
     1
102
RTVSPropertyOp25
 70
     1
102
RTVSPropertyOp26
 70
     1
102
RTVSPropertyOp27
 70
     1
102
RTVSPropertyOp28
 70
     1
102
RTVSPropertyOp29
 70
     1
102
RTVSPropertyOp30
 70
     1
102
RTVSPropertyOp31
 70
     1
102
RTVSPropertyOp32
 70
     1
102
RTVSPropertyOp33
 70
     1
102
RTVSPropertyOp34
 70
     1
102
RTVSPropertyOp35
 70
     1
102
RTVSPropertyOp36
 70
     1
102
RTVSPropertyOp37
 70
     1
102
RTVSPropertyOp38
 70
     1
102
RTVSPropertyOp39
 70
     1
102
RTVSPropertyOp40
 70
     1
102
RTVSPropertyOp41
 70
     1
102
RTVSPropertyOp42
 70
     1
102
RTVSPropertyOp43
 70
     1
102
RTVSPropertyOp44
 70
     1
102
RTVSPropertyOp45
 70
     1
102
RTVSPropertyOp46
 70
     1
102
RTVSPropertyOp47
 70
     1
102
RTVSPropertyOp48
 70
     1
102
RTVSPropertyOp49
 70
     1
102
RTVSPropertyOp50
 70
     1
102
RTVSPropertyOp51
 70
     0
102
RTVSPropertyOp52
 70
     0
102
RTVSPropertyOp53
 70
     1
102
RTVSPropertyOp54
 70
     1
102
RTVSPropertyOp55
 70
     1
102
RTVSPropertyOp56
 70
     1
102
RTVSPropertyOp57
 70
     1
102
RTVSPropertyOp58
 70
     1
102
RTVSPropertyOp59
 70
     1
102
RTVSPropertyOp60
 70
     1
102
RTVSPropertyOp61
 70
     1
102
RTVSPropertyOp62
 70
     1
  0
XRECORD
  5
B541
102
{ACAD_REACTORS
330
B540
102
}
330
B540
100
AcDbXrecord
280
     1
102
RTVSPost2010Prop28
280
     0
102
RTVSPost2010PropOp28
 70
     1
102
RTVSPost2010Prop29
280
     1
102
RTVSPost2010PropOp29
 70
     1
102
RTVSPost2010Prop30
280
     1
102
RTVSPost2010PropOp30
 70
     1
102
RTVSPost2010Prop31
280
     0
102
RTVSPost2010PropOp31
 70
     1
102
RTVSPost2010Prop32
280
     0
102
RTVSPost2010PropOp32
 70
     1
102
RTVSPost2010Prop33
280
     0
102
RTVSPost2010PropOp33
 70
     1
102
RTVSPost2010Prop34
280
     0
102
RTVSPost2010PropOp34
 70
     1
102
RTVSPost2010Prop35
280
     0
102
RTVSPost2010PropOp35
 70
     1
102
RTVSPost2010Prop36
280
     0
102
RTVSPost2010PropOp36
 70
     1
102
RTVSPost2010Prop37
 90
       50
102
RTVSPost2010PropOp37
 70
     1
102
RTVSPost2010Prop38
140
0.0
102
RTVSPost2010PropOp38
 70
     1
102
RTVSPost2010Prop39
140
1.0
102
RTVSPost2010PropOp39
 70
     1
102
RTVSPost2010Prop40
 90
        0
102
RTVSPost2010PropOp40
 70
     1
102
RTVSPost2010Prop41ColorIndex
 90
       18
102
RTVSPost2010Prop41ColorRGB
 90
        0
102
RTVSPost2010PropOp41
 70
     1
102
RTVSPost2010Prop42
 90
       50
102
RTVSPost2010PropOp42
 70
     1
102
RTVSPost2010Prop43
 90
        3
102
RTVSPost2010PropOp43
 70
     1
102
RTVSPost2010Prop44ColorIndex
 90
        5
102
RTVSPost2010Prop44ColorRGB
 90
      255
102
RTVSPost2010PropOp44
 70
     1
102
RTVSPost2010Prop45
280
     0
102
RTVSPost2010PropOp45
 70
     1
102
RTVSPost2010Prop46
 90
       50
102
RTVSPost2010PropOp46
 70
     1
102
RTVSPost2010Prop47
 90
       50
102
RTVSPost2010PropOp47
 70
     1
102
RTVSPost2010Prop48
 90
       50
102
RTVSPost2010PropOp48
 70
     1
102
RTVSPost2010Prop49
280
     0
102
RTVSPost2010PropOp49
 70
     1
102
RTVSPost2010Prop50
 90
       50
102
RTVSPost2010PropOp50
 70
     1
102
RTVSPost2010Prop51ColorIndex
 90
      256
102
RTVSPost2010Prop51ColorRGB
 90
-16777216
102
RTVSPost2010PropOp51
 70
     0
102
RTVSPost2010Prop52
140
1.0
102
RTVSPost2010PropOp52
 70
     0
102
RTVSPost2010Prop53
 90
        2
102
RTVSPost2010PropOp53
 70
     1
102
RTVSPost2010Prop54
  1
strokes_ogs.tif
102
RTVSPost2010PropOp54
 70
     1
102
RTVSPost2010Prop55
280
     0
102
RTVSPost2010PropOp55
 70
     1
102
RTVSPost2010Prop56
140
1.0
102
RTVSPost2010PropOp56
 70
     1
102
RTVSPost2010Prop57
140
1.0
102
RTVSPost2010PropOp57
 70
     1
102
RTVSPropertyOp0
 70
     1
102
RTVSPropertyOp1
 70
     1
102
RTVSPropertyOp2
 70
     1
102
RTVSPropertyOp3
 70
     1
102
RTVSPropertyOp4
 70
     1
102
RTVSPropertyOp5
 70
     1
102
RTVSPropertyOp6
 70
     1
102
RTVSPropertyOp7
 70
     1
102
RTVSPropertyOp8
 70
     1
102
RTVSPropertyOp9
 70
     1
102
RTVSPropertyOp10
 70
     1
102
RTVSPropertyOp11
 70
     1
102
RTVSPropertyOp12
 70
     1
102
RTVSPropertyOp13
 70
     1
102
RTVSPropertyOp14
 70
     1
102
RTVSPropertyOp15
 70
     1
102
RTVSPropertyOp16
 70
     1
102
RTVSPropertyOp17
 70
     1
102
RTVSPropertyOp18
 70
     1
102
RTVSPropertyOp19
 70
     1
102
RTVSPropertyOp20
 70
     1
102
RTVSPropertyOp21
 70
     1
102
RTVSPropertyOp22
 70
     1
102
RTVSPropertyOp23
 70
     1
102
RTVSPropertyOp24
 70
     1
102
RTVSPropertyOp25
 70
     1
102
RTVSPropertyOp26
 70
     1
102
RTVSPropertyOp27
 70
     1
102
RTVSPropertyOp28
 70
     1
102
RTVSPropertyOp29
 70
     1
102
RTVSPropertyOp30
 70
     1
102
RTVSPropertyOp31
 70
     1
102
RTVSPropertyOp32
 70
     1
102
RTVSPropertyOp33
 70
     1
102
RTVSPropertyOp34
 70
     1
102
RTVSPropertyOp35
 70
     1
102
RTVSPropertyOp36
 70
     1
102
RTVSPropertyOp37
 70
     1
102
RTVSPropertyOp38
 70
     1
102
RTVSPropertyOp39
 70
     1
102
RTVSPropertyOp40
 70
     1
102
RTVSPropertyOp41
 70
     1
102
RTVSPropertyOp42
 70
     1
102
RTVSPropertyOp43
 70
     1
102
RTVSPropertyOp44
 70
     1
102
RTVSPropertyOp45
 70
     1
102
RTVSPropertyOp46
 70
     1
102
RTVSPropertyOp47
 70
     1
102
RTVSPropertyOp48
 70
     1
102
RTVSPropertyOp49
 70
     1
102
RTVSPropertyOp50
 70
     1
102
RTVSPropertyOp51
 70
     0
102
RTVSPropertyOp52
 70
     0
102
RTVSPropertyOp53
 70
     1
102
RTVSPropertyOp54
 70
     1
102
RTVSPropertyOp55
 70
     1
102
RTVSPropertyOp56
 70
     1
102
RTVSPropertyOp57
 70
     1
102
RTVSPropertyOp58
 70
     1
102
RTVSPropertyOp59
 70
     1
102
RTVSPropertyOp60
 70
     1
102
RTVSPropertyOp61
 70
     1
102
RTVSPropertyOp62
 70
     1
  0
XRECORD
  5
B543
102
{ACAD_REACTORS
330
B542
102
}
330
B542
100
AcDbXrecord
280
     1
102
RTVSPost2010Prop28
280
     0
102
RTVSPost2010PropOp28
 70
     1
102
RTVSPost2010Prop29
280
     1
102
RTVSPost2010PropOp29
 70
     1
102
RTVSPost2010Prop30
280
     1
102
RTVSPost2010PropOp30
 70
     1
102
RTVSPost2010Prop31
280
     0
102
RTVSPost2010PropOp31
 70
     1
102
RTVSPost2010Prop32
280
     0
102
RTVSPost2010PropOp32
 70
     1
102
RTVSPost2010Prop33
280
     0
102
RTVSPost2010PropOp33
 70
     1
102
RTVSPost2010Prop34
280
     0
102
RTVSPost2010PropOp34
 70
     1
102
RTVSPost2010Prop35
280
     0
102
RTVSPost2010PropOp35
 70
     1
102
RTVSPost2010Prop36
280
     0
102
RTVSPost2010PropOp36
 70
     1
102
RTVSPost2010Prop37
 90
       50
102
RTVSPost2010PropOp37
 70
     1
102
RTVSPost2010Prop38
140
0.0
102
RTVSPost2010PropOp38
 70
     1
102
RTVSPost2010Prop39
140
1.0
102
RTVSPost2010PropOp39
 70
     1
102
RTVSPost2010Prop40
 90
        0
102
RTVSPost2010PropOp40
 70
     1
102
RTVSPost2010Prop41ColorIndex
 90
       18
102
RTVSPost2010Prop41ColorRGB
 90
        0
102
RTVSPost2010PropOp41
 70
     1
102
RTVSPost2010Prop42
 90
       50
102
RTVSPost2010PropOp42
 70
     1
102
RTVSPost2010Prop43
 90
        3
102
RTVSPost2010PropOp43
 70
     1
102
RTVSPost2010Prop44ColorIndex
 90
        5
102
RTVSPost2010Prop44ColorRGB
 90
      255
102
RTVSPost2010PropOp44
 70
     1
102
RTVSPost2010Prop45
280
     0
102
RTVSPost2010PropOp45
 70
     1
102
RTVSPost2010Prop46
 90
       50
102
RTVSPost2010PropOp46
 70
     1
102
RTVSPost2010Prop47
 90
       50
102
RTVSPost2010PropOp47
 70
     1
102
RTVSPost2010Prop48
 90
       50
102
RTVSPost2010PropOp48
 70
     1
102
RTVSPost2010Prop49
280
     0
102
RTVSPost2010PropOp49
 70
     1
102
RTVSPost2010Prop50
 90
       50
102
RTVSPost2010PropOp50
 70
     1
102
RTVSPost2010Prop51ColorIndex
 90
      256
102
RTVSPost2010Prop51ColorRGB
 90
-16777216
102
RTVSPost2010PropOp51
 70
     0
102
RTVSPost2010Prop52
140
1.0
102
RTVSPost2010PropOp52
 70
     0
102
RTVSPost2010Prop53
 90
        2
102
RTVSPost2010PropOp53
 70
     1
102
RTVSPost2010Prop54
  1
strokes_ogs.tif
102
RTVSPost2010PropOp54
 70
     1
102
RTVSPost2010Prop55
280
     0
102
RTVSPost2010PropOp55
 70
     1
102
RTVSPost2010Prop56
140
1.0
102
RTVSPost2010PropOp56
 70
     1
102
RTVSPost2010Prop57
140
1.0
102
RTVSPost2010PropOp57
 70
     1
102
RTVSPropertyOp0
 70
     1
102
RTVSPropertyOp1
 70
     1
102
RTVSPropertyOp2
 70
     1
102
RTVSPropertyOp3
 70
     1
102
RTVSPropertyOp4
 70
     1
102
RTVSPropertyOp5
 70
     1
102
RTVSPropertyOp6
 70
     1
102
RTVSPropertyOp7
 70
     1
102
RTVSPropertyOp8
 70
     1
102
RTVSPropertyOp9
 70
     1
102
RTVSPropertyOp10
 70
     1
102
RTVSPropertyOp11
 70
     1
102
RTVSPropertyOp12
 70
     1
102
RTVSPropertyOp13
 70
     1
102
RTVSPropertyOp14
 70
     1
102
RTVSPropertyOp15
 70
     1
102
RTVSPropertyOp16
 70
     1
102
RTVSPropertyOp17
 70
     1
102
RTVSPropertyOp18
 70
     1
102
RTVSPropertyOp19
 70
     1
102
RTVSPropertyOp20
 70
     1
102
RTVSPropertyOp21
 70
     1
102
RTVSPropertyOp22
 70
     1
102
RTVSPropertyOp23
 70
     1
102
RTVSPropertyOp24
 70
     1
102
RTVSPropertyOp25
 70
     1
102
RTVSPropertyOp26
 70
     1
102
RTVSPropertyOp27
 70
     1
102
RTVSPropertyOp28
 70
     1
102
RTVSPropertyOp29
 70
     1
102
RTVSPropertyOp30
 70
     1
102
RTVSPropertyOp31
 70
     1
102
RTVSPropertyOp32
 70
     1
102
RTVSPropertyOp33
 70
     1
102
RTVSPropertyOp34
 70
     1
102
RTVSPropertyOp35
 70
     1
102
RTVSPropertyOp36
 70
     1
102
RTVSPropertyOp37
 70
     1
102
RTVSPropertyOp38
 70
     1
102
RTVSPropertyOp39
 70
     1
102
RTVSPropertyOp40
 70
     1
102
RTVSPropertyOp41
 70
     1
102
RTVSPropertyOp42
 70
     1
102
RTVSPropertyOp43
 70
     1
102
RTVSPropertyOp44
 70
     1
102
RTVSPropertyOp45
 70
     1
102
RTVSPropertyOp46
 70
     1
102
RTVSPropertyOp47
 70
     1
102
RTVSPropertyOp48
 70
     1
102
RTVSPropertyOp49
 70
     1
102
RTVSPropertyOp50
 70
     1
102
RTVSPropertyOp51
 70
     0
102
RTVSPropertyOp52
 70
     0
102
RTVSPropertyOp53
 70
     1
102
RTVSPropertyOp54
 70
     1
102
RTVSPropertyOp55
 70
     1
102
RTVSPropertyOp56
 70
     1
102
RTVSPropertyOp57
 70
     1
102
RTVSPropertyOp58
 70
     1
102
RTVSPropertyOp59
 70
     1
102
RTVSPropertyOp60
 70
     1
102
RTVSPropertyOp61
 70
     1
102
RTVSPropertyOp62
 70
     1
  0
XRECORD
  5
B545
102
{ACAD_REACTORS
330
B544
102
}
330
B544
100
AcDbXrecord
280
     1
102
RTVSPost2010Prop28
280
     0
102
RTVSPost2010PropOp28
 70
     1
102
RTVSPost2010Prop29
280
     1
102
RTVSPost2010PropOp29
 70
     1
102
RTVSPost2010Prop30
280
     1
102
RTVSPost2010PropOp30
 70
     1
102
RTVSPost2010Prop31
280
     0
102
RTVSPost2010PropOp31
 70
     1
102
RTVSPost2010Prop32
280
     0
102
RTVSPost2010PropOp32
 70
     1
102
RTVSPost2010Prop33
280
     0
102
RTVSPost2010PropOp33
 70
     1
102
RTVSPost2010Prop34
280
     0
102
RTVSPost2010PropOp34
 70
     1
102
RTVSPost2010Prop35
280
     0
102
RTVSPost2010PropOp35
 70
     1
102
RTVSPost2010Prop36
280
     0
102
RTVSPost2010PropOp36
 70
     1
102
RTVSPost2010Prop37
 90
       50
102
RTVSPost2010PropOp37
 70
     1
102
RTVSPost2010Prop38
140
0.0
102
RTVSPost2010PropOp38
 70
     1
102
RTVSPost2010Prop39
140
1.0
102
RTVSPost2010PropOp39
 70
     1
102
RTVSPost2010Prop40
 90
        0
102
RTVSPost2010PropOp40
 70
     1
102
RTVSPost2010Prop41ColorIndex
 90
       18
102
RTVSPost2010Prop41ColorRGB
 90
        0
102
RTVSPost2010PropOp41
 70
     1
102
RTVSPost2010Prop42
 90
       50
102
RTVSPost2010PropOp42
 70
     1
102
RTVSPost2010Prop43
 90
        3
102
RTVSPost2010PropOp43
 70
     1
102
RTVSPost2010Prop44ColorIndex
 90
        5
102
RTVSPost2010Prop44ColorRGB
 90
      255
102
RTVSPost2010PropOp44
 70
     1
102
RTVSPost2010Prop45
280
     0
102
RTVSPost2010PropOp45
 70
     1
102
RTVSPost2010Prop46
 90
       50
102
RTVSPost2010PropOp46
 70
     1
102
RTVSPost2010Prop47
 90
       50
102
RTVSPost2010PropOp47
 70
     1
102
RTVSPost2010Prop48
 90
       50
102
RTVSPost2010PropOp48
 70
     1
102
RTVSPost2010Prop49
280
     0
102
RTVSPost2010PropOp49
 70
     1
102
RTVSPost2010Prop50
 90
       50
102
RTVSPost2010PropOp50
 70
     1
102
RTVSPost2010Prop51ColorIndex
 90
      256
102
RTVSPost2010Prop51ColorRGB
 90
-16777216
102
RTVSPost2010PropOp51
 70
     0
102
RTVSPost2010Prop52
140
1.0
102
RTVSPost2010PropOp52
 70
     0
102
RTVSPost2010Prop53
 90
        2
102
RTVSPost2010PropOp53
 70
     1
102
RTVSPost2010Prop54
  1
strokes_ogs.tif
102
RTVSPost2010PropOp54
 70
     1
102
RTVSPost2010Prop55
280
     0
102
RTVSPost2010PropOp55
 70
     1
102
RTVSPost2010Prop56
140
1.0
102
RTVSPost2010PropOp56
 70
     1
102
RTVSPost2010Prop57
140
1.0
102
RTVSPost2010PropOp57
 70
     1
102
RTVSPropertyOp0
 70
     1
102
RTVSPropertyOp1
 70
     1
102
RTVSPropertyOp2
 70
     1
102
RTVSPropertyOp3
 70
     1
102
RTVSPropertyOp4
 70
     1
102
RTVSPropertyOp5
 70
     1
102
RTVSPropertyOp6
 70
     1
102
RTVSPropertyOp7
 70
     1
102
RTVSPropertyOp8
 70
     1
102
RTVSPropertyOp9
 70
     1
102
RTVSPropertyOp10
 70
     1
102
RTVSPropertyOp11
 70
     1
102
RTVSPropertyOp12
 70
     1
102
RTVSPropertyOp13
 70
     1
102
RTVSPropertyOp14
 70
     1
102
RTVSPropertyOp15
 70
     1
102
RTVSPropertyOp16
 70
     1
102
RTVSPropertyOp17
 70
     1
102
RTVSPropertyOp18
 70
     1
102
RTVSPropertyOp19
 70
     1
102
RTVSPropertyOp20
 70
     1
102
RTVSPropertyOp21
 70
     1
102
RTVSPropertyOp22
 70
     1
102
RTVSPropertyOp23
 70
     1
102
RTVSPropertyOp24
 70
     1
102
RTVSPropertyOp25
 70
     1
102
RTVSPropertyOp26
 70
     1
102
RTVSPropertyOp27
 70
     1
102
RTVSPropertyOp28
 70
     1
102
RTVSPropertyOp29
 70
     1
102
RTVSPropertyOp30
 70
     1
102
RTVSPropertyOp31
 70
     1
102
RTVSPropertyOp32
 70
     1
102
RTVSPropertyOp33
 70
     1
102
RTVSPropertyOp34
 70
     1
102
RTVSPropertyOp35
 70
     1
102
RTVSPropertyOp36
 70
     1
102
RTVSPropertyOp37
 70
     1
102
RTVSPropertyOp38
 70
     1
102
RTVSPropertyOp39
 70
     1
102
RTVSPropertyOp40
 70
     1
102
RTVSPropertyOp41
 70
     1
102
RTVSPropertyOp42
 70
     1
102
RTVSPropertyOp43
 70
     1
102
RTVSPropertyOp44
 70
     1
102
RTVSPropertyOp45
 70
     1
102
RTVSPropertyOp46
 70
     1
102
RTVSPropertyOp47
 70
     1
102
RTVSPropertyOp48
 70
     1
102
RTVSPropertyOp49
 70
     1
102
RTVSPropertyOp50
 70
     1
102
RTVSPropertyOp51
 70
     0
102
RTVSPropertyOp52
 70
     0
102
RTVSPropertyOp53
 70
     1
102
RTVSPropertyOp54
 70
     1
102
RTVSPropertyOp55
 70
     1
102
RTVSPropertyOp56
 70
     1
102
RTVSPropertyOp57
 70
     1
102
RTVSPropertyOp58
 70
     1
102
RTVSPropertyOp59
 70
     1
102
RTVSPropertyOp60
 70
     1
102
RTVSPropertyOp61
 70
     1
102
RTVSPropertyOp62
 70
     1
  0
XRECORD
  5
B54D
102
{ACAD_REACTORS
330
B54C
102
}
330
B54C
100
AcDbXrecord
280
     1
102
RTVSPost2010Prop28
280
     0
102
RTVSPost2010PropOp28
 70
     1
102
RTVSPost2010Prop29
280
     1
102
RTVSPost2010PropOp29
 70
     1
102
RTVSPost2010Prop30
280
     1
102
RTVSPost2010PropOp30
 70
     1
102
RTVSPost2010Prop31
280
     0
102
RTVSPost2010PropOp31
 70
     1
102
RTVSPost2010Prop32
280
     0
102
RTVSPost2010PropOp32
 70
     1
102
RTVSPost2010Prop33
280
     0
102
RTVSPost2010PropOp33
 70
     1
102
RTVSPost2010Prop34
280
     0
102
RTVSPost2010PropOp34
 70
     1
102
RTVSPost2010Prop35
280
     0
102
RTVSPost2010PropOp35
 70
     1
102
RTVSPost2010Prop36
280
     0
102
RTVSPost2010PropOp36
 70
     1
102
RTVSPost2010Prop37
 90
       50
102
RTVSPost2010PropOp37
 70
     1
102
RTVSPost2010Prop38
140
0.0
102
RTVSPost2010PropOp38
 70
     1
102
RTVSPost2010Prop39
140
1.0
102
RTVSPost2010PropOp39
 70
     1
102
RTVSPost2010Prop40
 90
        0
102
RTVSPost2010PropOp40
 70
     1
102
RTVSPost2010Prop41ColorIndex
 90
       18
102
RTVSPost2010Prop41ColorRGB
 90
        0
102
RTVSPost2010PropOp41
 70
     1
102
RTVSPost2010Prop42
 90
       50
102
RTVSPost2010PropOp42
 70
     1
102
RTVSPost2010Prop43
 90
        3
102
RTVSPost2010PropOp43
 70
     1
102
RTVSPost2010Prop44ColorIndex
 90
        5
102
RTVSPost2010Prop44ColorRGB
 90
      255
102
RTVSPost2010PropOp44
 70
     1
102
RTVSPost2010Prop45
280
     0
102
RTVSPost2010PropOp45
 70
     1
102
RTVSPost2010Prop46
 90
       50
102
RTVSPost2010PropOp46
 70
     1
102
RTVSPost2010Prop47
 90
       50
102
RTVSPost2010PropOp47
 70
     1
102
RTVSPost2010Prop48
 90
       50
102
RTVSPost2010PropOp48
 70
     1
102
RTVSPost2010Prop49
280
     0
102
RTVSPost2010PropOp49
 70
     1
102
RTVSPost2010Prop50
 90
       50
102
RTVSPost2010PropOp50
 70
     1
102
RTVSPost2010Prop51ColorIndex
 90
      256
102
RTVSPost2010Prop51ColorRGB
 90
-16777216
102
RTVSPost2010PropOp51
 70
     0
102
RTVSPost2010Prop52
140
1.0
102
RTVSPost2010PropOp52
 70
     0
102
RTVSPost2010Prop53
 90
        2
102
RTVSPost2010PropOp53
 70
     1
102
RTVSPost2010Prop54
  1
strokes_ogs.tif
102
RTVSPost2010PropOp54
 70
     1
102
RTVSPost2010Prop55
280
     0
102
RTVSPost2010PropOp55
 70
     1
102
RTVSPost2010Prop56
140
1.0
102
RTVSPost2010PropOp56
 70
     1
102
RTVSPost2010Prop57
140
1.0
102
RTVSPost2010PropOp57
 70
     1
102
RTVSPropertyOp0
 70
     1
102
RTVSPropertyOp1
 70
     1
102
RTVSPropertyOp2
 70
     1
102
RTVSPropertyOp3
 70
     1
102
RTVSPropertyOp4
 70
     1
102
RTVSPropertyOp5
 70
     1
102
RTVSPropertyOp6
 70
     1
102
RTVSPropertyOp7
 70
     1
102
RTVSPropertyOp8
 70
     1
102
RTVSPropertyOp9
 70
     1
102
RTVSPropertyOp10
 70
     1
102
RTVSPropertyOp11
 70
     1
102
RTVSPropertyOp12
 70
     1
102
RTVSPropertyOp13
 70
     1
102
RTVSPropertyOp14
 70
     1
102
RTVSPropertyOp15
 70
     1
102
RTVSPropertyOp16
 70
     1
102
RTVSPropertyOp17
 70
     1
102
RTVSPropertyOp18
 70
     1
102
RTVSPropertyOp19
 70
     1
102
RTVSPropertyOp20
 70
     1
102
RTVSPropertyOp21
 70
     1
102
RTVSPropertyOp22
 70
     1
102
RTVSPropertyOp23
 70
     1
102
RTVSPropertyOp24
 70
     1
102
RTVSPropertyOp25
 70
     1
102
RTVSPropertyOp26
 70
     1
102
RTVSPropertyOp27
 70
     1
102
RTVSPropertyOp28
 70
     1
102
RTVSPropertyOp29
 70
     1
102
RTVSPropertyOp30
 70
     1
102
RTVSPropertyOp31
 70
     1
102
RTVSPropertyOp32
 70
     1
102
RTVSPropertyOp33
 70
     1
102
RTVSPropertyOp34
 70
     1
102
RTVSPropertyOp35
 70
     1
102
RTVSPropertyOp36
 70
     1
102
RTVSPropertyOp37
 70
     1
102
RTVSPropertyOp38
 70
     1
102
RTVSPropertyOp39
 70
     1
102
RTVSPropertyOp40
 70
     1
102
RTVSPropertyOp41
 70
     1
102
RTVSPropertyOp42
 70
     1
102
RTVSPropertyOp43
 70
     1
102
RTVSPropertyOp44
 70
     1
102
RTVSPropertyOp45
 70
     1
102
RTVSPropertyOp46
 70
     1
102
RTVSPropertyOp47
 70
     1
102
RTVSPropertyOp48
 70
     1
102
RTVSPropertyOp49
 70
     1
102
RTVSPropertyOp50
 70
     1
102
RTVSPropertyOp51
 70
     0
102
RTVSPropertyOp52
 70
     0
102
RTVSPropertyOp53
 70
     1
102
RTVSPropertyOp54
 70
     1
102
RTVSPropertyOp55
 70
     1
102
RTVSPropertyOp56
 70
     1
102
RTVSPropertyOp57
 70
     1
102
RTVSPropertyOp58
 70
     1
102
RTVSPropertyOp59
 70
     1
102
RTVSPropertyOp60
 70
     1
102
RTVSPropertyOp61
 70
     1
102
RTVSPropertyOp62
 70
     1
  0
XRECORD
  5
B569
102
{ACAD_REACTORS
330
B568
102
}
330
B568
100
AcDbXrecord
280
     1
102
RTVSPost2010Prop28
280
     0
102
RTVSPost2010PropOp28
 70
     1
102
RTVSPost2010Prop29
280
     1
102
RTVSPost2010PropOp29
 70
     1
102
RTVSPost2010Prop30
280
     1
102
RTVSPost2010PropOp30
 70
     1
102
RTVSPost2010Prop31
280
     0
102
RTVSPost2010PropOp31
 70
     1
102
RTVSPost2010Prop32
280
     0
102
RTVSPost2010PropOp32
 70
     1
102
RTVSPost2010Prop33
280
     0
102
RTVSPost2010PropOp33
 70
     1
102
RTVSPost2010Prop34
280
     0
102
RTVSPost2010PropOp34
 70
     1
102
RTVSPost2010Prop35
280
     0
102
RTVSPost2010PropOp35
 70
     1
102
RTVSPost2010Prop36
280
     0
102
RTVSPost2010PropOp36
 70
     1
102
RTVSPost2010Prop37
 90
       50
102
RTVSPost2010PropOp37
 70
     0
102
RTVSPost2010Prop38
140
0.0
102
RTVSPost2010PropOp38
 70
     0
102
RTVSPost2010Prop39
140
1.0
102
RTVSPost2010PropOp39
 70
     0
102
RTVSPost2010Prop40
 90
        0
102
RTVSPost2010PropOp40
 70
     0
102
RTVSPost2010Prop41ColorIndex
 90
       18
102
RTVSPost2010Prop41ColorRGB
 90
        0
102
RTVSPost2010PropOp41
 70
     0
102
RTVSPost2010Prop42
 90
       50
102
RTVSPost2010PropOp42
 70
     0
102
RTVSPost2010Prop43
 90
        3
102
RTVSPost2010PropOp43
 70
     0
102
RTVSPost2010Prop44ColorIndex
 90
        5
102
RTVSPost2010Prop44ColorRGB
 90
      255
102
RTVSPost2010PropOp44
 70
     0
102
RTVSPost2010Prop45
280
     0
102
RTVSPost2010PropOp45
 70
     1
102
RTVSPost2010Prop46
 90
       50
102
RTVSPost2010PropOp46
 70
     0
102
RTVSPost2010Prop47
 90
       50
102
RTVSPost2010PropOp47
 70
     0
102
RTVSPost2010Prop48
 90
       50
102
RTVSPost2010PropOp48
 70
     0
102
RTVSPost2010Prop49
280
     0
102
RTVSPost2010PropOp49
 70
     1
102
RTVSPost2010Prop50
 90
       50
102
RTVSPost2010PropOp50
 70
     0
102
RTVSPost2010Prop51ColorIndex
 90
      256
102
RTVSPost2010Prop51ColorRGB
 90
-16777216
102
RTVSPost2010PropOp51
 70
     0
102
RTVSPost2010Prop52
140
1.0
102
RTVSPost2010PropOp52
 70
     0
102
RTVSPost2010Prop53
 90
        2
102
RTVSPost2010PropOp53
 70
     0
102
RTVSPost2010Prop54
  1
strokes_ogs.tif
102
RTVSPost2010PropOp54
 70
     0
102
RTVSPost2010Prop55
280
     0
102
RTVSPost2010PropOp55
 70
     1
102
RTVSPost2010Prop56
140
1.0
102
RTVSPost2010PropOp56
 70
     0
102
RTVSPost2010Prop57
140
1.0
102
RTVSPost2010PropOp57
 70
     0
102
RTVSPropertyOp0
 70
     0
102
RTVSPropertyOp1
 70
     0
102
RTVSPropertyOp2
 70
     0
102
RTVSPropertyOp3
 70
     0
102
RTVSPropertyOp4
 70
     0
102
RTVSPropertyOp5
 70
     0
102
RTVSPropertyOp6
 70
     0
102
RTVSPropertyOp7
 70
     0
102
RTVSPropertyOp8
 70
     0
102
RTVSPropertyOp9
 70
     0
102
RTVSPropertyOp10
 70
     0
102
RTVSPropertyOp11
 70
     0
102
RTVSPropertyOp12
 70
     0
102
RTVSPropertyOp13
 70
     0
102
RTVSPropertyOp14
 70
     2
102
RTVSPropertyOp15
 70
     0
102
RTVSPropertyOp16
 70
     0
102
RTVSPropertyOp17
 70
     0
102
RTVSPropertyOp18
 70
     0
102
RTVSPropertyOp19
 70
     0
102
RTVSPropertyOp20
 70
     0
102
RTVSPropertyOp21
 70
     0
102
RTVSPropertyOp22
 70
     0
102
RTVSPropertyOp23
 70
     0
102
RTVSPropertyOp24
 70
     0
102
RTVSPropertyOp25
 70
     0
102
RTVSPropertyOp26
 70
     0
102
RTVSPropertyOp27
 70
     0
102
RTVSPropertyOp28
 70
     1
102
RTVSPropertyOp29
 70
     1
102
RTVSPropertyOp30
 70
     1
102
RTVSPropertyOp31
 70
     1
102
RTVSPropertyOp32
 70
     1
102
RTVSPropertyOp33
 70
     1
102
RTVSPropertyOp34
 70
     1
102
RTVSPropertyOp35
 70
     1
102
RTVSPropertyOp36
 70
     1
102
RTVSPropertyOp37
 70
     0
102
RTVSPropertyOp38
 70
     0
102
RTVSPropertyOp39
 70
     0
102
RTVSPropertyOp40
 70
     0
102
RTVSPropertyOp41
 70
     0
102
RTVSPropertyOp42
 70
     0
102
RTVSPropertyOp43
 70
     0
102
RTVSPropertyOp44
 70
     0
102
RTVSPropertyOp45
 70
     1
102
RTVSPropertyOp46
 70
     0
102
RTVSPropertyOp47
 70
     0
102
RTVSPropertyOp48
 70
     0
102
RTVSPropertyOp49
 70
     1
102
RTVSPropertyOp50
 70
     0
102
RTVSPropertyOp51
 70
     0
102
RTVSPropertyOp52
 70
     0
102
RTVSPropertyOp53
 70
     0
102
RTVSPropertyOp54
 70
     0
102
RTVSPropertyOp55
 70
     1
102
RTVSPropertyOp56
 70
     0
102
RTVSPropertyOp57
 70
     0
102
RTVSPropertyOp58
 70
     0
102
RTVSPropertyOp59
 70
     0
102
RTVSPropertyOp60
 70
     0
102
RTVSPropertyOp61
 70
     0
102
RTVSPropertyOp62
 70
     0
  0
XRECORD
  5
B559
102
{ACAD_REACTORS
330
B558
102
}
330
B558
100
AcDbXrecord
280
     1
102
RTVSPost2010Prop28
280
     0
102
RTVSPost2010PropOp28
 70
     1
102
RTVSPost2010Prop29
280
     1
102
RTVSPost2010PropOp29
 70
     1
102
RTVSPost2010Prop30
280
     1
102
RTVSPost2010PropOp30
 70
     1
102
RTVSPost2010Prop31
280
     0
102
RTVSPost2010PropOp31
 70
     1
102
RTVSPost2010Prop32
280
     0
102
RTVSPost2010PropOp32
 70
     1
102
RTVSPost2010Prop33
280
     0
102
RTVSPost2010PropOp33
 70
     1
102
RTVSPost2010Prop34
280
     0
102
RTVSPost2010PropOp34
 70
     1
102
RTVSPost2010Prop35
280
     0
102
RTVSPost2010PropOp35
 70
     1
102
RTVSPost2010Prop36
280
     0
102
RTVSPost2010PropOp36
 70
     1
102
RTVSPost2010Prop37
 90
       50
102
RTVSPost2010PropOp37
 70
     1
102
RTVSPost2010Prop38
140
0.0
102
RTVSPost2010PropOp38
 70
     1
102
RTVSPost2010Prop39
140
1.0
102
RTVSPost2010PropOp39
 70
     1
102
RTVSPost2010Prop40
 90
        0
102
RTVSPost2010PropOp40
 70
     1
102
RTVSPost2010Prop41ColorIndex
 90
       18
102
RTVSPost2010Prop41ColorRGB
 90
        0
102
RTVSPost2010PropOp41
 70
     1
102
RTVSPost2010Prop42
 90
       50
102
RTVSPost2010PropOp42
 70
     1
102
RTVSPost2010Prop43
 90
        3
102
RTVSPost2010PropOp43
 70
     1
102
RTVSPost2010Prop44ColorIndex
 90
        5
102
RTVSPost2010Prop44ColorRGB
 90
      255
102
RTVSPost2010PropOp44
 70
     1
102
RTVSPost2010Prop45
280
     0
102
RTVSPost2010PropOp45
 70
     1
102
RTVSPost2010Prop46
 90
       50
102
RTVSPost2010PropOp46
 70
     1
102
RTVSPost2010Prop47
 90
       50
102
RTVSPost2010PropOp47
 70
     1
102
RTVSPost2010Prop48
 90
       50
102
RTVSPost2010PropOp48
 70
     1
102
RTVSPost2010Prop49
280
     0
102
RTVSPost2010PropOp49
 70
     1
102
RTVSPost2010Prop50
 90
       50
102
RTVSPost2010PropOp50
 70
     1
102
RTVSPost2010Prop51ColorIndex
 90
      256
102
RTVSPost2010Prop51ColorRGB
 90
-16777216
102
RTVSPost2010PropOp51
 70
     0
102
RTVSPost2010Prop52
140
1.0
102
RTVSPost2010PropOp52
 70
     0
102
RTVSPost2010Prop53
 90
        2
102
RTVSPost2010PropOp53
 70
     1
102
RTVSPost2010Prop54
  1
strokes_ogs.tif
102
RTVSPost2010PropOp54
 70
     1
102
RTVSPost2010Prop55
280
     0
102
RTVSPost2010PropOp55
 70
     1
102
RTVSPost2010Prop56
140
1.0
102
RTVSPost2010PropOp56
 70
     1
102
RTVSPost2010Prop57
140
1.0
102
RTVSPost2010PropOp57
 70
     1
102
RTVSPropertyOp0
 70
     1
102
RTVSPropertyOp1
 70
     1
102
RTVSPropertyOp2
 70
     1
102
RTVSPropertyOp3
 70
     1
102
RTVSPropertyOp4
 70
     1
102
RTVSPropertyOp5
 70
     1
102
RTVSPropertyOp6
 70
     1
102
RTVSPropertyOp7
 70
     1
102
RTVSPropertyOp8
 70
     1
102
RTVSPropertyOp9
 70
     1
102
RTVSPropertyOp10
 70
     1
102
RTVSPropertyOp11
 70
     1
102
RTVSPropertyOp12
 70
     1
102
RTVSPropertyOp13
 70
     1
102
RTVSPropertyOp14
 70
     1
102
RTVSPropertyOp15
 70
     1
102
RTVSPropertyOp16
 70
     1
102
RTVSPropertyOp17
 70
     1
102
RTVSPropertyOp18
 70
     1
102
RTVSPropertyOp19
 70
     1
102
RTVSPropertyOp20
 70
     1
102
RTVSPropertyOp21
 70
     1
102
RTVSPropertyOp22
 70
     1
102
RTVSPropertyOp23
 70
     1
102
RTVSPropertyOp24
 70
     1
102
RTVSPropertyOp25
 70
     1
102
RTVSPropertyOp26
 70
     1
102
RTVSPropertyOp27
 70
     1
102
RTVSPropertyOp28
 70
     1
102
RTVSPropertyOp29
 70
     1
102
RTVSPropertyOp30
 70
     1
102
RTVSPropertyOp31
 70
     1
102
RTVSPropertyOp32
 70
     1
102
RTVSPropertyOp33
 70
     1
102
RTVSPropertyOp34
 70
     1
102
RTVSPropertyOp35
 70
     1
102
RTVSPropertyOp36
 70
     1
102
RTVSPropertyOp37
 70
     1
102
RTVSPropertyOp38
 70
     1
102
RTVSPropertyOp39
 70
     1
102
RTVSPropertyOp40
 70
     1
102
RTVSPropertyOp41
 70
     1
102
RTVSPropertyOp42
 70
     1
102
RTVSPropertyOp43
 70
     1
102
RTVSPropertyOp44
 70
     1
102
RTVSPropertyOp45
 70
     1
102
RTVSPropertyOp46
 70
     1
102
RTVSPropertyOp47
 70
     1
102
RTVSPropertyOp48
 70
     1
102
RTVSPropertyOp49
 70
     1
102
RTVSPropertyOp50
 70
     1
102
RTVSPropertyOp51
 70
     0
102
RTVSPropertyOp52
 70
     0
102
RTVSPropertyOp53
 70
     1
102
RTVSPropertyOp54
 70
     1
102
RTVSPropertyOp55
 70
     1
102
RTVSPropertyOp56
 70
     1
102
RTVSPropertyOp57
 70
     1
102
RTVSPropertyOp58
 70
     1
102
RTVSPropertyOp59
 70
     1
102
RTVSPropertyOp60
 70
     1
102
RTVSPropertyOp61
 70
     1
102
RTVSPropertyOp62
 70
     1
  0
XRECORD
  5
B56B
102
{ACAD_REACTORS
330
B56A
102
}
330
B56A
100
AcDbXrecord
280
     1
102
RTVSPost2010Prop28
280
     0
102
RTVSPost2010PropOp28
 70
     1
102
RTVSPost2010Prop29
280
     1
102
RTVSPost2010PropOp29
 70
     1
102
RTVSPost2010Prop30
280
     1
102
RTVSPost2010PropOp30
 70
     1
102
RTVSPost2010Prop31
280
     0
102
RTVSPost2010PropOp31
 70
     1
102
RTVSPost2010Prop32
280
     0
102
RTVSPost2010PropOp32
 70
     1
102
RTVSPost2010Prop33
280
     0
102
RTVSPost2010PropOp33
 70
     1
102
RTVSPost2010Prop34
280
     0
102
RTVSPost2010PropOp34
 70
     1
102
RTVSPost2010Prop35
280
     0
102
RTVSPost2010PropOp35
 70
     1
102
RTVSPost2010Prop36
280
     0
102
RTVSPost2010PropOp36
 70
     1
102
RTVSPost2010Prop37
 90
       50
102
RTVSPost2010PropOp37
 70
     0
102
RTVSPost2010Prop38
140
0.0
102
RTVSPost2010PropOp38
 70
     0
102
RTVSPost2010Prop39
140
1.0
102
RTVSPost2010PropOp39
 70
     0
102
RTVSPost2010Prop40
 90
        0
102
RTVSPost2010PropOp40
 70
     0
102
RTVSPost2010Prop41ColorIndex
 90
       18
102
RTVSPost2010Prop41ColorRGB
 90
        0
102
RTVSPost2010PropOp41
 70
     0
102
RTVSPost2010Prop42
 90
       50
102
RTVSPost2010PropOp42
 70
     0
102
RTVSPost2010Prop43
 90
        3
102
RTVSPost2010PropOp43
 70
     0
102
RTVSPost2010Prop44ColorIndex
 90
        5
102
RTVSPost2010Prop44ColorRGB
 90
      255
102
RTVSPost2010PropOp44
 70
     0
102
RTVSPost2010Prop45
280
     0
102
RTVSPost2010PropOp45
 70
     1
102
RTVSPost2010Prop46
 90
       50
102
RTVSPost2010PropOp46
 70
     0
102
RTVSPost2010Prop47
 90
       50
102
RTVSPost2010PropOp47
 70
     0
102
RTVSPost2010Prop48
 90
       50
102
RTVSPost2010PropOp48
 70
     0
102
RTVSPost2010Prop49
280
     0
102
RTVSPost2010PropOp49
 70
     1
102
RTVSPost2010Prop50
 90
       50
102
RTVSPost2010PropOp50
 70
     0
102
RTVSPost2010Prop51ColorIndex
 90
      256
102
RTVSPost2010Prop51ColorRGB
 90
-16777216
102
RTVSPost2010PropOp51
 70
     0
102
RTVSPost2010Prop52
140
1.0
102
RTVSPost2010PropOp52
 70
     0
102
RTVSPost2010Prop53
 90
        2
102
RTVSPost2010PropOp53
 70
     0
102
RTVSPost2010Prop54
  1
strokes_ogs.tif
102
RTVSPost2010PropOp54
 70
     0
102
RTVSPost2010Prop55
280
     0
102
RTVSPost2010PropOp55
 70
     1
102
RTVSPost2010Prop56
140
1.0
102
RTVSPost2010PropOp56
 70
     0
102
RTVSPost2010Prop57
140
1.0
102
RTVSPost2010PropOp57
 70
     0
102
RTVSPropertyOp0
 70
     0
102
RTVSPropertyOp1
 70
     0
102
RTVSPropertyOp2
 70
     0
102
RTVSPropertyOp3
 70
     0
102
RTVSPropertyOp4
 70
     0
102
RTVSPropertyOp5
 70
     0
102
RTVSPropertyOp6
 70
     0
102
RTVSPropertyOp7
 70
     0
102
RTVSPropertyOp8
 70
     0
102
RTVSPropertyOp9
 70
     0
102
RTVSPropertyOp10
 70
     0
102
RTVSPropertyOp11
 70
     0
102
RTVSPropertyOp12
 70
     0
102
RTVSPropertyOp13
 70
     0
102
RTVSPropertyOp14
 70
     2
102
RTVSPropertyOp15
 70
     0
102
RTVSPropertyOp16
 70
     0
102
RTVSPropertyOp17
 70
     0
102
RTVSPropertyOp18
 70
     0
102
RTVSPropertyOp19
 70
     0
102
RTVSPropertyOp20
 70
     0
102
RTVSPropertyOp21
 70
     0
102
RTVSPropertyOp22
 70
     0
102
RTVSPropertyOp23
 70
     0
102
RTVSPropertyOp24
 70
     0
102
RTVSPropertyOp25
 70
     0
102
RTVSPropertyOp26
 70
     0
102
RTVSPropertyOp27
 70
     0
102
RTVSPropertyOp28
 70
     1
102
RTVSPropertyOp29
 70
     1
102
RTVSPropertyOp30
 70
     1
102
RTVSPropertyOp31
 70
     1
102
RTVSPropertyOp32
 70
     1
102
RTVSPropertyOp33
 70
     1
102
RTVSPropertyOp34
 70
     1
102
RTVSPropertyOp35
 70
     1
102
RTVSPropertyOp36
 70
     1
102
RTVSPropertyOp37
 70
     0
102
RTVSPropertyOp38
 70
     0
102
RTVSPropertyOp39
 70
     0
102
RTVSPropertyOp40
 70
     0
102
RTVSPropertyOp41
 70
     0
102
RTVSPropertyOp42
 70
     0
102
RTVSPropertyOp43
 70
     0
102
RTVSPropertyOp44
 70
     0
102
RTVSPropertyOp45
 70
     1
102
RTVSPropertyOp46
 70
     0
102
RTVSPropertyOp47
 70
     0
102
RTVSPropertyOp48
 70
     0
102
RTVSPropertyOp49
 70
     1
102
RTVSPropertyOp50
 70
     0
102
RTVSPropertyOp51
 70
     0
102
RTVSPropertyOp52
 70
     0
102
RTVSPropertyOp53
 70
     0
102
RTVSPropertyOp54
 70
     0
102
RTVSPropertyOp55
 70
     1
102
RTVSPropertyOp56
 70
     0
102
RTVSPropertyOp57
 70
     0
102
RTVSPropertyOp58
 70
     0
102
RTVSPropertyOp59
 70
     0
102
RTVSPropertyOp60
 70
     0
102
RTVSPropertyOp61
 70
     0
102
RTVSPropertyOp62
 70
     0
  0
XRECORD
  5
B551
102
{ACAD_REACTORS
330
B550
102
}
330
B550
100
AcDbXrecord
280
     1
102
RTVSPost2010Prop28
280
     0
102
RTVSPost2010PropOp28
 70
     1
102
RTVSPost2010Prop29
280
     1
102
RTVSPost2010PropOp29
 70
     1
102
RTVSPost2010Prop30
280
     1
102
RTVSPost2010PropOp30
 70
     1
102
RTVSPost2010Prop31
280
     0
102
RTVSPost2010PropOp31
 70
     1
102
RTVSPost2010Prop32
280
     0
102
RTVSPost2010PropOp32
 70
     1
102
RTVSPost2010Prop33
280
     0
102
RTVSPost2010PropOp33
 70
     1
102
RTVSPost2010Prop34
280
     0
102
RTVSPost2010PropOp34
 70
     1
102
RTVSPost2010Prop35
280
     0
102
RTVSPost2010PropOp35
 70
     1
102
RTVSPost2010Prop36
280
     0
102
RTVSPost2010PropOp36
 70
     1
102
RTVSPost2010Prop37
 90
       50
102
RTVSPost2010PropOp37
 70
     1
102
RTVSPost2010Prop38
140
0.0
102
RTVSPost2010PropOp38
 70
     1
102
RTVSPost2010Prop39
140
1.0
102
RTVSPost2010PropOp39
 70
     1
102
RTVSPost2010Prop40
 90
        0
102
RTVSPost2010PropOp40
 70
     1
102
RTVSPost2010Prop41ColorIndex
 90
       18
102
RTVSPost2010Prop41ColorRGB
 90
        0
102
RTVSPost2010PropOp41
 70
     1
102
RTVSPost2010Prop42
 90
       50
102
RTVSPost2010PropOp42
 70
     1
102
RTVSPost2010Prop43
 90
        3
102
RTVSPost2010PropOp43
 70
     1
102
RTVSPost2010Prop44ColorIndex
 90
        5
102
RTVSPost2010Prop44ColorRGB
 90
      255
102
RTVSPost2010PropOp44
 70
     1
102
RTVSPost2010Prop45
280
     0
102
RTVSPost2010PropOp45
 70
     1
102
RTVSPost2010Prop46
 90
       50
102
RTVSPost2010PropOp46
 70
     1
102
RTVSPost2010Prop47
 90
       50
102
RTVSPost2010PropOp47
 70
     1
102
RTVSPost2010Prop48
 90
       50
102
RTVSPost2010PropOp48
 70
     1
102
RTVSPost2010Prop49
280
     0
102
RTVSPost2010PropOp49
 70
     1
102
RTVSPost2010Prop50
 90
       50
102
RTVSPost2010PropOp50
 70
     1
102
RTVSPost2010Prop51ColorIndex
 90
      256
102
RTVSPost2010Prop51ColorRGB
 90
-16777216
102
RTVSPost2010PropOp51
 70
     0
102
RTVSPost2010Prop52
140
1.0
102
RTVSPost2010PropOp52
 70
     0
102
RTVSPost2010Prop53
 90
        2
102
RTVSPost2010PropOp53
 70
     1
102
RTVSPost2010Prop54
  1
strokes_ogs.tif
102
RTVSPost2010PropOp54
 70
     1
102
RTVSPost2010Prop55
280
     0
102
RTVSPost2010PropOp55
 70
     1
102
RTVSPost2010Prop56
140
1.0
102
RTVSPost2010PropOp56
 70
     1
102
RTVSPost2010Prop57
140
1.0
102
RTVSPost2010PropOp57
 70
     1
102
RTVSPropertyOp0
 70
     1
102
RTVSPropertyOp1
 70
     1
102
RTVSPropertyOp2
 70
     1
102
RTVSPropertyOp3
 70
     1
102
RTVSPropertyOp4
 70
     1
102
RTVSPropertyOp5
 70
     1
102
RTVSPropertyOp6
 70
     1
102
RTVSPropertyOp7
 70
     1
102
RTVSPropertyOp8
 70
     1
102
RTVSPropertyOp9
 70
     1
102
RTVSPropertyOp10
 70
     1
102
RTVSPropertyOp11
 70
     1
102
RTVSPropertyOp12
 70
     1
102
RTVSPropertyOp13
 70
     1
102
RTVSPropertyOp14
 70
     1
102
RTVSPropertyOp15
 70
     1
102
RTVSPropertyOp16
 70
     1
102
RTVSPropertyOp17
 70
     1
102
RTVSPropertyOp18
 70
     1
102
RTVSPropertyOp19
 70
     1
102
RTVSPropertyOp20
 70
     1
102
RTVSPropertyOp21
 70
     1
102
RTVSPropertyOp22
 70
     1
102
RTVSPropertyOp23
 70
     1
102
RTVSPropertyOp24
 70
     1
102
RTVSPropertyOp25
 70
     1
102
RTVSPropertyOp26
 70
     1
102
RTVSPropertyOp27
 70
     1
102
RTVSPropertyOp28
 70
     1
102
RTVSPropertyOp29
 70
     1
102
RTVSPropertyOp30
 70
     1
102
RTVSPropertyOp31
 70
     1
102
RTVSPropertyOp32
 70
     1
102
RTVSPropertyOp33
 70
     1
102
RTVSPropertyOp34
 70
     1
102
RTVSPropertyOp35
 70
     1
102
RTVSPropertyOp36
 70
     1
102
RTVSPropertyOp37
 70
     1
102
RTVSPropertyOp38
 70
     1
102
RTVSPropertyOp39
 70
     1
102
RTVSPropertyOp40
 70
     1
102
RTVSPropertyOp41
 70
     1
102
RTVSPropertyOp42
 70
     1
102
RTVSPropertyOp43
 70
     1
102
RTVSPropertyOp44
 70
     1
102
RTVSPropertyOp45
 70
     1
102
RTVSPropertyOp46
 70
     1
102
RTVSPropertyOp47
 70
     1
102
RTVSPropertyOp48
 70
     1
102
RTVSPropertyOp49
 70
     1
102
RTVSPropertyOp50
 70
     1
102
RTVSPropertyOp51
 70
     0
102
RTVSPropertyOp52
 70
     0
102
RTVSPropertyOp53
 70
     1
102
RTVSPropertyOp54
 70
     1
102
RTVSPropertyOp55
 70
     1
102
RTVSPropertyOp56
 70
     1
102
RTVSPropertyOp57
 70
     1
102
RTVSPropertyOp58
 70
     1
102
RTVSPropertyOp59
 70
     1
102
RTVSPropertyOp60
 70
     1
102
RTVSPropertyOp61
 70
     1
102
RTVSPropertyOp62
 70
     1
  0
XRECORD
  5
B567
102
{ACAD_REACTORS
330
B566
102
}
330
B566
100
AcDbXrecord
280
     1
102
RTVSPost2010Prop28
280
     0
102
RTVSPost2010PropOp28
 70
     1
102
RTVSPost2010Prop29
280
     1
102
RTVSPost2010PropOp29
 70
     1
102
RTVSPost2010Prop30
280
     1
102
RTVSPost2010PropOp30
 70
     1
102
RTVSPost2010Prop31
280
     0
102
RTVSPost2010PropOp31
 70
     1
102
RTVSPost2010Prop32
280
     0
102
RTVSPost2010PropOp32
 70
     1
102
RTVSPost2010Prop33
280
     0
102
RTVSPost2010PropOp33
 70
     1
102
RTVSPost2010Prop34
280
     0
102
RTVSPost2010PropOp34
 70
     1
102
RTVSPost2010Prop35
280
     0
102
RTVSPost2010PropOp35
 70
     1
102
RTVSPost2010Prop36
280
     0
102
RTVSPost2010PropOp36
 70
     1
102
RTVSPost2010Prop37
 90
       50
102
RTVSPost2010PropOp37
 70
     1
102
RTVSPost2010Prop38
140
0.0
102
RTVSPost2010PropOp38
 70
     1
102
RTVSPost2010Prop39
140
1.0
102
RTVSPost2010PropOp39
 70
     1
102
RTVSPost2010Prop40
 90
        0
102
RTVSPost2010PropOp40
 70
     1
102
RTVSPost2010Prop41ColorIndex
 90
       18
102
RTVSPost2010Prop41ColorRGB
 90
        0
102
RTVSPost2010PropOp41
 70
     1
102
RTVSPost2010Prop42
 90
       50
102
RTVSPost2010PropOp42
 70
     1
102
RTVSPost2010Prop43
 90
        3
102
RTVSPost2010PropOp43
 70
     1
102
RTVSPost2010Prop44ColorIndex
 90
        5
102
RTVSPost2010Prop44ColorRGB
 90
      255
102
RTVSPost2010PropOp44
 70
     1
102
RTVSPost2010Prop45
280
     0
102
RTVSPost2010PropOp45
 70
     1
102
RTVSPost2010Prop46
 90
       50
102
RTVSPost2010PropOp46
 70
     1
102
RTVSPost2010Prop47
 90
       50
102
RTVSPost2010PropOp47
 70
     1
102
RTVSPost2010Prop48
 90
       50
102
RTVSPost2010PropOp48
 70
     1
102
RTVSPost2010Prop49
280
     0
102
RTVSPost2010PropOp49
 70
     1
102
RTVSPost2010Prop50
 90
       50
102
RTVSPost2010PropOp50
 70
     1
102
RTVSPost2010Prop51ColorIndex
 90
      256
102
RTVSPost2010Prop51ColorRGB
 90
-16777216
102
RTVSPost2010PropOp51
 70
     0
102
RTVSPost2010Prop52
140
1.0
102
RTVSPost2010PropOp52
 70
     0
102
RTVSPost2010Prop53
 90
        2
102
RTVSPost2010PropOp53
 70
     1
102
RTVSPost2010Prop54
  1
strokes_ogs.tif
102
RTVSPost2010PropOp54
 70
     1
102
RTVSPost2010Prop55
280
     0
102
RTVSPost2010PropOp55
 70
     1
102
RTVSPost2010Prop56
140
1.0
102
RTVSPost2010PropOp56
 70
     1
102
RTVSPost2010Prop57
140
1.0
102
RTVSPost2010PropOp57
 70
     1
102
RTVSPropertyOp0
 70
     1
102
RTVSPropertyOp1
 70
     1
102
RTVSPropertyOp2
 70
     1
102
RTVSPropertyOp3
 70
     1
102
RTVSPropertyOp4
 70
     1
102
RTVSPropertyOp5
 70
     1
102
RTVSPropertyOp6
 70
     1
102
RTVSPropertyOp7
 70
     1
102
RTVSPropertyOp8
 70
     1
102
RTVSPropertyOp9
 70
     1
102
RTVSPropertyOp10
 70
     1
102
RTVSPropertyOp11
 70
     1
102
RTVSPropertyOp12
 70
     1
102
RTVSPropertyOp13
 70
     1
102
RTVSPropertyOp14
 70
     1
102
RTVSPropertyOp15
 70
     1
102
RTVSPropertyOp16
 70
     1
102
RTVSPropertyOp17
 70
     1
102
RTVSPropertyOp18
 70
     1
102
RTVSPropertyOp19
 70
     1
102
RTVSPropertyOp20
 70
     1
102
RTVSPropertyOp21
 70
     1
102
RTVSPropertyOp22
 70
     1
102
RTVSPropertyOp23
 70
     1
102
RTVSPropertyOp24
 70
     1
102
RTVSPropertyOp25
 70
     1
102
RTVSPropertyOp26
 70
     1
102
RTVSPropertyOp27
 70
     1
102
RTVSPropertyOp28
 70
     1
102
RTVSPropertyOp29
 70
     1
102
RTVSPropertyOp30
 70
     1
102
RTVSPropertyOp31
 70
     1
102
RTVSPropertyOp32
 70
     1
102
RTVSPropertyOp33
 70
     1
102
RTVSPropertyOp34
 70
     1
102
RTVSPropertyOp35
 70
     1
102
RTVSPropertyOp36
 70
     1
102
RTVSPropertyOp37
 70
     1
102
RTVSPropertyOp38
 70
     1
102
RTVSPropertyOp39
 70
     1
102
RTVSPropertyOp40
 70
     1
102
RTVSPropertyOp41
 70
     1
102
RTVSPropertyOp42
 70
     1
102
RTVSPropertyOp43
 70
     1
102
RTVSPropertyOp44
 70
     1
102
RTVSPropertyOp45
 70
     1
102
RTVSPropertyOp46
 70
     1
102
RTVSPropertyOp47
 70
     1
102
RTVSPropertyOp48
 70
     1
102
RTVSPropertyOp49
 70
     1
102
RTVSPropertyOp50
 70
     1
102
RTVSPropertyOp51
 70
     0
102
RTVSPropertyOp52
 70
     0
102
RTVSPropertyOp53
 70
     1
102
RTVSPropertyOp54
 70
     1
102
RTVSPropertyOp55
 70
     1
102
RTVSPropertyOp56
 70
     1
102
RTVSPropertyOp57
 70
     1
102
RTVSPropertyOp58
 70
     1
102
RTVSPropertyOp59
 70
     1
102
RTVSPropertyOp60
 70
     1
102
RTVSPropertyOp61
 70
     1
102
RTVSPropertyOp62
 70
     1
  0
XRECORD
  5
B565
102
{ACAD_REACTORS
330
B564
102
}
330
B564
100
AcDbXrecord
280
     1
102
RTVSPost2010Prop28
280
     0
102
RTVSPost2010PropOp28
 70
     1
102
RTVSPost2010Prop29
280
     1
102
RTVSPost2010PropOp29
 70
     1
102
RTVSPost2010Prop30
280
     1
102
RTVSPost2010PropOp30
 70
     1
102
RTVSPost2010Prop31
280
     0
102
RTVSPost2010PropOp31
 70
     1
102
RTVSPost2010Prop32
280
     0
102
RTVSPost2010PropOp32
 70
     1
102
RTVSPost2010Prop33
280
     0
102
RTVSPost2010PropOp33
 70
     1
102
RTVSPost2010Prop34
280
     0
102
RTVSPost2010PropOp34
 70
     1
102
RTVSPost2010Prop35
280
     0
102
RTVSPost2010PropOp35
 70
     1
102
RTVSPost2010Prop36
280
     0
102
RTVSPost2010PropOp36
 70
     1
102
RTVSPost2010Prop37
 90
       50
102
RTVSPost2010PropOp37
 70
     1
102
RTVSPost2010Prop38
140
0.0
102
RTVSPost2010PropOp38
 70
     1
102
RTVSPost2010Prop39
140
1.0
102
RTVSPost2010PropOp39
 70
     1
102
RTVSPost2010Prop40
 90
        0
102
RTVSPost2010PropOp40
 70
     1
102
RTVSPost2010Prop41ColorIndex
 90
       18
102
RTVSPost2010Prop41ColorRGB
 90
        0
102
RTVSPost2010PropOp41
 70
     1
102
RTVSPost2010Prop42
 90
       50
102
RTVSPost2010PropOp42
 70
     1
102
RTVSPost2010Prop43
 90
        3
102
RTVSPost2010PropOp43
 70
     1
102
RTVSPost2010Prop44ColorIndex
 90
        5
102
RTVSPost2010Prop44ColorRGB
 90
      255
102
RTVSPost2010PropOp44
 70
     1
102
RTVSPost2010Prop45
280
     0
102
RTVSPost2010PropOp45
 70
     1
102
RTVSPost2010Prop46
 90
       50
102
RTVSPost2010PropOp46
 70
     1
102
RTVSPost2010Prop47
 90
       50
102
RTVSPost2010PropOp47
 70
     1
102
RTVSPost2010Prop48
 90
       50
102
RTVSPost2010PropOp48
 70
     1
102
RTVSPost2010Prop49
280
     0
102
RTVSPost2010PropOp49
 70
     1
102
RTVSPost2010Prop50
 90
       50
102
RTVSPost2010PropOp50
 70
     1
102
RTVSPost2010Prop51ColorIndex
 90
      256
102
RTVSPost2010Prop51ColorRGB
 90
-16777216
102
RTVSPost2010PropOp51
 70
     0
102
RTVSPost2010Prop52
140
1.0
102
RTVSPost2010PropOp52
 70
     0
102
RTVSPost2010Prop53
 90
        2
102
RTVSPost2010PropOp53
 70
     1
102
RTVSPost2010Prop54
  1
strokes_ogs.tif
102
RTVSPost2010PropOp54
 70
     1
102
RTVSPost2010Prop55
280
     0
102
RTVSPost2010PropOp55
 70
     1
102
RTVSPost2010Prop56
140
1.0
102
RTVSPost2010PropOp56
 70
     1
102
RTVSPost2010Prop57
140
1.0
102
RTVSPost2010PropOp57
 70
     1
102
RTVSPropertyOp0
 70
     1
102
RTVSPropertyOp1
 70
     1
102
RTVSPropertyOp2
 70
     1
102
RTVSPropertyOp3
 70
     1
102
RTVSPropertyOp4
 70
     1
102
RTVSPropertyOp5
 70
     1
102
RTVSPropertyOp6
 70
     1
102
RTVSPropertyOp7
 70
     1
102
RTVSPropertyOp8
 70
     1
102
RTVSPropertyOp9
 70
     1
102
RTVSPropertyOp10
 70
     1
102
RTVSPropertyOp11
 70
     1
102
RTVSPropertyOp12
 70
     1
102
RTVSPropertyOp13
 70
     1
102
RTVSPropertyOp14
 70
     1
102
RTVSPropertyOp15
 70
     1
102
RTVSPropertyOp16
 70
     1
102
RTVSPropertyOp17
 70
     1
102
RTVSPropertyOp18
 70
     1
102
RTVSPropertyOp19
 70
     1
102
RTVSPropertyOp20
 70
     1
102
RTVSPropertyOp21
 70
     1
102
RTVSPropertyOp22
 70
     1
102
RTVSPropertyOp23
 70
     1
102
RTVSPropertyOp24
 70
     1
102
RTVSPropertyOp25
 70
     1
102
RTVSPropertyOp26
 70
     1
102
RTVSPropertyOp27
 70
     1
102
RTVSPropertyOp28
 70
     1
102
RTVSPropertyOp29
 70
     1
102
RTVSPropertyOp30
 70
     1
102
RTVSPropertyOp31
 70
     1
102
RTVSPropertyOp32
 70
     1
102
RTVSPropertyOp33
 70
     1
102
RTVSPropertyOp34
 70
     1
102
RTVSPropertyOp35
 70
     1
102
RTVSPropertyOp36
 70
     1
102
RTVSPropertyOp37
 70
     1
102
RTVSPropertyOp38
 70
     1
102
RTVSPropertyOp39
 70
     1
102
RTVSPropertyOp40
 70
     1
102
RTVSPropertyOp41
 70
     1
102
RTVSPropertyOp42
 70
     1
102
RTVSPropertyOp43
 70
     1
102
RTVSPropertyOp44
 70
     1
102
RTVSPropertyOp45
 70
     1
102
RTVSPropertyOp46
 70
     1
102
RTVSPropertyOp47
 70
     1
102
RTVSPropertyOp48
 70
     1
102
RTVSPropertyOp49
 70
     1
102
RTVSPropertyOp50
 70
     1
102
RTVSPropertyOp51
 70
     0
102
RTVSPropertyOp52
 70
     0
102
RTVSPropertyOp53
 70
     1
102
RTVSPropertyOp54
 70
     1
102
RTVSPropertyOp55
 70
     1
102
RTVSPropertyOp56
 70
     1
102
RTVSPropertyOp57
 70
     1
102
RTVSPropertyOp58
 70
     1
102
RTVSPropertyOp59
 70
     1
102
RTVSPropertyOp60
 70
     1
102
RTVSPropertyOp61
 70
     1
102
RTVSPropertyOp62
 70
     1
  0
XRECORD
  5
B55F
102
{ACAD_REACTORS
330
B55E
102
}
330
B55E
100
AcDbXrecord
280
     1
102
RTVSPost2010Prop28
280
     0
102
RTVSPost2010PropOp28
 70
     1
102
RTVSPost2010Prop29
280
     1
102
RTVSPost2010PropOp29
 70
     1
102
RTVSPost2010Prop30
280
     1
102
RTVSPost2010PropOp30
 70
     1
102
RTVSPost2010Prop31
280
     0
102
RTVSPost2010PropOp31
 70
     1
102
RTVSPost2010Prop32
280
     0
102
RTVSPost2010PropOp32
 70
     1
102
RTVSPost2010Prop33
280
     0
102
RTVSPost2010PropOp33
 70
     1
102
RTVSPost2010Prop34
280
     0
102
RTVSPost2010PropOp34
 70
     1
102
RTVSPost2010Prop35
280
     0
102
RTVSPost2010PropOp35
 70
     1
102
RTVSPost2010Prop36
280
     0
102
RTVSPost2010PropOp36
 70
     1
102
RTVSPost2010Prop37
 90
       50
102
RTVSPost2010PropOp37
 70
     1
102
RTVSPost2010Prop38
140
0.0
102
RTVSPost2010PropOp38
 70
     1
102
RTVSPost2010Prop39
140
1.0
102
RTVSPost2010PropOp39
 70
     1
102
RTVSPost2010Prop40
 90
        0
102
RTVSPost2010PropOp40
 70
     1
102
RTVSPost2010Prop41ColorIndex
 90
       18
102
RTVSPost2010Prop41ColorRGB
 90
        0
102
RTVSPost2010PropOp41
 70
     1
102
RTVSPost2010Prop42
 90
       50
102
RTVSPost2010PropOp42
 70
     1
102
RTVSPost2010Prop43
 90
        3
102
RTVSPost2010PropOp43
 70
     1
102
RTVSPost2010Prop44ColorIndex
 90
        5
102
RTVSPost2010Prop44ColorRGB
 90
      255
102
RTVSPost2010PropOp44
 70
     1
102
RTVSPost2010Prop45
280
     0
102
RTVSPost2010PropOp45
 70
     1
102
RTVSPost2010Prop46
 90
       50
102
RTVSPost2010PropOp46
 70
     1
102
RTVSPost2010Prop47
 90
       50
102
RTVSPost2010PropOp47
 70
     1
102
RTVSPost2010Prop48
 90
       50
102
RTVSPost2010PropOp48
 70
     1
102
RTVSPost2010Prop49
280
     0
102
RTVSPost2010PropOp49
 70
     1
102
RTVSPost2010Prop50
 90
       50
102
RTVSPost2010PropOp50
 70
     1
102
RTVSPost2010Prop51ColorIndex
 90
      256
102
RTVSPost2010Prop51ColorRGB
 90
-16777216
102
RTVSPost2010PropOp51
 70
     0
102
RTVSPost2010Prop52
140
1.0
102
RTVSPost2010PropOp52
 70
     0
102
RTVSPost2010Prop53
 90
        2
102
RTVSPost2010PropOp53
 70
     1
102
RTVSPost2010Prop54
  1
strokes_ogs.tif
102
RTVSPost2010PropOp54
 70
     1
102
RTVSPost2010Prop55
280
     0
102
RTVSPost2010PropOp55
 70
     1
102
RTVSPost2010Prop56
140
1.0
102
RTVSPost2010PropOp56
 70
     1
102
RTVSPost2010Prop57
140
1.0
102
RTVSPost2010PropOp57
 70
     1
102
RTVSPropertyOp0
 70
     1
102
RTVSPropertyOp1
 70
     1
102
RTVSPropertyOp2
 70
     1
102
RTVSPropertyOp3
 70
     1
102
RTVSPropertyOp4
 70
     1
102
RTVSPropertyOp5
 70
     1
102
RTVSPropertyOp6
 70
     1
102
RTVSPropertyOp7
 70
     1
102
RTVSPropertyOp8
 70
     1
102
RTVSPropertyOp9
 70
     1
102
RTVSPropertyOp10
 70
     1
102
RTVSPropertyOp11
 70
     1
102
RTVSPropertyOp12
 70
     1
102
RTVSPropertyOp13
 70
     1
102
RTVSPropertyOp14
 70
     1
102
RTVSPropertyOp15
 70
     1
102
RTVSPropertyOp16
 70
     1
102
RTVSPropertyOp17
 70
     1
102
RTVSPropertyOp18
 70
     1
102
RTVSPropertyOp19
 70
     1
102
RTVSPropertyOp20
 70
     1
102
RTVSPropertyOp21
 70
     1
102
RTVSPropertyOp22
 70
     1
102
RTVSPropertyOp23
 70
     1
102
RTVSPropertyOp24
 70
     1
102
RTVSPropertyOp25
 70
     1
102
RTVSPropertyOp26
 70
     1
102
RTVSPropertyOp27
 70
     1
102
RTVSPropertyOp28
 70
     1
102
RTVSPropertyOp29
 70
     1
102
RTVSPropertyOp30
 70
     1
102
RTVSPropertyOp31
 70
     1
102
RTVSPropertyOp32
 70
     1
102
RTVSPropertyOp33
 70
     1
102
RTVSPropertyOp34
 70
     1
102
RTVSPropertyOp35
 70
     1
102
RTVSPropertyOp36
 70
     1
102
RTVSPropertyOp37
 70
     1
102
RTVSPropertyOp38
 70
     1
102
RTVSPropertyOp39
 70
     1
102
RTVSPropertyOp40
 70
     1
102
RTVSPropertyOp41
 70
     1
102
RTVSPropertyOp42
 70
     1
102
RTVSPropertyOp43
 70
     1
102
RTVSPropertyOp44
 70
     1
102
RTVSPropertyOp45
 70
     1
102
RTVSPropertyOp46
 70
     1
102
RTVSPropertyOp47
 70
     1
102
RTVSPropertyOp48
 70
     1
102
RTVSPropertyOp49
 70
     1
102
RTVSPropertyOp50
 70
     1
102
RTVSPropertyOp51
 70
     0
102
RTVSPropertyOp52
 70
     0
102
RTVSPropertyOp53
 70
     1
102
RTVSPropertyOp54
 70
     1
102
RTVSPropertyOp55
 70
     1
102
RTVSPropertyOp56
 70
     1
102
RTVSPropertyOp57
 70
     1
102
RTVSPropertyOp58
 70
     1
102
RTVSPropertyOp59
 70
     1
102
RTVSPropertyOp60
 70
     1
102
RTVSPropertyOp61
 70
     1
102
RTVSPropertyOp62
 70
     1
  0
XRECORD
  5
B561
102
{ACAD_REACTORS
330
B560
102
}
330
B560
100
AcDbXrecord
280
     1
102
RTVSPost2010Prop28
280
     0
102
RTVSPost2010PropOp28
 70
     1
102
RTVSPost2010Prop29
280
     1
102
RTVSPost2010PropOp29
 70
     1
102
RTVSPost2010Prop30
280
     1
102
RTVSPost2010PropOp30
 70
     1
102
RTVSPost2010Prop31
280
     0
102
RTVSPost2010PropOp31
 70
     1
102
RTVSPost2010Prop32
280
     0
102
RTVSPost2010PropOp32
 70
     1
102
RTVSPost2010Prop33
280
     0
102
RTVSPost2010PropOp33
 70
     1
102
RTVSPost2010Prop34
280
     0
102
RTVSPost2010PropOp34
 70
     1
102
RTVSPost2010Prop35
280
     0
102
RTVSPost2010PropOp35
 70
     1
102
RTVSPost2010Prop36
280
     0
102
RTVSPost2010PropOp36
 70
     1
102
RTVSPost2010Prop37
 90
       50
102
RTVSPost2010PropOp37
 70
     1
102
RTVSPost2010Prop38
140
0.0
102
RTVSPost2010PropOp38
 70
     1
102
RTVSPost2010Prop39
140
1.0
102
RTVSPost2010PropOp39
 70
     1
102
RTVSPost2010Prop40
 90
        0
102
RTVSPost2010PropOp40
 70
     1
102
RTVSPost2010Prop41ColorIndex
 90
       18
102
RTVSPost2010Prop41ColorRGB
 90
        0
102
RTVSPost2010PropOp41
 70
     1
102
RTVSPost2010Prop42
 90
       50
102
RTVSPost2010PropOp42
 70
     1
102
RTVSPost2010Prop43
 90
        3
102
RTVSPost2010PropOp43
 70
     1
102
RTVSPost2010Prop44ColorIndex
 90
        5
102
RTVSPost2010Prop44ColorRGB
 90
      255
102
RTVSPost2010PropOp44
 70
     1
102
RTVSPost2010Prop45
280
     0
102
RTVSPost2010PropOp45
 70
     1
102
RTVSPost2010Prop46
 90
       50
102
RTVSPost2010PropOp46
 70
     1
102
RTVSPost2010Prop47
 90
       50
102
RTVSPost2010PropOp47
 70
     1
102
RTVSPost2010Prop48
 90
       50
102
RTVSPost2010PropOp48
 70
     1
102
RTVSPost2010Prop49
280
     0
102
RTVSPost2010PropOp49
 70
     1
102
RTVSPost2010Prop50
 90
       50
102
RTVSPost2010PropOp50
 70
     1
102
RTVSPost2010Prop51ColorIndex
 90
      256
102
RTVSPost2010Prop51ColorRGB
 90
-16777216
102
RTVSPost2010PropOp51
 70
     0
102
RTVSPost2010Prop52
140
1.0
102
RTVSPost2010PropOp52
 70
     0
102
RTVSPost2010Prop53
 90
        2
102
RTVSPost2010PropOp53
 70
     1
102
RTVSPost2010Prop54
  1
strokes_ogs.tif
102
RTVSPost2010PropOp54
 70
     1
102
RTVSPost2010Prop55
280
     0
102
RTVSPost2010PropOp55
 70
     1
102
RTVSPost2010Prop56
140
1.0
102
RTVSPost2010PropOp56
 70
     1
102
RTVSPost2010Prop57
140
1.0
102
RTVSPost2010PropOp57
 70
     1
102
RTVSPropertyOp0
 70
     1
102
RTVSPropertyOp1
 70
     1
102
RTVSPropertyOp2
 70
     1
102
RTVSPropertyOp3
 70
     1
102
RTVSPropertyOp4
 70
     1
102
RTVSPropertyOp5
 70
     1
102
RTVSPropertyOp6
 70
     1
102
RTVSPropertyOp7
 70
     1
102
RTVSPropertyOp8
 70
     1
102
RTVSPropertyOp9
 70
     1
102
RTVSPropertyOp10
 70
     1
102
RTVSPropertyOp11
 70
     1
102
RTVSPropertyOp12
 70
     1
102
RTVSPropertyOp13
 70
     1
102
RTVSPropertyOp14
 70
     1
102
RTVSPropertyOp15
 70
     1
102
RTVSPropertyOp16
 70
     1
102
RTVSPropertyOp17
 70
     1
102
RTVSPropertyOp18
 70
     1
102
RTVSPropertyOp19
 70
     1
102
RTVSPropertyOp20
 70
     1
102
RTVSPropertyOp21
 70
     1
102
RTVSPropertyOp22
 70
     1
102
RTVSPropertyOp23
 70
     1
102
RTVSPropertyOp24
 70
     1
102
RTVSPropertyOp25
 70
     1
102
RTVSPropertyOp26
 70
     1
102
RTVSPropertyOp27
 70
     1
102
RTVSPropertyOp28
 70
     1
102
RTVSPropertyOp29
 70
     1
102
RTVSPropertyOp30
 70
     1
102
RTVSPropertyOp31
 70
     1
102
RTVSPropertyOp32
 70
     1
102
RTVSPropertyOp33
 70
     1
102
RTVSPropertyOp34
 70
     1
102
RTVSPropertyOp35
 70
     1
102
RTVSPropertyOp36
 70
     1
102
RTVSPropertyOp37
 70
     1
102
RTVSPropertyOp38
 70
     1
102
RTVSPropertyOp39
 70
     1
102
RTVSPropertyOp40
 70
     1
102
RTVSPropertyOp41
 70
     1
102
RTVSPropertyOp42
 70
     1
102
RTVSPropertyOp43
 70
     1
102
RTVSPropertyOp44
 70
     1
102
RTVSPropertyOp45
 70
     1
102
RTVSPropertyOp46
 70
     1
102
RTVSPropertyOp47
 70
     1
102
RTVSPropertyOp48
 70
     1
102
RTVSPropertyOp49
 70
     1
102
RTVSPropertyOp50
 70
     1
102
RTVSPropertyOp51
 70
     0
102
RTVSPropertyOp52
 70
     0
102
RTVSPropertyOp53
 70
     1
102
RTVSPropertyOp54
 70
     1
102
RTVSPropertyOp55
 70
     1
102
RTVSPropertyOp56
 70
     1
102
RTVSPropertyOp57
 70
     1
102
RTVSPropertyOp58
 70
     1
102
RTVSPropertyOp59
 70
     1
102
RTVSPropertyOp60
 70
     1
102
RTVSPropertyOp61
 70
     1
102
RTVSPropertyOp62
 70
     1
  0
XRECORD
  5
B557
102
{ACAD_REACTORS
330
B556
102
}
330
B556
100
AcDbXrecord
280
     1
102
RTVSPost2010Prop28
280
     0
102
RTVSPost2010PropOp28
 70
     1
102
RTVSPost2010Prop29
280
     1
102
RTVSPost2010PropOp29
 70
     1
102
RTVSPost2010Prop30
280
     1
102
RTVSPost2010PropOp30
 70
     1
102
RTVSPost2010Prop31
280
     0
102
RTVSPost2010PropOp31
 70
     1
102
RTVSPost2010Prop32
280
     0
102
RTVSPost2010PropOp32
 70
     1
102
RTVSPost2010Prop33
280
     0
102
RTVSPost2010PropOp33
 70
     1
102
RTVSPost2010Prop34
280
     0
102
RTVSPost2010PropOp34
 70
     1
102
RTVSPost2010Prop35
280
     0
102
RTVSPost2010PropOp35
 70
     1
102
RTVSPost2010Prop36
280
     0
102
RTVSPost2010PropOp36
 70
     1
102
RTVSPost2010Prop37
 90
       50
102
RTVSPost2010PropOp37
 70
     1
102
RTVSPost2010Prop38
140
0.0
102
RTVSPost2010PropOp38
 70
     1
102
RTVSPost2010Prop39
140
1.0
102
RTVSPost2010PropOp39
 70
     1
102
RTVSPost2010Prop40
 90
        0
102
RTVSPost2010PropOp40
 70
     1
102
RTVSPost2010Prop41ColorIndex
 90
       18
102
RTVSPost2010Prop41ColorRGB
 90
        0
102
RTVSPost2010PropOp41
 70
     1
102
RTVSPost2010Prop42
 90
       50
102
RTVSPost2010PropOp42
 70
     1
102
RTVSPost2010Prop43
 90
        3
102
RTVSPost2010PropOp43
 70
     1
102
RTVSPost2010Prop44ColorIndex
 90
        5
102
RTVSPost2010Prop44ColorRGB
 90
      255
102
RTVSPost2010PropOp44
 70
     1
102
RTVSPost2010Prop45
280
     0
102
RTVSPost2010PropOp45
 70
     1
102
RTVSPost2010Prop46
 90
       50
102
RTVSPost2010PropOp46
 70
     1
102
RTVSPost2010Prop47
 90
       50
102
RTVSPost2010PropOp47
 70
     1
102
RTVSPost2010Prop48
 90
       50
102
RTVSPost2010PropOp48
 70
     1
102
RTVSPost2010Prop49
280
     0
102
RTVSPost2010PropOp49
 70
     1
102
RTVSPost2010Prop50
 90
       50
102
RTVSPost2010PropOp50
 70
     1
102
RTVSPost2010Prop51ColorIndex
 90
      256
102
RTVSPost2010Prop51ColorRGB
 90
-16777216
102
RTVSPost2010PropOp51
 70
     0
102
RTVSPost2010Prop52
140
1.0
102
RTVSPost2010PropOp52
 70
     0
102
RTVSPost2010Prop53
 90
        2
102
RTVSPost2010PropOp53
 70
     1
102
RTVSPost2010Prop54
  1
strokes_ogs.tif
102
RTVSPost2010PropOp54
 70
     1
102
RTVSPost2010Prop55
280
     0
102
RTVSPost2010PropOp55
 70
     1
102
RTVSPost2010Prop56
140
1.0
102
RTVSPost2010PropOp56
 70
     1
102
RTVSPost2010Prop57
140
1.0
102
RTVSPost2010PropOp57
 70
     1
102
RTVSPropertyOp0
 70
     1
102
RTVSPropertyOp1
 70
     1
102
RTVSPropertyOp2
 70
     1
102
RTVSPropertyOp3
 70
     1
102
RTVSPropertyOp4
 70
     1
102
RTVSPropertyOp5
 70
     1
102
RTVSPropertyOp6
 70
     1
102
RTVSPropertyOp7
 70
     1
102
RTVSPropertyOp8
 70
     1
102
RTVSPropertyOp9
 70
     1
102
RTVSPropertyOp10
 70
     1
102
RTVSPropertyOp11
 70
     1
102
RTVSPropertyOp12
 70
     1
102
RTVSPropertyOp13
 70
     1
102
RTVSPropertyOp14
 70
     1
102
RTVSPropertyOp15
 70
     1
102
RTVSPropertyOp16
 70
     1
102
RTVSPropertyOp17
 70
     1
102
RTVSPropertyOp18
 70
     1
102
RTVSPropertyOp19
 70
     1
102
RTVSPropertyOp20
 70
     1
102
RTVSPropertyOp21
 70
     1
102
RTVSPropertyOp22
 70
     1
102
RTVSPropertyOp23
 70
     1
102
RTVSPropertyOp24
 70
     1
102
RTVSPropertyOp25
 70
     1
102
RTVSPropertyOp26
 70
     1
102
RTVSPropertyOp27
 70
     1
102
RTVSPropertyOp28
 70
     1
102
RTVSPropertyOp29
 70
     1
102
RTVSPropertyOp30
 70
     1
102
RTVSPropertyOp31
 70
     1
102
RTVSPropertyOp32
 70
     1
102
RTVSPropertyOp33
 70
     1
102
RTVSPropertyOp34
 70
     1
102
RTVSPropertyOp35
 70
     1
102
RTVSPropertyOp36
 70
     1
102
RTVSPropertyOp37
 70
     1
102
RTVSPropertyOp38
 70
     1
102
RTVSPropertyOp39
 70
     1
102
RTVSPropertyOp40
 70
     1
102
RTVSPropertyOp41
 70
     1
102
RTVSPropertyOp42
 70
     1
102
RTVSPropertyOp43
 70
     1
102
RTVSPropertyOp44
 70
     1
102
RTVSPropertyOp45
 70
     1
102
RTVSPropertyOp46
 70
     1
102
RTVSPropertyOp47
 70
     1
102
RTVSPropertyOp48
 70
     1
102
RTVSPropertyOp49
 70
     1
102
RTVSPropertyOp50
 70
     1
102
RTVSPropertyOp51
 70
     0
102
RTVSPropertyOp52
 70
     0
102
RTVSPropertyOp53
 70
     1
102
RTVSPropertyOp54
 70
     1
102
RTVSPropertyOp55
 70
     1
102
RTVSPropertyOp56
 70
     1
102
RTVSPropertyOp57
 70
     1
102
RTVSPropertyOp58
 70
     1
102
RTVSPropertyOp59
 70
     1
102
RTVSPropertyOp60
 70
     1
102
RTVSPropertyOp61
 70
     1
102
RTVSPropertyOp62
 70
     1
  0
XRECORD
  5
B54B
102
{ACAD_REACTORS
330
B54A
102
}
330
B54A
100
AcDbXrecord
280
     1
102
RTVSPost2010Prop28
280
     0
102
RTVSPost2010PropOp28
 70
     1
102
RTVSPost2010Prop29
280
     1
102
RTVSPost2010PropOp29
 70
     1
102
RTVSPost2010Prop30
280
     1
102
RTVSPost2010PropOp30
 70
     1
102
RTVSPost2010Prop31
280
     0
102
RTVSPost2010PropOp31
 70
     1
102
RTVSPost2010Prop32
280
     0
102
RTVSPost2010PropOp32
 70
     1
102
RTVSPost2010Prop33
280
     0
102
RTVSPost2010PropOp33
 70
     1
102
RTVSPost2010Prop34
280
     0
102
RTVSPost2010PropOp34
 70
     1
102
RTVSPost2010Prop35
280
     0
102
RTVSPost2010PropOp35
 70
     1
102
RTVSPost2010Prop36
280
     0
102
RTVSPost2010PropOp36
 70
     1
102
RTVSPost2010Prop37
 90
       50
102
RTVSPost2010PropOp37
 70
     1
102
RTVSPost2010Prop38
140
0.0
102
RTVSPost2010PropOp38
 70
     1
102
RTVSPost2010Prop39
140
1.0
102
RTVSPost2010PropOp39
 70
     1
102
RTVSPost2010Prop40
 90
        0
102
RTVSPost2010PropOp40
 70
     1
102
RTVSPost2010Prop41ColorIndex
 90
       18
102
RTVSPost2010Prop41ColorRGB
 90
        0
102
RTVSPost2010PropOp41
 70
     1
102
RTVSPost2010Prop42
 90
       50
102
RTVSPost2010PropOp42
 70
     1
102
RTVSPost2010Prop43
 90
        3
102
RTVSPost2010PropOp43
 70
     1
102
RTVSPost2010Prop44ColorIndex
 90
        5
102
RTVSPost2010Prop44ColorRGB
 90
      255
102
RTVSPost2010PropOp44
 70
     1
102
RTVSPost2010Prop45
280
     0
102
RTVSPost2010PropOp45
 70
     1
102
RTVSPost2010Prop46
 90
       50
102
RTVSPost2010PropOp46
 70
     1
102
RTVSPost2010Prop47
 90
       50
102
RTVSPost2010PropOp47
 70
     1
102
RTVSPost2010Prop48
 90
       50
102
RTVSPost2010PropOp48
 70
     1
102
RTVSPost2010Prop49
280
     0
102
RTVSPost2010PropOp49
 70
     1
102
RTVSPost2010Prop50
 90
       50
102
RTVSPost2010PropOp50
 70
     1
102
RTVSPost2010Prop51ColorIndex
 90
      256
102
RTVSPost2010Prop51ColorRGB
 90
-16777216
102
RTVSPost2010PropOp51
 70
     0
102
RTVSPost2010Prop52
140
1.0
102
RTVSPost2010PropOp52
 70
     0
102
RTVSPost2010Prop53
 90
        2
102
RTVSPost2010PropOp53
 70
     1
102
RTVSPost2010Prop54
  1
strokes_ogs.tif
102
RTVSPost2010PropOp54
 70
     1
102
RTVSPost2010Prop55
280
     0
102
RTVSPost2010PropOp55
 70
     1
102
RTVSPost2010Prop56
140
1.0
102
RTVSPost2010PropOp56
 70
     1
102
RTVSPost2010Prop57
140
1.0
102
RTVSPost2010PropOp57
 70
     1
102
RTVSPropertyOp0
 70
     1
102
RTVSPropertyOp1
 70
     1
102
RTVSPropertyOp2
 70
     1
102
RTVSPropertyOp3
 70
     1
102
RTVSPropertyOp4
 70
     1
102
RTVSPropertyOp5
 70
     1
102
RTVSPropertyOp6
 70
     1
102
RTVSPropertyOp7
 70
     1
102
RTVSPropertyOp8
 70
     1
102
RTVSPropertyOp9
 70
     1
102
RTVSPropertyOp10
 70
     1
102
RTVSPropertyOp11
 70
     1
102
RTVSPropertyOp12
 70
     1
102
RTVSPropertyOp13
 70
     1
102
RTVSPropertyOp14
 70
     1
102
RTVSPropertyOp15
 70
     1
102
RTVSPropertyOp16
 70
     1
102
RTVSPropertyOp17
 70
     1
102
RTVSPropertyOp18
 70
     1
102
RTVSPropertyOp19
 70
     1
102
RTVSPropertyOp20
 70
     1
102
RTVSPropertyOp21
 70
     1
102
RTVSPropertyOp22
 70
     1
102
RTVSPropertyOp23
 70
     1
102
RTVSPropertyOp24
 70
     1
102
RTVSPropertyOp25
 70
     1
102
RTVSPropertyOp26
 70
     1
102
RTVSPropertyOp27
 70
     1
102
RTVSPropertyOp28
 70
     1
102
RTVSPropertyOp29
 70
     1
102
RTVSPropertyOp30
 70
     1
102
RTVSPropertyOp31
 70
     1
102
RTVSPropertyOp32
 70
     1
102
RTVSPropertyOp33
 70
     1
102
RTVSPropertyOp34
 70
     1
102
RTVSPropertyOp35
 70
     1
102
RTVSPropertyOp36
 70
     1
102
RTVSPropertyOp37
 70
     1
102
RTVSPropertyOp38
 70
     1
102
RTVSPropertyOp39
 70
     1
102
RTVSPropertyOp40
 70
     1
102
RTVSPropertyOp41
 70
     1
102
RTVSPropertyOp42
 70
     1
102
RTVSPropertyOp43
 70
     1
102
RTVSPropertyOp44
 70
     1
102
RTVSPropertyOp45
 70
     1
102
RTVSPropertyOp46
 70
     1
102
RTVSPropertyOp47
 70
     1
102
RTVSPropertyOp48
 70
     1
102
RTVSPropertyOp49
 70
     1
102
RTVSPropertyOp50
 70
     1
102
RTVSPropertyOp51
 70
     0
102
RTVSPropertyOp52
 70
     0
102
RTVSPropertyOp53
 70
     1
102
RTVSPropertyOp54
 70
     1
102
RTVSPropertyOp55
 70
     1
102
RTVSPropertyOp56
 70
     1
102
RTVSPropertyOp57
 70
     1
102
RTVSPropertyOp58
 70
     1
102
RTVSPropertyOp59
 70
     1
102
RTVSPropertyOp60
 70
     1
102
RTVSPropertyOp61
 70
     1
102
RTVSPropertyOp62
 70
     1
  0
XRECORD
  5
B563
102
{ACAD_REACTORS
330
B562
102
}
330
B562
100
AcDbXrecord
280
     1
102
RTVSPost2010Prop28
280
     0
102
RTVSPost2010PropOp28
 70
     1
102
RTVSPost2010Prop29
280
     1
102
RTVSPost2010PropOp29
 70
     1
102
RTVSPost2010Prop30
280
     1
102
RTVSPost2010PropOp30
 70
     1
102
RTVSPost2010Prop31
280
     0
102
RTVSPost2010PropOp31
 70
     1
102
RTVSPost2010Prop32
280
     0
102
RTVSPost2010PropOp32
 70
     1
102
RTVSPost2010Prop33
280
     0
102
RTVSPost2010PropOp33
 70
     1
102
RTVSPost2010Prop34
280
     0
102
RTVSPost2010PropOp34
 70
     1
102
RTVSPost2010Prop35
280
     0
102
RTVSPost2010PropOp35
 70
     1
102
RTVSPost2010Prop36
280
     0
102
RTVSPost2010PropOp36
 70
     1
102
RTVSPost2010Prop37
 90
       50
102
RTVSPost2010PropOp37
 70
     1
102
RTVSPost2010Prop38
140
0.0
102
RTVSPost2010PropOp38
 70
     1
102
RTVSPost2010Prop39
140
1.0
102
RTVSPost2010PropOp39
 70
     1
102
RTVSPost2010Prop40
 90
        0
102
RTVSPost2010PropOp40
 70
     1
102
RTVSPost2010Prop41ColorIndex
 90
       18
102
RTVSPost2010Prop41ColorRGB
 90
        0
102
RTVSPost2010PropOp41
 70
     1
102
RTVSPost2010Prop42
 90
       50
102
RTVSPost2010PropOp42
 70
     1
102
RTVSPost2010Prop43
 90
        3
102
RTVSPost2010PropOp43
 70
     1
102
RTVSPost2010Prop44ColorIndex
 90
        5
102
RTVSPost2010Prop44ColorRGB
 90
      255
102
RTVSPost2010PropOp44
 70
     1
102
RTVSPost2010Prop45
280
     0
102
RTVSPost2010PropOp45
 70
     1
102
RTVSPost2010Prop46
 90
       50
102
RTVSPost2010PropOp46
 70
     1
102
RTVSPost2010Prop47
 90
       50
102
RTVSPost2010PropOp47
 70
     1
102
RTVSPost2010Prop48
 90
       50
102
RTVSPost2010PropOp48
 70
     1
102
RTVSPost2010Prop49
280
     0
102
RTVSPost2010PropOp49
 70
     1
102
RTVSPost2010Prop50
 90
       50
102
RTVSPost2010PropOp50
 70
     1
102
RTVSPost2010Prop51ColorIndex
 90
      256
102
RTVSPost2010Prop51ColorRGB
 90
-16777216
102
RTVSPost2010PropOp51
 70
     0
102
RTVSPost2010Prop52
140
1.0
102
RTVSPost2010PropOp52
 70
     0
102
RTVSPost2010Prop53
 90
        2
102
RTVSPost2010PropOp53
 70
     1
102
RTVSPost2010Prop54
  1
strokes_ogs.tif
102
RTVSPost2010PropOp54
 70
     1
102
RTVSPost2010Prop55
280
     0
102
RTVSPost2010PropOp55
 70
     1
102
RTVSPost2010Prop56
140
1.0
102
RTVSPost2010PropOp56
 70
     1
102
RTVSPost2010Prop57
140
1.0
102
RTVSPost2010PropOp57
 70
     1
102
RTVSPropertyOp0
 70
     1
102
RTVSPropertyOp1
 70
     1
102
RTVSPropertyOp2
 70
     1
102
RTVSPropertyOp3
 70
     1
102
RTVSPropertyOp4
 70
     1
102
RTVSPropertyOp5
 70
     1
102
RTVSPropertyOp6
 70
     1
102
RTVSPropertyOp7
 70
     1
102
RTVSPropertyOp8
 70
     1
102
RTVSPropertyOp9
 70
     1
102
RTVSPropertyOp10
 70
     1
102
RTVSPropertyOp11
 70
     1
102
RTVSPropertyOp12
 70
     1
102
RTVSPropertyOp13
 70
     1
102
RTVSPropertyOp14
 70
     1
102
RTVSPropertyOp15
 70
     1
102
RTVSPropertyOp16
 70
     1
102
RTVSPropertyOp17
 70
     1
102
RTVSPropertyOp18
 70
     1
102
RTVSPropertyOp19
 70
     1
102
RTVSPropertyOp20
 70
     1
102
RTVSPropertyOp21
 70
     1
102
RTVSPropertyOp22
 70
     1
102
RTVSPropertyOp23
 70
     1
102
RTVSPropertyOp24
 70
     1
102
RTVSPropertyOp25
 70
     1
102
RTVSPropertyOp26
 70
     1
102
RTVSPropertyOp27
 70
     1
102
RTVSPropertyOp28
 70
     1
102
RTVSPropertyOp29
 70
     1
102
RTVSPropertyOp30
 70
     1
102
RTVSPropertyOp31
 70
     1
102
RTVSPropertyOp32
 70
     1
102
RTVSPropertyOp33
 70
     1
102
RTVSPropertyOp34
 70
     1
102
RTVSPropertyOp35
 70
     1
102
RTVSPropertyOp36
 70
     1
102
RTVSPropertyOp37
 70
     1
102
RTVSPropertyOp38
 70
     1
102
RTVSPropertyOp39
 70
     1
102
RTVSPropertyOp40
 70
     1
102
RTVSPropertyOp41
 70
     1
102
RTVSPropertyOp42
 70
     1
102
RTVSPropertyOp43
 70
     1
102
RTVSPropertyOp44
 70
     1
102
RTVSPropertyOp45
 70
     1
102
RTVSPropertyOp46
 70
     1
102
RTVSPropertyOp47
 70
     1
102
RTVSPropertyOp48
 70
     1
102
RTVSPropertyOp49
 70
     1
102
RTVSPropertyOp50
 70
     1
102
RTVSPropertyOp51
 70
     0
102
RTVSPropertyOp52
 70
     0
102
RTVSPropertyOp53
 70
     1
102
RTVSPropertyOp54
 70
     1
102
RTVSPropertyOp55
 70
     1
102
RTVSPropertyOp56
 70
     1
102
RTVSPropertyOp57
 70
     1
102
RTVSPropertyOp58
 70
     1
102
RTVSPropertyOp59
 70
     1
102
RTVSPropertyOp60
 70
     1
102
RTVSPropertyOp61
 70
     1
102
RTVSPropertyOp62
 70
     1
  0
ENDSEC
  0
EOF
