  0
SECTION
  2
HEADER
  9
$ACADVER
  1
AC1015
  9
$ACADMAINTVER
 70
    20
  9
$DWGCODEPAGE
  3
ANSI_932
  9
$INSBASE
 10
0.0
 20
0.0
 30
0.0
  9
$EXTMIN
 10
10.0
 20
9.999999999999998
 30
0.0
  9
$EXTMAX
 10
590.2311479999998
 20
435.3751099999998
 30
0.0
  9
$LIMMIN
 10
0.0
 20
0.0
  9
$LIMMAX
 10
792.0
 20
546.0
  9
$ORTHOMODE
 70
     0
  9
$REGENMODE
 70
     1
  9
$FILLMODE
 70
     1
  9
$QTEXTMODE
 70
     0
  9
$MIRRTEXT
 70
     1
  9
$LTSCALE
 40
20.0
  9
$ATTMODE
 70
     1
  9
$TEXTSIZE
 40
5.0
  9
$TRACEWID
 40
1.0
  9
$TEXTSTYLE
  7
STANDARD
  9
$CLAYER
  8
0
  9
$CELTYPE
  6
BYLAYER
  9
$CECOLOR
 62
   256
  9
$CELTSCALE
 40
1.0
  9
$DISPSILH
 70
     0
  9
$DIMSCALE
 40
1.0
  9
$DIMASZ
 40
3.0
  9
$DIMEXO
 40
1.0
  9
$DIMDLI
 40
10.0
  9
$DIMRND
 40
0.0
  9
$DIMDLE
 40
0.0
  9
$DIMEXE
 40
1.0
  9
$DIMTP
 40
0.0
  9
$DIMTM
 40
0.0
  9
$DIMTXT
 40
3.2
  9
$DIMCEN
 40
0.0
  9
$DIMTSZ
 40
0.0
  9
$DIMTOL
 70
     0
  9
$DIMLIM
 70
     0
  9
$DIMTIH
 70
     0
  9
$DIMTOH
 70
     0
  9
$DIMSE1
 70
     0
  9
$DIMSE2
 70
     0
  9
$DIMTAD
 70
     3
  9
$DIMZIN
 70
     8
  9
$DIMBLK
  1

  9
$DIMASO
 70
     1
  9
$DIMSHO
 70
     1
  9
$DIMPOST
  1

  9
$DIMAPOST
  1

  9
$DIMALT
 70
     0
  9
$DIMALTD
 70
     2
  9
$DIMALTF
 40
25.4
  9
$DIMLFAC
 40
1.0
  9
$DIMTOFL
 70
     1
  9
$DIMTVP
 40
0.0
  9
$DIMTIX
 70
     0
  9
$DIMSOXD
 70
     0
  9
$DIMSAH
 70
     1
  9
$DIMBLK1
  1
OPEN
  9
$DIMBLK2
  1
OPEN
  9
$DIMSTYLE
  2
STANDARD
  9
$DIMCLRD
 70
     0
  9
$DIMCLRE
 70
     0
  9
$DIMCLRT
 70
     0
  9
$DIMTFAC
 40
1.0
  9
$DIMGAP
 40
1.0
  9
$DIMJUST
 70
     0
  9
$DIMSD1
 70
     0
  9
$DIMSD2
 70
     0
  9
$DIMTOLJ
 70
     1
  9
$DIMTZIN
 70
     0
  9
$DIMALTZ
 70
     0
  9
$DIMALTTZ
 70
     0
  9
$DIMUPT
 70
     0
  9
$DIMDEC
 70
     4
  9
$DIMTDEC
 70
     4
  9
$DIMALTU
 70
     2
  9
$DIMALTTD
 70
     2
  9
$DIMTXSTY
  7
STANDARD
  9
$DIMAUNIT
 70
     0
  9
$DIMADEC
 70
     0
  9
$DIMALTRND
 40
0.0
  9
$DIMAZIN
 70
     0
  9
$DIMDSEP
 70
    46
  9
$DIMATFIT
 70
     3
  9
$DIMFRAC
 70
     0
  9
$DIMLDRBLK
  1
OPEN
  9
$DIMLUNIT
 70
     2
  9
$DIMLWD
 70
    -2
  9
$DIMLWE
 70
    -2
  9
$DIMTMOVE
 70
     0
  9
$LUNITS
 70
     2
  9
$LUPREC
 70
     4
  9
$SKETCHINC
 40
1.0
  9
$FILLETRAD
 40
8.0
  9
$AUNITS
 70
     0
  9
$AUPREC
 70
     2
  9
$MENU
  1
.
  9
$ELEVATION
 40
0.0
  9
$PELEVATION
 40
0.0
  9
$THICKNESS
 40
0.0
  9
$LIMCHECK
 70
     0
  9
$CHAMFERA
 40
10.0
  9
$CHAMFERB
 40
10.0
  9
$CHAMFERC
 40
0.0
  9
$CHAMFERD
 40
0.0
  9
$SKPOLY
 70
     0
  9
$TDCREATE
 40
2451301.489903588
  9
$TDUCREATE
 40
2451301.114903588
  9
$TDUPDATE
 40
2457192.687409769
  9
$TDUUPDATE
 40
2457192.312409769
  9
$TDINDWG
 40
0.0000109954
  9
$TDUSRTIMER
 40
0.0000103241
  9
$USRTIMER
 70
     1
  9
$ANGBASE
 50
0.0
  9
$ANGDIR
 70
     0
  9
$PDMODE
 70
     0
  9
$PDSIZE
 40
0.0
  9
$PLINEWID
 40
0.0
  9
$SPLFRAME
 70
     0
  9
$SPLINETYPE
 70
     6
  9
$SPLINESEGS
 70
     8
  9
$HANDSEED
  5
A647
  9
$SURFTAB1
 70
     6
  9
$SURFTAB2
 70
     6
  9
$SURFTYPE
 70
     6
  9
$SURFU
 70
     6
  9
$SURFV
 70
     6
  9
$UCSBASE
  2

  9
$UCSNAME
  2

  9
$UCSORG
 10
0.0
 20
0.0
 30
0.0
  9
$UCSXDIR
 10
1.0
 20
0.0
 30
0.0
  9
$UCSYDIR
 10
0.0
 20
1.0
 30
0.0
  9
$UCSORTHOREF
  2

  9
$UCSORTHOVIEW
 70
     0
  9
$UCSORGTOP
 10
0.0
 20
0.0
 30
0.0
  9
$UCSORGBOTTOM
 10
0.0
 20
0.0
 30
0.0
  9
$UCSORGLEFT
 10
0.0
 20
0.0
 30
0.0
  9
$UCSORGRIGHT
 10
0.0
 20
0.0
 30
0.0
  9
$UCSORGFRONT
 10
0.0
 20
0.0
 30
0.0
  9
$UCSORGBACK
 10
0.0
 20
0.0
 30
0.0
  9
$PUCSBASE
  2

  9
$PUCSNAME
  2

  9
$PUCSORG
 10
0.0
 20
0.0
 30
0.0
  9
$PUCSXDIR
 10
1.0
 20
0.0
 30
0.0
  9
$PUCSYDIR
 10
0.0
 20
1.0
 30
0.0
  9
$PUCSORTHOREF
  2

  9
$PUCSORTHOVIEW
 70
     0
  9
$PUCSORGTOP
 10
0.0
 20
0.0
 30
0.0
  9
$PUCSORGBOTTOM
 10
0.0
 20
0.0
 30
0.0
  9
$PUCSORGLEFT
 10
0.0
 20
0.0
 30
0.0
  9
$PUCSORGRIGHT
 10
0.0
 20
0.0
 30
0.0
  9
$PUCSORGFRONT
 10
0.0
 20
0.0
 30
0.0
  9
$PUCSORGBACK
 10
0.0
 20
0.0
 30
0.0
  9
$USERI1
 70
     0
  9
$USERI2
 70
     0
  9
$USERI3
 70
     0
  9
$USERI4
 70
     0
  9
$USERI5
 70
     0
  9
$USERR1
 40
0.0
  9
$USERR2
 40
0.0
  9
$USERR3
 40
0.0
  9
$USERR4
 40
0.0
  9
$USERR5
 40
0.0
  9
$WORLDVIEW
 70
     1
  9
$SHADEDGE
 70
     3
  9
$SHADEDIF
 70
    70
  9
$TILEMODE
 70
     1
  9
$MAXACTVP
 70
    16
  9
$PINSBASE
 10
0.0
 20
0.0
 30
0.0
  9
$PLIMCHECK
 70
     0
  9
$PEXTMIN
 10
1.000000000000000E+20
 20
1.000000000000000E+20
 30
1.000000000000000E+20
  9
$PEXTMAX
 10
-1.000000000000000E+20
 20
-1.000000000000000E+20
 30
-1.000000000000000E+20
  9
$PLIMMIN
 10
0.0
 20
0.0
  9
$PLIMMAX
 10
420.0
 20
297.0
  9
$UNITMODE
 70
     0
  9
$VISRETAIN
 70
     0
  9
$PLINEGEN
 70
     0
  9
$PSLTSCALE
 70
     0
  9
$TREEDEPTH
 70
  3020
  9
$CMLSTYLE
  2
STANDARD
  9
$CMLJUST
 70
     0
  9
$CMLSCALE
 40
1.0
  9
$PROXYGRAPHICS
 70
     1
  9
$MEASUREMENT
 70
     0
  9
$CELWEIGHT
370
    -1
  9
$ENDCAPS
280
     0
  9
$JOINSTYLE
280
     0
  9
$LWDISPLAY
290
     0
  9
$INSUNITS
 70
     0
  9
$HYPERLINKBASE
  1

  9
$STYLESHEET
  1

  9
$XEDIT
290
     1
  9
$CEPSNTYPE
380
     0
  9
$PSTYLEMODE
290
     1
  9
$FINGERPRINTGUID
  2
{D17C6B38-FA87-4F7A-ACAA-FCFEB51A6B7C}
  9
$VERSIONGUID
  2
{7C4E0D04-5520-494F-A6AE-28B25E482287}
  9
$EXTNAMES
290
     1
  9
$PSVPSCALE
 40
0.0
  9
$OLESTARTUP
290
     0
  0
ENDSEC
  0
SECTION
  2
CLASSES
  0
CLASS
  1
ACDBDICTIONARYWDFLT
  2
AcDbDictionaryWithDefault
  3
ObjectDBX Classes
 90
        0
280
     0
281
     0
  0
CLASS
  1
ACDBPLACEHOLDER
  2
AcDbPlaceHolder
  3
ObjectDBX Classes
 90
        0
280
     0
281
     0
  0
CLASS
  1
LAYOUT
  2
AcDbLayout
  3
ObjectDBX Classes
 90
        0
280
     0
281
     0
  0
CLASS
  1
DICTIONARYVAR
  2
AcDbDictionaryVar
  3
ObjectDBX Classes
 90
        0
280
     0
281
     0
  0
CLASS
  1
MATERIAL
  2
AcDbMaterial
  3
ObjectDBX Classes
 90
     1153
280
     0
281
     0
  0
CLASS
  1
VISUALSTYLE
  2
AcDbVisualStyle
  3
ObjectDBX Classes
 90
     4095
280
     0
281
     0
  0
CLASS
  1
TABLESTYLE
  2
AcDbTableStyle
  3
ObjectDBX Classes
 90
     4095
280
     0
281
     0
  0
CLASS
  1
SCALE
  2
AcDbScale
  3
ObjectDBX Classes
 90
     1153
280
     0
281
     0
  0
CLASS
  1
MLEADERSTYLE
  2
AcDbMLeaderStyle
  3
ACDB_MLEADERSTYLE_CLASS
 90
     4095
280
     0
281
     0
  0
CLASS
  1
ACDBSECTIONVIEWSTYLE
  2
AcDbSectionViewStyle
  3
ObjectDBX Classes
 90
     1025
280
     0
281
     0
  0
CLASS
  1
ACDBDETAILVIEWSTYLE
  2
AcDbDetailViewStyle
  3
ObjectDBX Classes
 90
     1025
280
     0
281
     0
  0
CLASS
  1
CELLSTYLEMAP
  2
AcDbCellStyleMap
  3
ObjectDBX Classes
 90
     1152
280
     0
281
     0
  0
ENDSEC
  0
SECTION
  2
TABLES
  0
TABLE
  2
VPORT
  5
A2D0
330
0
100
AcDbSymbolTable
 70
     1
  0
VPORT
  5
A590
330
A2D0
100
AcDbSymbolTableRecord
100
AcDbViewportTableRecord
  2
*ACTIVE
 70
     0
 10
0.0
 20
0.0
 11
1.0
 21
1.0
 12
428.9506449082566
 22
222.6789562907988
 13
0.0
 23
0.0
 14
10.0
 24
10.0
 15
10.0
 25
10.0
 16
0.0
 26
0.0
 36
1.0
 17
0.0
 27
0.0
 37
0.0
 40
430.0966276150827
 41
2.35006605019815
 42
50.0
 43
0.0
 44
0.0
 50
0.0
 51
0.0
 71
     0
 72
   100
 73
     1
 74
     0
 75
     0
 76
     0
 77
     0
 78
     0
281
     0
 65
     1
110
0.0
120
0.0
130
0.0
111
1.0
121
0.0
131
0.0
112
0.0
122
1.0
132
0.0
 79
     0
146
0.0
1001
ACAD_NAV_VCDISPLAY
1070
     3
  0
ENDTAB
  0
TABLE
  2
LTYPE
  5
A2CD
330
0
100
AcDbSymbolTable
 70
     4
  0
LTYPE
  5
A2DB
330
A2CD
100
AcDbSymbolTableRecord
100
AcDbLinetypeTableRecord
  2
BYBLOCK
 70
     0
  3

 72
    65
 73
     0
 40
0.0
  0
LTYPE
  5
A2DC
330
A2CD
100
AcDbSymbolTableRecord
100
AcDbLinetypeTableRecord
  2
BYLAYER
 70
     0
  3

 72
    65
 73
     0
 40
0.0
  0
LTYPE
  5
A2DD
330
A2CD
100
AcDbSymbolTableRecord
100
AcDbLinetypeTableRecord
  2
CONTINUOUS
 70
     0
  3
Solid line
 72
    65
 73
     0
 40
0.0
  0
LTYPE
  5
A2EB
330
A2CD
100
AcDbSymbolTableRecord
100
AcDbLinetypeTableRecord
  2
DASHED
 70
     0
  3
__ __ __ __ __ __ __ __ __ __ __ __ __ __ __ __
 72
    65
 73
     2
 40
0.75
 49
0.5
 74
     0
 49
-0.25
 74
     0
  0
LTYPE
  5
A2EC
330
A2CD
100
AcDbSymbolTableRecord
100
AcDbLinetypeTableRecord
  2
CENTER
 70
     0
  3
____ _ ____ _ ____ _ ____ _ ____ _ ____ _ ____ 
 72
    65
 73
     4
 40
2.0
 49
1.25
 74
     0
 49
-0.25
 74
     0
 49
0.25
 74
     0
 49
-0.25
 74
     0
  0
LTYPE
  5
A2ED
330
A2CD
100
AcDbSymbolTableRecord
100
AcDbLinetypeTableRecord
  2
PHANTOM
 70
     0
  3
______  __  __  ______  __  __  ______  __  __ 
 72
    65
 73
     6
 40
2.5
 49
1.25
 74
     0
 49
-0.25
 74
     0
 49
0.25
 74
     0
 49
-0.25
 74
     0
 49
0.25
 74
     0
 49
-0.25
 74
     0
  0
ENDTAB
  0
TABLE
  2
LAYER
  5
A2CA
330
0
100
AcDbSymbolTable
 70
     8
  0
LAYER
  5
A2D8
102
{ACAD_XDICTIONARY
360
A5EB
102
}
330
A2CA
100
AcDbSymbolTableRecord
100
AcDbLayerTableRecord
  2
0
 70
     0
 62
     7
  6
CONTINUOUS
370
    -3
390
A599
  0
LAYER
  5
A2EE
102
{ACAD_XDICTIONARY
360
A5ED
102
}
330
A2CA
100
AcDbSymbolTableRecord
100
AcDbLayerTableRecord
  2
4
 70
     0
 62
     1
  6
CENTER
370
    -3
390
A599
  0
LAYER
  5
A2EF
102
{ACAD_XDICTIONARY
360
A5EF
102
}
330
A2CA
100
AcDbSymbolTableRecord
100
AcDbLayerTableRecord
  2
5
 70
     0
 62
     6
  6
PHANTOM
370
    -3
390
A599
  0
LAYER
  5
A2F0
102
{ACAD_XDICTIONARY
360
A5F1
102
}
330
A2CA
100
AcDbSymbolTableRecord
100
AcDbLayerTableRecord
  2
1
 70
     0
 62
     7
  6
CONTINUOUS
370
    -3
390
A599
  0
LAYER
  5
A2F1
102
{ACAD_XDICTIONARY
360
A5F3
102
}
330
A2CA
100
AcDbSymbolTableRecord
100
AcDbLayerTableRecord
  2
2
 70
     0
 62
     4
  6
CONTINUOUS
370
    -3
390
A599
  0
LAYER
  5
A2F2
102
{ACAD_XDICTIONARY
360
A5F5
102
}
330
A2CA
100
AcDbSymbolTableRecord
100
AcDbLayerTableRecord
  2
3
 70
     0
 62
     2
  6
DASHED
370
    -3
390
A599
  0
LAYER
  5
A2F3
102
{ACAD_XDICTIONARY
360
A5F7
102
}
330
A2CA
100
AcDbSymbolTableRecord
100
AcDbLayerTableRecord
  2
6
 70
     0
 62
     5
  6
CONTINUOUS
370
    -3
390
A599
  0
LAYER
  5
A2F4
102
{ACAD_XDICTIONARY
360
A5F9
102
}
330
A2CA
100
AcDbSymbolTableRecord
100
AcDbLayerTableRecord
  2
7
 70
     0
 62
     3
  6
CONTINUOUS
370
    -3
390
A599
  0
ENDTAB
  0
TABLE
  2
STYLE
  5
A2CB
330
0
100
AcDbSymbolTable
 70
     1
  0
STYLE
  5
A2D9
330
A2CB
100
AcDbSymbolTableRecord
100
AcDbTextStyleTableRecord
  2
STANDARD
 70
     0
 40
0.0
 41
1.0
 50
0.0
 71
     0
 42
5.0
  3
txt
  4

  0
ENDTAB
  0
TABLE
  2
VIEW
  5
A2CE
330
0
100
AcDbSymbolTable
 70
     0
  0
ENDTAB
  0
TABLE
  2
UCS
  5
A2CF
330
0
100
AcDbSymbolTable
 70
     0
  0
ENDTAB
  0
TABLE
  2
APPID
  5
A2D1
330
0
100
AcDbSymbolTable
 70
     3
  0
APPID
  5
A2DA
330
A2D1
100
AcDbSymbolTableRecord
100
AcDbRegAppTableRecord
  2
ACAD
 70
     0
  0
APPID
  5
A605
330
A2D1
100
AcDbSymbolTableRecord
100
AcDbRegAppTableRecord
  2
ACAD_NAV_VCDISPLAY
 70
     0
  0
APPID
  5
A63E
330
A2D1
100
AcDbSymbolTableRecord
100
AcDbRegAppTableRecord
  2
ACAD_MLEADERVER
 70
     0
  0
ENDTAB
  0
TABLE
  2
DIMSTYLE
  5
A2D2
330
0
100
AcDbSymbolTable
 70
     1
100
AcDbDimStyleTable
 71
     0
  0
DIMSTYLE
105
A2F6
330
A2D2
100
AcDbSymbolTableRecord
100
AcDbDimStyleTableRecord
  2
STANDARD
 70
     0
 41
3.0
 42
1.0
 43
10.0
 44
1.0
 73
     0
 74
     0
 77
     3
 78
     8
140
3.2
141
0.0
147
1.0
172
     1
173
     1
284
     8
285
     8
286
     8
340
A2D9
  0
ENDTAB
  0
TABLE
  2
BLOCK_RECORD
  5
A2C9
330
0
100
AcDbSymbolTable
 70
     1
  0
BLOCK_RECORD
  5
A2E6
102
{ACAD_XDICTIONARY
360
A593
102
}
330
A2C9
100
AcDbSymbolTableRecord
100
AcDbBlockTableRecord
  2
*MODEL_SPACE
340
A5E7
  0
BLOCK_RECORD
  5
A2E2
102
{ACAD_XDICTIONARY
360
A591
102
}
330
A2C9
100
AcDbSymbolTableRecord
100
AcDbBlockTableRecord
  2
*PAPER_SPACE
340
A5E8
  0
BLOCK_RECORD
  5
A2FE
330
A2C9
100
AcDbSymbolTableRecord
100
AcDbBlockTableRecord
  2
_OPEN
340
0
  0
ENDTAB
  0
ENDSEC
  0
SECTION
  2
BLOCKS
  0
BLOCK
  5
A2E7
330
A2E6
100
AcDbEntity
  8
0
100
AcDbBlockBegin
  2
*MODEL_SPACE
 70
     0
 10
0.0
 20
0.0
 30
0.0
  3
*MODEL_SPACE
  1

  0
ENDBLK
  5
A2E8
330
A2E6
100
AcDbEntity
  8
0
100
AcDbBlockEnd
  0
BLOCK
  5
A2E3
330
A2E2
100
AcDbEntity
 67
     1
  8
0
100
AcDbBlockBegin
  2
*PAPER_SPACE
 70
     0
 10
0.0
 20
0.0
 30
0.0
  3
*PAPER_SPACE
  1

  0
ENDBLK
  5
A2E4
330
A2E2
100
AcDbEntity
 67
     1
  8
0
100
AcDbBlockEnd
  0
BLOCK
  5
A2FF
330
A2FE
100
AcDbEntity
  8
0
100
AcDbBlockBegin
  2
_OPEN
 70
     0
 10
0.0
 20
0.0
 30
0.0
  3
_OPEN
  1

  0
LINE
  5
A300
330
A2FE
100
AcDbEntity
  8
0
  6
ByBlock
 62
     0
100
AcDbLine
 10
-1.0
 20
0.166667
 30
0.0
 11
0.0
 21
0.0
 31
0.0
  0
LINE
  5
A301
330
A2FE
100
AcDbEntity
  8
0
  6
ByBlock
 62
     0
100
AcDbLine
 10
0.0
 20
0.0
 30
0.0
 11
-1.0
 21
-0.166667
 31
0.0
  0
LINE
  5
A302
330
A2FE
100
AcDbEntity
  8
0
  6
ByBlock
 62
     0
100
AcDbLine
 10
0.0
 20
0.0
 30
0.0
 11
-1.0
 21
0.0
 31
0.0
  0
ENDBLK
  5
A303
330
A2FE
100
AcDbEntity
  8
0
100
AcDbBlockEnd
  0
ENDSEC
  0
SECTION
  2
ENTITIES
  0
TEXT
  5
A304
330
A2E6
100
AcDbEntity
  8
7
  6
Continuous
100
AcDbText
 10
10.0
 20
18.0
 30
0.0
 40
3.0
  1
TYPE No.108
100
AcDbText
  0
TEXT
  5
A305
330
A2E6
100
AcDbEntity
  8
7
  6
Continuous
100
AcDbText
 10
10.0
 20
26.0
 30
0.0
 40
3.0
  1
CODE No.9008
100
AcDbText
  0
TEXT
  5
A306
330
A2E6
100
AcDbEntity
  8
1
  6
Continuous
100
AcDbText
 10
10.0
 20
10.0
 30
0.0
 40
1.399999999999999
  1
LAYER
100
AcDbText
  0
TEXT
  5
A307
330
A2E6
100
AcDbEntity
  8
1
  6
Continuous
100
AcDbText
 10
17.97951099999998
 20
10.04873699999998
 30
0.0
 40
1.399999999999999
  1
1
100
AcDbText
  0
TEXT
  5
A308
330
A2E6
100
AcDbEntity
  8
7
  6
Continuous
100
AcDbText
 10
29.97951099999999
 20
10.04873699999998
 30
0.0
 40
1.399999999999999
  1
7
100
AcDbText
  0
TEXT
  5
A309
330
A2E6
100
AcDbEntity
  8
4
  6
CENTER
100
AcDbText
 10
23.97951099999999
 20
10.04873699999998
 30
0.0
 40
1.399999999999999
  1
4
100
AcDbText
  0
TEXT
  5
A30A
330
A2E6
100
AcDbEntity
  8
3
  6
DASHED
100
AcDbText
 10
21.979511
 20
10.04873699999998
 30
0.0
 40
1.399999999999999
  1
3
100
AcDbText
  0
TEXT
  5
A30B
330
A2E6
100
AcDbEntity
  8
2
  6
Continuous
100
AcDbText
 10
19.97951099999999
 20
10.04873699999998
 30
0.0
 40
1.399999999999999
  1
2
100
AcDbText
  0
TEXT
  5
A30C
330
A2E6
100
AcDbEntity
  8
6
  6
Continuous
100
AcDbText
 10
27.979511
 20
10.04873699999998
 30
0.0
 40
1.399999999999999
  1
6
100
AcDbText
  0
TEXT
  5
A30D
330
A2E6
100
AcDbEntity
  8
5
  6
PHANTOM
100
AcDbText
 10
25.97951099999999
 20
10.04873699999998
 30
0.0
 40
1.399999999999999
  1
5
100
AcDbText
  0
LINE
  5
A30E
330
A2E6
100
AcDbEntity
  8
4
  6
CENTER
100
AcDbLine
 10
330.0098619999999
 20
229.998735
 30
0.0
 11
390.6262299999998
 21
229.998735
 31
0.0
  0
LINE
  5
A30F
330
A2E6
100
AcDbEntity
  8
1
  6
Continuous
100
AcDbLine
 10
336.6976399999999
 20
304.8337389999999
 30
0.0
 11
390.0698399999998
 21
304.8337389999999
 31
0.0
  0
LINE
  5
A310
330
A2E6
100
AcDbEntity
  8
1
  6
Continuous
100
AcDbLine
 10
336.6976399999999
 20
306.940739
 30
0.0
 11
390.0698399999998
 21
306.940739
 31
0.0
  0
LINE
  5
A311
330
A2E6
100
AcDbEntity
  8
1
  6
Continuous
100
AcDbLine
 10
325.733735
 20
312.24912
 30
0.0
 11
400.733735
 21
312.24912
 31
0.0
  0
LINE
  5
A312
330
A2E6
100
AcDbEntity
  8
1
  6
Continuous
100
AcDbLine
 10
325.733735
 20
315.148735
 30
0.0
 11
400.733735
 21
315.148735
 31
0.0
  0
LINE
  5
A313
330
A2E6
100
AcDbEntity
  8
1
  6
Continuous
100
AcDbLine
 10
333.961165
 20
308.7757349999999
 30
0.0
 11
392.5063039999998
 21
308.7757349999999
 31
0.0
  0
LINE
  5
A314
330
A2E6
100
AcDbEntity
  8
4
  6
CENTER
100
AcDbLine
 10
282.2363389999998
 20
230.148739
 30
0.0
 11
136.2363389999998
 21
230.148739
 31
0.0
  0
LINE
  5
A315
330
A2E6
100
AcDbEntity
  8
4
  6
CENTER
100
AcDbLine
 10
299.7363389999998
 20
392.8751099999999
 30
0.0
 11
139.2363389999998
 21
392.8751099999999
 31
0.0
  0
LINE
  5
A316
330
A2E6
100
AcDbEntity
  8
4
  6
CENTER
100
AcDbLine
 10
245.2363389999999
 20
350.37511
 30
0.0
 11
245.2363389999999
 21
435.3751099999998
 31
0.0
  0
CIRCLE
  5
A317
330
A2E6
100
AcDbEntity
  8
1
  6
Continuous
100
AcDbCircle
 10
245.2363389999999
 20
392.8751099999999
 30
0.0
 40
31.0
  0
LINE
  5
A318
330
A2E6
100
AcDbEntity
  8
1
  6
Continuous
100
AcDbLine
 10
195.7363389999999
 20
362.87511
 30
0.0
 11
195.7363389999999
 21
422.8751099999998
 31
0.0
  0
LINE
  5
A319
330
A2E6
100
AcDbEntity
  8
1
  6
Continuous
100
AcDbLine
 10
294.7363389999998
 20
362.87511
 30
0.0
 11
294.7363389999998
 21
422.8751099999998
 31
0.0
  0
CIRCLE
  5
A31A
330
A2E6
100
AcDbEntity
  8
1
  6
Continuous
100
AcDbCircle
 10
245.2363389999999
 20
392.8751099999999
 30
0.0
 40
13.34999999999999
  0
LINE
  5
A31B
330
A2E6
100
AcDbEntity
  8
1
  6
Continuous
100
AcDbLine
 10
287.2363389999998
 20
355.3751099999999
 30
0.0
 11
203.2363389999999
 21
355.3751099999999
 31
0.0
  0
LINE
  5
A31C
330
A2E6
100
AcDbEntity
  8
4
  6
CENTER
100
AcDbLine
 10
205.236339
 20
357.62511
 30
0.0
 11
205.236339
 21
372.1251099999999
 31
0.0
  0
ARC
  5
A31D
330
A2E6
100
AcDbEntity
  8
1
  6
Continuous
100
AcDbCircle
 10
203.2363389999999
 20
362.87511
 30
0.0
 40
7.5
100
AcDbArc
 50
180.0
 51
270.0
  0
CIRCLE
  5
A31E
330
A2E6
100
AcDbEntity
  8
1
  6
Continuous
100
AcDbCircle
 10
205.236339
 20
364.87511
 30
0.0
 40
4.25
  0
LINE
  5
A31F
330
A2E6
100
AcDbEntity
  8
4
  6
CENTER
100
AcDbLine
 10
212.4863389999999
 20
364.87511
 30
0.0
 11
197.986339
 21
364.87511
 31
0.0
  0
LINE
  5
A320
330
A2E6
100
AcDbEntity
  8
4
  6
CENTER
100
AcDbLine
 10
285.2363389999998
 20
357.62511
 30
0.0
 11
285.2363389999998
 21
372.1251099999999
 31
0.0
  0
ARC
  5
A321
330
A2E6
100
AcDbEntity
  8
1
  6
Continuous
100
AcDbCircle
 10
287.2363389999998
 20
362.87511
 30
0.0
 40
7.5
100
AcDbArc
 50
270.0
 51
0.0
  0
CIRCLE
  5
A322
330
A2E6
100
AcDbEntity
  8
1
  6
Continuous
100
AcDbCircle
 10
285.2363389999998
 20
364.87511
 30
0.0
 40
4.25
  0
ARC
  5
A323
330
A2E6
100
AcDbEntity
  8
1
  6
Continuous
100
AcDbCircle
 10
333.961165
 20
316.275735
 30
0.0
 40
7.5
100
AcDbArc
 50
212.4716319999998
 51
270.0
  0
LINE
  5
A324
330
A2E6
100
AcDbEntity
  8
1
  6
Continuous
100
AcDbLine
 10
340.526067
 20
304.8337389999999
 30
0.0
 11
338.526067
 21
306.940739
 31
0.0
  0
LINE
  5
A325
330
A2E6
100
AcDbEntity
  8
1
  6
Continuous
100
AcDbLine
 10
339.9402799999998
 20
304.8337389999999
 30
0.0
 11
341.9402799999998
 21
306.940739
 31
0.0
  0
LINE
  5
A326
330
A2E6
100
AcDbEntity
  8
1
  6
Continuous
100
AcDbLine
 10
337.6976399999999
 20
304.8337389999999
 30
0.0
 11
336.6976399999999
 21
305.8337389999999
 31
0.0
  0
LINE
  5
A327
330
A2E6
100
AcDbEntity
  8
1
  6
Continuous
100
AcDbLine
 10
337.81896
 20
304.8337389999999
 30
0.0
 11
339.81896
 21
306.940739
 31
0.0
  0
LINE
  5
A328
330
A2E6
100
AcDbEntity
  8
1
  6
Continuous
100
AcDbLine
 10
337.6976399999999
 20
306.940739
 30
0.0
 11
336.6976399999999
 21
305.8337389999999
 31
0.0
  0
ARC
  5
A329
330
A2E6
100
AcDbEntity
  8
1
  6
Continuous
100
AcDbCircle
 10
345.544594
 20
314.01511
 30
0.0
 40
9.740422999999999
100
AcDbArc
 50
212.5408119999999
 51
226.576259
  0
LINE
  5
A32A
330
A2E6
100
AcDbEntity
  8
1
  6
Continuous
100
AcDbLine
 10
336.6976399999999
 20
304.8337389999999
 30
0.0
 11
336.6976399999999
 21
306.940739
 31
0.0
  0
LINE
  5
A32B
330
A2E6
100
AcDbEntity
  8
1
  6
Continuous
100
AcDbLine
 10
343.3544939999998
 20
304.8337389999999
 30
0.0
 11
341.3544939999998
 21
306.940739
 31
0.0
  0
LINE
  5
A32C
330
A2E6
100
AcDbEntity
  8
1
  6
Continuous
100
AcDbLine
 10
342.0616009999998
 20
304.8337389999999
 30
0.0
 11
344.0616009999998
 21
306.940739
 31
0.0
  0
LINE
  5
A32D
330
A2E6
100
AcDbEntity
  8
1
  6
Continuous
100
AcDbLine
 10
325.733735
 20
315.148735
 30
0.0
 11
325.733735
 21
312.24912
 31
0.0
  0
LINE
  5
A32E
330
A2E6
100
AcDbEntity
  8
4
  6
CENTER
100
AcDbLine
 10
292.486339
 20
364.87511
 30
0.0
 11
277.986339
 21
364.87511
 31
0.0
  0
LINE
  5
A32F
330
A2E6
100
AcDbEntity
  8
1
  6
Continuous
100
AcDbLine
 10
287.2363389999998
 20
430.3751099999998
 30
0.0
 11
203.2363389999999
 21
430.3751099999998
 31
0.0
  0
ARC
  5
A330
330
A2E6
100
AcDbEntity
  8
1
  6
Continuous
100
AcDbCircle
 10
203.2363389999999
 20
422.8751099999998
 30
0.0
 40
7.5
100
AcDbArc
 50
90.0
 51
180.0
  0
LINE
  5
A331
330
A2E6
100
AcDbEntity
  8
4
  6
CENTER
100
AcDbLine
 10
212.4863389999999
 20
420.8751099999998
 30
0.0
 11
197.986339
 21
420.8751099999998
 31
0.0
  0
CIRCLE
  5
A332
330
A2E6
100
AcDbEntity
  8
1
  6
Continuous
100
AcDbCircle
 10
205.236339
 20
420.8751099999998
 30
0.0
 40
4.25
  0
LINE
  5
A333
330
A2E6
100
AcDbEntity
  8
4
  6
CENTER
100
AcDbLine
 10
205.236339
 20
413.6251099999998
 30
0.0
 11
205.236339
 21
428.1251099999998
 31
0.0
  0
LINE
  5
A334
330
A2E6
100
AcDbEntity
  8
4
  6
CENTER
100
AcDbLine
 10
292.486339
 20
420.8751099999998
 30
0.0
 11
277.986339
 21
420.8751099999998
 31
0.0
  0
ARC
  5
A335
330
A2E6
100
AcDbEntity
  8
1
  6
Continuous
100
AcDbCircle
 10
287.2363389999998
 20
422.8751099999998
 30
0.0
 40
7.5
100
AcDbArc
 50
0.0
 51
90.0
  0
CIRCLE
  5
A336
330
A2E6
100
AcDbEntity
  8
1
  6
Continuous
100
AcDbCircle
 10
285.2363389999998
 20
420.8751099999998
 30
0.0
 40
4.25
  0
LINE
  5
A337
330
A2E6
100
AcDbEntity
  8
4
  6
CENTER
100
AcDbLine
 10
285.2363389999998
 20
413.6251099999998
 30
0.0
 11
285.2363389999998
 21
428.1251099999998
 31
0.0
  0
LINE
  5
A338
330
A2E6
100
AcDbEntity
  8
4
  6
CENTER
100
AcDbLine
 10
363.233743
 20
320.1487349999998
 30
0.0
 11
363.233743
 21
157.1487389999998
 31
0.0
  0
ARC
  5
A339
330
A2E6
100
AcDbEntity
  8
1
  6
Continuous
100
AcDbCircle
 10
116.9851689999999
 20
196.291948
 30
0.0
 40
277.8421779999998
100
AcDbArc
 50
13.58600199999999
 51
19.83204999999999
  0
ARC
  5
A33A
330
A2E6
100
AcDbEntity
  8
1
  6
Continuous
100
AcDbCircle
 10
116.9496709999999
 20
196.123224
 30
0.0
 40
280.2147699999999
100
AcDbArc
 50
13.044057
 51
19.16351999999999
  0
ARC
  5
A33B
330
A2E6
100
AcDbEntity
  8
1
  6
Continuous
100
AcDbCircle
 10
358.197645
 20
252.198299
 30
0.0
 40
32.53609799999999
100
AcDbArc
 50
2.672433999999999
 51
12.72982799999999
  0
LINE
  5
A33C
330
A2E6
100
AcDbEntity
  8
1
  6
Continuous
100
AcDbLine
 10
381.5865249999998
 20
227.269807
 30
0.0
 11
381.576723
 21
217.498753
 31
0.0
  0
LINE
  5
A33D
330
A2E6
100
AcDbEntity
  8
1
  6
Continuous
100
AcDbLine
 10
377.2956189999999
 20
304.8337389999999
 30
0.0
 11
375.2956189999999
 21
306.940739
 31
0.0
  0
LINE
  5
A33E
330
A2E6
100
AcDbEntity
  8
1
  6
Continuous
100
AcDbLine
 10
376.002726
 20
304.8337389999999
 30
0.0
 11
378.002726
 21
306.940739
 31
0.0
  0
ARC
  5
A33F
330
A2E6
100
AcDbEntity
  8
1
  6
Continuous
100
AcDbCircle
 10
372.781274
 20
288.57601
 30
0.0
 40
5.908440999999998
100
AcDbArc
 50
19.557187
 51
71.279225
  0
ARC
  5
A340
330
A2E6
100
AcDbEntity
  8
1
  6
Continuous
100
AcDbCircle
 10
372.921012
 20
285.1310429999998
 30
0.0
 40
9.209889
100
AcDbArc
 50
18.85874099999998
 51
79.00453
  0
LINE
  5
A341
330
A2E6
100
AcDbEntity
  8
1
  6
Continuous
100
AcDbLine
 10
359.0321629999999
 20
304.8337389999999
 30
0.0
 11
361.0321629999999
 21
306.940739
 31
0.0
  0
ARC
  5
A342
330
A2E6
100
AcDbEntity
  8
1
  6
Continuous
100
AcDbCircle
 10
363.233743
 20
235.273323
 30
0.0
 40
60.0
100
AcDbArc
 50
79.00453
 51
100.9954699999999
  0
LINE
  5
A343
330
A2E6
100
AcDbEntity
  8
1
  6
Continuous
100
AcDbLine
 10
350.5468819999999
 20
304.8337389999999
 30
0.0
 11
352.5468819999999
 21
306.940739
 31
0.0
  0
LINE
  5
A344
330
A2E6
100
AcDbEntity
  8
1
  6
Continuous
100
AcDbLine
 10
349.011348
 20
304.8337389999999
 30
0.0
 11
347.011348
 21
306.940739
 31
0.0
  0
LINE
  5
A345
330
A2E6
100
AcDbEntity
  8
1
  6
Continuous
100
AcDbLine
 10
346.3042409999998
 20
304.8337389999999
 30
0.0
 11
348.3042409999998
 21
306.940739
 31
0.0
  0
LINE
  5
A346
330
A2E6
100
AcDbEntity
  8
1
  6
Continuous
100
AcDbLine
 10
346.182921
 20
304.8337389999999
 30
0.0
 11
344.182921
 21
306.940739
 31
0.0
  0
LINE
  5
A347
330
A2E6
100
AcDbEntity
  8
1
  6
Continuous
100
AcDbLine
 10
344.182921
 20
304.8337389999999
 30
0.0
 11
346.182921
 21
306.940739
 31
0.0
  0
LINE
  5
A348
330
A2E6
100
AcDbEntity
  8
1
  6
Continuous
100
AcDbLine
 10
351.8397749999999
 20
304.8337389999999
 30
0.0
 11
349.8397749999999
 21
306.940739
 31
0.0
  0
LINE
  5
A349
330
A2E6
100
AcDbEntity
  8
1
  6
Continuous
100
AcDbLine
 10
348.425562
 20
304.8337389999999
 30
0.0
 11
350.425562
 21
306.940739
 31
0.0
  0
LINE
  5
A34A
330
A2E6
100
AcDbEntity
  8
1
  6
Continuous
100
AcDbLine
 10
357.4966289999999
 20
304.8337389999999
 30
0.0
 11
355.4966289999999
 21
306.940739
 31
0.0
  0
LINE
  5
A34B
330
A2E6
100
AcDbEntity
  8
1
  6
Continuous
100
AcDbLine
 10
354.7895229999999
 20
304.8337389999999
 30
0.0
 11
356.7895229999999
 21
306.940739
 31
0.0
  0
LINE
  5
A34C
330
A2E6
100
AcDbEntity
  8
1
  6
Continuous
100
AcDbLine
 10
354.6682019999999
 20
304.8337389999999
 30
0.0
 11
352.6682019999999
 21
306.940739
 31
0.0
  0
LINE
  5
A34D
330
A2E6
100
AcDbEntity
  8
1
  6
Continuous
100
AcDbLine
 10
352.6682019999999
 20
304.8337389999999
 30
0.0
 11
354.6682019999999
 21
306.940739
 31
0.0
  0
LINE
  5
A34E
330
A2E6
100
AcDbEntity
  8
1
  6
Continuous
100
AcDbLine
 10
360.3250569999998
 20
304.8337389999999
 30
0.0
 11
358.3250569999998
 21
306.940739
 31
0.0
  0
LINE
  5
A34F
330
A2E6
100
AcDbEntity
  8
1
  6
Continuous
100
AcDbLine
 10
356.9108429999998
 20
304.8337389999999
 30
0.0
 11
358.910843
 21
306.940739
 31
0.0
  0
LINE
  5
A350
330
A2E6
100
AcDbEntity
  8
1
  6
Continuous
100
AcDbLine
 10
368.810338
 20
304.8337389999999
 30
0.0
 11
366.810338
 21
306.940739
 31
0.0
  0
LINE
  5
A351
330
A2E6
100
AcDbEntity
  8
1
  6
Continuous
100
AcDbLine
 10
367.517445
 20
304.8337389999999
 30
0.0
 11
369.517445
 21
306.940739
 31
0.0
  0
LINE
  5
A352
330
A2E6
100
AcDbEntity
  8
1
  6
Continuous
100
AcDbLine
 10
365.9819109999999
 20
304.8337389999999
 30
0.0
 11
363.9819109999999
 21
306.940739
 31
0.0
  0
LINE
  5
A353
330
A2E6
100
AcDbEntity
  8
1
  6
Continuous
100
AcDbLine
 10
363.274804
 20
304.8337389999999
 30
0.0
 11
365.274804
 21
306.940739
 31
0.0
  0
LINE
  5
A354
330
A2E6
100
AcDbEntity
  8
1
  6
Continuous
100
AcDbLine
 10
363.153484
 20
304.8337389999999
 30
0.0
 11
361.153484
 21
306.940739
 31
0.0
  0
LINE
  5
A355
330
A2E6
100
AcDbEntity
  8
1
  6
Continuous
100
AcDbLine
 10
361.153484
 20
304.8337389999999
 30
0.0
 11
363.153484
 21
306.940739
 31
0.0
  0
LINE
  5
A356
330
A2E6
100
AcDbEntity
  8
1
  6
Continuous
100
AcDbLine
 10
365.396124
 20
304.8337389999999
 30
0.0
 11
367.3961240000001
 21
306.940739
 31
0.0
  0
LINE
  5
A357
330
A2E6
100
AcDbEntity
  8
1
  6
Continuous
100
AcDbLine
 10
374.467192
 20
304.8337389999999
 30
0.0
 11
372.467192
 21
306.940739
 31
0.0
  0
LINE
  5
A358
330
A2E6
100
AcDbEntity
  8
1
  6
Continuous
100
AcDbLine
 10
371.760085
 20
304.8337389999999
 30
0.0
 11
373.760085
 21
306.940739
 31
0.0
  0
LINE
  5
A359
330
A2E6
100
AcDbEntity
  8
1
  6
Continuous
100
AcDbLine
 10
371.6387649999999
 20
304.8337389999999
 30
0.0
 11
369.6387649999999
 21
306.940739
 31
0.0
  0
LINE
  5
A35A
330
A2E6
100
AcDbEntity
  8
1
  6
Continuous
100
AcDbLine
 10
369.6387649999999
 20
304.8337389999999
 30
0.0
 11
371.6387649999999
 21
306.940739
 31
0.0
  0
LINE
  5
A35B
330
A2E6
100
AcDbEntity
  8
1
  6
Continuous
100
AcDbLine
 10
373.881406
 20
304.8337389999999
 30
0.0
 11
375.881406
 21
306.940739
 31
0.0
  0
ARC
  5
A35C
330
A2E6
100
AcDbEntity
  8
1
  6
Continuous
100
AcDbCircle
 10
392.5063039999998
 20
316.275735
 30
0.0
 40
7.5
100
AcDbArc
 50
270.0
 51
327.528368
  0
LINE
  5
A35D
330
A2E6
100
AcDbEntity
  8
1
  6
Continuous
100
AcDbLine
 10
385.780901
 20
304.8337389999999
 30
0.0
 11
383.7809009999999
 21
306.940739
 31
0.0
  0
LINE
  5
A35E
330
A2E6
100
AcDbEntity
  8
1
  6
Continuous
100
AcDbLine
 10
384.4880069999999
 20
304.8337389999999
 30
0.0
 11
386.4880069999999
 21
306.940739
 31
0.0
  0
LINE
  5
A35F
330
A2E6
100
AcDbEntity
  8
1
  6
Continuous
100
AcDbLine
 10
382.952474
 20
304.8337389999999
 30
0.0
 11
380.952474
 21
306.940739
 31
0.0
  0
LINE
  5
A360
330
A2E6
100
AcDbEntity
  8
1
  6
Continuous
100
AcDbLine
 10
380.2453669999999
 20
304.8337389999999
 30
0.0
 11
382.2453669999999
 21
306.940739
 31
0.0
  0
LINE
  5
A361
330
A2E6
100
AcDbEntity
  8
1
  6
Continuous
100
AcDbLine
 10
380.124046
 20
304.8337389999999
 30
0.0
 11
378.124046
 21
306.940739
 31
0.0
  0
LINE
  5
A362
330
A2E6
100
AcDbEntity
  8
1
  6
Continuous
100
AcDbLine
 10
378.124046
 20
304.8337389999999
 30
0.0
 11
380.124046
 21
306.940739
 31
0.0
  0
LINE
  5
A363
330
A2E6
100
AcDbEntity
  8
1
  6
Continuous
100
AcDbLine
 10
382.366687
 20
304.8337389999999
 30
0.0
 11
384.366687
 21
306.940739
 31
0.0
  0
LINE
  5
A364
330
A2E6
100
AcDbEntity
  8
1
  6
Continuous
100
AcDbLine
 10
388.7306479999999
 20
304.8337389999999
 30
0.0
 11
390.0698399999998
 21
306.27993
 31
0.0
  0
ARC
  5
A365
330
A2E6
100
AcDbEntity
  8
1
  6
Continuous
100
AcDbCircle
 10
381.977374
 20
312.761158
 30
0.0
 40
8.316993
100
AcDbArc
 50
315.587222
 51
331.367448
  0
LINE
  5
A366
330
A2E6
100
AcDbEntity
  8
1
  6
Continuous
100
AcDbLine
 10
388.609328
 20
304.8337389999999
 30
0.0
 11
386.609328
 21
306.940739
 31
0.0
  0
LINE
  5
A367
330
A2E6
100
AcDbEntity
  8
1
  6
Continuous
100
AcDbLine
 10
386.609328
 20
304.8337389999999
 30
0.0
 11
388.609328
 21
306.940739
 31
0.0
  0
LINE
  5
A368
330
A2E6
100
AcDbEntity
  8
1
  6
Continuous
100
AcDbLine
 10
390.0698399999998
 20
306.308654
 30
0.0
 11
389.4377549999999
 21
306.940739
 31
0.0
  0
LINE
  5
A369
330
A2E6
100
AcDbEntity
  8
1
  6
Continuous
100
AcDbLine
 10
390.0698399999998
 20
306.940739
 30
0.0
 11
390.0698399999998
 21
304.8337389999999
 31
0.0
  0
LINE
  5
A36A
330
A2E6
100
AcDbEntity
  8
1
  6
Continuous
100
AcDbLine
 10
400.733735
 20
315.148735
 30
0.0
 11
400.733735
 21
312.24912
 31
0.0
  0
ARC
  5
A36B
330
A2E6
100
AcDbEntity
  8
1
  6
Continuous
100
AcDbCircle
 10
36.966356
 20
316.2757529999999
 30
0.0
 40
7.5
100
AcDbArc
 50
212.4716319999998
 51
270.0
  0
LINE
  5
A36C
330
A2E6
100
AcDbEntity
  8
1
  6
Continuous
100
AcDbLine
 10
28.73892599999999
 20
312.249138
 30
0.0
 11
103.738926
 21
312.249138
 31
0.0
  0
LINE
  5
A36D
330
A2E6
100
AcDbEntity
  8
1
  6
Continuous
100
AcDbLine
 10
28.73892599999999
 20
315.148753
 30
0.0
 11
103.738926
 21
315.148753
 31
0.0
  0
LINE
  5
A36E
330
A2E6
100
AcDbEntity
  8
4
  6
CENTER
100
AcDbLine
 10
245.2363389999999
 20
249.735135
 30
0.0
 11
245.2363389999999
 21
320.148739
 31
0.0
  0
LINE
  5
A36F
330
A2E6
100
AcDbEntity
  8
1
  6
Continuous
100
AcDbLine
 10
223.76406
 20
301.319268
 30
0.0
 11
223.76406
 21
231.314644
 31
0.0
  0
ARC
  5
A370
330
A2E6
100
AcDbEntity
  8
1
  6
Continuous
100
AcDbCircle
 10
107.3197639999999
 20
352.1749449999999
 30
0.0
 40
171.799
100
AcDbArc
 50
309.937791
 51
339.6990839999999
  0
ARC
  5
A371
330
A2E6
100
AcDbEntity
  8
1
  6
Continuous
100
AcDbCircle
 10
80.74851200000003
 20
296.636365
 30
0.0
 40
132.243177
100
AcDbArc
 50
332.685565
 51
2.590463
  0
ARC
  5
A372
330
A2E6
100
AcDbEntity
  8
1
  6
Continuous
100
AcDbCircle
 10
209.4863389999999
 20
230.148739
 30
0.0
 40
12.65
100
AcDbArc
 50
152.6855649999999
 51
309.937791
  0
LINE
  5
A373
330
A2E6
100
AcDbEntity
  8
1
  6
Continuous
100
AcDbLine
 10
253.9518769999999
 20
304.8337389999999
 30
0.0
 11
255.9518769999999
 21
306.940739
 31
0.0
  0
LINE
  5
A374
330
A2E6
100
AcDbEntity
  8
1
  6
Continuous
100
AcDbLine
 10
255.9518769999999
 20
304.8337389999999
 30
0.0
 11
253.9518769999999
 21
306.940739
 31
0.0
  0
LINE
  5
A375
330
A2E6
100
AcDbEntity
  8
1
  6
Continuous
100
AcDbLine
 10
271.9224389999999
 20
304.8337389999999
 30
0.0
 11
218.5502389999999
 21
304.8337389999999
 31
0.0
  0
LINE
  5
A376
330
A2E6
100
AcDbEntity
  8
1
  6
Continuous
100
AcDbLine
 10
271.9224389999999
 20
306.940739
 30
0.0
 11
218.5502389999999
 21
306.940739
 31
0.0
  0
LINE
  5
A377
330
A2E6
100
AcDbEntity
  8
1
  6
Continuous
100
AcDbLine
 10
294.7363389999998
 20
312.249124
 30
0.0
 11
195.7363389999999
 21
312.249124
 31
0.0
  0
LINE
  5
A378
330
A2E6
100
AcDbEntity
  8
1
  6
Continuous
100
AcDbLine
 10
274.5089089999999
 20
308.775739
 30
0.0
 11
215.96377
 21
308.775739
 31
0.0
  0
LINE
  5
A379
330
A2E6
100
AcDbEntity
  8
1
  6
Continuous
100
AcDbLine
 10
294.7363389999998
 20
312.249124
 30
0.0
 11
294.7363389999998
 21
315.1487389999999
 31
0.0
  0
ARC
  5
A37A
330
A2E6
100
AcDbEntity
  8
1
  6
Continuous
100
AcDbCircle
 10
274.5089089999999
 20
316.2757389999999
 30
0.0
 40
7.5
100
AcDbArc
 50
270.0
 51
327.528368
  0
ARC
  5
A37B
330
A2E6
100
AcDbEntity
  8
1
  6
Continuous
100
AcDbCircle
 10
266.252922
 20
300.673624
 30
0.0
 40
6.768752
100
AcDbArc
 50
16.69546099999999
 51
28.62323099999998
  0
LINE
  5
A37C
330
A2E6
100
AcDbEntity
  8
1
  6
Continuous
100
AcDbLine
 10
262.437158
 20
304.8337389999999
 30
0.0
 11
264.437158
 21
306.940739
 31
0.0
  0
LINE
  5
A37D
330
A2E6
100
AcDbEntity
  8
1
  6
Continuous
100
AcDbLine
 10
264.437158
 20
304.8337389999999
 30
0.0
 11
262.437158
 21
306.940739
 31
0.0
  0
LINE
  5
A37E
330
A2E6
100
AcDbEntity
  8
1
  6
Continuous
100
AcDbLine
 10
268.094012
 20
304.8337389999999
 30
0.0
 11
270.094012
 21
306.940739
 31
0.0
  0
LINE
  5
A37F
330
A2E6
100
AcDbEntity
  8
1
  6
Continuous
100
AcDbLine
 10
268.679799
 20
304.8337389999999
 30
0.0
 11
266.679799
 21
306.940739
 31
0.0
  0
LINE
  5
A380
330
A2E6
100
AcDbEntity
  8
1
  6
Continuous
100
AcDbLine
 10
270.922439
 20
304.8337389999999
 30
0.0
 11
271.9224389999999
 21
305.940739
 31
0.0
  0
LINE
  5
A381
330
A2E6
100
AcDbEntity
  8
1
  6
Continuous
100
AcDbLine
 10
270.8011189999999
 20
304.8337389999999
 30
0.0
 11
268.8011189999999
 21
306.940739
 31
0.0
  0
LINE
  5
A382
330
A2E6
100
AcDbEntity
  8
1
  6
Continuous
100
AcDbLine
 10
270.922439
 20
306.940739
 30
0.0
 11
271.9224389999999
 21
305.940739
 31
0.0
  0
ARC
  5
A383
330
A2E6
100
AcDbEntity
  8
1
  6
Continuous
100
AcDbCircle
 10
263.2926889999998
 20
313.1883199999998
 30
0.0
 40
9.0
100
AcDbArc
 50
316.0384329999998
 51
330.6405649999998
  0
LINE
  5
A384
330
A2E6
100
AcDbEntity
  8
1
  6
Continuous
100
AcDbLine
 10
271.9224389999999
 20
304.8337389999999
 30
0.0
 11
271.9224389999999
 21
306.940739
 31
0.0
  0
ARC
  5
A385
330
A2E6
100
AcDbEntity
  8
1
  6
Continuous
100
AcDbCircle
 10
269.50967
 20
302.4509739999999
 30
0.0
 40
3.058577999999998
100
AcDbArc
 50
28.62323099999998
 51
51.173052
  0
LINE
  5
A386
330
A2E6
100
AcDbEntity
  8
1
  6
Continuous
100
AcDbLine
 10
265.2655849999998
 20
304.8337389999999
 30
0.0
 11
267.2655849999998
 21
306.940739
 31
0.0
  0
LINE
  5
A387
330
A2E6
100
AcDbEntity
  8
1
  6
Continuous
100
AcDbLine
 10
266.5584779999999
 20
304.8337389999999
 30
0.0
 11
264.5584779999999
 21
306.940739
 31
0.0
  0
LINE
  5
A388
330
A2E6
100
AcDbEntity
  8
1
  6
Continuous
100
AcDbLine
 10
259.6087309999999
 20
304.8337389999999
 30
0.0
 11
261.6087309999999
 21
306.940739
 31
0.0
  0
LINE
  5
A389
330
A2E6
100
AcDbEntity
  8
1
  6
Continuous
100
AcDbLine
 10
260.194517
 20
304.8337389999999
 30
0.0
 11
258.194517
 21
306.940739
 31
0.0
  0
LINE
  5
A38A
330
A2E6
100
AcDbEntity
  8
1
  6
Continuous
100
AcDbLine
 10
262.315838
 20
304.8337389999999
 30
0.0
 11
260.3158379999999
 21
306.940739
 31
0.0
  0
LINE
  5
A38B
330
A2E6
100
AcDbEntity
  8
1
  6
Continuous
100
AcDbLine
 10
256.780304
 20
304.8337389999999
 30
0.0
 11
258.780304
 21
306.940739
 31
0.0
  0
LINE
  5
A38C
330
A2E6
100
AcDbEntity
  8
1
  6
Continuous
100
AcDbLine
 10
258.0731969999998
 20
304.8337389999999
 30
0.0
 11
256.0731969999998
 21
306.940739
 31
0.0
  0
LINE
  5
A38D
330
A2E6
100
AcDbEntity
  8
1
  6
Continuous
100
AcDbLine
 10
222.8391779999999
 20
304.8337389999999
 30
0.0
 11
224.8391779999999
 21
306.940739
 31
0.0
  0
LINE
  5
A38E
330
A2E6
100
AcDbEntity
  8
1
  6
Continuous
100
AcDbLine
 10
224.132071
 20
304.8337389999999
 30
0.0
 11
222.132071
 21
306.940739
 31
0.0
  0
LINE
  5
A38F
330
A2E6
100
AcDbEntity
  8
1
  6
Continuous
100
AcDbLine
 10
209.418711
 20
302.612789
 30
0.0
 11
223.7636549999999
 21
302.612789
 31
0.0
  0
ARC
  5
A390
330
A2E6
100
AcDbEntity
  8
1
  6
Continuous
100
AcDbCircle
 10
221.4179389999999
 20
303.040206
 30
0.0
 40
2.384338999999997
100
AcDbArc
 50
349.6733199999998
 51
48.78250799999999
  0
LINE
  5
A391
330
A2E6
100
AcDbEntity
  8
1
  6
Continuous
100
AcDbLine
 10
195.7363389999999
 20
315.1487389999999
 30
0.0
 11
294.7363389999998
 21
315.1487389999999
 31
0.0
  0
LINE
  5
A392
330
A2E6
100
AcDbEntity
  8
1
  6
Continuous
100
AcDbLine
 10
241.1026339999998
 20
304.8337389999999
 30
0.0
 11
239.1026339999999
 21
306.940739
 31
0.0
  0
LINE
  5
A393
330
A2E6
100
AcDbEntity
  8
1
  6
Continuous
100
AcDbLine
 10
249.587916
 20
304.8337389999999
 30
0.0
 11
247.587916
 21
306.940739
 31
0.0
  0
LINE
  5
A394
330
A2E6
100
AcDbEntity
  8
1
  6
Continuous
100
AcDbLine
 10
251.123449
 20
304.8337389999999
 30
0.0
 11
253.123449
 21
306.940739
 31
0.0
  0
LINE
  5
A395
330
A2E6
100
AcDbEntity
  8
1
  6
Continuous
100
AcDbLine
 10
253.8305559999999
 20
304.8337389999999
 30
0.0
 11
251.8305559999999
 21
306.940739
 31
0.0
  0
LINE
  5
A396
330
A2E6
100
AcDbEntity
  8
1
  6
Continuous
100
AcDbLine
 10
248.2950219999999
 20
304.8337389999999
 30
0.0
 11
250.2950219999999
 21
306.940739
 31
0.0
  0
LINE
  5
A397
330
A2E6
100
AcDbEntity
  8
1
  6
Continuous
100
AcDbLine
 10
251.7092359999999
 20
304.8337389999999
 30
0.0
 11
249.7092359999999
 21
306.940739
 31
0.0
  0
LINE
  5
A398
330
A2E6
100
AcDbEntity
  8
1
  6
Continuous
100
AcDbLine
 10
242.6381679999999
 20
304.8337389999999
 30
0.0
 11
244.638168
 21
306.940739
 31
0.0
  0
LINE
  5
A399
330
A2E6
100
AcDbEntity
  8
1
  6
Continuous
100
AcDbLine
 10
245.3452749999999
 20
304.8337389999999
 30
0.0
 11
243.3452749999999
 21
306.940739
 31
0.0
  0
LINE
  5
A39A
330
A2E6
100
AcDbEntity
  8
1
  6
Continuous
100
AcDbLine
 10
245.466595
 20
304.8337389999999
 30
0.0
 11
247.466595
 21
306.940739
 31
0.0
  0
LINE
  5
A39B
330
A2E6
100
AcDbEntity
  8
1
  6
Continuous
100
AcDbLine
 10
247.466595
 20
304.8337389999999
 30
0.0
 11
245.466595
 21
306.940739
 31
0.0
  0
LINE
  5
A39C
330
A2E6
100
AcDbEntity
  8
1
  6
Continuous
100
AcDbLine
 10
239.809741
 20
304.8337389999999
 30
0.0
 11
241.809741
 21
306.940739
 31
0.0
  0
LINE
  5
A39D
330
A2E6
100
AcDbEntity
  8
1
  6
Continuous
100
AcDbLine
 10
243.2239539999999
 20
304.8337389999999
 30
0.0
 11
241.2239539999999
 21
306.940739
 31
0.0
  0
LINE
  5
A39E
330
A2E6
100
AcDbEntity
  8
1
  6
Continuous
100
AcDbLine
 10
232.6173529999998
 20
304.8337389999999
 30
0.0
 11
230.6173529999998
 21
306.940739
 31
0.0
  0
LINE
  5
A39F
330
A2E6
100
AcDbEntity
  8
1
  6
Continuous
100
AcDbLine
 10
234.1528869999999
 20
304.8337389999999
 30
0.0
 11
236.1528869999999
 21
306.940739
 31
0.0
  0
LINE
  5
A3A0
330
A2E6
100
AcDbEntity
  8
1
  6
Continuous
100
AcDbLine
 10
236.859993
 20
304.8337389999999
 30
0.0
 11
234.859993
 21
306.940739
 31
0.0
  0
LINE
  5
A3A1
330
A2E6
100
AcDbEntity
  8
1
  6
Continuous
100
AcDbLine
 10
236.981314
 20
304.8337389999999
 30
0.0
 11
238.981314
 21
306.940739
 31
0.0
  0
LINE
  5
A3A2
330
A2E6
100
AcDbEntity
  8
1
  6
Continuous
100
AcDbLine
 10
238.981314
 20
304.8337389999999
 30
0.0
 11
236.981314
 21
306.940739
 31
0.0
  0
LINE
  5
A3A3
330
A2E6
100
AcDbEntity
  8
1
  6
Continuous
100
AcDbLine
 10
231.3244599999999
 20
304.8337389999999
 30
0.0
 11
233.32446
 21
306.940739
 31
0.0
  0
LINE
  5
A3A4
330
A2E6
100
AcDbEntity
  8
1
  6
Continuous
100
AcDbLine
 10
234.738673
 20
304.8337389999999
 30
0.0
 11
232.738673
 21
306.940739
 31
0.0
  0
LINE
  5
A3A5
330
A2E6
100
AcDbEntity
  8
1
  6
Continuous
100
AcDbLine
 10
225.6676049999999
 20
304.8337389999999
 30
0.0
 11
227.6676049999999
 21
306.940739
 31
0.0
  0
LINE
  5
A3A6
330
A2E6
100
AcDbEntity
  8
1
  6
Continuous
100
AcDbLine
 10
228.374712
 20
304.8337389999999
 30
0.0
 11
226.374712
 21
306.940739
 31
0.0
  0
LINE
  5
A3A7
330
A2E6
100
AcDbEntity
  8
1
  6
Continuous
100
AcDbLine
 10
228.4960319999999
 20
304.8337389999999
 30
0.0
 11
230.4960319999999
 21
306.940739
 31
0.0
  0
LINE
  5
A3A8
330
A2E6
100
AcDbEntity
  8
1
  6
Continuous
100
AcDbLine
 10
230.4960319999999
 20
304.8337389999999
 30
0.0
 11
228.4960319999999
 21
306.940739
 31
0.0
  0
LINE
  5
A3A9
330
A2E6
100
AcDbEntity
  8
1
  6
Continuous
100
AcDbLine
 10
226.253392
 20
304.8337389999999
 30
0.0
 11
224.253392
 21
306.940739
 31
0.0
  0
ARC
  5
A3AA
330
A2E6
100
AcDbEntity
  8
1
  6
Continuous
100
AcDbCircle
 10
215.96377
 20
316.2757389999999
 30
0.0
 40
7.5
100
AcDbArc
 50
212.4716319999998
 51
270.0
  0
ARC
  5
A3AB
330
A2E6
100
AcDbEntity
  8
1
  6
Continuous
100
AcDbCircle
 10
217.7253169999999
 20
303.7620889999999
 30
0.0
 40
1.188780999999998
100
AcDbArc
 50
284.807772
 51
2.109159
  0
LINE
  5
A3AC
330
A2E6
100
AcDbEntity
  8
1
  6
Continuous
100
AcDbLine
 10
218.5502389999999
 20
306.308654
 30
0.0
 11
219.182324
 21
306.940739
 31
0.0
  0
LINE
  5
A3AD
330
A2E6
100
AcDbEntity
  8
1
  6
Continuous
100
AcDbLine
 10
219.889431
 20
304.8337389999999
 30
0.0
 11
218.5502389999999
 21
306.27993
 31
0.0
  0
ARC
  5
A3AE
330
A2E6
100
AcDbEntity
  8
1
  6
Continuous
100
AcDbCircle
 10
221.1087229999999
 20
303.125599
 30
0.0
 40
2.298399999999999
100
AcDbArc
 50
131.996419
 51
162.784696
  0
LINE
  5
A3AF
330
A2E6
100
AcDbEntity
  8
1
  6
Continuous
100
AcDbLine
 10
220.0107509999999
 20
304.8337389999999
 30
0.0
 11
222.0107509999999
 21
306.940739
 31
0.0
  0
LINE
  5
A3B0
330
A2E6
100
AcDbEntity
  8
1
  6
Continuous
100
AcDbLine
 10
222.0107509999999
 20
304.8337389999999
 30
0.0
 11
220.0107509999999
 21
306.940739
 31
0.0
  0
ARC
  5
A3B1
330
A2E6
100
AcDbEntity
  8
1
  6
Continuous
100
AcDbCircle
 10
226.8379509999999
 20
313.5245750000001
 30
0.0
 40
9.0
100
AcDbArc
 50
211.8467129999999
 51
227.0154369999999
  0
LINE
  5
A3B2
330
A2E6
100
AcDbEntity
  8
1
  6
Continuous
100
AcDbLine
 10
218.5502389999999
 20
306.940739
 30
0.0
 11
218.5502389999999
 21
304.8337389999999
 31
0.0
  0
LINE
  5
A3B3
330
A2E6
100
AcDbEntity
  8
1
  6
Continuous
100
AcDbLine
 10
209.260104
 20
300.059162
 30
0.0
 11
212.947386
 21
300.059162
 31
0.0
  0
ARC
  5
A3B4
330
A2E6
100
AcDbEntity
  8
1
  6
Continuous
100
AcDbCircle
 10
210.1356829999998
 20
301.692338
 30
0.0
 40
2.172123
100
AcDbArc
 50
163.484735
 51
182.237079
  0
ARC
  5
A3B5
330
A2E6
100
AcDbEntity
  8
1
  6
Continuous
100
AcDbCircle
 10
199.7357799999998
 20
299.681799
 30
0.0
 40
8.451753
100
AcDbArc
 50
4.483236999999999
 51
13.17066
  0
ARC
  5
A3B6
330
A2E6
100
AcDbEntity
  8
1
  6
Continuous
100
AcDbCircle
 10
208.578211
 20
301.5506779999999
 30
0.0
 40
0.9230079999999999
100
AcDbArc
 50
108.7945229999998
 51
124.668912
  0
LINE
  5
A3B7
330
A2E6
100
AcDbEntity
  8
1
  6
Continuous
100
AcDbLine
 10
208.2973739999999
 20
300.17851
 30
0.0
 11
208.1616719999999
 21
300.3424509999998
 31
0.0
  0
ARC
  5
A3B8
330
A2E6
100
AcDbEntity
  8
1
  6
Continuous
100
AcDbCircle
 10
209.260104
 20
304.0017989999999
 30
0.0
 40
3.942636999999998
100
AcDbArc
 50
255.866358
 51
270.0
  0
ARC
  5
A3B9
330
A2E6
100
AcDbEntity
  8
1
  6
Continuous
100
AcDbCircle
 10
209.418711
 20
299.0809509999999
 30
0.0
 40
3.531837999999998
100
AcDbArc
 50
90.0
 51
108.7945229999998
  0
LINE
  5
A3BA
330
A2E6
100
AcDbEntity
  8
1
  6
Continuous
100
AcDbLine
 10
195.7363389999999
 20
312.249124
 30
0.0
 11
195.7363389999999
 21
315.133279
 31
0.0
  0
LINE
  5
A3BB
330
A2E6
100
AcDbEntity
  8
1
  6
Continuous
100
AcDbLine
 10
28.73892599999999
 20
315.148753
 30
0.0
 11
28.73892599999999
 21
312.249138
 31
0.0
  0
LINE
  5
A3BC
330
A2E6
100
AcDbEntity
  8
4
  6
CENTER
100
AcDbLine
 10
66.238934
 20
320.148753
 30
0.0
 11
66.238934
 21
157.1487389999998
 31
0.0
  0
LINE
  5
A3BD
330
A2E6
100
AcDbEntity
  8
1
  6
Continuous
100
AcDbLine
 10
84.663128
 20
298.60879
 30
0.0
 11
84.58176299999998
 21
217.498753
 31
0.0
  0
LINE
  5
A3BE
330
A2E6
100
AcDbEntity
  8
1
  6
Continuous
100
AcDbLine
 10
82.06357699999998
 20
299.058173
 30
0.0
 11
81.99445199999997
 21
230.1487529999999
 31
0.0
  0
LINE
  5
A3BF
330
A2E6
100
AcDbEntity
  8
1
  6
Continuous
100
AcDbLine
 10
47.81474099999999
 20
298.60879
 30
0.0
 11
47.896105
 21
217.498753
 31
0.0
  0
LINE
  5
A3C0
330
A2E6
100
AcDbEntity
  8
1
  6
Continuous
100
AcDbLine
 10
50.414291
 20
299.058173
 30
0.0
 11
50.496107
 21
217.498753
 31
0.0
  0
ARC
  5
A3C1
330
A2E6
100
AcDbEntity
  8
1
  6
Continuous
100
AcDbCircle
 10
53.938665
 20
255.422466
 30
0.0
 40
39.801511
100
AcDbArc
 50
332.553191
 51
359.5473579999999
  0
ARC
  5
A3C2
330
A2E6
100
AcDbEntity
  8
1
  6
Continuous
100
AcDbCircle
 10
78.539203
 20
255.422466
 30
0.0
 40
39.801511
100
AcDbArc
 50
180.452642
 51
210.446211
  0
LINE
  5
A3C3
330
A2E6
100
AcDbEntity
  8
4
  6
CENTER
100
AcDbLine
 10
38.33146
 20
230.1487529999999
 30
0.0
 11
96.586929
 21
230.1487529999999
 31
0.0
  0
LINE
  5
A3C4
330
A2E6
100
AcDbEntity
  8
1
  6
Continuous
100
AcDbLine
 10
47.896105
 20
217.498753
 30
0.0
 11
50.496107
 21
217.498753
 31
0.0
  0
LINE
  5
A3C5
330
A2E6
100
AcDbEntity
  8
1
  6
Continuous
100
AcDbLine
 10
50.488934
 20
224.6487529999999
 30
0.0
 11
50.488934
 21
230.1487529999999
 31
0.0
  0
LINE
  5
A3C6
330
A2E6
100
AcDbEntity
  8
1
  6
Continuous
100
AcDbLine
 10
81.98893400000001
 20
217.498753
 30
0.0
 11
81.98893400000001
 21
230.1487529999999
 31
0.0
  0
LINE
  5
A3C7
330
A2E6
100
AcDbEntity
  8
1
  6
Continuous
100
AcDbLine
 10
86.586929
 20
222.6487529999999
 30
0.0
 11
86.586929
 21
237.6487529999999
 31
0.0
  0
LINE
  5
A3C8
330
A2E6
100
AcDbEntity
  8
1
  6
Continuous
100
AcDbLine
 10
81.981762
 20
217.498753
 30
0.0
 11
84.58176299999998
 21
217.498753
 31
0.0
  0
LINE
  5
A3C9
330
A2E6
100
AcDbEntity
  8
1
  6
Continuous
100
AcDbLine
 10
84.586929
 20
222.6487529999999
 30
0.0
 11
86.586929
 21
222.6487529999999
 31
0.0
  0
LINE
  5
A3CA
330
A2E6
100
AcDbEntity
  8
1
  6
Continuous
100
AcDbLine
 10
81.99043899999997
 20
226.1487529999999
 30
0.0
 11
81.98893400000001
 21
226.1487529999999
 31
0.0
  0
LINE
  5
A3CB
330
A2E6
100
AcDbEntity
  8
1
  6
Continuous
100
AcDbLine
 10
84.60197599999998
 20
237.6487529999999
 30
0.0
 11
86.586929
 21
237.6487529999999
 31
0.0
  0
ARC
  5
A3CC
330
A2E6
100
AcDbEntity
  8
1
  6
Continuous
100
AcDbCircle
 10
95.51149499999999
 20
316.2757529999999
 30
0.0
 40
7.5
100
AcDbArc
 50
270.0
 51
327.528368
  0
LINE
  5
A3CD
330
A2E6
100
AcDbEntity
  8
1
  6
Continuous
100
AcDbLine
 10
66.00867
 20
304.8337529999999
 30
0.0
 11
64.00866999999999
 21
306.9407529999998
 31
0.0
  0
LINE
  5
A3CE
330
A2E6
100
AcDbEntity
  8
1
  6
Continuous
100
AcDbLine
 10
64.00866999999999
 20
304.8337529999999
 30
0.0
 11
66.00867
 21
306.9407529999998
 31
0.0
  0
LINE
  5
A3CF
330
A2E6
100
AcDbEntity
  8
1
  6
Continuous
100
AcDbLine
 10
51.41429099999999
 20
300.0591759999999
 30
0.0
 11
81.06357800000003
 21
300.0591759999999
 31
0.0
  0
LINE
  5
A3D0
330
A2E6
100
AcDbEntity
  8
1
  6
Continuous
100
AcDbLine
 10
51.814739
 20
302.6128029999998
 30
0.0
 11
80.66312999999999
 21
302.6128029999998
 31
0.0
  0
LINE
  5
A3D1
330
A2E6
100
AcDbEntity
  8
1
  6
Continuous
100
AcDbLine
 10
39.552826
 20
304.8337529999999
 30
0.0
 11
92.925026
 21
304.8337529999999
 31
0.0
  0
LINE
  5
A3D2
330
A2E6
100
AcDbEntity
  8
1
  6
Continuous
100
AcDbLine
 10
39.552826
 20
306.9407529999998
 30
0.0
 11
92.925026
 21
306.9407529999998
 31
0.0
  0
LINE
  5
A3D3
330
A2E6
100
AcDbEntity
  8
1
  6
Continuous
100
AcDbLine
 10
36.966356
 20
308.7757529999998
 30
0.0
 11
95.51149499999999
 21
308.7757529999998
 31
0.0
  0
LINE
  5
A3D4
330
A2E6
100
AcDbEntity
  8
1
  6
Continuous
100
AcDbLine
 10
49.03810700000001
 20
304.8337529999999
 30
0.0
 11
47.038107
 21
306.9407529999998
 31
0.0
  0
LINE
  5
A3D5
330
A2E6
100
AcDbEntity
  8
1
  6
Continuous
100
AcDbLine
 10
47.038107
 20
304.8337529999999
 30
0.0
 11
49.03810700000001
 21
306.9407529999998
 31
0.0
  0
ARC
  5
A3D6
330
A2E6
100
AcDbEntity
  8
1
  6
Continuous
100
AcDbCircle
 10
51.814739
 20
298.6128029999998
 30
0.0
 40
4.0
100
AcDbArc
 50
90.0
 51
180.057476
  0
LINE
  5
A3D7
330
A2E6
100
AcDbEntity
  8
1
  6
Continuous
100
AcDbLine
 10
40.552826
 20
304.8337529999999
 30
0.0
 11
39.552826
 21
305.9407529999999
 31
0.0
  0
LINE
  5
A3D8
330
A2E6
100
AcDbEntity
  8
1
  6
Continuous
100
AcDbLine
 10
40.552826
 20
306.9407529999998
 30
0.0
 11
39.552826
 21
305.9407529999999
 31
0.0
  0
LINE
  5
A3D9
330
A2E6
100
AcDbEntity
  8
1
  6
Continuous
100
AcDbLine
 10
39.552826
 20
304.8337529999999
 30
0.0
 11
39.552826
 21
306.9407529999998
 31
0.0
  0
LINE
  5
A3DA
330
A2E6
100
AcDbEntity
  8
1
  6
Continuous
100
AcDbLine
 10
46.20968
 20
304.8337529999999
 30
0.0
 11
44.20968
 21
306.9407529999998
 31
0.0
  0
LINE
  5
A3DB
330
A2E6
100
AcDbEntity
  8
1
  6
Continuous
100
AcDbLine
 10
42.79546599999997
 20
304.8337529999999
 30
0.0
 11
44.79546599999999
 21
306.9407529999998
 31
0.0
  0
LINE
  5
A3DC
330
A2E6
100
AcDbEntity
  8
1
  6
Continuous
100
AcDbLine
 10
43.381253
 20
304.8337529999999
 30
0.0
 11
41.381253
 21
306.9407529999998
 31
0.0
  0
LINE
  5
A3DD
330
A2E6
100
AcDbEntity
  8
1
  6
Continuous
100
AcDbLine
 10
40.674146
 20
304.8337529999999
 30
0.0
 11
42.674146
 21
306.9407529999998
 31
0.0
  0
ARC
  5
A3DE
330
A2E6
100
AcDbEntity
  8
1
  6
Continuous
100
AcDbCircle
 10
48.18257599999999
 20
313.1883339999999
 30
0.0
 40
9.0
100
AcDbArc
 50
209.359435
 51
223.961567
  0
LINE
  5
A3DF
330
A2E6
100
AcDbEntity
  8
1
  6
Continuous
100
AcDbLine
 10
44.916787
 20
304.8337529999999
 30
0.0
 11
46.91678699999999
 21
306.9407529999998
 31
0.0
  0
LINE
  5
A3E0
330
A2E6
100
AcDbEntity
  8
1
  6
Continuous
100
AcDbLine
 10
57.523388
 20
304.8337529999999
 30
0.0
 11
55.523388
 21
306.9407529999998
 31
0.0
  0
LINE
  5
A3E1
330
A2E6
100
AcDbEntity
  8
1
  6
Continuous
100
AcDbLine
 10
55.523388
 20
304.8337529999999
 30
0.0
 11
57.523388
 21
306.9407529999998
 31
0.0
  0
ARC
  5
A3E2
330
A2E6
100
AcDbEntity
  8
1
  6
Continuous
100
AcDbCircle
 10
51.41429099999999
 20
299.059176
 30
0.0
 40
1.0
100
AcDbArc
 50
90.0
 51
180.057476
  0
LINE
  5
A3E3
330
A2E6
100
AcDbEntity
  8
1
  6
Continuous
100
AcDbLine
 10
51.280748
 20
304.8337529999999
 30
0.0
 11
53.28074799999999
 21
306.9407529999998
 31
0.0
  0
LINE
  5
A3E4
330
A2E6
100
AcDbEntity
  8
1
  6
Continuous
100
AcDbLine
 10
51.866534
 20
304.8337529999999
 30
0.0
 11
49.866534
 21
306.9407529999998
 31
0.0
  0
LINE
  5
A3E5
330
A2E6
100
AcDbEntity
  8
1
  6
Continuous
100
AcDbLine
 10
49.159427
 20
304.8337529999999
 30
0.0
 11
51.159427
 21
306.9407529999998
 31
0.0
  0
LINE
  5
A3E6
330
A2E6
100
AcDbEntity
  8
1
  6
Continuous
100
AcDbLine
 10
54.694961
 20
304.8337529999999
 30
0.0
 11
52.694961
 21
306.9407529999998
 31
0.0
  0
LINE
  5
A3E7
330
A2E6
100
AcDbEntity
  8
1
  6
Continuous
100
AcDbLine
 10
53.402068
 20
304.8337529999999
 30
0.0
 11
55.402068
 21
306.9407529999998
 31
0.0
  0
LINE
  5
A3E8
330
A2E6
100
AcDbEntity
  8
1
  6
Continuous
100
AcDbLine
 10
59.766029
 20
304.8337529999999
 30
0.0
 11
61.766029
 21
306.9407529999998
 31
0.0
  0
LINE
  5
A3E9
330
A2E6
100
AcDbEntity
  8
1
  6
Continuous
100
AcDbLine
 10
60.351815
 20
304.8337529999999
 30
0.0
 11
58.351815
 21
306.9407529999998
 31
0.0
  0
LINE
  5
A3EA
330
A2E6
100
AcDbEntity
  8
1
  6
Continuous
100
AcDbLine
 10
57.644709
 20
304.8337529999999
 30
0.0
 11
59.644709
 21
306.9407529999998
 31
0.0
  0
LINE
  5
A3EB
330
A2E6
100
AcDbEntity
  8
1
  6
Continuous
100
AcDbLine
 10
63.18024300000001
 20
304.8337529999999
 30
0.0
 11
61.180243
 21
306.9407529999998
 31
0.0
  0
LINE
  5
A3EC
330
A2E6
100
AcDbEntity
  8
1
  6
Continuous
100
AcDbLine
 10
61.887349
 20
304.8337529999999
 30
0.0
 11
63.887349
 21
306.9407529999998
 31
0.0
  0
LINE
  5
A3ED
330
A2E6
100
AcDbEntity
  8
1
  6
Continuous
100
AcDbLine
 10
82.97923199999997
 20
304.8337529999999
 30
0.0
 11
80.97923199999998
 21
306.9407529999998
 31
0.0
  0
LINE
  5
A3EE
330
A2E6
100
AcDbEntity
  8
1
  6
Continuous
100
AcDbLine
 10
80.97923199999998
 20
304.8337529999999
 30
0.0
 11
82.97923199999997
 21
306.9407529999998
 31
0.0
  0
ARC
  5
A3EF
330
A2E6
100
AcDbEntity
  8
1
  6
Continuous
100
AcDbCircle
 10
81.06357800000003
 20
299.059176
 30
0.0
 40
1.0
100
AcDbArc
 50
359.9425239999998
 51
90.0
  0
ARC
  5
A3F0
330
A2E6
100
AcDbEntity
  8
1
  6
Continuous
100
AcDbCircle
 10
80.66312999999999
 20
298.6128029999998
 30
0.0
 40
4.0
100
AcDbArc
 50
359.9425239999998
 51
90.0
  0
LINE
  5
A3F1
330
A2E6
100
AcDbEntity
  8
1
  6
Continuous
100
AcDbLine
 10
74.49395099999998
 20
304.8337529999999
 30
0.0
 11
72.49395099999998
 21
306.9407529999998
 31
0.0
  0
LINE
  5
A3F2
330
A2E6
100
AcDbEntity
  8
1
  6
Continuous
100
AcDbLine
 10
72.49395099999998
 20
304.8337529999999
 30
0.0
 11
74.49395099999998
 21
306.9407529999998
 31
0.0
  0
LINE
  5
A3F3
330
A2E6
100
AcDbEntity
  8
1
  6
Continuous
100
AcDbLine
 10
68.25131
 20
304.8337529999999
 30
0.0
 11
70.25131
 21
306.9407529999998
 31
0.0
  0
LINE
  5
A3F4
330
A2E6
100
AcDbEntity
  8
1
  6
Continuous
100
AcDbLine
 10
68.837097
 20
304.8337529999999
 30
0.0
 11
66.837097
 21
306.9407529999998
 31
0.0
  0
LINE
  5
A3F5
330
A2E6
100
AcDbEntity
  8
1
  6
Continuous
100
AcDbLine
 10
66.12999000000001
 20
304.8337529999999
 30
0.0
 11
68.12999000000001
 21
306.9407529999998
 31
0.0
  0
LINE
  5
A3F6
330
A2E6
100
AcDbEntity
  8
1
  6
Continuous
100
AcDbLine
 10
71.66552400000002
 20
304.8337529999999
 30
0.0
 11
69.66552400000001
 21
306.9407529999998
 31
0.0
  0
LINE
  5
A3F7
330
A2E6
100
AcDbEntity
  8
1
  6
Continuous
100
AcDbLine
 10
70.37263100000001
 20
304.8337529999999
 30
0.0
 11
72.37263100000001
 21
306.9407529999998
 31
0.0
  0
LINE
  5
A3F8
330
A2E6
100
AcDbEntity
  8
1
  6
Continuous
100
AcDbLine
 10
77.322378
 20
304.8337529999999
 30
0.0
 11
75.322378
 21
306.9407529999998
 31
0.0
  0
LINE
  5
A3F9
330
A2E6
100
AcDbEntity
  8
1
  6
Continuous
100
AcDbLine
 10
76.736592
 20
304.8337529999999
 30
0.0
 11
78.736592
 21
306.9407529999998
 31
0.0
  0
LINE
  5
A3FA
330
A2E6
100
AcDbEntity
  8
1
  6
Continuous
100
AcDbLine
 10
74.61527099999996
 20
304.8337529999999
 30
0.0
 11
76.61527099999998
 21
306.9407529999998
 31
0.0
  0
LINE
  5
A3FB
330
A2E6
100
AcDbEntity
  8
1
  6
Continuous
100
AcDbLine
 10
80.15080500000001
 20
304.8337529999999
 30
0.0
 11
78.150805
 21
306.9407529999998
 31
0.0
  0
LINE
  5
A3FC
330
A2E6
100
AcDbEntity
  8
1
  6
Continuous
100
AcDbLine
 10
78.85791199999999
 20
304.8337529999999
 30
0.0
 11
80.857912
 21
306.9407529999998
 31
0.0
  0
LINE
  5
A3FD
330
A2E6
100
AcDbEntity
  8
1
  6
Continuous
100
AcDbLine
 10
85.80766
 20
304.8337529999999
 30
0.0
 11
83.80765999999999
 21
306.9407529999998
 31
0.0
  0
LINE
  5
A3FE
330
A2E6
100
AcDbEntity
  8
1
  6
Continuous
100
AcDbLine
 10
85.221873
 20
304.8337529999999
 30
0.0
 11
87.22187299999999
 21
306.9407529999998
 31
0.0
  0
LINE
  5
A3FF
330
A2E6
100
AcDbEntity
  8
1
  6
Continuous
100
AcDbLine
 10
83.100553
 20
304.8337529999999
 30
0.0
 11
85.10055300000002
 21
306.9407529999998
 31
0.0
  0
LINE
  5
A400
330
A2E6
100
AcDbEntity
  8
1
  6
Continuous
100
AcDbLine
 10
88.636087
 20
304.8337529999999
 30
0.0
 11
86.63608700000002
 21
306.9407529999998
 31
0.0
  0
LINE
  5
A401
330
A2E6
100
AcDbEntity
  8
1
  6
Continuous
100
AcDbLine
 10
87.34319300000001
 20
304.8337529999999
 30
0.0
 11
89.343193
 21
306.9407529999998
 31
0.0
  0
LINE
  5
A402
330
A2E6
100
AcDbEntity
  8
1
  6
Continuous
100
AcDbLine
 10
92.925026
 20
306.308668
 30
0.0
 11
92.29294100000002
 21
306.9407529999998
 31
0.0
  0
LINE
  5
A403
330
A2E6
100
AcDbEntity
  8
1
  6
Continuous
100
AcDbLine
 10
91.46451400000001
 20
304.8337529999999
 30
0.0
 11
89.46451399999999
 21
306.9407529999998
 31
0.0
  0
LINE
  5
A404
330
A2E6
100
AcDbEntity
  8
1
  6
Continuous
100
AcDbLine
 10
91.58583400000001
 20
304.8337529999999
 30
0.0
 11
92.925026
 21
306.279944
 31
0.0
  0
LINE
  5
A405
330
A2E6
100
AcDbEntity
  8
1
  6
Continuous
100
AcDbLine
 10
89.46451399999999
 20
304.8337529999999
 30
0.0
 11
91.46451400000001
 21
306.9407529999998
 31
0.0
  0
ARC
  5
A406
330
A2E6
100
AcDbEntity
  8
1
  6
Continuous
100
AcDbCircle
 10
84.637314
 20
313.524589
 30
0.0
 40
9.0
100
AcDbArc
 50
312.9845629999999
 51
328.1532869999999
  0
LINE
  5
A407
330
A2E6
100
AcDbEntity
  8
1
  6
Continuous
100
AcDbLine
 10
92.925026
 20
306.9407529999998
 30
0.0
 11
92.925026
 21
304.8337529999999
 31
0.0
  0
LINE
  5
A408
330
A2E6
100
AcDbEntity
  8
1
  6
Continuous
100
AcDbLine
 10
103.738926
 20
315.148753
 30
0.0
 11
103.738926
 21
312.249138
 31
0.0
  0
LINE
  5
A409
330
A2E6
100
AcDbEntity
  8
4
  6
CENTER
100
AcDbLine
 10
205.236339
 20
307.249124
 30
0.0
 11
205.236339
 21
320.148739
 31
0.0
  0
LINE
  5
A40A
330
A2E6
100
AcDbEntity
  8
4
  6
CENTER
100
AcDbLine
 10
285.2363389999998
 20
307.249124
 30
0.0
 11
285.2363389999998
 21
320.148739
 31
0.0
  0
LINE
  5
A40B
330
A2E6
100
AcDbEntity
  8
4
  6
CENTER
100
AcDbLine
 10
335.2337429999999
 20
320.1487349999998
 30
0.0
 11
335.2337429999999
 21
303.518735
 31
0.0
  0
LINE
  5
A40C
330
A2E6
100
AcDbEntity
  8
4
  6
CENTER
100
AcDbLine
 10
391.233743
 20
320.1487349999998
 30
0.0
 11
391.233743
 21
303.518735
 31
0.0
  0
LINE
  5
A40D
330
A2E6
100
AcDbEntity
  8
4
  6
CENTER
100
AcDbLine
 10
38.238934
 20
320.148753
 30
0.0
 11
38.238934
 21
303.668753
 31
0.0
  0
LINE
  5
A40E
330
A2E6
100
AcDbEntity
  8
4
  6
CENTER
100
AcDbLine
 10
94.238934
 20
320.148753
 30
0.0
 11
94.238934
 21
303.668753
 31
0.0
  0
LINE
  5
A40F
330
A2E6
100
AcDbEntity
  8
1
  6
Continuous
100
AcDbLine
 10
38.738934
 20
298.064753
 30
0.0
 11
38.738934
 21
255.108033
 31
0.0
  0
LINE
  5
A410
330
A2E6
100
AcDbEntity
  8
1
  6
Continuous
100
AcDbLine
 10
93.738934
 20
298.064753
 30
0.0
 11
93.738934
 21
255.108033
 31
0.0
  0
ARC
  5
A411
330
A2E6
100
AcDbEntity
  8
1
  6
Continuous
100
AcDbCircle
 10
45.50793399999998
 20
298.064753
 30
0.0
 40
6.769
100
AcDbArc
 50
90.0
 51
180.0
  0
ARC
  5
A412
330
A2E6
100
AcDbEntity
  8
1
  6
Continuous
100
AcDbCircle
 10
86.96993399999998
 20
298.064753
 30
0.0
 40
6.769
100
AcDbArc
 50
0.0
 51
90.0
  0
LINE
  5
A413
330
A2E6
100
AcDbEntity
  8
1
  6
Continuous
100
AcDbLine
 10
84.594453
 20
230.1487529999999
 30
0.0
 11
86.586929
 21
232.141229
 31
0.0
  0
LINE
  5
A414
330
A2E6
100
AcDbEntity
  8
1
  6
Continuous
100
AcDbLine
 10
84.59245200000003
 20
228.1542759999999
 30
0.0
 11
86.586929
 21
230.1487529999999
 31
0.0
  0
LINE
  5
A415
330
A2E6
100
AcDbEntity
  8
1
  6
Continuous
100
AcDbLine
 10
390.733743
 20
297.707739
 30
0.0
 11
390.733743
 21
255.1080059999999
 31
0.0
  0
LINE
  5
A416
330
A2E6
100
AcDbEntity
  8
1
  6
Continuous
100
AcDbLine
 10
335.733743
 20
297.707739
 30
0.0
 11
335.733743
 21
255.10806
 31
0.0
  0
ARC
  5
A417
330
A2E6
100
AcDbEntity
  8
1
  6
Continuous
100
AcDbCircle
 10
342.8597429999999
 20
297.707739
 30
0.0
 40
7.126
100
AcDbArc
 50
90.0
 51
180.0
  0
ARC
  5
A418
330
A2E6
100
AcDbEntity
  8
1
  6
Continuous
100
AcDbCircle
 10
383.607743
 20
297.707739
 30
0.0
 40
7.126
100
AcDbArc
 50
0.0
 51
90.0
  0
ARC
  5
A419
330
A2E6
100
AcDbEntity
  8
1
  6
Continuous
100
AcDbCircle
 10
609.4823169999997
 20
196.291948
 30
0.0
 40
277.8421779999998
100
AcDbArc
 50
160.1679499999999
 51
166.985586
  0
ARC
  5
A41A
330
A2E6
100
AcDbEntity
  8
1
  6
Continuous
100
AcDbCircle
 10
609.517816
 20
196.123224
 30
0.0
 40
280.2147699999999
100
AcDbArc
 50
160.8364799999999
 51
166.9559429999999
  0
ARC
  5
A41B
330
A2E6
100
AcDbEntity
  8
1
  6
Continuous
100
AcDbCircle
 10
353.546474
 20
285.1310429999998
 30
0.0
 40
9.209889
100
AcDbArc
 50
100.9954699999999
 51
161.141259
  0
ARC
  5
A41C
330
A2E6
100
AcDbEntity
  8
1
  6
Continuous
100
AcDbCircle
 10
353.686212
 20
288.57601
 30
0.0
 40
5.908440999999998
100
AcDbArc
 50
108.720775
 51
160.442813
  0
ARC
  5
A41D
330
A2E6
100
AcDbEntity
  8
1
  6
Continuous
100
AcDbCircle
 10
350.9334739999998
 20
255.422466
 30
0.0
 40
39.801511
100
AcDbArc
 50
324.005645
 51
359.5473579999999
  0
LINE
  5
A41E
330
A2E6
100
AcDbEntity
  8
1
  6
Continuous
100
AcDbLine
 10
347.419599
 20
288.592586
 30
0.0
 11
347.4909149999998
 21
217.498753
 31
0.0
  0
LINE
  5
A41F
330
A2E6
100
AcDbEntity
  8
1
  6
Continuous
100
AcDbLine
 10
379.047888
 20
288.5925849999998
 30
0.0
 11
378.9765699999999
 21
217.498753
 31
0.0
  0
LINE
  5
A420
330
A2E6
100
AcDbEntity
  8
1
  6
Continuous
100
AcDbLine
 10
381.576723
 20
217.498753
 30
0.0
 11
378.9765699999999
 21
217.498753
 31
0.0
  0
LINE
  5
A421
330
A2E6
100
AcDbEntity
  8
1
  6
Continuous
100
AcDbLine
 10
347.4909149999998
 20
217.498753
 30
0.0
 11
344.890914
 21
217.498753
 31
0.0
  0
ARC
  5
A422
330
A2E6
100
AcDbEntity
  8
1
  6
Continuous
100
AcDbCircle
 10
389.701521
 20
227.261666
 30
0.0
 40
8.115
100
AcDbArc
 50
144.0056449999999
 51
179.942522
  0
ARC
  5
A423
330
A2E6
100
AcDbEntity
  8
1
  6
Continuous
100
AcDbCircle
 10
350.9334739999998
 20
255.422466
 30
0.0
 40
37.20151099999998
100
AcDbArc
 50
324.005645
 51
344.602802
  0
ARC
  5
A424
330
A2E6
100
AcDbEntity
  8
1
  6
Continuous
100
AcDbCircle
 10
389.701521
 20
227.261666
 30
0.0
 40
10.715
100
AcDbArc
 50
144.0056449999999
 51
179.942522
  0
ARC
  5
A425
330
A2E6
100
AcDbEntity
  8
1
  6
Continuous
100
AcDbCircle
 10
355.9482949999999
 20
254.0414179999999
 30
0.0
 40
32.0
100
AcDbArc
 50
344.602802
 51
13.58600199999999
  0
ARC
  5
A426
330
A2E6
100
AcDbEntity
  8
1
  6
Continuous
100
AcDbCircle
 10
370.5191919999998
 20
254.0414179999999
 30
0.0
 40
32.0
100
AcDbArc
 50
166.4139979999999
 51
195.3971979999998
  0
ARC
  5
A427
330
A2E6
100
AcDbEntity
  8
1
  6
Continuous
100
AcDbCircle
 10
368.2698409999999
 20
252.198299
 30
0.0
 40
32.53609799999999
100
AcDbArc
 50
167.270172
 51
177.3275659999999
  0
ARC
  5
A428
330
A2E6
100
AcDbEntity
  8
1
  6
Continuous
100
AcDbCircle
 10
375.534012
 20
255.422466
 30
0.0
 40
39.801511
100
AcDbArc
 50
180.452642
 51
215.9943549999999
  0
ARC
  5
A429
330
A2E6
100
AcDbEntity
  8
1
  6
Continuous
100
AcDbCircle
 10
375.534012
 20
255.422466
 30
0.0
 40
37.20151099999998
100
AcDbArc
 50
195.3971979999998
 51
215.9943549999999
  0
ARC
  5
A42A
330
A2E6
100
AcDbEntity
  8
1
  6
Continuous
100
AcDbCircle
 10
336.765966
 20
227.261666
 30
0.0
 40
10.715
100
AcDbArc
 50
0.057478
 51
35.994355
  0
ARC
  5
A42B
330
A2E6
100
AcDbEntity
  8
1
  6
Continuous
100
AcDbCircle
 10
336.765966
 20
227.261666
 30
0.0
 40
8.115
100
AcDbArc
 50
0.057478
 51
35.994355
  0
LINE
  5
A42C
330
A2E6
100
AcDbEntity
  8
1
  6
Continuous
100
AcDbLine
 10
344.880962
 20
227.269807
 30
0.0
 11
344.8907639999998
 21
217.498753
 31
0.0
  0
LINE
  5
A42D
330
A2E6
100
AcDbEntity
  8
1
  6
Continuous
100
AcDbLine
 10
272.7363389999998
 20
295.273323
 30
0.0
 11
272.7363389999998
 21
302.618183
 31
0.0
  0
ARC
  5
A42E
330
A2E6
100
AcDbEntity
  8
1
  6
Continuous
100
AcDbCircle
 10
272.588482
 20
290.754186
 30
0.0
 40
4.521554
100
AcDbArc
 50
88.126069
 51
156.3338149999998
  0
LINE
  5
A42F
330
A2E6
100
AcDbEntity
  8
1
  6
Continuous
100
AcDbLine
 10
287.2363389999998
 20
124.9223679999999
 30
0.0
 11
203.2363389999999
 21
124.9223679999999
 31
0.0
  0
LINE
  5
A430
330
A2E6
100
AcDbEntity
  8
1
  6
Continuous
100
AcDbLine
 10
287.2363389999998
 20
49.922368
 30
0.0
 11
203.2363389999999
 21
49.922368
 31
0.0
  0
LINE
  5
A431
330
A2E6
100
AcDbEntity
  8
4
  6
CENTER
100
AcDbLine
 10
299.7363389999998
 20
87.422368
 30
0.0
 11
139.2363389999998
 21
87.422368
 31
0.0
  0
ARC
  5
A432
330
A2E6
100
AcDbEntity
  8
1
  6
Continuous
100
AcDbCircle
 10
203.2363389999999
 20
57.422368
 30
0.0
 40
7.5
100
AcDbArc
 50
180.0
 51
270.0
  0
LINE
  5
A433
330
A2E6
100
AcDbEntity
  8
4
  6
CENTER
100
AcDbLine
 10
245.2363389999999
 20
129.922368
 30
0.0
 11
245.2363389999999
 21
44.92236799999999
 31
0.0
  0
ARC
  5
A434
330
A2E6
100
AcDbEntity
  8
1
  6
Continuous
100
AcDbCircle
 10
203.2363389999999
 20
117.4223679999999
 30
0.0
 40
7.5
100
AcDbArc
 50
90.0
 51
180.0
  0
LINE
  5
A435
330
A2E6
100
AcDbEntity
  8
1
  6
Continuous
100
AcDbLine
 10
195.7363389999999
 20
117.4223679999999
 30
0.0
 11
195.7363389999999
 21
101.0823639999999
 31
0.0
  0
ARC
  5
A436
330
A2E6
100
AcDbEntity
  8
1
  6
Continuous
100
AcDbCircle
 10
205.236339
 20
115.4223679999999
 30
0.0
 40
4.25
100
AcDbArc
 50
349.808289
 51
241.9275129999999
  0
LINE
  5
A437
330
A2E6
100
AcDbEntity
  8
4
  6
CENTER
100
AcDbLine
 10
205.236339
 20
122.6723679999999
 30
0.0
 11
205.236339
 21
108.1723679999999
 31
0.0
  0
LINE
  5
A438
330
A2E6
100
AcDbEntity
  8
4
  6
CENTER
100
AcDbLine
 10
212.4863389999999
 20
115.4223679999999
 30
0.0
 11
197.986339
 21
115.4223679999999
 31
0.0
  0
LINE
  5
A439
330
A2E6
100
AcDbEntity
  8
4
  6
CENTER
100
AcDbLine
 10
212.4863389999999
 20
59.42236799999999
 30
0.0
 11
197.986339
 21
59.42236799999999
 31
0.0
  0
CIRCLE
  5
A43A
330
A2E6
100
AcDbEntity
  8
1
  6
Continuous
100
AcDbCircle
 10
205.236339
 20
59.42236799999999
 30
0.0
 40
4.25
  0
LINE
  5
A43B
330
A2E6
100
AcDbEntity
  8
4
  6
CENTER
100
AcDbLine
 10
205.236339
 20
66.67236800000001
 30
0.0
 11
205.236339
 21
52.172368
 31
0.0
  0
ARC
  5
A43C
330
A2E6
100
AcDbEntity
  8
1
  6
Continuous
100
AcDbCircle
 10
287.2363389999998
 20
57.422368
 30
0.0
 40
7.5
100
AcDbArc
 50
270.0
 51
0.0
  0
LINE
  5
A43D
330
A2E6
100
AcDbEntity
  8
1
  6
Continuous
100
AcDbLine
 10
294.7363389999998
 20
117.4223679999999
 30
0.0
 11
294.7363389999998
 21
57.422368
 31
0.0
  0
CIRCLE
  5
A43E
330
A2E6
100
AcDbEntity
  8
1
  6
Continuous
100
AcDbCircle
 10
285.2363389999998
 20
115.4223679999999
 30
0.0
 40
4.25
  0
LINE
  5
A43F
330
A2E6
100
AcDbEntity
  8
4
  6
CENTER
100
AcDbLine
 10
285.2363389999998
 20
122.6723679999999
 30
0.0
 11
285.2363389999998
 21
108.1723679999999
 31
0.0
  0
ARC
  5
A440
330
A2E6
100
AcDbEntity
  8
1
  6
Continuous
100
AcDbCircle
 10
287.2363389999998
 20
117.4223679999999
 30
0.0
 40
7.5
100
AcDbArc
 50
0.0
 51
90.0
  0
LINE
  5
A441
330
A2E6
100
AcDbEntity
  8
4
  6
CENTER
100
AcDbLine
 10
292.486339
 20
115.4223679999999
 30
0.0
 11
277.986339
 21
115.4223679999999
 31
0.0
  0
LINE
  5
A442
330
A2E6
100
AcDbEntity
  8
4
  6
CENTER
100
AcDbLine
 10
292.486339
 20
59.42236799999999
 30
0.0
 11
277.986339
 21
59.42236799999999
 31
0.0
  0
CIRCLE
  5
A443
330
A2E6
100
AcDbEntity
  8
1
  6
Continuous
100
AcDbCircle
 10
285.2363389999998
 20
59.42236799999999
 30
0.0
 40
4.25
  0
LINE
  5
A444
330
A2E6
100
AcDbEntity
  8
4
  6
CENTER
100
AcDbLine
 10
285.2363389999998
 20
66.67236800000001
 30
0.0
 11
285.2363389999998
 21
52.172368
 31
0.0
  0
LINE
  5
A445
330
A2E6
100
AcDbEntity
  8
1
  6
Continuous
100
AcDbLine
 10
196.836339
 20
71.65441300000002
 30
0.0
 11
222.4529899999998
 21
71.68010999999999
 31
0.0
  0
LINE
  5
A446
330
A2E6
100
AcDbEntity
  8
1
  6
Continuous
100
AcDbLine
 10
196.836339
 20
69.054411
 30
0.0
 11
221.431643
 21
69.07908299999999
 31
0.0
  0
LINE
  5
A447
330
A2E6
100
AcDbEntity
  8
1
  6
Continuous
100
AcDbLine
 10
213.236339
 20
71.67086399999998
 30
0.0
 11
213.236339
 21
71.67236800000002
 31
0.0
  0
LINE
  5
A448
330
A2E6
100
AcDbEntity
  8
1
  6
Continuous
100
AcDbLine
 10
214.7363389999999
 20
71.67236800000002
 30
0.0
 11
209.236339
 21
71.67236800000002
 31
0.0
  0
LINE
  5
A449
330
A2E6
100
AcDbEntity
  8
1
  6
Continuous
100
AcDbLine
 10
203.7363389999999
 20
71.67236800000002
 30
0.0
 11
209.236339
 21
71.67236800000002
 31
0.0
  0
LINE
  5
A44A
330
A2E6
100
AcDbEntity
  8
1
  6
Continuous
100
AcDbLine
 10
196.836339
 20
103.190325
 30
0.0
 11
222.452992
 21
103.1646279999999
 31
0.0
  0
LINE
  5
A44B
330
A2E6
100
AcDbEntity
  8
1
  6
Continuous
100
AcDbLine
 10
196.836339
 20
105.790326
 30
0.0
 11
221.431643
 21
105.7656539999999
 31
0.0
  0
LINE
  5
A44C
330
A2E6
100
AcDbEntity
  8
1
  6
Continuous
100
AcDbLine
 10
201.7363389999999
 20
105.78541
 30
0.0
 11
201.7363389999999
 21
107.770363
 31
0.0
  0
LINE
  5
A44D
330
A2E6
100
AcDbEntity
  8
1
  6
Continuous
100
AcDbLine
 10
211.2308159999999
 20
105.775886
 30
0.0
 11
209.236339
 21
107.770363
 31
0.0
  0
LINE
  5
A44E
330
A2E6
100
AcDbEntity
  8
1
  6
Continuous
100
AcDbLine
 10
216.7363389999999
 20
105.770363
 30
0.0
 11
216.7363389999999
 21
107.770363
 31
0.0
  0
LINE
  5
A44F
330
A2E6
100
AcDbEntity
  8
1
  6
Continuous
100
AcDbLine
 10
209.236339
 20
105.777887
 30
0.0
 11
207.2438629999998
 21
107.770363
 31
0.0
  0
LINE
  5
A450
330
A2E6
100
AcDbEntity
  8
1
  6
Continuous
100
AcDbLine
 10
205.236339
 20
103.181899
 30
0.0
 11
205.236339
 21
103.172368
 31
0.0
  0
LINE
  5
A451
330
A2E6
100
AcDbEntity
  8
1
  6
Continuous
100
AcDbLine
 10
203.7363389999999
 20
103.172368
 30
0.0
 11
209.236339
 21
103.172368
 31
0.0
  0
LINE
  5
A452
330
A2E6
100
AcDbEntity
  8
1
  6
Continuous
100
AcDbLine
 10
216.7363389999999
 20
107.770363
 30
0.0
 11
201.7363389999999
 21
107.770363
 31
0.0
  0
LINE
  5
A453
330
A2E6
100
AcDbEntity
  8
4
  6
CENTER
100
AcDbLine
 10
209.236339
 20
129.922368
 30
0.0
 11
209.236339
 21
44.92236799999999
 31
0.0
  0
LINE
  5
A454
330
A2E6
100
AcDbEntity
  8
1
  6
Continuous
100
AcDbLine
 10
195.7363389999999
 20
73.76237299999998
 30
0.0
 11
195.7363389999999
 21
57.422368
 31
0.0
  0
ARC
  5
A455
330
A2E6
100
AcDbEntity
  8
1
  6
Continuous
100
AcDbCircle
 10
245.2363389999999
 20
87.422368
 30
0.0
 40
27.5
100
AcDbArc
 50
227.907557
 51
333.762068
  0
ARC
  5
A456
330
A2E6
100
AcDbEntity
  8
1
  6
Continuous
100
AcDbCircle
 10
245.2363389999999
 20
87.422368
 30
0.0
 40
24.9
100
AcDbArc
 50
226.190799
 51
329.8670609999998
  0
ARC
  5
A457
330
A2E6
100
AcDbEntity
  8
1
  6
Continuous
100
AcDbCircle
 10
221.439668
 20
113.76565
 30
0.0
 40
8.0
100
AcDbArc
 50
269.942524
 51
312.092443
  0
ARC
  5
A458
330
A2E6
100
AcDbEntity
  8
1
  6
Continuous
100
AcDbCircle
 10
222.461017
 20
111.164624
 30
0.0
 40
8.0
100
AcDbArc
 50
269.9425249999998
 51
313.809198
  0
LINE
  5
A459
330
A2E6
100
AcDbEntity
  8
1
  6
Continuous
100
AcDbLine
 10
196.836339
 20
105.790326
 30
0.0
 11
196.836339
 21
103.190325
 31
0.0
  0
LINE
  5
A45A
330
A2E6
100
AcDbEntity
  8
1
  6
Continuous
100
AcDbLine
 10
196.836339
 20
71.65441300000002
 30
0.0
 11
196.836339
 21
69.054411
 31
0.0
  0
LINE
  5
A45B
330
A2E6
100
AcDbEntity
  8
1
  6
Continuous
100
AcDbLine
 10
221.431643
 20
69.07908299999999
 30
0.0
 11
221.447699
 21
69.07908299999999
 31
0.0
  0
ARC
  5
A45C
330
A2E6
100
AcDbEntity
  8
1
  6
Continuous
100
AcDbCircle
 10
222.461016
 20
63.680114
 30
0.0
 40
8.0
100
AcDbArc
 50
46.190799
 51
90.05747599999997
  0
ARC
  5
A45D
330
A2E6
100
AcDbEntity
  8
1
  6
Continuous
100
AcDbCircle
 10
221.439668
 20
61.079087
 30
0.0
 40
8.0
100
AcDbArc
 50
47.907557
 51
90.05747500000003
  0
ARC
  5
A45E
330
A2E6
100
AcDbEntity
  8
1
  6
Continuous
100
AcDbCircle
 10
245.2363389999999
 20
87.422368
 30
0.0
 40
35.6
100
AcDbArc
 50
215.4515149999998
 51
145.140019
  0
ARC
  5
A45F
330
A2E6
100
AcDbEntity
  8
1
  6
Continuous
100
AcDbCircle
 10
245.2363389999999
 20
87.422368
 30
0.0
 40
24.9
100
AcDbArc
 50
30.132939
 51
133.809198
  0
ARC
  5
A460
330
A2E6
100
AcDbEntity
  8
1
  6
Continuous
100
AcDbCircle
 10
245.2363389999999
 20
87.422368
 30
0.0
 40
27.5
100
AcDbArc
 50
26.237932
 51
132.092443
  0
ARC
  5
A461
330
A2E6
100
AcDbEntity
  8
1
  6
Continuous
100
AcDbCircle
 10
245.2363389999999
 20
87.422368
 30
0.0
 40
20.89999999999999
100
AcDbArc
 50
36.732949
 51
140.9558719999999
  0
ARC
  5
A462
330
A2E6
100
AcDbEntity
  8
1
  6
Continuous
100
AcDbCircle
 10
245.2363389999999
 20
87.422368
 30
0.0
 40
20.89999999999999
100
AcDbArc
 50
219.044124
 51
323.267051
  0
ARC
  5
A463
330
A2E6
100
AcDbEntity
  8
1
  6
Continuous
100
AcDbCircle
 10
517.2311480000002
 20
230.148739
 30
0.0
 40
65.0
100
AcDbArc
 50
140.5479049999999
 51
93.30358600000002
  0
CIRCLE
  5
A464
330
A2E6
100
AcDbEntity
  8
1
  6
Continuous
100
AcDbCircle
 10
538.391417
 20
259.27335
 30
0.0
 40
3.5
  0
ARC
  5
A465
330
A2E6
100
AcDbEntity
  8
1
  6
Continuous
100
AcDbCircle
 10
517.2311480000002
 20
230.148739
 30
0.0
 40
40.0
100
AcDbArc
 50
152.099354
 51
91.53655399999998
  0
LINE
  5
A466
330
A2E6
100
AcDbEntity
  8
4
  6
CENTER
100
AcDbLine
 10
444.2311479999998
 20
230.148739
 30
0.0
 11
590.2311479999998
 21
230.148739
 31
0.0
  0
ARC
  5
A467
330
A2E6
100
AcDbEntity
  8
1
  6
Continuous
100
AcDbCircle
 10
517.2311480000002
 20
230.148739
 30
0.0
 40
53.5
100
AcDbArc
 50
144.7682409999998
 51
93.32942199999999
  0
CIRCLE
  5
A468
330
A2E6
100
AcDbEntity
  8
1
  6
Continuous
100
AcDbCircle
 10
551.469182
 20
219.024127
 30
0.0
 40
3.5
  0
ARC
  5
A469
330
A2E6
100
AcDbEntity
  8
1
  6
Continuous
100
AcDbCircle
 10
619.147723
 20
352.1749449999999
 30
0.0
 40
171.799
100
AcDbArc
 50
200.3009159999999
 51
230.062209
  0
ARC
  5
A46A
330
A2E6
100
AcDbEntity
  8
1
  6
Continuous
100
AcDbCircle
 10
645.718975
 20
296.636365
 30
0.0
 40
132.243177
100
AcDbArc
 50
177.4095369999998
 51
207.314435
  0
LINE
  5
A46B
330
A2E6
100
AcDbEntity
  8
1
  6
Continuous
100
AcDbLine
 10
502.7034269999998
 20
301.319268
 30
0.0
 11
502.7034269999998
 21
231.314644
 31
0.0
  0
LINE
  5
A46C
330
A2E6
100
AcDbEntity
  8
4
  6
CENTER
100
AcDbLine
 10
481.2311479999998
 20
249.735135
 30
0.0
 11
481.2311479999998
 21
320.148739
 31
0.0
  0
CIRCLE
  5
A46D
330
A2E6
100
AcDbEntity
  8
1
  6
Continuous
100
AcDbCircle
 10
482.993113
 20
219.024127
 30
0.0
 40
3.5
  0
ARC
  5
A46E
330
A2E6
100
AcDbEntity
  8
1
  6
Continuous
100
AcDbCircle
 10
516.9811479999999
 20
230.148739
 30
0.0
 40
12.65
100
AcDbArc
 50
230.062209
 51
27.31443499999999
  0
CIRCLE
  5
A46F
330
A2E6
100
AcDbEntity
  8
1
  6
Continuous
100
AcDbCircle
 10
517.2311480000002
 20
194.1487389999998
 30
0.0
 40
3.5
  0
CIRCLE
  5
A470
330
A2E6
100
AcDbEntity
  8
1
  6
Continuous
100
AcDbCircle
 10
517.2311480000002
 20
230.148739
 30
0.0
 40
7.0
  0
LINE
  5
A471
330
A2E6
100
AcDbEntity
  8
1
  6
Continuous
100
AcDbLine
 10
470.5156099999999
 20
304.8337389999999
 30
0.0
 11
472.5156099999998
 21
306.940739
 31
0.0
  0
LINE
  5
A472
330
A2E6
100
AcDbEntity
  8
1
  6
Continuous
100
AcDbLine
 10
472.5156099999998
 20
304.8337389999999
 30
0.0
 11
470.5156099999999
 21
306.940739
 31
0.0
  0
LINE
  5
A473
330
A2E6
100
AcDbEntity
  8
1
  6
Continuous
100
AcDbLine
 10
454.545048
 20
304.8337389999999
 30
0.0
 11
507.9172479999998
 21
304.8337389999999
 31
0.0
  0
LINE
  5
A474
330
A2E6
100
AcDbEntity
  8
1
  6
Continuous
100
AcDbLine
 10
454.545048
 20
306.940739
 30
0.0
 11
507.9172479999998
 21
306.940739
 31
0.0
  0
LINE
  5
A475
330
A2E6
100
AcDbEntity
  8
1
  6
Continuous
100
AcDbLine
 10
431.7311479999998
 20
312.249124
 30
0.0
 11
530.731148
 21
312.249124
 31
0.0
  0
LINE
  5
A476
330
A2E6
100
AcDbEntity
  8
1
  6
Continuous
100
AcDbLine
 10
451.9585779999998
 20
308.775739
 30
0.0
 11
510.503717
 21
308.775739
 31
0.0
  0
LINE
  5
A477
330
A2E6
100
AcDbEntity
  8
1
  6
Continuous
100
AcDbLine
 10
530.731148
 20
315.1487389999999
 30
0.0
 11
431.7311479999998
 21
315.1487389999999
 31
0.0
  0
ARC
  5
A478
330
A2E6
100
AcDbEntity
  8
1
  6
Continuous
100
AcDbCircle
 10
510.503717
 20
316.2757389999999
 30
0.0
 40
7.5
100
AcDbArc
 50
270.0
 51
327.528368
  0
ARC
  5
A479
330
A2E6
100
AcDbEntity
  8
1
  6
Continuous
100
AcDbCircle
 10
499.6295359999998
 20
313.5245750000001
 30
0.0
 40
9.0
100
AcDbArc
 50
312.9845629999999
 51
328.1532869999999
  0
LINE
  5
A47A
330
A2E6
100
AcDbEntity
  8
4
  6
CENTER
100
AcDbLine
 10
521.2311480000002
 20
307.249124
 30
0.0
 11
521.2311480000002
 21
320.148739
 31
0.0
  0
LINE
  5
A47B
330
A2E6
100
AcDbEntity
  8
1
  6
Continuous
100
AcDbLine
 10
504.456736
 20
304.8337389999999
 30
0.0
 11
506.4567359999998
 21
306.940739
 31
0.0
  0
LINE
  5
A47C
330
A2E6
100
AcDbEntity
  8
1
  6
Continuous
100
AcDbLine
 10
506.4567359999998
 20
304.8337389999999
 30
0.0
 11
504.456736
 21
306.940739
 31
0.0
  0
LINE
  5
A47D
330
A2E6
100
AcDbEntity
  8
1
  6
Continuous
100
AcDbLine
 10
517.0487759999998
 20
302.612789
 30
0.0
 11
502.7038319999999
 21
302.612789
 31
0.0
  0
LINE
  5
A47E
330
A2E6
100
AcDbEntity
  8
1
  6
Continuous
100
AcDbLine
 10
517.207383
 20
300.059162
 30
0.0
 11
513.5201009999998
 21
300.059162
 31
0.0
  0
ARC
  5
A47F
330
A2E6
100
AcDbEntity
  8
1
  6
Continuous
100
AcDbCircle
 10
517.0487759999998
 20
299.0809509999999
 30
0.0
 40
3.531837999999998
100
AcDbArc
 50
71.205477
 51
90.0
  0
ARC
  5
A480
330
A2E6
100
AcDbEntity
  8
1
  6
Continuous
100
AcDbCircle
 10
517.207383
 20
304.0017989999999
 30
0.0
 40
3.942636999999998
100
AcDbArc
 50
270.0
 51
284.133642
  0
LINE
  5
A481
330
A2E6
100
AcDbEntity
  8
1
  6
Continuous
100
AcDbLine
 10
518.170113
 20
300.17851
 30
0.0
 11
518.305815
 21
300.3424509999998
 31
0.0
  0
ARC
  5
A482
330
A2E6
100
AcDbEntity
  8
1
  6
Continuous
100
AcDbCircle
 10
517.889276
 20
301.5506779999999
 30
0.0
 40
0.9230079999999999
100
AcDbArc
 50
55.331088
 51
71.205477
  0
ARC
  5
A483
330
A2E6
100
AcDbEntity
  8
1
  6
Continuous
100
AcDbCircle
 10
526.731707
 20
299.681799
 30
0.0
 40
8.451753
100
AcDbArc
 50
166.82934
 51
175.516763
  0
ARC
  5
A484
330
A2E6
100
AcDbEntity
  8
1
  6
Continuous
100
AcDbCircle
 10
516.331804
 20
301.692338
 30
0.0
 40
2.172123
100
AcDbArc
 50
357.762921
 51
16.515265
  0
ARC
  5
A485
330
A2E6
100
AcDbEntity
  8
1
  6
Continuous
100
AcDbCircle
 10
508.74217
 20
303.7620889999999
 30
0.0
 40
1.188780999999998
100
AcDbArc
 50
177.8908409999999
 51
255.1922279999998
  0
LINE
  5
A486
330
A2E6
100
AcDbEntity
  8
1
  6
Continuous
100
AcDbLine
 10
507.9172479999998
 20
306.940739
 30
0.0
 11
507.9172479999998
 21
304.8337389999999
 31
0.0
  0
LINE
  5
A487
330
A2E6
100
AcDbEntity
  8
1
  6
Continuous
100
AcDbLine
 10
507.9172479999998
 20
306.308654
 30
0.0
 11
507.285163
 21
306.940739
 31
0.0
  0
ARC
  5
A488
330
A2E6
100
AcDbEntity
  8
1
  6
Continuous
100
AcDbCircle
 10
505.3587639999998
 20
303.125599
 30
0.0
 40
2.298399999999999
100
AcDbArc
 50
17.21530399999998
 51
48.003581
  0
LINE
  5
A489
330
A2E6
100
AcDbEntity
  8
1
  6
Continuous
100
AcDbLine
 10
506.5780559999998
 20
304.8337389999999
 30
0.0
 11
507.9172479999998
 21
306.27993
 31
0.0
  0
LINE
  5
A48A
330
A2E6
100
AcDbEntity
  8
1
  6
Continuous
100
AcDbLine
 10
487.4861730000001
 20
304.8337389999999
 30
0.0
 11
489.486173
 21
306.940739
 31
0.0
  0
LINE
  5
A48B
330
A2E6
100
AcDbEntity
  8
1
  6
Continuous
100
AcDbLine
 10
489.486173
 20
304.8337389999999
 30
0.0
 11
487.4861730000001
 21
306.940739
 31
0.0
  0
LINE
  5
A48C
330
A2E6
100
AcDbEntity
  8
1
  6
Continuous
100
AcDbLine
 10
493.850134
 20
304.8337389999999
 30
0.0
 11
495.8501339999998
 21
306.940739
 31
0.0
  0
LINE
  5
A48D
330
A2E6
100
AcDbEntity
  8
1
  6
Continuous
100
AcDbLine
 10
495.1430269999998
 20
304.8337389999999
 30
0.0
 11
493.1430269999999
 21
306.940739
 31
0.0
  0
LINE
  5
A48E
330
A2E6
100
AcDbEntity
  8
1
  6
Continuous
100
AcDbLine
 10
500.214095
 20
304.8337389999999
 30
0.0
 11
502.2140949999998
 21
306.940739
 31
0.0
  0
LINE
  5
A48F
330
A2E6
100
AcDbEntity
  8
1
  6
Continuous
100
AcDbLine
 10
495.971455
 20
304.8337389999999
 30
0.0
 11
497.9714549999997
 21
306.940739
 31
0.0
  0
LINE
  5
A490
330
A2E6
100
AcDbEntity
  8
1
  6
Continuous
100
AcDbLine
 10
497.9714549999997
 20
304.8337389999999
 30
0.0
 11
495.971455
 21
306.940739
 31
0.0
  0
LINE
  5
A491
330
A2E6
100
AcDbEntity
  8
1
  6
Continuous
100
AcDbLine
 10
498.092775
 20
304.8337389999999
 30
0.0
 11
500.092775
 21
306.940739
 31
0.0
  0
LINE
  5
A492
330
A2E6
100
AcDbEntity
  8
1
  6
Continuous
100
AcDbLine
 10
500.799882
 20
304.8337389999999
 30
0.0
 11
498.799882
 21
306.940739
 31
0.0
  0
ARC
  5
A493
330
A2E6
100
AcDbEntity
  8
1
  6
Continuous
100
AcDbCircle
 10
505.0495480000001
 20
303.040206
 30
0.0
 40
2.384338999999997
100
AcDbArc
 50
131.2174919999999
 51
190.32668
  0
LINE
  5
A494
330
A2E6
100
AcDbEntity
  8
1
  6
Continuous
100
AcDbLine
 10
502.335416
 20
304.8337389999999
 30
0.0
 11
504.3354159999998
 21
306.940739
 31
0.0
  0
LINE
  5
A495
330
A2E6
100
AcDbEntity
  8
1
  6
Continuous
100
AcDbLine
 10
503.628309
 20
304.8337389999999
 30
0.0
 11
501.6283089999998
 21
306.940739
 31
0.0
  0
LINE
  5
A496
330
A2E6
100
AcDbEntity
  8
1
  6
Continuous
100
AcDbLine
 10
491.7288139999998
 20
304.8337389999999
 30
0.0
 11
493.7288139999998
 21
306.940739
 31
0.0
  0
LINE
  5
A497
330
A2E6
100
AcDbEntity
  8
1
  6
Continuous
100
AcDbLine
 10
492.3146
 20
304.8337389999999
 30
0.0
 11
490.3145999999998
 21
306.940739
 31
0.0
  0
LINE
  5
A498
330
A2E6
100
AcDbEntity
  8
1
  6
Continuous
100
AcDbLine
 10
489.607494
 20
304.8337389999999
 30
0.0
 11
491.6074939999998
 21
306.940739
 31
0.0
  0
LINE
  5
A499
330
A2E6
100
AcDbEntity
  8
1
  6
Continuous
100
AcDbLine
 10
478.172465
 20
304.8337389999999
 30
0.0
 11
476.1724649999998
 21
306.940739
 31
0.0
  0
LINE
  5
A49A
330
A2E6
100
AcDbEntity
  8
1
  6
Continuous
100
AcDbLine
 10
476.879571
 20
304.8337389999999
 30
0.0
 11
478.879571
 21
306.940739
 31
0.0
  0
LINE
  5
A49B
330
A2E6
100
AcDbEntity
  8
1
  6
Continuous
100
AcDbLine
 10
483.243533
 20
304.8337389999999
 30
0.0
 11
485.243533
 21
306.940739
 31
0.0
  0
LINE
  5
A49C
330
A2E6
100
AcDbEntity
  8
1
  6
Continuous
100
AcDbLine
 10
486.657746
 20
304.8337389999999
 30
0.0
 11
484.6577459999998
 21
306.940739
 31
0.0
  0
LINE
  5
A49D
330
A2E6
100
AcDbEntity
  8
1
  6
Continuous
100
AcDbLine
 10
479.000892
 20
304.8337389999999
 30
0.0
 11
481.0008919999998
 21
306.940739
 31
0.0
  0
LINE
  5
A49E
330
A2E6
100
AcDbEntity
  8
1
  6
Continuous
100
AcDbLine
 10
481.0008919999998
 20
304.8337389999999
 30
0.0
 11
479.000892
 21
306.940739
 31
0.0
  0
LINE
  5
A49F
330
A2E6
100
AcDbEntity
  8
1
  6
Continuous
100
AcDbLine
 10
481.122212
 20
304.8337389999999
 30
0.0
 11
483.1222119999998
 21
306.940739
 31
0.0
  0
LINE
  5
A4A0
330
A2E6
100
AcDbEntity
  8
1
  6
Continuous
100
AcDbLine
 10
483.829319
 20
304.8337389999999
 30
0.0
 11
481.829319
 21
306.940739
 31
0.0
  0
LINE
  5
A4A1
330
A2E6
100
AcDbEntity
  8
1
  6
Continuous
100
AcDbLine
 10
485.364853
 20
304.8337389999999
 30
0.0
 11
487.3648529999998
 21
306.940739
 31
0.0
  0
LINE
  5
A4A2
330
A2E6
100
AcDbEntity
  8
1
  6
Continuous
100
AcDbLine
 10
474.7582509999999
 20
304.8337389999999
 30
0.0
 11
476.7582509999998
 21
306.940739
 31
0.0
  0
LINE
  5
A4A3
330
A2E6
100
AcDbEntity
  8
1
  6
Continuous
100
AcDbLine
 10
475.3440379999998
 20
304.8337389999999
 30
0.0
 11
473.344038
 21
306.940739
 31
0.0
  0
LINE
  5
A4A4
330
A2E6
100
AcDbEntity
  8
1
  6
Continuous
100
AcDbLine
 10
472.6369309999998
 20
304.8337389999999
 30
0.0
 11
474.6369309999998
 21
306.940739
 31
0.0
  0
LINE
  5
A4A5
330
A2E6
100
AcDbEntity
  8
1
  6
Continuous
100
AcDbLine
 10
530.731148
 20
312.249124
 30
0.0
 11
530.731148
 21
315.133279
 31
0.0
  0
ARC
  5
A4A6
330
A2E6
100
AcDbEntity
  8
1
  6
Continuous
100
AcDbCircle
 10
451.9585779999998
 20
316.2757389999999
 30
0.0
 40
7.5
100
AcDbArc
 50
212.4716319999998
 51
270.0
  0
LINE
  5
A4A7
330
A2E6
100
AcDbEntity
  8
4
  6
CENTER
100
AcDbLine
 10
441.231148
 20
307.249124
 30
0.0
 11
441.231148
 21
320.148739
 31
0.0
  0
ARC
  5
A4A8
330
A2E6
100
AcDbEntity
  8
1
  6
Continuous
100
AcDbCircle
 10
463.174798
 20
313.1883199999998
 30
0.0
 40
9.0
100
AcDbArc
 50
209.359435
 51
223.961567
  0
LINE
  5
A4A9
330
A2E6
100
AcDbEntity
  8
1
  6
Continuous
100
AcDbLine
 10
455.5450480000001
 20
304.8337389999999
 30
0.0
 11
454.545048
 21
305.940739
 31
0.0
  0
LINE
  5
A4AA
330
A2E6
100
AcDbEntity
  8
1
  6
Continuous
100
AcDbLine
 10
455.5450480000001
 20
306.940739
 30
0.0
 11
454.545048
 21
305.940739
 31
0.0
  0
ARC
  5
A4AB
330
A2E6
100
AcDbEntity
  8
1
  6
Continuous
100
AcDbCircle
 10
453.879004
 20
290.754186
 30
0.0
 40
4.521554
100
AcDbArc
 50
23.66618499999999
 51
91.87393099999995
  0
LINE
  5
A4AC
330
A2E6
100
AcDbEntity
  8
1
  6
Continuous
100
AcDbLine
 10
459.9090089999998
 20
304.8337389999999
 30
0.0
 11
461.9090089999998
 21
306.940739
 31
0.0
  0
LINE
  5
A4AD
330
A2E6
100
AcDbEntity
  8
1
  6
Continuous
100
AcDbLine
 10
468.3942899999998
 20
304.8337389999999
 30
0.0
 11
470.39429
 21
306.940739
 31
0.0
  0
LINE
  5
A4AE
330
A2E6
100
AcDbEntity
  8
1
  6
Continuous
100
AcDbLine
 10
469.687183
 20
304.8337389999999
 30
0.0
 11
467.687183
 21
306.940739
 31
0.0
  0
LINE
  5
A4AF
330
A2E6
100
AcDbEntity
  8
1
  6
Continuous
100
AcDbLine
 10
464.1516489999998
 20
304.8337389999999
 30
0.0
 11
466.151649
 21
306.940739
 31
0.0
  0
LINE
  5
A4B0
330
A2E6
100
AcDbEntity
  8
1
  6
Continuous
100
AcDbLine
 10
466.2729699999998
 20
304.8337389999999
 30
0.0
 11
468.27297
 21
306.940739
 31
0.0
  0
LINE
  5
A4B1
330
A2E6
100
AcDbEntity
  8
1
  6
Continuous
100
AcDbLine
 10
466.8587559999998
 20
304.8337389999999
 30
0.0
 11
464.858756
 21
306.940739
 31
0.0
  0
LINE
  5
A4B2
330
A2E6
100
AcDbEntity
  8
1
  6
Continuous
100
AcDbLine
 10
462.0303289999998
 20
304.8337389999999
 30
0.0
 11
464.030329
 21
306.940739
 31
0.0
  0
LINE
  5
A4B3
330
A2E6
100
AcDbEntity
  8
1
  6
Continuous
100
AcDbLine
 10
464.030329
 20
304.8337389999999
 30
0.0
 11
462.0303289999998
 21
306.940739
 31
0.0
  0
LINE
  5
A4B4
330
A2E6
100
AcDbEntity
  8
1
  6
Continuous
100
AcDbLine
 10
458.3734749999998
 20
304.8337389999999
 30
0.0
 11
456.373475
 21
306.940739
 31
0.0
  0
LINE
  5
A4B5
330
A2E6
100
AcDbEntity
  8
1
  6
Continuous
100
AcDbLine
 10
461.2019019999998
 20
304.8337389999999
 30
0.0
 11
459.2019019999998
 21
306.940739
 31
0.0
  0
LINE
  5
A4B6
330
A2E6
100
AcDbEntity
  8
1
  6
Continuous
100
AcDbLine
 10
457.7876879999998
 20
304.8337389999999
 30
0.0
 11
459.787688
 21
306.940739
 31
0.0
  0
LINE
  5
A4B7
330
A2E6
100
AcDbEntity
  8
1
  6
Continuous
100
AcDbLine
 10
455.6663679999998
 20
304.8337389999999
 30
0.0
 11
457.666368
 21
306.940739
 31
0.0
  0
ARC
  5
A4B8
330
A2E6
100
AcDbEntity
  8
1
  6
Continuous
100
AcDbCircle
 10
460.2145649999997
 20
300.673624
 30
0.0
 40
6.768752
100
AcDbArc
 50
151.3767689999999
 51
163.3045389999998
  0
ARC
  5
A4B9
330
A2E6
100
AcDbEntity
  8
1
  6
Continuous
100
AcDbCircle
 10
456.9578169999998
 20
302.4509739999999
 30
0.0
 40
3.058577999999998
100
AcDbArc
 50
128.8269479999998
 51
151.3767689999999
  0
LINE
  5
A4BA
330
A2E6
100
AcDbEntity
  8
1
  6
Continuous
100
AcDbLine
 10
454.545048
 20
304.8337389999999
 30
0.0
 11
454.545048
 21
306.940739
 31
0.0
  0
LINE
  5
A4BB
330
A2E6
100
AcDbEntity
  8
1
  6
Continuous
100
AcDbLine
 10
453.731148
 20
295.273323
 30
0.0
 11
453.731148
 21
302.618183
 31
0.0
  0
LINE
  5
A4BC
330
A2E6
100
AcDbEntity
  8
1
  6
Continuous
100
AcDbLine
 10
431.7311479999998
 20
312.249124
 30
0.0
 11
431.7311479999998
 21
315.1487389999999
 31
0.0
  0
LINE
  5
A4BD
330
A2E6
100
AcDbEntity
  8
1
  6
Continuous
100
AcDbLine
 10
91.586929
 20
236.1487529999999
 30
0.0
 11
91.586929
 21
224.1487529999999
 31
0.0
  0
ARC
  5
A4BE
330
A2E6
100
AcDbEntity
  8
1
  6
Continuous
100
AcDbCircle
 10
80.12282799999999
 20
230.1487529999999
 30
0.0
 40
11.464102
100
AcDbArc
 50
342.4120459999999
 51
17.587954
  0
ARC
  5
A4BF
330
A2E6
100
AcDbEntity
  8
1
  6
Continuous
100
AcDbCircle
 10
98.05103100000003
 20
230.1487529999999
 30
0.0
 40
11.464102
100
AcDbArc
 50
162.412046
 51
197.5879539999999
  0
LINE
  5
A4C0
330
A2E6
100
AcDbEntity
  8
1
  6
Continuous
100
AcDbLine
 10
86.586929
 20
236.1487529999999
 30
0.0
 11
86.586929
 21
224.1487529999999
 31
0.0
  0
LINE
  5
A4C1
330
A2E6
100
AcDbEntity
  8
1
  6
Continuous
100
AcDbLine
 10
91.05103099999999
 20
223.2205490000001
 30
0.0
 11
91.586929
 21
224.1487529999999
 31
0.0
  0
LINE
  5
A4C2
330
A2E6
100
AcDbEntity
  8
1
  6
Continuous
100
AcDbLine
 10
87.122828
 20
223.2205490000001
 30
0.0
 11
86.586929
 21
224.1487529999999
 31
0.0
  0
LINE
  5
A4C3
330
A2E6
100
AcDbEntity
  8
1
  6
Continuous
100
AcDbLine
 10
87.122828
 20
223.2205490000001
 30
0.0
 11
91.05103099999999
 21
223.2205490000001
 31
0.0
  0
LINE
  5
A4C4
330
A2E6
100
AcDbEntity
  8
1
  6
Continuous
100
AcDbLine
 10
87.122828
 20
226.6846509999998
 30
0.0
 11
91.05103099999999
 21
226.6846509999998
 31
0.0
  0
ARC
  5
A4C5
330
A2E6
100
AcDbEntity
  8
1
  6
Continuous
100
AcDbCircle
 10
89.65391600000002
 20
224.9525999999999
 30
0.0
 40
3.066986999999998
100
AcDbArc
 50
145.615753
 51
205.615753
  0
ARC
  5
A4C6
330
A2E6
100
AcDbEntity
  8
1
  6
Continuous
100
AcDbCircle
 10
88.519942
 20
224.9525999999999
 30
0.0
 40
3.066986999999998
100
AcDbArc
 50
334.384247
 51
34.38424699999998
  0
ARC
  5
A4C7
330
A2E6
100
AcDbEntity
  8
1
  6
Continuous
100
AcDbCircle
 10
88.519942
 20
235.344905
 30
0.0
 40
3.066986999999998
100
AcDbArc
 50
325.6157529999999
 51
25.615753
  0
ARC
  5
A4C8
330
A2E6
100
AcDbEntity
  8
1
  6
Continuous
100
AcDbCircle
 10
89.65391600000002
 20
235.344905
 30
0.0
 40
3.066986999999998
100
AcDbArc
 50
154.3842469999999
 51
214.384247
  0
LINE
  5
A4C9
330
A2E6
100
AcDbEntity
  8
1
  6
Continuous
100
AcDbLine
 10
87.122828
 20
233.612854
 30
0.0
 11
91.05103099999999
 21
233.612854
 31
0.0
  0
LINE
  5
A4CA
330
A2E6
100
AcDbEntity
  8
1
  6
Continuous
100
AcDbLine
 10
87.122828
 20
237.0769559999998
 30
0.0
 11
91.05103099999999
 21
237.0769559999998
 31
0.0
  0
LINE
  5
A4CB
330
A2E6
100
AcDbEntity
  8
1
  6
Continuous
100
AcDbLine
 10
87.122828
 20
237.0769559999998
 30
0.0
 11
86.586929
 21
236.1487529999999
 31
0.0
  0
LINE
  5
A4CC
330
A2E6
100
AcDbEntity
  8
1
  6
Continuous
100
AcDbLine
 10
91.05103099999999
 20
237.0769559999998
 30
0.0
 11
91.586929
 21
236.1487529999999
 31
0.0
  0
ARC
  5
A4CD
330
A2E6
100
AcDbEntity
  8
1
  6
Continuous
100
AcDbCircle
 10
212.2363389999999
 20
116.435427
 30
0.0
 40
8.665063999999999
100
AcDbArc
 50
249.7438419999999
 51
290.256158
  0
ARC
  5
A4CE
330
A2E6
100
AcDbEntity
  8
1
  6
Continuous
100
AcDbCircle
 10
212.2363389999999
 20
104.1053
 30
0.0
 40
8.665063999999999
100
AcDbArc
 50
69.743842
 51
110.256158
  0
LINE
  5
A4CF
330
A2E6
100
AcDbEntity
  8
1
  6
Continuous
100
AcDbLine
 10
203.2363389999999
 20
112.7703629999998
 30
0.0
 11
215.236339
 21
112.7703629999998
 31
0.0
  0
LINE
  5
A4D0
330
A2E6
100
AcDbEntity
  8
1
  6
Continuous
100
AcDbLine
 10
215.236339
 20
112.7703629999998
 30
0.0
 11
215.236339
 21
107.770363
 31
0.0
  0
ARC
  5
A4D1
330
A2E6
100
AcDbEntity
  8
1
  6
Continuous
100
AcDbCircle
 10
206.2363389999999
 20
116.435427
 30
0.0
 40
8.665063999999999
100
AcDbArc
 50
249.7438419999999
 51
290.256158
  0
ARC
  5
A4D2
330
A2E6
100
AcDbEntity
  8
1
  6
Continuous
100
AcDbCircle
 10
206.2363389999999
 20
104.1053
 30
0.0
 40
8.665063999999999
100
AcDbArc
 50
69.743842
 51
110.256158
  0
LINE
  5
A4D3
330
A2E6
100
AcDbEntity
  8
1
  6
Continuous
100
AcDbLine
 10
209.236339
 20
108.306262
 30
0.0
 11
209.236339
 21
112.2344649999998
 31
0.0
  0
LINE
  5
A4D4
330
A2E6
100
AcDbEntity
  8
1
  6
Continuous
100
AcDbLine
 10
203.2363389999999
 20
112.7703629999998
 30
0.0
 11
203.2363389999999
 21
107.770363
 31
0.0
  0
LINE
  5
A4D5
330
A2E6
100
AcDbEntity
  8
1
  6
Continuous
100
AcDbLine
 10
203.2363389999999
 20
233.612841
 30
0.0
 11
203.2363389999999
 21
226.684638
 31
0.0
  0
LINE
  5
A4D6
330
A2E6
100
AcDbEntity
  8
1
  6
Continuous
100
AcDbLine
 10
215.236339
 20
233.612841
 30
0.0
 11
215.236339
 21
226.684638
 31
0.0
  0
CIRCLE
  5
A4D7
330
A2E6
100
AcDbEntity
  8
1
  6
Continuous
100
AcDbCircle
 10
209.236339
 20
230.148739
 30
0.0
 40
6.0
  0
LINE
  5
A4D8
330
A2E6
100
AcDbEntity
  8
1
  6
Continuous
100
AcDbLine
 10
209.236339
 20
223.220536
 30
0.0
 11
215.236339
 21
226.684638
 31
0.0
  0
LINE
  5
A4D9
330
A2E6
100
AcDbEntity
  8
1
  6
Continuous
100
AcDbLine
 10
209.236339
 20
223.220536
 30
0.0
 11
203.2363389999999
 21
226.684638
 31
0.0
  0
LINE
  5
A4DA
330
A2E6
100
AcDbEntity
  8
1
  6
Continuous
100
AcDbLine
 10
215.236339
 20
233.612841
 30
0.0
 11
209.236339
 21
237.076942
 31
0.0
  0
LINE
  5
A4DB
330
A2E6
100
AcDbEntity
  8
1
  6
Continuous
100
AcDbLine
 10
203.2363389999999
 20
233.612841
 30
0.0
 11
209.236339
 21
237.076942
 31
0.0
  0
CIRCLE
  5
A4DC
330
A2E6
100
AcDbEntity
  8
1
  6
Continuous
100
AcDbCircle
 10
209.236339
 20
230.148739
 30
0.0
 40
4.0
  0
CIRCLE
  5
A4DD
330
A2E6
100
AcDbEntity
  8
2
  6
Continuous
100
AcDbCircle
 10
209.236339
 20
230.148739
 30
0.0
 40
3.3235
  0
LINE
  5
A4DE
330
A2E6
100
AcDbEntity
  8
1
  6
Continuous
100
AcDbLine
 10
338.434365
 20
236.9269379999999
 30
0.0
 11
337.8984669999999
 21
235.998735
 31
0.0
  0
LINE
  5
A4DF
330
A2E6
100
AcDbEntity
  8
1
  6
Continuous
100
AcDbLine
 10
340.290917
 20
236.9269379999999
 30
0.0
 11
338.434365
 21
236.9269379999999
 31
0.0
  0
LINE
  5
A4E0
330
A2E6
100
AcDbEntity
  8
1
  6
Continuous
100
AcDbLine
 10
342.362568
 20
233.4628359999999
 30
0.0
 11
338.434365
 21
233.4628359999999
 31
0.0
  0
ARC
  5
A4E1
330
A2E6
100
AcDbEntity
  8
1
  6
Continuous
100
AcDbCircle
 10
340.965454
 20
235.194887
 30
0.0
 40
3.066986999999998
100
AcDbArc
 50
154.3842469999999
 51
214.384247
  0
ARC
  5
A4E2
330
A2E6
100
AcDbEntity
  8
1
  6
Continuous
100
AcDbCircle
 10
340.965454
 20
224.8025819999998
 30
0.0
 40
3.066986999999998
100
AcDbArc
 50
145.615753
 51
205.615753
  0
ARC
  5
A4E3
330
A2E6
100
AcDbEntity
  8
1
  6
Continuous
100
AcDbCircle
 10
339.831479
 20
224.8025819999998
 30
0.0
 40
3.066986999999998
100
AcDbArc
 50
334.384247
 51
34.38424699999998
  0
LINE
  5
A4E4
330
A2E6
100
AcDbEntity
  8
1
  6
Continuous
100
AcDbLine
 10
342.362568
 20
226.534633
 30
0.0
 11
338.434365
 21
226.534633
 31
0.0
  0
LINE
  5
A4E5
330
A2E6
100
AcDbEntity
  8
1
  6
Continuous
100
AcDbLine
 10
342.362568
 20
223.0705309999999
 30
0.0
 11
338.434365
 21
223.0705309999999
 31
0.0
  0
LINE
  5
A4E6
330
A2E6
100
AcDbEntity
  8
1
  6
Continuous
100
AcDbLine
 10
342.362568
 20
223.0705309999999
 30
0.0
 11
342.8984669999999
 21
223.998735
 31
0.0
  0
LINE
  5
A4E7
330
A2E6
100
AcDbEntity
  8
1
  6
Continuous
100
AcDbLine
 10
338.434365
 20
223.0705309999999
 30
0.0
 11
337.8984669999999
 21
223.998735
 31
0.0
  0
LINE
  5
A4E8
330
A2E6
100
AcDbEntity
  8
1
  6
Continuous
100
AcDbLine
 10
342.8984669999999
 20
232.639106
 30
0.0
 11
342.8984669999999
 21
223.998735
 31
0.0
  0
ARC
  5
A4E9
330
A2E6
100
AcDbEntity
  8
1
  6
Continuous
100
AcDbCircle
 10
331.434365
 20
229.998735
 30
0.0
 40
11.464102
100
AcDbArc
 50
342.4120459999999
 51
17.587954
  0
ARC
  5
A4EA
330
A2E6
100
AcDbEntity
  8
1
  6
Continuous
100
AcDbCircle
 10
349.362568
 20
229.998735
 30
0.0
 40
11.464102
100
AcDbArc
 50
162.412046
 51
197.5879539999999
  0
LINE
  5
A4EB
330
A2E6
100
AcDbEntity
  8
1
  6
Continuous
100
AcDbLine
 10
337.8984669999999
 20
235.998735
 30
0.0
 11
337.8984669999999
 21
223.998735
 31
0.0
  0
LINE
  5
A4EC
330
A2E6
100
AcDbEntity
  8
1
  6
Continuous
100
AcDbLine
 10
344.8984669999999
 20
222.498735
 30
0.0
 11
342.8984669999999
 21
222.498735
 31
0.0
  0
LINE
  5
A4ED
330
A2E6
100
AcDbEntity
  8
1
  6
Continuous
100
AcDbLine
 10
342.8984669999999
 20
222.498735
 30
0.0
 11
342.8984669999999
 21
232.639106
 31
0.0
  0
LINE
  5
A4EE
330
A2E6
100
AcDbEntity
  8
1
  6
Continuous
100
AcDbLine
 10
343.9449569999999
 20
231.0452249999999
 30
0.0
 11
342.8984669999999
 21
229.998735
 31
0.0
  0
LINE
  5
A4EF
330
A2E6
100
AcDbEntity
  8
1
  6
Continuous
100
AcDbLine
 10
344.5234169999998
 20
229.6439279999999
 30
0.0
 11
342.8984669999999
 21
228.018977
 31
0.0
  0
LINE
  5
A4F0
330
A2E6
100
AcDbEntity
  8
1
  6
Continuous
100
AcDbLine
 10
203.2363389999999
 20
367.5271149999999
 30
0.0
 11
203.2363389999999
 21
368.62511
 31
0.0
  0
ARC
  5
A4F1
330
A2E6
100
AcDbEntity
  8
1
  6
Continuous
100
AcDbCircle
 10
206.2363389999999
 20
376.192179
 30
0.0
 40
8.665063999999999
100
AcDbArc
 50
249.7438419999999
 51
284.0098449999999
  0
LINE
  5
A4F2
330
A2E6
100
AcDbEntity
  8
1
  6
Continuous
100
AcDbLine
 10
203.2363389999999
 20
367.5271149999999
 30
0.0
 11
208.5573879999998
 21
367.5271149999999
 31
0.0
  0
CIRCLE
  5
A4F3
330
A2E6
100
AcDbEntity
  8
1
  6
Continuous
100
AcDbCircle
 10
209.236339
 20
230.148739
 30
0.0
 40
7.5
  0
LINE
  5
A4F4
330
A2E6
100
AcDbEntity
  8
1
  6
Continuous
100
AcDbLine
 10
205.236339
 20
113.6703629999999
 30
0.0
 11
213.236339
 21
113.6703629999999
 31
0.0
  0
LINE
  5
A4F5
330
A2E6
100
AcDbEntity
  8
1
  6
Continuous
100
AcDbLine
 10
206.2363389999999
 20
114.6703629999999
 30
0.0
 11
212.2363389999999
 21
114.6703629999999
 31
0.0
  0
LINE
  5
A4F6
330
A2E6
100
AcDbEntity
  8
1
  6
Continuous
100
AcDbLine
 10
205.236339
 20
112.7703629999998
 30
0.0
 11
205.236339
 21
113.6703629999999
 31
0.0
  0
LINE
  5
A4F7
330
A2E6
100
AcDbEntity
  8
1
  6
Continuous
100
AcDbLine
 10
213.236339
 20
112.7703629999998
 30
0.0
 11
213.236339
 21
113.6703629999999
 31
0.0
  0
LINE
  5
A4F8
330
A2E6
100
AcDbEntity
  8
2
  6
Continuous
100
AcDbLine
 10
212.5598389999999
 20
112.7703629999998
 30
0.0
 11
212.5598389999999
 21
114.3468629999998
 31
0.0
  0
LINE
  5
A4F9
330
A2E6
100
AcDbEntity
  8
2
  6
Continuous
100
AcDbLine
 10
205.912839
 20
112.7703629999998
 30
0.0
 11
205.912839
 21
114.3468629999998
 31
0.0
  0
LINE
  5
A4FA
330
A2E6
100
AcDbEntity
  8
1
  6
Continuous
100
AcDbLine
 10
206.2363389999999
 20
114.6703629999999
 30
0.0
 11
205.236339
 21
113.6703629999999
 31
0.0
  0
LINE
  5
A4FB
330
A2E6
100
AcDbEntity
  8
1
  6
Continuous
100
AcDbLine
 10
212.2363389999999
 20
114.6703629999999
 30
0.0
 11
213.236339
 21
113.6703629999999
 31
0.0
  0
LINE
  5
A4FC
330
A2E6
100
AcDbEntity
  8
1
  6
Continuous
100
AcDbLine
 10
93.48692900000001
 20
233.1487529999999
 30
0.0
 11
92.48692899999999
 21
234.1487529999999
 31
0.0
  0
LINE
  5
A4FD
330
A2E6
100
AcDbEntity
  8
1
  6
Continuous
100
AcDbLine
 10
93.48692900000001
 20
227.1487529999999
 30
0.0
 11
92.48692899999999
 21
226.1487529999999
 31
0.0
  0
LINE
  5
A4FE
330
A2E6
100
AcDbEntity
  8
2
  6
Continuous
100
AcDbLine
 10
91.586929
 20
226.8252529999998
 30
0.0
 11
93.163429
 21
226.8252529999998
 31
0.0
  0
LINE
  5
A4FF
330
A2E6
100
AcDbEntity
  8
2
  6
Continuous
100
AcDbLine
 10
91.586929
 20
233.4722529999999
 30
0.0
 11
93.163429
 21
233.4722529999999
 31
0.0
  0
LINE
  5
A500
330
A2E6
100
AcDbEntity
  8
1
  6
Continuous
100
AcDbLine
 10
91.586929
 20
234.1487529999999
 30
0.0
 11
92.48692899999999
 21
234.1487529999999
 31
0.0
  0
LINE
  5
A501
330
A2E6
100
AcDbEntity
  8
1
  6
Continuous
100
AcDbLine
 10
91.586929
 20
226.1487529999999
 30
0.0
 11
92.48692899999999
 21
226.1487529999999
 31
0.0
  0
LINE
  5
A502
330
A2E6
100
AcDbEntity
  8
1
  6
Continuous
100
AcDbLine
 10
93.48692900000001
 20
227.1487529999999
 30
0.0
 11
93.48692900000001
 21
233.1487529999999
 31
0.0
  0
LINE
  5
A503
330
A2E6
100
AcDbEntity
  8
1
  6
Continuous
100
AcDbLine
 10
92.48692899999999
 20
226.1487529999999
 30
0.0
 11
92.48692899999999
 21
234.1487529999999
 31
0.0
  0
LINE
  5
A504
330
A2E6
100
AcDbEntity
  8
1
  6
Continuous
100
AcDbLine
 10
335.998467
 20
226.998735
 30
0.0
 11
335.998467
 21
232.998735
 31
0.0
  0
LINE
  5
A505
330
A2E6
100
AcDbEntity
  8
1
  6
Continuous
100
AcDbLine
 10
337.8984669999999
 20
233.998735
 30
0.0
 11
336.998467
 21
233.998735
 31
0.0
  0
LINE
  5
A506
330
A2E6
100
AcDbEntity
  8
1
  6
Continuous
100
AcDbLine
 10
337.8984669999999
 20
225.998735
 30
0.0
 11
336.998467
 21
225.998735
 31
0.0
  0
LINE
  5
A507
330
A2E6
100
AcDbEntity
  8
1
  6
Continuous
100
AcDbLine
 10
336.998467
 20
225.998735
 30
0.0
 11
336.998467
 21
233.998735
 31
0.0
  0
LINE
  5
A508
330
A2E6
100
AcDbEntity
  8
1
  6
Continuous
100
AcDbLine
 10
335.998467
 20
232.998735
 30
0.0
 11
336.998467
 21
233.998735
 31
0.0
  0
LINE
  5
A509
330
A2E6
100
AcDbEntity
  8
1
  6
Continuous
100
AcDbLine
 10
335.998467
 20
226.998735
 30
0.0
 11
336.998467
 21
225.998735
 31
0.0
  0
LINE
  5
A50A
330
A2E6
100
AcDbEntity
  8
2
  6
Continuous
100
AcDbLine
 10
337.8984669999999
 20
226.6752349999999
 30
0.0
 11
336.3219669999998
 21
226.6752349999999
 31
0.0
  0
LINE
  5
A50B
330
A2E6
100
AcDbEntity
  8
2
  6
Continuous
100
AcDbLine
 10
337.8984669999999
 20
233.322235
 30
0.0
 11
336.3219669999998
 21
233.322235
 31
0.0
  0
LINE
  5
A50C
330
A2E6
100
AcDbEntity
  8
1
  6
Continuous
100
AcDbLine
 10
205.236339
 20
366.627115
 30
0.0
 11
209.108416
 21
366.627115
 31
0.0
  0
LINE
  5
A50D
330
A2E6
100
AcDbEntity
  8
1
  6
Continuous
100
AcDbLine
 10
206.2363389999999
 20
365.627115
 30
0.0
 11
209.419279
 21
365.627115
 31
0.0
  0
LINE
  5
A50E
330
A2E6
100
AcDbEntity
  8
2
  6
Continuous
100
AcDbLine
 10
205.912839
 20
367.5271149999999
 30
0.0
 11
205.912839
 21
365.9506149999999
 31
0.0
  0
LINE
  5
A50F
330
A2E6
100
AcDbEntity
  8
1
  6
Continuous
100
AcDbLine
 10
206.2363389999999
 20
365.627115
 30
0.0
 11
205.236339
 21
366.627115
 31
0.0
  0
LINE
  5
A510
330
A2E6
100
AcDbEntity
  8
1
  6
Continuous
100
AcDbLine
 10
205.236339
 20
367.5271149999999
 30
0.0
 11
205.236339
 21
366.627115
 31
0.0
  0
ARC
  5
A511
330
A2E6
100
AcDbEntity
  8
1
  6
Continuous
100
AcDbCircle
 10
209.236339
 20
230.148739
 30
0.0
 40
53.5
100
AcDbArc
 50
86.67057699999999
 51
35.231758
  0
ARC
  5
A512
330
A2E6
100
AcDbEntity
  8
1
  6
Continuous
100
AcDbCircle
 10
209.236339
 20
230.148739
 30
0.0
 40
65.0
100
AcDbArc
 50
86.69641400000001
 51
39.834024
  0
LINE
  5
A513
330
A2E6
100
AcDbEntity
  8
1
  6
Continuous
100
AcDbLine
 10
195.7363389999999
 20
380.3751099999999
 30
0.0
 11
150.387842
 21
380.3751099999999
 31
0.0
  0
LINE
  5
A514
330
A2E6
100
AcDbEntity
  8
1
  6
Continuous
100
AcDbLine
 10
195.7363389999999
 20
405.37511
 30
0.0
 11
150.387842
 21
405.37511
 31
0.0
  0
ARC
  5
A515
330
A2E6
100
AcDbEntity
  8
1
  6
Continuous
100
AcDbCircle
 10
209.2408079999999
 20
210.6563079999999
 30
0.0
 40
196.382
100
AcDbArc
 50
93.94313199999997
 51
97.46218000000002
  0
ARC
  5
A516
330
A2E6
100
AcDbEntity
  8
1
  6
Continuous
100
AcDbCircle
 10
209.240777
 20
575.0935459999998
 30
0.0
 40
196.381632
100
AcDbArc
 50
262.5378149999999
 51
266.056869
  0
ARC
  5
A517
330
A2E6
100
AcDbEntity
  8
1
  6
Continuous
100
AcDbCircle
 10
174.236322
 20
392.8751099999999
 30
0.0
 40
30.0
100
AcDbArc
 50
162.5423969999999
 51
197.457603
  0
ARC
  5
A518
330
A2E6
100
AcDbEntity
  8
1
  6
Continuous
100
AcDbCircle
 10
150.387842
 20
385.37511
 30
0.0
 40
5.0
100
AcDbArc
 50
197.457603
 51
270.0
  0
ARC
  5
A519
330
A2E6
100
AcDbEntity
  8
1
  6
Continuous
100
AcDbCircle
 10
150.387842
 20
400.37511
 30
0.0
 40
5.0
100
AcDbArc
 50
90.0
 51
162.5423969999999
  0
ARC
  5
A51A
330
A2E6
100
AcDbEntity
  8
1
  6
Continuous
100
AcDbCircle
 10
209.236339
 20
230.148739
 30
0.0
 40
40.0
100
AcDbArc
 50
88.46344499999998
 51
27.900645
  0
CIRCLE
  5
A51B
330
A2E6
100
AcDbEntity
  8
1
  6
Continuous
100
AcDbCircle
 10
243.474373
 20
219.024127
 30
0.0
 40
3.5
  0
CIRCLE
  5
A51C
330
A2E6
100
AcDbEntity
  8
1
  6
Continuous
100
AcDbCircle
 10
209.236339
 20
194.1487389999998
 30
0.0
 40
3.5
  0
CIRCLE
  5
A51D
330
A2E6
100
AcDbEntity
  8
1
  6
Continuous
100
AcDbCircle
 10
174.998304
 20
219.024127
 30
0.0
 40
3.5
  0
CIRCLE
  5
A51E
330
A2E6
100
AcDbEntity
  8
1
  6
Continuous
100
AcDbCircle
 10
188.0760699999999
 20
259.2733509999998
 30
0.0
 40
3.5
  0
LINE
  5
A51F
330
A2E6
100
AcDbEntity
  8
1
  6
Continuous
100
AcDbLine
 10
78.738934
 20
171.3002549999998
 30
0.0
 11
78.738934
 21
288.99725
 31
0.0
  0
LINE
  5
A520
330
A2E6
100
AcDbEntity
  8
1
  6
Continuous
100
AcDbLine
 10
53.738934
 20
171.3002549999998
 30
0.0
 11
53.738934
 21
288.99725
 31
0.0
  0
ARC
  5
A521
330
A2E6
100
AcDbEntity
  8
1
  6
Continuous
100
AcDbCircle
 10
66.238934
 20
195.1487349999999
 30
0.0
 40
30.0
100
AcDbArc
 50
252.542397
 51
287.457603
  0
ARC
  5
A522
330
A2E6
100
AcDbEntity
  8
1
  6
Continuous
100
AcDbCircle
 10
58.738934
 20
171.3002549999998
 30
0.0
 40
5.0
100
AcDbArc
 50
180.0
 51
252.542397
  0
ARC
  5
A523
330
A2E6
100
AcDbEntity
  8
1
  6
Continuous
100
AcDbCircle
 10
73.738934
 20
171.3002549999998
 30
0.0
 40
5.0
100
AcDbArc
 50
287.457603
 51
0.0
  0
LINE
  5
A524
330
A2E6
100
AcDbEntity
  8
1
  6
Continuous
100
AcDbLine
 10
81.238934
 20
223.1487529999998
 30
0.0
 11
81.238934
 21
237.1487529999999
 31
0.0
  0
LINE
  5
A525
330
A2E6
100
AcDbEntity
  8
1
  6
Continuous
100
AcDbLine
 10
80.238934
 20
222.1487529999999
 30
0.0
 11
80.238934
 21
238.1487529999999
 31
0.0
  0
LINE
  5
A526
330
A2E6
100
AcDbEntity
  8
1
  6
Continuous
100
AcDbLine
 10
51.238934
 20
223.1487529999998
 30
0.0
 11
51.238934
 21
237.1487529999999
 31
0.0
  0
LINE
  5
A527
330
A2E6
100
AcDbEntity
  8
1
  6
Continuous
100
AcDbLine
 10
52.238934
 20
222.1487529999999
 30
0.0
 11
52.238934
 21
238.1487529999999
 31
0.0
  0
ARC
  5
A528
330
A2E6
100
AcDbEntity
  8
1
  6
Continuous
100
AcDbCircle
 10
53.06180999999998
 20
223.9716279999999
 30
0.0
 40
2.0
100
AcDbArc
 50
204.295189
 51
245.704811
  0
ARC
  5
A529
330
A2E6
100
AcDbEntity
  8
1
  6
Continuous
100
AcDbCircle
 10
248.457737
 20
230.1532209999999
 30
0.0
 40
196.382
100
AcDbArc
 50
182.3360049999998
 51
187.4621799999999
  0
ARC
  5
A52A
330
A2E6
100
AcDbEntity
  8
1
  6
Continuous
100
AcDbCircle
 10
79.41605899999998
 20
223.9716279999999
 30
0.0
 40
2.0
100
AcDbArc
 50
294.2951889999998
 51
335.704811
  0
ARC
  5
A52B
330
A2E6
100
AcDbEntity
  8
1
  6
Continuous
100
AcDbCircle
 10
-115.9798679999999
 20
230.1532209999999
 30
0.0
 40
196.382
100
AcDbArc
 50
352.53782
 51
357.663995
  0
ARC
  5
A52C
330
A2E6
100
AcDbEntity
  8
1
  6
Continuous
100
AcDbCircle
 10
248.45737
 20
230.1443149999998
 30
0.0
 40
196.381632
100
AcDbArc
 50
172.537815
 51
177.6639999999999
  0
LINE
  5
A52D
330
A2E6
100
AcDbEntity
  8
1
  6
Continuous
100
AcDbLine
 10
50.738934
 20
224.6487529999999
 30
0.0
 11
50.738934
 21
235.6487529999998
 31
0.0
  0
LINE
  5
A52E
330
A2E6
100
AcDbEntity
  8
1
  6
Continuous
100
AcDbLine
 10
50.738934
 20
224.6487529999999
 30
0.0
 11
51.238934
 21
224.6487529999999
 31
0.0
  0
LINE
  5
A52F
330
A2E6
100
AcDbEntity
  8
1
  6
Continuous
100
AcDbLine
 10
50.48742999999999
 20
226.1487529999999
 30
0.0
 11
50.738934
 21
226.1487529999999
 31
0.0
  0
LINE
  5
A530
330
A2E6
100
AcDbEntity
  8
1
  6
Continuous
100
AcDbLine
 10
50.738934
 20
235.6487529999998
 30
0.0
 11
51.238934
 21
235.6487529999998
 31
0.0
  0
LINE
  5
A531
330
A2E6
100
AcDbEntity
  8
1
  6
Continuous
100
AcDbLine
 10
50.479405
 20
234.1487529999999
 30
0.0
 11
50.738934
 21
234.1487529999999
 31
0.0
  0
ARC
  5
A532
330
A2E6
100
AcDbEntity
  8
1
  6
Continuous
100
AcDbCircle
 10
53.06180999999998
 20
236.3258769999999
 30
0.0
 40
2.0
100
AcDbArc
 50
114.2951889999998
 51
155.704811
  0
ARC
  5
A533
330
A2E6
100
AcDbEntity
  8
1
  6
Continuous
100
AcDbCircle
 10
-115.9798679999999
 20
230.1442839999999
 30
0.0
 40
196.382
100
AcDbArc
 50
2.336005
 51
7.46218
  0
LINE
  5
A534
330
A2E6
100
AcDbEntity
  8
1
  6
Continuous
100
AcDbLine
 10
81.738934
 20
224.6487529999999
 30
0.0
 11
81.738934
 21
235.6487529999998
 31
0.0
  0
LINE
  5
A535
330
A2E6
100
AcDbEntity
  8
1
  6
Continuous
100
AcDbLine
 10
81.738934
 20
226.1487529999999
 30
0.0
 11
81.98893400000001
 21
226.1487529999999
 31
0.0
  0
LINE
  5
A536
330
A2E6
100
AcDbEntity
  8
1
  6
Continuous
100
AcDbLine
 10
81.738934
 20
234.1487529999999
 30
0.0
 11
81.998464
 21
234.1487529999999
 31
0.0
  0
ARC
  5
A537
330
A2E6
100
AcDbEntity
  8
1
  6
Continuous
100
AcDbCircle
 10
79.41605899999998
 20
236.3258769999999
 30
0.0
 40
2.0
100
AcDbArc
 50
24.295189
 51
65.70481099999999
  0
LINE
  5
A538
330
A2E6
100
AcDbEntity
  8
1
  6
Continuous
100
AcDbLine
 10
81.238934
 20
224.6487529999999
 30
0.0
 11
81.738934
 21
224.6487529999999
 31
0.0
  0
LINE
  5
A539
330
A2E6
100
AcDbEntity
  8
1
  6
Continuous
100
AcDbLine
 10
81.238934
 20
235.6487529999998
 30
0.0
 11
81.738934
 21
235.6487529999998
 31
0.0
  0
ARC
  5
A53A
330
A2E6
100
AcDbEntity
  8
1
  6
Continuous
100
AcDbCircle
 10
66.238934
 20
265.14877
 30
0.0
 40
30.0
100
AcDbArc
 50
72.54239699999998
 51
107.457603
  0
ARC
  5
A53B
330
A2E6
100
AcDbEntity
  8
1
  6
Continuous
100
AcDbCircle
 10
58.738934
 20
288.99725
 30
0.0
 40
5.0
100
AcDbArc
 50
107.457603
 51
180.0
  0
ARC
  5
A53C
330
A2E6
100
AcDbEntity
  8
1
  6
Continuous
100
AcDbCircle
 10
73.738934
 20
288.99725
 30
0.0
 40
5.0
100
AcDbArc
 50
0.0
 51
72.54239699999998
  0
LINE
  5
A53D
330
A2E6
100
AcDbEntity
  8
1
  6
Continuous
100
AcDbLine
 10
375.733743
 20
171.150237
 30
0.0
 11
375.733743
 21
288.8472319999999
 31
0.0
  0
LINE
  5
A53E
330
A2E6
100
AcDbEntity
  8
1
  6
Continuous
100
AcDbLine
 10
350.733743
 20
171.150237
 30
0.0
 11
350.733743
 21
288.8472319999999
 31
0.0
  0
ARC
  5
A53F
330
A2E6
100
AcDbEntity
  8
1
  6
Continuous
100
AcDbCircle
 10
363.233743
 20
194.9987169999999
 30
0.0
 40
30.0
100
AcDbArc
 50
252.542397
 51
287.457603
  0
ARC
  5
A540
330
A2E6
100
AcDbEntity
  8
1
  6
Continuous
100
AcDbCircle
 10
355.733743
 20
171.150237
 30
0.0
 40
5.0
100
AcDbArc
 50
180.0
 51
252.542397
  0
ARC
  5
A541
330
A2E6
100
AcDbEntity
  8
1
  6
Continuous
100
AcDbCircle
 10
370.7337429999999
 20
171.150237
 30
0.0
 40
5.0
100
AcDbArc
 50
287.457603
 51
0.0
  0
LINE
  5
A542
330
A2E6
100
AcDbEntity
  8
1
  6
Continuous
100
AcDbLine
 10
378.233743
 20
222.998735
 30
0.0
 11
378.233743
 21
236.998735
 31
0.0
  0
LINE
  5
A543
330
A2E6
100
AcDbEntity
  8
1
  6
Continuous
100
AcDbLine
 10
377.233743
 20
221.998735
 30
0.0
 11
377.233743
 21
237.9987349999999
 31
0.0
  0
LINE
  5
A544
330
A2E6
100
AcDbEntity
  8
1
  6
Continuous
100
AcDbLine
 10
348.233743
 20
222.998735
 30
0.0
 11
348.233743
 21
236.998735
 31
0.0
  0
LINE
  5
A545
330
A2E6
100
AcDbEntity
  8
1
  6
Continuous
100
AcDbLine
 10
349.233743
 20
221.998735
 30
0.0
 11
349.233743
 21
237.9987349999999
 31
0.0
  0
ARC
  5
A546
330
A2E6
100
AcDbEntity
  8
1
  6
Continuous
100
AcDbCircle
 10
350.056619
 20
223.8216099999999
 30
0.0
 40
2.0
100
AcDbArc
 50
204.295189
 51
245.704811
  0
ARC
  5
A547
330
A2E6
100
AcDbEntity
  8
1
  6
Continuous
100
AcDbCircle
 10
545.452546
 20
230.003203
 30
0.0
 40
196.382
100
AcDbArc
 50
182.3360049999998
 51
187.4621799999999
  0
ARC
  5
A548
330
A2E6
100
AcDbEntity
  8
1
  6
Continuous
100
AcDbCircle
 10
376.410868
 20
223.8216099999999
 30
0.0
 40
2.0
100
AcDbArc
 50
294.2951889999998
 51
335.704811
  0
ARC
  5
A549
330
A2E6
100
AcDbEntity
  8
1
  6
Continuous
100
AcDbCircle
 10
181.014941
 20
230.003203
 30
0.0
 40
196.382
100
AcDbArc
 50
352.53782
 51
357.663995
  0
ARC
  5
A54A
330
A2E6
100
AcDbEntity
  8
1
  6
Continuous
100
AcDbCircle
 10
545.452179
 20
229.994297
 30
0.0
 40
196.381632
100
AcDbArc
 50
172.537815
 51
177.6639999999999
  0
LINE
  5
A54B
330
A2E6
100
AcDbEntity
  8
1
  6
Continuous
100
AcDbLine
 10
347.7337429999999
 20
224.498735
 30
0.0
 11
347.7337429999999
 21
235.498735
 31
0.0
  0
LINE
  5
A54C
330
A2E6
100
AcDbEntity
  8
1
  6
Continuous
100
AcDbLine
 10
347.7337429999999
 20
224.498735
 30
0.0
 11
348.233743
 21
224.498735
 31
0.0
  0
LINE
  5
A54D
330
A2E6
100
AcDbEntity
  8
1
  6
Continuous
100
AcDbLine
 10
347.482389
 20
225.998735
 30
0.0
 11
347.7337429999999
 21
225.998735
 31
0.0
  0
LINE
  5
A54E
330
A2E6
100
AcDbEntity
  8
1
  6
Continuous
100
AcDbLine
 10
347.7337429999999
 20
235.498735
 30
0.0
 11
348.233743
 21
235.498735
 31
0.0
  0
LINE
  5
A54F
330
A2E6
100
AcDbEntity
  8
1
  6
Continuous
100
AcDbLine
 10
347.4743639999999
 20
233.998735
 30
0.0
 11
347.7337429999999
 21
233.998735
 31
0.0
  0
ARC
  5
A550
330
A2E6
100
AcDbEntity
  8
1
  6
Continuous
100
AcDbCircle
 10
350.056619
 20
236.1758589999999
 30
0.0
 40
2.0
100
AcDbArc
 50
114.2951889999998
 51
155.704811
  0
ARC
  5
A551
330
A2E6
100
AcDbEntity
  8
1
  6
Continuous
100
AcDbCircle
 10
181.014941
 20
229.994266
 30
0.0
 40
196.382
100
AcDbArc
 50
2.336005
 51
7.46218
  0
LINE
  5
A552
330
A2E6
100
AcDbEntity
  8
1
  6
Continuous
100
AcDbLine
 10
378.733743
 20
224.498735
 30
0.0
 11
378.733743
 21
235.498735
 31
0.0
  0
LINE
  5
A553
330
A2E6
100
AcDbEntity
  8
1
  6
Continuous
100
AcDbLine
 10
378.733743
 20
225.998735
 30
0.0
 11
378.9850969999998
 21
225.998735
 31
0.0
  0
LINE
  5
A554
330
A2E6
100
AcDbEntity
  8
1
  6
Continuous
100
AcDbLine
 10
378.733743
 20
233.998735
 30
0.0
 11
378.993122
 21
233.998735
 31
0.0
  0
ARC
  5
A555
330
A2E6
100
AcDbEntity
  8
1
  6
Continuous
100
AcDbCircle
 10
376.410868
 20
236.1758589999999
 30
0.0
 40
2.0
100
AcDbArc
 50
24.295189
 51
65.70481099999999
  0
LINE
  5
A556
330
A2E6
100
AcDbEntity
  8
1
  6
Continuous
100
AcDbLine
 10
378.233743
 20
224.498735
 30
0.0
 11
378.733743
 21
224.498735
 31
0.0
  0
LINE
  5
A557
330
A2E6
100
AcDbEntity
  8
1
  6
Continuous
100
AcDbLine
 10
378.233743
 20
235.498735
 30
0.0
 11
378.733743
 21
235.498735
 31
0.0
  0
ARC
  5
A558
330
A2E6
100
AcDbEntity
  8
1
  6
Continuous
100
AcDbCircle
 10
363.233743
 20
264.998752
 30
0.0
 40
30.0
100
AcDbArc
 50
72.54239699999998
 51
107.457603
  0
ARC
  5
A559
330
A2E6
100
AcDbEntity
  8
1
  6
Continuous
100
AcDbCircle
 10
355.733743
 20
288.8472319999999
 30
0.0
 40
5.0
100
AcDbArc
 50
107.457603
 51
180.0
  0
ARC
  5
A55A
330
A2E6
100
AcDbEntity
  8
1
  6
Continuous
100
AcDbCircle
 10
370.7337429999999
 20
288.8472319999999
 30
0.0
 40
5.0
100
AcDbArc
 50
0.0
 51
72.54239699999998
  0
LINE
  5
A55B
330
A2E6
100
AcDbEntity
  8
1
  6
Continuous
100
AcDbLine
 10
268.084837
 20
74.922368
 30
0.0
 11
150.387842
 21
74.922368
 31
0.0
  0
LINE
  5
A55C
330
A2E6
100
AcDbEntity
  8
1
  6
Continuous
100
AcDbLine
 10
268.084837
 20
99.922368
 30
0.0
 11
150.387842
 21
99.922368
 31
0.0
  0
ARC
  5
A55D
330
A2E6
100
AcDbEntity
  8
1
  6
Continuous
100
AcDbCircle
 10
150.387842
 20
79.922368
 30
0.0
 40
5.0
100
AcDbArc
 50
197.457603
 51
270.0
  0
ARC
  5
A55E
330
A2E6
100
AcDbEntity
  8
1
  6
Continuous
100
AcDbCircle
 10
150.387842
 20
94.922368
 30
0.0
 40
5.0
100
AcDbArc
 50
90.0
 51
162.5423969999999
  0
ARC
  5
A55F
330
A2E6
100
AcDbEntity
  8
1
  6
Continuous
100
AcDbCircle
 10
174.236322
 20
87.422368
 30
0.0
 40
30.0
100
AcDbArc
 50
162.5423969999999
 51
197.457603
  0
ARC
  5
A560
330
A2E6
100
AcDbEntity
  8
1
  6
Continuous
100
AcDbCircle
 10
268.084837
 20
79.922368
 30
0.0
 40
5.0
100
AcDbArc
 50
270.0
 51
342.542397
  0
LINE
  5
A561
330
A2E6
100
AcDbEntity
  8
1
  6
Continuous
100
AcDbLine
 10
217.236339
 20
73.42236800000002
 30
0.0
 11
201.2363389999999
 21
73.42236800000002
 31
0.0
  0
LINE
  5
A562
330
A2E6
100
AcDbEntity
  8
1
  6
Continuous
100
AcDbLine
 10
216.2363389999999
 20
72.422368
 30
0.0
 11
202.2363389999999
 21
72.422368
 31
0.0
  0
LINE
  5
A563
330
A2E6
100
AcDbEntity
  8
1
  6
Continuous
100
AcDbLine
 10
214.7363389999999
 20
71.92236800000002
 30
0.0
 11
203.7363389999999
 21
71.92236800000002
 31
0.0
  0
ARC
  5
A564
330
A2E6
100
AcDbEntity
  8
1
  6
Continuous
100
AcDbCircle
 10
209.240777
 20
269.640804
 30
0.0
 40
196.381632
100
AcDbArc
 50
262.5378149999999
 51
267.6639999999998
  0
LINE
  5
A565
330
A2E6
100
AcDbEntity
  8
1
  6
Continuous
100
AcDbLine
 10
213.236339
 20
71.597859
 30
0.0
 11
213.236339
 21
71.92236800000002
 31
0.0
  0
LINE
  5
A566
330
A2E6
100
AcDbEntity
  8
1
  6
Continuous
100
AcDbLine
 10
205.236339
 20
71.597859
 30
0.0
 11
205.236339
 21
71.92236800000002
 31
0.0
  0
ARC
  5
A567
330
A2E6
100
AcDbEntity
  8
1
  6
Continuous
100
AcDbCircle
 10
203.0592149999999
 20
74.245244
 30
0.0
 40
2.0
100
AcDbArc
 50
204.295189
 51
245.704811
  0
LINE
  5
A568
330
A2E6
100
AcDbEntity
  8
1
  6
Continuous
100
AcDbLine
 10
203.7363389999999
 20
71.92236800000002
 30
0.0
 11
203.7363389999999
 21
72.422368
 31
0.0
  0
ARC
  5
A569
330
A2E6
100
AcDbEntity
  8
1
  6
Continuous
100
AcDbCircle
 10
209.2318709999999
 20
269.641171
 30
0.0
 40
196.382
100
AcDbArc
 50
272.336005
 51
277.4621799999998
  0
ARC
  5
A56A
330
A2E6
100
AcDbEntity
  8
1
  6
Continuous
100
AcDbCircle
 10
215.413464
 20
74.245244
 30
0.0
 40
2.0
100
AcDbArc
 50
294.2951889999998
 51
335.704811
  0
LINE
  5
A56B
330
A2E6
100
AcDbEntity
  8
1
  6
Continuous
100
AcDbLine
 10
214.7363389999999
 20
71.92236800000002
 30
0.0
 11
214.7363389999999
 21
72.422368
 31
0.0
  0
LINE
  5
A56C
330
A2E6
100
AcDbEntity
  8
1
  6
Continuous
100
AcDbLine
 10
217.236339
 20
101.422368
 30
0.0
 11
201.2363389999999
 21
101.422368
 31
0.0
  0
LINE
  5
A56D
330
A2E6
100
AcDbEntity
  8
1
  6
Continuous
100
AcDbLine
 10
216.2363389999999
 20
102.4223679999999
 30
0.0
 11
202.2363389999999
 21
102.4223679999999
 31
0.0
  0
LINE
  5
A56E
330
A2E6
100
AcDbEntity
  8
1
  6
Continuous
100
AcDbLine
 10
214.7363389999999
 20
102.922368
 30
0.0
 11
203.7363389999999
 21
102.922368
 31
0.0
  0
ARC
  5
A56F
330
A2E6
100
AcDbEntity
  8
1
  6
Continuous
100
AcDbCircle
 10
209.2408079999999
 20
-94.79643399999996
 30
0.0
 40
196.382
100
AcDbArc
 50
92.33600499999999
 51
97.46218000000002
  0
LINE
  5
A570
330
A2E6
100
AcDbEntity
  8
1
  6
Continuous
100
AcDbLine
 10
213.236339
 20
102.922368
 30
0.0
 11
213.236339
 21
103.2468769999999
 31
0.0
  0
LINE
  5
A571
330
A2E6
100
AcDbEntity
  8
1
  6
Continuous
100
AcDbLine
 10
205.236339
 20
102.922368
 30
0.0
 11
205.236339
 21
103.2468769999999
 31
0.0
  0
ARC
  5
A572
330
A2E6
100
AcDbEntity
  8
1
  6
Continuous
100
AcDbCircle
 10
203.0592149999999
 20
100.599493
 30
0.0
 40
2.0
100
AcDbArc
 50
114.2951889999998
 51
155.704811
  0
LINE
  5
A573
330
A2E6
100
AcDbEntity
  8
1
  6
Continuous
100
AcDbLine
 10
203.7363389999999
 20
102.4223679999999
 30
0.0
 11
203.7363389999999
 21
102.922368
 31
0.0
  0
ARC
  5
A574
330
A2E6
100
AcDbEntity
  8
1
  6
Continuous
100
AcDbCircle
 10
209.2318709999999
 20
-94.79643399999996
 30
0.0
 40
196.382
100
AcDbArc
 50
82.53781999999999
 51
87.663995
  0
ARC
  5
A575
330
A2E6
100
AcDbEntity
  8
1
  6
Continuous
100
AcDbCircle
 10
215.413464
 20
100.599493
 30
0.0
 40
2.0
100
AcDbArc
 50
24.295189
 51
65.70481099999999
  0
LINE
  5
A576
330
A2E6
100
AcDbEntity
  8
1
  6
Continuous
100
AcDbLine
 10
214.7363389999999
 20
102.4223679999999
 30
0.0
 11
214.7363389999999
 21
102.922368
 31
0.0
  0
ARC
  5
A577
330
A2E6
100
AcDbEntity
  8
1
  6
Continuous
100
AcDbCircle
 10
268.084837
 20
94.922368
 30
0.0
 40
5.0
100
AcDbArc
 50
17.45760299999999
 51
90.0
  0
ARC
  5
A578
330
A2E6
100
AcDbEntity
  8
1
  6
Continuous
100
AcDbCircle
 10
244.2363569999999
 20
87.422368
 30
0.0
 40
30.0
100
AcDbArc
 50
342.542397
 51
17.45760299999999
  0
ARC
  5
A579
330
A2E6
100
AcDbEntity
  8
1
  6
Continuous
100
AcDbCircle
 10
517.2311480000002
 20
230.148739
 30
0.0
 40
25.650006
100
AcDbArc
 50
166.163989
 51
83.83098299999998
  0
ARC
  5
A57A
330
A2E6
100
AcDbEntity
  8
1
  6
Continuous
100
AcDbCircle
 10
209.236339
 20
230.148739
 30
0.0
 40
25.64999999999999
100
AcDbArc
 50
96.16902299999999
 51
13.836002
  0
LINE
  5
A57B
330
A2E6
100
AcDbEntity
  8
1
  6
Continuous
100
AcDbLine
 10
202.2363389999999
 20
66.740612
 30
0.0
 11
202.2363389999999
 21
69.06685
 31
0.0
  0
LINE
  5
A57C
330
A2E6
100
AcDbEntity
  8
1
  6
Continuous
100
AcDbLine
 10
216.2363389999999
 20
66.740612
 30
0.0
 11
202.2363389999999
 21
66.740612
 31
0.0
  0
ARC
  5
A57D
330
A2E6
100
AcDbEntity
  8
1
  6
Continuous
100
AcDbCircle
 10
209.236339
 20
74.56685
 30
0.0
 40
10.5
100
AcDbArc
 50
228.1896849999998
 51
311.810315
  0
LINE
  5
A57E
330
A2E6
100
AcDbEntity
  8
1
  6
Continuous
100
AcDbLine
 10
216.2363389999999
 20
66.740612
 30
0.0
 11
216.2363389999999
 21
69.06685
 31
0.0
  0
LINE
  5
A57F
330
A2E6
100
AcDbEntity
  8
1
  6
Continuous
100
AcDbLine
 10
45.557178
 20
237.1487529999999
 30
0.0
 11
45.557178
 21
223.1487529999998
 31
0.0
  0
ARC
  5
A580
330
A2E6
100
AcDbEntity
  8
1
  6
Continuous
100
AcDbCircle
 10
53.38341599999999
 20
230.1487529999999
 30
0.0
 40
10.5
100
AcDbArc
 50
138.1896849999999
 51
221.810315
  0
LINE
  5
A581
330
A2E6
100
AcDbEntity
  8
1
  6
Continuous
100
AcDbLine
 10
45.557178
 20
223.1487529999998
 30
0.0
 11
47.88341599999998
 21
223.1487529999998
 31
0.0
  0
LINE
  5
A582
330
A2E6
100
AcDbEntity
  8
1
  6
Continuous
100
AcDbLine
 10
45.557178
 20
237.1487529999999
 30
0.0
 11
47.88341599999998
 21
237.1487529999999
 31
0.0
  0
LINE
  5
A583
330
A2E6
100
AcDbEntity
  8
1
  6
Continuous
100
AcDbLine
 10
383.9155009999998
 20
233.143636
 30
0.0
 11
383.9155009999998
 21
222.998735
 31
0.0
  0
ARC
  5
A584
330
A2E6
100
AcDbEntity
  8
1
  6
Continuous
100
AcDbCircle
 10
376.089263
 20
229.998735
 30
0.0
 40
10.5
100
AcDbArc
 50
318.189685
 51
29.66984899999999
  0
LINE
  5
A585
330
A2E6
100
AcDbEntity
  8
1
  6
Continuous
100
AcDbLine
 10
383.9155009999998
 20
222.998735
 30
0.0
 11
381.589263
 21
222.998735
 31
0.0
  0
LINE
  5
A586
330
A2E6
100
AcDbEntity
  8
4
  6
CENTER
100
AcDbLine
 10
517.2311480000002
 20
157.1487389999998
 30
0.0
 11
517.2311480000002
 21
303.1487389999999
 31
0.0
  0
LINE
  5
A587
330
A2E6
100
AcDbEntity
  8
4
  6
CENTER
100
AcDbLine
 10
209.236339
 20
303.1487389999999
 30
0.0
 11
209.236339
 21
157.1487389999998
 31
0.0
  0
LINE
  5
A588
330
A2E6
100
AcDbEntity
  8
4
  6
CENTER
100
AcDbLine
 10
209.236339
 20
350.37511
 30
0.0
 11
209.236339
 21
435.3751099999998
 31
0.0
  0
ENDSEC
  0
SECTION
  2
OBJECTS
  0
DICTIONARY
  5
A2D4
330
0
100
AcDbDictionary
281
     1
  3
ACAD_CIP_PREVIOUS_PRODUCT_INFO
350
A5EA
  3
ACAD_COLOR
350
A5CC
  3
ACAD_DETAILVIEWSTYLE
350
A5E5
  3
ACAD_GROUP
350
A2D5
  3
ACAD_LAYOUT
350
A2E1
  3
ACAD_MATERIAL
350
A59A
  3
ACAD_MLEADERSTYLE
350
A5E1
  3
ACAD_MLINESTYLE
350
A2DE
  3
ACAD_PLOTSETTINGS
350
A2E0
  3
ACAD_PLOTSTYLENAME
350
A598
  3
ACAD_SCALELIST
350
A5CF
  3
ACAD_SECTIONVIEWSTYLE
350
A5E3
  3
ACAD_TABLESTYLE
350
A5CD
  3
ACAD_VISUALSTYLE
350
A5B3
  3
ACDB_RECOMPOSE_DATA
350
A608
  3
AcDbVariableDictionary
350
A5FB
  3
DWGPROPS
350
A609
  0
DICTIONARY
  5
A5EB
330
A2D8
100
AcDbDictionary
280
     1
281
     1
  3
ADSK_XREC_LAYER_RECONCILED
360
A5EC
  0
DICTIONARY
  5
A5ED
330
A2EE
100
AcDbDictionary
280
     1
281
     1
  3
ADSK_XREC_LAYER_RECONCILED
360
A5EE
  0
DICTIONARY
  5
A5EF
330
A2EF
100
AcDbDictionary
280
     1
281
     1
  3
ADSK_XREC_LAYER_RECONCILED
360
A5F0
  0
DICTIONARY
  5
A5F1
330
A2F0
100
AcDbDictionary
280
     1
281
     1
  3
ADSK_XREC_LAYER_RECONCILED
360
A5F2
  0
DICTIONARY
  5
A5F3
330
A2F1
100
AcDbDictionary
280
     1
281
     1
  3
ADSK_XREC_LAYER_RECONCILED
360
A5F4
  0
DICTIONARY
  5
A5F5
330
A2F2
100
AcDbDictionary
280
     1
281
     1
  3
ADSK_XREC_LAYER_RECONCILED
360
A5F6
  0
DICTIONARY
  5
A5F7
330
A2F3
100
AcDbDictionary
280
     1
281
     1
  3
ADSK_XREC_LAYER_RECONCILED
360
A5F8
  0
DICTIONARY
  5
A5F9
330
A2F4
100
AcDbDictionary
280
     1
281
     1
  3
ADSK_XREC_LAYER_RECONCILED
360
A5FA
  0
DICTIONARY
  5
A593
330
A2E6
100
AcDbDictionary
281
     1
  3
ACAD_LAYOUTSELFREF
350
A594
  0
DICTIONARY
  5
A591
330
A2E2
100
AcDbDictionary
281
     1
  3
ACAD_LAYOUTSELFREF
350
A592
  0
XRECORD
  5
A5EA
102
{ACAD_REACTORS
330
A2D4
102
}
330
A2D4
100
AcDbXrecord
280
     1
300
ACDLT
300
2014
300
ACDLT_F_S
  0
DICTIONARY
  5
A5CC
102
{ACAD_REACTORS
330
A2D4
102
}
330
A2D4
100
AcDbDictionary
281
     1
  0
DICTIONARY
  5
A5E5
102
{ACAD_REACTORS
330
A2D4
102
}
330
A2D4
100
AcDbDictionary
281
     1
  3
Imperial24
350
A5E6
  0
DICTIONARY
  5
A2D5
102
{ACAD_REACTORS
330
A2D4
102
}
330
A2D4
100
AcDbDictionary
281
     1
  0
DICTIONARY
  5
A2E1
102
{ACAD_REACTORS
330
A2D4
102
}
330
A2D4
100
AcDbDictionary
281
     1
  3
Model
350
A5E7
  3
レイアウト1
350
A5E8
  0
DICTIONARY
  5
A59A
102
{ACAD_REACTORS
330
A2D4
102
}
330
A2D4
100
AcDbDictionary
281
     1
  3
ByBlock
350
A5A3
  3
ByLayer
350
A59B
  3
Global
350
A5AB
  0
DICTIONARY
  5
A5E1
102
{ACAD_REACTORS
330
A2D4
102
}
330
A2D4
100
AcDbDictionary
281
     1
  3
Standard
350
A5E2
  0
DICTIONARY
  5
A2DE
102
{ACAD_REACTORS
330
A2D4
102
}
330
A2D4
100
AcDbDictionary
281
     1
  3
STANDARD
350
A2DF
  0
DICTIONARY
  5
A2E0
102
{ACAD_REACTORS
330
A2D4
102
}
330
A2D4
100
AcDbDictionary
281
     1
  0
ACDBDICTIONARYWDFLT
  5
A598
102
{ACAD_REACTORS
330
A2D4
102
}
330
A2D4
100
AcDbDictionary
281
     1
  3
Normal
350
A599
100
AcDbDictionaryWithDefault
340
A599
  0
DICTIONARY
  5
A5CF
102
{ACAD_REACTORS
330
A2D4
102
}
330
A2D4
100
AcDbDictionary
281
     1
  3
A0
350
A5D0
  3
A1
350
A5D1
  3
A2
350
A5D2
  3
A3
350
A5D3
  3
A4
350
A5D4
  3
A5
350
A5D5
  3
A6
350
A5D6
  3
A7
350
A5D7
  3
A8
350
A5D8
  3
A9
350
A5D9
  3
B0
350
A5DA
  3
B1
350
A5DB
  3
B2
350
A5DC
  3
B3
350
A5DD
  3
B4
350
A5DE
  3
B5
350
A5DF
  3
B6
350
A5E0
  0
DICTIONARY
  5
A5E3
102
{ACAD_REACTORS
330
A2D4
102
}
330
A2D4
100
AcDbDictionary
281
     1
  3
Imperial24
350
A5E4
  0
DICTIONARY
  5
A5CD
102
{ACAD_REACTORS
330
A2D4
102
}
330
A2D4
100
AcDbDictionary
281
     1
  3
Standard
350
A5CE
  0
DICTIONARY
  5
A5B3
102
{ACAD_REACTORS
330
A2D4
102
}
330
A2D4
100
AcDbDictionary
281
     1
  3
2dWireframe
350
A5B9
  3
Basic
350
A5B8
  3
Brighten
350
A5BF
  3
ColorChange
350
A5C3
  3
Conceptual
350
A5BC
  3
Dim
350
A5BE
  3
EdgeColorOff
350
A5CB
  3
Facepattern
350
A5C2
  3
Flat
350
A5B4
  3
FlatWithEdges
350
A5B5
  3
Gouraud
350
A5B6
  3
GouraudWithEdges
350
A5B7
  3
Hidden
350
A5BB
  3
JitterOff
350
A5C9
  3
Linepattern
350
A5C1
  3
OverhangOff
350
A5CA
  3
Realistic
350
A5BD
  3
Shaded
350
A5C8
  3
Shaded with edges
350
A5C7
  3
Shades of Gray
350
A5C4
  3
Sketchy
350
A5C5
  3
Thicken
350
A5C0
  3
Wireframe
350
A5BA
  3
X-Ray
350
A5C6
  0
XRECORD
  5
A608
102
{ACAD_REACTORS
330
A2D4
102
}
330
A2D4
100
AcDbXrecord
280
     1
 90
        1
330
A5CE
  0
DICTIONARY
  5
A5FB
102
{ACAD_REACTORS
330
A2D4
102
}
330
A2D4
100
AcDbDictionary
281
     1
  3
CANNOSCALE
350
A600
  3
CMLEADERSTYLE
350
A5FD
  3
CTABLESTYLE
350
A5FC
  3
CVIEWDETAILSTYLE
350
A5FE
  3
CVIEWSECTIONSTYLE
350
A5FF
  3
DIMASSOC
350
A603
  3
INDEXCTL
350
A602
  3
SORTENTS
350
A601
  3
XCLIPFRAME
350
A604
  0
XRECORD
  5
A609
102
{ACAD_REACTORS
330
A2D4
102
}
330
A2D4
100
AcDbXrecord
280
     1
  1
DWGPROPS COOKIE
  2

  3

  4

  6

  7

  8
Yoshitsune
  9

300
=
301
=
302
=
303
=
304
=
305
=
306
=
307
=
308
=
309
=
 40
0.0000103356481481
 41
2451301.489903588
 42
2457192.687409769
  1

 90
        0
  0
XRECORD
  5
A5EC
102
{ACAD_REACTORS
330
A5EB
102
}
330
A5EB
100
AcDbXrecord
280
     1
290
     1
  0
XRECORD
  5
A5EE
102
{ACAD_REACTORS
330
A5ED
102
}
330
A5ED
100
AcDbXrecord
280
     1
290
     1
  0
XRECORD
  5
A5F0
102
{ACAD_REACTORS
330
A5EF
102
}
330
A5EF
100
AcDbXrecord
280
     1
290
     1
  0
XRECORD
  5
A5F2
102
{ACAD_REACTORS
330
A5F1
102
}
330
A5F1
100
AcDbXrecord
280
     1
290
     1
  0
XRECORD
  5
A5F4
102
{ACAD_REACTORS
330
A5F3
102
}
330
A5F3
100
AcDbXrecord
280
     1
290
     1
  0
XRECORD
  5
A5F6
102
{ACAD_REACTORS
330
A5F5
102
}
330
A5F5
100
AcDbXrecord
280
     1
290
     1
  0
XRECORD
  5
A5F8
102
{ACAD_REACTORS
330
A5F7
102
}
330
A5F7
100
AcDbXrecord
280
     1
290
     1
  0
XRECORD
  5
A5FA
102
{ACAD_REACTORS
330
A5F9
102
}
330
A5F9
100
AcDbXrecord
280
     1
290
     1
  0
XRECORD
  5
A594
102
{ACAD_REACTORS
330
A593
102
}
330
A593
100
AcDbXrecord
280
     1
340
A2E6
  0
XRECORD
  5
A592
102
{ACAD_REACTORS
330
A591
102
}
330
A591
100
AcDbXrecord
280
     1
340
A2E2
  0
ACDBDETAILVIEWSTYLE
  5
A5E6
102
{ACAD_XDICTIONARY
360
A641
102
}
102
{ACAD_REACTORS
330
A5E5
102
}
330
A5E5
100
AcDbModelDocViewStyle
 70
     0
  3
Imperial24
290
     0
100
AcDbDetailViewStyle
 70
     0
 71
     0
 90
        3
 71
     1
340
A2D9
 40
0.24
340
0
 40
0.24
300

 40
0.36
280
     3
 71
     2
340
A2DD
 90
       25
 71
     3
340
A2D9
 40
0.24
 90
        1
 40
0.75
 90
        1
300
%<\AcVar ViewType \f "%tc1">% %<\AcVar ViewDetailId>%\PSCALE %<\AcVar ViewScale \f "%sn">%
 71
     4
340
A2DD
 90
       25
340
A2DD
 90
       25
280
     0
  0
LAYOUT
  5
A5E7
102
{ACAD_XDICTIONARY
360
A643
102
}
102
{ACAD_REACTORS
330
A2E1
102
}
330
A2E1
100
AcDbPlotSettings
  1

  2
Canon LBP9100C
  4

  6

 40
0.0
 41
0.0
 42
0.0
 43
0.0
 44
0.0
 45
0.0
 46
0.0
 47
0.0
 48
0.0
 49
0.0
140
0.0
141
0.0
142
1.0
143
1.0
 70
  1712
 72
     0
 73
     0
 74
     0
  7

 75
     0
147
1.0
148
0.0
149
0.0
100
AcDbLayout
  1
Model
 70
     1
 71
     0
 10
0.0
 20
0.0
 11
12.0
 21
9.0
 12
0.0
 22
0.0
 32
0.0
 14
0.0
 24
0.0
 34
0.0
 15
0.0
 25
0.0
 35
0.0
146
0.0
 13
0.0
 23
0.0
 33
0.0
 16
1.0
 26
0.0
 36
0.0
 17
0.0
 27
1.0
 37
0.0
 76
     0
330
A2E6
331
A590
  0
LAYOUT
  5
A5E8
102
{ACAD_XDICTIONARY
360
A645
102
}
102
{ACAD_REACTORS
330
A2E1
102
}
330
A2E1
100
AcDbPlotSettings
  1

  2
Canon LBP9100C
  4

  6

 40
0.0
 41
0.0
 42
0.0
 43
0.0
 44
0.0
 45
0.0
 46
0.0
 47
0.0
 48
0.0
 49
0.0
140
0.0
141
0.0
142
1.0
143
1.0
 70
   688
 72
     0
 73
     0
 74
     5
  7

 75
    16
147
1.0
148
0.0
149
0.0
100
AcDbLayout
  1
レイアウト1
 70
     0
 71
     1
 10
0.0
 20
0.0
 11
420.0
 21
297.0
 12
0.0
 22
0.0
 32
0.0
 14
1.000000000000000E+20
 24
1.000000000000000E+20
 34
1.000000000000000E+20
 15
-1.000000000000000E+20
 25
-1.000000000000000E+20
 35
-1.000000000000000E+20
146
0.0
 13
0.0
 23
0.0
 33
0.0
 16
1.0
 26
0.0
 36
0.0
 17
0.0
 27
1.0
 37
0.0
 76
     0
330
A2E2
  0
MATERIAL
  5
A5A3
102
{ACAD_XDICTIONARY
360
A5A4
102
}
102
{ACAD_REACTORS
330
A59A
102
}
330
A59A
100
AcDbMaterial
  1
ByBlock
 72
     0
 43
0.0208333333333333
 43
0.0
 43
0.0
 43
0.0
 43
0.0
 43
0.0208333333333333
 43
0.0
 43
0.0
 43
0.0
 43
0.0
 43
1.0
 43
0.0
 43
0.0
 43
0.0
 43
0.0
 43
1.0
 77
     0
 47
0.0208333333333333
 47
0.0
 47
0.0
 47
0.0
 47
0.0
 47
0.0208333333333333
 47
0.0
 47
0.0
 47
0.0
 47
0.0
 47
1.0
 47
0.0
 47
0.0
 47
0.0
 47
0.0
 47
1.0
171
     0
 49
0.0208333333333333
 49
0.0
 49
0.0
 49
0.0
 49
0.0
 49
0.0208333333333333
 49
0.0
 49
0.0
 49
0.0
 49
0.0
 49
1.0
 49
0.0
 49
0.0
 49
0.0
 49
0.0
 49
1.0
175
     0
142
0.0208333333333333
142
0.0
142
0.0
142
0.0
142
0.0
142
0.0208333333333333
142
0.0
142
0.0
142
0.0
142
0.0
142
1.0
142
0.0
142
0.0
142
0.0
142
0.0
142
1.0
179
     0
144
0.0208333333333333
144
0.0
144
0.0
144
0.0
144
0.0
144
0.0208333333333333
144
0.0
144
0.0
144
0.0
144
0.0
144
1.0
144
0.0
144
0.0
144
0.0
144
0.0
144
1.0
147
0.0208333333333333
147
0.0
147
0.0
147
0.0
147
0.0
147
0.0208333333333333
147
0.0
147
0.0
147
0.0
147
0.0
147
1.0
147
0.0
147
0.0
147
0.0
147
0.0
147
1.0
  0
MATERIAL
  5
A59B
102
{ACAD_XDICTIONARY
360
A59C
102
}
102
{ACAD_REACTORS
330
A59A
102
}
330
A59A
100
AcDbMaterial
  1
ByLayer
 72
     0
 43
0.0208333333333333
 43
0.0
 43
0.0
 43
0.0
 43
0.0
 43
0.0208333333333333
 43
0.0
 43
0.0
 43
0.0
 43
0.0
 43
1.0
 43
0.0
 43
0.0
 43
0.0
 43
0.0
 43
1.0
 77
     0
 47
0.0208333333333333
 47
0.0
 47
0.0
 47
0.0
 47
0.0
 47
0.0208333333333333
 47
0.0
 47
0.0
 47
0.0
 47
0.0
 47
1.0
 47
0.0
 47
0.0
 47
0.0
 47
0.0
 47
1.0
171
     0
 49
0.0208333333333333
 49
0.0
 49
0.0
 49
0.0
 49
0.0
 49
0.0208333333333333
 49
0.0
 49
0.0
 49
0.0
 49
0.0
 49
1.0
 49
0.0
 49
0.0
 49
0.0
 49
0.0
 49
1.0
175
     0
142
0.0208333333333333
142
0.0
142
0.0
142
0.0
142
0.0
142
0.0208333333333333
142
0.0
142
0.0
142
0.0
142
0.0
142
1.0
142
0.0
142
0.0
142
0.0
142
0.0
142
1.0
179
     0
144
0.0208333333333333
144
0.0
144
0.0
144
0.0
144
0.0
144
0.0208333333333333
144
0.0
144
0.0
144
0.0
144
0.0
144
1.0
144
0.0
144
0.0
144
0.0
144
0.0
144
1.0
147
0.0208333333333333
147
0.0
147
0.0
147
0.0
147
0.0
147
0.0208333333333333
147
0.0
147
0.0
147
0.0
147
0.0
147
1.0
147
0.0
147
0.0
147
0.0
147
0.0
147
1.0
  0
MATERIAL
  5
A5AB
102
{ACAD_XDICTIONARY
360
A5AC
102
}
102
{ACAD_REACTORS
330
A59A
102
}
330
A59A
100
AcDbMaterial
  1
Global
 72
     0
 43
0.0208333333333333
 43
0.0
 43
0.0
 43
0.0
 43
0.0
 43
0.0208333333333333
 43
0.0
 43
0.0
 43
0.0
 43
0.0
 43
1.0
 43
0.0
 43
0.0
 43
0.0
 43
0.0
 43
1.0
 77
     0
 47
0.0208333333333333
 47
0.0
 47
0.0
 47
0.0
 47
0.0
 47
0.0208333333333333
 47
0.0
 47
0.0
 47
0.0
 47
0.0
 47
1.0
 47
0.0
 47
0.0
 47
0.0
 47
0.0
 47
1.0
171
     0
 49
0.0208333333333333
 49
0.0
 49
0.0
 49
0.0
 49
0.0
 49
0.0208333333333333
 49
0.0
 49
0.0
 49
0.0
 49
0.0
 49
1.0
 49
0.0
 49
0.0
 49
0.0
 49
0.0
 49
1.0
175
     0
142
0.0208333333333333
142
0.0
142
0.0
142
0.0
142
0.0
142
0.0208333333333333
142
0.0
142
0.0
142
0.0
142
0.0
142
1.0
142
0.0
142
0.0
142
0.0
142
0.0
142
1.0
179
     0
144
0.0208333333333333
144
0.0
144
0.0
144
0.0
144
0.0
144
0.0208333333333333
144
0.0
144
0.0
144
0.0
144
0.0
144
1.0
144
0.0
144
0.0
144
0.0
144
0.0
144
1.0
147
0.0208333333333333
147
0.0
147
0.0
147
0.0
147
0.0
147
0.0208333333333333
147
0.0
147
0.0
147
0.0
147
0.0
147
1.0
147
0.0
147
0.0
147
0.0
147
0.0
147
1.0
  0
MLEADERSTYLE
  5
A5E2
102
{ACAD_REACTORS
330
A5E1
102
}
330
A5E1
100
AcDbMLeaderStyle
170
     2
171
     1
172
     0
 90
        2
 40
0.0
 41
0.0
173
     1
 91
-1056964608
340
A2DB
 92
       -2
290
     1
 42
0.09
291
     1
 43
0.36
  3
Standard
 44
0.18
300

342
A2D9
174
     1
178
     6
175
     1
176
     0
 93
-1056964608
 45
0.18
292
     0
297
     0
 46
0.18
 94
-1056964608
 47
1.0
 49
1.0
140
1.0
293
     1
141
0.0
294
     1
177
     0
142
1.0
295
     0
296
     0
143
0.125
1001
ACAD_MLEADERVER
1070
     2
  0
MLINESTYLE
  5
A2DF
102
{ACAD_REACTORS
330
A2DE
102
}
330
A2DE
100
AcDbMlineStyle
  2
STANDARD
 70
     0
  3

 62
   256
 51
90.0
 52
90.0
 71
     2
 49
0.5
 62
   256
  6
BYLAYER
 49
-0.5
 62
   256
  6
BYLAYER
  0
ACDBPLACEHOLDER
  5
A599
102
{ACAD_REACTORS
330
A598
102
}
330
A598
  0
SCALE
  5
A5D0
102
{ACAD_REACTORS
330
A5CF
102
}
330
A5CF
100
AcDbScale
 70
     0
300
1:1
140
1.0
141
1.0
290
     1
  0
SCALE
  5
A5D1
102
{ACAD_REACTORS
330
A5CF
102
}
330
A5CF
100
AcDbScale
 70
     0
300
1/128" = 1'-0"
140
0.0078125
141
12.0
290
     0
  0
SCALE
  5
A5D2
102
{ACAD_REACTORS
330
A5CF
102
}
330
A5CF
100
AcDbScale
 70
     0
300
1/64" = 1'-0"
140
0.015625
141
12.0
290
     0
  0
SCALE
  5
A5D3
102
{ACAD_REACTORS
330
A5CF
102
}
330
A5CF
100
AcDbScale
 70
     0
300
1/32" = 1'-0"
140
0.03125
141
12.0
290
     0
  0
SCALE
  5
A5D4
102
{ACAD_REACTORS
330
A5CF
102
}
330
A5CF
100
AcDbScale
 70
     0
300
1/16" = 1'-0"
140
0.0625
141
12.0
290
     0
  0
SCALE
  5
A5D5
102
{ACAD_REACTORS
330
A5CF
102
}
330
A5CF
100
AcDbScale
 70
     0
300
3/32" = 1'-0"
140
0.09375
141
12.0
290
     0
  0
SCALE
  5
A5D6
102
{ACAD_REACTORS
330
A5CF
102
}
330
A5CF
100
AcDbScale
 70
     0
300
1/8" = 1'-0"
140
0.125
141
12.0
290
     0
  0
SCALE
  5
A5D7
102
{ACAD_REACTORS
330
A5CF
102
}
330
A5CF
100
AcDbScale
 70
     0
300
3/16" = 1'-0"
140
0.1875
141
12.0
290
     0
  0
SCALE
  5
A5D8
102
{ACAD_REACTORS
330
A5CF
102
}
330
A5CF
100
AcDbScale
 70
     0
300
1/4" = 1'-0"
140
0.25
141
12.0
290
     0
  0
SCALE
  5
A5D9
102
{ACAD_REACTORS
330
A5CF
102
}
330
A5CF
100
AcDbScale
 70
     0
300
3/8" = 1'-0"
140
0.375
141
12.0
290
     0
  0
SCALE
  5
A5DA
102
{ACAD_REACTORS
330
A5CF
102
}
330
A5CF
100
AcDbScale
 70
     0
300
1/2" = 1'-0"
140
0.5
141
12.0
290
     0
  0
SCALE
  5
A5DB
102
{ACAD_REACTORS
330
A5CF
102
}
330
A5CF
100
AcDbScale
 70
     0
300
3/4" = 1'-0"
140
0.75
141
12.0
290
     0
  0
SCALE
  5
A5DC
102
{ACAD_REACTORS
330
A5CF
102
}
330
A5CF
100
AcDbScale
 70
     0
300
1" = 1'-0"
140
1.0
141
12.0
290
     0
  0
SCALE
  5
A5DD
102
{ACAD_REACTORS
330
A5CF
102
}
330
A5CF
100
AcDbScale
 70
     0
300
1-1/2" = 1'-0"
140
1.5
141
12.0
290
     0
  0
SCALE
  5
A5DE
102
{ACAD_REACTORS
330
A5CF
102
}
330
A5CF
100
AcDbScale
 70
     0
300
3" = 1'-0"
140
3.0
141
12.0
290
     0
  0
SCALE
  5
A5DF
102
{ACAD_REACTORS
330
A5CF
102
}
330
A5CF
100
AcDbScale
 70
     0
300
6" = 1'-0"
140
6.0
141
12.0
290
     0
  0
SCALE
  5
A5E0
102
{ACAD_REACTORS
330
A5CF
102
}
330
A5CF
100
AcDbScale
 70
     0
300
1'-0" = 1'-0"
140
12.0
141
12.0
290
     0
  0
ACDBSECTIONVIEWSTYLE
  5
A5E4
102
{ACAD_XDICTIONARY
360
A63F
102
}
102
{ACAD_REACTORS
330
A5E3
102
}
330
A5E3
100
AcDbModelDocViewStyle
 70
     0
  3
Imperial24
290
     0
100
AcDbSectionViewStyle
 70
     0
 71
     0
 90
       78
 71
     1
340
A2D9
 40
0.24
340
0
340
0
 40
0.24
300
I, O, Q, S, X, Z
 40
0.48
 90
        3
 40
0.18
 90
        1
 71
     2
340
A2DD
 90
       25
340
A2DD
 90
       50
 40
0.24
 40
0.0
 40
0.24
 71
     3
340
A2D9
 40
0.24
 90
        1
 40
0.75
 90
        1
300
%<\AcVar ViewType \f "%tc1">% %<\AcVar ViewSectionStartId>%-%<\AcVar ViewSectionEndId>%\PSCALE %<\AcVar ViewScale \f "%sn">%
 71
     4
300
ANSI31
 40
1.0
 90
        0
290
     0
290
     0
 90
        6
 40
0.0
 40
1.570796326794896
 40
0.2617993877991494
 40
1.308996938995747
 40
-0.2617993877991494
 40
1.832595714594046
  0
TABLESTYLE
  5
A5CE
102
{ACAD_XDICTIONARY
360
A606
102
}
102
{ACAD_REACTORS
330
A5CD
102
}
330
A5CD
100
AcDbTableStyle
  3
Standard
 70
     0
 71
     0
 40
0.06
 41
0.06
280
     0
281
     0
  7
STANDARD
140
0.18
170
     2
 62
     0
 63
     7
283
     0
274
    -2
284
     1
 64
     0
275
    -2
285
     1
 65
     0
276
    -2
286
     1
 66
     0
277
    -2
287
     1
 67
     0
278
    -2
288
     1
 68
     0
279
    -2
289
     1
 69
     0
  7
STANDARD
140
0.25
170
     5
 62
     0
 63
     7
283
     0
274
    -2
284
     1
 64
     0
275
    -2
285
     1
 65
     0
276
    -2
286
     1
 66
     0
277
    -2
287
     1
 67
     0
278
    -2
288
     1
 68
     0
279
    -2
289
     1
 69
     0
  7
STANDARD
140
0.18
170
     5
 62
     0
 63
     7
283
     0
274
    -2
284
     1
 64
     0
275
    -2
285
     1
 65
     0
276
    -2
286
     1
 66
     0
277
    -2
287
     1
 67
     0
278
    -2
288
     1
 68
     0
279
    -2
289
     1
 69
     0
  0
VISUALSTYLE
  5
A5B9
102
{ACAD_XDICTIONARY
360
A617
102
}
102
{ACAD_REACTORS
330
A5B3
102
}
330
A5B3
100
AcDbVisualStyle
  2
2dWireframe
 70
     4
 71
     0
 72
     2
 73
     0
 90
        0
 40
-0.6
 41
-30.0
 62
     5
 63
     7
 74
     1
 91
        4
 64
     7
 65
   257
 75
     1
175
     1
 42
1.0
 92
        0
 66
   257
 43
1.0
 76
     1
 77
     6
 78
     2
 67
     7
 79
     5
170
     0
171
     0
290
     0
174
     0
 93
        1
 44
0.0
173
     0
291
     0
 45
0.0
1001
ACAD
1000
AcDbSavedByObjectVersion
1070
     0
  0
VISUALSTYLE
  5
A5B8
102
{ACAD_XDICTIONARY
360
A615
102
}
102
{ACAD_REACTORS
330
A5B3
102
}
330
A5B3
100
AcDbVisualStyle
  2
Basic
 70
     7
 71
     1
 72
     0
 73
     1
 90
        0
 40
-0.6
 41
-30.0
 62
     5
 63
     7
 74
     0
 91
        4
 64
     7
 65
   257
 75
     1
175
     1
 42
1.0
 92
        8
 66
     7
 43
1.0
 76
     1
 77
     6
 78
     2
 67
     7
 79
     5
170
     0
171
     0
290
     0
174
     0
 93
        1
 44
0.0
173
     0
291
     1
 45
0.0
1001
ACAD
1000
AcDbSavedByObjectVersion
1070
     0
  0
VISUALSTYLE
  5
A5BF
102
{ACAD_XDICTIONARY
360
A623
102
}
102
{ACAD_REACTORS
330
A5B3
102
}
330
A5B3
100
AcDbVisualStyle
  2
Brighten
 70
    12
 71
     2
 72
     2
 73
     0
 90
        0
 40
-0.6
 41
-30.0
 62
     5
 63
     7
 74
     1
 91
        4
 64
     7
 65
   257
 75
     1
175
     1
 42
1.0
 92
        8
 66
     7
 43
1.0
 76
     1
 77
     6
 78
     2
 67
     7
 79
     5
170
     0
171
     0
290
     0
174
     0
 93
        1
 44
50.0
173
     0
291
     1
 45
0.0
1001
ACAD
1000
AcDbSavedByObjectVersion
1070
     0
  0
VISUALSTYLE
  5
A5C3
102
{ACAD_XDICTIONARY
360
A62B
102
}
102
{ACAD_REACTORS
330
A5B3
102
}
330
A5B3
100
AcDbVisualStyle
  2
ColorChange
 70
    16
 71
     2
 72
     2
 73
     3
 90
        0
 40
-0.6
 41
-30.0
 62
     5
 63
     8
 74
     1
 91
        4
 64
     7
 65
   257
 75
     1
175
     1
 42
1.0
 92
        8
 66
     8
 43
1.0
 76
     1
 77
     6
 78
     2
 67
     7
 79
     5
170
     0
171
     0
290
     0
174
     0
 93
        1
 44
0.0
173
     0
291
     1
 45
0.0
1001
ACAD
1000
AcDbSavedByObjectVersion
1070
     0
  0
VISUALSTYLE
  5
A5BC
102
{ACAD_XDICTIONARY
360
A61D
102
}
102
{ACAD_REACTORS
330
A5B3
102
}
330
A5B3
100
AcDbVisualStyle
  2
Conceptual
 70
     9
 71
     3
 72
     2
 73
     0
 90
        0
 40
-0.6
 41
-30.0
 62
     5
 63
     7
 74
     2
 91
        2
 64
     7
 65
   257
 75
     1
175
     1
 42
179.0
 92
        8
 66
     7
 43
1.0
 76
     1
 77
     6
 78
     2
 67
     7
 79
     3
170
     0
171
     0
290
     0
174
     0
 93
        1
 44
0.0
173
     0
291
     0
 45
0.0
1001
ACAD
1000
AcDbSavedByObjectVersion
1070
     0
  0
VISUALSTYLE
  5
A5BE
102
{ACAD_XDICTIONARY
360
A621
102
}
102
{ACAD_REACTORS
330
A5B3
102
}
330
A5B3
100
AcDbVisualStyle
  2
Dim
 70
    11
 71
     2
 72
     2
 73
     0
 90
        0
 40
-0.6
 41
-30.0
 62
     5
 63
     7
 74
     1
 91
        4
 64
     7
 65
   257
 75
     1
175
     1
 42
1.0
 92
        8
 66
     7
 43
1.0
 76
     1
 77
     6
 78
     2
 67
     7
 79
     5
170
     0
171
     0
290
     0
174
     0
 93
        1
 44
-50.0
173
     0
291
     1
 45
0.0
1001
ACAD
1000
AcDbSavedByObjectVersion
1070
     0
  0
VISUALSTYLE
  5
A5CB
102
{ACAD_XDICTIONARY
360
A63B
102
}
102
{ACAD_REACTORS
330
A5B3
102
}
330
A5B3
100
AcDbVisualStyle
  2
EdgeColorOff
 70
    22
 71
     2
 72
     2
 73
     0
 90
        0
 40
-0.6
 41
-30.0
 62
     5
 63
     7
 74
     1
 91
        4
 64
     7
 65
   257
 75
     1
175
     1
 42
1.0
 92
        8
 66
     7
 43
1.0
 76
     1
 77
     6
 78
     2
 67
     7
 79
     5
170
     0
171
     0
290
     0
174
     0
 93
        1
 44
0.0
173
     0
291
     1
 45
0.0
1001
ACAD
1000
AcDbSavedByObjectVersion
1070
     0
  0
VISUALSTYLE
  5
A5C2
102
{ACAD_XDICTIONARY
360
A629
102
}
102
{ACAD_REACTORS
330
A5B3
102
}
330
A5B3
100
AcDbVisualStyle
  2
Facepattern
 70
    15
 71
     2
 72
     2
 73
     0
 90
        0
 40
-0.6
 41
-30.0
 62
     5
 63
     7
 74
     1
 91
        4
 64
     7
 65
   257
 75
     1
175
     1
 42
1.0
 92
        8
 66
     7
 43
1.0
 76
     1
 77
     6
 78
     2
 67
     7
 79
     5
170
     0
171
     0
290
     0
174
     0
 93
        1
 44
0.0
173
     0
291
     1
 45
0.0
1001
ACAD
1000
AcDbSavedByObjectVersion
1070
     0
  0
VISUALSTYLE
  5
A5B4
102
{ACAD_XDICTIONARY
360
A60D
102
}
102
{ACAD_REACTORS
330
A5B3
102
}
330
A5B3
100
AcDbVisualStyle
  2
Flat
 70
     0
 71
     2
 72
     1
 73
     1
 90
        2
 40
-0.6
 41
30.0
 62
     5
 63
     7
 74
     0
 91
        0
 64
     7
 65
   257
 75
     1
175
     1
 42
1.0
 92
        8
 66
     7
 43
1.0
 76
     1
 77
     6
 78
     2
 67
     7
 79
     5
170
     0
171
     0
290
     0
174
     0
 93
       13
 44
0.0
173
     0
291
     1
 45
0.0
1001
ACAD
1000
AcDbSavedByObjectVersion
1070
     0
  0
VISUALSTYLE
  5
A5B5
102
{ACAD_XDICTIONARY
360
A60F
102
}
102
{ACAD_REACTORS
330
A5B3
102
}
330
A5B3
100
AcDbVisualStyle
  2
FlatWithEdges
 70
     1
 71
     2
 72
     1
 73
     1
 90
        2
 40
-0.6
 41
30.0
 62
     5
 63
     7
 74
     1
 91
        0
 64
     7
 65
   257
 75
     1
175
     1
 42
1.0
 92
        0
 66
   257
 43
1.0
 76
     1
 77
     6
 78
     2
 67
     7
 79
     5
170
     0
171
     0
290
     0
174
     0
 93
       13
 44
0.0
173
     0
291
     1
 45
0.0
1001
ACAD
1000
AcDbSavedByObjectVersion
1070
     0
  0
VISUALSTYLE
  5
A5B6
102
{ACAD_XDICTIONARY
360
A611
102
}
102
{ACAD_REACTORS
330
A5B3
102
}
330
A5B3
100
AcDbVisualStyle
  2
Gouraud
 70
     2
 71
     2
 72
     2
 73
     1
 90
        2
 40
-0.6
 41
30.0
 62
     5
 63
     7
 74
     0
 91
        0
 64
     7
 65
   257
 75
     1
175
     1
 42
1.0
 92
        0
 66
     7
 43
1.0
 76
     1
 77
     6
 78
     2
 67
     7
 79
     5
170
     0
171
     0
290
     0
174
     0
 93
       13
 44
0.0
173
     0
291
     1
 45
0.0
1001
ACAD
1000
AcDbSavedByObjectVersion
1070
     0
  0
VISUALSTYLE
  5
A5B7
102
{ACAD_XDICTIONARY
360
A613
102
}
102
{ACAD_REACTORS
330
A5B3
102
}
330
A5B3
100
AcDbVisualStyle
  2
GouraudWithEdges
 70
     3
 71
     2
 72
     2
 73
     1
 90
        2
 40
-0.6
 41
30.0
 62
     5
 63
     7
 74
     1
 91
        0
 64
     7
 65
   257
 75
     1
175
     1
 42
1.0
 92
        0
 66
   257
 43
1.0
 76
     1
 77
     6
 78
     2
 67
     7
 79
     5
170
     0
171
     0
290
     0
174
     0
 93
       13
 44
0.0
173
     0
291
     1
 45
0.0
1001
ACAD
1000
AcDbSavedByObjectVersion
1070
     0
  0
VISUALSTYLE
  5
A5BB
102
{ACAD_XDICTIONARY
360
A61B
102
}
102
{ACAD_REACTORS
330
A5B3
102
}
330
A5B3
100
AcDbVisualStyle
  2
Hidden
 70
     6
 71
     1
 72
     2
 73
     2
 90
        0
 40
-0.6
 41
-30.0
 62
     5
 63
     7
 74
     2
 91
        2
 64
     7
 65
   257
 75
     2
175
     1
 42
40.0
 92
        0
 66
   257
 43
1.0
 76
     1
 77
     6
 78
     2
 67
     7
 79
     3
170
     0
171
     0
290
     0
174
     0
 93
        1
 44
0.0
173
     0
291
     0
 45
0.0
1001
ACAD
1000
AcDbSavedByObjectVersion
1070
     0
  0
VISUALSTYLE
  5
A5C9
102
{ACAD_XDICTIONARY
360
A637
102
}
102
{ACAD_REACTORS
330
A5B3
102
}
330
A5B3
100
AcDbVisualStyle
  2
JitterOff
 70
    20
 71
     2
 72
     2
 73
     0
 90
        0
 40
-0.6
 41
-30.0
 62
     5
 63
     7
 74
     1
 91
        4
 64
     7
 65
   257
 75
     1
175
     1
 42
1.0
 92
       10
 66
     7
 43
1.0
 76
     1
 77
     6
 78
     2
 67
     7
 79
     5
170
     0
171
     0
290
     0
174
     0
 93
        1
 44
0.0
173
     0
291
     1
 45
0.0
1001
ACAD
1000
AcDbSavedByObjectVersion
1070
     0
  0
VISUALSTYLE
  5
A5C1
102
{ACAD_XDICTIONARY
360
A627
102
}
102
{ACAD_REACTORS
330
A5B3
102
}
330
A5B3
100
AcDbVisualStyle
  2
Linepattern
 70
    14
 71
     2
 72
     2
 73
     0
 90
        0
 40
-0.6
 41
-30.0
 62
     5
 63
     7
 74
     1
 91
        4
 64
     7
 65
   257
 75
     7
175
     7
 42
1.0
 92
        8
 66
     7
 43
1.0
 76
     1
 77
     6
 78
     2
 67
     7
 79
     5
170
     0
171
     0
290
     0
174
     0
 93
        1
 44
0.0
173
     0
291
     1
 45
0.0
1001
ACAD
1000
AcDbSavedByObjectVersion
1070
     0
  0
VISUALSTYLE
  5
A5CA
102
{ACAD_XDICTIONARY
360
A639
102
}
102
{ACAD_REACTORS
330
A5B3
102
}
330
A5B3
100
AcDbVisualStyle
  2
OverhangOff
 70
    21
 71
     2
 72
     2
 73
     0
 90
        0
 40
-0.6
 41
-30.0
 62
     5
 63
     7
 74
     1
 91
        4
 64
     7
 65
   257
 75
     1
175
     1
 42
1.0
 92
        9
 66
     7
 43
1.0
 76
     1
 77
     6
 78
     2
 67
     7
 79
     5
170
     0
171
     0
290
     0
174
     0
 93
        1
 44
0.0
173
     0
291
     1
 45
0.0
1001
ACAD
1000
AcDbSavedByObjectVersion
1070
     0
  0
VISUALSTYLE
  5
A5BD
102
{ACAD_XDICTIONARY
360
A61F
102
}
102
{ACAD_REACTORS
330
A5B3
102
}
330
A5B3
100
AcDbVisualStyle
  2
Realistic
 70
     8
 71
     2
 72
     3
 73
     0
 90
        2
 40
-0.6
 41
30.0
 62
     5
 63
     7
 74
     0
 91
        0
 64
     7
 65
   257
 75
     1
175
     1
 42
1.0
 92
        8
 66
   257
 43
1.0
 76
     1
 77
     6
 78
     2
 67
     7
 79
     3
170
     0
171
     0
290
     0
174
     0
 93
       13
 44
0.0
173
     0
291
     0
 45
0.0
1001
ACAD
1000
AcDbSavedByObjectVersion
1070
     0
  0
VISUALSTYLE
  5
A5C8
102
{ACAD_XDICTIONARY
360
A635
102
}
102
{ACAD_REACTORS
330
A5B3
102
}
330
A5B3
100
AcDbVisualStyle
  2
Shaded
 70
    27
 71
     2
 72
     2
 73
     1
 90
        2
 40
-0.6
 41
30.0
 62
     5
 63
     7
 74
     0
 91
        4
 64
     7
 65
   257
 75
     1
175
     1
 42
1.0
 92
        8
 66
   257
 43
1.0
 76
     1
 77
     6
 78
     2
 67
     8
 79
     3
170
     0
171
     0
290
     0
174
     0
 93
        5
 44
0.0
173
     0
291
     0
 45
0.0
1001
ACAD
1000
AcDbSavedByObjectVersion
1070
     0
  0
VISUALSTYLE
  5
A5C7
102
{ACAD_XDICTIONARY
360
A633
102
}
102
{ACAD_REACTORS
330
A5B3
102
}
330
A5B3
100
AcDbVisualStyle
  2
Shaded with edges
 70
    26
 71
     2
 72
     2
 73
     1
 90
        2
 40
-0.6
 41
30.0
 62
     5
 63
     7
 74
     1
 91
       10
 64
     7
 65
   257
 75
     2
175
     1
 42
1.0
 92
        8
 66
   257
 43
1.0
 76
     1
 77
     6
 78
     2
 67
     7
 79
     3
170
     0
171
     0
290
     0
174
     0
 93
        5
 44
0.0
173
     0
291
     0
 45
0.0
1001
ACAD
1000
AcDbSavedByObjectVersion
1070
     0
  0
VISUALSTYLE
  5
A5C4
102
{ACAD_XDICTIONARY
360
A62D
102
}
102
{ACAD_REACTORS
330
A5B3
102
}
330
A5B3
100
AcDbVisualStyle
  2
Shades of Gray
 70
    23
 71
     2
 72
     2
 73
     3
 90
        0
 40
-0.6
 41
-30.0
 62
     5
 63
     7
 74
     2
 91
        2
 64
     7
 65
     7
 75
     1
175
     1
 42
40.0
 92
        8
 66
     7
 43
1.0
 76
     1
 77
     6
 78
     2
 67
     7
 79
     3
170
     0
171
     0
290
     0
174
     0
 93
        1
 44
0.0
173
     0
291
     0
 45
0.0
1001
ACAD
1000
AcDbSavedByObjectVersion
1070
     0
  0
VISUALSTYLE
  5
A5C5
102
{ACAD_XDICTIONARY
360
A62F
102
}
102
{ACAD_REACTORS
330
A5B3
102
}
330
A5B3
100
AcDbVisualStyle
  2
Sketchy
 70
    24
 71
     1
 72
     2
 73
     2
 90
        0
 40
-0.6
 41
-30.0
 62
     5
 63
     7
 74
     2
 91
        2
 64
     7
 65
     7
 75
     1
175
     1
 42
40.0
 92
       11
 66
     7
 43
1.0
 76
     1
 77
     6
 78
     2
 67
     7
 79
     6
170
     0
171
     0
290
     0
174
     0
 93
        1
 44
0.0
173
     0
291
     0
 45
0.0
1001
ACAD
1000
AcDbSavedByObjectVersion
1070
     0
  0
VISUALSTYLE
  5
A5C0
102
{ACAD_XDICTIONARY
360
A625
102
}
102
{ACAD_REACTORS
330
A5B3
102
}
330
A5B3
100
AcDbVisualStyle
  2
Thicken
 70
    13
 71
     2
 72
     2
 73
     0
 90
        0
 40
-0.6
 41
-30.0
 62
     5
 63
     7
 74
     1
 91
        4
 64
     7
 65
   257
 75
     1
175
     1
 42
1.0
 92
       12
 66
     7
 43
1.0
 76
     1
 77
     6
 78
     2
 67
     7
 79
     5
170
     0
171
     0
290
     0
174
     0
 93
        1
 44
0.0
173
     0
291
     1
 45
0.0
1001
ACAD
1000
AcDbSavedByObjectVersion
1070
     0
  0
VISUALSTYLE
  5
A5BA
102
{ACAD_XDICTIONARY
360
A619
102
}
102
{ACAD_REACTORS
330
A5B3
102
}
330
A5B3
100
AcDbVisualStyle
  2
Wireframe
 70
     5
 71
     0
 72
     2
 73
     0
 90
        0
 40
-0.6
 41
-30.0
 62
     5
 63
     7
 74
     1
 91
        4
 64
     7
 65
   257
 75
     1
175
     1
 42
1.0
 92
        0
 66
   257
 43
1.0
 76
     1
 77
     6
 78
     2
 67
     7
 79
     3
170
     0
171
     0
290
     0
174
     0
 93
        1
 44
0.0
173
     0
291
     0
 45
0.0
1001
ACAD
1000
AcDbSavedByObjectVersion
1070
     0
  0
VISUALSTYLE
  5
A5C6
102
{ACAD_XDICTIONARY
360
A631
102
}
102
{ACAD_REACTORS
330
A5B3
102
}
330
A5B3
100
AcDbVisualStyle
  2
X-Ray
 70
    25
 71
     2
 72
     2
 73
     1
 90
        1
 40
0.5
 41
-30.0
 62
     5
 63
     7
 74
     1
 91
        0
 64
     7
 65
   257
 75
     1
175
     1
 42
1.0
 92
        8
 66
     7
 43
1.0
 76
     1
 77
     6
 78
     2
 67
     7
 79
     3
170
     0
171
     0
290
     0
174
     0
 93
       13
 44
0.0
173
     0
291
     0
 45
0.0
1001
ACAD
1000
AcDbSavedByObjectVersion
1070
     0
  0
DICTIONARYVAR
  5
A600
102
{ACAD_REACTORS
330
A5FB
102
}
330
A5FB
100
DictionaryVariables
280
     0
  1
1:1
  0
DICTIONARYVAR
  5
A5FD
102
{ACAD_REACTORS
330
A5FB
102
}
330
A5FB
100
DictionaryVariables
280
     0
  1
STANDARD
  0
DICTIONARYVAR
  5
A5FC
102
{ACAD_REACTORS
330
A5FB
102
}
330
A5FB
100
DictionaryVariables
280
     0
  1
STANDARD
  0
DICTIONARYVAR
  5
A5FE
102
{ACAD_REACTORS
330
A5FB
102
}
330
A5FB
100
DictionaryVariables
280
     0
  1
Imperial24
  0
DICTIONARYVAR
  5
A5FF
102
{ACAD_REACTORS
330
A5FB
102
}
330
A5FB
100
DictionaryVariables
280
     0
  1
Imperial24
  0
DICTIONARYVAR
  5
A603
102
{ACAD_REACTORS
330
A5FB
102
}
330
A5FB
100
DictionaryVariables
280
     0
  1
1
  0
DICTIONARYVAR
  5
A602
102
{ACAD_REACTORS
330
A5FB
102
}
330
A5FB
100
DictionaryVariables
280
     0
  1
0
  0
DICTIONARYVAR
  5
A601
102
{ACAD_REACTORS
330
A5FB
102
}
330
A5FB
100
DictionaryVariables
280
     0
  1
127
  0
DICTIONARYVAR
  5
A604
102
{ACAD_REACTORS
330
A5FB
102
}
330
A5FB
100
DictionaryVariables
280
     0
  1
2
  0
DICTIONARY
  5
A641
330
A5E6
100
AcDbDictionary
280
     1
281
     1
  3
ACAD_XREC_ROUNDTRIP
360
A642
  0
DICTIONARY
  5
A643
330
A5E7
100
AcDbDictionary
280
     1
281
     1
  3
ACAD_XREC_ROUNDTRIP
360
A644
  0
DICTIONARY
  5
A645
330
A5E8
100
AcDbDictionary
280
     1
281
     1
  3
ACAD_XREC_ROUNDTRIP
360
A646
  0
DICTIONARY
  5
A5A4
330
A5A3
100
AcDbDictionary
280
     1
281
     1
  3
ACAD_XREC_ROUNDTRIP
360
A60B
  3
BUMPTILE
360
A5A6
  3
DIFFUSETILE
360
A5A5
  3
OPACITYTILE
360
A5A9
  3
REFLECTIONTILE
360
A5A8
  3
REFRACTIONTILE
360
A5AA
  3
SPECULARTILE
360
A5A7
  0
DICTIONARY
  5
A59C
330
A59B
100
AcDbDictionary
280
     1
281
     1
  3
ACAD_XREC_ROUNDTRIP
360
A60A
  3
BUMPTILE
360
A59E
  3
DIFFUSETILE
360
A59D
  3
OPACITYTILE
360
A5A1
  3
REFLECTIONTILE
360
A5A0
  3
REFRACTIONTILE
360
A5A2
  3
SPECULARTILE
360
A59F
  0
DICTIONARY
  5
A5AC
330
A5AB
100
AcDbDictionary
280
     1
281
     1
  3
ACAD_XREC_ROUNDTRIP
360
A60C
  3
BUMPTILE
360
A5AE
  3
DIFFUSETILE
360
A5AD
  3
OPACITYTILE
360
A5B1
  3
REFLECTIONTILE
360
A5B0
  3
REFRACTIONTILE
360
A5B2
  3
SPECULARTILE
360
A5AF
  0
DICTIONARY
  5
A63F
330
A5E4
100
AcDbDictionary
280
     1
281
     1
  3
ACAD_XREC_ROUNDTRIP
360
A640
  0
DICTIONARY
  5
A606
330
A5CE
100
AcDbDictionary
280
     1
281
     1
  3
ACAD_ROUNDTRIP_2008_TABLESTYLE_CELLSTYLEMAP
360
A607
  3
ACAD_XREC_ROUNDTRIP
360
A63D
  0
DICTIONARY
  5
A617
330
A5B9
100
AcDbDictionary
280
     1
281
     1
  3
ACAD_XREC_ROUNDTRIP
360
A618
  0
DICTIONARY
  5
A615
330
A5B8
100
AcDbDictionary
280
     1
281
     1
  3
ACAD_XREC_ROUNDTRIP
360
A616
  0
DICTIONARY
  5
A623
330
A5BF
100
AcDbDictionary
280
     1
281
     1
  3
ACAD_XREC_ROUNDTRIP
360
A624
  0
DICTIONARY
  5
A62B
330
A5C3
100
AcDbDictionary
280
     1
281
     1
  3
ACAD_XREC_ROUNDTRIP
360
A62C
  0
DICTIONARY
  5
A61D
330
A5BC
100
AcDbDictionary
280
     1
281
     1
  3
ACAD_XREC_ROUNDTRIP
360
A61E
  0
DICTIONARY
  5
A621
330
A5BE
100
AcDbDictionary
280
     1
281
     1
  3
ACAD_XREC_ROUNDTRIP
360
A622
  0
DICTIONARY
  5
A63B
330
A5CB
100
AcDbDictionary
280
     1
281
     1
  3
ACAD_XREC_ROUNDTRIP
360
A63C
  0
DICTIONARY
  5
A629
330
A5C2
100
AcDbDictionary
280
     1
281
     1
  3
ACAD_XREC_ROUNDTRIP
360
A62A
  0
DICTIONARY
  5
A60D
330
A5B4
100
AcDbDictionary
280
     1
281
     1
  3
ACAD_XREC_ROUNDTRIP
360
A60E
  0
DICTIONARY
  5
A60F
330
A5B5
100
AcDbDictionary
280
     1
281
     1
  3
ACAD_XREC_ROUNDTRIP
360
A610
  0
DICTIONARY
  5
A611
330
A5B6
100
AcDbDictionary
280
     1
281
     1
  3
ACAD_XREC_ROUNDTRIP
360
A612
  0
DICTIONARY
  5
A613
330
A5B7
100
AcDbDictionary
280
     1
281
     1
  3
ACAD_XREC_ROUNDTRIP
360
A614
  0
DICTIONARY
  5
A61B
330
A5BB
100
AcDbDictionary
280
     1
281
     1
  3
ACAD_XREC_ROUNDTRIP
360
A61C
  0
DICTIONARY
  5
A637
330
A5C9
100
AcDbDictionary
280
     1
281
     1
  3
ACAD_XREC_ROUNDTRIP
360
A638
  0
DICTIONARY
  5
A627
330
A5C1
100
AcDbDictionary
280
     1
281
     1
  3
ACAD_XREC_ROUNDTRIP
360
A628
  0
DICTIONARY
  5
A639
330
A5CA
100
AcDbDictionary
280
     1
281
     1
  3
ACAD_XREC_ROUNDTRIP
360
A63A
  0
DICTIONARY
  5
A61F
330
A5BD
100
AcDbDictionary
280
     1
281
     1
  3
ACAD_XREC_ROUNDTRIP
360
A620
  0
DICTIONARY
  5
A635
330
A5C8
100
AcDbDictionary
280
     1
281
     1
  3
ACAD_XREC_ROUNDTRIP
360
A636
  0
DICTIONARY
  5
A633
330
A5C7
100
AcDbDictionary
280
     1
281
     1
  3
ACAD_XREC_ROUNDTRIP
360
A634
  0
DICTIONARY
  5
A62D
330
A5C4
100
AcDbDictionary
280
     1
281
     1
  3
ACAD_XREC_ROUNDTRIP
360
A62E
  0
DICTIONARY
  5
A62F
330
A5C5
100
AcDbDictionary
280
     1
281
     1
  3
ACAD_XREC_ROUNDTRIP
360
A630
  0
DICTIONARY
  5
A625
330
A5C0
100
AcDbDictionary
280
     1
281
     1
  3
ACAD_XREC_ROUNDTRIP
360
A626
  0
DICTIONARY
  5
A619
330
A5BA
100
AcDbDictionary
280
     1
281
     1
  3
ACAD_XREC_ROUNDTRIP
360
A61A
  0
DICTIONARY
  5
A631
330
A5C6
100
AcDbDictionary
280
     1
281
     1
  3
ACAD_XREC_ROUNDTRIP
360
A632
  0
XRECORD
  5
A642
102
{ACAD_REACTORS
330
A641
102
}
330
A641
100
AcDbXrecord
280
     1
102
DISPLAYNAME
  1
Imperial24
102
FLAGS
 90
        0
  0
XRECORD
  5
A644
102
{ACAD_REACTORS
330
A643
102
}
330
A643
100
AcDbXrecord
280
     1
102
SHADEPLOT
 70
     0
102
SHADEPLOTRESLEVEL
 70
     2
102
SHADEPLOTCUSTOMDPI
 70
   300
  0
XRECORD
  5
A646
102
{ACAD_REACTORS
330
A645
102
}
330
A645
100
AcDbXrecord
280
     1
102
SHADEPLOT
 70
     0
102
SHADEPLOTRESLEVEL
 70
     2
102
SHADEPLOTCUSTOMDPI
 70
   300
  0
XRECORD
  5
A60B
102
{ACAD_REACTORS
330
A5A4
102
}
330
A5A4
100
AcDbXrecord
280
     1
102
MATERIAL
148
0.0
149
0.0
149
0.0
 93
        0
 94
      127
282
     0
 72
     0
 77
     0
171
     0
175
     0
179
     0
273
     0
  0
XRECORD
  5
A5A6
102
{ACAD_REACTORS
330
A5A4
102
}
330
A5A4
100
AcDbXrecord
280
     1
270
     1
271
     1
  0
XRECORD
  5
A5A5
102
{ACAD_REACTORS
330
A5A4
102
}
330
A5A4
100
AcDbXrecord
280
     1
270
     1
271
     1
  0
XRECORD
  5
A5A9
102
{ACAD_REACTORS
330
A5A4
102
}
330
A5A4
100
AcDbXrecord
280
     1
270
     1
271
     1
  0
XRECORD
  5
A5A8
102
{ACAD_REACTORS
330
A5A4
102
}
330
A5A4
100
AcDbXrecord
280
     1
270
     1
271
     1
  0
XRECORD
  5
A5AA
102
{ACAD_REACTORS
330
A5A4
102
}
330
A5A4
100
AcDbXrecord
280
     1
270
     1
271
     1
  0
XRECORD
  5
A5A7
102
{ACAD_REACTORS
330
A5A4
102
}
330
A5A4
100
AcDbXrecord
280
     1
270
     1
271
     1
  0
XRECORD
  5
A60A
102
{ACAD_REACTORS
330
A59C
102
}
330
A59C
100
AcDbXrecord
280
     1
102
MATERIAL
148
0.0
149
0.0
149
0.0
 93
        0
 94
      127
282
     0
 72
     0
 77
     0
171
     0
175
     0
179
     0
273
     0
  0
XRECORD
  5
A59E
102
{ACAD_REACTORS
330
A59C
102
}
330
A59C
100
AcDbXrecord
280
     1
270
     1
271
     1
  0
XRECORD
  5
A59D
102
{ACAD_REACTORS
330
A59C
102
}
330
A59C
100
AcDbXrecord
280
     1
270
     1
271
     1
  0
XRECORD
  5
A5A1
102
{ACAD_REACTORS
330
A59C
102
}
330
A59C
100
AcDbXrecord
280
     1
270
     1
271
     1
  0
XRECORD
  5
A5A0
102
{ACAD_REACTORS
330
A59C
102
}
330
A59C
100
AcDbXrecord
280
     1
270
     1
271
     1
  0
XRECORD
  5
A5A2
102
{ACAD_REACTORS
330
A59C
102
}
330
A59C
100
AcDbXrecord
280
     1
270
     1
271
     1
  0
XRECORD
  5
A59F
102
{ACAD_REACTORS
330
A59C
102
}
330
A59C
100
AcDbXrecord
280
     1
270
     1
271
     1
  0
XRECORD
  5
A60C
102
{ACAD_REACTORS
330
A5AC
102
}
330
A5AC
100
AcDbXrecord
280
     1
102
MATERIAL
148
0.0
149
0.0
149
0.0
 93
        0
 94
      127
282
     0
 72
     0
 77
     0
171
     0
175
     0
179
     0
273
     0
  0
XRECORD
  5
A5AE
102
{ACAD_REACTORS
330
A5AC
102
}
330
A5AC
100
AcDbXrecord
280
     1
270
     1
271
     1
  0
XRECORD
  5
A5AD
102
{ACAD_REACTORS
330
A5AC
102
}
330
A5AC
100
AcDbXrecord
280
     1
270
     1
271
     1
  0
XRECORD
  5
A5B1
102
{ACAD_REACTORS
330
A5AC
102
}
330
A5AC
100
AcDbXrecord
280
     1
270
     1
271
     1
  0
XRECORD
  5
A5B0
102
{ACAD_REACTORS
330
A5AC
102
}
330
A5AC
100
AcDbXrecord
280
     1
270
     1
271
     1
  0
XRECORD
  5
A5B2
102
{ACAD_REACTORS
330
A5AC
102
}
330
A5AC
100
AcDbXrecord
280
     1
270
     1
271
     1
  0
XRECORD
  5
A5AF
102
{ACAD_REACTORS
330
A5AC
102
}
330
A5AC
100
AcDbXrecord
280
     1
270
     1
271
     1
  0
XRECORD
  5
A640
102
{ACAD_REACTORS
330
A63F
102
}
330
A63F
100
AcDbXrecord
280
     1
102
DISPLAYNAME
  1
Imperial24
102
FLAGS
 90
        0
  0
CELLSTYLEMAP
  5
A607
102
{ACAD_REACTORS
330
A606
102
}
330
A606
100
AcDbCellStyleMap
 90
        3
300
CELLSTYLE
  1
TABLEFORMAT_BEGIN
 90
        5
170
     1
 91
        0
 92
    32768
 62
   257
 93
        1
300
CONTENTFORMAT
  1
CONTENTFORMAT_BEGIN
 90
        0
 91
        0
 92
      512
 93
        0
300

 40
0.0
140
1.0
 94
        5
 62
     0
340
A2D9
144
0.25
309
CONTENTFORMAT_END
171
     0
 94
        0
309
TABLEFORMAT_END
  1
CELLSTYLE_BEGIN
 90
        1
 91
        1
300
_TITLE
309
CELLSTYLE_END
300
CELLSTYLE
  1
TABLEFORMAT_BEGIN
 90
        5
170
     1
 91
        0
 92
        0
 62
   257
 93
        1
300
CONTENTFORMAT
  1
CONTENTFORMAT_BEGIN
 90
        0
 91
        0
 92
      512
 93
        0
300

 40
0.0
140
1.0
 94
        5
 62
     0
340
A2D9
144
0.18
309
CONTENTFORMAT_END
171
     0
 94
        0
309
TABLEFORMAT_END
  1
CELLSTYLE_BEGIN
 90
        2
 91
        1
300
_HEADER
309
CELLSTYLE_END
300
CELLSTYLE
  1
TABLEFORMAT_BEGIN
 90
        5
170
     1
 91
        0
 92
        0
 62
   257
 93
        1
300
CONTENTFORMAT
  1
CONTENTFORMAT_BEGIN
 90
        0
 91
        0
 92
      512
 93
        0
300

 40
0.0
140
1.0
 94
        2
 62
     0
340
A2D9
144
0.18
309
CONTENTFORMAT_END
171
     0
 94
        0
309
TABLEFORMAT_END
  1
CELLSTYLE_BEGIN
 90
        3
 91
        2
300
_DATA
309
CELLSTYLE_END
  0
XRECORD
  5
A63D
102
{ACAD_REACTORS
330
A606
102
}
330
A606
100
AcDbXrecord
280
     1
102
ACAD_ROUNDTRIP_PRE2007_TABLESTYLE
 90
      512
 91
        0
  1

 92
      512
 93
        0
  2

 94
      512
 95
        0
  3

  0
XRECORD
  5
A618
102
{ACAD_REACTORS
330
A617
102
}
330
A617
100
AcDbXrecord
280
     1
102
RTVSPost2010Prop28
280
     1
102
RTVSPost2010PropOp28
 70
     1
102
RTVSPost2010Prop29
280
     1
102
RTVSPost2010PropOp29
 70
     1
102
RTVSPost2010Prop30
280
     0
102
RTVSPost2010PropOp30
 70
     1
102
RTVSPost2010Prop31
280
     0
102
RTVSPost2010PropOp31
 70
     1
102
RTVSPost2010Prop32
280
     0
102
RTVSPost2010PropOp32
 70
     1
102
RTVSPost2010Prop33
280
     0
102
RTVSPost2010PropOp33
 70
     1
102
RTVSPost2010Prop34
280
     0
102
RTVSPost2010PropOp34
 70
     1
102
RTVSPost2010Prop35
280
     0
102
RTVSPost2010PropOp35
 70
     1
102
RTVSPost2010Prop36
280
     0
102
RTVSPost2010PropOp36
 70
     1
102
RTVSPost2010Prop37
 90
       50
102
RTVSPost2010PropOp37
 70
     1
102
RTVSPost2010Prop38
140
0.0
102
RTVSPost2010PropOp38
 70
     1
102
RTVSPost2010Prop39
140
1.0
102
RTVSPost2010PropOp39
 70
     1
102
RTVSPost2010Prop40
 90
        0
102
RTVSPost2010PropOp40
 70
     1
102
RTVSPost2010Prop41ColorIndex
 90
       18
102
RTVSPost2010Prop41ColorRGB
 90
        0
102
RTVSPost2010PropOp41
 70
     1
102
RTVSPost2010Prop42
 90
       50
102
RTVSPost2010PropOp42
 70
     1
102
RTVSPost2010Prop43
 90
        3
102
RTVSPost2010PropOp43
 70
     1
102
RTVSPost2010Prop44ColorIndex
 90
        5
102
RTVSPost2010Prop44ColorRGB
 90
      255
102
RTVSPost2010PropOp44
 70
     1
102
RTVSPost2010Prop45
280
     0
102
RTVSPost2010PropOp45
 70
     1
102
RTVSPost2010Prop46
 90
       50
102
RTVSPost2010PropOp46
 70
     1
102
RTVSPost2010Prop47
 90
       50
102
RTVSPost2010PropOp47
 70
     1
102
RTVSPost2010Prop48
 90
       50
102
RTVSPost2010PropOp48
 70
     1
102
RTVSPost2010Prop49
280
     0
102
RTVSPost2010PropOp49
 70
     1
102
RTVSPost2010Prop50
 90
       50
102
RTVSPost2010PropOp50
 70
     1
102
RTVSPost2010Prop51ColorIndex
 90
      256
102
RTVSPost2010Prop51ColorRGB
 90
-16777216
102
RTVSPost2010PropOp51
 70
     0
102
RTVSPost2010Prop52
140
1.0
102
RTVSPost2010PropOp52
 70
     0
102
RTVSPost2010Prop53
 90
        2
102
RTVSPost2010PropOp53
 70
     1
102
RTVSPost2010Prop54
  1
strokes_ogs.tif
102
RTVSPost2010PropOp54
 70
     1
102
RTVSPost2010Prop55
280
     0
102
RTVSPost2010PropOp55
 70
     1
102
RTVSPost2010Prop56
140
1.0
102
RTVSPost2010PropOp56
 70
     1
102
RTVSPost2010Prop57
140
1.0
102
RTVSPost2010PropOp57
 70
     1
102
RTVSPropertyOp0
 70
     1
102
RTVSPropertyOp1
 70
     1
102
RTVSPropertyOp2
 70
     1
102
RTVSPropertyOp3
 70
     1
102
RTVSPropertyOp4
 70
     1
102
RTVSPropertyOp5
 70
     1
102
RTVSPropertyOp6
 70
     1
102
RTVSPropertyOp7
 70
     1
102
RTVSPropertyOp8
 70
     1
102
RTVSPropertyOp9
 70
     1
102
RTVSPropertyOp10
 70
     1
102
RTVSPropertyOp11
 70
     1
102
RTVSPropertyOp12
 70
     1
102
RTVSPropertyOp13
 70
     1
102
RTVSPropertyOp14
 70
     1
102
RTVSPropertyOp15
 70
     1
102
RTVSPropertyOp16
 70
     1
102
RTVSPropertyOp17
 70
     1
102
RTVSPropertyOp18
 70
     1
102
RTVSPropertyOp19
 70
     1
102
RTVSPropertyOp20
 70
     1
102
RTVSPropertyOp21
 70
     1
102
RTVSPropertyOp22
 70
     1
102
RTVSPropertyOp23
 70
     1
102
RTVSPropertyOp24
 70
     1
102
RTVSPropertyOp25
 70
     1
102
RTVSPropertyOp26
 70
     1
102
RTVSPropertyOp27
 70
     1
102
RTVSPropertyOp28
 70
     1
102
RTVSPropertyOp29
 70
     1
102
RTVSPropertyOp30
 70
     1
102
RTVSPropertyOp31
 70
     1
102
RTVSPropertyOp32
 70
     1
102
RTVSPropertyOp33
 70
     1
102
RTVSPropertyOp34
 70
     1
102
RTVSPropertyOp35
 70
     1
102
RTVSPropertyOp36
 70
     1
102
RTVSPropertyOp37
 70
     1
102
RTVSPropertyOp38
 70
     1
102
RTVSPropertyOp39
 70
     1
102
RTVSPropertyOp40
 70
     1
102
RTVSPropertyOp41
 70
     1
102
RTVSPropertyOp42
 70
     1
102
RTVSPropertyOp43
 70
     1
102
RTVSPropertyOp44
 70
     1
102
RTVSPropertyOp45
 70
     1
102
RTVSPropertyOp46
 70
     1
102
RTVSPropertyOp47
 70
     1
102
RTVSPropertyOp48
 70
     1
102
RTVSPropertyOp49
 70
     1
102
RTVSPropertyOp50
 70
     1
102
RTVSPropertyOp51
 70
     0
102
RTVSPropertyOp52
 70
     0
102
RTVSPropertyOp53
 70
     1
102
RTVSPropertyOp54
 70
     1
102
RTVSPropertyOp55
 70
     1
102
RTVSPropertyOp56
 70
     1
102
RTVSPropertyOp57
 70
     1
102
RTVSPropertyOp58
 70
     1
102
RTVSPropertyOp59
 70
     1
102
RTVSPropertyOp60
 70
     1
102
RTVSPropertyOp61
 70
     1
102
RTVSPropertyOp62
 70
     1
  0
XRECORD
  5
A616
102
{ACAD_REACTORS
330
A615
102
}
330
A615
100
AcDbXrecord
280
     1
102
RTVSPost2010Prop28
280
     0
102
RTVSPost2010PropOp28
 70
     1
102
RTVSPost2010Prop29
280
     1
102
RTVSPost2010PropOp29
 70
     1
102
RTVSPost2010Prop30
280
     1
102
RTVSPost2010PropOp30
 70
     1
102
RTVSPost2010Prop31
280
     0
102
RTVSPost2010PropOp31
 70
     1
102
RTVSPost2010Prop32
280
     0
102
RTVSPost2010PropOp32
 70
     1
102
RTVSPost2010Prop33
280
     0
102
RTVSPost2010PropOp33
 70
     1
102
RTVSPost2010Prop34
280
     0
102
RTVSPost2010PropOp34
 70
     1
102
RTVSPost2010Prop35
280
     0
102
RTVSPost2010PropOp35
 70
     1
102
RTVSPost2010Prop36
280
     0
102
RTVSPost2010PropOp36
 70
     1
102
RTVSPost2010Prop37
 90
       50
102
RTVSPost2010PropOp37
 70
     1
102
RTVSPost2010Prop38
140
0.0
102
RTVSPost2010PropOp38
 70
     1
102
RTVSPost2010Prop39
140
1.0
102
RTVSPost2010PropOp39
 70
     1
102
RTVSPost2010Prop40
 90
        0
102
RTVSPost2010PropOp40
 70
     1
102
RTVSPost2010Prop41ColorIndex
 90
       18
102
RTVSPost2010Prop41ColorRGB
 90
        0
102
RTVSPost2010PropOp41
 70
     1
102
RTVSPost2010Prop42
 90
       50
102
RTVSPost2010PropOp42
 70
     1
102
RTVSPost2010Prop43
 90
        3
102
RTVSPost2010PropOp43
 70
     1
102
RTVSPost2010Prop44ColorIndex
 90
        5
102
RTVSPost2010Prop44ColorRGB
 90
      255
102
RTVSPost2010PropOp44
 70
     1
102
RTVSPost2010Prop45
280
     0
102
RTVSPost2010PropOp45
 70
     1
102
RTVSPost2010Prop46
 90
       50
102
RTVSPost2010PropOp46
 70
     1
102
RTVSPost2010Prop47
 90
       50
102
RTVSPost2010PropOp47
 70
     1
102
RTVSPost2010Prop48
 90
       50
102
RTVSPost2010PropOp48
 70
     1
102
RTVSPost2010Prop49
280
     0
102
RTVSPost2010PropOp49
 70
     1
102
RTVSPost2010Prop50
 90
       50
102
RTVSPost2010PropOp50
 70
     1
102
RTVSPost2010Prop51ColorIndex
 90
      256
102
RTVSPost2010Prop51ColorRGB
 90
-16777216
102
RTVSPost2010PropOp51
 70
     0
102
RTVSPost2010Prop52
140
1.0
102
RTVSPost2010PropOp52
 70
     0
102
RTVSPost2010Prop53
 90
        2
102
RTVSPost2010PropOp53
 70
     1
102
RTVSPost2010Prop54
  1
strokes_ogs.tif
102
RTVSPost2010PropOp54
 70
     1
102
RTVSPost2010Prop55
280
     0
102
RTVSPost2010PropOp55
 70
     1
102
RTVSPost2010Prop56
140
1.0
102
RTVSPost2010PropOp56
 70
     1
102
RTVSPost2010Prop57
140
1.0
102
RTVSPost2010PropOp57
 70
     1
102
RTVSPropertyOp0
 70
     1
102
RTVSPropertyOp1
 70
     1
102
RTVSPropertyOp2
 70
     1
102
RTVSPropertyOp3
 70
     1
102
RTVSPropertyOp4
 70
     1
102
RTVSPropertyOp5
 70
     1
102
RTVSPropertyOp6
 70
     1
102
RTVSPropertyOp7
 70
     1
102
RTVSPropertyOp8
 70
     1
102
RTVSPropertyOp9
 70
     1
102
RTVSPropertyOp10
 70
     1
102
RTVSPropertyOp11
 70
     1
102
RTVSPropertyOp12
 70
     1
102
RTVSPropertyOp13
 70
     1
102
RTVSPropertyOp14
 70
     1
102
RTVSPropertyOp15
 70
     1
102
RTVSPropertyOp16
 70
     1
102
RTVSPropertyOp17
 70
     1
102
RTVSPropertyOp18
 70
     1
102
RTVSPropertyOp19
 70
     1
102
RTVSPropertyOp20
 70
     1
102
RTVSPropertyOp21
 70
     1
102
RTVSPropertyOp22
 70
     1
102
RTVSPropertyOp23
 70
     1
102
RTVSPropertyOp24
 70
     1
102
RTVSPropertyOp25
 70
     1
102
RTVSPropertyOp26
 70
     1
102
RTVSPropertyOp27
 70
     1
102
RTVSPropertyOp28
 70
     1
102
RTVSPropertyOp29
 70
     1
102
RTVSPropertyOp30
 70
     1
102
RTVSPropertyOp31
 70
     1
102
RTVSPropertyOp32
 70
     1
102
RTVSPropertyOp33
 70
     1
102
RTVSPropertyOp34
 70
     1
102
RTVSPropertyOp35
 70
     1
102
RTVSPropertyOp36
 70
     1
102
RTVSPropertyOp37
 70
     1
102
RTVSPropertyOp38
 70
     1
102
RTVSPropertyOp39
 70
     1
102
RTVSPropertyOp40
 70
     1
102
RTVSPropertyOp41
 70
     1
102
RTVSPropertyOp42
 70
     1
102
RTVSPropertyOp43
 70
     1
102
RTVSPropertyOp44
 70
     1
102
RTVSPropertyOp45
 70
     1
102
RTVSPropertyOp46
 70
     1
102
RTVSPropertyOp47
 70
     1
102
RTVSPropertyOp48
 70
     1
102
RTVSPropertyOp49
 70
     1
102
RTVSPropertyOp50
 70
     1
102
RTVSPropertyOp51
 70
     0
102
RTVSPropertyOp52
 70
     0
102
RTVSPropertyOp53
 70
     1
102
RTVSPropertyOp54
 70
     1
102
RTVSPropertyOp55
 70
     1
102
RTVSPropertyOp56
 70
     1
102
RTVSPropertyOp57
 70
     1
102
RTVSPropertyOp58
 70
     1
102
RTVSPropertyOp59
 70
     1
102
RTVSPropertyOp60
 70
     1
102
RTVSPropertyOp61
 70
     1
102
RTVSPropertyOp62
 70
     1
  0
XRECORD
  5
A624
102
{ACAD_REACTORS
330
A623
102
}
330
A623
100
AcDbXrecord
280
     1
102
RTVSPost2010Prop28
280
     0
102
RTVSPost2010PropOp28
 70
     1
102
RTVSPost2010Prop29
280
     1
102
RTVSPost2010PropOp29
 70
     1
102
RTVSPost2010Prop30
280
     1
102
RTVSPost2010PropOp30
 70
     1
102
RTVSPost2010Prop31
280
     0
102
RTVSPost2010PropOp31
 70
     1
102
RTVSPost2010Prop32
280
     0
102
RTVSPost2010PropOp32
 70
     1
102
RTVSPost2010Prop33
280
     0
102
RTVSPost2010PropOp33
 70
     1
102
RTVSPost2010Prop34
280
     0
102
RTVSPost2010PropOp34
 70
     1
102
RTVSPost2010Prop35
280
     0
102
RTVSPost2010PropOp35
 70
     1
102
RTVSPost2010Prop36
280
     0
102
RTVSPost2010PropOp36
 70
     1
102
RTVSPost2010Prop37
 90
       50
102
RTVSPost2010PropOp37
 70
     1
102
RTVSPost2010Prop38
140
0.0
102
RTVSPost2010PropOp38
 70
     1
102
RTVSPost2010Prop39
140
1.0
102
RTVSPost2010PropOp39
 70
     1
102
RTVSPost2010Prop40
 90
        0
102
RTVSPost2010PropOp40
 70
     1
102
RTVSPost2010Prop41ColorIndex
 90
       18
102
RTVSPost2010Prop41ColorRGB
 90
        0
102
RTVSPost2010PropOp41
 70
     1
102
RTVSPost2010Prop42
 90
       50
102
RTVSPost2010PropOp42
 70
     1
102
RTVSPost2010Prop43
 90
        3
102
RTVSPost2010PropOp43
 70
     1
102
RTVSPost2010Prop44ColorIndex
 90
        5
102
RTVSPost2010Prop44ColorRGB
 90
      255
102
RTVSPost2010PropOp44
 70
     1
102
RTVSPost2010Prop45
280
     0
102
RTVSPost2010PropOp45
 70
     1
102
RTVSPost2010Prop46
 90
       50
102
RTVSPost2010PropOp46
 70
     1
102
RTVSPost2010Prop47
 90
       50
102
RTVSPost2010PropOp47
 70
     1
102
RTVSPost2010Prop48
 90
       50
102
RTVSPost2010PropOp48
 70
     1
102
RTVSPost2010Prop49
280
     0
102
RTVSPost2010PropOp49
 70
     1
102
RTVSPost2010Prop50
 90
       50
102
RTVSPost2010PropOp50
 70
     1
102
RTVSPost2010Prop51ColorIndex
 90
      256
102
RTVSPost2010Prop51ColorRGB
 90
-16777216
102
RTVSPost2010PropOp51
 70
     0
102
RTVSPost2010Prop52
140
1.0
102
RTVSPost2010PropOp52
 70
     0
102
RTVSPost2010Prop53
 90
        2
102
RTVSPost2010PropOp53
 70
     1
102
RTVSPost2010Prop54
  1
strokes_ogs.tif
102
RTVSPost2010PropOp54
 70
     1
102
RTVSPost2010Prop55
280
     0
102
RTVSPost2010PropOp55
 70
     1
102
RTVSPost2010Prop56
140
1.0
102
RTVSPost2010PropOp56
 70
     1
102
RTVSPost2010Prop57
140
1.0
102
RTVSPost2010PropOp57
 70
     1
102
RTVSPropertyOp0
 70
     1
102
RTVSPropertyOp1
 70
     1
102
RTVSPropertyOp2
 70
     1
102
RTVSPropertyOp3
 70
     1
102
RTVSPropertyOp4
 70
     1
102
RTVSPropertyOp5
 70
     1
102
RTVSPropertyOp6
 70
     1
102
RTVSPropertyOp7
 70
     1
102
RTVSPropertyOp8
 70
     1
102
RTVSPropertyOp9
 70
     1
102
RTVSPropertyOp10
 70
     1
102
RTVSPropertyOp11
 70
     1
102
RTVSPropertyOp12
 70
     1
102
RTVSPropertyOp13
 70
     1
102
RTVSPropertyOp14
 70
     1
102
RTVSPropertyOp15
 70
     1
102
RTVSPropertyOp16
 70
     1
102
RTVSPropertyOp17
 70
     1
102
RTVSPropertyOp18
 70
     1
102
RTVSPropertyOp19
 70
     1
102
RTVSPropertyOp20
 70
     1
102
RTVSPropertyOp21
 70
     1
102
RTVSPropertyOp22
 70
     1
102
RTVSPropertyOp23
 70
     1
102
RTVSPropertyOp24
 70
     1
102
RTVSPropertyOp25
 70
     1
102
RTVSPropertyOp26
 70
     1
102
RTVSPropertyOp27
 70
     1
102
RTVSPropertyOp28
 70
     1
102
RTVSPropertyOp29
 70
     1
102
RTVSPropertyOp30
 70
     1
102
RTVSPropertyOp31
 70
     1
102
RTVSPropertyOp32
 70
     1
102
RTVSPropertyOp33
 70
     1
102
RTVSPropertyOp34
 70
     1
102
RTVSPropertyOp35
 70
     1
102
RTVSPropertyOp36
 70
     1
102
RTVSPropertyOp37
 70
     1
102
RTVSPropertyOp38
 70
     1
102
RTVSPropertyOp39
 70
     1
102
RTVSPropertyOp40
 70
     1
102
RTVSPropertyOp41
 70
     1
102
RTVSPropertyOp42
 70
     1
102
RTVSPropertyOp43
 70
     1
102
RTVSPropertyOp44
 70
     1
102
RTVSPropertyOp45
 70
     1
102
RTVSPropertyOp46
 70
     1
102
RTVSPropertyOp47
 70
     1
102
RTVSPropertyOp48
 70
     1
102
RTVSPropertyOp49
 70
     1
102
RTVSPropertyOp50
 70
     1
102
RTVSPropertyOp51
 70
     0
102
RTVSPropertyOp52
 70
     0
102
RTVSPropertyOp53
 70
     1
102
RTVSPropertyOp54
 70
     1
102
RTVSPropertyOp55
 70
     1
102
RTVSPropertyOp56
 70
     1
102
RTVSPropertyOp57
 70
     1
102
RTVSPropertyOp58
 70
     1
102
RTVSPropertyOp59
 70
     1
102
RTVSPropertyOp60
 70
     1
102
RTVSPropertyOp61
 70
     1
102
RTVSPropertyOp62
 70
     1
  0
XRECORD
  5
A62C
102
{ACAD_REACTORS
330
A62B
102
}
330
A62B
100
AcDbXrecord
280
     1
102
RTVSPost2010Prop28
280
     0
102
RTVSPost2010PropOp28
 70
     1
102
RTVSPost2010Prop29
280
     1
102
RTVSPost2010PropOp29
 70
     1
102
RTVSPost2010Prop30
280
     1
102
RTVSPost2010PropOp30
 70
     1
102
RTVSPost2010Prop31
280
     0
102
RTVSPost2010PropOp31
 70
     1
102
RTVSPost2010Prop32
280
     0
102
RTVSPost2010PropOp32
 70
     1
102
RTVSPost2010Prop33
280
     0
102
RTVSPost2010PropOp33
 70
     1
102
RTVSPost2010Prop34
280
     0
102
RTVSPost2010PropOp34
 70
     1
102
RTVSPost2010Prop35
280
     0
102
RTVSPost2010PropOp35
 70
     1
102
RTVSPost2010Prop36
280
     0
102
RTVSPost2010PropOp36
 70
     1
102
RTVSPost2010Prop37
 90
       50
102
RTVSPost2010PropOp37
 70
     1
102
RTVSPost2010Prop38
140
0.0
102
RTVSPost2010PropOp38
 70
     1
102
RTVSPost2010Prop39
140
1.0
102
RTVSPost2010PropOp39
 70
     1
102
RTVSPost2010Prop40
 90
        0
102
RTVSPost2010PropOp40
 70
     1
102
RTVSPost2010Prop41ColorIndex
 90
       18
102
RTVSPost2010Prop41ColorRGB
 90
        0
102
RTVSPost2010PropOp41
 70
     1
102
RTVSPost2010Prop42
 90
       50
102
RTVSPost2010PropOp42
 70
     1
102
RTVSPost2010Prop43
 90
        3
102
RTVSPost2010PropOp43
 70
     1
102
RTVSPost2010Prop44ColorIndex
 90
        5
102
RTVSPost2010Prop44ColorRGB
 90
      255
102
RTVSPost2010PropOp44
 70
     1
102
RTVSPost2010Prop45
280
     0
102
RTVSPost2010PropOp45
 70
     1
102
RTVSPost2010Prop46
 90
       50
102
RTVSPost2010PropOp46
 70
     1
102
RTVSPost2010Prop47
 90
       50
102
RTVSPost2010PropOp47
 70
     1
102
RTVSPost2010Prop48
 90
       50
102
RTVSPost2010PropOp48
 70
     1
102
RTVSPost2010Prop49
280
     0
102
RTVSPost2010PropOp49
 70
     1
102
RTVSPost2010Prop50
 90
       50
102
RTVSPost2010PropOp50
 70
     1
102
RTVSPost2010Prop51ColorIndex
 90
      256
102
RTVSPost2010Prop51ColorRGB
 90
-16777216
102
RTVSPost2010PropOp51
 70
     0
102
RTVSPost2010Prop52
140
1.0
102
RTVSPost2010PropOp52
 70
     0
102
RTVSPost2010Prop53
 90
        2
102
RTVSPost2010PropOp53
 70
     1
102
RTVSPost2010Prop54
  1
strokes_ogs.tif
102
RTVSPost2010PropOp54
 70
     1
102
RTVSPost2010Prop55
280
     0
102
RTVSPost2010PropOp55
 70
     1
102
RTVSPost2010Prop56
140
1.0
102
RTVSPost2010PropOp56
 70
     1
102
RTVSPost2010Prop57
140
1.0
102
RTVSPost2010PropOp57
 70
     1
102
RTVSPropertyOp0
 70
     1
102
RTVSPropertyOp1
 70
     1
102
RTVSPropertyOp2
 70
     1
102
RTVSPropertyOp3
 70
     1
102
RTVSPropertyOp4
 70
     1
102
RTVSPropertyOp5
 70
     1
102
RTVSPropertyOp6
 70
     1
102
RTVSPropertyOp7
 70
     1
102
RTVSPropertyOp8
 70
     1
102
RTVSPropertyOp9
 70
     1
102
RTVSPropertyOp10
 70
     1
102
RTVSPropertyOp11
 70
     1
102
RTVSPropertyOp12
 70
     1
102
RTVSPropertyOp13
 70
     1
102
RTVSPropertyOp14
 70
     1
102
RTVSPropertyOp15
 70
     1
102
RTVSPropertyOp16
 70
     1
102
RTVSPropertyOp17
 70
     1
102
RTVSPropertyOp18
 70
     1
102
RTVSPropertyOp19
 70
     1
102
RTVSPropertyOp20
 70
     1
102
RTVSPropertyOp21
 70
     1
102
RTVSPropertyOp22
 70
     1
102
RTVSPropertyOp23
 70
     1
102
RTVSPropertyOp24
 70
     1
102
RTVSPropertyOp25
 70
     1
102
RTVSPropertyOp26
 70
     1
102
RTVSPropertyOp27
 70
     1
102
RTVSPropertyOp28
 70
     1
102
RTVSPropertyOp29
 70
     1
102
RTVSPropertyOp30
 70
     1
102
RTVSPropertyOp31
 70
     1
102
RTVSPropertyOp32
 70
     1
102
RTVSPropertyOp33
 70
     1
102
RTVSPropertyOp34
 70
     1
102
RTVSPropertyOp35
 70
     1
102
RTVSPropertyOp36
 70
     1
102
RTVSPropertyOp37
 70
     1
102
RTVSPropertyOp38
 70
     1
102
RTVSPropertyOp39
 70
     1
102
RTVSPropertyOp40
 70
     1
102
RTVSPropertyOp41
 70
     1
102
RTVSPropertyOp42
 70
     1
102
RTVSPropertyOp43
 70
     1
102
RTVSPropertyOp44
 70
     1
102
RTVSPropertyOp45
 70
     1
102
RTVSPropertyOp46
 70
     1
102
RTVSPropertyOp47
 70
     1
102
RTVSPropertyOp48
 70
     1
102
RTVSPropertyOp49
 70
     1
102
RTVSPropertyOp50
 70
     1
102
RTVSPropertyOp51
 70
     0
102
RTVSPropertyOp52
 70
     0
102
RTVSPropertyOp53
 70
     1
102
RTVSPropertyOp54
 70
     1
102
RTVSPropertyOp55
 70
     1
102
RTVSPropertyOp56
 70
     1
102
RTVSPropertyOp57
 70
     1
102
RTVSPropertyOp58
 70
     1
102
RTVSPropertyOp59
 70
     1
102
RTVSPropertyOp60
 70
     1
102
RTVSPropertyOp61
 70
     1
102
RTVSPropertyOp62
 70
     1
  0
XRECORD
  5
A61E
102
{ACAD_REACTORS
330
A61D
102
}
330
A61D
100
AcDbXrecord
280
     1
102
RTVSPost2010Prop28
280
     0
102
RTVSPost2010PropOp28
 70
     1
102
RTVSPost2010Prop29
280
     1
102
RTVSPost2010PropOp29
 70
     1
102
RTVSPost2010Prop30
280
     1
102
RTVSPost2010PropOp30
 70
     1
102
RTVSPost2010Prop31
280
     0
102
RTVSPost2010PropOp31
 70
     1
102
RTVSPost2010Prop32
280
     0
102
RTVSPost2010PropOp32
 70
     1
102
RTVSPost2010Prop33
280
     0
102
RTVSPost2010PropOp33
 70
     1
102
RTVSPost2010Prop34
280
     0
102
RTVSPost2010PropOp34
 70
     1
102
RTVSPost2010Prop35
280
     0
102
RTVSPost2010PropOp35
 70
     1
102
RTVSPost2010Prop36
280
     0
102
RTVSPost2010PropOp36
 70
     1
102
RTVSPost2010Prop37
 90
       50
102
RTVSPost2010PropOp37
 70
     1
102
RTVSPost2010Prop38
140
0.0
102
RTVSPost2010PropOp38
 70
     1
102
RTVSPost2010Prop39
140
1.0
102
RTVSPost2010PropOp39
 70
     1
102
RTVSPost2010Prop40
 90
        0
102
RTVSPost2010PropOp40
 70
     1
102
RTVSPost2010Prop41ColorIndex
 90
       18
102
RTVSPost2010Prop41ColorRGB
 90
        0
102
RTVSPost2010PropOp41
 70
     1
102
RTVSPost2010Prop42
 90
       50
102
RTVSPost2010PropOp42
 70
     1
102
RTVSPost2010Prop43
 90
        3
102
RTVSPost2010PropOp43
 70
     1
102
RTVSPost2010Prop44ColorIndex
 90
        5
102
RTVSPost2010Prop44ColorRGB
 90
      255
102
RTVSPost2010PropOp44
 70
     1
102
RTVSPost2010Prop45
280
     0
102
RTVSPost2010PropOp45
 70
     1
102
RTVSPost2010Prop46
 90
       50
102
RTVSPost2010PropOp46
 70
     1
102
RTVSPost2010Prop47
 90
       50
102
RTVSPost2010PropOp47
 70
     1
102
RTVSPost2010Prop48
 90
       50
102
RTVSPost2010PropOp48
 70
     1
102
RTVSPost2010Prop49
280
     0
102
RTVSPost2010PropOp49
 70
     1
102
RTVSPost2010Prop50
 90
       50
102
RTVSPost2010PropOp50
 70
     1
102
RTVSPost2010Prop51ColorIndex
 90
      256
102
RTVSPost2010Prop51ColorRGB
 90
-16777216
102
RTVSPost2010PropOp51
 70
     0
102
RTVSPost2010Prop52
140
1.0
102
RTVSPost2010PropOp52
 70
     0
102
RTVSPost2010Prop53
 90
        2
102
RTVSPost2010PropOp53
 70
     1
102
RTVSPost2010Prop54
  1
strokes_ogs.tif
102
RTVSPost2010PropOp54
 70
     1
102
RTVSPost2010Prop55
280
     0
102
RTVSPost2010PropOp55
 70
     1
102
RTVSPost2010Prop56
140
1.0
102
RTVSPost2010PropOp56
 70
     1
102
RTVSPost2010Prop57
140
1.0
102
RTVSPost2010PropOp57
 70
     1
102
RTVSPropertyOp0
 70
     1
102
RTVSPropertyOp1
 70
     1
102
RTVSPropertyOp2
 70
     1
102
RTVSPropertyOp3
 70
     1
102
RTVSPropertyOp4
 70
     1
102
RTVSPropertyOp5
 70
     1
102
RTVSPropertyOp6
 70
     1
102
RTVSPropertyOp7
 70
     1
102
RTVSPropertyOp8
 70
     1
102
RTVSPropertyOp9
 70
     1
102
RTVSPropertyOp10
 70
     1
102
RTVSPropertyOp11
 70
     1
102
RTVSPropertyOp12
 70
     1
102
RTVSPropertyOp13
 70
     1
102
RTVSPropertyOp14
 70
     1
102
RTVSPropertyOp15
 70
     1
102
RTVSPropertyOp16
 70
     1
102
RTVSPropertyOp17
 70
     1
102
RTVSPropertyOp18
 70
     1
102
RTVSPropertyOp19
 70
     1
102
RTVSPropertyOp20
 70
     1
102
RTVSPropertyOp21
 70
     1
102
RTVSPropertyOp22
 70
     1
102
RTVSPropertyOp23
 70
     1
102
RTVSPropertyOp24
 70
     1
102
RTVSPropertyOp25
 70
     1
102
RTVSPropertyOp26
 70
     1
102
RTVSPropertyOp27
 70
     1
102
RTVSPropertyOp28
 70
     1
102
RTVSPropertyOp29
 70
     1
102
RTVSPropertyOp30
 70
     1
102
RTVSPropertyOp31
 70
     1
102
RTVSPropertyOp32
 70
     1
102
RTVSPropertyOp33
 70
     1
102
RTVSPropertyOp34
 70
     1
102
RTVSPropertyOp35
 70
     1
102
RTVSPropertyOp36
 70
     1
102
RTVSPropertyOp37
 70
     1
102
RTVSPropertyOp38
 70
     1
102
RTVSPropertyOp39
 70
     1
102
RTVSPropertyOp40
 70
     1
102
RTVSPropertyOp41
 70
     1
102
RTVSPropertyOp42
 70
     1
102
RTVSPropertyOp43
 70
     1
102
RTVSPropertyOp44
 70
     1
102
RTVSPropertyOp45
 70
     1
102
RTVSPropertyOp46
 70
     1
102
RTVSPropertyOp47
 70
     1
102
RTVSPropertyOp48
 70
     1
102
RTVSPropertyOp49
 70
     1
102
RTVSPropertyOp50
 70
     1
102
RTVSPropertyOp51
 70
     0
102
RTVSPropertyOp52
 70
     0
102
RTVSPropertyOp53
 70
     1
102
RTVSPropertyOp54
 70
     1
102
RTVSPropertyOp55
 70
     1
102
RTVSPropertyOp56
 70
     1
102
RTVSPropertyOp57
 70
     1
102
RTVSPropertyOp58
 70
     1
102
RTVSPropertyOp59
 70
     1
102
RTVSPropertyOp60
 70
     1
102
RTVSPropertyOp61
 70
     1
102
RTVSPropertyOp62
 70
     1
  0
XRECORD
  5
A622
102
{ACAD_REACTORS
330
A621
102
}
330
A621
100
AcDbXrecord
280
     1
102
RTVSPost2010Prop28
280
     0
102
RTVSPost2010PropOp28
 70
     1
102
RTVSPost2010Prop29
280
     1
102
RTVSPost2010PropOp29
 70
     1
102
RTVSPost2010Prop30
280
     1
102
RTVSPost2010PropOp30
 70
     1
102
RTVSPost2010Prop31
280
     0
102
RTVSPost2010PropOp31
 70
     1
102
RTVSPost2010Prop32
280
     0
102
RTVSPost2010PropOp32
 70
     1
102
RTVSPost2010Prop33
280
     0
102
RTVSPost2010PropOp33
 70
     1
102
RTVSPost2010Prop34
280
     0
102
RTVSPost2010PropOp34
 70
     1
102
RTVSPost2010Prop35
280
     0
102
RTVSPost2010PropOp35
 70
     1
102
RTVSPost2010Prop36
280
     0
102
RTVSPost2010PropOp36
 70
     1
102
RTVSPost2010Prop37
 90
       50
102
RTVSPost2010PropOp37
 70
     1
102
RTVSPost2010Prop38
140
0.0
102
RTVSPost2010PropOp38
 70
     1
102
RTVSPost2010Prop39
140
1.0
102
RTVSPost2010PropOp39
 70
     1
102
RTVSPost2010Prop40
 90
        0
102
RTVSPost2010PropOp40
 70
     1
102
RTVSPost2010Prop41ColorIndex
 90
       18
102
RTVSPost2010Prop41ColorRGB
 90
        0
102
RTVSPost2010PropOp41
 70
     1
102
RTVSPost2010Prop42
 90
       50
102
RTVSPost2010PropOp42
 70
     1
102
RTVSPost2010Prop43
 90
        3
102
RTVSPost2010PropOp43
 70
     1
102
RTVSPost2010Prop44ColorIndex
 90
        5
102
RTVSPost2010Prop44ColorRGB
 90
      255
102
RTVSPost2010PropOp44
 70
     1
102
RTVSPost2010Prop45
280
     0
102
RTVSPost2010PropOp45
 70
     1
102
RTVSPost2010Prop46
 90
       50
102
RTVSPost2010PropOp46
 70
     1
102
RTVSPost2010Prop47
 90
       50
102
RTVSPost2010PropOp47
 70
     1
102
RTVSPost2010Prop48
 90
       50
102
RTVSPost2010PropOp48
 70
     1
102
RTVSPost2010Prop49
280
     0
102
RTVSPost2010PropOp49
 70
     1
102
RTVSPost2010Prop50
 90
       50
102
RTVSPost2010PropOp50
 70
     1
102
RTVSPost2010Prop51ColorIndex
 90
      256
102
RTVSPost2010Prop51ColorRGB
 90
-16777216
102
RTVSPost2010PropOp51
 70
     0
102
RTVSPost2010Prop52
140
1.0
102
RTVSPost2010PropOp52
 70
     0
102
RTVSPost2010Prop53
 90
        2
102
RTVSPost2010PropOp53
 70
     1
102
RTVSPost2010Prop54
  1
strokes_ogs.tif
102
RTVSPost2010PropOp54
 70
     1
102
RTVSPost2010Prop55
280
     0
102
RTVSPost2010PropOp55
 70
     1
102
RTVSPost2010Prop56
140
1.0
102
RTVSPost2010PropOp56
 70
     1
102
RTVSPost2010Prop57
140
1.0
102
RTVSPost2010PropOp57
 70
     1
102
RTVSPropertyOp0
 70
     1
102
RTVSPropertyOp1
 70
     1
102
RTVSPropertyOp2
 70
     1
102
RTVSPropertyOp3
 70
     1
102
RTVSPropertyOp4
 70
     1
102
RTVSPropertyOp5
 70
     1
102
RTVSPropertyOp6
 70
     1
102
RTVSPropertyOp7
 70
     1
102
RTVSPropertyOp8
 70
     1
102
RTVSPropertyOp9
 70
     1
102
RTVSPropertyOp10
 70
     1
102
RTVSPropertyOp11
 70
     1
102
RTVSPropertyOp12
 70
     1
102
RTVSPropertyOp13
 70
     1
102
RTVSPropertyOp14
 70
     1
102
RTVSPropertyOp15
 70
     1
102
RTVSPropertyOp16
 70
     1
102
RTVSPropertyOp17
 70
     1
102
RTVSPropertyOp18
 70
     1
102
RTVSPropertyOp19
 70
     1
102
RTVSPropertyOp20
 70
     1
102
RTVSPropertyOp21
 70
     1
102
RTVSPropertyOp22
 70
     1
102
RTVSPropertyOp23
 70
     1
102
RTVSPropertyOp24
 70
     1
102
RTVSPropertyOp25
 70
     1
102
RTVSPropertyOp26
 70
     1
102
RTVSPropertyOp27
 70
     1
102
RTVSPropertyOp28
 70
     1
102
RTVSPropertyOp29
 70
     1
102
RTVSPropertyOp30
 70
     1
102
RTVSPropertyOp31
 70
     1
102
RTVSPropertyOp32
 70
     1
102
RTVSPropertyOp33
 70
     1
102
RTVSPropertyOp34
 70
     1
102
RTVSPropertyOp35
 70
     1
102
RTVSPropertyOp36
 70
     1
102
RTVSPropertyOp37
 70
     1
102
RTVSPropertyOp38
 70
     1
102
RTVSPropertyOp39
 70
     1
102
RTVSPropertyOp40
 70
     1
102
RTVSPropertyOp41
 70
     1
102
RTVSPropertyOp42
 70
     1
102
RTVSPropertyOp43
 70
     1
102
RTVSPropertyOp44
 70
     1
102
RTVSPropertyOp45
 70
     1
102
RTVSPropertyOp46
 70
     1
102
RTVSPropertyOp47
 70
     1
102
RTVSPropertyOp48
 70
     1
102
RTVSPropertyOp49
 70
     1
102
RTVSPropertyOp50
 70
     1
102
RTVSPropertyOp51
 70
     0
102
RTVSPropertyOp52
 70
     0
102
RTVSPropertyOp53
 70
     1
102
RTVSPropertyOp54
 70
     1
102
RTVSPropertyOp55
 70
     1
102
RTVSPropertyOp56
 70
     1
102
RTVSPropertyOp57
 70
     1
102
RTVSPropertyOp58
 70
     1
102
RTVSPropertyOp59
 70
     1
102
RTVSPropertyOp60
 70
     1
102
RTVSPropertyOp61
 70
     1
102
RTVSPropertyOp62
 70
     1
  0
XRECORD
  5
A63C
102
{ACAD_REACTORS
330
A63B
102
}
330
A63B
100
AcDbXrecord
280
     1
102
RTVSPost2010Prop28
280
     0
102
RTVSPost2010PropOp28
 70
     1
102
RTVSPost2010Prop29
280
     1
102
RTVSPost2010PropOp29
 70
     1
102
RTVSPost2010Prop30
280
     1
102
RTVSPost2010PropOp30
 70
     1
102
RTVSPost2010Prop31
280
     0
102
RTVSPost2010PropOp31
 70
     1
102
RTVSPost2010Prop32
280
     0
102
RTVSPost2010PropOp32
 70
     1
102
RTVSPost2010Prop33
280
     0
102
RTVSPost2010PropOp33
 70
     1
102
RTVSPost2010Prop34
280
     0
102
RTVSPost2010PropOp34
 70
     1
102
RTVSPost2010Prop35
280
     0
102
RTVSPost2010PropOp35
 70
     1
102
RTVSPost2010Prop36
280
     0
102
RTVSPost2010PropOp36
 70
     1
102
RTVSPost2010Prop37
 90
       50
102
RTVSPost2010PropOp37
 70
     0
102
RTVSPost2010Prop38
140
0.0
102
RTVSPost2010PropOp38
 70
     0
102
RTVSPost2010Prop39
140
1.0
102
RTVSPost2010PropOp39
 70
     0
102
RTVSPost2010Prop40
 90
        0
102
RTVSPost2010PropOp40
 70
     0
102
RTVSPost2010Prop41ColorIndex
 90
       18
102
RTVSPost2010Prop41ColorRGB
 90
        0
102
RTVSPost2010PropOp41
 70
     0
102
RTVSPost2010Prop42
 90
       50
102
RTVSPost2010PropOp42
 70
     0
102
RTVSPost2010Prop43
 90
        3
102
RTVSPost2010PropOp43
 70
     0
102
RTVSPost2010Prop44ColorIndex
 90
        5
102
RTVSPost2010Prop44ColorRGB
 90
      255
102
RTVSPost2010PropOp44
 70
     0
102
RTVSPost2010Prop45
280
     0
102
RTVSPost2010PropOp45
 70
     1
102
RTVSPost2010Prop46
 90
       50
102
RTVSPost2010PropOp46
 70
     0
102
RTVSPost2010Prop47
 90
       50
102
RTVSPost2010PropOp47
 70
     0
102
RTVSPost2010Prop48
 90
       50
102
RTVSPost2010PropOp48
 70
     0
102
RTVSPost2010Prop49
280
     0
102
RTVSPost2010PropOp49
 70
     1
102
RTVSPost2010Prop50
 90
       50
102
RTVSPost2010PropOp50
 70
     0
102
RTVSPost2010Prop51ColorIndex
 90
      256
102
RTVSPost2010Prop51ColorRGB
 90
-16777216
102
RTVSPost2010PropOp51
 70
     0
102
RTVSPost2010Prop52
140
1.0
102
RTVSPost2010PropOp52
 70
     0
102
RTVSPost2010Prop53
 90
        2
102
RTVSPost2010PropOp53
 70
     0
102
RTVSPost2010Prop54
  1
strokes_ogs.tif
102
RTVSPost2010PropOp54
 70
     0
102
RTVSPost2010Prop55
280
     0
102
RTVSPost2010PropOp55
 70
     1
102
RTVSPost2010Prop56
140
1.0
102
RTVSPost2010PropOp56
 70
     0
102
RTVSPost2010Prop57
140
1.0
102
RTVSPost2010PropOp57
 70
     0
102
RTVSPropertyOp0
 70
     0
102
RTVSPropertyOp1
 70
     0
102
RTVSPropertyOp2
 70
     0
102
RTVSPropertyOp3
 70
     0
102
RTVSPropertyOp4
 70
     0
102
RTVSPropertyOp5
 70
     0
102
RTVSPropertyOp6
 70
     0
102
RTVSPropertyOp7
 70
     0
102
RTVSPropertyOp8
 70
     0
102
RTVSPropertyOp9
 70
     0
102
RTVSPropertyOp10
 70
     0
102
RTVSPropertyOp11
 70
     0
102
RTVSPropertyOp12
 70
     0
102
RTVSPropertyOp13
 70
     0
102
RTVSPropertyOp14
 70
     2
102
RTVSPropertyOp15
 70
     0
102
RTVSPropertyOp16
 70
     0
102
RTVSPropertyOp17
 70
     0
102
RTVSPropertyOp18
 70
     0
102
RTVSPropertyOp19
 70
     0
102
RTVSPropertyOp20
 70
     0
102
RTVSPropertyOp21
 70
     0
102
RTVSPropertyOp22
 70
     0
102
RTVSPropertyOp23
 70
     0
102
RTVSPropertyOp24
 70
     0
102
RTVSPropertyOp25
 70
     0
102
RTVSPropertyOp26
 70
     0
102
RTVSPropertyOp27
 70
     0
102
RTVSPropertyOp28
 70
     1
102
RTVSPropertyOp29
 70
     1
102
RTVSPropertyOp30
 70
     1
102
RTVSPropertyOp31
 70
     1
102
RTVSPropertyOp32
 70
     1
102
RTVSPropertyOp33
 70
     1
102
RTVSPropertyOp34
 70
     1
102
RTVSPropertyOp35
 70
     1
102
RTVSPropertyOp36
 70
     1
102
RTVSPropertyOp37
 70
     0
102
RTVSPropertyOp38
 70
     0
102
RTVSPropertyOp39
 70
     0
102
RTVSPropertyOp40
 70
     0
102
RTVSPropertyOp41
 70
     0
102
RTVSPropertyOp42
 70
     0
102
RTVSPropertyOp43
 70
     0
102
RTVSPropertyOp44
 70
     0
102
RTVSPropertyOp45
 70
     1
102
RTVSPropertyOp46
 70
     0
102
RTVSPropertyOp47
 70
     0
102
RTVSPropertyOp48
 70
     0
102
RTVSPropertyOp49
 70
     1
102
RTVSPropertyOp50
 70
     0
102
RTVSPropertyOp51
 70
     0
102
RTVSPropertyOp52
 70
     0
102
RTVSPropertyOp53
 70
     0
102
RTVSPropertyOp54
 70
     0
102
RTVSPropertyOp55
 70
     1
102
RTVSPropertyOp56
 70
     0
102
RTVSPropertyOp57
 70
     0
102
RTVSPropertyOp58
 70
     0
102
RTVSPropertyOp59
 70
     0
102
RTVSPropertyOp60
 70
     0
102
RTVSPropertyOp61
 70
     0
102
RTVSPropertyOp62
 70
     0
  0
XRECORD
  5
A62A
102
{ACAD_REACTORS
330
A629
102
}
330
A629
100
AcDbXrecord
280
     1
102
RTVSPost2010Prop28
280
     0
102
RTVSPost2010PropOp28
 70
     1
102
RTVSPost2010Prop29
280
     1
102
RTVSPost2010PropOp29
 70
     1
102
RTVSPost2010Prop30
280
     1
102
RTVSPost2010PropOp30
 70
     1
102
RTVSPost2010Prop31
280
     0
102
RTVSPost2010PropOp31
 70
     1
102
RTVSPost2010Prop32
280
     0
102
RTVSPost2010PropOp32
 70
     1
102
RTVSPost2010Prop33
280
     0
102
RTVSPost2010PropOp33
 70
     1
102
RTVSPost2010Prop34
280
     0
102
RTVSPost2010PropOp34
 70
     1
102
RTVSPost2010Prop35
280
     0
102
RTVSPost2010PropOp35
 70
     1
102
RTVSPost2010Prop36
280
     0
102
RTVSPost2010PropOp36
 70
     1
102
RTVSPost2010Prop37
 90
       50
102
RTVSPost2010PropOp37
 70
     1
102
RTVSPost2010Prop38
140
0.0
102
RTVSPost2010PropOp38
 70
     1
102
RTVSPost2010Prop39
140
1.0
102
RTVSPost2010PropOp39
 70
     1
102
RTVSPost2010Prop40
 90
        0
102
RTVSPost2010PropOp40
 70
     1
102
RTVSPost2010Prop41ColorIndex
 90
       18
102
RTVSPost2010Prop41ColorRGB
 90
        0
102
RTVSPost2010PropOp41
 70
     1
102
RTVSPost2010Prop42
 90
       50
102
RTVSPost2010PropOp42
 70
     1
102
RTVSPost2010Prop43
 90
        3
102
RTVSPost2010PropOp43
 70
     1
102
RTVSPost2010Prop44ColorIndex
 90
        5
102
RTVSPost2010Prop44ColorRGB
 90
      255
102
RTVSPost2010PropOp44
 70
     1
102
RTVSPost2010Prop45
280
     0
102
RTVSPost2010PropOp45
 70
     1
102
RTVSPost2010Prop46
 90
       50
102
RTVSPost2010PropOp46
 70
     1
102
RTVSPost2010Prop47
 90
       50
102
RTVSPost2010PropOp47
 70
     1
102
RTVSPost2010Prop48
 90
       50
102
RTVSPost2010PropOp48
 70
     1
102
RTVSPost2010Prop49
280
     0
102
RTVSPost2010PropOp49
 70
     1
102
RTVSPost2010Prop50
 90
       50
102
RTVSPost2010PropOp50
 70
     1
102
RTVSPost2010Prop51ColorIndex
 90
      256
102
RTVSPost2010Prop51ColorRGB
 90
-16777216
102
RTVSPost2010PropOp51
 70
     0
102
RTVSPost2010Prop52
140
1.0
102
RTVSPost2010PropOp52
 70
     0
102
RTVSPost2010Prop53
 90
        2
102
RTVSPost2010PropOp53
 70
     1
102
RTVSPost2010Prop54
  1
strokes_ogs.tif
102
RTVSPost2010PropOp54
 70
     1
102
RTVSPost2010Prop55
280
     0
102
RTVSPost2010PropOp55
 70
     1
102
RTVSPost2010Prop56
140
1.0
102
RTVSPost2010PropOp56
 70
     1
102
RTVSPost2010Prop57
140
1.0
102
RTVSPost2010PropOp57
 70
     1
102
RTVSPropertyOp0
 70
     1
102
RTVSPropertyOp1
 70
     1
102
RTVSPropertyOp2
 70
     1
102
RTVSPropertyOp3
 70
     1
102
RTVSPropertyOp4
 70
     1
102
RTVSPropertyOp5
 70
     1
102
RTVSPropertyOp6
 70
     1
102
RTVSPropertyOp7
 70
     1
102
RTVSPropertyOp8
 70
     1
102
RTVSPropertyOp9
 70
     1
102
RTVSPropertyOp10
 70
     1
102
RTVSPropertyOp11
 70
     1
102
RTVSPropertyOp12
 70
     1
102
RTVSPropertyOp13
 70
     1
102
RTVSPropertyOp14
 70
     1
102
RTVSPropertyOp15
 70
     1
102
RTVSPropertyOp16
 70
     1
102
RTVSPropertyOp17
 70
     1
102
RTVSPropertyOp18
 70
     1
102
RTVSPropertyOp19
 70
     1
102
RTVSPropertyOp20
 70
     1
102
RTVSPropertyOp21
 70
     1
102
RTVSPropertyOp22
 70
     1
102
RTVSPropertyOp23
 70
     1
102
RTVSPropertyOp24
 70
     1
102
RTVSPropertyOp25
 70
     1
102
RTVSPropertyOp26
 70
     1
102
RTVSPropertyOp27
 70
     1
102
RTVSPropertyOp28
 70
     1
102
RTVSPropertyOp29
 70
     1
102
RTVSPropertyOp30
 70
     1
102
RTVSPropertyOp31
 70
     1
102
RTVSPropertyOp32
 70
     1
102
RTVSPropertyOp33
 70
     1
102
RTVSPropertyOp34
 70
     1
102
RTVSPropertyOp35
 70
     1
102
RTVSPropertyOp36
 70
     1
102
RTVSPropertyOp37
 70
     1
102
RTVSPropertyOp38
 70
     1
102
RTVSPropertyOp39
 70
     1
102
RTVSPropertyOp40
 70
     1
102
RTVSPropertyOp41
 70
     1
102
RTVSPropertyOp42
 70
     1
102
RTVSPropertyOp43
 70
     1
102
RTVSPropertyOp44
 70
     1
102
RTVSPropertyOp45
 70
     1
102
RTVSPropertyOp46
 70
     1
102
RTVSPropertyOp47
 70
     1
102
RTVSPropertyOp48
 70
     1
102
RTVSPropertyOp49
 70
     1
102
RTVSPropertyOp50
 70
     1
102
RTVSPropertyOp51
 70
     0
102
RTVSPropertyOp52
 70
     0
102
RTVSPropertyOp53
 70
     1
102
RTVSPropertyOp54
 70
     1
102
RTVSPropertyOp55
 70
     1
102
RTVSPropertyOp56
 70
     1
102
RTVSPropertyOp57
 70
     1
102
RTVSPropertyOp58
 70
     1
102
RTVSPropertyOp59
 70
     1
102
RTVSPropertyOp60
 70
     1
102
RTVSPropertyOp61
 70
     1
102
RTVSPropertyOp62
 70
     1
  0
XRECORD
  5
A60E
102
{ACAD_REACTORS
330
A60D
102
}
330
A60D
100
AcDbXrecord
280
     1
102
RTVSPost2010Prop28
280
     0
102
RTVSPost2010PropOp28
 70
     1
102
RTVSPost2010Prop29
280
     1
102
RTVSPost2010PropOp29
 70
     1
102
RTVSPost2010Prop30
280
     1
102
RTVSPost2010PropOp30
 70
     1
102
RTVSPost2010Prop31
280
     0
102
RTVSPost2010PropOp31
 70
     1
102
RTVSPost2010Prop32
280
     0
102
RTVSPost2010PropOp32
 70
     1
102
RTVSPost2010Prop33
280
     0
102
RTVSPost2010PropOp33
 70
     1
102
RTVSPost2010Prop34
280
     0
102
RTVSPost2010PropOp34
 70
     1
102
RTVSPost2010Prop35
280
     0
102
RTVSPost2010PropOp35
 70
     1
102
RTVSPost2010Prop36
280
     0
102
RTVSPost2010PropOp36
 70
     1
102
RTVSPost2010Prop37
 90
       50
102
RTVSPost2010PropOp37
 70
     1
102
RTVSPost2010Prop38
140
0.0
102
RTVSPost2010PropOp38
 70
     1
102
RTVSPost2010Prop39
140
1.0
102
RTVSPost2010PropOp39
 70
     1
102
RTVSPost2010Prop40
 90
        0
102
RTVSPost2010PropOp40
 70
     1
102
RTVSPost2010Prop41ColorIndex
 90
       18
102
RTVSPost2010Prop41ColorRGB
 90
        0
102
RTVSPost2010PropOp41
 70
     1
102
RTVSPost2010Prop42
 90
       50
102
RTVSPost2010PropOp42
 70
     1
102
RTVSPost2010Prop43
 90
        3
102
RTVSPost2010PropOp43
 70
     1
102
RTVSPost2010Prop44ColorIndex
 90
        5
102
RTVSPost2010Prop44ColorRGB
 90
      255
102
RTVSPost2010PropOp44
 70
     1
102
RTVSPost2010Prop45
280
     0
102
RTVSPost2010PropOp45
 70
     1
102
RTVSPost2010Prop46
 90
       50
102
RTVSPost2010PropOp46
 70
     1
102
RTVSPost2010Prop47
 90
       50
102
RTVSPost2010PropOp47
 70
     1
102
RTVSPost2010Prop48
 90
       50
102
RTVSPost2010PropOp48
 70
     1
102
RTVSPost2010Prop49
280
     0
102
RTVSPost2010PropOp49
 70
     1
102
RTVSPost2010Prop50
 90
       50
102
RTVSPost2010PropOp50
 70
     1
102
RTVSPost2010Prop51ColorIndex
 90
      256
102
RTVSPost2010Prop51ColorRGB
 90
-16777216
102
RTVSPost2010PropOp51
 70
     0
102
RTVSPost2010Prop52
140
1.0
102
RTVSPost2010PropOp52
 70
     0
102
RTVSPost2010Prop53
 90
        2
102
RTVSPost2010PropOp53
 70
     1
102
RTVSPost2010Prop54
  1
strokes_ogs.tif
102
RTVSPost2010PropOp54
 70
     1
102
RTVSPost2010Prop55
280
     0
102
RTVSPost2010PropOp55
 70
     1
102
RTVSPost2010Prop56
140
1.0
102
RTVSPost2010PropOp56
 70
     1
102
RTVSPost2010Prop57
140
1.0
102
RTVSPost2010PropOp57
 70
     1
102
RTVSPropertyOp0
 70
     1
102
RTVSPropertyOp1
 70
     1
102
RTVSPropertyOp2
 70
     1
102
RTVSPropertyOp3
 70
     1
102
RTVSPropertyOp4
 70
     1
102
RTVSPropertyOp5
 70
     1
102
RTVSPropertyOp6
 70
     1
102
RTVSPropertyOp7
 70
     1
102
RTVSPropertyOp8
 70
     1
102
RTVSPropertyOp9
 70
     1
102
RTVSPropertyOp10
 70
     1
102
RTVSPropertyOp11
 70
     1
102
RTVSPropertyOp12
 70
     1
102
RTVSPropertyOp13
 70
     1
102
RTVSPropertyOp14
 70
     1
102
RTVSPropertyOp15
 70
     1
102
RTVSPropertyOp16
 70
     1
102
RTVSPropertyOp17
 70
     1
102
RTVSPropertyOp18
 70
     1
102
RTVSPropertyOp19
 70
     1
102
RTVSPropertyOp20
 70
     1
102
RTVSPropertyOp21
 70
     1
102
RTVSPropertyOp22
 70
     1
102
RTVSPropertyOp23
 70
     1
102
RTVSPropertyOp24
 70
     1
102
RTVSPropertyOp25
 70
     1
102
RTVSPropertyOp26
 70
     1
102
RTVSPropertyOp27
 70
     1
102
RTVSPropertyOp28
 70
     1
102
RTVSPropertyOp29
 70
     1
102
RTVSPropertyOp30
 70
     1
102
RTVSPropertyOp31
 70
     1
102
RTVSPropertyOp32
 70
     1
102
RTVSPropertyOp33
 70
     1
102
RTVSPropertyOp34
 70
     1
102
RTVSPropertyOp35
 70
     1
102
RTVSPropertyOp36
 70
     1
102
RTVSPropertyOp37
 70
     1
102
RTVSPropertyOp38
 70
     1
102
RTVSPropertyOp39
 70
     1
102
RTVSPropertyOp40
 70
     1
102
RTVSPropertyOp41
 70
     1
102
RTVSPropertyOp42
 70
     1
102
RTVSPropertyOp43
 70
     1
102
RTVSPropertyOp44
 70
     1
102
RTVSPropertyOp45
 70
     1
102
RTVSPropertyOp46
 70
     1
102
RTVSPropertyOp47
 70
     1
102
RTVSPropertyOp48
 70
     1
102
RTVSPropertyOp49
 70
     1
102
RTVSPropertyOp50
 70
     1
102
RTVSPropertyOp51
 70
     0
102
RTVSPropertyOp52
 70
     0
102
RTVSPropertyOp53
 70
     1
102
RTVSPropertyOp54
 70
     1
102
RTVSPropertyOp55
 70
     1
102
RTVSPropertyOp56
 70
     1
102
RTVSPropertyOp57
 70
     1
102
RTVSPropertyOp58
 70
     1
102
RTVSPropertyOp59
 70
     1
102
RTVSPropertyOp60
 70
     1
102
RTVSPropertyOp61
 70
     1
102
RTVSPropertyOp62
 70
     1
  0
XRECORD
  5
A610
102
{ACAD_REACTORS
330
A60F
102
}
330
A60F
100
AcDbXrecord
280
     1
102
RTVSPost2010Prop28
280
     0
102
RTVSPost2010PropOp28
 70
     1
102
RTVSPost2010Prop29
280
     1
102
RTVSPost2010PropOp29
 70
     1
102
RTVSPost2010Prop30
280
     1
102
RTVSPost2010PropOp30
 70
     1
102
RTVSPost2010Prop31
280
     0
102
RTVSPost2010PropOp31
 70
     1
102
RTVSPost2010Prop32
280
     0
102
RTVSPost2010PropOp32
 70
     1
102
RTVSPost2010Prop33
280
     0
102
RTVSPost2010PropOp33
 70
     1
102
RTVSPost2010Prop34
280
     0
102
RTVSPost2010PropOp34
 70
     1
102
RTVSPost2010Prop35
280
     0
102
RTVSPost2010PropOp35
 70
     1
102
RTVSPost2010Prop36
280
     0
102
RTVSPost2010PropOp36
 70
     1
102
RTVSPost2010Prop37
 90
       50
102
RTVSPost2010PropOp37
 70
     1
102
RTVSPost2010Prop38
140
0.0
102
RTVSPost2010PropOp38
 70
     1
102
RTVSPost2010Prop39
140
1.0
102
RTVSPost2010PropOp39
 70
     1
102
RTVSPost2010Prop40
 90
        0
102
RTVSPost2010PropOp40
 70
     1
102
RTVSPost2010Prop41ColorIndex
 90
       18
102
RTVSPost2010Prop41ColorRGB
 90
        0
102
RTVSPost2010PropOp41
 70
     1
102
RTVSPost2010Prop42
 90
       50
102
RTVSPost2010PropOp42
 70
     1
102
RTVSPost2010Prop43
 90
        3
102
RTVSPost2010PropOp43
 70
     1
102
RTVSPost2010Prop44ColorIndex
 90
        5
102
RTVSPost2010Prop44ColorRGB
 90
      255
102
RTVSPost2010PropOp44
 70
     1
102
RTVSPost2010Prop45
280
     0
102
RTVSPost2010PropOp45
 70
     1
102
RTVSPost2010Prop46
 90
       50
102
RTVSPost2010PropOp46
 70
     1
102
RTVSPost2010Prop47
 90
       50
102
RTVSPost2010PropOp47
 70
     1
102
RTVSPost2010Prop48
 90
       50
102
RTVSPost2010PropOp48
 70
     1
102
RTVSPost2010Prop49
280
     0
102
RTVSPost2010PropOp49
 70
     1
102
RTVSPost2010Prop50
 90
       50
102
RTVSPost2010PropOp50
 70
     1
102
RTVSPost2010Prop51ColorIndex
 90
      256
102
RTVSPost2010Prop51ColorRGB
 90
-16777216
102
RTVSPost2010PropOp51
 70
     0
102
RTVSPost2010Prop52
140
1.0
102
RTVSPost2010PropOp52
 70
     0
102
RTVSPost2010Prop53
 90
        2
102
RTVSPost2010PropOp53
 70
     1
102
RTVSPost2010Prop54
  1
strokes_ogs.tif
102
RTVSPost2010PropOp54
 70
     1
102
RTVSPost2010Prop55
280
     0
102
RTVSPost2010PropOp55
 70
     1
102
RTVSPost2010Prop56
140
1.0
102
RTVSPost2010PropOp56
 70
     1
102
RTVSPost2010Prop57
140
1.0
102
RTVSPost2010PropOp57
 70
     1
102
RTVSPropertyOp0
 70
     1
102
RTVSPropertyOp1
 70
     1
102
RTVSPropertyOp2
 70
     1
102
RTVSPropertyOp3
 70
     1
102
RTVSPropertyOp4
 70
     1
102
RTVSPropertyOp5
 70
     1
102
RTVSPropertyOp6
 70
     1
102
RTVSPropertyOp7
 70
     1
102
RTVSPropertyOp8
 70
     1
102
RTVSPropertyOp9
 70
     1
102
RTVSPropertyOp10
 70
     1
102
RTVSPropertyOp11
 70
     1
102
RTVSPropertyOp12
 70
     1
102
RTVSPropertyOp13
 70
     1
102
RTVSPropertyOp14
 70
     1
102
RTVSPropertyOp15
 70
     1
102
RTVSPropertyOp16
 70
     1
102
RTVSPropertyOp17
 70
     1
102
RTVSPropertyOp18
 70
     1
102
RTVSPropertyOp19
 70
     1
102
RTVSPropertyOp20
 70
     1
102
RTVSPropertyOp21
 70
     1
102
RTVSPropertyOp22
 70
     1
102
RTVSPropertyOp23
 70
     1
102
RTVSPropertyOp24
 70
     1
102
RTVSPropertyOp25
 70
     1
102
RTVSPropertyOp26
 70
     1
102
RTVSPropertyOp27
 70
     1
102
RTVSPropertyOp28
 70
     1
102
RTVSPropertyOp29
 70
     1
102
RTVSPropertyOp30
 70
     1
102
RTVSPropertyOp31
 70
     1
102
RTVSPropertyOp32
 70
     1
102
RTVSPropertyOp33
 70
     1
102
RTVSPropertyOp34
 70
     1
102
RTVSPropertyOp35
 70
     1
102
RTVSPropertyOp36
 70
     1
102
RTVSPropertyOp37
 70
     1
102
RTVSPropertyOp38
 70
     1
102
RTVSPropertyOp39
 70
     1
102
RTVSPropertyOp40
 70
     1
102
RTVSPropertyOp41
 70
     1
102
RTVSPropertyOp42
 70
     1
102
RTVSPropertyOp43
 70
     1
102
RTVSPropertyOp44
 70
     1
102
RTVSPropertyOp45
 70
     1
102
RTVSPropertyOp46
 70
     1
102
RTVSPropertyOp47
 70
     1
102
RTVSPropertyOp48
 70
     1
102
RTVSPropertyOp49
 70
     1
102
RTVSPropertyOp50
 70
     1
102
RTVSPropertyOp51
 70
     0
102
RTVSPropertyOp52
 70
     0
102
RTVSPropertyOp53
 70
     1
102
RTVSPropertyOp54
 70
     1
102
RTVSPropertyOp55
 70
     1
102
RTVSPropertyOp56
 70
     1
102
RTVSPropertyOp57
 70
     1
102
RTVSPropertyOp58
 70
     1
102
RTVSPropertyOp59
 70
     1
102
RTVSPropertyOp60
 70
     1
102
RTVSPropertyOp61
 70
     1
102
RTVSPropertyOp62
 70
     1
  0
XRECORD
  5
A612
102
{ACAD_REACTORS
330
A611
102
}
330
A611
100
AcDbXrecord
280
     1
102
RTVSPost2010Prop28
280
     0
102
RTVSPost2010PropOp28
 70
     1
102
RTVSPost2010Prop29
280
     1
102
RTVSPost2010PropOp29
 70
     1
102
RTVSPost2010Prop30
280
     1
102
RTVSPost2010PropOp30
 70
     1
102
RTVSPost2010Prop31
280
     0
102
RTVSPost2010PropOp31
 70
     1
102
RTVSPost2010Prop32
280
     0
102
RTVSPost2010PropOp32
 70
     1
102
RTVSPost2010Prop33
280
     0
102
RTVSPost2010PropOp33
 70
     1
102
RTVSPost2010Prop34
280
     0
102
RTVSPost2010PropOp34
 70
     1
102
RTVSPost2010Prop35
280
     0
102
RTVSPost2010PropOp35
 70
     1
102
RTVSPost2010Prop36
280
     0
102
RTVSPost2010PropOp36
 70
     1
102
RTVSPost2010Prop37
 90
       50
102
RTVSPost2010PropOp37
 70
     1
102
RTVSPost2010Prop38
140
0.0
102
RTVSPost2010PropOp38
 70
     1
102
RTVSPost2010Prop39
140
1.0
102
RTVSPost2010PropOp39
 70
     1
102
RTVSPost2010Prop40
 90
        0
102
RTVSPost2010PropOp40
 70
     1
102
RTVSPost2010Prop41ColorIndex
 90
       18
102
RTVSPost2010Prop41ColorRGB
 90
        0
102
RTVSPost2010PropOp41
 70
     1
102
RTVSPost2010Prop42
 90
       50
102
RTVSPost2010PropOp42
 70
     1
102
RTVSPost2010Prop43
 90
        3
102
RTVSPost2010PropOp43
 70
     1
102
RTVSPost2010Prop44ColorIndex
 90
        5
102
RTVSPost2010Prop44ColorRGB
 90
      255
102
RTVSPost2010PropOp44
 70
     1
102
RTVSPost2010Prop45
280
     0
102
RTVSPost2010PropOp45
 70
     1
102
RTVSPost2010Prop46
 90
       50
102
RTVSPost2010PropOp46
 70
     1
102
RTVSPost2010Prop47
 90
       50
102
RTVSPost2010PropOp47
 70
     1
102
RTVSPost2010Prop48
 90
       50
102
RTVSPost2010PropOp48
 70
     1
102
RTVSPost2010Prop49
280
     0
102
RTVSPost2010PropOp49
 70
     1
102
RTVSPost2010Prop50
 90
       50
102
RTVSPost2010PropOp50
 70
     1
102
RTVSPost2010Prop51ColorIndex
 90
      256
102
RTVSPost2010Prop51ColorRGB
 90
-16777216
102
RTVSPost2010PropOp51
 70
     0
102
RTVSPost2010Prop52
140
1.0
102
RTVSPost2010PropOp52
 70
     0
102
RTVSPost2010Prop53
 90
        2
102
RTVSPost2010PropOp53
 70
     1
102
RTVSPost2010Prop54
  1
strokes_ogs.tif
102
RTVSPost2010PropOp54
 70
     1
102
RTVSPost2010Prop55
280
     0
102
RTVSPost2010PropOp55
 70
     1
102
RTVSPost2010Prop56
140
1.0
102
RTVSPost2010PropOp56
 70
     1
102
RTVSPost2010Prop57
140
1.0
102
RTVSPost2010PropOp57
 70
     1
102
RTVSPropertyOp0
 70
     1
102
RTVSPropertyOp1
 70
     1
102
RTVSPropertyOp2
 70
     1
102
RTVSPropertyOp3
 70
     1
102
RTVSPropertyOp4
 70
     1
102
RTVSPropertyOp5
 70
     1
102
RTVSPropertyOp6
 70
     1
102
RTVSPropertyOp7
 70
     1
102
RTVSPropertyOp8
 70
     1
102
RTVSPropertyOp9
 70
     1
102
RTVSPropertyOp10
 70
     1
102
RTVSPropertyOp11
 70
     1
102
RTVSPropertyOp12
 70
     1
102
RTVSPropertyOp13
 70
     1
102
RTVSPropertyOp14
 70
     1
102
RTVSPropertyOp15
 70
     1
102
RTVSPropertyOp16
 70
     1
102
RTVSPropertyOp17
 70
     1
102
RTVSPropertyOp18
 70
     1
102
RTVSPropertyOp19
 70
     1
102
RTVSPropertyOp20
 70
     1
102
RTVSPropertyOp21
 70
     1
102
RTVSPropertyOp22
 70
     1
102
RTVSPropertyOp23
 70
     1
102
RTVSPropertyOp24
 70
     1
102
RTVSPropertyOp25
 70
     1
102
RTVSPropertyOp26
 70
     1
102
RTVSPropertyOp27
 70
     1
102
RTVSPropertyOp28
 70
     1
102
RTVSPropertyOp29
 70
     1
102
RTVSPropertyOp30
 70
     1
102
RTVSPropertyOp31
 70
     1
102
RTVSPropertyOp32
 70
     1
102
RTVSPropertyOp33
 70
     1
102
RTVSPropertyOp34
 70
     1
102
RTVSPropertyOp35
 70
     1
102
RTVSPropertyOp36
 70
     1
102
RTVSPropertyOp37
 70
     1
102
RTVSPropertyOp38
 70
     1
102
RTVSPropertyOp39
 70
     1
102
RTVSPropertyOp40
 70
     1
102
RTVSPropertyOp41
 70
     1
102
RTVSPropertyOp42
 70
     1
102
RTVSPropertyOp43
 70
     1
102
RTVSPropertyOp44
 70
     1
102
RTVSPropertyOp45
 70
     1
102
RTVSPropertyOp46
 70
     1
102
RTVSPropertyOp47
 70
     1
102
RTVSPropertyOp48
 70
     1
102
RTVSPropertyOp49
 70
     1
102
RTVSPropertyOp50
 70
     1
102
RTVSPropertyOp51
 70
     0
102
RTVSPropertyOp52
 70
     0
102
RTVSPropertyOp53
 70
     1
102
RTVSPropertyOp54
 70
     1
102
RTVSPropertyOp55
 70
     1
102
RTVSPropertyOp56
 70
     1
102
RTVSPropertyOp57
 70
     1
102
RTVSPropertyOp58
 70
     1
102
RTVSPropertyOp59
 70
     1
102
RTVSPropertyOp60
 70
     1
102
RTVSPropertyOp61
 70
     1
102
RTVSPropertyOp62
 70
     1
  0
XRECORD
  5
A614
102
{ACAD_REACTORS
330
A613
102
}
330
A613
100
AcDbXrecord
280
     1
102
RTVSPost2010Prop28
280
     0
102
RTVSPost2010PropOp28
 70
     1
102
RTVSPost2010Prop29
280
     1
102
RTVSPost2010PropOp29
 70
     1
102
RTVSPost2010Prop30
280
     1
102
RTVSPost2010PropOp30
 70
     1
102
RTVSPost2010Prop31
280
     0
102
RTVSPost2010PropOp31
 70
     1
102
RTVSPost2010Prop32
280
     0
102
RTVSPost2010PropOp32
 70
     1
102
RTVSPost2010Prop33
280
     0
102
RTVSPost2010PropOp33
 70
     1
102
RTVSPost2010Prop34
280
     0
102
RTVSPost2010PropOp34
 70
     1
102
RTVSPost2010Prop35
280
     0
102
RTVSPost2010PropOp35
 70
     1
102
RTVSPost2010Prop36
280
     0
102
RTVSPost2010PropOp36
 70
     1
102
RTVSPost2010Prop37
 90
       50
102
RTVSPost2010PropOp37
 70
     1
102
RTVSPost2010Prop38
140
0.0
102
RTVSPost2010PropOp38
 70
     1
102
RTVSPost2010Prop39
140
1.0
102
RTVSPost2010PropOp39
 70
     1
102
RTVSPost2010Prop40
 90
        0
102
RTVSPost2010PropOp40
 70
     1
102
RTVSPost2010Prop41ColorIndex
 90
       18
102
RTVSPost2010Prop41ColorRGB
 90
        0
102
RTVSPost2010PropOp41
 70
     1
102
RTVSPost2010Prop42
 90
       50
102
RTVSPost2010PropOp42
 70
     1
102
RTVSPost2010Prop43
 90
        3
102
RTVSPost2010PropOp43
 70
     1
102
RTVSPost2010Prop44ColorIndex
 90
        5
102
RTVSPost2010Prop44ColorRGB
 90
      255
102
RTVSPost2010PropOp44
 70
     1
102
RTVSPost2010Prop45
280
     0
102
RTVSPost2010PropOp45
 70
     1
102
RTVSPost2010Prop46
 90
       50
102
RTVSPost2010PropOp46
 70
     1
102
RTVSPost2010Prop47
 90
       50
102
RTVSPost2010PropOp47
 70
     1
102
RTVSPost2010Prop48
 90
       50
102
RTVSPost2010PropOp48
 70
     1
102
RTVSPost2010Prop49
280
     0
102
RTVSPost2010PropOp49
 70
     1
102
RTVSPost2010Prop50
 90
       50
102
RTVSPost2010PropOp50
 70
     1
102
RTVSPost2010Prop51ColorIndex
 90
      256
102
RTVSPost2010Prop51ColorRGB
 90
-16777216
102
RTVSPost2010PropOp51
 70
     0
102
RTVSPost2010Prop52
140
1.0
102
RTVSPost2010PropOp52
 70
     0
102
RTVSPost2010Prop53
 90
        2
102
RTVSPost2010PropOp53
 70
     1
102
RTVSPost2010Prop54
  1
strokes_ogs.tif
102
RTVSPost2010PropOp54
 70
     1
102
RTVSPost2010Prop55
280
     0
102
RTVSPost2010PropOp55
 70
     1
102
RTVSPost2010Prop56
140
1.0
102
RTVSPost2010PropOp56
 70
     1
102
RTVSPost2010Prop57
140
1.0
102
RTVSPost2010PropOp57
 70
     1
102
RTVSPropertyOp0
 70
     1
102
RTVSPropertyOp1
 70
     1
102
RTVSPropertyOp2
 70
     1
102
RTVSPropertyOp3
 70
     1
102
RTVSPropertyOp4
 70
     1
102
RTVSPropertyOp5
 70
     1
102
RTVSPropertyOp6
 70
     1
102
RTVSPropertyOp7
 70
     1
102
RTVSPropertyOp8
 70
     1
102
RTVSPropertyOp9
 70
     1
102
RTVSPropertyOp10
 70
     1
102
RTVSPropertyOp11
 70
     1
102
RTVSPropertyOp12
 70
     1
102
RTVSPropertyOp13
 70
     1
102
RTVSPropertyOp14
 70
     1
102
RTVSPropertyOp15
 70
     1
102
RTVSPropertyOp16
 70
     1
102
RTVSPropertyOp17
 70
     1
102
RTVSPropertyOp18
 70
     1
102
RTVSPropertyOp19
 70
     1
102
RTVSPropertyOp20
 70
     1
102
RTVSPropertyOp21
 70
     1
102
RTVSPropertyOp22
 70
     1
102
RTVSPropertyOp23
 70
     1
102
RTVSPropertyOp24
 70
     1
102
RTVSPropertyOp25
 70
     1
102
RTVSPropertyOp26
 70
     1
102
RTVSPropertyOp27
 70
     1
102
RTVSPropertyOp28
 70
     1
102
RTVSPropertyOp29
 70
     1
102
RTVSPropertyOp30
 70
     1
102
RTVSPropertyOp31
 70
     1
102
RTVSPropertyOp32
 70
     1
102
RTVSPropertyOp33
 70
     1
102
RTVSPropertyOp34
 70
     1
102
RTVSPropertyOp35
 70
     1
102
RTVSPropertyOp36
 70
     1
102
RTVSPropertyOp37
 70
     1
102
RTVSPropertyOp38
 70
     1
102
RTVSPropertyOp39
 70
     1
102
RTVSPropertyOp40
 70
     1
102
RTVSPropertyOp41
 70
     1
102
RTVSPropertyOp42
 70
     1
102
RTVSPropertyOp43
 70
     1
102
RTVSPropertyOp44
 70
     1
102
RTVSPropertyOp45
 70
     1
102
RTVSPropertyOp46
 70
     1
102
RTVSPropertyOp47
 70
     1
102
RTVSPropertyOp48
 70
     1
102
RTVSPropertyOp49
 70
     1
102
RTVSPropertyOp50
 70
     1
102
RTVSPropertyOp51
 70
     0
102
RTVSPropertyOp52
 70
     0
102
RTVSPropertyOp53
 70
     1
102
RTVSPropertyOp54
 70
     1
102
RTVSPropertyOp55
 70
     1
102
RTVSPropertyOp56
 70
     1
102
RTVSPropertyOp57
 70
     1
102
RTVSPropertyOp58
 70
     1
102
RTVSPropertyOp59
 70
     1
102
RTVSPropertyOp60
 70
     1
102
RTVSPropertyOp61
 70
     1
102
RTVSPropertyOp62
 70
     1
  0
XRECORD
  5
A61C
102
{ACAD_REACTORS
330
A61B
102
}
330
A61B
100
AcDbXrecord
280
     1
102
RTVSPost2010Prop28
280
     0
102
RTVSPost2010PropOp28
 70
     1
102
RTVSPost2010Prop29
280
     1
102
RTVSPost2010PropOp29
 70
     1
102
RTVSPost2010Prop30
280
     1
102
RTVSPost2010PropOp30
 70
     1
102
RTVSPost2010Prop31
280
     0
102
RTVSPost2010PropOp31
 70
     1
102
RTVSPost2010Prop32
280
     0
102
RTVSPost2010PropOp32
 70
     1
102
RTVSPost2010Prop33
280
     0
102
RTVSPost2010PropOp33
 70
     1
102
RTVSPost2010Prop34
280
     0
102
RTVSPost2010PropOp34
 70
     1
102
RTVSPost2010Prop35
280
     0
102
RTVSPost2010PropOp35
 70
     1
102
RTVSPost2010Prop36
280
     0
102
RTVSPost2010PropOp36
 70
     1
102
RTVSPost2010Prop37
 90
       50
102
RTVSPost2010PropOp37
 70
     1
102
RTVSPost2010Prop38
140
0.0
102
RTVSPost2010PropOp38
 70
     1
102
RTVSPost2010Prop39
140
1.0
102
RTVSPost2010PropOp39
 70
     1
102
RTVSPost2010Prop40
 90
        0
102
RTVSPost2010PropOp40
 70
     1
102
RTVSPost2010Prop41ColorIndex
 90
       18
102
RTVSPost2010Prop41ColorRGB
 90
        0
102
RTVSPost2010PropOp41
 70
     1
102
RTVSPost2010Prop42
 90
       50
102
RTVSPost2010PropOp42
 70
     1
102
RTVSPost2010Prop43
 90
        3
102
RTVSPost2010PropOp43
 70
     1
102
RTVSPost2010Prop44ColorIndex
 90
        5
102
RTVSPost2010Prop44ColorRGB
 90
      255
102
RTVSPost2010PropOp44
 70
     1
102
RTVSPost2010Prop45
280
     0
102
RTVSPost2010PropOp45
 70
     1
102
RTVSPost2010Prop46
 90
       50
102
RTVSPost2010PropOp46
 70
     1
102
RTVSPost2010Prop47
 90
       50
102
RTVSPost2010PropOp47
 70
     1
102
RTVSPost2010Prop48
 90
       50
102
RTVSPost2010PropOp48
 70
     1
102
RTVSPost2010Prop49
280
     0
102
RTVSPost2010PropOp49
 70
     1
102
RTVSPost2010Prop50
 90
       50
102
RTVSPost2010PropOp50
 70
     1
102
RTVSPost2010Prop51ColorIndex
 90
      256
102
RTVSPost2010Prop51ColorRGB
 90
-16777216
102
RTVSPost2010PropOp51
 70
     0
102
RTVSPost2010Prop52
140
1.0
102
RTVSPost2010PropOp52
 70
     0
102
RTVSPost2010Prop53
 90
        2
102
RTVSPost2010PropOp53
 70
     1
102
RTVSPost2010Prop54
  1
strokes_ogs.tif
102
RTVSPost2010PropOp54
 70
     1
102
RTVSPost2010Prop55
280
     0
102
RTVSPost2010PropOp55
 70
     1
102
RTVSPost2010Prop56
140
1.0
102
RTVSPost2010PropOp56
 70
     1
102
RTVSPost2010Prop57
140
1.0
102
RTVSPost2010PropOp57
 70
     1
102
RTVSPropertyOp0
 70
     1
102
RTVSPropertyOp1
 70
     1
102
RTVSPropertyOp2
 70
     1
102
RTVSPropertyOp3
 70
     1
102
RTVSPropertyOp4
 70
     1
102
RTVSPropertyOp5
 70
     1
102
RTVSPropertyOp6
 70
     1
102
RTVSPropertyOp7
 70
     1
102
RTVSPropertyOp8
 70
     1
102
RTVSPropertyOp9
 70
     1
102
RTVSPropertyOp10
 70
     1
102
RTVSPropertyOp11
 70
     1
102
RTVSPropertyOp12
 70
     1
102
RTVSPropertyOp13
 70
     1
102
RTVSPropertyOp14
 70
     1
102
RTVSPropertyOp15
 70
     1
102
RTVSPropertyOp16
 70
     1
102
RTVSPropertyOp17
 70
     1
102
RTVSPropertyOp18
 70
     1
102
RTVSPropertyOp19
 70
     1
102
RTVSPropertyOp20
 70
     1
102
RTVSPropertyOp21
 70
     1
102
RTVSPropertyOp22
 70
     1
102
RTVSPropertyOp23
 70
     1
102
RTVSPropertyOp24
 70
     1
102
RTVSPropertyOp25
 70
     1
102
RTVSPropertyOp26
 70
     1
102
RTVSPropertyOp27
 70
     1
102
RTVSPropertyOp28
 70
     1
102
RTVSPropertyOp29
 70
     1
102
RTVSPropertyOp30
 70
     1
102
RTVSPropertyOp31
 70
     1
102
RTVSPropertyOp32
 70
     1
102
RTVSPropertyOp33
 70
     1
102
RTVSPropertyOp34
 70
     1
102
RTVSPropertyOp35
 70
     1
102
RTVSPropertyOp36
 70
     1
102
RTVSPropertyOp37
 70
     1
102
RTVSPropertyOp38
 70
     1
102
RTVSPropertyOp39
 70
     1
102
RTVSPropertyOp40
 70
     1
102
RTVSPropertyOp41
 70
     1
102
RTVSPropertyOp42
 70
     1
102
RTVSPropertyOp43
 70
     1
102
RTVSPropertyOp44
 70
     1
102
RTVSPropertyOp45
 70
     1
102
RTVSPropertyOp46
 70
     1
102
RTVSPropertyOp47
 70
     1
102
RTVSPropertyOp48
 70
     1
102
RTVSPropertyOp49
 70
     1
102
RTVSPropertyOp50
 70
     1
102
RTVSPropertyOp51
 70
     0
102
RTVSPropertyOp52
 70
     0
102
RTVSPropertyOp53
 70
     1
102
RTVSPropertyOp54
 70
     1
102
RTVSPropertyOp55
 70
     1
102
RTVSPropertyOp56
 70
     1
102
RTVSPropertyOp57
 70
     1
102
RTVSPropertyOp58
 70
     1
102
RTVSPropertyOp59
 70
     1
102
RTVSPropertyOp60
 70
     1
102
RTVSPropertyOp61
 70
     1
102
RTVSPropertyOp62
 70
     1
  0
XRECORD
  5
A638
102
{ACAD_REACTORS
330
A637
102
}
330
A637
100
AcDbXrecord
280
     1
102
RTVSPost2010Prop28
280
     0
102
RTVSPost2010PropOp28
 70
     1
102
RTVSPost2010Prop29
280
     1
102
RTVSPost2010PropOp29
 70
     1
102
RTVSPost2010Prop30
280
     1
102
RTVSPost2010PropOp30
 70
     1
102
RTVSPost2010Prop31
280
     0
102
RTVSPost2010PropOp31
 70
     1
102
RTVSPost2010Prop32
280
     0
102
RTVSPost2010PropOp32
 70
     1
102
RTVSPost2010Prop33
280
     0
102
RTVSPost2010PropOp33
 70
     1
102
RTVSPost2010Prop34
280
     0
102
RTVSPost2010PropOp34
 70
     1
102
RTVSPost2010Prop35
280
     0
102
RTVSPost2010PropOp35
 70
     1
102
RTVSPost2010Prop36
280
     0
102
RTVSPost2010PropOp36
 70
     1
102
RTVSPost2010Prop37
 90
       50
102
RTVSPost2010PropOp37
 70
     0
102
RTVSPost2010Prop38
140
0.0
102
RTVSPost2010PropOp38
 70
     0
102
RTVSPost2010Prop39
140
1.0
102
RTVSPost2010PropOp39
 70
     0
102
RTVSPost2010Prop40
 90
        0
102
RTVSPost2010PropOp40
 70
     0
102
RTVSPost2010Prop41ColorIndex
 90
       18
102
RTVSPost2010Prop41ColorRGB
 90
        0
102
RTVSPost2010PropOp41
 70
     0
102
RTVSPost2010Prop42
 90
       50
102
RTVSPost2010PropOp42
 70
     0
102
RTVSPost2010Prop43
 90
        3
102
RTVSPost2010PropOp43
 70
     0
102
RTVSPost2010Prop44ColorIndex
 90
        5
102
RTVSPost2010Prop44ColorRGB
 90
      255
102
RTVSPost2010PropOp44
 70
     0
102
RTVSPost2010Prop45
280
     0
102
RTVSPost2010PropOp45
 70
     1
102
RTVSPost2010Prop46
 90
       50
102
RTVSPost2010PropOp46
 70
     0
102
RTVSPost2010Prop47
 90
       50
102
RTVSPost2010PropOp47
 70
     0
102
RTVSPost2010Prop48
 90
       50
102
RTVSPost2010PropOp48
 70
     0
102
RTVSPost2010Prop49
280
     0
102
RTVSPost2010PropOp49
 70
     1
102
RTVSPost2010Prop50
 90
       50
102
RTVSPost2010PropOp50
 70
     0
102
RTVSPost2010Prop51ColorIndex
 90
      256
102
RTVSPost2010Prop51ColorRGB
 90
-16777216
102
RTVSPost2010PropOp51
 70
     0
102
RTVSPost2010Prop52
140
1.0
102
RTVSPost2010PropOp52
 70
     0
102
RTVSPost2010Prop53
 90
        2
102
RTVSPost2010PropOp53
 70
     0
102
RTVSPost2010Prop54
  1
strokes_ogs.tif
102
RTVSPost2010PropOp54
 70
     0
102
RTVSPost2010Prop55
280
     0
102
RTVSPost2010PropOp55
 70
     1
102
RTVSPost2010Prop56
140
1.0
102
RTVSPost2010PropOp56
 70
     0
102
RTVSPost2010Prop57
140
1.0
102
RTVSPost2010PropOp57
 70
     0
102
RTVSPropertyOp0
 70
     0
102
RTVSPropertyOp1
 70
     0
102
RTVSPropertyOp2
 70
     0
102
RTVSPropertyOp3
 70
     0
102
RTVSPropertyOp4
 70
     0
102
RTVSPropertyOp5
 70
     0
102
RTVSPropertyOp6
 70
     0
102
RTVSPropertyOp7
 70
     0
102
RTVSPropertyOp8
 70
     0
102
RTVSPropertyOp9
 70
     0
102
RTVSPropertyOp10
 70
     0
102
RTVSPropertyOp11
 70
     0
102
RTVSPropertyOp12
 70
     0
102
RTVSPropertyOp13
 70
     0
102
RTVSPropertyOp14
 70
     2
102
RTVSPropertyOp15
 70
     0
102
RTVSPropertyOp16
 70
     0
102
RTVSPropertyOp17
 70
     0
102
RTVSPropertyOp18
 70
     0
102
RTVSPropertyOp19
 70
     0
102
RTVSPropertyOp20
 70
     0
102
RTVSPropertyOp21
 70
     0
102
RTVSPropertyOp22
 70
     0
102
RTVSPropertyOp23
 70
     0
102
RTVSPropertyOp24
 70
     0
102
RTVSPropertyOp25
 70
     0
102
RTVSPropertyOp26
 70
     0
102
RTVSPropertyOp27
 70
     0
102
RTVSPropertyOp28
 70
     1
102
RTVSPropertyOp29
 70
     1
102
RTVSPropertyOp30
 70
     1
102
RTVSPropertyOp31
 70
     1
102
RTVSPropertyOp32
 70
     1
102
RTVSPropertyOp33
 70
     1
102
RTVSPropertyOp34
 70
     1
102
RTVSPropertyOp35
 70
     1
102
RTVSPropertyOp36
 70
     1
102
RTVSPropertyOp37
 70
     0
102
RTVSPropertyOp38
 70
     0
102
RTVSPropertyOp39
 70
     0
102
RTVSPropertyOp40
 70
     0
102
RTVSPropertyOp41
 70
     0
102
RTVSPropertyOp42
 70
     0
102
RTVSPropertyOp43
 70
     0
102
RTVSPropertyOp44
 70
     0
102
RTVSPropertyOp45
 70
     1
102
RTVSPropertyOp46
 70
     0
102
RTVSPropertyOp47
 70
     0
102
RTVSPropertyOp48
 70
     0
102
RTVSPropertyOp49
 70
     1
102
RTVSPropertyOp50
 70
     0
102
RTVSPropertyOp51
 70
     0
102
RTVSPropertyOp52
 70
     0
102
RTVSPropertyOp53
 70
     0
102
RTVSPropertyOp54
 70
     0
102
RTVSPropertyOp55
 70
     1
102
RTVSPropertyOp56
 70
     0
102
RTVSPropertyOp57
 70
     0
102
RTVSPropertyOp58
 70
     0
102
RTVSPropertyOp59
 70
     0
102
RTVSPropertyOp60
 70
     0
102
RTVSPropertyOp61
 70
     0
102
RTVSPropertyOp62
 70
     0
  0
XRECORD
  5
A628
102
{ACAD_REACTORS
330
A627
102
}
330
A627
100
AcDbXrecord
280
     1
102
RTVSPost2010Prop28
280
     0
102
RTVSPost2010PropOp28
 70
     1
102
RTVSPost2010Prop29
280
     1
102
RTVSPost2010PropOp29
 70
     1
102
RTVSPost2010Prop30
280
     1
102
RTVSPost2010PropOp30
 70
     1
102
RTVSPost2010Prop31
280
     0
102
RTVSPost2010PropOp31
 70
     1
102
RTVSPost2010Prop32
280
     0
102
RTVSPost2010PropOp32
 70
     1
102
RTVSPost2010Prop33
280
     0
102
RTVSPost2010PropOp33
 70
     1
102
RTVSPost2010Prop34
280
     0
102
RTVSPost2010PropOp34
 70
     1
102
RTVSPost2010Prop35
280
     0
102
RTVSPost2010PropOp35
 70
     1
102
RTVSPost2010Prop36
280
     0
102
RTVSPost2010PropOp36
 70
     1
102
RTVSPost2010Prop37
 90
       50
102
RTVSPost2010PropOp37
 70
     1
102
RTVSPost2010Prop38
140
0.0
102
RTVSPost2010PropOp38
 70
     1
102
RTVSPost2010Prop39
140
1.0
102
RTVSPost2010PropOp39
 70
     1
102
RTVSPost2010Prop40
 90
        0
102
RTVSPost2010PropOp40
 70
     1
102
RTVSPost2010Prop41ColorIndex
 90
       18
102
RTVSPost2010Prop41ColorRGB
 90
        0
102
RTVSPost2010PropOp41
 70
     1
102
RTVSPost2010Prop42
 90
       50
102
RTVSPost2010PropOp42
 70
     1
102
RTVSPost2010Prop43
 90
        3
102
RTVSPost2010PropOp43
 70
     1
102
RTVSPost2010Prop44ColorIndex
 90
        5
102
RTVSPost2010Prop44ColorRGB
 90
      255
102
RTVSPost2010PropOp44
 70
     1
102
RTVSPost2010Prop45
280
     0
102
RTVSPost2010PropOp45
 70
     1
102
RTVSPost2010Prop46
 90
       50
102
RTVSPost2010PropOp46
 70
     1
102
RTVSPost2010Prop47
 90
       50
102
RTVSPost2010PropOp47
 70
     1
102
RTVSPost2010Prop48
 90
       50
102
RTVSPost2010PropOp48
 70
     1
102
RTVSPost2010Prop49
280
     0
102
RTVSPost2010PropOp49
 70
     1
102
RTVSPost2010Prop50
 90
       50
102
RTVSPost2010PropOp50
 70
     1
102
RTVSPost2010Prop51ColorIndex
 90
      256
102
RTVSPost2010Prop51ColorRGB
 90
-16777216
102
RTVSPost2010PropOp51
 70
     0
102
RTVSPost2010Prop52
140
1.0
102
RTVSPost2010PropOp52
 70
     0
102
RTVSPost2010Prop53
 90
        2
102
RTVSPost2010PropOp53
 70
     1
102
RTVSPost2010Prop54
  1
strokes_ogs.tif
102
RTVSPost2010PropOp54
 70
     1
102
RTVSPost2010Prop55
280
     0
102
RTVSPost2010PropOp55
 70
     1
102
RTVSPost2010Prop56
140
1.0
102
RTVSPost2010PropOp56
 70
     1
102
RTVSPost2010Prop57
140
1.0
102
RTVSPost2010PropOp57
 70
     1
102
RTVSPropertyOp0
 70
     1
102
RTVSPropertyOp1
 70
     1
102
RTVSPropertyOp2
 70
     1
102
RTVSPropertyOp3
 70
     1
102
RTVSPropertyOp4
 70
     1
102
RTVSPropertyOp5
 70
     1
102
RTVSPropertyOp6
 70
     1
102
RTVSPropertyOp7
 70
     1
102
RTVSPropertyOp8
 70
     1
102
RTVSPropertyOp9
 70
     1
102
RTVSPropertyOp10
 70
     1
102
RTVSPropertyOp11
 70
     1
102
RTVSPropertyOp12
 70
     1
102
RTVSPropertyOp13
 70
     1
102
RTVSPropertyOp14
 70
     1
102
RTVSPropertyOp15
 70
     1
102
RTVSPropertyOp16
 70
     1
102
RTVSPropertyOp17
 70
     1
102
RTVSPropertyOp18
 70
     1
102
RTVSPropertyOp19
 70
     1
102
RTVSPropertyOp20
 70
     1
102
RTVSPropertyOp21
 70
     1
102
RTVSPropertyOp22
 70
     1
102
RTVSPropertyOp23
 70
     1
102
RTVSPropertyOp24
 70
     1
102
RTVSPropertyOp25
 70
     1
102
RTVSPropertyOp26
 70
     1
102
RTVSPropertyOp27
 70
     1
102
RTVSPropertyOp28
 70
     1
102
RTVSPropertyOp29
 70
     1
102
RTVSPropertyOp30
 70
     1
102
RTVSPropertyOp31
 70
     1
102
RTVSPropertyOp32
 70
     1
102
RTVSPropertyOp33
 70
     1
102
RTVSPropertyOp34
 70
     1
102
RTVSPropertyOp35
 70
     1
102
RTVSPropertyOp36
 70
     1
102
RTVSPropertyOp37
 70
     1
102
RTVSPropertyOp38
 70
     1
102
RTVSPropertyOp39
 70
     1
102
RTVSPropertyOp40
 70
     1
102
RTVSPropertyOp41
 70
     1
102
RTVSPropertyOp42
 70
     1
102
RTVSPropertyOp43
 70
     1
102
RTVSPropertyOp44
 70
     1
102
RTVSPropertyOp45
 70
     1
102
RTVSPropertyOp46
 70
     1
102
RTVSPropertyOp47
 70
     1
102
RTVSPropertyOp48
 70
     1
102
RTVSPropertyOp49
 70
     1
102
RTVSPropertyOp50
 70
     1
102
RTVSPropertyOp51
 70
     0
102
RTVSPropertyOp52
 70
     0
102
RTVSPropertyOp53
 70
     1
102
RTVSPropertyOp54
 70
     1
102
RTVSPropertyOp55
 70
     1
102
RTVSPropertyOp56
 70
     1
102
RTVSPropertyOp57
 70
     1
102
RTVSPropertyOp58
 70
     1
102
RTVSPropertyOp59
 70
     1
102
RTVSPropertyOp60
 70
     1
102
RTVSPropertyOp61
 70
     1
102
RTVSPropertyOp62
 70
     1
  0
XRECORD
  5
A63A
102
{ACAD_REACTORS
330
A639
102
}
330
A639
100
AcDbXrecord
280
     1
102
RTVSPost2010Prop28
280
     0
102
RTVSPost2010PropOp28
 70
     1
102
RTVSPost2010Prop29
280
     1
102
RTVSPost2010PropOp29
 70
     1
102
RTVSPost2010Prop30
280
     1
102
RTVSPost2010PropOp30
 70
     1
102
RTVSPost2010Prop31
280
     0
102
RTVSPost2010PropOp31
 70
     1
102
RTVSPost2010Prop32
280
     0
102
RTVSPost2010PropOp32
 70
     1
102
RTVSPost2010Prop33
280
     0
102
RTVSPost2010PropOp33
 70
     1
102
RTVSPost2010Prop34
280
     0
102
RTVSPost2010PropOp34
 70
     1
102
RTVSPost2010Prop35
280
     0
102
RTVSPost2010PropOp35
 70
     1
102
RTVSPost2010Prop36
280
     0
102
RTVSPost2010PropOp36
 70
     1
102
RTVSPost2010Prop37
 90
       50
102
RTVSPost2010PropOp37
 70
     0
102
RTVSPost2010Prop38
140
0.0
102
RTVSPost2010PropOp38
 70
     0
102
RTVSPost2010Prop39
140
1.0
102
RTVSPost2010PropOp39
 70
     0
102
RTVSPost2010Prop40
 90
        0
102
RTVSPost2010PropOp40
 70
     0
102
RTVSPost2010Prop41ColorIndex
 90
       18
102
RTVSPost2010Prop41ColorRGB
 90
        0
102
RTVSPost2010PropOp41
 70
     0
102
RTVSPost2010Prop42
 90
       50
102
RTVSPost2010PropOp42
 70
     0
102
RTVSPost2010Prop43
 90
        3
102
RTVSPost2010PropOp43
 70
     0
102
RTVSPost2010Prop44ColorIndex
 90
        5
102
RTVSPost2010Prop44ColorRGB
 90
      255
102
RTVSPost2010PropOp44
 70
     0
102
RTVSPost2010Prop45
280
     0
102
RTVSPost2010PropOp45
 70
     1
102
RTVSPost2010Prop46
 90
       50
102
RTVSPost2010PropOp46
 70
     0
102
RTVSPost2010Prop47
 90
       50
102
RTVSPost2010PropOp47
 70
     0
102
RTVSPost2010Prop48
 90
       50
102
RTVSPost2010PropOp48
 70
     0
102
RTVSPost2010Prop49
280
     0
102
RTVSPost2010PropOp49
 70
     1
102
RTVSPost2010Prop50
 90
       50
102
RTVSPost2010PropOp50
 70
     0
102
RTVSPost2010Prop51ColorIndex
 90
      256
102
RTVSPost2010Prop51ColorRGB
 90
-16777216
102
RTVSPost2010PropOp51
 70
     0
102
RTVSPost2010Prop52
140
1.0
102
RTVSPost2010PropOp52
 70
     0
102
RTVSPost2010Prop53
 90
        2
102
RTVSPost2010PropOp53
 70
     0
102
RTVSPost2010Prop54
  1
strokes_ogs.tif
102
RTVSPost2010PropOp54
 70
     0
102
RTVSPost2010Prop55
280
     0
102
RTVSPost2010PropOp55
 70
     1
102
RTVSPost2010Prop56
140
1.0
102
RTVSPost2010PropOp56
 70
     0
102
RTVSPost2010Prop57
140
1.0
102
RTVSPost2010PropOp57
 70
     0
102
RTVSPropertyOp0
 70
     0
102
RTVSPropertyOp1
 70
     0
102
RTVSPropertyOp2
 70
     0
102
RTVSPropertyOp3
 70
     0
102
RTVSPropertyOp4
 70
     0
102
RTVSPropertyOp5
 70
     0
102
RTVSPropertyOp6
 70
     0
102
RTVSPropertyOp7
 70
     0
102
RTVSPropertyOp8
 70
     0
102
RTVSPropertyOp9
 70
     0
102
RTVSPropertyOp10
 70
     0
102
RTVSPropertyOp11
 70
     0
102
RTVSPropertyOp12
 70
     0
102
RTVSPropertyOp13
 70
     0
102
RTVSPropertyOp14
 70
     2
102
RTVSPropertyOp15
 70
     0
102
RTVSPropertyOp16
 70
     0
102
RTVSPropertyOp17
 70
     0
102
RTVSPropertyOp18
 70
     0
102
RTVSPropertyOp19
 70
     0
102
RTVSPropertyOp20
 70
     0
102
RTVSPropertyOp21
 70
     0
102
RTVSPropertyOp22
 70
     0
102
RTVSPropertyOp23
 70
     0
102
RTVSPropertyOp24
 70
     0
102
RTVSPropertyOp25
 70
     0
102
RTVSPropertyOp26
 70
     0
102
RTVSPropertyOp27
 70
     0
102
RTVSPropertyOp28
 70
     1
102
RTVSPropertyOp29
 70
     1
102
RTVSPropertyOp30
 70
     1
102
RTVSPropertyOp31
 70
     1
102
RTVSPropertyOp32
 70
     1
102
RTVSPropertyOp33
 70
     1
102
RTVSPropertyOp34
 70
     1
102
RTVSPropertyOp35
 70
     1
102
RTVSPropertyOp36
 70
     1
102
RTVSPropertyOp37
 70
     0
102
RTVSPropertyOp38
 70
     0
102
RTVSPropertyOp39
 70
     0
102
RTVSPropertyOp40
 70
     0
102
RTVSPropertyOp41
 70
     0
102
RTVSPropertyOp42
 70
     0
102
RTVSPropertyOp43
 70
     0
102
RTVSPropertyOp44
 70
     0
102
RTVSPropertyOp45
 70
     1
102
RTVSPropertyOp46
 70
     0
102
RTVSPropertyOp47
 70
     0
102
RTVSPropertyOp48
 70
     0
102
RTVSPropertyOp49
 70
     1
102
RTVSPropertyOp50
 70
     0
102
RTVSPropertyOp51
 70
     0
102
RTVSPropertyOp52
 70
     0
102
RTVSPropertyOp53
 70
     0
102
RTVSPropertyOp54
 70
     0
102
RTVSPropertyOp55
 70
     1
102
RTVSPropertyOp56
 70
     0
102
RTVSPropertyOp57
 70
     0
102
RTVSPropertyOp58
 70
     0
102
RTVSPropertyOp59
 70
     0
102
RTVSPropertyOp60
 70
     0
102
RTVSPropertyOp61
 70
     0
102
RTVSPropertyOp62
 70
     0
  0
XRECORD
  5
A620
102
{ACAD_REACTORS
330
A61F
102
}
330
A61F
100
AcDbXrecord
280
     1
102
RTVSPost2010Prop28
280
     0
102
RTVSPost2010PropOp28
 70
     1
102
RTVSPost2010Prop29
280
     1
102
RTVSPost2010PropOp29
 70
     1
102
RTVSPost2010Prop30
280
     1
102
RTVSPost2010PropOp30
 70
     1
102
RTVSPost2010Prop31
280
     0
102
RTVSPost2010PropOp31
 70
     1
102
RTVSPost2010Prop32
280
     0
102
RTVSPost2010PropOp32
 70
     1
102
RTVSPost2010Prop33
280
     0
102
RTVSPost2010PropOp33
 70
     1
102
RTVSPost2010Prop34
280
     0
102
RTVSPost2010PropOp34
 70
     1
102
RTVSPost2010Prop35
280
     0
102
RTVSPost2010PropOp35
 70
     1
102
RTVSPost2010Prop36
280
     0
102
RTVSPost2010PropOp36
 70
     1
102
RTVSPost2010Prop37
 90
       50
102
RTVSPost2010PropOp37
 70
     1
102
RTVSPost2010Prop38
140
0.0
102
RTVSPost2010PropOp38
 70
     1
102
RTVSPost2010Prop39
140
1.0
102
RTVSPost2010PropOp39
 70
     1
102
RTVSPost2010Prop40
 90
        0
102
RTVSPost2010PropOp40
 70
     1
102
RTVSPost2010Prop41ColorIndex
 90
       18
102
RTVSPost2010Prop41ColorRGB
 90
        0
102
RTVSPost2010PropOp41
 70
     1
102
RTVSPost2010Prop42
 90
       50
102
RTVSPost2010PropOp42
 70
     1
102
RTVSPost2010Prop43
 90
        3
102
RTVSPost2010PropOp43
 70
     1
102
RTVSPost2010Prop44ColorIndex
 90
        5
102
RTVSPost2010Prop44ColorRGB
 90
      255
102
RTVSPost2010PropOp44
 70
     1
102
RTVSPost2010Prop45
280
     0
102
RTVSPost2010PropOp45
 70
     1
102
RTVSPost2010Prop46
 90
       50
102
RTVSPost2010PropOp46
 70
     1
102
RTVSPost2010Prop47
 90
       50
102
RTVSPost2010PropOp47
 70
     1
102
RTVSPost2010Prop48
 90
       50
102
RTVSPost2010PropOp48
 70
     1
102
RTVSPost2010Prop49
280
     0
102
RTVSPost2010PropOp49
 70
     1
102
RTVSPost2010Prop50
 90
       50
102
RTVSPost2010PropOp50
 70
     1
102
RTVSPost2010Prop51ColorIndex
 90
      256
102
RTVSPost2010Prop51ColorRGB
 90
-16777216
102
RTVSPost2010PropOp51
 70
     0
102
RTVSPost2010Prop52
140
1.0
102
RTVSPost2010PropOp52
 70
     0
102
RTVSPost2010Prop53
 90
        2
102
RTVSPost2010PropOp53
 70
     1
102
RTVSPost2010Prop54
  1
strokes_ogs.tif
102
RTVSPost2010PropOp54
 70
     1
102
RTVSPost2010Prop55
280
     0
102
RTVSPost2010PropOp55
 70
     1
102
RTVSPost2010Prop56
140
1.0
102
RTVSPost2010PropOp56
 70
     1
102
RTVSPost2010Prop57
140
1.0
102
RTVSPost2010PropOp57
 70
     1
102
RTVSPropertyOp0
 70
     1
102
RTVSPropertyOp1
 70
     1
102
RTVSPropertyOp2
 70
     1
102
RTVSPropertyOp3
 70
     1
102
RTVSPropertyOp4
 70
     1
102
RTVSPropertyOp5
 70
     1
102
RTVSPropertyOp6
 70
     1
102
RTVSPropertyOp7
 70
     1
102
RTVSPropertyOp8
 70
     1
102
RTVSPropertyOp9
 70
     1
102
RTVSPropertyOp10
 70
     1
102
RTVSPropertyOp11
 70
     1
102
RTVSPropertyOp12
 70
     1
102
RTVSPropertyOp13
 70
     1
102
RTVSPropertyOp14
 70
     1
102
RTVSPropertyOp15
 70
     1
102
RTVSPropertyOp16
 70
     1
102
RTVSPropertyOp17
 70
     1
102
RTVSPropertyOp18
 70
     1
102
RTVSPropertyOp19
 70
     1
102
RTVSPropertyOp20
 70
     1
102
RTVSPropertyOp21
 70
     1
102
RTVSPropertyOp22
 70
     1
102
RTVSPropertyOp23
 70
     1
102
RTVSPropertyOp24
 70
     1
102
RTVSPropertyOp25
 70
     1
102
RTVSPropertyOp26
 70
     1
102
RTVSPropertyOp27
 70
     1
102
RTVSPropertyOp28
 70
     1
102
RTVSPropertyOp29
 70
     1
102
RTVSPropertyOp30
 70
     1
102
RTVSPropertyOp31
 70
     1
102
RTVSPropertyOp32
 70
     1
102
RTVSPropertyOp33
 70
     1
102
RTVSPropertyOp34
 70
     1
102
RTVSPropertyOp35
 70
     1
102
RTVSPropertyOp36
 70
     1
102
RTVSPropertyOp37
 70
     1
102
RTVSPropertyOp38
 70
     1
102
RTVSPropertyOp39
 70
     1
102
RTVSPropertyOp40
 70
     1
102
RTVSPropertyOp41
 70
     1
102
RTVSPropertyOp42
 70
     1
102
RTVSPropertyOp43
 70
     1
102
RTVSPropertyOp44
 70
     1
102
RTVSPropertyOp45
 70
     1
102
RTVSPropertyOp46
 70
     1
102
RTVSPropertyOp47
 70
     1
102
RTVSPropertyOp48
 70
     1
102
RTVSPropertyOp49
 70
     1
102
RTVSPropertyOp50
 70
     1
102
RTVSPropertyOp51
 70
     0
102
RTVSPropertyOp52
 70
     0
102
RTVSPropertyOp53
 70
     1
102
RTVSPropertyOp54
 70
     1
102
RTVSPropertyOp55
 70
     1
102
RTVSPropertyOp56
 70
     1
102
RTVSPropertyOp57
 70
     1
102
RTVSPropertyOp58
 70
     1
102
RTVSPropertyOp59
 70
     1
102
RTVSPropertyOp60
 70
     1
102
RTVSPropertyOp61
 70
     1
102
RTVSPropertyOp62
 70
     1
  0
XRECORD
  5
A636
102
{ACAD_REACTORS
330
A635
102
}
330
A635
100
AcDbXrecord
280
     1
102
RTVSPost2010Prop28
280
     0
102
RTVSPost2010PropOp28
 70
     1
102
RTVSPost2010Prop29
280
     1
102
RTVSPost2010PropOp29
 70
     1
102
RTVSPost2010Prop30
280
     1
102
RTVSPost2010PropOp30
 70
     1
102
RTVSPost2010Prop31
280
     0
102
RTVSPost2010PropOp31
 70
     1
102
RTVSPost2010Prop32
280
     0
102
RTVSPost2010PropOp32
 70
     1
102
RTVSPost2010Prop33
280
     0
102
RTVSPost2010PropOp33
 70
     1
102
RTVSPost2010Prop34
280
     0
102
RTVSPost2010PropOp34
 70
     1
102
RTVSPost2010Prop35
280
     0
102
RTVSPost2010PropOp35
 70
     1
102
RTVSPost2010Prop36
280
     0
102
RTVSPost2010PropOp36
 70
     1
102
RTVSPost2010Prop37
 90
       50
102
RTVSPost2010PropOp37
 70
     1
102
RTVSPost2010Prop38
140
0.0
102
RTVSPost2010PropOp38
 70
     1
102
RTVSPost2010Prop39
140
1.0
102
RTVSPost2010PropOp39
 70
     1
102
RTVSPost2010Prop40
 90
        0
102
RTVSPost2010PropOp40
 70
     1
102
RTVSPost2010Prop41ColorIndex
 90
       18
102
RTVSPost2010Prop41ColorRGB
 90
        0
102
RTVSPost2010PropOp41
 70
     1
102
RTVSPost2010Prop42
 90
       50
102
RTVSPost2010PropOp42
 70
     1
102
RTVSPost2010Prop43
 90
        3
102
RTVSPost2010PropOp43
 70
     1
102
RTVSPost2010Prop44ColorIndex
 90
        5
102
RTVSPost2010Prop44ColorRGB
 90
      255
102
RTVSPost2010PropOp44
 70
     1
102
RTVSPost2010Prop45
280
     0
102
RTVSPost2010PropOp45
 70
     1
102
RTVSPost2010Prop46
 90
       50
102
RTVSPost2010PropOp46
 70
     1
102
RTVSPost2010Prop47
 90
       50
102
RTVSPost2010PropOp47
 70
     1
102
RTVSPost2010Prop48
 90
       50
102
RTVSPost2010PropOp48
 70
     1
102
RTVSPost2010Prop49
280
     0
102
RTVSPost2010PropOp49
 70
     1
102
RTVSPost2010Prop50
 90
       50
102
RTVSPost2010PropOp50
 70
     1
102
RTVSPost2010Prop51ColorIndex
 90
      256
102
RTVSPost2010Prop51ColorRGB
 90
-16777216
102
RTVSPost2010PropOp51
 70
     0
102
RTVSPost2010Prop52
140
1.0
102
RTVSPost2010PropOp52
 70
     0
102
RTVSPost2010Prop53
 90
        2
102
RTVSPost2010PropOp53
 70
     1
102
RTVSPost2010Prop54
  1
strokes_ogs.tif
102
RTVSPost2010PropOp54
 70
     1
102
RTVSPost2010Prop55
280
     0
102
RTVSPost2010PropOp55
 70
     1
102
RTVSPost2010Prop56
140
1.0
102
RTVSPost2010PropOp56
 70
     1
102
RTVSPost2010Prop57
140
1.0
102
RTVSPost2010PropOp57
 70
     1
102
RTVSPropertyOp0
 70
     1
102
RTVSPropertyOp1
 70
     1
102
RTVSPropertyOp2
 70
     1
102
RTVSPropertyOp3
 70
     1
102
RTVSPropertyOp4
 70
     1
102
RTVSPropertyOp5
 70
     1
102
RTVSPropertyOp6
 70
     1
102
RTVSPropertyOp7
 70
     1
102
RTVSPropertyOp8
 70
     1
102
RTVSPropertyOp9
 70
     1
102
RTVSPropertyOp10
 70
     1
102
RTVSPropertyOp11
 70
     1
102
RTVSPropertyOp12
 70
     1
102
RTVSPropertyOp13
 70
     1
102
RTVSPropertyOp14
 70
     1
102
RTVSPropertyOp15
 70
     1
102
RTVSPropertyOp16
 70
     1
102
RTVSPropertyOp17
 70
     1
102
RTVSPropertyOp18
 70
     1
102
RTVSPropertyOp19
 70
     1
102
RTVSPropertyOp20
 70
     1
102
RTVSPropertyOp21
 70
     1
102
RTVSPropertyOp22
 70
     1
102
RTVSPropertyOp23
 70
     1
102
RTVSPropertyOp24
 70
     1
102
RTVSPropertyOp25
 70
     1
102
RTVSPropertyOp26
 70
     1
102
RTVSPropertyOp27
 70
     1
102
RTVSPropertyOp28
 70
     1
102
RTVSPropertyOp29
 70
     1
102
RTVSPropertyOp30
 70
     1
102
RTVSPropertyOp31
 70
     1
102
RTVSPropertyOp32
 70
     1
102
RTVSPropertyOp33
 70
     1
102
RTVSPropertyOp34
 70
     1
102
RTVSPropertyOp35
 70
     1
102
RTVSPropertyOp36
 70
     1
102
RTVSPropertyOp37
 70
     1
102
RTVSPropertyOp38
 70
     1
102
RTVSPropertyOp39
 70
     1
102
RTVSPropertyOp40
 70
     1
102
RTVSPropertyOp41
 70
     1
102
RTVSPropertyOp42
 70
     1
102
RTVSPropertyOp43
 70
     1
102
RTVSPropertyOp44
 70
     1
102
RTVSPropertyOp45
 70
     1
102
RTVSPropertyOp46
 70
     1
102
RTVSPropertyOp47
 70
     1
102
RTVSPropertyOp48
 70
     1
102
RTVSPropertyOp49
 70
     1
102
RTVSPropertyOp50
 70
     1
102
RTVSPropertyOp51
 70
     0
102
RTVSPropertyOp52
 70
     0
102
RTVSPropertyOp53
 70
     1
102
RTVSPropertyOp54
 70
     1
102
RTVSPropertyOp55
 70
     1
102
RTVSPropertyOp56
 70
     1
102
RTVSPropertyOp57
 70
     1
102
RTVSPropertyOp58
 70
     1
102
RTVSPropertyOp59
 70
     1
102
RTVSPropertyOp60
 70
     1
102
RTVSPropertyOp61
 70
     1
102
RTVSPropertyOp62
 70
     1
  0
XRECORD
  5
A634
102
{ACAD_REACTORS
330
A633
102
}
330
A633
100
AcDbXrecord
280
     1
102
RTVSPost2010Prop28
280
     0
102
RTVSPost2010PropOp28
 70
     1
102
RTVSPost2010Prop29
280
     1
102
RTVSPost2010PropOp29
 70
     1
102
RTVSPost2010Prop30
280
     1
102
RTVSPost2010PropOp30
 70
     1
102
RTVSPost2010Prop31
280
     0
102
RTVSPost2010PropOp31
 70
     1
102
RTVSPost2010Prop32
280
     0
102
RTVSPost2010PropOp32
 70
     1
102
RTVSPost2010Prop33
280
     0
102
RTVSPost2010PropOp33
 70
     1
102
RTVSPost2010Prop34
280
     0
102
RTVSPost2010PropOp34
 70
     1
102
RTVSPost2010Prop35
280
     0
102
RTVSPost2010PropOp35
 70
     1
102
RTVSPost2010Prop36
280
     0
102
RTVSPost2010PropOp36
 70
     1
102
RTVSPost2010Prop37
 90
       50
102
RTVSPost2010PropOp37
 70
     1
102
RTVSPost2010Prop38
140
0.0
102
RTVSPost2010PropOp38
 70
     1
102
RTVSPost2010Prop39
140
1.0
102
RTVSPost2010PropOp39
 70
     1
102
RTVSPost2010Prop40
 90
        0
102
RTVSPost2010PropOp40
 70
     1
102
RTVSPost2010Prop41ColorIndex
 90
       18
102
RTVSPost2010Prop41ColorRGB
 90
        0
102
RTVSPost2010PropOp41
 70
     1
102
RTVSPost2010Prop42
 90
       50
102
RTVSPost2010PropOp42
 70
     1
102
RTVSPost2010Prop43
 90
        3
102
RTVSPost2010PropOp43
 70
     1
102
RTVSPost2010Prop44ColorIndex
 90
        5
102
RTVSPost2010Prop44ColorRGB
 90
      255
102
RTVSPost2010PropOp44
 70
     1
102
RTVSPost2010Prop45
280
     0
102
RTVSPost2010PropOp45
 70
     1
102
RTVSPost2010Prop46
 90
       50
102
RTVSPost2010PropOp46
 70
     1
102
RTVSPost2010Prop47
 90
       50
102
RTVSPost2010PropOp47
 70
     1
102
RTVSPost2010Prop48
 90
       50
102
RTVSPost2010PropOp48
 70
     1
102
RTVSPost2010Prop49
280
     0
102
RTVSPost2010PropOp49
 70
     1
102
RTVSPost2010Prop50
 90
       50
102
RTVSPost2010PropOp50
 70
     1
102
RTVSPost2010Prop51ColorIndex
 90
      256
102
RTVSPost2010Prop51ColorRGB
 90
-16777216
102
RTVSPost2010PropOp51
 70
     0
102
RTVSPost2010Prop52
140
1.0
102
RTVSPost2010PropOp52
 70
     0
102
RTVSPost2010Prop53
 90
        2
102
RTVSPost2010PropOp53
 70
     1
102
RTVSPost2010Prop54
  1
strokes_ogs.tif
102
RTVSPost2010PropOp54
 70
     1
102
RTVSPost2010Prop55
280
     0
102
RTVSPost2010PropOp55
 70
     1
102
RTVSPost2010Prop56
140
1.0
102
RTVSPost2010PropOp56
 70
     1
102
RTVSPost2010Prop57
140
1.0
102
RTVSPost2010PropOp57
 70
     1
102
RTVSPropertyOp0
 70
     1
102
RTVSPropertyOp1
 70
     1
102
RTVSPropertyOp2
 70
     1
102
RTVSPropertyOp3
 70
     1
102
RTVSPropertyOp4
 70
     1
102
RTVSPropertyOp5
 70
     1
102
RTVSPropertyOp6
 70
     1
102
RTVSPropertyOp7
 70
     1
102
RTVSPropertyOp8
 70
     1
102
RTVSPropertyOp9
 70
     1
102
RTVSPropertyOp10
 70
     1
102
RTVSPropertyOp11
 70
     1
102
RTVSPropertyOp12
 70
     1
102
RTVSPropertyOp13
 70
     1
102
RTVSPropertyOp14
 70
     1
102
RTVSPropertyOp15
 70
     1
102
RTVSPropertyOp16
 70
     1
102
RTVSPropertyOp17
 70
     1
102
RTVSPropertyOp18
 70
     1
102
RTVSPropertyOp19
 70
     1
102
RTVSPropertyOp20
 70
     1
102
RTVSPropertyOp21
 70
     1
102
RTVSPropertyOp22
 70
     1
102
RTVSPropertyOp23
 70
     1
102
RTVSPropertyOp24
 70
     1
102
RTVSPropertyOp25
 70
     1
102
RTVSPropertyOp26
 70
     1
102
RTVSPropertyOp27
 70
     1
102
RTVSPropertyOp28
 70
     1
102
RTVSPropertyOp29
 70
     1
102
RTVSPropertyOp30
 70
     1
102
RTVSPropertyOp31
 70
     1
102
RTVSPropertyOp32
 70
     1
102
RTVSPropertyOp33
 70
     1
102
RTVSPropertyOp34
 70
     1
102
RTVSPropertyOp35
 70
     1
102
RTVSPropertyOp36
 70
     1
102
RTVSPropertyOp37
 70
     1
102
RTVSPropertyOp38
 70
     1
102
RTVSPropertyOp39
 70
     1
102
RTVSPropertyOp40
 70
     1
102
RTVSPropertyOp41
 70
     1
102
RTVSPropertyOp42
 70
     1
102
RTVSPropertyOp43
 70
     1
102
RTVSPropertyOp44
 70
     1
102
RTVSPropertyOp45
 70
     1
102
RTVSPropertyOp46
 70
     1
102
RTVSPropertyOp47
 70
     1
102
RTVSPropertyOp48
 70
     1
102
RTVSPropertyOp49
 70
     1
102
RTVSPropertyOp50
 70
     1
102
RTVSPropertyOp51
 70
     0
102
RTVSPropertyOp52
 70
     0
102
RTVSPropertyOp53
 70
     1
102
RTVSPropertyOp54
 70
     1
102
RTVSPropertyOp55
 70
     1
102
RTVSPropertyOp56
 70
     1
102
RTVSPropertyOp57
 70
     1
102
RTVSPropertyOp58
 70
     1
102
RTVSPropertyOp59
 70
     1
102
RTVSPropertyOp60
 70
     1
102
RTVSPropertyOp61
 70
     1
102
RTVSPropertyOp62
 70
     1
  0
XRECORD
  5
A62E
102
{ACAD_REACTORS
330
A62D
102
}
330
A62D
100
AcDbXrecord
280
     1
102
RTVSPost2010Prop28
280
     0
102
RTVSPost2010PropOp28
 70
     1
102
RTVSPost2010Prop29
280
     1
102
RTVSPost2010PropOp29
 70
     1
102
RTVSPost2010Prop30
280
     1
102
RTVSPost2010PropOp30
 70
     1
102
RTVSPost2010Prop31
280
     0
102
RTVSPost2010PropOp31
 70
     1
102
RTVSPost2010Prop32
280
     0
102
RTVSPost2010PropOp32
 70
     1
102
RTVSPost2010Prop33
280
     0
102
RTVSPost2010PropOp33
 70
     1
102
RTVSPost2010Prop34
280
     0
102
RTVSPost2010PropOp34
 70
     1
102
RTVSPost2010Prop35
280
     0
102
RTVSPost2010PropOp35
 70
     1
102
RTVSPost2010Prop36
280
     0
102
RTVSPost2010PropOp36
 70
     1
102
RTVSPost2010Prop37
 90
       50
102
RTVSPost2010PropOp37
 70
     1
102
RTVSPost2010Prop38
140
0.0
102
RTVSPost2010PropOp38
 70
     1
102
RTVSPost2010Prop39
140
1.0
102
RTVSPost2010PropOp39
 70
     1
102
RTVSPost2010Prop40
 90
        0
102
RTVSPost2010PropOp40
 70
     1
102
RTVSPost2010Prop41ColorIndex
 90
       18
102
RTVSPost2010Prop41ColorRGB
 90
        0
102
RTVSPost2010PropOp41
 70
     1
102
RTVSPost2010Prop42
 90
       50
102
RTVSPost2010PropOp42
 70
     1
102
RTVSPost2010Prop43
 90
        3
102
RTVSPost2010PropOp43
 70
     1
102
RTVSPost2010Prop44ColorIndex
 90
        5
102
RTVSPost2010Prop44ColorRGB
 90
      255
102
RTVSPost2010PropOp44
 70
     1
102
RTVSPost2010Prop45
280
     0
102
RTVSPost2010PropOp45
 70
     1
102
RTVSPost2010Prop46
 90
       50
102
RTVSPost2010PropOp46
 70
     1
102
RTVSPost2010Prop47
 90
       50
102
RTVSPost2010PropOp47
 70
     1
102
RTVSPost2010Prop48
 90
       50
102
RTVSPost2010PropOp48
 70
     1
102
RTVSPost2010Prop49
280
     0
102
RTVSPost2010PropOp49
 70
     1
102
RTVSPost2010Prop50
 90
       50
102
RTVSPost2010PropOp50
 70
     1
102
RTVSPost2010Prop51ColorIndex
 90
      256
102
RTVSPost2010Prop51ColorRGB
 90
-16777216
102
RTVSPost2010PropOp51
 70
     0
102
RTVSPost2010Prop52
140
1.0
102
RTVSPost2010PropOp52
 70
     0
102
RTVSPost2010Prop53
 90
        2
102
RTVSPost2010PropOp53
 70
     1
102
RTVSPost2010Prop54
  1
strokes_ogs.tif
102
RTVSPost2010PropOp54
 70
     1
102
RTVSPost2010Prop55
280
     0
102
RTVSPost2010PropOp55
 70
     1
102
RTVSPost2010Prop56
140
1.0
102
RTVSPost2010PropOp56
 70
     1
102
RTVSPost2010Prop57
140
1.0
102
RTVSPost2010PropOp57
 70
     1
102
RTVSPropertyOp0
 70
     1
102
RTVSPropertyOp1
 70
     1
102
RTVSPropertyOp2
 70
     1
102
RTVSPropertyOp3
 70
     1
102
RTVSPropertyOp4
 70
     1
102
RTVSPropertyOp5
 70
     1
102
RTVSPropertyOp6
 70
     1
102
RTVSPropertyOp7
 70
     1
102
RTVSPropertyOp8
 70
     1
102
RTVSPropertyOp9
 70
     1
102
RTVSPropertyOp10
 70
     1
102
RTVSPropertyOp11
 70
     1
102
RTVSPropertyOp12
 70
     1
102
RTVSPropertyOp13
 70
     1
102
RTVSPropertyOp14
 70
     1
102
RTVSPropertyOp15
 70
     1
102
RTVSPropertyOp16
 70
     1
102
RTVSPropertyOp17
 70
     1
102
RTVSPropertyOp18
 70
     1
102
RTVSPropertyOp19
 70
     1
102
RTVSPropertyOp20
 70
     1
102
RTVSPropertyOp21
 70
     1
102
RTVSPropertyOp22
 70
     1
102
RTVSPropertyOp23
 70
     1
102
RTVSPropertyOp24
 70
     1
102
RTVSPropertyOp25
 70
     1
102
RTVSPropertyOp26
 70
     1
102
RTVSPropertyOp27
 70
     1
102
RTVSPropertyOp28
 70
     1
102
RTVSPropertyOp29
 70
     1
102
RTVSPropertyOp30
 70
     1
102
RTVSPropertyOp31
 70
     1
102
RTVSPropertyOp32
 70
     1
102
RTVSPropertyOp33
 70
     1
102
RTVSPropertyOp34
 70
     1
102
RTVSPropertyOp35
 70
     1
102
RTVSPropertyOp36
 70
     1
102
RTVSPropertyOp37
 70
     1
102
RTVSPropertyOp38
 70
     1
102
RTVSPropertyOp39
 70
     1
102
RTVSPropertyOp40
 70
     1
102
RTVSPropertyOp41
 70
     1
102
RTVSPropertyOp42
 70
     1
102
RTVSPropertyOp43
 70
     1
102
RTVSPropertyOp44
 70
     1
102
RTVSPropertyOp45
 70
     1
102
RTVSPropertyOp46
 70
     1
102
RTVSPropertyOp47
 70
     1
102
RTVSPropertyOp48
 70
     1
102
RTVSPropertyOp49
 70
     1
102
RTVSPropertyOp50
 70
     1
102
RTVSPropertyOp51
 70
     0
102
RTVSPropertyOp52
 70
     0
102
RTVSPropertyOp53
 70
     1
102
RTVSPropertyOp54
 70
     1
102
RTVSPropertyOp55
 70
     1
102
RTVSPropertyOp56
 70
     1
102
RTVSPropertyOp57
 70
     1
102
RTVSPropertyOp58
 70
     1
102
RTVSPropertyOp59
 70
     1
102
RTVSPropertyOp60
 70
     1
102
RTVSPropertyOp61
 70
     1
102
RTVSPropertyOp62
 70
     1
  0
XRECORD
  5
A630
102
{ACAD_REACTORS
330
A62F
102
}
330
A62F
100
AcDbXrecord
280
     1
102
RTVSPost2010Prop28
280
     0
102
RTVSPost2010PropOp28
 70
     1
102
RTVSPost2010Prop29
280
     1
102
RTVSPost2010PropOp29
 70
     1
102
RTVSPost2010Prop30
280
     1
102
RTVSPost2010PropOp30
 70
     1
102
RTVSPost2010Prop31
280
     0
102
RTVSPost2010PropOp31
 70
     1
102
RTVSPost2010Prop32
280
     0
102
RTVSPost2010PropOp32
 70
     1
102
RTVSPost2010Prop33
280
     0
102
RTVSPost2010PropOp33
 70
     1
102
RTVSPost2010Prop34
280
     0
102
RTVSPost2010PropOp34
 70
     1
102
RTVSPost2010Prop35
280
     0
102
RTVSPost2010PropOp35
 70
     1
102
RTVSPost2010Prop36
280
     0
102
RTVSPost2010PropOp36
 70
     1
102
RTVSPost2010Prop37
 90
       50
102
RTVSPost2010PropOp37
 70
     1
102
RTVSPost2010Prop38
140
0.0
102
RTVSPost2010PropOp38
 70
     1
102
RTVSPost2010Prop39
140
1.0
102
RTVSPost2010PropOp39
 70
     1
102
RTVSPost2010Prop40
 90
        0
102
RTVSPost2010PropOp40
 70
     1
102
RTVSPost2010Prop41ColorIndex
 90
       18
102
RTVSPost2010Prop41ColorRGB
 90
        0
102
RTVSPost2010PropOp41
 70
     1
102
RTVSPost2010Prop42
 90
       50
102
RTVSPost2010PropOp42
 70
     1
102
RTVSPost2010Prop43
 90
        3
102
RTVSPost2010PropOp43
 70
     1
102
RTVSPost2010Prop44ColorIndex
 90
        5
102
RTVSPost2010Prop44ColorRGB
 90
      255
102
RTVSPost2010PropOp44
 70
     1
102
RTVSPost2010Prop45
280
     0
102
RTVSPost2010PropOp45
 70
     1
102
RTVSPost2010Prop46
 90
       50
102
RTVSPost2010PropOp46
 70
     1
102
RTVSPost2010Prop47
 90
       50
102
RTVSPost2010PropOp47
 70
     1
102
RTVSPost2010Prop48
 90
       50
102
RTVSPost2010PropOp48
 70
     1
102
RTVSPost2010Prop49
280
     0
102
RTVSPost2010PropOp49
 70
     1
102
RTVSPost2010Prop50
 90
       50
102
RTVSPost2010PropOp50
 70
     1
102
RTVSPost2010Prop51ColorIndex
 90
      256
102
RTVSPost2010Prop51ColorRGB
 90
-16777216
102
RTVSPost2010PropOp51
 70
     0
102
RTVSPost2010Prop52
140
1.0
102
RTVSPost2010PropOp52
 70
     0
102
RTVSPost2010Prop53
 90
        2
102
RTVSPost2010PropOp53
 70
     1
102
RTVSPost2010Prop54
  1
strokes_ogs.tif
102
RTVSPost2010PropOp54
 70
     1
102
RTVSPost2010Prop55
280
     0
102
RTVSPost2010PropOp55
 70
     1
102
RTVSPost2010Prop56
140
1.0
102
RTVSPost2010PropOp56
 70
     1
102
RTVSPost2010Prop57
140
1.0
102
RTVSPost2010PropOp57
 70
     1
102
RTVSPropertyOp0
 70
     1
102
RTVSPropertyOp1
 70
     1
102
RTVSPropertyOp2
 70
     1
102
RTVSPropertyOp3
 70
     1
102
RTVSPropertyOp4
 70
     1
102
RTVSPropertyOp5
 70
     1
102
RTVSPropertyOp6
 70
     1
102
RTVSPropertyOp7
 70
     1
102
RTVSPropertyOp8
 70
     1
102
RTVSPropertyOp9
 70
     1
102
RTVSPropertyOp10
 70
     1
102
RTVSPropertyOp11
 70
     1
102
RTVSPropertyOp12
 70
     1
102
RTVSPropertyOp13
 70
     1
102
RTVSPropertyOp14
 70
     1
102
RTVSPropertyOp15
 70
     1
102
RTVSPropertyOp16
 70
     1
102
RTVSPropertyOp17
 70
     1
102
RTVSPropertyOp18
 70
     1
102
RTVSPropertyOp19
 70
     1
102
RTVSPropertyOp20
 70
     1
102
RTVSPropertyOp21
 70
     1
102
RTVSPropertyOp22
 70
     1
102
RTVSPropertyOp23
 70
     1
102
RTVSPropertyOp24
 70
     1
102
RTVSPropertyOp25
 70
     1
102
RTVSPropertyOp26
 70
     1
102
RTVSPropertyOp27
 70
     1
102
RTVSPropertyOp28
 70
     1
102
RTVSPropertyOp29
 70
     1
102
RTVSPropertyOp30
 70
     1
102
RTVSPropertyOp31
 70
     1
102
RTVSPropertyOp32
 70
     1
102
RTVSPropertyOp33
 70
     1
102
RTVSPropertyOp34
 70
     1
102
RTVSPropertyOp35
 70
     1
102
RTVSPropertyOp36
 70
     1
102
RTVSPropertyOp37
 70
     1
102
RTVSPropertyOp38
 70
     1
102
RTVSPropertyOp39
 70
     1
102
RTVSPropertyOp40
 70
     1
102
RTVSPropertyOp41
 70
     1
102
RTVSPropertyOp42
 70
     1
102
RTVSPropertyOp43
 70
     1
102
RTVSPropertyOp44
 70
     1
102
RTVSPropertyOp45
 70
     1
102
RTVSPropertyOp46
 70
     1
102
RTVSPropertyOp47
 70
     1
102
RTVSPropertyOp48
 70
     1
102
RTVSPropertyOp49
 70
     1
102
RTVSPropertyOp50
 70
     1
102
RTVSPropertyOp51
 70
     0
102
RTVSPropertyOp52
 70
     0
102
RTVSPropertyOp53
 70
     1
102
RTVSPropertyOp54
 70
     1
102
RTVSPropertyOp55
 70
     1
102
RTVSPropertyOp56
 70
     1
102
RTVSPropertyOp57
 70
     1
102
RTVSPropertyOp58
 70
     1
102
RTVSPropertyOp59
 70
     1
102
RTVSPropertyOp60
 70
     1
102
RTVSPropertyOp61
 70
     1
102
RTVSPropertyOp62
 70
     1
  0
XRECORD
  5
A626
102
{ACAD_REACTORS
330
A625
102
}
330
A625
100
AcDbXrecord
280
     1
102
RTVSPost2010Prop28
280
     0
102
RTVSPost2010PropOp28
 70
     1
102
RTVSPost2010Prop29
280
     1
102
RTVSPost2010PropOp29
 70
     1
102
RTVSPost2010Prop30
280
     1
102
RTVSPost2010PropOp30
 70
     1
102
RTVSPost2010Prop31
280
     0
102
RTVSPost2010PropOp31
 70
     1
102
RTVSPost2010Prop32
280
     0
102
RTVSPost2010PropOp32
 70
     1
102
RTVSPost2010Prop33
280
     0
102
RTVSPost2010PropOp33
 70
     1
102
RTVSPost2010Prop34
280
     0
102
RTVSPost2010PropOp34
 70
     1
102
RTVSPost2010Prop35
280
     0
102
RTVSPost2010PropOp35
 70
     1
102
RTVSPost2010Prop36
280
     0
102
RTVSPost2010PropOp36
 70
     1
102
RTVSPost2010Prop37
 90
       50
102
RTVSPost2010PropOp37
 70
     1
102
RTVSPost2010Prop38
140
0.0
102
RTVSPost2010PropOp38
 70
     1
102
RTVSPost2010Prop39
140
1.0
102
RTVSPost2010PropOp39
 70
     1
102
RTVSPost2010Prop40
 90
        0
102
RTVSPost2010PropOp40
 70
     1
102
RTVSPost2010Prop41ColorIndex
 90
       18
102
RTVSPost2010Prop41ColorRGB
 90
        0
102
RTVSPost2010PropOp41
 70
     1
102
RTVSPost2010Prop42
 90
       50
102
RTVSPost2010PropOp42
 70
     1
102
RTVSPost2010Prop43
 90
        3
102
RTVSPost2010PropOp43
 70
     1
102
RTVSPost2010Prop44ColorIndex
 90
        5
102
RTVSPost2010Prop44ColorRGB
 90
      255
102
RTVSPost2010PropOp44
 70
     1
102
RTVSPost2010Prop45
280
     0
102
RTVSPost2010PropOp45
 70
     1
102
RTVSPost2010Prop46
 90
       50
102
RTVSPost2010PropOp46
 70
     1
102
RTVSPost2010Prop47
 90
       50
102
RTVSPost2010PropOp47
 70
     1
102
RTVSPost2010Prop48
 90
       50
102
RTVSPost2010PropOp48
 70
     1
102
RTVSPost2010Prop49
280
     0
102
RTVSPost2010PropOp49
 70
     1
102
RTVSPost2010Prop50
 90
       50
102
RTVSPost2010PropOp50
 70
     1
102
RTVSPost2010Prop51ColorIndex
 90
      256
102
RTVSPost2010Prop51ColorRGB
 90
-16777216
102
RTVSPost2010PropOp51
 70
     0
102
RTVSPost2010Prop52
140
1.0
102
RTVSPost2010PropOp52
 70
     0
102
RTVSPost2010Prop53
 90
        2
102
RTVSPost2010PropOp53
 70
     1
102
RTVSPost2010Prop54
  1
strokes_ogs.tif
102
RTVSPost2010PropOp54
 70
     1
102
RTVSPost2010Prop55
280
     0
102
RTVSPost2010PropOp55
 70
     1
102
RTVSPost2010Prop56
140
1.0
102
RTVSPost2010PropOp56
 70
     1
102
RTVSPost2010Prop57
140
1.0
102
RTVSPost2010PropOp57
 70
     1
102
RTVSPropertyOp0
 70
     1
102
RTVSPropertyOp1
 70
     1
102
RTVSPropertyOp2
 70
     1
102
RTVSPropertyOp3
 70
     1
102
RTVSPropertyOp4
 70
     1
102
RTVSPropertyOp5
 70
     1
102
RTVSPropertyOp6
 70
     1
102
RTVSPropertyOp7
 70
     1
102
RTVSPropertyOp8
 70
     1
102
RTVSPropertyOp9
 70
     1
102
RTVSPropertyOp10
 70
     1
102
RTVSPropertyOp11
 70
     1
102
RTVSPropertyOp12
 70
     1
102
RTVSPropertyOp13
 70
     1
102
RTVSPropertyOp14
 70
     1
102
RTVSPropertyOp15
 70
     1
102
RTVSPropertyOp16
 70
     1
102
RTVSPropertyOp17
 70
     1
102
RTVSPropertyOp18
 70
     1
102
RTVSPropertyOp19
 70
     1
102
RTVSPropertyOp20
 70
     1
102
RTVSPropertyOp21
 70
     1
102
RTVSPropertyOp22
 70
     1
102
RTVSPropertyOp23
 70
     1
102
RTVSPropertyOp24
 70
     1
102
RTVSPropertyOp25
 70
     1
102
RTVSPropertyOp26
 70
     1
102
RTVSPropertyOp27
 70
     1
102
RTVSPropertyOp28
 70
     1
102
RTVSPropertyOp29
 70
     1
102
RTVSPropertyOp30
 70
     1
102
RTVSPropertyOp31
 70
     1
102
RTVSPropertyOp32
 70
     1
102
RTVSPropertyOp33
 70
     1
102
RTVSPropertyOp34
 70
     1
102
RTVSPropertyOp35
 70
     1
102
RTVSPropertyOp36
 70
     1
102
RTVSPropertyOp37
 70
     1
102
RTVSPropertyOp38
 70
     1
102
RTVSPropertyOp39
 70
     1
102
RTVSPropertyOp40
 70
     1
102
RTVSPropertyOp41
 70
     1
102
RTVSPropertyOp42
 70
     1
102
RTVSPropertyOp43
 70
     1
102
RTVSPropertyOp44
 70
     1
102
RTVSPropertyOp45
 70
     1
102
RTVSPropertyOp46
 70
     1
102
RTVSPropertyOp47
 70
     1
102
RTVSPropertyOp48
 70
     1
102
RTVSPropertyOp49
 70
     1
102
RTVSPropertyOp50
 70
     1
102
RTVSPropertyOp51
 70
     0
102
RTVSPropertyOp52
 70
     0
102
RTVSPropertyOp53
 70
     1
102
RTVSPropertyOp54
 70
     1
102
RTVSPropertyOp55
 70
     1
102
RTVSPropertyOp56
 70
     1
102
RTVSPropertyOp57
 70
     1
102
RTVSPropertyOp58
 70
     1
102
RTVSPropertyOp59
 70
     1
102
RTVSPropertyOp60
 70
     1
102
RTVSPropertyOp61
 70
     1
102
RTVSPropertyOp62
 70
     1
  0
XRECORD
  5
A61A
102
{ACAD_REACTORS
330
A619
102
}
330
A619
100
AcDbXrecord
280
     1
102
RTVSPost2010Prop28
280
     0
102
RTVSPost2010PropOp28
 70
     1
102
RTVSPost2010Prop29
280
     1
102
RTVSPost2010PropOp29
 70
     1
102
RTVSPost2010Prop30
280
     1
102
RTVSPost2010PropOp30
 70
     1
102
RTVSPost2010Prop31
280
     0
102
RTVSPost2010PropOp31
 70
     1
102
RTVSPost2010Prop32
280
     0
102
RTVSPost2010PropOp32
 70
     1
102
RTVSPost2010Prop33
280
     0
102
RTVSPost2010PropOp33
 70
     1
102
RTVSPost2010Prop34
280
     0
102
RTVSPost2010PropOp34
 70
     1
102
RTVSPost2010Prop35
280
     0
102
RTVSPost2010PropOp35
 70
     1
102
RTVSPost2010Prop36
280
     0
102
RTVSPost2010PropOp36
 70
     1
102
RTVSPost2010Prop37
 90
       50
102
RTVSPost2010PropOp37
 70
     1
102
RTVSPost2010Prop38
140
0.0
102
RTVSPost2010PropOp38
 70
     1
102
RTVSPost2010Prop39
140
1.0
102
RTVSPost2010PropOp39
 70
     1
102
RTVSPost2010Prop40
 90
        0
102
RTVSPost2010PropOp40
 70
     1
102
RTVSPost2010Prop41ColorIndex
 90
       18
102
RTVSPost2010Prop41ColorRGB
 90
        0
102
RTVSPost2010PropOp41
 70
     1
102
RTVSPost2010Prop42
 90
       50
102
RTVSPost2010PropOp42
 70
     1
102
RTVSPost2010Prop43
 90
        3
102
RTVSPost2010PropOp43
 70
     1
102
RTVSPost2010Prop44ColorIndex
 90
        5
102
RTVSPost2010Prop44ColorRGB
 90
      255
102
RTVSPost2010PropOp44
 70
     1
102
RTVSPost2010Prop45
280
     0
102
RTVSPost2010PropOp45
 70
     1
102
RTVSPost2010Prop46
 90
       50
102
RTVSPost2010PropOp46
 70
     1
102
RTVSPost2010Prop47
 90
       50
102
RTVSPost2010PropOp47
 70
     1
102
RTVSPost2010Prop48
 90
       50
102
RTVSPost2010PropOp48
 70
     1
102
RTVSPost2010Prop49
280
     0
102
RTVSPost2010PropOp49
 70
     1
102
RTVSPost2010Prop50
 90
       50
102
RTVSPost2010PropOp50
 70
     1
102
RTVSPost2010Prop51ColorIndex
 90
      256
102
RTVSPost2010Prop51ColorRGB
 90
-16777216
102
RTVSPost2010PropOp51
 70
     0
102
RTVSPost2010Prop52
140
1.0
102
RTVSPost2010PropOp52
 70
     0
102
RTVSPost2010Prop53
 90
        2
102
RTVSPost2010PropOp53
 70
     1
102
RTVSPost2010Prop54
  1
strokes_ogs.tif
102
RTVSPost2010PropOp54
 70
     1
102
RTVSPost2010Prop55
280
     0
102
RTVSPost2010PropOp55
 70
     1
102
RTVSPost2010Prop56
140
1.0
102
RTVSPost2010PropOp56
 70
     1
102
RTVSPost2010Prop57
140
1.0
102
RTVSPost2010PropOp57
 70
     1
102
RTVSPropertyOp0
 70
     1
102
RTVSPropertyOp1
 70
     1
102
RTVSPropertyOp2
 70
     1
102
RTVSPropertyOp3
 70
     1
102
RTVSPropertyOp4
 70
     1
102
RTVSPropertyOp5
 70
     1
102
RTVSPropertyOp6
 70
     1
102
RTVSPropertyOp7
 70
     1
102
RTVSPropertyOp8
 70
     1
102
RTVSPropertyOp9
 70
     1
102
RTVSPropertyOp10
 70
     1
102
RTVSPropertyOp11
 70
     1
102
RTVSPropertyOp12
 70
     1
102
RTVSPropertyOp13
 70
     1
102
RTVSPropertyOp14
 70
     1
102
RTVSPropertyOp15
 70
     1
102
RTVSPropertyOp16
 70
     1
102
RTVSPropertyOp17
 70
     1
102
RTVSPropertyOp18
 70
     1
102
RTVSPropertyOp19
 70
     1
102
RTVSPropertyOp20
 70
     1
102
RTVSPropertyOp21
 70
     1
102
RTVSPropertyOp22
 70
     1
102
RTVSPropertyOp23
 70
     1
102
RTVSPropertyOp24
 70
     1
102
RTVSPropertyOp25
 70
     1
102
RTVSPropertyOp26
 70
     1
102
RTVSPropertyOp27
 70
     1
102
RTVSPropertyOp28
 70
     1
102
RTVSPropertyOp29
 70
     1
102
RTVSPropertyOp30
 70
     1
102
RTVSPropertyOp31
 70
     1
102
RTVSPropertyOp32
 70
     1
102
RTVSPropertyOp33
 70
     1
102
RTVSPropertyOp34
 70
     1
102
RTVSPropertyOp35
 70
     1
102
RTVSPropertyOp36
 70
     1
102
RTVSPropertyOp37
 70
     1
102
RTVSPropertyOp38
 70
     1
102
RTVSPropertyOp39
 70
     1
102
RTVSPropertyOp40
 70
     1
102
RTVSPropertyOp41
 70
     1
102
RTVSPropertyOp42
 70
     1
102
RTVSPropertyOp43
 70
     1
102
RTVSPropertyOp44
 70
     1
102
RTVSPropertyOp45
 70
     1
102
RTVSPropertyOp46
 70
     1
102
RTVSPropertyOp47
 70
     1
102
RTVSPropertyOp48
 70
     1
102
RTVSPropertyOp49
 70
     1
102
RTVSPropertyOp50
 70
     1
102
RTVSPropertyOp51
 70
     0
102
RTVSPropertyOp52
 70
     0
102
RTVSPropertyOp53
 70
     1
102
RTVSPropertyOp54
 70
     1
102
RTVSPropertyOp55
 70
     1
102
RTVSPropertyOp56
 70
     1
102
RTVSPropertyOp57
 70
     1
102
RTVSPropertyOp58
 70
     1
102
RTVSPropertyOp59
 70
     1
102
RTVSPropertyOp60
 70
     1
102
RTVSPropertyOp61
 70
     1
102
RTVSPropertyOp62
 70
     1
  0
XRECORD
  5
A632
102
{ACAD_REACTORS
330
A631
102
}
330
A631
100
AcDbXrecord
280
     1
102
RTVSPost2010Prop28
280
     0
102
RTVSPost2010PropOp28
 70
     1
102
RTVSPost2010Prop29
280
     1
102
RTVSPost2010PropOp29
 70
     1
102
RTVSPost2010Prop30
280
     1
102
RTVSPost2010PropOp30
 70
     1
102
RTVSPost2010Prop31
280
     0
102
RTVSPost2010PropOp31
 70
     1
102
RTVSPost2010Prop32
280
     0
102
RTVSPost2010PropOp32
 70
     1
102
RTVSPost2010Prop33
280
     0
102
RTVSPost2010PropOp33
 70
     1
102
RTVSPost2010Prop34
280
     0
102
RTVSPost2010PropOp34
 70
     1
102
RTVSPost2010Prop35
280
     0
102
RTVSPost2010PropOp35
 70
     1
102
RTVSPost2010Prop36
280
     0
102
RTVSPost2010PropOp36
 70
     1
102
RTVSPost2010Prop37
 90
       50
102
RTVSPost2010PropOp37
 70
     1
102
RTVSPost2010Prop38
140
0.0
102
RTVSPost2010PropOp38
 70
     1
102
RTVSPost2010Prop39
140
1.0
102
RTVSPost2010PropOp39
 70
     1
102
RTVSPost2010Prop40
 90
        0
102
RTVSPost2010PropOp40
 70
     1
102
RTVSPost2010Prop41ColorIndex
 90
       18
102
RTVSPost2010Prop41ColorRGB
 90
        0
102
RTVSPost2010PropOp41
 70
     1
102
RTVSPost2010Prop42
 90
       50
102
RTVSPost2010PropOp42
 70
     1
102
RTVSPost2010Prop43
 90
        3
102
RTVSPost2010PropOp43
 70
     1
102
RTVSPost2010Prop44ColorIndex
 90
        5
102
RTVSPost2010Prop44ColorRGB
 90
      255
102
RTVSPost2010PropOp44
 70
     1
102
RTVSPost2010Prop45
280
     0
102
RTVSPost2010PropOp45
 70
     1
102
RTVSPost2010Prop46
 90
       50
102
RTVSPost2010PropOp46
 70
     1
102
RTVSPost2010Prop47
 90
       50
102
RTVSPost2010PropOp47
 70
     1
102
RTVSPost2010Prop48
 90
       50
102
RTVSPost2010PropOp48
 70
     1
102
RTVSPost2010Prop49
280
     0
102
RTVSPost2010PropOp49
 70
     1
102
RTVSPost2010Prop50
 90
       50
102
RTVSPost2010PropOp50
 70
     1
102
RTVSPost2010Prop51ColorIndex
 90
      256
102
RTVSPost2010Prop51ColorRGB
 90
-16777216
102
RTVSPost2010PropOp51
 70
     0
102
RTVSPost2010Prop52
140
1.0
102
RTVSPost2010PropOp52
 70
     0
102
RTVSPost2010Prop53
 90
        2
102
RTVSPost2010PropOp53
 70
     1
102
RTVSPost2010Prop54
  1
strokes_ogs.tif
102
RTVSPost2010PropOp54
 70
     1
102
RTVSPost2010Prop55
280
     0
102
RTVSPost2010PropOp55
 70
     1
102
RTVSPost2010Prop56
140
1.0
102
RTVSPost2010PropOp56
 70
     1
102
RTVSPost2010Prop57
140
1.0
102
RTVSPost2010PropOp57
 70
     1
102
RTVSPropertyOp0
 70
     1
102
RTVSPropertyOp1
 70
     1
102
RTVSPropertyOp2
 70
     1
102
RTVSPropertyOp3
 70
     1
102
RTVSPropertyOp4
 70
     1
102
RTVSPropertyOp5
 70
     1
102
RTVSPropertyOp6
 70
     1
102
RTVSPropertyOp7
 70
     1
102
RTVSPropertyOp8
 70
     1
102
RTVSPropertyOp9
 70
     1
102
RTVSPropertyOp10
 70
     1
102
RTVSPropertyOp11
 70
     1
102
RTVSPropertyOp12
 70
     1
102
RTVSPropertyOp13
 70
     1
102
RTVSPropertyOp14
 70
     1
102
RTVSPropertyOp15
 70
     1
102
RTVSPropertyOp16
 70
     1
102
RTVSPropertyOp17
 70
     1
102
RTVSPropertyOp18
 70
     1
102
RTVSPropertyOp19
 70
     1
102
RTVSPropertyOp20
 70
     1
102
RTVSPropertyOp21
 70
     1
102
RTVSPropertyOp22
 70
     1
102
RTVSPropertyOp23
 70
     1
102
RTVSPropertyOp24
 70
     1
102
RTVSPropertyOp25
 70
     1
102
RTVSPropertyOp26
 70
     1
102
RTVSPropertyOp27
 70
     1
102
RTVSPropertyOp28
 70
     1
102
RTVSPropertyOp29
 70
     1
102
RTVSPropertyOp30
 70
     1
102
RTVSPropertyOp31
 70
     1
102
RTVSPropertyOp32
 70
     1
102
RTVSPropertyOp33
 70
     1
102
RTVSPropertyOp34
 70
     1
102
RTVSPropertyOp35
 70
     1
102
RTVSPropertyOp36
 70
     1
102
RTVSPropertyOp37
 70
     1
102
RTVSPropertyOp38
 70
     1
102
RTVSPropertyOp39
 70
     1
102
RTVSPropertyOp40
 70
     1
102
RTVSPropertyOp41
 70
     1
102
RTVSPropertyOp42
 70
     1
102
RTVSPropertyOp43
 70
     1
102
RTVSPropertyOp44
 70
     1
102
RTVSPropertyOp45
 70
     1
102
RTVSPropertyOp46
 70
     1
102
RTVSPropertyOp47
 70
     1
102
RTVSPropertyOp48
 70
     1
102
RTVSPropertyOp49
 70
     1
102
RTVSPropertyOp50
 70
     1
102
RTVSPropertyOp51
 70
     0
102
RTVSPropertyOp52
 70
     0
102
RTVSPropertyOp53
 70
     1
102
RTVSPropertyOp54
 70
     1
102
RTVSPropertyOp55
 70
     1
102
RTVSPropertyOp56
 70
     1
102
RTVSPropertyOp57
 70
     1
102
RTVSPropertyOp58
 70
     1
102
RTVSPropertyOp59
 70
     1
102
RTVSPropertyOp60
 70
     1
102
RTVSPropertyOp61
 70
     1
102
RTVSPropertyOp62
 70
     1
  0
ENDSEC
  0
EOF
